  0
SECTION
  2
HEADER
  9
$ACADVER
  1
AC1018
  9
$ACADMAINTVER
 70
   104
  9
$DWGCODEPAGE
  3
ANSI_932
  9
$INSBASE
 10
0.0
 20
0.0
 30
0.0
  9
$EXTMIN
 10
-0.03458863
 20
-0.02459604
 30
-0.00000003
  9
$EXTMAX
 10
566.76060691
 20
403.0246098
 30
0.00000008
  9
$LIMMIN
 10
0.0
 20
0.0
  9
$LIMMAX
 10
420.0
 20
297.0
  9
$ORTHOMODE
 70
     0
  9
$REGENMODE
 70
     1
  9
$FILLMODE
 70
     1
  9
$QTEXTMODE
 70
     0
  9
$MIRRTEXT
 70
     0
  9
$LTSCALE
 40
1.0
  9
$ATTMODE
 70
     1
  9
$TEXTSIZE
 40
3.0
  9
$TRACEWID
 40
1.0
  9
$TEXTSTYLE
  7
STANDARD
  9
$CLAYER
  8
0
  9
$CELTYPE
  6
BYLAYER
  9
$CECOLOR
 62
   256
  9
$CELTSCALE
 40
1.0
  9
$DISPSILH
 70
     1
  9
$DIMSCALE
 40
1.0
  9
$DIMASZ
 40
1.5
  9
$DIMEXO
 40
2.0
  9
$DIMDLI
 40
10.0
  9
$DIMRND
 40
0.0
  9
$DIMDLE
 40
0.0
  9
$DIMEXE
 40
2.0
  9
$DIMTP
 40
0.0
  9
$DIMTM
 40
0.0
  9
$DIMTXT
 40
3.0
  9
$DIMCEN
 40
0.0
  9
$DIMTSZ
 40
0.0
  9
$DIMTOL
 70
     0
  9
$DIMLIM
 70
     0
  9
$DIMTIH
 70
     0
  9
$DIMTOH
 70
     0
  9
$DIMSE1
 70
     0
  9
$DIMSE2
 70
     0
  9
$DIMTAD
 70
     0
  9
$DIMZIN
 70
     0
  9
$DIMBLK
  1

  9
$DIMASO
 70
     1
  9
$DIMSHO
 70
     1
  9
$DIMPOST
  1

  9
$DIMAPOST
  1

  9
$DIMALT
 70
     0
  9
$DIMALTD
 70
     2
  9
$DIMALTF
 40
0.0394
  9
$DIMLFAC
 40
1.0
  9
$DIMTOFL
 70
     1
  9
$DIMTVP
 40
1.0
  9
$DIMTIX
 70
     0
  9
$DIMSOXD
 70
     0
  9
$DIMSAH
 70
     1
  9
$DIMBLK1
  1
DOT1
  9
$DIMBLK2
  1
DOT1
  9
$DIMSTYLE
  2
YKK_OSADOT
  9
$DIMCLRD
 70
     0
  9
$DIMCLRE
 70
     0
  9
$DIMCLRT
 70
     0
  9
$DIMTFAC
 40
1.0
  9
$DIMGAP
 40
0.01
  9
$DIMJUST
 70
     0
  9
$DIMSD1
 70
     0
  9
$DIMSD2
 70
     0
  9
$DIMTOLJ
 70
     1
  9
$DIMTZIN
 70
    12
  9
$DIMALTZ
 70
    12
  9
$DIMALTTZ
 70
    12
  9
$DIMUPT
 70
     0
  9
$DIMDEC
 70
     4
  9
$DIMTDEC
 70
     4
  9
$DIMALTU
 70
     2
  9
$DIMALTTD
 70
     2
  9
$DIMTXSTY
  7
STANDARD
  9
$DIMAUNIT
 70
     0
  9
$DIMADEC
 70
     0
  9
$DIMALTRND
 40
0.0
  9
$DIMAZIN
 70
     0
  9
$DIMDSEP
 70
    46
  9
$DIMATFIT
 70
     3
  9
$DIMFRAC
 70
     0
  9
$DIMLDRBLK
  1

  9
$DIMLUNIT
 70
     2
  9
$DIMLWD
 70
    -2
  9
$DIMLWE
 70
    -2
  9
$DIMTMOVE
 70
     2
  9
$LUNITS
 70
     2
  9
$LUPREC
 70
     4
  9
$SKETCHINC
 40
1.0
  9
$FILLETRAD
 40
0.0
  9
$AUNITS
 70
     0
  9
$AUPREC
 70
     0
  9
$MENU
  1
.
  9
$ELEVATION
 40
0.0
  9
$PELEVATION
 40
0.0
  9
$THICKNESS
 40
0.0
  9
$LIMCHECK
 70
     0
  9
$CHAMFERA
 40
0.0
  9
$CHAMFERB
 40
0.0
  9
$CHAMFERC
 40
0.0
  9
$CHAMFERD
 40
0.0
  9
$SKPOLY
 70
     0
  9
$TDCREATE
 40
2452591.511588311
  9
$TDUCREATE
 40
2452591.136588310
  9
$TDUPDATE
 40
2457151.456920035
  9
$TDUUPDATE
 40
2457151.081920035
  9
$TDINDWG
 40
0.0048923958
  9
$TDUSRTIMER
 40
0.0048923958
  9
$USRTIMER
 70
     1
  9
$ANGBASE
 50
0.0
  9
$ANGDIR
 70
     0
  9
$PDMODE
 70
     0
  9
$PDSIZE
 40
0.0
  9
$PLINEWID
 40
0.0
  9
$SPLFRAME
 70
     0
  9
$SPLINETYPE
 70
     6
  9
$SPLINESEGS
 70
     8
  9
$HANDSEED
  5
4E6
  9
$SURFTAB1
 70
     6
  9
$SURFTAB2
 70
     6
  9
$SURFTYPE
 70
     6
  9
$SURFU
 70
     6
  9
$SURFV
 70
     6
  9
$UCSBASE
  2

  9
$UCSNAME
  2

  9
$UCSORG
 10
0.0
 20
0.0
 30
0.0
  9
$UCSXDIR
 10
1.0
 20
0.0
 30
0.0
  9
$UCSYDIR
 10
0.0
 20
1.0
 30
0.0
  9
$UCSORTHOREF
  2

  9
$UCSORTHOVIEW
 70
     0
  9
$UCSORGTOP
 10
0.0
 20
0.0
 30
0.0
  9
$UCSORGBOTTOM
 10
0.0
 20
0.0
 30
0.0
  9
$UCSORGLEFT
 10
0.0
 20
0.0
 30
0.0
  9
$UCSORGRIGHT
 10
0.0
 20
0.0
 30
0.0
  9
$UCSORGFRONT
 10
0.0
 20
0.0
 30
0.0
  9
$UCSORGBACK
 10
0.0
 20
0.0
 30
0.0
  9
$PUCSBASE
  2

  9
$PUCSNAME
  2

  9
$PUCSORG
 10
0.0
 20
0.0
 30
0.0
  9
$PUCSXDIR
 10
1.0
 20
0.0
 30
0.0
  9
$PUCSYDIR
 10
0.0
 20
1.0
 30
0.0
  9
$PUCSORTHOREF
  2

  9
$PUCSORTHOVIEW
 70
     0
  9
$PUCSORGTOP
 10
0.0
 20
0.0
 30
0.0
  9
$PUCSORGBOTTOM
 10
0.0
 20
0.0
 30
0.0
  9
$PUCSORGLEFT
 10
0.0
 20
0.0
 30
0.0
  9
$PUCSORGRIGHT
 10
0.0
 20
0.0
 30
0.0
  9
$PUCSORGFRONT
 10
0.0
 20
0.0
 30
0.0
  9
$PUCSORGBACK
 10
0.0
 20
0.0
 30
0.0
  9
$USERI1
 70
     0
  9
$USERI2
 70
     1
  9
$USERI3
 70
     0
  9
$USERI4
 70
     0
  9
$USERI5
 70
     0
  9
$USERR1
 40
0.0
  9
$USERR2
 40
0.0
  9
$USERR3
 40
0.0
  9
$USERR4
 40
0.0
  9
$USERR5
 40
0.0
  9
$WORLDVIEW
 70
     1
  9
$SHADEDGE
 70
     3
  9
$SHADEDIF
 70
    70
  9
$TILEMODE
 70
     1
  9
$MAXACTVP
 70
    48
  9
$PINSBASE
 10
0.0
 20
0.0
 30
0.0
  9
$PLIMCHECK
 70
     0
  9
$PEXTMIN
 10
1.00000000E+20
 20
1.00000000E+20
 30
1.00000000E+20
  9
$PEXTMAX
 10
-1.00000000E+20
 20
-1.00000000E+20
 30
-1.00000000E+20
  9
$PLIMMIN
 10
0.0
 20
0.0
  9
$PLIMMAX
 10
420.0
 20
297.0
  9
$UNITMODE
 70
     0
  9
$VISRETAIN
 70
     1
  9
$PLINEGEN
 70
     0
  9
$PSLTSCALE
 70
     1
  9
$TREEDEPTH
 70
  3020
  9
$CMLSTYLE
  2
STANDARD
  9
$CMLJUST
 70
     0
  9
$CMLSCALE
 40
1.0
  9
$PROXYGRAPHICS
 70
     1
  9
$MEASUREMENT
 70
     1
  9
$CELWEIGHT
370
    -1
  9
$ENDCAPS
280
     0
  9
$JOINSTYLE
280
     0
  9
$LWDISPLAY
290
     0
  9
$INSUNITS
 70
     0
  9
$HYPERLINKBASE
  1

  9
$STYLESHEET
  1

  9
$XEDIT
290
     1
  9
$CEPSNTYPE
380
     0
  9
$PSTYLEMODE
290
     1
  9
$FINGERPRINTGUID
  2
{82026F1F-5FA7-4031-A63A-C1A999FF7F21}
  9
$VERSIONGUID
  2
{08CD649A-4181-410A-8B51-6C9181F3AE39}
  9
$EXTNAMES
290
     1
  9
$PSVPSCALE
 40
0.0
  9
$OLESTARTUP
290
     0
  9
$SORTENTS
280
   127
  9
$INDEXCTL
280
     0
  9
$HIDETEXT
280
     0
  9
$XCLIPFRAME
290
     0
  9
$HALOGAP
280
     0
  9
$OBSCOLOR
 70
   257
  9
$OBSLTYPE
280
     0
  9
$INTERSECTIONDISPLAY
280
     0
  9
$INTERSECTIONCOLOR
 70
   257
  9
$DIMASSOC
280
     1
  9
$PROJECTNAME
  1

  0
ENDSEC
  0
SECTION
  2
CLASSES
  0
CLASS
  1
DICTIONARYVAR
  2
AcDbDictionaryVar
  3
ObjectDBX Classes
 90
        0
 91
        7
280
     0
281
     0
  0
CLASS
  1
ACDBDICTIONARYWDFLT
  2
AcDbDictionaryWithDefault
  3
ObjectDBX Classes
 90
        0
 91
        1
280
     1
281
     0
  0
CLASS
  1
MATERIAL
  2
AcDbMaterial
  3
ObjectDBX Classes
 90
     1153
 91
        3
280
     0
281
     0
  0
CLASS
  1
VISUALSTYLE
  2
AcDbVisualStyle
  3
ObjectDBX Classes
 90
     4095
 91
       24
280
     0
281
     0
  0
CLASS
  1
TABLESTYLE
  2
AcDbTableStyle
  3
ObjectDBX Classes
 90
     4095
 91
        1
280
     0
281
     0
  0
CLASS
  1
SCALE
  2
AcDbScale
  3
ObjectDBX Classes
 90
     1153
 91
       17
280
     0
281
     0
  0
CLASS
  1
MLEADERSTYLE
  2
AcDbMLeaderStyle
  3
ACDB_MLEADERSTYLE_CLASS
 90
     4095
 91
        1
280
     0
281
     0
  0
CLASS
  1
ACDBSECTIONVIEWSTYLE
  2
AcDbSectionViewStyle
  3
ObjectDBX Classes
 90
     1025
 91
        1
280
     0
281
     0
  0
CLASS
  1
ACDBDETAILVIEWSTYLE
  2
AcDbDetailViewStyle
  3
ObjectDBX Classes
 90
     1025
 91
        1
280
     0
281
     0
  0
CLASS
  1
CELLSTYLEMAP
  2
AcDbCellStyleMap
  3
ObjectDBX Classes
 90
     1152
 91
        2
280
     0
281
     0
  0
ENDSEC
  0
SECTION
  2
TABLES
  0
TABLE
  2
VPORT
  5
16
330
0
100
AcDbSymbolTable
 70
     1
  0
VPORT
  5
404
330
16
100
AcDbSymbolTableRecord
100
AcDbViewportTableRecord
  2
*ACTIVE
 70
     0
 10
0.0
 20
0.0
 11
1.0
 21
1.0
 12
283.36300914
 22
201.50000688
 13
0.0
 23
0.0
 14
10.0
 24
10.0
 15
10.0
 25
10.0
 16
0.0
 26
0.0
 36
1.0
 17
0.0
 27
0.0
 37
0.0
 40
406.54890951
 41
1.45652174
 42
50.0
 43
0.0
 44
0.0
 50
0.0
 51
0.0
 71
     0
 72
  1000
 73
     1
 74
     0
 75
     0
 76
     0
 77
     0
 78
     0
281
     0
 65
     1
110
0.0
120
0.0
130
0.0
111
1.0
121
0.0
131
0.0
112
0.0
122
1.0
132
0.0
 79
     0
146
0.0
1001
ACAD_NAV_VCDISPLAY
1070
     1
  0
ENDTAB
  0
TABLE
  2
LTYPE
  5
11
330
0
100
AcDbSymbolTable
 70
     4
  0
LTYPE
  5
12
330
11
100
AcDbSymbolTableRecord
100
AcDbLinetypeTableRecord
  2
BYBLOCK
 70
     0
  3

 72
    65
 73
     0
 40
0.0
  0
LTYPE
  5
13
330
11
100
AcDbSymbolTableRecord
100
AcDbLinetypeTableRecord
  2
BYLAYER
 70
     0
  3

 72
    65
 73
     0
 40
0.0
  0
LTYPE
  5
7
330
11
100
AcDbSymbolTableRecord
100
AcDbLinetypeTableRecord
  2
CONTINUOUS
 70
     0
  3
Solid line
 72
    65
 73
     0
 40
0.0
  0
LTYPE
  5
3A
330
11
100
AcDbSymbolTableRecord
100
AcDbLinetypeTableRecord
  2
HIDDEN
 70
     0
  3
__ __ __ __ __ __ __ __ __ __ __ __ __ __ __ __
 72
    65
 73
     2
 40
0.375
 49
0.25
 74
     0
 49
-0.125
 74
     0
  0
LTYPE
  5
F8
330
11
100
AcDbSymbolTableRecord
100
AcDbLinetypeTableRecord
  2
YCENTER_1
 70
     0
  3
中心線尺度1--- － --- － ---
 72
    65
 73
     4
 40
13.0
 49
10.0
 74
     0
 49
-1.0
 74
     0
 49
1.0
 74
     0
 49
-1.0
 74
     0
  0
LTYPE
  5
112
330
11
100
AcDbSymbolTableRecord
100
AcDbLinetypeTableRecord
  2
YHIDDEN_1
 70
     0
  3
破線尺度1－ － － － － － －
 72
    65
 73
     2
 40
4.0
 49
3.0
 74
     0
 49
-1.0
 74
     0
  0
ENDTAB
  0
TABLE
  2
LAYER
  5
E
330
0
100
AcDbSymbolTable
 70
     8
  0
LAYER
  5
6
330
E
100
AcDbSymbolTableRecord
100
AcDbLayerTableRecord
  2
0
 70
     0
 62
     7
  6
CONTINUOUS
370
    -3
390
407
  0
LAYER
  5
31
330
E
100
AcDbSymbolTableRecord
100
AcDbLayerTableRecord
  2
YKK_ZWAK
 70
     0
 62
     7
  6
CONTINUOUS
370
    -3
390
407
  0
LAYER
  5
268
330
E
100
AcDbSymbolTableRecord
100
AcDbLayerTableRecord
  2
USER1
 70
     0
 62
     3
  6
CONTINUOUS
370
    -3
390
407
  0
LAYER
  5
2C
330
E
100
AcDbSymbolTableRecord
100
AcDbLayerTableRecord
  2
YKK_11
 70
     0
 62
     7
  6
CONTINUOUS
370
    -3
390
407
  0
LAYER
  5
ED
330
E
100
AcDbSymbolTableRecord
100
AcDbLayerTableRecord
  2
YKK_12
 70
     0
 62
     2
  6
CONTINUOUS
370
    -3
390
407
  0
LAYER
  5
111
330
E
100
AcDbSymbolTableRecord
100
AcDbLayerTableRecord
  2
YKK_13
 70
     0
 62
     4
  6
CONTINUOUS
370
    -3
390
407
  0
LAYER
  5
F1
330
E
100
AcDbSymbolTableRecord
100
AcDbLayerTableRecord
  2
YKK_A1
 70
     0
 62
     4
  6
CONTINUOUS
370
    -3
390
407
  0
LAYER
  5
FE
330
E
100
AcDbSymbolTableRecord
100
AcDbLayerTableRecord
  2
YKK_D
 70
     0
 62
     6
  6
CONTINUOUS
370
    -3
390
407
  0
ENDTAB
  0
TABLE
  2
STYLE
  5
F
330
0
100
AcDbSymbolTable
 70
     2
  0
STYLE
  5
10
330
F
100
AcDbSymbolTableRecord
100
AcDbTextStyleTableRecord
  2
STANDARD
 70
     0
 40
0.0
 41
1.0
 50
0.0
 71
     0
 42
3.0
  3
ROMANS.SHX
  4
EXTFONT.SHX
  0
STYLE
  5
40
330
F
100
AcDbSymbolTableRecord
100
AcDbTextStyleTableRecord
  2
YKK_OSSTYLE1
 70
     0
 40
0.0
 41
0.9
 50
0.0
 71
     0
 42
4.0
  3
romans.shx
  4
EXTFONT.SHX
  0
ENDTAB
  0
TABLE
  2
VIEW
  5
14
330
0
100
AcDbSymbolTable
 70
     0
  0
ENDTAB
  0
TABLE
  2
UCS
  5
15
330
0
100
AcDbSymbolTable
 70
     0
  0
ENDTAB
  0
TABLE
  2
APPID
  5
18
330
0
100
AcDbSymbolTable
 70
     7
  0
APPID
  5
19
330
18
100
AcDbSymbolTableRecord
100
AcDbRegAppTableRecord
  2
ACAD
 70
     0
  0
APPID
  5
401
330
18
100
AcDbSymbolTableRecord
100
AcDbRegAppTableRecord
  2
CONTENTTABDATA
 70
     0
  0
APPID
  5
402
330
18
100
AcDbSymbolTableRecord
100
AcDbRegAppTableRecord
  2
CONTENTCURRENTTAB
 70
     0
  0
APPID
  5
492
330
18
100
AcDbSymbolTableRecord
100
AcDbRegAppTableRecord
  2
ACAD_MLEADERVER
 70
     0
  0
APPID
  5
4A6
330
18
100
AcDbSymbolTableRecord
100
AcDbRegAppTableRecord
  2
ACAD_PSEXT
 70
     0
  0
APPID
  5
4A7
330
18
100
AcDbSymbolTableRecord
100
AcDbRegAppTableRecord
  2
ACAD_NAV_VCDISPLAY
 70
     0
  0
APPID
  5
4A8
330
18
100
AcDbSymbolTableRecord
100
AcDbRegAppTableRecord
  2
YKK_AP_LOCKLAYER
 70
     0
  0
ENDTAB
  0
TABLE
  2
DIMSTYLE
  5
1A
330
0
100
AcDbSymbolTable
 70
     1
100
AcDbDimStyleTable
 71
     0
  0
DIMSTYLE
105
22
330
1A
100
AcDbSymbolTableRecord
100
AcDbDimStyleTableRecord
  2
YKK_OSADOT
 70
     0
 41
1.5
 42
2.0
 43
10.0
 44
2.0
 73
     0
 74
     0
 78
    12
140
3.0
141
0.0
143
0.0394
145
1.0
147
0.01
172
     1
173
     1
279
     2
284
    12
285
    12
286
    12
340
10
341
25
343
25
344
25
  0
ENDTAB
  0
TABLE
  2
BLOCK_RECORD
  5
1
330
0
100
AcDbSymbolTable
 70
     2
  0
BLOCK_RECORD
  5
2
102
{ACAD_XDICTIONARY
360
3
102
}
330
1
100
AcDbSymbolTableRecord
100
AcDbBlockTableRecord
  2
*MODEL_SPACE
340
459
  0
BLOCK_RECORD
  5
9
102
{ACAD_XDICTIONARY
360
A
102
}
330
1
100
AcDbSymbolTableRecord
100
AcDbBlockTableRecord
  2
*PAPER_SPACE
340
45A
  0
BLOCK_RECORD
  5
25
330
1
100
AcDbSymbolTableRecord
100
AcDbBlockTableRecord
  2
DOT1
340
0
  0
BLOCK_RECORD
  5
32
330
1
100
AcDbSymbolTableRecord
100
AcDbBlockTableRecord
  2
A201
340
0
102
{BLKREFS
331
30
102
}
  0
ENDTAB
  0
ENDSEC
  0
SECTION
  2
BLOCKS
  0
BLOCK
  5
5
330
2
100
AcDbEntity
  8
0
100
AcDbBlockBegin
  2
*MODEL_SPACE
 70
     0
 10
0.0
 20
0.0
 30
0.0
  3
*MODEL_SPACE
  1

  0
ENDBLK
  5
8
330
2
100
AcDbEntity
  8
0
100
AcDbBlockEnd
  0
BLOCK
  5
C
330
9
100
AcDbEntity
 67
     1
  8
0
100
AcDbBlockBegin
  2
*PAPER_SPACE
 70
     0
 10
0.0
 20
0.0
 30
0.0
  3
*PAPER_SPACE
  1

  0
ENDBLK
  5
D
330
9
100
AcDbEntity
 67
     1
  8
0
100
AcDbBlockEnd
  0
BLOCK
  5
29
330
25
100
AcDbEntity
  8
0
100
AcDbBlockBegin
  2
DOT1
 70
     0
 10
0.0
 20
0.0
 30
0.0
  3
DOT1
  1

  0
CIRCLE
  5
26
330
25
100
AcDbEntity
  8
0
  6
ByBlock
 62
     0
370
    -2
100
AcDbCircle
 10
0.0
 20
0.0
 30
0.0
 40
0.5
  0
CIRCLE
  5
27
330
25
100
AcDbEntity
  8
0
  6
ByBlock
 62
     0
370
    -2
100
AcDbCircle
 10
0.0
 20
0.0
 30
0.0
 40
0.325
  0
LINE
  5
28
330
25
100
AcDbEntity
  8
0
  6
ByBlock
 62
     0
370
    -2
100
AcDbLine
 10
0.0
 20
0.0
 30
0.0
 11
-1.0
 21
0.0
 31
0.0
  0
ENDBLK
  5
2A
330
25
100
AcDbEntity
  8
0
100
AcDbBlockEnd
  0
BLOCK
  5
EA
330
32
100
AcDbEntity
  8
0
100
AcDbBlockBegin
  2
A201
 70
     0
 10
0.0
 20
0.0
 30
0.0
  3
A201
  1

  0
LINE
  5
33
330
32
100
AcDbEntity
  8
YKK_ZWAK
  6
Continuous
 62
   254
100
AcDbLine
 10
21.000001
 20
8.9995
 30
0.0
 11
544.000013
 21
8.9995
 31
0.0
  0
LINE
  5
34
330
32
100
AcDbEntity
  8
YKK_ZWAK
  6
Continuous
 62
   131
100
AcDbLine
 10
205.000005
 20
21.000001
 30
0.0
 11
297.000007
 21
21.000001
 31
0.0
  0
LINE
  5
35
330
32
100
AcDbEntity
  8
YKK_ZWAK
  6
Continuous
 62
   254
100
AcDbLine
 10
571.000014
 20
34.999501
 30
0.0
 11
21.000001
 21
34.999501
 31
0.0
  0
LINE
  5
36
330
32
100
AcDbEntity
  8
YKK_ZWAK
  6
Continuous
 62
   254
100
AcDbLine
 10
544.000013
 20
33.999501
 30
0.0
 11
21.000001
 21
33.999501
 31
0.0
  0
LINE
  5
37
330
32
100
AcDbEntity
  8
YKK_ZWAK
  6
Continuous
 62
   254
100
AcDbLine
 10
571.000014
 20
409.99951
 30
0.0
 11
21.000001
 21
409.99951
 31
0.0
  0
LINE
  5
38
330
32
100
AcDbEntity
  8
YKK_ZWAK
  6
Continuous
 62
   254
100
AcDbLine
 10
21.000001
 20
34.999501
 30
0.0
 11
21.000001
 21
409.99951
 31
0.0
  0
LINE
  5
39
330
32
100
AcDbEntity
  8
YKK_ZWAK
  6
HIDDEN
 62
   131
100
AcDbLine
 10
24.284751
 20
13.7865
 30
0.0
 11
201.565005
 21
13.7865
 31
0.0
  0
LINE
  5
3B
330
32
100
AcDbEntity
  8
YKK_ZWAK
  6
HIDDEN
 62
   131
100
AcDbLine
 10
24.284751
 20
18.7355
 30
0.0
 11
201.565005
 21
18.7355
 31
0.0
  0
LINE
  5
3C
330
32
100
AcDbEntity
  8
YKK_ZWAK
  6
HIDDEN
 62
   131
100
AcDbLine
 10
24.284751
 20
23.684501
 30
0.0
 11
201.565005
 21
23.684501
 31
0.0
  0
LINE
  5
3D
330
32
100
AcDbEntity
  8
YKK_ZWAK
  6
HIDDEN
 62
   131
100
AcDbLine
 10
24.284751
 20
28.633501
 30
0.0
 11
201.565005
 21
28.633501
 31
0.0
  0
LINE
  5
3E
330
32
100
AcDbEntity
  8
YKK_ZWAK
  6
Continuous
 62
   254
100
AcDbLine
 10
21.000001
 20
8.9995
 30
0.0
 11
21.000001
 21
33.999501
 31
0.0
  0
TEXT
  5
3F
330
32
100
AcDbEntity
  8
YKK_ZWAK
  6
Continuous
 62
   131
100
AcDbText
 10
24.367481
 20
29.394844
 30
0.0
 40
3.0
  1
変 更 記 事
 41
0.9
  7
YKK_OSSTYLE1
100
AcDbText
  0
TEXT
  5
41
330
32
100
AcDbEntity
  8
YKK_ZWAK
  6
Continuous
 62
   254
100
AcDbText
 10
289.94159
 20
12.3725
 30
0.0
 40
5.0
  1
殿
 41
0.9
  7
YKK_OSSTYLE1
100
AcDbText
  0
LINE
  5
42
330
32
100
AcDbEntity
  8
YKK_ZWAK
  6
Continuous
 62
   254
100
AcDbLine
 10
296.000007
 20
33.999501
 30
0.0
 11
296.000007
 21
8.9995
 31
0.0
  0
LINE
  5
43
330
32
100
AcDbEntity
  8
YKK_ZWAK
  6
Continuous
 62
   254
100
AcDbLine
 10
205.000005
 20
33.999501
 30
0.0
 11
205.000005
 21
8.9995
 31
0.0
  0
TEXT
  5
44
330
32
100
AcDbEntity
  8
YKK_ZWAK
  6
Continuous
 62
   131
100
AcDbText
 10
207.692335
 20
17.675001
 30
0.0
 40
3.0
  1
施　　工
 41
0.9
  7
YKK_OSSTYLE1
100
AcDbText
  0
TEXT
  5
45
330
32
100
AcDbEntity
  8
YKK_ZWAK
  6
Continuous
 62
   131
100
AcDbText
 10
207.692335
 20
30.047503
 30
0.0
 40
3.0
  1
設計監理
 41
0.9
  7
YKK_OSSTYLE1
100
AcDbText
  0
TEXT
  5
46
330
32
100
AcDbEntity
  8
YKK_ZWAK
  6
Continuous
 62
   254
100
AcDbText
 10
289.94159
 20
24.745001
 30
0.0
 40
5.0
  1
殿
 41
0.9
  7
YKK_OSSTYLE1
100
AcDbText
  0
LINE
  5
47
330
32
100
AcDbEntity
  8
YKK_ZWAK
  6
Continuous
 62
   254
100
AcDbLine
 10
19.000001
 20
222.4995055
 30
0.0
 11
21.000001
 21
222.4995055
 31
0.0
  0
LINE
  5
48
330
32
100
AcDbEntity
  8
YKK_ZWAK
  6
Continuous
 62
     8
100
AcDbLine
 10
296.010007
 20
411.99951
 30
0.0
 11
296.010007
 21
409.99951
 31
0.0
  0
LINE
  5
49
330
32
100
AcDbEntity
  8
YKK_ZWAK
  6
Continuous
 62
   254
100
AcDbLine
 10
571.000014
 20
409.99951
 30
0.0
 11
571.000014
 21
34.999501
 31
0.0
  0
LINE
  5
4A
330
32
100
AcDbEntity
  8
YKK_ZWAK
  6
Continuous
 62
   254
100
AcDbLine
 10
452.000011
 20
15.9995
 30
0.0
 11
523.999763
 21
15.9995
 31
0.0
  0
LINE
  5
4B
330
32
100
AcDbEntity
  8
YKK_ZWAK
  6
Continuous
 62
   131
100
AcDbLine
 10
437.703011
 20
29.000001
 30
0.0
 11
389.00001
 21
29.000001
 31
0.0
  0
LINE
  5
4C
330
32
100
AcDbEntity
  8
YKK_ZWAK
  6
Continuous
 62
   254
100
AcDbLine
 10
389.00001
 20
33.999501
 30
0.0
 11
389.00001
 21
8.9995
 31
0.0
  0
LINE
  5
4D
330
32
100
AcDbEntity
  8
YKK_ZWAK
  6
Continuous
 62
   131
100
AcDbLine
 10
297.000007
 20
21.000001
 30
0.0
 11
389.00001
 21
21.000001
 31
0.0
  0
TEXT
  5
4E
330
32
100
AcDbEntity
  8
YKK_ZWAK
  6
Continuous
 62
   131
100
AcDbText
 10
298.58378403
 20
17.465002
 30
0.0
 40
3.0
  1
図面内容
 41
0.9
  7
YKK_OSSTYLE1
100
AcDbText
  0
TEXT
  5
4F
330
32
100
AcDbEntity
  8
YKK_ZWAK
  6
Continuous
 62
   131
100
AcDbText
 10
298.86588
 20
30.047503
 30
0.0
 40
3.0
  1
工 事 名
 41
0.9
  7
YKK_OSSTYLE1
100
AcDbText
  0
TEXT
  5
50
330
32
100
AcDbEntity
  8
YKK_ZWAK
  6
Continuous
 62
   254
100
AcDbText
 10
377.16530176
 20
24.745001
 30
0.0
 40
5.0
  1
工事
 41
0.9
  7
YKK_OSSTYLE1
100
AcDbText
  0
LINE
  5
51
330
32
100
AcDbEntity
  8
YKK_ZWAK
  6
Continuous
 62
   254
100
AcDbLine
 10
452.000011
 20
33.999501
 30
0.0
 11
452.000011
 21
8.9995
 31
0.0
  0
LINE
  5
52
330
32
100
AcDbEntity
  8
YKK_ZWAK
  6
Continuous
 62
   254
100
AcDbLine
 10
437.000011
 20
33.999501
 30
0.0
 11
437.000011
 21
8.9995
 31
0.0
  0
LINE
  5
53
330
32
100
AcDbEntity
  8
YKK_ZWAK
  6
Continuous
 62
   131
100
AcDbLine
 10
443.051603
 20
10.181617
 30
0.0
 11
449.854371
 21
16.984384
 31
0.0
  0
LINE
  5
54
330
32
100
AcDbEntity
  8
YKK_ZWAK
  6
Continuous
 62
   131
100
AcDbLine
 10
421.00001
 20
33.999501
 30
0.0
 11
421.00001
 21
8.9995
 31
0.0
  0
LINE
  5
55
330
32
100
AcDbEntity
  8
YKK_ZWAK
  6
Continuous
 62
   131
100
AcDbLine
 10
405.00001
 20
33.999501
 30
0.0
 11
405.00001
 21
8.9995
 31
0.0
  0
TEXT
  5
56
330
32
100
AcDbEntity
  8
YKK_ZWAK
  6
Continuous
 62
   131
100
AcDbText
 10
392.18209354
 20
9.752325
 30
0.0
 40
3.5
  1
 ． ．
 41
0.9
  7
YKK_OSSTYLE1
100
AcDbText
  0
LINE
  5
57
330
32
100
AcDbEntity
  8
YKK_ZWAK
  6
Continuous
 62
   131
100
AcDbLine
 10
455.5999986
 20
10.4995
 30
0.0
 11
455.5999986
 21
8.9995
 31
0.0
  0
TEXT
  5
58
330
32
100
AcDbEntity
  8
YKK_ZWAK
  6
Continuous
 62
   131
100
AcDbText
 10
407.8246491
 20
29.87075
 30
0.0
 40
3.0
  1
担  当
 41
0.9
  7
YKK_OSSTYLE1
100
AcDbText
  0
TEXT
  5
59
330
32
100
AcDbEntity
  8
YKK_ZWAK
  6
Continuous
 62
   131
100
AcDbText
 10
392.5636631
 20
29.87075
 30
0.0
 40
3.0
  1
照  査
 41
0.9
  7
YKK_OSSTYLE1
100
AcDbText
  0
TEXT
  5
5A
330
32
100
AcDbEntity
  8
YKK_ZWAK
  6
Continuous
 62
   131
100
AcDbText
 10
424.0856971
 20
29.883751
 30
0.0
 40
3.0
  1
作  図
 41
0.9
  7
YKK_OSSTYLE1
100
AcDbText
  0
TEXT
  5
5B
330
32
100
AcDbEntity
  8
YKK_ZWAK
  6
Continuous
 62
   131
100
AcDbText
 10
453.905095
 20
30.047501
 30
0.0
 40
3.0
  1
御承認印
 41
0.9
  7
YKK_OSSTYLE1
100
AcDbText
  0
LINE
  5
5C
330
32
100
AcDbEntity
  8
YKK_ZWAK
  6
Continuous
 62
   131
100
AcDbLine
 10
437.703011
 20
29.000001
 30
0.0
 11
452.000011
 21
29.000001
 31
0.0
  0
LINE
  5
5D
330
32
100
AcDbEntity
  8
YKK_ZWAK
  6
Continuous
 62
   131
100
AcDbLine
 10
439.264403
 20
21.330812
 30
0.0
 11
446.188247
 21
28.254656
 31
0.0
  0
TEXT
  5
5E
330
32
100
AcDbEntity
  8
YKK_ZWAK
  6
Continuous
 62
   131
100
AcDbText
 10
439.5087681
 20
30.044463
 30
0.0
 40
3.0
  1
尺  度
 41
0.9
  7
YKK_OSSTYLE1
100
AcDbText
  0
CIRCLE
  5
5F
330
32
100
AcDbEntity
  8
YKK_ZWAK
  6
Continuous
 62
     8
100
AcDbCircle
 10
579.426014
 20
83.719502
 30
0.0
 40
6.299999999999999
  0
LINE
  5
60
330
32
100
AcDbEntity
  8
YKK_ZWAK
  6
Continuous
 62
     8
100
AcDbLine
 10
573.126014
 20
69.579502
 30
0.0
 11
585.726014
 21
69.579502
 31
0.0
  0
LINE
  5
61
330
32
100
AcDbEntity
  8
YKK_ZWAK
  6
Continuous
 62
     8
100
AcDbLine
 10
573.126014
 20
55.439501
 30
0.0
 11
585.726014
 21
55.439501
 31
0.0
  0
CIRCLE
  5
62
330
32
100
AcDbEntity
  8
YKK_ZWAK
  6
Continuous
 62
     8
100
AcDbCircle
 10
579.426014
 20
69.579502
 30
0.0
 40
6.299999999999999
  0
CIRCLE
  5
63
330
32
100
AcDbEntity
  8
YKK_ZWAK
  6
Continuous
 62
     8
100
AcDbCircle
 10
579.426014
 20
55.439501
 30
0.0
 40
6.299999999999999
  0
LINE
  5
64
330
32
100
AcDbEntity
  8
YKK_ZWAK
  6
Continuous
 62
     8
100
AcDbLine
 10
573.126014
 20
41.299501
 30
0.0
 11
585.726014
 21
41.299501
 31
0.0
  0
CIRCLE
  5
65
330
32
100
AcDbEntity
  8
YKK_ZWAK
  6
Continuous
 62
     8
100
AcDbCircle
 10
579.426014
 20
41.299501
 30
0.0
 40
6.299999999999999
  0
LINE
  5
66
330
32
100
AcDbEntity
  8
YKK_ZWAK
  6
Continuous
 62
   254
100
AcDbLine
 10
544.000013
 20
33.999501
 30
0.0
 11
544.000013
 21
8.9995
 31
0.0
  0
LINE
  5
67
330
32
100
AcDbEntity
  8
YKK_ZWAK
  6
Continuous
 62
   254
100
AcDbLine
 10
523.999763
 20
33.999501
 30
0.0
 11
523.999763
 21
8.9995
 31
0.0
  0
ARC
  5
68
330
32
100
AcDbEntity
  8
YKK_ZWAK
  6
Continuous
 62
   254
100
AcDbCircle
 10
567.23923515
 20
16.32442811
 30
0.0
 40
3.065267824757687
100
AcDbArc
 50
285.44291453
 51
349.90448123
  0
ARC
  5
69
330
32
100
AcDbEntity
  8
YKK_ZWAK
  6
Continuous
 62
   254
100
AcDbCircle
 10
553.606314
 20
13.7174867
 30
0.0
 40
7.916047100361496
100
AcDbArc
 50
168.7637177
 51
199.80079153
  0
ARC
  5
6A
330
32
100
AcDbEntity
  8
YKK_ZWAK
  6
Continuous
 62
   254
100
AcDbCircle
 10
550.84442657
 20
13.7651724
 30
0.0
 40
1.69178303147034
100
AcDbArc
 50
171.08203026
 51
216.71922793
  0
LINE
  5
6B
330
32
100
AcDbEntity
  8
YKK_ZWAK
  6
Continuous
 62
   254
100
AcDbLine
 10
562.610947
 20
9.566381
 30
0.0
 11
562.610947
 21
20.243049
 31
0.0
  0
LINE
  5
6C
330
32
100
AcDbEntity
  8
YKK_ZWAK
  6
Continuous
 62
   254
100
AcDbLine
 10
559.019868
 20
23.216355
 30
0.0
 11
559.019868
 21
9.566381
 31
0.0
  0
LINE
  5
6D
330
32
100
AcDbEntity
  8
YKK_ZWAK
  6
Continuous
 62
   254
100
AcDbLine
 10
557.513933
 20
20.011363
 30
0.0
 11
557.513933
 21
9.585666
 31
0.0
  0
LINE
  5
6E
330
32
100
AcDbEntity
  8
YKK_ZWAK
  6
Continuous
 62
   254
100
AcDbLine
 10
554.019393
 20
12.520312
 30
0.0
 11
554.019393
 21
19.470807
 31
0.0
  0
LINE
  5
6F
330
32
100
AcDbEntity
  8
YKK_ZWAK
  6
Continuous
 62
   254
100
AcDbLine
 10
557.28225
 20
9.547052
 30
0.0
 11
549.405042
 21
9.527722
 31
0.0
  0
LINE
  5
70
330
32
100
AcDbEntity
  8
YKK_ZWAK
  6
Continuous
 62
   254
100
AcDbLine
 10
550.00355
 20
12.520312
 30
0.0
 11
554.019393
 21
12.520312
 31
0.0
  0
ARC
  5
71
330
32
100
AcDbEntity
  8
YKK_ZWAK
  6
Continuous
 62
   254
100
AcDbCircle
 10
548.60007313
 20
12.25485189
 30
0.0
 40
2.730646981973357
100
AcDbArc
 50
207.31435415
 51
263.59464075
  0
ARC
  5
72
330
32
100
AcDbEntity
  8
YKK_ZWAK
  6
Continuous
 62
   254
100
AcDbCircle
 10
550.17864126
 20
13.59595698
 30
0.0
 40
1.089801345776779
100
AcDbArc
 50
230.97279559
 51
260.75491133
  0
LINE
  5
73
330
32
100
AcDbEntity
  8
YKK_ZWAK
  6
Continuous
 62
   254
100
AcDbLine
 10
549.405042
 20
9.527722
 30
0.0
 11
548.343169
 21
9.527722
 31
0.0
  0
LINE
  5
74
330
32
100
AcDbEntity
  8
YKK_ZWAK
  6
Continuous
 62
   254
100
AcDbLine
 10
557.513933
 20
9.585666
 30
0.0
 11
557.28225
 21
9.547052
 31
0.0
  0
LINE
  5
75
330
32
100
AcDbEntity
  8
YKK_ZWAK
  6
Continuous
 62
   254
100
AcDbLine
 10
553.71047
 20
12.520312
 30
0.0
 11
553.961471
 21
12.520312
 31
0.0
  0
LINE
  5
76
330
32
100
AcDbEntity
  8
YKK_ZWAK
  6
Continuous
 62
   254
100
AcDbLine
 10
554.019393
 20
12.521084
 30
0.0
 11
554.020164
 21
12.520312
 31
0.0
  0
LINE
  5
77
330
32
100
AcDbEntity
  8
YKK_ZWAK
  6
Continuous
 62
   254
100
AcDbLine
 10
562.051042
 20
9.566381
 30
0.0
 11
562.610947
 21
9.566381
 31
0.0
  0
LINE
  5
78
330
32
100
AcDbEntity
  8
YKK_ZWAK
  6
Continuous
 62
   254
100
AcDbLine
 10
559.019868
 20
9.566381
 30
0.0
 11
562.051042
 21
9.566381
 31
0.0
  0
TEXT
  5
79
330
32
100
AcDbEntity
  8
YKK_ZWAK
  6
Continuous
 62
   131
100
AcDbText
 10
528.4269094
 20
29.81226201
 30
0.0
 40
3.2
  1
図　番
 41
0.9
  7
YKK_OSSTYLE1
100
AcDbText
  0
TEXT
  5
7A
330
32
100
AcDbEntity
  8
YKK_ZWAK
  6
Continuous
 62
   131
100
AcDbText
 10
526.62767404
 20
16.79627903
 30
0.0
 40
3.2
  1
通し図番
 41
0.9
  7
YKK_OSSTYLE1
100
AcDbText
  0
LINE
  5
7B
330
32
100
AcDbEntity
  8
YKK_ZWAK
  6
Continuous
 62
   131
100
AcDbLine
 10
523.999763
 20
28.999501
 30
0.0
 11
544.000013
 21
28.999501
 31
0.0
  0
LINE
  5
7C
330
32
100
AcDbEntity
  8
YKK_ZWAK
  6
Continuous
 62
   131
100
AcDbLine
 10
544.000013
 20
16.0
 30
0.0
 11
523.999763
 21
16.0
 31
0.0
  0
LINE
  5
7D
330
32
100
AcDbEntity
  8
YKK_ZWAK
  6
Continuous
 62
   254
100
AcDbLine
 10
523.999763
 20
21.000001
 30
0.0
 11
544.000013
 21
21.000001
 31
0.0
  0
TEXT
  5
7E
330
32
100
AcDbEntity
  8
YKK_ZWAK
  6
Continuous
 62
   131
100
AcDbText
 10
504.12596439
 20
16.73585252
 30
0.0
 40
2.828
  1
年   月   日
 41
0.9
  7
YKK_OSSTYLE1
100
AcDbText
  0
ARC
  5
7F
330
32
100
AcDbEntity
  8
YKK_ZWAK
  6
Continuous
 62
   254
100
AcDbCircle
 10
550.80023932
 20
8.38955158
 30
0.0
 40
9.506414110787718
100
AcDbArc
 50
79.38097908
 51
112.0582515
  0
ARC
  5
80
330
32
100
AcDbEntity
  8
YKK_ZWAK
  6
Continuous
 62
   254
100
AcDbCircle
 10
552.02960157
 20
8.66870802
 30
0.0
 40
14.82019555938878
100
AcDbArc
 50
78.78009532
 51
91.46937906
  0
LINE
  5
81
330
32
100
AcDbEntity
  8
YKK_ZWAK
  6
Continuous
 62
   254
100
AcDbLine
 10
553.247106
 20
20.281664
 30
0.0
 11
550.60589668
 21
20.23169161
 31
0.0
  0
LINE
  5
82
330
32
100
AcDbEntity
  8
YKK_ZWAK
  6
Continuous
 62
   254
100
AcDbLine
 10
553.054042
 20
15.04953
 30
0.0
 11
550.200893
 21
15.046227
 31
0.0
  0
LINE
  5
83
330
32
100
AcDbEntity
  8
YKK_ZWAK
  6
Continuous
 62
   254
100
AcDbLine
 10
554.187226
 20
33.42965
 30
0.0
 11
550.949599
 21
27.69553
 31
0.0
  0
LINE
  5
84
330
32
100
AcDbEntity
  8
YKK_ZWAK
  6
Continuous
 62
   254
100
AcDbLine
 10
551.59718
 20
33.42965
 30
0.0
 11
554.187226
 21
33.42965
 31
0.0
  0
LINE
  5
85
330
32
100
AcDbEntity
  8
YKK_ZWAK
  6
Continuous
 62
   254
100
AcDbLine
 10
548.594154
 20
27.714815
 30
0.0
 11
545.311979
 21
33.352466
 31
0.0
  0
ARC
  5
86
330
32
100
AcDbEntity
  8
YKK_ZWAK
  6
Continuous
 62
   254
100
AcDbCircle
 10
549.68520483
 20
20.30975154
 30
0.0
 40
3.598113650678814
100
AcDbArc
 50
158.41083245
 51
179.71775245
  0
ARC
  5
87
330
32
100
AcDbEntity
  8
YKK_ZWAK
  6
Continuous
 62
   254
100
AcDbCircle
 10
548.59054743
 20
14.76560333
 30
0.0
 40
2.791490107652263
100
AcDbArc
 50
121.82711365
 51
169.08474902
  0
LINE
  5
88
330
32
100
AcDbEntity
  8
YKK_ZWAK
  6
Continuous
 62
   254
100
AcDbLine
 10
549.405042
 20
18.949491
 30
0.0
 11
546.084266
 21
18.949491
 31
0.0
  0
LINE
  5
89
330
32
100
AcDbEntity
  8
YKK_ZWAK
  6
Continuous
 62
   254
100
AcDbLine
 10
546.084266
 20
18.949491
 30
0.0
 11
546.084266
 21
20.32747631
 31
0.0
  0
ARC
  5
8A
330
32
100
AcDbEntity
  8
YKK_ZWAK
  6
Continuous
 62
   254
100
AcDbCircle
 10
550.20700835
 20
14.01426078
 30
0.0
 40
1.031984336873053
100
AcDbArc
 50
90.33952634
 51
178.0363902
  0
ARC
  5
8B
330
32
100
AcDbEntity
  8
YKK_ZWAK
  6
Continuous
 62
   254
100
AcDbCircle
 10
550.91098672
 20
18.99454401
 30
0.0
 40
1.5066184932453
100
AcDbArc
 50
138.46381796
 51
181.71359389
  0
ARC
  5
8C
330
32
100
AcDbEntity
  8
YKK_ZWAK
  6
Continuous
 62
   254
100
AcDbCircle
 10
550.51068793
 20
19.02046023
 30
0.0
 40
1.214967561291876
100
AcDbArc
 50
85.50551117
 51
126.78038212
  0
ARC
  5
8D
330
32
100
AcDbEntity
  8
YKK_ZWAK
  6
Continuous
 62
   254
100
AcDbCircle
 10
548.00461954
 20
21.10278181
 30
0.0
 40
1.745462511199758
100
AcDbArc
 50
109.02126645
 51
161.5126404
  0
ARC
  5
8E
330
32
100
AcDbEntity
  8
YKK_ZWAK
  6
Continuous
 62
   254
100
AcDbCircle
 10
551.65872095
 20
10.85588209
 30
0.0
 40
12.62863449008531
100
AcDbArc
 50
89.89164773
 51
109.30848271
  0
LINE
  5
8F
330
32
100
AcDbEntity
  8
YKK_ZWAK
  6
Continuous
 62
   254
100
AcDbLine
 10
548.594154
 20
24.529198
 30
0.0
 11
548.594154
 21
27.714815
 31
0.0
  0
LINE
  5
90
330
32
100
AcDbEntity
  8
YKK_ZWAK
  6
Continuous
 62
   254
100
AcDbLine
 10
550.949599
 20
24.529198
 30
0.0
 11
548.594154
 21
24.529198
 31
0.0
  0
LINE
  5
91
330
32
100
AcDbEntity
  8
YKK_ZWAK
  6
Continuous
 62
   254
100
AcDbLine
 10
550.949599
 20
27.69553
 30
0.0
 11
550.949599
 21
24.529198
 31
0.0
  0
LINE
  5
92
330
32
100
AcDbEntity
  8
YKK_ZWAK
  6
Continuous
 62
   254
100
AcDbLine
 10
545.311979
 20
33.352466
 30
0.0
 11
547.821884
 21
33.352466
 31
0.0
  0
LINE
  5
93
330
32
100
AcDbEntity
  8
YKK_ZWAK
  6
Continuous
 62
   254
100
AcDbLine
 10
551.59718
 20
33.42965
 30
0.0
 11
549.771867
 21
29.877219
 31
0.0
  0
LINE
  5
94
330
32
100
AcDbEntity
  8
YKK_ZWAK
  6
Continuous
 62
   254
100
AcDbLine
 10
549.617423
 20
29.993062
 30
0.0
 11
549.771867
 21
29.877219
 31
0.0
  0
LINE
  5
95
330
32
100
AcDbEntity
  8
YKK_ZWAK
  6
Continuous
 62
   254
100
AcDbLine
 10
547.821884
 20
33.352466
 30
0.0
 11
549.617423
 21
29.993062
 31
0.0
  0
ARC
  5
96
330
32
100
AcDbEntity
  8
YKK_ZWAK
  6
Continuous
 62
   254
100
AcDbCircle
 10
568.28604917
 20
28.29398617
 30
0.0
 40
1.544618833868573
100
AcDbArc
 50
0.00166292
 51
89.99603715
  0
ARC
  5
97
330
32
100
AcDbEntity
  8
YKK_ZWAK
  6
Continuous
 62
   254
100
AcDbCircle
 10
559.98514917
 20
28.23604217
 30
0.0
 40
1.544618833868573
100
AcDbArc
 50
0.00166292
 51
89.99603715
  0
LINE
  5
98
330
32
100
AcDbEntity
  8
YKK_ZWAK
  6
Continuous
 62
   254
100
AcDbLine
 10
562.553028
 20
24.625712
 30
0.0
 11
562.553028
 21
33.487594
 31
0.0
  0
LINE
  5
99
330
32
100
AcDbEntity
  8
YKK_ZWAK
  6
Continuous
 62
   254
100
AcDbLine
 10
554.328297
 20
24.548527
 30
0.0
 11
554.328297
 21
33.410366
 31
0.0
  0
LINE
  5
9A
330
32
100
AcDbEntity
  8
YKK_ZWAK
  6
Continuous
 62
   254
100
AcDbLine
 10
564.985674
 20
24.625712
 30
0.0
 11
562.553028
 21
24.625712
 31
0.0
  0
LINE
  5
9B
330
32
100
AcDbEntity
  8
YKK_ZWAK
  6
Continuous
 62
   254
100
AcDbLine
 10
567.302491
 20
23.216355
 30
0.0
 11
559.019868
 21
23.216355
 31
0.0
  0
LINE
  5
9C
330
32
100
AcDbEntity
  8
YKK_ZWAK
  6
Continuous
 62
   254
100
AcDbLine
 10
563.479759
 20
13.196086
 30
0.0
 11
567.283206
 21
13.196086
 31
0.0
  0
LINE
  5
9D
330
32
100
AcDbEntity
  8
YKK_ZWAK
  6
Continuous
 62
   254
100
AcDbLine
 10
566.008932
 20
16.150017
 30
0.0
 11
563.479759
 21
16.150017
 31
0.0
  0
LINE
  5
9E
330
32
100
AcDbEntity
  8
YKK_ZWAK
  6
Continuous
 62
   254
100
AcDbLine
 10
562.610947
 20
20.243049
 30
0.0
 11
565.931704
 21
20.243049
 31
0.0
  0
ARC
  5
9F
330
32
100
AcDbEntity
  8
YKK_ZWAK
  6
Continuous
 62
   254
100
AcDbCircle
 10
554.22066
 20
20.08146332
 30
0.0
 40
3.294016994121146
100
AcDbArc
 50
358.78059045
 51
38.76562608
  0
ARC
  5
A0
330
32
100
AcDbEntity
  8
YKK_ZWAK
  6
Continuous
 62
   254
100
AcDbCircle
 10
552.89717617
 20
19.17519964
 30
0.0
 40
1.16048018439929
100
AcDbArc
 50
14.7551995
 51
72.44994796
  0
LINE
  5
A1
330
32
100
AcDbEntity
  8
YKK_ZWAK
  6
Continuous
 62
   254
100
AcDbLine
 10
553.054042
 20
17.617318
 30
0.0
 11
553.054042
 21
15.04953
 31
0.0
  0
LINE
  5
A2
330
32
100
AcDbEntity
  8
YKK_ZWAK
  6
Continuous
 62
   254
100
AcDbLine
 10
552.552059
 20
17.733161
 30
0.0
 11
553.054042
 21
17.617318
 31
0.0
  0
LINE
  5
A3
330
32
100
AcDbEntity
  8
YKK_ZWAK
  6
Continuous
 62
   254
100
AcDbLine
 10
563.479759
 20
16.150017
 30
0.0
 11
563.479759
 21
13.196086
 31
0.0
  0
LINE
  5
A4
330
32
100
AcDbEntity
  8
YKK_ZWAK
  6
Continuous
 62
   254
100
AcDbLine
 10
558.981248
 20
27.869273
 30
0.0
 11
556.703043
 21
27.869273
 31
0.0
  0
ARC
  5
A5
330
32
100
AcDbEntity
  8
YKK_ZWAK
  6
Continuous
 62
   254
100
AcDbCircle
 10
554.37879626
 20
20.07343796
 30
0.0
 40
3.177485297559325
100
AcDbArc
 50
40.66422291
 51
80.31693569
  0
LINE
  5
A6
330
32
100
AcDbEntity
  8
YKK_ZWAK
  6
Continuous
 62
   254
100
AcDbLine
 10
556.703043
 20
24.548527
 30
0.0
 11
554.328297
 21
24.548527
 31
0.0
  0
LINE
  5
A7
330
32
100
AcDbEntity
  8
YKK_ZWAK
  6
Continuous
 62
   254
100
AcDbLine
 10
556.703043
 20
27.869273
 30
0.0
 11
556.703043
 21
24.548527
 31
0.0
  0
LINE
  5
A8
330
32
100
AcDbEntity
  8
YKK_ZWAK
  6
Continuous
 62
   254
100
AcDbLine
 10
561.529756
 20
28.236131
 30
0.0
 11
561.529756
 21
24.606427
 31
0.0
  0
LINE
  5
A9
330
32
100
AcDbEntity
  8
YKK_ZWAK
  6
Continuous
 62
   254
100
AcDbLine
 10
559.290171
 20
27.75343
 30
0.0
 11
558.981248
 21
27.869273
 31
0.0
  0
LINE
  5
AA
330
32
100
AcDbEntity
  8
YKK_ZWAK
  6
Continuous
 62
   254
100
AcDbLine
 10
559.290171
 20
24.606427
 30
0.0
 11
559.290171
 21
27.75343
 31
0.0
  0
LINE
  5
AB
330
32
100
AcDbEntity
  8
YKK_ZWAK
  6
Continuous
 62
   254
100
AcDbLine
 10
561.529756
 20
24.606427
 30
0.0
 11
559.290171
 21
24.606427
 31
0.0
  0
ARC
  5
AC
330
32
100
AcDbEntity
  8
YKK_ZWAK
  6
Continuous
 62
   254
100
AcDbCircle
 10
567.19412132
 20
20.11358836
 30
0.0
 40
3.10079004118515
100
AcDbArc
 50
14.44572328
 51
87.08746338
  0
ARC
  5
AD
330
32
100
AcDbEntity
  8
YKK_ZWAK
  6
Continuous
 62
   254
100
AcDbCircle
 10
564.36413966
 20
17.54165325
 30
0.0
 40
2.640498151312115
100
AcDbArc
 50
343.69020327
 51
354.7536235
  0
ARC
  5
AE
330
32
100
AcDbEntity
  8
YKK_ZWAK
  6
Continuous
 62
   254
100
AcDbCircle
 10
566.00966971
 20
17.08269286
 30
0.0
 40
0.9326761550249523
100
AcDbArc
 50
269.95468111
 51
342.90144849
  0
ARC
  5
AF
330
32
100
AcDbEntity
  8
YKK_ZWAK
  6
Continuous
 62
   254
100
AcDbCircle
 10
566.04623887
 20
19.3715952
 30
0.0
 40
0.8777839045469994
100
AcDbArc
 50
16.43123457
 51
96.91661396
  0
ARC
  5
B0
330
32
100
AcDbEntity
  8
YKK_ZWAK
  6
Continuous
 62
   254
100
AcDbCircle
 10
564.37945167
 20
18.85119468
 30
0.0
 40
2.623848066620805
100
AcDbArc
 50
4.93422741
 51
17.03551963
  0
LINE
  5
B1
330
32
100
AcDbEntity
  8
YKK_ZWAK
  6
Continuous
 62
   254
100
AcDbLine
 10
567.283206
 20
13.196086
 30
0.0
 11
568.055449
 21
13.369828
 31
0.0
  0
LINE
  5
B2
330
32
100
AcDbEntity
  8
YKK_ZWAK
  6
Continuous
 62
   254
100
AcDbLine
 10
566.980872
 20
19.173458
 30
0.0
 11
566.993576
 21
17.29190622
 31
0.0
  0
ARC
  5
B3
330
32
100
AcDbEntity
  8
YKK_ZWAK
  6
Continuous
 62
   254
100
AcDbCircle
 10
555.54697452
 20
18.15146785
 30
0.0
 40
14.90004285451682
100
AcDbArc
 50
350.99026817
 51
10.67624521
  0
LINE
  5
B4
330
32
100
AcDbEntity
  8
YKK_ZWAK
  6
Continuous
 62
   254
100
AcDbLine
 10
569.831709
 20
24.645041
 30
0.0
 11
567.572791
 21
24.645041
 31
0.0
  0
LINE
  5
B5
330
32
100
AcDbEntity
  8
YKK_ZWAK
  6
Continuous
 62
   254
100
AcDbLine
 10
567.572791
 20
27.772759
 30
0.0
 11
567.263877
 21
27.888602
 31
0.0
  0
LINE
  5
B6
330
32
100
AcDbEntity
  8
YKK_ZWAK
  6
Continuous
 62
   254
100
AcDbLine
 10
567.263877
 20
27.888602
 30
0.0
 11
564.985674
 21
27.888602
 31
0.0
  0
LINE
  5
B7
330
32
100
AcDbEntity
  8
YKK_ZWAK
  6
Continuous
 62
   254
100
AcDbLine
 10
564.985674
 20
27.888602
 30
0.0
 11
564.985674
 21
24.625712
 31
0.0
  0
LINE
  5
B8
330
32
100
AcDbEntity
  8
YKK_ZWAK
  6
Continuous
 62
   254
100
AcDbLine
 10
567.572791
 20
24.645041
 30
0.0
 11
567.572791
 21
27.772759
 31
0.0
  0
LINE
  5
B9
330
32
100
AcDbEntity
  8
YKK_ZWAK
  6
Continuous
 62
   254
100
AcDbLine
 10
567.572791
 20
24.681182
 30
0.0
 11
567.608933
 21
24.645041
 31
0.0
  0
LINE
  5
BA
330
32
100
AcDbEntity
  8
YKK_ZWAK
  6
Continuous
 62
   254
100
AcDbLine
 10
569.831709
 20
28.236131
 30
0.0
 11
569.831709
 21
24.645041
 31
0.0
  0
LINE
  5
BB
330
32
100
AcDbEntity
  8
YKK_ZWAK
  6
Continuous
 62
   254
100
AcDbLine
 10
562.553028
 20
33.487594
 30
0.0
 11
564.889116
 21
33.487594
 31
0.0
  0
LINE
  5
BC
330
32
100
AcDbEntity
  8
YKK_ZWAK
  6
Continuous
 62
   254
100
AcDbLine
 10
556.625823
 20
29.768591
 30
0.0
 11
559.03917
 21
33.44898
 31
0.0
  0
LINE
  5
BD
330
32
100
AcDbEntity
  8
YKK_ZWAK
  6
Continuous
 62
   254
100
AcDbLine
 10
556.625823
 20
33.410366
 30
0.0
 11
556.625823
 21
29.768591
 31
0.0
  0
LINE
  5
BE
330
32
100
AcDbEntity
  8
YKK_ZWAK
  6
Continuous
 62
   254
100
AcDbLine
 10
554.328297
 20
33.410366
 30
0.0
 11
556.625823
 21
33.410366
 31
0.0
  0
LINE
  5
BF
330
32
100
AcDbEntity
  8
YKK_ZWAK
  6
Continuous
 62
   254
100
AcDbLine
 10
559.985256
 20
29.780661
 30
0.0
 11
559.242942
 21
29.780661
 31
0.0
  0
LINE
  5
C0
330
32
100
AcDbEntity
  8
YKK_ZWAK
  6
Continuous
 62
   254
100
AcDbLine
 10
561.771363
 20
33.44898
 30
0.0
 11
559.242942
 21
29.780661
 31
0.0
  0
LINE
  5
C1
330
32
100
AcDbEntity
  8
YKK_ZWAK
  6
Continuous
 62
   254
100
AcDbLine
 10
559.03917
 20
33.44898
 30
0.0
 11
561.771363
 21
33.44898
 31
0.0
  0
LINE
  5
C2
330
32
100
AcDbEntity
  8
YKK_ZWAK
  6
Continuous
 62
   254
100
AcDbLine
 10
569.773765
 20
33.024222
 30
0.0
 11
567.543842
 21
29.838605
 31
0.0
  0
LINE
  5
C3
330
32
100
AcDbEntity
  8
YKK_ZWAK
  6
Continuous
 62
   254
100
AcDbLine
 10
567.341105
 20
33.487594
 30
0.0
 11
570.044065
 21
33.487594
 31
0.0
  0
LINE
  5
C4
330
32
100
AcDbEntity
  8
YKK_ZWAK
  6
Continuous
 62
   254
100
AcDbLine
 10
568.286156
 20
29.838605
 30
0.0
 11
567.543842
 21
29.838605
 31
0.0
  0
LINE
  5
C5
330
32
100
AcDbEntity
  8
YKK_ZWAK
  6
Continuous
 62
   254
100
AcDbLine
 10
564.889116
 20
29.779236
 30
0.0
 11
567.341105
 21
33.487594
 31
0.0
  0
LINE
  5
C6
330
32
100
AcDbEntity
  8
YKK_ZWAK
  6
Continuous
 62
   254
100
AcDbLine
 10
564.889116
 20
33.487594
 30
0.0
 11
564.889116
 21
29.779236
 31
0.0
  0
LINE
  5
C7
330
32
100
AcDbEntity
  8
YKK_ZWAK
  6
Continuous
 62
   254
100
AcDbLine
 10
570.044065
 20
33.487594
 30
0.0
 11
569.773765
 21
33.024222
 31
0.0
  0
LINE
  5
C8
330
32
100
AcDbEntity
  8
YKK_ZWAK
  6
Continuous
 62
     8
100
AcDbLine
 10
573.126014
 20
168.559504
 30
0.0
 11
585.726014
 21
168.559504
 31
0.0
  0
LINE
  5
C9
330
32
100
AcDbEntity
  8
YKK_ZWAK
  6
Continuous
 62
     8
100
AcDbLine
 10
573.126014
 20
154.419504
 30
0.0
 11
585.726014
 21
154.419504
 31
0.0
  0
LINE
  5
CA
330
32
100
AcDbEntity
  8
YKK_ZWAK
  6
Continuous
 62
     8
100
AcDbLine
 10
573.126014
 20
140.279503
 30
0.0
 11
585.726014
 21
140.279503
 31
0.0
  0
LINE
  5
CB
330
32
100
AcDbEntity
  8
YKK_ZWAK
  6
Continuous
 62
     8
100
AcDbLine
 10
573.126014
 20
126.139503
 30
0.0
 11
585.726014
 21
126.139503
 31
0.0
  0
LINE
  5
CC
330
32
100
AcDbEntity
  8
YKK_ZWAK
  6
Continuous
 62
     8
100
AcDbLine
 10
573.126014
 20
111.999503
 30
0.0
 11
585.726014
 21
111.999503
 31
0.0
  0
LINE
  5
CD
330
32
100
AcDbEntity
  8
YKK_ZWAK
  6
Continuous
 62
     8
100
AcDbLine
 10
573.126014
 20
97.859502
 30
0.0
 11
585.726014
 21
97.859502
 31
0.0
  0
LINE
  5
CE
330
32
100
AcDbEntity
  8
YKK_ZWAK
  6
Continuous
 62
     8
100
AcDbLine
 10
573.126014
 20
83.719502
 30
0.0
 11
585.726014
 21
83.719502
 31
0.0
  0
CIRCLE
  5
CF
330
32
100
AcDbEntity
  8
YKK_ZWAK
  6
Continuous
 62
     8
100
AcDbCircle
 10
579.426014
 20
168.559504
 30
0.0
 40
6.299999999999999
  0
CIRCLE
  5
D0
330
32
100
AcDbEntity
  8
YKK_ZWAK
  6
Continuous
 62
     8
100
AcDbCircle
 10
579.426014
 20
140.279503
 30
0.0
 40
6.299999999999999
  0
CIRCLE
  5
D1
330
32
100
AcDbEntity
  8
YKK_ZWAK
  6
Continuous
 62
     8
100
AcDbCircle
 10
579.426014
 20
111.999503
 30
0.0
 40
6.299999999999999
  0
CIRCLE
  5
D2
330
32
100
AcDbEntity
  8
YKK_ZWAK
  6
Continuous
 62
     8
100
AcDbCircle
 10
579.426014
 20
154.419504
 30
0.0
 40
6.299999999999999
  0
CIRCLE
  5
D3
330
32
100
AcDbEntity
  8
YKK_ZWAK
  6
Continuous
 62
     8
100
AcDbCircle
 10
579.426014
 20
126.139503
 30
0.0
 40
6.299999999999999
  0
CIRCLE
  5
D4
330
32
100
AcDbEntity
  8
YKK_ZWAK
  6
Continuous
 62
     8
100
AcDbCircle
 10
579.426014
 20
97.859502
 30
0.0
 40
6.299999999999999
  0
LINE
  5
D5
330
32
100
AcDbEntity
  8
YKK_ZWAK
  6
Continuous
 62
   254
100
AcDbLine
 10
571.000014
 20
222.4995055
 30
0.0
 11
573.000014
 21
222.4995055
 31
0.0
  0
TEXT
  5
D6
330
32
100
AcDbEntity
  8
YKK_ZWAK
  6
Continuous
 62
   131
100
AcDbText
 10
408.18209354
 20
9.752325
 30
0.0
 40
3.5
  1
 ． ．
 41
0.9
  7
YKK_OSSTYLE1
100
AcDbText
  0
TEXT
  5
D7
330
32
100
AcDbEntity
  8
YKK_ZWAK
  6
Continuous
 62
   131
100
AcDbText
 10
424.18209354
 20
9.752325
 30
0.0
 40
3.5
  1
 ． ．
 41
0.9
  7
YKK_OSSTYLE1
100
AcDbText
  0
LINE
  5
D8
330
32
100
AcDbEntity
  8
YKK_ZWAK
  6
Continuous
 62
   131
100
AcDbLine
 10
459.1999862
 20
10.4995
 30
0.0
 11
459.1999862
 21
8.9995
 31
0.0
  0
LINE
  5
D9
330
32
100
AcDbEntity
  8
YKK_ZWAK
  6
Continuous
 62
   131
100
AcDbLine
 10
462.7999738
 20
10.4995
 30
0.0
 11
462.7999738
 21
8.9995
 31
0.0
  0
LINE
  5
DA
330
32
100
AcDbEntity
  8
YKK_ZWAK
  6
Continuous
 62
   131
100
AcDbLine
 10
466.3999614
 20
10.4995
 30
0.0
 11
466.3999614
 21
8.9995
 31
0.0
  0
LINE
  5
DB
330
32
100
AcDbEntity
  8
YKK_ZWAK
  6
Continuous
 62
   131
100
AcDbLine
 10
469.999949
 20
10.4995
 30
0.0
 11
469.999949
 21
8.9995
 31
0.0
  0
LINE
  5
DC
330
32
100
AcDbEntity
  8
YKK_ZWAK
  6
Continuous
 62
   131
100
AcDbLine
 10
473.5999366
 20
10.4995
 30
0.0
 11
473.5999366
 21
8.9995
 31
0.0
  0
LINE
  5
DD
330
32
100
AcDbEntity
  8
YKK_ZWAK
  6
Continuous
 62
   131
100
AcDbLine
 10
477.1999242
 20
10.4995
 30
0.0
 11
477.1999242
 21
8.9995
 31
0.0
  0
LINE
  5
DE
330
32
100
AcDbEntity
  8
YKK_ZWAK
  6
Continuous
 62
   131
100
AcDbLine
 10
480.7999118
 20
10.4995
 30
0.0
 11
480.7999118
 21
8.9995
 31
0.0
  0
LINE
  5
DF
330
32
100
AcDbEntity
  8
YKK_ZWAK
  6
Continuous
 62
   131
100
AcDbLine
 10
484.3998994
 20
10.4995
 30
0.0
 11
484.3998994
 21
8.9995
 31
0.0
  0
LINE
  5
E0
330
32
100
AcDbEntity
  8
YKK_ZWAK
  6
Continuous
 62
   131
100
AcDbLine
 10
487.999887
 20
10.4995
 30
0.0
 11
487.999887
 21
8.9995
 31
0.0
  0
LINE
  5
E1
330
32
100
AcDbEntity
  8
YKK_ZWAK
  6
Continuous
 62
   131
100
AcDbLine
 10
491.5998746
 20
10.4995
 30
0.0
 11
491.5998746
 21
8.9995
 31
0.0
  0
LINE
  5
E2
330
32
100
AcDbEntity
  8
YKK_ZWAK
  6
Continuous
 62
   131
100
AcDbLine
 10
495.1998622
 20
10.4995
 30
0.0
 11
495.1998622
 21
8.9995
 31
0.0
  0
LINE
  5
E3
330
32
100
AcDbEntity
  8
YKK_ZWAK
  6
Continuous
 62
   131
100
AcDbLine
 10
498.7998498
 20
10.4995
 30
0.0
 11
498.7998498
 21
8.9995
 31
0.0
  0
LINE
  5
E4
330
32
100
AcDbEntity
  8
YKK_ZWAK
  6
Continuous
 62
   131
100
AcDbLine
 10
502.3998374
 20
10.4995
 30
0.0
 11
502.3998374
 21
8.9995
 31
0.0
  0
LINE
  5
E5
330
32
100
AcDbEntity
  8
YKK_ZWAK
  6
Continuous
 62
   131
100
AcDbLine
 10
505.999825
 20
10.4995
 30
0.0
 11
505.999825
 21
8.9995
 31
0.0
  0
LINE
  5
E6
330
32
100
AcDbEntity
  8
YKK_ZWAK
  6
Continuous
 62
   131
100
AcDbLine
 10
509.5998126
 20
10.4995
 30
0.0
 11
509.5998126
 21
8.9995
 31
0.0
  0
LINE
  5
E7
330
32
100
AcDbEntity
  8
YKK_ZWAK
  6
Continuous
 62
   131
100
AcDbLine
 10
513.1998002
 20
10.4995
 30
0.0
 11
513.1998002
 21
8.9995
 31
0.0
  0
LINE
  5
E8
330
32
100
AcDbEntity
  8
YKK_ZWAK
  6
Continuous
 62
   131
100
AcDbLine
 10
516.7997878
 20
10.4995
 30
0.0
 11
516.7997878
 21
8.9995
 31
0.0
  0
LINE
  5
E9
330
32
100
AcDbEntity
  8
YKK_ZWAK
  6
Continuous
 62
   131
100
AcDbLine
 10
520.3997754
 20
10.4995
 30
0.0
 11
520.3997754
 21
8.9995
 31
0.0
  0
ENDBLK
  5
EB
330
32
100
AcDbEntity
  8
0
100
AcDbBlockEnd
  0
ENDSEC
  0
SECTION
  2
ENTITIES
  0
LINE
  5
2B
330
2
100
AcDbEntity
  8
YKK_11
  6
ByBlock
 62
     0
100
AcDbLine
 10
355.54697239
 20
73.96080264
 30
0.0
 11
238.74697239
 21
73.96080264
 31
0.0
  0
LINE
  5
2D
330
2
100
AcDbEntity
  8
YKK_11
  6
ByBlock
 62
     0
100
AcDbLine
 10
355.54697239
 20
75.16080264
 30
0.0
 11
238.74697239
 21
75.16080264
 31
0.0
  0
LINE
  5
2E
330
2
100
AcDbEntity
  8
YKK_11
  6
ByBlock
 62
     0
100
AcDbLine
 10
355.54697239
 20
97.76080264
 30
0.0
 11
238.24697239
 21
97.76080264
 31
0.0
  0
LINE
  5
2F
330
2
100
AcDbEntity
  8
YKK_11
  6
ByBlock
 62
     0
100
AcDbLine
 10
355.54697239
 20
96.56080264
 30
0.0
 11
238.24697239
 21
96.56080264
 31
0.0
  0
INSERT
  5
30
330
2
100
AcDbEntity
  8
YKK_ZWAK
100
AcDbBlockReference
  2
A201
 10
-19.000001
 20
-8.9995
 30
0.0
  0
LINE
  5
EC
330
2
100
AcDbEntity
  8
YKK_12
  6
Continuous
100
AcDbLine
 10
237.04697208
 20
100.56080264
 30
0.0
 11
355.54697208
 21
100.56080264
 31
0.0
  0
LINE
  5
EE
330
2
100
AcDbEntity
  8
YKK_12
  6
Continuous
100
AcDbLine
 10
233.04697208
 20
67.56080264
 30
0.0
 11
355.54697208
 21
67.56080264
 31
0.0
  0
LINE
  5
EF
330
2
100
AcDbEntity
  8
YKK_12
  6
Continuous
100
AcDbLine
 10
233.04697208
 20
68.76080264
 30
0.0
 11
355.54697208
 21
68.76080264
 31
0.0
  0
LINE
  5
F0
330
2
100
AcDbEntity
  8
YKK_A1
  6
Continuous
100
AcDbLine
 10
319.89302799
 20
311.18020603
 30
0.0
 11
276.39303059
 21
311.18020603
 31
0.0
  0
LINE
  5
F2
330
2
100
AcDbEntity
  8
YKK_A1
  6
Continuous
100
AcDbLine
 10
276.39303059
 20
261.18020901
 30
0.0
 11
319.89302799
 21
261.18020901
 31
0.0
  0
LINE
  5
F3
330
2
100
AcDbEntity
  8
YKK_A1
  6
Continuous
100
AcDbLine
 10
277.64303051
 20
309.9302061
 30
0.0
 11
318.64302807
 21
309.9302061
 31
0.0
  0
LINE
  5
F4
330
2
100
AcDbEntity
  8
YKK_A1
  6
Continuous
100
AcDbLine
 10
277.64303051
 20
262.43020893
 30
0.0
 11
318.64302807
 21
262.43020893
 31
0.0
  0
LINE
  5
F5
330
2
100
AcDbEntity
  8
YKK_A1
  6
Continuous
100
AcDbLine
 10
277.8430305
 20
309.78020611
 30
0.0
 11
318.44302808
 21
309.78020611
 31
0.0
  0
LINE
  5
F6
330
2
100
AcDbEntity
  8
YKK_A1
  6
Continuous
100
AcDbLine
 10
277.8430305
 20
262.68020892
 30
0.0
 11
318.44302808
 21
262.68020892
 31
0.0
  0
LINE
  5
F7
330
2
100
AcDbEntity
  8
YKK_A1
  6
YCENTER_1
100
AcDbLine
 10
278.79303044
 20
283.68020767
 30
0.0
 11
286.84896787
 21
283.68020767
 31
0.0
  0
LINE
  5
F9
330
2
100
AcDbEntity
  8
YKK_A1
  6
Continuous
100
AcDbLine
 10
282.34303023
 20
281.63020779
 30
0.0
 11
283.44303017
 21
281.63020779
 31
0.0
  0
LINE
  5
FA
330
2
100
AcDbEntity
  8
YKK_A1
  6
Continuous
100
AcDbLine
 10
282.34303023
 20
285.73020755
 30
0.0
 11
283.44303017
 21
285.73020755
 31
0.0
  0
LINE
  5
FB
330
2
100
AcDbEntity
  8
YKK_A1
  6
Continuous
100
AcDbLine
 10
283.46803017
 20
285.80520754
 30
0.0
 11
282.31803023
 21
285.80520754
 31
0.0
  0
LINE
  5
FC
330
2
100
AcDbEntity
  8
YKK_A1
  6
Continuous
100
AcDbLine
 10
282.31803023
 20
281.55520779
 30
0.0
 11
283.46803017
 21
281.55520779
 31
0.0
  0
LINE
  5
FD
330
2
100
AcDbEntity
  8
YKK_D
100
AcDbLine
 10
237.04698607
 20
130.76080999
 30
0.0
 11
479.04698607
 21
130.76080999
 31
0.0
  0
LINE
  5
FF
330
2
100
AcDbEntity
  8
YKK_D
100
AcDbLine
 10
466.04698607
 20
46.46080694
 30
0.0
 11
250.04698607
 21
46.46080694
 31
0.0
  0
LINE
  5
100
330
2
100
AcDbEntity
  8
YKK_D
100
AcDbLine
 10
251.04697272
 20
101.76080999
 30
0.0
 11
288.04698607
 21
101.76080999
 31
0.0
  0
LINE
  5
101
330
2
100
AcDbEntity
  8
YKK_D
100
AcDbLine
 10
283.14303978
 20
231.18019986
 30
0.0
 11
313.14300926
 21
231.18019986
 31
0.0
  0
LINE
  5
102
330
2
100
AcDbEntity
  8
YKK_D
100
AcDbLine
 10
277.84302146
 20
246.18019986
 30
0.0
 11
318.44305809
 21
246.18019986
 31
0.0
  0
TEXT
  5
103
330
2
100
AcDbEntity
  8
YKK_D
100
AcDbText
 10
286.04698607
 20
82.19075923
 30
0.0
 40
6.0
  1
33
 50
90.0
 41
0.8
100
AcDbText
1001
ACAD
1000
MTEXTBEGIN
1070
    73
1070
     1
1070
    44
1040
1.0
1070
    74
1070
     0
1000
MTEXTEND
  0
LINE
  5
104
330
2
100
AcDbEntity
  8
YKK_D
100
AcDbLine
 10
278.14303978
 20
231.18019986
 30
0.0
 11
286.80329381
 21
231.18019986
 31
0.0
  0
LINE
  5
105
330
2
100
AcDbEntity
  8
YKK_11
  6
ByBlock
 62
     0
100
AcDbLine
 10
79.45880118
 20
333.46823689
 30
0.0
 11
79.45880118
 21
196.63441589
 31
0.0
  0
LINE
  5
106
330
2
100
AcDbEntity
  8
YKK_11
  6
ByBlock
 62
     0
100
AcDbLine
 10
78.25880118
 20
196.72284989
 30
0.0
 11
78.25880118
 21
333.46823689
 31
0.0
  0
LINE
  5
107
330
2
100
AcDbEntity
  8
YKK_11
  6
ByBlock
 62
     0
100
AcDbLine
 10
102.05880118
 20
257.57438889
 30
0.0
 11
102.05880118
 21
196.72284989
 31
0.0
  0
LINE
  5
108
330
2
100
AcDbEntity
  8
YKK_11
  6
ByBlock
 62
     0
100
AcDbLine
 10
103.25880118
 20
196.66823689
 30
0.0
 11
103.25880118
 21
257.57438889
 31
0.0
  0
LINE
  5
109
330
2
100
AcDbEntity
  8
YKK_12
  6
Continuous
100
AcDbLine
 10
74.25880077
 20
362.66823704
 30
0.0
 11
74.25880077
 21
196.53001198
 31
0.0
  0
LINE
  5
10A
330
2
100
AcDbEntity
  8
YKK_12
  6
Continuous
100
AcDbLine
 10
106.05880077
 20
337.66823704
 30
0.0
 11
106.05880077
 21
196.9554795
 31
0.0
  0
LINE
  5
10B
330
2
100
AcDbEntity
  8
YKK_12
  6
Continuous
100
AcDbLine
 10
107.25880077
 20
196.74274574
 30
0.0
 11
107.25880077
 21
327.66823704
 31
0.0
  0
LINE
  5
10C
330
2
100
AcDbEntity
  8
YKK_D
100
AcDbLine
 10
130.75880311
 20
320.66823921
 30
0.0
 11
130.75880311
 21
92.66823921
 31
0.0
  0
LINE
  5
10D
330
2
100
AcDbEntity
  8
YKK_D
100
AcDbLine
 10
54.25880311
 20
80.66823921
 30
0.0
 11
54.25880311
 21
334.66823921
 31
0.0
  0
LINE
  5
10E
330
2
100
AcDbEntity
  8
YKK_11
  6
ByBlock
 62
     0
100
AcDbLine
 10
76.65880089
 20
75.66823679
 30
0.0
 11
107.25880089
 21
75.66823679
 31
0.0
  0
LINE
  5
10F
330
2
100
AcDbEntity
  8
YKK_11
  6
ByBlock
 62
     0
100
AcDbLine
 10
107.25880089
 20
74.46823679
 30
0.0
 11
76.65880089
 21
74.46823679
 31
0.0
  0
ARC
  5
110
330
2
100
AcDbEntity
  8
YKK_13
  6
YHIDDEN_1
100
AcDbCircle
 10
103.85880077
 20
54.16823704
 30
0.0
 40
2.299999999999998
100
AcDbArc
 50
270.0
 51
0.0
  0
ARC
  5
113
330
2
100
AcDbEntity
  8
YKK_13
  6
YHIDDEN_1
100
AcDbCircle
 10
103.85880077
 20
70.76823704
 30
0.0
 40
2.299999999999998
100
AcDbArc
 50
0.0
 51
90.0
  0
LINE
  5
114
330
2
100
AcDbEntity
  8
YKK_D
100
AcDbLine
 10
74.25880311
 20
131.86823616
 30
0.0
 11
107.25880311
 21
131.86823616
 31
0.0
  0
LINE
  5
115
330
2
100
AcDbEntity
  8
YKK_D
100
AcDbLine
 10
103.25880311
 20
111.86823616
 30
0.0
 11
107.25880311
 21
111.86823616
 31
0.0
  0
ARC
  5
116
330
2
100
AcDbEntity
  8
YKK_11
  6
ByBlock
 62
     0
100
AcDbCircle
 10
76.65880089
 20
74.46823679
 30
0.0
 40
1.199999999999999
100
AcDbArc
 50
89.99998128
 51
180.00001985
  0
LINE
  5
117
330
2
100
AcDbEntity
  8
YKK_12
  6
Continuous
100
AcDbLine
 10
74.25880077
 20
50.66823704
 30
0.0
 11
74.25880077
 21
191.66823704
 31
0.0
  0
LINE
  5
118
330
2
100
AcDbEntity
  8
YKK_D
100
AcDbLine
 10
54.25880311
 20
50.66823921
 30
0.0
 11
54.25880311
 21
75.66823921
 31
0.0
  0
LWPOLYLINE
  5
119
330
2
100
AcDbEntity
  8
YKK_D
  6
ByBlock
100
AcDbPolyline
 90
        2
 70
     1
 43
0.85
 10
54.25880311
 20
75.77448921
 42
1.0
 10
54.25880311
 20
75.56198921
 42
1.0
  0
LWPOLYLINE
  5
11A
330
2
100
AcDbEntity
  8
YKK_D
  6
ByBlock
100
AcDbPolyline
 90
        2
 70
     1
 43
0.85
 10
54.25880311
 20
75.56198921
 42
1.0
 10
54.25880311
 20
75.77448921
 42
1.0
  0
LINE
  5
11B
330
2
100
AcDbEntity
  8
YKK_D
100
AcDbLine
 10
70.25880072
 20
50.66823921
 30
0.0
 11
53.25880311
 21
50.66823921
 31
0.0
  0
LWPOLYLINE
  5
11C
330
2
100
AcDbEntity
  8
YKK_D
  6
ByBlock
100
AcDbPolyline
 90
        2
 70
     1
 43
0.85
 10
54.25880311
 20
50.77448921
 42
1.0
 10
54.25880311
 20
50.56198921
 42
1.0
  0
TEXT
  5
11D
330
2
100
AcDbEntity
  8
YKK_D
100
AcDbText
 10
53.25880311
 20
60.08600571
 30
0.0
 40
6.0
  1
25
 50
90.0
 41
0.8
100
AcDbText
1001
ACAD
1000
MTEXTBEGIN
1070
    73
1070
     1
1070
    44
1040
1.0
1070
    74
1070
     0
1000
MTEXTEND
  0
LINE
  5
11E
330
2
100
AcDbEntity
  8
YKK_D
100
AcDbLine
 10
95.45880006
 20
46.66823683
 30
0.0
 11
95.45880006
 21
29.66823921
 31
0.0
  0
LINE
  5
11F
330
2
100
AcDbEntity
  8
YKK_D
100
AcDbLine
 10
75.45880006
 20
46.66823683
 30
0.0
 11
75.45880006
 21
29.66823921
 31
0.0
  0
LINE
  5
120
330
2
100
AcDbEntity
  8
YKK_D
100
AcDbLine
 10
95.45880006
 20
30.66823921
 30
0.0
 11
75.45880006
 21
30.66823921
 31
0.0
  0
TEXT
  5
121
330
2
100
AcDbEntity
  8
YKK_D
100
AcDbText
 10
82.31565285
 20
31.66823921
 30
0.0
 40
6.0
  1
20
 41
0.8
100
AcDbText
1001
ACAD
1000
MTEXTBEGIN
1070
    73
1070
     1
1070
    44
1040
1.0
1070
    74
1070
     0
1000
MTEXTEND
  0
LWPOLYLINE
  5
122
330
2
100
AcDbEntity
  8
YKK_D
  6
ByBlock
100
AcDbPolyline
 90
        2
 70
     1
 43
0.85
 10
75.56505006
 20
30.66823921
 42
1.0
 10
75.35255006
 20
30.66823921
 42
1.0
  0
LWPOLYLINE
  5
123
330
2
100
AcDbEntity
  8
YKK_D
  6
ByBlock
100
AcDbPolyline
 90
        2
 70
     1
 43
0.85
 10
95.35255006
 20
30.66823921
 42
1.0
 10
95.56505006
 20
30.66823921
 42
1.0
  0
LINE
  5
124
330
2
100
AcDbEntity
  8
YKK_11
  6
ByBlock
 62
     0
100
AcDbLine
 10
95.45880089
 20
50.66823679
 30
0.0
 11
76.65880089
 21
50.66823679
 31
0.0
  0
LINE
  5
125
330
2
100
AcDbEntity
  8
YKK_11
  6
ByBlock
 62
     0
100
AcDbLine
 10
76.65880089
 20
51.86823679
 30
0.0
 11
95.45880089
 21
51.86823679
 31
0.0
  0
LINE
  5
126
330
2
100
AcDbEntity
  8
YKK_13
  6
YHIDDEN_1
100
AcDbLine
 10
103.85880077
 20
51.86823704
 30
0.0
 11
77.15880077
 21
51.86823704
 31
0.0
  0
LINE
  5
127
330
2
100
AcDbEntity
  8
YKK_13
  6
YHIDDEN_1
100
AcDbLine
 10
77.15880077
 20
54.16823704
 30
0.0
 11
103.25880077
 21
54.16823704
 31
0.0
  0
LINE
  5
128
330
2
100
AcDbEntity
  8
YKK_11
  6
ByBlock
 62
     0
100
AcDbLine
 10
75.45880089
 20
51.86823679
 30
0.0
 11
75.45880089
 21
74.46823679
 31
0.0
  0
LINE
  5
129
330
2
100
AcDbEntity
  8
YKK_11
  6
ByBlock
 62
     0
100
AcDbLine
 10
76.65880089
 20
74.46823679
 30
0.0
 11
76.65880089
 21
51.86823679
 31
0.0
  0
LINE
  5
12A
330
2
100
AcDbEntity
  8
YKK_13
  6
YHIDDEN_1
100
AcDbLine
 10
77.15880077
 20
54.16823704
 30
0.0
 11
77.15880077
 21
51.86823704
 31
0.0
  0
ARC
  5
12B
330
2
100
AcDbEntity
  8
YKK_11
  6
ByBlock
 62
     0
100
AcDbCircle
 10
76.65880089
 20
51.86823679
 30
0.0
 40
1.199999999999999
100
AcDbArc
 50
180.00001985
 51
270.00000112
  0
LINE
  5
12C
330
2
100
AcDbEntity
  8
YKK_12
  6
Continuous
100
AcDbLine
 10
74.25880077
 20
50.66823704
 30
0.0
 11
76.65880077
 21
50.66823704
 31
0.0
  0
LINE
  5
12D
330
2
100
AcDbEntity
  8
YKK_13
  6
YHIDDEN_1
100
AcDbLine
 10
103.85880077
 20
70.16823704
 30
0.0
 11
103.85880077
 21
54.76823704
 31
0.0
  0
LINE
  5
12E
330
2
100
AcDbEntity
  8
YKK_13
  6
YHIDDEN_1
100
AcDbLine
 10
106.15880077
 20
70.76823704
 30
0.0
 11
106.15880077
 21
54.16823704
 31
0.0
  0
LINE
  5
12F
330
2
100
AcDbEntity
  8
YKK_11
  6
ByBlock
 62
     0
100
AcDbLine
 10
95.45880089
 20
51.86823679
 30
0.0
 11
95.45880089
 21
50.66823679
 31
0.0
  0
ARC
  5
130
330
2
100
AcDbEntity
  8
YKK_13
  6
YHIDDEN_1
100
AcDbCircle
 10
103.25880077
 20
54.76823704
 30
0.0
 40
0.6
100
AcDbArc
 50
270.0
 51
0.0
  0
LINE
  5
131
330
2
100
AcDbEntity
  8
YKK_13
  6
YHIDDEN_1
100
AcDbLine
 10
103.85880077
 20
73.06823704
 30
0.0
 11
93.15880077
 21
73.06823704
 31
0.0
  0
LINE
  5
132
330
2
100
AcDbEntity
  8
YKK_13
  6
YHIDDEN_1
100
AcDbLine
 10
93.15880077
 20
70.76823704
 30
0.0
 11
103.25880077
 21
70.76823704
 31
0.0
  0
LINE
  5
133
330
2
100
AcDbEntity
  8
YKK_13
  6
YHIDDEN_1
100
AcDbLine
 10
93.15880077
 20
73.06823704
 30
0.0
 11
93.15880077
 21
70.76823704
 31
0.0
  0
LINE
  5
134
330
2
100
AcDbEntity
  8
YKK_11
  6
ByBlock
 62
     0
100
AcDbLine
 10
104.95880074
 20
74.46823722
 30
0.0
 11
104.85880074
 21
74.46823722
 31
0.0
  0
ARC
  5
135
330
2
100
AcDbEntity
  8
YKK_13
  6
YHIDDEN_1
100
AcDbCircle
 10
103.25880077
 20
70.16823704
 30
0.0
 40
0.6
100
AcDbArc
 50
0.0
 51
90.0
  0
LINE
  5
136
330
2
100
AcDbEntity
  8
YKK_11
  6
ByBlock
 62
     0
100
AcDbLine
 10
102.0588012
 20
191.66823698
 30
0.0
 11
102.0588012
 21
80.66823698
 31
0.0
  0
LINE
  5
137
330
2
100
AcDbEntity
  8
YKK_11
  6
ByBlock
 62
     0
100
AcDbLine
 10
78.2588012
 20
191.66823698
 30
0.0
 11
78.2588012
 21
81.86823698
 31
0.0
  0
LINE
  5
138
330
2
100
AcDbEntity
  8
YKK_11
  6
ByBlock
 62
     0
100
AcDbLine
 10
79.4588012
 20
191.66823698
 30
0.0
 11
79.4588012
 21
82.36823698
 31
0.0
  0
LINE
  5
139
330
2
100
AcDbEntity
  8
YKK_11
  6
ByBlock
 62
     0
100
AcDbLine
 10
103.2588012
 20
80.66823698
 30
0.0
 11
103.2588012
 21
191.66823698
 31
0.0
  0
LINE
  5
13A
330
2
100
AcDbEntity
  8
YKK_12
  6
Continuous
100
AcDbLine
 10
106.05880077
 20
75.66823704
 30
0.0
 11
106.05880077
 21
191.66823704
 31
0.0
  0
TEXT
  5
13B
330
2
100
AcDbEntity
  8
YKK_D
100
AcDbText
 10
87.68875235
 20
132.86823616
 30
0.0
 40
6.0
  1
33
 41
0.8
100
AcDbText
1001
ACAD
1000
MTEXTBEGIN
1070
    73
1070
     1
1070
    44
1040
1.0
1070
    74
1070
     0
1000
MTEXTEND
  0
LINE
  5
13C
330
2
100
AcDbEntity
  8
YKK_D
100
AcDbLine
 10
70.2588012
 20
80.66823921
 30
0.0
 11
53.25880311
 21
80.66823921
 31
0.0
  0
LINE
  5
13D
330
2
100
AcDbEntity
  8
YKK_D
100
AcDbLine
 10
66.8900697
 20
75.66823921
 30
0.0
 11
53.25880311
 21
75.66823921
 31
0.0
  0
LINE
  5
13E
330
2
100
AcDbEntity
  8
YKK_D
100
AcDbLine
 10
70.25880072
 20
75.66823921
 30
0.0
 11
53.25880311
 21
75.66823921
 31
0.0
  0
TEXT
  5
13F
330
2
100
AcDbEntity
  8
YKK_D
100
AcDbText
 10
53.25880311
 20
75.80757931
 30
0.0
 40
6.0
  1
5
 50
90.0
 41
0.8
100
AcDbText
1001
ACAD
1000
MTEXTBEGIN
1070
    73
1070
     1
1070
    44
1040
1.0
1070
    74
1070
     0
1000
MTEXTEND
  0
LINE
  5
140
330
2
100
AcDbEntity
  8
YKK_D
100
AcDbLine
 10
54.25880311
 20
75.66823921
 30
0.0
 11
54.25880311
 21
80.66823921
 31
0.0
  0
LWPOLYLINE
  5
141
330
2
100
AcDbEntity
  8
YKK_D
  6
ByBlock
100
AcDbPolyline
 90
        2
 70
     1
 43
0.85
 10
54.25880311
 20
80.56198921
 42
1.0
 10
54.25880311
 20
80.77448921
 42
1.0
  0
LWPOLYLINE
  5
142
330
2
100
AcDbEntity
  8
YKK_D
  6
ByBlock
100
AcDbPolyline
 90
        2
 70
     1
 43
0.85
 10
54.25880311
 20
80.77448921
 42
1.0
 10
54.25880311
 20
80.56198921
 42
1.0
  0
LINE
  5
143
330
2
100
AcDbEntity
  8
YKK_11
  6
ByBlock
 62
     0
100
AcDbLine
 10
79.4588012
 20
80.66823698
 30
0.0
 11
100.8588012
 21
80.66823698
 31
0.0
  0
LINE
  5
144
330
2
100
AcDbEntity
  8
YKK_11
  6
ByBlock
 62
     0
100
AcDbLine
 10
79.9588012
 20
81.86823698
 30
0.0
 11
100.8588012
 21
81.86823698
 31
0.0
  0
ARC
  5
145
330
2
100
AcDbEntity
  8
YKK_11
  6
ByBlock
 62
     0
100
AcDbCircle
 10
79.4588012
 20
81.86823698
 30
0.0
 40
1.199999999999999
100
AcDbArc
 50
180.00001985
 51
270.00000112
  0
LINE
  5
146
330
2
100
AcDbEntity
  8
YKK_11
  6
ByBlock
 62
     0
100
AcDbLine
 10
79.4588012
 20
82.36823698
 30
0.0
 11
79.9588012
 21
81.86823698
 31
0.0
  0
LINE
  5
147
330
2
100
AcDbEntity
  8
YKK_11
  6
ByBlock
 62
     0
100
AcDbLine
 10
100.8588012
 20
81.86823698
 30
0.0
 11
100.8588012
 21
91.86823698
 31
0.0
  0
LINE
  5
148
330
2
100
AcDbEntity
  8
YKK_11
  6
ByBlock
 62
     0
100
AcDbLine
 10
102.0588012
 20
80.66823698
 30
0.0
 11
103.2588012
 21
80.66823698
 31
0.0
  0
ARC
  5
149
330
2
100
AcDbEntity
  8
YKK_11
  6
ByBlock
 62
     0
100
AcDbCircle
 10
100.8588012
 20
81.86823698
 30
0.0
 40
1.199999999999999
100
AcDbArc
 50
270.00000112
 51
0.0
  0
LINE
  5
14A
330
2
100
AcDbEntity
  8
YKK_11
  6
ByBlock
 62
     0
100
AcDbLine
 10
100.8588012
 20
91.86823698
 30
0.0
 11
102.0588012
 21
91.86823698
 31
0.0
  0
LINE
  5
14B
330
2
100
AcDbEntity
  8
YKK_D
100
AcDbLine
 10
78.25881074
 20
111.86823616
 30
0.0
 11
103.25880311
 21
111.86823616
 31
0.0
  0
LINE
  5
14C
330
2
100
AcDbEntity
  8
YKK_D
100
AcDbLine
 10
74.25881074
 20
111.86823616
 30
0.0
 11
65.65881074
 21
111.86823616
 31
0.0
  0
TEXT
  5
14D
330
2
100
AcDbEntity
  8
YKK_D
100
AcDbText
 10
66.71160261
 20
112.86823616
 30
0.0
 40
6.0
  1
4
 41
0.8
100
AcDbText
1001
ACAD
1000
MTEXTBEGIN
1070
    73
1070
     1
1070
    44
1040
1.0
1070
    74
1070
     0
1000
MTEXTEND
  0
LINE
  5
14E
330
2
100
AcDbEntity
  8
YKK_D
100
AcDbLine
 10
78.25881074
 20
111.86823616
 30
0.0
 11
74.25881074
 21
111.86823616
 31
0.0
  0
LWPOLYLINE
  5
14F
330
2
100
AcDbEntity
  8
YKK_D
  6
ByBlock
100
AcDbPolyline
 90
        2
 70
     1
 43
0.85
 10
74.36506074
 20
111.86823616
 42
1.0
 10
74.15256074
 20
111.86823616
 42
1.0
  0
LWPOLYLINE
  5
150
330
2
100
AcDbEntity
  8
YKK_D
  6
ByBlock
100
AcDbPolyline
 90
        2
 70
     1
 43
0.85
 10
78.15256074
 20
111.86823616
 42
1.0
 10
78.36506074
 20
111.86823616
 42
1.0
  0
LWPOLYLINE
  5
151
330
2
100
AcDbEntity
  8
YKK_D
  6
ByBlock
100
AcDbPolyline
 90
        2
 70
     1
 43
0.85
 10
78.36506074
 20
111.86823616
 42
1.0
 10
78.15256074
 20
111.86823616
 42
1.0
  0
LWPOLYLINE
  5
152
330
2
100
AcDbEntity
  8
YKK_D
  6
ByBlock
100
AcDbPolyline
 90
        2
 70
     1
 43
0.85
 10
74.36505311
 20
131.86823616
 42
1.0
 10
74.15255311
 20
131.86823616
 42
1.0
  0
TEXT
  5
153
330
2
100
AcDbEntity
  8
YKK_D
100
AcDbText
 10
87.6765696
 20
112.86823616
 30
0.0
 40
6.0
  1
25
 41
0.8
100
AcDbText
1001
ACAD
1000
MTEXTBEGIN
1070
    73
1070
     1
1070
    44
1040
1.0
1070
    74
1070
     0
1000
MTEXTEND
  0
LWPOLYLINE
  5
154
330
2
100
AcDbEntity
  8
YKK_D
  6
ByBlock
100
AcDbPolyline
 90
        2
 70
     1
 43
0.85
 10
103.36505311
 20
111.86823616
 42
1.0
 10
103.15255311
 20
111.86823616
 42
1.0
  0
LWPOLYLINE
  5
155
330
2
100
AcDbEntity
  8
YKK_D
  6
ByBlock
100
AcDbPolyline
 90
        2
 70
     1
 43
0.85
 10
103.15255311
 20
111.86823616
 42
1.0
 10
103.36505311
 20
111.86823616
 42
1.0
  0
LINE
  5
156
330
2
100
AcDbEntity
  8
YKK_11
  6
ByBlock
 62
     0
100
AcDbLine
 10
233.04697207
 20
69.96080259
 30
0.0
 11
233.04697207
 21
100.56080259
 31
0.0
  0
LINE
  5
157
330
2
100
AcDbEntity
  8
YKK_11
  6
ByBlock
 62
     0
100
AcDbLine
 10
231.84697207
 20
100.56080259
 30
0.0
 11
231.84697207
 21
69.96080259
 31
0.0
  0
ARC
  5
158
330
2
100
AcDbEntity
  8
YKK_11
  6
ByBlock
 62
     0
100
AcDbCircle
 10
107.25880089
 20
75.66823679
 30
0.0
 40
1.199999999999999
100
AcDbArc
 50
270.00000112
 51
0.0
  0
LINE
  5
159
330
2
100
AcDbEntity
  8
YKK_11
  6
ByBlock
 62
     0
100
AcDbLine
 10
237.04697239
 20
96.56080264
 30
0.0
 11
237.04697239
 21
73.96080264
 31
0.0
  0
LINE
  5
15A
330
2
100
AcDbEntity
  8
YKK_11
  6
ByBlock
 62
     0
100
AcDbLine
 10
238.74697239
 20
73.96080264
 30
0.0
 11
238.74697239
 21
96.56080264
 31
0.0
  0
LINE
  5
15B
330
2
100
AcDbEntity
  8
YKK_11
  6
ByBlock
 62
     0
100
AcDbLine
 10
238.24697239
 20
96.56080264
 30
0.0
 11
238.24697239
 21
74.46080264
 31
0.0
  0
LINE
  5
15C
330
2
100
AcDbEntity
  8
YKK_13
  6
YCENTER_1
100
AcDbLine
 10
235.04697208
 20
73.44788972
 30
0.0
 11
235.04697208
 21
118.26080264
 31
0.0
  0
LINE
  5
15D
330
2
100
AcDbEntity
  8
YKK_13
  6
YHIDDEN_1
100
AcDbLine
 10
209.24697208
 20
73.36080264
 30
0.0
 11
209.24697208
 21
100.06080264
 31
0.0
  0
LINE
  5
15E
330
2
100
AcDbEntity
  8
YKK_13
  6
YHIDDEN_1
100
AcDbLine
 10
230.44697208
 20
73.36080264
 30
0.0
 11
230.44697208
 21
84.06080264
 31
0.0
  0
LINE
  5
15F
330
2
100
AcDbEntity
  8
YKK_13
  6
YHIDDEN_1
100
AcDbLine
 10
211.54697208
 20
100.06080264
 30
0.0
 11
211.54697208
 21
73.96080264
 31
0.0
  0
LINE
  5
160
330
2
100
AcDbEntity
  8
YKK_13
  6
YHIDDEN_1
100
AcDbLine
 10
228.14697208
 20
84.06080264
 30
0.0
 11
228.14697208
 21
73.96080264
 31
0.0
  0
LINE
  5
161
330
2
100
AcDbEntity
  8
YKK_D
100
AcDbLine
 10
267.04698607
 20
72.76080999
 30
0.0
 11
267.04698607
 21
97.76080999
 31
0.0
  0
LINE
  5
162
330
2
100
AcDbEntity
  8
YKK_D
100
AcDbLine
 10
130.75880311
 20
75.66823921
 30
0.0
 11
130.75880311
 21
64.54823311
 31
0.0
  0
LWPOLYLINE
  5
163
330
2
100
AcDbEntity
  8
YKK_D
  6
ByBlock
100
AcDbPolyline
 90
        2
 70
     1
 43
0.85
 10
130.75880311
 20
75.77448921
 42
1.0
 10
130.75880311
 20
75.56198921
 42
1.0
  0
TEXT
  5
164
330
2
100
AcDbEntity
  8
YKK_D
100
AcDbText
 10
129.75880311
 20
65.76671026
 30
0.0
 40
6.0
  1
10
 50
90.0
 41
0.8
100
AcDbText
1001
ACAD
1000
MTEXTBEGIN
1070
    73
1070
     1
1070
    44
1040
1.0
1070
    74
1070
     0
1000
MTEXTEND
  0
LINE
  5
165
330
2
100
AcDbEntity
  8
YKK_11
  6
ByBlock
 62
     0
100
AcDbLine
 10
243.04697207
 20
69.96080259
 30
0.0
 11
233.04697207
 21
69.96080259
 31
0.0
  0
LINE
  5
166
330
2
100
AcDbEntity
  8
YKK_11
  6
ByBlock
 62
     0
100
AcDbLine
 10
233.04697207
 20
68.76080259
 30
0.0
 11
243.04697207
 21
68.76080259
 31
0.0
  0
LINE
  5
167
330
2
100
AcDbEntity
  8
YKK_11
  6
ByBlock
 62
     0
100
AcDbLine
 10
238.24697239
 20
72.76080264
 30
0.0
 11
247.04697239
 21
72.76080264
 31
0.0
  0
LINE
  5
168
330
2
100
AcDbEntity
  8
YKK_D
100
AcDbLine
 10
243.04698607
 20
46.46080694
 30
0.0
 11
233.04698607
 21
46.46080694
 31
0.0
  0
LINE
  5
169
330
2
100
AcDbEntity
  8
YKK_13
  6
YHIDDEN_1
100
AcDbLine
 10
227.54697208
 20
73.36080264
 30
0.0
 11
212.14697208
 21
73.36080264
 31
0.0
  0
LINE
  5
16A
330
2
100
AcDbEntity
  8
YKK_13
  6
YHIDDEN_1
100
AcDbLine
 10
228.14697208
 20
71.06080264
 30
0.0
 11
211.54697208
 21
71.06080264
 31
0.0
  0
ARC
  5
16B
330
2
100
AcDbEntity
  8
YKK_13
  6
YHIDDEN_1
100
AcDbCircle
 10
211.54697208
 20
73.36080264
 30
0.0
 40
2.299999999999998
100
AcDbArc
 50
180.0
 51
270.0
  0
ARC
  5
16C
330
2
100
AcDbEntity
  8
YKK_13
  6
YHIDDEN_1
100
AcDbCircle
 10
212.14697208
 20
73.96080264
 30
0.0
 40
0.6
100
AcDbArc
 50
180.0
 51
270.0
  0
LINE
  5
16D
330
2
100
AcDbEntity
  8
YKK_D
100
AcDbLine
 10
233.04698607
 20
62.46080264
 30
0.0
 11
233.04698607
 21
45.46080694
 31
0.0
  0
LINE
  5
16E
330
2
100
AcDbEntity
  8
YKK_D
100
AcDbLine
 10
233.04698607
 20
46.46080694
 30
0.0
 11
221.92697997
 21
46.46080694
 31
0.0
  0
TEXT
  5
16F
330
2
100
AcDbEntity
  8
YKK_D
100
AcDbText
 10
223.14545712
 20
47.46080694
 30
0.0
 40
6.0
  1
10
 41
0.8
100
AcDbText
1001
ACAD
1000
MTEXTBEGIN
1070
    73
1070
     1
1070
    44
1040
1.0
1070
    74
1070
     0
1000
MTEXTEND
  0
LWPOLYLINE
  5
170
330
2
100
AcDbEntity
  8
YKK_D
  6
ByBlock
100
AcDbPolyline
 90
        2
 70
     1
 43
0.85
 10
233.15323607
 20
46.46080694
 42
1.0
 10
232.94073607
 20
46.46080694
 42
1.0
  0
ARC
  5
171
330
2
100
AcDbEntity
  8
YKK_13
  6
YHIDDEN_1
100
AcDbCircle
 10
227.54697208
 20
73.96080264
 30
0.0
 40
0.6
100
AcDbArc
 50
270.0
 51
0.0
  0
LINE
  5
172
330
2
100
AcDbEntity
  8
YKK_12
  6
Continuous
100
AcDbLine
 10
233.04697208
 20
68.76080264
 30
0.0
 11
233.04697208
 21
67.56080264
 31
0.0
  0
ARC
  5
173
330
2
100
AcDbEntity
  8
YKK_11
  6
ByBlock
 62
     0
100
AcDbCircle
 10
233.04697207
 20
69.96080259
 30
0.0
 40
1.199999999999999
100
AcDbArc
 50
180.00001985
 51
270.00000112
  0
ARC
  5
174
330
2
100
AcDbEntity
  8
YKK_13
  6
YHIDDEN_1
100
AcDbCircle
 10
228.14697208
 20
73.36080264
 30
0.0
 40
2.299999999999998
100
AcDbArc
 50
270.0
 51
0.0
  0
ARC
  5
175
330
2
100
AcDbEntity
  8
YKK_11
  6
ByBlock
 62
     0
100
AcDbCircle
 10
238.24697239
 20
73.96080264
 30
0.0
 40
1.199999999999999
100
AcDbArc
 50
180.00001985
 51
270.00000112
  0
LINE
  5
176
330
2
100
AcDbEntity
  8
YKK_11
  6
ByBlock
 62
     0
100
AcDbLine
 10
238.24697239
 20
74.46080264
 30
0.0
 11
238.74697239
 21
73.96080264
 31
0.0
  0
LINE
  5
177
330
2
100
AcDbEntity
  8
YKK_D
100
AcDbLine
 10
243.04698607
 20
46.46080694
 30
0.0
 11
249.1091639
 21
42.96080694
 31
0.0
  0
LINE
  5
178
330
2
100
AcDbEntity
  8
YKK_D
100
AcDbLine
 10
249.1091639
 20
42.96080694
 30
0.0
 11
249.1091639
 21
49.96080694
 31
0.0
  0
LINE
  5
179
330
2
100
AcDbEntity
  8
YKK_D
100
AcDbLine
 10
251.04697224
 20
68.76080999
 30
0.0
 11
268.04698607
 21
68.76080999
 31
0.0
  0
LINE
  5
17A
330
2
100
AcDbEntity
  8
YKK_D
100
AcDbLine
 10
251.046972
 20
72.76080999
 30
0.0
 11
268.04698607
 21
72.76080999
 31
0.0
  0
LINE
  5
17B
330
2
100
AcDbEntity
  8
YKK_D
100
AcDbLine
 10
254.26623532
 20
72.76080999
 30
0.0
 11
268.04698607
 21
72.76080999
 31
0.0
  0
TEXT
  5
17C
330
2
100
AcDbEntity
  8
YKK_D
100
AcDbText
 10
266.04698607
 20
61.21360187
 30
0.0
 40
6.0
  1
4
 50
90.0
 41
0.8
100
AcDbText
1001
ACAD
1000
MTEXTBEGIN
1070
    73
1070
     1
1070
    44
1040
1.0
1070
    74
1070
     0
1000
MTEXTEND
  0
LINE
  5
17D
330
2
100
AcDbEntity
  8
YKK_D
100
AcDbLine
 10
243.04698607
 20
62.46080264
 30
0.0
 11
243.04698607
 21
45.46080694
 31
0.0
  0
LINE
  5
17E
330
2
100
AcDbEntity
  8
YKK_D
100
AcDbLine
 10
243.04698607
 20
62.46080264
 30
0.0
 11
243.04698607
 21
45.46080694
 31
0.0
  0
LINE
  5
17F
330
2
100
AcDbEntity
  8
YKK_D
100
AcDbLine
 10
243.04698607
 20
46.46080694
 30
0.0
 11
255.17134172
 21
46.46080694
 31
0.0
  0
LINE
  5
180
330
2
100
AcDbEntity
  8
YKK_D
100
AcDbLine
 10
243.04698607
 20
46.46080694
 30
0.0
 11
249.1091639
 21
49.96080694
 31
0.0
  0
LINE
  5
181
330
2
100
AcDbEntity
  8
YKK_11
  6
ByBlock
 62
     0
100
AcDbLine
 10
243.04697207
 20
68.76080259
 30
0.0
 11
243.04697207
 21
69.96080259
 31
0.0
  0
LINE
  5
182
330
2
100
AcDbEntity
  8
YKK_11
  6
ByBlock
 62
     0
100
AcDbLine
 10
247.04697239
 20
72.76080264
 30
0.0
 11
247.04697239
 21
73.96080264
 31
0.0
  0
LINE
  5
183
330
2
100
AcDbEntity
  8
YKK_D
100
AcDbLine
 10
267.04698607
 20
68.76080999
 30
0.0
 11
267.04698607
 21
60.16080999
 31
0.0
  0
LINE
  5
184
330
2
100
AcDbEntity
  8
YKK_D
100
AcDbLine
 10
267.04698607
 20
72.76080999
 30
0.0
 11
267.04698607
 21
68.76080999
 31
0.0
  0
LWPOLYLINE
  5
185
330
2
100
AcDbEntity
  8
YKK_D
  6
ByBlock
100
AcDbPolyline
 90
        2
 70
     1
 43
0.85
 10
267.04698607
 20
68.86705999
 42
1.0
 10
267.04698607
 20
68.65455999
 42
1.0
  0
LWPOLYLINE
  5
186
330
2
100
AcDbEntity
  8
YKK_D
  6
ByBlock
100
AcDbPolyline
 90
        2
 70
     1
 43
0.85
 10
267.04698607
 20
72.86705999
 42
1.0
 10
267.04698607
 20
72.65455999
 42
1.0
  0
LWPOLYLINE
  5
187
330
2
100
AcDbEntity
  8
YKK_D
  6
ByBlock
100
AcDbPolyline
 90
        2
 70
     1
 43
0.85
 10
267.04698607
 20
72.65455999
 42
1.0
 10
267.04698607
 20
72.86705999
 42
1.0
  0
LINE
  5
188
330
2
100
AcDbEntity
  8
YKK_D
100
AcDbLine
 10
204.04697224
 20
101.76080999
 30
0.0
 11
187.04697081
 21
101.76080999
 31
0.0
  0
LINE
  5
189
330
2
100
AcDbEntity
  8
YKK_D
100
AcDbLine
 10
204.046972
 20
80.56079778
 30
0.0
 11
187.04697081
 21
80.56079778
 31
0.0
  0
LINE
  5
18A
330
2
100
AcDbEntity
  8
YKK_12
  6
Continuous
100
AcDbLine
 10
107.25880077
 20
191.66823704
 30
0.0
 11
107.25880077
 21
85.66823704
 31
0.0
  0
LINE
  5
18B
330
2
100
AcDbEntity
  8
YKK_D
100
AcDbLine
 10
114.75880072
 20
85.66823921
 30
0.0
 11
131.75880311
 21
85.66823921
 31
0.0
  0
LINE
  5
18C
330
2
100
AcDbEntity
  8
YKK_D
100
AcDbLine
 10
114.75880072
 20
75.66823921
 30
0.0
 11
131.75880311
 21
75.66823921
 31
0.0
  0
LINE
  5
18D
330
2
100
AcDbEntity
  8
YKK_D
100
AcDbLine
 10
119.80931351
 20
85.66823921
 30
0.0
 11
131.75880311
 21
85.66823921
 31
0.0
  0
LINE
  5
18E
330
2
100
AcDbEntity
  8
YKK_D
100
AcDbLine
 10
130.75880311
 20
85.66823921
 30
0.0
 11
127.25880311
 21
91.73041704
 31
0.0
  0
LINE
  5
18F
330
2
100
AcDbEntity
  8
YKK_D
100
AcDbLine
 10
134.25880311
 20
91.73041704
 30
0.0
 11
127.25880311
 21
91.73041704
 31
0.0
  0
LINE
  5
190
330
2
100
AcDbEntity
  8
YKK_11
  6
ByBlock
 62
     0
100
AcDbLine
 10
108.45880089
 20
85.66823679
 30
0.0
 11
108.45880089
 21
75.66823679
 31
0.0
  0
LINE
  5
191
330
2
100
AcDbEntity
  8
YKK_11
  6
ByBlock
 62
     0
100
AcDbLine
 10
107.25880089
 20
75.66823679
 30
0.0
 11
107.25880089
 21
85.66823679
 31
0.0
  0
LINE
  5
192
330
2
100
AcDbEntity
  8
YKK_11
  6
ByBlock
 62
     0
100
AcDbLine
 10
107.25880089
 20
85.66823679
 30
0.0
 11
108.45880089
 21
85.66823679
 31
0.0
  0
LINE
  5
193
330
2
100
AcDbEntity
  8
YKK_D
100
AcDbLine
 10
130.75880311
 20
85.66823921
 30
0.0
 11
134.25880311
 21
91.73041704
 31
0.0
  0
LINE
  5
194
330
2
100
AcDbEntity
  8
YKK_D
100
AcDbLine
 10
130.75880311
 20
85.66823921
 30
0.0
 11
130.75880311
 21
97.79259486
 31
0.0
  0
LINE
  5
195
330
2
100
AcDbEntity
  8
YKK_D
100
AcDbLine
 10
130.75880311
 20
85.66823921
 30
0.0
 11
130.75880311
 21
75.66823921
 31
0.0
  0
TEXT
  5
196
330
2
100
AcDbEntity
  8
YKK_D
100
AcDbText
 10
111.71159499
 20
112.86823616
 30
0.0
 40
6.0
  1
4
 41
0.8
100
AcDbText
1001
ACAD
1000
MTEXTBEGIN
1070
    73
1070
     1
1070
    44
1040
1.0
1070
    74
1070
     0
1000
MTEXTEND
  0
LINE
  5
197
330
2
100
AcDbEntity
  8
YKK_D
100
AcDbLine
 10
107.25880311
 20
111.86823616
 30
0.0
 11
115.85880311
 21
111.86823616
 31
0.0
  0
LWPOLYLINE
  5
198
330
2
100
AcDbEntity
  8
YKK_D
  6
ByBlock
100
AcDbPolyline
 90
        2
 70
     1
 43
0.85
 10
107.15255311
 20
111.86823616
 42
1.0
 10
107.36505311
 20
111.86823616
 42
1.0
  0
LWPOLYLINE
  5
199
330
2
100
AcDbEntity
  8
YKK_D
  6
ByBlock
100
AcDbPolyline
 90
        2
 70
     1
 43
0.85
 10
107.15255311
 20
131.86823616
 42
1.0
 10
107.36505311
 20
131.86823616
 42
1.0
  0
LINE
  5
19A
330
2
100
AcDbEntity
  8
YKK_D
100
AcDbLine
 10
188.04697081
 20
101.76080999
 30
0.0
 11
188.04697081
 21
80.56079778
 31
0.0
  0
TEXT
  5
19B
330
2
100
AcDbEntity
  8
YKK_D
100
AcDbText
 10
187.04697081
 20
84.94760592
 30
0.0
 40
6.0
  1
21.2
 50
90.0
 41
0.8
100
AcDbText
1001
ACAD
1000
MTEXTBEGIN
1070
    73
1070
     1
1070
    44
1040
1.0
1070
    74
1070
     0
1000
MTEXTEND
  0
LWPOLYLINE
  5
19C
330
2
100
AcDbEntity
  8
YKK_D
  6
ByBlock
100
AcDbPolyline
 90
        2
 70
     1
 43
0.85
 10
188.04697081
 20
80.66704778
 42
1.0
 10
188.04697081
 20
80.45454778
 42
1.0
  0
LWPOLYLINE
  5
19D
330
2
100
AcDbEntity
  8
YKK_D
  6
ByBlock
100
AcDbPolyline
 90
        2
 70
     1
 43
0.85
 10
188.04697081
 20
101.65455999
 42
1.0
 10
188.04697081
 20
101.86705999
 42
1.0
  0
CIRCLE
  5
19E
330
2
100
AcDbEntity
  8
YKK_13
  6
Continuous
100
AcDbCircle
 10
235.04697208
 20
110.76080264
 30
0.0
 40
5.0
  0
LINE
  5
19F
330
2
100
AcDbEntity
  8
YKK_13
  6
YCENTER_1
100
AcDbLine
 10
227.54697208
 20
110.76080264
 30
0.0
 11
242.54697208
 21
110.76080264
 31
0.0
  0
CIRCLE
  5
1A0
330
2
100
AcDbEntity
  8
YKK_13
  6
Continuous
100
AcDbCircle
 10
235.04697208
 20
110.76080264
 30
0.0
 40
4.5
  0
LINE
  5
1A1
330
2
100
AcDbEntity
  8
YKK_D
100
AcDbLine
 10
208.04698607
 20
105.76080284
 30
0.0
 11
208.04698607
 21
131.76080999
 31
0.0
  0
LINE
  5
1A2
330
2
100
AcDbEntity
  8
YKK_11
  6
ByBlock
 62
     0
100
AcDbLine
 10
209.24697207
 20
100.56080259
 30
0.0
 11
231.84697207
 21
100.56080259
 31
0.0
  0
LINE
  5
1A3
330
2
100
AcDbEntity
  8
YKK_11
  6
ByBlock
 62
     0
100
AcDbLine
 10
231.84697207
 20
101.76080259
 30
0.0
 11
209.24697207
 21
101.76080259
 31
0.0
  0
LINE
  5
1A4
330
2
100
AcDbEntity
  8
YKK_11
  6
ByBlock
 62
     0
100
AcDbLine
 10
209.24697207
 20
80.56080259
 30
0.0
 11
209.24697207
 21
100.56080259
 31
0.0
  0
LINE
  5
1A5
330
2
100
AcDbEntity
  8
YKK_11
  6
ByBlock
 62
     0
100
AcDbLine
 10
208.04697207
 20
100.56080259
 30
0.0
 11
208.04697207
 21
80.56080259
 31
0.0
  0
LINE
  5
1A6
330
2
100
AcDbEntity
  8
YKK_11
  6
ByBlock
 62
     0
100
AcDbLine
 10
208.04697207
 20
80.56080259
 30
0.0
 11
209.24697207
 21
80.56080259
 31
0.0
  0
LINE
  5
1A7
330
2
100
AcDbEntity
  8
YKK_13
  6
YHIDDEN_1
100
AcDbLine
 10
211.54697208
 20
100.06080264
 30
0.0
 11
209.24697208
 21
100.06080264
 31
0.0
  0
ARC
  5
1A8
330
2
100
AcDbEntity
  8
YKK_11
  6
ByBlock
 62
     0
100
AcDbCircle
 10
209.24697207
 20
100.56080259
 30
0.0
 40
1.199999999999999
100
AcDbArc
 50
89.99998128
 51
180.00001985
  0
LINE
  5
1A9
330
2
100
AcDbEntity
  8
YKK_13
  6
Continuous
100
AcDbLine
 10
237.04697208
 20
106.17822695
 30
0.0
 11
237.04697208
 21
75.76080264
 31
0.0
  0
LINE
  5
1AA
330
2
100
AcDbEntity
  8
YKK_13
  6
Continuous
100
AcDbLine
 10
233.04697208
 20
106.17822695
 30
0.0
 11
233.04697208
 21
75.76080264
 31
0.0
  0
LINE
  5
1AB
330
2
100
AcDbEntity
  8
YKK_13
  6
Continuous
100
AcDbLine
 10
233.04697208
 20
75.76080264
 30
0.0
 11
237.04697208
 21
75.76080264
 31
0.0
  0
LINE
  5
1AC
330
2
100
AcDbEntity
  8
YKK_13
  6
YHIDDEN_1
100
AcDbLine
 10
230.44697208
 20
84.06080264
 30
0.0
 11
228.14697208
 21
84.06080264
 31
0.0
  0
ARC
  5
1AD
330
2
100
AcDbEntity
  8
YKK_11
  6
ByBlock
 62
     0
100
AcDbCircle
 10
238.24697239
 20
96.56080264
 30
0.0
 40
1.199999999999999
100
AcDbArc
 50
89.99998128
 51
180.00001985
  0
ARC
  5
1AE
330
2
100
AcDbEntity
  8
YKK_11
  6
ByBlock
 62
     0
100
AcDbCircle
 10
231.84697207
 20
100.56080259
 30
0.0
 40
1.199999999999999
100
AcDbArc
 50
0.0
 51
89.99998128
  0
LINE
  5
1AF
330
2
100
AcDbEntity
  8
YKK_D
100
AcDbLine
 10
208.04698607
 20
130.76080999
 30
0.0
 11
233.04698607
 21
130.76080999
 31
0.0
  0
LWPOLYLINE
  5
1B0
330
2
100
AcDbEntity
  8
YKK_D
  6
ByBlock
100
AcDbPolyline
 90
        2
 70
     1
 43
0.85
 10
208.15323607
 20
130.76080999
 42
1.0
 10
207.94073607
 20
130.76080999
 42
1.0
  0
LINE
  5
1B1
330
2
100
AcDbEntity
  8
YKK_D
100
AcDbLine
 10
237.04698607
 20
114.76080236
 30
0.0
 11
237.04698607
 21
131.76080999
 31
0.0
  0
LINE
  5
1B2
330
2
100
AcDbEntity
  8
YKK_D
100
AcDbLine
 10
233.04698607
 20
120.78386983
 30
0.0
 11
233.04698607
 21
131.76080999
 31
0.0
  0
LINE
  5
1B3
330
2
100
AcDbEntity
  8
YKK_D
100
AcDbLine
 10
233.04698607
 20
114.76080284
 30
0.0
 11
233.04698607
 21
131.76080999
 31
0.0
  0
LINE
  5
1B4
330
2
100
AcDbEntity
  8
YKK_D
100
AcDbLine
 10
237.04698607
 20
118.97780809
 30
0.0
 11
237.04698607
 21
131.76080999
 31
0.0
  0
TEXT
  5
1B5
330
2
100
AcDbEntity
  8
YKK_D
100
AcDbText
 10
217.46475257
 20
131.76080999
 30
0.0
 40
6.0
  1
25
 41
0.8
100
AcDbText
1001
ACAD
1000
MTEXTBEGIN
1070
    73
1070
     1
1070
    44
1040
1.0
1070
    74
1070
     0
1000
MTEXTEND
  0
LWPOLYLINE
  5
1B6
330
2
100
AcDbEntity
  8
YKK_D
  6
ByBlock
100
AcDbPolyline
 90
        2
 70
     1
 43
0.85
 10
236.94073607
 20
130.76080999
 42
1.0
 10
237.15323607
 20
130.76080999
 42
1.0
  0
LWPOLYLINE
  5
1B7
330
2
100
AcDbEntity
  8
YKK_D
  6
ByBlock
100
AcDbPolyline
 90
        2
 70
     1
 43
0.85
 10
233.15323607
 20
130.76080999
 42
1.0
 10
232.94073607
 20
130.76080999
 42
1.0
  0
LWPOLYLINE
  5
1B8
330
2
100
AcDbEntity
  8
YKK_D
  6
ByBlock
100
AcDbPolyline
 90
        2
 70
     1
 43
0.85
 10
232.94073607
 20
130.76080999
 42
1.0
 10
233.15323607
 20
130.76080999
 42
1.0
  0
LWPOLYLINE
  5
1B9
330
2
100
AcDbEntity
  8
YKK_D
  6
ByBlock
100
AcDbPolyline
 90
        2
 70
     1
 43
0.85
 10
237.15323607
 20
130.76080999
 42
1.0
 10
236.94073607
 20
130.76080999
 42
1.0
  0
LINE
  5
1BA
330
2
100
AcDbEntity
  8
YKK_D
100
AcDbLine
 10
233.04698607
 20
130.76080999
 30
0.0
 11
237.04698607
 21
130.76080999
 31
0.0
  0
TEXT
  5
1BB
330
2
100
AcDbEntity
  8
YKK_D
100
AcDbText
 10
232.64977795
 20
131.76080999
 30
0.0
 40
6.0
  1
4
 41
0.8
100
AcDbText
1001
ACAD
1000
MTEXTBEGIN
1070
    73
1070
     1
1070
    44
1040
1.0
1070
    74
1070
     0
1000
MTEXTEND
  0
LINE
  5
1BC
330
2
100
AcDbEntity
  8
YKK_D
100
AcDbLine
 10
267.04698607
 20
108.94865484
 30
0.0
 11
267.04698607
 21
101.76080999
 31
0.0
  0
TEXT
  5
1BD
330
2
100
AcDbEntity
  8
YKK_D
100
AcDbText
 10
266.04698607
 20
104.80144672
 30
0.0
 40
6.0
  1
4
 50
90.0
 41
0.8
100
AcDbText
1001
ACAD
1000
MTEXTBEGIN
1070
    73
1070
     1
1070
    44
1040
1.0
1070
    74
1070
     0
1000
MTEXTEND
  0
LINE
  5
1BE
330
2
100
AcDbEntity
  8
YKK_D
100
AcDbLine
 10
251.04697272
 20
101.76080999
 30
0.0
 11
268.04698607
 21
101.76080999
 31
0.0
  0
TEXT
  5
1BF
330
2
100
AcDbEntity
  8
YKK_D
100
AcDbText
 10
266.04698607
 20
82.17857649
 30
0.0
 40
6.0
  1
25
 50
90.0
 41
0.8
100
AcDbText
1001
ACAD
1000
MTEXTBEGIN
1070
    73
1070
     1
1070
    44
1040
1.0
1070
    74
1070
     0
1000
MTEXTEND
  0
LINE
  5
1C0
330
2
100
AcDbEntity
  8
YKK_D
100
AcDbLine
 10
267.04698607
 20
101.76080999
 30
0.0
 11
267.04698607
 21
97.76080999
 31
0.0
  0
LWPOLYLINE
  5
1C1
330
2
100
AcDbEntity
  8
YKK_D
  6
ByBlock
100
AcDbPolyline
 90
        2
 70
     1
 43
0.85
 10
267.04698607
 20
97.86705999
 42
1.0
 10
267.04698607
 20
97.65455999
 42
1.0
  0
LWPOLYLINE
  5
1C2
330
2
100
AcDbEntity
  8
YKK_D
  6
ByBlock
100
AcDbPolyline
 90
        2
 70
     1
 43
0.85
 10
267.04698607
 20
97.65455999
 42
1.0
 10
267.04698607
 20
97.86705999
 42
1.0
  0
LWPOLYLINE
  5
1C3
330
2
100
AcDbEntity
  8
YKK_D
  6
ByBlock
100
AcDbPolyline
 90
        2
 70
     1
 43
0.85
 10
267.04698607
 20
101.65455999
 42
1.0
 10
267.04698607
 20
101.86705999
 42
1.0
  0
LINE
  5
1C4
330
2
100
AcDbEntity
  8
YKK_11
  6
ByBlock
 62
     0
100
AcDbLine
 10
107.25880096
 20
338.86823691
 30
0.0
 11
76.65880096
 21
338.86823691
 31
0.0
  0
LINE
  5
1C5
330
2
100
AcDbEntity
  8
YKK_11
  6
ByBlock
 62
     0
100
AcDbLine
 10
76.65880096
 20
337.66823691
 30
0.0
 11
107.25880096
 21
337.66823691
 31
0.0
  0
ARC
  5
1C6
330
2
100
AcDbEntity
  8
YKK_13
  6
YHIDDEN_1
100
AcDbCircle
 10
103.85880077
 20
359.16823704
 30
0.0
 40
2.299999999999998
100
AcDbArc
 50
0.0
 51
90.0
  0
ARC
  5
1C7
330
2
100
AcDbEntity
  8
YKK_13
  6
YHIDDEN_1
100
AcDbCircle
 10
103.85880077
 20
342.56823704
 30
0.0
 40
2.299999999999998
100
AcDbArc
 50
270.0
 51
0.0
  0
LINE
  5
1C8
330
2
100
AcDbEntity
  8
YKK_11
  6
ByBlock
 62
     0
100
AcDbLine
 10
100.85880118
 20
323.46823689
 30
0.0
 11
100.85880118
 21
333.46823689
 31
0.0
  0
LINE
  5
1C9
330
2
100
AcDbEntity
  8
YKK_11
  6
ByBlock
 62
     0
100
AcDbLine
 10
102.05880118
 20
281.57438889
 30
0.0
 11
102.05880118
 21
334.66823689
 31
0.0
  0
LINE
  5
1CA
330
2
100
AcDbEntity
  8
YKK_11
  6
ByBlock
 62
     0
100
AcDbLine
 10
103.25880118
 20
334.66823689
 30
0.0
 11
103.25880118
 21
281.57438889
 31
0.0
  0
LINE
  5
1CB
330
2
100
AcDbEntity
  8
YKK_11
  6
ByBlock
 62
     0
100
AcDbLine
 10
101.75880118
 20
259.27438889
 30
0.0
 11
101.75880118
 21
279.87438889
 31
0.0
  0
LINE
  5
1CC
330
2
100
AcDbEntity
  8
YKK_11
  6
ByBlock
 62
     0
100
AcDbLine
 10
102.95880118
 20
279.07438889
 30
0.0
 11
102.95880118
 21
260.07438889
 31
0.0
  0
TEXT
  5
1CD
330
2
100
AcDbEntity
  8
YKK_D
100
AcDbText
 10
53.25880311
 20
204.56164023
 30
0.0
 40
6.0
  1
DH
 50
90.0
 41
0.8
100
AcDbText
1001
ACAD
1000
MTEXTBEGIN
1070
    73
1070
     1
1070
    44
1040
1.0
1070
    74
1070
     0
1000
MTEXTEND
  0
LINE
  5
1CE
330
2
100
AcDbEntity
  8
YKK_11
  6
ByBlock
 62
     0
100
AcDbLine
 10
81.45880118
 20
259.27438889
 30
0.0
 11
101.75880118
 21
259.27438889
 31
0.0
  0
LINE
  5
1CF
330
2
100
AcDbEntity
  8
YKK_11
  6
ByBlock
 62
     0
100
AcDbLine
 10
100.95880118
 20
258.07438889
 30
0.0
 11
80.65880118
 21
258.07438889
 31
0.0
  0
LINE
  5
1D0
330
2
100
AcDbEntity
  8
YKK_11
  6
ByBlock
 62
     0
100
AcDbLine
 10
80.65880118
 20
258.07438889
 30
0.0
 11
80.65880118
 21
248.07438889
 31
0.0
  0
LINE
  5
1D1
330
2
100
AcDbEntity
  8
YKK_11
  6
ByBlock
 62
     0
100
AcDbLine
 10
80.65880118
 20
248.07438889
 30
0.0
 11
79.45880118
 21
248.07438889
 31
0.0
  0
ARC
  5
1D2
330
2
100
AcDbEntity
  8
YKK_11
  6
ByBlock
 62
     0
100
AcDbCircle
 10
81.45880118
 20
257.27438889
 30
0.0
 40
2.0
100
AcDbArc
 50
89.99998128
 51
180.00001985
  0
ARC
  5
1D3
330
2
100
AcDbEntity
  8
YKK_11
  6
ByBlock
 62
     0
100
AcDbCircle
 10
100.95880118
 20
260.07438889
 30
0.0
 40
2.0
100
AcDbArc
 50
270.00000112
 51
0.0
  0
LINE
  5
1D4
330
2
100
AcDbEntity
  8
YKK_11
  6
ByBlock
 62
     0
100
AcDbLine
 10
103.25880118
 20
257.57438889
 30
0.0
 11
102.05880118
 21
257.57438889
 31
0.0
  0
LINE
  5
1D5
330
2
100
AcDbEntity
  8
YKK_11
  6
ByBlock
 62
     0
100
AcDbLine
 10
101.75880118
 20
279.87438889
 30
0.0
 11
81.45880118
 21
279.87438889
 31
0.0
  0
LINE
  5
1D6
330
2
100
AcDbEntity
  8
YKK_11
  6
ByBlock
 62
     0
100
AcDbLine
 10
80.65880118
 20
281.07438889
 30
0.0
 11
100.95880118
 21
281.07438889
 31
0.0
  0
ARC
  5
1D7
330
2
100
AcDbEntity
  8
YKK_11
  6
ByBlock
 62
     0
100
AcDbCircle
 10
81.45880118
 20
281.87438889
 30
0.0
 40
2.0
100
AcDbArc
 50
180.00001985
 51
270.00000112
  0
LINE
  5
1D8
330
2
100
AcDbEntity
  8
YKK_11
  6
ByBlock
 62
     0
100
AcDbLine
 10
80.65880118
 20
291.07438889
 30
0.0
 11
80.65880118
 21
281.07438889
 31
0.0
  0
LINE
  5
1D9
330
2
100
AcDbEntity
  8
YKK_11
  6
ByBlock
 62
     0
100
AcDbLine
 10
79.45880118
 20
291.07438889
 30
0.0
 11
80.65880118
 21
291.07438889
 31
0.0
  0
ARC
  5
1DA
330
2
100
AcDbEntity
  8
YKK_11
  6
ByBlock
 62
     0
100
AcDbCircle
 10
100.95880118
 20
279.07438889
 30
0.0
 40
2.0
100
AcDbArc
 50
0.0
 51
89.99998128
  0
LINE
  5
1DB
330
2
100
AcDbEntity
  8
YKK_11
  6
ByBlock
 62
     0
100
AcDbLine
 10
103.25880118
 20
281.57438889
 30
0.0
 11
102.05880118
 21
281.57438889
 31
0.0
  0
LINE
  5
1DC
330
2
100
AcDbEntity
  8
YKK_11
  6
ByBlock
 62
     0
100
AcDbLine
 10
102.05880118
 20
323.46823689
 30
0.0
 11
100.85880118
 21
323.46823689
 31
0.0
  0
LINE
  5
1DD
330
2
100
AcDbEntity
  8
YKK_D
100
AcDbLine
 10
74.25880311
 20
382.66823921
 30
0.0
 11
57.65880311
 21
382.66823921
 31
0.0
  0
LINE
  5
1DE
330
2
100
AcDbEntity
  8
YKK_D
100
AcDbLine
 10
70.25880072
 20
362.66823921
 30
0.0
 11
53.25880311
 21
362.66823921
 31
0.0
  0
LINE
  5
1DF
330
2
100
AcDbEntity
  8
YKK_D
100
AcDbLine
 10
70.25880072
 20
337.66823921
 30
0.0
 11
53.25880311
 21
337.66823921
 31
0.0
  0
LINE
  5
1E0
330
2
100
AcDbEntity
  8
YKK_D
100
AcDbLine
 10
67.23307679
 20
337.66823921
 30
0.0
 11
53.25880311
 21
337.66823921
 31
0.0
  0
LINE
  5
1E1
330
2
100
AcDbEntity
  8
YKK_D
100
AcDbLine
 10
70.2588012
 20
334.66823921
 30
0.0
 11
53.25880311
 21
334.66823921
 31
0.0
  0
TEXT
  5
1E2
330
2
100
AcDbEntity
  8
YKK_D
100
AcDbText
 10
59.44662037
 20
383.66823921
 30
0.0
 40
6.0
  1
1.2
 41
0.8
100
AcDbText
1001
ACAD
1000
MTEXTBEGIN
1070
    73
1070
     1
1070
    44
1040
1.0
1070
    74
1070
     0
1000
MTEXTEND
  0
LINE
  5
1E3
330
2
100
AcDbEntity
  8
YKK_D
100
AcDbLine
 10
54.25880311
 20
362.66823921
 30
0.0
 11
54.25880311
 21
337.66823921
 31
0.0
  0
TEXT
  5
1E4
330
2
100
AcDbEntity
  8
YKK_D
100
AcDbText
 10
53.25880311
 20
334.65757931
 30
0.0
 40
6.0
  1
3
 50
90.0
 41
0.8
100
AcDbText
1001
ACAD
1000
MTEXTBEGIN
1070
    73
1070
     1
1070
    44
1040
1.0
1070
    74
1070
     0
1000
MTEXTEND
  0
LINE
  5
1E5
330
2
100
AcDbEntity
  8
YKK_D
100
AcDbLine
 10
54.25880311
 20
337.66823921
 30
0.0
 11
54.25880311
 21
334.66823921
 31
0.0
  0
LWPOLYLINE
  5
1E6
330
2
100
AcDbEntity
  8
YKK_D
  6
ByBlock
100
AcDbPolyline
 90
        2
 70
     1
 43
0.85
 10
54.25880311
 20
334.77448921
 42
1.0
 10
54.25880311
 20
334.56198921
 42
1.0
  0
LWPOLYLINE
  5
1E7
330
2
100
AcDbEntity
  8
YKK_D
  6
ByBlock
100
AcDbPolyline
 90
        2
 70
     1
 43
0.85
 10
54.25880311
 20
334.56198921
 42
1.0
 10
54.25880311
 20
334.77448921
 42
1.0
  0
LWPOLYLINE
  5
1E8
330
2
100
AcDbEntity
  8
YKK_D
  6
ByBlock
100
AcDbPolyline
 90
        2
 70
     1
 43
0.85
 10
54.25880311
 20
337.56198921
 42
1.0
 10
54.25880311
 20
337.77448921
 42
1.0
  0
LWPOLYLINE
  5
1E9
330
2
100
AcDbEntity
  8
YKK_D
  6
ByBlock
100
AcDbPolyline
 90
        2
 70
     1
 43
0.85
 10
54.25880311
 20
337.77448921
 42
1.0
 10
54.25880311
 20
337.56198921
 42
1.0
  0
TEXT
  5
1EA
330
2
100
AcDbEntity
  8
YKK_D
100
AcDbText
 10
53.25880311
 20
347.08600571
 30
0.0
 40
6.0
  1
25
 50
90.0
 41
0.8
100
AcDbText
1001
ACAD
1000
MTEXTBEGIN
1070
    73
1070
     1
1070
    44
1040
1.0
1070
    74
1070
     0
1000
MTEXTEND
  0
LWPOLYLINE
  5
1EB
330
2
100
AcDbEntity
  8
YKK_D
  6
ByBlock
100
AcDbPolyline
 90
        2
 70
     1
 43
0.85
 10
54.25880311
 20
362.56198921
 42
1.0
 10
54.25880311
 20
362.77448921
 42
1.0
  0
LINE
  5
1EC
330
2
100
AcDbEntity
  8
YKK_11
  6
ByBlock
 62
     0
100
AcDbLine
 10
75.45880096
 20
361.46823691
 30
0.0
 11
75.45880096
 21
338.86823691
 31
0.0
  0
LINE
  5
1ED
330
2
100
AcDbEntity
  8
YKK_11
  6
ByBlock
 62
     0
100
AcDbLine
 10
76.65880096
 20
338.86823691
 30
0.0
 11
76.65880096
 21
361.46823691
 31
0.0
  0
LINE
  5
1EE
330
2
100
AcDbEntity
  8
YKK_13
  6
YHIDDEN_1
100
AcDbLine
 10
106.15880077
 20
342.56823704
 30
0.0
 11
106.15880077
 21
359.16823704
 31
0.0
  0
ARC
  5
1EF
330
2
100
AcDbEntity
  8
YKK_13
  6
YHIDDEN_1
100
AcDbCircle
 10
103.25880077
 20
358.56823704
 30
0.0
 40
0.6
100
AcDbArc
 50
0.0
 51
90.0
  0
LINE
  5
1F0
330
2
100
AcDbEntity
  8
YKK_11
  6
ByBlock
 62
     0
100
AcDbLine
 10
100.85880118
 20
333.46823689
 30
0.0
 11
79.45880118
 21
333.46823689
 31
0.0
  0
LINE
  5
1F1
330
2
100
AcDbEntity
  8
YKK_11
  6
ByBlock
 62
     0
100
AcDbLine
 10
79.45880118
 20
334.66823689
 30
0.0
 11
100.85880118
 21
334.66823689
 31
0.0
  0
ARC
  5
1F2
330
2
100
AcDbEntity
  8
YKK_11
  6
ByBlock
 62
     0
100
AcDbCircle
 10
79.45880118
 20
333.46823689
 30
0.0
 40
1.199999999999999
100
AcDbArc
 50
89.99998128
 51
180.00001985
  0
ARC
  5
1F3
330
2
100
AcDbEntity
  8
YKK_11
  6
ByBlock
 62
     0
100
AcDbCircle
 10
76.65880096
 20
338.86823691
 30
0.0
 40
1.199999999999999
100
AcDbArc
 50
180.00001985
 51
270.00000112
  0
LINE
  5
1F4
330
2
100
AcDbEntity
  8
YKK_13
  6
YHIDDEN_1
100
AcDbLine
 10
103.85880077
 20
343.16823704
 30
0.0
 11
103.85880077
 21
358.56823704
 31
0.0
  0
LINE
  5
1F5
330
2
100
AcDbEntity
  8
YKK_13
  6
YHIDDEN_1
100
AcDbLine
 10
103.85880077
 20
340.26823704
 30
0.0
 11
93.15880077
 21
340.26823704
 31
0.0
  0
LINE
  5
1F6
330
2
100
AcDbEntity
  8
YKK_13
  6
YHIDDEN_1
100
AcDbLine
 10
93.15880077
 20
342.56823704
 30
0.0
 11
103.25880077
 21
342.56823704
 31
0.0
  0
LINE
  5
1F7
330
2
100
AcDbEntity
  8
YKK_13
  6
YHIDDEN_1
100
AcDbLine
 10
93.15880077
 20
340.26823704
 30
0.0
 11
93.15880077
 21
342.56823704
 31
0.0
  0
ARC
  5
1F8
330
2
100
AcDbEntity
  8
YKK_11
  6
ByBlock
 62
     0
100
AcDbCircle
 10
100.85880118
 20
333.46823689
 30
0.0
 40
1.199999999999999
100
AcDbArc
 50
0.0
 51
89.99998128
  0
LINE
  5
1F9
330
2
100
AcDbEntity
  8
YKK_11
  6
ByBlock
 62
     0
100
AcDbLine
 10
102.05880118
 20
334.66823689
 30
0.0
 11
103.25880118
 21
334.66823689
 31
0.0
  0
ARC
  5
1FA
330
2
100
AcDbEntity
  8
YKK_13
  6
YHIDDEN_1
100
AcDbCircle
 10
103.25880077
 20
343.16823704
 30
0.0
 40
0.6
100
AcDbArc
 50
270.0
 51
0.0
  0
LINE
  5
1FB
330
2
100
AcDbEntity
  8
YKK_11
  6
ByBlock
 62
     0
100
AcDbLine
 10
95.45880096
 20
362.66823691
 30
0.0
 11
76.65880096
 21
362.66823691
 31
0.0
  0
LINE
  5
1FC
330
2
100
AcDbEntity
  8
YKK_11
  6
ByBlock
 62
     0
100
AcDbLine
 10
76.65880096
 20
361.46823691
 30
0.0
 11
95.45880096
 21
361.46823691
 31
0.0
  0
LINE
  5
1FD
330
2
100
AcDbEntity
  8
YKK_13
  6
YHIDDEN_1
100
AcDbLine
 10
103.85880077
 20
361.46823704
 30
0.0
 11
77.15880077
 21
361.46823704
 31
0.0
  0
LINE
  5
1FE
330
2
100
AcDbEntity
  8
YKK_13
  6
YHIDDEN_1
100
AcDbLine
 10
77.15880077
 20
359.16823704
 30
0.0
 11
103.25880077
 21
359.16823704
 31
0.0
  0
LINE
  5
1FF
330
2
100
AcDbEntity
  8
YKK_D
100
AcDbLine
 10
75.45880006
 20
382.66823921
 30
0.0
 11
95.45880006
 21
382.66823921
 31
0.0
  0
TEXT
  5
200
330
2
100
AcDbEntity
  8
YKK_D
100
AcDbText
 10
82.31565285
 20
383.66823921
 30
0.0
 40
6.0
  1
20
 41
0.8
100
AcDbText
1001
ACAD
1000
MTEXTBEGIN
1070
    73
1070
     1
1070
    44
1040
1.0
1070
    74
1070
     0
1000
MTEXTEND
  0
LINE
  5
201
330
2
100
AcDbEntity
  8
YKK_D
100
AcDbLine
 10
75.45880006
 20
368.98878965
 30
0.0
 11
75.45880006
 21
383.66823921
 31
0.0
  0
LINE
  5
202
330
2
100
AcDbEntity
  8
YKK_D
100
AcDbLine
 10
74.25880311
 20
366.66823706
 30
0.0
 11
74.25880311
 21
383.66823921
 31
0.0
  0
LINE
  5
203
330
2
100
AcDbEntity
  8
YKK_D
100
AcDbLine
 10
75.45880006
 20
366.66823683
 30
0.0
 11
75.45880006
 21
383.66823921
 31
0.0
  0
ARC
  5
204
330
2
100
AcDbEntity
  8
YKK_11
  6
ByBlock
 62
     0
100
AcDbCircle
 10
76.65880096
 20
361.46823691
 30
0.0
 40
1.199999999999999
100
AcDbArc
 50
89.99998128
 51
180.00001985
  0
LINE
  5
205
330
2
100
AcDbEntity
  8
YKK_12
  6
Continuous
100
AcDbLine
 10
74.25880077
 20
362.66823704
 30
0.0
 11
76.65880077
 21
362.66823704
 31
0.0
  0
LINE
  5
206
330
2
100
AcDbEntity
  8
YKK_13
  6
YHIDDEN_1
100
AcDbLine
 10
77.15880077
 20
359.16823704
 30
0.0
 11
77.15880077
 21
361.46823704
 31
0.0
  0
LWPOLYLINE
  5
207
330
2
100
AcDbEntity
  8
YKK_D
  6
ByBlock
100
AcDbPolyline
 90
        2
 70
     1
 43
0.85
 10
74.15255311
 20
382.66823921
 42
1.0
 10
74.36505311
 20
382.66823921
 42
1.0
  0
LWPOLYLINE
  5
208
330
2
100
AcDbEntity
  8
YKK_D
  6
ByBlock
100
AcDbPolyline
 90
        2
 70
     1
 43
0.85
 10
75.56505006
 20
382.66823921
 42
1.0
 10
75.35255006
 20
382.66823921
 42
1.0
  0
LWPOLYLINE
  5
209
330
2
100
AcDbEntity
  8
YKK_D
  6
ByBlock
100
AcDbPolyline
 90
        2
 70
     1
 43
0.85
 10
75.56505006
 20
382.66823921
 42
1.0
 10
75.35255006
 20
382.66823921
 42
1.0
  0
LINE
  5
20A
330
2
100
AcDbEntity
  8
YKK_D
100
AcDbLine
 10
75.45880006
 20
382.66823921
 30
0.0
 11
77.15880006
 21
382.66823921
 31
0.0
  0
LINE
  5
20B
330
2
100
AcDbEntity
  8
YKK_D
100
AcDbLine
 10
75.45880006
 20
382.66823921
 30
0.0
 11
74.25880311
 21
382.66823921
 31
0.0
  0
LINE
  5
20C
330
2
100
AcDbEntity
  8
YKK_D
100
AcDbLine
 10
95.45880006
 20
366.66823706
 30
0.0
 11
95.45880006
 21
383.66823921
 31
0.0
  0
LINE
  5
20D
330
2
100
AcDbEntity
  8
YKK_11
  6
ByBlock
 62
     0
100
AcDbLine
 10
95.45880096
 20
361.46823691
 30
0.0
 11
95.45880096
 21
362.66823691
 31
0.0
  0
LWPOLYLINE
  5
20E
330
2
100
AcDbEntity
  8
YKK_D
  6
ByBlock
100
AcDbPolyline
 90
        2
 70
     1
 43
0.85
 10
95.35255006
 20
382.66823921
 42
1.0
 10
95.56505006
 20
382.66823921
 42
1.0
  0
LINE
  5
20F
330
2
100
AcDbEntity
  8
YKK_D
100
AcDbLine
 10
130.75880311
 20
327.66823921
 30
0.0
 11
127.25880311
 21
321.60606138
 31
0.0
  0
LINE
  5
210
330
2
100
AcDbEntity
  8
YKK_D
100
AcDbLine
 10
130.75880311
 20
327.66823921
 30
0.0
 11
134.25880311
 21
321.60606138
 31
0.0
  0
LINE
  5
211
330
2
100
AcDbEntity
  8
YKK_D
100
AcDbLine
 10
130.75880311
 20
327.66823921
 30
0.0
 11
130.75880311
 21
315.54388356
 31
0.0
  0
TEXT
  5
212
330
2
100
AcDbEntity
  8
YKK_D
100
AcDbText
 10
129.75880311
 20
205.12103109
 30
0.0
 40
6.0
  1
H
 50
90.0
 41
0.8
100
AcDbText
1001
ACAD
1000
MTEXTBEGIN
1070
    73
1070
     1
1070
    44
1040
1.0
1070
    74
1070
     0
1000
MTEXTEND
  0
LINE
  5
213
330
2
100
AcDbEntity
  8
YKK_D
100
AcDbLine
 10
127.25880311
 20
321.60606138
 30
0.0
 11
134.25880311
 21
321.60606138
 31
0.0
  0
LINE
  5
214
330
2
100
AcDbEntity
  8
YKK_A1
  6
Continuous
100
AcDbLine
 10
276.39303059
 20
311.18020603
 30
0.0
 11
276.39303059
 21
261.18020901
 31
0.0
  0
LINE
  5
215
330
2
100
AcDbEntity
  8
YKK_A1
  6
Continuous
100
AcDbLine
 10
277.64303051
 20
261.18020901
 30
0.0
 11
277.64303051
 21
311.18020603
 31
0.0
  0
LINE
  5
216
330
2
100
AcDbEntity
  8
YKK_A1
  6
Continuous
100
AcDbLine
 10
277.8430305
 20
262.68020892
 30
0.0
 11
277.8430305
 21
309.78020611
 31
0.0
  0
LINE
  5
217
330
2
100
AcDbEntity
  8
YKK_D
100
AcDbLine
 10
261.39303978
 20
283.68019986
 30
0.0
 11
261.39303978
 21
262.68019986
 31
0.0
  0
LINE
  5
218
330
2
100
AcDbEntity
  8
YKK_D
100
AcDbLine
 10
276.39303978
 20
258.18020725
 30
0.0
 11
276.39303978
 21
230.18019986
 31
0.0
  0
LINE
  5
219
330
2
100
AcDbEntity
  8
YKK_D
100
AcDbLine
 10
278.14303978
 20
240.86435055
 30
0.0
 11
278.14303978
 21
230.18019986
 31
0.0
  0
LINE
  5
21A
330
2
100
AcDbEntity
  8
YKK_D
100
AcDbLine
 10
278.14303978
 20
240.86435055
 30
0.0
 11
278.14303978
 21
230.18019986
 31
0.0
  0
TEXT
  5
21B
330
2
100
AcDbEntity
  8
YKK_D
100
AcDbText
 10
265.40298901
 20
232.18019986
 30
0.0
 40
6.0
  1
35
 41
0.8
100
AcDbText
1001
ACAD
1000
MTEXTBEGIN
1070
    73
1070
     1
1070
    44
1040
1.0
1070
    74
1070
     0
1000
MTEXTEND
  0
LINE
  5
21C
330
2
100
AcDbEntity
  8
YKK_D
100
AcDbLine
 10
278.14303978
 20
231.18019986
 30
0.0
 11
282.47316679
 21
233.68019986
 31
0.0
  0
LINE
  5
21D
330
2
100
AcDbEntity
  8
YKK_D
100
AcDbLine
 10
282.47316679
 20
228.68019986
 30
0.0
 11
282.47316679
 21
233.68019986
 31
0.0
  0
LINE
  5
21E
330
2
100
AcDbEntity
  8
YKK_D
100
AcDbLine
 10
276.39303978
 20
231.18019986
 30
0.0
 11
263.95303978
 21
231.18019986
 31
0.0
  0
LINE
  5
21F
330
2
100
AcDbEntity
  8
YKK_D
100
AcDbLine
 10
278.14303978
 20
231.18019986
 30
0.0
 11
276.39303978
 21
231.18019986
 31
0.0
  0
LWPOLYLINE
  5
220
330
2
100
AcDbEntity
  8
YKK_D
  6
ByBlock
100
AcDbPolyline
 90
        2
 70
     1
 43
0.85
 10
276.28678978
 20
231.18019986
 42
1.0
 10
276.49928978
 20
231.18019986
 42
1.0
  0
LINE
  5
221
330
2
100
AcDbEntity
  8
YKK_D
100
AcDbLine
 10
278.14303978
 20
231.18019986
 30
0.0
 11
279.84303978
 21
231.18019986
 31
0.0
  0
LINE
  5
222
330
2
100
AcDbEntity
  8
YKK_D
100
AcDbLine
 10
278.14303978
 20
231.18019986
 30
0.0
 11
282.47316679
 21
228.68019986
 31
0.0
  0
LINE
  5
223
330
2
100
AcDbEntity
  8
YKK_D
100
AcDbLine
 10
273.39303095
 20
262.68019986
 30
0.0
 11
260.39303978
 21
262.68019986
 31
0.0
  0
LWPOLYLINE
  5
224
330
2
100
AcDbEntity
  8
YKK_D
  6
ByBlock
100
AcDbPolyline
 90
        2
 70
     1
 43
0.85
 10
261.39303978
 20
262.78644986
 42
1.0
 10
261.39303978
 20
262.57394986
 42
1.0
  0
LINE
  5
225
330
2
100
AcDbEntity
  8
YKK_D
100
AcDbLine
 10
277.64303978
 20
258.18020725
 30
0.0
 11
277.64303978
 21
245.18019986
 31
0.0
  0
LINE
  5
226
330
2
100
AcDbEntity
  8
YKK_D
100
AcDbLine
 10
276.39303978
 20
258.18020725
 30
0.0
 11
276.39303978
 21
245.18019986
 31
0.0
  0
LINE
  5
227
330
2
100
AcDbEntity
  8
YKK_D
100
AcDbLine
 10
277.64303978
 20
258.18020725
 30
0.0
 11
277.64303978
 21
245.18019986
 31
0.0
  0
LINE
  5
228
330
2
100
AcDbEntity
  8
YKK_D
100
AcDbLine
 10
277.84302146
 20
258.18020725
 30
0.0
 11
277.84302146
 21
245.18019986
 31
0.0
  0
TEXT
  5
229
330
2
100
AcDbEntity
  8
YKK_D
100
AcDbText
 10
265.39080627
 20
247.18019986
 30
0.0
 40
6.0
  1
25
 41
0.8
100
AcDbText
1001
ACAD
1000
MTEXTBEGIN
1070
    73
1070
     1
1070
    44
1040
1.0
1070
    74
1070
     0
1000
MTEXTEND
  0
LINE
  5
22A
330
2
100
AcDbEntity
  8
YKK_D
100
AcDbLine
 10
277.74303062
 20
246.18019986
 30
0.0
 11
270.89665072
 21
238.37566062
 31
0.0
  0
LINE
  5
22B
330
2
100
AcDbEntity
  8
YKK_D
100
AcDbLine
 10
276.39303978
 20
246.18019986
 30
0.0
 11
263.95303978
 21
246.18019986
 31
0.0
  0
TEXT
  5
22C
330
2
100
AcDbEntity
  8
YKK_D
100
AcDbText
 10
266.7494426
 20
239.37566062
 30
0.0
 40
6.0
  1
4
 41
0.8
100
AcDbText
1001
ACAD
1000
MTEXTBEGIN
1070
    73
1070
     1
1070
    44
1040
1.0
1070
    74
1070
     0
1000
MTEXTEND
  0
LINE
  5
22D
330
2
100
AcDbEntity
  8
YKK_D
100
AcDbLine
 10
270.89665072
 20
238.37566062
 30
0.0
 11
265.69665072
 21
238.37566062
 31
0.0
  0
LINE
  5
22E
330
2
100
AcDbEntity
  8
YKK_D
100
AcDbLine
 10
277.64303978
 20
246.18019986
 30
0.0
 11
277.84302146
 21
246.18019986
 31
0.0
  0
LINE
  5
22F
330
2
100
AcDbEntity
  8
YKK_D
100
AcDbLine
 10
277.64303978
 20
246.18019986
 30
0.0
 11
277.84302146
 21
246.18019986
 31
0.0
  0
LINE
  5
230
330
2
100
AcDbEntity
  8
YKK_D
100
AcDbLine
 10
277.64303978
 20
246.18019986
 30
0.0
 11
279.34303978
 21
246.18019986
 31
0.0
  0
LWPOLYLINE
  5
231
330
2
100
AcDbEntity
  8
YKK_D
  6
ByBlock
100
AcDbPolyline
 90
        2
 70
     1
 43
0.85
 10
277.94927146
 20
246.18019986
 42
1.0
 10
277.73677146
 20
246.18019986
 42
1.0
  0
LWPOLYLINE
  5
232
330
2
100
AcDbEntity
  8
YKK_D
  6
ByBlock
100
AcDbPolyline
 90
        2
 70
     1
 43
0.85
 10
277.74928978
 20
246.18019986
 42
1.0
 10
277.53678978
 20
246.18019986
 42
1.0
  0
LWPOLYLINE
  5
233
330
2
100
AcDbEntity
  8
YKK_D
  6
ByBlock
100
AcDbPolyline
 90
        2
 70
     1
 43
0.85
 10
277.94927146
 20
246.18019986
 42
1.0
 10
277.73677146
 20
246.18019986
 42
1.0
  0
LWPOLYLINE
  5
234
330
2
100
AcDbEntity
  8
YKK_D
  6
ByBlock
100
AcDbPolyline
 90
        2
 70
     1
 43
0.85
 10
277.53678978
 20
246.18019986
 42
1.0
 10
277.74928978
 20
246.18019986
 42
1.0
  0
LINE
  5
235
330
2
100
AcDbEntity
  8
YKK_D
100
AcDbLine
 10
277.64303978
 20
246.18019986
 30
0.0
 11
275.94303978
 21
246.18019986
 31
0.0
  0
LINE
  5
236
330
2
100
AcDbEntity
  8
YKK_D
100
AcDbLine
 10
277.64303978
 20
246.18019986
 30
0.0
 11
276.39303978
 21
246.18019986
 31
0.0
  0
LWPOLYLINE
  5
237
330
2
100
AcDbEntity
  8
YKK_D
  6
ByBlock
100
AcDbPolyline
 90
        2
 70
     1
 43
0.85
 10
276.28678978
 20
246.18019986
 42
1.0
 10
276.49928978
 20
246.18019986
 42
1.0
  0
LINE
  5
238
330
2
100
AcDbEntity
  8
YKK_D
100
AcDbLine
 10
277.84302146
 20
246.18019986
 30
0.0
 11
279.54302146
 21
246.18019986
 31
0.0
  0
LINE
  5
239
330
2
100
AcDbEntity
  8
YKK_A1
  6
YHIDDEN_1
100
AcDbLine
 10
279.39303041
 20
262.68020892
 30
0.0
 11
279.39303041
 21
262.67197864
 31
0.0
  0
LINE
  5
23A
330
2
100
AcDbEntity
  8
YKK_A1
  6
Continuous
100
AcDbLine
 10
278.14303048
 20
261.18020901
 30
0.0
 11
278.14303048
 21
261.23020901
 31
0.0
  0
LINE
  5
23B
330
2
100
AcDbEntity
  8
YKK_D
100
AcDbLine
 10
273.39303119
 20
283.68019986
 30
0.0
 11
260.39303978
 21
283.68019986
 31
0.0
  0
LWPOLYLINE
  5
23C
330
2
100
AcDbEntity
  8
YKK_D
  6
ByBlock
100
AcDbPolyline
 90
        2
 70
     1
 43
0.85
 10
261.39303978
 20
283.57394986
 42
1.0
 10
261.39303978
 20
283.78644986
 42
1.0
  0
TEXT
  5
23D
330
2
100
AcDbEntity
  8
YKK_D
100
AcDbText
 10
260.39303978
 20
271.59644351
 30
0.0
 40
6.0
  1
C
 50
90.0
 41
0.8
100
AcDbText
1001
ACAD
1000
MTEXTBEGIN
1070
    73
1070
     1
1070
    44
1040
1.0
1070
    74
1070
     0
1000
MTEXTEND
  0
LINE
  5
23E
330
2
100
AcDbEntity
  8
YKK_A1
  6
YHIDDEN_1
100
AcDbLine
 10
276.39303059
 20
270.43020846
 30
0.0
 11
276.38907401
 21
270.43020846
 31
0.0
  0
ARC
  5
23F
330
2
100
AcDbEntity
  8
YKK_A1
  6
Continuous
100
AcDbCircle
 10
283.06803019
 20
282.75520772
 30
0.0
 40
0.2249999865889549
100
AcDbArc
 50
270.0
 51
90.0
  0
CIRCLE
  5
240
330
2
100
AcDbEntity
  8
YKK_A1
  6
Continuous
100
AcDbCircle
 10
282.8930302
 20
282.26770775
 30
0.0
 40
0.0874999947845936
  0
ARC
  5
241
330
2
100
AcDbEntity
  8
YKK_A1
  6
Continuous
100
AcDbCircle
 10
282.71803021
 20
282.75520772
 30
0.0
 40
0.2249999865889549
100
AcDbArc
 50
90.0
 51
270.0
  0
ARC
  5
242
330
2
100
AcDbEntity
  8
YKK_A1
  6
Continuous
100
AcDbCircle
 10
282.71803021
 20
282.75520772
 30
0.0
 40
0.2749999836087227
100
AcDbArc
 50
90.0
 51
270.0
  0
ARC
  5
243
330
2
100
AcDbEntity
  8
YKK_A1
  6
Continuous
100
AcDbCircle
 10
283.06803019
 20
282.75520772
 30
0.0
 40
0.2749999836087227
100
AcDbArc
 50
270.0
 51
90.0
  0
ARC
  5
244
330
2
100
AcDbEntity
  8
YKK_A1
  6
Continuous
100
AcDbCircle
 10
282.8930302
 20
283.58020767
 30
0.0
 40
0.3999999761581421
100
AcDbArc
 50
180.0
 51
0.0
  0
LINE
  5
245
330
2
100
AcDbEntity
  8
YKK_A1
  6
Continuous
100
AcDbLine
 10
283.06803019
 20
283.03020771
 30
0.0
 11
282.71803021
 21
283.03020771
 31
0.0
  0
LINE
  5
246
330
2
100
AcDbEntity
  8
YKK_A1
  6
Continuous
100
AcDbLine
 10
282.71803021
 20
282.48020774
 30
0.0
 11
283.06803019
 21
282.48020774
 31
0.0
  0
LINE
  5
247
330
2
100
AcDbEntity
  8
YKK_A1
  6
Continuous
100
AcDbLine
 10
283.06803019
 20
282.98020771
 30
0.0
 11
282.71803021
 21
282.98020771
 31
0.0
  0
LINE
  5
248
330
2
100
AcDbEntity
  8
YKK_A1
  6
Continuous
100
AcDbLine
 10
282.71803021
 20
282.53020774
 30
0.0
 11
283.06803019
 21
282.53020774
 31
0.0
  0
LINE
  5
249
330
2
100
AcDbEntity
  8
YKK_A1
  6
Continuous
100
AcDbLine
 10
282.29303024
 20
281.68020779
 30
0.0
 11
282.29303024
 21
285.68020755
 31
0.0
  0
LINE
  5
24A
330
2
100
AcDbEntity
  8
YKK_A1
  6
Continuous
100
AcDbLine
 10
282.49303022
 20
285.08020758
 30
0.0
 11
283.29303018
 21
285.08020758
 31
0.0
  0
LINE
  5
24B
330
2
100
AcDbEntity
  8
YKK_A1
  6
Continuous
100
AcDbLine
 10
282.49303022
 20
285.08020758
 30
0.0
 11
282.49303022
 21
283.58020767
 31
0.0
  0
LINE
  5
24C
330
2
100
AcDbEntity
  8
YKK_A1
  6
Continuous
100
AcDbLine
 10
283.29303018
 20
285.08020758
 30
0.0
 11
283.29303018
 21
283.58020767
 31
0.0
  0
ARC
  5
24D
330
2
100
AcDbEntity
  8
YKK_A1
  6
Continuous
100
AcDbCircle
 10
282.34303023
 20
285.68020755
 30
0.0
 40
0.0499999970197678
100
AcDbArc
 50
90.0
 51
180.0
  0
ARC
  5
24E
330
2
100
AcDbEntity
  8
YKK_A1
  6
Continuous
100
AcDbCircle
 10
282.34303023
 20
281.68020779
 30
0.0
 40
0.0499999970197678
100
AcDbArc
 50
180.0
 51
270.0
  0
LINE
  5
24F
330
2
100
AcDbEntity
  8
YKK_A1
  6
Continuous
100
AcDbLine
 10
282.21803024
 20
285.70520755
 30
0.0
 11
282.21803024
 21
281.65520779
 31
0.0
  0
ARC
  5
250
330
2
100
AcDbEntity
  8
YKK_A1
  6
Continuous
100
AcDbCircle
 10
282.31803023
 20
285.70520755
 30
0.0
 40
0.0999999940395355
100
AcDbArc
 50
90.0
 51
180.0
  0
ARC
  5
251
330
2
100
AcDbEntity
  8
YKK_A1
  6
Continuous
100
AcDbCircle
 10
282.31803023
 20
281.65520779
 30
0.0
 40
0.0999999940395355
100
AcDbArc
 50
180.0
 51
270.0
  0
LINE
  5
252
330
2
100
AcDbEntity
  8
YKK_A1
  6
YHIDDEN_1
100
AcDbLine
 10
276.39303059
 20
301.93020658
 30
0.0
 11
276.3826932
 21
301.93020658
 31
0.0
  0
LINE
  5
253
330
2
100
AcDbEntity
  8
YKK_D
100
AcDbLine
 10
114.75880072
 20
327.66823921
 30
0.0
 11
131.75880311
 21
327.66823921
 31
0.0
  0
LINE
  5
254
330
2
100
AcDbEntity
  8
YKK_D
100
AcDbLine
 10
114.75880072
 20
337.66823921
 30
0.0
 11
131.75880311
 21
337.66823921
 31
0.0
  0
LINE
  5
255
330
2
100
AcDbEntity
  8
YKK_D
100
AcDbLine
 10
119.34037087
 20
327.66823921
 30
0.0
 11
131.75880311
 21
327.66823921
 31
0.0
  0
TEXT
  5
256
330
2
100
AcDbEntity
  8
YKK_D
100
AcDbText
 10
129.75880311
 20
340.96672247
 30
0.0
 40
6.0
  1
10
 50
90.0
 41
0.8
100
AcDbText
1001
ACAD
1000
MTEXTBEGIN
1070
    73
1070
     1
1070
    44
1040
1.0
1070
    74
1070
     0
1000
MTEXTEND
  0
LINE
  5
257
330
2
100
AcDbEntity
  8
YKK_11
  6
ByBlock
 62
     0
100
AcDbLine
 10
107.25880089
 20
337.16823696
 30
0.0
 11
107.25880089
 21
327.66823696
 31
0.0
  0
LINE
  5
258
330
2
100
AcDbEntity
  8
YKK_11
  6
ByBlock
 62
     0
100
AcDbLine
 10
108.45880096
 20
327.66823691
 30
0.0
 11
108.45880096
 21
337.66823691
 31
0.0
  0
LINE
  5
259
330
2
100
AcDbEntity
  8
YKK_11
  6
ByBlock
 62
     0
100
AcDbLine
 10
107.25880096
 20
337.66823691
 30
0.0
 11
107.25880096
 21
327.66823691
 31
0.0
  0
LINE
  5
25A
330
2
100
AcDbEntity
  8
YKK_11
  6
ByBlock
 62
     0
100
AcDbLine
 10
107.25880096
 20
327.66823691
 30
0.0
 11
108.45880096
 21
327.66823691
 31
0.0
  0
ARC
  5
25B
330
2
100
AcDbEntity
  8
YKK_11
  6
ByBlock
 62
     0
100
AcDbCircle
 10
107.25880096
 20
337.66823691
 30
0.0
 40
1.199999999999999
100
AcDbArc
 50
0.0
 51
89.99998128
  0
LINE
  5
25C
330
2
100
AcDbEntity
  8
YKK_D
100
AcDbLine
 10
130.75880311
 20
337.66823921
 30
0.0
 11
130.75880311
 21
348.78824531
 31
0.0
  0
LINE
  5
25D
330
2
100
AcDbEntity
  8
YKK_D
100
AcDbLine
 10
130.75880311
 20
327.66823921
 30
0.0
 11
130.75880311
 21
337.66823921
 31
0.0
  0
LWPOLYLINE
  5
25E
330
2
100
AcDbEntity
  8
YKK_D
  6
ByBlock
100
AcDbPolyline
 90
        2
 70
     1
 43
0.85
 10
130.75880311
 20
337.56198921
 42
1.0
 10
130.75880311
 20
337.77448921
 42
1.0
  0
LINE
  5
25F
330
2
100
AcDbEntity
  8
YKK_11
  6
ByBlock
 62
     0
100
AcDbLine
 10
360.54697208
 20
96.56080231
 30
0.0
 11
477.34697208
 21
96.56080231
 31
0.0
  0
LINE
  5
260
330
2
100
AcDbEntity
  8
YKK_11
  6
ByBlock
 62
     0
100
AcDbLine
 10
360.54697208
 20
73.96080231
 30
0.0
 11
477.34697208
 21
73.96080231
 31
0.0
  0
LINE
  5
261
330
2
100
AcDbEntity
  8
YKK_11
  6
ByBlock
 62
     0
100
AcDbLine
 10
360.54697208
 20
75.16080231
 30
0.0
 11
477.34697208
 21
75.16080231
 31
0.0
  0
LINE
  5
262
330
2
100
AcDbEntity
  8
YKK_11
  6
ByBlock
 62
     0
100
AcDbLine
 10
477.84697208
 20
97.76080231
 30
0.0
 11
360.54697208
 21
97.76080231
 31
0.0
  0
LINE
  5
263
330
2
100
AcDbEntity
  8
YKK_12
  6
Continuous
100
AcDbLine
 10
473.04697208
 20
68.76080264
 30
0.0
 11
360.54697208
 21
68.76080264
 31
0.0
  0
LINE
  5
264
330
2
100
AcDbEntity
  8
YKK_12
  6
Continuous
100
AcDbLine
 10
483.04697208
 20
100.56080264
 30
0.0
 11
360.54697208
 21
100.56080264
 31
0.0
  0
LINE
  5
265
330
2
100
AcDbEntity
  8
YKK_12
  6
Continuous
100
AcDbLine
 10
483.04697208
 20
67.56080264
 30
0.0
 11
360.54697208
 21
67.56080264
 31
0.0
  0
LINE
  5
266
330
2
100
AcDbEntity
  8
YKK_D
100
AcDbLine
 10
287.04698607
 20
101.76080999
 30
0.0
 11
287.04698607
 21
68.76080999
 31
0.0
  0
TEXT
  5
267
330
2
100
AcDbEntity
  8
USER1
 62
     3
100
AcDbText
 10
298.5978945
 20
5.60776074
 30
0.0
 40
3.0
  1
点検口 片開き(枠見込33mm)
 72
     4
 11
324.55503735
 21
6.89347502
 31
0.0
100
AcDbText
  0
TEXT
  5
269
330
2
100
AcDbEntity
  8
USER1
 62
     3
100
AcDbText
 10
305.95503735
 20
1.19667064
 30
0.0
 40
3.0
  1
〔2PT NAA/R(L)〕
 72
     4
 11
324.55503735
 21
2.48238493
 31
0.0
100
AcDbText
  0
TEXT
  5
26A
330
2
100
AcDbEntity
  8
USER1
 62
     3
100
AcDbText
 10
306.8373744
 20
15.05428934
 30
0.0
 40
5.0
  1
2PT33A01
 72
     4
 11
324.57546964
 21
17.55428934
 31
0.0
100
AcDbText
  0
LWPOLYLINE
  5
26B
330
2
100
AcDbEntity
  8
YKK_D
  6
ByBlock
100
AcDbPolyline
 90
        2
 70
     1
 43
0.85
 10
287.04698607
 20
68.86705999
 42
1.0
 10
287.04698607
 20
68.65455999
 42
1.0
  0
TEXT
  5
26C
330
2
100
AcDbEntity
  8
YKK_D
100
AcDbText
 10
356.51196069
 20
47.46080694
 30
0.0
 40
6.0
  1
W
 41
0.8
100
AcDbText
1001
ACAD
1000
MTEXTBEGIN
1070
    73
1070
     1
1070
    44
1040
1.0
1070
    74
1070
     0
1000
MTEXTEND
  0
TEXT
  5
26D
330
2
100
AcDbEntity
  8
USER1
 62
     3
100
AcDbText
 10
425.38095138
 20
11.0005
 30
0.0
 40
4.0
  1
1
 72
     1
 11
426.999999
 21
13.0005
 31
0.0
100
AcDbText
 73
     2
  0
TEXT
  5
26E
330
2
100
AcDbEntity
  8
USER1
 62
     3
100
AcDbText
 10
419.999999
 20
15.0005
 30
0.0
 40
4.0
  1
1
100
AcDbText
  0
LWPOLYLINE
  5
26F
330
2
100
AcDbEntity
  8
YKK_D
  6
ByBlock
100
AcDbPolyline
 90
        2
 70
     1
 43
0.85
 10
287.04698607
 20
101.65455999
 42
1.0
 10
287.04698607
 20
101.86705999
 42
1.0
  0
TEXT
  5
270
330
2
100
AcDbEntity
  8
YKK_D
100
AcDbText
 10
354.83074242
 20
131.76080999
 30
0.0
 40
6.0
  1
DW
 41
0.8
100
AcDbText
1001
ACAD
1000
MTEXTBEGIN
1070
    73
1070
     1
1070
    44
1040
1.0
1070
    74
1070
     0
1000
MTEXTEND
  0
LINE
  5
271
330
2
100
AcDbEntity
  8
YKK_11
  6
ByBlock
 62
     0
100
AcDbLine
 10
483.04697245
 20
69.96080264
 30
0.0
 11
483.04697245
 21
100.56080264
 31
0.0
  0
LINE
  5
272
330
2
100
AcDbEntity
  8
YKK_11
  6
ByBlock
 62
     0
100
AcDbLine
 10
484.24697245
 20
100.56080264
 30
0.0
 11
484.24697245
 21
69.96080264
 31
0.0
  0
LINE
  5
273
330
2
100
AcDbEntity
  8
YKK_11
  6
ByBlock
 62
     0
100
AcDbLine
 10
477.84697208
 20
96.06080231
 30
0.0
 11
477.84697208
 21
74.46080231
 31
0.0
  0
LINE
  5
274
330
2
100
AcDbEntity
  8
YKK_11
  6
ByBlock
 62
     0
100
AcDbLine
 10
477.34697208
 20
73.96080231
 30
0.0
 11
477.34697208
 21
96.56080231
 31
0.0
  0
LINE
  5
275
330
2
100
AcDbEntity
  8
YKK_11
  6
ByBlock
 62
     0
100
AcDbLine
 10
479.04697208
 20
96.56080231
 30
0.0
 11
479.04697208
 21
73.96080231
 31
0.0
  0
LINE
  5
276
330
2
100
AcDbEntity
  8
YKK_13
  6
YHIDDEN_1
100
AcDbLine
 10
506.84697208
 20
73.36080264
 30
0.0
 11
506.84697208
 21
100.06080264
 31
0.0
  0
LINE
  5
277
330
2
100
AcDbEntity
  8
YKK_13
  6
YHIDDEN_1
100
AcDbLine
 10
485.64697208
 20
73.36080264
 30
0.0
 11
485.64697208
 21
84.06080264
 31
0.0
  0
LINE
  5
278
330
2
100
AcDbEntity
  8
YKK_13
  6
YHIDDEN_1
100
AcDbLine
 10
504.54697208
 20
100.06080264
 30
0.0
 11
504.54697208
 21
73.96080264
 31
0.0
  0
LINE
  5
279
330
2
100
AcDbEntity
  8
YKK_13
  6
YHIDDEN_1
100
AcDbLine
 10
487.94697208
 20
84.06080264
 30
0.0
 11
487.94697208
 21
73.96080264
 31
0.0
  0
ARC
  5
27A
330
2
100
AcDbEntity
  8
YKK_13
  6
YHIDDEN_1
100
AcDbCircle
 10
504.54697208
 20
73.36080264
 30
0.0
 40
2.299999999999998
100
AcDbArc
 50
270.0
 51
0.0
  0
LINE
  5
27B
330
2
100
AcDbEntity
  8
YKK_D
100
AcDbLine
 10
473.04698607
 20
46.46080694
 30
0.0
 11
466.98480824
 21
42.96080694
 31
0.0
  0
LINE
  5
27C
330
2
100
AcDbEntity
  8
YKK_D
100
AcDbLine
 10
466.98480824
 20
49.96080694
 30
0.0
 11
466.98480824
 21
42.96080694
 31
0.0
  0
LINE
  5
27D
330
2
100
AcDbEntity
  8
YKK_11
  6
ByBlock
 62
     0
100
AcDbLine
 10
473.04697245
 20
69.96080264
 30
0.0
 11
483.04697245
 21
69.96080264
 31
0.0
  0
LINE
  5
27E
330
2
100
AcDbEntity
  8
YKK_11
  6
ByBlock
 62
     0
100
AcDbLine
 10
483.04697245
 20
68.76080264
 30
0.0
 11
473.04697245
 21
68.76080264
 31
0.0
  0
LINE
  5
27F
330
2
100
AcDbEntity
  8
YKK_D
100
AcDbLine
 10
473.04698607
 20
46.46080694
 30
0.0
 11
483.04698607
 21
46.46080694
 31
0.0
  0
LINE
  5
280
330
2
100
AcDbEntity
  8
YKK_D
100
AcDbLine
 10
473.04698607
 20
62.46080264
 30
0.0
 11
473.04698607
 21
45.46080694
 31
0.0
  0
LINE
  5
281
330
2
100
AcDbEntity
  8
YKK_D
100
AcDbLine
 10
473.04698607
 20
62.46080264
 30
0.0
 11
473.04698607
 21
45.46080694
 31
0.0
  0
LINE
  5
282
330
2
100
AcDbEntity
  8
YKK_D
100
AcDbLine
 10
473.04698607
 20
46.46080694
 30
0.0
 11
466.98480824
 21
49.96080694
 31
0.0
  0
LINE
  5
283
330
2
100
AcDbEntity
  8
YKK_D
100
AcDbLine
 10
473.04698607
 20
46.46080694
 30
0.0
 11
460.92263042
 21
46.46080694
 31
0.0
  0
LINE
  5
284
330
2
100
AcDbEntity
  8
YKK_11
  6
ByBlock
 62
     0
100
AcDbLine
 10
477.84697208
 20
72.76080231
 30
0.0
 11
469.04697208
 21
72.76080231
 31
0.0
  0
LINE
  5
285
330
2
100
AcDbEntity
  8
YKK_11
  6
ByBlock
 62
     0
100
AcDbLine
 10
469.04697208
 20
72.76080231
 30
0.0
 11
469.04697208
 21
73.96080231
 31
0.0
  0
LINE
  5
286
330
2
100
AcDbEntity
  8
YKK_11
  6
ByBlock
 62
     0
100
AcDbLine
 10
473.04697245
 20
68.76080264
 30
0.0
 11
473.04697245
 21
69.96080264
 31
0.0
  0
LINE
  5
287
330
2
100
AcDbEntity
  8
YKK_11
  6
ByBlock
 62
     0
100
AcDbLine
 10
477.84697208
 20
74.46080231
 30
0.0
 11
477.34697208
 21
73.96080231
 31
0.0
  0
ARC
  5
288
330
2
100
AcDbEntity
  8
YKK_11
  6
ByBlock
 62
     0
100
AcDbCircle
 10
477.84697208
 20
73.96080231
 30
0.0
 40
1.199999999999999
100
AcDbArc
 50
270.00000112
 51
0.0
  0
LINE
  5
289
330
2
100
AcDbEntity
  8
YKK_D
100
AcDbLine
 10
483.04698607
 20
62.46080264
 30
0.0
 11
483.04698607
 21
45.46080694
 31
0.0
  0
LINE
  5
28A
330
2
100
AcDbEntity
  8
YKK_D
100
AcDbLine
 10
483.04698607
 20
46.46080694
 30
0.0
 11
494.16696166
 21
46.46080694
 31
0.0
  0
TEXT
  5
28B
330
2
100
AcDbEntity
  8
YKK_D
100
AcDbText
 10
486.34543881
 20
47.46080694
 30
0.0
 40
6.0
  1
10
 41
0.8
100
AcDbText
1001
ACAD
1000
MTEXTBEGIN
1070
    73
1070
     1
1070
    44
1040
1.0
1070
    74
1070
     0
1000
MTEXTEND
  0
LWPOLYLINE
  5
28C
330
2
100
AcDbEntity
  8
YKK_D
  6
ByBlock
100
AcDbPolyline
 90
        2
 70
     1
 43
0.85
 10
482.94073607
 20
46.46080694
 42
1.0
 10
483.15323607
 20
46.46080694
 42
1.0
  0
LINE
  5
28D
330
2
100
AcDbEntity
  8
YKK_13
  6
YHIDDEN_1
100
AcDbLine
 10
488.54697208
 20
73.36080264
 30
0.0
 11
503.94697208
 21
73.36080264
 31
0.0
  0
LINE
  5
28E
330
2
100
AcDbEntity
  8
YKK_13
  6
YHIDDEN_1
100
AcDbLine
 10
487.94697208
 20
71.06080264
 30
0.0
 11
504.54697208
 21
71.06080264
 31
0.0
  0
LINE
  5
28F
330
2
100
AcDbEntity
  8
YKK_12
  6
Continuous
100
AcDbLine
 10
483.04697208
 20
68.76080264
 30
0.0
 11
483.04697208
 21
67.56080264
 31
0.0
  0
ARC
  5
290
330
2
100
AcDbEntity
  8
YKK_13
  6
YHIDDEN_1
100
AcDbCircle
 10
488.54697208
 20
73.96080264
 30
0.0
 40
0.5999999999999999
100
AcDbArc
 50
180.0
 51
270.0
  0
ARC
  5
291
330
2
100
AcDbEntity
  8
YKK_11
  6
ByBlock
 62
     0
100
AcDbCircle
 10
483.04697245
 20
69.96080264
 30
0.0
 40
1.199999999999999
100
AcDbArc
 50
270.00000112
 51
0.0
  0
ARC
  5
292
330
2
100
AcDbEntity
  8
YKK_13
  6
YHIDDEN_1
100
AcDbCircle
 10
487.94697208
 20
73.36080264
 30
0.0
 40
2.299999999999998
100
AcDbArc
 50
180.0
 51
270.0
  0
ARC
  5
293
330
2
100
AcDbEntity
  8
YKK_13
  6
YHIDDEN_1
100
AcDbCircle
 10
503.94697208
 20
73.96080264
 30
0.0
 40
0.5999999999999999
100
AcDbArc
 50
270.0
 51
0.0
  0
LINE
  5
294
330
2
100
AcDbEntity
  8
YKK_11
  6
ByBlock
 62
     0
100
AcDbLine
 10
506.84697245
 20
100.56080264
 30
0.0
 11
484.24697245
 21
100.56080264
 31
0.0
  0
LINE
  5
295
330
2
100
AcDbEntity
  8
YKK_11
  6
ByBlock
 62
     0
100
AcDbLine
 10
484.24697245
 20
101.76080264
 30
0.0
 11
506.84697245
 21
101.76080264
 31
0.0
  0
LINE
  5
296
330
2
100
AcDbEntity
  8
YKK_13
  6
YHIDDEN_1
100
AcDbLine
 10
504.54697208
 20
100.06080264
 30
0.0
 11
506.84697208
 21
100.06080264
 31
0.0
  0
LINE
  5
297
330
2
100
AcDbEntity
  8
YKK_D
100
AcDbLine
 10
508.04698607
 20
130.76080999
 30
0.0
 11
483.04698607
 21
130.76080999
 31
0.0
  0
LINE
  5
298
330
2
100
AcDbEntity
  8
YKK_D
100
AcDbLine
 10
479.04698607
 20
105.76080236
 30
0.0
 11
479.04698607
 21
131.76080999
 31
0.0
  0
LINE
  5
299
330
2
100
AcDbEntity
  8
YKK_D
100
AcDbLine
 10
483.04698607
 20
105.76080284
 30
0.0
 11
483.04698607
 21
131.76080999
 31
0.0
  0
ARC
  5
29A
330
2
100
AcDbEntity
  8
YKK_11
  6
ByBlock
 62
     0
100
AcDbCircle
 10
477.84697208
 20
96.56080231
 30
0.0
 40
1.199999999999999
100
AcDbArc
 50
0.0
 51
89.99998128
  0
LINE
  5
29B
330
2
100
AcDbEntity
  8
YKK_11
  6
ByBlock
 62
     0
100
AcDbLine
 10
477.34697208
 20
96.56080231
 30
0.0
 11
477.84697208
 21
96.06080231
 31
0.0
  0
LINE
  5
29C
330
2
100
AcDbEntity
  8
YKK_13
  6
YHIDDEN_1
100
AcDbLine
 10
485.64697208
 20
84.06080264
 30
0.0
 11
487.94697208
 21
84.06080264
 31
0.0
  0
ARC
  5
29D
330
2
100
AcDbEntity
  8
YKK_11
  6
ByBlock
 62
     0
100
AcDbCircle
 10
484.24697245
 20
100.56080264
 30
0.0
 40
1.199999999999999
100
AcDbArc
 50
89.99998128
 51
180.00001985
  0
LINE
  5
29E
330
2
100
AcDbEntity
  8
YKK_D
100
AcDbLine
 10
479.04698607
 20
130.76080999
 30
0.0
 11
483.04698607
 21
130.76080999
 31
0.0
  0
TEXT
  5
29F
330
2
100
AcDbEntity
  8
YKK_D
100
AcDbText
 10
478.64977795
 20
131.76080999
 30
0.0
 40
6.0
  1
4
 41
0.8
100
AcDbText
1001
ACAD
1000
MTEXTBEGIN
1070
    73
1070
     1
1070
    44
1040
1.0
1070
    74
1070
     0
1000
MTEXTEND
  0
LWPOLYLINE
  5
2A0
330
2
100
AcDbEntity
  8
YKK_D
  6
ByBlock
100
AcDbPolyline
 90
        2
 70
     1
 43
0.85
 10
479.15323607
 20
130.76080999
 42
1.0
 10
478.94073607
 20
130.76080999
 42
1.0
  0
LWPOLYLINE
  5
2A1
330
2
100
AcDbEntity
  8
YKK_D
  6
ByBlock
100
AcDbPolyline
 90
        2
 70
     1
 43
0.85
 10
478.94073607
 20
130.76080999
 42
1.0
 10
479.15323607
 20
130.76080999
 42
1.0
  0
TEXT
  5
2A2
330
2
100
AcDbEntity
  8
YKK_D
100
AcDbText
 10
492.46475257
 20
131.76080999
 30
0.0
 40
6.0
  1
25
 41
0.8
100
AcDbText
1001
ACAD
1000
MTEXTBEGIN
1070
    73
1070
     1
1070
    44
1040
1.0
1070
    74
1070
     0
1000
MTEXTEND
  0
LWPOLYLINE
  5
2A3
330
2
100
AcDbEntity
  8
YKK_D
  6
ByBlock
100
AcDbPolyline
 90
        2
 70
     1
 43
0.85
 10
483.15323607
 20
130.76080999
 42
1.0
 10
482.94073607
 20
130.76080999
 42
1.0
  0
LWPOLYLINE
  5
2A4
330
2
100
AcDbEntity
  8
YKK_D
  6
ByBlock
100
AcDbPolyline
 90
        2
 70
     1
 43
0.85
 10
482.94073607
 20
130.76080999
 42
1.0
 10
483.15323607
 20
130.76080999
 42
1.0
  0
LINE
  5
2A5
330
2
100
AcDbEntity
  8
YKK_D
100
AcDbLine
 10
508.04698607
 20
105.76080284
 30
0.0
 11
508.04698607
 21
131.76080999
 31
0.0
  0
LINE
  5
2A6
330
2
100
AcDbEntity
  8
YKK_11
  6
ByBlock
 62
     0
100
AcDbLine
 10
506.84697245
 20
80.56080264
 30
0.0
 11
506.84697245
 21
100.56080264
 31
0.0
  0
LINE
  5
2A7
330
2
100
AcDbEntity
  8
YKK_11
  6
ByBlock
 62
     0
100
AcDbLine
 10
508.04697245
 20
100.56080264
 30
0.0
 11
508.04697245
 21
80.56080264
 31
0.0
  0
LINE
  5
2A8
330
2
100
AcDbEntity
  8
YKK_11
  6
ByBlock
 62
     0
100
AcDbLine
 10
508.04697245
 20
80.56080264
 30
0.0
 11
506.84697245
 21
80.56080264
 31
0.0
  0
ARC
  5
2A9
330
2
100
AcDbEntity
  8
YKK_11
  6
ByBlock
 62
     0
100
AcDbCircle
 10
506.84697245
 20
100.56080264
 30
0.0
 40
1.199999999999999
100
AcDbArc
 50
0.0
 51
89.99998128
  0
LWPOLYLINE
  5
2AA
330
2
100
AcDbEntity
  8
YKK_D
  6
ByBlock
100
AcDbPolyline
 90
        2
 70
     1
 43
0.85
 10
507.94073607
 20
130.76080999
 42
1.0
 10
508.15323607
 20
130.76080999
 42
1.0
  0
LINE
  5
2AB
330
2
100
AcDbEntity
  8
YKK_A1
  6
Continuous
100
AcDbLine
 10
471.73515739
 20
361.18020305
 30
0.0
 11
428.23515999
 21
361.18020305
 31
0.0
  0
LINE
  5
2AC
330
2
100
AcDbEntity
  8
YKK_A1
  6
Continuous
100
AcDbLine
 10
428.23515999
 20
261.18020901
 30
0.0
 11
471.73515739
 21
261.18020901
 31
0.0
  0
LINE
  5
2AD
330
2
100
AcDbEntity
  8
YKK_A1
  6
Continuous
100
AcDbLine
 10
429.48515991
 20
359.93020312
 30
0.0
 11
470.48515747
 21
359.93020312
 31
0.0
  0
LINE
  5
2AE
330
2
100
AcDbEntity
  8
YKK_A1
  6
Continuous
100
AcDbLine
 10
429.48515991
 20
262.43020893
 30
0.0
 11
470.48515747
 21
262.43020893
 31
0.0
  0
LINE
  5
2AF
330
2
100
AcDbEntity
  8
YKK_A1
  6
Continuous
100
AcDbLine
 10
429.6851599
 20
359.78020313
 30
0.0
 11
470.28515748
 21
359.78020313
 31
0.0
  0
LINE
  5
2B0
330
2
100
AcDbEntity
  8
YKK_A1
  6
Continuous
100
AcDbLine
 10
429.6851599
 20
262.68020892
 30
0.0
 11
470.28515748
 21
262.68020892
 31
0.0
  0
LINE
  5
2B1
330
2
100
AcDbEntity
  8
YKK_D
100
AcDbLine
 10
429.68518455
 20
246.18019986
 30
0.0
 11
470.28516014
 21
246.18019986
 31
0.0
  0
LINE
  5
2B2
330
2
100
AcDbEntity
  8
YKK_D
100
AcDbLine
 10
434.98517234
 20
231.18019986
 30
0.0
 11
464.98517234
 21
231.18019986
 31
0.0
  0
LINE
  5
2B3
330
2
100
AcDbEntity
  8
YKK_A1
  6
Continuous
100
AcDbLine
 10
428.23515999
 20
361.18020305
 30
0.0
 11
428.23515999
 21
261.18020901
 31
0.0
  0
LINE
  5
2B4
330
2
100
AcDbEntity
  8
YKK_A1
  6
Continuous
100
AcDbLine
 10
429.48515991
 20
261.18020901
 30
0.0
 11
429.48515991
 21
359.93020312
 31
0.0
  0
LINE
  5
2B5
330
2
100
AcDbEntity
  8
YKK_A1
  6
Continuous
100
AcDbLine
 10
429.6851599
 20
262.68020892
 30
0.0
 11
429.6851599
 21
359.78020313
 31
0.0
  0
LINE
  5
2B6
330
2
100
AcDbEntity
  8
YKK_A1
  6
Continuous
100
AcDbLine
 10
319.89302799
 20
261.18020901
 30
0.0
 11
319.89302799
 21
311.18020603
 31
0.0
  0
LINE
  5
2B7
330
2
100
AcDbEntity
  8
YKK_A1
  6
Continuous
100
AcDbLine
 10
318.64302807
 20
261.18020901
 30
0.0
 11
318.64302807
 21
268.93020855
 31
0.0
  0
LINE
  5
2B8
330
2
100
AcDbEntity
  8
YKK_A1
  6
Continuous
100
AcDbLine
 10
318.44302808
 20
268.93020855
 30
0.0
 11
318.44302808
 21
262.68020892
 31
0.0
  0
LINE
  5
2B9
330
2
100
AcDbEntity
  8
YKK_D
100
AcDbLine
 10
334.89300926
 20
309.78020596
 30
0.0
 11
334.89300926
 21
262.68019986
 31
0.0
  0
LINE
  5
2BA
330
2
100
AcDbEntity
  8
YKK_D
100
AcDbLine
 10
334.89300926
 20
262.55519986
 30
0.0
 11
344.83751866
 21
267.01111512
 31
0.0
  0
LINE
  5
2BB
330
2
100
AcDbEntity
  8
YKK_D
100
AcDbLine
 10
349.89300926
 20
262.93019986
 30
0.0
 11
349.89300926
 21
264.63019986
 31
0.0
  0
LINE
  5
2BC
330
2
100
AcDbEntity
  8
YKK_D
100
AcDbLine
 10
349.89300926
 20
262.93019986
 30
0.0
 11
352.39300926
 21
267.26032688
 31
0.0
  0
LINE
  5
2BD
330
2
100
AcDbEntity
  8
YKK_D
100
AcDbLine
 10
349.89300926
 20
262.93019986
 30
0.0
 11
347.39300926
 21
267.26032688
 31
0.0
  0
LINE
  5
2BE
330
2
100
AcDbEntity
  8
YKK_D
100
AcDbLine
 10
349.89300926
 20
262.93019986
 30
0.0
 11
349.89300926
 21
271.5904539
 31
0.0
  0
LINE
  5
2BF
330
2
100
AcDbEntity
  8
YKK_D
100
AcDbLine
 10
322.89302809
 20
262.43019986
 30
0.0
 11
335.89300926
 21
262.43019986
 31
0.0
  0
LINE
  5
2C0
330
2
100
AcDbEntity
  8
YKK_D
100
AcDbLine
 10
322.89302809
 20
262.68019986
 30
0.0
 11
335.89300926
 21
262.68019986
 31
0.0
  0
LINE
  5
2C1
330
2
100
AcDbEntity
  8
YKK_D
100
AcDbLine
 10
322.89302809
 20
261.18019986
 30
0.0
 11
350.89300926
 21
261.18019986
 31
0.0
  0
LINE
  5
2C2
330
2
100
AcDbEntity
  8
YKK_D
100
AcDbLine
 10
319.89300926
 20
231.18019986
 30
0.0
 11
332.33300926
 21
231.18019986
 31
0.0
  0
LINE
  5
2C3
330
2
100
AcDbEntity
  8
YKK_D
100
AcDbLine
 10
324.15729923
 20
238.97983178
 30
0.0
 11
329.35729923
 21
238.97983178
 31
0.0
  0
LINE
  5
2C4
330
2
100
AcDbEntity
  8
YKK_D
100
AcDbLine
 10
319.89300926
 20
246.18019986
 30
0.0
 11
332.33300926
 21
246.18019986
 31
0.0
  0
LINE
  5
2C5
330
2
100
AcDbEntity
  8
YKK_D
100
AcDbLine
 10
322.89302809
 20
261.18019986
 30
0.0
 11
335.89300926
 21
261.18019986
 31
0.0
  0
LINE
  5
2C6
330
2
100
AcDbEntity
  8
YKK_D
100
AcDbLine
 10
322.89302809
 20
262.43019986
 30
0.0
 11
335.89300926
 21
262.43019986
 31
0.0
  0
TEXT
  5
2C7
330
2
100
AcDbEntity
  8
YKK_D
100
AcDbText
 10
325.21009111
 20
239.97983178
 30
0.0
 40
6.0
  1
4
 41
0.8
100
AcDbText
1001
ACAD
1000
MTEXTBEGIN
1070
    73
1070
     1
1070
    44
1040
1.0
1070
    74
1070
     0
1000
MTEXTEND
  0
TEXT
  5
2C8
330
2
100
AcDbEntity
  8
YKK_D
100
AcDbText
 10
324.7429585
 20
232.18019986
 30
0.0
 40
6.0
  1
35
 41
0.8
100
AcDbText
1001
ACAD
1000
MTEXTBEGIN
1070
    73
1070
     1
1070
    44
1040
1.0
1070
    74
1070
     0
1000
MTEXTEND
  0
TEXT
  5
2C9
330
2
100
AcDbEntity
  8
YKK_D
100
AcDbText
 10
324.73077576
 20
247.18019986
 30
0.0
 40
6.0
  1
25
 41
0.8
100
AcDbText
1001
ACAD
1000
MTEXTBEGIN
1070
    73
1070
     1
1070
    44
1040
1.0
1070
    74
1070
     0
1000
MTEXTEND
  0
LINE
  5
2CA
330
2
100
AcDbEntity
  8
YKK_D
100
AcDbLine
 10
318.14300926
 20
240.88268208
 30
0.0
 11
318.14300926
 21
230.18019986
 31
0.0
  0
LINE
  5
2CB
330
2
100
AcDbEntity
  8
YKK_D
100
AcDbLine
 10
319.89300926
 20
258.18020725
 30
0.0
 11
319.89300926
 21
230.18019986
 31
0.0
  0
LINE
  5
2CC
330
2
100
AcDbEntity
  8
YKK_D
100
AcDbLine
 10
318.14300926
 20
240.88268208
 30
0.0
 11
318.14300926
 21
230.18019986
 31
0.0
  0
TEXT
  5
2CD
330
2
100
AcDbEntity
  8
YKK_D
100
AcDbText
 10
296.60798388
 20
232.18019986
 30
0.0
 40
6.0
  1
W
 41
0.8
100
AcDbText
1001
ACAD
1000
MTEXTBEGIN
1070
    73
1070
     1
1070
    44
1040
1.0
1070
    74
1070
     0
1000
MTEXTEND
  0
LINE
  5
2CE
330
2
100
AcDbEntity
  8
YKK_D
100
AcDbLine
 10
318.14300926
 20
231.18019986
 30
0.0
 11
313.81288224
 21
233.68019986
 31
0.0
  0
LINE
  5
2CF
330
2
100
AcDbEntity
  8
YKK_D
100
AcDbLine
 10
313.81288224
 20
233.68019986
 30
0.0
 11
313.81288224
 21
228.68019986
 31
0.0
  0
LINE
  5
2D0
330
2
100
AcDbEntity
  8
YKK_D
100
AcDbLine
 10
318.14300926
 20
231.18019986
 30
0.0
 11
316.44300926
 21
231.18019986
 31
0.0
  0
LINE
  5
2D1
330
2
100
AcDbEntity
  8
YKK_D
100
AcDbLine
 10
318.14300926
 20
231.18019986
 30
0.0
 11
313.81288224
 21
228.68019986
 31
0.0
  0
LINE
  5
2D2
330
2
100
AcDbEntity
  8
YKK_D
100
AcDbLine
 10
318.14300926
 20
231.18019986
 30
0.0
 11
309.48275522
 21
231.18019986
 31
0.0
  0
LINE
  5
2D3
330
2
100
AcDbEntity
  8
YKK_D
100
AcDbLine
 10
318.14300926
 20
231.18019986
 30
0.0
 11
319.89300926
 21
231.18019986
 31
0.0
  0
LWPOLYLINE
  5
2D4
330
2
100
AcDbEntity
  8
YKK_D
  6
ByBlock
100
AcDbPolyline
 90
        2
 70
     1
 43
0.85
 10
319.99925926
 20
231.18019986
 42
1.0
 10
319.78675926
 20
231.18019986
 42
1.0
  0
TEXT
  5
2D5
330
2
100
AcDbEntity
  8
YKK_D
100
AcDbText
 10
294.9267656
 20
247.18019986
 30
0.0
 40
6.0
  1
DW
 41
0.8
100
AcDbText
1001
ACAD
1000
MTEXTBEGIN
1070
    73
1070
     1
1070
    44
1040
1.0
1070
    74
1070
     0
1000
MTEXTEND
  0
LINE
  5
2D6
330
2
100
AcDbEntity
  8
YKK_A1
  6
Continuous
100
AcDbLine
 10
305.18086948
 20
262.9302089
 30
0.0
 11
305.13086948
 21
262.9302089
 31
0.0
  0
LINE
  5
2D7
330
2
100
AcDbEntity
  8
YKK_D
100
AcDbLine
 10
318.64300926
 20
258.18020725
 30
0.0
 11
318.64300926
 21
245.18019986
 31
0.0
  0
LINE
  5
2D8
330
2
100
AcDbEntity
  8
YKK_D
100
AcDbLine
 10
318.44305809
 20
258.18020725
 30
0.0
 11
318.44305809
 21
245.18019986
 31
0.0
  0
LINE
  5
2D9
330
2
100
AcDbEntity
  8
YKK_D
100
AcDbLine
 10
319.89300926
 20
258.18020725
 30
0.0
 11
319.89300926
 21
245.18019986
 31
0.0
  0
LINE
  5
2DA
330
2
100
AcDbEntity
  8
YKK_D
100
AcDbLine
 10
318.64300926
 20
258.18020725
 30
0.0
 11
318.64300926
 21
245.18019986
 31
0.0
  0
LINE
  5
2DB
330
2
100
AcDbEntity
  8
YKK_D
100
AcDbLine
 10
318.54303367
 20
246.18019986
 30
0.0
 11
324.15729923
 21
238.97983178
 31
0.0
  0
LINE
  5
2DC
330
2
100
AcDbEntity
  8
YKK_D
100
AcDbLine
 10
318.64300926
 20
246.18019986
 30
0.0
 11
320.34300926
 21
246.18019986
 31
0.0
  0
LINE
  5
2DD
330
2
100
AcDbEntity
  8
YKK_D
100
AcDbLine
 10
318.44305809
 20
246.18019986
 30
0.0
 11
316.74305809
 21
246.18019986
 31
0.0
  0
LINE
  5
2DE
330
2
100
AcDbEntity
  8
YKK_D
100
AcDbLine
 10
318.64300926
 20
246.18019986
 30
0.0
 11
318.44305809
 21
246.18019986
 31
0.0
  0
LINE
  5
2DF
330
2
100
AcDbEntity
  8
YKK_D
100
AcDbLine
 10
318.64300926
 20
246.18019986
 30
0.0
 11
318.44305809
 21
246.18019986
 31
0.0
  0
LINE
  5
2E0
330
2
100
AcDbEntity
  8
YKK_D
100
AcDbLine
 10
318.64300926
 20
246.18019986
 30
0.0
 11
316.94300926
 21
246.18019986
 31
0.0
  0
LINE
  5
2E1
330
2
100
AcDbEntity
  8
YKK_D
100
AcDbLine
 10
318.64300926
 20
246.18019986
 30
0.0
 11
319.89300926
 21
246.18019986
 31
0.0
  0
LWPOLYLINE
  5
2E2
330
2
100
AcDbEntity
  8
YKK_D
  6
ByBlock
100
AcDbPolyline
 90
        2
 70
     1
 43
0.85
 10
319.99925926
 20
246.18019986
 42
1.0
 10
319.78675926
 20
246.18019986
 42
1.0
  0
LWPOLYLINE
  5
2E3
330
2
100
AcDbEntity
  8
YKK_D
  6
ByBlock
100
AcDbPolyline
 90
        2
 70
     1
 43
0.85
 10
318.53675926
 20
246.18019986
 42
1.0
 10
318.74925926
 20
246.18019986
 42
1.0
  0
LWPOLYLINE
  5
2E4
330
2
100
AcDbEntity
  8
YKK_D
  6
ByBlock
100
AcDbPolyline
 90
        2
 70
     1
 43
0.85
 10
318.33680809
 20
246.18019986
 42
1.0
 10
318.54930809
 20
246.18019986
 42
1.0
  0
LWPOLYLINE
  5
2E5
330
2
100
AcDbEntity
  8
YKK_D
  6
ByBlock
100
AcDbPolyline
 90
        2
 70
     1
 43
0.85
 10
318.74925926
 20
246.18019986
 42
1.0
 10
318.53675926
 20
246.18019986
 42
1.0
  0
LWPOLYLINE
  5
2E6
330
2
100
AcDbEntity
  8
YKK_D
  6
ByBlock
100
AcDbPolyline
 90
        2
 70
     1
 43
0.85
 10
318.33680809
 20
246.18019986
 42
1.0
 10
318.54930809
 20
246.18019986
 42
1.0
  0
LINE
  5
2E7
330
2
100
AcDbEntity
  8
YKK_A1
  6
Continuous
100
AcDbLine
 10
318.64302807
 20
262.9302089
 30
0.0
 11
318.59302807
 21
262.9302089
 31
0.0
  0
LINE
  5
2E8
330
2
100
AcDbEntity
  8
YKK_A1
  6
YHIDDEN_1
100
AcDbLine
 10
316.89302817
 20
262.43020893
 30
0.0
 11
316.89302817
 21
262.41844355
 31
0.0
  0
LINE
  5
2E9
330
2
100
AcDbEntity
  8
YKK_A1
  6
Continuous
100
AcDbLine
 10
318.1430281
 20
261.18020901
 30
0.0
 11
318.1430281
 21
261.23020901
 31
0.0
  0
LINE
  5
2EA
330
2
100
AcDbEntity
  8
YKK_D
100
AcDbLine
 10
339.80865295
 20
262.93019986
 30
0.0
 11
350.89300926
 21
262.93019986
 31
0.0
  0
LINE
  5
2EB
330
2
100
AcDbEntity
  8
YKK_D
100
AcDbLine
 10
339.80865295
 20
262.93019986
 30
0.0
 11
350.89300926
 21
262.93019986
 31
0.0
  0
LWPOLYLINE
  5
2EC
330
2
100
AcDbEntity
  8
YKK_D
  6
ByBlock
100
AcDbPolyline
 90
        2
 70
     1
 43
0.85
 10
349.89300926
 20
261.07394986
 42
1.0
 10
349.89300926
 20
261.28644986
 42
1.0
  0
TEXT
  5
2ED
330
2
100
AcDbEntity
  8
YKK_D
100
AcDbText
 10
334.89248024
 20
253.65256978
 30
0.0
 40
6.0
  1
25
 50
90.0
 41
0.8
100
AcDbText
1001
ACAD
1000
MTEXTBEGIN
1070
    73
1070
     1
1070
    44
1040
1.0
1070
    74
1070
     0
1000
MTEXTEND
  0
LINE
  5
2EE
330
2
100
AcDbEntity
  8
YKK_D
100
AcDbLine
 10
334.89300926
 20
262.43019986
 30
0.0
 11
334.89300926
 21
260.73019986
 31
0.0
  0
LINE
  5
2EF
330
2
100
AcDbEntity
  8
YKK_D
100
AcDbLine
 10
334.89300926
 20
262.68019986
 30
0.0
 11
334.89300926
 21
264.38019986
 31
0.0
  0
LINE
  5
2F0
330
2
100
AcDbEntity
  8
YKK_D
100
AcDbLine
 10
334.89300926
 20
262.43019986
 30
0.0
 11
334.89300926
 21
262.68019986
 31
0.0
  0
LINE
  5
2F1
330
2
100
AcDbEntity
  8
YKK_D
100
AcDbLine
 10
334.89300926
 20
262.43019986
 30
0.0
 11
334.89300926
 21
262.68019986
 31
0.0
  0
LINE
  5
2F2
330
2
100
AcDbEntity
  8
YKK_D
100
AcDbLine
 10
334.89300926
 20
261.18019986
 30
0.0
 11
334.89300926
 21
259.48019986
 31
0.0
  0
LINE
  5
2F3
330
2
100
AcDbEntity
  8
YKK_D
100
AcDbLine
 10
334.89300926
 20
262.43019986
 30
0.0
 11
334.89300926
 21
264.13019986
 31
0.0
  0
LINE
  5
2F4
330
2
100
AcDbEntity
  8
YKK_D
100
AcDbLine
 10
334.89300926
 20
261.18019986
 30
0.0
 11
334.89300926
 21
262.43019986
 31
0.0
  0
LWPOLYLINE
  5
2F5
330
2
100
AcDbEntity
  8
YKK_D
  6
ByBlock
100
AcDbPolyline
 90
        2
 70
     1
 43
0.85
 10
334.89300926
 20
262.53644986
 42
1.0
 10
334.89300926
 20
262.32394986
 42
1.0
  0
LWPOLYLINE
  5
2F6
330
2
100
AcDbEntity
  8
YKK_D
  6
ByBlock
100
AcDbPolyline
 90
        2
 70
     1
 43
0.85
 10
334.89300926
 20
261.07394986
 42
1.0
 10
334.89300926
 20
261.28644986
 42
1.0
  0
LWPOLYLINE
  5
2F7
330
2
100
AcDbEntity
  8
YKK_D
  6
ByBlock
100
AcDbPolyline
 90
        2
 70
     1
 43
0.85
 10
334.89300926
 20
262.78644986
 42
1.0
 10
334.89300926
 20
262.57394986
 42
1.0
  0
LWPOLYLINE
  5
2F8
330
2
100
AcDbEntity
  8
YKK_D
  6
ByBlock
100
AcDbPolyline
 90
        2
 70
     1
 43
0.85
 10
334.89300926
 20
262.32394986
 42
1.0
 10
334.89300926
 20
262.53644986
 42
1.0
  0
LWPOLYLINE
  5
2F9
330
2
100
AcDbEntity
  8
YKK_D
  6
ByBlock
100
AcDbPolyline
 90
        2
 70
     1
 43
0.85
 10
334.89300926
 20
262.78644986
 42
1.0
 10
334.89300926
 20
262.57394986
 42
1.0
  0
TEXT
  5
2FA
330
2
100
AcDbEntity
  8
YKK_D
100
AcDbText
 10
348.89300926
 20
250.1901491
 30
0.0
 40
6.0
  1
35
 50
90.0
 41
0.8
100
AcDbText
1001
ACAD
1000
MTEXTBEGIN
1070
    73
1070
     1
1070
    44
1040
1.0
1070
    74
1070
     0
1000
MTEXTEND
  0
LINE
  5
2FB
330
2
100
AcDbEntity
  8
YKK_D
100
AcDbLine
 10
349.89300926
 20
261.18019986
 30
0.0
 11
349.89300926
 21
248.74019986
 31
0.0
  0
LINE
  5
2FC
330
2
100
AcDbEntity
  8
YKK_D
100
AcDbLine
 10
349.89300926
 20
262.93019986
 30
0.0
 11
349.89300926
 21
261.18019986
 31
0.0
  0
LINE
  5
2FD
330
2
100
AcDbEntity
  8
YKK_D
100
AcDbLine
 10
322.89302809
 20
309.78020596
 30
0.0
 11
335.89300926
 21
309.78020596
 31
0.0
  0
LINE
  5
2FE
330
2
100
AcDbEntity
  8
YKK_D
100
AcDbLine
 10
322.89302809
 20
311.18019986
 30
0.0
 11
350.89300926
 21
311.18019986
 31
0.0
  0
LINE
  5
2FF
330
2
100
AcDbEntity
  8
YKK_D
100
AcDbLine
 10
322.89302809
 20
309.93019986
 30
0.0
 11
335.89300926
 21
309.93019986
 31
0.0
  0
LINE
  5
300
330
2
100
AcDbEntity
  8
YKK_D
100
AcDbLine
 10
322.89302809
 20
311.18019986
 30
0.0
 11
335.89300926
 21
311.18019986
 31
0.0
  0
LINE
  5
301
330
2
100
AcDbEntity
  8
YKK_D
100
AcDbLine
 10
322.89302809
 20
309.93019986
 30
0.0
 11
335.89300926
 21
309.93019986
 31
0.0
  0
LINE
  5
302
330
2
100
AcDbEntity
  8
YKK_A1
  6
Continuous
100
AcDbLine
 10
318.64302807
 20
273.93020825
 30
0.0
 11
318.64302807
 21
296.43020691
 31
0.0
  0
LINE
  5
303
330
2
100
AcDbEntity
  8
YKK_A1
  6
Continuous
100
AcDbLine
 10
318.44302808
 20
296.43020691
 30
0.0
 11
318.44302808
 21
273.93020825
 31
0.0
  0
LINE
  5
304
330
2
100
AcDbEntity
  8
YKK_A1
  6
Continuous
100
AcDbLine
 10
283.49303016
 20
281.68020779
 30
0.0
 11
283.49303016
 21
285.68020755
 31
0.0
  0
ARC
  5
305
330
2
100
AcDbEntity
  8
YKK_A1
  6
Continuous
100
AcDbCircle
 10
283.44303017
 20
281.68020779
 30
0.0
 40
0.0499999970197678
100
AcDbArc
 50
270.0
 51
0.0
  0
ARC
  5
306
330
2
100
AcDbEntity
  8
YKK_A1
  6
Continuous
100
AcDbCircle
 10
283.44303017
 20
285.68020755
 30
0.0
 40
0.0499999970197678
100
AcDbArc
 50
0.0
 51
90.0
  0
LINE
  5
307
330
2
100
AcDbEntity
  8
YKK_A1
  6
Continuous
100
AcDbLine
 10
283.56803016
 20
281.65520779
 30
0.0
 11
283.56803016
 21
285.70520755
 31
0.0
  0
ARC
  5
308
330
2
100
AcDbEntity
  8
YKK_A1
  6
Continuous
100
AcDbCircle
 10
283.46803017
 20
281.65520779
 30
0.0
 40
0.0999999940395355
100
AcDbArc
 50
270.0
 51
0.0
  0
ARC
  5
309
330
2
100
AcDbEntity
  8
YKK_A1
  6
Continuous
100
AcDbCircle
 10
283.46803017
 20
285.70520755
 30
0.0
 40
0.0999999940395355
100
AcDbArc
 50
0.0
 51
90.0
  0
LINE
  5
30A
330
2
100
AcDbEntity
  8
YKK_A1
  6
Continuous
100
AcDbLine
 10
317.64302813
 20
273.93020825
 30
0.0
 11
317.64302813
 21
268.93020855
 31
0.0
  0
LINE
  5
30B
330
2
100
AcDbEntity
  8
YKK_A1
  6
Continuous
100
AcDbLine
 10
319.14302804
 20
273.93020825
 30
0.0
 11
319.14302804
 21
268.93020855
 31
0.0
  0
LINE
  5
30C
330
2
100
AcDbEntity
  8
YKK_A1
  6
Continuous
100
AcDbLine
 10
317.64302813
 20
268.93020855
 30
0.0
 11
319.14302804
 21
268.93020855
 31
0.0
  0
LINE
  5
30D
330
2
100
AcDbEntity
  8
YKK_A1
  6
Continuous
100
AcDbLine
 10
317.64302813
 20
273.93020825
 30
0.0
 11
319.14302804
 21
273.93020825
 31
0.0
  0
LINE
  5
30E
330
2
100
AcDbEntity
  8
YKK_A1
  6
YCENTER_1
100
AcDbLine
 10
285.64303004
 20
311.18020603
 30
0.0
 11
285.64303004
 21
311.43752644
 31
0.0
  0
LINE
  5
30F
330
2
100
AcDbEntity
  8
YKK_A1
  6
Continuous
100
AcDbLine
 10
318.44302808
 20
309.78020611
 30
0.0
 11
318.44302808
 21
301.43020661
 31
0.0
  0
LINE
  5
310
330
2
100
AcDbEntity
  8
YKK_A1
  6
Continuous
100
AcDbLine
 10
318.64302807
 20
301.43020661
 30
0.0
 11
318.64302807
 21
311.18020603
 31
0.0
  0
LINE
  5
311
330
2
100
AcDbEntity
  8
YKK_A1
  6
Continuous
100
AcDbLine
 10
317.64302813
 20
301.43020661
 30
0.0
 11
319.14302804
 21
301.43020661
 31
0.0
  0
LINE
  5
312
330
2
100
AcDbEntity
  8
YKK_A1
  6
Continuous
100
AcDbLine
 10
317.64302813
 20
296.43020691
 30
0.0
 11
319.14302804
 21
296.43020691
 31
0.0
  0
LINE
  5
313
330
2
100
AcDbEntity
  8
YKK_A1
  6
Continuous
100
AcDbLine
 10
317.64302813
 20
301.43020661
 30
0.0
 11
317.64302813
 21
296.43020691
 31
0.0
  0
LINE
  5
314
330
2
100
AcDbEntity
  8
YKK_A1
  6
Continuous
100
AcDbLine
 10
319.14302804
 20
301.43020661
 30
0.0
 11
319.14302804
 21
296.43020691
 31
0.0
  0
LINE
  5
315
330
2
100
AcDbEntity
  8
YKK_A1
  6
Continuous
100
AcDbLine
 10
319.89302799
 20
309.43020613
 30
0.0
 11
319.843028
 21
309.43020613
 31
0.0
  0
LINE
  5
316
330
2
100
AcDbEntity
  8
YKK_D
100
AcDbLine
 10
349.89300926
 20
304.43019986
 30
0.0
 11
349.89300926
 21
267.93019986
 31
0.0
  0
LINE
  5
317
330
2
100
AcDbEntity
  8
YKK_D
100
AcDbLine
 10
352.39300926
 20
267.26032688
 30
0.0
 11
347.39300926
 21
267.26032688
 31
0.0
  0
TEXT
  5
318
330
2
100
AcDbEntity
  8
YKK_D
100
AcDbText
 10
343.83751866
 20
268.10045522
 30
0.0
 40
6.0
  1
5
 50
90.0
 41
0.8
100
AcDbText
1001
ACAD
1000
MTEXTBEGIN
1070
    73
1070
     1
1070
    44
1040
1.0
1070
    74
1070
     0
1000
MTEXTEND
  0
LINE
  5
319
330
2
100
AcDbEntity
  8
YKK_D
100
AcDbLine
 10
344.83751866
 20
267.01111512
 30
0.0
 11
344.83751866
 21
272.21111512
 31
0.0
  0
TEXT
  5
31A
330
2
100
AcDbEntity
  8
YKK_D
100
AcDbText
 10
333.89300926
 20
283.12358867
 30
0.0
 40
6.0
  1
DH
 50
90.0
 41
0.8
100
AcDbText
1001
ACAD
1000
MTEXTBEGIN
1070
    73
1070
     1
1070
    44
1040
1.0
1070
    74
1070
     0
1000
MTEXTEND
  0
TEXT
  5
31B
330
2
100
AcDbEntity
  8
YKK_D
100
AcDbText
 10
348.89300926
 20
284.63299174
 30
0.0
 40
6.0
  1
H
 50
90.0
 41
0.8
100
AcDbText
1001
ACAD
1000
MTEXTBEGIN
1070
    73
1070
     1
1070
    44
1040
1.0
1070
    74
1070
     0
1000
MTEXTEND
  0
LINE
  5
31C
330
2
100
AcDbEntity
  8
YKK_D
100
AcDbLine
 10
339.80865295
 20
309.43019986
 30
0.0
 11
350.89300926
 21
309.43019986
 31
0.0
  0
LINE
  5
31D
330
2
100
AcDbEntity
  8
YKK_D
100
AcDbLine
 10
340.68089111
 20
309.43019986
 30
0.0
 11
350.89300926
 21
309.43019986
 31
0.0
  0
LINE
  5
31E
330
2
100
AcDbEntity
  8
YKK_D
100
AcDbLine
 10
349.89300926
 20
309.43019986
 30
0.0
 11
347.39300926
 21
305.10007284
 31
0.0
  0
LINE
  5
31F
330
2
100
AcDbEntity
  8
YKK_D
100
AcDbLine
 10
347.39300926
 20
305.10007284
 30
0.0
 11
352.39300926
 21
305.10007284
 31
0.0
  0
LWPOLYLINE
  5
320
330
2
100
AcDbEntity
  8
YKK_D
  6
ByBlock
100
AcDbPolyline
 90
        2
 70
     1
 43
0.85
 10
349.89300926
 20
311.28644986
 42
1.0
 10
349.89300926
 20
311.07394986
 42
1.0
  0
LINE
  5
321
330
2
100
AcDbEntity
  8
YKK_D
100
AcDbLine
 10
334.89300926
 20
311.18019986
 30
0.0
 11
334.89300926
 21
323.62019986
 31
0.0
  0
LINE
  5
322
330
2
100
AcDbEntity
  8
YKK_D
100
AcDbLine
 10
334.89300926
 20
309.85520291
 30
0.0
 11
345.43173425
 21
305.23371597
 31
0.0
  0
TEXT
  5
323
330
2
100
AcDbEntity
  8
YKK_D
100
AcDbText
 10
344.41650583
 20
299.20305607
 30
0.0
 40
6.0
  1
3 
 50
90.0
 41
0.8
100
AcDbText
1001
ACAD
1000
MTEXTBEGIN
1070
    73
1070
     1
1070
    44
1040
1.0
1070
    74
1070
     0
1000
MTEXTEND
  0
LINE
  5
324
330
2
100
AcDbEntity
  8
YKK_D
100
AcDbLine
 10
334.89300926
 20
309.93019986
 30
0.0
 11
334.89300926
 21
311.63019986
 31
0.0
  0
LINE
  5
325
330
2
100
AcDbEntity
  8
YKK_D
100
AcDbLine
 10
334.89300926
 20
309.78020596
 30
0.0
 11
334.89300926
 21
308.08020596
 31
0.0
  0
LINE
  5
326
330
2
100
AcDbEntity
  8
YKK_D
100
AcDbLine
 10
334.89300926
 20
309.93019986
 30
0.0
 11
334.89300926
 21
309.78020596
 31
0.0
  0
LINE
  5
327
330
2
100
AcDbEntity
  8
YKK_D
100
AcDbLine
 10
334.89300926
 20
309.93019986
 30
0.0
 11
334.89300926
 21
309.78020596
 31
0.0
  0
LINE
  5
328
330
2
100
AcDbEntity
  8
YKK_D
100
AcDbLine
 10
334.89300926
 20
309.93019986
 30
0.0
 11
334.89300926
 21
308.23019986
 31
0.0
  0
LINE
  5
329
330
2
100
AcDbEntity
  8
YKK_D
100
AcDbLine
 10
334.89300926
 20
309.93019986
 30
0.0
 11
334.89300926
 21
311.18019986
 31
0.0
  0
LWPOLYLINE
  5
32A
330
2
100
AcDbEntity
  8
YKK_D
  6
ByBlock
100
AcDbPolyline
 90
        2
 70
     1
 43
0.85
 10
334.89300926
 20
311.28644986
 42
1.0
 10
334.89300926
 20
311.07394986
 42
1.0
  0
LWPOLYLINE
  5
32B
330
2
100
AcDbEntity
  8
YKK_D
  6
ByBlock
100
AcDbPolyline
 90
        2
 70
     1
 43
0.85
 10
334.89300926
 20
309.82394986
 42
1.0
 10
334.89300926
 20
310.03644986
 42
1.0
  0
LWPOLYLINE
  5
32C
330
2
100
AcDbEntity
  8
YKK_D
  6
ByBlock
100
AcDbPolyline
 90
        2
 70
     1
 43
0.85
 10
334.89300926
 20
309.67395596
 42
1.0
 10
334.89300926
 20
309.88645596
 42
1.0
  0
LWPOLYLINE
  5
32D
330
2
100
AcDbEntity
  8
YKK_D
  6
ByBlock
100
AcDbPolyline
 90
        2
 70
     1
 43
0.85
 10
334.89300926
 20
310.03644986
 42
1.0
 10
334.89300926
 20
309.82394986
 42
1.0
  0
LWPOLYLINE
  5
32E
330
2
100
AcDbEntity
  8
YKK_D
  6
ByBlock
100
AcDbPolyline
 90
        2
 70
     1
 43
0.85
 10
334.89300926
 20
309.67395596
 42
1.0
 10
334.89300926
 20
309.88645596
 42
1.0
  0
LINE
  5
32F
330
2
100
AcDbEntity
  8
YKK_D
100
AcDbLine
 10
345.43173425
 20
305.23371597
 30
0.0
 11
345.43173425
 21
296.19371597
 31
0.0
  0
TEXT
  5
330
330
2
100
AcDbEntity
  8
YKK_D
100
AcDbText
 10
333.89300926
 20
316.01796636
 30
0.0
 40
6.0
  1
25
 50
90.0
 41
0.8
100
AcDbText
1001
ACAD
1000
MTEXTBEGIN
1070
    73
1070
     1
1070
    44
1040
1.0
1070
    74
1070
     0
1000
MTEXTEND
  0
TEXT
  5
331
330
2
100
AcDbEntity
  8
YKK_D
100
AcDbText
 10
348.89300926
 20
316.0301491
 30
0.0
 40
6.0
  1
35
 50
90.0
 41
0.8
100
AcDbText
1001
ACAD
1000
MTEXTBEGIN
1070
    73
1070
     1
1070
    44
1040
1.0
1070
    74
1070
     0
1000
MTEXTEND
  0
LINE
  5
332
330
2
100
AcDbEntity
  8
YKK_D
100
AcDbLine
 10
349.89300926
 20
311.18019986
 30
0.0
 11
349.89300926
 21
323.62019986
 31
0.0
  0
LINE
  5
333
330
2
100
AcDbEntity
  8
YKK_D
100
AcDbLine
 10
349.89300926
 20
309.43019986
 30
0.0
 11
349.89300926
 21
300.76994582
 31
0.0
  0
LINE
  5
334
330
2
100
AcDbEntity
  8
YKK_D
100
AcDbLine
 10
349.89300926
 20
309.43019986
 30
0.0
 11
349.89300926
 21
307.73019986
 31
0.0
  0
LINE
  5
335
330
2
100
AcDbEntity
  8
YKK_D
100
AcDbLine
 10
349.89300926
 20
309.43019986
 30
0.0
 11
349.89300926
 21
311.18019986
 31
0.0
  0
LINE
  5
336
330
2
100
AcDbEntity
  8
YKK_D
100
AcDbLine
 10
349.89300926
 20
309.43019986
 30
0.0
 11
352.39300926
 21
305.10007284
 31
0.0
  0
LINE
  5
337
330
2
100
AcDbEntity
  8
YKK_D
100
AcDbLine
 10
413.23517234
 20
311.7278378
 30
0.0
 11
413.23517234
 21
262.68019986
 31
0.0
  0
LINE
  5
338
330
2
100
AcDbEntity
  8
YKK_D
100
AcDbLine
 10
425.23516042
 20
262.68019986
 30
0.0
 11
412.23517234
 21
262.68019986
 31
0.0
  0
LINE
  5
339
330
2
100
AcDbEntity
  8
YKK_D
100
AcDbLine
 10
428.23517234
 20
231.18019986
 30
0.0
 11
415.79517234
 21
231.18019986
 31
0.0
  0
LINE
  5
33A
330
2
100
AcDbEntity
  8
YKK_D
100
AcDbLine
 10
428.23517234
 20
246.18019986
 30
0.0
 11
415.79517234
 21
246.18019986
 31
0.0
  0
LWPOLYLINE
  5
33B
330
2
100
AcDbEntity
  8
YKK_D
  6
ByBlock
100
AcDbPolyline
 90
        2
 70
     1
 43
0.85
 10
413.23517234
 20
262.78644986
 42
1.0
 10
413.23517234
 20
262.57394986
 42
1.0
  0
LINE
  5
33C
330
2
100
AcDbEntity
  8
YKK_D
100
AcDbLine
 10
429.98517234
 20
240.88977933
 30
0.0
 11
429.98517234
 21
230.18019986
 31
0.0
  0
LINE
  5
33D
330
2
100
AcDbEntity
  8
YKK_D
100
AcDbLine
 10
428.23517234
 20
258.18020904
 30
0.0
 11
428.23517234
 21
230.18019986
 31
0.0
  0
LINE
  5
33E
330
2
100
AcDbEntity
  8
YKK_D
100
AcDbLine
 10
429.98517234
 20
240.88977933
 30
0.0
 11
429.98517234
 21
230.18019986
 31
0.0
  0
TEXT
  5
33F
330
2
100
AcDbEntity
  8
YKK_D
100
AcDbText
 10
417.24512158
 20
232.18019986
 30
0.0
 40
6.0
  1
35
 41
0.8
100
AcDbText
1001
ACAD
1000
MTEXTBEGIN
1070
    73
1070
     1
1070
    44
1040
1.0
1070
    74
1070
     0
1000
MTEXTEND
  0
LINE
  5
340
330
2
100
AcDbEntity
  8
YKK_D
100
AcDbLine
 10
429.98517234
 20
231.18019986
 30
0.0
 11
434.31529936
 21
233.68019986
 31
0.0
  0
LINE
  5
341
330
2
100
AcDbEntity
  8
YKK_D
100
AcDbLine
 10
434.31529936
 20
228.68019986
 30
0.0
 11
434.31529936
 21
233.68019986
 31
0.0
  0
TEXT
  5
342
330
2
100
AcDbEntity
  8
YKK_D
100
AcDbText
 10
448.45014696
 20
232.18019986
 30
0.0
 40
6.0
  1
W
 41
0.8
100
AcDbText
1001
ACAD
1000
MTEXTBEGIN
1070
    73
1070
     1
1070
    44
1040
1.0
1070
    74
1070
     0
1000
MTEXTEND
  0
LINE
  5
343
330
2
100
AcDbEntity
  8
YKK_D
100
AcDbLine
 10
429.98517234
 20
231.18019986
 30
0.0
 11
438.64542638
 21
231.18019986
 31
0.0
  0
LINE
  5
344
330
2
100
AcDbEntity
  8
YKK_D
100
AcDbLine
 10
429.98517234
 20
231.18019986
 30
0.0
 11
434.31529936
 21
228.68019986
 31
0.0
  0
LINE
  5
345
330
2
100
AcDbEntity
  8
YKK_D
100
AcDbLine
 10
429.98517234
 20
231.18019986
 30
0.0
 11
431.68517234
 21
231.18019986
 31
0.0
  0
LINE
  5
346
330
2
100
AcDbEntity
  8
YKK_D
100
AcDbLine
 10
429.98517234
 20
231.18019986
 30
0.0
 11
428.23517234
 21
231.18019986
 31
0.0
  0
LWPOLYLINE
  5
347
330
2
100
AcDbEntity
  8
YKK_D
  6
ByBlock
100
AcDbPolyline
 90
        2
 70
     1
 43
0.85
 10
428.12892234
 20
231.18019986
 42
1.0
 10
428.34142234
 20
231.18019986
 42
1.0
  0
LINE
  5
348
330
2
100
AcDbEntity
  8
YKK_D
100
AcDbLine
 10
429.68518455
 20
258.18020892
 30
0.0
 11
429.68518455
 21
245.18019986
 31
0.0
  0
LINE
  5
349
330
2
100
AcDbEntity
  8
YKK_D
100
AcDbLine
 10
429.48517234
 20
258.18020904
 30
0.0
 11
429.48517234
 21
245.18019986
 31
0.0
  0
LINE
  5
34A
330
2
100
AcDbEntity
  8
YKK_D
100
AcDbLine
 10
428.23517234
 20
258.18020904
 30
0.0
 11
428.23517234
 21
245.18019986
 31
0.0
  0
TEXT
  5
34B
330
2
100
AcDbEntity
  8
YKK_D
100
AcDbText
 10
417.23293884
 20
247.18019986
 30
0.0
 40
6.0
  1
25
 41
0.8
100
AcDbText
1001
ACAD
1000
MTEXTBEGIN
1070
    73
1070
     1
1070
    44
1040
1.0
1070
    74
1070
     0
1000
MTEXTEND
  0
LINE
  5
34C
330
2
100
AcDbEntity
  8
YKK_D
100
AcDbLine
 10
429.58517845
 20
246.18019986
 30
0.0
 11
424.03388378
 21
238.88024892
 31
0.0
  0
TEXT
  5
34D
330
2
100
AcDbEntity
  8
YKK_D
100
AcDbText
 10
419.88667566
 20
239.88024892
 30
0.0
 40
6.0
  1
4
 41
0.8
100
AcDbText
1001
ACAD
1000
MTEXTBEGIN
1070
    73
1070
     1
1070
    44
1040
1.0
1070
    74
1070
     0
1000
MTEXTEND
  0
LINE
  5
34E
330
2
100
AcDbEntity
  8
YKK_D
100
AcDbLine
 10
424.03388378
 20
238.88024892
 30
0.0
 11
418.83388378
 21
238.88024892
 31
0.0
  0
LINE
  5
34F
330
2
100
AcDbEntity
  8
YKK_D
100
AcDbLine
 10
429.48517234
 20
246.18019986
 30
0.0
 11
427.78517234
 21
246.18019986
 31
0.0
  0
LINE
  5
350
330
2
100
AcDbEntity
  8
YKK_D
100
AcDbLine
 10
429.68518455
 20
246.18019986
 30
0.0
 11
431.38518455
 21
246.18019986
 31
0.0
  0
LINE
  5
351
330
2
100
AcDbEntity
  8
YKK_D
100
AcDbLine
 10
429.48517234
 20
246.18019986
 30
0.0
 11
429.68518455
 21
246.18019986
 31
0.0
  0
LINE
  5
352
330
2
100
AcDbEntity
  8
YKK_D
100
AcDbLine
 10
429.48517234
 20
246.18019986
 30
0.0
 11
429.68518455
 21
246.18019986
 31
0.0
  0
LINE
  5
353
330
2
100
AcDbEntity
  8
YKK_D
100
AcDbLine
 10
429.48517234
 20
246.18019986
 30
0.0
 11
431.18517234
 21
246.18019986
 31
0.0
  0
LINE
  5
354
330
2
100
AcDbEntity
  8
YKK_D
100
AcDbLine
 10
429.48517234
 20
246.18019986
 30
0.0
 11
428.23517234
 21
246.18019986
 31
0.0
  0
LWPOLYLINE
  5
355
330
2
100
AcDbEntity
  8
YKK_D
  6
ByBlock
100
AcDbPolyline
 90
        2
 70
     1
 43
0.85
 10
428.12892234
 20
246.18019986
 42
1.0
 10
428.34142234
 20
246.18019986
 42
1.0
  0
LWPOLYLINE
  5
356
330
2
100
AcDbEntity
  8
YKK_D
  6
ByBlock
100
AcDbPolyline
 90
        2
 70
     1
 43
0.85
 10
429.79143455
 20
246.18019986
 42
1.0
 10
429.57893455
 20
246.18019986
 42
1.0
  0
LWPOLYLINE
  5
357
330
2
100
AcDbEntity
  8
YKK_D
  6
ByBlock
100
AcDbPolyline
 90
        2
 70
     1
 43
0.85
 10
429.37892234
 20
246.18019986
 42
1.0
 10
429.59142234
 20
246.18019986
 42
1.0
  0
LWPOLYLINE
  5
358
330
2
100
AcDbEntity
  8
YKK_D
  6
ByBlock
100
AcDbPolyline
 90
        2
 70
     1
 43
0.85
 10
429.79143455
 20
246.18019986
 42
1.0
 10
429.57893455
 20
246.18019986
 42
1.0
  0
LINE
  5
359
330
2
100
AcDbEntity
  8
YKK_A1
  6
YHIDDEN_1
100
AcDbLine
 10
430.93515983
 20
262.68020892
 30
0.0
 11
430.93515983
 21
262.67197864
 31
0.0
  0
LINE
  5
35A
330
2
100
AcDbEntity
  8
YKK_A1
  6
Continuous
100
AcDbLine
 10
429.98515988
 20
261.18020901
 30
0.0
 11
429.98515988
 21
261.23020901
 31
0.0
  0
TEXT
  5
35B
330
2
100
AcDbEntity
  8
YKK_D
100
AcDbText
 10
446.76892869
 20
247.18019986
 30
0.0
 40
6.0
  1
DW
 41
0.8
100
AcDbText
1001
ACAD
1000
MTEXTBEGIN
1070
    73
1070
     1
1070
    44
1040
1.0
1070
    74
1070
     0
1000
MTEXTEND
  0
LINE
  5
35C
330
2
100
AcDbEntity
  8
YKK_D
100
AcDbLine
 10
425.23515995
 20
311.7278378
 30
0.0
 11
412.23517234
 21
311.7278378
 31
0.0
  0
TEXT
  5
35D
330
2
100
AcDbEntity
  8
YKK_D
100
AcDbText
 10
412.23517234
 20
285.62024722
 30
0.0
 40
6.0
  1
C
 50
90.0
 41
0.8
100
AcDbText
1001
ACAD
1000
MTEXTBEGIN
1070
    73
1070
     1
1070
    44
1040
1.0
1070
    74
1070
     0
1000
MTEXTEND
  0
LWPOLYLINE
  5
35E
330
2
100
AcDbEntity
  8
YKK_D
  6
ByBlock
100
AcDbPolyline
 90
        2
 70
     1
 43
0.85
 10
413.23517234
 20
311.6215878
 42
1.0
 10
413.23517234
 20
311.8340878
 42
1.0
  0
LINE
  5
35F
330
2
100
AcDbEntity
  8
YKK_A1
  6
YHIDDEN_1
100
AcDbLine
 10
428.23515999
 20
270.43020846
 30
0.0
 11
428.23120341
 21
270.43020846
 31
0.0
  0
LINE
  5
360
330
2
100
AcDbEntity
  8
YKK_A1
  6
YCENTER_1
100
AcDbLine
 10
429.6851599
 20
311.7278514
 30
0.0
 11
439.68008169
 21
311.7278514
 31
0.0
  0
LINE
  5
361
330
2
100
AcDbEntity
  8
YKK_A1
  6
Continuous
100
AcDbLine
 10
435.41015956
 20
308.95285157
 30
0.0
 11
435.41015956
 21
314.50285124
 31
0.0
  0
LINE
  5
362
330
2
100
AcDbEntity
  8
YKK_A1
  6
Continuous
100
AcDbLine
 10
434.06015964
 20
314.50285124
 30
0.0
 11
434.06015964
 21
308.95285157
 31
0.0
  0
LINE
  5
363
330
2
100
AcDbEntity
  8
YKK_A1
  6
Continuous
100
AcDbLine
 10
434.13515964
 20
308.97785157
 30
0.0
 11
434.13515964
 21
314.47785124
 31
0.0
  0
LINE
  5
364
330
2
100
AcDbEntity
  8
YKK_A1
  6
Continuous
100
AcDbLine
 10
435.33515956
 20
308.97785157
 30
0.0
 11
435.33515956
 21
314.47785124
 31
0.0
  0
LINE
  5
365
330
2
100
AcDbEntity
  8
YKK_A1
  6
Continuous
100
AcDbLine
 10
434.33515962
 20
313.87785127
 30
0.0
 11
434.33515962
 21
310.87785145
 31
0.0
  0
LINE
  5
366
330
2
100
AcDbEntity
  8
YKK_A1
  6
Continuous
100
AcDbLine
 10
435.13515958
 20
313.87785127
 30
0.0
 11
435.13515958
 21
310.87785145
 31
0.0
  0
ARC
  5
367
330
2
100
AcDbEntity
  8
YKK_A1
  6
Continuous
100
AcDbCircle
 10
434.91015959
 20
310.0528515
 30
0.0
 40
0.2749999836087227
100
AcDbArc
 50
270.0
 51
90.0
  0
ARC
  5
368
330
2
100
AcDbEntity
  8
YKK_A1
  6
Continuous
100
AcDbCircle
 10
434.56015961
 20
310.0528515
 30
0.0
 40
0.2249999865889549
100
AcDbArc
 50
90.0
 51
270.0
  0
ARC
  5
369
330
2
100
AcDbEntity
  8
YKK_A1
  6
Continuous
100
AcDbCircle
 10
434.7351596
 20
310.87785145
 30
0.0
 40
0.3999999761581421
100
AcDbArc
 50
180.0
 51
0.0
  0
ARC
  5
36A
330
2
100
AcDbEntity
  8
YKK_A1
  6
Continuous
100
AcDbCircle
 10
434.56015961
 20
310.0528515
 30
0.0
 40
0.2749999836087227
100
AcDbArc
 50
90.0
 51
270.0
  0
LINE
  5
36B
330
2
100
AcDbEntity
  8
YKK_A1
  6
Continuous
100
AcDbLine
 10
434.56015961
 20
309.77785152
 30
0.0
 11
434.91015959
 21
309.77785152
 31
0.0
  0
LINE
  5
36C
330
2
100
AcDbEntity
  8
YKK_A1
  6
Continuous
100
AcDbLine
 10
434.91015959
 20
310.32785149
 30
0.0
 11
434.56015961
 21
310.32785149
 31
0.0
  0
ARC
  5
36D
330
2
100
AcDbEntity
  8
YKK_A1
  6
Continuous
100
AcDbCircle
 10
434.91015959
 20
310.0528515
 30
0.0
 40
0.2249999865889549
100
AcDbArc
 50
270.0
 51
90.0
  0
CIRCLE
  5
36E
330
2
100
AcDbEntity
  8
YKK_A1
  6
Continuous
100
AcDbCircle
 10
434.7351596
 20
309.56535153
 30
0.0
 40
0.0874999947845936
  0
LINE
  5
36F
330
2
100
AcDbEntity
  8
YKK_A1
  6
Continuous
100
AcDbLine
 10
434.91015959
 20
310.27785149
 30
0.0
 11
434.56015961
 21
310.27785149
 31
0.0
  0
LINE
  5
370
330
2
100
AcDbEntity
  8
YKK_A1
  6
Continuous
100
AcDbLine
 10
434.56015961
 20
309.82785152
 30
0.0
 11
434.91015959
 21
309.82785152
 31
0.0
  0
LINE
  5
371
330
2
100
AcDbEntity
  8
YKK_A1
  6
Continuous
100
AcDbLine
 10
434.16015963
 20
308.85285157
 30
0.0
 11
435.31015957
 21
308.85285157
 31
0.0
  0
ARC
  5
372
330
2
100
AcDbEntity
  8
YKK_A1
  6
Continuous
100
AcDbCircle
 10
434.16015963
 20
308.95285157
 30
0.0
 40
0.0999999940395355
100
AcDbArc
 50
180.0
 51
270.0
  0
ARC
  5
373
330
2
100
AcDbEntity
  8
YKK_A1
  6
Continuous
100
AcDbCircle
 10
435.31015957
 20
308.95285157
 30
0.0
 40
0.0999999940395355
100
AcDbArc
 50
270.0
 51
0.0
  0
LINE
  5
374
330
2
100
AcDbEntity
  8
YKK_A1
  6
Continuous
100
AcDbLine
 10
434.18515963
 20
308.92785157
 30
0.0
 11
435.28515957
 21
308.92785157
 31
0.0
  0
ARC
  5
375
330
2
100
AcDbEntity
  8
YKK_A1
  6
Continuous
100
AcDbCircle
 10
434.18515963
 20
308.97785157
 30
0.0
 40
0.0499999970197678
100
AcDbArc
 50
180.0
 51
270.0
  0
ARC
  5
376
330
2
100
AcDbEntity
  8
YKK_A1
  6
Continuous
100
AcDbCircle
 10
435.28515957
 20
308.97785157
 30
0.0
 40
0.0499999970197678
100
AcDbArc
 50
270.0
 51
0.0
  0
LINE
  5
377
330
2
100
AcDbEntity
  8
YKK_A1
  6
Continuous
100
AcDbLine
 10
435.31015957
 20
314.60285123
 30
0.0
 11
434.16015963
 21
314.60285123
 31
0.0
  0
ARC
  5
378
330
2
100
AcDbEntity
  8
YKK_A1
  6
Continuous
100
AcDbCircle
 10
434.16015963
 20
314.50285124
 30
0.0
 40
0.0999999940395355
100
AcDbArc
 50
90.0
 51
180.0
  0
ARC
  5
379
330
2
100
AcDbEntity
  8
YKK_A1
  6
Continuous
100
AcDbCircle
 10
435.31015957
 20
314.50285124
 30
0.0
 40
0.0999999940395355
100
AcDbArc
 50
0.0
 51
90.0
  0
LINE
  5
37A
330
2
100
AcDbEntity
  8
YKK_A1
  6
Continuous
100
AcDbLine
 10
434.18515963
 20
314.52785124
 30
0.0
 11
435.28515957
 21
314.52785124
 31
0.0
  0
LINE
  5
37B
330
2
100
AcDbEntity
  8
YKK_A1
  6
Continuous
100
AcDbLine
 10
434.33515962
 20
313.87785127
 30
0.0
 11
435.13515958
 21
313.87785127
 31
0.0
  0
ARC
  5
37C
330
2
100
AcDbEntity
  8
YKK_A1
  6
Continuous
100
AcDbCircle
 10
434.18515963
 20
314.47785124
 30
0.0
 40
0.0499999970197678
100
AcDbArc
 50
90.0
 51
180.0
  0
ARC
  5
37D
330
2
100
AcDbEntity
  8
YKK_A1
  6
Continuous
100
AcDbCircle
 10
435.28515957
 20
314.47785124
 30
0.0
 40
0.0499999970197678
100
AcDbArc
 50
0.0
 51
90.0
  0
LINE
  5
37E
330
2
100
AcDbEntity
  8
YKK_A1
  6
YHIDDEN_1
100
AcDbLine
 10
428.23515999
 20
351.9302036
 30
0.0
 11
428.2248226
 21
351.9302036
 31
0.0
  0
LINE
  5
37F
330
2
100
AcDbEntity
  8
YKK_A1
  6
YCENTER_1
100
AcDbLine
 10
437.48515944
 20
361.18020305
 30
0.0
 11
437.48515944
 21
361.43752346
 31
0.0
  0
LINE
  5
380
330
2
100
AcDbEntity
  8
YKK_A1
  6
Continuous
100
AcDbLine
 10
471.73515739
 20
261.18020901
 30
0.0
 11
471.73515739
 21
361.18020305
 31
0.0
  0
LINE
  5
381
330
2
100
AcDbEntity
  8
YKK_A1
  6
Continuous
100
AcDbLine
 10
470.28515748
 20
346.43020393
 30
0.0
 11
470.28515748
 21
311.7278514
 31
0.0
  0
LINE
  5
382
330
2
100
AcDbEntity
  8
YKK_A1
  6
Continuous
100
AcDbLine
 10
470.48515747
 20
311.7278514
 30
0.0
 11
470.48515747
 21
346.43020393
 31
0.0
  0
LINE
  5
383
330
2
100
AcDbEntity
  8
YKK_D
100
AcDbLine
 10
486.73517234
 20
359.78020596
 30
0.0
 11
486.73517234
 21
262.68019986
 31
0.0
  0
LINE
  5
384
330
2
100
AcDbEntity
  8
YKK_D
100
AcDbLine
 10
501.73517234
 20
354.43019986
 30
0.0
 11
501.73517234
 21
267.93019986
 31
0.0
  0
LINE
  5
385
330
2
100
AcDbEntity
  8
YKK_A1
  6
Continuous
100
AcDbLine
 10
470.48515747
 20
261.18020901
 30
0.0
 11
470.48515747
 21
268.93020855
 31
0.0
  0
LINE
  5
386
330
2
100
AcDbEntity
  8
YKK_A1
  6
Continuous
100
AcDbLine
 10
470.28515748
 20
268.93020855
 30
0.0
 11
470.28515748
 21
262.68020892
 31
0.0
  0
LINE
  5
387
330
2
100
AcDbEntity
  8
YKK_D
100
AcDbLine
 10
486.73517234
 20
262.55519986
 30
0.0
 11
496.9375886
 21
266.45281094
 31
0.0
  0
LINE
  5
388
330
2
100
AcDbEntity
  8
YKK_D
100
AcDbLine
 10
501.73517234
 20
262.93019986
 30
0.0
 11
501.73517234
 21
264.63019986
 31
0.0
  0
LINE
  5
389
330
2
100
AcDbEntity
  8
YKK_D
100
AcDbLine
 10
501.73517234
 20
262.93019986
 30
0.0
 11
504.23517234
 21
267.26032688
 31
0.0
  0
LINE
  5
38A
330
2
100
AcDbEntity
  8
YKK_D
100
AcDbLine
 10
501.73517234
 20
262.93019986
 30
0.0
 11
499.23517234
 21
267.26032688
 31
0.0
  0
LINE
  5
38B
330
2
100
AcDbEntity
  8
YKK_D
100
AcDbLine
 10
501.73517234
 20
262.93019986
 30
0.0
 11
501.73517234
 21
271.5904539
 31
0.0
  0
LINE
  5
38C
330
2
100
AcDbEntity
  8
YKK_D
100
AcDbLine
 10
471.73517234
 20
258.18020904
 30
0.0
 11
471.73517234
 21
230.18019986
 31
0.0
  0
LINE
  5
38D
330
2
100
AcDbEntity
  8
YKK_D
100
AcDbLine
 10
469.98517234
 20
240.68471837
 30
0.0
 11
469.98517234
 21
230.18019986
 31
0.0
  0
LINE
  5
38E
330
2
100
AcDbEntity
  8
YKK_D
100
AcDbLine
 10
469.98517234
 20
240.68471837
 30
0.0
 11
469.98517234
 21
230.18019986
 31
0.0
  0
LINE
  5
38F
330
2
100
AcDbEntity
  8
YKK_D
100
AcDbLine
 10
469.98517234
 20
231.18019986
 30
0.0
 11
465.65504532
 21
233.68019986
 31
0.0
  0
LINE
  5
390
330
2
100
AcDbEntity
  8
YKK_D
100
AcDbLine
 10
465.65504532
 20
233.68019986
 30
0.0
 11
465.65504532
 21
228.68019986
 31
0.0
  0
TEXT
  5
391
330
2
100
AcDbEntity
  8
YKK_D
100
AcDbText
 10
476.58512158
 20
232.18019986
 30
0.0
 40
6.0
  1
35
 41
0.8
100
AcDbText
1001
ACAD
1000
MTEXTBEGIN
1070
    73
1070
     1
1070
    44
1040
1.0
1070
    74
1070
     0
1000
MTEXTEND
  0
LINE
  5
392
330
2
100
AcDbEntity
  8
YKK_D
100
AcDbLine
 10
471.73517234
 20
231.18019986
 30
0.0
 11
484.17517234
 21
231.18019986
 31
0.0
  0
LINE
  5
393
330
2
100
AcDbEntity
  8
YKK_D
100
AcDbLine
 10
469.98517234
 20
231.18019986
 30
0.0
 11
471.73517234
 21
231.18019986
 31
0.0
  0
LWPOLYLINE
  5
394
330
2
100
AcDbEntity
  8
YKK_D
  6
ByBlock
100
AcDbPolyline
 90
        2
 70
     1
 43
0.85
 10
471.84142234
 20
231.18019986
 42
1.0
 10
471.62892234
 20
231.18019986
 42
1.0
  0
LINE
  5
395
330
2
100
AcDbEntity
  8
YKK_D
100
AcDbLine
 10
469.98517234
 20
231.18019986
 30
0.0
 11
465.65504532
 21
228.68019986
 31
0.0
  0
LINE
  5
396
330
2
100
AcDbEntity
  8
YKK_D
100
AcDbLine
 10
469.98517234
 20
231.18019986
 30
0.0
 11
461.32491831
 21
231.18019986
 31
0.0
  0
LINE
  5
397
330
2
100
AcDbEntity
  8
YKK_D
100
AcDbLine
 10
469.98517234
 20
231.18019986
 30
0.0
 11
468.28517234
 21
231.18019986
 31
0.0
  0
LINE
  5
398
330
2
100
AcDbEntity
  8
YKK_D
100
AcDbLine
 10
474.73515732
 20
262.68019986
 30
0.0
 11
487.73517234
 21
262.68019986
 31
0.0
  0
LINE
  5
399
330
2
100
AcDbEntity
  8
YKK_D
100
AcDbLine
 10
471.73517234
 20
246.18019986
 30
0.0
 11
484.17517234
 21
246.18019986
 31
0.0
  0
LINE
  5
39A
330
2
100
AcDbEntity
  8
YKK_D
100
AcDbLine
 10
474.73515744
 20
261.18019986
 30
0.0
 11
487.73517234
 21
261.18019986
 31
0.0
  0
LINE
  5
39B
330
2
100
AcDbEntity
  8
YKK_D
100
AcDbLine
 10
474.73515732
 20
262.43019986
 30
0.0
 11
487.73517234
 21
262.43019986
 31
0.0
  0
LINE
  5
39C
330
2
100
AcDbEntity
  8
YKK_D
100
AcDbLine
 10
474.73515744
 20
261.18019986
 30
0.0
 11
502.73517234
 21
261.18019986
 31
0.0
  0
TEXT
  5
39D
330
2
100
AcDbEntity
  8
YKK_D
100
AcDbText
 10
476.57293884
 20
247.18019986
 30
0.0
 40
6.0
  1
25
 41
0.8
100
AcDbText
1001
ACAD
1000
MTEXTBEGIN
1070
    73
1070
     1
1070
    44
1040
1.0
1070
    74
1070
     0
1000
MTEXTEND
  0
TEXT
  5
39E
330
2
100
AcDbEntity
  8
YKK_D
100
AcDbText
 10
486.66040302
 20
253.72328677
 30
0.0
 40
6.0
  1
25
 50
90.0
 41
0.8
100
AcDbText
1001
ACAD
1000
MTEXTBEGIN
1070
    73
1070
     1
1070
    44
1040
1.0
1070
    74
1070
     0
1000
MTEXTEND
  0
LINE
  5
39F
330
2
100
AcDbEntity
  8
YKK_D
100
AcDbLine
 10
470.28516014
 20
258.18020892
 30
0.0
 11
470.28516014
 21
245.18019986
 31
0.0
  0
LINE
  5
3A0
330
2
100
AcDbEntity
  8
YKK_D
100
AcDbLine
 10
471.73517234
 20
258.18020904
 30
0.0
 11
471.73517234
 21
245.18019986
 31
0.0
  0
LINE
  5
3A1
330
2
100
AcDbEntity
  8
YKK_D
100
AcDbLine
 10
470.48517234
 20
258.18020904
 30
0.0
 11
470.48517234
 21
245.18019986
 31
0.0
  0
LINE
  5
3A2
330
2
100
AcDbEntity
  8
YKK_D
100
AcDbLine
 10
470.48517234
 20
246.18019986
 30
0.0
 11
472.18517234
 21
246.18019986
 31
0.0
  0
LINE
  5
3A3
330
2
100
AcDbEntity
  8
YKK_D
100
AcDbLine
 10
470.38516624
 20
246.18019986
 30
0.0
 11
474.47854166
 21
238.54830188
 31
0.0
  0
LINE
  5
3A4
330
2
100
AcDbEntity
  8
YKK_D
100
AcDbLine
 10
470.48517234
 20
246.18019986
 30
0.0
 11
471.73517234
 21
246.18019986
 31
0.0
  0
LWPOLYLINE
  5
3A5
330
2
100
AcDbEntity
  8
YKK_D
  6
ByBlock
100
AcDbPolyline
 90
        2
 70
     1
 43
0.85
 10
471.84142234
 20
246.18019986
 42
1.0
 10
471.62892234
 20
246.18019986
 42
1.0
  0
LINE
  5
3A6
330
2
100
AcDbEntity
  8
YKK_D
100
AcDbLine
 10
470.28516014
 20
246.18019986
 30
0.0
 11
468.58516014
 21
246.18019986
 31
0.0
  0
LINE
  5
3A7
330
2
100
AcDbEntity
  8
YKK_D
100
AcDbLine
 10
470.28516014
 20
246.18019986
 30
0.0
 11
470.48517234
 21
246.18019986
 31
0.0
  0
LINE
  5
3A8
330
2
100
AcDbEntity
  8
YKK_D
100
AcDbLine
 10
470.28516014
 20
246.18019986
 30
0.0
 11
470.48517234
 21
246.18019986
 31
0.0
  0
LINE
  5
3A9
330
2
100
AcDbEntity
  8
YKK_D
100
AcDbLine
 10
470.48517234
 20
246.18019986
 30
0.0
 11
468.78517234
 21
246.18019986
 31
0.0
  0
LWPOLYLINE
  5
3AA
330
2
100
AcDbEntity
  8
YKK_D
  6
ByBlock
100
AcDbPolyline
 90
        2
 70
     1
 43
0.85
 10
470.17891014
 20
246.18019986
 42
1.0
 10
470.39141014
 20
246.18019986
 42
1.0
  0
LWPOLYLINE
  5
3AB
330
2
100
AcDbEntity
  8
YKK_D
  6
ByBlock
100
AcDbPolyline
 90
        2
 70
     1
 43
0.85
 10
470.37892234
 20
246.18019986
 42
1.0
 10
470.59142234
 20
246.18019986
 42
1.0
  0
LWPOLYLINE
  5
3AC
330
2
100
AcDbEntity
  8
YKK_D
  6
ByBlock
100
AcDbPolyline
 90
        2
 70
     1
 43
0.85
 10
470.17891014
 20
246.18019986
 42
1.0
 10
470.39141014
 20
246.18019986
 42
1.0
  0
TEXT
  5
3AD
330
2
100
AcDbEntity
  8
YKK_D
100
AcDbText
 10
475.53133354
 20
239.54830188
 30
0.0
 40
6.0
  1
4
 41
0.8
100
AcDbText
1001
ACAD
1000
MTEXTBEGIN
1070
    73
1070
     1
1070
    44
1040
1.0
1070
    74
1070
     0
1000
MTEXTEND
  0
LINE
  5
3AE
330
2
100
AcDbEntity
  8
YKK_D
100
AcDbLine
 10
474.47854166
 20
238.54830188
 30
0.0
 11
479.67854166
 21
238.54830188
 31
0.0
  0
LINE
  5
3AF
330
2
100
AcDbEntity
  8
YKK_A1
  6
YHIDDEN_1
100
AcDbLine
 10
469.03515756
 20
262.43020893
 30
0.0
 11
469.03515756
 21
262.41844355
 31
0.0
  0
LINE
  5
3B0
330
2
100
AcDbEntity
  8
YKK_A1
  6
Continuous
100
AcDbLine
 10
469.9851575
 20
261.18020901
 30
0.0
 11
469.9851575
 21
261.23020901
 31
0.0
  0
LINE
  5
3B1
330
2
100
AcDbEntity
  8
YKK_A1
  6
YHIDDEN_1
100
AcDbLine
 10
471.73515739
 20
264.18020883
 30
0.0
 11
471.74657606
 21
264.18020883
 31
0.0
  0
LINE
  5
3B2
330
2
100
AcDbEntity
  8
YKK_A1
  6
Continuous
100
AcDbLine
 10
471.73515739
 20
262.9302089
 30
0.0
 11
471.6851574
 21
262.9302089
 31
0.0
  0
LINE
  5
3B3
330
2
100
AcDbEntity
  8
YKK_D
100
AcDbLine
 10
491.80968483
 20
262.93019986
 30
0.0
 11
502.73517234
 21
262.93019986
 31
0.0
  0
LINE
  5
3B4
330
2
100
AcDbEntity
  8
YKK_D
100
AcDbLine
 10
491.80968483
 20
262.93019986
 30
0.0
 11
502.73517234
 21
262.93019986
 31
0.0
  0
LINE
  5
3B5
330
2
100
AcDbEntity
  8
YKK_D
100
AcDbLine
 10
486.73517234
 20
262.68019986
 30
0.0
 11
486.73517234
 21
264.38019986
 31
0.0
  0
LINE
  5
3B6
330
2
100
AcDbEntity
  8
YKK_D
100
AcDbLine
 10
486.73517234
 20
262.43019986
 30
0.0
 11
486.73517234
 21
260.73019986
 31
0.0
  0
LINE
  5
3B7
330
2
100
AcDbEntity
  8
YKK_D
100
AcDbLine
 10
486.73517234
 20
262.68019986
 30
0.0
 11
486.73517234
 21
262.43019986
 31
0.0
  0
LINE
  5
3B8
330
2
100
AcDbEntity
  8
YKK_D
100
AcDbLine
 10
486.73517234
 20
262.68019986
 30
0.0
 11
486.73517234
 21
262.43019986
 31
0.0
  0
LINE
  5
3B9
330
2
100
AcDbEntity
  8
YKK_D
100
AcDbLine
 10
486.73517234
 20
261.18019986
 30
0.0
 11
486.73517234
 21
259.48019986
 31
0.0
  0
LINE
  5
3BA
330
2
100
AcDbEntity
  8
YKK_D
100
AcDbLine
 10
486.73517234
 20
262.43019986
 30
0.0
 11
486.73517234
 21
264.13019986
 31
0.0
  0
LINE
  5
3BB
330
2
100
AcDbEntity
  8
YKK_D
100
AcDbLine
 10
486.73517234
 20
261.18019986
 30
0.0
 11
486.73517234
 21
262.43019986
 31
0.0
  0
LWPOLYLINE
  5
3BC
330
2
100
AcDbEntity
  8
YKK_D
  6
ByBlock
100
AcDbPolyline
 90
        2
 70
     1
 43
0.85
 10
486.73517234
 20
262.53644986
 42
1.0
 10
486.73517234
 20
262.32394986
 42
1.0
  0
LWPOLYLINE
  5
3BD
330
2
100
AcDbEntity
  8
YKK_D
  6
ByBlock
100
AcDbPolyline
 90
        2
 70
     1
 43
0.85
 10
486.73517234
 20
261.07394986
 42
1.0
 10
486.73517234
 20
261.28644986
 42
1.0
  0
LWPOLYLINE
  5
3BE
330
2
100
AcDbEntity
  8
YKK_D
  6
ByBlock
100
AcDbPolyline
 90
        2
 70
     1
 43
0.85
 10
486.73517234
 20
262.32394986
 42
1.0
 10
486.73517234
 20
262.53644986
 42
1.0
  0
LWPOLYLINE
  5
3BF
330
2
100
AcDbEntity
  8
YKK_D
  6
ByBlock
100
AcDbPolyline
 90
        2
 70
     1
 43
0.85
 10
486.73517234
 20
262.78644986
 42
1.0
 10
486.73517234
 20
262.57394986
 42
1.0
  0
LWPOLYLINE
  5
3C0
330
2
100
AcDbEntity
  8
YKK_D
  6
ByBlock
100
AcDbPolyline
 90
        2
 70
     1
 43
0.85
 10
486.73517234
 20
262.78644986
 42
1.0
 10
486.73517234
 20
262.57394986
 42
1.0
  0
LINE
  5
3C1
330
2
100
AcDbEntity
  8
YKK_D
100
AcDbLine
 10
501.73517234
 20
261.18019986
 30
0.0
 11
501.73517234
 21
248.74019986
 31
0.0
  0
TEXT
  5
3C2
330
2
100
AcDbEntity
  8
YKK_D
100
AcDbText
 10
500.73517234
 20
250.1901491
 30
0.0
 40
6.0
  1
35
 50
90.0
 41
0.8
100
AcDbText
1001
ACAD
1000
MTEXTBEGIN
1070
    73
1070
     1
1070
    44
1040
1.0
1070
    74
1070
     0
1000
MTEXTEND
  0
LINE
  5
3C3
330
2
100
AcDbEntity
  8
YKK_D
100
AcDbLine
 10
501.73517234
 20
262.93019986
 30
0.0
 11
501.73517234
 21
261.18019986
 31
0.0
  0
LWPOLYLINE
  5
3C4
330
2
100
AcDbEntity
  8
YKK_D
  6
ByBlock
100
AcDbPolyline
 90
        2
 70
     1
 43
0.85
 10
501.73517234
 20
261.07394986
 42
1.0
 10
501.73517234
 20
261.28644986
 42
1.0
  0
LINE
  5
3C5
330
2
100
AcDbEntity
  8
YKK_A1
  6
Continuous
100
AcDbLine
 10
470.48515747
 20
273.93020825
 30
0.0
 11
470.48515747
 21
306.7278517
 31
0.0
  0
LINE
  5
3C6
330
2
100
AcDbEntity
  8
YKK_A1
  6
Continuous
100
AcDbLine
 10
470.28515748
 20
306.7278517
 30
0.0
 11
470.28515748
 21
273.93020825
 31
0.0
  0
LINE
  5
3C7
330
2
100
AcDbEntity
  8
YKK_A1
  6
Continuous
100
AcDbLine
 10
469.78515751
 20
273.93020825
 30
0.0
 11
469.78515751
 21
268.93020855
 31
0.0
  0
LINE
  5
3C8
330
2
100
AcDbEntity
  8
YKK_A1
  6
Continuous
100
AcDbLine
 10
470.98515744
 20
273.93020825
 30
0.0
 11
470.98515744
 21
268.93020855
 31
0.0
  0
LINE
  5
3C9
330
2
100
AcDbEntity
  8
YKK_A1
  6
Continuous
100
AcDbLine
 10
469.78515751
 20
268.93020855
 30
0.0
 11
470.98515744
 21
268.93020855
 31
0.0
  0
LINE
  5
3CA
330
2
100
AcDbEntity
  8
YKK_A1
  6
Continuous
100
AcDbLine
 10
469.78515751
 20
273.93020825
 30
0.0
 11
470.98515744
 21
273.93020825
 31
0.0
  0
TEXT
  5
3CB
330
2
100
AcDbEntity
  8
YKK_D
100
AcDbText
 10
495.9375886
 20
267.54215104
 30
0.0
 40
6.0
  1
5
 50
90.0
 41
0.8
100
AcDbText
1001
ACAD
1000
MTEXTBEGIN
1070
    73
1070
     1
1070
    44
1040
1.0
1070
    74
1070
     0
1000
MTEXTEND
  0
LINE
  5
3CC
330
2
100
AcDbEntity
  8
YKK_D
100
AcDbLine
 10
496.9375886
 20
266.45281094
 30
0.0
 11
496.9375886
 21
271.65281094
 31
0.0
  0
LINE
  5
3CD
330
2
100
AcDbEntity
  8
YKK_D
100
AcDbLine
 10
504.23517234
 20
267.26032688
 30
0.0
 11
499.23517234
 21
267.26032688
 31
0.0
  0
TEXT
  5
3CE
330
2
100
AcDbEntity
  8
YKK_D
100
AcDbText
 10
485.73517234
 20
308.12358867
 30
0.0
 40
6.0
  1
DH
 50
90.0
 41
0.8
100
AcDbText
1001
ACAD
1000
MTEXTBEGIN
1070
    73
1070
     1
1070
    44
1040
1.0
1070
    74
1070
     0
1000
MTEXTEND
  0
LINE
  5
3CF
330
2
100
AcDbEntity
  8
YKK_A1
  6
Continuous
100
AcDbLine
 10
469.78515751
 20
306.7278517
 30
0.0
 11
469.78515751
 21
311.7278514
 31
0.0
  0
LINE
  5
3D0
330
2
100
AcDbEntity
  8
YKK_A1
  6
Continuous
100
AcDbLine
 10
470.98515744
 20
306.7278517
 30
0.0
 11
470.98515744
 21
311.7278514
 31
0.0
  0
LINE
  5
3D1
330
2
100
AcDbEntity
  8
YKK_A1
  6
Continuous
100
AcDbLine
 10
469.78515751
 20
306.7278517
 30
0.0
 11
470.98515744
 21
306.7278517
 31
0.0
  0
LINE
  5
3D2
330
2
100
AcDbEntity
  8
YKK_A1
  6
Continuous
100
AcDbLine
 10
469.78515751
 20
311.7278514
 30
0.0
 11
470.98515744
 21
311.7278514
 31
0.0
  0
TEXT
  5
3D3
330
2
100
AcDbEntity
  8
YKK_D
100
AcDbText
 10
500.73517234
 20
309.63299174
 30
0.0
 40
6.0
  1
H
 50
90.0
 41
0.8
100
AcDbText
1001
ACAD
1000
MTEXTBEGIN
1070
    73
1070
     1
1070
    44
1040
1.0
1070
    74
1070
     0
1000
MTEXTEND
  0
LINE
  5
3D4
330
2
100
AcDbEntity
  8
YKK_A1
  6
Continuous
100
AcDbLine
 10
470.28515748
 20
359.78020313
 30
0.0
 11
470.28515748
 21
351.43020363
 31
0.0
  0
LINE
  5
3D5
330
2
100
AcDbEntity
  8
YKK_A1
  6
Continuous
100
AcDbLine
 10
470.48515747
 20
351.43020363
 30
0.0
 11
470.48515747
 21
361.18020305
 31
0.0
  0
LINE
  5
3D6
330
2
100
AcDbEntity
  8
YKK_D
100
AcDbLine
 10
486.73517234
 20
359.78020596
 30
0.0
 11
486.73517234
 21
358.08020596
 31
0.0
  0
LINE
  5
3D7
330
2
100
AcDbEntity
  8
YKK_D
100
AcDbLine
 10
486.73517234
 20
359.85520291
 30
0.0
 11
496.4191055
 21
355.4969442
 31
0.0
  0
LINE
  5
3D8
330
2
100
AcDbEntity
  8
YKK_D
100
AcDbLine
 10
501.73517234
 20
359.43019986
 30
0.0
 11
501.73517234
 21
357.73019986
 31
0.0
  0
LINE
  5
3D9
330
2
100
AcDbEntity
  8
YKK_D
100
AcDbLine
 10
486.73517234
 20
359.93019986
 30
0.0
 11
486.73517234
 21
358.23019986
 31
0.0
  0
LINE
  5
3DA
330
2
100
AcDbEntity
  8
YKK_D
100
AcDbLine
 10
501.73517234
 20
359.43019986
 30
0.0
 11
499.23517234
 21
355.10007284
 31
0.0
  0
LINE
  5
3DB
330
2
100
AcDbEntity
  8
YKK_D
100
AcDbLine
 10
501.73517234
 20
359.43019986
 30
0.0
 11
504.23517234
 21
355.10007284
 31
0.0
  0
LINE
  5
3DC
330
2
100
AcDbEntity
  8
YKK_D
100
AcDbLine
 10
501.73517234
 20
359.43019986
 30
0.0
 11
501.73517234
 21
350.76994582
 31
0.0
  0
LINE
  5
3DD
330
2
100
AcDbEntity
  8
YKK_A1
  6
Continuous
100
AcDbLine
 10
469.78515751
 20
351.43020363
 30
0.0
 11
469.78515751
 21
346.43020393
 31
0.0
  0
LINE
  5
3DE
330
2
100
AcDbEntity
  8
YKK_A1
  6
Continuous
100
AcDbLine
 10
470.98515744
 20
351.43020363
 30
0.0
 11
470.98515744
 21
346.43020393
 31
0.0
  0
LINE
  5
3DF
330
2
100
AcDbEntity
  8
YKK_A1
  6
Continuous
100
AcDbLine
 10
469.78515751
 20
346.43020393
 30
0.0
 11
470.98515744
 21
346.43020393
 31
0.0
  0
LINE
  5
3E0
330
2
100
AcDbEntity
  8
YKK_A1
  6
Continuous
100
AcDbLine
 10
469.78515751
 20
351.43020363
 30
0.0
 11
470.98515744
 21
351.43020363
 31
0.0
  0
LINE
  5
3E1
330
2
100
AcDbEntity
  8
YKK_A1
  6
YHIDDEN_1
100
AcDbLine
 10
471.73515739
 20
358.53020321
 30
0.0
 11
471.75288897
 21
358.53020321
 31
0.0
  0
TEXT
  5
3E2
330
2
100
AcDbEntity
  8
YKK_D
100
AcDbText
 10
495.40387708
 20
349.4662843
 30
0.0
 40
6.0
  1
3 
 50
90.0
 41
0.8
100
AcDbText
1001
ACAD
1000
MTEXTBEGIN
1070
    73
1070
     1
1070
    44
1040
1.0
1070
    74
1070
     0
1000
MTEXTEND
  0
LINE
  5
3E3
330
2
100
AcDbEntity
  8
YKK_D
100
AcDbLine
 10
496.4191055
 20
355.4969442
 30
0.0
 11
496.4191055
 21
346.4569442
 31
0.0
  0
LINE
  5
3E4
330
2
100
AcDbEntity
  8
YKK_D
100
AcDbLine
 10
499.23517234
 20
355.10007284
 30
0.0
 11
504.23517234
 21
355.10007284
 31
0.0
  0
TEXT
  5
3E5
330
2
100
AcDbEntity
  8
USER1
100
AcDbText
 10
478.74362885
 20
380.86821535
 30
0.0
 40
6.0
  1
外観姿図
 41
0.8
100
AcDbText
1001
ACAD
1000
MTEXTBEGIN
1070
    73
1070
     1
1070
    44
1040
1.0
1070
    74
1070
     0
1000
MTEXTEND
  0
LINE
  5
3E6
330
2
100
AcDbEntity
  8
YKK_D
100
AcDbLine
 10
474.73515732
 20
359.93019986
 30
0.0
 11
487.73517234
 21
359.93019986
 31
0.0
  0
LINE
  5
3E7
330
2
100
AcDbEntity
  8
YKK_D
100
AcDbLine
 10
474.73515732
 20
359.78020596
 30
0.0
 11
487.73517234
 21
359.78020596
 31
0.0
  0
LINE
  5
3E8
330
2
100
AcDbEntity
  8
YKK_D
100
AcDbLine
 10
474.73515744
 20
361.18019986
 30
0.0
 11
502.73517234
 21
361.18019986
 31
0.0
  0
LINE
  5
3E9
330
2
100
AcDbEntity
  8
YKK_D
100
AcDbLine
 10
474.73515744
 20
361.18019986
 30
0.0
 11
487.73517234
 21
361.18019986
 31
0.0
  0
TEXT
  5
3EA
330
2
100
AcDbEntity
  8
YKK_D
100
AcDbText
 10
485.73517234
 20
366.01796636
 30
0.0
 40
6.0
  1
25
 50
90.0
 41
0.8
100
AcDbText
1001
ACAD
1000
MTEXTBEGIN
1070
    73
1070
     1
1070
    44
1040
1.0
1070
    74
1070
     0
1000
MTEXTEND
  0
LINE
  5
3EB
330
2
100
AcDbEntity
  8
YKK_A1
  6
YCENTER_1
100
AcDbLine
 10
462.48515795
 20
361.18020305
 30
0.0
 11
462.48515795
 21
361.34558681
 31
0.0
  0
LINE
  5
3EC
330
2
100
AcDbEntity
  8
YKK_A1
  6
Continuous
100
AcDbLine
 10
471.73515739
 20
359.43020315
 30
0.0
 11
471.6851574
 21
359.43020315
 31
0.0
  0
LINE
  5
3ED
330
2
100
AcDbEntity
  8
YKK_D
100
AcDbLine
 10
491.91618927
 20
359.43019986
 30
0.0
 11
502.73517234
 21
359.43019986
 31
0.0
  0
LINE
  5
3EE
330
2
100
AcDbEntity
  8
YKK_D
100
AcDbLine
 10
491.91618927
 20
359.43019986
 30
0.0
 11
502.73517234
 21
359.43019986
 31
0.0
  0
LINE
  5
3EF
330
2
100
AcDbEntity
  8
YKK_D
100
AcDbLine
 10
486.73517234
 20
361.18019986
 30
0.0
 11
486.73517234
 21
373.62019986
 31
0.0
  0
LINE
  5
3F0
330
2
100
AcDbEntity
  8
YKK_D
100
AcDbLine
 10
486.73517234
 20
359.93019986
 30
0.0
 11
486.73517234
 21
361.63019986
 31
0.0
  0
LINE
  5
3F1
330
2
100
AcDbEntity
  8
YKK_D
100
AcDbLine
 10
486.73517234
 20
359.93019986
 30
0.0
 11
486.73517234
 21
359.78020596
 31
0.0
  0
LINE
  5
3F2
330
2
100
AcDbEntity
  8
YKK_D
100
AcDbLine
 10
486.73517234
 20
359.93019986
 30
0.0
 11
486.73517234
 21
359.78020596
 31
0.0
  0
LINE
  5
3F3
330
2
100
AcDbEntity
  8
YKK_D
100
AcDbLine
 10
486.73517234
 20
359.93019986
 30
0.0
 11
486.73517234
 21
361.18019986
 31
0.0
  0
LWPOLYLINE
  5
3F4
330
2
100
AcDbEntity
  8
YKK_D
  6
ByBlock
100
AcDbPolyline
 90
        2
 70
     1
 43
0.85
 10
486.73517234
 20
361.28644986
 42
1.0
 10
486.73517234
 20
361.07394986
 42
1.0
  0
LWPOLYLINE
  5
3F5
330
2
100
AcDbEntity
  8
YKK_D
  6
ByBlock
100
AcDbPolyline
 90
        2
 70
     1
 43
0.85
 10
486.73517234
 20
359.67395596
 42
1.0
 10
486.73517234
 20
359.88645596
 42
1.0
  0
LWPOLYLINE
  5
3F6
330
2
100
AcDbEntity
  8
YKK_D
  6
ByBlock
100
AcDbPolyline
 90
        2
 70
     1
 43
0.85
 10
486.73517234
 20
359.67395596
 42
1.0
 10
486.73517234
 20
359.88645596
 42
1.0
  0
LWPOLYLINE
  5
3F7
330
2
100
AcDbEntity
  8
YKK_D
  6
ByBlock
100
AcDbPolyline
 90
        2
 70
     1
 43
0.85
 10
486.73517234
 20
360.03644986
 42
1.0
 10
486.73517234
 20
359.82394986
 42
1.0
  0
LINE
  5
3F8
330
2
100
AcDbEntity
  8
YKK_D
100
AcDbLine
 10
501.73517234
 20
361.18019986
 30
0.0
 11
501.73517234
 21
373.62019986
 31
0.0
  0
TEXT
  5
3F9
330
2
100
AcDbEntity
  8
YKK_D
100
AcDbText
 10
500.73517234
 20
366.0301491
 30
0.0
 40
6.0
  1
35
 50
90.0
 41
0.8
100
AcDbText
1001
ACAD
1000
MTEXTBEGIN
1070
    73
1070
     1
1070
    44
1040
1.0
1070
    74
1070
     0
1000
MTEXTEND
  0
LINE
  5
3FA
330
2
100
AcDbEntity
  8
YKK_D
100
AcDbLine
 10
501.73517234
 20
359.43019986
 30
0.0
 11
501.73517234
 21
361.18019986
 31
0.0
  0
LWPOLYLINE
  5
3FB
330
2
100
AcDbEntity
  8
YKK_D
  6
ByBlock
100
AcDbPolyline
 90
        2
 70
     1
 43
0.85
 10
501.73517234
 20
361.28644986
 42
1.0
 10
501.73517234
 20
361.07394986
 42
1.0
  0
ENDSEC
  0
SECTION
  2
OBJECTS
  0
DICTIONARY
  5
1E
330
0
100
AcDbDictionary
281
     1
  3
ACAD_CIP_PREVIOUS_PRODUCT_INFO
350
4A5
  3
ACAD_COLOR
350
43A
  3
ACAD_DETAILVIEWSTYLE
350
453
  3
ACAD_GROUP
350
1C
  3
ACAD_LAYOUT
350
458
  3
ACAD_MATERIAL
350
408
  3
ACAD_MLEADERSTYLE
350
44F
  3
ACAD_MLINESTYLE
350
1D
  3
ACAD_PLOTSETTINGS
350
457
  3
ACAD_PLOTSTYLENAME
350
406
  3
ACAD_SCALELIST
350
43D
  3
ACAD_SECTIONVIEWSTYLE
350
451
  3
ACAD_TABLESTYLE
350
43B
  3
ACAD_VISUALSTYLE
350
421
  3
ACDB_RECOMPOSE_DATA
350
4AB
  3
AcDbVariableDictionary
350
499
  3
CONTENTDICTIONARY
350
400
  0
DICTIONARY
  5
3
330
2
100
AcDbDictionary
280
     1
281
     1
  3
ACAD_LAYOUTSELFREF
360
4
  0
DICTIONARY
  5
A
330
9
100
AcDbDictionary
280
     1
281
     1
  3
ACAD_LAYOUTSELFREF
360
B
  0
XRECORD
  5
4A5
102
{ACAD_REACTORS
330
1E
102
}
330
1E
100
AcDbXrecord
280
     1
300
ACD
300
2014
300
86063ACD_2014_0F
  0
DICTIONARY
  5
43A
102
{ACAD_REACTORS
330
1E
102
}
330
1E
100
AcDbDictionary
281
     1
  0
DICTIONARY
  5
453
102
{ACAD_REACTORS
330
1E
102
}
330
1E
100
AcDbDictionary
281
     1
  3
Imperial24
350
454
  0
DICTIONARY
  5
1C
102
{ACAD_REACTORS
330
1E
102
}
330
1E
100
AcDbDictionary
281
     1
  0
DICTIONARY
  5
458
102
{ACAD_REACTORS
330
1E
102
}
330
1E
100
AcDbDictionary
281
     1
  3
Model
350
459
  3
レイアウト1
350
45A
  0
DICTIONARY
  5
408
102
{ACAD_REACTORS
330
1E
102
}
330
1E
100
AcDbDictionary
281
     1
  3
ByBlock
350
411
  3
ByLayer
350
409
  3
Global
350
419
  0
DICTIONARY
  5
44F
102
{ACAD_REACTORS
330
1E
102
}
330
1E
100
AcDbDictionary
281
     1
  3
Standard
350
450
  0
DICTIONARY
  5
1D
102
{ACAD_REACTORS
330
1E
102
}
330
1E
100
AcDbDictionary
281
     1
  3
STANDARD
350
21
  0
DICTIONARY
  5
457
102
{ACAD_REACTORS
330
1E
102
}
330
1E
100
AcDbDictionary
281
     1
  0
ACDBDICTIONARYWDFLT
  5
406
102
{ACAD_REACTORS
330
1E
102
}
330
1E
100
AcDbDictionary
281
     1
  3
Normal
350
407
100
AcDbDictionaryWithDefault
340
407
  0
DICTIONARY
  5
43D
102
{ACAD_REACTORS
330
1E
102
}
330
1E
100
AcDbDictionary
281
     1
  3
A0
350
43E
  3
A1
350
43F
  3
A2
350
440
  3
A3
350
441
  3
A4
350
442
  3
A5
350
443
  3
A6
350
444
  3
A7
350
445
  3
A8
350
446
  3
A9
350
447
  3
B0
350
448
  3
B1
350
449
  3
B2
350
44A
  3
B3
350
44B
  3
B4
350
44C
  3
B5
350
44D
  3
B6
350
44E
  0
DICTIONARY
  5
451
102
{ACAD_REACTORS
330
1E
102
}
330
1E
100
AcDbDictionary
281
     1
  3
Imperial24
350
452
  0
DICTIONARY
  5
43B
102
{ACAD_REACTORS
330
1E
102
}
330
1E
100
AcDbDictionary
281
     1
  3
Standard
350
43C
  0
DICTIONARY
  5
421
102
{ACAD_REACTORS
330
1E
102
}
330
1E
100
AcDbDictionary
281
     1
  3
2dWireframe
350
427
  3
Basic
350
426
  3
Brighten
350
42D
  3
ColorChange
350
431
  3
Conceptual
350
42A
  3
Dim
350
42C
  3
EdgeColorOff
350
439
  3
Facepattern
350
430
  3
Flat
350
422
  3
FlatWithEdges
350
423
  3
Gouraud
350
424
  3
GouraudWithEdges
350
425
  3
Hidden
350
429
  3
JitterOff
350
437
  3
Linepattern
350
42F
  3
OverhangOff
350
438
  3
Realistic
350
42B
  3
Shaded
350
436
  3
Shaded with edges
350
435
  3
Shades of Gray
350
432
  3
Sketchy
350
433
  3
Thicken
350
42E
  3
Wireframe
350
428
  3
X-Ray
350
434
  0
XRECORD
  5
4AB
102
{ACAD_REACTORS
330
1E
102
}
330
1E
100
AcDbXrecord
280
     1
 90
        1
330
43C
  0
DICTIONARY
  5
499
102
{ACAD_REACTORS
330
1E
102
}
330
1E
100
AcDbDictionary
281
     1
  3
CANNOSCALE
350
49E
  3
CMLEADERSTYLE
350
49B
  3
CTABLESTYLE
350
49A
  3
CVIEWDETAILSTYLE
350
49C
  3
CVIEWSECTIONSTYLE
350
49D
  3
XCLIPFRAME
350
4A9
  0
DICTIONARY
  5
400
102
{ACAD_REACTORS
330
1E
102
}
330
1E
100
AcDbDictionary
281
     1
  0
XRECORD
  5
4
102
{ACAD_REACTORS
330
3
102
}
330
3
100
AcDbXrecord
280
     1
340
2
  0
XRECORD
  5
B
102
{ACAD_REACTORS
330
A
102
}
330
A
100
AcDbXrecord
280
     1
340
9
  0
ACDBDETAILVIEWSTYLE
  5
454
102
{ACAD_XDICTIONARY
360
4E4
102
}
102
{ACAD_REACTORS
330
453
102
}
330
453
100
AcDbModelDocViewStyle
 70
     0
  3
Imperial24
290
     0
100
AcDbDetailViewStyle
 70
     0
 71
     0
 90
        3
 71
     1
340
10
 62
   256
 40
0.24
340
0
 62
   256
 40
0.24
300

 40
0.36
280
     3
 71
     2
340
7
 90
       25
 62
   256
 71
     3
340
10
 62
   256
 40
0.24
 90
        1
 40
0.75
 90
        1
300
%<\AcVar ViewType \f "%tc1">% %<\AcVar ViewDetailId>%\PSCALE %<\AcVar ViewScale \f "%sn">%
 71
     4
340
7
 90
       25
 62
   256
340
7
 90
       25
 62
   256
280
     0
  0
LAYOUT
  5
459
102
{ACAD_REACTORS
330
458
102
}
330
458
100
AcDbPlotSettings
  1

  2
C:\ACAD-I\support\plotters\Default Windows System Printer.pc3
  4
A4
  6

 40
3.17499995
 41
3.17499995
 42
3.17500305
 43
3.17498779
 44
209.88865662
 45
297.05300903
 46
0.0
 47
0.0
 48
0.0
 49
0.0
140
0.0
141
0.0
142
1.0
143
53.82082417
 70
 11952
 72
     0
 73
     1
 74
     0
  7
monochrome.ctb
 75
     0
147
0.01858017
 76
     0
 77
     2
 78
   300
148
625.51769844
149
39.73530638
100
AcDbLayout
  1
Model
 70
     1
 71
     0
 10
0.0
 20
0.0
 11
12.0
 21
9.0
 12
0.0
 22
0.0
 32
0.0
 14
0.0
 24
0.0
 34
0.0
 15
0.0
 25
0.0
 35
0.0
146
0.0
 13
0.0
 23
0.0
 33
0.0
 16
1.0
 26
0.0
 36
0.0
 17
0.0
 27
1.0
 37
0.0
 76
     0
330
2
1001
ACAD_PSEXT
1000
C:\ACAD-I\support\plotters\Default Windows System Printer.pc3
1000
Fiery PRO80 65-55C-KM PS3.0jp
1000
IP_10.230.204.212
1000

1070
     0
  0
LAYOUT
  5
45A
102
{ACAD_REACTORS
330
458
102
}
330
458
100
AcDbPlotSettings
  1

  2
C:\ACAD-I\support\plotters\Default Windows System Printer.pc3
  4
A4
  6

 40
3.17499995
 41
3.17499995
 42
3.17500305
 43
3.17498779
 44
209.88865662
 45
297.05300903
 46
0.0
 47
0.0
 48
0.0
 49
0.0
140
0.0
141
0.0
142
1.0
143
1.0
 70
 15024
 72
     0
 73
     1
 74
     5
  7
monochrome.ctb
 75
    16
147
1.0
 76
     0
 77
     2
 78
   300
148
0.0
149
0.0
100
AcDbLayout
  1
レイアウト1
 70
     1
 71
     1
 10
0.0
 20
0.0
 11
420.0
 21
297.0
 12
0.0
 22
0.0
 32
0.0
 14
1.00000000E+20
 24
1.00000000E+20
 34
1.00000000E+20
 15
-1.00000000E+20
 25
-1.00000000E+20
 35
-1.00000000E+20
146
0.0
 13
0.0
 23
0.0
 33
0.0
 16
1.0
 26
0.0
 36
0.0
 17
0.0
 27
1.0
 37
0.0
 76
     0
330
9
1001
ACAD_PSEXT
1000
C:\ACAD-I\support\plotters\Default Windows System Printer.pc3
1000
Fiery PRO80 65-55C-KM PS3.0jp
1000
IP_10.230.204.212
1000

1070
     0
  0
MATERIAL
  5
411
102
{ACAD_XDICTIONARY
360
412
102
}
102
{ACAD_REACTORS
330
408
102
}
330
408
100
AcDbMaterial
  1
ByBlock
 72
     0
 43
0.02083333
 43
0.0
 43
0.0
 43
0.0
 43
0.0
 43
0.02083333
 43
0.0
 43
0.0
 43
0.0
 43
0.0
 43
1.0
 43
0.0
 43
0.0
 43
0.0
 43
0.0
 43
1.0
 77
     0
 47
0.02083333
 47
0.0
 47
0.0
 47
0.0
 47
0.0
 47
0.02083333
 47
0.0
 47
0.0
 47
0.0
 47
0.0
 47
1.0
 47
0.0
 47
0.0
 47
0.0
 47
0.0
 47
1.0
171
     0
 49
0.02083333
 49
0.0
 49
0.0
 49
0.0
 49
0.0
 49
0.02083333
 49
0.0
 49
0.0
 49
0.0
 49
0.0
 49
1.0
 49
0.0
 49
0.0
 49
0.0
 49
0.0
 49
1.0
175
     0
142
0.02083333
142
0.0
142
0.0
142
0.0
142
0.0
142
0.02083333
142
0.0
142
0.0
142
0.0
142
0.0
142
1.0
142
0.0
142
0.0
142
0.0
142
0.0
142
1.0
179
     0
144
0.02083333
144
0.0
144
0.0
144
0.0
144
0.0
144
0.02083333
144
0.0
144
0.0
144
0.0
144
0.0
144
1.0
144
0.0
144
0.0
144
0.0
144
0.0
144
1.0
147
0.02083333
147
0.0
147
0.0
147
0.0
147
0.0
147
0.02083333
147
0.0
147
0.0
147
0.0
147
0.0
147
1.0
147
0.0
147
0.0
147
0.0
147
0.0
147
1.0
  0
MATERIAL
  5
409
102
{ACAD_XDICTIONARY
360
40A
102
}
102
{ACAD_REACTORS
330
408
102
}
330
408
100
AcDbMaterial
  1
ByLayer
 72
     0
 43
0.02083333
 43
0.0
 43
0.0
 43
0.0
 43
0.0
 43
0.02083333
 43
0.0
 43
0.0
 43
0.0
 43
0.0
 43
1.0
 43
0.0
 43
0.0
 43
0.0
 43
0.0
 43
1.0
 77
     0
 47
0.02083333
 47
0.0
 47
0.0
 47
0.0
 47
0.0
 47
0.02083333
 47
0.0
 47
0.0
 47
0.0
 47
0.0
 47
1.0
 47
0.0
 47
0.0
 47
0.0
 47
0.0
 47
1.0
171
     0
 49
0.02083333
 49
0.0
 49
0.0
 49
0.0
 49
0.0
 49
0.02083333
 49
0.0
 49
0.0
 49
0.0
 49
0.0
 49
1.0
 49
0.0
 49
0.0
 49
0.0
 49
0.0
 49
1.0
175
     0
142
0.02083333
142
0.0
142
0.0
142
0.0
142
0.0
142
0.02083333
142
0.0
142
0.0
142
0.0
142
0.0
142
1.0
142
0.0
142
0.0
142
0.0
142
0.0
142
1.0
179
     0
144
0.02083333
144
0.0
144
0.0
144
0.0
144
0.0
144
0.02083333
144
0.0
144
0.0
144
0.0
144
0.0
144
1.0
144
0.0
144
0.0
144
0.0
144
0.0
144
1.0
147
0.02083333
147
0.0
147
0.0
147
0.0
147
0.0
147
0.02083333
147
0.0
147
0.0
147
0.0
147
0.0
147
1.0
147
0.0
147
0.0
147
0.0
147
0.0
147
1.0
  0
MATERIAL
  5
419
102
{ACAD_XDICTIONARY
360
41A
102
}
102
{ACAD_REACTORS
330
408
102
}
330
408
100
AcDbMaterial
  1
Global
 72
     0
 43
0.02083333
 43
0.0
 43
0.0
 43
0.0
 43
0.0
 43
0.02083333
 43
0.0
 43
0.0
 43
0.0
 43
0.0
 43
1.0
 43
0.0
 43
0.0
 43
0.0
 43
0.0
 43
1.0
 77
     0
 47
0.02083333
 47
0.0
 47
0.0
 47
0.0
 47
0.0
 47
0.02083333
 47
0.0
 47
0.0
 47
0.0
 47
0.0
 47
1.0
 47
0.0
 47
0.0
 47
0.0
 47
0.0
 47
1.0
171
     0
 49
0.02083333
 49
0.0
 49
0.0
 49
0.0
 49
0.0
 49
0.02083333
 49
0.0
 49
0.0
 49
0.0
 49
0.0
 49
1.0
 49
0.0
 49
0.0
 49
0.0
 49
0.0
 49
1.0
175
     0
142
0.02083333
142
0.0
142
0.0
142
0.0
142
0.0
142
0.02083333
142
0.0
142
0.0
142
0.0
142
0.0
142
1.0
142
0.0
142
0.0
142
0.0
142
0.0
142
1.0
179
     0
144
0.02083333
144
0.0
144
0.0
144
0.0
144
0.0
144
0.02083333
144
0.0
144
0.0
144
0.0
144
0.0
144
1.0
144
0.0
144
0.0
144
0.0
144
0.0
144
1.0
147
0.02083333
147
0.0
147
0.0
147
0.0
147
0.0
147
0.02083333
147
0.0
147
0.0
147
0.0
147
0.0
147
1.0
147
0.0
147
0.0
147
0.0
147
0.0
147
1.0
  0
MLEADERSTYLE
  5
450
102
{ACAD_XDICTIONARY
360
4E0
102
}
102
{ACAD_REACTORS
330
44F
102
}
330
44F
100
AcDbMLeaderStyle
170
     2
171
     1
172
     0
 90
        2
 40
0.0
 41
0.0
173
     1
 91
-1056964608
340
12
 92
       -2
290
     1
 42
0.09
291
     1
 43
0.36
  3
Standard
 44
0.18
300

342
10
174
     1
178
     6
175
     1
176
     0
 93
-1056964608
 45
0.18
292
     0
297
     0
 46
0.18
 94
-1056964608
 47
1.0
 49
1.0
140
1.0
293
     1
141
0.0
294
     1
177
     0
142
1.0
295
     0
296
     0
143
0.125
1001
ACAD_MLEADERVER
1070
     2
  0
MLINESTYLE
  5
21
102
{ACAD_REACTORS
330
1D
102
}
330
1D
100
AcDbMlineStyle
  2
STANDARD
 70
     0
  3

 62
   256
 51
90.0
 52
90.0
 71
     2
 49
0.5
 62
   256
  6
BYLAYER
 49
-0.5
 62
   256
  6
BYLAYER
  0
ACDBPLACEHOLDER
  5
407
102
{ACAD_REACTORS
330
406
102
}
330
406
  0
SCALE
  5
43E
102
{ACAD_REACTORS
330
43D
102
}
330
43D
100
AcDbScale
 70
     0
300
1:1
140
1.0
141
1.0
290
     1
  0
SCALE
  5
43F
102
{ACAD_REACTORS
330
43D
102
}
330
43D
100
AcDbScale
 70
     0
300
1/128" = 1'-0"
140
0.0078125
141
12.0
290
     0
  0
SCALE
  5
440
102
{ACAD_REACTORS
330
43D
102
}
330
43D
100
AcDbScale
 70
     0
300
1/64" = 1'-0"
140
0.015625
141
12.0
290
     0
  0
SCALE
  5
441
102
{ACAD_REACTORS
330
43D
102
}
330
43D
100
AcDbScale
 70
     0
300
1/32" = 1'-0"
140
0.03125
141
12.0
290
     0
  0
SCALE
  5
442
102
{ACAD_REACTORS
330
43D
102
}
330
43D
100
AcDbScale
 70
     0
300
1/16" = 1'-0"
140
0.0625
141
12.0
290
     0
  0
SCALE
  5
443
102
{ACAD_REACTORS
330
43D
102
}
330
43D
100
AcDbScale
 70
     0
300
3/32" = 1'-0"
140
0.09375
141
12.0
290
     0
  0
SCALE
  5
444
102
{ACAD_REACTORS
330
43D
102
}
330
43D
100
AcDbScale
 70
     0
300
1/8" = 1'-0"
140
0.125
141
12.0
290
     0
  0
SCALE
  5
445
102
{ACAD_REACTORS
330
43D
102
}
330
43D
100
AcDbScale
 70
     0
300
3/16" = 1'-0"
140
0.1875
141
12.0
290
     0
  0
SCALE
  5
446
102
{ACAD_REACTORS
330
43D
102
}
330
43D
100
AcDbScale
 70
     0
300
1/4" = 1'-0"
140
0.25
141
12.0
290
     0
  0
SCALE
  5
447
102
{ACAD_REACTORS
330
43D
102
}
330
43D
100
AcDbScale
 70
     0
300
3/8" = 1'-0"
140
0.375
141
12.0
290
     0
  0
SCALE
  5
448
102
{ACAD_REACTORS
330
43D
102
}
330
43D
100
AcDbScale
 70
     0
300
1/2" = 1'-0"
140
0.5
141
12.0
290
     0
  0
SCALE
  5
449
102
{ACAD_REACTORS
330
43D
102
}
330
43D
100
AcDbScale
 70
     0
300
3/4" = 1'-0"
140
0.75
141
12.0
290
     0
  0
SCALE
  5
44A
102
{ACAD_REACTORS
330
43D
102
}
330
43D
100
AcDbScale
 70
     0
300
1" = 1'-0"
140
1.0
141
12.0
290
     0
  0
SCALE
  5
44B
102
{ACAD_REACTORS
330
43D
102
}
330
43D
100
AcDbScale
 70
     0
300
1-1/2" = 1'-0"
140
1.5
141
12.0
290
     0
  0
SCALE
  5
44C
102
{ACAD_REACTORS
330
43D
102
}
330
43D
100
AcDbScale
 70
     0
300
3" = 1'-0"
140
3.0
141
12.0
290
     0
  0
SCALE
  5
44D
102
{ACAD_REACTORS
330
43D
102
}
330
43D
100
AcDbScale
 70
     0
300
6" = 1'-0"
140
6.0
141
12.0
290
     0
  0
SCALE
  5
44E
102
{ACAD_REACTORS
330
43D
102
}
330
43D
100
AcDbScale
 70
     0
300
1'-0" = 1'-0"
140
12.0
141
12.0
290
     0
  0
ACDBSECTIONVIEWSTYLE
  5
452
102
{ACAD_XDICTIONARY
360
4E2
102
}
102
{ACAD_REACTORS
330
451
102
}
330
451
100
AcDbModelDocViewStyle
 70
     0
  3
Imperial24
290
     0
100
AcDbSectionViewStyle
 70
     0
 71
     0
 90
      102
 71
     1
340
10
 62
   256
 40
5.0
340
0
340
0
 62
   256
 40
5.0
300
I, O, Q, S, X, Z
 40
10.0
 90
        0
 40
2.5
 90
        0
 71
     2
340
7
 90
       25
 62
   256
340
7
 90
       50
 62
   256
 40
5.0
 40
2.5
 40
5.0
 71
     3
340
10
 62
   256
 40
5.0
 90
        0
 40
15.0
 90
        1
300
%<\AcVar ViewSectionStartId>%-%<\AcVar ViewSectionEndId>% (%<\AcVar ViewScale \f "%sn">%)
 71
     4
 62
   256
 62
   257
300
ANSI31
 40
1.0
 90
        0
290
     0
290
     0
 90
        6
 40
0.0
 40
1.57079633
 40
0.26179939
 40
1.30899694
 40
-0.26179939
 40
1.83259571
  0
TABLESTYLE
  5
43C
102
{ACAD_XDICTIONARY
360
45B
102
}
102
{ACAD_REACTORS
330
43B
102
}
330
43B
100
AcDbTableStyle
  3
Standard
 70
     0
 71
     0
 40
0.06
 41
0.06
280
     0
281
     0
  7
STANDARD
140
0.18
170
     2
 62
     0
 63
     7
283
     0
274
    -2
284
     1
 64
     0
275
    -2
285
     1
 65
     0
276
    -2
286
     1
 66
     0
277
    -2
287
     1
 67
     0
278
    -2
288
     1
 68
     0
279
    -2
289
     1
 69
     0
  7
STANDARD
140
0.25
170
     5
 62
     0
 63
     7
283
     0
274
    -2
284
     1
 64
     0
275
    -2
285
     1
 65
     0
276
    -2
286
     1
 66
     0
277
    -2
287
     1
 67
     0
278
    -2
288
     1
 68
     0
279
    -2
289
     1
 69
     0
  7
STANDARD
140
0.18
170
     5
 62
     0
 63
     7
283
     0
274
    -2
284
     1
 64
     0
275
    -2
285
     1
 65
     0
276
    -2
286
     1
 66
     0
277
    -2
287
     1
 67
     0
278
    -2
288
     1
 68
     0
279
    -2
289
     1
 69
     0
  0
VISUALSTYLE
  5
427
102
{ACAD_XDICTIONARY
360
4B9
102
}
102
{ACAD_REACTORS
330
421
102
}
330
421
100
AcDbVisualStyle
  2
2dWireframe
 70
     4
 71
     0
 72
     2
 73
     0
 90
        0
 40
-0.6
 41
-30.0
 62
     5
 63
     7
421
 16777215
 74
     1
 91
        4
 64
     7
 65
   257
 75
     1
175
     1
 42
1.0
 92
        0
 66
   257
 43
1.0
 76
     1
 77
     6
 78
     2
 67
     7
 79
     5
170
     0
171
     0
290
     0
174
     0
 93
        1
 44
0.0
173
     0
291
     0
 45
0.0
1001
ACAD
1000
AcDbSavedByObjectVersion
1070
     0
  0
VISUALSTYLE
  5
426
102
{ACAD_XDICTIONARY
360
4B7
102
}
102
{ACAD_REACTORS
330
421
102
}
330
421
100
AcDbVisualStyle
  2
Basic
 70
     7
 71
     1
 72
     0
 73
     1
 90
        0
 40
-0.6
 41
-30.0
 62
     5
 63
     7
421
 16777215
 74
     0
 91
        4
 64
     7
 65
   257
 75
     1
175
     1
 42
1.0
 92
        8
 66
     7
 43
1.0
 76
     1
 77
     6
 78
     2
 67
     7
 79
     5
170
     0
171
     0
290
     0
174
     0
 93
        1
 44
0.0
173
     0
291
     1
 45
0.0
1001
ACAD
1000
AcDbSavedByObjectVersion
1070
     0
  0
VISUALSTYLE
  5
42D
102
{ACAD_XDICTIONARY
360
4C5
102
}
102
{ACAD_REACTORS
330
421
102
}
330
421
100
AcDbVisualStyle
  2
Brighten
 70
    12
 71
     2
 72
     2
 73
     0
 90
        0
 40
-0.6
 41
-30.0
 62
     5
 63
     7
421
 16777215
 74
     1
 91
        4
 64
     7
 65
   257
 75
     1
175
     1
 42
1.0
 92
        8
 66
     7
 43
1.0
 76
     1
 77
     6
 78
     2
 67
     7
 79
     5
170
     0
171
     0
290
     0
174
     0
 93
        1
 44
50.0
173
     0
291
     1
 45
0.0
1001
ACAD
1000
AcDbSavedByObjectVersion
1070
     0
  0
VISUALSTYLE
  5
431
102
{ACAD_XDICTIONARY
360
4CD
102
}
102
{ACAD_REACTORS
330
421
102
}
330
421
100
AcDbVisualStyle
  2
ColorChange
 70
    16
 71
     2
 72
     2
 73
     3
 90
        0
 40
-0.6
 41
-30.0
 62
     5
 63
     8
421
  8421504
 74
     1
 91
        4
 64
     7
 65
   257
 75
     1
175
     1
 42
1.0
 92
        8
 66
     8
424
  8421504
 43
1.0
 76
     1
 77
     6
 78
     2
 67
     7
 79
     5
170
     0
171
     0
290
     0
174
     0
 93
        1
 44
0.0
173
     0
291
     1
 45
0.0
1001
ACAD
1000
AcDbSavedByObjectVersion
1070
     0
  0
VISUALSTYLE
  5
42A
102
{ACAD_XDICTIONARY
360
4BF
102
}
102
{ACAD_REACTORS
330
421
102
}
330
421
100
AcDbVisualStyle
  2
Conceptual
 70
     9
 71
     3
 72
     2
 73
     0
 90
        0
 40
-0.6
 41
-30.0
 62
     5
 63
     7
421
 16777215
 74
     2
 91
        2
 64
     7
 65
   257
 75
     1
175
     1
 42
179.0
 92
        8
 66
     7
 43
1.0
 76
     1
 77
     6
 78
     2
 67
     7
 79
     3
170
     0
171
     0
290
     0
174
     0
 93
        1
 44
0.0
173
     0
291
     0
 45
0.0
1001
ACAD
1000
AcDbSavedByObjectVersion
1070
     0
  0
VISUALSTYLE
  5
42C
102
{ACAD_XDICTIONARY
360
4C3
102
}
102
{ACAD_REACTORS
330
421
102
}
330
421
100
AcDbVisualStyle
  2
Dim
 70
    11
 71
     2
 72
     2
 73
     0
 90
        0
 40
-0.6
 41
-30.0
 62
     5
 63
     7
421
 16777215
 74
     1
 91
        4
 64
     7
 65
   257
 75
     1
175
     1
 42
1.0
 92
        8
 66
     7
 43
1.0
 76
     1
 77
     6
 78
     2
 67
     7
 79
     5
170
     0
171
     0
290
     0
174
     0
 93
        1
 44
-50.0
173
     0
291
     1
 45
0.0
1001
ACAD
1000
AcDbSavedByObjectVersion
1070
     0
  0
VISUALSTYLE
  5
439
102
{ACAD_XDICTIONARY
360
4DD
102
}
102
{ACAD_REACTORS
330
421
102
}
330
421
100
AcDbVisualStyle
  2
EdgeColorOff
 70
    22
 71
     2
 72
     2
 73
     0
 90
        0
 40
-0.6
 41
-30.0
 62
     5
 63
     7
421
 16777215
 74
     1
 91
        4
 64
     7
 65
   257
 75
     1
175
     1
 42
1.0
 92
        8
 66
     7
 43
1.0
 76
     1
 77
     6
 78
     2
 67
     7
 79
     5
170
     0
171
     0
290
     0
174
     0
 93
        1
 44
0.0
173
     0
291
     1
 45
0.0
1001
ACAD
1000
AcDbSavedByObjectVersion
1070
     0
  0
VISUALSTYLE
  5
430
102
{ACAD_XDICTIONARY
360
4CB
102
}
102
{ACAD_REACTORS
330
421
102
}
330
421
100
AcDbVisualStyle
  2
Facepattern
 70
    15
 71
     2
 72
     2
 73
     0
 90
        0
 40
-0.6
 41
-30.0
 62
     5
 63
     7
421
 16777215
 74
     1
 91
        4
 64
     7
 65
   257
 75
     1
175
     1
 42
1.0
 92
        8
 66
     7
 43
1.0
 76
     1
 77
     6
 78
     2
 67
     7
 79
     5
170
     0
171
     0
290
     0
174
     0
 93
        1
 44
0.0
173
     0
291
     1
 45
0.0
1001
ACAD
1000
AcDbSavedByObjectVersion
1070
     0
  0
VISUALSTYLE
  5
422
102
{ACAD_XDICTIONARY
360
4AF
102
}
102
{ACAD_REACTORS
330
421
102
}
330
421
100
AcDbVisualStyle
  2
Flat
 70
     0
 71
     2
 72
     1
 73
     1
 90
        2
 40
-0.6
 41
30.0
 62
     5
 63
     7
421
 16777215
 74
     0
 91
        0
 64
     7
 65
   257
 75
     1
175
     1
 42
1.0
 92
        8
 66
     7
 43
1.0
 76
     1
 77
     6
 78
     2
 67
     7
 79
     5
170
     0
171
     0
290
     0
174
     0
 93
       13
 44
0.0
173
     0
291
     1
 45
0.0
1001
ACAD
1000
AcDbSavedByObjectVersion
1070
     0
  0
VISUALSTYLE
  5
423
102
{ACAD_XDICTIONARY
360
4B1
102
}
102
{ACAD_REACTORS
330
421
102
}
330
421
100
AcDbVisualStyle
  2
FlatWithEdges
 70
     1
 71
     2
 72
     1
 73
     1
 90
        2
 40
-0.6
 41
30.0
 62
     5
 63
     7
421
 16777215
 74
     1
 91
        0
 64
     7
 65
   257
 75
     1
175
     1
 42
1.0
 92
        0
 66
   257
 43
1.0
 76
     1
 77
     6
 78
     2
 67
     7
 79
     5
170
     0
171
     0
290
     0
174
     0
 93
       13
 44
0.0
173
     0
291
     1
 45
0.0
1001
ACAD
1000
AcDbSavedByObjectVersion
1070
     0
  0
VISUALSTYLE
  5
424
102
{ACAD_XDICTIONARY
360
4B3
102
}
102
{ACAD_REACTORS
330
421
102
}
330
421
100
AcDbVisualStyle
  2
Gouraud
 70
     2
 71
     2
 72
     2
 73
     1
 90
        2
 40
-0.6
 41
30.0
 62
     5
 63
     7
421
 16777215
 74
     0
 91
        0
 64
     7
 65
   257
 75
     1
175
     1
 42
1.0
 92
        0
 66
     7
 43
1.0
 76
     1
 77
     6
 78
     2
 67
     7
 79
     5
170
     0
171
     0
290
     0
174
     0
 93
       13
 44
0.0
173
     0
291
     1
 45
0.0
1001
ACAD
1000
AcDbSavedByObjectVersion
1070
     0
  0
VISUALSTYLE
  5
425
102
{ACAD_XDICTIONARY
360
4B5
102
}
102
{ACAD_REACTORS
330
421
102
}
330
421
100
AcDbVisualStyle
  2
GouraudWithEdges
 70
     3
 71
     2
 72
     2
 73
     1
 90
        2
 40
-0.6
 41
30.0
 62
     5
 63
     7
421
 16777215
 74
     1
 91
        0
 64
     7
 65
   257
 75
     1
175
     1
 42
1.0
 92
        0
 66
   257
 43
1.0
 76
     1
 77
     6
 78
     2
 67
     7
 79
     5
170
     0
171
     0
290
     0
174
     0
 93
       13
 44
0.0
173
     0
291
     1
 45
0.0
1001
ACAD
1000
AcDbSavedByObjectVersion
1070
     0
  0
VISUALSTYLE
  5
429
102
{ACAD_XDICTIONARY
360
4BD
102
}
102
{ACAD_REACTORS
330
421
102
}
330
421
100
AcDbVisualStyle
  2
Hidden
 70
     6
 71
     1
 72
     2
 73
     2
 90
        0
 40
-0.6
 41
-30.0
 62
     5
 63
     7
421
 16777215
 74
     2
 91
        2
 64
     7
 65
   257
 75
     2
175
     1
 42
40.0
 92
        0
 66
   257
 43
1.0
 76
     1
 77
     6
 78
     2
 67
     7
 79
     3
170
     0
171
     0
290
     0
174
     0
 93
        1
 44
0.0
173
     0
291
     0
 45
0.0
1001
ACAD
1000
AcDbSavedByObjectVersion
1070
     0
  0
VISUALSTYLE
  5
437
102
{ACAD_XDICTIONARY
360
4D9
102
}
102
{ACAD_REACTORS
330
421
102
}
330
421
100
AcDbVisualStyle
  2
JitterOff
 70
    20
 71
     2
 72
     2
 73
     0
 90
        0
 40
-0.6
 41
-30.0
 62
     5
 63
     7
421
 16777215
 74
     1
 91
        4
 64
     7
 65
   257
 75
     1
175
     1
 42
1.0
 92
       10
 66
     7
 43
1.0
 76
     1
 77
     6
 78
     2
 67
     7
 79
     5
170
     0
171
     0
290
     0
174
     0
 93
        1
 44
0.0
173
     0
291
     1
 45
0.0
1001
ACAD
1000
AcDbSavedByObjectVersion
1070
     0
  0
VISUALSTYLE
  5
42F
102
{ACAD_XDICTIONARY
360
4C9
102
}
102
{ACAD_REACTORS
330
421
102
}
330
421
100
AcDbVisualStyle
  2
Linepattern
 70
    14
 71
     2
 72
     2
 73
     0
 90
        0
 40
-0.6
 41
-30.0
 62
     5
 63
     7
421
 16777215
 74
     1
 91
        4
 64
     7
 65
   257
 75
     7
175
     7
 42
1.0
 92
        8
 66
     7
 43
1.0
 76
     1
 77
     6
 78
     2
 67
     7
 79
     5
170
     0
171
     0
290
     0
174
     0
 93
        1
 44
0.0
173
     0
291
     1
 45
0.0
1001
ACAD
1000
AcDbSavedByObjectVersion
1070
     0
  0
VISUALSTYLE
  5
438
102
{ACAD_XDICTIONARY
360
4DB
102
}
102
{ACAD_REACTORS
330
421
102
}
330
421
100
AcDbVisualStyle
  2
OverhangOff
 70
    21
 71
     2
 72
     2
 73
     0
 90
        0
 40
-0.6
 41
-30.0
 62
     5
 63
     7
421
 16777215
 74
     1
 91
        4
 64
     7
 65
   257
 75
     1
175
     1
 42
1.0
 92
        9
 66
     7
 43
1.0
 76
     1
 77
     6
 78
     2
 67
     7
 79
     5
170
     0
171
     0
290
     0
174
     0
 93
        1
 44
0.0
173
     0
291
     1
 45
0.0
1001
ACAD
1000
AcDbSavedByObjectVersion
1070
     0
  0
VISUALSTYLE
  5
42B
102
{ACAD_XDICTIONARY
360
4C1
102
}
102
{ACAD_REACTORS
330
421
102
}
330
421
100
AcDbVisualStyle
  2
Realistic
 70
     8
 71
     2
 72
     2
 73
     0
 90
        2
 40
-0.6
 41
30.0
 62
     5
 63
     7
421
 16777215
 74
     0
 91
        0
 64
     7
 65
   257
 75
     1
175
     1
 42
1.0
 92
        8
 66
   257
 43
1.0
 76
     1
 77
     6
 78
     2
 67
     7
 79
     3
170
     0
171
     0
290
     0
174
     0
 93
       13
 44
0.0
173
     0
291
     0
 45
0.0
1001
ACAD
1000
AcDbSavedByObjectVersion
1070
     0
  0
VISUALSTYLE
  5
436
102
{ACAD_XDICTIONARY
360
4D7
102
}
102
{ACAD_REACTORS
330
421
102
}
330
421
100
AcDbVisualStyle
  2
Shaded
 70
    27
 71
     2
 72
     2
 73
     1
 90
        2
 40
-0.6
 41
30.0
 62
     5
 63
     7
421
 16777215
 74
     0
 91
        4
 64
     7
 65
   257
 75
     1
175
     1
 42
1.0
 92
        8
 66
   257
 43
1.0
 76
     1
 77
     6
 78
     2
 67
     8
425
  7895160
 79
     3
170
     0
171
     0
290
     0
174
     0
 93
        5
 44
0.0
173
     0
291
     0
 45
0.0
1001
ACAD
1000
AcDbSavedByObjectVersion
1070
     0
  0
VISUALSTYLE
  5
435
102
{ACAD_XDICTIONARY
360
4D5
102
}
102
{ACAD_REACTORS
330
421
102
}
330
421
100
AcDbVisualStyle
  2
Shaded with edges
 70
    26
 71
     2
 72
     2
 73
     1
 90
        2
 40
-0.6
 41
30.0
 62
     5
 63
     7
421
 16777215
 74
     1
 91
       10
 64
     7
 65
   257
 75
     2
175
     1
 42
1.0
 92
        8
 66
   257
 43
1.0
 76
     1
 77
     6
 78
     2
 67
     7
 79
     3
170
     0
171
     0
290
     0
174
     0
 93
        5
 44
0.0
173
     0
291
     0
 45
0.0
1001
ACAD
1000
AcDbSavedByObjectVersion
1070
     0
  0
VISUALSTYLE
  5
432
102
{ACAD_XDICTIONARY
360
4CF
102
}
102
{ACAD_REACTORS
330
421
102
}
330
421
100
AcDbVisualStyle
  2
Shades of Gray
 70
    23
 71
     2
 72
     2
 73
     3
 90
        0
 40
-0.6
 41
-30.0
 62
     5
 63
     7
421
 16777215
 74
     2
 91
        2
 64
     7
 65
     7
 75
     1
175
     1
 42
40.0
 92
        8
 66
     7
 43
1.0
 76
     1
 77
     6
 78
     2
 67
     7
 79
     3
170
     0
171
     0
290
     0
174
     0
 93
        1
 44
0.0
173
     0
291
     0
 45
0.0
1001
ACAD
1000
AcDbSavedByObjectVersion
1070
     0
  0
VISUALSTYLE
  5
433
102
{ACAD_XDICTIONARY
360
4D1
102
}
102
{ACAD_REACTORS
330
421
102
}
330
421
100
AcDbVisualStyle
  2
Sketchy
 70
    24
 71
     1
 72
     2
 73
     2
 90
        0
 40
-0.6
 41
-30.0
 62
     5
 63
     7
421
 16777215
 74
     2
 91
        2
 64
     7
 65
     7
 75
     1
175
     1
 42
40.0
 92
       11
 66
     7
 43
1.0
 76
     1
 77
     6
 78
     2
 67
     7
 79
     6
170
     0
171
     0
290
     0
174
     0
 93
        1
 44
0.0
173
     0
291
     0
 45
0.0
1001
ACAD
1000
AcDbSavedByObjectVersion
1070
     0
  0
VISUALSTYLE
  5
42E
102
{ACAD_XDICTIONARY
360
4C7
102
}
102
{ACAD_REACTORS
330
421
102
}
330
421
100
AcDbVisualStyle
  2
Thicken
 70
    13
 71
     2
 72
     2
 73
     0
 90
        0
 40
-0.6
 41
-30.0
 62
     5
 63
     7
421
 16777215
 74
     1
 91
        4
 64
     7
 65
   257
 75
     1
175
     1
 42
1.0
 92
       12
 66
     7
 43
1.0
 76
     1
 77
     6
 78
     2
 67
     7
 79
     5
170
     0
171
     0
290
     0
174
     0
 93
        1
 44
0.0
173
     0
291
     1
 45
0.0
1001
ACAD
1000
AcDbSavedByObjectVersion
1070
     0
  0
VISUALSTYLE
  5
428
102
{ACAD_XDICTIONARY
360
4BB
102
}
102
{ACAD_REACTORS
330
421
102
}
330
421
100
AcDbVisualStyle
  2
Wireframe
 70
     5
 71
     0
 72
     2
 73
     0
 90
        0
 40
-0.6
 41
-30.0
 62
     5
 63
     7
421
 16777215
 74
     1
 91
        4
 64
     7
 65
   257
 75
     1
175
     1
 42
1.0
 92
        0
 66
   257
 43
1.0
 76
     1
 77
     6
 78
     2
 67
     7
 79
     3
170
     0
171
     0
290
     0
174
     0
 93
        1
 44
0.0
173
     0
291
     0
 45
0.0
1001
ACAD
1000
AcDbSavedByObjectVersion
1070
     0
  0
VISUALSTYLE
  5
434
102
{ACAD_XDICTIONARY
360
4D3
102
}
102
{ACAD_REACTORS
330
421
102
}
330
421
100
AcDbVisualStyle
  2
X-Ray
 70
    25
 71
     2
 72
     2
 73
     1
 90
        1
 40
0.5
 41
-30.0
 62
     5
 63
     7
421
 16777215
 74
     1
 91
        0
 64
     7
 65
   257
 75
     1
175
     1
 42
1.0
 92
        8
 66
     7
 43
1.0
 76
     1
 77
     6
 78
     2
 67
     7
 79
     3
170
     0
171
     0
290
     0
174
     0
 93
       13
 44
0.0
173
     0
291
     0
 45
0.0
1001
ACAD
1000
AcDbSavedByObjectVersion
1070
     0
  0
DICTIONARYVAR
  5
49E
102
{ACAD_REACTORS
330
499
102
}
330
499
100
DictionaryVariables
280
     0
  1
1:1
  0
DICTIONARYVAR
  5
49B
102
{ACAD_REACTORS
330
499
102
}
330
499
100
DictionaryVariables
280
     0
  1
STANDARD
  0
DICTIONARYVAR
  5
49A
102
{ACAD_REACTORS
330
499
102
}
330
499
100
DictionaryVariables
280
     0
  1
STANDARD
  0
DICTIONARYVAR
  5
49C
102
{ACAD_REACTORS
330
499
102
}
330
499
100
DictionaryVariables
280
     0
  1
Imperial24
  0
DICTIONARYVAR
  5
49D
102
{ACAD_REACTORS
330
499
102
}
330
499
100
DictionaryVariables
280
     0
  1
Imperial24
  0
DICTIONARYVAR
  5
4A9
102
{ACAD_REACTORS
330
499
102
}
330
499
100
DictionaryVariables
280
     0
  1
2
  0
DICTIONARY
  5
4E4
330
454
100
AcDbDictionary
280
     1
281
     1
  3
ACAD_XREC_ROUNDTRIP
360
4E5
  0
DICTIONARY
  5
412
330
411
100
AcDbDictionary
280
     1
281
     1
  3
ACAD_XREC_ROUNDTRIP
360
4AD
  3
BUMPTILE
360
414
  3
DIFFUSETILE
360
413
  3
OPACITYTILE
360
417
  3
REFLECTIONTILE
360
416
  3
REFRACTIONTILE
360
418
  3
SPECULARTILE
360
415
  0
DICTIONARY
  5
40A
330
409
100
AcDbDictionary
280
     1
281
     1
  3
ACAD_XREC_ROUNDTRIP
360
4AC
  3
BUMPTILE
360
40C
  3
DIFFUSETILE
360
40B
  3
OPACITYTILE
360
40F
  3
REFLECTIONTILE
360
40E
  3
REFRACTIONTILE
360
410
  3
SPECULARTILE
360
40D
  0
DICTIONARY
  5
41A
330
419
100
AcDbDictionary
280
     1
281
     1
  3
ACAD_XREC_ROUNDTRIP
360
4AE
  3
BUMPTILE
360
41C
  3
DIFFUSETILE
360
41B
  3
OPACITYTILE
360
41F
  3
REFLECTIONTILE
360
41E
  3
REFRACTIONTILE
360
420
  3
SPECULARTILE
360
41D
  0
DICTIONARY
  5
4E0
330
450
100
AcDbDictionary
280
     1
281
     1
  3
ACAD_XREC_ROUNDTRIP
360
4E1
  0
DICTIONARY
  5
4E2
330
452
100
AcDbDictionary
280
     1
281
     1
  3
ACAD_XREC_ROUNDTRIP
360
4E3
  0
DICTIONARY
  5
45B
330
43C
100
AcDbDictionary
280
     1
281
     1
  3
ACAD_ROUNDTRIP_2008_TABLESTYLE_CELLSTYLEMAP
360
4AA
  3
ACAD_XREC_ROUNDTRIP
360
4DF
  0
DICTIONARY
  5
4B9
330
427
100
AcDbDictionary
280
     1
281
     1
  3
ACAD_XREC_ROUNDTRIP
360
4BA
  0
DICTIONARY
  5
4B7
330
426
100
AcDbDictionary
280
     1
281
     1
  3
ACAD_XREC_ROUNDTRIP
360
4B8
  0
DICTIONARY
  5
4C5
330
42D
100
AcDbDictionary
280
     1
281
     1
  3
ACAD_XREC_ROUNDTRIP
360
4C6
  0
DICTIONARY
  5
4CD
330
431
100
AcDbDictionary
280
     1
281
     1
  3
ACAD_XREC_ROUNDTRIP
360
4CE
  0
DICTIONARY
  5
4BF
330
42A
100
AcDbDictionary
280
     1
281
     1
  3
ACAD_XREC_ROUNDTRIP
360
4C0
  0
DICTIONARY
  5
4C3
330
42C
100
AcDbDictionary
280
     1
281
     1
  3
ACAD_XREC_ROUNDTRIP
360
4C4
  0
DICTIONARY
  5
4DD
330
439
100
AcDbDictionary
280
     1
281
     1
  3
ACAD_XREC_ROUNDTRIP
360
4DE
  0
DICTIONARY
  5
4CB
330
430
100
AcDbDictionary
280
     1
281
     1
  3
ACAD_XREC_ROUNDTRIP
360
4CC
  0
DICTIONARY
  5
4AF
330
422
100
AcDbDictionary
280
     1
281
     1
  3
ACAD_XREC_ROUNDTRIP
360
4B0
  0
DICTIONARY
  5
4B1
330
423
100
AcDbDictionary
280
     1
281
     1
  3
ACAD_XREC_ROUNDTRIP
360
4B2
  0
DICTIONARY
  5
4B3
330
424
100
AcDbDictionary
280
     1
281
     1
  3
ACAD_XREC_ROUNDTRIP
360
4B4
  0
DICTIONARY
  5
4B5
330
425
100
AcDbDictionary
280
     1
281
     1
  3
ACAD_XREC_ROUNDTRIP
360
4B6
  0
DICTIONARY
  5
4BD
330
429
100
AcDbDictionary
280
     1
281
     1
  3
ACAD_XREC_ROUNDTRIP
360
4BE
  0
DICTIONARY
  5
4D9
330
437
100
AcDbDictionary
280
     1
281
     1
  3
ACAD_XREC_ROUNDTRIP
360
4DA
  0
DICTIONARY
  5
4C9
330
42F
100
AcDbDictionary
280
     1
281
     1
  3
ACAD_XREC_ROUNDTRIP
360
4CA
  0
DICTIONARY
  5
4DB
330
438
100
AcDbDictionary
280
     1
281
     1
  3
ACAD_XREC_ROUNDTRIP
360
4DC
  0
DICTIONARY
  5
4C1
330
42B
100
AcDbDictionary
280
     1
281
     1
  3
ACAD_XREC_ROUNDTRIP
360
4C2
  0
DICTIONARY
  5
4D7
330
436
100
AcDbDictionary
280
     1
281
     1
  3
ACAD_XREC_ROUNDTRIP
360
4D8
  0
DICTIONARY
  5
4D5
330
435
100
AcDbDictionary
280
     1
281
     1
  3
ACAD_XREC_ROUNDTRIP
360
4D6
  0
DICTIONARY
  5
4CF
330
432
100
AcDbDictionary
280
     1
281
     1
  3
ACAD_XREC_ROUNDTRIP
360
4D0
  0
DICTIONARY
  5
4D1
330
433
100
AcDbDictionary
280
     1
281
     1
  3
ACAD_XREC_ROUNDTRIP
360
4D2
  0
DICTIONARY
  5
4C7
330
42E
100
AcDbDictionary
280
     1
281
     1
  3
ACAD_XREC_ROUNDTRIP
360
4C8
  0
DICTIONARY
  5
4BB
330
428
100
AcDbDictionary
280
     1
281
     1
  3
ACAD_XREC_ROUNDTRIP
360
4BC
  0
DICTIONARY
  5
4D3
330
434
100
AcDbDictionary
280
     1
281
     1
  3
ACAD_XREC_ROUNDTRIP
360
4D4
  0
XRECORD
  5
4E5
102
{ACAD_REACTORS
330
4E4
102
}
330
4E4
100
AcDbXrecord
280
     1
102
DISPLAYNAME
  1
Imperial24
102
FLAGS
 90
        0
  0
XRECORD
  5
4AD
102
{ACAD_REACTORS
330
412
102
}
330
412
100
AcDbXrecord
280
     1
102
MATERIAL
148
0.0
149
0.0
149
0.0
 93
        0
 94
      127
282
     0
 72
     0
 77
     0
171
     0
175
     0
179
     0
273
     0
  0
XRECORD
  5
414
102
{ACAD_REACTORS
330
412
102
}
330
412
100
AcDbXrecord
280
     1
270
     1
271
     1
  0
XRECORD
  5
413
102
{ACAD_REACTORS
330
412
102
}
330
412
100
AcDbXrecord
280
     1
270
     1
271
     1
  0
XRECORD
  5
417
102
{ACAD_REACTORS
330
412
102
}
330
412
100
AcDbXrecord
280
     1
270
     1
271
     1
  0
XRECORD
  5
416
102
{ACAD_REACTORS
330
412
102
}
330
412
100
AcDbXrecord
280
     1
270
     1
271
     1
  0
XRECORD
  5
418
102
{ACAD_REACTORS
330
412
102
}
330
412
100
AcDbXrecord
280
     1
270
     1
271
     1
  0
XRECORD
  5
415
102
{ACAD_REACTORS
330
412
102
}
330
412
100
AcDbXrecord
280
     1
270
     1
271
     1
  0
XRECORD
  5
4AC
102
{ACAD_REACTORS
330
40A
102
}
330
40A
100
AcDbXrecord
280
     1
102
MATERIAL
148
0.0
149
0.0
149
0.0
 93
        0
 94
      127
282
     0
 72
     0
 77
     0
171
     0
175
     0
179
     0
273
     0
  0
XRECORD
  5
40C
102
{ACAD_REACTORS
330
40A
102
}
330
40A
100
AcDbXrecord
280
     1
270
     1
271
     1
  0
XRECORD
  5
40B
102
{ACAD_REACTORS
330
40A
102
}
330
40A
100
AcDbXrecord
280
     1
270
     1
271
     1
  0
XRECORD
  5
40F
102
{ACAD_REACTORS
330
40A
102
}
330
40A
100
AcDbXrecord
280
     1
270
     1
271
     1
  0
XRECORD
  5
40E
102
{ACAD_REACTORS
330
40A
102
}
330
40A
100
AcDbXrecord
280
     1
270
     1
271
     1
  0
XRECORD
  5
410
102
{ACAD_REACTORS
330
40A
102
}
330
40A
100
AcDbXrecord
280
     1
270
     1
271
     1
  0
XRECORD
  5
40D
102
{ACAD_REACTORS
330
40A
102
}
330
40A
100
AcDbXrecord
280
     1
270
     1
271
     1
  0
XRECORD
  5
4AE
102
{ACAD_REACTORS
330
41A
102
}
330
41A
100
AcDbXrecord
280
     1
102
MATERIAL
148
0.0
149
0.0
149
0.0
 93
        0
 94
      127
282
     0
 72
     0
 77
     0
171
     0
175
     0
179
     0
273
     0
  0
XRECORD
  5
41C
102
{ACAD_REACTORS
330
41A
102
}
330
41A
100
AcDbXrecord
280
     1
270
     1
271
     1
  0
XRECORD
  5
41B
102
{ACAD_REACTORS
330
41A
102
}
330
41A
100
AcDbXrecord
280
     1
270
     1
271
     1
  0
XRECORD
  5
41F
102
{ACAD_REACTORS
330
41A
102
}
330
41A
100
AcDbXrecord
280
     1
270
     1
271
     1
  0
XRECORD
  5
41E
102
{ACAD_REACTORS
330
41A
102
}
330
41A
100
AcDbXrecord
280
     1
270
     1
271
     1
  0
XRECORD
  5
420
102
{ACAD_REACTORS
330
41A
102
}
330
41A
100
AcDbXrecord
280
     1
270
     1
271
     1
  0
XRECORD
  5
41D
102
{ACAD_REACTORS
330
41A
102
}
330
41A
100
AcDbXrecord
280
     1
270
     1
271
     1
  0
XRECORD
  5
4E1
102
{ACAD_REACTORS
330
4E0
102
}
330
4E0
100
AcDbXrecord
280
     1
102
ACAD_ROUNDTRIP_2012_MLEADER_STYLE
298
     1
  0
XRECORD
  5
4E3
102
{ACAD_REACTORS
330
4E2
102
}
330
4E2
100
AcDbXrecord
280
     1
102
DISPLAYNAME
  1
Imperial24
102
FLAGS
 90
        0
  0
CELLSTYLEMAP
  5
4AA
102
{ACAD_REACTORS
330
45B
102
}
330
45B
100
AcDbCellStyleMap
 90
        3
300
CELLSTYLE
  1
TABLEFORMAT_BEGIN
 90
        5
170
     1
 91
        0
 92
    32768
 62
   257
 93
        1
300
CONTENTFORMAT
  1
CONTENTFORMAT_BEGIN
 90
        0
 91
        0
 92
      512
 93
        0
300

 40
0.0
140
1.0
 94
        5
 62
     0
340
10
144
0.25
309
CONTENTFORMAT_END
171
     0
 94
        0
309
TABLEFORMAT_END
  1
CELLSTYLE_BEGIN
 90
        1
 91
        1
300
_TITLE
309
CELLSTYLE_END
300
CELLSTYLE
  1
TABLEFORMAT_BEGIN
 90
        5
170
     1
 91
        0
 92
        0
 62
   257
 93
        1
300
CONTENTFORMAT
  1
CONTENTFORMAT_BEGIN
 90
        0
 91
        0
 92
      512
 93
        0
300

 40
0.0
140
1.0
 94
        5
 62
     0
340
10
144
0.18
309
CONTENTFORMAT_END
171
     0
 94
        0
309
TABLEFORMAT_END
  1
CELLSTYLE_BEGIN
 90
        2
 91
        1
300
_HEADER
309
CELLSTYLE_END
300
CELLSTYLE
  1
TABLEFORMAT_BEGIN
 90
        5
170
     1
 91
        0
 92
        0
 62
   257
 93
        1
300
CONTENTFORMAT
  1
CONTENTFORMAT_BEGIN
 90
        0
 91
        0
 92
      512
 93
        0
300

 40
0.0
140
1.0
 94
        2
 62
     0
340
10
144
0.18
309
CONTENTFORMAT_END
171
     0
 94
        0
309
TABLEFORMAT_END
  1
CELLSTYLE_BEGIN
 90
        3
 91
        2
300
_DATA
309
CELLSTYLE_END
  0
XRECORD
  5
4DF
102
{ACAD_REACTORS
330
45B
102
}
330
45B
100
AcDbXrecord
280
     1
102
ACAD_ROUNDTRIP_PRE2007_TABLESTYLE
 90
      512
 91
        0
  1

 92
      512
 93
        0
  2

 94
      512
 95
        0
  3

  0
XRECORD
  5
4BA
102
{ACAD_REACTORS
330
4B9
102
}
330
4B9
100
AcDbXrecord
280
     1
102
RTVSPost2010Prop28
280
     1
102
RTVSPost2010PropOp28
 70
     1
102
RTVSPost2010Prop29
280
     1
102
RTVSPost2010PropOp29
 70
     1
102
RTVSPost2010Prop30
280
     0
102
RTVSPost2010PropOp30
 70
     1
102
RTVSPost2010Prop31
280
     0
102
RTVSPost2010PropOp31
 70
     1
102
RTVSPost2010Prop32
280
     0
102
RTVSPost2010PropOp32
 70
     1
102
RTVSPost2010Prop33
280
     0
102
RTVSPost2010PropOp33
 70
     1
102
RTVSPost2010Prop34
280
     0
102
RTVSPost2010PropOp34
 70
     1
102
RTVSPost2010Prop35
280
     0
102
RTVSPost2010PropOp35
 70
     1
102
RTVSPost2010Prop36
280
     0
102
RTVSPost2010PropOp36
 70
     1
102
RTVSPost2010Prop37
 90
       50
102
RTVSPost2010PropOp37
 70
     1
102
RTVSPost2010Prop38
140
0.0
102
RTVSPost2010PropOp38
 70
     1
102
RTVSPost2010Prop39
140
1.0
102
RTVSPost2010PropOp39
 70
     1
102
RTVSPost2010Prop40
 90
        0
102
RTVSPost2010PropOp40
 70
     1
102
RTVSPost2010Prop41ColorIndex
 90
       18
102
RTVSPost2010Prop41ColorRGB
 90
        0
102
RTVSPost2010PropOp41
 70
     1
102
RTVSPost2010Prop42
 90
       50
102
RTVSPost2010PropOp42
 70
     1
102
RTVSPost2010Prop43
 90
        3
102
RTVSPost2010PropOp43
 70
     1
102
RTVSPost2010Prop44ColorIndex
 90
        5
102
RTVSPost2010Prop44ColorRGB
 90
      255
102
RTVSPost2010PropOp44
 70
     1
102
RTVSPost2010Prop45
280
     0
102
RTVSPost2010PropOp45
 70
     1
102
RTVSPost2010Prop46
 90
       50
102
RTVSPost2010PropOp46
 70
     1
102
RTVSPost2010Prop47
 90
       50
102
RTVSPost2010PropOp47
 70
     1
102
RTVSPost2010Prop48
 90
       50
102
RTVSPost2010PropOp48
 70
     1
102
RTVSPost2010Prop49
280
     0
102
RTVSPost2010PropOp49
 70
     1
102
RTVSPost2010Prop50
 90
       50
102
RTVSPost2010PropOp50
 70
     1
102
RTVSPost2010Prop51ColorIndex
 90
      256
102
RTVSPost2010Prop51ColorRGB
 90
-16777216
102
RTVSPost2010PropOp51
 70
     0
102
RTVSPost2010Prop52
140
1.0
102
RTVSPost2010PropOp52
 70
     0
102
RTVSPost2010Prop53
 90
        2
102
RTVSPost2010PropOp53
 70
     1
102
RTVSPost2010Prop54
  1
strokes_ogs.tif
102
RTVSPost2010PropOp54
 70
     1
102
RTVSPost2010Prop55
280
     0
102
RTVSPost2010PropOp55
 70
     1
102
RTVSPost2010Prop56
140
1.0
102
RTVSPost2010PropOp56
 70
     1
102
RTVSPost2010Prop57
140
1.0
102
RTVSPost2010PropOp57
 70
     1
102
RTVSPropertyOp0
 70
     1
102
RTVSPropertyOp1
 70
     1
102
RTVSPropertyOp2
 70
     1
102
RTVSPropertyOp3
 70
     1
102
RTVSPropertyOp4
 70
     1
102
RTVSPropertyOp5
 70
     1
102
RTVSPropertyOp6
 70
     1
102
RTVSPropertyOp7
 70
     1
102
RTVSPropertyOp8
 70
     1
102
RTVSPropertyOp9
 70
     1
102
RTVSPropertyOp10
 70
     1
102
RTVSPropertyOp11
 70
     1
102
RTVSPropertyOp12
 70
     1
102
RTVSPropertyOp13
 70
     1
102
RTVSPropertyOp14
 70
     1
102
RTVSPropertyOp15
 70
     1
102
RTVSPropertyOp16
 70
     1
102
RTVSPropertyOp17
 70
     1
102
RTVSPropertyOp18
 70
     1
102
RTVSPropertyOp19
 70
     1
102
RTVSPropertyOp20
 70
     1
102
RTVSPropertyOp21
 70
     1
102
RTVSPropertyOp22
 70
     1
102
RTVSPropertyOp23
 70
     1
102
RTVSPropertyOp24
 70
     1
102
RTVSPropertyOp25
 70
     1
102
RTVSPropertyOp26
 70
     1
102
RTVSPropertyOp27
 70
     1
102
RTVSPropertyOp28
 70
     1
102
RTVSPropertyOp29
 70
     1
102
RTVSPropertyOp30
 70
     1
102
RTVSPropertyOp31
 70
     1
102
RTVSPropertyOp32
 70
     1
102
RTVSPropertyOp33
 70
     1
102
RTVSPropertyOp34
 70
     1
102
RTVSPropertyOp35
 70
     1
102
RTVSPropertyOp36
 70
     1
102
RTVSPropertyOp37
 70
     1
102
RTVSPropertyOp38
 70
     1
102
RTVSPropertyOp39
 70
     1
102
RTVSPropertyOp40
 70
     1
102
RTVSPropertyOp41
 70
     1
102
RTVSPropertyOp42
 70
     1
102
RTVSPropertyOp43
 70
     1
102
RTVSPropertyOp44
 70
     1
102
RTVSPropertyOp45
 70
     1
102
RTVSPropertyOp46
 70
     1
102
RTVSPropertyOp47
 70
     1
102
RTVSPropertyOp48
 70
     1
102
RTVSPropertyOp49
 70
     1
102
RTVSPropertyOp50
 70
     1
102
RTVSPropertyOp51
 70
     0
102
RTVSPropertyOp52
 70
     0
102
RTVSPropertyOp53
 70
     1
102
RTVSPropertyOp54
 70
     1
102
RTVSPropertyOp55
 70
     1
102
RTVSPropertyOp56
 70
     1
102
RTVSPropertyOp57
 70
     1
102
RTVSPropertyOp58
 70
     1
102
RTVSPropertyOp59
 70
     1
102
RTVSPropertyOp60
 70
     1
102
RTVSPropertyOp61
 70
     1
102
RTVSPropertyOp62
 70
     1
  0
XRECORD
  5
4B8
102
{ACAD_REACTORS
330
4B7
102
}
330
4B7
100
AcDbXrecord
280
     1
102
RTVSPost2010Prop28
280
     0
102
RTVSPost2010PropOp28
 70
     1
102
RTVSPost2010Prop29
280
     1
102
RTVSPost2010PropOp29
 70
     1
102
RTVSPost2010Prop30
280
     1
102
RTVSPost2010PropOp30
 70
     1
102
RTVSPost2010Prop31
280
     0
102
RTVSPost2010PropOp31
 70
     1
102
RTVSPost2010Prop32
280
     0
102
RTVSPost2010PropOp32
 70
     1
102
RTVSPost2010Prop33
280
     0
102
RTVSPost2010PropOp33
 70
     1
102
RTVSPost2010Prop34
280
     0
102
RTVSPost2010PropOp34
 70
     1
102
RTVSPost2010Prop35
280
     0
102
RTVSPost2010PropOp35
 70
     1
102
RTVSPost2010Prop36
280
     0
102
RTVSPost2010PropOp36
 70
     1
102
RTVSPost2010Prop37
 90
       50
102
RTVSPost2010PropOp37
 70
     1
102
RTVSPost2010Prop38
140
0.0
102
RTVSPost2010PropOp38
 70
     1
102
RTVSPost2010Prop39
140
1.0
102
RTVSPost2010PropOp39
 70
     1
102
RTVSPost2010Prop40
 90
        0
102
RTVSPost2010PropOp40
 70
     1
102
RTVSPost2010Prop41ColorIndex
 90
       18
102
RTVSPost2010Prop41ColorRGB
 90
        0
102
RTVSPost2010PropOp41
 70
     1
102
RTVSPost2010Prop42
 90
       50
102
RTVSPost2010PropOp42
 70
     1
102
RTVSPost2010Prop43
 90
        3
102
RTVSPost2010PropOp43
 70
     1
102
RTVSPost2010Prop44ColorIndex
 90
        5
102
RTVSPost2010Prop44ColorRGB
 90
      255
102
RTVSPost2010PropOp44
 70
     1
102
RTVSPost2010Prop45
280
     0
102
RTVSPost2010PropOp45
 70
     1
102
RTVSPost2010Prop46
 90
       50
102
RTVSPost2010PropOp46
 70
     1
102
RTVSPost2010Prop47
 90
       50
102
RTVSPost2010PropOp47
 70
     1
102
RTVSPost2010Prop48
 90
       50
102
RTVSPost2010PropOp48
 70
     1
102
RTVSPost2010Prop49
280
     0
102
RTVSPost2010PropOp49
 70
     1
102
RTVSPost2010Prop50
 90
       50
102
RTVSPost2010PropOp50
 70
     1
102
RTVSPost2010Prop51ColorIndex
 90
      256
102
RTVSPost2010Prop51ColorRGB
 90
-16777216
102
RTVSPost2010PropOp51
 70
     0
102
RTVSPost2010Prop52
140
1.0
102
RTVSPost2010PropOp52
 70
     0
102
RTVSPost2010Prop53
 90
        2
102
RTVSPost2010PropOp53
 70
     1
102
RTVSPost2010Prop54
  1
strokes_ogs.tif
102
RTVSPost2010PropOp54
 70
     1
102
RTVSPost2010Prop55
280
     0
102
RTVSPost2010PropOp55
 70
     1
102
RTVSPost2010Prop56
140
1.0
102
RTVSPost2010PropOp56
 70
     1
102
RTVSPost2010Prop57
140
1.0
102
RTVSPost2010PropOp57
 70
     1
102
RTVSPropertyOp0
 70
     1
102
RTVSPropertyOp1
 70
     1
102
RTVSPropertyOp2
 70
     1
102
RTVSPropertyOp3
 70
     1
102
RTVSPropertyOp4
 70
     1
102
RTVSPropertyOp5
 70
     1
102
RTVSPropertyOp6
 70
     1
102
RTVSPropertyOp7
 70
     1
102
RTVSPropertyOp8
 70
     1
102
RTVSPropertyOp9
 70
     1
102
RTVSPropertyOp10
 70
     1
102
RTVSPropertyOp11
 70
     1
102
RTVSPropertyOp12
 70
     1
102
RTVSPropertyOp13
 70
     1
102
RTVSPropertyOp14
 70
     1
102
RTVSPropertyOp15
 70
     1
102
RTVSPropertyOp16
 70
     1
102
RTVSPropertyOp17
 70
     1
102
RTVSPropertyOp18
 70
     1
102
RTVSPropertyOp19
 70
     1
102
RTVSPropertyOp20
 70
     1
102
RTVSPropertyOp21
 70
     1
102
RTVSPropertyOp22
 70
     1
102
RTVSPropertyOp23
 70
     1
102
RTVSPropertyOp24
 70
     1
102
RTVSPropertyOp25
 70
     1
102
RTVSPropertyOp26
 70
     1
102
RTVSPropertyOp27
 70
     1
102
RTVSPropertyOp28
 70
     1
102
RTVSPropertyOp29
 70
     1
102
RTVSPropertyOp30
 70
     1
102
RTVSPropertyOp31
 70
     1
102
RTVSPropertyOp32
 70
     1
102
RTVSPropertyOp33
 70
     1
102
RTVSPropertyOp34
 70
     1
102
RTVSPropertyOp35
 70
     1
102
RTVSPropertyOp36
 70
     1
102
RTVSPropertyOp37
 70
     1
102
RTVSPropertyOp38
 70
     1
102
RTVSPropertyOp39
 70
     1
102
RTVSPropertyOp40
 70
     1
102
RTVSPropertyOp41
 70
     1
102
RTVSPropertyOp42
 70
     1
102
RTVSPropertyOp43
 70
     1
102
RTVSPropertyOp44
 70
     1
102
RTVSPropertyOp45
 70
     1
102
RTVSPropertyOp46
 70
     1
102
RTVSPropertyOp47
 70
     1
102
RTVSPropertyOp48
 70
     1
102
RTVSPropertyOp49
 70
     1
102
RTVSPropertyOp50
 70
     1
102
RTVSPropertyOp51
 70
     0
102
RTVSPropertyOp52
 70
     0
102
RTVSPropertyOp53
 70
     1
102
RTVSPropertyOp54
 70
     1
102
RTVSPropertyOp55
 70
     1
102
RTVSPropertyOp56
 70
     1
102
RTVSPropertyOp57
 70
     1
102
RTVSPropertyOp58
 70
     1
102
RTVSPropertyOp59
 70
     1
102
RTVSPropertyOp60
 70
     1
102
RTVSPropertyOp61
 70
     1
102
RTVSPropertyOp62
 70
     1
  0
XRECORD
  5
4C6
102
{ACAD_REACTORS
330
4C5
102
}
330
4C5
100
AcDbXrecord
280
     1
102
RTVSPost2010Prop28
280
     0
102
RTVSPost2010PropOp28
 70
     1
102
RTVSPost2010Prop29
280
     1
102
RTVSPost2010PropOp29
 70
     1
102
RTVSPost2010Prop30
280
     1
102
RTVSPost2010PropOp30
 70
     1
102
RTVSPost2010Prop31
280
     0
102
RTVSPost2010PropOp31
 70
     1
102
RTVSPost2010Prop32
280
     0
102
RTVSPost2010PropOp32
 70
     1
102
RTVSPost2010Prop33
280
     0
102
RTVSPost2010PropOp33
 70
     1
102
RTVSPost2010Prop34
280
     0
102
RTVSPost2010PropOp34
 70
     1
102
RTVSPost2010Prop35
280
     0
102
RTVSPost2010PropOp35
 70
     1
102
RTVSPost2010Prop36
280
     0
102
RTVSPost2010PropOp36
 70
     1
102
RTVSPost2010Prop37
 90
       50
102
RTVSPost2010PropOp37
 70
     1
102
RTVSPost2010Prop38
140
0.0
102
RTVSPost2010PropOp38
 70
     1
102
RTVSPost2010Prop39
140
1.0
102
RTVSPost2010PropOp39
 70
     1
102
RTVSPost2010Prop40
 90
        0
102
RTVSPost2010PropOp40
 70
     1
102
RTVSPost2010Prop41ColorIndex
 90
       18
102
RTVSPost2010Prop41ColorRGB
 90
        0
102
RTVSPost2010PropOp41
 70
     1
102
RTVSPost2010Prop42
 90
       50
102
RTVSPost2010PropOp42
 70
     1
102
RTVSPost2010Prop43
 90
        3
102
RTVSPost2010PropOp43
 70
     1
102
RTVSPost2010Prop44ColorIndex
 90
        5
102
RTVSPost2010Prop44ColorRGB
 90
      255
102
RTVSPost2010PropOp44
 70
     1
102
RTVSPost2010Prop45
280
     0
102
RTVSPost2010PropOp45
 70
     1
102
RTVSPost2010Prop46
 90
       50
102
RTVSPost2010PropOp46
 70
     1
102
RTVSPost2010Prop47
 90
       50
102
RTVSPost2010PropOp47
 70
     1
102
RTVSPost2010Prop48
 90
       50
102
RTVSPost2010PropOp48
 70
     1
102
RTVSPost2010Prop49
280
     0
102
RTVSPost2010PropOp49
 70
     1
102
RTVSPost2010Prop50
 90
       50
102
RTVSPost2010PropOp50
 70
     1
102
RTVSPost2010Prop51ColorIndex
 90
      256
102
RTVSPost2010Prop51ColorRGB
 90
-16777216
102
RTVSPost2010PropOp51
 70
     0
102
RTVSPost2010Prop52
140
1.0
102
RTVSPost2010PropOp52
 70
     0
102
RTVSPost2010Prop53
 90
        2
102
RTVSPost2010PropOp53
 70
     1
102
RTVSPost2010Prop54
  1
strokes_ogs.tif
102
RTVSPost2010PropOp54
 70
     1
102
RTVSPost2010Prop55
280
     0
102
RTVSPost2010PropOp55
 70
     1
102
RTVSPost2010Prop56
140
1.0
102
RTVSPost2010PropOp56
 70
     1
102
RTVSPost2010Prop57
140
1.0
102
RTVSPost2010PropOp57
 70
     1
102
RTVSPropertyOp0
 70
     1
102
RTVSPropertyOp1
 70
     1
102
RTVSPropertyOp2
 70
     1
102
RTVSPropertyOp3
 70
     1
102
RTVSPropertyOp4
 70
     1
102
RTVSPropertyOp5
 70
     1
102
RTVSPropertyOp6
 70
     1
102
RTVSPropertyOp7
 70
     1
102
RTVSPropertyOp8
 70
     1
102
RTVSPropertyOp9
 70
     1
102
RTVSPropertyOp10
 70
     1
102
RTVSPropertyOp11
 70
     1
102
RTVSPropertyOp12
 70
     1
102
RTVSPropertyOp13
 70
     1
102
RTVSPropertyOp14
 70
     1
102
RTVSPropertyOp15
 70
     1
102
RTVSPropertyOp16
 70
     1
102
RTVSPropertyOp17
 70
     1
102
RTVSPropertyOp18
 70
     1
102
RTVSPropertyOp19
 70
     1
102
RTVSPropertyOp20
 70
     1
102
RTVSPropertyOp21
 70
     1
102
RTVSPropertyOp22
 70
     1
102
RTVSPropertyOp23
 70
     1
102
RTVSPropertyOp24
 70
     1
102
RTVSPropertyOp25
 70
     1
102
RTVSPropertyOp26
 70
     1
102
RTVSPropertyOp27
 70
     1
102
RTVSPropertyOp28
 70
     1
102
RTVSPropertyOp29
 70
     1
102
RTVSPropertyOp30
 70
     1
102
RTVSPropertyOp31
 70
     1
102
RTVSPropertyOp32
 70
     1
102
RTVSPropertyOp33
 70
     1
102
RTVSPropertyOp34
 70
     1
102
RTVSPropertyOp35
 70
     1
102
RTVSPropertyOp36
 70
     1
102
RTVSPropertyOp37
 70
     1
102
RTVSPropertyOp38
 70
     1
102
RTVSPropertyOp39
 70
     1
102
RTVSPropertyOp40
 70
     1
102
RTVSPropertyOp41
 70
     1
102
RTVSPropertyOp42
 70
     1
102
RTVSPropertyOp43
 70
     1
102
RTVSPropertyOp44
 70
     1
102
RTVSPropertyOp45
 70
     1
102
RTVSPropertyOp46
 70
     1
102
RTVSPropertyOp47
 70
     1
102
RTVSPropertyOp48
 70
     1
102
RTVSPropertyOp49
 70
     1
102
RTVSPropertyOp50
 70
     1
102
RTVSPropertyOp51
 70
     0
102
RTVSPropertyOp52
 70
     0
102
RTVSPropertyOp53
 70
     1
102
RTVSPropertyOp54
 70
     1
102
RTVSPropertyOp55
 70
     1
102
RTVSPropertyOp56
 70
     1
102
RTVSPropertyOp57
 70
     1
102
RTVSPropertyOp58
 70
     1
102
RTVSPropertyOp59
 70
     1
102
RTVSPropertyOp60
 70
     1
102
RTVSPropertyOp61
 70
     1
102
RTVSPropertyOp62
 70
     1
  0
XRECORD
  5
4CE
102
{ACAD_REACTORS
330
4CD
102
}
330
4CD
100
AcDbXrecord
280
     1
102
RTVSPost2010Prop28
280
     0
102
RTVSPost2010PropOp28
 70
     1
102
RTVSPost2010Prop29
280
     1
102
RTVSPost2010PropOp29
 70
     1
102
RTVSPost2010Prop30
280
     1
102
RTVSPost2010PropOp30
 70
     1
102
RTVSPost2010Prop31
280
     0
102
RTVSPost2010PropOp31
 70
     1
102
RTVSPost2010Prop32
280
     0
102
RTVSPost2010PropOp32
 70
     1
102
RTVSPost2010Prop33
280
     0
102
RTVSPost2010PropOp33
 70
     1
102
RTVSPost2010Prop34
280
     0
102
RTVSPost2010PropOp34
 70
     1
102
RTVSPost2010Prop35
280
     0
102
RTVSPost2010PropOp35
 70
     1
102
RTVSPost2010Prop36
280
     0
102
RTVSPost2010PropOp36
 70
     1
102
RTVSPost2010Prop37
 90
       50
102
RTVSPost2010PropOp37
 70
     1
102
RTVSPost2010Prop38
140
0.0
102
RTVSPost2010PropOp38
 70
     1
102
RTVSPost2010Prop39
140
1.0
102
RTVSPost2010PropOp39
 70
     1
102
RTVSPost2010Prop40
 90
        0
102
RTVSPost2010PropOp40
 70
     1
102
RTVSPost2010Prop41ColorIndex
 90
       18
102
RTVSPost2010Prop41ColorRGB
 90
        0
102
RTVSPost2010PropOp41
 70
     1
102
RTVSPost2010Prop42
 90
       50
102
RTVSPost2010PropOp42
 70
     1
102
RTVSPost2010Prop43
 90
        3
102
RTVSPost2010PropOp43
 70
     1
102
RTVSPost2010Prop44ColorIndex
 90
        5
102
RTVSPost2010Prop44ColorRGB
 90
      255
102
RTVSPost2010PropOp44
 70
     1
102
RTVSPost2010Prop45
280
     0
102
RTVSPost2010PropOp45
 70
     1
102
RTVSPost2010Prop46
 90
       50
102
RTVSPost2010PropOp46
 70
     1
102
RTVSPost2010Prop47
 90
       50
102
RTVSPost2010PropOp47
 70
     1
102
RTVSPost2010Prop48
 90
       50
102
RTVSPost2010PropOp48
 70
     1
102
RTVSPost2010Prop49
280
     0
102
RTVSPost2010PropOp49
 70
     1
102
RTVSPost2010Prop50
 90
       50
102
RTVSPost2010PropOp50
 70
     1
102
RTVSPost2010Prop51ColorIndex
 90
      256
102
RTVSPost2010Prop51ColorRGB
 90
-16777216
102
RTVSPost2010PropOp51
 70
     0
102
RTVSPost2010Prop52
140
1.0
102
RTVSPost2010PropOp52
 70
     0
102
RTVSPost2010Prop53
 90
        2
102
RTVSPost2010PropOp53
 70
     1
102
RTVSPost2010Prop54
  1
strokes_ogs.tif
102
RTVSPost2010PropOp54
 70
     1
102
RTVSPost2010Prop55
280
     0
102
RTVSPost2010PropOp55
 70
     1
102
RTVSPost2010Prop56
140
1.0
102
RTVSPost2010PropOp56
 70
     1
102
RTVSPost2010Prop57
140
1.0
102
RTVSPost2010PropOp57
 70
     1
102
RTVSPropertyOp0
 70
     1
102
RTVSPropertyOp1
 70
     1
102
RTVSPropertyOp2
 70
     1
102
RTVSPropertyOp3
 70
     1
102
RTVSPropertyOp4
 70
     1
102
RTVSPropertyOp5
 70
     1
102
RTVSPropertyOp6
 70
     1
102
RTVSPropertyOp7
 70
     1
102
RTVSPropertyOp8
 70
     1
102
RTVSPropertyOp9
 70
     1
102
RTVSPropertyOp10
 70
     1
102
RTVSPropertyOp11
 70
     1
102
RTVSPropertyOp12
 70
     1
102
RTVSPropertyOp13
 70
     1
102
RTVSPropertyOp14
 70
     1
102
RTVSPropertyOp15
 70
     1
102
RTVSPropertyOp16
 70
     1
102
RTVSPropertyOp17
 70
     1
102
RTVSPropertyOp18
 70
     1
102
RTVSPropertyOp19
 70
     1
102
RTVSPropertyOp20
 70
     1
102
RTVSPropertyOp21
 70
     1
102
RTVSPropertyOp22
 70
     1
102
RTVSPropertyOp23
 70
     1
102
RTVSPropertyOp24
 70
     1
102
RTVSPropertyOp25
 70
     1
102
RTVSPropertyOp26
 70
     1
102
RTVSPropertyOp27
 70
     1
102
RTVSPropertyOp28
 70
     1
102
RTVSPropertyOp29
 70
     1
102
RTVSPropertyOp30
 70
     1
102
RTVSPropertyOp31
 70
     1
102
RTVSPropertyOp32
 70
     1
102
RTVSPropertyOp33
 70
     1
102
RTVSPropertyOp34
 70
     1
102
RTVSPropertyOp35
 70
     1
102
RTVSPropertyOp36
 70
     1
102
RTVSPropertyOp37
 70
     1
102
RTVSPropertyOp38
 70
     1
102
RTVSPropertyOp39
 70
     1
102
RTVSPropertyOp40
 70
     1
102
RTVSPropertyOp41
 70
     1
102
RTVSPropertyOp42
 70
     1
102
RTVSPropertyOp43
 70
     1
102
RTVSPropertyOp44
 70
     1
102
RTVSPropertyOp45
 70
     1
102
RTVSPropertyOp46
 70
     1
102
RTVSPropertyOp47
 70
     1
102
RTVSPropertyOp48
 70
     1
102
RTVSPropertyOp49
 70
     1
102
RTVSPropertyOp50
 70
     1
102
RTVSPropertyOp51
 70
     0
102
RTVSPropertyOp52
 70
     0
102
RTVSPropertyOp53
 70
     1
102
RTVSPropertyOp54
 70
     1
102
RTVSPropertyOp55
 70
     1
102
RTVSPropertyOp56
 70
     1
102
RTVSPropertyOp57
 70
     1
102
RTVSPropertyOp58
 70
     1
102
RTVSPropertyOp59
 70
     1
102
RTVSPropertyOp60
 70
     1
102
RTVSPropertyOp61
 70
     1
102
RTVSPropertyOp62
 70
     1
  0
XRECORD
  5
4C0
102
{ACAD_REACTORS
330
4BF
102
}
330
4BF
100
AcDbXrecord
280
     1
102
RTVSPost2010Prop28
280
     0
102
RTVSPost2010PropOp28
 70
     1
102
RTVSPost2010Prop29
280
     1
102
RTVSPost2010PropOp29
 70
     1
102
RTVSPost2010Prop30
280
     1
102
RTVSPost2010PropOp30
 70
     1
102
RTVSPost2010Prop31
280
     0
102
RTVSPost2010PropOp31
 70
     1
102
RTVSPost2010Prop32
280
     0
102
RTVSPost2010PropOp32
 70
     1
102
RTVSPost2010Prop33
280
     0
102
RTVSPost2010PropOp33
 70
     1
102
RTVSPost2010Prop34
280
     0
102
RTVSPost2010PropOp34
 70
     1
102
RTVSPost2010Prop35
280
     0
102
RTVSPost2010PropOp35
 70
     1
102
RTVSPost2010Prop36
280
     0
102
RTVSPost2010PropOp36
 70
     1
102
RTVSPost2010Prop37
 90
       50
102
RTVSPost2010PropOp37
 70
     1
102
RTVSPost2010Prop38
140
0.0
102
RTVSPost2010PropOp38
 70
     1
102
RTVSPost2010Prop39
140
1.0
102
RTVSPost2010PropOp39
 70
     1
102
RTVSPost2010Prop40
 90
        0
102
RTVSPost2010PropOp40
 70
     1
102
RTVSPost2010Prop41ColorIndex
 90
       18
102
RTVSPost2010Prop41ColorRGB
 90
        0
102
RTVSPost2010PropOp41
 70
     1
102
RTVSPost2010Prop42
 90
       50
102
RTVSPost2010PropOp42
 70
     1
102
RTVSPost2010Prop43
 90
        3
102
RTVSPost2010PropOp43
 70
     1
102
RTVSPost2010Prop44ColorIndex
 90
        5
102
RTVSPost2010Prop44ColorRGB
 90
      255
102
RTVSPost2010PropOp44
 70
     1
102
RTVSPost2010Prop45
280
     0
102
RTVSPost2010PropOp45
 70
     1
102
RTVSPost2010Prop46
 90
       50
102
RTVSPost2010PropOp46
 70
     1
102
RTVSPost2010Prop47
 90
       50
102
RTVSPost2010PropOp47
 70
     1
102
RTVSPost2010Prop48
 90
       50
102
RTVSPost2010PropOp48
 70
     1
102
RTVSPost2010Prop49
280
     0
102
RTVSPost2010PropOp49
 70
     1
102
RTVSPost2010Prop50
 90
       50
102
RTVSPost2010PropOp50
 70
     1
102
RTVSPost2010Prop51ColorIndex
 90
      256
102
RTVSPost2010Prop51ColorRGB
 90
-16777216
102
RTVSPost2010PropOp51
 70
     0
102
RTVSPost2010Prop52
140
1.0
102
RTVSPost2010PropOp52
 70
     0
102
RTVSPost2010Prop53
 90
        2
102
RTVSPost2010PropOp53
 70
     1
102
RTVSPost2010Prop54
  1
strokes_ogs.tif
102
RTVSPost2010PropOp54
 70
     1
102
RTVSPost2010Prop55
280
     0
102
RTVSPost2010PropOp55
 70
     1
102
RTVSPost2010Prop56
140
1.0
102
RTVSPost2010PropOp56
 70
     1
102
RTVSPost2010Prop57
140
1.0
102
RTVSPost2010PropOp57
 70
     1
102
RTVSPropertyOp0
 70
     1
102
RTVSPropertyOp1
 70
     1
102
RTVSPropertyOp2
 70
     1
102
RTVSPropertyOp3
 70
     1
102
RTVSPropertyOp4
 70
     1
102
RTVSPropertyOp5
 70
     1
102
RTVSPropertyOp6
 70
     1
102
RTVSPropertyOp7
 70
     1
102
RTVSPropertyOp8
 70
     1
102
RTVSPropertyOp9
 70
     1
102
RTVSPropertyOp10
 70
     1
102
RTVSPropertyOp11
 70
     1
102
RTVSPropertyOp12
 70
     1
102
RTVSPropertyOp13
 70
     1
102
RTVSPropertyOp14
 70
     1
102
RTVSPropertyOp15
 70
     1
102
RTVSPropertyOp16
 70
     1
102
RTVSPropertyOp17
 70
     1
102
RTVSPropertyOp18
 70
     1
102
RTVSPropertyOp19
 70
     1
102
RTVSPropertyOp20
 70
     1
102
RTVSPropertyOp21
 70
     1
102
RTVSPropertyOp22
 70
     1
102
RTVSPropertyOp23
 70
     1
102
RTVSPropertyOp24
 70
     1
102
RTVSPropertyOp25
 70
     1
102
RTVSPropertyOp26
 70
     1
102
RTVSPropertyOp27
 70
     1
102
RTVSPropertyOp28
 70
     1
102
RTVSPropertyOp29
 70
     1
102
RTVSPropertyOp30
 70
     1
102
RTVSPropertyOp31
 70
     1
102
RTVSPropertyOp32
 70
     1
102
RTVSPropertyOp33
 70
     1
102
RTVSPropertyOp34
 70
     1
102
RTVSPropertyOp35
 70
     1
102
RTVSPropertyOp36
 70
     1
102
RTVSPropertyOp37
 70
     1
102
RTVSPropertyOp38
 70
     1
102
RTVSPropertyOp39
 70
     1
102
RTVSPropertyOp40
 70
     1
102
RTVSPropertyOp41
 70
     1
102
RTVSPropertyOp42
 70
     1
102
RTVSPropertyOp43
 70
     1
102
RTVSPropertyOp44
 70
     1
102
RTVSPropertyOp45
 70
     1
102
RTVSPropertyOp46
 70
     1
102
RTVSPropertyOp47
 70
     1
102
RTVSPropertyOp48
 70
     1
102
RTVSPropertyOp49
 70
     1
102
RTVSPropertyOp50
 70
     1
102
RTVSPropertyOp51
 70
     0
102
RTVSPropertyOp52
 70
     0
102
RTVSPropertyOp53
 70
     1
102
RTVSPropertyOp54
 70
     1
102
RTVSPropertyOp55
 70
     1
102
RTVSPropertyOp56
 70
     1
102
RTVSPropertyOp57
 70
     1
102
RTVSPropertyOp58
 70
     1
102
RTVSPropertyOp59
 70
     1
102
RTVSPropertyOp60
 70
     1
102
RTVSPropertyOp61
 70
     1
102
RTVSPropertyOp62
 70
     1
  0
XRECORD
  5
4C4
102
{ACAD_REACTORS
330
4C3
102
}
330
4C3
100
AcDbXrecord
280
     1
102
RTVSPost2010Prop28
280
     0
102
RTVSPost2010PropOp28
 70
     1
102
RTVSPost2010Prop29
280
     1
102
RTVSPost2010PropOp29
 70
     1
102
RTVSPost2010Prop30
280
     1
102
RTVSPost2010PropOp30
 70
     1
102
RTVSPost2010Prop31
280
     0
102
RTVSPost2010PropOp31
 70
     1
102
RTVSPost2010Prop32
280
     0
102
RTVSPost2010PropOp32
 70
     1
102
RTVSPost2010Prop33
280
     0
102
RTVSPost2010PropOp33
 70
     1
102
RTVSPost2010Prop34
280
     0
102
RTVSPost2010PropOp34
 70
     1
102
RTVSPost2010Prop35
280
     0
102
RTVSPost2010PropOp35
 70
     1
102
RTVSPost2010Prop36
280
     0
102
RTVSPost2010PropOp36
 70
     1
102
RTVSPost2010Prop37
 90
       50
102
RTVSPost2010PropOp37
 70
     1
102
RTVSPost2010Prop38
140
0.0
102
RTVSPost2010PropOp38
 70
     1
102
RTVSPost2010Prop39
140
1.0
102
RTVSPost2010PropOp39
 70
     1
102
RTVSPost2010Prop40
 90
        0
102
RTVSPost2010PropOp40
 70
     1
102
RTVSPost2010Prop41ColorIndex
 90
       18
102
RTVSPost2010Prop41ColorRGB
 90
        0
102
RTVSPost2010PropOp41
 70
     1
102
RTVSPost2010Prop42
 90
       50
102
RTVSPost2010PropOp42
 70
     1
102
RTVSPost2010Prop43
 90
        3
102
RTVSPost2010PropOp43
 70
     1
102
RTVSPost2010Prop44ColorIndex
 90
        5
102
RTVSPost2010Prop44ColorRGB
 90
      255
102
RTVSPost2010PropOp44
 70
     1
102
RTVSPost2010Prop45
280
     0
102
RTVSPost2010PropOp45
 70
     1
102
RTVSPost2010Prop46
 90
       50
102
RTVSPost2010PropOp46
 70
     1
102
RTVSPost2010Prop47
 90
       50
102
RTVSPost2010PropOp47
 70
     1
102
RTVSPost2010Prop48
 90
       50
102
RTVSPost2010PropOp48
 70
     1
102
RTVSPost2010Prop49
280
     0
102
RTVSPost2010PropOp49
 70
     1
102
RTVSPost2010Prop50
 90
       50
102
RTVSPost2010PropOp50
 70
     1
102
RTVSPost2010Prop51ColorIndex
 90
      256
102
RTVSPost2010Prop51ColorRGB
 90
-16777216
102
RTVSPost2010PropOp51
 70
     0
102
RTVSPost2010Prop52
140
1.0
102
RTVSPost2010PropOp52
 70
     0
102
RTVSPost2010Prop53
 90
        2
102
RTVSPost2010PropOp53
 70
     1
102
RTVSPost2010Prop54
  1
strokes_ogs.tif
102
RTVSPost2010PropOp54
 70
     1
102
RTVSPost2010Prop55
280
     0
102
RTVSPost2010PropOp55
 70
     1
102
RTVSPost2010Prop56
140
1.0
102
RTVSPost2010PropOp56
 70
     1
102
RTVSPost2010Prop57
140
1.0
102
RTVSPost2010PropOp57
 70
     1
102
RTVSPropertyOp0
 70
     1
102
RTVSPropertyOp1
 70
     1
102
RTVSPropertyOp2
 70
     1
102
RTVSPropertyOp3
 70
     1
102
RTVSPropertyOp4
 70
     1
102
RTVSPropertyOp5
 70
     1
102
RTVSPropertyOp6
 70
     1
102
RTVSPropertyOp7
 70
     1
102
RTVSPropertyOp8
 70
     1
102
RTVSPropertyOp9
 70
     1
102
RTVSPropertyOp10
 70
     1
102
RTVSPropertyOp11
 70
     1
102
RTVSPropertyOp12
 70
     1
102
RTVSPropertyOp13
 70
     1
102
RTVSPropertyOp14
 70
     1
102
RTVSPropertyOp15
 70
     1
102
RTVSPropertyOp16
 70
     1
102
RTVSPropertyOp17
 70
     1
102
RTVSPropertyOp18
 70
     1
102
RTVSPropertyOp19
 70
     1
102
RTVSPropertyOp20
 70
     1
102
RTVSPropertyOp21
 70
     1
102
RTVSPropertyOp22
 70
     1
102
RTVSPropertyOp23
 70
     1
102
RTVSPropertyOp24
 70
     1
102
RTVSPropertyOp25
 70
     1
102
RTVSPropertyOp26
 70
     1
102
RTVSPropertyOp27
 70
     1
102
RTVSPropertyOp28
 70
     1
102
RTVSPropertyOp29
 70
     1
102
RTVSPropertyOp30
 70
     1
102
RTVSPropertyOp31
 70
     1
102
RTVSPropertyOp32
 70
     1
102
RTVSPropertyOp33
 70
     1
102
RTVSPropertyOp34
 70
     1
102
RTVSPropertyOp35
 70
     1
102
RTVSPropertyOp36
 70
     1
102
RTVSPropertyOp37
 70
     1
102
RTVSPropertyOp38
 70
     1
102
RTVSPropertyOp39
 70
     1
102
RTVSPropertyOp40
 70
     1
102
RTVSPropertyOp41
 70
     1
102
RTVSPropertyOp42
 70
     1
102
RTVSPropertyOp43
 70
     1
102
RTVSPropertyOp44
 70
     1
102
RTVSPropertyOp45
 70
     1
102
RTVSPropertyOp46
 70
     1
102
RTVSPropertyOp47
 70
     1
102
RTVSPropertyOp48
 70
     1
102
RTVSPropertyOp49
 70
     1
102
RTVSPropertyOp50
 70
     1
102
RTVSPropertyOp51
 70
     0
102
RTVSPropertyOp52
 70
     0
102
RTVSPropertyOp53
 70
     1
102
RTVSPropertyOp54
 70
     1
102
RTVSPropertyOp55
 70
     1
102
RTVSPropertyOp56
 70
     1
102
RTVSPropertyOp57
 70
     1
102
RTVSPropertyOp58
 70
     1
102
RTVSPropertyOp59
 70
     1
102
RTVSPropertyOp60
 70
     1
102
RTVSPropertyOp61
 70
     1
102
RTVSPropertyOp62
 70
     1
  0
XRECORD
  5
4DE
102
{ACAD_REACTORS
330
4DD
102
}
330
4DD
100
AcDbXrecord
280
     1
102
RTVSPost2010Prop28
280
     0
102
RTVSPost2010PropOp28
 70
     0
102
RTVSPost2010Prop29
280
     1
102
RTVSPost2010PropOp29
 70
     0
102
RTVSPost2010Prop30
280
     1
102
RTVSPost2010PropOp30
 70
     0
102
RTVSPost2010Prop31
280
     0
102
RTVSPost2010PropOp31
 70
     0
102
RTVSPost2010Prop32
280
     0
102
RTVSPost2010PropOp32
 70
     0
102
RTVSPost2010Prop33
280
     0
102
RTVSPost2010PropOp33
 70
     0
102
RTVSPost2010Prop34
280
     0
102
RTVSPost2010PropOp34
 70
     0
102
RTVSPost2010Prop35
280
     0
102
RTVSPost2010PropOp35
 70
     0
102
RTVSPost2010Prop36
280
     0
102
RTVSPost2010PropOp36
 70
     0
102
RTVSPost2010Prop37
 90
       50
102
RTVSPost2010PropOp37
 70
     0
102
RTVSPost2010Prop38
140
0.0
102
RTVSPost2010PropOp38
 70
     0
102
RTVSPost2010Prop39
140
1.0
102
RTVSPost2010PropOp39
 70
     0
102
RTVSPost2010Prop40
 90
        0
102
RTVSPost2010PropOp40
 70
     0
102
RTVSPost2010Prop41ColorIndex
 90
       18
102
RTVSPost2010Prop41ColorRGB
 90
        0
102
RTVSPost2010PropOp41
 70
     0
102
RTVSPost2010Prop42
 90
       50
102
RTVSPost2010PropOp42
 70
     0
102
RTVSPost2010Prop43
 90
        3
102
RTVSPost2010PropOp43
 70
     0
102
RTVSPost2010Prop44ColorIndex
 90
        5
102
RTVSPost2010Prop44ColorRGB
 90
      255
102
RTVSPost2010PropOp44
 70
     0
102
RTVSPost2010Prop45
280
     0
102
RTVSPost2010PropOp45
 70
     0
102
RTVSPost2010Prop46
 90
       50
102
RTVSPost2010PropOp46
 70
     0
102
RTVSPost2010Prop47
 90
       50
102
RTVSPost2010PropOp47
 70
     0
102
RTVSPost2010Prop48
 90
       50
102
RTVSPost2010PropOp48
 70
     0
102
RTVSPost2010Prop49
280
     0
102
RTVSPost2010PropOp49
 70
     0
102
RTVSPost2010Prop50
 90
       50
102
RTVSPost2010PropOp50
 70
     0
102
RTVSPost2010Prop51ColorIndex
 90
      256
102
RTVSPost2010Prop51ColorRGB
 90
-16777216
102
RTVSPost2010PropOp51
 70
     0
102
RTVSPost2010Prop52
140
1.0
102
RTVSPost2010PropOp52
 70
     0
102
RTVSPost2010Prop53
 90
        2
102
RTVSPost2010PropOp53
 70
     0
102
RTVSPost2010Prop54
  1
strokes_ogs.tif
102
RTVSPost2010PropOp54
 70
     0
102
RTVSPost2010Prop55
280
     0
102
RTVSPost2010PropOp55
 70
     0
102
RTVSPost2010Prop56
140
1.0
102
RTVSPost2010PropOp56
 70
     0
102
RTVSPost2010Prop57
140
1.0
102
RTVSPost2010PropOp57
 70
     0
102
RTVSPropertyOp0
 70
     0
102
RTVSPropertyOp1
 70
     0
102
RTVSPropertyOp2
 70
     0
102
RTVSPropertyOp3
 70
     0
102
RTVSPropertyOp4
 70
     0
102
RTVSPropertyOp5
 70
     0
102
RTVSPropertyOp6
 70
     0
102
RTVSPropertyOp7
 70
     0
102
RTVSPropertyOp8
 70
     0
102
RTVSPropertyOp9
 70
     0
102
RTVSPropertyOp10
 70
     0
102
RTVSPropertyOp11
 70
     0
102
RTVSPropertyOp12
 70
     0
102
RTVSPropertyOp13
 70
     0
102
RTVSPropertyOp14
 70
     2
102
RTVSPropertyOp15
 70
     0
102
RTVSPropertyOp16
 70
     0
102
RTVSPropertyOp17
 70
     0
102
RTVSPropertyOp18
 70
     0
102
RTVSPropertyOp19
 70
     0
102
RTVSPropertyOp20
 70
     0
102
RTVSPropertyOp21
 70
     0
102
RTVSPropertyOp22
 70
     0
102
RTVSPropertyOp23
 70
     0
102
RTVSPropertyOp24
 70
     0
102
RTVSPropertyOp25
 70
     0
102
RTVSPropertyOp26
 70
     0
102
RTVSPropertyOp27
 70
     0
102
RTVSPropertyOp28
 70
     0
102
RTVSPropertyOp29
 70
     0
102
RTVSPropertyOp30
 70
     0
102
RTVSPropertyOp31
 70
     0
102
RTVSPropertyOp32
 70
     0
102
RTVSPropertyOp33
 70
     0
102
RTVSPropertyOp34
 70
     0
102
RTVSPropertyOp35
 70
     0
102
RTVSPropertyOp36
 70
     0
102
RTVSPropertyOp37
 70
     0
102
RTVSPropertyOp38
 70
     0
102
RTVSPropertyOp39
 70
     0
102
RTVSPropertyOp40
 70
     0
102
RTVSPropertyOp41
 70
     0
102
RTVSPropertyOp42
 70
     0
102
RTVSPropertyOp43
 70
     0
102
RTVSPropertyOp44
 70
     0
102
RTVSPropertyOp45
 70
     0
102
RTVSPropertyOp46
 70
     0
102
RTVSPropertyOp47
 70
     0
102
RTVSPropertyOp48
 70
     0
102
RTVSPropertyOp49
 70
     0
102
RTVSPropertyOp50
 70
     0
102
RTVSPropertyOp51
 70
     0
102
RTVSPropertyOp52
 70
     0
102
RTVSPropertyOp53
 70
     0
102
RTVSPropertyOp54
 70
     0
102
RTVSPropertyOp55
 70
     0
102
RTVSPropertyOp56
 70
     0
102
RTVSPropertyOp57
 70
     0
102
RTVSPropertyOp58
 70
     0
102
RTVSPropertyOp59
 70
     0
102
RTVSPropertyOp60
 70
     0
102
RTVSPropertyOp61
 70
     0
102
RTVSPropertyOp62
 70
     0
  0
XRECORD
  5
4CC
102
{ACAD_REACTORS
330
4CB
102
}
330
4CB
100
AcDbXrecord
280
     1
102
RTVSPost2010Prop28
280
     0
102
RTVSPost2010PropOp28
 70
     1
102
RTVSPost2010Prop29
280
     1
102
RTVSPost2010PropOp29
 70
     1
102
RTVSPost2010Prop30
280
     1
102
RTVSPost2010PropOp30
 70
     1
102
RTVSPost2010Prop31
280
     0
102
RTVSPost2010PropOp31
 70
     1
102
RTVSPost2010Prop32
280
     0
102
RTVSPost2010PropOp32
 70
     1
102
RTVSPost2010Prop33
280
     0
102
RTVSPost2010PropOp33
 70
     1
102
RTVSPost2010Prop34
280
     0
102
RTVSPost2010PropOp34
 70
     1
102
RTVSPost2010Prop35
280
     0
102
RTVSPost2010PropOp35
 70
     1
102
RTVSPost2010Prop36
280
     0
102
RTVSPost2010PropOp36
 70
     1
102
RTVSPost2010Prop37
 90
       50
102
RTVSPost2010PropOp37
 70
     1
102
RTVSPost2010Prop38
140
0.0
102
RTVSPost2010PropOp38
 70
     1
102
RTVSPost2010Prop39
140
1.0
102
RTVSPost2010PropOp39
 70
     1
102
RTVSPost2010Prop40
 90
        0
102
RTVSPost2010PropOp40
 70
     1
102
RTVSPost2010Prop41ColorIndex
 90
       18
102
RTVSPost2010Prop41ColorRGB
 90
        0
102
RTVSPost2010PropOp41
 70
     1
102
RTVSPost2010Prop42
 90
       50
102
RTVSPost2010PropOp42
 70
     1
102
RTVSPost2010Prop43
 90
        3
102
RTVSPost2010PropOp43
 70
     1
102
RTVSPost2010Prop44ColorIndex
 90
        5
102
RTVSPost2010Prop44ColorRGB
 90
      255
102
RTVSPost2010PropOp44
 70
     1
102
RTVSPost2010Prop45
280
     0
102
RTVSPost2010PropOp45
 70
     1
102
RTVSPost2010Prop46
 90
       50
102
RTVSPost2010PropOp46
 70
     1
102
RTVSPost2010Prop47
 90
       50
102
RTVSPost2010PropOp47
 70
     1
102
RTVSPost2010Prop48
 90
       50
102
RTVSPost2010PropOp48
 70
     1
102
RTVSPost2010Prop49
280
     0
102
RTVSPost2010PropOp49
 70
     1
102
RTVSPost2010Prop50
 90
       50
102
RTVSPost2010PropOp50
 70
     1
102
RTVSPost2010Prop51ColorIndex
 90
      256
102
RTVSPost2010Prop51ColorRGB
 90
-16777216
102
RTVSPost2010PropOp51
 70
     0
102
RTVSPost2010Prop52
140
1.0
102
RTVSPost2010PropOp52
 70
     0
102
RTVSPost2010Prop53
 90
        2
102
RTVSPost2010PropOp53
 70
     1
102
RTVSPost2010Prop54
  1
strokes_ogs.tif
102
RTVSPost2010PropOp54
 70
     1
102
RTVSPost2010Prop55
280
     0
102
RTVSPost2010PropOp55
 70
     1
102
RTVSPost2010Prop56
140
1.0
102
RTVSPost2010PropOp56
 70
     1
102
RTVSPost2010Prop57
140
1.0
102
RTVSPost2010PropOp57
 70
     1
102
RTVSPropertyOp0
 70
     1
102
RTVSPropertyOp1
 70
     1
102
RTVSPropertyOp2
 70
     1
102
RTVSPropertyOp3
 70
     1
102
RTVSPropertyOp4
 70
     1
102
RTVSPropertyOp5
 70
     1
102
RTVSPropertyOp6
 70
     1
102
RTVSPropertyOp7
 70
     1
102
RTVSPropertyOp8
 70
     1
102
RTVSPropertyOp9
 70
     1
102
RTVSPropertyOp10
 70
     1
102
RTVSPropertyOp11
 70
     1
102
RTVSPropertyOp12
 70
     1
102
RTVSPropertyOp13
 70
     1
102
RTVSPropertyOp14
 70
     1
102
RTVSPropertyOp15
 70
     1
102
RTVSPropertyOp16
 70
     1
102
RTVSPropertyOp17
 70
     1
102
RTVSPropertyOp18
 70
     1
102
RTVSPropertyOp19
 70
     1
102
RTVSPropertyOp20
 70
     1
102
RTVSPropertyOp21
 70
     1
102
RTVSPropertyOp22
 70
     1
102
RTVSPropertyOp23
 70
     1
102
RTVSPropertyOp24
 70
     1
102
RTVSPropertyOp25
 70
     1
102
RTVSPropertyOp26
 70
     1
102
RTVSPropertyOp27
 70
     1
102
RTVSPropertyOp28
 70
     1
102
RTVSPropertyOp29
 70
     1
102
RTVSPropertyOp30
 70
     1
102
RTVSPropertyOp31
 70
     1
102
RTVSPropertyOp32
 70
     1
102
RTVSPropertyOp33
 70
     1
102
RTVSPropertyOp34
 70
     1
102
RTVSPropertyOp35
 70
     1
102
RTVSPropertyOp36
 70
     1
102
RTVSPropertyOp37
 70
     1
102
RTVSPropertyOp38
 70
     1
102
RTVSPropertyOp39
 70
     1
102
RTVSPropertyOp40
 70
     1
102
RTVSPropertyOp41
 70
     1
102
RTVSPropertyOp42
 70
     1
102
RTVSPropertyOp43
 70
     1
102
RTVSPropertyOp44
 70
     1
102
RTVSPropertyOp45
 70
     1
102
RTVSPropertyOp46
 70
     1
102
RTVSPropertyOp47
 70
     1
102
RTVSPropertyOp48
 70
     1
102
RTVSPropertyOp49
 70
     1
102
RTVSPropertyOp50
 70
     1
102
RTVSPropertyOp51
 70
     0
102
RTVSPropertyOp52
 70
     0
102
RTVSPropertyOp53
 70
     1
102
RTVSPropertyOp54
 70
     1
102
RTVSPropertyOp55
 70
     1
102
RTVSPropertyOp56
 70
     1
102
RTVSPropertyOp57
 70
     1
102
RTVSPropertyOp58
 70
     1
102
RTVSPropertyOp59
 70
     1
102
RTVSPropertyOp60
 70
     1
102
RTVSPropertyOp61
 70
     1
102
RTVSPropertyOp62
 70
     1
  0
XRECORD
  5
4B0
102
{ACAD_REACTORS
330
4AF
102
}
330
4AF
100
AcDbXrecord
280
     1
102
RTVSPost2010Prop28
280
     0
102
RTVSPost2010PropOp28
 70
     1
102
RTVSPost2010Prop29
280
     1
102
RTVSPost2010PropOp29
 70
     1
102
RTVSPost2010Prop30
280
     1
102
RTVSPost2010PropOp30
 70
     1
102
RTVSPost2010Prop31
280
     0
102
RTVSPost2010PropOp31
 70
     1
102
RTVSPost2010Prop32
280
     0
102
RTVSPost2010PropOp32
 70
     1
102
RTVSPost2010Prop33
280
     0
102
RTVSPost2010PropOp33
 70
     1
102
RTVSPost2010Prop34
280
     0
102
RTVSPost2010PropOp34
 70
     1
102
RTVSPost2010Prop35
280
     0
102
RTVSPost2010PropOp35
 70
     1
102
RTVSPost2010Prop36
280
     0
102
RTVSPost2010PropOp36
 70
     1
102
RTVSPost2010Prop37
 90
       50
102
RTVSPost2010PropOp37
 70
     1
102
RTVSPost2010Prop38
140
0.0
102
RTVSPost2010PropOp38
 70
     1
102
RTVSPost2010Prop39
140
1.0
102
RTVSPost2010PropOp39
 70
     1
102
RTVSPost2010Prop40
 90
        0
102
RTVSPost2010PropOp40
 70
     1
102
RTVSPost2010Prop41ColorIndex
 90
       18
102
RTVSPost2010Prop41ColorRGB
 90
        0
102
RTVSPost2010PropOp41
 70
     1
102
RTVSPost2010Prop42
 90
       50
102
RTVSPost2010PropOp42
 70
     1
102
RTVSPost2010Prop43
 90
        3
102
RTVSPost2010PropOp43
 70
     1
102
RTVSPost2010Prop44ColorIndex
 90
        5
102
RTVSPost2010Prop44ColorRGB
 90
      255
102
RTVSPost2010PropOp44
 70
     1
102
RTVSPost2010Prop45
280
     0
102
RTVSPost2010PropOp45
 70
     1
102
RTVSPost2010Prop46
 90
       50
102
RTVSPost2010PropOp46
 70
     1
102
RTVSPost2010Prop47
 90
       50
102
RTVSPost2010PropOp47
 70
     1
102
RTVSPost2010Prop48
 90
       50
102
RTVSPost2010PropOp48
 70
     1
102
RTVSPost2010Prop49
280
     0
102
RTVSPost2010PropOp49
 70
     1
102
RTVSPost2010Prop50
 90
       50
102
RTVSPost2010PropOp50
 70
     1
102
RTVSPost2010Prop51ColorIndex
 90
      256
102
RTVSPost2010Prop51ColorRGB
 90
-16777216
102
RTVSPost2010PropOp51
 70
     0
102
RTVSPost2010Prop52
140
1.0
102
RTVSPost2010PropOp52
 70
     0
102
RTVSPost2010Prop53
 90
        2
102
RTVSPost2010PropOp53
 70
     1
102
RTVSPost2010Prop54
  1
strokes_ogs.tif
102
RTVSPost2010PropOp54
 70
     1
102
RTVSPost2010Prop55
280
     0
102
RTVSPost2010PropOp55
 70
     1
102
RTVSPost2010Prop56
140
1.0
102
RTVSPost2010PropOp56
 70
     1
102
RTVSPost2010Prop57
140
1.0
102
RTVSPost2010PropOp57
 70
     1
102
RTVSPropertyOp0
 70
     1
102
RTVSPropertyOp1
 70
     1
102
RTVSPropertyOp2
 70
     1
102
RTVSPropertyOp3
 70
     1
102
RTVSPropertyOp4
 70
     1
102
RTVSPropertyOp5
 70
     1
102
RTVSPropertyOp6
 70
     1
102
RTVSPropertyOp7
 70
     1
102
RTVSPropertyOp8
 70
     1
102
RTVSPropertyOp9
 70
     1
102
RTVSPropertyOp10
 70
     1
102
RTVSPropertyOp11
 70
     1
102
RTVSPropertyOp12
 70
     1
102
RTVSPropertyOp13
 70
     1
102
RTVSPropertyOp14
 70
     1
102
RTVSPropertyOp15
 70
     1
102
RTVSPropertyOp16
 70
     1
102
RTVSPropertyOp17
 70
     1
102
RTVSPropertyOp18
 70
     1
102
RTVSPropertyOp19
 70
     1
102
RTVSPropertyOp20
 70
     1
102
RTVSPropertyOp21
 70
     1
102
RTVSPropertyOp22
 70
     1
102
RTVSPropertyOp23
 70
     1
102
RTVSPropertyOp24
 70
     1
102
RTVSPropertyOp25
 70
     1
102
RTVSPropertyOp26
 70
     1
102
RTVSPropertyOp27
 70
     1
102
RTVSPropertyOp28
 70
     1
102
RTVSPropertyOp29
 70
     1
102
RTVSPropertyOp30
 70
     1
102
RTVSPropertyOp31
 70
     1
102
RTVSPropertyOp32
 70
     1
102
RTVSPropertyOp33
 70
     1
102
RTVSPropertyOp34
 70
     1
102
RTVSPropertyOp35
 70
     1
102
RTVSPropertyOp36
 70
     1
102
RTVSPropertyOp37
 70
     1
102
RTVSPropertyOp38
 70
     1
102
RTVSPropertyOp39
 70
     1
102
RTVSPropertyOp40
 70
     1
102
RTVSPropertyOp41
 70
     1
102
RTVSPropertyOp42
 70
     1
102
RTVSPropertyOp43
 70
     1
102
RTVSPropertyOp44
 70
     1
102
RTVSPropertyOp45
 70
     1
102
RTVSPropertyOp46
 70
     1
102
RTVSPropertyOp47
 70
     1
102
RTVSPropertyOp48
 70
     1
102
RTVSPropertyOp49
 70
     1
102
RTVSPropertyOp50
 70
     1
102
RTVSPropertyOp51
 70
     0
102
RTVSPropertyOp52
 70
     0
102
RTVSPropertyOp53
 70
     1
102
RTVSPropertyOp54
 70
     1
102
RTVSPropertyOp55
 70
     1
102
RTVSPropertyOp56
 70
     1
102
RTVSPropertyOp57
 70
     1
102
RTVSPropertyOp58
 70
     1
102
RTVSPropertyOp59
 70
     1
102
RTVSPropertyOp60
 70
     1
102
RTVSPropertyOp61
 70
     1
102
RTVSPropertyOp62
 70
     1
  0
XRECORD
  5
4B2
102
{ACAD_REACTORS
330
4B1
102
}
330
4B1
100
AcDbXrecord
280
     1
102
RTVSPost2010Prop28
280
     0
102
RTVSPost2010PropOp28
 70
     1
102
RTVSPost2010Prop29
280
     1
102
RTVSPost2010PropOp29
 70
     1
102
RTVSPost2010Prop30
280
     1
102
RTVSPost2010PropOp30
 70
     1
102
RTVSPost2010Prop31
280
     0
102
RTVSPost2010PropOp31
 70
     1
102
RTVSPost2010Prop32
280
     0
102
RTVSPost2010PropOp32
 70
     1
102
RTVSPost2010Prop33
280
     0
102
RTVSPost2010PropOp33
 70
     1
102
RTVSPost2010Prop34
280
     0
102
RTVSPost2010PropOp34
 70
     1
102
RTVSPost2010Prop35
280
     0
102
RTVSPost2010PropOp35
 70
     1
102
RTVSPost2010Prop36
280
     0
102
RTVSPost2010PropOp36
 70
     1
102
RTVSPost2010Prop37
 90
       50
102
RTVSPost2010PropOp37
 70
     1
102
RTVSPost2010Prop38
140
0.0
102
RTVSPost2010PropOp38
 70
     1
102
RTVSPost2010Prop39
140
1.0
102
RTVSPost2010PropOp39
 70
     1
102
RTVSPost2010Prop40
 90
        0
102
RTVSPost2010PropOp40
 70
     1
102
RTVSPost2010Prop41ColorIndex
 90
       18
102
RTVSPost2010Prop41ColorRGB
 90
        0
102
RTVSPost2010PropOp41
 70
     1
102
RTVSPost2010Prop42
 90
       50
102
RTVSPost2010PropOp42
 70
     1
102
RTVSPost2010Prop43
 90
        3
102
RTVSPost2010PropOp43
 70
     1
102
RTVSPost2010Prop44ColorIndex
 90
        5
102
RTVSPost2010Prop44ColorRGB
 90
      255
102
RTVSPost2010PropOp44
 70
     1
102
RTVSPost2010Prop45
280
     0
102
RTVSPost2010PropOp45
 70
     1
102
RTVSPost2010Prop46
 90
       50
102
RTVSPost2010PropOp46
 70
     1
102
RTVSPost2010Prop47
 90
       50
102
RTVSPost2010PropOp47
 70
     1
102
RTVSPost2010Prop48
 90
       50
102
RTVSPost2010PropOp48
 70
     1
102
RTVSPost2010Prop49
280
     0
102
RTVSPost2010PropOp49
 70
     1
102
RTVSPost2010Prop50
 90
       50
102
RTVSPost2010PropOp50
 70
     1
102
RTVSPost2010Prop51ColorIndex
 90
      256
102
RTVSPost2010Prop51ColorRGB
 90
-16777216
102
RTVSPost2010PropOp51
 70
     0
102
RTVSPost2010Prop52
140
1.0
102
RTVSPost2010PropOp52
 70
     0
102
RTVSPost2010Prop53
 90
        2
102
RTVSPost2010PropOp53
 70
     1
102
RTVSPost2010Prop54
  1
strokes_ogs.tif
102
RTVSPost2010PropOp54
 70
     1
102
RTVSPost2010Prop55
280
     0
102
RTVSPost2010PropOp55
 70
     1
102
RTVSPost2010Prop56
140
1.0
102
RTVSPost2010PropOp56
 70
     1
102
RTVSPost2010Prop57
140
1.0
102
RTVSPost2010PropOp57
 70
     1
102
RTVSPropertyOp0
 70
     1
102
RTVSPropertyOp1
 70
     1
102
RTVSPropertyOp2
 70
     1
102
RTVSPropertyOp3
 70
     1
102
RTVSPropertyOp4
 70
     1
102
RTVSPropertyOp5
 70
     1
102
RTVSPropertyOp6
 70
     1
102
RTVSPropertyOp7
 70
     1
102
RTVSPropertyOp8
 70
     1
102
RTVSPropertyOp9
 70
     1
102
RTVSPropertyOp10
 70
     1
102
RTVSPropertyOp11
 70
     1
102
RTVSPropertyOp12
 70
     1
102
RTVSPropertyOp13
 70
     1
102
RTVSPropertyOp14
 70
     1
102
RTVSPropertyOp15
 70
     1
102
RTVSPropertyOp16
 70
     1
102
RTVSPropertyOp17
 70
     1
102
RTVSPropertyOp18
 70
     1
102
RTVSPropertyOp19
 70
     1
102
RTVSPropertyOp20
 70
     1
102
RTVSPropertyOp21
 70
     1
102
RTVSPropertyOp22
 70
     1
102
RTVSPropertyOp23
 70
     1
102
RTVSPropertyOp24
 70
     1
102
RTVSPropertyOp25
 70
     1
102
RTVSPropertyOp26
 70
     1
102
RTVSPropertyOp27
 70
     1
102
RTVSPropertyOp28
 70
     1
102
RTVSPropertyOp29
 70
     1
102
RTVSPropertyOp30
 70
     1
102
RTVSPropertyOp31
 70
     1
102
RTVSPropertyOp32
 70
     1
102
RTVSPropertyOp33
 70
     1
102
RTVSPropertyOp34
 70
     1
102
RTVSPropertyOp35
 70
     1
102
RTVSPropertyOp36
 70
     1
102
RTVSPropertyOp37
 70
     1
102
RTVSPropertyOp38
 70
     1
102
RTVSPropertyOp39
 70
     1
102
RTVSPropertyOp40
 70
     1
102
RTVSPropertyOp41
 70
     1
102
RTVSPropertyOp42
 70
     1
102
RTVSPropertyOp43
 70
     1
102
RTVSPropertyOp44
 70
     1
102
RTVSPropertyOp45
 70
     1
102
RTVSPropertyOp46
 70
     1
102
RTVSPropertyOp47
 70
     1
102
RTVSPropertyOp48
 70
     1
102
RTVSPropertyOp49
 70
     1
102
RTVSPropertyOp50
 70
     1
102
RTVSPropertyOp51
 70
     0
102
RTVSPropertyOp52
 70
     0
102
RTVSPropertyOp53
 70
     1
102
RTVSPropertyOp54
 70
     1
102
RTVSPropertyOp55
 70
     1
102
RTVSPropertyOp56
 70
     1
102
RTVSPropertyOp57
 70
     1
102
RTVSPropertyOp58
 70
     1
102
RTVSPropertyOp59
 70
     1
102
RTVSPropertyOp60
 70
     1
102
RTVSPropertyOp61
 70
     1
102
RTVSPropertyOp62
 70
     1
  0
XRECORD
  5
4B4
102
{ACAD_REACTORS
330
4B3
102
}
330
4B3
100
AcDbXrecord
280
     1
102
RTVSPost2010Prop28
280
     0
102
RTVSPost2010PropOp28
 70
     1
102
RTVSPost2010Prop29
280
     1
102
RTVSPost2010PropOp29
 70
     1
102
RTVSPost2010Prop30
280
     1
102
RTVSPost2010PropOp30
 70
     1
102
RTVSPost2010Prop31
280
     0
102
RTVSPost2010PropOp31
 70
     1
102
RTVSPost2010Prop32
280
     0
102
RTVSPost2010PropOp32
 70
     1
102
RTVSPost2010Prop33
280
     0
102
RTVSPost2010PropOp33
 70
     1
102
RTVSPost2010Prop34
280
     0
102
RTVSPost2010PropOp34
 70
     1
102
RTVSPost2010Prop35
280
     0
102
RTVSPost2010PropOp35
 70
     1
102
RTVSPost2010Prop36
280
     0
102
RTVSPost2010PropOp36
 70
     1
102
RTVSPost2010Prop37
 90
       50
102
RTVSPost2010PropOp37
 70
     1
102
RTVSPost2010Prop38
140
0.0
102
RTVSPost2010PropOp38
 70
     1
102
RTVSPost2010Prop39
140
1.0
102
RTVSPost2010PropOp39
 70
     1
102
RTVSPost2010Prop40
 90
        0
102
RTVSPost2010PropOp40
 70
     1
102
RTVSPost2010Prop41ColorIndex
 90
       18
102
RTVSPost2010Prop41ColorRGB
 90
        0
102
RTVSPost2010PropOp41
 70
     1
102
RTVSPost2010Prop42
 90
       50
102
RTVSPost2010PropOp42
 70
     1
102
RTVSPost2010Prop43
 90
        3
102
RTVSPost2010PropOp43
 70
     1
102
RTVSPost2010Prop44ColorIndex
 90
        5
102
RTVSPost2010Prop44ColorRGB
 90
      255
102
RTVSPost2010PropOp44
 70
     1
102
RTVSPost2010Prop45
280
     0
102
RTVSPost2010PropOp45
 70
     1
102
RTVSPost2010Prop46
 90
       50
102
RTVSPost2010PropOp46
 70
     1
102
RTVSPost2010Prop47
 90
       50
102
RTVSPost2010PropOp47
 70
     1
102
RTVSPost2010Prop48
 90
       50
102
RTVSPost2010PropOp48
 70
     1
102
RTVSPost2010Prop49
280
     0
102
RTVSPost2010PropOp49
 70
     1
102
RTVSPost2010Prop50
 90
       50
102
RTVSPost2010PropOp50
 70
     1
102
RTVSPost2010Prop51ColorIndex
 90
      256
102
RTVSPost2010Prop51ColorRGB
 90
-16777216
102
RTVSPost2010PropOp51
 70
     0
102
RTVSPost2010Prop52
140
1.0
102
RTVSPost2010PropOp52
 70
     0
102
RTVSPost2010Prop53
 90
        2
102
RTVSPost2010PropOp53
 70
     1
102
RTVSPost2010Prop54
  1
strokes_ogs.tif
102
RTVSPost2010PropOp54
 70
     1
102
RTVSPost2010Prop55
280
     0
102
RTVSPost2010PropOp55
 70
     1
102
RTVSPost2010Prop56
140
1.0
102
RTVSPost2010PropOp56
 70
     1
102
RTVSPost2010Prop57
140
1.0
102
RTVSPost2010PropOp57
 70
     1
102
RTVSPropertyOp0
 70
     1
102
RTVSPropertyOp1
 70
     1
102
RTVSPropertyOp2
 70
     1
102
RTVSPropertyOp3
 70
     1
102
RTVSPropertyOp4
 70
     1
102
RTVSPropertyOp5
 70
     1
102
RTVSPropertyOp6
 70
     1
102
RTVSPropertyOp7
 70
     1
102
RTVSPropertyOp8
 70
     1
102
RTVSPropertyOp9
 70
     1
102
RTVSPropertyOp10
 70
     1
102
RTVSPropertyOp11
 70
     1
102
RTVSPropertyOp12
 70
     1
102
RTVSPropertyOp13
 70
     1
102
RTVSPropertyOp14
 70
     1
102
RTVSPropertyOp15
 70
     1
102
RTVSPropertyOp16
 70
     1
102
RTVSPropertyOp17
 70
     1
102
RTVSPropertyOp18
 70
     1
102
RTVSPropertyOp19
 70
     1
102
RTVSPropertyOp20
 70
     1
102
RTVSPropertyOp21
 70
     1
102
RTVSPropertyOp22
 70
     1
102
RTVSPropertyOp23
 70
     1
102
RTVSPropertyOp24
 70
     1
102
RTVSPropertyOp25
 70
     1
102
RTVSPropertyOp26
 70
     1
102
RTVSPropertyOp27
 70
     1
102
RTVSPropertyOp28
 70
     1
102
RTVSPropertyOp29
 70
     1
102
RTVSPropertyOp30
 70
     1
102
RTVSPropertyOp31
 70
     1
102
RTVSPropertyOp32
 70
     1
102
RTVSPropertyOp33
 70
     1
102
RTVSPropertyOp34
 70
     1
102
RTVSPropertyOp35
 70
     1
102
RTVSPropertyOp36
 70
     1
102
RTVSPropertyOp37
 70
     1
102
RTVSPropertyOp38
 70
     1
102
RTVSPropertyOp39
 70
     1
102
RTVSPropertyOp40
 70
     1
102
RTVSPropertyOp41
 70
     1
102
RTVSPropertyOp42
 70
     1
102
RTVSPropertyOp43
 70
     1
102
RTVSPropertyOp44
 70
     1
102
RTVSPropertyOp45
 70
     1
102
RTVSPropertyOp46
 70
     1
102
RTVSPropertyOp47
 70
     1
102
RTVSPropertyOp48
 70
     1
102
RTVSPropertyOp49
 70
     1
102
RTVSPropertyOp50
 70
     1
102
RTVSPropertyOp51
 70
     0
102
RTVSPropertyOp52
 70
     0
102
RTVSPropertyOp53
 70
     1
102
RTVSPropertyOp54
 70
     1
102
RTVSPropertyOp55
 70
     1
102
RTVSPropertyOp56
 70
     1
102
RTVSPropertyOp57
 70
     1
102
RTVSPropertyOp58
 70
     1
102
RTVSPropertyOp59
 70
     1
102
RTVSPropertyOp60
 70
     1
102
RTVSPropertyOp61
 70
     1
102
RTVSPropertyOp62
 70
     1
  0
XRECORD
  5
4B6
102
{ACAD_REACTORS
330
4B5
102
}
330
4B5
100
AcDbXrecord
280
     1
102
RTVSPost2010Prop28
280
     0
102
RTVSPost2010PropOp28
 70
     1
102
RTVSPost2010Prop29
280
     1
102
RTVSPost2010PropOp29
 70
     1
102
RTVSPost2010Prop30
280
     1
102
RTVSPost2010PropOp30
 70
     1
102
RTVSPost2010Prop31
280
     0
102
RTVSPost2010PropOp31
 70
     1
102
RTVSPost2010Prop32
280
     0
102
RTVSPost2010PropOp32
 70
     1
102
RTVSPost2010Prop33
280
     0
102
RTVSPost2010PropOp33
 70
     1
102
RTVSPost2010Prop34
280
     0
102
RTVSPost2010PropOp34
 70
     1
102
RTVSPost2010Prop35
280
     0
102
RTVSPost2010PropOp35
 70
     1
102
RTVSPost2010Prop36
280
     0
102
RTVSPost2010PropOp36
 70
     1
102
RTVSPost2010Prop37
 90
       50
102
RTVSPost2010PropOp37
 70
     1
102
RTVSPost2010Prop38
140
0.0
102
RTVSPost2010PropOp38
 70
     1
102
RTVSPost2010Prop39
140
1.0
102
RTVSPost2010PropOp39
 70
     1
102
RTVSPost2010Prop40
 90
        0
102
RTVSPost2010PropOp40
 70
     1
102
RTVSPost2010Prop41ColorIndex
 90
       18
102
RTVSPost2010Prop41ColorRGB
 90
        0
102
RTVSPost2010PropOp41
 70
     1
102
RTVSPost2010Prop42
 90
       50
102
RTVSPost2010PropOp42
 70
     1
102
RTVSPost2010Prop43
 90
        3
102
RTVSPost2010PropOp43
 70
     1
102
RTVSPost2010Prop44ColorIndex
 90
        5
102
RTVSPost2010Prop44ColorRGB
 90
      255
102
RTVSPost2010PropOp44
 70
     1
102
RTVSPost2010Prop45
280
     0
102
RTVSPost2010PropOp45
 70
     1
102
RTVSPost2010Prop46
 90
       50
102
RTVSPost2010PropOp46
 70
     1
102
RTVSPost2010Prop47
 90
       50
102
RTVSPost2010PropOp47
 70
     1
102
RTVSPost2010Prop48
 90
       50
102
RTVSPost2010PropOp48
 70
     1
102
RTVSPost2010Prop49
280
     0
102
RTVSPost2010PropOp49
 70
     1
102
RTVSPost2010Prop50
 90
       50
102
RTVSPost2010PropOp50
 70
     1
102
RTVSPost2010Prop51ColorIndex
 90
      256
102
RTVSPost2010Prop51ColorRGB
 90
-16777216
102
RTVSPost2010PropOp51
 70
     0
102
RTVSPost2010Prop52
140
1.0
102
RTVSPost2010PropOp52
 70
     0
102
RTVSPost2010Prop53
 90
        2
102
RTVSPost2010PropOp53
 70
     1
102
RTVSPost2010Prop54
  1
strokes_ogs.tif
102
RTVSPost2010PropOp54
 70
     1
102
RTVSPost2010Prop55
280
     0
102
RTVSPost2010PropOp55
 70
     1
102
RTVSPost2010Prop56
140
1.0
102
RTVSPost2010PropOp56
 70
     1
102
RTVSPost2010Prop57
140
1.0
102
RTVSPost2010PropOp57
 70
     1
102
RTVSPropertyOp0
 70
     1
102
RTVSPropertyOp1
 70
     1
102
RTVSPropertyOp2
 70
     1
102
RTVSPropertyOp3
 70
     1
102
RTVSPropertyOp4
 70
     1
102
RTVSPropertyOp5
 70
     1
102
RTVSPropertyOp6
 70
     1
102
RTVSPropertyOp7
 70
     1
102
RTVSPropertyOp8
 70
     1
102
RTVSPropertyOp9
 70
     1
102
RTVSPropertyOp10
 70
     1
102
RTVSPropertyOp11
 70
     1
102
RTVSPropertyOp12
 70
     1
102
RTVSPropertyOp13
 70
     1
102
RTVSPropertyOp14
 70
     1
102
RTVSPropertyOp15
 70
     1
102
RTVSPropertyOp16
 70
     1
102
RTVSPropertyOp17
 70
     1
102
RTVSPropertyOp18
 70
     1
102
RTVSPropertyOp19
 70
     1
102
RTVSPropertyOp20
 70
     1
102
RTVSPropertyOp21
 70
     1
102
RTVSPropertyOp22
 70
     1
102
RTVSPropertyOp23
 70
     1
102
RTVSPropertyOp24
 70
     1
102
RTVSPropertyOp25
 70
     1
102
RTVSPropertyOp26
 70
     1
102
RTVSPropertyOp27
 70
     1
102
RTVSPropertyOp28
 70
     1
102
RTVSPropertyOp29
 70
     1
102
RTVSPropertyOp30
 70
     1
102
RTVSPropertyOp31
 70
     1
102
RTVSPropertyOp32
 70
     1
102
RTVSPropertyOp33
 70
     1
102
RTVSPropertyOp34
 70
     1
102
RTVSPropertyOp35
 70
     1
102
RTVSPropertyOp36
 70
     1
102
RTVSPropertyOp37
 70
     1
102
RTVSPropertyOp38
 70
     1
102
RTVSPropertyOp39
 70
     1
102
RTVSPropertyOp40
 70
     1
102
RTVSPropertyOp41
 70
     1
102
RTVSPropertyOp42
 70
     1
102
RTVSPropertyOp43
 70
     1
102
RTVSPropertyOp44
 70
     1
102
RTVSPropertyOp45
 70
     1
102
RTVSPropertyOp46
 70
     1
102
RTVSPropertyOp47
 70
     1
102
RTVSPropertyOp48
 70
     1
102
RTVSPropertyOp49
 70
     1
102
RTVSPropertyOp50
 70
     1
102
RTVSPropertyOp51
 70
     0
102
RTVSPropertyOp52
 70
     0
102
RTVSPropertyOp53
 70
     1
102
RTVSPropertyOp54
 70
     1
102
RTVSPropertyOp55
 70
     1
102
RTVSPropertyOp56
 70
     1
102
RTVSPropertyOp57
 70
     1
102
RTVSPropertyOp58
 70
     1
102
RTVSPropertyOp59
 70
     1
102
RTVSPropertyOp60
 70
     1
102
RTVSPropertyOp61
 70
     1
102
RTVSPropertyOp62
 70
     1
  0
XRECORD
  5
4BE
102
{ACAD_REACTORS
330
4BD
102
}
330
4BD
100
AcDbXrecord
280
     1
102
RTVSPost2010Prop28
280
     0
102
RTVSPost2010PropOp28
 70
     1
102
RTVSPost2010Prop29
280
     1
102
RTVSPost2010PropOp29
 70
     1
102
RTVSPost2010Prop30
280
     1
102
RTVSPost2010PropOp30
 70
     1
102
RTVSPost2010Prop31
280
     0
102
RTVSPost2010PropOp31
 70
     1
102
RTVSPost2010Prop32
280
     0
102
RTVSPost2010PropOp32
 70
     1
102
RTVSPost2010Prop33
280
     0
102
RTVSPost2010PropOp33
 70
     1
102
RTVSPost2010Prop34
280
     0
102
RTVSPost2010PropOp34
 70
     1
102
RTVSPost2010Prop35
280
     0
102
RTVSPost2010PropOp35
 70
     1
102
RTVSPost2010Prop36
280
     0
102
RTVSPost2010PropOp36
 70
     1
102
RTVSPost2010Prop37
 90
       50
102
RTVSPost2010PropOp37
 70
     1
102
RTVSPost2010Prop38
140
0.0
102
RTVSPost2010PropOp38
 70
     1
102
RTVSPost2010Prop39
140
1.0
102
RTVSPost2010PropOp39
 70
     1
102
RTVSPost2010Prop40
 90
        0
102
RTVSPost2010PropOp40
 70
     1
102
RTVSPost2010Prop41ColorIndex
 90
       18
102
RTVSPost2010Prop41ColorRGB
 90
        0
102
RTVSPost2010PropOp41
 70
     1
102
RTVSPost2010Prop42
 90
       50
102
RTVSPost2010PropOp42
 70
     1
102
RTVSPost2010Prop43
 90
        3
102
RTVSPost2010PropOp43
 70
     1
102
RTVSPost2010Prop44ColorIndex
 90
        5
102
RTVSPost2010Prop44ColorRGB
 90
      255
102
RTVSPost2010PropOp44
 70
     1
102
RTVSPost2010Prop45
280
     0
102
RTVSPost2010PropOp45
 70
     1
102
RTVSPost2010Prop46
 90
       50
102
RTVSPost2010PropOp46
 70
     1
102
RTVSPost2010Prop47
 90
       50
102
RTVSPost2010PropOp47
 70
     1
102
RTVSPost2010Prop48
 90
       50
102
RTVSPost2010PropOp48
 70
     1
102
RTVSPost2010Prop49
280
     0
102
RTVSPost2010PropOp49
 70
     1
102
RTVSPost2010Prop50
 90
       50
102
RTVSPost2010PropOp50
 70
     1
102
RTVSPost2010Prop51ColorIndex
 90
      256
102
RTVSPost2010Prop51ColorRGB
 90
-16777216
102
RTVSPost2010PropOp51
 70
     0
102
RTVSPost2010Prop52
140
1.0
102
RTVSPost2010PropOp52
 70
     0
102
RTVSPost2010Prop53
 90
        2
102
RTVSPost2010PropOp53
 70
     1
102
RTVSPost2010Prop54
  1
strokes_ogs.tif
102
RTVSPost2010PropOp54
 70
     1
102
RTVSPost2010Prop55
280
     0
102
RTVSPost2010PropOp55
 70
     1
102
RTVSPost2010Prop56
140
1.0
102
RTVSPost2010PropOp56
 70
     1
102
RTVSPost2010Prop57
140
1.0
102
RTVSPost2010PropOp57
 70
     1
102
RTVSPropertyOp0
 70
     1
102
RTVSPropertyOp1
 70
     1
102
RTVSPropertyOp2
 70
     1
102
RTVSPropertyOp3
 70
     1
102
RTVSPropertyOp4
 70
     1
102
RTVSPropertyOp5
 70
     1
102
RTVSPropertyOp6
 70
     1
102
RTVSPropertyOp7
 70
     1
102
RTVSPropertyOp8
 70
     1
102
RTVSPropertyOp9
 70
     1
102
RTVSPropertyOp10
 70
     1
102
RTVSPropertyOp11
 70
     1
102
RTVSPropertyOp12
 70
     1
102
RTVSPropertyOp13
 70
     1
102
RTVSPropertyOp14
 70
     1
102
RTVSPropertyOp15
 70
     1
102
RTVSPropertyOp16
 70
     1
102
RTVSPropertyOp17
 70
     1
102
RTVSPropertyOp18
 70
     1
102
RTVSPropertyOp19
 70
     1
102
RTVSPropertyOp20
 70
     1
102
RTVSPropertyOp21
 70
     1
102
RTVSPropertyOp22
 70
     1
102
RTVSPropertyOp23
 70
     1
102
RTVSPropertyOp24
 70
     1
102
RTVSPropertyOp25
 70
     1
102
RTVSPropertyOp26
 70
     1
102
RTVSPropertyOp27
 70
     1
102
RTVSPropertyOp28
 70
     1
102
RTVSPropertyOp29
 70
     1
102
RTVSPropertyOp30
 70
     1
102
RTVSPropertyOp31
 70
     1
102
RTVSPropertyOp32
 70
     1
102
RTVSPropertyOp33
 70
     1
102
RTVSPropertyOp34
 70
     1
102
RTVSPropertyOp35
 70
     1
102
RTVSPropertyOp36
 70
     1
102
RTVSPropertyOp37
 70
     1
102
RTVSPropertyOp38
 70
     1
102
RTVSPropertyOp39
 70
     1
102
RTVSPropertyOp40
 70
     1
102
RTVSPropertyOp41
 70
     1
102
RTVSPropertyOp42
 70
     1
102
RTVSPropertyOp43
 70
     1
102
RTVSPropertyOp44
 70
     1
102
RTVSPropertyOp45
 70
     1
102
RTVSPropertyOp46
 70
     1
102
RTVSPropertyOp47
 70
     1
102
RTVSPropertyOp48
 70
     1
102
RTVSPropertyOp49
 70
     1
102
RTVSPropertyOp50
 70
     1
102
RTVSPropertyOp51
 70
     0
102
RTVSPropertyOp52
 70
     0
102
RTVSPropertyOp53
 70
     1
102
RTVSPropertyOp54
 70
     1
102
RTVSPropertyOp55
 70
     1
102
RTVSPropertyOp56
 70
     1
102
RTVSPropertyOp57
 70
     1
102
RTVSPropertyOp58
 70
     1
102
RTVSPropertyOp59
 70
     1
102
RTVSPropertyOp60
 70
     1
102
RTVSPropertyOp61
 70
     1
102
RTVSPropertyOp62
 70
     1
  0
XRECORD
  5
4DA
102
{ACAD_REACTORS
330
4D9
102
}
330
4D9
100
AcDbXrecord
280
     1
102
RTVSPost2010Prop28
280
     0
102
RTVSPost2010PropOp28
 70
     0
102
RTVSPost2010Prop29
280
     1
102
RTVSPost2010PropOp29
 70
     0
102
RTVSPost2010Prop30
280
     1
102
RTVSPost2010PropOp30
 70
     0
102
RTVSPost2010Prop31
280
     0
102
RTVSPost2010PropOp31
 70
     0
102
RTVSPost2010Prop32
280
     0
102
RTVSPost2010PropOp32
 70
     0
102
RTVSPost2010Prop33
280
     0
102
RTVSPost2010PropOp33
 70
     0
102
RTVSPost2010Prop34
280
     0
102
RTVSPost2010PropOp34
 70
     0
102
RTVSPost2010Prop35
280
     0
102
RTVSPost2010PropOp35
 70
     0
102
RTVSPost2010Prop36
280
     0
102
RTVSPost2010PropOp36
 70
     0
102
RTVSPost2010Prop37
 90
       50
102
RTVSPost2010PropOp37
 70
     0
102
RTVSPost2010Prop38
140
0.0
102
RTVSPost2010PropOp38
 70
     0
102
RTVSPost2010Prop39
140
1.0
102
RTVSPost2010PropOp39
 70
     0
102
RTVSPost2010Prop40
 90
        0
102
RTVSPost2010PropOp40
 70
     0
102
RTVSPost2010Prop41ColorIndex
 90
       18
102
RTVSPost2010Prop41ColorRGB
 90
        0
102
RTVSPost2010PropOp41
 70
     0
102
RTVSPost2010Prop42
 90
       50
102
RTVSPost2010PropOp42
 70
     0
102
RTVSPost2010Prop43
 90
        3
102
RTVSPost2010PropOp43
 70
     0
102
RTVSPost2010Prop44ColorIndex
 90
        5
102
RTVSPost2010Prop44ColorRGB
 90
      255
102
RTVSPost2010PropOp44
 70
     0
102
RTVSPost2010Prop45
280
     0
102
RTVSPost2010PropOp45
 70
     0
102
RTVSPost2010Prop46
 90
       50
102
RTVSPost2010PropOp46
 70
     0
102
RTVSPost2010Prop47
 90
       50
102
RTVSPost2010PropOp47
 70
     0
102
RTVSPost2010Prop48
 90
       50
102
RTVSPost2010PropOp48
 70
     0
102
RTVSPost2010Prop49
280
     0
102
RTVSPost2010PropOp49
 70
     0
102
RTVSPost2010Prop50
 90
       50
102
RTVSPost2010PropOp50
 70
     0
102
RTVSPost2010Prop51ColorIndex
 90
      256
102
RTVSPost2010Prop51ColorRGB
 90
-16777216
102
RTVSPost2010PropOp51
 70
     0
102
RTVSPost2010Prop52
140
1.0
102
RTVSPost2010PropOp52
 70
     0
102
RTVSPost2010Prop53
 90
        2
102
RTVSPost2010PropOp53
 70
     0
102
RTVSPost2010Prop54
  1
strokes_ogs.tif
102
RTVSPost2010PropOp54
 70
     0
102
RTVSPost2010Prop55
280
     0
102
RTVSPost2010PropOp55
 70
     0
102
RTVSPost2010Prop56
140
1.0
102
RTVSPost2010PropOp56
 70
     0
102
RTVSPost2010Prop57
140
1.0
102
RTVSPost2010PropOp57
 70
     0
102
RTVSPropertyOp0
 70
     0
102
RTVSPropertyOp1
 70
     0
102
RTVSPropertyOp2
 70
     0
102
RTVSPropertyOp3
 70
     0
102
RTVSPropertyOp4
 70
     0
102
RTVSPropertyOp5
 70
     0
102
RTVSPropertyOp6
 70
     0
102
RTVSPropertyOp7
 70
     0
102
RTVSPropertyOp8
 70
     0
102
RTVSPropertyOp9
 70
     0
102
RTVSPropertyOp10
 70
     0
102
RTVSPropertyOp11
 70
     0
102
RTVSPropertyOp12
 70
     0
102
RTVSPropertyOp13
 70
     0
102
RTVSPropertyOp14
 70
     2
102
RTVSPropertyOp15
 70
     0
102
RTVSPropertyOp16
 70
     0
102
RTVSPropertyOp17
 70
     0
102
RTVSPropertyOp18
 70
     0
102
RTVSPropertyOp19
 70
     0
102
RTVSPropertyOp20
 70
     0
102
RTVSPropertyOp21
 70
     0
102
RTVSPropertyOp22
 70
     0
102
RTVSPropertyOp23
 70
     0
102
RTVSPropertyOp24
 70
     0
102
RTVSPropertyOp25
 70
     0
102
RTVSPropertyOp26
 70
     0
102
RTVSPropertyOp27
 70
     0
102
RTVSPropertyOp28
 70
     0
102
RTVSPropertyOp29
 70
     0
102
RTVSPropertyOp30
 70
     0
102
RTVSPropertyOp31
 70
     0
102
RTVSPropertyOp32
 70
     0
102
RTVSPropertyOp33
 70
     0
102
RTVSPropertyOp34
 70
     0
102
RTVSPropertyOp35
 70
     0
102
RTVSPropertyOp36
 70
     0
102
RTVSPropertyOp37
 70
     0
102
RTVSPropertyOp38
 70
     0
102
RTVSPropertyOp39
 70
     0
102
RTVSPropertyOp40
 70
     0
102
RTVSPropertyOp41
 70
     0
102
RTVSPropertyOp42
 70
     0
102
RTVSPropertyOp43
 70
     0
102
RTVSPropertyOp44
 70
     0
102
RTVSPropertyOp45
 70
     0
102
RTVSPropertyOp46
 70
     0
102
RTVSPropertyOp47
 70
     0
102
RTVSPropertyOp48
 70
     0
102
RTVSPropertyOp49
 70
     0
102
RTVSPropertyOp50
 70
     0
102
RTVSPropertyOp51
 70
     0
102
RTVSPropertyOp52
 70
     0
102
RTVSPropertyOp53
 70
     0
102
RTVSPropertyOp54
 70
     0
102
RTVSPropertyOp55
 70
     0
102
RTVSPropertyOp56
 70
     0
102
RTVSPropertyOp57
 70
     0
102
RTVSPropertyOp58
 70
     0
102
RTVSPropertyOp59
 70
     0
102
RTVSPropertyOp60
 70
     0
102
RTVSPropertyOp61
 70
     0
102
RTVSPropertyOp62
 70
     0
  0
XRECORD
  5
4CA
102
{ACAD_REACTORS
330
4C9
102
}
330
4C9
100
AcDbXrecord
280
     1
102
RTVSPost2010Prop28
280
     0
102
RTVSPost2010PropOp28
 70
     1
102
RTVSPost2010Prop29
280
     1
102
RTVSPost2010PropOp29
 70
     1
102
RTVSPost2010Prop30
280
     1
102
RTVSPost2010PropOp30
 70
     1
102
RTVSPost2010Prop31
280
     0
102
RTVSPost2010PropOp31
 70
     1
102
RTVSPost2010Prop32
280
     0
102
RTVSPost2010PropOp32
 70
     1
102
RTVSPost2010Prop33
280
     0
102
RTVSPost2010PropOp33
 70
     1
102
RTVSPost2010Prop34
280
     0
102
RTVSPost2010PropOp34
 70
     1
102
RTVSPost2010Prop35
280
     0
102
RTVSPost2010PropOp35
 70
     1
102
RTVSPost2010Prop36
280
     0
102
RTVSPost2010PropOp36
 70
     1
102
RTVSPost2010Prop37
 90
       50
102
RTVSPost2010PropOp37
 70
     1
102
RTVSPost2010Prop38
140
0.0
102
RTVSPost2010PropOp38
 70
     1
102
RTVSPost2010Prop39
140
1.0
102
RTVSPost2010PropOp39
 70
     1
102
RTVSPost2010Prop40
 90
        0
102
RTVSPost2010PropOp40
 70
     1
102
RTVSPost2010Prop41ColorIndex
 90
       18
102
RTVSPost2010Prop41ColorRGB
 90
        0
102
RTVSPost2010PropOp41
 70
     1
102
RTVSPost2010Prop42
 90
       50
102
RTVSPost2010PropOp42
 70
     1
102
RTVSPost2010Prop43
 90
        3
102
RTVSPost2010PropOp43
 70
     1
102
RTVSPost2010Prop44ColorIndex
 90
        5
102
RTVSPost2010Prop44ColorRGB
 90
      255
102
RTVSPost2010PropOp44
 70
     1
102
RTVSPost2010Prop45
280
     0
102
RTVSPost2010PropOp45
 70
     1
102
RTVSPost2010Prop46
 90
       50
102
RTVSPost2010PropOp46
 70
     1
102
RTVSPost2010Prop47
 90
       50
102
RTVSPost2010PropOp47
 70
     1
102
RTVSPost2010Prop48
 90
       50
102
RTVSPost2010PropOp48
 70
     1
102
RTVSPost2010Prop49
280
     0
102
RTVSPost2010PropOp49
 70
     1
102
RTVSPost2010Prop50
 90
       50
102
RTVSPost2010PropOp50
 70
     1
102
RTVSPost2010Prop51ColorIndex
 90
      256
102
RTVSPost2010Prop51ColorRGB
 90
-16777216
102
RTVSPost2010PropOp51
 70
     0
102
RTVSPost2010Prop52
140
1.0
102
RTVSPost2010PropOp52
 70
     0
102
RTVSPost2010Prop53
 90
        2
102
RTVSPost2010PropOp53
 70
     1
102
RTVSPost2010Prop54
  1
strokes_ogs.tif
102
RTVSPost2010PropOp54
 70
     1
102
RTVSPost2010Prop55
280
     0
102
RTVSPost2010PropOp55
 70
     1
102
RTVSPost2010Prop56
140
1.0
102
RTVSPost2010PropOp56
 70
     1
102
RTVSPost2010Prop57
140
1.0
102
RTVSPost2010PropOp57
 70
     1
102
RTVSPropertyOp0
 70
     1
102
RTVSPropertyOp1
 70
     1
102
RTVSPropertyOp2
 70
     1
102
RTVSPropertyOp3
 70
     1
102
RTVSPropertyOp4
 70
     1
102
RTVSPropertyOp5
 70
     1
102
RTVSPropertyOp6
 70
     1
102
RTVSPropertyOp7
 70
     1
102
RTVSPropertyOp8
 70
     1
102
RTVSPropertyOp9
 70
     1
102
RTVSPropertyOp10
 70
     1
102
RTVSPropertyOp11
 70
     1
102
RTVSPropertyOp12
 70
     1
102
RTVSPropertyOp13
 70
     1
102
RTVSPropertyOp14
 70
     1
102
RTVSPropertyOp15
 70
     1
102
RTVSPropertyOp16
 70
     1
102
RTVSPropertyOp17
 70
     1
102
RTVSPropertyOp18
 70
     1
102
RTVSPropertyOp19
 70
     1
102
RTVSPropertyOp20
 70
     1
102
RTVSPropertyOp21
 70
     1
102
RTVSPropertyOp22
 70
     1
102
RTVSPropertyOp23
 70
     1
102
RTVSPropertyOp24
 70
     1
102
RTVSPropertyOp25
 70
     1
102
RTVSPropertyOp26
 70
     1
102
RTVSPropertyOp27
 70
     1
102
RTVSPropertyOp28
 70
     1
102
RTVSPropertyOp29
 70
     1
102
RTVSPropertyOp30
 70
     1
102
RTVSPropertyOp31
 70
     1
102
RTVSPropertyOp32
 70
     1
102
RTVSPropertyOp33
 70
     1
102
RTVSPropertyOp34
 70
     1
102
RTVSPropertyOp35
 70
     1
102
RTVSPropertyOp36
 70
     1
102
RTVSPropertyOp37
 70
     1
102
RTVSPropertyOp38
 70
     1
102
RTVSPropertyOp39
 70
     1
102
RTVSPropertyOp40
 70
     1
102
RTVSPropertyOp41
 70
     1
102
RTVSPropertyOp42
 70
     1
102
RTVSPropertyOp43
 70
     1
102
RTVSPropertyOp44
 70
     1
102
RTVSPropertyOp45
 70
     1
102
RTVSPropertyOp46
 70
     1
102
RTVSPropertyOp47
 70
     1
102
RTVSPropertyOp48
 70
     1
102
RTVSPropertyOp49
 70
     1
102
RTVSPropertyOp50
 70
     1
102
RTVSPropertyOp51
 70
     0
102
RTVSPropertyOp52
 70
     0
102
RTVSPropertyOp53
 70
     1
102
RTVSPropertyOp54
 70
     1
102
RTVSPropertyOp55
 70
     1
102
RTVSPropertyOp56
 70
     1
102
RTVSPropertyOp57
 70
     1
102
RTVSPropertyOp58
 70
     1
102
RTVSPropertyOp59
 70
     1
102
RTVSPropertyOp60
 70
     1
102
RTVSPropertyOp61
 70
     1
102
RTVSPropertyOp62
 70
     1
  0
XRECORD
  5
4DC
102
{ACAD_REACTORS
330
4DB
102
}
330
4DB
100
AcDbXrecord
280
     1
102
RTVSPost2010Prop28
280
     0
102
RTVSPost2010PropOp28
 70
     0
102
RTVSPost2010Prop29
280
     1
102
RTVSPost2010PropOp29
 70
     0
102
RTVSPost2010Prop30
280
     1
102
RTVSPost2010PropOp30
 70
     0
102
RTVSPost2010Prop31
280
     0
102
RTVSPost2010PropOp31
 70
     0
102
RTVSPost2010Prop32
280
     0
102
RTVSPost2010PropOp32
 70
     0
102
RTVSPost2010Prop33
280
     0
102
RTVSPost2010PropOp33
 70
     0
102
RTVSPost2010Prop34
280
     0
102
RTVSPost2010PropOp34
 70
     0
102
RTVSPost2010Prop35
280
     0
102
RTVSPost2010PropOp35
 70
     0
102
RTVSPost2010Prop36
280
     0
102
RTVSPost2010PropOp36
 70
     0
102
RTVSPost2010Prop37
 90
       50
102
RTVSPost2010PropOp37
 70
     0
102
RTVSPost2010Prop38
140
0.0
102
RTVSPost2010PropOp38
 70
     0
102
RTVSPost2010Prop39
140
1.0
102
RTVSPost2010PropOp39
 70
     0
102
RTVSPost2010Prop40
 90
        0
102
RTVSPost2010PropOp40
 70
     0
102
RTVSPost2010Prop41ColorIndex
 90
       18
102
RTVSPost2010Prop41ColorRGB
 90
        0
102
RTVSPost2010PropOp41
 70
     0
102
RTVSPost2010Prop42
 90
       50
102
RTVSPost2010PropOp42
 70
     0
102
RTVSPost2010Prop43
 90
        3
102
RTVSPost2010PropOp43
 70
     0
102
RTVSPost2010Prop44ColorIndex
 90
        5
102
RTVSPost2010Prop44ColorRGB
 90
      255
102
RTVSPost2010PropOp44
 70
     0
102
RTVSPost2010Prop45
280
     0
102
RTVSPost2010PropOp45
 70
     0
102
RTVSPost2010Prop46
 90
       50
102
RTVSPost2010PropOp46
 70
     0
102
RTVSPost2010Prop47
 90
       50
102
RTVSPost2010PropOp47
 70
     0
102
RTVSPost2010Prop48
 90
       50
102
RTVSPost2010PropOp48
 70
     0
102
RTVSPost2010Prop49
280
     0
102
RTVSPost2010PropOp49
 70
     0
102
RTVSPost2010Prop50
 90
       50
102
RTVSPost2010PropOp50
 70
     0
102
RTVSPost2010Prop51ColorIndex
 90
      256
102
RTVSPost2010Prop51ColorRGB
 90
-16777216
102
RTVSPost2010PropOp51
 70
     0
102
RTVSPost2010Prop52
140
1.0
102
RTVSPost2010PropOp52
 70
     0
102
RTVSPost2010Prop53
 90
        2
102
RTVSPost2010PropOp53
 70
     0
102
RTVSPost2010Prop54
  1
strokes_ogs.tif
102
RTVSPost2010PropOp54
 70
     0
102
RTVSPost2010Prop55
280
     0
102
RTVSPost2010PropOp55
 70
     0
102
RTVSPost2010Prop56
140
1.0
102
RTVSPost2010PropOp56
 70
     0
102
RTVSPost2010Prop57
140
1.0
102
RTVSPost2010PropOp57
 70
     0
102
RTVSPropertyOp0
 70
     0
102
RTVSPropertyOp1
 70
     0
102
RTVSPropertyOp2
 70
     0
102
RTVSPropertyOp3
 70
     0
102
RTVSPropertyOp4
 70
     0
102
RTVSPropertyOp5
 70
     0
102
RTVSPropertyOp6
 70
     0
102
RTVSPropertyOp7
 70
     0
102
RTVSPropertyOp8
 70
     0
102
RTVSPropertyOp9
 70
     0
102
RTVSPropertyOp10
 70
     0
102
RTVSPropertyOp11
 70
     0
102
RTVSPropertyOp12
 70
     0
102
RTVSPropertyOp13
 70
     0
102
RTVSPropertyOp14
 70
     2
102
RTVSPropertyOp15
 70
     0
102
RTVSPropertyOp16
 70
     0
102
RTVSPropertyOp17
 70
     0
102
RTVSPropertyOp18
 70
     0
102
RTVSPropertyOp19
 70
     0
102
RTVSPropertyOp20
 70
     0
102
RTVSPropertyOp21
 70
     0
102
RTVSPropertyOp22
 70
     0
102
RTVSPropertyOp23
 70
     0
102
RTVSPropertyOp24
 70
     0
102
RTVSPropertyOp25
 70
     0
102
RTVSPropertyOp26
 70
     0
102
RTVSPropertyOp27
 70
     0
102
RTVSPropertyOp28
 70
     0
102
RTVSPropertyOp29
 70
     0
102
RTVSPropertyOp30
 70
     0
102
RTVSPropertyOp31
 70
     0
102
RTVSPropertyOp32
 70
     0
102
RTVSPropertyOp33
 70
     0
102
RTVSPropertyOp34
 70
     0
102
RTVSPropertyOp35
 70
     0
102
RTVSPropertyOp36
 70
     0
102
RTVSPropertyOp37
 70
     0
102
RTVSPropertyOp38
 70
     0
102
RTVSPropertyOp39
 70
     0
102
RTVSPropertyOp40
 70
     0
102
RTVSPropertyOp41
 70
     0
102
RTVSPropertyOp42
 70
     0
102
RTVSPropertyOp43
 70
     0
102
RTVSPropertyOp44
 70
     0
102
RTVSPropertyOp45
 70
     0
102
RTVSPropertyOp46
 70
     0
102
RTVSPropertyOp47
 70
     0
102
RTVSPropertyOp48
 70
     0
102
RTVSPropertyOp49
 70
     0
102
RTVSPropertyOp50
 70
     0
102
RTVSPropertyOp51
 70
     0
102
RTVSPropertyOp52
 70
     0
102
RTVSPropertyOp53
 70
     0
102
RTVSPropertyOp54
 70
     0
102
RTVSPropertyOp55
 70
     0
102
RTVSPropertyOp56
 70
     0
102
RTVSPropertyOp57
 70
     0
102
RTVSPropertyOp58
 70
     0
102
RTVSPropertyOp59
 70
     0
102
RTVSPropertyOp60
 70
     0
102
RTVSPropertyOp61
 70
     0
102
RTVSPropertyOp62
 70
     0
  0
XRECORD
  5
4C2
102
{ACAD_REACTORS
330
4C1
102
}
330
4C1
100
AcDbXrecord
280
     1
102
RTVSPost2010Prop28
280
     0
102
RTVSPost2010PropOp28
 70
     1
102
RTVSPost2010Prop29
280
     1
102
RTVSPost2010PropOp29
 70
     1
102
RTVSPost2010Prop30
280
     1
102
RTVSPost2010PropOp30
 70
     1
102
RTVSPost2010Prop31
280
     0
102
RTVSPost2010PropOp31
 70
     1
102
RTVSPost2010Prop32
280
     0
102
RTVSPost2010PropOp32
 70
     1
102
RTVSPost2010Prop33
280
     0
102
RTVSPost2010PropOp33
 70
     1
102
RTVSPost2010Prop34
280
     0
102
RTVSPost2010PropOp34
 70
     1
102
RTVSPost2010Prop35
280
     0
102
RTVSPost2010PropOp35
 70
     1
102
RTVSPost2010Prop36
280
     0
102
RTVSPost2010PropOp36
 70
     1
102
RTVSPost2010Prop37
 90
       50
102
RTVSPost2010PropOp37
 70
     1
102
RTVSPost2010Prop38
140
0.0
102
RTVSPost2010PropOp38
 70
     1
102
RTVSPost2010Prop39
140
1.0
102
RTVSPost2010PropOp39
 70
     1
102
RTVSPost2010Prop40
 90
        0
102
RTVSPost2010PropOp40
 70
     1
102
RTVSPost2010Prop41ColorIndex
 90
       18
102
RTVSPost2010Prop41ColorRGB
 90
        0
102
RTVSPost2010PropOp41
 70
     1
102
RTVSPost2010Prop42
 90
       50
102
RTVSPost2010PropOp42
 70
     1
102
RTVSPost2010Prop43
 90
        3
102
RTVSPost2010PropOp43
 70
     1
102
RTVSPost2010Prop44ColorIndex
 90
        5
102
RTVSPost2010Prop44ColorRGB
 90
      255
102
RTVSPost2010PropOp44
 70
     1
102
RTVSPost2010Prop45
280
     0
102
RTVSPost2010PropOp45
 70
     1
102
RTVSPost2010Prop46
 90
       50
102
RTVSPost2010PropOp46
 70
     1
102
RTVSPost2010Prop47
 90
       50
102
RTVSPost2010PropOp47
 70
     1
102
RTVSPost2010Prop48
 90
       50
102
RTVSPost2010PropOp48
 70
     1
102
RTVSPost2010Prop49
280
     0
102
RTVSPost2010PropOp49
 70
     1
102
RTVSPost2010Prop50
 90
       50
102
RTVSPost2010PropOp50
 70
     1
102
RTVSPost2010Prop51ColorIndex
 90
      256
102
RTVSPost2010Prop51ColorRGB
 90
-16777216
102
RTVSPost2010PropOp51
 70
     0
102
RTVSPost2010Prop52
140
1.0
102
RTVSPost2010PropOp52
 70
     0
102
RTVSPost2010Prop53
 90
        2
102
RTVSPost2010PropOp53
 70
     1
102
RTVSPost2010Prop54
  1
strokes_ogs.tif
102
RTVSPost2010PropOp54
 70
     1
102
RTVSPost2010Prop55
280
     0
102
RTVSPost2010PropOp55
 70
     1
102
RTVSPost2010Prop56
140
1.0
102
RTVSPost2010PropOp56
 70
     1
102
RTVSPost2010Prop57
140
1.0
102
RTVSPost2010PropOp57
 70
     1
102
RTVSPropertyOp0
 70
     1
102
RTVSPropertyOp1
 70
     1
102
RTVSPropertyOp2
 70
     1
102
RTVSPropertyOp3
 70
     1
102
RTVSPropertyOp4
 70
     1
102
RTVSPropertyOp5
 70
     1
102
RTVSPropertyOp6
 70
     1
102
RTVSPropertyOp7
 70
     1
102
RTVSPropertyOp8
 70
     1
102
RTVSPropertyOp9
 70
     1
102
RTVSPropertyOp10
 70
     1
102
RTVSPropertyOp11
 70
     1
102
RTVSPropertyOp12
 70
     1
102
RTVSPropertyOp13
 70
     1
102
RTVSPropertyOp14
 70
     1
102
RTVSPropertyOp15
 70
     1
102
RTVSPropertyOp16
 70
     1
102
RTVSPropertyOp17
 70
     1
102
RTVSPropertyOp18
 70
     1
102
RTVSPropertyOp19
 70
     1
102
RTVSPropertyOp20
 70
     1
102
RTVSPropertyOp21
 70
     1
102
RTVSPropertyOp22
 70
     1
102
RTVSPropertyOp23
 70
     1
102
RTVSPropertyOp24
 70
     1
102
RTVSPropertyOp25
 70
     1
102
RTVSPropertyOp26
 70
     1
102
RTVSPropertyOp27
 70
     1
102
RTVSPropertyOp28
 70
     1
102
RTVSPropertyOp29
 70
     1
102
RTVSPropertyOp30
 70
     1
102
RTVSPropertyOp31
 70
     1
102
RTVSPropertyOp32
 70
     1
102
RTVSPropertyOp33
 70
     1
102
RTVSPropertyOp34
 70
     1
102
RTVSPropertyOp35
 70
     1
102
RTVSPropertyOp36
 70
     1
102
RTVSPropertyOp37
 70
     1
102
RTVSPropertyOp38
 70
     1
102
RTVSPropertyOp39
 70
     1
102
RTVSPropertyOp40
 70
     1
102
RTVSPropertyOp41
 70
     1
102
RTVSPropertyOp42
 70
     1
102
RTVSPropertyOp43
 70
     1
102
RTVSPropertyOp44
 70
     1
102
RTVSPropertyOp45
 70
     1
102
RTVSPropertyOp46
 70
     1
102
RTVSPropertyOp47
 70
     1
102
RTVSPropertyOp48
 70
     1
102
RTVSPropertyOp49
 70
     1
102
RTVSPropertyOp50
 70
     1
102
RTVSPropertyOp51
 70
     0
102
RTVSPropertyOp52
 70
     0
102
RTVSPropertyOp53
 70
     1
102
RTVSPropertyOp54
 70
     1
102
RTVSPropertyOp55
 70
     1
102
RTVSPropertyOp56
 70
     1
102
RTVSPropertyOp57
 70
     1
102
RTVSPropertyOp58
 70
     1
102
RTVSPropertyOp59
 70
     1
102
RTVSPropertyOp60
 70
     1
102
RTVSPropertyOp61
 70
     1
102
RTVSPropertyOp62
 70
     1
  0
XRECORD
  5
4D8
102
{ACAD_REACTORS
330
4D7
102
}
330
4D7
100
AcDbXrecord
280
     1
102
RTVSPost2010Prop28
280
     0
102
RTVSPost2010PropOp28
 70
     1
102
RTVSPost2010Prop29
280
     1
102
RTVSPost2010PropOp29
 70
     1
102
RTVSPost2010Prop30
280
     1
102
RTVSPost2010PropOp30
 70
     1
102
RTVSPost2010Prop31
280
     0
102
RTVSPost2010PropOp31
 70
     1
102
RTVSPost2010Prop32
280
     0
102
RTVSPost2010PropOp32
 70
     1
102
RTVSPost2010Prop33
280
     0
102
RTVSPost2010PropOp33
 70
     1
102
RTVSPost2010Prop34
280
     0
102
RTVSPost2010PropOp34
 70
     1
102
RTVSPost2010Prop35
280
     0
102
RTVSPost2010PropOp35
 70
     1
102
RTVSPost2010Prop36
280
     0
102
RTVSPost2010PropOp36
 70
     1
102
RTVSPost2010Prop37
 90
       50
102
RTVSPost2010PropOp37
 70
     1
102
RTVSPost2010Prop38
140
0.0
102
RTVSPost2010PropOp38
 70
     1
102
RTVSPost2010Prop39
140
1.0
102
RTVSPost2010PropOp39
 70
     1
102
RTVSPost2010Prop40
 90
        0
102
RTVSPost2010PropOp40
 70
     1
102
RTVSPost2010Prop41ColorIndex
 90
       18
102
RTVSPost2010Prop41ColorRGB
 90
        0
102
RTVSPost2010PropOp41
 70
     1
102
RTVSPost2010Prop42
 90
       50
102
RTVSPost2010PropOp42
 70
     1
102
RTVSPost2010Prop43
 90
        3
102
RTVSPost2010PropOp43
 70
     1
102
RTVSPost2010Prop44ColorIndex
 90
        5
102
RTVSPost2010Prop44ColorRGB
 90
      255
102
RTVSPost2010PropOp44
 70
     1
102
RTVSPost2010Prop45
280
     0
102
RTVSPost2010PropOp45
 70
     1
102
RTVSPost2010Prop46
 90
       50
102
RTVSPost2010PropOp46
 70
     1
102
RTVSPost2010Prop47
 90
       50
102
RTVSPost2010PropOp47
 70
     1
102
RTVSPost2010Prop48
 90
       50
102
RTVSPost2010PropOp48
 70
     1
102
RTVSPost2010Prop49
280
     0
102
RTVSPost2010PropOp49
 70
     1
102
RTVSPost2010Prop50
 90
       50
102
RTVSPost2010PropOp50
 70
     1
102
RTVSPost2010Prop51ColorIndex
 90
      256
102
RTVSPost2010Prop51ColorRGB
 90
-16777216
102
RTVSPost2010PropOp51
 70
     0
102
RTVSPost2010Prop52
140
1.0
102
RTVSPost2010PropOp52
 70
     0
102
RTVSPost2010Prop53
 90
        2
102
RTVSPost2010PropOp53
 70
     1
102
RTVSPost2010Prop54
  1
strokes_ogs.tif
102
RTVSPost2010PropOp54
 70
     1
102
RTVSPost2010Prop55
280
     0
102
RTVSPost2010PropOp55
 70
     1
102
RTVSPost2010Prop56
140
1.0
102
RTVSPost2010PropOp56
 70
     1
102
RTVSPost2010Prop57
140
1.0
102
RTVSPost2010PropOp57
 70
     1
102
RTVSPropertyOp0
 70
     1
102
RTVSPropertyOp1
 70
     1
102
RTVSPropertyOp2
 70
     1
102
RTVSPropertyOp3
 70
     1
102
RTVSPropertyOp4
 70
     1
102
RTVSPropertyOp5
 70
     1
102
RTVSPropertyOp6
 70
     1
102
RTVSPropertyOp7
 70
     1
102
RTVSPropertyOp8
 70
     1
102
RTVSPropertyOp9
 70
     1
102
RTVSPropertyOp10
 70
     1
102
RTVSPropertyOp11
 70
     1
102
RTVSPropertyOp12
 70
     1
102
RTVSPropertyOp13
 70
     1
102
RTVSPropertyOp14
 70
     1
102
RTVSPropertyOp15
 70
     1
102
RTVSPropertyOp16
 70
     1
102
RTVSPropertyOp17
 70
     1
102
RTVSPropertyOp18
 70
     1
102
RTVSPropertyOp19
 70
     1
102
RTVSPropertyOp20
 70
     1
102
RTVSPropertyOp21
 70
     1
102
RTVSPropertyOp22
 70
     1
102
RTVSPropertyOp23
 70
     1
102
RTVSPropertyOp24
 70
     1
102
RTVSPropertyOp25
 70
     1
102
RTVSPropertyOp26
 70
     1
102
RTVSPropertyOp27
 70
     1
102
RTVSPropertyOp28
 70
     1
102
RTVSPropertyOp29
 70
     1
102
RTVSPropertyOp30
 70
     1
102
RTVSPropertyOp31
 70
     1
102
RTVSPropertyOp32
 70
     1
102
RTVSPropertyOp33
 70
     1
102
RTVSPropertyOp34
 70
     1
102
RTVSPropertyOp35
 70
     1
102
RTVSPropertyOp36
 70
     1
102
RTVSPropertyOp37
 70
     1
102
RTVSPropertyOp38
 70
     1
102
RTVSPropertyOp39
 70
     1
102
RTVSPropertyOp40
 70
     1
102
RTVSPropertyOp41
 70
     1
102
RTVSPropertyOp42
 70
     1
102
RTVSPropertyOp43
 70
     1
102
RTVSPropertyOp44
 70
     1
102
RTVSPropertyOp45
 70
     1
102
RTVSPropertyOp46
 70
     1
102
RTVSPropertyOp47
 70
     1
102
RTVSPropertyOp48
 70
     1
102
RTVSPropertyOp49
 70
     1
102
RTVSPropertyOp50
 70
     1
102
RTVSPropertyOp51
 70
     0
102
RTVSPropertyOp52
 70
     0
102
RTVSPropertyOp53
 70
     1
102
RTVSPropertyOp54
 70
     1
102
RTVSPropertyOp55
 70
     1
102
RTVSPropertyOp56
 70
     1
102
RTVSPropertyOp57
 70
     1
102
RTVSPropertyOp58
 70
     1
102
RTVSPropertyOp59
 70
     1
102
RTVSPropertyOp60
 70
     1
102
RTVSPropertyOp61
 70
     1
102
RTVSPropertyOp62
 70
     1
  0
XRECORD
  5
4D6
102
{ACAD_REACTORS
330
4D5
102
}
330
4D5
100
AcDbXrecord
280
     1
102
RTVSPost2010Prop28
280
     0
102
RTVSPost2010PropOp28
 70
     1
102
RTVSPost2010Prop29
280
     1
102
RTVSPost2010PropOp29
 70
     1
102
RTVSPost2010Prop30
280
     1
102
RTVSPost2010PropOp30
 70
     1
102
RTVSPost2010Prop31
280
     0
102
RTVSPost2010PropOp31
 70
     1
102
RTVSPost2010Prop32
280
     0
102
RTVSPost2010PropOp32
 70
     1
102
RTVSPost2010Prop33
280
     0
102
RTVSPost2010PropOp33
 70
     1
102
RTVSPost2010Prop34
280
     0
102
RTVSPost2010PropOp34
 70
     1
102
RTVSPost2010Prop35
280
     0
102
RTVSPost2010PropOp35
 70
     1
102
RTVSPost2010Prop36
280
     0
102
RTVSPost2010PropOp36
 70
     1
102
RTVSPost2010Prop37
 90
       50
102
RTVSPost2010PropOp37
 70
     1
102
RTVSPost2010Prop38
140
0.0
102
RTVSPost2010PropOp38
 70
     1
102
RTVSPost2010Prop39
140
1.0
102
RTVSPost2010PropOp39
 70
     1
102
RTVSPost2010Prop40
 90
        0
102
RTVSPost2010PropOp40
 70
     1
102
RTVSPost2010Prop41ColorIndex
 90
       18
102
RTVSPost2010Prop41ColorRGB
 90
        0
102
RTVSPost2010PropOp41
 70
     1
102
RTVSPost2010Prop42
 90
       50
102
RTVSPost2010PropOp42
 70
     1
102
RTVSPost2010Prop43
 90
        3
102
RTVSPost2010PropOp43
 70
     1
102
RTVSPost2010Prop44ColorIndex
 90
        5
102
RTVSPost2010Prop44ColorRGB
 90
      255
102
RTVSPost2010PropOp44
 70
     1
102
RTVSPost2010Prop45
280
     0
102
RTVSPost2010PropOp45
 70
     1
102
RTVSPost2010Prop46
 90
       50
102
RTVSPost2010PropOp46
 70
     1
102
RTVSPost2010Prop47
 90
       50
102
RTVSPost2010PropOp47
 70
     1
102
RTVSPost2010Prop48
 90
       50
102
RTVSPost2010PropOp48
 70
     1
102
RTVSPost2010Prop49
280
     0
102
RTVSPost2010PropOp49
 70
     1
102
RTVSPost2010Prop50
 90
       50
102
RTVSPost2010PropOp50
 70
     1
102
RTVSPost2010Prop51ColorIndex
 90
      256
102
RTVSPost2010Prop51ColorRGB
 90
-16777216
102
RTVSPost2010PropOp51
 70
     0
102
RTVSPost2010Prop52
140
1.0
102
RTVSPost2010PropOp52
 70
     0
102
RTVSPost2010Prop53
 90
        2
102
RTVSPost2010PropOp53
 70
     1
102
RTVSPost2010Prop54
  1
strokes_ogs.tif
102
RTVSPost2010PropOp54
 70
     1
102
RTVSPost2010Prop55
280
     0
102
RTVSPost2010PropOp55
 70
     1
102
RTVSPost2010Prop56
140
1.0
102
RTVSPost2010PropOp56
 70
     1
102
RTVSPost2010Prop57
140
1.0
102
RTVSPost2010PropOp57
 70
     1
102
RTVSPropertyOp0
 70
     1
102
RTVSPropertyOp1
 70
     1
102
RTVSPropertyOp2
 70
     1
102
RTVSPropertyOp3
 70
     1
102
RTVSPropertyOp4
 70
     1
102
RTVSPropertyOp5
 70
     1
102
RTVSPropertyOp6
 70
     1
102
RTVSPropertyOp7
 70
     1
102
RTVSPropertyOp8
 70
     1
102
RTVSPropertyOp9
 70
     1
102
RTVSPropertyOp10
 70
     1
102
RTVSPropertyOp11
 70
     1
102
RTVSPropertyOp12
 70
     1
102
RTVSPropertyOp13
 70
     1
102
RTVSPropertyOp14
 70
     1
102
RTVSPropertyOp15
 70
     1
102
RTVSPropertyOp16
 70
     1
102
RTVSPropertyOp17
 70
     1
102
RTVSPropertyOp18
 70
     1
102
RTVSPropertyOp19
 70
     1
102
RTVSPropertyOp20
 70
     1
102
RTVSPropertyOp21
 70
     1
102
RTVSPropertyOp22
 70
     1
102
RTVSPropertyOp23
 70
     1
102
RTVSPropertyOp24
 70
     1
102
RTVSPropertyOp25
 70
     1
102
RTVSPropertyOp26
 70
     1
102
RTVSPropertyOp27
 70
     1
102
RTVSPropertyOp28
 70
     1
102
RTVSPropertyOp29
 70
     1
102
RTVSPropertyOp30
 70
     1
102
RTVSPropertyOp31
 70
     1
102
RTVSPropertyOp32
 70
     1
102
RTVSPropertyOp33
 70
     1
102
RTVSPropertyOp34
 70
     1
102
RTVSPropertyOp35
 70
     1
102
RTVSPropertyOp36
 70
     1
102
RTVSPropertyOp37
 70
     1
102
RTVSPropertyOp38
 70
     1
102
RTVSPropertyOp39
 70
     1
102
RTVSPropertyOp40
 70
     1
102
RTVSPropertyOp41
 70
     1
102
RTVSPropertyOp42
 70
     1
102
RTVSPropertyOp43
 70
     1
102
RTVSPropertyOp44
 70
     1
102
RTVSPropertyOp45
 70
     1
102
RTVSPropertyOp46
 70
     1
102
RTVSPropertyOp47
 70
     1
102
RTVSPropertyOp48
 70
     1
102
RTVSPropertyOp49
 70
     1
102
RTVSPropertyOp50
 70
     1
102
RTVSPropertyOp51
 70
     0
102
RTVSPropertyOp52
 70
     0
102
RTVSPropertyOp53
 70
     1
102
RTVSPropertyOp54
 70
     1
102
RTVSPropertyOp55
 70
     1
102
RTVSPropertyOp56
 70
     1
102
RTVSPropertyOp57
 70
     1
102
RTVSPropertyOp58
 70
     1
102
RTVSPropertyOp59
 70
     1
102
RTVSPropertyOp60
 70
     1
102
RTVSPropertyOp61
 70
     1
102
RTVSPropertyOp62
 70
     1
  0
XRECORD
  5
4D0
102
{ACAD_REACTORS
330
4CF
102
}
330
4CF
100
AcDbXrecord
280
     1
102
RTVSPost2010Prop28
280
     0
102
RTVSPost2010PropOp28
 70
     1
102
RTVSPost2010Prop29
280
     1
102
RTVSPost2010PropOp29
 70
     1
102
RTVSPost2010Prop30
280
     1
102
RTVSPost2010PropOp30
 70
     1
102
RTVSPost2010Prop31
280
     0
102
RTVSPost2010PropOp31
 70
     1
102
RTVSPost2010Prop32
280
     0
102
RTVSPost2010PropOp32
 70
     1
102
RTVSPost2010Prop33
280
     0
102
RTVSPost2010PropOp33
 70
     1
102
RTVSPost2010Prop34
280
     0
102
RTVSPost2010PropOp34
 70
     1
102
RTVSPost2010Prop35
280
     0
102
RTVSPost2010PropOp35
 70
     1
102
RTVSPost2010Prop36
280
     0
102
RTVSPost2010PropOp36
 70
     1
102
RTVSPost2010Prop37
 90
       50
102
RTVSPost2010PropOp37
 70
     1
102
RTVSPost2010Prop38
140
0.0
102
RTVSPost2010PropOp38
 70
     1
102
RTVSPost2010Prop39
140
1.0
102
RTVSPost2010PropOp39
 70
     1
102
RTVSPost2010Prop40
 90
        0
102
RTVSPost2010PropOp40
 70
     1
102
RTVSPost2010Prop41ColorIndex
 90
       18
102
RTVSPost2010Prop41ColorRGB
 90
        0
102
RTVSPost2010PropOp41
 70
     1
102
RTVSPost2010Prop42
 90
       50
102
RTVSPost2010PropOp42
 70
     1
102
RTVSPost2010Prop43
 90
        3
102
RTVSPost2010PropOp43
 70
     1
102
RTVSPost2010Prop44ColorIndex
 90
        5
102
RTVSPost2010Prop44ColorRGB
 90
      255
102
RTVSPost2010PropOp44
 70
     1
102
RTVSPost2010Prop45
280
     0
102
RTVSPost2010PropOp45
 70
     1
102
RTVSPost2010Prop46
 90
       50
102
RTVSPost2010PropOp46
 70
     1
102
RTVSPost2010Prop47
 90
       50
102
RTVSPost2010PropOp47
 70
     1
102
RTVSPost2010Prop48
 90
       50
102
RTVSPost2010PropOp48
 70
     1
102
RTVSPost2010Prop49
280
     0
102
RTVSPost2010PropOp49
 70
     1
102
RTVSPost2010Prop50
 90
       50
102
RTVSPost2010PropOp50
 70
     1
102
RTVSPost2010Prop51ColorIndex
 90
      256
102
RTVSPost2010Prop51ColorRGB
 90
-16777216
102
RTVSPost2010PropOp51
 70
     0
102
RTVSPost2010Prop52
140
1.0
102
RTVSPost2010PropOp52
 70
     0
102
RTVSPost2010Prop53
 90
        2
102
RTVSPost2010PropOp53
 70
     1
102
RTVSPost2010Prop54
  1
strokes_ogs.tif
102
RTVSPost2010PropOp54
 70
     1
102
RTVSPost2010Prop55
280
     0
102
RTVSPost2010PropOp55
 70
     1
102
RTVSPost2010Prop56
140
1.0
102
RTVSPost2010PropOp56
 70
     1
102
RTVSPost2010Prop57
140
1.0
102
RTVSPost2010PropOp57
 70
     1
102
RTVSPropertyOp0
 70
     1
102
RTVSPropertyOp1
 70
     1
102
RTVSPropertyOp2
 70
     1
102
RTVSPropertyOp3
 70
     1
102
RTVSPropertyOp4
 70
     1
102
RTVSPropertyOp5
 70
     1
102
RTVSPropertyOp6
 70
     1
102
RTVSPropertyOp7
 70
     1
102
RTVSPropertyOp8
 70
     1
102
RTVSPropertyOp9
 70
     1
102
RTVSPropertyOp10
 70
     1
102
RTVSPropertyOp11
 70
     1
102
RTVSPropertyOp12
 70
     1
102
RTVSPropertyOp13
 70
     1
102
RTVSPropertyOp14
 70
     1
102
RTVSPropertyOp15
 70
     1
102
RTVSPropertyOp16
 70
     1
102
RTVSPropertyOp17
 70
     1
102
RTVSPropertyOp18
 70
     1
102
RTVSPropertyOp19
 70
     1
102
RTVSPropertyOp20
 70
     1
102
RTVSPropertyOp21
 70
     1
102
RTVSPropertyOp22
 70
     1
102
RTVSPropertyOp23
 70
     1
102
RTVSPropertyOp24
 70
     1
102
RTVSPropertyOp25
 70
     1
102
RTVSPropertyOp26
 70
     1
102
RTVSPropertyOp27
 70
     1
102
RTVSPropertyOp28
 70
     1
102
RTVSPropertyOp29
 70
     1
102
RTVSPropertyOp30
 70
     1
102
RTVSPropertyOp31
 70
     1
102
RTVSPropertyOp32
 70
     1
102
RTVSPropertyOp33
 70
     1
102
RTVSPropertyOp34
 70
     1
102
RTVSPropertyOp35
 70
     1
102
RTVSPropertyOp36
 70
     1
102
RTVSPropertyOp37
 70
     1
102
RTVSPropertyOp38
 70
     1
102
RTVSPropertyOp39
 70
     1
102
RTVSPropertyOp40
 70
     1
102
RTVSPropertyOp41
 70
     1
102
RTVSPropertyOp42
 70
     1
102
RTVSPropertyOp43
 70
     1
102
RTVSPropertyOp44
 70
     1
102
RTVSPropertyOp45
 70
     1
102
RTVSPropertyOp46
 70
     1
102
RTVSPropertyOp47
 70
     1
102
RTVSPropertyOp48
 70
     1
102
RTVSPropertyOp49
 70
     1
102
RTVSPropertyOp50
 70
     1
102
RTVSPropertyOp51
 70
     0
102
RTVSPropertyOp52
 70
     0
102
RTVSPropertyOp53
 70
     1
102
RTVSPropertyOp54
 70
     1
102
RTVSPropertyOp55
 70
     1
102
RTVSPropertyOp56
 70
     1
102
RTVSPropertyOp57
 70
     1
102
RTVSPropertyOp58
 70
     1
102
RTVSPropertyOp59
 70
     1
102
RTVSPropertyOp60
 70
     1
102
RTVSPropertyOp61
 70
     1
102
RTVSPropertyOp62
 70
     1
  0
XRECORD
  5
4D2
102
{ACAD_REACTORS
330
4D1
102
}
330
4D1
100
AcDbXrecord
280
     1
102
RTVSPost2010Prop28
280
     0
102
RTVSPost2010PropOp28
 70
     1
102
RTVSPost2010Prop29
280
     1
102
RTVSPost2010PropOp29
 70
     1
102
RTVSPost2010Prop30
280
     1
102
RTVSPost2010PropOp30
 70
     1
102
RTVSPost2010Prop31
280
     0
102
RTVSPost2010PropOp31
 70
     1
102
RTVSPost2010Prop32
280
     0
102
RTVSPost2010PropOp32
 70
     1
102
RTVSPost2010Prop33
280
     0
102
RTVSPost2010PropOp33
 70
     1
102
RTVSPost2010Prop34
280
     0
102
RTVSPost2010PropOp34
 70
     1
102
RTVSPost2010Prop35
280
     0
102
RTVSPost2010PropOp35
 70
     1
102
RTVSPost2010Prop36
280
     0
102
RTVSPost2010PropOp36
 70
     1
102
RTVSPost2010Prop37
 90
       50
102
RTVSPost2010PropOp37
 70
     1
102
RTVSPost2010Prop38
140
0.0
102
RTVSPost2010PropOp38
 70
     1
102
RTVSPost2010Prop39
140
1.0
102
RTVSPost2010PropOp39
 70
     1
102
RTVSPost2010Prop40
 90
        0
102
RTVSPost2010PropOp40
 70
     1
102
RTVSPost2010Prop41ColorIndex
 90
       18
102
RTVSPost2010Prop41ColorRGB
 90
        0
102
RTVSPost2010PropOp41
 70
     1
102
RTVSPost2010Prop42
 90
       50
102
RTVSPost2010PropOp42
 70
     1
102
RTVSPost2010Prop43
 90
        3
102
RTVSPost2010PropOp43
 70
     1
102
RTVSPost2010Prop44ColorIndex
 90
        5
102
RTVSPost2010Prop44ColorRGB
 90
      255
102
RTVSPost2010PropOp44
 70
     1
102
RTVSPost2010Prop45
280
     0
102
RTVSPost2010PropOp45
 70
     1
102
RTVSPost2010Prop46
 90
       50
102
RTVSPost2010PropOp46
 70
     1
102
RTVSPost2010Prop47
 90
       50
102
RTVSPost2010PropOp47
 70
     1
102
RTVSPost2010Prop48
 90
       50
102
RTVSPost2010PropOp48
 70
     1
102
RTVSPost2010Prop49
280
     0
102
RTVSPost2010PropOp49
 70
     1
102
RTVSPost2010Prop50
 90
       50
102
RTVSPost2010PropOp50
 70
     1
102
RTVSPost2010Prop51ColorIndex
 90
      256
102
RTVSPost2010Prop51ColorRGB
 90
-16777216
102
RTVSPost2010PropOp51
 70
     0
102
RTVSPost2010Prop52
140
1.0
102
RTVSPost2010PropOp52
 70
     0
102
RTVSPost2010Prop53
 90
        2
102
RTVSPost2010PropOp53
 70
     1
102
RTVSPost2010Prop54
  1
strokes_ogs.tif
102
RTVSPost2010PropOp54
 70
     1
102
RTVSPost2010Prop55
280
     0
102
RTVSPost2010PropOp55
 70
     1
102
RTVSPost2010Prop56
140
1.0
102
RTVSPost2010PropOp56
 70
     1
102
RTVSPost2010Prop57
140
1.0
102
RTVSPost2010PropOp57
 70
     1
102
RTVSPropertyOp0
 70
     1
102
RTVSPropertyOp1
 70
     1
102
RTVSPropertyOp2
 70
     1
102
RTVSPropertyOp3
 70
     1
102
RTVSPropertyOp4
 70
     1
102
RTVSPropertyOp5
 70
     1
102
RTVSPropertyOp6
 70
     1
102
RTVSPropertyOp7
 70
     1
102
RTVSPropertyOp8
 70
     1
102
RTVSPropertyOp9
 70
     1
102
RTVSPropertyOp10
 70
     1
102
RTVSPropertyOp11
 70
     1
102
RTVSPropertyOp12
 70
     1
102
RTVSPropertyOp13
 70
     1
102
RTVSPropertyOp14
 70
     1
102
RTVSPropertyOp15
 70
     1
102
RTVSPropertyOp16
 70
     1
102
RTVSPropertyOp17
 70
     1
102
RTVSPropertyOp18
 70
     1
102
RTVSPropertyOp19
 70
     1
102
RTVSPropertyOp20
 70
     1
102
RTVSPropertyOp21
 70
     1
102
RTVSPropertyOp22
 70
     1
102
RTVSPropertyOp23
 70
     1
102
RTVSPropertyOp24
 70
     1
102
RTVSPropertyOp25
 70
     1
102
RTVSPropertyOp26
 70
     1
102
RTVSPropertyOp27
 70
     1
102
RTVSPropertyOp28
 70
     1
102
RTVSPropertyOp29
 70
     1
102
RTVSPropertyOp30
 70
     1
102
RTVSPropertyOp31
 70
     1
102
RTVSPropertyOp32
 70
     1
102
RTVSPropertyOp33
 70
     1
102
RTVSPropertyOp34
 70
     1
102
RTVSPropertyOp35
 70
     1
102
RTVSPropertyOp36
 70
     1
102
RTVSPropertyOp37
 70
     1
102
RTVSPropertyOp38
 70
     1
102
RTVSPropertyOp39
 70
     1
102
RTVSPropertyOp40
 70
     1
102
RTVSPropertyOp41
 70
     1
102
RTVSPropertyOp42
 70
     1
102
RTVSPropertyOp43
 70
     1
102
RTVSPropertyOp44
 70
     1
102
RTVSPropertyOp45
 70
     1
102
RTVSPropertyOp46
 70
     1
102
RTVSPropertyOp47
 70
     1
102
RTVSPropertyOp48
 70
     1
102
RTVSPropertyOp49
 70
     1
102
RTVSPropertyOp50
 70
     1
102
RTVSPropertyOp51
 70
     0
102
RTVSPropertyOp52
 70
     0
102
RTVSPropertyOp53
 70
     1
102
RTVSPropertyOp54
 70
     1
102
RTVSPropertyOp55
 70
     1
102
RTVSPropertyOp56
 70
     1
102
RTVSPropertyOp57
 70
     1
102
RTVSPropertyOp58
 70
     1
102
RTVSPropertyOp59
 70
     1
102
RTVSPropertyOp60
 70
     1
102
RTVSPropertyOp61
 70
     1
102
RTVSPropertyOp62
 70
     1
  0
XRECORD
  5
4C8
102
{ACAD_REACTORS
330
4C7
102
}
330
4C7
100
AcDbXrecord
280
     1
102
RTVSPost2010Prop28
280
     0
102
RTVSPost2010PropOp28
 70
     1
102
RTVSPost2010Prop29
280
     1
102
RTVSPost2010PropOp29
 70
     1
102
RTVSPost2010Prop30
280
     1
102
RTVSPost2010PropOp30
 70
     1
102
RTVSPost2010Prop31
280
     0
102
RTVSPost2010PropOp31
 70
     1
102
RTVSPost2010Prop32
280
     0
102
RTVSPost2010PropOp32
 70
     1
102
RTVSPost2010Prop33
280
     0
102
RTVSPost2010PropOp33
 70
     1
102
RTVSPost2010Prop34
280
     0
102
RTVSPost2010PropOp34
 70
     1
102
RTVSPost2010Prop35
280
     0
102
RTVSPost2010PropOp35
 70
     1
102
RTVSPost2010Prop36
280
     0
102
RTVSPost2010PropOp36
 70
     1
102
RTVSPost2010Prop37
 90
       50
102
RTVSPost2010PropOp37
 70
     1
102
RTVSPost2010Prop38
140
0.0
102
RTVSPost2010PropOp38
 70
     1
102
RTVSPost2010Prop39
140
1.0
102
RTVSPost2010PropOp39
 70
     1
102
RTVSPost2010Prop40
 90
        0
102
RTVSPost2010PropOp40
 70
     1
102
RTVSPost2010Prop41ColorIndex
 90
       18
102
RTVSPost2010Prop41ColorRGB
 90
        0
102
RTVSPost2010PropOp41
 70
     1
102
RTVSPost2010Prop42
 90
       50
102
RTVSPost2010PropOp42
 70
     1
102
RTVSPost2010Prop43
 90
        3
102
RTVSPost2010PropOp43
 70
     1
102
RTVSPost2010Prop44ColorIndex
 90
        5
102
RTVSPost2010Prop44ColorRGB
 90
      255
102
RTVSPost2010PropOp44
 70
     1
102
RTVSPost2010Prop45
280
     0
102
RTVSPost2010PropOp45
 70
     1
102
RTVSPost2010Prop46
 90
       50
102
RTVSPost2010PropOp46
 70
     1
102
RTVSPost2010Prop47
 90
       50
102
RTVSPost2010PropOp47
 70
     1
102
RTVSPost2010Prop48
 90
       50
102
RTVSPost2010PropOp48
 70
     1
102
RTVSPost2010Prop49
280
     0
102
RTVSPost2010PropOp49
 70
     1
102
RTVSPost2010Prop50
 90
       50
102
RTVSPost2010PropOp50
 70
     1
102
RTVSPost2010Prop51ColorIndex
 90
      256
102
RTVSPost2010Prop51ColorRGB
 90
-16777216
102
RTVSPost2010PropOp51
 70
     0
102
RTVSPost2010Prop52
140
1.0
102
RTVSPost2010PropOp52
 70
     0
102
RTVSPost2010Prop53
 90
        2
102
RTVSPost2010PropOp53
 70
     1
102
RTVSPost2010Prop54
  1
strokes_ogs.tif
102
RTVSPost2010PropOp54
 70
     1
102
RTVSPost2010Prop55
280
     0
102
RTVSPost2010PropOp55
 70
     1
102
RTVSPost2010Prop56
140
1.0
102
RTVSPost2010PropOp56
 70
     1
102
RTVSPost2010Prop57
140
1.0
102
RTVSPost2010PropOp57
 70
     1
102
RTVSPropertyOp0
 70
     1
102
RTVSPropertyOp1
 70
     1
102
RTVSPropertyOp2
 70
     1
102
RTVSPropertyOp3
 70
     1
102
RTVSPropertyOp4
 70
     1
102
RTVSPropertyOp5
 70
     1
102
RTVSPropertyOp6
 70
     1
102
RTVSPropertyOp7
 70
     1
102
RTVSPropertyOp8
 70
     1
102
RTVSPropertyOp9
 70
     1
102
RTVSPropertyOp10
 70
     1
102
RTVSPropertyOp11
 70
     1
102
RTVSPropertyOp12
 70
     1
102
RTVSPropertyOp13
 70
     1
102
RTVSPropertyOp14
 70
     1
102
RTVSPropertyOp15
 70
     1
102
RTVSPropertyOp16
 70
     1
102
RTVSPropertyOp17
 70
     1
102
RTVSPropertyOp18
 70
     1
102
RTVSPropertyOp19
 70
     1
102
RTVSPropertyOp20
 70
     1
102
RTVSPropertyOp21
 70
     1
102
RTVSPropertyOp22
 70
     1
102
RTVSPropertyOp23
 70
     1
102
RTVSPropertyOp24
 70
     1
102
RTVSPropertyOp25
 70
     1
102
RTVSPropertyOp26
 70
     1
102
RTVSPropertyOp27
 70
     1
102
RTVSPropertyOp28
 70
     1
102
RTVSPropertyOp29
 70
     1
102
RTVSPropertyOp30
 70
     1
102
RTVSPropertyOp31
 70
     1
102
RTVSPropertyOp32
 70
     1
102
RTVSPropertyOp33
 70
     1
102
RTVSPropertyOp34
 70
     1
102
RTVSPropertyOp35
 70
     1
102
RTVSPropertyOp36
 70
     1
102
RTVSPropertyOp37
 70
     1
102
RTVSPropertyOp38
 70
     1
102
RTVSPropertyOp39
 70
     1
102
RTVSPropertyOp40
 70
     1
102
RTVSPropertyOp41
 70
     1
102
RTVSPropertyOp42
 70
     1
102
RTVSPropertyOp43
 70
     1
102
RTVSPropertyOp44
 70
     1
102
RTVSPropertyOp45
 70
     1
102
RTVSPropertyOp46
 70
     1
102
RTVSPropertyOp47
 70
     1
102
RTVSPropertyOp48
 70
     1
102
RTVSPropertyOp49
 70
     1
102
RTVSPropertyOp50
 70
     1
102
RTVSPropertyOp51
 70
     0
102
RTVSPropertyOp52
 70
     0
102
RTVSPropertyOp53
 70
     1
102
RTVSPropertyOp54
 70
     1
102
RTVSPropertyOp55
 70
     1
102
RTVSPropertyOp56
 70
     1
102
RTVSPropertyOp57
 70
     1
102
RTVSPropertyOp58
 70
     1
102
RTVSPropertyOp59
 70
     1
102
RTVSPropertyOp60
 70
     1
102
RTVSPropertyOp61
 70
     1
102
RTVSPropertyOp62
 70
     1
  0
XRECORD
  5
4BC
102
{ACAD_REACTORS
330
4BB
102
}
330
4BB
100
AcDbXrecord
280
     1
102
RTVSPost2010Prop28
280
     0
102
RTVSPost2010PropOp28
 70
     1
102
RTVSPost2010Prop29
280
     1
102
RTVSPost2010PropOp29
 70
     1
102
RTVSPost2010Prop30
280
     1
102
RTVSPost2010PropOp30
 70
     1
102
RTVSPost2010Prop31
280
     0
102
RTVSPost2010PropOp31
 70
     1
102
RTVSPost2010Prop32
280
     0
102
RTVSPost2010PropOp32
 70
     1
102
RTVSPost2010Prop33
280
     0
102
RTVSPost2010PropOp33
 70
     1
102
RTVSPost2010Prop34
280
     0
102
RTVSPost2010PropOp34
 70
     1
102
RTVSPost2010Prop35
280
     0
102
RTVSPost2010PropOp35
 70
     1
102
RTVSPost2010Prop36
280
     0
102
RTVSPost2010PropOp36
 70
     1
102
RTVSPost2010Prop37
 90
       50
102
RTVSPost2010PropOp37
 70
     1
102
RTVSPost2010Prop38
140
0.0
102
RTVSPost2010PropOp38
 70
     1
102
RTVSPost2010Prop39
140
1.0
102
RTVSPost2010PropOp39
 70
     1
102
RTVSPost2010Prop40
 90
        0
102
RTVSPost2010PropOp40
 70
     1
102
RTVSPost2010Prop41ColorIndex
 90
       18
102
RTVSPost2010Prop41ColorRGB
 90
        0
102
RTVSPost2010PropOp41
 70
     1
102
RTVSPost2010Prop42
 90
       50
102
RTVSPost2010PropOp42
 70
     1
102
RTVSPost2010Prop43
 90
        3
102
RTVSPost2010PropOp43
 70
     1
102
RTVSPost2010Prop44ColorIndex
 90
        5
102
RTVSPost2010Prop44ColorRGB
 90
      255
102
RTVSPost2010PropOp44
 70
     1
102
RTVSPost2010Prop45
280
     0
102
RTVSPost2010PropOp45
 70
     1
102
RTVSPost2010Prop46
 90
       50
102
RTVSPost2010PropOp46
 70
     1
102
RTVSPost2010Prop47
 90
       50
102
RTVSPost2010PropOp47
 70
     1
102
RTVSPost2010Prop48
 90
       50
102
RTVSPost2010PropOp48
 70
     1
102
RTVSPost2010Prop49
280
     0
102
RTVSPost2010PropOp49
 70
     1
102
RTVSPost2010Prop50
 90
       50
102
RTVSPost2010PropOp50
 70
     1
102
RTVSPost2010Prop51ColorIndex
 90
      256
102
RTVSPost2010Prop51ColorRGB
 90
-16777216
102
RTVSPost2010PropOp51
 70
     0
102
RTVSPost2010Prop52
140
1.0
102
RTVSPost2010PropOp52
 70
     0
102
RTVSPost2010Prop53
 90
        2
102
RTVSPost2010PropOp53
 70
     1
102
RTVSPost2010Prop54
  1
strokes_ogs.tif
102
RTVSPost2010PropOp54
 70
     1
102
RTVSPost2010Prop55
280
     0
102
RTVSPost2010PropOp55
 70
     1
102
RTVSPost2010Prop56
140
1.0
102
RTVSPost2010PropOp56
 70
     1
102
RTVSPost2010Prop57
140
1.0
102
RTVSPost2010PropOp57
 70
     1
102
RTVSPropertyOp0
 70
     1
102
RTVSPropertyOp1
 70
     1
102
RTVSPropertyOp2
 70
     1
102
RTVSPropertyOp3
 70
     1
102
RTVSPropertyOp4
 70
     1
102
RTVSPropertyOp5
 70
     1
102
RTVSPropertyOp6
 70
     1
102
RTVSPropertyOp7
 70
     1
102
RTVSPropertyOp8
 70
     1
102
RTVSPropertyOp9
 70
     1
102
RTVSPropertyOp10
 70
     1
102
RTVSPropertyOp11
 70
     1
102
RTVSPropertyOp12
 70
     1
102
RTVSPropertyOp13
 70
     1
102
RTVSPropertyOp14
 70
     1
102
RTVSPropertyOp15
 70
     1
102
RTVSPropertyOp16
 70
     1
102
RTVSPropertyOp17
 70
     1
102
RTVSPropertyOp18
 70
     1
102
RTVSPropertyOp19
 70
     1
102
RTVSPropertyOp20
 70
     1
102
RTVSPropertyOp21
 70
     1
102
RTVSPropertyOp22
 70
     1
102
RTVSPropertyOp23
 70
     1
102
RTVSPropertyOp24
 70
     1
102
RTVSPropertyOp25
 70
     1
102
RTVSPropertyOp26
 70
     1
102
RTVSPropertyOp27
 70
     1
102
RTVSPropertyOp28
 70
     1
102
RTVSPropertyOp29
 70
     1
102
RTVSPropertyOp30
 70
     1
102
RTVSPropertyOp31
 70
     1
102
RTVSPropertyOp32
 70
     1
102
RTVSPropertyOp33
 70
     1
102
RTVSPropertyOp34
 70
     1
102
RTVSPropertyOp35
 70
     1
102
RTVSPropertyOp36
 70
     1
102
RTVSPropertyOp37
 70
     1
102
RTVSPropertyOp38
 70
     1
102
RTVSPropertyOp39
 70
     1
102
RTVSPropertyOp40
 70
     1
102
RTVSPropertyOp41
 70
     1
102
RTVSPropertyOp42
 70
     1
102
RTVSPropertyOp43
 70
     1
102
RTVSPropertyOp44
 70
     1
102
RTVSPropertyOp45
 70
     1
102
RTVSPropertyOp46
 70
     1
102
RTVSPropertyOp47
 70
     1
102
RTVSPropertyOp48
 70
     1
102
RTVSPropertyOp49
 70
     1
102
RTVSPropertyOp50
 70
     1
102
RTVSPropertyOp51
 70
     0
102
RTVSPropertyOp52
 70
     0
102
RTVSPropertyOp53
 70
     1
102
RTVSPropertyOp54
 70
     1
102
RTVSPropertyOp55
 70
     1
102
RTVSPropertyOp56
 70
     1
102
RTVSPropertyOp57
 70
     1
102
RTVSPropertyOp58
 70
     1
102
RTVSPropertyOp59
 70
     1
102
RTVSPropertyOp60
 70
     1
102
RTVSPropertyOp61
 70
     1
102
RTVSPropertyOp62
 70
     1
  0
XRECORD
  5
4D4
102
{ACAD_REACTORS
330
4D3
102
}
330
4D3
100
AcDbXrecord
280
     1
102
RTVSPost2010Prop28
280
     0
102
RTVSPost2010PropOp28
 70
     1
102
RTVSPost2010Prop29
280
     1
102
RTVSPost2010PropOp29
 70
     1
102
RTVSPost2010Prop30
280
     1
102
RTVSPost2010PropOp30
 70
     1
102
RTVSPost2010Prop31
280
     0
102
RTVSPost2010PropOp31
 70
     1
102
RTVSPost2010Prop32
280
     0
102
RTVSPost2010PropOp32
 70
     1
102
RTVSPost2010Prop33
280
     0
102
RTVSPost2010PropOp33
 70
     1
102
RTVSPost2010Prop34
280
     0
102
RTVSPost2010PropOp34
 70
     1
102
RTVSPost2010Prop35
280
     0
102
RTVSPost2010PropOp35
 70
     1
102
RTVSPost2010Prop36
280
     0
102
RTVSPost2010PropOp36
 70
     1
102
RTVSPost2010Prop37
 90
       50
102
RTVSPost2010PropOp37
 70
     1
102
RTVSPost2010Prop38
140
0.0
102
RTVSPost2010PropOp38
 70
     1
102
RTVSPost2010Prop39
140
1.0
102
RTVSPost2010PropOp39
 70
     1
102
RTVSPost2010Prop40
 90
        0
102
RTVSPost2010PropOp40
 70
     1
102
RTVSPost2010Prop41ColorIndex
 90
       18
102
RTVSPost2010Prop41ColorRGB
 90
        0
102
RTVSPost2010PropOp41
 70
     1
102
RTVSPost2010Prop42
 90
       50
102
RTVSPost2010PropOp42
 70
     1
102
RTVSPost2010Prop43
 90
        3
102
RTVSPost2010PropOp43
 70
     1
102
RTVSPost2010Prop44ColorIndex
 90
        5
102
RTVSPost2010Prop44ColorRGB
 90
      255
102
RTVSPost2010PropOp44
 70
     1
102
RTVSPost2010Prop45
280
     0
102
RTVSPost2010PropOp45
 70
     1
102
RTVSPost2010Prop46
 90
       50
102
RTVSPost2010PropOp46
 70
     1
102
RTVSPost2010Prop47
 90
       50
102
RTVSPost2010PropOp47
 70
     1
102
RTVSPost2010Prop48
 90
       50
102
RTVSPost2010PropOp48
 70
     1
102
RTVSPost2010Prop49
280
     0
102
RTVSPost2010PropOp49
 70
     1
102
RTVSPost2010Prop50
 90
       50
102
RTVSPost2010PropOp50
 70
     1
102
RTVSPost2010Prop51ColorIndex
 90
      256
102
RTVSPost2010Prop51ColorRGB
 90
-16777216
102
RTVSPost2010PropOp51
 70
     0
102
RTVSPost2010Prop52
140
1.0
102
RTVSPost2010PropOp52
 70
     0
102
RTVSPost2010Prop53
 90
        2
102
RTVSPost2010PropOp53
 70
     1
102
RTVSPost2010Prop54
  1
strokes_ogs.tif
102
RTVSPost2010PropOp54
 70
     1
102
RTVSPost2010Prop55
280
     0
102
RTVSPost2010PropOp55
 70
     1
102
RTVSPost2010Prop56
140
1.0
102
RTVSPost2010PropOp56
 70
     1
102
RTVSPost2010Prop57
140
1.0
102
RTVSPost2010PropOp57
 70
     1
102
RTVSPropertyOp0
 70
     1
102
RTVSPropertyOp1
 70
     1
102
RTVSPropertyOp2
 70
     1
102
RTVSPropertyOp3
 70
     1
102
RTVSPropertyOp4
 70
     1
102
RTVSPropertyOp5
 70
     1
102
RTVSPropertyOp6
 70
     1
102
RTVSPropertyOp7
 70
     1
102
RTVSPropertyOp8
 70
     1
102
RTVSPropertyOp9
 70
     1
102
RTVSPropertyOp10
 70
     1
102
RTVSPropertyOp11
 70
     1
102
RTVSPropertyOp12
 70
     1
102
RTVSPropertyOp13
 70
     1
102
RTVSPropertyOp14
 70
     1
102
RTVSPropertyOp15
 70
     1
102
RTVSPropertyOp16
 70
     1
102
RTVSPropertyOp17
 70
     1
102
RTVSPropertyOp18
 70
     1
102
RTVSPropertyOp19
 70
     1
102
RTVSPropertyOp20
 70
     1
102
RTVSPropertyOp21
 70
     1
102
RTVSPropertyOp22
 70
     1
102
RTVSPropertyOp23
 70
     1
102
RTVSPropertyOp24
 70
     1
102
RTVSPropertyOp25
 70
     1
102
RTVSPropertyOp26
 70
     1
102
RTVSPropertyOp27
 70
     1
102
RTVSPropertyOp28
 70
     1
102
RTVSPropertyOp29
 70
     1
102
RTVSPropertyOp30
 70
     1
102
RTVSPropertyOp31
 70
     1
102
RTVSPropertyOp32
 70
     1
102
RTVSPropertyOp33
 70
     1
102
RTVSPropertyOp34
 70
     1
102
RTVSPropertyOp35
 70
     1
102
RTVSPropertyOp36
 70
     1
102
RTVSPropertyOp37
 70
     1
102
RTVSPropertyOp38
 70
     1
102
RTVSPropertyOp39
 70
     1
102
RTVSPropertyOp40
 70
     1
102
RTVSPropertyOp41
 70
     1
102
RTVSPropertyOp42
 70
     1
102
RTVSPropertyOp43
 70
     1
102
RTVSPropertyOp44
 70
     1
102
RTVSPropertyOp45
 70
     1
102
RTVSPropertyOp46
 70
     1
102
RTVSPropertyOp47
 70
     1
102
RTVSPropertyOp48
 70
     1
102
RTVSPropertyOp49
 70
     1
102
RTVSPropertyOp50
 70
     1
102
RTVSPropertyOp51
 70
     0
102
RTVSPropertyOp52
 70
     0
102
RTVSPropertyOp53
 70
     1
102
RTVSPropertyOp54
 70
     1
102
RTVSPropertyOp55
 70
     1
102
RTVSPropertyOp56
 70
     1
102
RTVSPropertyOp57
 70
     1
102
RTVSPropertyOp58
 70
     1
102
RTVSPropertyOp59
 70
     1
102
RTVSPropertyOp60
 70
     1
102
RTVSPropertyOp61
 70
     1
102
RTVSPropertyOp62
 70
     1
  0
ENDSEC
  0
EOF
