  0
SECTION
  2
HEADER
  9
$ACADVER
  1
AC1018
  9
$ACADMAINTVER
 70
   104
  9
$DWGCODEPAGE
  3
ANSI_932
  9
$INSBASE
 10
0.0
 20
0.0
 30
0.0
  9
$EXTMIN
 10
-0.03458863
 20
-0.02459604
 30
-0.00000003
  9
$EXTMAX
 10
566.76060691
 20
403.0246098
 30
0.00000008
  9
$LIMMIN
 10
0.0
 20
0.0
  9
$LIMMAX
 10
420.0
 20
297.0
  9
$ORTHOMODE
 70
     1
  9
$REGENMODE
 70
     1
  9
$FILLMODE
 70
     1
  9
$QTEXTMODE
 70
     0
  9
$MIRRTEXT
 70
     0
  9
$LTSCALE
 40
1.0
  9
$ATTMODE
 70
     1
  9
$TEXTSIZE
 40
3.0
  9
$TRACEWID
 40
1.0
  9
$TEXTSTYLE
  7
STANDARD
  9
$CLAYER
  8
0
  9
$CELTYPE
  6
BYLAYER
  9
$CECOLOR
 62
   256
  9
$CELTSCALE
 40
1.0
  9
$DISPSILH
 70
     1
  9
$DIMSCALE
 40
1.0
  9
$DIMASZ
 40
1.5
  9
$DIMEXO
 40
2.0
  9
$DIMDLI
 40
10.0
  9
$DIMRND
 40
0.0
  9
$DIMDLE
 40
0.0
  9
$DIMEXE
 40
2.0
  9
$DIMTP
 40
0.0
  9
$DIMTM
 40
0.0
  9
$DIMTXT
 40
3.0
  9
$DIMCEN
 40
0.0
  9
$DIMTSZ
 40
0.0
  9
$DIMTOL
 70
     0
  9
$DIMLIM
 70
     0
  9
$DIMTIH
 70
     0
  9
$DIMTOH
 70
     0
  9
$DIMSE1
 70
     0
  9
$DIMSE2
 70
     0
  9
$DIMTAD
 70
     0
  9
$DIMZIN
 70
     0
  9
$DIMBLK
  1

  9
$DIMASO
 70
     1
  9
$DIMSHO
 70
     1
  9
$DIMPOST
  1

  9
$DIMAPOST
  1

  9
$DIMALT
 70
     0
  9
$DIMALTD
 70
     2
  9
$DIMALTF
 40
0.0394
  9
$DIMLFAC
 40
1.0
  9
$DIMTOFL
 70
     1
  9
$DIMTVP
 40
1.0
  9
$DIMTIX
 70
     0
  9
$DIMSOXD
 70
     0
  9
$DIMSAH
 70
     1
  9
$DIMBLK1
  1
DOT1
  9
$DIMBLK2
  1
DOT1
  9
$DIMSTYLE
  2
YKK_OSADOT
  9
$DIMCLRD
 70
     0
  9
$DIMCLRE
 70
     0
  9
$DIMCLRT
 70
     0
  9
$DIMTFAC
 40
1.0
  9
$DIMGAP
 40
0.01
  9
$DIMJUST
 70
     0
  9
$DIMSD1
 70
     0
  9
$DIMSD2
 70
     0
  9
$DIMTOLJ
 70
     1
  9
$DIMTZIN
 70
    12
  9
$DIMALTZ
 70
    12
  9
$DIMALTTZ
 70
    12
  9
$DIMUPT
 70
     0
  9
$DIMDEC
 70
     4
  9
$DIMTDEC
 70
     4
  9
$DIMALTU
 70
     2
  9
$DIMALTTD
 70
     2
  9
$DIMTXSTY
  7
STANDARD
  9
$DIMAUNIT
 70
     0
  9
$DIMADEC
 70
     0
  9
$DIMALTRND
 40
0.0
  9
$DIMAZIN
 70
     0
  9
$DIMDSEP
 70
    46
  9
$DIMATFIT
 70
     3
  9
$DIMFRAC
 70
     0
  9
$DIMLDRBLK
  1

  9
$DIMLUNIT
 70
     2
  9
$DIMLWD
 70
    -2
  9
$DIMLWE
 70
    -2
  9
$DIMTMOVE
 70
     2
  9
$LUNITS
 70
     2
  9
$LUPREC
 70
     4
  9
$SKETCHINC
 40
1.0
  9
$FILLETRAD
 40
0.0
  9
$AUNITS
 70
     0
  9
$AUPREC
 70
     0
  9
$MENU
  1
.
  9
$ELEVATION
 40
0.0
  9
$PELEVATION
 40
0.0
  9
$THICKNESS
 40
0.0
  9
$LIMCHECK
 70
     0
  9
$CHAMFERA
 40
0.0
  9
$CHAMFERB
 40
0.0
  9
$CHAMFERC
 40
0.0
  9
$CHAMFERD
 40
0.0
  9
$SKPOLY
 70
     0
  9
$TDCREATE
 40
2452591.511588311
  9
$TDUCREATE
 40
2452591.136588310
  9
$TDUPDATE
 40
2457151.456926355
  9
$TDUUPDATE
 40
2457151.081926354
  9
$TDINDWG
 40
0.0038447106
  9
$TDUSRTIMER
 40
0.0038447106
  9
$USRTIMER
 70
     1
  9
$ANGBASE
 50
0.0
  9
$ANGDIR
 70
     0
  9
$PDMODE
 70
     0
  9
$PDSIZE
 40
0.0
  9
$PLINEWID
 40
0.0
  9
$SPLFRAME
 70
     0
  9
$SPLINETYPE
 70
     6
  9
$SPLINESEGS
 70
     8
  9
$HANDSEED
  5
57F
  9
$SURFTAB1
 70
     6
  9
$SURFTAB2
 70
     6
  9
$SURFTYPE
 70
     6
  9
$SURFU
 70
     6
  9
$SURFV
 70
     6
  9
$UCSBASE
  2

  9
$UCSNAME
  2

  9
$UCSORG
 10
0.0
 20
0.0
 30
0.0
  9
$UCSXDIR
 10
1.0
 20
0.0
 30
0.0
  9
$UCSYDIR
 10
0.0
 20
1.0
 30
0.0
  9
$UCSORTHOREF
  2

  9
$UCSORTHOVIEW
 70
     0
  9
$UCSORGTOP
 10
0.0
 20
0.0
 30
0.0
  9
$UCSORGBOTTOM
 10
0.0
 20
0.0
 30
0.0
  9
$UCSORGLEFT
 10
0.0
 20
0.0
 30
0.0
  9
$UCSORGRIGHT
 10
0.0
 20
0.0
 30
0.0
  9
$UCSORGFRONT
 10
0.0
 20
0.0
 30
0.0
  9
$UCSORGBACK
 10
0.0
 20
0.0
 30
0.0
  9
$PUCSBASE
  2

  9
$PUCSNAME
  2

  9
$PUCSORG
 10
0.0
 20
0.0
 30
0.0
  9
$PUCSXDIR
 10
1.0
 20
0.0
 30
0.0
  9
$PUCSYDIR
 10
0.0
 20
1.0
 30
0.0
  9
$PUCSORTHOREF
  2

  9
$PUCSORTHOVIEW
 70
     0
  9
$PUCSORGTOP
 10
0.0
 20
0.0
 30
0.0
  9
$PUCSORGBOTTOM
 10
0.0
 20
0.0
 30
0.0
  9
$PUCSORGLEFT
 10
0.0
 20
0.0
 30
0.0
  9
$PUCSORGRIGHT
 10
0.0
 20
0.0
 30
0.0
  9
$PUCSORGFRONT
 10
0.0
 20
0.0
 30
0.0
  9
$PUCSORGBACK
 10
0.0
 20
0.0
 30
0.0
  9
$USERI1
 70
     0
  9
$USERI2
 70
     1
  9
$USERI3
 70
     0
  9
$USERI4
 70
     0
  9
$USERI5
 70
     0
  9
$USERR1
 40
0.0
  9
$USERR2
 40
0.0
  9
$USERR3
 40
0.0
  9
$USERR4
 40
0.0
  9
$USERR5
 40
0.0
  9
$WORLDVIEW
 70
     1
  9
$SHADEDGE
 70
     3
  9
$SHADEDIF
 70
    70
  9
$TILEMODE
 70
     1
  9
$MAXACTVP
 70
    48
  9
$PINSBASE
 10
0.0
 20
0.0
 30
0.0
  9
$PLIMCHECK
 70
     0
  9
$PEXTMIN
 10
1.00000000E+20
 20
1.00000000E+20
 30
1.00000000E+20
  9
$PEXTMAX
 10
-1.00000000E+20
 20
-1.00000000E+20
 30
-1.00000000E+20
  9
$PLIMMIN
 10
0.0
 20
0.0
  9
$PLIMMAX
 10
420.0
 20
297.0
  9
$UNITMODE
 70
     0
  9
$VISRETAIN
 70
     1
  9
$PLINEGEN
 70
     0
  9
$PSLTSCALE
 70
     1
  9
$TREEDEPTH
 70
  3020
  9
$CMLSTYLE
  2
STANDARD
  9
$CMLJUST
 70
     0
  9
$CMLSCALE
 40
1.0
  9
$PROXYGRAPHICS
 70
     1
  9
$MEASUREMENT
 70
     1
  9
$CELWEIGHT
370
    -1
  9
$ENDCAPS
280
     0
  9
$JOINSTYLE
280
     0
  9
$LWDISPLAY
290
     0
  9
$INSUNITS
 70
     0
  9
$HYPERLINKBASE
  1

  9
$STYLESHEET
  1

  9
$XEDIT
290
     1
  9
$CEPSNTYPE
380
     0
  9
$PSTYLEMODE
290
     1
  9
$FINGERPRINTGUID
  2
{F96D8AC4-7453-469F-B845-CCEA93D4FF28}
  9
$VERSIONGUID
  2
{39BFCC40-F8B4-4C74-AB69-BC8596BA74CB}
  9
$EXTNAMES
290
     1
  9
$PSVPSCALE
 40
0.0
  9
$OLESTARTUP
290
     0
  9
$SORTENTS
280
   127
  9
$INDEXCTL
280
     0
  9
$HIDETEXT
280
     0
  9
$XCLIPFRAME
290
     0
  9
$HALOGAP
280
     0
  9
$OBSCOLOR
 70
   257
  9
$OBSLTYPE
280
     0
  9
$INTERSECTIONDISPLAY
280
     0
  9
$INTERSECTIONCOLOR
 70
   257
  9
$DIMASSOC
280
     1
  9
$PROJECTNAME
  1

  0
ENDSEC
  0
SECTION
  2
CLASSES
  0
CLASS
  1
DICTIONARYVAR
  2
AcDbDictionaryVar
  3
ObjectDBX Classes
 90
        0
 91
        7
280
     0
281
     0
  0
CLASS
  1
ACDBDICTIONARYWDFLT
  2
AcDbDictionaryWithDefault
  3
ObjectDBX Classes
 90
        0
 91
        1
280
     1
281
     0
  0
CLASS
  1
MATERIAL
  2
AcDbMaterial
  3
ObjectDBX Classes
 90
     1153
 91
        3
280
     0
281
     0
  0
CLASS
  1
VISUALSTYLE
  2
AcDbVisualStyle
  3
ObjectDBX Classes
 90
     4095
 91
       24
280
     0
281
     0
  0
CLASS
  1
TABLESTYLE
  2
AcDbTableStyle
  3
ObjectDBX Classes
 90
     4095
 91
        1
280
     0
281
     0
  0
CLASS
  1
SCALE
  2
AcDbScale
  3
ObjectDBX Classes
 90
     1153
 91
       17
280
     0
281
     0
  0
CLASS
  1
MLEADERSTYLE
  2
AcDbMLeaderStyle
  3
ACDB_MLEADERSTYLE_CLASS
 90
     4095
 91
        1
280
     0
281
     0
  0
CLASS
  1
ACDBSECTIONVIEWSTYLE
  2
AcDbSectionViewStyle
  3
ObjectDBX Classes
 90
     1025
 91
        1
280
     0
281
     0
  0
CLASS
  1
ACDBDETAILVIEWSTYLE
  2
AcDbDetailViewStyle
  3
ObjectDBX Classes
 90
     1025
 91
        1
280
     0
281
     0
  0
CLASS
  1
CELLSTYLEMAP
  2
AcDbCellStyleMap
  3
ObjectDBX Classes
 90
     1152
 91
        2
280
     0
281
     0
  0
ENDSEC
  0
SECTION
  2
TABLES
  0
TABLE
  2
VPORT
  5
16
330
0
100
AcDbSymbolTable
 70
     1
  0
VPORT
  5
49D
330
16
100
AcDbSymbolTableRecord
100
AcDbViewportTableRecord
  2
*ACTIVE
 70
     0
 10
0.0
 20
0.0
 11
1.0
 21
1.0
 12
283.36300914
 22
201.50000688
 13
0.0
 23
0.0
 14
10.0
 24
10.0
 15
10.0
 25
10.0
 16
0.0
 26
0.0
 36
1.0
 17
0.0
 27
0.0
 37
0.0
 40
406.54890951
 41
1.45652174
 42
50.0
 43
0.0
 44
0.0
 50
0.0
 51
0.0
 71
     0
 72
  1000
 73
     1
 74
     0
 75
     0
 76
     0
 77
     0
 78
     0
281
     0
 65
     1
110
0.0
120
0.0
130
0.0
111
1.0
121
0.0
131
0.0
112
0.0
122
1.0
132
0.0
 79
     0
146
0.0
1001
ACAD_NAV_VCDISPLAY
1070
     1
  0
ENDTAB
  0
TABLE
  2
LTYPE
  5
11
330
0
100
AcDbSymbolTable
 70
     4
  0
LTYPE
  5
12
330
11
100
AcDbSymbolTableRecord
100
AcDbLinetypeTableRecord
  2
BYBLOCK
 70
     0
  3

 72
    65
 73
     0
 40
0.0
  0
LTYPE
  5
13
330
11
100
AcDbSymbolTableRecord
100
AcDbLinetypeTableRecord
  2
BYLAYER
 70
     0
  3

 72
    65
 73
     0
 40
0.0
  0
LTYPE
  5
7
330
11
100
AcDbSymbolTableRecord
100
AcDbLinetypeTableRecord
  2
CONTINUOUS
 70
     0
  3
Solid line
 72
    65
 73
     0
 40
0.0
  0
LTYPE
  5
3A
330
11
100
AcDbSymbolTableRecord
100
AcDbLinetypeTableRecord
  2
HIDDEN
 70
     0
  3
__ __ __ __ __ __ __ __ __ __ __ __ __ __ __ __
 72
    65
 73
     2
 40
0.375
 49
0.25
 74
     0
 49
-0.125
 74
     0
  0
LTYPE
  5
17F
330
11
100
AcDbSymbolTableRecord
100
AcDbLinetypeTableRecord
  2
YCENTER_1
 70
     0
  3
中心線尺度1--- － --- － ---
 72
    65
 73
     4
 40
13.0
 49
10.0
 74
     0
 49
-1.0
 74
     0
 49
1.0
 74
     0
 49
-1.0
 74
     0
  0
LTYPE
  5
F5
330
11
100
AcDbSymbolTableRecord
100
AcDbLinetypeTableRecord
  2
YHIDDEN_1
 70
     0
  3
破線尺度1－ － － － － － －
 72
    65
 73
     2
 40
4.0
 49
3.0
 74
     0
 49
-1.0
 74
     0
  0
ENDTAB
  0
TABLE
  2
LAYER
  5
E
330
0
100
AcDbSymbolTable
 70
     8
  0
LAYER
  5
6
330
E
100
AcDbSymbolTableRecord
100
AcDbLayerTableRecord
  2
0
 70
     0
 62
     7
  6
CONTINUOUS
370
    -3
390
4A0
  0
LAYER
  5
31
330
E
100
AcDbSymbolTableRecord
100
AcDbLayerTableRecord
  2
YKK_ZWAK
 70
     0
 62
     7
  6
CONTINUOUS
370
    -3
390
4A0
  0
LAYER
  5
2F
330
E
100
AcDbSymbolTableRecord
100
AcDbLayerTableRecord
  2
USER1
 70
     0
 62
     3
  6
CONTINUOUS
370
    -3
390
4A0
  0
LAYER
  5
2C
330
E
100
AcDbSymbolTableRecord
100
AcDbLayerTableRecord
  2
YKK_11
 70
     0
 62
     7
  6
CONTINUOUS
370
    -3
390
4A0
  0
LAYER
  5
104
330
E
100
AcDbSymbolTableRecord
100
AcDbLayerTableRecord
  2
YKK_12
 70
     0
 62
     2
  6
CONTINUOUS
370
    -3
390
4A0
  0
LAYER
  5
F4
330
E
100
AcDbSymbolTableRecord
100
AcDbLayerTableRecord
  2
YKK_13
 70
     0
 62
     4
  6
CONTINUOUS
370
    -3
390
4A0
  0
LAYER
  5
ED
330
E
100
AcDbSymbolTableRecord
100
AcDbLayerTableRecord
  2
YKK_A1
 70
     0
 62
     4
  6
CONTINUOUS
370
    -3
390
4A0
  0
LAYER
  5
F8
330
E
100
AcDbSymbolTableRecord
100
AcDbLayerTableRecord
  2
YKK_D
 70
     0
 62
     6
  6
CONTINUOUS
370
    -3
390
4A0
  0
ENDTAB
  0
TABLE
  2
STYLE
  5
F
330
0
100
AcDbSymbolTable
 70
     2
  0
STYLE
  5
10
330
F
100
AcDbSymbolTableRecord
100
AcDbTextStyleTableRecord
  2
STANDARD
 70
     0
 40
0.0
 41
1.0
 50
0.0
 71
     0
 42
3.0
  3
ROMANS.SHX
  4
EXTFONT.SHX
  0
STYLE
  5
40
330
F
100
AcDbSymbolTableRecord
100
AcDbTextStyleTableRecord
  2
YKK_OSSTYLE1
 70
     0
 40
0.0
 41
0.9
 50
0.0
 71
     0
 42
4.0
  3
romans.shx
  4
EXTFONT.SHX
  0
ENDTAB
  0
TABLE
  2
VIEW
  5
14
330
0
100
AcDbSymbolTable
 70
     0
  0
ENDTAB
  0
TABLE
  2
UCS
  5
15
330
0
100
AcDbSymbolTable
 70
     0
  0
ENDTAB
  0
TABLE
  2
APPID
  5
18
330
0
100
AcDbSymbolTable
 70
     7
  0
APPID
  5
19
330
18
100
AcDbSymbolTableRecord
100
AcDbRegAppTableRecord
  2
ACAD
 70
     0
  0
APPID
  5
49A
330
18
100
AcDbSymbolTableRecord
100
AcDbRegAppTableRecord
  2
CONTENTTABDATA
 70
     0
  0
APPID
  5
49B
330
18
100
AcDbSymbolTableRecord
100
AcDbRegAppTableRecord
  2
CONTENTCURRENTTAB
 70
     0
  0
APPID
  5
52B
330
18
100
AcDbSymbolTableRecord
100
AcDbRegAppTableRecord
  2
ACAD_MLEADERVER
 70
     0
  0
APPID
  5
53F
330
18
100
AcDbSymbolTableRecord
100
AcDbRegAppTableRecord
  2
ACAD_PSEXT
 70
     0
  0
APPID
  5
540
330
18
100
AcDbSymbolTableRecord
100
AcDbRegAppTableRecord
  2
ACAD_NAV_VCDISPLAY
 70
     0
  0
APPID
  5
541
330
18
100
AcDbSymbolTableRecord
100
AcDbRegAppTableRecord
  2
YKK_AP_LOCKLAYER
 70
     0
  0
ENDTAB
  0
TABLE
  2
DIMSTYLE
  5
1A
330
0
100
AcDbSymbolTable
 70
     1
100
AcDbDimStyleTable
 71
     0
  0
DIMSTYLE
105
22
330
1A
100
AcDbSymbolTableRecord
100
AcDbDimStyleTableRecord
  2
YKK_OSADOT
 70
     0
 41
1.5
 42
2.0
 43
10.0
 44
2.0
 73
     0
 74
     0
 78
    12
140
3.0
141
0.0
143
0.0394
145
1.0
147
0.01
172
     1
173
     1
279
     2
284
    12
285
    12
286
    12
340
10
341
25
343
25
344
25
  0
ENDTAB
  0
TABLE
  2
BLOCK_RECORD
  5
1
330
0
100
AcDbSymbolTable
 70
     2
  0
BLOCK_RECORD
  5
2
102
{ACAD_XDICTIONARY
360
3
102
}
330
1
100
AcDbSymbolTableRecord
100
AcDbBlockTableRecord
  2
*MODEL_SPACE
340
4F2
  0
BLOCK_RECORD
  5
9
102
{ACAD_XDICTIONARY
360
A
102
}
330
1
100
AcDbSymbolTableRecord
100
AcDbBlockTableRecord
  2
*PAPER_SPACE
340
4F3
  0
BLOCK_RECORD
  5
25
330
1
100
AcDbSymbolTableRecord
100
AcDbBlockTableRecord
  2
DOT1
340
0
  0
BLOCK_RECORD
  5
32
330
1
100
AcDbSymbolTableRecord
100
AcDbBlockTableRecord
  2
A201
340
0
102
{BLKREFS
331
30
102
}
  0
ENDTAB
  0
ENDSEC
  0
SECTION
  2
BLOCKS
  0
BLOCK
  5
5
330
2
100
AcDbEntity
  8
0
100
AcDbBlockBegin
  2
*MODEL_SPACE
 70
     0
 10
0.0
 20
0.0
 30
0.0
  3
*MODEL_SPACE
  1

  0
ENDBLK
  5
8
330
2
100
AcDbEntity
  8
0
100
AcDbBlockEnd
  0
BLOCK
  5
C
330
9
100
AcDbEntity
 67
     1
  8
0
100
AcDbBlockBegin
  2
*PAPER_SPACE
 70
     0
 10
0.0
 20
0.0
 30
0.0
  3
*PAPER_SPACE
  1

  0
ENDBLK
  5
D
330
9
100
AcDbEntity
 67
     1
  8
0
100
AcDbBlockEnd
  0
BLOCK
  5
29
330
25
100
AcDbEntity
  8
0
100
AcDbBlockBegin
  2
DOT1
 70
     0
 10
0.0
 20
0.0
 30
0.0
  3
DOT1
  1

  0
CIRCLE
  5
26
330
25
100
AcDbEntity
  8
0
  6
ByBlock
 62
     0
370
    -2
100
AcDbCircle
 10
0.0
 20
0.0
 30
0.0
 40
0.5
  0
CIRCLE
  5
27
330
25
100
AcDbEntity
  8
0
  6
ByBlock
 62
     0
370
    -2
100
AcDbCircle
 10
0.0
 20
0.0
 30
0.0
 40
0.325
  0
LINE
  5
28
330
25
100
AcDbEntity
  8
0
  6
ByBlock
 62
     0
370
    -2
100
AcDbLine
 10
0.0
 20
0.0
 30
0.0
 11
-1.0
 21
0.0
 31
0.0
  0
ENDBLK
  5
2A
330
25
100
AcDbEntity
  8
0
100
AcDbBlockEnd
  0
BLOCK
  5
EA
330
32
100
AcDbEntity
  8
0
100
AcDbBlockBegin
  2
A201
 70
     0
 10
0.0
 20
0.0
 30
0.0
  3
A201
  1

  0
LINE
  5
33
330
32
100
AcDbEntity
  8
YKK_ZWAK
  6
Continuous
 62
   254
100
AcDbLine
 10
21.000001
 20
8.9995
 30
0.0
 11
544.000013
 21
8.9995
 31
0.0
  0
LINE
  5
34
330
32
100
AcDbEntity
  8
YKK_ZWAK
  6
Continuous
 62
   131
100
AcDbLine
 10
205.000005
 20
21.000001
 30
0.0
 11
297.000007
 21
21.000001
 31
0.0
  0
LINE
  5
35
330
32
100
AcDbEntity
  8
YKK_ZWAK
  6
Continuous
 62
   254
100
AcDbLine
 10
571.000014
 20
34.999501
 30
0.0
 11
21.000001
 21
34.999501
 31
0.0
  0
LINE
  5
36
330
32
100
AcDbEntity
  8
YKK_ZWAK
  6
Continuous
 62
   254
100
AcDbLine
 10
544.000013
 20
33.999501
 30
0.0
 11
21.000001
 21
33.999501
 31
0.0
  0
LINE
  5
37
330
32
100
AcDbEntity
  8
YKK_ZWAK
  6
Continuous
 62
   254
100
AcDbLine
 10
571.000014
 20
409.99951
 30
0.0
 11
21.000001
 21
409.99951
 31
0.0
  0
LINE
  5
38
330
32
100
AcDbEntity
  8
YKK_ZWAK
  6
Continuous
 62
   254
100
AcDbLine
 10
21.000001
 20
34.999501
 30
0.0
 11
21.000001
 21
409.99951
 31
0.0
  0
LINE
  5
39
330
32
100
AcDbEntity
  8
YKK_ZWAK
  6
HIDDEN
 62
   131
100
AcDbLine
 10
24.284751
 20
13.7865
 30
0.0
 11
201.565005
 21
13.7865
 31
0.0
  0
LINE
  5
3B
330
32
100
AcDbEntity
  8
YKK_ZWAK
  6
HIDDEN
 62
   131
100
AcDbLine
 10
24.284751
 20
18.7355
 30
0.0
 11
201.565005
 21
18.7355
 31
0.0
  0
LINE
  5
3C
330
32
100
AcDbEntity
  8
YKK_ZWAK
  6
HIDDEN
 62
   131
100
AcDbLine
 10
24.284751
 20
23.684501
 30
0.0
 11
201.565005
 21
23.684501
 31
0.0
  0
LINE
  5
3D
330
32
100
AcDbEntity
  8
YKK_ZWAK
  6
HIDDEN
 62
   131
100
AcDbLine
 10
24.284751
 20
28.633501
 30
0.0
 11
201.565005
 21
28.633501
 31
0.0
  0
LINE
  5
3E
330
32
100
AcDbEntity
  8
YKK_ZWAK
  6
Continuous
 62
   254
100
AcDbLine
 10
21.000001
 20
8.9995
 30
0.0
 11
21.000001
 21
33.999501
 31
0.0
  0
TEXT
  5
3F
330
32
100
AcDbEntity
  8
YKK_ZWAK
  6
Continuous
 62
   131
100
AcDbText
 10
24.367481
 20
29.394844
 30
0.0
 40
3.0
  1
変 更 記 事
 41
0.9
  7
YKK_OSSTYLE1
100
AcDbText
  0
TEXT
  5
41
330
32
100
AcDbEntity
  8
YKK_ZWAK
  6
Continuous
 62
   254
100
AcDbText
 10
289.94159
 20
12.3725
 30
0.0
 40
5.0
  1
殿
 41
0.9
  7
YKK_OSSTYLE1
100
AcDbText
  0
LINE
  5
42
330
32
100
AcDbEntity
  8
YKK_ZWAK
  6
Continuous
 62
   254
100
AcDbLine
 10
296.000007
 20
33.999501
 30
0.0
 11
296.000007
 21
8.9995
 31
0.0
  0
LINE
  5
43
330
32
100
AcDbEntity
  8
YKK_ZWAK
  6
Continuous
 62
   254
100
AcDbLine
 10
205.000005
 20
33.999501
 30
0.0
 11
205.000005
 21
8.9995
 31
0.0
  0
TEXT
  5
44
330
32
100
AcDbEntity
  8
YKK_ZWAK
  6
Continuous
 62
   131
100
AcDbText
 10
207.692335
 20
17.675001
 30
0.0
 40
3.0
  1
施　　工
 41
0.9
  7
YKK_OSSTYLE1
100
AcDbText
  0
TEXT
  5
45
330
32
100
AcDbEntity
  8
YKK_ZWAK
  6
Continuous
 62
   131
100
AcDbText
 10
207.692335
 20
30.047503
 30
0.0
 40
3.0
  1
設計監理
 41
0.9
  7
YKK_OSSTYLE1
100
AcDbText
  0
TEXT
  5
46
330
32
100
AcDbEntity
  8
YKK_ZWAK
  6
Continuous
 62
   254
100
AcDbText
 10
289.94159
 20
24.745001
 30
0.0
 40
5.0
  1
殿
 41
0.9
  7
YKK_OSSTYLE1
100
AcDbText
  0
LINE
  5
47
330
32
100
AcDbEntity
  8
YKK_ZWAK
  6
Continuous
 62
   254
100
AcDbLine
 10
19.000001
 20
222.4995055
 30
0.0
 11
21.000001
 21
222.4995055
 31
0.0
  0
LINE
  5
48
330
32
100
AcDbEntity
  8
YKK_ZWAK
  6
Continuous
 62
     8
100
AcDbLine
 10
296.010007
 20
411.99951
 30
0.0
 11
296.010007
 21
409.99951
 31
0.0
  0
LINE
  5
49
330
32
100
AcDbEntity
  8
YKK_ZWAK
  6
Continuous
 62
   254
100
AcDbLine
 10
571.000014
 20
409.99951
 30
0.0
 11
571.000014
 21
34.999501
 31
0.0
  0
LINE
  5
4A
330
32
100
AcDbEntity
  8
YKK_ZWAK
  6
Continuous
 62
   254
100
AcDbLine
 10
452.000011
 20
15.9995
 30
0.0
 11
523.999763
 21
15.9995
 31
0.0
  0
LINE
  5
4B
330
32
100
AcDbEntity
  8
YKK_ZWAK
  6
Continuous
 62
   131
100
AcDbLine
 10
437.703011
 20
29.000001
 30
0.0
 11
389.00001
 21
29.000001
 31
0.0
  0
LINE
  5
4C
330
32
100
AcDbEntity
  8
YKK_ZWAK
  6
Continuous
 62
   254
100
AcDbLine
 10
389.00001
 20
33.999501
 30
0.0
 11
389.00001
 21
8.9995
 31
0.0
  0
LINE
  5
4D
330
32
100
AcDbEntity
  8
YKK_ZWAK
  6
Continuous
 62
   131
100
AcDbLine
 10
297.000007
 20
21.000001
 30
0.0
 11
389.00001
 21
21.000001
 31
0.0
  0
TEXT
  5
4E
330
32
100
AcDbEntity
  8
YKK_ZWAK
  6
Continuous
 62
   131
100
AcDbText
 10
298.58378403
 20
17.465002
 30
0.0
 40
3.0
  1
図面内容
 41
0.9
  7
YKK_OSSTYLE1
100
AcDbText
  0
TEXT
  5
4F
330
32
100
AcDbEntity
  8
YKK_ZWAK
  6
Continuous
 62
   131
100
AcDbText
 10
298.86588
 20
30.047503
 30
0.0
 40
3.0
  1
工 事 名
 41
0.9
  7
YKK_OSSTYLE1
100
AcDbText
  0
TEXT
  5
50
330
32
100
AcDbEntity
  8
YKK_ZWAK
  6
Continuous
 62
   254
100
AcDbText
 10
377.16530176
 20
24.745001
 30
0.0
 40
5.0
  1
工事
 41
0.9
  7
YKK_OSSTYLE1
100
AcDbText
  0
LINE
  5
51
330
32
100
AcDbEntity
  8
YKK_ZWAK
  6
Continuous
 62
   254
100
AcDbLine
 10
452.000011
 20
33.999501
 30
0.0
 11
452.000011
 21
8.9995
 31
0.0
  0
LINE
  5
52
330
32
100
AcDbEntity
  8
YKK_ZWAK
  6
Continuous
 62
   254
100
AcDbLine
 10
437.000011
 20
33.999501
 30
0.0
 11
437.000011
 21
8.9995
 31
0.0
  0
LINE
  5
53
330
32
100
AcDbEntity
  8
YKK_ZWAK
  6
Continuous
 62
   131
100
AcDbLine
 10
443.051603
 20
10.181617
 30
0.0
 11
449.854371
 21
16.984384
 31
0.0
  0
LINE
  5
54
330
32
100
AcDbEntity
  8
YKK_ZWAK
  6
Continuous
 62
   131
100
AcDbLine
 10
421.00001
 20
33.999501
 30
0.0
 11
421.00001
 21
8.9995
 31
0.0
  0
LINE
  5
55
330
32
100
AcDbEntity
  8
YKK_ZWAK
  6
Continuous
 62
   131
100
AcDbLine
 10
405.00001
 20
33.999501
 30
0.0
 11
405.00001
 21
8.9995
 31
0.0
  0
TEXT
  5
56
330
32
100
AcDbEntity
  8
YKK_ZWAK
  6
Continuous
 62
   131
100
AcDbText
 10
392.18209354
 20
9.752325
 30
0.0
 40
3.5
  1
 ． ．
 41
0.9
  7
YKK_OSSTYLE1
100
AcDbText
  0
LINE
  5
57
330
32
100
AcDbEntity
  8
YKK_ZWAK
  6
Continuous
 62
   131
100
AcDbLine
 10
455.5999986
 20
10.4995
 30
0.0
 11
455.5999986
 21
8.9995
 31
0.0
  0
TEXT
  5
58
330
32
100
AcDbEntity
  8
YKK_ZWAK
  6
Continuous
 62
   131
100
AcDbText
 10
407.8246491
 20
29.87075
 30
0.0
 40
3.0
  1
担  当
 41
0.9
  7
YKK_OSSTYLE1
100
AcDbText
  0
TEXT
  5
59
330
32
100
AcDbEntity
  8
YKK_ZWAK
  6
Continuous
 62
   131
100
AcDbText
 10
392.5636631
 20
29.87075
 30
0.0
 40
3.0
  1
照  査
 41
0.9
  7
YKK_OSSTYLE1
100
AcDbText
  0
TEXT
  5
5A
330
32
100
AcDbEntity
  8
YKK_ZWAK
  6
Continuous
 62
   131
100
AcDbText
 10
424.0856971
 20
29.883751
 30
0.0
 40
3.0
  1
作  図
 41
0.9
  7
YKK_OSSTYLE1
100
AcDbText
  0
TEXT
  5
5B
330
32
100
AcDbEntity
  8
YKK_ZWAK
  6
Continuous
 62
   131
100
AcDbText
 10
453.905095
 20
30.047501
 30
0.0
 40
3.0
  1
御承認印
 41
0.9
  7
YKK_OSSTYLE1
100
AcDbText
  0
LINE
  5
5C
330
32
100
AcDbEntity
  8
YKK_ZWAK
  6
Continuous
 62
   131
100
AcDbLine
 10
437.703011
 20
29.000001
 30
0.0
 11
452.000011
 21
29.000001
 31
0.0
  0
LINE
  5
5D
330
32
100
AcDbEntity
  8
YKK_ZWAK
  6
Continuous
 62
   131
100
AcDbLine
 10
439.264403
 20
21.330812
 30
0.0
 11
446.188247
 21
28.254656
 31
0.0
  0
TEXT
  5
5E
330
32
100
AcDbEntity
  8
YKK_ZWAK
  6
Continuous
 62
   131
100
AcDbText
 10
439.5087681
 20
30.044463
 30
0.0
 40
3.0
  1
尺  度
 41
0.9
  7
YKK_OSSTYLE1
100
AcDbText
  0
CIRCLE
  5
5F
330
32
100
AcDbEntity
  8
YKK_ZWAK
  6
Continuous
 62
     8
100
AcDbCircle
 10
579.426014
 20
83.719502
 30
0.0
 40
6.299999999999999
  0
LINE
  5
60
330
32
100
AcDbEntity
  8
YKK_ZWAK
  6
Continuous
 62
     8
100
AcDbLine
 10
573.126014
 20
69.579502
 30
0.0
 11
585.726014
 21
69.579502
 31
0.0
  0
LINE
  5
61
330
32
100
AcDbEntity
  8
YKK_ZWAK
  6
Continuous
 62
     8
100
AcDbLine
 10
573.126014
 20
55.439501
 30
0.0
 11
585.726014
 21
55.439501
 31
0.0
  0
CIRCLE
  5
62
330
32
100
AcDbEntity
  8
YKK_ZWAK
  6
Continuous
 62
     8
100
AcDbCircle
 10
579.426014
 20
69.579502
 30
0.0
 40
6.299999999999999
  0
CIRCLE
  5
63
330
32
100
AcDbEntity
  8
YKK_ZWAK
  6
Continuous
 62
     8
100
AcDbCircle
 10
579.426014
 20
55.439501
 30
0.0
 40
6.299999999999999
  0
LINE
  5
64
330
32
100
AcDbEntity
  8
YKK_ZWAK
  6
Continuous
 62
     8
100
AcDbLine
 10
573.126014
 20
41.299501
 30
0.0
 11
585.726014
 21
41.299501
 31
0.0
  0
CIRCLE
  5
65
330
32
100
AcDbEntity
  8
YKK_ZWAK
  6
Continuous
 62
     8
100
AcDbCircle
 10
579.426014
 20
41.299501
 30
0.0
 40
6.299999999999999
  0
LINE
  5
66
330
32
100
AcDbEntity
  8
YKK_ZWAK
  6
Continuous
 62
   254
100
AcDbLine
 10
544.000013
 20
33.999501
 30
0.0
 11
544.000013
 21
8.9995
 31
0.0
  0
LINE
  5
67
330
32
100
AcDbEntity
  8
YKK_ZWAK
  6
Continuous
 62
   254
100
AcDbLine
 10
523.999763
 20
33.999501
 30
0.0
 11
523.999763
 21
8.9995
 31
0.0
  0
ARC
  5
68
330
32
100
AcDbEntity
  8
YKK_ZWAK
  6
Continuous
 62
   254
100
AcDbCircle
 10
567.23923515
 20
16.32442811
 30
0.0
 40
3.065267824757687
100
AcDbArc
 50
285.44291453
 51
349.90448123
  0
ARC
  5
69
330
32
100
AcDbEntity
  8
YKK_ZWAK
  6
Continuous
 62
   254
100
AcDbCircle
 10
553.606314
 20
13.7174867
 30
0.0
 40
7.916047100361496
100
AcDbArc
 50
168.7637177
 51
199.80079153
  0
ARC
  5
6A
330
32
100
AcDbEntity
  8
YKK_ZWAK
  6
Continuous
 62
   254
100
AcDbCircle
 10
550.84442657
 20
13.7651724
 30
0.0
 40
1.69178303147034
100
AcDbArc
 50
171.08203026
 51
216.71922793
  0
LINE
  5
6B
330
32
100
AcDbEntity
  8
YKK_ZWAK
  6
Continuous
 62
   254
100
AcDbLine
 10
562.610947
 20
9.566381
 30
0.0
 11
562.610947
 21
20.243049
 31
0.0
  0
LINE
  5
6C
330
32
100
AcDbEntity
  8
YKK_ZWAK
  6
Continuous
 62
   254
100
AcDbLine
 10
559.019868
 20
23.216355
 30
0.0
 11
559.019868
 21
9.566381
 31
0.0
  0
LINE
  5
6D
330
32
100
AcDbEntity
  8
YKK_ZWAK
  6
Continuous
 62
   254
100
AcDbLine
 10
557.513933
 20
20.011363
 30
0.0
 11
557.513933
 21
9.585666
 31
0.0
  0
LINE
  5
6E
330
32
100
AcDbEntity
  8
YKK_ZWAK
  6
Continuous
 62
   254
100
AcDbLine
 10
554.019393
 20
12.520312
 30
0.0
 11
554.019393
 21
19.470807
 31
0.0
  0
LINE
  5
6F
330
32
100
AcDbEntity
  8
YKK_ZWAK
  6
Continuous
 62
   254
100
AcDbLine
 10
557.28225
 20
9.547052
 30
0.0
 11
549.405042
 21
9.527722
 31
0.0
  0
LINE
  5
70
330
32
100
AcDbEntity
  8
YKK_ZWAK
  6
Continuous
 62
   254
100
AcDbLine
 10
550.00355
 20
12.520312
 30
0.0
 11
554.019393
 21
12.520312
 31
0.0
  0
ARC
  5
71
330
32
100
AcDbEntity
  8
YKK_ZWAK
  6
Continuous
 62
   254
100
AcDbCircle
 10
548.60007313
 20
12.25485189
 30
0.0
 40
2.730646981973357
100
AcDbArc
 50
207.31435415
 51
263.59464075
  0
ARC
  5
72
330
32
100
AcDbEntity
  8
YKK_ZWAK
  6
Continuous
 62
   254
100
AcDbCircle
 10
550.17864126
 20
13.59595698
 30
0.0
 40
1.089801345776779
100
AcDbArc
 50
230.97279559
 51
260.75491133
  0
LINE
  5
73
330
32
100
AcDbEntity
  8
YKK_ZWAK
  6
Continuous
 62
   254
100
AcDbLine
 10
549.405042
 20
9.527722
 30
0.0
 11
548.343169
 21
9.527722
 31
0.0
  0
LINE
  5
74
330
32
100
AcDbEntity
  8
YKK_ZWAK
  6
Continuous
 62
   254
100
AcDbLine
 10
557.513933
 20
9.585666
 30
0.0
 11
557.28225
 21
9.547052
 31
0.0
  0
LINE
  5
75
330
32
100
AcDbEntity
  8
YKK_ZWAK
  6
Continuous
 62
   254
100
AcDbLine
 10
553.71047
 20
12.520312
 30
0.0
 11
553.961471
 21
12.520312
 31
0.0
  0
LINE
  5
76
330
32
100
AcDbEntity
  8
YKK_ZWAK
  6
Continuous
 62
   254
100
AcDbLine
 10
554.019393
 20
12.521084
 30
0.0
 11
554.020164
 21
12.520312
 31
0.0
  0
LINE
  5
77
330
32
100
AcDbEntity
  8
YKK_ZWAK
  6
Continuous
 62
   254
100
AcDbLine
 10
562.051042
 20
9.566381
 30
0.0
 11
562.610947
 21
9.566381
 31
0.0
  0
LINE
  5
78
330
32
100
AcDbEntity
  8
YKK_ZWAK
  6
Continuous
 62
   254
100
AcDbLine
 10
559.019868
 20
9.566381
 30
0.0
 11
562.051042
 21
9.566381
 31
0.0
  0
TEXT
  5
79
330
32
100
AcDbEntity
  8
YKK_ZWAK
  6
Continuous
 62
   131
100
AcDbText
 10
528.4269094
 20
29.81226201
 30
0.0
 40
3.2
  1
図　番
 41
0.9
  7
YKK_OSSTYLE1
100
AcDbText
  0
TEXT
  5
7A
330
32
100
AcDbEntity
  8
YKK_ZWAK
  6
Continuous
 62
   131
100
AcDbText
 10
526.62767404
 20
16.79627903
 30
0.0
 40
3.2
  1
通し図番
 41
0.9
  7
YKK_OSSTYLE1
100
AcDbText
  0
LINE
  5
7B
330
32
100
AcDbEntity
  8
YKK_ZWAK
  6
Continuous
 62
   131
100
AcDbLine
 10
523.999763
 20
28.999501
 30
0.0
 11
544.000013
 21
28.999501
 31
0.0
  0
LINE
  5
7C
330
32
100
AcDbEntity
  8
YKK_ZWAK
  6
Continuous
 62
   131
100
AcDbLine
 10
544.000013
 20
16.0
 30
0.0
 11
523.999763
 21
16.0
 31
0.0
  0
LINE
  5
7D
330
32
100
AcDbEntity
  8
YKK_ZWAK
  6
Continuous
 62
   254
100
AcDbLine
 10
523.999763
 20
21.000001
 30
0.0
 11
544.000013
 21
21.000001
 31
0.0
  0
TEXT
  5
7E
330
32
100
AcDbEntity
  8
YKK_ZWAK
  6
Continuous
 62
   131
100
AcDbText
 10
504.12596439
 20
16.73585252
 30
0.0
 40
2.828
  1
年   月   日
 41
0.9
  7
YKK_OSSTYLE1
100
AcDbText
  0
ARC
  5
7F
330
32
100
AcDbEntity
  8
YKK_ZWAK
  6
Continuous
 62
   254
100
AcDbCircle
 10
550.80023932
 20
8.38955158
 30
0.0
 40
9.506414110787718
100
AcDbArc
 50
79.38097908
 51
112.0582515
  0
ARC
  5
80
330
32
100
AcDbEntity
  8
YKK_ZWAK
  6
Continuous
 62
   254
100
AcDbCircle
 10
552.02960157
 20
8.66870802
 30
0.0
 40
14.82019555938878
100
AcDbArc
 50
78.78009532
 51
91.46937906
  0
LINE
  5
81
330
32
100
AcDbEntity
  8
YKK_ZWAK
  6
Continuous
 62
   254
100
AcDbLine
 10
553.247106
 20
20.281664
 30
0.0
 11
550.60589668
 21
20.23169161
 31
0.0
  0
LINE
  5
82
330
32
100
AcDbEntity
  8
YKK_ZWAK
  6
Continuous
 62
   254
100
AcDbLine
 10
553.054042
 20
15.04953
 30
0.0
 11
550.200893
 21
15.046227
 31
0.0
  0
LINE
  5
83
330
32
100
AcDbEntity
  8
YKK_ZWAK
  6
Continuous
 62
   254
100
AcDbLine
 10
554.187226
 20
33.42965
 30
0.0
 11
550.949599
 21
27.69553
 31
0.0
  0
LINE
  5
84
330
32
100
AcDbEntity
  8
YKK_ZWAK
  6
Continuous
 62
   254
100
AcDbLine
 10
551.59718
 20
33.42965
 30
0.0
 11
554.187226
 21
33.42965
 31
0.0
  0
LINE
  5
85
330
32
100
AcDbEntity
  8
YKK_ZWAK
  6
Continuous
 62
   254
100
AcDbLine
 10
548.594154
 20
27.714815
 30
0.0
 11
545.311979
 21
33.352466
 31
0.0
  0
ARC
  5
86
330
32
100
AcDbEntity
  8
YKK_ZWAK
  6
Continuous
 62
   254
100
AcDbCircle
 10
549.68520483
 20
20.30975154
 30
0.0
 40
3.598113650678814
100
AcDbArc
 50
158.41083245
 51
179.71775245
  0
ARC
  5
87
330
32
100
AcDbEntity
  8
YKK_ZWAK
  6
Continuous
 62
   254
100
AcDbCircle
 10
548.59054743
 20
14.76560333
 30
0.0
 40
2.791490107652263
100
AcDbArc
 50
121.82711365
 51
169.08474902
  0
LINE
  5
88
330
32
100
AcDbEntity
  8
YKK_ZWAK
  6
Continuous
 62
   254
100
AcDbLine
 10
549.405042
 20
18.949491
 30
0.0
 11
546.084266
 21
18.949491
 31
0.0
  0
LINE
  5
89
330
32
100
AcDbEntity
  8
YKK_ZWAK
  6
Continuous
 62
   254
100
AcDbLine
 10
546.084266
 20
18.949491
 30
0.0
 11
546.084266
 21
20.32747631
 31
0.0
  0
ARC
  5
8A
330
32
100
AcDbEntity
  8
YKK_ZWAK
  6
Continuous
 62
   254
100
AcDbCircle
 10
550.20700835
 20
14.01426078
 30
0.0
 40
1.031984336873053
100
AcDbArc
 50
90.33952634
 51
178.0363902
  0
ARC
  5
8B
330
32
100
AcDbEntity
  8
YKK_ZWAK
  6
Continuous
 62
   254
100
AcDbCircle
 10
550.91098672
 20
18.99454401
 30
0.0
 40
1.5066184932453
100
AcDbArc
 50
138.46381796
 51
181.71359389
  0
ARC
  5
8C
330
32
100
AcDbEntity
  8
YKK_ZWAK
  6
Continuous
 62
   254
100
AcDbCircle
 10
550.51068793
 20
19.02046023
 30
0.0
 40
1.214967561291876
100
AcDbArc
 50
85.50551117
 51
126.78038212
  0
ARC
  5
8D
330
32
100
AcDbEntity
  8
YKK_ZWAK
  6
Continuous
 62
   254
100
AcDbCircle
 10
548.00461954
 20
21.10278181
 30
0.0
 40
1.745462511199758
100
AcDbArc
 50
109.02126645
 51
161.5126404
  0
ARC
  5
8E
330
32
100
AcDbEntity
  8
YKK_ZWAK
  6
Continuous
 62
   254
100
AcDbCircle
 10
551.65872095
 20
10.85588209
 30
0.0
 40
12.62863449008531
100
AcDbArc
 50
89.89164773
 51
109.30848271
  0
LINE
  5
8F
330
32
100
AcDbEntity
  8
YKK_ZWAK
  6
Continuous
 62
   254
100
AcDbLine
 10
548.594154
 20
24.529198
 30
0.0
 11
548.594154
 21
27.714815
 31
0.0
  0
LINE
  5
90
330
32
100
AcDbEntity
  8
YKK_ZWAK
  6
Continuous
 62
   254
100
AcDbLine
 10
550.949599
 20
24.529198
 30
0.0
 11
548.594154
 21
24.529198
 31
0.0
  0
LINE
  5
91
330
32
100
AcDbEntity
  8
YKK_ZWAK
  6
Continuous
 62
   254
100
AcDbLine
 10
550.949599
 20
27.69553
 30
0.0
 11
550.949599
 21
24.529198
 31
0.0
  0
LINE
  5
92
330
32
100
AcDbEntity
  8
YKK_ZWAK
  6
Continuous
 62
   254
100
AcDbLine
 10
545.311979
 20
33.352466
 30
0.0
 11
547.821884
 21
33.352466
 31
0.0
  0
LINE
  5
93
330
32
100
AcDbEntity
  8
YKK_ZWAK
  6
Continuous
 62
   254
100
AcDbLine
 10
551.59718
 20
33.42965
 30
0.0
 11
549.771867
 21
29.877219
 31
0.0
  0
LINE
  5
94
330
32
100
AcDbEntity
  8
YKK_ZWAK
  6
Continuous
 62
   254
100
AcDbLine
 10
549.617423
 20
29.993062
 30
0.0
 11
549.771867
 21
29.877219
 31
0.0
  0
LINE
  5
95
330
32
100
AcDbEntity
  8
YKK_ZWAK
  6
Continuous
 62
   254
100
AcDbLine
 10
547.821884
 20
33.352466
 30
0.0
 11
549.617423
 21
29.993062
 31
0.0
  0
ARC
  5
96
330
32
100
AcDbEntity
  8
YKK_ZWAK
  6
Continuous
 62
   254
100
AcDbCircle
 10
568.28604917
 20
28.29398617
 30
0.0
 40
1.544618833868573
100
AcDbArc
 50
0.00166292
 51
89.99603715
  0
ARC
  5
97
330
32
100
AcDbEntity
  8
YKK_ZWAK
  6
Continuous
 62
   254
100
AcDbCircle
 10
559.98514917
 20
28.23604217
 30
0.0
 40
1.544618833868573
100
AcDbArc
 50
0.00166292
 51
89.99603715
  0
LINE
  5
98
330
32
100
AcDbEntity
  8
YKK_ZWAK
  6
Continuous
 62
   254
100
AcDbLine
 10
562.553028
 20
24.625712
 30
0.0
 11
562.553028
 21
33.487594
 31
0.0
  0
LINE
  5
99
330
32
100
AcDbEntity
  8
YKK_ZWAK
  6
Continuous
 62
   254
100
AcDbLine
 10
554.328297
 20
24.548527
 30
0.0
 11
554.328297
 21
33.410366
 31
0.0
  0
LINE
  5
9A
330
32
100
AcDbEntity
  8
YKK_ZWAK
  6
Continuous
 62
   254
100
AcDbLine
 10
564.985674
 20
24.625712
 30
0.0
 11
562.553028
 21
24.625712
 31
0.0
  0
LINE
  5
9B
330
32
100
AcDbEntity
  8
YKK_ZWAK
  6
Continuous
 62
   254
100
AcDbLine
 10
567.302491
 20
23.216355
 30
0.0
 11
559.019868
 21
23.216355
 31
0.0
  0
LINE
  5
9C
330
32
100
AcDbEntity
  8
YKK_ZWAK
  6
Continuous
 62
   254
100
AcDbLine
 10
563.479759
 20
13.196086
 30
0.0
 11
567.283206
 21
13.196086
 31
0.0
  0
LINE
  5
9D
330
32
100
AcDbEntity
  8
YKK_ZWAK
  6
Continuous
 62
   254
100
AcDbLine
 10
566.008932
 20
16.150017
 30
0.0
 11
563.479759
 21
16.150017
 31
0.0
  0
LINE
  5
9E
330
32
100
AcDbEntity
  8
YKK_ZWAK
  6
Continuous
 62
   254
100
AcDbLine
 10
562.610947
 20
20.243049
 30
0.0
 11
565.931704
 21
20.243049
 31
0.0
  0
ARC
  5
9F
330
32
100
AcDbEntity
  8
YKK_ZWAK
  6
Continuous
 62
   254
100
AcDbCircle
 10
554.22066
 20
20.08146332
 30
0.0
 40
3.294016994121146
100
AcDbArc
 50
358.78059045
 51
38.76562608
  0
ARC
  5
A0
330
32
100
AcDbEntity
  8
YKK_ZWAK
  6
Continuous
 62
   254
100
AcDbCircle
 10
552.89717617
 20
19.17519964
 30
0.0
 40
1.16048018439929
100
AcDbArc
 50
14.7551995
 51
72.44994796
  0
LINE
  5
A1
330
32
100
AcDbEntity
  8
YKK_ZWAK
  6
Continuous
 62
   254
100
AcDbLine
 10
553.054042
 20
17.617318
 30
0.0
 11
553.054042
 21
15.04953
 31
0.0
  0
LINE
  5
A2
330
32
100
AcDbEntity
  8
YKK_ZWAK
  6
Continuous
 62
   254
100
AcDbLine
 10
552.552059
 20
17.733161
 30
0.0
 11
553.054042
 21
17.617318
 31
0.0
  0
LINE
  5
A3
330
32
100
AcDbEntity
  8
YKK_ZWAK
  6
Continuous
 62
   254
100
AcDbLine
 10
563.479759
 20
16.150017
 30
0.0
 11
563.479759
 21
13.196086
 31
0.0
  0
LINE
  5
A4
330
32
100
AcDbEntity
  8
YKK_ZWAK
  6
Continuous
 62
   254
100
AcDbLine
 10
558.981248
 20
27.869273
 30
0.0
 11
556.703043
 21
27.869273
 31
0.0
  0
ARC
  5
A5
330
32
100
AcDbEntity
  8
YKK_ZWAK
  6
Continuous
 62
   254
100
AcDbCircle
 10
554.37879626
 20
20.07343796
 30
0.0
 40
3.177485297559325
100
AcDbArc
 50
40.66422291
 51
80.31693569
  0
LINE
  5
A6
330
32
100
AcDbEntity
  8
YKK_ZWAK
  6
Continuous
 62
   254
100
AcDbLine
 10
556.703043
 20
24.548527
 30
0.0
 11
554.328297
 21
24.548527
 31
0.0
  0
LINE
  5
A7
330
32
100
AcDbEntity
  8
YKK_ZWAK
  6
Continuous
 62
   254
100
AcDbLine
 10
556.703043
 20
27.869273
 30
0.0
 11
556.703043
 21
24.548527
 31
0.0
  0
LINE
  5
A8
330
32
100
AcDbEntity
  8
YKK_ZWAK
  6
Continuous
 62
   254
100
AcDbLine
 10
561.529756
 20
28.236131
 30
0.0
 11
561.529756
 21
24.606427
 31
0.0
  0
LINE
  5
A9
330
32
100
AcDbEntity
  8
YKK_ZWAK
  6
Continuous
 62
   254
100
AcDbLine
 10
559.290171
 20
27.75343
 30
0.0
 11
558.981248
 21
27.869273
 31
0.0
  0
LINE
  5
AA
330
32
100
AcDbEntity
  8
YKK_ZWAK
  6
Continuous
 62
   254
100
AcDbLine
 10
559.290171
 20
24.606427
 30
0.0
 11
559.290171
 21
27.75343
 31
0.0
  0
LINE
  5
AB
330
32
100
AcDbEntity
  8
YKK_ZWAK
  6
Continuous
 62
   254
100
AcDbLine
 10
561.529756
 20
24.606427
 30
0.0
 11
559.290171
 21
24.606427
 31
0.0
  0
ARC
  5
AC
330
32
100
AcDbEntity
  8
YKK_ZWAK
  6
Continuous
 62
   254
100
AcDbCircle
 10
567.19412132
 20
20.11358836
 30
0.0
 40
3.10079004118515
100
AcDbArc
 50
14.44572328
 51
87.08746338
  0
ARC
  5
AD
330
32
100
AcDbEntity
  8
YKK_ZWAK
  6
Continuous
 62
   254
100
AcDbCircle
 10
564.36413966
 20
17.54165325
 30
0.0
 40
2.640498151312115
100
AcDbArc
 50
343.69020327
 51
354.7536235
  0
ARC
  5
AE
330
32
100
AcDbEntity
  8
YKK_ZWAK
  6
Continuous
 62
   254
100
AcDbCircle
 10
566.00966971
 20
17.08269286
 30
0.0
 40
0.9326761550249523
100
AcDbArc
 50
269.95468111
 51
342.90144849
  0
ARC
  5
AF
330
32
100
AcDbEntity
  8
YKK_ZWAK
  6
Continuous
 62
   254
100
AcDbCircle
 10
566.04623887
 20
19.3715952
 30
0.0
 40
0.8777839045469994
100
AcDbArc
 50
16.43123457
 51
96.91661396
  0
ARC
  5
B0
330
32
100
AcDbEntity
  8
YKK_ZWAK
  6
Continuous
 62
   254
100
AcDbCircle
 10
564.37945167
 20
18.85119468
 30
0.0
 40
2.623848066620805
100
AcDbArc
 50
4.93422741
 51
17.03551963
  0
LINE
  5
B1
330
32
100
AcDbEntity
  8
YKK_ZWAK
  6
Continuous
 62
   254
100
AcDbLine
 10
567.283206
 20
13.196086
 30
0.0
 11
568.055449
 21
13.369828
 31
0.0
  0
LINE
  5
B2
330
32
100
AcDbEntity
  8
YKK_ZWAK
  6
Continuous
 62
   254
100
AcDbLine
 10
566.980872
 20
19.173458
 30
0.0
 11
566.993576
 21
17.29190622
 31
0.0
  0
ARC
  5
B3
330
32
100
AcDbEntity
  8
YKK_ZWAK
  6
Continuous
 62
   254
100
AcDbCircle
 10
555.54697452
 20
18.15146785
 30
0.0
 40
14.90004285451682
100
AcDbArc
 50
350.99026817
 51
10.67624521
  0
LINE
  5
B4
330
32
100
AcDbEntity
  8
YKK_ZWAK
  6
Continuous
 62
   254
100
AcDbLine
 10
569.831709
 20
24.645041
 30
0.0
 11
567.572791
 21
24.645041
 31
0.0
  0
LINE
  5
B5
330
32
100
AcDbEntity
  8
YKK_ZWAK
  6
Continuous
 62
   254
100
AcDbLine
 10
567.572791
 20
27.772759
 30
0.0
 11
567.263877
 21
27.888602
 31
0.0
  0
LINE
  5
B6
330
32
100
AcDbEntity
  8
YKK_ZWAK
  6
Continuous
 62
   254
100
AcDbLine
 10
567.263877
 20
27.888602
 30
0.0
 11
564.985674
 21
27.888602
 31
0.0
  0
LINE
  5
B7
330
32
100
AcDbEntity
  8
YKK_ZWAK
  6
Continuous
 62
   254
100
AcDbLine
 10
564.985674
 20
27.888602
 30
0.0
 11
564.985674
 21
24.625712
 31
0.0
  0
LINE
  5
B8
330
32
100
AcDbEntity
  8
YKK_ZWAK
  6
Continuous
 62
   254
100
AcDbLine
 10
567.572791
 20
24.645041
 30
0.0
 11
567.572791
 21
27.772759
 31
0.0
  0
LINE
  5
B9
330
32
100
AcDbEntity
  8
YKK_ZWAK
  6
Continuous
 62
   254
100
AcDbLine
 10
567.572791
 20
24.681182
 30
0.0
 11
567.608933
 21
24.645041
 31
0.0
  0
LINE
  5
BA
330
32
100
AcDbEntity
  8
YKK_ZWAK
  6
Continuous
 62
   254
100
AcDbLine
 10
569.831709
 20
28.236131
 30
0.0
 11
569.831709
 21
24.645041
 31
0.0
  0
LINE
  5
BB
330
32
100
AcDbEntity
  8
YKK_ZWAK
  6
Continuous
 62
   254
100
AcDbLine
 10
562.553028
 20
33.487594
 30
0.0
 11
564.889116
 21
33.487594
 31
0.0
  0
LINE
  5
BC
330
32
100
AcDbEntity
  8
YKK_ZWAK
  6
Continuous
 62
   254
100
AcDbLine
 10
556.625823
 20
29.768591
 30
0.0
 11
559.03917
 21
33.44898
 31
0.0
  0
LINE
  5
BD
330
32
100
AcDbEntity
  8
YKK_ZWAK
  6
Continuous
 62
   254
100
AcDbLine
 10
556.625823
 20
33.410366
 30
0.0
 11
556.625823
 21
29.768591
 31
0.0
  0
LINE
  5
BE
330
32
100
AcDbEntity
  8
YKK_ZWAK
  6
Continuous
 62
   254
100
AcDbLine
 10
554.328297
 20
33.410366
 30
0.0
 11
556.625823
 21
33.410366
 31
0.0
  0
LINE
  5
BF
330
32
100
AcDbEntity
  8
YKK_ZWAK
  6
Continuous
 62
   254
100
AcDbLine
 10
559.985256
 20
29.780661
 30
0.0
 11
559.242942
 21
29.780661
 31
0.0
  0
LINE
  5
C0
330
32
100
AcDbEntity
  8
YKK_ZWAK
  6
Continuous
 62
   254
100
AcDbLine
 10
561.771363
 20
33.44898
 30
0.0
 11
559.242942
 21
29.780661
 31
0.0
  0
LINE
  5
C1
330
32
100
AcDbEntity
  8
YKK_ZWAK
  6
Continuous
 62
   254
100
AcDbLine
 10
559.03917
 20
33.44898
 30
0.0
 11
561.771363
 21
33.44898
 31
0.0
  0
LINE
  5
C2
330
32
100
AcDbEntity
  8
YKK_ZWAK
  6
Continuous
 62
   254
100
AcDbLine
 10
569.773765
 20
33.024222
 30
0.0
 11
567.543842
 21
29.838605
 31
0.0
  0
LINE
  5
C3
330
32
100
AcDbEntity
  8
YKK_ZWAK
  6
Continuous
 62
   254
100
AcDbLine
 10
567.341105
 20
33.487594
 30
0.0
 11
570.044065
 21
33.487594
 31
0.0
  0
LINE
  5
C4
330
32
100
AcDbEntity
  8
YKK_ZWAK
  6
Continuous
 62
   254
100
AcDbLine
 10
568.286156
 20
29.838605
 30
0.0
 11
567.543842
 21
29.838605
 31
0.0
  0
LINE
  5
C5
330
32
100
AcDbEntity
  8
YKK_ZWAK
  6
Continuous
 62
   254
100
AcDbLine
 10
564.889116
 20
29.779236
 30
0.0
 11
567.341105
 21
33.487594
 31
0.0
  0
LINE
  5
C6
330
32
100
AcDbEntity
  8
YKK_ZWAK
  6
Continuous
 62
   254
100
AcDbLine
 10
564.889116
 20
33.487594
 30
0.0
 11
564.889116
 21
29.779236
 31
0.0
  0
LINE
  5
C7
330
32
100
AcDbEntity
  8
YKK_ZWAK
  6
Continuous
 62
   254
100
AcDbLine
 10
570.044065
 20
33.487594
 30
0.0
 11
569.773765
 21
33.024222
 31
0.0
  0
LINE
  5
C8
330
32
100
AcDbEntity
  8
YKK_ZWAK
  6
Continuous
 62
     8
100
AcDbLine
 10
573.126014
 20
168.559504
 30
0.0
 11
585.726014
 21
168.559504
 31
0.0
  0
LINE
  5
C9
330
32
100
AcDbEntity
  8
YKK_ZWAK
  6
Continuous
 62
     8
100
AcDbLine
 10
573.126014
 20
154.419504
 30
0.0
 11
585.726014
 21
154.419504
 31
0.0
  0
LINE
  5
CA
330
32
100
AcDbEntity
  8
YKK_ZWAK
  6
Continuous
 62
     8
100
AcDbLine
 10
573.126014
 20
140.279503
 30
0.0
 11
585.726014
 21
140.279503
 31
0.0
  0
LINE
  5
CB
330
32
100
AcDbEntity
  8
YKK_ZWAK
  6
Continuous
 62
     8
100
AcDbLine
 10
573.126014
 20
126.139503
 30
0.0
 11
585.726014
 21
126.139503
 31
0.0
  0
LINE
  5
CC
330
32
100
AcDbEntity
  8
YKK_ZWAK
  6
Continuous
 62
     8
100
AcDbLine
 10
573.126014
 20
111.999503
 30
0.0
 11
585.726014
 21
111.999503
 31
0.0
  0
LINE
  5
CD
330
32
100
AcDbEntity
  8
YKK_ZWAK
  6
Continuous
 62
     8
100
AcDbLine
 10
573.126014
 20
97.859502
 30
0.0
 11
585.726014
 21
97.859502
 31
0.0
  0
LINE
  5
CE
330
32
100
AcDbEntity
  8
YKK_ZWAK
  6
Continuous
 62
     8
100
AcDbLine
 10
573.126014
 20
83.719502
 30
0.0
 11
585.726014
 21
83.719502
 31
0.0
  0
CIRCLE
  5
CF
330
32
100
AcDbEntity
  8
YKK_ZWAK
  6
Continuous
 62
     8
100
AcDbCircle
 10
579.426014
 20
168.559504
 30
0.0
 40
6.299999999999999
  0
CIRCLE
  5
D0
330
32
100
AcDbEntity
  8
YKK_ZWAK
  6
Continuous
 62
     8
100
AcDbCircle
 10
579.426014
 20
140.279503
 30
0.0
 40
6.299999999999999
  0
CIRCLE
  5
D1
330
32
100
AcDbEntity
  8
YKK_ZWAK
  6
Continuous
 62
     8
100
AcDbCircle
 10
579.426014
 20
111.999503
 30
0.0
 40
6.299999999999999
  0
CIRCLE
  5
D2
330
32
100
AcDbEntity
  8
YKK_ZWAK
  6
Continuous
 62
     8
100
AcDbCircle
 10
579.426014
 20
154.419504
 30
0.0
 40
6.299999999999999
  0
CIRCLE
  5
D3
330
32
100
AcDbEntity
  8
YKK_ZWAK
  6
Continuous
 62
     8
100
AcDbCircle
 10
579.426014
 20
126.139503
 30
0.0
 40
6.299999999999999
  0
CIRCLE
  5
D4
330
32
100
AcDbEntity
  8
YKK_ZWAK
  6
Continuous
 62
     8
100
AcDbCircle
 10
579.426014
 20
97.859502
 30
0.0
 40
6.299999999999999
  0
LINE
  5
D5
330
32
100
AcDbEntity
  8
YKK_ZWAK
  6
Continuous
 62
   254
100
AcDbLine
 10
571.000014
 20
222.4995055
 30
0.0
 11
573.000014
 21
222.4995055
 31
0.0
  0
TEXT
  5
D6
330
32
100
AcDbEntity
  8
YKK_ZWAK
  6
Continuous
 62
   131
100
AcDbText
 10
408.18209354
 20
9.752325
 30
0.0
 40
3.5
  1
 ． ．
 41
0.9
  7
YKK_OSSTYLE1
100
AcDbText
  0
TEXT
  5
D7
330
32
100
AcDbEntity
  8
YKK_ZWAK
  6
Continuous
 62
   131
100
AcDbText
 10
424.18209354
 20
9.752325
 30
0.0
 40
3.5
  1
 ． ．
 41
0.9
  7
YKK_OSSTYLE1
100
AcDbText
  0
LINE
  5
D8
330
32
100
AcDbEntity
  8
YKK_ZWAK
  6
Continuous
 62
   131
100
AcDbLine
 10
459.1999862
 20
10.4995
 30
0.0
 11
459.1999862
 21
8.9995
 31
0.0
  0
LINE
  5
D9
330
32
100
AcDbEntity
  8
YKK_ZWAK
  6
Continuous
 62
   131
100
AcDbLine
 10
462.7999738
 20
10.4995
 30
0.0
 11
462.7999738
 21
8.9995
 31
0.0
  0
LINE
  5
DA
330
32
100
AcDbEntity
  8
YKK_ZWAK
  6
Continuous
 62
   131
100
AcDbLine
 10
466.3999614
 20
10.4995
 30
0.0
 11
466.3999614
 21
8.9995
 31
0.0
  0
LINE
  5
DB
330
32
100
AcDbEntity
  8
YKK_ZWAK
  6
Continuous
 62
   131
100
AcDbLine
 10
469.999949
 20
10.4995
 30
0.0
 11
469.999949
 21
8.9995
 31
0.0
  0
LINE
  5
DC
330
32
100
AcDbEntity
  8
YKK_ZWAK
  6
Continuous
 62
   131
100
AcDbLine
 10
473.5999366
 20
10.4995
 30
0.0
 11
473.5999366
 21
8.9995
 31
0.0
  0
LINE
  5
DD
330
32
100
AcDbEntity
  8
YKK_ZWAK
  6
Continuous
 62
   131
100
AcDbLine
 10
477.1999242
 20
10.4995
 30
0.0
 11
477.1999242
 21
8.9995
 31
0.0
  0
LINE
  5
DE
330
32
100
AcDbEntity
  8
YKK_ZWAK
  6
Continuous
 62
   131
100
AcDbLine
 10
480.7999118
 20
10.4995
 30
0.0
 11
480.7999118
 21
8.9995
 31
0.0
  0
LINE
  5
DF
330
32
100
AcDbEntity
  8
YKK_ZWAK
  6
Continuous
 62
   131
100
AcDbLine
 10
484.3998994
 20
10.4995
 30
0.0
 11
484.3998994
 21
8.9995
 31
0.0
  0
LINE
  5
E0
330
32
100
AcDbEntity
  8
YKK_ZWAK
  6
Continuous
 62
   131
100
AcDbLine
 10
487.999887
 20
10.4995
 30
0.0
 11
487.999887
 21
8.9995
 31
0.0
  0
LINE
  5
E1
330
32
100
AcDbEntity
  8
YKK_ZWAK
  6
Continuous
 62
   131
100
AcDbLine
 10
491.5998746
 20
10.4995
 30
0.0
 11
491.5998746
 21
8.9995
 31
0.0
  0
LINE
  5
E2
330
32
100
AcDbEntity
  8
YKK_ZWAK
  6
Continuous
 62
   131
100
AcDbLine
 10
495.1998622
 20
10.4995
 30
0.0
 11
495.1998622
 21
8.9995
 31
0.0
  0
LINE
  5
E3
330
32
100
AcDbEntity
  8
YKK_ZWAK
  6
Continuous
 62
   131
100
AcDbLine
 10
498.7998498
 20
10.4995
 30
0.0
 11
498.7998498
 21
8.9995
 31
0.0
  0
LINE
  5
E4
330
32
100
AcDbEntity
  8
YKK_ZWAK
  6
Continuous
 62
   131
100
AcDbLine
 10
502.3998374
 20
10.4995
 30
0.0
 11
502.3998374
 21
8.9995
 31
0.0
  0
LINE
  5
E5
330
32
100
AcDbEntity
  8
YKK_ZWAK
  6
Continuous
 62
   131
100
AcDbLine
 10
505.999825
 20
10.4995
 30
0.0
 11
505.999825
 21
8.9995
 31
0.0
  0
LINE
  5
E6
330
32
100
AcDbEntity
  8
YKK_ZWAK
  6
Continuous
 62
   131
100
AcDbLine
 10
509.5998126
 20
10.4995
 30
0.0
 11
509.5998126
 21
8.9995
 31
0.0
  0
LINE
  5
E7
330
32
100
AcDbEntity
  8
YKK_ZWAK
  6
Continuous
 62
   131
100
AcDbLine
 10
513.1998002
 20
10.4995
 30
0.0
 11
513.1998002
 21
8.9995
 31
0.0
  0
LINE
  5
E8
330
32
100
AcDbEntity
  8
YKK_ZWAK
  6
Continuous
 62
   131
100
AcDbLine
 10
516.7997878
 20
10.4995
 30
0.0
 11
516.7997878
 21
8.9995
 31
0.0
  0
LINE
  5
E9
330
32
100
AcDbEntity
  8
YKK_ZWAK
  6
Continuous
 62
   131
100
AcDbLine
 10
520.3997754
 20
10.4995
 30
0.0
 11
520.3997754
 21
8.9995
 31
0.0
  0
ENDBLK
  5
EB
330
32
100
AcDbEntity
  8
0
100
AcDbBlockEnd
  0
ENDSEC
  0
SECTION
  2
ENTITIES
  0
LINE
  5
2B
330
2
100
AcDbEntity
  8
YKK_11
  6
ByBlock
 62
     0
100
AcDbLine
 10
270.08475294
 20
110.05793636
 30
0.0
 11
292.68475294
 21
110.05793636
 31
0.0
  0
LINE
  5
2D
330
2
100
AcDbEntity
  8
YKK_11
  6
ByBlock
 62
     0
100
AcDbLine
 10
292.68475294
 20
111.25793636
 30
0.0
 11
270.08475294
 21
111.25793636
 31
0.0
  0
TEXT
  5
2E
330
2
100
AcDbEntity
  8
USER1
 62
     3
100
AcDbText
 10
282.3978945
 20
5.60776074
 30
0.0
 40
3.0
  1
点検口 片開きピボットヒンジ仕様(枠見込33mm)
 72
     4
 11
324.55503735
 21
6.89347502
 31
0.0
100
AcDbText
  0
INSERT
  5
30
330
2
100
AcDbEntity
  8
YKK_ZWAK
100
AcDbBlockReference
  2
A201
 10
-19.000001
 20
-8.9995
 30
0.0
  0
LINE
  5
EC
330
2
100
AcDbEntity
  8
YKK_A1
  6
Continuous
100
AcDbLine
 10
302.32052122
 20
302.1259756
 30
0.0
 11
258.82052381
 21
302.1259756
 31
0.0
  0
LINE
  5
EE
330
2
100
AcDbEntity
  8
YKK_A1
  6
Continuous
100
AcDbLine
 10
258.82052381
 20
252.12597858
 30
0.0
 11
302.32052122
 21
252.12597858
 31
0.0
  0
LINE
  5
EF
330
2
100
AcDbEntity
  8
YKK_A1
  6
Continuous
100
AcDbLine
 10
260.07052374
 20
300.87597568
 30
0.0
 11
301.07052129
 21
300.87597568
 31
0.0
  0
LINE
  5
F0
330
2
100
AcDbEntity
  8
YKK_A1
  6
Continuous
100
AcDbLine
 10
260.07052374
 20
253.37597851
 30
0.0
 11
301.07052129
 21
253.37597851
 31
0.0
  0
LINE
  5
F1
330
2
100
AcDbEntity
  8
YKK_A1
  6
Continuous
100
AcDbLine
 10
260.27052372
 20
300.72597569
 30
0.0
 11
300.8705213
 21
300.72597569
 31
0.0
  0
LINE
  5
F2
330
2
100
AcDbEntity
  8
YKK_A1
  6
Continuous
100
AcDbLine
 10
260.27052372
 20
253.6259785
 30
0.0
 11
300.8705213
 21
253.6259785
 31
0.0
  0
LINE
  5
F3
330
2
100
AcDbEntity
  8
YKK_13
  6
YHIDDEN_1
100
AcDbLine
 10
288.38475288
 20
82.85793665
 30
0.0
 11
272.98475288
 21
82.85793665
 31
0.0
  0
LINE
  5
F6
330
2
100
AcDbEntity
  8
YKK_13
  6
YHIDDEN_1
100
AcDbLine
 10
288.98475288
 20
80.55793665
 30
0.0
 11
272.38475288
 21
80.55793665
 31
0.0
  0
LINE
  5
F7
330
2
100
AcDbEntity
  8
YKK_D
100
AcDbLine
 10
260.27052089
 20
237.12597305
 30
0.0
 11
300.87052699
 21
237.12597305
 31
0.0
  0
LINE
  5
F9
330
2
100
AcDbEntity
  8
YKK_D
100
AcDbLine
 10
265.57050868
 20
222.12597305
 30
0.0
 11
295.57050868
 21
222.12597305
 31
0.0
  0
LINE
  5
FA
330
2
100
AcDbEntity
  8
YKK_D
100
AcDbLine
 10
293.88475786
 20
55.95793564
 30
0.0
 11
283.14475786
 21
55.95793564
 31
0.0
  0
LINE
  5
FB
330
2
100
AcDbEntity
  8
YKK_D
100
AcDbLine
 10
268.88475786
 20
131.25793106
 30
0.0
 11
293.88475786
 21
131.25793106
 31
0.0
  0
TEXT
  5
FC
330
2
100
AcDbEntity
  8
YKK_D
100
AcDbText
 10
278.30252436
 20
132.25793106
 30
0.0
 40
6.0
  1
25
 41
0.8
100
AcDbText
1001
ACAD
1000
MTEXTBEGIN
1070
    73
1070
     1
1070
    44
1040
1.0
1070
    74
1070
     0
1000
MTEXTEND
  0
TEXT
  5
FD
330
2
100
AcDbEntity
  8
YKK_D
100
AcDbText
 10
279.0354833
 20
223.12597305
 30
0.0
 40
6.0
  1
W
 41
0.8
100
AcDbText
1001
ACAD
1000
MTEXTBEGIN
1070
    73
1070
     1
1070
    44
1040
1.0
1070
    74
1070
     0
1000
MTEXTEND
  0
TEXT
  5
FE
330
2
100
AcDbEntity
  8
YKK_D
100
AcDbText
 10
277.35429554
 20
238.12597305
 30
0.0
 40
6.0
  1
DW
 41
0.8
100
AcDbText
1001
ACAD
1000
MTEXTBEGIN
1070
    73
1070
     1
1070
    44
1040
1.0
1070
    74
1070
     0
1000
MTEXTEND
  0
LINE
  5
FF
330
2
100
AcDbEntity
  8
YKK_11
  6
ByBlock
 62
     0
100
AcDbLine
 10
88.31998762
 20
189.62471877
 30
0.0
 11
88.31998762
 21
296.45853977
 31
0.0
  0
LINE
  5
100
330
2
100
AcDbEntity
  8
YKK_11
  6
ByBlock
 62
     0
100
AcDbLine
 10
87.11998762
 20
189.71315277
 30
0.0
 11
87.11998762
 21
296.45853977
 31
0.0
  0
LINE
  5
101
330
2
100
AcDbEntity
  8
YKK_11
  6
ByBlock
 62
     0
100
AcDbLine
 10
110.91998762
 20
297.65853977
 30
0.0
 11
110.91998762
 21
189.64379677
 31
0.0
  0
LINE
  5
102
330
2
100
AcDbEntity
  8
YKK_11
  6
ByBlock
 62
     0
100
AcDbLine
 10
112.11998762
 20
189.64379677
 30
0.0
 11
112.11998762
 21
297.65853977
 31
0.0
  0
LINE
  5
103
330
2
100
AcDbEntity
  8
YKK_12
  6
Continuous
100
AcDbLine
 10
114.9199881
 20
300.65854001
 30
0.0
 11
114.9199881
 21
189.94578247
 31
0.0
  0
LINE
  5
105
330
2
100
AcDbEntity
  8
YKK_12
  6
Continuous
100
AcDbLine
 10
116.1199881
 20
189.7330487
 30
0.0
 11
116.1199881
 21
290.65854001
 31
0.0
  0
LINE
  5
106
330
2
100
AcDbEntity
  8
YKK_12
  6
Continuous
100
AcDbLine
 10
83.1199881
 20
325.65854001
 30
0.0
 11
83.1199881
 21
189.52031494
 31
0.0
  0
LINE
  5
107
330
2
100
AcDbEntity
  8
YKK_D
100
AcDbLine
 10
139.61999195
 20
283.6585426
 30
0.0
 11
139.61999195
 21
114.6585426
 31
0.0
  0
LINE
  5
108
330
2
100
AcDbEntity
  8
YKK_D
100
AcDbLine
 10
63.11998814
 20
103.6585426
 30
0.0
 11
63.11998814
 21
297.6585426
 31
0.0
  0
TEXT
  5
109
330
2
100
AcDbEntity
  8
YKK_D
100
AcDbText
 10
62.11998814
 20
197.55194361
 30
0.0
 40
6.0
  1
DH
 50
90.0
 41
0.8
100
AcDbText
1001
ACAD
1000
MTEXTBEGIN
1070
    73
1070
     1
1070
    44
1040
1.0
1070
    74
1070
     0
1000
MTEXTEND
  0
TEXT
  5
10A
330
2
100
AcDbEntity
  8
YKK_D
100
AcDbText
 10
138.61999195
 20
197.61133448
 30
0.0
 40
6.0
  1
H
 50
90.0
 41
0.8
100
AcDbText
1001
ACAD
1000
MTEXTBEGIN
1070
    73
1070
     1
1070
    44
1040
1.0
1070
    74
1070
     0
1000
MTEXTEND
  0
LINE
  5
10B
330
2
100
AcDbEntity
  8
YKK_11
  6
ByBlock
 62
     0
100
AcDbLine
 10
88.31998777
 20
103.6585402
 30
0.0
 11
109.71998777
 21
103.6585402
 31
0.0
  0
LINE
  5
10C
330
2
100
AcDbEntity
  8
YKK_11
  6
ByBlock
 62
     0
100
AcDbLine
 10
88.81998777
 20
104.8585402
 30
0.0
 11
109.71998777
 21
104.8585402
 31
0.0
  0
LINE
  5
10D
330
2
100
AcDbEntity
  8
YKK_11
  6
ByBlock
 62
     0
100
AcDbLine
 10
85.51998823
 20
97.65853976
 30
0.0
 11
116.11998823
 21
97.65853976
 31
0.0
  0
LINE
  5
10E
330
2
100
AcDbEntity
  8
YKK_11
  6
ByBlock
 62
     0
100
AcDbLine
 10
116.11998823
 20
96.45853976
 30
0.0
 11
85.51998823
 21
96.45853976
 31
0.0
  0
LINE
  5
10F
330
2
100
AcDbEntity
  8
YKK_13
  6
YHIDDEN_1
100
AcDbLine
 10
112.7199881
 20
73.85854001
 30
0.0
 11
86.0199881
 21
73.85854001
 31
0.0
  0
LINE
  5
110
330
2
100
AcDbEntity
  8
YKK_13
  6
YHIDDEN_1
100
AcDbLine
 10
112.7199881
 20
95.05854001
 30
0.0
 11
102.0199881
 21
95.05854001
 31
0.0
  0
LINE
  5
111
330
2
100
AcDbEntity
  8
YKK_13
  6
YHIDDEN_1
100
AcDbLine
 10
86.0199881
 20
76.15854001
 30
0.0
 11
112.1199881
 21
76.15854001
 31
0.0
  0
LINE
  5
112
330
2
100
AcDbEntity
  8
YKK_13
  6
YHIDDEN_1
100
AcDbLine
 10
102.0199881
 20
92.75854001
 30
0.0
 11
112.1199881
 21
92.75854001
 31
0.0
  0
LINE
  5
113
330
2
100
AcDbEntity
  8
YKK_D
100
AcDbLine
 10
87.11996144
 20
149.85853955
 30
0.0
 11
112.11996144
 21
149.85853955
 31
0.0
  0
LINE
  5
114
330
2
100
AcDbEntity
  8
YKK_11
  6
ByBlock
 62
     0
100
AcDbLine
 10
84.31998823
 20
73.85853976
 30
0.0
 11
84.31998823
 21
96.45853976
 31
0.0
  0
LINE
  5
115
330
2
100
AcDbEntity
  8
YKK_11
  6
ByBlock
 62
     0
100
AcDbLine
 10
85.51998823
 20
96.45853976
 30
0.0
 11
85.51998823
 21
73.85853976
 31
0.0
  0
LINE
  5
116
330
2
100
AcDbEntity
  8
YKK_12
  6
Continuous
100
AcDbLine
 10
83.1199881
 20
72.65854001
 30
0.0
 11
83.1199881
 21
186.41085781
 31
0.0
  0
LINE
  5
117
330
2
100
AcDbEntity
  8
YKK_13
  6
YHIDDEN_1
100
AcDbLine
 10
86.0199881
 20
76.15854001
 30
0.0
 11
86.0199881
 21
73.85854001
 31
0.0
  0
LINE
  5
118
330
2
100
AcDbEntity
  8
YKK_D
100
AcDbLine
 10
63.11998814
 20
72.6585426
 30
0.0
 11
63.11998814
 21
97.6585426
 31
0.0
  0
ARC
  5
119
330
2
100
AcDbEntity
  8
YKK_11
  6
ByBlock
 62
     0
100
AcDbCircle
 10
85.51998823
 20
73.85853976
 30
0.0
 40
1.199999999999999
100
AcDbArc
 50
180.00001985
 51
270.00000112
  0
LINE
  5
11A
330
2
100
AcDbEntity
  8
YKK_12
  6
Continuous
100
AcDbLine
 10
83.1199881
 20
72.65854001
 30
0.0
 11
85.5199881
 21
72.65854001
 31
0.0
  0
LINE
  5
11B
330
2
100
AcDbEntity
  8
YKK_D
100
AcDbLine
 10
84.3199889
 20
52.65853878
 30
0.0
 11
83.11998432
 21
52.65853878
 31
0.0
  0
LWPOLYLINE
  5
11C
330
2
100
AcDbEntity
  8
YKK_D
  6
ByBlock
100
AcDbPolyline
 90
        2
 70
     1
 43
0.85
 10
84.4262389
 20
52.65853878
 42
1.0
 10
84.2137389
 20
52.65853878
 42
1.0
  0
LWPOLYLINE
  5
11D
330
2
100
AcDbEntity
  8
YKK_D
  6
ByBlock
100
AcDbPolyline
 90
        2
 70
     1
 43
0.85
 10
84.4262389
 20
52.65853878
 42
1.0
 10
84.2137389
 20
52.65853878
 42
1.0
  0
LINE
  5
11E
330
2
100
AcDbEntity
  8
YKK_D
100
AcDbLine
 10
83.11998432
 20
68.65853998
 30
0.0
 11
83.11998432
 21
51.65853878
 31
0.0
  0
LINE
  5
11F
330
2
100
AcDbEntity
  8
YKK_D
100
AcDbLine
 10
83.11998432
 20
52.65853878
 30
0.0
 11
66.51998432
 21
52.65853878
 31
0.0
  0
TEXT
  5
120
330
2
100
AcDbEntity
  8
YKK_D
100
AcDbText
 10
68.30780158
 20
53.65853878
 30
0.0
 40
6.0
  1
1.2
 41
0.8
100
AcDbText
1001
ACAD
1000
MTEXTBEGIN
1070
    73
1070
     1
1070
    44
1040
1.0
1070
    74
1070
     0
1000
MTEXTEND
  0
LWPOLYLINE
  5
121
330
2
100
AcDbEntity
  8
YKK_D
  6
ByBlock
100
AcDbPolyline
 90
        2
 70
     1
 43
0.85
 10
83.01373432
 20
52.65853878
 42
1.0
 10
83.22623432
 20
52.65853878
 42
1.0
  0
LINE
  5
122
330
2
100
AcDbEntity
  8
YKK_D
100
AcDbLine
 10
79.11998814
 20
72.6585426
 30
0.0
 11
62.11998814
 21
72.6585426
 31
0.0
  0
LWPOLYLINE
  5
123
330
2
100
AcDbEntity
  8
YKK_D
  6
ByBlock
100
AcDbPolyline
 90
        2
 70
     1
 43
0.85
 10
63.11998814
 20
72.7647926
 42
1.0
 10
63.11998814
 20
72.5522926
 42
1.0
  0
LINE
  5
124
330
2
100
AcDbEntity
  8
YKK_D
100
AcDbLine
 10
104.3199889
 20
68.65854021
 30
0.0
 11
104.3199889
 21
51.65853878
 31
0.0
  0
LINE
  5
125
330
2
100
AcDbEntity
  8
YKK_D
100
AcDbLine
 10
84.3199889
 20
68.65854021
 30
0.0
 11
84.3199889
 21
51.65853878
 31
0.0
  0
LINE
  5
126
330
2
100
AcDbEntity
  8
YKK_D
100
AcDbLine
 10
104.3199889
 20
52.65853878
 30
0.0
 11
84.3199889
 21
52.65853878
 31
0.0
  0
TEXT
  5
127
330
2
100
AcDbEntity
  8
YKK_D
100
AcDbText
 10
91.17684169
 20
53.65853878
 30
0.0
 40
6.0
  1
20
 41
0.8
100
AcDbText
1001
ACAD
1000
MTEXTBEGIN
1070
    73
1070
     1
1070
    44
1040
1.0
1070
    74
1070
     0
1000
MTEXTEND
  0
LINE
  5
128
330
2
100
AcDbEntity
  8
YKK_D
100
AcDbLine
 10
84.3199889
 20
52.65853878
 30
0.0
 11
86.0199889
 21
52.65853878
 31
0.0
  0
LWPOLYLINE
  5
129
330
2
100
AcDbEntity
  8
YKK_D
  6
ByBlock
100
AcDbPolyline
 90
        2
 70
     1
 43
0.85
 10
104.2137389
 20
52.65853878
 42
1.0
 10
104.4262389
 20
52.65853878
 42
1.0
  0
LINE
  5
12A
330
2
100
AcDbEntity
  8
YKK_11
  6
ByBlock
 62
     0
100
AcDbLine
 10
104.31998823
 20
72.65853976
 30
0.0
 11
85.51998823
 21
72.65853976
 31
0.0
  0
LINE
  5
12B
330
2
100
AcDbEntity
  8
YKK_11
  6
ByBlock
 62
     0
100
AcDbLine
 10
85.51998823
 20
73.85853976
 30
0.0
 11
104.31998823
 21
73.85853976
 31
0.0
  0
LINE
  5
12C
330
2
100
AcDbEntity
  8
YKK_11
  6
ByBlock
 62
     0
100
AcDbLine
 10
104.31998823
 20
73.85853976
 30
0.0
 11
104.31998823
 21
72.65853976
 31
0.0
  0
LINE
  5
12D
330
2
100
AcDbEntity
  8
YKK_11
  6
ByBlock
 62
     0
100
AcDbLine
 10
87.11998777
 20
186.4108582
 30
0.0
 11
87.11998777
 21
104.8585402
 31
0.0
  0
LINE
  5
12E
330
2
100
AcDbEntity
  8
YKK_11
  6
ByBlock
 62
     0
100
AcDbLine
 10
88.31998777
 20
186.4108582
 30
0.0
 11
88.31998777
 21
105.3585402
 31
0.0
  0
TEXT
  5
12F
330
2
100
AcDbEntity
  8
YKK_D
100
AcDbText
 10
62.11998814
 20
82.0763091
 30
0.0
 40
6.0
  1
25
 50
90.0
 41
0.8
100
AcDbText
1001
ACAD
1000
MTEXTBEGIN
1070
    73
1070
     1
1070
    44
1040
1.0
1070
    74
1070
     0
1000
MTEXTEND
  0
TEXT
  5
130
330
2
100
AcDbEntity
  8
YKK_D
100
AcDbText
 10
62.11998814
 20
99.09915174
 30
0.0
 40
6.0
  1
6
 50
90.0
 41
0.8
100
AcDbText
1001
ACAD
1000
MTEXTBEGIN
1070
    73
1070
     1
1070
    44
1040
1.0
1070
    74
1070
     0
1000
MTEXTEND
  0
ARC
  5
131
330
2
100
AcDbEntity
  8
YKK_11
  6
ByBlock
 62
     0
100
AcDbCircle
 10
85.51998823
 20
96.45853976
 30
0.0
 40
1.199999999999999
100
AcDbArc
 50
89.99998128
 51
180.00001985
  0
LINE
  5
132
330
2
100
AcDbEntity
  8
YKK_D
100
AcDbLine
 10
79.11998814
 20
103.6585426
 30
0.0
 11
62.11998814
 21
103.6585426
 31
0.0
  0
LINE
  5
133
330
2
100
AcDbEntity
  8
YKK_D
100
AcDbLine
 10
79.11998814
 20
97.6585426
 30
0.0
 11
62.11998814
 21
97.6585426
 31
0.0
  0
LINE
  5
134
330
2
100
AcDbEntity
  8
YKK_D
100
AcDbLine
 10
75.75125855
 20
97.6585426
 30
0.0
 11
62.11998814
 21
97.6585426
 31
0.0
  0
LINE
  5
135
330
2
100
AcDbEntity
  8
YKK_D
100
AcDbLine
 10
63.11998814
 20
97.6585426
 30
0.0
 11
63.11998814
 21
103.6585426
 31
0.0
  0
LWPOLYLINE
  5
136
330
2
100
AcDbEntity
  8
YKK_D
  6
ByBlock
100
AcDbPolyline
 90
        2
 70
     1
 43
0.85
 10
63.11998814
 20
97.5522926
 42
1.0
 10
63.11998814
 20
97.7647926
 42
1.0
  0
LWPOLYLINE
  5
137
330
2
100
AcDbEntity
  8
YKK_D
  6
ByBlock
100
AcDbPolyline
 90
        2
 70
     1
 43
0.85
 10
63.11998814
 20
97.7647926
 42
1.0
 10
63.11998814
 20
97.5522926
 42
1.0
  0
LWPOLYLINE
  5
138
330
2
100
AcDbEntity
  8
YKK_D
  6
ByBlock
100
AcDbPolyline
 90
        2
 70
     1
 43
0.85
 10
63.11998814
 20
103.5522926
 42
1.0
 10
63.11998814
 20
103.7647926
 42
1.0
  0
LWPOLYLINE
  5
139
330
2
100
AcDbEntity
  8
YKK_D
  6
ByBlock
100
AcDbPolyline
 90
        2
 70
     1
 43
0.85
 10
63.11998814
 20
103.7647926
 42
1.0
 10
63.11998814
 20
103.5522926
 42
1.0
  0
ARC
  5
13A
330
2
100
AcDbEntity
  8
YKK_11
  6
ByBlock
 62
     0
100
AcDbCircle
 10
88.31998777
 20
104.8585402
 30
0.0
 40
1.199999999999999
100
AcDbArc
 50
180.00001985
 51
270.00000112
  0
LINE
  5
13B
330
2
100
AcDbEntity
  8
YKK_11
  6
ByBlock
 62
     0
100
AcDbLine
 10
88.31998777
 20
105.3585402
 30
0.0
 11
88.81998777
 21
104.8585402
 31
0.0
  0
LINE
  5
13C
330
2
100
AcDbEntity
  8
YKK_13
  6
YHIDDEN_1
100
AcDbLine
 10
102.0199881
 20
95.05854001
 30
0.0
 11
102.0199881
 21
92.75854001
 31
0.0
  0
LINE
  5
13D
330
2
100
AcDbEntity
  8
YKK_D
100
AcDbLine
 10
87.11996144
 20
149.85853955
 30
0.0
 11
83.11996144
 21
149.85853955
 31
0.0
  0
TEXT
  5
13E
330
2
100
AcDbEntity
  8
YKK_D
100
AcDbText
 10
75.57275331
 20
150.85853955
 30
0.0
 40
6.0
  1
4
 41
0.8
100
AcDbText
1001
ACAD
1000
MTEXTBEGIN
1070
    73
1070
     1
1070
    44
1040
1.0
1070
    74
1070
     0
1000
MTEXTEND
  0
LINE
  5
13F
330
2
100
AcDbEntity
  8
YKK_D
100
AcDbLine
 10
83.11996144
 20
149.85853955
 30
0.0
 11
74.51996144
 21
149.85853955
 31
0.0
  0
LWPOLYLINE
  5
140
330
2
100
AcDbEntity
  8
YKK_D
  6
ByBlock
100
AcDbPolyline
 90
        2
 70
     1
 43
0.85
 10
83.22621144
 20
149.85853955
 42
1.0
 10
83.01371144
 20
149.85853955
 42
1.0
  0
TEXT
  5
141
330
2
100
AcDbEntity
  8
YKK_D
100
AcDbText
 10
96.53772793
 20
150.85853955
 30
0.0
 40
6.0
  1
25
 41
0.8
100
AcDbText
1001
ACAD
1000
MTEXTBEGIN
1070
    73
1070
     1
1070
    44
1040
1.0
1070
    74
1070
     0
1000
MTEXTEND
  0
LWPOLYLINE
  5
142
330
2
100
AcDbEntity
  8
YKK_D
  6
ByBlock
100
AcDbPolyline
 90
        2
 70
     1
 43
0.85
 10
87.22621144
 20
149.85853955
 42
1.0
 10
87.01371144
 20
149.85853955
 42
1.0
  0
LWPOLYLINE
  5
143
330
2
100
AcDbEntity
  8
YKK_D
  6
ByBlock
100
AcDbPolyline
 90
        2
 70
     1
 43
0.85
 10
87.01371144
 20
149.85853955
 42
1.0
 10
87.22621144
 20
149.85853955
 42
1.0
  0
ARC
  5
144
330
2
100
AcDbEntity
  8
YKK_13
  6
YHIDDEN_1
100
AcDbCircle
 10
112.7199881
 20
76.15854001
 30
0.0
 40
2.299999999999998
100
AcDbArc
 50
270.0
 51
0.0
  0
LINE
  5
145
330
2
100
AcDbEntity
  8
YKK_11
  6
ByBlock
 62
     0
100
AcDbLine
 10
110.91998777
 20
186.4108582
 30
0.0
 11
110.91998777
 21
103.6585402
 31
0.0
  0
LINE
  5
146
330
2
100
AcDbEntity
  8
YKK_11
  6
ByBlock
 62
     0
100
AcDbLine
 10
112.11998777
 20
103.6585402
 30
0.0
 11
112.11998777
 21
186.4108582
 31
0.0
  0
LINE
  5
147
330
2
100
AcDbEntity
  8
YKK_12
  6
Continuous
100
AcDbLine
 10
114.9199881
 20
97.65854001
 30
0.0
 11
114.9199881
 21
186.41085781
 31
0.0
  0
LINE
  5
148
330
2
100
AcDbEntity
  8
YKK_12
  6
Continuous
100
AcDbLine
 10
116.1199881
 20
186.41085781
 30
0.0
 11
116.1199881
 21
107.65854001
 31
0.0
  0
LINE
  5
149
330
2
100
AcDbEntity
  8
YKK_11
  6
ByBlock
 62
     0
100
AcDbLine
 10
109.71998777
 20
104.8585402
 30
0.0
 11
109.71998777
 21
114.8585402
 31
0.0
  0
LINE
  5
14A
330
2
100
AcDbEntity
  8
YKK_11
  6
ByBlock
 62
     0
100
AcDbLine
 10
117.31998823
 20
107.65853976
 30
0.0
 11
117.31998823
 21
97.65853976
 31
0.0
  0
LINE
  5
14B
330
2
100
AcDbEntity
  8
YKK_11
  6
ByBlock
 62
     0
100
AcDbLine
 10
116.11998823
 20
97.65853976
 30
0.0
 11
116.11998823
 21
107.65853976
 31
0.0
  0
LINE
  5
14C
330
2
100
AcDbEntity
  8
YKK_D
100
AcDbLine
 10
139.61999195
 20
107.6585426
 30
0.0
 11
139.61999195
 21
97.6585426
 31
0.0
  0
LINE
  5
14D
330
2
100
AcDbEntity
  8
YKK_D
100
AcDbLine
 10
123.61998814
 20
97.6585426
 30
0.0
 11
140.61999195
 21
97.6585426
 31
0.0
  0
LINE
  5
14E
330
2
100
AcDbEntity
  8
YKK_13
  6
YHIDDEN_1
100
AcDbLine
 10
112.7199881
 20
92.15854001
 30
0.0
 11
112.7199881
 21
76.75854001
 31
0.0
  0
LINE
  5
14F
330
2
100
AcDbEntity
  8
YKK_13
  6
YHIDDEN_1
100
AcDbLine
 10
115.0199881
 20
92.75854001
 30
0.0
 11
115.0199881
 21
76.15854001
 31
0.0
  0
ARC
  5
150
330
2
100
AcDbEntity
  8
YKK_13
  6
YHIDDEN_1
100
AcDbCircle
 10
112.1199881
 20
76.75854001
 30
0.0
 40
0.6
100
AcDbArc
 50
270.0
 51
0.0
  0
ARC
  5
151
330
2
100
AcDbEntity
  8
YKK_11
  6
ByBlock
 62
     0
100
AcDbCircle
 10
116.11998823
 20
97.65853976
 30
0.0
 40
1.199999999999999
100
AcDbArc
 50
270.00000112
 51
0.0
  0
LINE
  5
152
330
2
100
AcDbEntity
  8
YKK_11
  6
ByBlock
 62
     0
100
AcDbLine
 10
113.81998807
 20
97.45854019
 30
0.0
 11
113.71998807
 21
97.45854019
 31
0.0
  0
ARC
  5
153
330
2
100
AcDbEntity
  8
YKK_13
  6
YHIDDEN_1
100
AcDbCircle
 10
112.7199881
 20
92.75854001
 30
0.0
 40
2.299999999999998
100
AcDbArc
 50
0.0
 51
90.0
  0
ARC
  5
154
330
2
100
AcDbEntity
  8
YKK_13
  6
YHIDDEN_1
100
AcDbCircle
 10
112.1199881
 20
92.15854001
 30
0.0
 40
0.6
100
AcDbArc
 50
0.0
 51
90.0
  0
LINE
  5
155
330
2
100
AcDbEntity
  8
YKK_11
  6
ByBlock
 62
     0
100
AcDbLine
 10
110.91998777
 20
103.6585402
 30
0.0
 11
112.11998777
 21
103.6585402
 31
0.0
  0
ARC
  5
156
330
2
100
AcDbEntity
  8
YKK_11
  6
ByBlock
 62
     0
100
AcDbCircle
 10
109.71998777
 20
104.8585402
 30
0.0
 40
1.199999999999999
100
AcDbArc
 50
270.00000112
 51
0.0
  0
LINE
  5
157
330
2
100
AcDbEntity
  8
YKK_D
100
AcDbLine
 10
139.61999195
 20
97.6585426
 30
0.0
 11
139.61999195
 21
86.53854412
 31
0.0
  0
TEXT
  5
158
330
2
100
AcDbEntity
  8
YKK_D
100
AcDbText
 10
138.61999195
 20
87.75702128
 30
0.0
 40
6.0
  1
10
 50
90.0
 41
0.8
100
AcDbText
1001
ACAD
1000
MTEXTBEGIN
1070
    73
1070
     1
1070
    44
1040
1.0
1070
    74
1070
     0
1000
MTEXTEND
  0
LWPOLYLINE
  5
159
330
2
100
AcDbEntity
  8
YKK_D
  6
ByBlock
100
AcDbPolyline
 90
        2
 70
     1
 43
0.85
 10
139.61999195
 20
97.7647926
 42
1.0
 10
139.61999195
 20
97.5522926
 42
1.0
  0
LINE
  5
15A
330
2
100
AcDbEntity
  8
YKK_D
100
AcDbLine
 10
123.61998814
 20
107.6585426
 30
0.0
 11
140.61999195
 21
107.6585426
 31
0.0
  0
LINE
  5
15B
330
2
100
AcDbEntity
  8
YKK_D
100
AcDbLine
 10
123.61998814
 20
107.6585426
 30
0.0
 11
140.61999195
 21
107.6585426
 31
0.0
  0
LINE
  5
15C
330
2
100
AcDbEntity
  8
YKK_11
  6
ByBlock
 62
     0
100
AcDbLine
 10
109.71998777
 20
114.8585402
 30
0.0
 11
110.91998777
 21
114.8585402
 31
0.0
  0
LINE
  5
15D
330
2
100
AcDbEntity
  8
YKK_11
  6
ByBlock
 62
     0
100
AcDbLine
 10
116.11998823
 20
107.65853976
 30
0.0
 11
117.31998823
 21
107.65853976
 31
0.0
  0
LINE
  5
15E
330
2
100
AcDbEntity
  8
YKK_D
100
AcDbLine
 10
139.61999195
 20
107.6585426
 30
0.0
 11
136.11999195
 21
113.72072042
 31
0.0
  0
LINE
  5
15F
330
2
100
AcDbEntity
  8
YKK_D
100
AcDbLine
 10
143.11999195
 20
113.72072042
 30
0.0
 11
136.11999195
 21
113.72072042
 31
0.0
  0
LINE
  5
160
330
2
100
AcDbEntity
  8
YKK_D
100
AcDbLine
 10
139.61999195
 20
107.6585426
 30
0.0
 11
139.61999195
 21
119.78289825
 31
0.0
  0
LINE
  5
161
330
2
100
AcDbEntity
  8
YKK_D
100
AcDbLine
 10
139.61999195
 20
107.6585426
 30
0.0
 11
143.11999195
 21
113.72072042
 31
0.0
  0
TEXT
  5
162
330
2
100
AcDbEntity
  8
YKK_D
100
AcDbText
 10
120.57275331
 20
150.85853955
 30
0.0
 40
6.0
  1
4
 41
0.8
100
AcDbText
1001
ACAD
1000
MTEXTBEGIN
1070
    73
1070
     1
1070
    44
1040
1.0
1070
    74
1070
     0
1000
MTEXTEND
  0
LINE
  5
163
330
2
100
AcDbEntity
  8
YKK_D
100
AcDbLine
 10
116.11996144
 20
149.85853955
 30
0.0
 11
124.71996144
 21
149.85853955
 31
0.0
  0
LINE
  5
164
330
2
100
AcDbEntity
  8
YKK_D
100
AcDbLine
 10
112.11996144
 20
149.85853955
 30
0.0
 11
116.11996144
 21
149.85853955
 31
0.0
  0
LWPOLYLINE
  5
165
330
2
100
AcDbEntity
  8
YKK_D
  6
ByBlock
100
AcDbPolyline
 90
        2
 70
     1
 43
0.85
 10
112.01371144
 20
149.85853955
 42
1.0
 10
112.22621144
 20
149.85853955
 42
1.0
  0
LWPOLYLINE
  5
166
330
2
100
AcDbEntity
  8
YKK_D
  6
ByBlock
100
AcDbPolyline
 90
        2
 70
     1
 43
0.85
 10
112.22621144
 20
149.85853955
 42
1.0
 10
112.01371144
 20
149.85853955
 42
1.0
  0
LWPOLYLINE
  5
167
330
2
100
AcDbEntity
  8
YKK_D
  6
ByBlock
100
AcDbPolyline
 90
        2
 70
     1
 43
0.85
 10
116.01371144
 20
149.85853955
 42
1.0
 10
116.22621144
 20
149.85853955
 42
1.0
  0
LINE
  5
168
330
2
100
AcDbEntity
  8
YKK_11
  6
ByBlock
 62
     0
100
AcDbLine
 10
270.08475294
 20
90.05793636
 30
0.0
 11
270.08475294
 21
110.05793636
 31
0.0
  0
LINE
  5
169
330
2
100
AcDbEntity
  8
YKK_11
  6
ByBlock
 62
     0
100
AcDbLine
 10
268.88475294
 20
110.05793636
 30
0.0
 11
268.88475294
 21
90.05793636
 31
0.0
  0
LINE
  5
16A
330
2
100
AcDbEntity
  8
YKK_13
  6
YHIDDEN_1
100
AcDbLine
 10
270.08475288
 20
82.85793665
 30
0.0
 11
270.08475288
 21
109.55793665
 31
0.0
  0
LINE
  5
16B
330
2
100
AcDbEntity
  8
YKK_13
  6
YHIDDEN_1
100
AcDbLine
 10
272.38475288
 20
109.55793665
 30
0.0
 11
272.38475288
 21
83.45793665
 31
0.0
  0
LINE
  5
16C
330
2
100
AcDbEntity
  8
YKK_D
100
AcDbLine
 10
248.88475786
 20
111.25793106
 30
0.0
 11
248.88475786
 21
90.05793411
 31
0.0
  0
TEXT
  5
16D
330
2
100
AcDbEntity
  8
YKK_D
100
AcDbText
 10
247.88475786
 20
94.44473462
 30
0.0
 40
6.0
  1
21.2
 50
90.0
 41
0.8
100
AcDbText
1001
ACAD
1000
MTEXTBEGIN
1070
    73
1070
     1
1070
    44
1040
1.0
1070
    74
1070
     0
1000
MTEXTEND
  0
LINE
  5
16E
330
2
100
AcDbEntity
  8
YKK_D
100
AcDbLine
 10
267.88475786
 20
90.05793411
 30
0.0
 11
247.88475786
 21
90.05793411
 31
0.0
  0
LWPOLYLINE
  5
16F
330
2
100
AcDbEntity
  8
YKK_D
  6
ByBlock
100
AcDbPolyline
 90
        2
 70
     1
 43
0.85
 10
248.88475786
 20
90.16418411
 42
1.0
 10
248.88475786
 20
89.95168411
 42
1.0
  0
ARC
  5
170
330
2
100
AcDbEntity
  8
YKK_13
  6
YHIDDEN_1
100
AcDbCircle
 10
272.38475288
 20
82.85793665
 30
0.0
 40
2.299999999999998
100
AcDbArc
 50
180.0
 51
270.0
  0
ARC
  5
171
330
2
100
AcDbEntity
  8
YKK_13
  6
YHIDDEN_1
100
AcDbCircle
 10
272.98475288
 20
83.45793665
 30
0.0
 40
0.6
100
AcDbArc
 50
180.0
 51
270.0
  0
LINE
  5
172
330
2
100
AcDbEntity
  8
YKK_11
  6
ByBlock
 62
     0
100
AcDbLine
 10
268.88475294
 20
90.05793636
 30
0.0
 11
270.08475294
 21
90.05793636
 31
0.0
  0
LINE
  5
173
330
2
100
AcDbEntity
  8
YKK_D
100
AcDbLine
 10
269.08475481
 20
111.25793106
 30
0.0
 11
247.88475786
 21
111.25793106
 31
0.0
  0
LWPOLYLINE
  5
174
330
2
100
AcDbEntity
  8
YKK_D
  6
ByBlock
100
AcDbPolyline
 90
        2
 70
     1
 43
0.85
 10
248.88475786
 20
111.15168106
 42
1.0
 10
248.88475786
 20
111.36418106
 42
1.0
  0
LINE
  5
175
330
2
100
AcDbEntity
  8
YKK_D
100
AcDbLine
 10
268.88475786
 20
115.25793678
 30
0.0
 11
268.88475786
 21
132.25793106
 31
0.0
  0
LINE
  5
176
330
2
100
AcDbEntity
  8
YKK_13
  6
YHIDDEN_1
100
AcDbLine
 10
272.38475288
 20
109.55793665
 30
0.0
 11
270.08475288
 21
109.55793665
 31
0.0
  0
ARC
  5
177
330
2
100
AcDbEntity
  8
YKK_11
  6
ByBlock
 62
     0
100
AcDbCircle
 10
270.08475294
 20
110.05793636
 30
0.0
 40
1.199999999999999
100
AcDbArc
 50
89.99998128
 51
180.00001985
  0
LWPOLYLINE
  5
178
330
2
100
AcDbEntity
  8
YKK_D
  6
ByBlock
100
AcDbPolyline
 90
        2
 70
     1
 43
0.85
 10
268.99100786
 20
131.25793106
 42
1.0
 10
268.77850786
 20
131.25793106
 42
1.0
  0
LINE
  5
179
330
2
100
AcDbEntity
  8
YKK_11
  6
ByBlock
 62
     0
100
AcDbLine
 10
116.1199883
 20
301.85853988
 30
0.0
 11
85.5199883
 21
301.85853988
 31
0.0
  0
LINE
  5
17A
330
2
100
AcDbEntity
  8
YKK_11
  6
ByBlock
 62
     0
100
AcDbLine
 10
85.5199883
 20
300.65853988
 30
0.0
 11
116.1199883
 21
300.65853988
 31
0.0
  0
LINE
  5
17B
330
2
100
AcDbEntity
  8
YKK_11
  6
ByBlock
 62
     0
100
AcDbLine
 10
88.31998762
 20
296.45853977
 30
0.0
 11
109.71998762
 21
296.45853977
 31
0.0
  0
LINE
  5
17C
330
2
100
AcDbEntity
  8
YKK_11
  6
ByBlock
 62
     0
100
AcDbLine
 10
88.31998762
 20
297.65853977
 30
0.0
 11
109.71998762
 21
297.65853977
 31
0.0
  0
LINE
  5
17D
330
2
100
AcDbEntity
  8
YKK_13
  6
Continuous
100
AcDbLine
 10
107.6199881
 20
297.45854001
 30
0.0
 11
88.8199881
 21
297.45854001
 31
0.0
  0
LINE
  5
17E
330
2
100
AcDbEntity
  8
YKK_13
  6
YCENTER_1
100
AcDbLine
 10
114.41700303
 20
229.95854001
 30
0.0
 11
87.72186027
 21
229.95854001
 31
0.0
  0
LINE
  5
180
330
2
100
AcDbEntity
  8
YKK_13
  6
Continuous
100
AcDbLine
 10
97.8199881
 20
232.95854001
 30
0.0
 11
109.3999881
 21
232.95854001
 31
0.0
  0
LINE
  5
181
330
2
100
AcDbEntity
  8
YKK_13
  6
Continuous
100
AcDbLine
 10
97.8199881
 20
226.95854001
 30
0.0
 11
109.3999881
 21
226.95854001
 31
0.0
  0
LINE
  5
182
330
2
100
AcDbEntity
  8
YKK_13
  6
YCENTER_1
100
AcDbLine
 10
107.7199881
 20
290.45854001
 30
0.0
 11
99.7199881
 21
290.45854001
 31
0.0
  0
LINE
  5
183
330
2
100
AcDbEntity
  8
YKK_13
  6
YCENTER_1
100
AcDbLine
 10
107.7199881
 20
267.45854001
 30
0.0
 11
99.7199881
 21
267.45854001
 31
0.0
  0
LINE
  5
184
330
2
100
AcDbEntity
  8
YKK_13
  6
YCENTER_1
100
AcDbLine
 10
107.7199881
 20
244.45854001
 30
0.0
 11
99.7199881
 21
244.45854001
 31
0.0
  0
LINE
  5
185
330
2
100
AcDbEntity
  8
YKK_13
  6
Continuous
100
AcDbLine
 10
88.8199881
 20
237.45854001
 30
0.0
 11
107.6199881
 21
237.45854001
 31
0.0
  0
LINE
  5
186
330
2
100
AcDbEntity
  8
YKK_13
  6
Continuous
100
AcDbLine
 10
107.6199881
 20
285.70854001
 30
0.0
 11
87.8199881
 21
285.70854001
 31
0.0
  0
LINE
  5
187
330
2
100
AcDbEntity
  8
YKK_13
  6
Continuous
100
AcDbLine
 10
107.6199881
 20
249.20854001
 30
0.0
 11
87.8199881
 21
249.20854001
 31
0.0
  0
LINE
  5
188
330
2
100
AcDbEntity
  8
YKK_13
  6
YHIDDEN_1
100
AcDbLine
 10
106.8199881
 20
297.45854001
 30
0.0
 11
105.7199881
 21
295.95854001
 31
0.0
  0
LINE
  5
189
330
2
100
AcDbEntity
  8
YKK_13
  6
YHIDDEN_1
100
AcDbLine
 10
106.8199881
 20
237.45854001
 30
0.0
 11
105.7199881
 21
238.95854001
 31
0.0
  0
LINE
  5
18A
330
2
100
AcDbEntity
  8
YKK_13
  6
YHIDDEN_1
100
AcDbLine
 10
112.7199881
 20
324.45854001
 30
0.0
 11
86.0199881
 21
324.45854001
 31
0.0
  0
LINE
  5
18B
330
2
100
AcDbEntity
  8
YKK_13
  6
YHIDDEN_1
100
AcDbLine
 10
112.7199881
 20
303.25854001
 30
0.0
 11
102.0199881
 21
303.25854001
 31
0.0
  0
LINE
  5
18C
330
2
100
AcDbEntity
  8
YKK_13
  6
YHIDDEN_1
100
AcDbLine
 10
86.0199881
 20
322.15854001
 30
0.0
 11
112.1199881
 21
322.15854001
 31
0.0
  0
LINE
  5
18D
330
2
100
AcDbEntity
  8
YKK_13
  6
YHIDDEN_1
100
AcDbLine
 10
102.0199881
 20
305.55854001
 30
0.0
 11
112.1199881
 21
305.55854001
 31
0.0
  0
LINE
  5
18E
330
2
100
AcDbEntity
  8
YKK_13
  6
Continuous
100
AcDbLine
 10
87.8199881
 20
296.45854001
 30
0.0
 11
87.8199881
 21
238.45854001
 31
0.0
  0
LINE
  5
18F
330
2
100
AcDbEntity
  8
YKK_13
  6
YCENTER_1
100
AcDbLine
 10
93.8199881
 20
317.79743378
 30
0.0
 11
93.8199881
 21
216.10296494
 31
0.0
  0
LINE
  5
190
330
2
100
AcDbEntity
  8
YKK_13
  6
YHIDDEN_1
100
AcDbLine
 10
89.8199881
 20
297.45854001
 30
0.0
 11
89.8199881
 21
237.45854001
 31
0.0
  0
LINE
  5
191
330
2
100
AcDbEntity
  8
YKK_13
  6
YCENTER_1
100
AcDbLine
 10
103.7199881
 20
263.45854001
 30
0.0
 11
103.7199881
 21
271.45854001
 31
0.0
  0
LINE
  5
192
330
2
100
AcDbEntity
  8
YKK_13
  6
YHIDDEN_1
100
AcDbLine
 10
97.8199881
 20
280.70854001
 30
0.0
 11
97.8199881
 21
237.45854001
 31
0.0
  0
LINE
  5
193
330
2
100
AcDbEntity
  8
YKK_13
  6
YHIDDEN_1
100
AcDbLine
 10
99.3199881
 20
285.70854001
 30
0.0
 11
99.3199881
 21
249.20854001
 31
0.0
  0
LINE
  5
194
330
2
100
AcDbEntity
  8
YKK_13
  6
YHIDDEN_1
100
AcDbLine
 10
88.3199881
 20
285.70854001
 30
0.0
 11
88.3199881
 21
249.20854001
 31
0.0
  0
LINE
  5
195
330
2
100
AcDbEntity
  8
YKK_13
  6
YHIDDEN_1
100
AcDbLine
 10
98.19057858
 20
264.16652935
 30
0.0
 11
89.19057858
 21
266.57807208
 31
0.0
  0
LINE
  5
196
330
2
100
AcDbEntity
  8
YKK_13
  6
YHIDDEN_1
100
AcDbLine
 10
98.44939762
 20
262.54426473
 30
0.0
 11
89.44939762
 21
264.95580746
 31
0.0
  0
ARC
  5
197
330
2
100
AcDbEntity
  8
YKK_13
  6
YHIDDEN_1
100
AcDbCircle
 10
98.3199881
 20
264.64949227
 30
0.0
 40
0.5
100
AcDbArc
 50
255.0
 51
75.0
  0
ARC
  5
198
330
2
100
AcDbEntity
  8
YKK_13
  6
YHIDDEN_1
100
AcDbCircle
 10
89.3199881
 20
264.47284455
 30
0.0
 40
0.5
100
AcDbArc
 50
75.0
 51
255.0
  0
LINE
  5
199
330
2
100
AcDbEntity
  8
YKK_13
  6
Continuous
100
AcDbLine
 10
97.8199881
 20
237.45854001
 30
0.0
 11
97.8199881
 21
225.95854001
 31
0.0
  0
LINE
  5
19A
330
2
100
AcDbEntity
  8
YKK_13
  6
Continuous
100
AcDbLine
 10
89.8199881
 20
237.45854001
 30
0.0
 11
89.8199881
 21
225.95854001
 31
0.0
  0
LINE
  5
19B
330
2
100
AcDbEntity
  8
YKK_13
  6
Continuous
100
AcDbLine
 10
96.8199881
 20
224.95854001
 30
0.0
 11
90.8199881
 21
224.95854001
 31
0.0
  0
LINE
  5
19C
330
2
100
AcDbEntity
  8
YKK_13
  6
Continuous
100
AcDbLine
 10
97.8199881
 20
225.95854001
 30
0.0
 11
89.8199881
 21
225.95854001
 31
0.0
  0
LINE
  5
19D
330
2
100
AcDbEntity
  8
YKK_13
  6
Continuous
100
AcDbLine
 10
90.8199881
 20
224.95854001
 30
0.0
 11
89.8199881
 21
225.95854001
 31
0.0
  0
LINE
  5
19E
330
2
100
AcDbEntity
  8
YKK_13
  6
Continuous
100
AcDbLine
 10
96.8199881
 20
224.95854001
 30
0.0
 11
97.8199881
 21
225.95854001
 31
0.0
  0
LINE
  5
19F
330
2
100
AcDbEntity
  8
YKK_13
  6
YHIDDEN_1
100
AcDbLine
 10
97.9199881
 20
249.20854001
 30
0.0
 11
97.9199881
 21
237.45854001
 31
0.0
  0
LINE
  5
1A0
330
2
100
AcDbEntity
  8
YKK_13
  6
YHIDDEN_1
100
AcDbLine
 10
89.7199881
 20
249.20854001
 30
0.0
 11
89.7199881
 21
237.45854001
 31
0.0
  0
LINE
  5
1A1
330
2
100
AcDbEntity
  8
YKK_13
  6
YHIDDEN_1
100
AcDbLine
 10
101.7199881
 20
238.95854001
 30
0.0
 11
101.7199881
 21
258.70854001
 31
0.0
  0
LINE
  5
1A2
330
2
100
AcDbEntity
  8
YKK_13
  6
YHIDDEN_1
100
AcDbLine
 10
105.7199881
 20
238.95854001
 30
0.0
 11
105.7199881
 21
258.70854001
 31
0.0
  0
LINE
  5
1A3
330
2
100
AcDbEntity
  8
YKK_13
  6
YHIDDEN_1
100
AcDbLine
 10
101.6699881
 20
247.20854001
 30
0.0
 11
101.6699881
 21
252.20854001
 31
0.0
  0
LINE
  5
1A4
330
2
100
AcDbEntity
  8
YKK_13
  6
YHIDDEN_1
100
AcDbLine
 10
99.5699881
 20
247.20854001
 30
0.0
 11
99.5699881
 21
252.20854001
 31
0.0
  0
LINE
  5
1A5
330
2
100
AcDbEntity
  8
YKK_13
  6
YHIDDEN_1
100
AcDbLine
 10
101.7199881
 20
257.45854001
 30
0.0
 11
101.7199881
 21
239.45854001
 31
0.0
  0
LINE
  5
1A6
330
2
100
AcDbEntity
  8
YKK_13
  6
YHIDDEN_1
100
AcDbLine
 10
105.7199881
 20
239.45854001
 30
0.0
 11
105.7199881
 21
257.45854001
 31
0.0
  0
LINE
  5
1A7
330
2
100
AcDbEntity
  8
YKK_13
  6
YHIDDEN_1
100
AcDbLine
 10
102.37713094
 20
257.45854001
 30
0.0
 11
102.37713094
 21
239.45854001
 31
0.0
  0
LINE
  5
1A8
330
2
100
AcDbEntity
  8
YKK_13
  6
YHIDDEN_1
100
AcDbLine
 10
105.06284526
 20
257.45854001
 30
0.0
 11
105.06284526
 21
239.45854001
 31
0.0
  0
LINE
  5
1A9
330
2
100
AcDbEntity
  8
YKK_13
  6
Continuous
100
AcDbLine
 10
88.8199881
 20
237.45854001
 30
0.0
 11
87.8199881
 21
238.45854001
 31
0.0
  0
LINE
  5
1AA
330
2
100
AcDbEntity
  8
YKK_13
  6
YCENTER_1
100
AcDbLine
 10
103.7199881
 20
240.45854001
 30
0.0
 11
103.7199881
 21
248.45854001
 31
0.0
  0
LINE
  5
1AB
330
2
100
AcDbEntity
  8
YKK_13
  6
YHIDDEN_1
100
AcDbLine
 10
100.6199881
 20
237.45854001
 30
0.0
 11
101.7199881
 21
238.95854001
 31
0.0
  0
LINE
  5
1AC
330
2
100
AcDbEntity
  8
YKK_13
  6
YHIDDEN_1
100
AcDbLine
 10
105.7199881
 20
238.95854001
 30
0.0
 11
101.7199881
 21
238.95854001
 31
0.0
  0
LINE
  5
1AD
330
2
100
AcDbEntity
  8
YKK_13
  6
YHIDDEN_1
100
AcDbLine
 10
105.06284526
 20
239.45854001
 30
0.0
 11
105.7199881
 21
238.95854001
 31
0.0
  0
LINE
  5
1AE
330
2
100
AcDbEntity
  8
YKK_13
  6
YHIDDEN_1
100
AcDbLine
 10
102.37713094
 20
239.45854001
 30
0.0
 11
101.7199881
 21
238.95854001
 31
0.0
  0
LINE
  5
1AF
330
2
100
AcDbEntity
  8
YKK_13
  6
YHIDDEN_1
100
AcDbLine
 10
101.7199881
 20
239.45854001
 30
0.0
 11
105.7199881
 21
239.45854001
 31
0.0
  0
LINE
  5
1B0
330
2
100
AcDbEntity
  8
YKK_13
  6
YHIDDEN_1
100
AcDbLine
 10
101.51998805
 20
237.45854001
 30
0.0
 11
102.56998812
 21
239.61135919
 31
0.0
  0
LINE
  5
1B1
330
2
100
AcDbEntity
  8
YKK_13
  6
YHIDDEN_1
100
AcDbLine
 10
102.56998812
 20
239.61135919
 30
0.0
 11
103.7199881
 21
240.22282502
 31
0.0
  0
LINE
  5
1B2
330
2
100
AcDbEntity
  8
YKK_13
  6
YHIDDEN_1
100
AcDbLine
 10
105.91998815
 20
237.45854001
 30
0.0
 11
104.86998808
 21
239.61135919
 31
0.0
  0
LINE
  5
1B3
330
2
100
AcDbEntity
  8
YKK_13
  6
YHIDDEN_1
100
AcDbLine
 10
104.86998808
 20
239.61135919
 30
0.0
 11
103.7199881
 21
240.22282502
 31
0.0
  0
LINE
  5
1B4
330
2
100
AcDbEntity
  8
YKK_13
  6
YHIDDEN_1
100
AcDbLine
 10
101.6699881
 20
247.20854001
 30
0.0
 11
99.5699881
 21
247.20854001
 31
0.0
  0
CIRCLE
  5
1B5
330
2
100
AcDbEntity
  8
YKK_13
  6
Continuous
100
AcDbCircle
 10
103.7199881
 20
244.45854001
 30
0.0
 40
2.0
  0
CIRCLE
  5
1B6
330
2
100
AcDbEntity
  8
YKK_13
  6
Continuous
100
AcDbCircle
 10
103.7199881
 20
244.45854001
 30
0.0
 40
1.344999999999999
  0
LINE
  5
1B7
330
2
100
AcDbEntity
  8
YKK_13
  6
YHIDDEN_1
100
AcDbLine
 10
98.3199881
 20
250.20854001
 30
0.0
 11
89.3199881
 21
250.20854001
 31
0.0
  0
LINE
  5
1B8
330
2
100
AcDbEntity
  8
YKK_13
  6
YHIDDEN_1
100
AcDbLine
 10
98.3199881
 20
251.20854001
 30
0.0
 11
89.3199881
 21
251.20854001
 31
0.0
  0
LINE
  5
1B9
330
2
100
AcDbEntity
  8
YKK_13
  6
YHIDDEN_1
100
AcDbLine
 10
98.19057858
 20
251.2255771
 30
0.0
 11
89.19057858
 21
253.63711983
 31
0.0
  0
LINE
  5
1BA
330
2
100
AcDbEntity
  8
YKK_13
  6
YHIDDEN_1
100
AcDbLine
 10
98.44939762
 20
252.19150292
 30
0.0
 11
89.44939762
 21
254.60304565
 31
0.0
  0
LINE
  5
1BB
330
2
100
AcDbEntity
  8
YKK_13
  6
YHIDDEN_1
100
AcDbLine
 10
98.44939762
 20
254.77969337
 30
0.0
 11
89.44939762
 21
257.19123611
 31
0.0
  0
LINE
  5
1BC
330
2
100
AcDbEntity
  8
YKK_13
  6
YHIDDEN_1
100
AcDbLine
 10
98.19057858
 20
253.81376755
 30
0.0
 11
89.19057858
 21
256.22531028
 31
0.0
  0
LINE
  5
1BD
330
2
100
AcDbEntity
  8
YKK_13
  6
YHIDDEN_1
100
AcDbLine
 10
98.44939762
 20
257.36788383
 30
0.0
 11
89.44939762
 21
259.77942656
 31
0.0
  0
LINE
  5
1BE
330
2
100
AcDbEntity
  8
YKK_13
  6
YHIDDEN_1
100
AcDbLine
 10
98.19057858
 20
256.401958
 30
0.0
 11
89.19057858
 21
258.81350073
 31
0.0
  0
LINE
  5
1BF
330
2
100
AcDbEntity
  8
YKK_13
  6
YHIDDEN_1
100
AcDbLine
 10
98.19057858
 20
261.5783389
 30
0.0
 11
89.19057858
 21
263.98988163
 31
0.0
  0
LINE
  5
1C0
330
2
100
AcDbEntity
  8
YKK_13
  6
YHIDDEN_1
100
AcDbLine
 10
98.44939762
 20
259.95607428
 30
0.0
 11
89.44939762
 21
262.36761701
 31
0.0
  0
LINE
  5
1C1
330
2
100
AcDbEntity
  8
YKK_13
  6
YHIDDEN_1
100
AcDbLine
 10
98.19057858
 20
258.99014845
 30
0.0
 11
89.19057858
 21
261.40169118
 31
0.0
  0
ARC
  5
1C2
330
2
100
AcDbEntity
  8
YKK_13
  6
YHIDDEN_1
100
AcDbCircle
 10
89.3199881
 20
256.70827319
 30
0.0
 40
0.5
100
AcDbArc
 50
75.0
 51
255.0
  0
ARC
  5
1C3
330
2
100
AcDbEntity
  8
YKK_13
  6
YHIDDEN_1
100
AcDbCircle
 10
89.3199881
 20
249.70854001
 30
0.0
 40
0.5000000000000852
100
AcDbArc
 50
90.0
 51
270.0
  0
ARC
  5
1C4
330
2
100
AcDbEntity
  8
YKK_13
  6
YHIDDEN_1
100
AcDbCircle
 10
89.3199881
 20
250.70854001
 30
0.0
 40
0.5000000000000852
100
AcDbArc
 50
90.0
 51
270.0
  0
ARC
  5
1C5
330
2
100
AcDbEntity
  8
YKK_13
  6
YHIDDEN_1
100
AcDbCircle
 10
89.3199881
 20
254.12008274
 30
0.0
 40
0.5
100
AcDbArc
 50
75.0
 51
255.0
  0
ARC
  5
1C6
330
2
100
AcDbEntity
  8
YKK_13
  6
YHIDDEN_1
100
AcDbCircle
 10
89.3199881
 20
259.29646364
 30
0.0
 40
0.5
100
AcDbArc
 50
75.0
 51
255.0
  0
ARC
  5
1C7
330
2
100
AcDbEntity
  8
YKK_13
  6
YHIDDEN_1
100
AcDbCircle
 10
89.3199881
 20
261.88465409
 30
0.0
 40
0.5
100
AcDbArc
 50
75.0
 51
255.0
  0
ARC
  5
1C8
330
2
100
AcDbEntity
  8
YKK_13
  6
YHIDDEN_1
100
AcDbCircle
 10
98.3199881
 20
256.88492091
 30
0.0
 40
0.5
100
AcDbArc
 50
255.0
 51
75.0
  0
LINE
  5
1C9
330
2
100
AcDbEntity
  8
YKK_13
  6
YHIDDEN_1
100
AcDbLine
 10
101.6699881
 20
252.20854001
 30
0.0
 11
99.5699881
 21
252.20854001
 31
0.0
  0
ARC
  5
1CA
330
2
100
AcDbEntity
  8
YKK_13
  6
YHIDDEN_1
100
AcDbCircle
 10
98.3199881
 20
249.70854001
 30
0.0
 40
0.5
100
AcDbArc
 50
270.0
 51
90.0
  0
ARC
  5
1CB
330
2
100
AcDbEntity
  8
YKK_13
  6
YHIDDEN_1
100
AcDbCircle
 10
98.3199881
 20
250.70854001
 30
0.0
 40
0.5
100
AcDbArc
 50
270.0
 51
90.0
  0
ARC
  5
1CC
330
2
100
AcDbEntity
  8
YKK_13
  6
YHIDDEN_1
100
AcDbCircle
 10
98.3199881
 20
251.70854001
 30
0.0
 40
0.5
100
AcDbArc
 50
255.0
 51
75.0
  0
ARC
  5
1CD
330
2
100
AcDbEntity
  8
YKK_13
  6
YHIDDEN_1
100
AcDbCircle
 10
98.3199881
 20
254.29673046
 30
0.0
 40
0.5
100
AcDbArc
 50
255.0
 51
75.0
  0
ARC
  5
1CE
330
2
100
AcDbEntity
  8
YKK_13
  6
YHIDDEN_1
100
AcDbCircle
 10
98.3199881
 20
262.06130181
 30
0.0
 40
0.5
100
AcDbArc
 50
255.0
 51
75.0
  0
ARC
  5
1CF
330
2
100
AcDbEntity
  8
YKK_13
  6
YHIDDEN_1
100
AcDbCircle
 10
98.3199881
 20
259.47311136
 30
0.0
 40
0.5
100
AcDbArc
 50
255.0
 51
75.0
  0
LINE
  5
1D0
330
2
100
AcDbEntity
  8
YKK_13
  6
YHIDDEN_1
100
AcDbLine
 10
105.2199881
 20
259.20854001
 30
0.0
 11
102.2199881
 21
259.20854001
 31
0.0
  0
LINE
  5
1D1
330
2
100
AcDbEntity
  8
YKK_13
  6
YHIDDEN_1
100
AcDbLine
 10
105.7199881
 20
258.70854001
 30
0.0
 11
101.7199881
 21
258.70854001
 31
0.0
  0
LINE
  5
1D2
330
2
100
AcDbEntity
  8
YKK_13
  6
YHIDDEN_1
100
AcDbLine
 10
102.2199881
 20
259.20854001
 30
0.0
 11
101.7199881
 21
258.70854001
 31
0.0
  0
LINE
  5
1D3
330
2
100
AcDbEntity
  8
YKK_13
  6
YHIDDEN_1
100
AcDbLine
 10
105.2199881
 20
259.20854001
 30
0.0
 11
105.7199881
 21
258.70854001
 31
0.0
  0
LINE
  5
1D4
330
2
100
AcDbEntity
  8
YKK_13
  6
YHIDDEN_1
100
AcDbLine
 10
105.0649881
 20
257.45854001
 30
0.0
 11
105.0649881
 21
258.70854001
 31
0.0
  0
LINE
  5
1D5
330
2
100
AcDbEntity
  8
YKK_13
  6
YHIDDEN_1
100
AcDbLine
 10
102.3749881
 20
257.45854001
 30
0.0
 11
102.3749881
 21
258.70854001
 31
0.0
  0
LINE
  5
1D6
330
2
100
AcDbEntity
  8
YKK_13
  6
YHIDDEN_1
100
AcDbLine
 10
105.7199881
 20
257.45854001
 30
0.0
 11
101.7199881
 21
257.45854001
 31
0.0
  0
TEXT
  5
1D7
330
2
100
AcDbEntity
  8
YKK_D
100
AcDbText
 10
62.11998814
 20
310.0763091
 30
0.0
 40
6.0
  1
25
 50
90.0
 41
0.8
100
AcDbText
1001
ACAD
1000
MTEXTBEGIN
1070
    73
1070
     1
1070
    44
1040
1.0
1070
    74
1070
     0
1000
MTEXTEND
  0
TEXT
  5
1D8
330
2
100
AcDbEntity
  8
YKK_D
100
AcDbText
 10
62.11998814
 20
297.6478827
 30
0.0
 40
6.0
  1
3
 50
90.0
 41
0.8
100
AcDbText
1001
ACAD
1000
MTEXTBEGIN
1070
    73
1070
     1
1070
    44
1040
1.0
1070
    74
1070
     0
1000
MTEXTEND
  0
LINE
  5
1D9
330
2
100
AcDbEntity
  8
YKK_13
  6
YHIDDEN_1
100
AcDbLine
 10
97.8199881
 20
297.45854001
 30
0.0
 11
97.8199881
 21
285.20854001
 31
0.0
  0
LINE
  5
1DA
330
2
100
AcDbEntity
  8
YKK_13
  6
YHIDDEN_1
100
AcDbLine
 10
89.7199881
 20
297.45854001
 30
0.0
 11
89.7199881
 21
285.70854001
 31
0.0
  0
LINE
  5
1DB
330
2
100
AcDbEntity
  8
YKK_13
  6
YHIDDEN_1
100
AcDbLine
 10
97.9199881
 20
297.45854001
 30
0.0
 11
97.9199881
 21
285.70854001
 31
0.0
  0
LINE
  5
1DC
330
2
100
AcDbEntity
  8
YKK_13
  6
YHIDDEN_1
100
AcDbLine
 10
101.7199881
 20
295.95854001
 30
0.0
 11
101.7199881
 21
276.20854001
 31
0.0
  0
LINE
  5
1DD
330
2
100
AcDbEntity
  8
YKK_13
  6
YHIDDEN_1
100
AcDbLine
 10
105.7199881
 20
295.95854001
 30
0.0
 11
105.7199881
 21
276.20854001
 31
0.0
  0
LINE
  5
1DE
330
2
100
AcDbEntity
  8
YKK_13
  6
YHIDDEN_1
100
AcDbLine
 10
105.06284526
 20
295.45854001
 30
0.0
 11
105.7199881
 21
295.95854001
 31
0.0
  0
LINE
  5
1DF
330
2
100
AcDbEntity
  8
YKK_13
  6
YHIDDEN_1
100
AcDbLine
 10
102.37713094
 20
295.45854001
 30
0.0
 11
101.7199881
 21
295.95854001
 31
0.0
  0
LINE
  5
1E0
330
2
100
AcDbEntity
  8
YKK_13
  6
YHIDDEN_1
100
AcDbLine
 10
101.51998805
 20
297.45854001
 30
0.0
 11
102.56998812
 21
295.30572083
 31
0.0
  0
LINE
  5
1E1
330
2
100
AcDbEntity
  8
YKK_13
  6
YHIDDEN_1
100
AcDbLine
 10
105.91998815
 20
297.45854001
 30
0.0
 11
104.86998808
 21
295.30572083
 31
0.0
  0
LINE
  5
1E2
330
2
100
AcDbEntity
  8
YKK_13
  6
YHIDDEN_1
100
AcDbLine
 10
101.7199881
 20
277.45854001
 30
0.0
 11
101.7199881
 21
295.45854001
 31
0.0
  0
LINE
  5
1E3
330
2
100
AcDbEntity
  8
YKK_13
  6
YHIDDEN_1
100
AcDbLine
 10
105.7199881
 20
295.45854001
 30
0.0
 11
105.7199881
 21
277.45854001
 31
0.0
  0
LINE
  5
1E4
330
2
100
AcDbEntity
  8
YKK_13
  6
YHIDDEN_1
100
AcDbLine
 10
102.37713094
 20
277.45854001
 30
0.0
 11
102.37713094
 21
295.45854001
 31
0.0
  0
ARC
  5
1E5
330
2
100
AcDbEntity
  8
YKK_13
  6
YHIDDEN_1
100
AcDbCircle
 10
89.3199881
 20
280.20854001
 30
0.0
 40
0.5000000000000852
100
AcDbArc
 50
90.0
 51
270.0
  0
ARC
  5
1E6
330
2
100
AcDbEntity
  8
YKK_13
  6
YHIDDEN_1
100
AcDbCircle
 10
98.3199881
 20
280.20854001
 30
0.0
 40
0.5
100
AcDbArc
 50
270.0
 51
90.0
  0
LINE
  5
1E7
330
2
100
AcDbEntity
  8
YKK_13
  6
YHIDDEN_1
100
AcDbLine
 10
105.06284526
 20
277.45854001
 30
0.0
 11
105.06284526
 21
295.45854001
 31
0.0
  0
LINE
  5
1E8
330
2
100
AcDbEntity
  8
YKK_13
  6
YHIDDEN_1
100
AcDbLine
 10
98.44939762
 20
265.13245518
 30
0.0
 11
89.44939762
 21
267.54399791
 31
0.0
  0
LINE
  5
1E9
330
2
100
AcDbEntity
  8
YKK_13
  6
YHIDDEN_1
100
AcDbLine
 10
98.44939762
 20
267.72064563
 30
0.0
 11
89.44939762
 21
270.13218836
 31
0.0
  0
LINE
  5
1EA
330
2
100
AcDbEntity
  8
YKK_13
  6
YHIDDEN_1
100
AcDbLine
 10
98.19057858
 20
266.7547198
 30
0.0
 11
89.19057858
 21
269.16626253
 31
0.0
  0
LINE
  5
1EB
330
2
100
AcDbEntity
  8
YKK_13
  6
YHIDDEN_1
100
AcDbLine
 10
98.44939762
 20
270.30883608
 30
0.0
 11
89.44939762
 21
272.72037881
 31
0.0
  0
LINE
  5
1EC
330
2
100
AcDbEntity
  8
YKK_13
  6
YHIDDEN_1
100
AcDbLine
 10
98.19057858
 20
269.34291025
 30
0.0
 11
89.19057858
 21
271.75445299
 31
0.0
  0
LINE
  5
1ED
330
2
100
AcDbEntity
  8
YKK_13
  6
YHIDDEN_1
100
AcDbLine
 10
98.44939762
 20
275.28360146
 30
0.0
 11
89.44939762
 21
277.69514419
 31
0.0
  0
LINE
  5
1EE
330
2
100
AcDbEntity
  8
YKK_13
  6
YHIDDEN_1
100
AcDbLine
 10
98.19057858
 20
274.31767563
 30
0.0
 11
89.19057858
 21
276.72921836
 31
0.0
  0
LINE
  5
1EF
330
2
100
AcDbEntity
  8
YKK_13
  6
YHIDDEN_1
100
AcDbLine
 10
98.44939762
 20
272.89702653
 30
0.0
 11
89.44939762
 21
275.30856926
 31
0.0
  0
LINE
  5
1F0
330
2
100
AcDbEntity
  8
YKK_13
  6
YHIDDEN_1
100
AcDbLine
 10
98.19057858
 20
271.93110071
 30
0.0
 11
89.19057858
 21
274.34264344
 31
0.0
  0
LINE
  5
1F1
330
2
100
AcDbEntity
  8
YKK_13
  6
YHIDDEN_1
100
AcDbLine
 10
98.3199881
 20
278.70854001
 30
0.0
 11
89.3199881
 21
278.70854001
 31
0.0
  0
LINE
  5
1F2
330
2
100
AcDbEntity
  8
YKK_13
  6
YHIDDEN_1
100
AcDbLine
 10
98.3199881
 20
279.70854001
 30
0.0
 11
89.3199881
 21
279.70854001
 31
0.0
  0
LINE
  5
1F3
330
2
100
AcDbEntity
  8
YKK_13
  6
YHIDDEN_1
100
AcDbLine
 10
98.27641023
 20
276.92304469
 30
0.0
 11
89.27641023
 21
277.71044266
 31
0.0
  0
LINE
  5
1F4
330
2
100
AcDbEntity
  8
YKK_13
  6
YHIDDEN_1
100
AcDbLine
 10
98.36356597
 20
277.91923939
 30
0.0
 11
89.36356597
 21
278.70663736
 31
0.0
  0
ARC
  5
1F5
330
2
100
AcDbEntity
  8
YKK_13
  6
YHIDDEN_1
100
AcDbCircle
 10
89.3199881
 20
272.2374159
 30
0.0
 40
0.5
100
AcDbArc
 50
75.0
 51
255.0
  0
ARC
  5
1F6
330
2
100
AcDbEntity
  8
YKK_13
  6
Continuous
100
AcDbCircle
 10
89.3199881
 20
267.061035
 30
0.0
 40
0.5
100
AcDbArc
 50
75.0
 51
255.0
  0
ARC
  5
1F7
330
2
100
AcDbEntity
  8
YKK_13
  6
YHIDDEN_1
100
AcDbCircle
 10
89.3199881
 20
267.061035
 30
0.0
 40
0.5
100
AcDbArc
 50
75.0
 51
255.0
  0
ARC
  5
1F8
330
2
100
AcDbEntity
  8
YKK_13
  6
YHIDDEN_1
100
AcDbCircle
 10
89.3199881
 20
269.64922545
 30
0.0
 40
0.5
100
AcDbArc
 50
75.0
 51
255.0
  0
ARC
  5
1F9
330
2
100
AcDbEntity
  8
YKK_13
  6
YHIDDEN_1
100
AcDbCircle
 10
89.3199881
 20
277.21218127
 30
0.0
 40
0.5
100
AcDbArc
 50
75.0
 51
255.0
  0
ARC
  5
1FA
330
2
100
AcDbEntity
  8
YKK_13
  6
YHIDDEN_1
100
AcDbCircle
 10
89.3199881
 20
274.82560635
 30
0.0
 40
0.5
100
AcDbArc
 50
75.0
 51
255.0
  0
ARC
  5
1FB
330
2
100
AcDbEntity
  8
YKK_13
  6
YHIDDEN_1
100
AcDbCircle
 10
89.3199881
 20
279.20854001
 30
0.0
 40
0.5000000000000852
100
AcDbArc
 50
90.0
 51
270.0
  0
ARC
  5
1FC
330
2
100
AcDbEntity
  8
YKK_13
  6
YHIDDEN_1
100
AcDbCircle
 10
89.3199881
 20
278.20854001
 30
0.0
 40
0.5
100
AcDbArc
 50
85.0
 51
265.0
  0
ARC
  5
1FD
330
2
100
AcDbEntity
  8
YKK_13
  6
YHIDDEN_1
100
AcDbCircle
 10
98.3199881
 20
272.41406362
 30
0.0
 40
0.5
100
AcDbArc
 50
255.0
 51
75.0
  0
ARC
  5
1FE
330
2
100
AcDbEntity
  8
YKK_13
  6
YHIDDEN_1
100
AcDbCircle
 10
98.3199881
 20
267.23768272
 30
0.0
 40
0.5
100
AcDbArc
 50
255.0
 51
75.0
  0
ARC
  5
1FF
330
2
100
AcDbEntity
  8
YKK_13
  6
YHIDDEN_1
100
AcDbCircle
 10
98.3199881
 20
269.82587317
 30
0.0
 40
0.5
100
AcDbArc
 50
255.0
 51
75.0
  0
CIRCLE
  5
200
330
2
100
AcDbEntity
  8
YKK_13
  6
Continuous
100
AcDbCircle
 10
103.7199881
 20
267.45854001
 30
0.0
 40
2.0
  0
CIRCLE
  5
201
330
2
100
AcDbEntity
  8
YKK_13
  6
Continuous
100
AcDbCircle
 10
103.7199881
 20
267.45854001
 30
0.0
 40
1.344999999999999
  0
ARC
  5
202
330
2
100
AcDbEntity
  8
YKK_13
  6
YHIDDEN_1
100
AcDbCircle
 10
98.3199881
 20
274.80063854
 30
0.0
 40
0.5
100
AcDbArc
 50
255.0
 51
75.0
  0
ARC
  5
203
330
2
100
AcDbEntity
  8
YKK_13
  6
YHIDDEN_1
100
AcDbCircle
 10
98.3199881
 20
279.20854001
 30
0.0
 40
0.5
100
AcDbArc
 50
270.0
 51
90.0
  0
ARC
  5
204
330
2
100
AcDbEntity
  8
YKK_13
  6
YHIDDEN_1
100
AcDbCircle
 10
98.3199881
 20
277.42114204
 30
0.0
 40
0.5
100
AcDbArc
 50
265.0
 51
85.0
  0
LINE
  5
205
330
2
100
AcDbEntity
  8
YKK_13
  6
YHIDDEN_1
100
AcDbLine
 10
105.2199881
 20
275.70854001
 30
0.0
 11
102.2199881
 21
275.70854001
 31
0.0
  0
LINE
  5
206
330
2
100
AcDbEntity
  8
YKK_13
  6
YHIDDEN_1
100
AcDbLine
 10
105.7199881
 20
276.20854001
 30
0.0
 11
101.7199881
 21
276.20854001
 31
0.0
  0
LINE
  5
207
330
2
100
AcDbEntity
  8
YKK_13
  6
YHIDDEN_1
100
AcDbLine
 10
102.2199881
 20
275.70854001
 30
0.0
 11
101.7199881
 21
276.20854001
 31
0.0
  0
LINE
  5
208
330
2
100
AcDbEntity
  8
YKK_13
  6
YHIDDEN_1
100
AcDbLine
 10
105.2199881
 20
275.70854001
 30
0.0
 11
105.7199881
 21
276.20854001
 31
0.0
  0
LINE
  5
209
330
2
100
AcDbEntity
  8
YKK_13
  6
YHIDDEN_1
100
AcDbLine
 10
105.0649881
 20
277.45854001
 30
0.0
 11
105.0649881
 21
276.20854001
 31
0.0
  0
LINE
  5
20A
330
2
100
AcDbEntity
  8
YKK_13
  6
YHIDDEN_1
100
AcDbLine
 10
102.3749881
 20
277.45854001
 30
0.0
 11
102.3749881
 21
276.20854001
 31
0.0
  0
LINE
  5
20B
330
2
100
AcDbEntity
  8
YKK_13
  6
YHIDDEN_1
100
AcDbLine
 10
105.7199881
 20
277.45854001
 30
0.0
 11
101.7199881
 21
277.45854001
 31
0.0
  0
LINE
  5
20C
330
2
100
AcDbEntity
  8
YKK_13
  6
YHIDDEN_1
100
AcDbLine
 10
89.3199881
 20
280.70854001
 30
0.0
 11
98.3199881
 21
280.70854001
 31
0.0
  0
LINE
  5
20D
330
2
100
AcDbEntity
  8
YKK_13
  6
YCENTER_1
100
AcDbLine
 10
103.7199881
 20
286.45854001
 30
0.0
 11
103.7199881
 21
294.45854001
 31
0.0
  0
LINE
  5
20E
330
2
100
AcDbEntity
  8
YKK_13
  6
YHIDDEN_1
100
AcDbLine
 10
101.6699881
 20
282.70854001
 30
0.0
 11
99.5699881
 21
282.70854001
 31
0.0
  0
LINE
  5
20F
330
2
100
AcDbEntity
  8
YKK_13
  6
YHIDDEN_1
100
AcDbLine
 10
101.6699881
 20
287.70854001
 30
0.0
 11
99.5699881
 21
287.70854001
 31
0.0
  0
LINE
  5
210
330
2
100
AcDbEntity
  8
YKK_13
  6
YHIDDEN_1
100
AcDbLine
 10
98.5699881
 20
280.70854001
 30
0.0
 11
96.5699881
 21
280.70854001
 31
0.0
  0
LINE
  5
211
330
2
100
AcDbEntity
  8
YKK_13
  6
YHIDDEN_1
100
AcDbLine
 10
98.5699881
 20
285.20854001
 30
0.0
 11
96.5699881
 21
285.20854001
 31
0.0
  0
LINE
  5
212
330
2
100
AcDbEntity
  8
YKK_13
  6
YHIDDEN_1
100
AcDbLine
 10
96.5699881
 20
285.20854001
 30
0.0
 11
96.5699881
 21
280.70854001
 31
0.0
  0
LINE
  5
213
330
2
100
AcDbEntity
  8
YKK_13
  6
YHIDDEN_1
100
AcDbLine
 10
99.0699881
 20
284.70854001
 30
0.0
 11
99.0699881
 21
281.20854001
 31
0.0
  0
ARC
  5
214
330
2
100
AcDbEntity
  8
YKK_13
  6
YHIDDEN_1
100
AcDbCircle
 10
98.5699881
 20
284.70854001
 30
0.0
 40
0.5
100
AcDbArc
 50
0.0
 51
90.0
  0
ARC
  5
215
330
2
100
AcDbEntity
  8
YKK_13
  6
YHIDDEN_1
100
AcDbCircle
 10
98.5699881
 20
281.20854001
 30
0.0
 40
0.5
100
AcDbArc
 50
270.0
 51
0.0
  0
LINE
  5
216
330
2
100
AcDbEntity
  8
YKK_13
  6
YHIDDEN_1
100
AcDbLine
 10
99.5699881
 20
287.70854001
 30
0.0
 11
99.5699881
 21
282.70854001
 31
0.0
  0
LINE
  5
217
330
2
100
AcDbEntity
  8
YKK_13
  6
YHIDDEN_1
100
AcDbLine
 10
101.6699881
 20
287.70854001
 30
0.0
 11
101.6699881
 21
282.70854001
 31
0.0
  0
CIRCLE
  5
218
330
2
100
AcDbEntity
  8
YKK_13
  6
Continuous
100
AcDbCircle
 10
103.7199881
 20
290.45854001
 30
0.0
 40
2.0
  0
LINE
  5
219
330
2
100
AcDbEntity
  8
YKK_13
  6
YHIDDEN_1
100
AcDbLine
 10
101.7199881
 20
295.45854001
 30
0.0
 11
105.7199881
 21
295.45854001
 31
0.0
  0
CIRCLE
  5
21A
330
2
100
AcDbEntity
  8
YKK_13
  6
Continuous
100
AcDbCircle
 10
103.7199881
 20
290.45854001
 30
0.0
 40
1.344999999999999
  0
LINE
  5
21B
330
2
100
AcDbEntity
  8
YKK_13
  6
YHIDDEN_1
100
AcDbLine
 10
102.56998812
 20
295.30572083
 30
0.0
 11
103.7199881
 21
294.694255
 31
0.0
  0
LINE
  5
21C
330
2
100
AcDbEntity
  8
YKK_13
  6
YHIDDEN_1
100
AcDbLine
 10
104.86998808
 20
295.30572083
 30
0.0
 11
103.7199881
 21
294.694255
 31
0.0
  0
ARC
  5
21D
330
2
100
AcDbEntity
  8
YKK_11
  6
ByBlock
 62
     0
100
AcDbCircle
 10
85.5199883
 20
301.85853988
 30
0.0
 40
1.199999999999999
100
AcDbArc
 50
180.00001985
 51
270.00000112
  0
ARC
  5
21E
330
2
100
AcDbEntity
  8
YKK_11
  6
ByBlock
 62
     0
100
AcDbCircle
 10
85.5199883
 20
324.45853988
 30
0.0
 40
1.199999999999999
100
AcDbArc
 50
89.99998128
 51
180.00001985
  0
LINE
  5
21F
330
2
100
AcDbEntity
  8
YKK_12
  6
Continuous
100
AcDbLine
 10
83.1199881
 20
325.65854001
 30
0.0
 11
85.5199881
 21
325.65854001
 31
0.0
  0
LINE
  5
220
330
2
100
AcDbEntity
  8
YKK_D
100
AcDbLine
 10
63.11998814
 20
325.6585426
 30
0.0
 11
63.11998814
 21
300.6585426
 31
0.0
  0
LINE
  5
221
330
2
100
AcDbEntity
  8
YKK_D
100
AcDbLine
 10
76.09426563
 20
300.6585426
 30
0.0
 11
62.11998814
 21
300.6585426
 31
0.0
  0
LINE
  5
222
330
2
100
AcDbEntity
  8
YKK_D
100
AcDbLine
 10
79.11998814
 20
297.6585426
 30
0.0
 11
62.11998814
 21
297.6585426
 31
0.0
  0
LINE
  5
223
330
2
100
AcDbEntity
  8
YKK_D
100
AcDbLine
 10
79.11998814
 20
300.6585426
 30
0.0
 11
62.11998814
 21
300.6585426
 31
0.0
  0
LINE
  5
224
330
2
100
AcDbEntity
  8
YKK_D
100
AcDbLine
 10
63.11998814
 20
300.6585426
 30
0.0
 11
63.11998814
 21
297.6585426
 31
0.0
  0
LWPOLYLINE
  5
225
330
2
100
AcDbEntity
  8
YKK_D
  6
ByBlock
100
AcDbPolyline
 90
        2
 70
     1
 43
0.85
 10
63.11998814
 20
300.7647926
 42
1.0
 10
63.11998814
 20
300.5522926
 42
1.0
  0
LWPOLYLINE
  5
226
330
2
100
AcDbEntity
  8
YKK_D
  6
ByBlock
100
AcDbPolyline
 90
        2
 70
     1
 43
0.85
 10
63.11998814
 20
297.7647926
 42
1.0
 10
63.11998814
 20
297.5522926
 42
1.0
  0
LWPOLYLINE
  5
227
330
2
100
AcDbEntity
  8
YKK_D
  6
ByBlock
100
AcDbPolyline
 90
        2
 70
     1
 43
0.85
 10
63.11998814
 20
300.5522926
 42
1.0
 10
63.11998814
 20
300.7647926
 42
1.0
  0
LWPOLYLINE
  5
228
330
2
100
AcDbEntity
  8
YKK_D
  6
ByBlock
100
AcDbPolyline
 90
        2
 70
     1
 43
0.85
 10
63.11998814
 20
297.5522926
 42
1.0
 10
63.11998814
 20
297.7647926
 42
1.0
  0
LINE
  5
229
330
2
100
AcDbEntity
  8
YKK_D
100
AcDbLine
 10
79.11998814
 20
325.6585426
 30
0.0
 11
62.11998814
 21
325.6585426
 31
0.0
  0
LWPOLYLINE
  5
22A
330
2
100
AcDbEntity
  8
YKK_D
  6
ByBlock
100
AcDbPolyline
 90
        2
 70
     1
 43
0.85
 10
63.11998814
 20
325.5522926
 42
1.0
 10
63.11998814
 20
325.7647926
 42
1.0
  0
LINE
  5
22B
330
2
100
AcDbEntity
  8
YKK_11
  6
ByBlock
 62
     0
100
AcDbLine
 10
84.3199883
 20
324.45853988
 30
0.0
 11
84.3199883
 21
301.85853988
 31
0.0
  0
LINE
  5
22C
330
2
100
AcDbEntity
  8
YKK_11
  6
ByBlock
 62
     0
100
AcDbLine
 10
85.5199883
 20
301.85853988
 30
0.0
 11
85.5199883
 21
324.45853988
 31
0.0
  0
LINE
  5
22D
330
2
100
AcDbEntity
  8
YKK_13
  6
Continuous
100
AcDbLine
 10
100.5199881
 20
301.85854001
 30
0.0
 11
100.5199881
 21
313.85854001
 31
0.0
  0
LINE
  5
22E
330
2
100
AcDbEntity
  8
YKK_13
  6
Continuous
100
AcDbLine
 10
95.8199881
 20
311.15854001
 30
0.0
 11
91.8199881
 21
311.15854001
 31
0.0
  0
LINE
  5
22F
330
2
100
AcDbEntity
  8
YKK_13
  6
Continuous
100
AcDbLine
 10
97.8199881
 20
309.15854001
 30
0.0
 11
89.8199881
 21
309.15854001
 31
0.0
  0
LINE
  5
230
330
2
100
AcDbEntity
  8
YKK_13
  6
Continuous
100
AcDbLine
 10
89.8199881
 20
309.15854001
 30
0.0
 11
89.8199881
 21
297.45854001
 31
0.0
  0
ARC
  5
231
330
2
100
AcDbEntity
  8
YKK_11
  6
ByBlock
 62
     0
100
AcDbCircle
 10
88.31998762
 20
296.45853977
 30
0.0
 40
1.199999999999999
100
AcDbArc
 50
89.99998128
 51
180.00001985
  0
LINE
  5
232
330
2
100
AcDbEntity
  8
YKK_13
  6
Continuous
100
AcDbLine
 10
88.8199881
 20
297.45854001
 30
0.0
 11
87.8199881
 21
296.45854001
 31
0.0
  0
LINE
  5
233
330
2
100
AcDbEntity
  8
YKK_13
  6
Continuous
100
AcDbLine
 10
91.8199881
 20
311.15854001
 30
0.0
 11
89.8199881
 21
309.15854001
 31
0.0
  0
LINE
  5
234
330
2
100
AcDbEntity
  8
YKK_13
  6
Continuous
100
AcDbLine
 10
97.8199881
 20
309.15854001
 30
0.0
 11
97.8199881
 21
297.45854001
 31
0.0
  0
LINE
  5
235
330
2
100
AcDbEntity
  8
YKK_13
  6
YHIDDEN_1
100
AcDbLine
 10
102.0199881
 20
303.25854001
 30
0.0
 11
102.0199881
 21
305.55854001
 31
0.0
  0
LINE
  5
236
330
2
100
AcDbEntity
  8
YKK_13
  6
YHIDDEN_1
100
AcDbLine
 10
100.6199881
 20
297.45854001
 30
0.0
 11
101.7199881
 21
295.95854001
 31
0.0
  0
LINE
  5
237
330
2
100
AcDbEntity
  8
YKK_13
  6
YHIDDEN_1
100
AcDbLine
 10
105.7199881
 20
295.95854001
 30
0.0
 11
101.7199881
 21
295.95854001
 31
0.0
  0
LINE
  5
238
330
2
100
AcDbEntity
  8
YKK_13
  6
Continuous
100
AcDbLine
 10
95.8199881
 20
311.15854001
 30
0.0
 11
97.8199881
 21
309.15854001
 31
0.0
  0
LINE
  5
239
330
2
100
AcDbEntity
  8
YKK_11
  6
ByBlock
 62
     0
100
AcDbLine
 10
104.3199883
 20
325.65853988
 30
0.0
 11
85.5199883
 21
325.65853988
 31
0.0
  0
LINE
  5
23A
330
2
100
AcDbEntity
  8
YKK_11
  6
ByBlock
 62
     0
100
AcDbLine
 10
85.5199883
 20
324.45853988
 30
0.0
 11
104.3199883
 21
324.45853988
 31
0.0
  0
LINE
  5
23B
330
2
100
AcDbEntity
  8
YKK_13
  6
Continuous
100
AcDbLine
 10
85.5199881
 20
313.85854001
 30
0.0
 11
100.5199881
 21
313.85854001
 31
0.0
  0
LINE
  5
23C
330
2
100
AcDbEntity
  8
YKK_13
  6
YHIDDEN_1
100
AcDbLine
 10
86.0199881
 20
322.15854001
 30
0.0
 11
86.0199881
 21
324.45854001
 31
0.0
  0
LINE
  5
23D
330
2
100
AcDbEntity
  8
YKK_11
  6
ByBlock
 62
     0
100
AcDbLine
 10
104.3199883
 20
324.45853988
 30
0.0
 11
104.3199883
 21
325.65853988
 31
0.0
  0
LINE
  5
23E
330
2
100
AcDbEntity
  8
YKK_D
100
AcDbLine
 10
84.3199889
 20
345.6585426
 30
0.0
 11
83.11998432
 21
345.6585426
 31
0.0
  0
LWPOLYLINE
  5
23F
330
2
100
AcDbEntity
  8
YKK_D
  6
ByBlock
100
AcDbPolyline
 90
        2
 70
     1
 43
0.85
 10
84.4262389
 20
345.6585426
 42
1.0
 10
84.2137389
 20
345.6585426
 42
1.0
  0
LWPOLYLINE
  5
240
330
2
100
AcDbEntity
  8
YKK_D
  6
ByBlock
100
AcDbPolyline
 90
        2
 70
     1
 43
0.85
 10
84.4262389
 20
345.6585426
 42
1.0
 10
84.2137389
 20
345.6585426
 42
1.0
  0
LINE
  5
241
330
2
100
AcDbEntity
  8
YKK_D
100
AcDbLine
 10
83.11998432
 20
329.65853998
 30
0.0
 11
83.11998432
 21
346.6585426
 31
0.0
  0
LINE
  5
242
330
2
100
AcDbEntity
  8
YKK_D
100
AcDbLine
 10
83.11998432
 20
345.6585426
 30
0.0
 11
66.51998432
 21
345.6585426
 31
0.0
  0
TEXT
  5
243
330
2
100
AcDbEntity
  8
YKK_D
100
AcDbText
 10
68.30780158
 20
346.6585426
 30
0.0
 40
6.0
  1
1.2
 41
0.8
100
AcDbText
1001
ACAD
1000
MTEXTBEGIN
1070
    73
1070
     1
1070
    44
1040
1.0
1070
    74
1070
     0
1000
MTEXTEND
  0
LWPOLYLINE
  5
244
330
2
100
AcDbEntity
  8
YKK_D
  6
ByBlock
100
AcDbPolyline
 90
        2
 70
     1
 43
0.85
 10
83.01373432
 20
345.6585426
 42
1.0
 10
83.22623432
 20
345.6585426
 42
1.0
  0
LINE
  5
245
330
2
100
AcDbEntity
  8
YKK_D
100
AcDbLine
 10
84.3199889
 20
331.97909304
 30
0.0
 11
84.3199889
 21
346.6585426
 31
0.0
  0
LINE
  5
246
330
2
100
AcDbEntity
  8
YKK_D
100
AcDbLine
 10
84.3199889
 20
329.65854021
 30
0.0
 11
84.3199889
 21
346.6585426
 31
0.0
  0
LINE
  5
247
330
2
100
AcDbEntity
  8
YKK_D
100
AcDbLine
 10
104.3199889
 20
329.65853998
 30
0.0
 11
104.3199889
 21
346.6585426
 31
0.0
  0
LINE
  5
248
330
2
100
AcDbEntity
  8
YKK_D
100
AcDbLine
 10
84.3199889
 20
345.6585426
 30
0.0
 11
104.3199889
 21
345.6585426
 31
0.0
  0
TEXT
  5
249
330
2
100
AcDbEntity
  8
YKK_D
100
AcDbText
 10
91.17684169
 20
346.6585426
 30
0.0
 40
6.0
  1
20
 41
0.8
100
AcDbText
1001
ACAD
1000
MTEXTBEGIN
1070
    73
1070
     1
1070
    44
1040
1.0
1070
    74
1070
     0
1000
MTEXTEND
  0
LINE
  5
24A
330
2
100
AcDbEntity
  8
YKK_D
100
AcDbLine
 10
84.3199889
 20
345.6585426
 30
0.0
 11
86.0199889
 21
345.6585426
 31
0.0
  0
LWPOLYLINE
  5
24B
330
2
100
AcDbEntity
  8
YKK_D
  6
ByBlock
100
AcDbPolyline
 90
        2
 70
     1
 43
0.85
 10
104.2137389
 20
345.6585426
 42
1.0
 10
104.4262389
 20
345.6585426
 42
1.0
  0
LINE
  5
24C
330
2
100
AcDbEntity
  8
YKK_13
  6
Continuous
100
AcDbLine
 10
107.6199881
 20
297.45854001
 30
0.0
 11
107.6199881
 21
237.45854001
 31
0.0
  0
LINE
  5
24D
330
2
100
AcDbEntity
  8
YKK_13
  6
Continuous
100
AcDbLine
 10
109.3999881
 20
232.95854001
 30
0.0
 11
109.3999881
 21
226.95854001
 31
0.0
  0
LINE
  5
24E
330
2
100
AcDbEntity
  8
YKK_11
  6
ByBlock
 62
     0
100
AcDbLine
 10
116.11998767
 20
300.1585402
 30
0.0
 11
116.11998767
 21
290.6585402
 31
0.0
  0
LINE
  5
24F
330
2
100
AcDbEntity
  8
YKK_11
  6
ByBlock
 62
     0
100
AcDbLine
 10
117.3199883
 20
290.65853988
 30
0.0
 11
117.3199883
 21
300.65853988
 31
0.0
  0
LINE
  5
250
330
2
100
AcDbEntity
  8
YKK_11
  6
ByBlock
 62
     0
100
AcDbLine
 10
116.1199883
 20
300.65853988
 30
0.0
 11
116.1199883
 21
290.65853988
 31
0.0
  0
LINE
  5
251
330
2
100
AcDbEntity
  8
YKK_11
  6
ByBlock
 62
     0
100
AcDbLine
 10
109.71998762
 20
296.45853977
 30
0.0
 11
109.71998762
 21
286.45853977
 31
0.0
  0
LINE
  5
252
330
2
100
AcDbEntity
  8
YKK_D
100
AcDbLine
 10
139.61999195
 20
290.6585426
 30
0.0
 11
139.61999195
 21
300.6585426
 31
0.0
  0
LINE
  5
253
330
2
100
AcDbEntity
  8
YKK_D
100
AcDbLine
 10
123.61998814
 20
290.6585426
 30
0.0
 11
140.61999195
 21
290.6585426
 31
0.0
  0
LINE
  5
254
330
2
100
AcDbEntity
  8
YKK_D
100
AcDbLine
 10
123.61998814
 20
290.6585426
 30
0.0
 11
140.61999195
 21
290.6585426
 31
0.0
  0
LINE
  5
255
330
2
100
AcDbEntity
  8
YKK_11
  6
ByBlock
 62
     0
100
AcDbLine
 10
109.71998762
 20
286.45853977
 30
0.0
 11
110.91998762
 21
286.45853977
 31
0.0
  0
LINE
  5
256
330
2
100
AcDbEntity
  8
YKK_11
  6
ByBlock
 62
     0
100
AcDbLine
 10
116.1199883
 20
290.65853988
 30
0.0
 11
117.3199883
 21
290.65853988
 31
0.0
  0
LINE
  5
257
330
2
100
AcDbEntity
  8
YKK_D
100
AcDbLine
 10
139.61999195
 20
290.6585426
 30
0.0
 11
139.61999195
 21
278.53418695
 31
0.0
  0
LINE
  5
258
330
2
100
AcDbEntity
  8
YKK_D
100
AcDbLine
 10
139.61999195
 20
290.6585426
 30
0.0
 11
136.11999195
 21
284.59636477
 31
0.0
  0
LINE
  5
259
330
2
100
AcDbEntity
  8
YKK_D
100
AcDbLine
 10
136.11999195
 20
284.59636477
 30
0.0
 11
143.11999195
 21
284.59636477
 31
0.0
  0
LINE
  5
25A
330
2
100
AcDbEntity
  8
YKK_D
100
AcDbLine
 10
139.61999195
 20
290.6585426
 30
0.0
 11
143.11999195
 21
284.59636477
 31
0.0
  0
LINE
  5
25B
330
2
100
AcDbEntity
  8
YKK_D
100
AcDbLine
 10
123.61998814
 20
300.6585426
 30
0.0
 11
140.61999195
 21
300.6585426
 31
0.0
  0
LINE
  5
25C
330
2
100
AcDbEntity
  8
YKK_13
  6
YHIDDEN_1
100
AcDbLine
 10
112.7199881
 20
306.15854001
 30
0.0
 11
112.7199881
 21
321.55854001
 31
0.0
  0
LINE
  5
25D
330
2
100
AcDbEntity
  8
YKK_13
  6
YHIDDEN_1
100
AcDbLine
 10
115.0199881
 20
305.55854001
 30
0.0
 11
115.0199881
 21
322.15854001
 31
0.0
  0
ARC
  5
25E
330
2
100
AcDbEntity
  8
YKK_11
  6
ByBlock
 62
     0
100
AcDbCircle
 10
116.1199883
 20
300.65853988
 30
0.0
 40
1.199999999999999
100
AcDbArc
 50
0.0
 51
89.99998128
  0
ARC
  5
25F
330
2
100
AcDbEntity
  8
YKK_13
  6
YHIDDEN_1
100
AcDbCircle
 10
112.7199881
 20
305.55854001
 30
0.0
 40
2.299999999999998
100
AcDbArc
 50
270.0
 51
0.0
  0
LINE
  5
260
330
2
100
AcDbEntity
  8
YKK_11
  6
ByBlock
 62
     0
100
AcDbLine
 10
112.11998762
 20
297.65853977
 30
0.0
 11
110.91998762
 21
297.65853977
 31
0.0
  0
ARC
  5
261
330
2
100
AcDbEntity
  8
YKK_11
  6
ByBlock
 62
     0
100
AcDbCircle
 10
109.71998762
 20
296.45853977
 30
0.0
 40
1.199999999999999
100
AcDbArc
 50
0.0
 51
89.99998128
  0
ARC
  5
262
330
2
100
AcDbEntity
  8
YKK_13
  6
YHIDDEN_1
100
AcDbCircle
 10
112.1199881
 20
306.15854001
 30
0.0
 40
0.6
100
AcDbArc
 50
270.0
 51
0.0
  0
ARC
  5
263
330
2
100
AcDbEntity
  8
YKK_13
  6
YHIDDEN_1
100
AcDbCircle
 10
112.7199881
 20
322.15854001
 30
0.0
 40
2.299999999999998
100
AcDbArc
 50
0.0
 51
90.0
  0
ARC
  5
264
330
2
100
AcDbEntity
  8
YKK_13
  6
YHIDDEN_1
100
AcDbCircle
 10
112.1199881
 20
321.55854001
 30
0.0
 40
0.6
100
AcDbArc
 50
0.0
 51
90.0
  0
LINE
  5
265
330
2
100
AcDbEntity
  8
YKK_D
100
AcDbLine
 10
139.61999195
 20
300.6585426
 30
0.0
 11
139.61999195
 21
311.7785487
 31
0.0
  0
TEXT
  5
266
330
2
100
AcDbEntity
  8
YKK_D
100
AcDbText
 10
138.61999195
 20
303.95702586
 30
0.0
 40
6.0
  1
10
 50
90.0
 41
0.8
100
AcDbText
1001
ACAD
1000
MTEXTBEGIN
1070
    73
1070
     1
1070
    44
1040
1.0
1070
    74
1070
     0
1000
MTEXTEND
  0
LWPOLYLINE
  5
267
330
2
100
AcDbEntity
  8
YKK_D
  6
ByBlock
100
AcDbPolyline
 90
        2
 70
     1
 43
0.85
 10
139.61999195
 20
300.5522926
 42
1.0
 10
139.61999195
 20
300.7647926
 42
1.0
  0
LINE
  5
268
330
2
100
AcDbEntity
  8
YKK_A1
  6
Continuous
100
AcDbLine
 10
258.82052381
 20
302.1259756
 30
0.0
 11
258.82052381
 21
252.12597858
 31
0.0
  0
LINE
  5
269
330
2
100
AcDbEntity
  8
YKK_A1
  6
Continuous
100
AcDbLine
 10
260.07052374
 20
252.12597858
 30
0.0
 11
260.07052374
 21
302.1259756
 31
0.0
  0
LINE
  5
26A
330
2
100
AcDbEntity
  8
YKK_A1
  6
Continuous
100
AcDbLine
 10
260.27052372
 20
253.6259785
 30
0.0
 11
260.27052372
 21
300.72597569
 31
0.0
  0
LINE
  5
26B
330
2
100
AcDbEntity
  8
YKK_D
100
AcDbLine
 10
243.8205392
 20
274.62597305
 30
0.0
 11
243.8205392
 21
253.62597305
 31
0.0
  0
TEXT
  5
26C
330
2
100
AcDbEntity
  8
YKK_D
100
AcDbText
 10
242.8205392
 20
262.54221671
 30
0.0
 40
6.0
  1
C
 50
90.0
 41
0.8
100
AcDbText
1001
ACAD
1000
MTEXTBEGIN
1070
    73
1070
     1
1070
    44
1040
1.0
1070
    74
1070
     0
1000
MTEXTEND
  0
LINE
  5
26D
330
2
100
AcDbEntity
  8
YKK_D
100
AcDbLine
 10
258.82050868
 20
249.12598044
 30
0.0
 11
258.82050868
 21
221.12597305
 31
0.0
  0
LINE
  5
26E
330
2
100
AcDbEntity
  8
YKK_D
100
AcDbLine
 10
260.17051478
 20
237.12597305
 30
0.0
 11
253.5526126
 21
229.76366658
 31
0.0
  0
TEXT
  5
26F
330
2
100
AcDbEntity
  8
YKK_D
100
AcDbText
 10
249.40540447
 20
230.76366658
 30
0.0
 40
6.0
  1
4
 41
0.8
100
AcDbText
1001
ACAD
1000
MTEXTBEGIN
1070
    73
1070
     1
1070
    44
1040
1.0
1070
    74
1070
     0
1000
MTEXTEND
  0
LINE
  5
270
330
2
100
AcDbEntity
  8
YKK_D
100
AcDbLine
 10
260.57050868
 20
222.12597305
 30
0.0
 11
262.27050868
 21
222.12597305
 31
0.0
  0
LINE
  5
271
330
2
100
AcDbEntity
  8
YKK_D
100
AcDbLine
 10
260.57050868
 20
222.12597305
 30
0.0
 11
264.9006357
 21
219.62597305
 31
0.0
  0
LINE
  5
272
330
2
100
AcDbEntity
  8
YKK_D
100
AcDbLine
 10
260.57050868
 20
222.12597305
 30
0.0
 11
264.9006357
 21
224.62597305
 31
0.0
  0
LINE
  5
273
330
2
100
AcDbEntity
  8
YKK_D
100
AcDbLine
 10
260.57050868
 20
222.12597305
 30
0.0
 11
269.23076272
 21
222.12597305
 31
0.0
  0
LINE
  5
274
330
2
100
AcDbEntity
  8
YKK_D
100
AcDbLine
 10
258.82050868
 20
222.12597305
 30
0.0
 11
246.38050868
 21
222.12597305
 31
0.0
  0
LINE
  5
275
330
2
100
AcDbEntity
  8
YKK_D
100
AcDbLine
 10
253.5526126
 20
229.76366658
 30
0.0
 11
248.3526126
 21
229.76366658
 31
0.0
  0
TEXT
  5
276
330
2
100
AcDbEntity
  8
YKK_D
100
AcDbText
 10
247.83045792
 20
223.12597305
 30
0.0
 40
6.0
  1
35
 41
0.8
100
AcDbText
1001
ACAD
1000
MTEXTBEGIN
1070
    73
1070
     1
1070
    44
1040
1.0
1070
    74
1070
     0
1000
MTEXTEND
  0
LINE
  5
277
330
2
100
AcDbEntity
  8
YKK_D
100
AcDbLine
 10
260.57050868
 20
231.81012375
 30
0.0
 11
260.57050868
 21
221.12597305
 31
0.0
  0
LINE
  5
278
330
2
100
AcDbEntity
  8
YKK_D
100
AcDbLine
 10
260.57050868
 20
231.81012375
 30
0.0
 11
260.57050868
 21
221.12597305
 31
0.0
  0
LINE
  5
279
330
2
100
AcDbEntity
  8
YKK_D
100
AcDbLine
 10
260.57050868
 20
222.12597305
 30
0.0
 11
258.82050868
 21
222.12597305
 31
0.0
  0
LWPOLYLINE
  5
27A
330
2
100
AcDbEntity
  8
YKK_D
  6
ByBlock
100
AcDbPolyline
 90
        2
 70
     1
 43
0.85
 10
258.71425868
 20
222.12597305
 42
1.0
 10
258.92675868
 20
222.12597305
 42
1.0
  0
LINE
  5
27B
330
2
100
AcDbEntity
  8
YKK_D
100
AcDbLine
 10
264.9006357
 20
219.62597305
 30
0.0
 11
264.9006357
 21
224.62597305
 31
0.0
  0
LINE
  5
27C
330
2
100
AcDbEntity
  8
YKK_D
100
AcDbLine
 10
260.07050868
 20
237.12597305
 30
0.0
 11
261.77050868
 21
237.12597305
 31
0.0
  0
LINE
  5
27D
330
2
100
AcDbEntity
  8
YKK_D
100
AcDbLine
 10
260.27052089
 20
237.12597305
 30
0.0
 11
261.97052089
 21
237.12597305
 31
0.0
  0
LINE
  5
27E
330
2
100
AcDbEntity
  8
YKK_D
100
AcDbLine
 10
260.27052089
 20
249.12598044
 30
0.0
 11
260.27052089
 21
236.12597305
 31
0.0
  0
LINE
  5
27F
330
2
100
AcDbEntity
  8
YKK_D
100
AcDbLine
 10
258.82050868
 20
249.12598044
 30
0.0
 11
258.82050868
 21
236.12597305
 31
0.0
  0
LINE
  5
280
330
2
100
AcDbEntity
  8
YKK_D
100
AcDbLine
 10
260.07050868
 20
249.12598044
 30
0.0
 11
260.07050868
 21
236.12597305
 31
0.0
  0
LINE
  5
281
330
2
100
AcDbEntity
  8
YKK_D
100
AcDbLine
 10
260.07050868
 20
249.12598044
 30
0.0
 11
260.07050868
 21
236.12597305
 31
0.0
  0
LINE
  5
282
330
2
100
AcDbEntity
  8
YKK_D
100
AcDbLine
 10
258.82050868
 20
237.12597305
 30
0.0
 11
246.38050868
 21
237.12597305
 31
0.0
  0
TEXT
  5
283
330
2
100
AcDbEntity
  8
YKK_D
100
AcDbText
 10
247.81827518
 20
238.12597305
 30
0.0
 40
6.0
  1
25
 41
0.8
100
AcDbText
1001
ACAD
1000
MTEXTBEGIN
1070
    73
1070
     1
1070
    44
1040
1.0
1070
    74
1070
     0
1000
MTEXTEND
  0
LINE
  5
284
330
2
100
AcDbEntity
  8
YKK_D
100
AcDbLine
 10
260.07050868
 20
237.12597305
 30
0.0
 11
258.82050868
 21
237.12597305
 31
0.0
  0
LINE
  5
285
330
2
100
AcDbEntity
  8
YKK_D
100
AcDbLine
 10
260.07050868
 20
237.12597305
 30
0.0
 11
258.37050868
 21
237.12597305
 31
0.0
  0
LINE
  5
286
330
2
100
AcDbEntity
  8
YKK_D
100
AcDbLine
 10
260.07050868
 20
237.12597305
 30
0.0
 11
260.27052089
 21
237.12597305
 31
0.0
  0
LINE
  5
287
330
2
100
AcDbEntity
  8
YKK_D
100
AcDbLine
 10
260.07050868
 20
237.12597305
 30
0.0
 11
260.27052089
 21
237.12597305
 31
0.0
  0
LWPOLYLINE
  5
288
330
2
100
AcDbEntity
  8
YKK_D
  6
ByBlock
100
AcDbPolyline
 90
        2
 70
     1
 43
0.85
 10
260.37677089
 20
237.12597305
 42
1.0
 10
260.16427089
 20
237.12597305
 42
1.0
  0
LWPOLYLINE
  5
289
330
2
100
AcDbEntity
  8
YKK_D
  6
ByBlock
100
AcDbPolyline
 90
        2
 70
     1
 43
0.85
 10
259.96425868
 20
237.12597305
 42
1.0
 10
260.17675868
 20
237.12597305
 42
1.0
  0
LWPOLYLINE
  5
28A
330
2
100
AcDbEntity
  8
YKK_D
  6
ByBlock
100
AcDbPolyline
 90
        2
 70
     1
 43
0.85
 10
258.71425868
 20
237.12597305
 42
1.0
 10
258.92675868
 20
237.12597305
 42
1.0
  0
LWPOLYLINE
  5
28B
330
2
100
AcDbEntity
  8
YKK_D
  6
ByBlock
100
AcDbPolyline
 90
        2
 70
     1
 43
0.85
 10
260.17675868
 20
237.12597305
 42
1.0
 10
259.96425868
 20
237.12597305
 42
1.0
  0
LWPOLYLINE
  5
28C
330
2
100
AcDbEntity
  8
YKK_D
  6
ByBlock
100
AcDbPolyline
 90
        2
 70
     1
 43
0.85
 10
260.37677089
 20
237.12597305
 42
1.0
 10
260.16427089
 20
237.12597305
 42
1.0
  0
LINE
  5
28D
330
2
100
AcDbEntity
  8
YKK_D
100
AcDbLine
 10
255.82053037
 20
253.62597305
 30
0.0
 11
242.8205392
 21
253.62597305
 31
0.0
  0
LWPOLYLINE
  5
28E
330
2
100
AcDbEntity
  8
YKK_D
  6
ByBlock
100
AcDbPolyline
 90
        2
 70
     1
 43
0.85
 10
243.8205392
 20
253.73222305
 42
1.0
 10
243.8205392
 20
253.51972305
 42
1.0
  0
LINE
  5
28F
330
2
100
AcDbEntity
  8
YKK_A1
  6
Continuous
100
AcDbLine
 10
260.57052371
 20
252.12597858
 30
0.0
 11
260.57052371
 21
252.17597858
 31
0.0
  0
LINE
  5
290
330
2
100
AcDbEntity
  8
YKK_A1
  6
YHIDDEN_1
100
AcDbLine
 10
258.82052381
 20
261.37597803
 30
0.0
 11
258.81656724
 21
261.37597803
 31
0.0
  0
LINE
  5
291
330
2
100
AcDbEntity
  8
YKK_A1
  6
YHIDDEN_1
100
AcDbLine
 10
261.82052363
 20
253.6259785
 30
0.0
 11
261.82052363
 21
253.61774822
 31
0.0
  0
LINE
  5
292
330
2
100
AcDbEntity
  8
YKK_A1
  6
YCENTER_1
100
AcDbLine
 10
261.22052367
 20
274.62597724
 30
0.0
 11
269.2764611
 21
274.62597724
 31
0.0
  0
LINE
  5
293
330
2
100
AcDbEntity
  8
YKK_D
100
AcDbLine
 10
255.82053061
 20
274.62597305
 30
0.0
 11
242.8205392
 21
274.62597305
 31
0.0
  0
LWPOLYLINE
  5
294
330
2
100
AcDbEntity
  8
YKK_D
  6
ByBlock
100
AcDbPolyline
 90
        2
 70
     1
 43
0.85
 10
243.8205392
 20
274.51972305
 42
1.0
 10
243.8205392
 20
274.73222305
 42
1.0
  0
LINE
  5
295
330
2
100
AcDbEntity
  8
YKK_A1
  6
YHIDDEN_1
100
AcDbLine
 10
258.82052381
 20
292.87597616
 30
0.0
 11
258.81018642
 21
292.87597616
 31
0.0
  0
ARC
  5
296
330
2
100
AcDbEntity
  8
YKK_A1
  6
Continuous
100
AcDbCircle
 10
265.49552341
 20
273.7009773
 30
0.0
 40
0.2249999865889549
100
AcDbArc
 50
270.0
 51
90.0
  0
CIRCLE
  5
297
330
2
100
AcDbEntity
  8
YKK_A1
  6
Continuous
100
AcDbCircle
 10
265.32052342
 20
273.21347733
 30
0.0
 40
0.0874999947845936
  0
ARC
  5
298
330
2
100
AcDbEntity
  8
YKK_A1
  6
Continuous
100
AcDbCircle
 10
265.14552343
 20
273.7009773
 30
0.0
 40
0.2249999865889549
100
AcDbArc
 50
90.0
 51
270.0
  0
ARC
  5
299
330
2
100
AcDbEntity
  8
YKK_A1
  6
Continuous
100
AcDbCircle
 10
265.14552343
 20
273.7009773
 30
0.0
 40
0.2749999836087227
100
AcDbArc
 50
90.0
 51
270.0
  0
ARC
  5
29A
330
2
100
AcDbEntity
  8
YKK_A1
  6
Continuous
100
AcDbCircle
 10
265.49552341
 20
273.7009773
 30
0.0
 40
0.2749999836087227
100
AcDbArc
 50
270.0
 51
90.0
  0
ARC
  5
29B
330
2
100
AcDbEntity
  8
YKK_A1
  6
Continuous
100
AcDbCircle
 10
265.32052342
 20
274.52597725
 30
0.0
 40
0.3999999761581421
100
AcDbArc
 50
180.0
 51
0.0
  0
LINE
  5
29C
330
2
100
AcDbEntity
  8
YKK_A1
  6
Continuous
100
AcDbLine
 10
265.49552341
 20
273.97597728
 30
0.0
 11
265.14552343
 21
273.97597728
 31
0.0
  0
LINE
  5
29D
330
2
100
AcDbEntity
  8
YKK_A1
  6
Continuous
100
AcDbLine
 10
265.14552343
 20
273.42597731
 30
0.0
 11
265.49552341
 21
273.42597731
 31
0.0
  0
LINE
  5
29E
330
2
100
AcDbEntity
  8
YKK_A1
  6
Continuous
100
AcDbLine
 10
265.49552341
 20
273.92597729
 30
0.0
 11
265.14552343
 21
273.92597729
 31
0.0
  0
LINE
  5
29F
330
2
100
AcDbEntity
  8
YKK_A1
  6
Continuous
100
AcDbLine
 10
265.14552343
 20
273.47597731
 30
0.0
 11
265.49552341
 21
273.47597731
 31
0.0
  0
LINE
  5
2A0
330
2
100
AcDbEntity
  8
YKK_A1
  6
Continuous
100
AcDbLine
 10
264.72052346
 20
272.62597736
 30
0.0
 11
264.72052346
 21
276.62597712
 31
0.0
  0
LINE
  5
2A1
330
2
100
AcDbEntity
  8
YKK_A1
  6
Continuous
100
AcDbLine
 10
265.92052339
 20
272.62597736
 30
0.0
 11
265.92052339
 21
276.62597712
 31
0.0
  0
LINE
  5
2A2
330
2
100
AcDbEntity
  8
YKK_A1
  6
Continuous
100
AcDbLine
 10
264.77052346
 20
272.57597737
 30
0.0
 11
265.87052339
 21
272.57597737
 31
0.0
  0
LINE
  5
2A3
330
2
100
AcDbEntity
  8
YKK_A1
  6
Continuous
100
AcDbLine
 10
264.77052346
 20
276.67597712
 30
0.0
 11
265.87052339
 21
276.67597712
 31
0.0
  0
LINE
  5
2A4
330
2
100
AcDbEntity
  8
YKK_A1
  6
Continuous
100
AcDbLine
 10
264.92052345
 20
276.02597716
 30
0.0
 11
265.7205234
 21
276.02597716
 31
0.0
  0
LINE
  5
2A5
330
2
100
AcDbEntity
  8
YKK_A1
  6
Continuous
100
AcDbLine
 10
264.92052345
 20
276.02597716
 30
0.0
 11
264.92052345
 21
274.52597725
 31
0.0
  0
LINE
  5
2A6
330
2
100
AcDbEntity
  8
YKK_A1
  6
Continuous
100
AcDbLine
 10
265.7205234
 20
276.02597716
 30
0.0
 11
265.7205234
 21
274.52597725
 31
0.0
  0
ARC
  5
2A7
330
2
100
AcDbEntity
  8
YKK_A1
  6
Continuous
100
AcDbCircle
 10
264.77052346
 20
276.62597712
 30
0.0
 40
0.0499999970197678
100
AcDbArc
 50
90.0
 51
180.0
  0
ARC
  5
2A8
330
2
100
AcDbEntity
  8
YKK_A1
  6
Continuous
100
AcDbCircle
 10
264.77052346
 20
272.62597736
 30
0.0
 40
0.0499999970197678
100
AcDbArc
 50
180.0
 51
270.0
  0
ARC
  5
2A9
330
2
100
AcDbEntity
  8
YKK_A1
  6
Continuous
100
AcDbCircle
 10
265.87052339
 20
272.62597736
 30
0.0
 40
0.0499999970197678
100
AcDbArc
 50
270.0
 51
0.0
  0
ARC
  5
2AA
330
2
100
AcDbEntity
  8
YKK_A1
  6
Continuous
100
AcDbCircle
 10
265.87052339
 20
276.62597712
 30
0.0
 40
0.0499999970197678
100
AcDbArc
 50
0.0
 51
90.0
  0
LINE
  5
2AB
330
2
100
AcDbEntity
  8
YKK_A1
  6
Continuous
100
AcDbLine
 10
265.99552338
 20
272.60097736
 30
0.0
 11
265.99552338
 21
276.65097712
 31
0.0
  0
LINE
  5
2AC
330
2
100
AcDbEntity
  8
YKK_A1
  6
Continuous
100
AcDbLine
 10
265.89552339
 20
276.75097712
 30
0.0
 11
264.74552346
 21
276.75097712
 31
0.0
  0
LINE
  5
2AD
330
2
100
AcDbEntity
  8
YKK_A1
  6
Continuous
100
AcDbLine
 10
264.64552346
 20
276.65097712
 30
0.0
 11
264.64552346
 21
272.60097736
 31
0.0
  0
LINE
  5
2AE
330
2
100
AcDbEntity
  8
YKK_A1
  6
Continuous
100
AcDbLine
 10
264.74552346
 20
272.50097737
 30
0.0
 11
265.89552339
 21
272.50097737
 31
0.0
  0
ARC
  5
2AF
330
2
100
AcDbEntity
  8
YKK_A1
  6
Continuous
100
AcDbCircle
 10
264.74552346
 20
276.65097712
 30
0.0
 40
0.0999999940395355
100
AcDbArc
 50
90.0
 51
180.0
  0
ARC
  5
2B0
330
2
100
AcDbEntity
  8
YKK_A1
  6
Continuous
100
AcDbCircle
 10
264.74552346
 20
272.60097736
 30
0.0
 40
0.0999999940395355
100
AcDbArc
 50
180.0
 51
270.0
  0
ARC
  5
2B1
330
2
100
AcDbEntity
  8
YKK_A1
  6
Continuous
100
AcDbCircle
 10
265.89552339
 20
272.60097736
 30
0.0
 40
0.0999999940395355
100
AcDbArc
 50
270.0
 51
0.0
  0
ARC
  5
2B2
330
2
100
AcDbEntity
  8
YKK_A1
  6
Continuous
100
AcDbCircle
 10
265.89552339
 20
276.65097712
 30
0.0
 40
0.0999999940395355
100
AcDbArc
 50
0.0
 51
90.0
  0
LINE
  5
2B3
330
2
100
AcDbEntity
  8
YKK_A1
  6
YCENTER_1
100
AcDbLine
 10
268.07052326
 20
302.1259756
 30
0.0
 11
268.07052326
 21
302.38329602
 31
0.0
  0
LINE
  5
2B4
330
2
100
AcDbEntity
  8
YKK_11
  6
ByBlock
 62
     0
100
AcDbLine
 10
390.38475288
 20
106.05793671
 30
0.0
 11
478.18475288
 21
106.05793671
 31
0.0
  0
LINE
  5
2B5
330
2
100
AcDbEntity
  8
YKK_11
  6
ByBlock
 62
     0
100
AcDbLine
 10
390.38475288
 20
83.45793671
 30
0.0
 11
478.18475288
 21
83.45793671
 31
0.0
  0
LINE
  5
2B6
330
2
100
AcDbEntity
  8
YKK_11
  6
ByBlock
 62
     0
100
AcDbLine
 10
390.38475288
 20
84.65793671
 30
0.0
 11
478.18475288
 21
84.65793671
 31
0.0
  0
LINE
  5
2B7
330
2
100
AcDbEntity
  8
YKK_11
  6
ByBlock
 62
     0
100
AcDbLine
 10
478.68475288
 20
107.25793671
 30
0.0
 11
390.38475288
 21
107.25793671
 31
0.0
  0
LINE
  5
2B8
330
2
100
AcDbEntity
  8
YKK_12
  6
Continuous
100
AcDbLine
 10
483.88475288
 20
110.05793665
 30
0.0
 11
390.38475288
 21
110.05793665
 31
0.0
  0
LINE
  5
2B9
330
2
100
AcDbEntity
  8
YKK_12
  6
Continuous
100
AcDbLine
 10
483.88475288
 20
77.05793665
 30
0.0
 11
390.38475288
 21
77.05793665
 31
0.0
  0
LINE
  5
2BA
330
2
100
AcDbEntity
  8
YKK_12
  6
Continuous
100
AcDbLine
 10
473.88475288
 20
78.25793665
 30
0.0
 11
390.38475288
 21
78.25793665
 31
0.0
  0
LINE
  5
2BB
330
2
100
AcDbEntity
  8
YKK_D
100
AcDbLine
 10
466.88475786
 20
55.95793564
 30
0.0
 11
310.88475786
 21
55.95793564
 31
0.0
  0
LINE
  5
2BC
330
2
100
AcDbEntity
  8
YKK_D
100
AcDbLine
 10
479.88475786
 20
131.25793106
 30
0.0
 11
297.88475786
 21
131.25793106
 31
0.0
  0
LINE
  5
2BD
330
2
100
AcDbEntity
  8
YKK_D
100
AcDbLine
 10
331.08473955
 20
70.44341537
 30
0.0
 11
331.08473955
 21
78.25793869
 31
0.0
  0
TEXT
  5
2BE
330
2
100
AcDbEntity
  8
YKK_D
100
AcDbText
 10
330.08473955
 20
71.49620725
 30
0.0
 40
6.0
  1
4
 50
90.0
 41
0.8
100
AcDbText
1001
ACAD
1000
MTEXTBEGIN
1070
    73
1070
     1
1070
    44
1040
1.0
1070
    74
1070
     0
1000
MTEXTEND
  0
TEXT
  5
2BF
330
2
100
AcDbEntity
  8
USER1
 62
     3
100
AcDbText
 10
305.95503735
 20
1.19667064
 30
0.0
 40
3.0
  1
〔2PT NAA/R(L)〕
 72
     4
 11
324.55503735
 21
2.48238493
 31
0.0
100
AcDbText
  0
TEXT
  5
2C0
330
2
100
AcDbEntity
  8
USER1
 62
     3
100
AcDbText
 10
306.12308868
 20
15.05428934
 30
0.0
 40
5.0
  1
2PT33A02
 72
     4
 11
324.57546964
 21
17.55428934
 31
0.0
100
AcDbText
  0
LINE
  5
2C1
330
2
100
AcDbEntity
  8
YKK_D
100
AcDbLine
 10
303.88475786
 20
55.95793564
 30
0.0
 11
309.94693568
 21
52.45793564
 31
0.0
  0
LINE
  5
2C2
330
2
100
AcDbEntity
  8
YKK_D
100
AcDbLine
 10
303.88475786
 20
55.95793564
 30
0.0
 11
309.94693568
 21
59.45793564
 31
0.0
  0
LINE
  5
2C3
330
2
100
AcDbEntity
  8
YKK_D
100
AcDbLine
 10
303.88475786
 20
55.95793564
 30
0.0
 11
316.00911351
 21
55.95793564
 31
0.0
  0
LINE
  5
2C4
330
2
100
AcDbEntity
  8
YKK_D
100
AcDbLine
 10
293.88475786
 20
71.95793659
 30
0.0
 11
293.88475786
 21
54.95793564
 31
0.0
  0
LINE
  5
2C5
330
2
100
AcDbEntity
  8
YKK_D
100
AcDbLine
 10
303.88475786
 20
71.95793659
 30
0.0
 11
303.88475786
 21
54.95793564
 31
0.0
  0
TEXT
  5
2C6
330
2
100
AcDbEntity
  8
YKK_D
100
AcDbText
 10
284.36323502
 20
56.95793564
 30
0.0
 40
6.0
  1
10
 41
0.8
100
AcDbText
1001
ACAD
1000
MTEXTBEGIN
1070
    73
1070
     1
1070
    44
1040
1.0
1070
    74
1070
     0
1000
MTEXTEND
  0
LINE
  5
2C7
330
2
100
AcDbEntity
  8
YKK_D
100
AcDbLine
 10
303.88475786
 20
55.95793564
 30
0.0
 11
293.88475786
 21
55.95793564
 31
0.0
  0
LWPOLYLINE
  5
2C8
330
2
100
AcDbEntity
  8
YKK_D
  6
ByBlock
100
AcDbPolyline
 90
        2
 70
     1
 43
0.85
 10
293.99100786
 20
55.95793564
 42
1.0
 10
293.77850786
 20
55.95793564
 42
1.0
  0
LINE
  5
2C9
330
2
100
AcDbEntity
  8
YKK_D
100
AcDbLine
 10
309.94693568
 20
52.45793564
 30
0.0
 11
309.94693568
 21
59.45793564
 31
0.0
  0
TEXT
  5
2CA
330
2
100
AcDbEntity
  8
USER1
 62
     3
100
AcDbText
 10
425.38095138
 20
11.0005
 30
0.0
 40
4.0
  1
1
 72
     1
 11
426.999999
 21
13.0005
 31
0.0
100
AcDbText
 73
     2
  0
TEXT
  5
2CB
330
2
100
AcDbEntity
  8
YKK_D
100
AcDbText
 10
387.34973248
 20
56.95793564
 30
0.0
 40
6.0
  1
W
 41
0.8
100
AcDbText
1001
ACAD
1000
MTEXTBEGIN
1070
    73
1070
     1
1070
    44
1040
1.0
1070
    74
1070
     0
1000
MTEXTEND
  0
TEXT
  5
2CC
330
2
100
AcDbEntity
  8
USER1
 62
     3
100
AcDbText
 10
419.999999
 20
15.0005
 30
0.0
 40
4.0
  1
1
100
AcDbText
  0
LINE
  5
2CD
330
2
100
AcDbEntity
  8
YKK_11
  6
ByBlock
 62
     0
100
AcDbLine
 10
387.38475296
 20
84.65793695
 30
0.0
 11
299.58475296
 21
84.65793695
 31
0.0
  0
LINE
  5
2CE
330
2
100
AcDbEntity
  8
YKK_11
  6
ByBlock
 62
     0
100
AcDbLine
 10
387.38475296
 20
107.25793695
 30
0.0
 11
299.08475296
 21
107.25793695
 31
0.0
  0
LINE
  5
2CF
330
2
100
AcDbEntity
  8
YKK_11
  6
ByBlock
 62
     0
100
AcDbLine
 10
299.08475296
 20
106.05793695
 30
0.0
 11
387.38475296
 21
106.05793695
 31
0.0
  0
LINE
  5
2D0
330
2
100
AcDbEntity
  8
YKK_11
  6
ByBlock
 62
     0
100
AcDbLine
 10
387.38475296
 20
83.45793695
 30
0.0
 11
299.08475296
 21
83.45793695
 31
0.0
  0
LINE
  5
2D1
330
2
100
AcDbEntity
  8
YKK_12
  6
Continuous
100
AcDbLine
 10
293.88475288
 20
110.05793665
 30
0.0
 11
387.38475288
 21
110.05793665
 31
0.0
  0
LINE
  5
2D2
330
2
100
AcDbEntity
  8
YKK_12
  6
Continuous
100
AcDbLine
 10
293.88475288
 20
77.05793665
 30
0.0
 11
387.38475288
 21
77.05793665
 31
0.0
  0
LINE
  5
2D3
330
2
100
AcDbEntity
  8
YKK_12
  6
Continuous
100
AcDbLine
 10
293.88475288
 20
78.25793665
 30
0.0
 11
387.38475288
 21
78.25793665
 31
0.0
  0
LINE
  5
2D4
330
2
100
AcDbEntity
  8
YKK_D
100
AcDbLine
 10
315.10400711
 20
82.25793869
 30
0.0
 11
332.08473955
 21
82.25793869
 31
0.0
  0
LINE
  5
2D5
330
2
100
AcDbEntity
  8
YKK_D
100
AcDbLine
 10
315.0847529
 20
111.25793106
 30
0.0
 11
332.08473955
 21
111.25793106
 31
0.0
  0
TEXT
  5
2D6
330
2
100
AcDbEntity
  8
YKK_D
100
AcDbText
 10
330.08473955
 20
91.67570519
 30
0.0
 40
6.0
  1
25
 50
90.0
 41
0.8
100
AcDbText
1001
ACAD
1000
MTEXTBEGIN
1070
    73
1070
     1
1070
    44
1040
1.0
1070
    74
1070
     0
1000
MTEXTEND
  0
TEXT
  5
2D7
330
2
100
AcDbEntity
  8
YKK_D
100
AcDbText
 10
330.08473955
 20
114.29856779
 30
0.0
 40
6.0
  1
4
 50
90.0
 41
0.8
100
AcDbText
1001
ACAD
1000
MTEXTBEGIN
1070
    73
1070
     1
1070
    44
1040
1.0
1070
    74
1070
     0
1000
MTEXTEND
  0
ARC
  5
2D8
330
2
100
AcDbEntity
  8
YKK_11
  6
ByBlock
 62
     0
100
AcDbCircle
 10
299.08475296
 20
106.05793695
 30
0.0
 40
1.199999999999999
100
AcDbArc
 50
89.99998128
 51
180.00001985
  0
LINE
  5
2D9
330
2
100
AcDbEntity
  8
YKK_11
  6
ByBlock
 62
     0
100
AcDbLine
 10
293.88475294
 20
79.45793636
 30
0.0
 11
293.88475294
 21
110.05793636
 31
0.0
  0
LINE
  5
2DA
330
2
100
AcDbEntity
  8
YKK_11
  6
ByBlock
 62
     0
100
AcDbLine
 10
292.68475294
 20
110.05793636
 30
0.0
 11
292.68475294
 21
79.45793636
 31
0.0
  0
LINE
  5
2DB
330
2
100
AcDbEntity
  8
YKK_11
  6
ByBlock
 62
     0
100
AcDbLine
 10
299.08475296
 20
82.25793695
 30
0.0
 11
307.88475296
 21
82.25793695
 31
0.0
  0
LINE
  5
2DC
330
2
100
AcDbEntity
  8
YKK_13
  6
Continuous
100
AcDbLine
 10
308.08475288
 20
106.05793665
 30
0.0
 11
302.08475288
 21
106.05793665
 31
0.0
  0
LINE
  5
2DD
330
2
100
AcDbEntity
  8
YKK_13
  6
Continuous
100
AcDbLine
 10
311.08475288
 20
86.25793665
 30
0.0
 11
299.08475288
 21
86.25793665
 31
0.0
  0
LINE
  5
2DE
330
2
100
AcDbEntity
  8
YKK_13
  6
YCENTER_1
100
AcDbLine
 10
311.18475288
 20
100.05793665
 30
0.0
 11
298.98475288
 21
100.05793665
 31
0.0
  0
LINE
  5
2DF
330
2
100
AcDbEntity
  8
YKK_13
  6
YCENTER_1
100
AcDbLine
 10
312.64916848
 20
90.15793665
 30
0.0
 11
296.70141843
 21
90.15793665
 31
0.0
  0
LINE
  5
2E0
330
2
100
AcDbEntity
  8
YKK_13
  6
YHIDDEN_1
100
AcDbLine
 10
311.08475288
 20
92.15793665
 30
0.0
 11
299.08475288
 21
92.15793665
 31
0.0
  0
LINE
  5
2E1
330
2
100
AcDbEntity
  8
YKK_13
  6
YHIDDEN_1
100
AcDbLine
 10
311.08475288
 20
88.15793665
 30
0.0
 11
299.08475288
 21
88.15793665
 31
0.0
  0
LINE
  5
2E2
330
2
100
AcDbEntity
  8
YKK_13
  6
YHIDDEN_1
100
AcDbLine
 10
299.08475288
 20
91.50293665
 30
0.0
 11
311.08475288
 21
91.50293665
 31
0.0
  0
LINE
  5
2E3
330
2
100
AcDbEntity
  8
YKK_13
  6
YHIDDEN_1
100
AcDbLine
 10
299.08475288
 20
88.81293665
 30
0.0
 11
311.08475288
 21
88.81293665
 31
0.0
  0
LINE
  5
2E4
330
2
100
AcDbEntity
  8
YKK_13
  6
YHIDDEN_1
100
AcDbLine
 10
309.08475288
 20
105.05793665
 30
0.0
 11
301.08475288
 21
105.05793665
 31
0.0
  0
CIRCLE
  5
2E5
330
2
100
AcDbEntity
  8
YKK_13
  6
Continuous
100
AcDbCircle
 10
305.08475288
 20
100.05793665
 30
0.0
 40
4.099999999999998
  0
LINE
  5
2E6
330
2
100
AcDbEntity
  8
YKK_11
  6
ByBlock
 62
     0
100
AcDbLine
 10
297.88475296
 20
106.05793695
 30
0.0
 11
297.88475296
 21
83.45793695
 31
0.0
  0
LINE
  5
2E7
330
2
100
AcDbEntity
  8
YKK_11
  6
ByBlock
 62
     0
100
AcDbLine
 10
299.08475296
 20
83.45793695
 30
0.0
 11
299.08475296
 21
106.05793695
 31
0.0
  0
LINE
  5
2E8
330
2
100
AcDbEntity
  8
YKK_13
  6
Continuous
100
AcDbLine
 10
299.08475288
 20
86.25793665
 30
0.0
 11
299.08475288
 21
103.05793665
 31
0.0
  0
LINE
  5
2E9
330
2
100
AcDbEntity
  8
YKK_13
  6
YHIDDEN_1
100
AcDbLine
 10
291.28475288
 20
82.85793665
 30
0.0
 11
291.28475288
 21
93.55793665
 31
0.0
  0
LINE
  5
2EA
330
2
100
AcDbEntity
  8
YKK_13
  6
YHIDDEN_1
100
AcDbLine
 10
288.98475288
 20
93.55793665
 30
0.0
 11
288.98475288
 21
83.45793665
 31
0.0
  0
LINE
  5
2EB
330
2
100
AcDbEntity
  8
YKK_11
  6
ByBlock
 62
     0
100
AcDbLine
 10
303.88475294
 20
79.45793636
 30
0.0
 11
293.88475294
 21
79.45793636
 31
0.0
  0
LINE
  5
2EC
330
2
100
AcDbEntity
  8
YKK_11
  6
ByBlock
 62
     0
100
AcDbLine
 10
293.88475294
 20
78.25793636
 30
0.0
 11
303.88475294
 21
78.25793636
 31
0.0
  0
ARC
  5
2ED
330
2
100
AcDbEntity
  8
YKK_13
  6
YHIDDEN_1
100
AcDbCircle
 10
288.38475288
 20
83.45793665
 30
0.0
 40
0.6
100
AcDbArc
 50
270.0
 51
0.0
  0
ARC
  5
2EE
330
2
100
AcDbEntity
  8
YKK_11
  6
ByBlock
 62
     0
100
AcDbCircle
 10
293.88475294
 20
79.45793636
 30
0.0
 40
1.199999999999999
100
AcDbArc
 50
180.00001985
 51
270.00000112
  0
LINE
  5
2EF
330
2
100
AcDbEntity
  8
YKK_12
  6
Continuous
100
AcDbLine
 10
293.88475288
 20
78.25793665
 30
0.0
 11
293.88475288
 21
77.05793665
 31
0.0
  0
ARC
  5
2F0
330
2
100
AcDbEntity
  8
YKK_13
  6
YHIDDEN_1
100
AcDbCircle
 10
288.98475288
 20
82.85793665
 30
0.0
 40
2.299999999999998
100
AcDbArc
 50
270.0
 51
0.0
  0
ARC
  5
2F1
330
2
100
AcDbEntity
  8
YKK_11
  6
ByBlock
 62
     0
100
AcDbCircle
 10
299.08475296
 20
83.45793695
 30
0.0
 40
1.199999999999999
100
AcDbArc
 50
180.00001985
 51
270.00000112
  0
LINE
  5
2F2
330
2
100
AcDbEntity
  8
YKK_11
  6
ByBlock
 62
     0
100
AcDbLine
 10
303.88475294
 20
78.25793636
 30
0.0
 11
303.88475294
 21
79.45793636
 31
0.0
  0
LINE
  5
2F3
330
2
100
AcDbEntity
  8
YKK_11
  6
ByBlock
 62
     0
100
AcDbLine
 10
299.58475296
 20
86.25793695
 30
0.0
 11
299.58475296
 21
83.45793695
 31
0.0
  0
LINE
  5
2F4
330
2
100
AcDbEntity
  8
YKK_13
  6
YHIDDEN_1
100
AcDbLine
 10
291.28475288
 20
93.55793665
 30
0.0
 11
288.98475288
 21
93.55793665
 31
0.0
  0
LINE
  5
2F5
330
2
100
AcDbEntity
  8
YKK_13
  6
YCENTER_1
100
AcDbLine
 10
305.08475288
 20
106.15793665
 30
0.0
 11
305.08475288
 21
93.95793665
 31
0.0
  0
LINE
  5
2F6
330
2
100
AcDbEntity
  8
YKK_13
  6
Continuous
100
AcDbLine
 10
302.08475288
 20
106.05793665
 30
0.0
 11
299.08475288
 21
103.05793665
 31
0.0
  0
LINE
  5
2F7
330
2
100
AcDbEntity
  8
YKK_11
  6
ByBlock
 62
     0
100
AcDbLine
 10
299.58475296
 20
103.55793695
 30
0.0
 11
299.58475296
 21
106.05793695
 31
0.0
  0
LINE
  5
2F8
330
2
100
AcDbEntity
  8
YKK_13
  6
Continuous
100
AcDbLine
 10
311.08475288
 20
86.25793665
 30
0.0
 11
311.08475288
 21
103.05793665
 31
0.0
  0
LINE
  5
2F9
330
2
100
AcDbEntity
  8
YKK_11
  6
ByBlock
 62
     0
100
AcDbLine
 10
307.88475296
 20
82.25793695
 30
0.0
 11
307.88475296
 21
83.45793695
 31
0.0
  0
LINE
  5
2FA
330
2
100
AcDbEntity
  8
YKK_13
  6
Continuous
100
AcDbLine
 10
308.08475288
 20
106.05793665
 30
0.0
 11
311.08475288
 21
103.05793665
 31
0.0
  0
LINE
  5
2FB
330
2
100
AcDbEntity
  8
YKK_D
100
AcDbLine
 10
297.88475786
 20
115.25793678
 30
0.0
 11
297.88475786
 21
132.25793106
 31
0.0
  0
LINE
  5
2FC
330
2
100
AcDbEntity
  8
YKK_D
100
AcDbLine
 10
293.88475786
 20
115.25793678
 30
0.0
 11
293.88475786
 21
132.25793106
 31
0.0
  0
ARC
  5
2FD
330
2
100
AcDbEntity
  8
YKK_11
  6
ByBlock
 62
     0
100
AcDbCircle
 10
292.68475294
 20
110.05793636
 30
0.0
 40
1.199999999999999
100
AcDbArc
 50
0.0
 51
89.99998128
  0
LINE
  5
2FE
330
2
100
AcDbEntity
  8
YKK_D
100
AcDbLine
 10
297.88475786
 20
131.25793106
 30
0.0
 11
293.88475786
 21
131.25793106
 31
0.0
  0
LINE
  5
2FF
330
2
100
AcDbEntity
  8
YKK_D
100
AcDbLine
 10
293.88475786
 20
130.28100616
 30
0.0
 11
293.88475786
 21
132.25793106
 31
0.0
  0
LWPOLYLINE
  5
300
330
2
100
AcDbEntity
  8
YKK_D
  6
ByBlock
100
AcDbPolyline
 90
        2
 70
     1
 43
0.85
 10
293.77850786
 20
131.25793106
 42
1.0
 10
293.99100786
 20
131.25793106
 42
1.0
  0
LWPOLYLINE
  5
301
330
2
100
AcDbEntity
  8
YKK_D
  6
ByBlock
100
AcDbPolyline
 90
        2
 70
     1
 43
0.85
 10
293.99100786
 20
131.25793106
 42
1.0
 10
293.77850786
 20
131.25793106
 42
1.0
  0
LINE
  5
302
330
2
100
AcDbEntity
  8
YKK_D
100
AcDbLine
 10
297.88475786
 20
126.520531
 30
0.0
 11
297.88475786
 21
132.25793106
 31
0.0
  0
TEXT
  5
303
330
2
100
AcDbEntity
  8
YKK_D
100
AcDbText
 10
295.18754974
 20
132.25793106
 30
0.0
 40
6.0
  1
4
 41
0.8
100
AcDbText
1001
ACAD
1000
MTEXTBEGIN
1070
    73
1070
     1
1070
    44
1040
1.0
1070
    74
1070
     0
1000
MTEXTEND
  0
LWPOLYLINE
  5
304
330
2
100
AcDbEntity
  8
YKK_D
  6
ByBlock
100
AcDbPolyline
 90
        2
 70
     1
 43
0.85
 10
297.77850786
 20
131.25793106
 42
1.0
 10
297.99100786
 20
131.25793106
 42
1.0
  0
LWPOLYLINE
  5
305
330
2
100
AcDbEntity
  8
YKK_D
  6
ByBlock
100
AcDbPolyline
 90
        2
 70
     1
 43
0.85
 10
297.99100786
 20
131.25793106
 42
1.0
 10
297.77850786
 20
131.25793106
 42
1.0
  0
LINE
  5
306
330
2
100
AcDbEntity
  8
YKK_D
100
AcDbLine
 10
331.08473955
 20
82.25793869
 30
0.0
 11
331.08473955
 21
107.25793869
 31
0.0
  0
LWPOLYLINE
  5
307
330
2
100
AcDbEntity
  8
YKK_D
  6
ByBlock
100
AcDbPolyline
 90
        2
 70
     1
 43
0.85
 10
331.08473955
 20
107.36418869
 42
1.0
 10
331.08473955
 20
107.15168869
 42
1.0
  0
LWPOLYLINE
  5
308
330
2
100
AcDbEntity
  8
YKK_D
  6
ByBlock
100
AcDbPolyline
 90
        2
 70
     1
 43
0.85
 10
331.08473955
 20
107.15168869
 42
1.0
 10
331.08473955
 20
107.36418869
 42
1.0
  0
LINE
  5
309
330
2
100
AcDbEntity
  8
YKK_D
100
AcDbLine
 10
331.08473955
 20
78.25793869
 30
0.0
 11
331.08473955
 21
82.25793869
 31
0.0
  0
LWPOLYLINE
  5
30A
330
2
100
AcDbEntity
  8
YKK_D
  6
ByBlock
100
AcDbPolyline
 90
        2
 70
     1
 43
0.85
 10
331.08473955
 20
78.36418869
 42
1.0
 10
331.08473955
 20
78.15168869
 42
1.0
  0
LWPOLYLINE
  5
30B
330
2
100
AcDbEntity
  8
YKK_D
  6
ByBlock
100
AcDbPolyline
 90
        2
 70
     1
 43
0.85
 10
331.08473955
 20
82.15168869
 42
1.0
 10
331.08473955
 20
82.36418869
 42
1.0
  0
LWPOLYLINE
  5
30C
330
2
100
AcDbEntity
  8
YKK_D
  6
ByBlock
100
AcDbPolyline
 90
        2
 70
     1
 43
0.85
 10
331.08473955
 20
82.36418869
 42
1.0
 10
331.08473955
 20
82.15168869
 42
1.0
  0
LINE
  5
30D
330
2
100
AcDbEntity
  8
YKK_D
100
AcDbLine
 10
331.08473955
 20
118.44577591
 30
0.0
 11
331.08473955
 21
111.25793106
 31
0.0
  0
LINE
  5
30E
330
2
100
AcDbEntity
  8
YKK_D
100
AcDbLine
 10
331.08473955
 20
111.25793106
 30
0.0
 11
331.08473955
 21
107.25793869
 31
0.0
  0
LWPOLYLINE
  5
30F
330
2
100
AcDbEntity
  8
YKK_D
  6
ByBlock
100
AcDbPolyline
 90
        2
 70
     1
 43
0.85
 10
331.08473955
 20
111.15168106
 42
1.0
 10
331.08473955
 20
111.36418106
 42
1.0
  0
TEXT
  5
310
330
2
100
AcDbEntity
  8
YKK_D
100
AcDbText
 10
385.6685142
 20
132.25793106
 30
0.0
 40
6.0
  1
DW
 41
0.8
100
AcDbText
1001
ACAD
1000
MTEXTBEGIN
1070
    73
1070
     1
1070
    44
1040
1.0
1070
    74
1070
     0
1000
MTEXTEND
  0
LINE
  5
311
330
2
100
AcDbEntity
  8
YKK_D
100
AcDbLine
 10
473.88475786
 20
55.95793564
 30
0.0
 11
483.88475786
 21
55.95793564
 31
0.0
  0
LINE
  5
312
330
2
100
AcDbEntity
  8
YKK_D
100
AcDbLine
 10
473.88475786
 20
71.95793659
 30
0.0
 11
473.88475786
 21
54.95793564
 31
0.0
  0
LINE
  5
313
330
2
100
AcDbEntity
  8
YKK_D
100
AcDbLine
 10
473.88475786
 20
71.95793659
 30
0.0
 11
473.88475786
 21
54.95793564
 31
0.0
  0
LINE
  5
314
330
2
100
AcDbEntity
  8
YKK_D
100
AcDbLine
 10
473.88475786
 20
55.95793564
 30
0.0
 11
467.82258003
 21
59.45793564
 31
0.0
  0
LINE
  5
315
330
2
100
AcDbEntity
  8
YKK_D
100
AcDbLine
 10
473.88475786
 20
55.95793564
 30
0.0
 11
467.82258003
 21
52.45793564
 31
0.0
  0
LINE
  5
316
330
2
100
AcDbEntity
  8
YKK_D
100
AcDbLine
 10
473.88475786
 20
55.95793564
 30
0.0
 11
461.7604022
 21
55.95793564
 31
0.0
  0
LINE
  5
317
330
2
100
AcDbEntity
  8
YKK_D
100
AcDbLine
 10
467.82258003
 20
59.45793564
 30
0.0
 11
467.82258003
 21
52.45793564
 31
0.0
  0
LINE
  5
318
330
2
100
AcDbEntity
  8
YKK_D
100
AcDbLine
 10
483.88475786
 20
71.95793659
 30
0.0
 11
483.88475786
 21
54.95793564
 31
0.0
  0
TEXT
  5
319
330
2
100
AcDbEntity
  8
YKK_D
100
AcDbText
 10
486.80323502
 20
56.95793564
 30
0.0
 40
6.0
  1
10
 41
0.8
100
AcDbText
1001
ACAD
1000
MTEXTBEGIN
1070
    73
1070
     1
1070
    44
1040
1.0
1070
    74
1070
     0
1000
MTEXTEND
  0
LINE
  5
31A
330
2
100
AcDbEntity
  8
YKK_D
100
AcDbLine
 10
483.88475786
 20
55.95793564
 30
0.0
 11
494.62475786
 21
55.95793564
 31
0.0
  0
LWPOLYLINE
  5
31B
330
2
100
AcDbEntity
  8
YKK_D
  6
ByBlock
100
AcDbPolyline
 90
        2
 70
     1
 43
0.85
 10
483.77850786
 20
55.95793564
 42
1.0
 10
483.99100786
 20
55.95793564
 42
1.0
  0
LINE
  5
31C
330
2
100
AcDbEntity
  8
YKK_11
  6
ByBlock
 62
     0
100
AcDbLine
 10
507.68475317
 20
110.05793665
 30
0.0
 11
485.08475317
 21
110.05793665
 31
0.0
  0
LINE
  5
31D
330
2
100
AcDbEntity
  8
YKK_11
  6
ByBlock
 62
     0
100
AcDbLine
 10
485.08475317
 20
111.25793665
 30
0.0
 11
507.68475317
 21
111.25793665
 31
0.0
  0
LINE
  5
31E
330
2
100
AcDbEntity
  8
YKK_13
  6
YHIDDEN_1
100
AcDbLine
 10
489.38475288
 20
82.85793665
 30
0.0
 11
504.78475288
 21
82.85793665
 31
0.0
  0
LINE
  5
31F
330
2
100
AcDbEntity
  8
YKK_13
  6
YHIDDEN_1
100
AcDbLine
 10
488.78475288
 20
80.55793665
 30
0.0
 11
505.38475288
 21
80.55793665
 31
0.0
  0
LINE
  5
320
330
2
100
AcDbEntity
  8
YKK_D
100
AcDbLine
 10
508.88475786
 20
131.25793106
 30
0.0
 11
483.88475786
 21
131.25793106
 31
0.0
  0
LINE
  5
321
330
2
100
AcDbEntity
  8
YKK_11
  6
ByBlock
 62
     0
100
AcDbLine
 10
483.88475317
 20
79.45793665
 30
0.0
 11
483.88475317
 21
110.05793665
 31
0.0
  0
LINE
  5
322
330
2
100
AcDbEntity
  8
YKK_11
  6
ByBlock
 62
     0
100
AcDbLine
 10
485.08475317
 20
110.05793665
 30
0.0
 11
485.08475317
 21
79.45793665
 31
0.0
  0
ARC
  5
323
330
2
100
AcDbEntity
  8
YKK_11
  6
ByBlock
 62
     0
100
AcDbCircle
 10
478.68475288
 20
106.05793671
 30
0.0
 40
1.199999999999999
100
AcDbArc
 50
0.0
 51
89.99998128
  0
LINE
  5
324
330
2
100
AcDbEntity
  8
YKK_11
  6
ByBlock
 62
     0
100
AcDbLine
 10
473.88475317
 20
79.45793665
 30
0.0
 11
483.88475317
 21
79.45793665
 31
0.0
  0
LINE
  5
325
330
2
100
AcDbEntity
  8
YKK_11
  6
ByBlock
 62
     0
100
AcDbLine
 10
483.88475317
 20
78.25793665
 30
0.0
 11
473.88475317
 21
78.25793665
 31
0.0
  0
LINE
  5
326
330
2
100
AcDbEntity
  8
YKK_11
  6
ByBlock
 62
     0
100
AcDbLine
 10
478.68475288
 20
105.55793671
 30
0.0
 11
478.68475288
 21
83.95793671
 31
0.0
  0
LINE
  5
327
330
2
100
AcDbEntity
  8
YKK_11
  6
ByBlock
 62
     0
100
AcDbLine
 10
478.18475288
 20
83.45793671
 30
0.0
 11
478.18475288
 21
106.05793671
 31
0.0
  0
LINE
  5
328
330
2
100
AcDbEntity
  8
YKK_11
  6
ByBlock
 62
     0
100
AcDbLine
 10
479.88475288
 20
106.05793671
 30
0.0
 11
479.88475288
 21
83.45793671
 31
0.0
  0
LINE
  5
329
330
2
100
AcDbEntity
  8
YKK_11
  6
ByBlock
 62
     0
100
AcDbLine
 10
478.68475288
 20
82.25793671
 30
0.0
 11
469.88475288
 21
82.25793671
 31
0.0
  0
LINE
  5
32A
330
2
100
AcDbEntity
  8
YKK_11
  6
ByBlock
 62
     0
100
AcDbLine
 10
469.88475288
 20
82.25793671
 30
0.0
 11
469.88475288
 21
83.45793671
 31
0.0
  0
ARC
  5
32B
330
2
100
AcDbEntity
  8
YKK_11
  6
ByBlock
 62
     0
100
AcDbCircle
 10
478.68475288
 20
83.45793671
 30
0.0
 40
1.199999999999999
100
AcDbArc
 50
270.00000112
 51
0.0
  0
LINE
  5
32C
330
2
100
AcDbEntity
  8
YKK_11
  6
ByBlock
 62
     0
100
AcDbLine
 10
473.88475317
 20
78.25793665
 30
0.0
 11
473.88475317
 21
79.45793665
 31
0.0
  0
LINE
  5
32D
330
2
100
AcDbEntity
  8
YKK_11
  6
ByBlock
 62
     0
100
AcDbLine
 10
478.68475288
 20
83.95793671
 30
0.0
 11
478.18475288
 21
83.45793671
 31
0.0
  0
LINE
  5
32E
330
2
100
AcDbEntity
  8
YKK_11
  6
ByBlock
 62
     0
100
AcDbLine
 10
478.18475288
 20
106.05793671
 30
0.0
 11
478.68475288
 21
105.55793671
 31
0.0
  0
LINE
  5
32F
330
2
100
AcDbEntity
  8
YKK_13
  6
YHIDDEN_1
100
AcDbLine
 10
486.48475288
 20
82.85793665
 30
0.0
 11
486.48475288
 21
93.55793665
 31
0.0
  0
LINE
  5
330
330
2
100
AcDbEntity
  8
YKK_13
  6
YHIDDEN_1
100
AcDbLine
 10
488.78475288
 20
93.55793665
 30
0.0
 11
488.78475288
 21
83.45793665
 31
0.0
  0
ARC
  5
331
330
2
100
AcDbEntity
  8
YKK_13
  6
YHIDDEN_1
100
AcDbCircle
 10
489.38475288
 20
83.45793665
 30
0.0
 40
0.5999999999999999
100
AcDbArc
 50
180.0
 51
270.0
  0
ARC
  5
332
330
2
100
AcDbEntity
  8
YKK_13
  6
YHIDDEN_1
100
AcDbCircle
 10
488.78475288
 20
82.85793665
 30
0.0
 40
2.299999999999998
100
AcDbArc
 50
180.0
 51
270.0
  0
ARC
  5
333
330
2
100
AcDbEntity
  8
YKK_11
  6
ByBlock
 62
     0
100
AcDbCircle
 10
483.88475317
 20
79.45793665
 30
0.0
 40
1.199999999999999
100
AcDbArc
 50
270.00000112
 51
0.0
  0
LINE
  5
334
330
2
100
AcDbEntity
  8
YKK_12
  6
Continuous
100
AcDbLine
 10
483.88475288
 20
78.25793665
 30
0.0
 11
483.88475288
 21
77.05793665
 31
0.0
  0
LINE
  5
335
330
2
100
AcDbEntity
  8
YKK_13
  6
YHIDDEN_1
100
AcDbLine
 10
486.48475288
 20
93.55793665
 30
0.0
 11
488.78475288
 21
93.55793665
 31
0.0
  0
LINE
  5
336
330
2
100
AcDbEntity
  8
YKK_D
100
AcDbLine
 10
483.88475786
 20
131.25793106
 30
0.0
 11
479.88475786
 21
131.25793106
 31
0.0
  0
TEXT
  5
337
330
2
100
AcDbEntity
  8
YKK_D
100
AcDbText
 10
481.18754974
 20
132.25793106
 30
0.0
 40
6.0
  1
4
 41
0.8
100
AcDbText
1001
ACAD
1000
MTEXTBEGIN
1070
    73
1070
     1
1070
    44
1040
1.0
1070
    74
1070
     0
1000
MTEXTEND
  0
LINE
  5
338
330
2
100
AcDbEntity
  8
YKK_D
100
AcDbLine
 10
479.88475786
 20
115.25793678
 30
0.0
 11
479.88475786
 21
132.25793106
 31
0.0
  0
LINE
  5
339
330
2
100
AcDbEntity
  8
YKK_D
100
AcDbLine
 10
479.88475786
 20
125.59845192
 30
0.0
 11
479.88475786
 21
132.25793106
 31
0.0
  0
LWPOLYLINE
  5
33A
330
2
100
AcDbEntity
  8
YKK_D
  6
ByBlock
100
AcDbPolyline
 90
        2
 70
     1
 43
0.85
 10
479.99100786
 20
131.25793106
 42
1.0
 10
479.77850786
 20
131.25793106
 42
1.0
  0
LWPOLYLINE
  5
33B
330
2
100
AcDbEntity
  8
YKK_D
  6
ByBlock
100
AcDbPolyline
 90
        2
 70
     1
 43
0.85
 10
479.77850786
 20
131.25793106
 42
1.0
 10
479.99100786
 20
131.25793106
 42
1.0
  0
LINE
  5
33C
330
2
100
AcDbEntity
  8
YKK_D
100
AcDbLine
 10
483.88475786
 20
115.25793678
 30
0.0
 11
483.88475786
 21
132.25793106
 31
0.0
  0
ARC
  5
33D
330
2
100
AcDbEntity
  8
YKK_11
  6
ByBlock
 62
     0
100
AcDbCircle
 10
485.08475317
 20
110.05793665
 30
0.0
 40
1.199999999999999
100
AcDbArc
 50
89.99998128
 51
180.00001985
  0
LINE
  5
33E
330
2
100
AcDbEntity
  8
YKK_D
100
AcDbLine
 10
483.88475786
 20
125.5724786
 30
0.0
 11
483.88475786
 21
132.25793106
 31
0.0
  0
LWPOLYLINE
  5
33F
330
2
100
AcDbEntity
  8
YKK_D
  6
ByBlock
100
AcDbPolyline
 90
        2
 70
     1
 43
0.85
 10
483.99100786
 20
131.25793106
 42
1.0
 10
483.77850786
 20
131.25793106
 42
1.0
  0
LWPOLYLINE
  5
340
330
2
100
AcDbEntity
  8
YKK_D
  6
ByBlock
100
AcDbPolyline
 90
        2
 70
     1
 43
0.85
 10
483.77850786
 20
131.25793106
 42
1.0
 10
483.99100786
 20
131.25793106
 42
1.0
  0
TEXT
  5
341
330
2
100
AcDbEntity
  8
YKK_D
100
AcDbText
 10
493.30252436
 20
132.25793106
 30
0.0
 40
6.0
  1
25
 41
0.8
100
AcDbText
1001
ACAD
1000
MTEXTBEGIN
1070
    73
1070
     1
1070
    44
1040
1.0
1070
    74
1070
     0
1000
MTEXTEND
  0
LINE
  5
342
330
2
100
AcDbEntity
  8
YKK_11
  6
ByBlock
 62
     0
100
AcDbLine
 10
507.68475317
 20
90.05793665
 30
0.0
 11
507.68475317
 21
110.05793665
 31
0.0
  0
LINE
  5
343
330
2
100
AcDbEntity
  8
YKK_11
  6
ByBlock
 62
     0
100
AcDbLine
 10
508.88475317
 20
110.05793665
 30
0.0
 11
508.88475317
 21
90.05793665
 31
0.0
  0
LINE
  5
344
330
2
100
AcDbEntity
  8
YKK_13
  6
YHIDDEN_1
100
AcDbLine
 10
507.68475288
 20
82.85793665
 30
0.0
 11
507.68475288
 21
109.55793665
 31
0.0
  0
LINE
  5
345
330
2
100
AcDbEntity
  8
YKK_13
  6
YHIDDEN_1
100
AcDbLine
 10
505.38475288
 20
109.55793665
 30
0.0
 11
505.38475288
 21
83.45793665
 31
0.0
  0
ARC
  5
346
330
2
100
AcDbEntity
  8
YKK_13
  6
YHIDDEN_1
100
AcDbCircle
 10
504.78475288
 20
83.45793665
 30
0.0
 40
0.5999999999999999
100
AcDbArc
 50
270.0
 51
0.0
  0
ARC
  5
347
330
2
100
AcDbEntity
  8
YKK_13
  6
YHIDDEN_1
100
AcDbCircle
 10
505.38475288
 20
82.85793665
 30
0.0
 40
2.299999999999998
100
AcDbArc
 50
270.0
 51
0.0
  0
LINE
  5
348
330
2
100
AcDbEntity
  8
YKK_11
  6
ByBlock
 62
     0
100
AcDbLine
 10
508.88475317
 20
90.05793665
 30
0.0
 11
507.68475317
 21
90.05793665
 31
0.0
  0
LINE
  5
349
330
2
100
AcDbEntity
  8
YKK_D
100
AcDbLine
 10
508.88475786
 20
115.25793678
 30
0.0
 11
508.88475786
 21
132.25793106
 31
0.0
  0
ARC
  5
34A
330
2
100
AcDbEntity
  8
YKK_11
  6
ByBlock
 62
     0
100
AcDbCircle
 10
507.68475317
 20
110.05793665
 30
0.0
 40
1.199999999999999
100
AcDbArc
 50
0.0
 51
89.99998128
  0
LINE
  5
34B
330
2
100
AcDbEntity
  8
YKK_13
  6
YHIDDEN_1
100
AcDbLine
 10
505.38475288
 20
109.55793665
 30
0.0
 11
507.68475288
 21
109.55793665
 31
0.0
  0
LWPOLYLINE
  5
34C
330
2
100
AcDbEntity
  8
YKK_D
  6
ByBlock
100
AcDbPolyline
 90
        2
 70
     1
 43
0.85
 10
508.77850786
 20
131.25793106
 42
1.0
 10
508.99100786
 20
131.25793106
 42
1.0
  0
LINE
  5
34D
330
2
100
AcDbEntity
  8
YKK_D
100
AcDbLine
 10
457.16262623
 20
350.72597915
 30
0.0
 11
470.16264125
 21
350.72597915
 31
0.0
  0
LINE
  5
34E
330
2
100
AcDbEntity
  8
YKK_D
100
AcDbLine
 10
457.16262635
 20
252.12597305
 30
0.0
 11
485.16264125
 21
252.12597305
 31
0.0
  0
LINE
  5
34F
330
2
100
AcDbEntity
  8
YKK_D
100
AcDbLine
 10
457.16262623
 20
253.62597305
 30
0.0
 11
470.16264125
 21
253.62597305
 31
0.0
  0
LINE
  5
350
330
2
100
AcDbEntity
  8
YKK_D
100
AcDbLine
 10
457.16262635
 20
252.12597305
 30
0.0
 11
470.16264125
 21
252.12597305
 31
0.0
  0
LINE
  5
351
330
2
100
AcDbEntity
  8
YKK_D
100
AcDbLine
 10
457.16262623
 20
253.37597305
 30
0.0
 11
470.16264125
 21
253.37597305
 31
0.0
  0
LINE
  5
352
330
2
100
AcDbEntity
  8
YKK_D
100
AcDbLine
 10
454.16264125
 20
222.12597305
 30
0.0
 11
466.60264125
 21
222.12597305
 31
0.0
  0
LINE
  5
353
330
2
100
AcDbEntity
  8
YKK_D
100
AcDbLine
 10
454.16264125
 20
237.12597305
 30
0.0
 11
466.60264125
 21
237.12597305
 31
0.0
  0
LINE
  5
354
330
2
100
AcDbEntity
  8
YKK_D
100
AcDbLine
 10
458.18499525
 20
229.71769496
 30
0.0
 11
463.38499525
 21
229.71769496
 31
0.0
  0
LINE
  5
355
330
2
100
AcDbEntity
  8
YKK_D
100
AcDbLine
 10
457.16262635
 20
352.12597305
 30
0.0
 11
470.16264125
 21
352.12597305
 31
0.0
  0
LINE
  5
356
330
2
100
AcDbEntity
  8
YKK_D
100
AcDbLine
 10
457.16262623
 20
350.87597305
 30
0.0
 11
470.16264125
 21
350.87597305
 31
0.0
  0
LINE
  5
357
330
2
100
AcDbEntity
  8
YKK_D
100
AcDbLine
 10
457.16262635
 20
352.12597305
 30
0.0
 11
485.16264125
 21
352.12597305
 31
0.0
  0
TEXT
  5
358
330
2
100
AcDbEntity
  8
YKK_D
100
AcDbText
 10
459.01259049
 20
223.12597305
 30
0.0
 40
6.0
  1
35
 41
0.8
100
AcDbText
1001
ACAD
1000
MTEXTBEGIN
1070
    73
1070
     1
1070
    44
1040
1.0
1070
    74
1070
     0
1000
MTEXTEND
  0
TEXT
  5
359
330
2
100
AcDbEntity
  8
YKK_D
100
AcDbText
 10
459.00040774
 20
238.12597305
 30
0.0
 40
6.0
  1
25
 41
0.8
100
AcDbText
1001
ACAD
1000
MTEXTBEGIN
1070
    73
1070
     1
1070
    44
1040
1.0
1070
    74
1070
     0
1000
MTEXTEND
  0
TEXT
  5
35A
330
2
100
AcDbEntity
  8
YKK_D
100
AcDbText
 10
459.23778713
 20
230.71769496
 30
0.0
 40
6.0
  1
4
 41
0.8
100
AcDbText
1001
ACAD
1000
MTEXTBEGIN
1070
    73
1070
     1
1070
    44
1040
1.0
1070
    74
1070
     0
1000
MTEXTEND
  0
LINE
  5
35B
330
2
100
AcDbEntity
  8
YKK_A1
  6
Continuous
100
AcDbLine
 10
454.16265062
 20
252.12597858
 30
0.0
 11
454.16265062
 21
352.12597262
 31
0.0
  0
LINE
  5
35C
330
2
100
AcDbEntity
  8
YKK_A1
  6
Continuous
100
AcDbLine
 10
410.66265321
 20
352.12597262
 30
0.0
 11
410.66265321
 21
252.12597858
 31
0.0
  0
LINE
  5
35D
330
2
100
AcDbEntity
  8
YKK_A1
  6
Continuous
100
AcDbLine
 10
411.91265314
 20
252.12597858
 30
0.0
 11
411.91265314
 21
350.8759727
 31
0.0
  0
LINE
  5
35E
330
2
100
AcDbEntity
  8
YKK_A1
  6
Continuous
100
AcDbLine
 10
412.11265312
 20
253.6259785
 30
0.0
 11
412.11265312
 21
350.72597271
 31
0.0
  0
LINE
  5
35F
330
2
100
AcDbEntity
  8
YKK_A1
  6
Continuous
100
AcDbLine
 10
452.7126507
 20
337.3759735
 30
0.0
 11
452.7126507
 21
302.67362098
 31
0.0
  0
LINE
  5
360
330
2
100
AcDbEntity
  8
YKK_A1
  6
Continuous
100
AcDbLine
 10
452.91265069
 20
302.67362098
 30
0.0
 11
452.91265069
 21
337.3759735
 31
0.0
  0
LINE
  5
361
330
2
100
AcDbEntity
  8
YKK_A1
  6
Continuous
100
AcDbLine
 10
302.32052122
 20
252.12597858
 30
0.0
 11
302.32052122
 21
302.1259756
 31
0.0
  0
LINE
  5
362
330
2
100
AcDbEntity
  8
YKK_A1
  6
Continuous
100
AcDbLine
 10
300.07052135
 20
264.87597782
 30
0.0
 11
300.07052135
 21
259.87597812
 31
0.0
  0
LINE
  5
363
330
2
100
AcDbEntity
  8
YKK_A1
  6
Continuous
100
AcDbLine
 10
301.57052126
 20
264.87597782
 30
0.0
 11
301.57052126
 21
259.87597812
 31
0.0
  0
LINE
  5
364
330
2
100
AcDbEntity
  8
YKK_D
100
AcDbLine
 10
317.32050868
 20
300.72597915
 30
0.0
 11
317.32050868
 21
253.62597305
 31
0.0
  0
LINE
  5
365
330
2
100
AcDbEntity
  8
YKK_D
100
AcDbLine
 10
332.32050868
 20
295.37597305
 30
0.0
 11
332.32050868
 21
258.87597305
 31
0.0
  0
LINE
  5
366
330
2
100
AcDbEntity
  8
YKK_D
100
AcDbLine
 10
322.23615237
 20
253.87597305
 30
0.0
 11
333.32050868
 21
253.87597305
 31
0.0
  0
LINE
  5
367
330
2
100
AcDbEntity
  8
YKK_D
100
AcDbLine
 10
305.32052751
 20
252.12597305
 30
0.0
 11
333.32050868
 21
252.12597305
 31
0.0
  0
LINE
  5
368
330
2
100
AcDbEntity
  8
YKK_D
100
AcDbLine
 10
322.23615237
 20
253.87597305
 30
0.0
 11
333.32050868
 21
253.87597305
 31
0.0
  0
LINE
  5
369
330
2
100
AcDbEntity
  8
YKK_D
100
AcDbLine
 10
317.32050868
 20
253.50097305
 30
0.0
 11
327.81108907
 21
257.88638666
 31
0.0
  0
TEXT
  5
36A
330
2
100
AcDbEntity
  8
YKK_D
100
AcDbText
 10
331.32050868
 20
241.13592229
 30
0.0
 40
6.0
  1
35
 50
90.0
 41
0.8
100
AcDbText
1001
ACAD
1000
MTEXTBEGIN
1070
    73
1070
     1
1070
    44
1040
1.0
1070
    74
1070
     0
1000
MTEXTEND
  0
LINE
  5
36B
330
2
100
AcDbEntity
  8
YKK_D
100
AcDbLine
 10
300.97051783
 20
237.12597305
 30
0.0
 11
306.13065293
 21
229.46460964
 31
0.0
  0
LINE
  5
36C
330
2
100
AcDbEntity
  8
YKK_D
100
AcDbLine
 10
302.32050868
 20
249.12598044
 30
0.0
 11
302.32050868
 21
221.12597305
 31
0.0
  0
TEXT
  5
36D
330
2
100
AcDbEntity
  8
YKK_D
100
AcDbText
 10
307.18344481
 20
230.46460964
 30
0.0
 40
6.0
  1
4
 41
0.8
100
AcDbText
1001
ACAD
1000
MTEXTBEGIN
1070
    73
1070
     1
1070
    44
1040
1.0
1070
    74
1070
     0
1000
MTEXTEND
  0
LINE
  5
36E
330
2
100
AcDbEntity
  8
YKK_D
100
AcDbLine
 10
302.32050868
 20
222.12597305
 30
0.0
 11
314.76050868
 21
222.12597305
 31
0.0
  0
LINE
  5
36F
330
2
100
AcDbEntity
  8
YKK_D
100
AcDbLine
 10
300.57050868
 20
222.12597305
 30
0.0
 11
291.91025464
 21
222.12597305
 31
0.0
  0
LINE
  5
370
330
2
100
AcDbEntity
  8
YKK_D
100
AcDbLine
 10
300.57050868
 20
231.82845527
 30
0.0
 11
300.57050868
 21
221.12597305
 31
0.0
  0
LINE
  5
371
330
2
100
AcDbEntity
  8
YKK_D
100
AcDbLine
 10
300.57050868
 20
231.82845527
 30
0.0
 11
300.57050868
 21
221.12597305
 31
0.0
  0
LINE
  5
372
330
2
100
AcDbEntity
  8
YKK_D
100
AcDbLine
 10
300.57050868
 20
222.12597305
 30
0.0
 11
298.87050868
 21
222.12597305
 31
0.0
  0
LINE
  5
373
330
2
100
AcDbEntity
  8
YKK_D
100
AcDbLine
 10
300.57050868
 20
222.12597305
 30
0.0
 11
296.24038166
 21
224.62597305
 31
0.0
  0
LINE
  5
374
330
2
100
AcDbEntity
  8
YKK_D
100
AcDbLine
 10
300.57050868
 20
222.12597305
 30
0.0
 11
296.24038166
 21
219.62597305
 31
0.0
  0
LINE
  5
375
330
2
100
AcDbEntity
  8
YKK_D
100
AcDbLine
 10
296.24038166
 20
224.62597305
 30
0.0
 11
296.24038166
 21
219.62597305
 31
0.0
  0
LINE
  5
376
330
2
100
AcDbEntity
  8
YKK_D
100
AcDbLine
 10
300.57050868
 20
222.12597305
 30
0.0
 11
302.32050868
 21
222.12597305
 31
0.0
  0
LWPOLYLINE
  5
377
330
2
100
AcDbEntity
  8
YKK_D
  6
ByBlock
100
AcDbPolyline
 90
        2
 70
     1
 43
0.85
 10
302.42675868
 20
222.12597305
 42
1.0
 10
302.21425868
 20
222.12597305
 42
1.0
  0
TEXT
  5
378
330
2
100
AcDbEntity
  8
YKK_D
100
AcDbText
 10
307.17045792
 20
223.12597305
 30
0.0
 40
6.0
  1
35
 41
0.8
100
AcDbText
1001
ACAD
1000
MTEXTBEGIN
1070
    73
1070
     1
1070
    44
1040
1.0
1070
    74
1070
     0
1000
MTEXTEND
  0
LINE
  5
379
330
2
100
AcDbEntity
  8
YKK_D
100
AcDbLine
 10
306.13065293
 20
229.46460964
 30
0.0
 11
311.33065293
 21
229.46460964
 31
0.0
  0
LINE
  5
37A
330
2
100
AcDbEntity
  8
YKK_D
100
AcDbLine
 10
305.32052751
 20
252.12597305
 30
0.0
 11
318.32050868
 21
252.12597305
 31
0.0
  0
LINE
  5
37B
330
2
100
AcDbEntity
  8
YKK_D
100
AcDbLine
 10
305.32052751
 20
253.37597305
 30
0.0
 11
318.32050868
 21
253.37597305
 31
0.0
  0
LINE
  5
37C
330
2
100
AcDbEntity
  8
YKK_D
100
AcDbLine
 10
305.32052751
 20
253.37597305
 30
0.0
 11
318.32050868
 21
253.37597305
 31
0.0
  0
LINE
  5
37D
330
2
100
AcDbEntity
  8
YKK_D
100
AcDbLine
 10
305.320497
 20
253.62597305
 30
0.0
 11
318.32050868
 21
253.62597305
 31
0.0
  0
LINE
  5
37E
330
2
100
AcDbEntity
  8
YKK_D
100
AcDbLine
 10
302.32050868
 20
237.12597305
 30
0.0
 11
314.76050868
 21
237.12597305
 31
0.0
  0
LINE
  5
37F
330
2
100
AcDbEntity
  8
YKK_D
100
AcDbLine
 10
301.07050868
 20
249.12598044
 30
0.0
 11
301.07050868
 21
236.12597305
 31
0.0
  0
LINE
  5
380
330
2
100
AcDbEntity
  8
YKK_D
100
AcDbLine
 10
300.87052699
 20
249.12598044
 30
0.0
 11
300.87052699
 21
236.12597305
 31
0.0
  0
LINE
  5
381
330
2
100
AcDbEntity
  8
YKK_D
100
AcDbLine
 10
302.32050868
 20
249.12598044
 30
0.0
 11
302.32050868
 21
236.12597305
 31
0.0
  0
LINE
  5
382
330
2
100
AcDbEntity
  8
YKK_D
100
AcDbLine
 10
301.07050868
 20
249.12598044
 30
0.0
 11
301.07050868
 21
236.12597305
 31
0.0
  0
LINE
  5
383
330
2
100
AcDbEntity
  8
YKK_D
100
AcDbLine
 10
300.87052699
 20
237.12597305
 30
0.0
 11
299.17052699
 21
237.12597305
 31
0.0
  0
LINE
  5
384
330
2
100
AcDbEntity
  8
YKK_D
100
AcDbLine
 10
301.07050868
 20
237.12597305
 30
0.0
 11
299.37050868
 21
237.12597305
 31
0.0
  0
LINE
  5
385
330
2
100
AcDbEntity
  8
YKK_D
100
AcDbLine
 10
301.07050868
 20
237.12597305
 30
0.0
 11
302.77050868
 21
237.12597305
 31
0.0
  0
LINE
  5
386
330
2
100
AcDbEntity
  8
YKK_D
100
AcDbLine
 10
301.07050868
 20
237.12597305
 30
0.0
 11
300.87052699
 21
237.12597305
 31
0.0
  0
LINE
  5
387
330
2
100
AcDbEntity
  8
YKK_D
100
AcDbLine
 10
301.07050868
 20
237.12597305
 30
0.0
 11
300.87052699
 21
237.12597305
 31
0.0
  0
LINE
  5
388
330
2
100
AcDbEntity
  8
YKK_D
100
AcDbLine
 10
301.07050868
 20
237.12597305
 30
0.0
 11
302.32050868
 21
237.12597305
 31
0.0
  0
LWPOLYLINE
  5
389
330
2
100
AcDbEntity
  8
YKK_D
  6
ByBlock
100
AcDbPolyline
 90
        2
 70
     1
 43
0.85
 10
302.42675868
 20
237.12597305
 42
1.0
 10
302.21425868
 20
237.12597305
 42
1.0
  0
LWPOLYLINE
  5
38A
330
2
100
AcDbEntity
  8
YKK_D
  6
ByBlock
100
AcDbPolyline
 90
        2
 70
     1
 43
0.85
 10
300.96425868
 20
237.12597305
 42
1.0
 10
301.17675868
 20
237.12597305
 42
1.0
  0
LWPOLYLINE
  5
38B
330
2
100
AcDbEntity
  8
YKK_D
  6
ByBlock
100
AcDbPolyline
 90
        2
 70
     1
 43
0.85
 10
300.76427699
 20
237.12597305
 42
1.0
 10
300.97677699
 20
237.12597305
 42
1.0
  0
LWPOLYLINE
  5
38C
330
2
100
AcDbEntity
  8
YKK_D
  6
ByBlock
100
AcDbPolyline
 90
        2
 70
     1
 43
0.85
 10
301.17675868
 20
237.12597305
 42
1.0
 10
300.96425868
 20
237.12597305
 42
1.0
  0
LWPOLYLINE
  5
38D
330
2
100
AcDbEntity
  8
YKK_D
  6
ByBlock
100
AcDbPolyline
 90
        2
 70
     1
 43
0.85
 10
300.76427699
 20
237.12597305
 42
1.0
 10
300.97677699
 20
237.12597305
 42
1.0
  0
LINE
  5
38E
330
2
100
AcDbEntity
  8
YKK_A1
  6
Continuous
100
AcDbLine
 10
287.6083627
 20
253.87597848
 30
0.0
 11
287.5583627
 21
253.87597848
 31
0.0
  0
LINE
  5
38F
330
2
100
AcDbEntity
  8
YKK_A1
  6
Continuous
100
AcDbLine
 10
301.07052129
 20
252.12597858
 30
0.0
 11
301.07052129
 21
259.87597812
 31
0.0
  0
LINE
  5
390
330
2
100
AcDbEntity
  8
YKK_A1
  6
Continuous
100
AcDbLine
 10
300.8705213
 20
259.87597812
 30
0.0
 11
300.8705213
 21
253.6259785
 31
0.0
  0
LINE
  5
391
330
2
100
AcDbEntity
  8
YKK_A1
  6
YHIDDEN_1
100
AcDbLine
 10
299.3205214
 20
253.37597851
 30
0.0
 11
299.3205214
 21
253.36421312
 31
0.0
  0
LINE
  5
392
330
2
100
AcDbEntity
  8
YKK_A1
  6
Continuous
100
AcDbLine
 10
300.57052132
 20
252.12597858
 30
0.0
 11
300.57052132
 21
252.17597858
 31
0.0
  0
LINE
  5
393
330
2
100
AcDbEntity
  8
YKK_A1
  6
Continuous
100
AcDbLine
 10
301.07052129
 20
253.87597848
 30
0.0
 11
301.02052129
 21
253.87597848
 31
0.0
  0
LINE
  5
394
330
2
100
AcDbEntity
  8
YKK_A1
  6
Continuous
100
AcDbLine
 10
300.07052135
 20
259.87597812
 30
0.0
 11
301.57052126
 21
259.87597812
 31
0.0
  0
TEXT
  5
395
330
2
100
AcDbEntity
  8
YKK_D
100
AcDbText
 10
317.19307616
 20
244.81866144
 30
0.0
 40
6.0
  1
25
 50
90.0
 41
0.8
100
AcDbText
1001
ACAD
1000
MTEXTBEGIN
1070
    73
1070
     1
1070
    44
1040
1.0
1070
    74
1070
     0
1000
MTEXTEND
  0
TEXT
  5
396
330
2
100
AcDbEntity
  8
YKK_D
100
AcDbText
 10
307.15827518
 20
238.12597305
 30
0.0
 40
6.0
  1
25
 41
0.8
100
AcDbText
1001
ACAD
1000
MTEXTBEGIN
1070
    73
1070
     1
1070
    44
1040
1.0
1070
    74
1070
     0
1000
MTEXTEND
  0
LINE
  5
397
330
2
100
AcDbEntity
  8
YKK_D
100
AcDbLine
 10
317.32050868
 20
252.12597305
 30
0.0
 11
317.32050868
 21
250.42597305
 31
0.0
  0
LINE
  5
398
330
2
100
AcDbEntity
  8
YKK_D
100
AcDbLine
 10
317.32050868
 20
253.37597305
 30
0.0
 11
317.32050868
 21
255.07597305
 31
0.0
  0
LINE
  5
399
330
2
100
AcDbEntity
  8
YKK_D
100
AcDbLine
 10
317.32050868
 20
252.12597305
 30
0.0
 11
317.32050868
 21
253.37597305
 31
0.0
  0
LINE
  5
39A
330
2
100
AcDbEntity
  8
YKK_D
100
AcDbLine
 10
317.32050868
 20
253.37597305
 30
0.0
 11
317.32050868
 21
251.67597305
 31
0.0
  0
LINE
  5
39B
330
2
100
AcDbEntity
  8
YKK_D
100
AcDbLine
 10
317.32050868
 20
253.62597305
 30
0.0
 11
317.32050868
 21
255.32597305
 31
0.0
  0
LINE
  5
39C
330
2
100
AcDbEntity
  8
YKK_D
100
AcDbLine
 10
317.32050868
 20
253.37597305
 30
0.0
 11
317.32050868
 21
253.62597305
 31
0.0
  0
LINE
  5
39D
330
2
100
AcDbEntity
  8
YKK_D
100
AcDbLine
 10
317.32050868
 20
253.37597305
 30
0.0
 11
317.32050868
 21
253.62597305
 31
0.0
  0
LWPOLYLINE
  5
39E
330
2
100
AcDbEntity
  8
YKK_D
  6
ByBlock
100
AcDbPolyline
 90
        2
 70
     1
 43
0.85
 10
317.32050868
 20
252.01972305
 42
1.0
 10
317.32050868
 20
252.23222305
 42
1.0
  0
LWPOLYLINE
  5
39F
330
2
100
AcDbEntity
  8
YKK_D
  6
ByBlock
100
AcDbPolyline
 90
        2
 70
     1
 43
0.85
 10
317.32050868
 20
253.73222305
 42
1.0
 10
317.32050868
 20
253.51972305
 42
1.0
  0
LWPOLYLINE
  5
3A0
330
2
100
AcDbEntity
  8
YKK_D
  6
ByBlock
100
AcDbPolyline
 90
        2
 70
     1
 43
0.85
 10
317.32050868
 20
253.26972305
 42
1.0
 10
317.32050868
 20
253.48222305
 42
1.0
  0
LWPOLYLINE
  5
3A1
330
2
100
AcDbEntity
  8
YKK_D
  6
ByBlock
100
AcDbPolyline
 90
        2
 70
     1
 43
0.85
 10
317.32050868
 20
253.48222305
 42
1.0
 10
317.32050868
 20
253.26972305
 42
1.0
  0
LWPOLYLINE
  5
3A2
330
2
100
AcDbEntity
  8
YKK_D
  6
ByBlock
100
AcDbPolyline
 90
        2
 70
     1
 43
0.85
 10
317.32050868
 20
253.73222305
 42
1.0
 10
317.32050868
 20
253.51972305
 42
1.0
  0
TEXT
  5
3A3
330
2
100
AcDbEntity
  8
YKK_D
100
AcDbText
 10
326.81108907
 20
258.97572676
 30
0.0
 40
6.0
  1
5
 50
90.0
 41
0.8
100
AcDbText
1001
ACAD
1000
MTEXTBEGIN
1070
    73
1070
     1
1070
    44
1040
1.0
1070
    74
1070
     0
1000
MTEXTEND
  0
LINE
  5
3A4
330
2
100
AcDbEntity
  8
YKK_D
100
AcDbLine
 10
332.32050868
 20
252.12597305
 30
0.0
 11
332.32050868
 21
239.68597305
 31
0.0
  0
LINE
  5
3A5
330
2
100
AcDbEntity
  8
YKK_D
100
AcDbLine
 10
332.32050868
 20
253.87597305
 30
0.0
 11
334.82050868
 21
258.20610007
 31
0.0
  0
LINE
  5
3A6
330
2
100
AcDbEntity
  8
YKK_D
100
AcDbLine
 10
332.32050868
 20
253.87597305
 30
0.0
 11
329.82050868
 21
258.20610007
 31
0.0
  0
LINE
  5
3A7
330
2
100
AcDbEntity
  8
YKK_D
100
AcDbLine
 10
332.32050868
 20
253.87597305
 30
0.0
 11
332.32050868
 21
262.53622709
 31
0.0
  0
LINE
  5
3A8
330
2
100
AcDbEntity
  8
YKK_D
100
AcDbLine
 10
332.32050868
 20
253.87597305
 30
0.0
 11
332.32050868
 21
255.57597305
 31
0.0
  0
LINE
  5
3A9
330
2
100
AcDbEntity
  8
YKK_D
100
AcDbLine
 10
332.32050868
 20
253.87597305
 30
0.0
 11
332.32050868
 21
252.12597305
 31
0.0
  0
LWPOLYLINE
  5
3AA
330
2
100
AcDbEntity
  8
YKK_D
  6
ByBlock
100
AcDbPolyline
 90
        2
 70
     1
 43
0.85
 10
332.32050868
 20
252.01972305
 42
1.0
 10
332.32050868
 20
252.23222305
 42
1.0
  0
LINE
  5
3AB
330
2
100
AcDbEntity
  8
YKK_D
100
AcDbLine
 10
334.82050868
 20
258.20610007
 30
0.0
 11
329.82050868
 21
258.20610007
 31
0.0
  0
LINE
  5
3AC
330
2
100
AcDbEntity
  8
YKK_D
100
AcDbLine
 10
327.81108907
 20
257.88638666
 30
0.0
 11
327.81108907
 21
263.08638666
 31
0.0
  0
LINE
  5
3AD
330
2
100
AcDbEntity
  8
YKK_D
100
AcDbLine
 10
322.23615237
 20
300.37597305
 30
0.0
 11
333.32050868
 21
300.37597305
 31
0.0
  0
LINE
  5
3AE
330
2
100
AcDbEntity
  8
YKK_D
100
AcDbLine
 10
305.32052751
 20
302.12597305
 30
0.0
 11
333.32050868
 21
302.12597305
 31
0.0
  0
LINE
  5
3AF
330
2
100
AcDbEntity
  8
YKK_D
100
AcDbLine
 10
323.10839053
 20
300.37597305
 30
0.0
 11
333.32050868
 21
300.37597305
 31
0.0
  0
LINE
  5
3B0
330
2
100
AcDbEntity
  8
YKK_D
100
AcDbLine
 10
317.32050868
 20
300.8009761
 30
0.0
 11
327.89476068
 21
296.93352971
 31
0.0
  0
TEXT
  5
3B1
330
2
100
AcDbEntity
  8
YKK_D
100
AcDbText
 10
331.32050868
 20
275.57876493
 30
0.0
 40
6.0
  1
H
 50
90.0
 41
0.8
100
AcDbText
1001
ACAD
1000
MTEXTBEGIN
1070
    73
1070
     1
1070
    44
1040
1.0
1070
    74
1070
     0
1000
MTEXTEND
  0
TEXT
  5
3B2
330
2
100
AcDbEntity
  8
YKK_D
100
AcDbText
 10
331.32050868
 20
306.97592229
 30
0.0
 40
6.0
  1
35
 50
90.0
 41
0.8
100
AcDbText
1001
ACAD
1000
MTEXTBEGIN
1070
    73
1070
     1
1070
    44
1040
1.0
1070
    74
1070
     0
1000
MTEXTEND
  0
LINE
  5
3B3
330
2
100
AcDbEntity
  8
YKK_A1
  6
Continuous
100
AcDbLine
 10
300.8705213
 20
300.72597569
 30
0.0
 11
300.8705213
 21
292.37597619
 31
0.0
  0
LINE
  5
3B4
330
2
100
AcDbEntity
  8
YKK_A1
  6
Continuous
100
AcDbLine
 10
301.07052129
 20
292.37597619
 30
0.0
 11
301.07052129
 21
302.1259756
 31
0.0
  0
TEXT
  5
3B5
330
2
100
AcDbEntity
  8
YKK_D
100
AcDbText
 10
326.89476068
 20
292.82286981
 30
0.0
 40
6.0
  1
3
 50
90.0
 41
0.8
100
AcDbText
1001
ACAD
1000
MTEXTBEGIN
1070
    73
1070
     1
1070
    44
1040
1.0
1070
    74
1070
     0
1000
MTEXTEND
  0
LINE
  5
3B6
330
2
100
AcDbEntity
  8
YKK_A1
  6
Continuous
100
AcDbLine
 10
301.07052129
 20
264.87597782
 30
0.0
 11
301.07052129
 21
287.37597648
 31
0.0
  0
LINE
  5
3B7
330
2
100
AcDbEntity
  8
YKK_A1
  6
Continuous
100
AcDbLine
 10
300.8705213
 20
287.37597648
 30
0.0
 11
300.8705213
 21
264.87597782
 31
0.0
  0
LINE
  5
3B8
330
2
100
AcDbEntity
  8
YKK_A1
  6
Continuous
100
AcDbLine
 10
300.07052135
 20
264.87597782
 30
0.0
 11
301.57052126
 21
264.87597782
 31
0.0
  0
LINE
  5
3B9
330
2
100
AcDbEntity
  8
YKK_A1
  6
Continuous
100
AcDbLine
 10
300.07052135
 20
292.37597619
 30
0.0
 11
300.07052135
 21
287.37597648
 31
0.0
  0
LINE
  5
3BA
330
2
100
AcDbEntity
  8
YKK_A1
  6
Continuous
100
AcDbLine
 10
301.57052126
 20
292.37597619
 30
0.0
 11
301.57052126
 21
287.37597648
 31
0.0
  0
LINE
  5
3BB
330
2
100
AcDbEntity
  8
YKK_A1
  6
Continuous
100
AcDbLine
 10
300.07052135
 20
287.37597648
 30
0.0
 11
301.57052126
 21
287.37597648
 31
0.0
  0
LINE
  5
3BC
330
2
100
AcDbEntity
  8
YKK_A1
  6
Continuous
100
AcDbLine
 10
300.07052135
 20
292.37597619
 30
0.0
 11
301.57052126
 21
292.37597619
 31
0.0
  0
TEXT
  5
3BD
330
2
100
AcDbEntity
  8
YKK_D
100
AcDbText
 10
316.32050868
 20
274.06936186
 30
0.0
 40
6.0
  1
DH
 50
90.0
 41
0.8
100
AcDbText
1001
ACAD
1000
MTEXTBEGIN
1070
    73
1070
     1
1070
    44
1040
1.0
1070
    74
1070
     0
1000
MTEXTEND
  0
LINE
  5
3BE
330
2
100
AcDbEntity
  8
YKK_D
100
AcDbLine
 10
305.320497
 20
300.72597915
 30
0.0
 11
318.32050868
 21
300.72597915
 31
0.0
  0
LINE
  5
3BF
330
2
100
AcDbEntity
  8
YKK_D
100
AcDbLine
 10
305.32052751
 20
300.87597305
 30
0.0
 11
318.32050868
 21
300.87597305
 31
0.0
  0
LINE
  5
3C0
330
2
100
AcDbEntity
  8
YKK_D
100
AcDbLine
 10
305.32052751
 20
302.12597305
 30
0.0
 11
318.32050868
 21
302.12597305
 31
0.0
  0
LINE
  5
3C1
330
2
100
AcDbEntity
  8
YKK_D
100
AcDbLine
 10
305.32052751
 20
300.87597305
 30
0.0
 11
318.32050868
 21
300.87597305
 31
0.0
  0
LINE
  5
3C2
330
2
100
AcDbEntity
  8
YKK_A1
  6
Continuous
100
AcDbLine
 10
302.32052122
 20
300.37597571
 30
0.0
 11
302.27052122
 21
300.37597571
 31
0.0
  0
LINE
  5
3C3
330
2
100
AcDbEntity
  8
YKK_D
100
AcDbLine
 10
317.32050868
 20
302.12597305
 30
0.0
 11
317.32050868
 21
314.56597305
 31
0.0
  0
TEXT
  5
3C4
330
2
100
AcDbEntity
  8
YKK_D
100
AcDbText
 10
316.32050868
 20
306.96373955
 30
0.0
 40
6.0
  1
25
 50
90.0
 41
0.8
100
AcDbText
1001
ACAD
1000
MTEXTBEGIN
1070
    73
1070
     1
1070
    44
1040
1.0
1070
    74
1070
     0
1000
MTEXTEND
  0
LINE
  5
3C5
330
2
100
AcDbEntity
  8
YKK_D
100
AcDbLine
 10
317.32050868
 20
300.87597305
 30
0.0
 11
317.32050868
 21
302.57597305
 31
0.0
  0
LINE
  5
3C6
330
2
100
AcDbEntity
  8
YKK_D
100
AcDbLine
 10
317.32050868
 20
300.72597915
 30
0.0
 11
317.32050868
 21
299.02597915
 31
0.0
  0
LINE
  5
3C7
330
2
100
AcDbEntity
  8
YKK_D
100
AcDbLine
 10
317.32050868
 20
300.87597305
 30
0.0
 11
317.32050868
 21
300.72597915
 31
0.0
  0
LINE
  5
3C8
330
2
100
AcDbEntity
  8
YKK_D
100
AcDbLine
 10
317.32050868
 20
300.87597305
 30
0.0
 11
317.32050868
 21
300.72597915
 31
0.0
  0
LINE
  5
3C9
330
2
100
AcDbEntity
  8
YKK_D
100
AcDbLine
 10
317.32050868
 20
300.87597305
 30
0.0
 11
317.32050868
 21
299.17597305
 31
0.0
  0
LINE
  5
3CA
330
2
100
AcDbEntity
  8
YKK_D
100
AcDbLine
 10
317.32050868
 20
300.87597305
 30
0.0
 11
317.32050868
 21
302.12597305
 31
0.0
  0
LWPOLYLINE
  5
3CB
330
2
100
AcDbEntity
  8
YKK_D
  6
ByBlock
100
AcDbPolyline
 90
        2
 70
     1
 43
0.85
 10
317.32050868
 20
302.23222305
 42
1.0
 10
317.32050868
 20
302.01972305
 42
1.0
  0
LWPOLYLINE
  5
3CC
330
2
100
AcDbEntity
  8
YKK_D
  6
ByBlock
100
AcDbPolyline
 90
        2
 70
     1
 43
0.85
 10
317.32050868
 20
300.76972305
 42
1.0
 10
317.32050868
 20
300.98222305
 42
1.0
  0
LWPOLYLINE
  5
3CD
330
2
100
AcDbEntity
  8
YKK_D
  6
ByBlock
100
AcDbPolyline
 90
        2
 70
     1
 43
0.85
 10
317.32050868
 20
300.61972915
 42
1.0
 10
317.32050868
 20
300.83222915
 42
1.0
  0
LWPOLYLINE
  5
3CE
330
2
100
AcDbEntity
  8
YKK_D
  6
ByBlock
100
AcDbPolyline
 90
        2
 70
     1
 43
0.85
 10
317.32050868
 20
300.98222305
 42
1.0
 10
317.32050868
 20
300.76972305
 42
1.0
  0
LWPOLYLINE
  5
3CF
330
2
100
AcDbEntity
  8
YKK_D
  6
ByBlock
100
AcDbPolyline
 90
        2
 70
     1
 43
0.85
 10
317.32050868
 20
300.61972915
 42
1.0
 10
317.32050868
 20
300.83222915
 42
1.0
  0
LINE
  5
3D0
330
2
100
AcDbEntity
  8
YKK_D
100
AcDbLine
 10
327.89476068
 20
296.93352971
 30
0.0
 11
327.89476068
 21
291.73352971
 31
0.0
  0
LINE
  5
3D1
330
2
100
AcDbEntity
  8
YKK_D
100
AcDbLine
 10
332.32050868
 20
300.37597305
 30
0.0
 11
332.32050868
 21
291.71571901
 31
0.0
  0
LINE
  5
3D2
330
2
100
AcDbEntity
  8
YKK_D
100
AcDbLine
 10
332.32050868
 20
302.12597305
 30
0.0
 11
332.32050868
 21
314.56597305
 31
0.0
  0
LINE
  5
3D3
330
2
100
AcDbEntity
  8
YKK_D
100
AcDbLine
 10
332.32050868
 20
300.37597305
 30
0.0
 11
334.82050868
 21
296.04584603
 31
0.0
  0
LINE
  5
3D4
330
2
100
AcDbEntity
  8
YKK_D
100
AcDbLine
 10
329.82050868
 20
296.04584603
 30
0.0
 11
334.82050868
 21
296.04584603
 31
0.0
  0
LINE
  5
3D5
330
2
100
AcDbEntity
  8
YKK_D
100
AcDbLine
 10
332.32050868
 20
300.37597305
 30
0.0
 11
332.32050868
 21
298.67597305
 31
0.0
  0
LINE
  5
3D6
330
2
100
AcDbEntity
  8
YKK_D
100
AcDbLine
 10
332.32050868
 20
300.37597305
 30
0.0
 11
332.32050868
 21
302.12597305
 31
0.0
  0
LINE
  5
3D7
330
2
100
AcDbEntity
  8
YKK_D
100
AcDbLine
 10
332.32050868
 20
300.37597305
 30
0.0
 11
329.82050868
 21
296.04584603
 31
0.0
  0
LWPOLYLINE
  5
3D8
330
2
100
AcDbEntity
  8
YKK_D
  6
ByBlock
100
AcDbPolyline
 90
        2
 70
     1
 43
0.85
 10
332.32050868
 20
302.23222305
 42
1.0
 10
332.32050868
 20
302.01972305
 42
1.0
  0
LINE
  5
3D9
330
2
100
AcDbEntity
  8
YKK_A1
  6
Continuous
100
AcDbLine
 10
452.21265073
 20
264.87597782
 30
0.0
 11
452.21265073
 21
259.87597812
 31
0.0
  0
LINE
  5
3DA
330
2
100
AcDbEntity
  8
YKK_A1
  6
Continuous
100
AcDbLine
 10
453.41265066
 20
264.87597782
 30
0.0
 11
453.41265066
 21
259.87597812
 31
0.0
  0
LINE
  5
3DB
330
2
100
AcDbEntity
  8
YKK_D
100
AcDbLine
 10
395.66264125
 20
302.67361099
 30
0.0
 11
395.66264125
 21
253.62597305
 31
0.0
  0
LINE
  5
3DC
330
2
100
AcDbEntity
  8
YKK_A1
  6
Continuous
100
AcDbLine
 10
410.66265321
 20
252.12597858
 30
0.0
 11
454.16265062
 21
252.12597858
 31
0.0
  0
LINE
  5
3DD
330
2
100
AcDbEntity
  8
YKK_A1
  6
Continuous
100
AcDbLine
 10
411.91265314
 20
253.37597851
 30
0.0
 11
452.91265069
 21
253.37597851
 31
0.0
  0
LINE
  5
3DE
330
2
100
AcDbEntity
  8
YKK_A1
  6
Continuous
100
AcDbLine
 10
412.11265312
 20
253.6259785
 30
0.0
 11
452.7126507
 21
253.6259785
 31
0.0
  0
LINE
  5
3DF
330
2
100
AcDbEntity
  8
YKK_D
100
AcDbLine
 10
412.11265345
 20
237.12597305
 30
0.0
 11
452.71262904
 21
237.12597305
 31
0.0
  0
LINE
  5
3E0
330
2
100
AcDbEntity
  8
YKK_D
100
AcDbLine
 10
412.41264125
 20
222.12597305
 30
0.0
 11
416.74276827
 21
219.62597305
 31
0.0
  0
LINE
  5
3E1
330
2
100
AcDbEntity
  8
YKK_D
100
AcDbLine
 10
412.41264125
 20
222.12597305
 30
0.0
 11
416.74276827
 21
224.62597305
 31
0.0
  0
LINE
  5
3E2
330
2
100
AcDbEntity
  8
YKK_D
100
AcDbLine
 10
412.41264125
 20
222.12597305
 30
0.0
 11
421.07289528
 21
222.12597305
 31
0.0
  0
LINE
  5
3E3
330
2
100
AcDbEntity
  8
YKK_D
100
AcDbLine
 10
410.66264125
 20
249.12598223
 30
0.0
 11
410.66264125
 21
221.12597305
 31
0.0
  0
LINE
  5
3E4
330
2
100
AcDbEntity
  8
YKK_D
100
AcDbLine
 10
412.01264735
 20
237.12597305
 30
0.0
 11
406.13935996
 21
229.80625864
 31
0.0
  0
TEXT
  5
3E5
330
2
100
AcDbEntity
  8
YKK_D
100
AcDbText
 10
401.99215183
 20
230.80625864
 30
0.0
 40
6.0
  1
4
 41
0.8
100
AcDbText
1001
ACAD
1000
MTEXTBEGIN
1070
    73
1070
     1
1070
    44
1040
1.0
1070
    74
1070
     0
1000
MTEXTEND
  0
LINE
  5
3E6
330
2
100
AcDbEntity
  8
YKK_D
100
AcDbLine
 10
410.66264125
 20
222.12597305
 30
0.0
 11
398.22264125
 21
222.12597305
 31
0.0
  0
LINE
  5
3E7
330
2
100
AcDbEntity
  8
YKK_D
100
AcDbLine
 10
406.13935996
 20
229.80625864
 30
0.0
 11
400.93935996
 21
229.80625864
 31
0.0
  0
TEXT
  5
3E8
330
2
100
AcDbEntity
  8
YKK_D
100
AcDbText
 10
399.67259049
 20
223.12597305
 30
0.0
 40
6.0
  1
35
 41
0.8
100
AcDbText
1001
ACAD
1000
MTEXTBEGIN
1070
    73
1070
     1
1070
    44
1040
1.0
1070
    74
1070
     0
1000
MTEXTEND
  0
LINE
  5
3E9
330
2
100
AcDbEntity
  8
YKK_D
100
AcDbLine
 10
412.41264125
 20
231.83555252
 30
0.0
 11
412.41264125
 21
221.12597305
 31
0.0
  0
LINE
  5
3EA
330
2
100
AcDbEntity
  8
YKK_D
100
AcDbLine
 10
412.41264125
 20
231.83555252
 30
0.0
 11
412.41264125
 21
221.12597305
 31
0.0
  0
LWPOLYLINE
  5
3EB
330
2
100
AcDbEntity
  8
YKK_D
  6
ByBlock
100
AcDbPolyline
 90
        2
 70
     1
 43
0.85
 10
410.55639125
 20
222.12597305
 42
1.0
 10
410.76889125
 20
222.12597305
 42
1.0
  0
LINE
  5
3EC
330
2
100
AcDbEntity
  8
YKK_D
100
AcDbLine
 10
412.41264125
 20
222.12597305
 30
0.0
 11
414.11264125
 21
222.12597305
 31
0.0
  0
LINE
  5
3ED
330
2
100
AcDbEntity
  8
YKK_D
100
AcDbLine
 10
412.41264125
 20
222.12597305
 30
0.0
 11
410.66264125
 21
222.12597305
 31
0.0
  0
LINE
  5
3EE
330
2
100
AcDbEntity
  8
YKK_D
100
AcDbLine
 10
410.66264125
 20
249.12598223
 30
0.0
 11
410.66264125
 21
236.12597305
 31
0.0
  0
LINE
  5
3EF
330
2
100
AcDbEntity
  8
YKK_D
100
AcDbLine
 10
412.11265345
 20
249.12598211
 30
0.0
 11
412.11265345
 21
236.12597305
 31
0.0
  0
LINE
  5
3F0
330
2
100
AcDbEntity
  8
YKK_D
100
AcDbLine
 10
411.91264125
 20
249.12598223
 30
0.0
 11
411.91264125
 21
236.12597305
 31
0.0
  0
LINE
  5
3F1
330
2
100
AcDbEntity
  8
YKK_D
100
AcDbLine
 10
410.66264125
 20
237.12597305
 30
0.0
 11
398.22264125
 21
237.12597305
 31
0.0
  0
TEXT
  5
3F2
330
2
100
AcDbEntity
  8
YKK_D
100
AcDbText
 10
399.66040774
 20
238.12597305
 30
0.0
 40
6.0
  1
25
 41
0.8
100
AcDbText
1001
ACAD
1000
MTEXTBEGIN
1070
    73
1070
     1
1070
    44
1040
1.0
1070
    74
1070
     0
1000
MTEXTEND
  0
LINE
  5
3F3
330
2
100
AcDbEntity
  8
YKK_D
100
AcDbLine
 10
411.91264125
 20
237.12597305
 30
0.0
 11
410.21264125
 21
237.12597305
 31
0.0
  0
LWPOLYLINE
  5
3F4
330
2
100
AcDbEntity
  8
YKK_D
  6
ByBlock
100
AcDbPolyline
 90
        2
 70
     1
 43
0.85
 10
410.55639125
 20
237.12597305
 42
1.0
 10
410.76889125
 20
237.12597305
 42
1.0
  0
LINE
  5
3F5
330
2
100
AcDbEntity
  8
YKK_D
100
AcDbLine
 10
411.91264125
 20
237.12597305
 30
0.0
 11
413.61264125
 21
237.12597305
 31
0.0
  0
LINE
  5
3F6
330
2
100
AcDbEntity
  8
YKK_D
100
AcDbLine
 10
411.91264125
 20
237.12597305
 30
0.0
 11
410.66264125
 21
237.12597305
 31
0.0
  0
LINE
  5
3F7
330
2
100
AcDbEntity
  8
YKK_D
100
AcDbLine
 10
412.11265345
 20
237.12597305
 30
0.0
 11
413.81265345
 21
237.12597305
 31
0.0
  0
LINE
  5
3F8
330
2
100
AcDbEntity
  8
YKK_D
100
AcDbLine
 10
411.91264125
 20
237.12597305
 30
0.0
 11
412.11265345
 21
237.12597305
 31
0.0
  0
LINE
  5
3F9
330
2
100
AcDbEntity
  8
YKK_D
100
AcDbLine
 10
411.91264125
 20
237.12597305
 30
0.0
 11
412.11265345
 21
237.12597305
 31
0.0
  0
LWPOLYLINE
  5
3FA
330
2
100
AcDbEntity
  8
YKK_D
  6
ByBlock
100
AcDbPolyline
 90
        2
 70
     1
 43
0.85
 10
412.21890345
 20
237.12597305
 42
1.0
 10
412.00640345
 20
237.12597305
 42
1.0
  0
LWPOLYLINE
  5
3FB
330
2
100
AcDbEntity
  8
YKK_D
  6
ByBlock
100
AcDbPolyline
 90
        2
 70
     1
 43
0.85
 10
411.80639125
 20
237.12597305
 42
1.0
 10
412.01889125
 20
237.12597305
 42
1.0
  0
LWPOLYLINE
  5
3FC
330
2
100
AcDbEntity
  8
YKK_D
  6
ByBlock
100
AcDbPolyline
 90
        2
 70
     1
 43
0.85
 10
412.21890345
 20
237.12597305
 42
1.0
 10
412.00640345
 20
237.12597305
 42
1.0
  0
LINE
  5
3FD
330
2
100
AcDbEntity
  8
YKK_D
100
AcDbLine
 10
407.66262933
 20
253.62597305
 30
0.0
 11
394.66264125
 21
253.62597305
 31
0.0
  0
LWPOLYLINE
  5
3FE
330
2
100
AcDbEntity
  8
YKK_D
  6
ByBlock
100
AcDbPolyline
 90
        2
 70
     1
 43
0.85
 10
395.66264125
 20
253.73222305
 42
1.0
 10
395.66264125
 20
253.51972305
 42
1.0
  0
LINE
  5
3FF
330
2
100
AcDbEntity
  8
YKK_A1
  6
Continuous
100
AcDbLine
 10
412.41265311
 20
252.12597858
 30
0.0
 11
412.41265311
 21
252.17597858
 31
0.0
  0
LINE
  5
400
330
2
100
AcDbEntity
  8
YKK_A1
  6
YHIDDEN_1
100
AcDbLine
 10
413.36265305
 20
253.6259785
 30
0.0
 11
413.36265305
 21
253.61774822
 31
0.0
  0
LINE
  5
401
330
2
100
AcDbEntity
  8
YKK_A1
  6
YHIDDEN_1
100
AcDbLine
 10
410.66265321
 20
261.37597803
 30
0.0
 11
410.65869664
 21
261.37597803
 31
0.0
  0
LINE
  5
402
330
2
100
AcDbEntity
  8
YKK_D
100
AcDbLine
 10
454.16264125
 20
249.12598223
 30
0.0
 11
454.16264125
 21
221.12597305
 31
0.0
  0
LINE
  5
403
330
2
100
AcDbEntity
  8
YKK_D
100
AcDbLine
 10
452.81263514
 20
237.12597305
 30
0.0
 11
458.18499525
 21
229.71769496
 31
0.0
  0
LINE
  5
404
330
2
100
AcDbEntity
  8
YKK_D
100
AcDbLine
 10
417.41264125
 20
222.12597305
 30
0.0
 11
447.41264125
 21
222.12597305
 31
0.0
  0
LINE
  5
405
330
2
100
AcDbEntity
  8
YKK_D
100
AcDbLine
 10
416.74276827
 20
219.62597305
 30
0.0
 11
416.74276827
 21
224.62597305
 31
0.0
  0
TEXT
  5
406
330
2
100
AcDbEntity
  8
YKK_D
100
AcDbText
 10
430.87761587
 20
223.12597305
 30
0.0
 40
6.0
  1
W
 41
0.8
100
AcDbText
1001
ACAD
1000
MTEXTBEGIN
1070
    73
1070
     1
1070
    44
1040
1.0
1070
    74
1070
     0
1000
MTEXTEND
  0
LINE
  5
407
330
2
100
AcDbEntity
  8
YKK_D
100
AcDbLine
 10
452.41264125
 20
222.12597305
 30
0.0
 11
448.08251423
 21
224.62597305
 31
0.0
  0
LINE
  5
408
330
2
100
AcDbEntity
  8
YKK_D
100
AcDbLine
 10
452.41264125
 20
222.12597305
 30
0.0
 11
448.08251423
 21
219.62597305
 31
0.0
  0
LINE
  5
409
330
2
100
AcDbEntity
  8
YKK_D
100
AcDbLine
 10
452.41264125
 20
222.12597305
 30
0.0
 11
443.75238721
 21
222.12597305
 31
0.0
  0
LINE
  5
40A
330
2
100
AcDbEntity
  8
YKK_D
100
AcDbLine
 10
448.08251423
 20
224.62597305
 30
0.0
 11
448.08251423
 21
219.62597305
 31
0.0
  0
LINE
  5
40B
330
2
100
AcDbEntity
  8
YKK_D
100
AcDbLine
 10
452.41264125
 20
231.63049156
 30
0.0
 11
452.41264125
 21
221.12597305
 31
0.0
  0
LINE
  5
40C
330
2
100
AcDbEntity
  8
YKK_D
100
AcDbLine
 10
452.41264125
 20
231.63049156
 30
0.0
 11
452.41264125
 21
221.12597305
 31
0.0
  0
LINE
  5
40D
330
2
100
AcDbEntity
  8
YKK_D
100
AcDbLine
 10
452.41264125
 20
222.12597305
 30
0.0
 11
450.71264125
 21
222.12597305
 31
0.0
  0
LINE
  5
40E
330
2
100
AcDbEntity
  8
YKK_D
100
AcDbLine
 10
452.41264125
 20
222.12597305
 30
0.0
 11
454.16264125
 21
222.12597305
 31
0.0
  0
LWPOLYLINE
  5
40F
330
2
100
AcDbEntity
  8
YKK_D
  6
ByBlock
100
AcDbPolyline
 90
        2
 70
     1
 43
0.85
 10
454.26889125
 20
222.12597305
 42
1.0
 10
454.05639125
 20
222.12597305
 42
1.0
  0
TEXT
  5
410
330
2
100
AcDbEntity
  8
YKK_D
100
AcDbText
 10
429.19639759
 20
238.12597305
 30
0.0
 40
6.0
  1
DW
 41
0.8
100
AcDbText
1001
ACAD
1000
MTEXTBEGIN
1070
    73
1070
     1
1070
    44
1040
1.0
1070
    74
1070
     0
1000
MTEXTEND
  0
LINE
  5
411
330
2
100
AcDbEntity
  8
YKK_D
100
AcDbLine
 10
454.16264125
 20
249.12598223
 30
0.0
 11
454.16264125
 21
236.12597305
 31
0.0
  0
LINE
  5
412
330
2
100
AcDbEntity
  8
YKK_D
100
AcDbLine
 10
452.91264125
 20
249.12598223
 30
0.0
 11
452.91264125
 21
236.12597305
 31
0.0
  0
LINE
  5
413
330
2
100
AcDbEntity
  8
YKK_D
100
AcDbLine
 10
452.71262904
 20
249.12598211
 30
0.0
 11
452.71262904
 21
236.12597305
 31
0.0
  0
LINE
  5
414
330
2
100
AcDbEntity
  8
YKK_D
100
AcDbLine
 10
452.91264125
 20
237.12597305
 30
0.0
 11
451.21264125
 21
237.12597305
 31
0.0
  0
LINE
  5
415
330
2
100
AcDbEntity
  8
YKK_D
100
AcDbLine
 10
452.91264125
 20
237.12597305
 30
0.0
 11
454.16264125
 21
237.12597305
 31
0.0
  0
LINE
  5
416
330
2
100
AcDbEntity
  8
YKK_D
100
AcDbLine
 10
452.71262904
 20
237.12597305
 30
0.0
 11
451.01262904
 21
237.12597305
 31
0.0
  0
LINE
  5
417
330
2
100
AcDbEntity
  8
YKK_D
100
AcDbLine
 10
452.91264125
 20
237.12597305
 30
0.0
 11
454.61264125
 21
237.12597305
 31
0.0
  0
LINE
  5
418
330
2
100
AcDbEntity
  8
YKK_D
100
AcDbLine
 10
452.71262904
 20
237.12597305
 30
0.0
 11
452.91264125
 21
237.12597305
 31
0.0
  0
LINE
  5
419
330
2
100
AcDbEntity
  8
YKK_D
100
AcDbLine
 10
452.71262904
 20
237.12597305
 30
0.0
 11
452.91264125
 21
237.12597305
 31
0.0
  0
LWPOLYLINE
  5
41A
330
2
100
AcDbEntity
  8
YKK_D
  6
ByBlock
100
AcDbPolyline
 90
        2
 70
     1
 43
0.85
 10
452.60637904
 20
237.12597305
 42
1.0
 10
452.81887904
 20
237.12597305
 42
1.0
  0
LWPOLYLINE
  5
41B
330
2
100
AcDbEntity
  8
YKK_D
  6
ByBlock
100
AcDbPolyline
 90
        2
 70
     1
 43
0.85
 10
452.60637904
 20
237.12597305
 42
1.0
 10
452.81887904
 20
237.12597305
 42
1.0
  0
LWPOLYLINE
  5
41C
330
2
100
AcDbEntity
  8
YKK_D
  6
ByBlock
100
AcDbPolyline
 90
        2
 70
     1
 43
0.85
 10
454.26889125
 20
237.12597305
 42
1.0
 10
454.05639125
 20
237.12597305
 42
1.0
  0
LWPOLYLINE
  5
41D
330
2
100
AcDbEntity
  8
YKK_D
  6
ByBlock
100
AcDbPolyline
 90
        2
 70
     1
 43
0.85
 10
452.80639125
 20
237.12597305
 42
1.0
 10
453.01889125
 20
237.12597305
 42
1.0
  0
LINE
  5
41E
330
2
100
AcDbEntity
  8
YKK_A1
  6
Continuous
100
AcDbLine
 10
452.91265069
 20
252.12597858
 30
0.0
 11
452.91265069
 21
259.87597812
 31
0.0
  0
LINE
  5
41F
330
2
100
AcDbEntity
  8
YKK_A1
  6
Continuous
100
AcDbLine
 10
452.7126507
 20
259.87597812
 30
0.0
 11
452.7126507
 21
253.6259785
 31
0.0
  0
LINE
  5
420
330
2
100
AcDbEntity
  8
YKK_A1
  6
Continuous
100
AcDbLine
 10
452.41265072
 20
252.12597858
 30
0.0
 11
452.41265072
 21
252.17597858
 31
0.0
  0
LINE
  5
421
330
2
100
AcDbEntity
  8
YKK_A1
  6
Continuous
100
AcDbLine
 10
454.16265062
 20
253.87597848
 30
0.0
 11
454.11265062
 21
253.87597848
 31
0.0
  0
LINE
  5
422
330
2
100
AcDbEntity
  8
YKK_A1
  6
YHIDDEN_1
100
AcDbLine
 10
451.46265078
 20
253.37597851
 30
0.0
 11
451.46265078
 21
253.36421312
 31
0.0
  0
LINE
  5
423
330
2
100
AcDbEntity
  8
YKK_A1
  6
YHIDDEN_1
100
AcDbLine
 10
454.16265062
 20
255.12597841
 30
0.0
 11
454.17406929
 21
255.12597841
 31
0.0
  0
LINE
  5
424
330
2
100
AcDbEntity
  8
YKK_A1
  6
Continuous
100
AcDbLine
 10
452.21265073
 20
259.87597812
 30
0.0
 11
453.41265066
 21
259.87597812
 31
0.0
  0
LINE
  5
425
330
2
100
AcDbEntity
  8
YKK_A1
  6
YCENTER_1
100
AcDbLine
 10
412.11265312
 20
302.67362098
 30
0.0
 11
422.10757492
 21
302.67362098
 31
0.0
  0
TEXT
  5
426
330
2
100
AcDbEntity
  8
YKK_D
100
AcDbText
 10
394.66264125
 20
276.56602042
 30
0.0
 40
6.0
  1
C
 50
90.0
 41
0.8
100
AcDbText
1001
ACAD
1000
MTEXTBEGIN
1070
    73
1070
     1
1070
    44
1040
1.0
1070
    74
1070
     0
1000
MTEXTEND
  0
LINE
  5
427
330
2
100
AcDbEntity
  8
YKK_D
100
AcDbLine
 10
407.66268988
 20
302.67361099
 30
0.0
 11
394.66264125
 21
302.67361099
 31
0.0
  0
LWPOLYLINE
  5
428
330
2
100
AcDbEntity
  8
YKK_D
  6
ByBlock
100
AcDbPolyline
 90
        2
 70
     1
 43
0.85
 10
395.66264125
 20
302.56736099
 42
1.0
 10
395.66264125
 20
302.77986099
 42
1.0
  0
LINE
  5
429
330
2
100
AcDbEntity
  8
YKK_A1
  6
Continuous
100
AcDbLine
 10
452.91265069
 20
264.87597782
 30
0.0
 11
452.91265069
 21
297.67362128
 31
0.0
  0
LINE
  5
42A
330
2
100
AcDbEntity
  8
YKK_A1
  6
Continuous
100
AcDbLine
 10
452.7126507
 20
297.67362128
 30
0.0
 11
452.7126507
 21
264.87597782
 31
0.0
  0
LINE
  5
42B
330
2
100
AcDbEntity
  8
YKK_A1
  6
Continuous
100
AcDbLine
 10
452.21265073
 20
264.87597782
 30
0.0
 11
453.41265066
 21
264.87597782
 31
0.0
  0
LINE
  5
42C
330
2
100
AcDbEntity
  8
YKK_A1
  6
Continuous
100
AcDbLine
 10
417.83765278
 20
299.89862114
 30
0.0
 11
417.83765278
 21
305.44862081
 31
0.0
  0
LINE
  5
42D
330
2
100
AcDbEntity
  8
YKK_A1
  6
Continuous
100
AcDbLine
 10
416.48765286
 20
305.44862081
 30
0.0
 11
416.48765286
 21
299.89862114
 31
0.0
  0
LINE
  5
42E
330
2
100
AcDbEntity
  8
YKK_A1
  6
Continuous
100
AcDbLine
 10
416.56265286
 20
299.92362114
 30
0.0
 11
416.56265286
 21
305.42362081
 31
0.0
  0
LINE
  5
42F
330
2
100
AcDbEntity
  8
YKK_A1
  6
Continuous
100
AcDbLine
 10
417.76265279
 20
299.92362114
 30
0.0
 11
417.76265279
 21
305.42362081
 31
0.0
  0
LINE
  5
430
330
2
100
AcDbEntity
  8
YKK_A1
  6
Continuous
100
AcDbLine
 10
416.76265285
 20
304.82362085
 30
0.0
 11
416.76265285
 21
301.82362103
 31
0.0
  0
LINE
  5
431
330
2
100
AcDbEntity
  8
YKK_A1
  6
Continuous
100
AcDbLine
 10
417.5626528
 20
304.82362085
 30
0.0
 11
417.5626528
 21
301.82362103
 31
0.0
  0
ARC
  5
432
330
2
100
AcDbEntity
  8
YKK_A1
  6
Continuous
100
AcDbCircle
 10
417.33765281
 20
300.99862108
 30
0.0
 40
0.2749999836087227
100
AcDbArc
 50
270.0
 51
90.0
  0
ARC
  5
433
330
2
100
AcDbEntity
  8
YKK_A1
  6
Continuous
100
AcDbCircle
 10
416.98765283
 20
300.99862108
 30
0.0
 40
0.2249999865889549
100
AcDbArc
 50
90.0
 51
270.0
  0
ARC
  5
434
330
2
100
AcDbEntity
  8
YKK_A1
  6
Continuous
100
AcDbCircle
 10
417.16265282
 20
301.82362103
 30
0.0
 40
0.3999999761581421
100
AcDbArc
 50
180.0
 51
0.0
  0
ARC
  5
435
330
2
100
AcDbEntity
  8
YKK_A1
  6
Continuous
100
AcDbCircle
 10
416.98765283
 20
300.99862108
 30
0.0
 40
0.2749999836087227
100
AcDbArc
 50
90.0
 51
270.0
  0
LINE
  5
436
330
2
100
AcDbEntity
  8
YKK_A1
  6
Continuous
100
AcDbLine
 10
416.98765283
 20
300.72362109
 30
0.0
 11
417.33765281
 21
300.72362109
 31
0.0
  0
LINE
  5
437
330
2
100
AcDbEntity
  8
YKK_A1
  6
Continuous
100
AcDbLine
 10
417.33765281
 20
301.27362106
 30
0.0
 11
416.98765283
 21
301.27362106
 31
0.0
  0
ARC
  5
438
330
2
100
AcDbEntity
  8
YKK_A1
  6
Continuous
100
AcDbCircle
 10
417.33765281
 20
300.99862108
 30
0.0
 40
0.2249999865889549
100
AcDbArc
 50
270.0
 51
90.0
  0
CIRCLE
  5
439
330
2
100
AcDbEntity
  8
YKK_A1
  6
Continuous
100
AcDbCircle
 10
417.16265282
 20
300.51112111
 30
0.0
 40
0.0874999947845936
  0
LINE
  5
43A
330
2
100
AcDbEntity
  8
YKK_A1
  6
Continuous
100
AcDbLine
 10
417.33765281
 20
301.22362106
 30
0.0
 11
416.98765283
 21
301.22362106
 31
0.0
  0
LINE
  5
43B
330
2
100
AcDbEntity
  8
YKK_A1
  6
Continuous
100
AcDbLine
 10
416.98765283
 20
300.77362109
 30
0.0
 11
417.33765281
 21
300.77362109
 31
0.0
  0
LINE
  5
43C
330
2
100
AcDbEntity
  8
YKK_A1
  6
Continuous
100
AcDbLine
 10
416.58765286
 20
299.79862115
 30
0.0
 11
417.73765279
 21
299.79862115
 31
0.0
  0
ARC
  5
43D
330
2
100
AcDbEntity
  8
YKK_A1
  6
Continuous
100
AcDbCircle
 10
416.58765286
 20
299.89862114
 30
0.0
 40
0.0999999940395355
100
AcDbArc
 50
180.0
 51
270.0
  0
ARC
  5
43E
330
2
100
AcDbEntity
  8
YKK_A1
  6
Continuous
100
AcDbCircle
 10
417.73765279
 20
299.89862114
 30
0.0
 40
0.0999999940395355
100
AcDbArc
 50
270.0
 51
0.0
  0
LINE
  5
43F
330
2
100
AcDbEntity
  8
YKK_A1
  6
Continuous
100
AcDbLine
 10
416.61265286
 20
299.87362114
 30
0.0
 11
417.71265279
 21
299.87362114
 31
0.0
  0
ARC
  5
440
330
2
100
AcDbEntity
  8
YKK_A1
  6
Continuous
100
AcDbCircle
 10
416.61265286
 20
299.92362114
 30
0.0
 40
0.0499999970197678
100
AcDbArc
 50
180.0
 51
270.0
  0
ARC
  5
441
330
2
100
AcDbEntity
  8
YKK_A1
  6
Continuous
100
AcDbCircle
 10
417.71265279
 20
299.92362114
 30
0.0
 40
0.0499999970197678
100
AcDbArc
 50
270.0
 51
0.0
  0
LINE
  5
442
330
2
100
AcDbEntity
  8
YKK_A1
  6
Continuous
100
AcDbLine
 10
417.73765279
 20
305.54862081
 30
0.0
 11
416.58765286
 21
305.54862081
 31
0.0
  0
ARC
  5
443
330
2
100
AcDbEntity
  8
YKK_A1
  6
Continuous
100
AcDbCircle
 10
416.58765286
 20
305.44862081
 30
0.0
 40
0.0999999940395355
100
AcDbArc
 50
90.0
 51
180.0
  0
ARC
  5
444
330
2
100
AcDbEntity
  8
YKK_A1
  6
Continuous
100
AcDbCircle
 10
417.73765279
 20
305.44862081
 30
0.0
 40
0.0999999940395355
100
AcDbArc
 50
0.0
 51
90.0
  0
LINE
  5
445
330
2
100
AcDbEntity
  8
YKK_A1
  6
Continuous
100
AcDbLine
 10
416.61265286
 20
305.47362081
 30
0.0
 11
417.71265279
 21
305.47362081
 31
0.0
  0
LINE
  5
446
330
2
100
AcDbEntity
  8
YKK_A1
  6
Continuous
100
AcDbLine
 10
416.76265285
 20
304.82362085
 30
0.0
 11
417.5626528
 21
304.82362085
 31
0.0
  0
ARC
  5
447
330
2
100
AcDbEntity
  8
YKK_A1
  6
Continuous
100
AcDbCircle
 10
416.61265286
 20
305.42362081
 30
0.0
 40
0.0499999970197678
100
AcDbArc
 50
90.0
 51
180.0
  0
ARC
  5
448
330
2
100
AcDbEntity
  8
YKK_A1
  6
Continuous
100
AcDbCircle
 10
417.71265279
 20
305.42362081
 30
0.0
 40
0.0499999970197678
100
AcDbArc
 50
0.0
 51
90.0
  0
LINE
  5
449
330
2
100
AcDbEntity
  8
YKK_A1
  6
Continuous
100
AcDbLine
 10
452.21265073
 20
297.67362128
 30
0.0
 11
453.41265066
 21
297.67362128
 31
0.0
  0
LINE
  5
44A
330
2
100
AcDbEntity
  8
YKK_A1
  6
Continuous
100
AcDbLine
 10
452.21265073
 20
302.67362098
 30
0.0
 11
453.41265066
 21
302.67362098
 31
0.0
  0
LINE
  5
44B
330
2
100
AcDbEntity
  8
YKK_A1
  6
Continuous
100
AcDbLine
 10
452.21265073
 20
297.67362128
 30
0.0
 11
452.21265073
 21
302.67362098
 31
0.0
  0
LINE
  5
44C
330
2
100
AcDbEntity
  8
YKK_A1
  6
Continuous
100
AcDbLine
 10
453.41265066
 20
297.67362128
 30
0.0
 11
453.41265066
 21
302.67362098
 31
0.0
  0
LINE
  5
44D
330
2
100
AcDbEntity
  8
YKK_A1
  6
Continuous
100
AcDbLine
 10
454.16265062
 20
352.12597262
 30
0.0
 11
410.66265321
 21
352.12597262
 31
0.0
  0
LINE
  5
44E
330
2
100
AcDbEntity
  8
YKK_A1
  6
Continuous
100
AcDbLine
 10
411.91265314
 20
350.8759727
 30
0.0
 11
452.91265069
 21
350.8759727
 31
0.0
  0
LINE
  5
44F
330
2
100
AcDbEntity
  8
YKK_A1
  6
Continuous
100
AcDbLine
 10
412.11265312
 20
350.72597271
 30
0.0
 11
452.7126507
 21
350.72597271
 31
0.0
  0
LINE
  5
450
330
2
100
AcDbEntity
  8
YKK_A1
  6
YHIDDEN_1
100
AcDbLine
 10
410.66265321
 20
342.87597318
 30
0.0
 11
410.65231582
 21
342.87597318
 31
0.0
  0
LINE
  5
451
330
2
100
AcDbEntity
  8
YKK_A1
  6
YCENTER_1
100
AcDbLine
 10
419.91265266
 20
352.12597262
 30
0.0
 11
419.91265266
 21
352.38329303
 31
0.0
  0
LINE
  5
452
330
2
100
AcDbEntity
  8
YKK_A1
  6
Continuous
100
AcDbLine
 10
452.7126507
 20
350.72597271
 30
0.0
 11
452.7126507
 21
342.37597321
 31
0.0
  0
LINE
  5
453
330
2
100
AcDbEntity
  8
YKK_A1
  6
Continuous
100
AcDbLine
 10
452.91265069
 20
342.37597321
 30
0.0
 11
452.91265069
 21
352.12597262
 31
0.0
  0
LINE
  5
454
330
2
100
AcDbEntity
  8
YKK_A1
  6
Continuous
100
AcDbLine
 10
452.21265073
 20
342.37597321
 30
0.0
 11
453.41265066
 21
342.37597321
 31
0.0
  0
LINE
  5
455
330
2
100
AcDbEntity
  8
YKK_A1
  6
Continuous
100
AcDbLine
 10
452.21265073
 20
337.3759735
 30
0.0
 11
453.41265066
 21
337.3759735
 31
0.0
  0
LINE
  5
456
330
2
100
AcDbEntity
  8
YKK_A1
  6
Continuous
100
AcDbLine
 10
452.21265073
 20
342.37597321
 30
0.0
 11
452.21265073
 21
337.3759735
 31
0.0
  0
LINE
  5
457
330
2
100
AcDbEntity
  8
YKK_A1
  6
Continuous
100
AcDbLine
 10
453.41265066
 20
342.37597321
 30
0.0
 11
453.41265066
 21
337.3759735
 31
0.0
  0
LINE
  5
458
330
2
100
AcDbEntity
  8
YKK_A1
  6
YCENTER_1
100
AcDbLine
 10
444.91265117
 20
352.12597262
 30
0.0
 11
444.91265117
 21
352.29135638
 31
0.0
  0
LINE
  5
459
330
2
100
AcDbEntity
  8
YKK_A1
  6
Continuous
100
AcDbLine
 10
454.16265062
 20
350.37597273
 30
0.0
 11
454.11265062
 21
350.37597273
 31
0.0
  0
LINE
  5
45A
330
2
100
AcDbEntity
  8
YKK_A1
  6
YHIDDEN_1
100
AcDbLine
 10
454.16265062
 20
349.47597278
 30
0.0
 11
454.18038219
 21
349.47597278
 31
0.0
  0
LINE
  5
45B
330
2
100
AcDbEntity
  8
YKK_D
100
AcDbLine
 10
469.16264125
 20
350.72597915
 30
0.0
 11
469.16264125
 21
253.62597305
 31
0.0
  0
LINE
  5
45C
330
2
100
AcDbEntity
  8
YKK_D
100
AcDbLine
 10
484.16264125
 20
345.37597305
 30
0.0
 11
484.16264125
 21
258.87597305
 31
0.0
  0
LINE
  5
45D
330
2
100
AcDbEntity
  8
YKK_D
100
AcDbLine
 10
474.23715373
 20
253.87597305
 30
0.0
 11
485.16264125
 21
253.87597305
 31
0.0
  0
LINE
  5
45E
330
2
100
AcDbEntity
  8
YKK_D
100
AcDbLine
 10
474.23715373
 20
253.87597305
 30
0.0
 11
485.16264125
 21
253.87597305
 31
0.0
  0
TEXT
  5
45F
330
2
100
AcDbEntity
  8
YKK_D
100
AcDbText
 10
483.16264125
 20
241.13592229
 30
0.0
 40
6.0
  1
35
 50
90.0
 41
0.8
100
AcDbText
1001
ACAD
1000
MTEXTBEGIN
1070
    73
1070
     1
1070
    44
1040
1.0
1070
    74
1070
     0
1000
MTEXTEND
  0
LINE
  5
460
330
2
100
AcDbEntity
  8
YKK_D
100
AcDbLine
 10
484.16264125
 20
253.87597305
 30
0.0
 11
481.66264125
 21
258.20610007
 31
0.0
  0
LINE
  5
461
330
2
100
AcDbEntity
  8
YKK_D
100
AcDbLine
 10
486.66264125
 20
258.20610007
 30
0.0
 11
481.66264125
 21
258.20610007
 31
0.0
  0
TEXT
  5
462
330
2
100
AcDbEntity
  8
YKK_D
100
AcDbText
 10
468.68045082
 20
244.78531645
 30
0.0
 40
6.0
  1
25
 50
90.0
 41
0.8
100
AcDbText
1001
ACAD
1000
MTEXTBEGIN
1070
    73
1070
     1
1070
    44
1040
1.0
1070
    74
1070
     0
1000
MTEXTEND
  0
LINE
  5
463
330
2
100
AcDbEntity
  8
YKK_D
100
AcDbLine
 10
469.16264125
 20
253.50097305
 30
0.0
 11
478.47631478
 21
258.06069538
 31
0.0
  0
TEXT
  5
464
330
2
100
AcDbEntity
  8
YKK_D
100
AcDbText
 10
477.47631478
 20
259.15003548
 30
0.0
 40
6.0
  1
5
 50
90.0
 41
0.8
100
AcDbText
1001
ACAD
1000
MTEXTBEGIN
1070
    73
1070
     1
1070
    44
1040
1.0
1070
    74
1070
     0
1000
MTEXTEND
  0
LINE
  5
465
330
2
100
AcDbEntity
  8
YKK_D
100
AcDbLine
 10
469.16264125
 20
253.62597305
 30
0.0
 11
469.16264125
 21
255.32597305
 31
0.0
  0
LINE
  5
466
330
2
100
AcDbEntity
  8
YKK_D
100
AcDbLine
 10
469.16264125
 20
253.37597305
 30
0.0
 11
469.16264125
 21
251.67597305
 31
0.0
  0
LINE
  5
467
330
2
100
AcDbEntity
  8
YKK_D
100
AcDbLine
 10
469.16264125
 20
253.62597305
 30
0.0
 11
469.16264125
 21
253.37597305
 31
0.0
  0
LINE
  5
468
330
2
100
AcDbEntity
  8
YKK_D
100
AcDbLine
 10
469.16264125
 20
253.62597305
 30
0.0
 11
469.16264125
 21
253.37597305
 31
0.0
  0
LINE
  5
469
330
2
100
AcDbEntity
  8
YKK_D
100
AcDbLine
 10
469.16264125
 20
252.12597305
 30
0.0
 11
469.16264125
 21
250.42597305
 31
0.0
  0
LINE
  5
46A
330
2
100
AcDbEntity
  8
YKK_D
100
AcDbLine
 10
469.16264125
 20
253.37597305
 30
0.0
 11
469.16264125
 21
255.07597305
 31
0.0
  0
LINE
  5
46B
330
2
100
AcDbEntity
  8
YKK_D
100
AcDbLine
 10
469.16264125
 20
252.12597305
 30
0.0
 11
469.16264125
 21
253.37597305
 31
0.0
  0
LWPOLYLINE
  5
46C
330
2
100
AcDbEntity
  8
YKK_D
  6
ByBlock
100
AcDbPolyline
 90
        2
 70
     1
 43
0.85
 10
469.16264125
 20
252.01972305
 42
1.0
 10
469.16264125
 20
252.23222305
 42
1.0
  0
LWPOLYLINE
  5
46D
330
2
100
AcDbEntity
  8
YKK_D
  6
ByBlock
100
AcDbPolyline
 90
        2
 70
     1
 43
0.85
 10
469.16264125
 20
253.48222305
 42
1.0
 10
469.16264125
 20
253.26972305
 42
1.0
  0
LWPOLYLINE
  5
46E
330
2
100
AcDbEntity
  8
YKK_D
  6
ByBlock
100
AcDbPolyline
 90
        2
 70
     1
 43
0.85
 10
469.16264125
 20
253.26972305
 42
1.0
 10
469.16264125
 20
253.48222305
 42
1.0
  0
LWPOLYLINE
  5
46F
330
2
100
AcDbEntity
  8
YKK_D
  6
ByBlock
100
AcDbPolyline
 90
        2
 70
     1
 43
0.85
 10
469.16264125
 20
253.73222305
 42
1.0
 10
469.16264125
 20
253.51972305
 42
1.0
  0
LWPOLYLINE
  5
470
330
2
100
AcDbEntity
  8
YKK_D
  6
ByBlock
100
AcDbPolyline
 90
        2
 70
     1
 43
0.85
 10
469.16264125
 20
253.73222305
 42
1.0
 10
469.16264125
 20
253.51972305
 42
1.0
  0
LINE
  5
471
330
2
100
AcDbEntity
  8
YKK_D
100
AcDbLine
 10
478.47631478
 20
258.06069538
 30
0.0
 11
478.47631478
 21
263.26069538
 31
0.0
  0
LINE
  5
472
330
2
100
AcDbEntity
  8
YKK_D
100
AcDbLine
 10
484.16264125
 20
252.12597305
 30
0.0
 11
484.16264125
 21
239.68597305
 31
0.0
  0
LINE
  5
473
330
2
100
AcDbEntity
  8
YKK_D
100
AcDbLine
 10
484.16264125
 20
253.87597305
 30
0.0
 11
486.66264125
 21
258.20610007
 31
0.0
  0
LINE
  5
474
330
2
100
AcDbEntity
  8
YKK_D
100
AcDbLine
 10
484.16264125
 20
253.87597305
 30
0.0
 11
484.16264125
 21
262.53622709
 31
0.0
  0
LINE
  5
475
330
2
100
AcDbEntity
  8
YKK_D
100
AcDbLine
 10
484.16264125
 20
253.87597305
 30
0.0
 11
484.16264125
 21
255.57597305
 31
0.0
  0
LINE
  5
476
330
2
100
AcDbEntity
  8
YKK_D
100
AcDbLine
 10
484.16264125
 20
253.87597305
 30
0.0
 11
484.16264125
 21
252.12597305
 31
0.0
  0
LWPOLYLINE
  5
477
330
2
100
AcDbEntity
  8
YKK_D
  6
ByBlock
100
AcDbPolyline
 90
        2
 70
     1
 43
0.85
 10
484.16264125
 20
252.01972305
 42
1.0
 10
484.16264125
 20
252.23222305
 42
1.0
  0
TEXT
  5
478
330
2
100
AcDbEntity
  8
YKK_D
100
AcDbText
 10
483.16264125
 20
300.57876493
 30
0.0
 40
6.0
  1
H
 50
90.0
 41
0.8
100
AcDbText
1001
ACAD
1000
MTEXTBEGIN
1070
    73
1070
     1
1070
    44
1040
1.0
1070
    74
1070
     0
1000
MTEXTEND
  0
TEXT
  5
479
330
2
100
AcDbEntity
  8
YKK_D
100
AcDbText
 10
468.16264125
 20
299.06936186
 30
0.0
 40
6.0
  1
DH
 50
90.0
 41
0.8
100
AcDbText
1001
ACAD
1000
MTEXTBEGIN
1070
    73
1070
     1
1070
    44
1040
1.0
1070
    74
1070
     0
1000
MTEXTEND
  0
LINE
  5
47A
330
2
100
AcDbEntity
  8
YKK_D
100
AcDbLine
 10
469.16264125
 20
352.12597305
 30
0.0
 11
469.16264125
 21
364.56597305
 31
0.0
  0
LINE
  5
47B
330
2
100
AcDbEntity
  8
YKK_D
100
AcDbLine
 10
484.16264125
 20
352.12597305
 30
0.0
 11
484.16264125
 21
364.56597305
 31
0.0
  0
TEXT
  5
47C
330
2
100
AcDbEntity
  8
YKK_D
100
AcDbText
 10
468.16264125
 20
356.96373955
 30
0.0
 40
6.0
  1
25
 50
90.0
 41
0.8
100
AcDbText
1001
ACAD
1000
MTEXTBEGIN
1070
    73
1070
     1
1070
    44
1040
1.0
1070
    74
1070
     0
1000
MTEXTEND
  0
TEXT
  5
47D
330
2
100
AcDbEntity
  8
YKK_D
100
AcDbText
 10
483.16264125
 20
356.97592229
 30
0.0
 40
6.0
  1
35
 50
90.0
 41
0.8
100
AcDbText
1001
ACAD
1000
MTEXTBEGIN
1070
    73
1070
     1
1070
    44
1040
1.0
1070
    74
1070
     0
1000
MTEXTEND
  0
LINE
  5
47E
330
2
100
AcDbEntity
  8
YKK_D
100
AcDbLine
 10
474.34365817
 20
350.37597305
 30
0.0
 11
485.16264125
 21
350.37597305
 31
0.0
  0
LINE
  5
47F
330
2
100
AcDbEntity
  8
YKK_D
100
AcDbLine
 10
474.34365817
 20
350.37597305
 30
0.0
 11
485.16264125
 21
350.37597305
 31
0.0
  0
LINE
  5
480
330
2
100
AcDbEntity
  8
YKK_D
100
AcDbLine
 10
484.16264125
 20
350.37597305
 30
0.0
 11
481.66264125
 21
346.04584603
 31
0.0
  0
LINE
  5
481
330
2
100
AcDbEntity
  8
YKK_D
100
AcDbLine
 10
481.66264125
 20
346.04584603
 30
0.0
 11
486.66264125
 21
346.04584603
 31
0.0
  0
LINE
  5
482
330
2
100
AcDbEntity
  8
YKK_D
100
AcDbLine
 10
478.12602478
 20
346.2181328
 30
0.0
 11
478.12602478
 21
341.0181328
 31
0.0
  0
TEXT
  5
483
330
2
100
AcDbEntity
  8
YKK_D
100
AcDbText
 10
477.12602478
 20
342.10747291
 30
0.0
 40
6.0
  1
3
 50
90.0
 41
0.8
100
AcDbText
1001
ACAD
1000
MTEXTBEGIN
1070
    73
1070
     1
1070
    44
1040
1.0
1070
    74
1070
     0
1000
MTEXTEND
  0
LINE
  5
484
330
2
100
AcDbEntity
  8
YKK_D
100
AcDbLine
 10
469.16264125
 20
350.8009761
 30
0.0
 11
478.12602478
 21
346.2181328
 31
0.0
  0
LINE
  5
485
330
2
100
AcDbEntity
  8
YKK_D
100
AcDbLine
 10
469.16264125
 20
350.87597305
 30
0.0
 11
469.16264125
 21
352.12597305
 31
0.0
  0
LINE
  5
486
330
2
100
AcDbEntity
  8
YKK_D
100
AcDbLine
 10
469.16264125
 20
350.87597305
 30
0.0
 11
469.16264125
 21
352.57597305
 31
0.0
  0
LWPOLYLINE
  5
487
330
2
100
AcDbEntity
  8
YKK_D
  6
ByBlock
100
AcDbPolyline
 90
        2
 70
     1
 43
0.85
 10
469.16264125
 20
350.98222305
 42
1.0
 10
469.16264125
 20
350.76972305
 42
1.0
  0
LINE
  5
488
330
2
100
AcDbEntity
  8
YKK_D
100
AcDbLine
 10
469.16264125
 20
350.87597305
 30
0.0
 11
469.16264125
 21
349.17597305
 31
0.0
  0
LINE
  5
489
330
2
100
AcDbEntity
  8
YKK_D
100
AcDbLine
 10
469.16264125
 20
350.72597915
 30
0.0
 11
469.16264125
 21
349.02597915
 31
0.0
  0
LINE
  5
48A
330
2
100
AcDbEntity
  8
YKK_D
100
AcDbLine
 10
469.16264125
 20
350.87597305
 30
0.0
 11
469.16264125
 21
350.72597915
 31
0.0
  0
LINE
  5
48B
330
2
100
AcDbEntity
  8
YKK_D
100
AcDbLine
 10
469.16264125
 20
350.87597305
 30
0.0
 11
469.16264125
 21
350.72597915
 31
0.0
  0
LWPOLYLINE
  5
48C
330
2
100
AcDbEntity
  8
YKK_D
  6
ByBlock
100
AcDbPolyline
 90
        2
 70
     1
 43
0.85
 10
469.16264125
 20
350.61972915
 42
1.0
 10
469.16264125
 20
350.83222915
 42
1.0
  0
LWPOLYLINE
  5
48D
330
2
100
AcDbEntity
  8
YKK_D
  6
ByBlock
100
AcDbPolyline
 90
        2
 70
     1
 43
0.85
 10
469.16264125
 20
350.61972915
 42
1.0
 10
469.16264125
 20
350.83222915
 42
1.0
  0
LWPOLYLINE
  5
48E
330
2
100
AcDbEntity
  8
YKK_D
  6
ByBlock
100
AcDbPolyline
 90
        2
 70
     1
 43
0.85
 10
469.16264125
 20
352.23222305
 42
1.0
 10
469.16264125
 20
352.01972305
 42
1.0
  0
LINE
  5
48F
330
2
100
AcDbEntity
  8
YKK_D
100
AcDbLine
 10
484.16264125
 20
350.37597305
 30
0.0
 11
484.16264125
 21
341.71571901
 31
0.0
  0
LINE
  5
490
330
2
100
AcDbEntity
  8
YKK_D
100
AcDbLine
 10
484.16264125
 20
350.37597305
 30
0.0
 11
484.16264125
 21
352.12597305
 31
0.0
  0
LINE
  5
491
330
2
100
AcDbEntity
  8
YKK_D
100
AcDbLine
 10
484.16264125
 20
350.37597305
 30
0.0
 11
484.16264125
 21
348.67597305
 31
0.0
  0
LINE
  5
492
330
2
100
AcDbEntity
  8
YKK_D
100
AcDbLine
 10
484.16264125
 20
350.37597305
 30
0.0
 11
486.66264125
 21
346.04584603
 31
0.0
  0
LWPOLYLINE
  5
493
330
2
100
AcDbEntity
  8
YKK_D
  6
ByBlock
100
AcDbPolyline
 90
        2
 70
     1
 43
0.85
 10
484.16264125
 20
352.23222305
 42
1.0
 10
484.16264125
 20
352.01972305
 42
1.0
  0
TEXT
  5
494
330
2
100
AcDbEntity
  8
USER1
100
AcDbText
 10
461.72285944
 20
369.20114794
 30
0.0
 40
6.0
  1
外観姿図
 41
0.8
100
AcDbText
1001
ACAD
1000
MTEXTBEGIN
1070
    73
1070
     1
1070
    44
1040
1.0
1070
    74
1070
     0
1000
MTEXTEND
  0
ENDSEC
  0
SECTION
  2
OBJECTS
  0
DICTIONARY
  5
1E
330
0
100
AcDbDictionary
281
     1
  3
ACAD_CIP_PREVIOUS_PRODUCT_INFO
350
53E
  3
ACAD_COLOR
350
4D3
  3
ACAD_DETAILVIEWSTYLE
350
4EC
  3
ACAD_GROUP
350
1C
  3
ACAD_LAYOUT
350
4F1
  3
ACAD_MATERIAL
350
4A1
  3
ACAD_MLEADERSTYLE
350
4E8
  3
ACAD_MLINESTYLE
350
1D
  3
ACAD_PLOTSETTINGS
350
4F0
  3
ACAD_PLOTSTYLENAME
350
49F
  3
ACAD_SCALELIST
350
4D6
  3
ACAD_SECTIONVIEWSTYLE
350
4EA
  3
ACAD_TABLESTYLE
350
4D4
  3
ACAD_VISUALSTYLE
350
4BA
  3
ACDB_RECOMPOSE_DATA
350
544
  3
AcDbVariableDictionary
350
532
  3
CONTENTDICTIONARY
350
499
  0
DICTIONARY
  5
3
330
2
100
AcDbDictionary
280
     1
281
     1
  3
ACAD_LAYOUTSELFREF
360
4
  0
DICTIONARY
  5
A
330
9
100
AcDbDictionary
280
     1
281
     1
  3
ACAD_LAYOUTSELFREF
360
B
  0
XRECORD
  5
53E
102
{ACAD_REACTORS
330
1E
102
}
330
1E
100
AcDbXrecord
280
     1
300
ACD
300
2014
300
86063ACD_2014_0F
  0
DICTIONARY
  5
4D3
102
{ACAD_REACTORS
330
1E
102
}
330
1E
100
AcDbDictionary
281
     1
  0
DICTIONARY
  5
4EC
102
{ACAD_REACTORS
330
1E
102
}
330
1E
100
AcDbDictionary
281
     1
  3
Imperial24
350
4ED
  0
DICTIONARY
  5
1C
102
{ACAD_REACTORS
330
1E
102
}
330
1E
100
AcDbDictionary
281
     1
  0
DICTIONARY
  5
4F1
102
{ACAD_REACTORS
330
1E
102
}
330
1E
100
AcDbDictionary
281
     1
  3
Model
350
4F2
  3
レイアウト1
350
4F3
  0
DICTIONARY
  5
4A1
102
{ACAD_REACTORS
330
1E
102
}
330
1E
100
AcDbDictionary
281
     1
  3
ByBlock
350
4AA
  3
ByLayer
350
4A2
  3
Global
350
4B2
  0
DICTIONARY
  5
4E8
102
{ACAD_REACTORS
330
1E
102
}
330
1E
100
AcDbDictionary
281
     1
  3
Standard
350
4E9
  0
DICTIONARY
  5
1D
102
{ACAD_REACTORS
330
1E
102
}
330
1E
100
AcDbDictionary
281
     1
  3
STANDARD
350
21
  0
DICTIONARY
  5
4F0
102
{ACAD_REACTORS
330
1E
102
}
330
1E
100
AcDbDictionary
281
     1
  0
ACDBDICTIONARYWDFLT
  5
49F
102
{ACAD_REACTORS
330
1E
102
}
330
1E
100
AcDbDictionary
281
     1
  3
Normal
350
4A0
100
AcDbDictionaryWithDefault
340
4A0
  0
DICTIONARY
  5
4D6
102
{ACAD_REACTORS
330
1E
102
}
330
1E
100
AcDbDictionary
281
     1
  3
A0
350
4D7
  3
A1
350
4D8
  3
A2
350
4D9
  3
A3
350
4DA
  3
A4
350
4DB
  3
A5
350
4DC
  3
A6
350
4DD
  3
A7
350
4DE
  3
A8
350
4DF
  3
A9
350
4E0
  3
B0
350
4E1
  3
B1
350
4E2
  3
B2
350
4E3
  3
B3
350
4E4
  3
B4
350
4E5
  3
B5
350
4E6
  3
B6
350
4E7
  0
DICTIONARY
  5
4EA
102
{ACAD_REACTORS
330
1E
102
}
330
1E
100
AcDbDictionary
281
     1
  3
Imperial24
350
4EB
  0
DICTIONARY
  5
4D4
102
{ACAD_REACTORS
330
1E
102
}
330
1E
100
AcDbDictionary
281
     1
  3
Standard
350
4D5
  0
DICTIONARY
  5
4BA
102
{ACAD_REACTORS
330
1E
102
}
330
1E
100
AcDbDictionary
281
     1
  3
2dWireframe
350
4C0
  3
Basic
350
4BF
  3
Brighten
350
4C6
  3
ColorChange
350
4CA
  3
Conceptual
350
4C3
  3
Dim
350
4C5
  3
EdgeColorOff
350
4D2
  3
Facepattern
350
4C9
  3
Flat
350
4BB
  3
FlatWithEdges
350
4BC
  3
Gouraud
350
4BD
  3
GouraudWithEdges
350
4BE
  3
Hidden
350
4C2
  3
JitterOff
350
4D0
  3
Linepattern
350
4C8
  3
OverhangOff
350
4D1
  3
Realistic
350
4C4
  3
Shaded
350
4CF
  3
Shaded with edges
350
4CE
  3
Shades of Gray
350
4CB
  3
Sketchy
350
4CC
  3
Thicken
350
4C7
  3
Wireframe
350
4C1
  3
X-Ray
350
4CD
  0
XRECORD
  5
544
102
{ACAD_REACTORS
330
1E
102
}
330
1E
100
AcDbXrecord
280
     1
 90
        1
330
4D5
  0
DICTIONARY
  5
532
102
{ACAD_REACTORS
330
1E
102
}
330
1E
100
AcDbDictionary
281
     1
  3
CANNOSCALE
350
537
  3
CMLEADERSTYLE
350
534
  3
CTABLESTYLE
350
533
  3
CVIEWDETAILSTYLE
350
535
  3
CVIEWSECTIONSTYLE
350
536
  3
XCLIPFRAME
350
542
  0
DICTIONARY
  5
499
102
{ACAD_REACTORS
330
1E
102
}
330
1E
100
AcDbDictionary
281
     1
  0
XRECORD
  5
4
102
{ACAD_REACTORS
330
3
102
}
330
3
100
AcDbXrecord
280
     1
340
2
  0
XRECORD
  5
B
102
{ACAD_REACTORS
330
A
102
}
330
A
100
AcDbXrecord
280
     1
340
9
  0
ACDBDETAILVIEWSTYLE
  5
4ED
102
{ACAD_XDICTIONARY
360
57D
102
}
102
{ACAD_REACTORS
330
4EC
102
}
330
4EC
100
AcDbModelDocViewStyle
 70
     0
  3
Imperial24
290
     0
100
AcDbDetailViewStyle
 70
     0
 71
     0
 90
        3
 71
     1
340
10
 62
   256
 40
0.24
340
0
 62
   256
 40
0.24
300

 40
0.36
280
     3
 71
     2
340
7
 90
       25
 62
   256
 71
     3
340
10
 62
   256
 40
0.24
 90
        1
 40
0.75
 90
        1
300
%<\AcVar ViewType \f "%tc1">% %<\AcVar ViewDetailId>%\PSCALE %<\AcVar ViewScale \f "%sn">%
 71
     4
340
7
 90
       25
 62
   256
340
7
 90
       25
 62
   256
280
     0
  0
LAYOUT
  5
4F2
102
{ACAD_REACTORS
330
4F1
102
}
330
4F1
100
AcDbPlotSettings
  1

  2
C:\ACAD-I\support\plotters\Default Windows System Printer.pc3
  4
A4
  6

 40
3.17499995
 41
3.17499995
 42
3.17500305
 43
3.17498779
 44
209.88865662
 45
297.05300903
 46
0.0
 47
0.0
 48
0.0
 49
0.0
140
0.0
141
0.0
142
1.0
143
53.82082417
 70
 11952
 72
     0
 73
     1
 74
     0
  7
monochrome.ctb
 75
     0
147
0.01858017
 76
     0
 77
     2
 78
   300
148
625.51769844
149
39.73530638
100
AcDbLayout
  1
Model
 70
     1
 71
     0
 10
0.0
 20
0.0
 11
12.0
 21
9.0
 12
0.0
 22
0.0
 32
0.0
 14
0.0
 24
0.0
 34
0.0
 15
0.0
 25
0.0
 35
0.0
146
0.0
 13
0.0
 23
0.0
 33
0.0
 16
1.0
 26
0.0
 36
0.0
 17
0.0
 27
1.0
 37
0.0
 76
     0
330
2
1001
ACAD_PSEXT
1000
C:\ACAD-I\support\plotters\Default Windows System Printer.pc3
1000
Fiery PRO80 65-55C-KM PS3.0jp
1000
IP_10.230.204.212
1000

1070
     0
  0
LAYOUT
  5
4F3
102
{ACAD_REACTORS
330
4F1
102
}
330
4F1
100
AcDbPlotSettings
  1

  2
C:\ACAD-I\support\plotters\Default Windows System Printer.pc3
  4
A4
  6

 40
3.17499995
 41
3.17499995
 42
3.17500305
 43
3.17498779
 44
209.88865662
 45
297.05300903
 46
0.0
 47
0.0
 48
0.0
 49
0.0
140
0.0
141
0.0
142
1.0
143
1.0
 70
 15024
 72
     0
 73
     1
 74
     5
  7
monochrome.ctb
 75
    16
147
1.0
 76
     0
 77
     2
 78
   300
148
0.0
149
0.0
100
AcDbLayout
  1
レイアウト1
 70
     1
 71
     1
 10
0.0
 20
0.0
 11
420.0
 21
297.0
 12
0.0
 22
0.0
 32
0.0
 14
1.00000000E+20
 24
1.00000000E+20
 34
1.00000000E+20
 15
-1.00000000E+20
 25
-1.00000000E+20
 35
-1.00000000E+20
146
0.0
 13
0.0
 23
0.0
 33
0.0
 16
1.0
 26
0.0
 36
0.0
 17
0.0
 27
1.0
 37
0.0
 76
     0
330
9
1001
ACAD_PSEXT
1000
C:\ACAD-I\support\plotters\Default Windows System Printer.pc3
1000
Fiery PRO80 65-55C-KM PS3.0jp
1000
IP_10.230.204.212
1000

1070
     0
  0
MATERIAL
  5
4AA
102
{ACAD_XDICTIONARY
360
4AB
102
}
102
{ACAD_REACTORS
330
4A1
102
}
330
4A1
100
AcDbMaterial
  1
ByBlock
 72
     0
 43
0.02083333
 43
0.0
 43
0.0
 43
0.0
 43
0.0
 43
0.02083333
 43
0.0
 43
0.0
 43
0.0
 43
0.0
 43
1.0
 43
0.0
 43
0.0
 43
0.0
 43
0.0
 43
1.0
 77
     0
 47
0.02083333
 47
0.0
 47
0.0
 47
0.0
 47
0.0
 47
0.02083333
 47
0.0
 47
0.0
 47
0.0
 47
0.0
 47
1.0
 47
0.0
 47
0.0
 47
0.0
 47
0.0
 47
1.0
171
     0
 49
0.02083333
 49
0.0
 49
0.0
 49
0.0
 49
0.0
 49
0.02083333
 49
0.0
 49
0.0
 49
0.0
 49
0.0
 49
1.0
 49
0.0
 49
0.0
 49
0.0
 49
0.0
 49
1.0
175
     0
142
0.02083333
142
0.0
142
0.0
142
0.0
142
0.0
142
0.02083333
142
0.0
142
0.0
142
0.0
142
0.0
142
1.0
142
0.0
142
0.0
142
0.0
142
0.0
142
1.0
179
     0
144
0.02083333
144
0.0
144
0.0
144
0.0
144
0.0
144
0.02083333
144
0.0
144
0.0
144
0.0
144
0.0
144
1.0
144
0.0
144
0.0
144
0.0
144
0.0
144
1.0
147
0.02083333
147
0.0
147
0.0
147
0.0
147
0.0
147
0.02083333
147
0.0
147
0.0
147
0.0
147
0.0
147
1.0
147
0.0
147
0.0
147
0.0
147
0.0
147
1.0
  0
MATERIAL
  5
4A2
102
{ACAD_XDICTIONARY
360
4A3
102
}
102
{ACAD_REACTORS
330
4A1
102
}
330
4A1
100
AcDbMaterial
  1
ByLayer
 72
     0
 43
0.02083333
 43
0.0
 43
0.0
 43
0.0
 43
0.0
 43
0.02083333
 43
0.0
 43
0.0
 43
0.0
 43
0.0
 43
1.0
 43
0.0
 43
0.0
 43
0.0
 43
0.0
 43
1.0
 77
     0
 47
0.02083333
 47
0.0
 47
0.0
 47
0.0
 47
0.0
 47
0.02083333
 47
0.0
 47
0.0
 47
0.0
 47
0.0
 47
1.0
 47
0.0
 47
0.0
 47
0.0
 47
0.0
 47
1.0
171
     0
 49
0.02083333
 49
0.0
 49
0.0
 49
0.0
 49
0.0
 49
0.02083333
 49
0.0
 49
0.0
 49
0.0
 49
0.0
 49
1.0
 49
0.0
 49
0.0
 49
0.0
 49
0.0
 49
1.0
175
     0
142
0.02083333
142
0.0
142
0.0
142
0.0
142
0.0
142
0.02083333
142
0.0
142
0.0
142
0.0
142
0.0
142
1.0
142
0.0
142
0.0
142
0.0
142
0.0
142
1.0
179
     0
144
0.02083333
144
0.0
144
0.0
144
0.0
144
0.0
144
0.02083333
144
0.0
144
0.0
144
0.0
144
0.0
144
1.0
144
0.0
144
0.0
144
0.0
144
0.0
144
1.0
147
0.02083333
147
0.0
147
0.0
147
0.0
147
0.0
147
0.02083333
147
0.0
147
0.0
147
0.0
147
0.0
147
1.0
147
0.0
147
0.0
147
0.0
147
0.0
147
1.0
  0
MATERIAL
  5
4B2
102
{ACAD_XDICTIONARY
360
4B3
102
}
102
{ACAD_REACTORS
330
4A1
102
}
330
4A1
100
AcDbMaterial
  1
Global
 72
     0
 43
0.02083333
 43
0.0
 43
0.0
 43
0.0
 43
0.0
 43
0.02083333
 43
0.0
 43
0.0
 43
0.0
 43
0.0
 43
1.0
 43
0.0
 43
0.0
 43
0.0
 43
0.0
 43
1.0
 77
     0
 47
0.02083333
 47
0.0
 47
0.0
 47
0.0
 47
0.0
 47
0.02083333
 47
0.0
 47
0.0
 47
0.0
 47
0.0
 47
1.0
 47
0.0
 47
0.0
 47
0.0
 47
0.0
 47
1.0
171
     0
 49
0.02083333
 49
0.0
 49
0.0
 49
0.0
 49
0.0
 49
0.02083333
 49
0.0
 49
0.0
 49
0.0
 49
0.0
 49
1.0
 49
0.0
 49
0.0
 49
0.0
 49
0.0
 49
1.0
175
     0
142
0.02083333
142
0.0
142
0.0
142
0.0
142
0.0
142
0.02083333
142
0.0
142
0.0
142
0.0
142
0.0
142
1.0
142
0.0
142
0.0
142
0.0
142
0.0
142
1.0
179
     0
144
0.02083333
144
0.0
144
0.0
144
0.0
144
0.0
144
0.02083333
144
0.0
144
0.0
144
0.0
144
0.0
144
1.0
144
0.0
144
0.0
144
0.0
144
0.0
144
1.0
147
0.02083333
147
0.0
147
0.0
147
0.0
147
0.0
147
0.02083333
147
0.0
147
0.0
147
0.0
147
0.0
147
1.0
147
0.0
147
0.0
147
0.0
147
0.0
147
1.0
  0
MLEADERSTYLE
  5
4E9
102
{ACAD_XDICTIONARY
360
579
102
}
102
{ACAD_REACTORS
330
4E8
102
}
330
4E8
100
AcDbMLeaderStyle
170
     2
171
     1
172
     0
 90
        2
 40
0.0
 41
0.0
173
     1
 91
-1056964608
340
12
 92
       -2
290
     1
 42
0.09
291
     1
 43
0.36
  3
Standard
 44
0.18
300

342
10
174
     1
178
     6
175
     1
176
     0
 93
-1056964608
 45
0.18
292
     0
297
     0
 46
0.18
 94
-1056964608
 47
1.0
 49
1.0
140
1.0
293
     1
141
0.0
294
     1
177
     0
142
1.0
295
     0
296
     0
143
0.125
1001
ACAD_MLEADERVER
1070
     2
  0
MLINESTYLE
  5
21
102
{ACAD_REACTORS
330
1D
102
}
330
1D
100
AcDbMlineStyle
  2
STANDARD
 70
     0
  3

 62
   256
 51
90.0
 52
90.0
 71
     2
 49
0.5
 62
   256
  6
BYLAYER
 49
-0.5
 62
   256
  6
BYLAYER
  0
ACDBPLACEHOLDER
  5
4A0
102
{ACAD_REACTORS
330
49F
102
}
330
49F
  0
SCALE
  5
4D7
102
{ACAD_REACTORS
330
4D6
102
}
330
4D6
100
AcDbScale
 70
     0
300
1:1
140
1.0
141
1.0
290
     1
  0
SCALE
  5
4D8
102
{ACAD_REACTORS
330
4D6
102
}
330
4D6
100
AcDbScale
 70
     0
300
1/128" = 1'-0"
140
0.0078125
141
12.0
290
     0
  0
SCALE
  5
4D9
102
{ACAD_REACTORS
330
4D6
102
}
330
4D6
100
AcDbScale
 70
     0
300
1/64" = 1'-0"
140
0.015625
141
12.0
290
     0
  0
SCALE
  5
4DA
102
{ACAD_REACTORS
330
4D6
102
}
330
4D6
100
AcDbScale
 70
     0
300
1/32" = 1'-0"
140
0.03125
141
12.0
290
     0
  0
SCALE
  5
4DB
102
{ACAD_REACTORS
330
4D6
102
}
330
4D6
100
AcDbScale
 70
     0
300
1/16" = 1'-0"
140
0.0625
141
12.0
290
     0
  0
SCALE
  5
4DC
102
{ACAD_REACTORS
330
4D6
102
}
330
4D6
100
AcDbScale
 70
     0
300
3/32" = 1'-0"
140
0.09375
141
12.0
290
     0
  0
SCALE
  5
4DD
102
{ACAD_REACTORS
330
4D6
102
}
330
4D6
100
AcDbScale
 70
     0
300
1/8" = 1'-0"
140
0.125
141
12.0
290
     0
  0
SCALE
  5
4DE
102
{ACAD_REACTORS
330
4D6
102
}
330
4D6
100
AcDbScale
 70
     0
300
3/16" = 1'-0"
140
0.1875
141
12.0
290
     0
  0
SCALE
  5
4DF
102
{ACAD_REACTORS
330
4D6
102
}
330
4D6
100
AcDbScale
 70
     0
300
1/4" = 1'-0"
140
0.25
141
12.0
290
     0
  0
SCALE
  5
4E0
102
{ACAD_REACTORS
330
4D6
102
}
330
4D6
100
AcDbScale
 70
     0
300
3/8" = 1'-0"
140
0.375
141
12.0
290
     0
  0
SCALE
  5
4E1
102
{ACAD_REACTORS
330
4D6
102
}
330
4D6
100
AcDbScale
 70
     0
300
1/2" = 1'-0"
140
0.5
141
12.0
290
     0
  0
SCALE
  5
4E2
102
{ACAD_REACTORS
330
4D6
102
}
330
4D6
100
AcDbScale
 70
     0
300
3/4" = 1'-0"
140
0.75
141
12.0
290
     0
  0
SCALE
  5
4E3
102
{ACAD_REACTORS
330
4D6
102
}
330
4D6
100
AcDbScale
 70
     0
300
1" = 1'-0"
140
1.0
141
12.0
290
     0
  0
SCALE
  5
4E4
102
{ACAD_REACTORS
330
4D6
102
}
330
4D6
100
AcDbScale
 70
     0
300
1-1/2" = 1'-0"
140
1.5
141
12.0
290
     0
  0
SCALE
  5
4E5
102
{ACAD_REACTORS
330
4D6
102
}
330
4D6
100
AcDbScale
 70
     0
300
3" = 1'-0"
140
3.0
141
12.0
290
     0
  0
SCALE
  5
4E6
102
{ACAD_REACTORS
330
4D6
102
}
330
4D6
100
AcDbScale
 70
     0
300
6" = 1'-0"
140
6.0
141
12.0
290
     0
  0
SCALE
  5
4E7
102
{ACAD_REACTORS
330
4D6
102
}
330
4D6
100
AcDbScale
 70
     0
300
1'-0" = 1'-0"
140
12.0
141
12.0
290
     0
  0
ACDBSECTIONVIEWSTYLE
  5
4EB
102
{ACAD_XDICTIONARY
360
57B
102
}
102
{ACAD_REACTORS
330
4EA
102
}
330
4EA
100
AcDbModelDocViewStyle
 70
     0
  3
Imperial24
290
     0
100
AcDbSectionViewStyle
 70
     0
 71
     0
 90
      102
 71
     1
340
10
 62
   256
 40
5.0
340
0
340
0
 62
   256
 40
5.0
300
I, O, Q, S, X, Z
 40
10.0
 90
        0
 40
2.5
 90
        0
 71
     2
340
7
 90
       25
 62
   256
340
7
 90
       50
 62
   256
 40
5.0
 40
2.5
 40
5.0
 71
     3
340
10
 62
   256
 40
5.0
 90
        0
 40
15.0
 90
        1
300
%<\AcVar ViewSectionStartId>%-%<\AcVar ViewSectionEndId>% (%<\AcVar ViewScale \f "%sn">%)
 71
     4
 62
   256
 62
   257
300
ANSI31
 40
1.0
 90
        0
290
     0
290
     0
 90
        6
 40
0.0
 40
1.57079633
 40
0.26179939
 40
1.30899694
 40
-0.26179939
 40
1.83259571
  0
TABLESTYLE
  5
4D5
102
{ACAD_XDICTIONARY
360
4F4
102
}
102
{ACAD_REACTORS
330
4D4
102
}
330
4D4
100
AcDbTableStyle
  3
Standard
 70
     0
 71
     0
 40
0.06
 41
0.06
280
     0
281
     0
  7
STANDARD
140
0.18
170
     2
 62
     0
 63
     7
283
     0
274
    -2
284
     1
 64
     0
275
    -2
285
     1
 65
     0
276
    -2
286
     1
 66
     0
277
    -2
287
     1
 67
     0
278
    -2
288
     1
 68
     0
279
    -2
289
     1
 69
     0
  7
STANDARD
140
0.25
170
     5
 62
     0
 63
     7
283
     0
274
    -2
284
     1
 64
     0
275
    -2
285
     1
 65
     0
276
    -2
286
     1
 66
     0
277
    -2
287
     1
 67
     0
278
    -2
288
     1
 68
     0
279
    -2
289
     1
 69
     0
  7
STANDARD
140
0.18
170
     5
 62
     0
 63
     7
283
     0
274
    -2
284
     1
 64
     0
275
    -2
285
     1
 65
     0
276
    -2
286
     1
 66
     0
277
    -2
287
     1
 67
     0
278
    -2
288
     1
 68
     0
279
    -2
289
     1
 69
     0
  0
VISUALSTYLE
  5
4C0
102
{ACAD_XDICTIONARY
360
552
102
}
102
{ACAD_REACTORS
330
4BA
102
}
330
4BA
100
AcDbVisualStyle
  2
2dWireframe
 70
     4
 71
     0
 72
     2
 73
     0
 90
        0
 40
-0.6
 41
-30.0
 62
     5
 63
     7
421
 16777215
 74
     1
 91
        4
 64
     7
 65
   257
 75
     1
175
     1
 42
1.0
 92
        0
 66
   257
 43
1.0
 76
     1
 77
     6
 78
     2
 67
     7
 79
     5
170
     0
171
     0
290
     0
174
     0
 93
        1
 44
0.0
173
     0
291
     0
 45
0.0
1001
ACAD
1000
AcDbSavedByObjectVersion
1070
     0
  0
VISUALSTYLE
  5
4BF
102
{ACAD_XDICTIONARY
360
550
102
}
102
{ACAD_REACTORS
330
4BA
102
}
330
4BA
100
AcDbVisualStyle
  2
Basic
 70
     7
 71
     1
 72
     0
 73
     1
 90
        0
 40
-0.6
 41
-30.0
 62
     5
 63
     7
421
 16777215
 74
     0
 91
        4
 64
     7
 65
   257
 75
     1
175
     1
 42
1.0
 92
        8
 66
     7
 43
1.0
 76
     1
 77
     6
 78
     2
 67
     7
 79
     5
170
     0
171
     0
290
     0
174
     0
 93
        1
 44
0.0
173
     0
291
     1
 45
0.0
1001
ACAD
1000
AcDbSavedByObjectVersion
1070
     0
  0
VISUALSTYLE
  5
4C6
102
{ACAD_XDICTIONARY
360
55E
102
}
102
{ACAD_REACTORS
330
4BA
102
}
330
4BA
100
AcDbVisualStyle
  2
Brighten
 70
    12
 71
     2
 72
     2
 73
     0
 90
        0
 40
-0.6
 41
-30.0
 62
     5
 63
     7
421
 16777215
 74
     1
 91
        4
 64
     7
 65
   257
 75
     1
175
     1
 42
1.0
 92
        8
 66
     7
 43
1.0
 76
     1
 77
     6
 78
     2
 67
     7
 79
     5
170
     0
171
     0
290
     0
174
     0
 93
        1
 44
50.0
173
     0
291
     1
 45
0.0
1001
ACAD
1000
AcDbSavedByObjectVersion
1070
     0
  0
VISUALSTYLE
  5
4CA
102
{ACAD_XDICTIONARY
360
566
102
}
102
{ACAD_REACTORS
330
4BA
102
}
330
4BA
100
AcDbVisualStyle
  2
ColorChange
 70
    16
 71
     2
 72
     2
 73
     3
 90
        0
 40
-0.6
 41
-30.0
 62
     5
 63
     8
421
  8421504
 74
     1
 91
        4
 64
     7
 65
   257
 75
     1
175
     1
 42
1.0
 92
        8
 66
     8
424
  8421504
 43
1.0
 76
     1
 77
     6
 78
     2
 67
     7
 79
     5
170
     0
171
     0
290
     0
174
     0
 93
        1
 44
0.0
173
     0
291
     1
 45
0.0
1001
ACAD
1000
AcDbSavedByObjectVersion
1070
     0
  0
VISUALSTYLE
  5
4C3
102
{ACAD_XDICTIONARY
360
558
102
}
102
{ACAD_REACTORS
330
4BA
102
}
330
4BA
100
AcDbVisualStyle
  2
Conceptual
 70
     9
 71
     3
 72
     2
 73
     0
 90
        0
 40
-0.6
 41
-30.0
 62
     5
 63
     7
421
 16777215
 74
     2
 91
        2
 64
     7
 65
   257
 75
     1
175
     1
 42
179.0
 92
        8
 66
     7
 43
1.0
 76
     1
 77
     6
 78
     2
 67
     7
 79
     3
170
     0
171
     0
290
     0
174
     0
 93
        1
 44
0.0
173
     0
291
     0
 45
0.0
1001
ACAD
1000
AcDbSavedByObjectVersion
1070
     0
  0
VISUALSTYLE
  5
4C5
102
{ACAD_XDICTIONARY
360
55C
102
}
102
{ACAD_REACTORS
330
4BA
102
}
330
4BA
100
AcDbVisualStyle
  2
Dim
 70
    11
 71
     2
 72
     2
 73
     0
 90
        0
 40
-0.6
 41
-30.0
 62
     5
 63
     7
421
 16777215
 74
     1
 91
        4
 64
     7
 65
   257
 75
     1
175
     1
 42
1.0
 92
        8
 66
     7
 43
1.0
 76
     1
 77
     6
 78
     2
 67
     7
 79
     5
170
     0
171
     0
290
     0
174
     0
 93
        1
 44
-50.0
173
     0
291
     1
 45
0.0
1001
ACAD
1000
AcDbSavedByObjectVersion
1070
     0
  0
VISUALSTYLE
  5
4D2
102
{ACAD_XDICTIONARY
360
576
102
}
102
{ACAD_REACTORS
330
4BA
102
}
330
4BA
100
AcDbVisualStyle
  2
EdgeColorOff
 70
    22
 71
     2
 72
     2
 73
     0
 90
        0
 40
-0.6
 41
-30.0
 62
     5
 63
     7
421
 16777215
 74
     1
 91
        4
 64
     7
 65
   257
 75
     1
175
     1
 42
1.0
 92
        8
 66
     7
 43
1.0
 76
     1
 77
     6
 78
     2
 67
     7
 79
     5
170
     0
171
     0
290
     0
174
     0
 93
        1
 44
0.0
173
     0
291
     1
 45
0.0
1001
ACAD
1000
AcDbSavedByObjectVersion
1070
     0
  0
VISUALSTYLE
  5
4C9
102
{ACAD_XDICTIONARY
360
564
102
}
102
{ACAD_REACTORS
330
4BA
102
}
330
4BA
100
AcDbVisualStyle
  2
Facepattern
 70
    15
 71
     2
 72
     2
 73
     0
 90
        0
 40
-0.6
 41
-30.0
 62
     5
 63
     7
421
 16777215
 74
     1
 91
        4
 64
     7
 65
   257
 75
     1
175
     1
 42
1.0
 92
        8
 66
     7
 43
1.0
 76
     1
 77
     6
 78
     2
 67
     7
 79
     5
170
     0
171
     0
290
     0
174
     0
 93
        1
 44
0.0
173
     0
291
     1
 45
0.0
1001
ACAD
1000
AcDbSavedByObjectVersion
1070
     0
  0
VISUALSTYLE
  5
4BB
102
{ACAD_XDICTIONARY
360
548
102
}
102
{ACAD_REACTORS
330
4BA
102
}
330
4BA
100
AcDbVisualStyle
  2
Flat
 70
     0
 71
     2
 72
     1
 73
     1
 90
        2
 40
-0.6
 41
30.0
 62
     5
 63
     7
421
 16777215
 74
     0
 91
        0
 64
     7
 65
   257
 75
     1
175
     1
 42
1.0
 92
        8
 66
     7
 43
1.0
 76
     1
 77
     6
 78
     2
 67
     7
 79
     5
170
     0
171
     0
290
     0
174
     0
 93
       13
 44
0.0
173
     0
291
     1
 45
0.0
1001
ACAD
1000
AcDbSavedByObjectVersion
1070
     0
  0
VISUALSTYLE
  5
4BC
102
{ACAD_XDICTIONARY
360
54A
102
}
102
{ACAD_REACTORS
330
4BA
102
}
330
4BA
100
AcDbVisualStyle
  2
FlatWithEdges
 70
     1
 71
     2
 72
     1
 73
     1
 90
        2
 40
-0.6
 41
30.0
 62
     5
 63
     7
421
 16777215
 74
     1
 91
        0
 64
     7
 65
   257
 75
     1
175
     1
 42
1.0
 92
        0
 66
   257
 43
1.0
 76
     1
 77
     6
 78
     2
 67
     7
 79
     5
170
     0
171
     0
290
     0
174
     0
 93
       13
 44
0.0
173
     0
291
     1
 45
0.0
1001
ACAD
1000
AcDbSavedByObjectVersion
1070
     0
  0
VISUALSTYLE
  5
4BD
102
{ACAD_XDICTIONARY
360
54C
102
}
102
{ACAD_REACTORS
330
4BA
102
}
330
4BA
100
AcDbVisualStyle
  2
Gouraud
 70
     2
 71
     2
 72
     2
 73
     1
 90
        2
 40
-0.6
 41
30.0
 62
     5
 63
     7
421
 16777215
 74
     0
 91
        0
 64
     7
 65
   257
 75
     1
175
     1
 42
1.0
 92
        0
 66
     7
 43
1.0
 76
     1
 77
     6
 78
     2
 67
     7
 79
     5
170
     0
171
     0
290
     0
174
     0
 93
       13
 44
0.0
173
     0
291
     1
 45
0.0
1001
ACAD
1000
AcDbSavedByObjectVersion
1070
     0
  0
VISUALSTYLE
  5
4BE
102
{ACAD_XDICTIONARY
360
54E
102
}
102
{ACAD_REACTORS
330
4BA
102
}
330
4BA
100
AcDbVisualStyle
  2
GouraudWithEdges
 70
     3
 71
     2
 72
     2
 73
     1
 90
        2
 40
-0.6
 41
30.0
 62
     5
 63
     7
421
 16777215
 74
     1
 91
        0
 64
     7
 65
   257
 75
     1
175
     1
 42
1.0
 92
        0
 66
   257
 43
1.0
 76
     1
 77
     6
 78
     2
 67
     7
 79
     5
170
     0
171
     0
290
     0
174
     0
 93
       13
 44
0.0
173
     0
291
     1
 45
0.0
1001
ACAD
1000
AcDbSavedByObjectVersion
1070
     0
  0
VISUALSTYLE
  5
4C2
102
{ACAD_XDICTIONARY
360
556
102
}
102
{ACAD_REACTORS
330
4BA
102
}
330
4BA
100
AcDbVisualStyle
  2
Hidden
 70
     6
 71
     1
 72
     2
 73
     2
 90
        0
 40
-0.6
 41
-30.0
 62
     5
 63
     7
421
 16777215
 74
     2
 91
        2
 64
     7
 65
   257
 75
     2
175
     1
 42
40.0
 92
        0
 66
   257
 43
1.0
 76
     1
 77
     6
 78
     2
 67
     7
 79
     3
170
     0
171
     0
290
     0
174
     0
 93
        1
 44
0.0
173
     0
291
     0
 45
0.0
1001
ACAD
1000
AcDbSavedByObjectVersion
1070
     0
  0
VISUALSTYLE
  5
4D0
102
{ACAD_XDICTIONARY
360
572
102
}
102
{ACAD_REACTORS
330
4BA
102
}
330
4BA
100
AcDbVisualStyle
  2
JitterOff
 70
    20
 71
     2
 72
     2
 73
     0
 90
        0
 40
-0.6
 41
-30.0
 62
     5
 63
     7
421
 16777215
 74
     1
 91
        4
 64
     7
 65
   257
 75
     1
175
     1
 42
1.0
 92
       10
 66
     7
 43
1.0
 76
     1
 77
     6
 78
     2
 67
     7
 79
     5
170
     0
171
     0
290
     0
174
     0
 93
        1
 44
0.0
173
     0
291
     1
 45
0.0
1001
ACAD
1000
AcDbSavedByObjectVersion
1070
     0
  0
VISUALSTYLE
  5
4C8
102
{ACAD_XDICTIONARY
360
562
102
}
102
{ACAD_REACTORS
330
4BA
102
}
330
4BA
100
AcDbVisualStyle
  2
Linepattern
 70
    14
 71
     2
 72
     2
 73
     0
 90
        0
 40
-0.6
 41
-30.0
 62
     5
 63
     7
421
 16777215
 74
     1
 91
        4
 64
     7
 65
   257
 75
     7
175
     7
 42
1.0
 92
        8
 66
     7
 43
1.0
 76
     1
 77
     6
 78
     2
 67
     7
 79
     5
170
     0
171
     0
290
     0
174
     0
 93
        1
 44
0.0
173
     0
291
     1
 45
0.0
1001
ACAD
1000
AcDbSavedByObjectVersion
1070
     0
  0
VISUALSTYLE
  5
4D1
102
{ACAD_XDICTIONARY
360
574
102
}
102
{ACAD_REACTORS
330
4BA
102
}
330
4BA
100
AcDbVisualStyle
  2
OverhangOff
 70
    21
 71
     2
 72
     2
 73
     0
 90
        0
 40
-0.6
 41
-30.0
 62
     5
 63
     7
421
 16777215
 74
     1
 91
        4
 64
     7
 65
   257
 75
     1
175
     1
 42
1.0
 92
        9
 66
     7
 43
1.0
 76
     1
 77
     6
 78
     2
 67
     7
 79
     5
170
     0
171
     0
290
     0
174
     0
 93
        1
 44
0.0
173
     0
291
     1
 45
0.0
1001
ACAD
1000
AcDbSavedByObjectVersion
1070
     0
  0
VISUALSTYLE
  5
4C4
102
{ACAD_XDICTIONARY
360
55A
102
}
102
{ACAD_REACTORS
330
4BA
102
}
330
4BA
100
AcDbVisualStyle
  2
Realistic
 70
     8
 71
     2
 72
     2
 73
     0
 90
        2
 40
-0.6
 41
30.0
 62
     5
 63
     7
421
 16777215
 74
     0
 91
        0
 64
     7
 65
   257
 75
     1
175
     1
 42
1.0
 92
        8
 66
   257
 43
1.0
 76
     1
 77
     6
 78
     2
 67
     7
 79
     3
170
     0
171
     0
290
     0
174
     0
 93
       13
 44
0.0
173
     0
291
     0
 45
0.0
1001
ACAD
1000
AcDbSavedByObjectVersion
1070
     0
  0
VISUALSTYLE
  5
4CF
102
{ACAD_XDICTIONARY
360
570
102
}
102
{ACAD_REACTORS
330
4BA
102
}
330
4BA
100
AcDbVisualStyle
  2
Shaded
 70
    27
 71
     2
 72
     2
 73
     1
 90
        2
 40
-0.6
 41
30.0
 62
     5
 63
     7
421
 16777215
 74
     0
 91
        4
 64
     7
 65
   257
 75
     1
175
     1
 42
1.0
 92
        8
 66
   257
 43
1.0
 76
     1
 77
     6
 78
     2
 67
     8
425
  7895160
 79
     3
170
     0
171
     0
290
     0
174
     0
 93
        5
 44
0.0
173
     0
291
     0
 45
0.0
1001
ACAD
1000
AcDbSavedByObjectVersion
1070
     0
  0
VISUALSTYLE
  5
4CE
102
{ACAD_XDICTIONARY
360
56E
102
}
102
{ACAD_REACTORS
330
4BA
102
}
330
4BA
100
AcDbVisualStyle
  2
Shaded with edges
 70
    26
 71
     2
 72
     2
 73
     1
 90
        2
 40
-0.6
 41
30.0
 62
     5
 63
     7
421
 16777215
 74
     1
 91
       10
 64
     7
 65
   257
 75
     2
175
     1
 42
1.0
 92
        8
 66
   257
 43
1.0
 76
     1
 77
     6
 78
     2
 67
     7
 79
     3
170
     0
171
     0
290
     0
174
     0
 93
        5
 44
0.0
173
     0
291
     0
 45
0.0
1001
ACAD
1000
AcDbSavedByObjectVersion
1070
     0
  0
VISUALSTYLE
  5
4CB
102
{ACAD_XDICTIONARY
360
568
102
}
102
{ACAD_REACTORS
330
4BA
102
}
330
4BA
100
AcDbVisualStyle
  2
Shades of Gray
 70
    23
 71
     2
 72
     2
 73
     3
 90
        0
 40
-0.6
 41
-30.0
 62
     5
 63
     7
421
 16777215
 74
     2
 91
        2
 64
     7
 65
     7
 75
     1
175
     1
 42
40.0
 92
        8
 66
     7
 43
1.0
 76
     1
 77
     6
 78
     2
 67
     7
 79
     3
170
     0
171
     0
290
     0
174
     0
 93
        1
 44
0.0
173
     0
291
     0
 45
0.0
1001
ACAD
1000
AcDbSavedByObjectVersion
1070
     0
  0
VISUALSTYLE
  5
4CC
102
{ACAD_XDICTIONARY
360
56A
102
}
102
{ACAD_REACTORS
330
4BA
102
}
330
4BA
100
AcDbVisualStyle
  2
Sketchy
 70
    24
 71
     1
 72
     2
 73
     2
 90
        0
 40
-0.6
 41
-30.0
 62
     5
 63
     7
421
 16777215
 74
     2
 91
        2
 64
     7
 65
     7
 75
     1
175
     1
 42
40.0
 92
       11
 66
     7
 43
1.0
 76
     1
 77
     6
 78
     2
 67
     7
 79
     6
170
     0
171
     0
290
     0
174
     0
 93
        1
 44
0.0
173
     0
291
     0
 45
0.0
1001
ACAD
1000
AcDbSavedByObjectVersion
1070
     0
  0
VISUALSTYLE
  5
4C7
102
{ACAD_XDICTIONARY
360
560
102
}
102
{ACAD_REACTORS
330
4BA
102
}
330
4BA
100
AcDbVisualStyle
  2
Thicken
 70
    13
 71
     2
 72
     2
 73
     0
 90
        0
 40
-0.6
 41
-30.0
 62
     5
 63
     7
421
 16777215
 74
     1
 91
        4
 64
     7
 65
   257
 75
     1
175
     1
 42
1.0
 92
       12
 66
     7
 43
1.0
 76
     1
 77
     6
 78
     2
 67
     7
 79
     5
170
     0
171
     0
290
     0
174
     0
 93
        1
 44
0.0
173
     0
291
     1
 45
0.0
1001
ACAD
1000
AcDbSavedByObjectVersion
1070
     0
  0
VISUALSTYLE
  5
4C1
102
{ACAD_XDICTIONARY
360
554
102
}
102
{ACAD_REACTORS
330
4BA
102
}
330
4BA
100
AcDbVisualStyle
  2
Wireframe
 70
     5
 71
     0
 72
     2
 73
     0
 90
        0
 40
-0.6
 41
-30.0
 62
     5
 63
     7
421
 16777215
 74
     1
 91
        4
 64
     7
 65
   257
 75
     1
175
     1
 42
1.0
 92
        0
 66
   257
 43
1.0
 76
     1
 77
     6
 78
     2
 67
     7
 79
     3
170
     0
171
     0
290
     0
174
     0
 93
        1
 44
0.0
173
     0
291
     0
 45
0.0
1001
ACAD
1000
AcDbSavedByObjectVersion
1070
     0
  0
VISUALSTYLE
  5
4CD
102
{ACAD_XDICTIONARY
360
56C
102
}
102
{ACAD_REACTORS
330
4BA
102
}
330
4BA
100
AcDbVisualStyle
  2
X-Ray
 70
    25
 71
     2
 72
     2
 73
     1
 90
        1
 40
0.5
 41
-30.0
 62
     5
 63
     7
421
 16777215
 74
     1
 91
        0
 64
     7
 65
   257
 75
     1
175
     1
 42
1.0
 92
        8
 66
     7
 43
1.0
 76
     1
 77
     6
 78
     2
 67
     7
 79
     3
170
     0
171
     0
290
     0
174
     0
 93
       13
 44
0.0
173
     0
291
     0
 45
0.0
1001
ACAD
1000
AcDbSavedByObjectVersion
1070
     0
  0
DICTIONARYVAR
  5
537
102
{ACAD_REACTORS
330
532
102
}
330
532
100
DictionaryVariables
280
     0
  1
1:1
  0
DICTIONARYVAR
  5
534
102
{ACAD_REACTORS
330
532
102
}
330
532
100
DictionaryVariables
280
     0
  1
STANDARD
  0
DICTIONARYVAR
  5
533
102
{ACAD_REACTORS
330
532
102
}
330
532
100
DictionaryVariables
280
     0
  1
STANDARD
  0
DICTIONARYVAR
  5
535
102
{ACAD_REACTORS
330
532
102
}
330
532
100
DictionaryVariables
280
     0
  1
Imperial24
  0
DICTIONARYVAR
  5
536
102
{ACAD_REACTORS
330
532
102
}
330
532
100
DictionaryVariables
280
     0
  1
Imperial24
  0
DICTIONARYVAR
  5
542
102
{ACAD_REACTORS
330
532
102
}
330
532
100
DictionaryVariables
280
     0
  1
2
  0
DICTIONARY
  5
57D
330
4ED
100
AcDbDictionary
280
     1
281
     1
  3
ACAD_XREC_ROUNDTRIP
360
57E
  0
DICTIONARY
  5
4AB
330
4AA
100
AcDbDictionary
280
     1
281
     1
  3
ACAD_XREC_ROUNDTRIP
360
546
  3
BUMPTILE
360
4AD
  3
DIFFUSETILE
360
4AC
  3
OPACITYTILE
360
4B0
  3
REFLECTIONTILE
360
4AF
  3
REFRACTIONTILE
360
4B1
  3
SPECULARTILE
360
4AE
  0
DICTIONARY
  5
4A3
330
4A2
100
AcDbDictionary
280
     1
281
     1
  3
ACAD_XREC_ROUNDTRIP
360
545
  3
BUMPTILE
360
4A5
  3
DIFFUSETILE
360
4A4
  3
OPACITYTILE
360
4A8
  3
REFLECTIONTILE
360
4A7
  3
REFRACTIONTILE
360
4A9
  3
SPECULARTILE
360
4A6
  0
DICTIONARY
  5
4B3
330
4B2
100
AcDbDictionary
280
     1
281
     1
  3
ACAD_XREC_ROUNDTRIP
360
547
  3
BUMPTILE
360
4B5
  3
DIFFUSETILE
360
4B4
  3
OPACITYTILE
360
4B8
  3
REFLECTIONTILE
360
4B7
  3
REFRACTIONTILE
360
4B9
  3
SPECULARTILE
360
4B6
  0
DICTIONARY
  5
579
330
4E9
100
AcDbDictionary
280
     1
281
     1
  3
ACAD_XREC_ROUNDTRIP
360
57A
  0
DICTIONARY
  5
57B
330
4EB
100
AcDbDictionary
280
     1
281
     1
  3
ACAD_XREC_ROUNDTRIP
360
57C
  0
DICTIONARY
  5
4F4
330
4D5
100
AcDbDictionary
280
     1
281
     1
  3
ACAD_ROUNDTRIP_2008_TABLESTYLE_CELLSTYLEMAP
360
543
  3
ACAD_XREC_ROUNDTRIP
360
578
  0
DICTIONARY
  5
552
330
4C0
100
AcDbDictionary
280
     1
281
     1
  3
ACAD_XREC_ROUNDTRIP
360
553
  0
DICTIONARY
  5
550
330
4BF
100
AcDbDictionary
280
     1
281
     1
  3
ACAD_XREC_ROUNDTRIP
360
551
  0
DICTIONARY
  5
55E
330
4C6
100
AcDbDictionary
280
     1
281
     1
  3
ACAD_XREC_ROUNDTRIP
360
55F
  0
DICTIONARY
  5
566
330
4CA
100
AcDbDictionary
280
     1
281
     1
  3
ACAD_XREC_ROUNDTRIP
360
567
  0
DICTIONARY
  5
558
330
4C3
100
AcDbDictionary
280
     1
281
     1
  3
ACAD_XREC_ROUNDTRIP
360
559
  0
DICTIONARY
  5
55C
330
4C5
100
AcDbDictionary
280
     1
281
     1
  3
ACAD_XREC_ROUNDTRIP
360
55D
  0
DICTIONARY
  5
576
330
4D2
100
AcDbDictionary
280
     1
281
     1
  3
ACAD_XREC_ROUNDTRIP
360
577
  0
DICTIONARY
  5
564
330
4C9
100
AcDbDictionary
280
     1
281
     1
  3
ACAD_XREC_ROUNDTRIP
360
565
  0
DICTIONARY
  5
548
330
4BB
100
AcDbDictionary
280
     1
281
     1
  3
ACAD_XREC_ROUNDTRIP
360
549
  0
DICTIONARY
  5
54A
330
4BC
100
AcDbDictionary
280
     1
281
     1
  3
ACAD_XREC_ROUNDTRIP
360
54B
  0
DICTIONARY
  5
54C
330
4BD
100
AcDbDictionary
280
     1
281
     1
  3
ACAD_XREC_ROUNDTRIP
360
54D
  0
DICTIONARY
  5
54E
330
4BE
100
AcDbDictionary
280
     1
281
     1
  3
ACAD_XREC_ROUNDTRIP
360
54F
  0
DICTIONARY
  5
556
330
4C2
100
AcDbDictionary
280
     1
281
     1
  3
ACAD_XREC_ROUNDTRIP
360
557
  0
DICTIONARY
  5
572
330
4D0
100
AcDbDictionary
280
     1
281
     1
  3
ACAD_XREC_ROUNDTRIP
360
573
  0
DICTIONARY
  5
562
330
4C8
100
AcDbDictionary
280
     1
281
     1
  3
ACAD_XREC_ROUNDTRIP
360
563
  0
DICTIONARY
  5
574
330
4D1
100
AcDbDictionary
280
     1
281
     1
  3
ACAD_XREC_ROUNDTRIP
360
575
  0
DICTIONARY
  5
55A
330
4C4
100
AcDbDictionary
280
     1
281
     1
  3
ACAD_XREC_ROUNDTRIP
360
55B
  0
DICTIONARY
  5
570
330
4CF
100
AcDbDictionary
280
     1
281
     1
  3
ACAD_XREC_ROUNDTRIP
360
571
  0
DICTIONARY
  5
56E
330
4CE
100
AcDbDictionary
280
     1
281
     1
  3
ACAD_XREC_ROUNDTRIP
360
56F
  0
DICTIONARY
  5
568
330
4CB
100
AcDbDictionary
280
     1
281
     1
  3
ACAD_XREC_ROUNDTRIP
360
569
  0
DICTIONARY
  5
56A
330
4CC
100
AcDbDictionary
280
     1
281
     1
  3
ACAD_XREC_ROUNDTRIP
360
56B
  0
DICTIONARY
  5
560
330
4C7
100
AcDbDictionary
280
     1
281
     1
  3
ACAD_XREC_ROUNDTRIP
360
561
  0
DICTIONARY
  5
554
330
4C1
100
AcDbDictionary
280
     1
281
     1
  3
ACAD_XREC_ROUNDTRIP
360
555
  0
DICTIONARY
  5
56C
330
4CD
100
AcDbDictionary
280
     1
281
     1
  3
ACAD_XREC_ROUNDTRIP
360
56D
  0
XRECORD
  5
57E
102
{ACAD_REACTORS
330
57D
102
}
330
57D
100
AcDbXrecord
280
     1
102
DISPLAYNAME
  1
Imperial24
102
FLAGS
 90
        0
  0
XRECORD
  5
546
102
{ACAD_REACTORS
330
4AB
102
}
330
4AB
100
AcDbXrecord
280
     1
102
MATERIAL
148
0.0
149
0.0
149
0.0
 93
        0
 94
      127
282
     0
 72
     0
 77
     0
171
     0
175
     0
179
     0
273
     0
  0
XRECORD
  5
4AD
102
{ACAD_REACTORS
330
4AB
102
}
330
4AB
100
AcDbXrecord
280
     1
270
     1
271
     1
  0
XRECORD
  5
4AC
102
{ACAD_REACTORS
330
4AB
102
}
330
4AB
100
AcDbXrecord
280
     1
270
     1
271
     1
  0
XRECORD
  5
4B0
102
{ACAD_REACTORS
330
4AB
102
}
330
4AB
100
AcDbXrecord
280
     1
270
     1
271
     1
  0
XRECORD
  5
4AF
102
{ACAD_REACTORS
330
4AB
102
}
330
4AB
100
AcDbXrecord
280
     1
270
     1
271
     1
  0
XRECORD
  5
4B1
102
{ACAD_REACTORS
330
4AB
102
}
330
4AB
100
AcDbXrecord
280
     1
270
     1
271
     1
  0
XRECORD
  5
4AE
102
{ACAD_REACTORS
330
4AB
102
}
330
4AB
100
AcDbXrecord
280
     1
270
     1
271
     1
  0
XRECORD
  5
545
102
{ACAD_REACTORS
330
4A3
102
}
330
4A3
100
AcDbXrecord
280
     1
102
MATERIAL
148
0.0
149
0.0
149
0.0
 93
        0
 94
      127
282
     0
 72
     0
 77
     0
171
     0
175
     0
179
     0
273
     0
  0
XRECORD
  5
4A5
102
{ACAD_REACTORS
330
4A3
102
}
330
4A3
100
AcDbXrecord
280
     1
270
     1
271
     1
  0
XRECORD
  5
4A4
102
{ACAD_REACTORS
330
4A3
102
}
330
4A3
100
AcDbXrecord
280
     1
270
     1
271
     1
  0
XRECORD
  5
4A8
102
{ACAD_REACTORS
330
4A3
102
}
330
4A3
100
AcDbXrecord
280
     1
270
     1
271
     1
  0
XRECORD
  5
4A7
102
{ACAD_REACTORS
330
4A3
102
}
330
4A3
100
AcDbXrecord
280
     1
270
     1
271
     1
  0
XRECORD
  5
4A9
102
{ACAD_REACTORS
330
4A3
102
}
330
4A3
100
AcDbXrecord
280
     1
270
     1
271
     1
  0
XRECORD
  5
4A6
102
{ACAD_REACTORS
330
4A3
102
}
330
4A3
100
AcDbXrecord
280
     1
270
     1
271
     1
  0
XRECORD
  5
547
102
{ACAD_REACTORS
330
4B3
102
}
330
4B3
100
AcDbXrecord
280
     1
102
MATERIAL
148
0.0
149
0.0
149
0.0
 93
        0
 94
      127
282
     0
 72
     0
 77
     0
171
     0
175
     0
179
     0
273
     0
  0
XRECORD
  5
4B5
102
{ACAD_REACTORS
330
4B3
102
}
330
4B3
100
AcDbXrecord
280
     1
270
     1
271
     1
  0
XRECORD
  5
4B4
102
{ACAD_REACTORS
330
4B3
102
}
330
4B3
100
AcDbXrecord
280
     1
270
     1
271
     1
  0
XRECORD
  5
4B8
102
{ACAD_REACTORS
330
4B3
102
}
330
4B3
100
AcDbXrecord
280
     1
270
     1
271
     1
  0
XRECORD
  5
4B7
102
{ACAD_REACTORS
330
4B3
102
}
330
4B3
100
AcDbXrecord
280
     1
270
     1
271
     1
  0
XRECORD
  5
4B9
102
{ACAD_REACTORS
330
4B3
102
}
330
4B3
100
AcDbXrecord
280
     1
270
     1
271
     1
  0
XRECORD
  5
4B6
102
{ACAD_REACTORS
330
4B3
102
}
330
4B3
100
AcDbXrecord
280
     1
270
     1
271
     1
  0
XRECORD
  5
57A
102
{ACAD_REACTORS
330
579
102
}
330
579
100
AcDbXrecord
280
     1
102
ACAD_ROUNDTRIP_2012_MLEADER_STYLE
298
     1
  0
XRECORD
  5
57C
102
{ACAD_REACTORS
330
57B
102
}
330
57B
100
AcDbXrecord
280
     1
102
DISPLAYNAME
  1
Imperial24
102
FLAGS
 90
        0
  0
CELLSTYLEMAP
  5
543
102
{ACAD_REACTORS
330
4F4
102
}
330
4F4
100
AcDbCellStyleMap
 90
        3
300
CELLSTYLE
  1
TABLEFORMAT_BEGIN
 90
        5
170
     1
 91
        0
 92
    32768
 62
   257
 93
        1
300
CONTENTFORMAT
  1
CONTENTFORMAT_BEGIN
 90
        0
 91
        0
 92
      512
 93
        0
300

 40
0.0
140
1.0
 94
        5
 62
     0
340
10
144
0.25
309
CONTENTFORMAT_END
171
     0
 94
        0
309
TABLEFORMAT_END
  1
CELLSTYLE_BEGIN
 90
        1
 91
        1
300
_TITLE
309
CELLSTYLE_END
300
CELLSTYLE
  1
TABLEFORMAT_BEGIN
 90
        5
170
     1
 91
        0
 92
        0
 62
   257
 93
        1
300
CONTENTFORMAT
  1
CONTENTFORMAT_BEGIN
 90
        0
 91
        0
 92
      512
 93
        0
300

 40
0.0
140
1.0
 94
        5
 62
     0
340
10
144
0.18
309
CONTENTFORMAT_END
171
     0
 94
        0
309
TABLEFORMAT_END
  1
CELLSTYLE_BEGIN
 90
        2
 91
        1
300
_HEADER
309
CELLSTYLE_END
300
CELLSTYLE
  1
TABLEFORMAT_BEGIN
 90
        5
170
     1
 91
        0
 92
        0
 62
   257
 93
        1
300
CONTENTFORMAT
  1
CONTENTFORMAT_BEGIN
 90
        0
 91
        0
 92
      512
 93
        0
300

 40
0.0
140
1.0
 94
        2
 62
     0
340
10
144
0.18
309
CONTENTFORMAT_END
171
     0
 94
        0
309
TABLEFORMAT_END
  1
CELLSTYLE_BEGIN
 90
        3
 91
        2
300
_DATA
309
CELLSTYLE_END
  0
XRECORD
  5
578
102
{ACAD_REACTORS
330
4F4
102
}
330
4F4
100
AcDbXrecord
280
     1
102
ACAD_ROUNDTRIP_PRE2007_TABLESTYLE
 90
      512
 91
        0
  1

 92
      512
 93
        0
  2

 94
      512
 95
        0
  3

  0
XRECORD
  5
553
102
{ACAD_REACTORS
330
552
102
}
330
552
100
AcDbXrecord
280
     1
102
RTVSPost2010Prop28
280
     1
102
RTVSPost2010PropOp28
 70
     1
102
RTVSPost2010Prop29
280
     1
102
RTVSPost2010PropOp29
 70
     1
102
RTVSPost2010Prop30
280
     0
102
RTVSPost2010PropOp30
 70
     1
102
RTVSPost2010Prop31
280
     0
102
RTVSPost2010PropOp31
 70
     1
102
RTVSPost2010Prop32
280
     0
102
RTVSPost2010PropOp32
 70
     1
102
RTVSPost2010Prop33
280
     0
102
RTVSPost2010PropOp33
 70
     1
102
RTVSPost2010Prop34
280
     0
102
RTVSPost2010PropOp34
 70
     1
102
RTVSPost2010Prop35
280
     0
102
RTVSPost2010PropOp35
 70
     1
102
RTVSPost2010Prop36
280
     0
102
RTVSPost2010PropOp36
 70
     1
102
RTVSPost2010Prop37
 90
       50
102
RTVSPost2010PropOp37
 70
     1
102
RTVSPost2010Prop38
140
0.0
102
RTVSPost2010PropOp38
 70
     1
102
RTVSPost2010Prop39
140
1.0
102
RTVSPost2010PropOp39
 70
     1
102
RTVSPost2010Prop40
 90
        0
102
RTVSPost2010PropOp40
 70
     1
102
RTVSPost2010Prop41ColorIndex
 90
       18
102
RTVSPost2010Prop41ColorRGB
 90
        0
102
RTVSPost2010PropOp41
 70
     1
102
RTVSPost2010Prop42
 90
       50
102
RTVSPost2010PropOp42
 70
     1
102
RTVSPost2010Prop43
 90
        3
102
RTVSPost2010PropOp43
 70
     1
102
RTVSPost2010Prop44ColorIndex
 90
        5
102
RTVSPost2010Prop44ColorRGB
 90
      255
102
RTVSPost2010PropOp44
 70
     1
102
RTVSPost2010Prop45
280
     0
102
RTVSPost2010PropOp45
 70
     1
102
RTVSPost2010Prop46
 90
       50
102
RTVSPost2010PropOp46
 70
     1
102
RTVSPost2010Prop47
 90
       50
102
RTVSPost2010PropOp47
 70
     1
102
RTVSPost2010Prop48
 90
       50
102
RTVSPost2010PropOp48
 70
     1
102
RTVSPost2010Prop49
280
     0
102
RTVSPost2010PropOp49
 70
     1
102
RTVSPost2010Prop50
 90
       50
102
RTVSPost2010PropOp50
 70
     1
102
RTVSPost2010Prop51ColorIndex
 90
      256
102
RTVSPost2010Prop51ColorRGB
 90
-16777216
102
RTVSPost2010PropOp51
 70
     0
102
RTVSPost2010Prop52
140
1.0
102
RTVSPost2010PropOp52
 70
     0
102
RTVSPost2010Prop53
 90
        2
102
RTVSPost2010PropOp53
 70
     1
102
RTVSPost2010Prop54
  1
strokes_ogs.tif
102
RTVSPost2010PropOp54
 70
     1
102
RTVSPost2010Prop55
280
     0
102
RTVSPost2010PropOp55
 70
     1
102
RTVSPost2010Prop56
140
1.0
102
RTVSPost2010PropOp56
 70
     1
102
RTVSPost2010Prop57
140
1.0
102
RTVSPost2010PropOp57
 70
     1
102
RTVSPropertyOp0
 70
     1
102
RTVSPropertyOp1
 70
     1
102
RTVSPropertyOp2
 70
     1
102
RTVSPropertyOp3
 70
     1
102
RTVSPropertyOp4
 70
     1
102
RTVSPropertyOp5
 70
     1
102
RTVSPropertyOp6
 70
     1
102
RTVSPropertyOp7
 70
     1
102
RTVSPropertyOp8
 70
     1
102
RTVSPropertyOp9
 70
     1
102
RTVSPropertyOp10
 70
     1
102
RTVSPropertyOp11
 70
     1
102
RTVSPropertyOp12
 70
     1
102
RTVSPropertyOp13
 70
     1
102
RTVSPropertyOp14
 70
     1
102
RTVSPropertyOp15
 70
     1
102
RTVSPropertyOp16
 70
     1
102
RTVSPropertyOp17
 70
     1
102
RTVSPropertyOp18
 70
     1
102
RTVSPropertyOp19
 70
     1
102
RTVSPropertyOp20
 70
     1
102
RTVSPropertyOp21
 70
     1
102
RTVSPropertyOp22
 70
     1
102
RTVSPropertyOp23
 70
     1
102
RTVSPropertyOp24
 70
     1
102
RTVSPropertyOp25
 70
     1
102
RTVSPropertyOp26
 70
     1
102
RTVSPropertyOp27
 70
     1
102
RTVSPropertyOp28
 70
     1
102
RTVSPropertyOp29
 70
     1
102
RTVSPropertyOp30
 70
     1
102
RTVSPropertyOp31
 70
     1
102
RTVSPropertyOp32
 70
     1
102
RTVSPropertyOp33
 70
     1
102
RTVSPropertyOp34
 70
     1
102
RTVSPropertyOp35
 70
     1
102
RTVSPropertyOp36
 70
     1
102
RTVSPropertyOp37
 70
     1
102
RTVSPropertyOp38
 70
     1
102
RTVSPropertyOp39
 70
     1
102
RTVSPropertyOp40
 70
     1
102
RTVSPropertyOp41
 70
     1
102
RTVSPropertyOp42
 70
     1
102
RTVSPropertyOp43
 70
     1
102
RTVSPropertyOp44
 70
     1
102
RTVSPropertyOp45
 70
     1
102
RTVSPropertyOp46
 70
     1
102
RTVSPropertyOp47
 70
     1
102
RTVSPropertyOp48
 70
     1
102
RTVSPropertyOp49
 70
     1
102
RTVSPropertyOp50
 70
     1
102
RTVSPropertyOp51
 70
     0
102
RTVSPropertyOp52
 70
     0
102
RTVSPropertyOp53
 70
     1
102
RTVSPropertyOp54
 70
     1
102
RTVSPropertyOp55
 70
     1
102
RTVSPropertyOp56
 70
     1
102
RTVSPropertyOp57
 70
     1
102
RTVSPropertyOp58
 70
     1
102
RTVSPropertyOp59
 70
     1
102
RTVSPropertyOp60
 70
     1
102
RTVSPropertyOp61
 70
     1
102
RTVSPropertyOp62
 70
     1
  0
XRECORD
  5
551
102
{ACAD_REACTORS
330
550
102
}
330
550
100
AcDbXrecord
280
     1
102
RTVSPost2010Prop28
280
     0
102
RTVSPost2010PropOp28
 70
     1
102
RTVSPost2010Prop29
280
     1
102
RTVSPost2010PropOp29
 70
     1
102
RTVSPost2010Prop30
280
     1
102
RTVSPost2010PropOp30
 70
     1
102
RTVSPost2010Prop31
280
     0
102
RTVSPost2010PropOp31
 70
     1
102
RTVSPost2010Prop32
280
     0
102
RTVSPost2010PropOp32
 70
     1
102
RTVSPost2010Prop33
280
     0
102
RTVSPost2010PropOp33
 70
     1
102
RTVSPost2010Prop34
280
     0
102
RTVSPost2010PropOp34
 70
     1
102
RTVSPost2010Prop35
280
     0
102
RTVSPost2010PropOp35
 70
     1
102
RTVSPost2010Prop36
280
     0
102
RTVSPost2010PropOp36
 70
     1
102
RTVSPost2010Prop37
 90
       50
102
RTVSPost2010PropOp37
 70
     1
102
RTVSPost2010Prop38
140
0.0
102
RTVSPost2010PropOp38
 70
     1
102
RTVSPost2010Prop39
140
1.0
102
RTVSPost2010PropOp39
 70
     1
102
RTVSPost2010Prop40
 90
        0
102
RTVSPost2010PropOp40
 70
     1
102
RTVSPost2010Prop41ColorIndex
 90
       18
102
RTVSPost2010Prop41ColorRGB
 90
        0
102
RTVSPost2010PropOp41
 70
     1
102
RTVSPost2010Prop42
 90
       50
102
RTVSPost2010PropOp42
 70
     1
102
RTVSPost2010Prop43
 90
        3
102
RTVSPost2010PropOp43
 70
     1
102
RTVSPost2010Prop44ColorIndex
 90
        5
102
RTVSPost2010Prop44ColorRGB
 90
      255
102
RTVSPost2010PropOp44
 70
     1
102
RTVSPost2010Prop45
280
     0
102
RTVSPost2010PropOp45
 70
     1
102
RTVSPost2010Prop46
 90
       50
102
RTVSPost2010PropOp46
 70
     1
102
RTVSPost2010Prop47
 90
       50
102
RTVSPost2010PropOp47
 70
     1
102
RTVSPost2010Prop48
 90
       50
102
RTVSPost2010PropOp48
 70
     1
102
RTVSPost2010Prop49
280
     0
102
RTVSPost2010PropOp49
 70
     1
102
RTVSPost2010Prop50
 90
       50
102
RTVSPost2010PropOp50
 70
     1
102
RTVSPost2010Prop51ColorIndex
 90
      256
102
RTVSPost2010Prop51ColorRGB
 90
-16777216
102
RTVSPost2010PropOp51
 70
     0
102
RTVSPost2010Prop52
140
1.0
102
RTVSPost2010PropOp52
 70
     0
102
RTVSPost2010Prop53
 90
        2
102
RTVSPost2010PropOp53
 70
     1
102
RTVSPost2010Prop54
  1
strokes_ogs.tif
102
RTVSPost2010PropOp54
 70
     1
102
RTVSPost2010Prop55
280
     0
102
RTVSPost2010PropOp55
 70
     1
102
RTVSPost2010Prop56
140
1.0
102
RTVSPost2010PropOp56
 70
     1
102
RTVSPost2010Prop57
140
1.0
102
RTVSPost2010PropOp57
 70
     1
102
RTVSPropertyOp0
 70
     1
102
RTVSPropertyOp1
 70
     1
102
RTVSPropertyOp2
 70
     1
102
RTVSPropertyOp3
 70
     1
102
RTVSPropertyOp4
 70
     1
102
RTVSPropertyOp5
 70
     1
102
RTVSPropertyOp6
 70
     1
102
RTVSPropertyOp7
 70
     1
102
RTVSPropertyOp8
 70
     1
102
RTVSPropertyOp9
 70
     1
102
RTVSPropertyOp10
 70
     1
102
RTVSPropertyOp11
 70
     1
102
RTVSPropertyOp12
 70
     1
102
RTVSPropertyOp13
 70
     1
102
RTVSPropertyOp14
 70
     1
102
RTVSPropertyOp15
 70
     1
102
RTVSPropertyOp16
 70
     1
102
RTVSPropertyOp17
 70
     1
102
RTVSPropertyOp18
 70
     1
102
RTVSPropertyOp19
 70
     1
102
RTVSPropertyOp20
 70
     1
102
RTVSPropertyOp21
 70
     1
102
RTVSPropertyOp22
 70
     1
102
RTVSPropertyOp23
 70
     1
102
RTVSPropertyOp24
 70
     1
102
RTVSPropertyOp25
 70
     1
102
RTVSPropertyOp26
 70
     1
102
RTVSPropertyOp27
 70
     1
102
RTVSPropertyOp28
 70
     1
102
RTVSPropertyOp29
 70
     1
102
RTVSPropertyOp30
 70
     1
102
RTVSPropertyOp31
 70
     1
102
RTVSPropertyOp32
 70
     1
102
RTVSPropertyOp33
 70
     1
102
RTVSPropertyOp34
 70
     1
102
RTVSPropertyOp35
 70
     1
102
RTVSPropertyOp36
 70
     1
102
RTVSPropertyOp37
 70
     1
102
RTVSPropertyOp38
 70
     1
102
RTVSPropertyOp39
 70
     1
102
RTVSPropertyOp40
 70
     1
102
RTVSPropertyOp41
 70
     1
102
RTVSPropertyOp42
 70
     1
102
RTVSPropertyOp43
 70
     1
102
RTVSPropertyOp44
 70
     1
102
RTVSPropertyOp45
 70
     1
102
RTVSPropertyOp46
 70
     1
102
RTVSPropertyOp47
 70
     1
102
RTVSPropertyOp48
 70
     1
102
RTVSPropertyOp49
 70
     1
102
RTVSPropertyOp50
 70
     1
102
RTVSPropertyOp51
 70
     0
102
RTVSPropertyOp52
 70
     0
102
RTVSPropertyOp53
 70
     1
102
RTVSPropertyOp54
 70
     1
102
RTVSPropertyOp55
 70
     1
102
RTVSPropertyOp56
 70
     1
102
RTVSPropertyOp57
 70
     1
102
RTVSPropertyOp58
 70
     1
102
RTVSPropertyOp59
 70
     1
102
RTVSPropertyOp60
 70
     1
102
RTVSPropertyOp61
 70
     1
102
RTVSPropertyOp62
 70
     1
  0
XRECORD
  5
55F
102
{ACAD_REACTORS
330
55E
102
}
330
55E
100
AcDbXrecord
280
     1
102
RTVSPost2010Prop28
280
     0
102
RTVSPost2010PropOp28
 70
     1
102
RTVSPost2010Prop29
280
     1
102
RTVSPost2010PropOp29
 70
     1
102
RTVSPost2010Prop30
280
     1
102
RTVSPost2010PropOp30
 70
     1
102
RTVSPost2010Prop31
280
     0
102
RTVSPost2010PropOp31
 70
     1
102
RTVSPost2010Prop32
280
     0
102
RTVSPost2010PropOp32
 70
     1
102
RTVSPost2010Prop33
280
     0
102
RTVSPost2010PropOp33
 70
     1
102
RTVSPost2010Prop34
280
     0
102
RTVSPost2010PropOp34
 70
     1
102
RTVSPost2010Prop35
280
     0
102
RTVSPost2010PropOp35
 70
     1
102
RTVSPost2010Prop36
280
     0
102
RTVSPost2010PropOp36
 70
     1
102
RTVSPost2010Prop37
 90
       50
102
RTVSPost2010PropOp37
 70
     1
102
RTVSPost2010Prop38
140
0.0
102
RTVSPost2010PropOp38
 70
     1
102
RTVSPost2010Prop39
140
1.0
102
RTVSPost2010PropOp39
 70
     1
102
RTVSPost2010Prop40
 90
        0
102
RTVSPost2010PropOp40
 70
     1
102
RTVSPost2010Prop41ColorIndex
 90
       18
102
RTVSPost2010Prop41ColorRGB
 90
        0
102
RTVSPost2010PropOp41
 70
     1
102
RTVSPost2010Prop42
 90
       50
102
RTVSPost2010PropOp42
 70
     1
102
RTVSPost2010Prop43
 90
        3
102
RTVSPost2010PropOp43
 70
     1
102
RTVSPost2010Prop44ColorIndex
 90
        5
102
RTVSPost2010Prop44ColorRGB
 90
      255
102
RTVSPost2010PropOp44
 70
     1
102
RTVSPost2010Prop45
280
     0
102
RTVSPost2010PropOp45
 70
     1
102
RTVSPost2010Prop46
 90
       50
102
RTVSPost2010PropOp46
 70
     1
102
RTVSPost2010Prop47
 90
       50
102
RTVSPost2010PropOp47
 70
     1
102
RTVSPost2010Prop48
 90
       50
102
RTVSPost2010PropOp48
 70
     1
102
RTVSPost2010Prop49
280
     0
102
RTVSPost2010PropOp49
 70
     1
102
RTVSPost2010Prop50
 90
       50
102
RTVSPost2010PropOp50
 70
     1
102
RTVSPost2010Prop51ColorIndex
 90
      256
102
RTVSPost2010Prop51ColorRGB
 90
-16777216
102
RTVSPost2010PropOp51
 70
     0
102
RTVSPost2010Prop52
140
1.0
102
RTVSPost2010PropOp52
 70
     0
102
RTVSPost2010Prop53
 90
        2
102
RTVSPost2010PropOp53
 70
     1
102
RTVSPost2010Prop54
  1
strokes_ogs.tif
102
RTVSPost2010PropOp54
 70
     1
102
RTVSPost2010Prop55
280
     0
102
RTVSPost2010PropOp55
 70
     1
102
RTVSPost2010Prop56
140
1.0
102
RTVSPost2010PropOp56
 70
     1
102
RTVSPost2010Prop57
140
1.0
102
RTVSPost2010PropOp57
 70
     1
102
RTVSPropertyOp0
 70
     1
102
RTVSPropertyOp1
 70
     1
102
RTVSPropertyOp2
 70
     1
102
RTVSPropertyOp3
 70
     1
102
RTVSPropertyOp4
 70
     1
102
RTVSPropertyOp5
 70
     1
102
RTVSPropertyOp6
 70
     1
102
RTVSPropertyOp7
 70
     1
102
RTVSPropertyOp8
 70
     1
102
RTVSPropertyOp9
 70
     1
102
RTVSPropertyOp10
 70
     1
102
RTVSPropertyOp11
 70
     1
102
RTVSPropertyOp12
 70
     1
102
RTVSPropertyOp13
 70
     1
102
RTVSPropertyOp14
 70
     1
102
RTVSPropertyOp15
 70
     1
102
RTVSPropertyOp16
 70
     1
102
RTVSPropertyOp17
 70
     1
102
RTVSPropertyOp18
 70
     1
102
RTVSPropertyOp19
 70
     1
102
RTVSPropertyOp20
 70
     1
102
RTVSPropertyOp21
 70
     1
102
RTVSPropertyOp22
 70
     1
102
RTVSPropertyOp23
 70
     1
102
RTVSPropertyOp24
 70
     1
102
RTVSPropertyOp25
 70
     1
102
RTVSPropertyOp26
 70
     1
102
RTVSPropertyOp27
 70
     1
102
RTVSPropertyOp28
 70
     1
102
RTVSPropertyOp29
 70
     1
102
RTVSPropertyOp30
 70
     1
102
RTVSPropertyOp31
 70
     1
102
RTVSPropertyOp32
 70
     1
102
RTVSPropertyOp33
 70
     1
102
RTVSPropertyOp34
 70
     1
102
RTVSPropertyOp35
 70
     1
102
RTVSPropertyOp36
 70
     1
102
RTVSPropertyOp37
 70
     1
102
RTVSPropertyOp38
 70
     1
102
RTVSPropertyOp39
 70
     1
102
RTVSPropertyOp40
 70
     1
102
RTVSPropertyOp41
 70
     1
102
RTVSPropertyOp42
 70
     1
102
RTVSPropertyOp43
 70
     1
102
RTVSPropertyOp44
 70
     1
102
RTVSPropertyOp45
 70
     1
102
RTVSPropertyOp46
 70
     1
102
RTVSPropertyOp47
 70
     1
102
RTVSPropertyOp48
 70
     1
102
RTVSPropertyOp49
 70
     1
102
RTVSPropertyOp50
 70
     1
102
RTVSPropertyOp51
 70
     0
102
RTVSPropertyOp52
 70
     0
102
RTVSPropertyOp53
 70
     1
102
RTVSPropertyOp54
 70
     1
102
RTVSPropertyOp55
 70
     1
102
RTVSPropertyOp56
 70
     1
102
RTVSPropertyOp57
 70
     1
102
RTVSPropertyOp58
 70
     1
102
RTVSPropertyOp59
 70
     1
102
RTVSPropertyOp60
 70
     1
102
RTVSPropertyOp61
 70
     1
102
RTVSPropertyOp62
 70
     1
  0
XRECORD
  5
567
102
{ACAD_REACTORS
330
566
102
}
330
566
100
AcDbXrecord
280
     1
102
RTVSPost2010Prop28
280
     0
102
RTVSPost2010PropOp28
 70
     1
102
RTVSPost2010Prop29
280
     1
102
RTVSPost2010PropOp29
 70
     1
102
RTVSPost2010Prop30
280
     1
102
RTVSPost2010PropOp30
 70
     1
102
RTVSPost2010Prop31
280
     0
102
RTVSPost2010PropOp31
 70
     1
102
RTVSPost2010Prop32
280
     0
102
RTVSPost2010PropOp32
 70
     1
102
RTVSPost2010Prop33
280
     0
102
RTVSPost2010PropOp33
 70
     1
102
RTVSPost2010Prop34
280
     0
102
RTVSPost2010PropOp34
 70
     1
102
RTVSPost2010Prop35
280
     0
102
RTVSPost2010PropOp35
 70
     1
102
RTVSPost2010Prop36
280
     0
102
RTVSPost2010PropOp36
 70
     1
102
RTVSPost2010Prop37
 90
       50
102
RTVSPost2010PropOp37
 70
     1
102
RTVSPost2010Prop38
140
0.0
102
RTVSPost2010PropOp38
 70
     1
102
RTVSPost2010Prop39
140
1.0
102
RTVSPost2010PropOp39
 70
     1
102
RTVSPost2010Prop40
 90
        0
102
RTVSPost2010PropOp40
 70
     1
102
RTVSPost2010Prop41ColorIndex
 90
       18
102
RTVSPost2010Prop41ColorRGB
 90
        0
102
RTVSPost2010PropOp41
 70
     1
102
RTVSPost2010Prop42
 90
       50
102
RTVSPost2010PropOp42
 70
     1
102
RTVSPost2010Prop43
 90
        3
102
RTVSPost2010PropOp43
 70
     1
102
RTVSPost2010Prop44ColorIndex
 90
        5
102
RTVSPost2010Prop44ColorRGB
 90
      255
102
RTVSPost2010PropOp44
 70
     1
102
RTVSPost2010Prop45
280
     0
102
RTVSPost2010PropOp45
 70
     1
102
RTVSPost2010Prop46
 90
       50
102
RTVSPost2010PropOp46
 70
     1
102
RTVSPost2010Prop47
 90
       50
102
RTVSPost2010PropOp47
 70
     1
102
RTVSPost2010Prop48
 90
       50
102
RTVSPost2010PropOp48
 70
     1
102
RTVSPost2010Prop49
280
     0
102
RTVSPost2010PropOp49
 70
     1
102
RTVSPost2010Prop50
 90
       50
102
RTVSPost2010PropOp50
 70
     1
102
RTVSPost2010Prop51ColorIndex
 90
      256
102
RTVSPost2010Prop51ColorRGB
 90
-16777216
102
RTVSPost2010PropOp51
 70
     0
102
RTVSPost2010Prop52
140
1.0
102
RTVSPost2010PropOp52
 70
     0
102
RTVSPost2010Prop53
 90
        2
102
RTVSPost2010PropOp53
 70
     1
102
RTVSPost2010Prop54
  1
strokes_ogs.tif
102
RTVSPost2010PropOp54
 70
     1
102
RTVSPost2010Prop55
280
     0
102
RTVSPost2010PropOp55
 70
     1
102
RTVSPost2010Prop56
140
1.0
102
RTVSPost2010PropOp56
 70
     1
102
RTVSPost2010Prop57
140
1.0
102
RTVSPost2010PropOp57
 70
     1
102
RTVSPropertyOp0
 70
     1
102
RTVSPropertyOp1
 70
     1
102
RTVSPropertyOp2
 70
     1
102
RTVSPropertyOp3
 70
     1
102
RTVSPropertyOp4
 70
     1
102
RTVSPropertyOp5
 70
     1
102
RTVSPropertyOp6
 70
     1
102
RTVSPropertyOp7
 70
     1
102
RTVSPropertyOp8
 70
     1
102
RTVSPropertyOp9
 70
     1
102
RTVSPropertyOp10
 70
     1
102
RTVSPropertyOp11
 70
     1
102
RTVSPropertyOp12
 70
     1
102
RTVSPropertyOp13
 70
     1
102
RTVSPropertyOp14
 70
     1
102
RTVSPropertyOp15
 70
     1
102
RTVSPropertyOp16
 70
     1
102
RTVSPropertyOp17
 70
     1
102
RTVSPropertyOp18
 70
     1
102
RTVSPropertyOp19
 70
     1
102
RTVSPropertyOp20
 70
     1
102
RTVSPropertyOp21
 70
     1
102
RTVSPropertyOp22
 70
     1
102
RTVSPropertyOp23
 70
     1
102
RTVSPropertyOp24
 70
     1
102
RTVSPropertyOp25
 70
     1
102
RTVSPropertyOp26
 70
     1
102
RTVSPropertyOp27
 70
     1
102
RTVSPropertyOp28
 70
     1
102
RTVSPropertyOp29
 70
     1
102
RTVSPropertyOp30
 70
     1
102
RTVSPropertyOp31
 70
     1
102
RTVSPropertyOp32
 70
     1
102
RTVSPropertyOp33
 70
     1
102
RTVSPropertyOp34
 70
     1
102
RTVSPropertyOp35
 70
     1
102
RTVSPropertyOp36
 70
     1
102
RTVSPropertyOp37
 70
     1
102
RTVSPropertyOp38
 70
     1
102
RTVSPropertyOp39
 70
     1
102
RTVSPropertyOp40
 70
     1
102
RTVSPropertyOp41
 70
     1
102
RTVSPropertyOp42
 70
     1
102
RTVSPropertyOp43
 70
     1
102
RTVSPropertyOp44
 70
     1
102
RTVSPropertyOp45
 70
     1
102
RTVSPropertyOp46
 70
     1
102
RTVSPropertyOp47
 70
     1
102
RTVSPropertyOp48
 70
     1
102
RTVSPropertyOp49
 70
     1
102
RTVSPropertyOp50
 70
     1
102
RTVSPropertyOp51
 70
     0
102
RTVSPropertyOp52
 70
     0
102
RTVSPropertyOp53
 70
     1
102
RTVSPropertyOp54
 70
     1
102
RTVSPropertyOp55
 70
     1
102
RTVSPropertyOp56
 70
     1
102
RTVSPropertyOp57
 70
     1
102
RTVSPropertyOp58
 70
     1
102
RTVSPropertyOp59
 70
     1
102
RTVSPropertyOp60
 70
     1
102
RTVSPropertyOp61
 70
     1
102
RTVSPropertyOp62
 70
     1
  0
XRECORD
  5
559
102
{ACAD_REACTORS
330
558
102
}
330
558
100
AcDbXrecord
280
     1
102
RTVSPost2010Prop28
280
     0
102
RTVSPost2010PropOp28
 70
     1
102
RTVSPost2010Prop29
280
     1
102
RTVSPost2010PropOp29
 70
     1
102
RTVSPost2010Prop30
280
     1
102
RTVSPost2010PropOp30
 70
     1
102
RTVSPost2010Prop31
280
     0
102
RTVSPost2010PropOp31
 70
     1
102
RTVSPost2010Prop32
280
     0
102
RTVSPost2010PropOp32
 70
     1
102
RTVSPost2010Prop33
280
     0
102
RTVSPost2010PropOp33
 70
     1
102
RTVSPost2010Prop34
280
     0
102
RTVSPost2010PropOp34
 70
     1
102
RTVSPost2010Prop35
280
     0
102
RTVSPost2010PropOp35
 70
     1
102
RTVSPost2010Prop36
280
     0
102
RTVSPost2010PropOp36
 70
     1
102
RTVSPost2010Prop37
 90
       50
102
RTVSPost2010PropOp37
 70
     1
102
RTVSPost2010Prop38
140
0.0
102
RTVSPost2010PropOp38
 70
     1
102
RTVSPost2010Prop39
140
1.0
102
RTVSPost2010PropOp39
 70
     1
102
RTVSPost2010Prop40
 90
        0
102
RTVSPost2010PropOp40
 70
     1
102
RTVSPost2010Prop41ColorIndex
 90
       18
102
RTVSPost2010Prop41ColorRGB
 90
        0
102
RTVSPost2010PropOp41
 70
     1
102
RTVSPost2010Prop42
 90
       50
102
RTVSPost2010PropOp42
 70
     1
102
RTVSPost2010Prop43
 90
        3
102
RTVSPost2010PropOp43
 70
     1
102
RTVSPost2010Prop44ColorIndex
 90
        5
102
RTVSPost2010Prop44ColorRGB
 90
      255
102
RTVSPost2010PropOp44
 70
     1
102
RTVSPost2010Prop45
280
     0
102
RTVSPost2010PropOp45
 70
     1
102
RTVSPost2010Prop46
 90
       50
102
RTVSPost2010PropOp46
 70
     1
102
RTVSPost2010Prop47
 90
       50
102
RTVSPost2010PropOp47
 70
     1
102
RTVSPost2010Prop48
 90
       50
102
RTVSPost2010PropOp48
 70
     1
102
RTVSPost2010Prop49
280
     0
102
RTVSPost2010PropOp49
 70
     1
102
RTVSPost2010Prop50
 90
       50
102
RTVSPost2010PropOp50
 70
     1
102
RTVSPost2010Prop51ColorIndex
 90
      256
102
RTVSPost2010Prop51ColorRGB
 90
-16777216
102
RTVSPost2010PropOp51
 70
     0
102
RTVSPost2010Prop52
140
1.0
102
RTVSPost2010PropOp52
 70
     0
102
RTVSPost2010Prop53
 90
        2
102
RTVSPost2010PropOp53
 70
     1
102
RTVSPost2010Prop54
  1
strokes_ogs.tif
102
RTVSPost2010PropOp54
 70
     1
102
RTVSPost2010Prop55
280
     0
102
RTVSPost2010PropOp55
 70
     1
102
RTVSPost2010Prop56
140
1.0
102
RTVSPost2010PropOp56
 70
     1
102
RTVSPost2010Prop57
140
1.0
102
RTVSPost2010PropOp57
 70
     1
102
RTVSPropertyOp0
 70
     1
102
RTVSPropertyOp1
 70
     1
102
RTVSPropertyOp2
 70
     1
102
RTVSPropertyOp3
 70
     1
102
RTVSPropertyOp4
 70
     1
102
RTVSPropertyOp5
 70
     1
102
RTVSPropertyOp6
 70
     1
102
RTVSPropertyOp7
 70
     1
102
RTVSPropertyOp8
 70
     1
102
RTVSPropertyOp9
 70
     1
102
RTVSPropertyOp10
 70
     1
102
RTVSPropertyOp11
 70
     1
102
RTVSPropertyOp12
 70
     1
102
RTVSPropertyOp13
 70
     1
102
RTVSPropertyOp14
 70
     1
102
RTVSPropertyOp15
 70
     1
102
RTVSPropertyOp16
 70
     1
102
RTVSPropertyOp17
 70
     1
102
RTVSPropertyOp18
 70
     1
102
RTVSPropertyOp19
 70
     1
102
RTVSPropertyOp20
 70
     1
102
RTVSPropertyOp21
 70
     1
102
RTVSPropertyOp22
 70
     1
102
RTVSPropertyOp23
 70
     1
102
RTVSPropertyOp24
 70
     1
102
RTVSPropertyOp25
 70
     1
102
RTVSPropertyOp26
 70
     1
102
RTVSPropertyOp27
 70
     1
102
RTVSPropertyOp28
 70
     1
102
RTVSPropertyOp29
 70
     1
102
RTVSPropertyOp30
 70
     1
102
RTVSPropertyOp31
 70
     1
102
RTVSPropertyOp32
 70
     1
102
RTVSPropertyOp33
 70
     1
102
RTVSPropertyOp34
 70
     1
102
RTVSPropertyOp35
 70
     1
102
RTVSPropertyOp36
 70
     1
102
RTVSPropertyOp37
 70
     1
102
RTVSPropertyOp38
 70
     1
102
RTVSPropertyOp39
 70
     1
102
RTVSPropertyOp40
 70
     1
102
RTVSPropertyOp41
 70
     1
102
RTVSPropertyOp42
 70
     1
102
RTVSPropertyOp43
 70
     1
102
RTVSPropertyOp44
 70
     1
102
RTVSPropertyOp45
 70
     1
102
RTVSPropertyOp46
 70
     1
102
RTVSPropertyOp47
 70
     1
102
RTVSPropertyOp48
 70
     1
102
RTVSPropertyOp49
 70
     1
102
RTVSPropertyOp50
 70
     1
102
RTVSPropertyOp51
 70
     0
102
RTVSPropertyOp52
 70
     0
102
RTVSPropertyOp53
 70
     1
102
RTVSPropertyOp54
 70
     1
102
RTVSPropertyOp55
 70
     1
102
RTVSPropertyOp56
 70
     1
102
RTVSPropertyOp57
 70
     1
102
RTVSPropertyOp58
 70
     1
102
RTVSPropertyOp59
 70
     1
102
RTVSPropertyOp60
 70
     1
102
RTVSPropertyOp61
 70
     1
102
RTVSPropertyOp62
 70
     1
  0
XRECORD
  5
55D
102
{ACAD_REACTORS
330
55C
102
}
330
55C
100
AcDbXrecord
280
     1
102
RTVSPost2010Prop28
280
     0
102
RTVSPost2010PropOp28
 70
     1
102
RTVSPost2010Prop29
280
     1
102
RTVSPost2010PropOp29
 70
     1
102
RTVSPost2010Prop30
280
     1
102
RTVSPost2010PropOp30
 70
     1
102
RTVSPost2010Prop31
280
     0
102
RTVSPost2010PropOp31
 70
     1
102
RTVSPost2010Prop32
280
     0
102
RTVSPost2010PropOp32
 70
     1
102
RTVSPost2010Prop33
280
     0
102
RTVSPost2010PropOp33
 70
     1
102
RTVSPost2010Prop34
280
     0
102
RTVSPost2010PropOp34
 70
     1
102
RTVSPost2010Prop35
280
     0
102
RTVSPost2010PropOp35
 70
     1
102
RTVSPost2010Prop36
280
     0
102
RTVSPost2010PropOp36
 70
     1
102
RTVSPost2010Prop37
 90
       50
102
RTVSPost2010PropOp37
 70
     1
102
RTVSPost2010Prop38
140
0.0
102
RTVSPost2010PropOp38
 70
     1
102
RTVSPost2010Prop39
140
1.0
102
RTVSPost2010PropOp39
 70
     1
102
RTVSPost2010Prop40
 90
        0
102
RTVSPost2010PropOp40
 70
     1
102
RTVSPost2010Prop41ColorIndex
 90
       18
102
RTVSPost2010Prop41ColorRGB
 90
        0
102
RTVSPost2010PropOp41
 70
     1
102
RTVSPost2010Prop42
 90
       50
102
RTVSPost2010PropOp42
 70
     1
102
RTVSPost2010Prop43
 90
        3
102
RTVSPost2010PropOp43
 70
     1
102
RTVSPost2010Prop44ColorIndex
 90
        5
102
RTVSPost2010Prop44ColorRGB
 90
      255
102
RTVSPost2010PropOp44
 70
     1
102
RTVSPost2010Prop45
280
     0
102
RTVSPost2010PropOp45
 70
     1
102
RTVSPost2010Prop46
 90
       50
102
RTVSPost2010PropOp46
 70
     1
102
RTVSPost2010Prop47
 90
       50
102
RTVSPost2010PropOp47
 70
     1
102
RTVSPost2010Prop48
 90
       50
102
RTVSPost2010PropOp48
 70
     1
102
RTVSPost2010Prop49
280
     0
102
RTVSPost2010PropOp49
 70
     1
102
RTVSPost2010Prop50
 90
       50
102
RTVSPost2010PropOp50
 70
     1
102
RTVSPost2010Prop51ColorIndex
 90
      256
102
RTVSPost2010Prop51ColorRGB
 90
-16777216
102
RTVSPost2010PropOp51
 70
     0
102
RTVSPost2010Prop52
140
1.0
102
RTVSPost2010PropOp52
 70
     0
102
RTVSPost2010Prop53
 90
        2
102
RTVSPost2010PropOp53
 70
     1
102
RTVSPost2010Prop54
  1
strokes_ogs.tif
102
RTVSPost2010PropOp54
 70
     1
102
RTVSPost2010Prop55
280
     0
102
RTVSPost2010PropOp55
 70
     1
102
RTVSPost2010Prop56
140
1.0
102
RTVSPost2010PropOp56
 70
     1
102
RTVSPost2010Prop57
140
1.0
102
RTVSPost2010PropOp57
 70
     1
102
RTVSPropertyOp0
 70
     1
102
RTVSPropertyOp1
 70
     1
102
RTVSPropertyOp2
 70
     1
102
RTVSPropertyOp3
 70
     1
102
RTVSPropertyOp4
 70
     1
102
RTVSPropertyOp5
 70
     1
102
RTVSPropertyOp6
 70
     1
102
RTVSPropertyOp7
 70
     1
102
RTVSPropertyOp8
 70
     1
102
RTVSPropertyOp9
 70
     1
102
RTVSPropertyOp10
 70
     1
102
RTVSPropertyOp11
 70
     1
102
RTVSPropertyOp12
 70
     1
102
RTVSPropertyOp13
 70
     1
102
RTVSPropertyOp14
 70
     1
102
RTVSPropertyOp15
 70
     1
102
RTVSPropertyOp16
 70
     1
102
RTVSPropertyOp17
 70
     1
102
RTVSPropertyOp18
 70
     1
102
RTVSPropertyOp19
 70
     1
102
RTVSPropertyOp20
 70
     1
102
RTVSPropertyOp21
 70
     1
102
RTVSPropertyOp22
 70
     1
102
RTVSPropertyOp23
 70
     1
102
RTVSPropertyOp24
 70
     1
102
RTVSPropertyOp25
 70
     1
102
RTVSPropertyOp26
 70
     1
102
RTVSPropertyOp27
 70
     1
102
RTVSPropertyOp28
 70
     1
102
RTVSPropertyOp29
 70
     1
102
RTVSPropertyOp30
 70
     1
102
RTVSPropertyOp31
 70
     1
102
RTVSPropertyOp32
 70
     1
102
RTVSPropertyOp33
 70
     1
102
RTVSPropertyOp34
 70
     1
102
RTVSPropertyOp35
 70
     1
102
RTVSPropertyOp36
 70
     1
102
RTVSPropertyOp37
 70
     1
102
RTVSPropertyOp38
 70
     1
102
RTVSPropertyOp39
 70
     1
102
RTVSPropertyOp40
 70
     1
102
RTVSPropertyOp41
 70
     1
102
RTVSPropertyOp42
 70
     1
102
RTVSPropertyOp43
 70
     1
102
RTVSPropertyOp44
 70
     1
102
RTVSPropertyOp45
 70
     1
102
RTVSPropertyOp46
 70
     1
102
RTVSPropertyOp47
 70
     1
102
RTVSPropertyOp48
 70
     1
102
RTVSPropertyOp49
 70
     1
102
RTVSPropertyOp50
 70
     1
102
RTVSPropertyOp51
 70
     0
102
RTVSPropertyOp52
 70
     0
102
RTVSPropertyOp53
 70
     1
102
RTVSPropertyOp54
 70
     1
102
RTVSPropertyOp55
 70
     1
102
RTVSPropertyOp56
 70
     1
102
RTVSPropertyOp57
 70
     1
102
RTVSPropertyOp58
 70
     1
102
RTVSPropertyOp59
 70
     1
102
RTVSPropertyOp60
 70
     1
102
RTVSPropertyOp61
 70
     1
102
RTVSPropertyOp62
 70
     1
  0
XRECORD
  5
577
102
{ACAD_REACTORS
330
576
102
}
330
576
100
AcDbXrecord
280
     1
102
RTVSPost2010Prop28
280
     0
102
RTVSPost2010PropOp28
 70
     0
102
RTVSPost2010Prop29
280
     1
102
RTVSPost2010PropOp29
 70
     0
102
RTVSPost2010Prop30
280
     1
102
RTVSPost2010PropOp30
 70
     0
102
RTVSPost2010Prop31
280
     0
102
RTVSPost2010PropOp31
 70
     0
102
RTVSPost2010Prop32
280
     0
102
RTVSPost2010PropOp32
 70
     0
102
RTVSPost2010Prop33
280
     0
102
RTVSPost2010PropOp33
 70
     0
102
RTVSPost2010Prop34
280
     0
102
RTVSPost2010PropOp34
 70
     0
102
RTVSPost2010Prop35
280
     0
102
RTVSPost2010PropOp35
 70
     0
102
RTVSPost2010Prop36
280
     0
102
RTVSPost2010PropOp36
 70
     0
102
RTVSPost2010Prop37
 90
       50
102
RTVSPost2010PropOp37
 70
     0
102
RTVSPost2010Prop38
140
0.0
102
RTVSPost2010PropOp38
 70
     0
102
RTVSPost2010Prop39
140
1.0
102
RTVSPost2010PropOp39
 70
     0
102
RTVSPost2010Prop40
 90
        0
102
RTVSPost2010PropOp40
 70
     0
102
RTVSPost2010Prop41ColorIndex
 90
       18
102
RTVSPost2010Prop41ColorRGB
 90
        0
102
RTVSPost2010PropOp41
 70
     0
102
RTVSPost2010Prop42
 90
       50
102
RTVSPost2010PropOp42
 70
     0
102
RTVSPost2010Prop43
 90
        3
102
RTVSPost2010PropOp43
 70
     0
102
RTVSPost2010Prop44ColorIndex
 90
        5
102
RTVSPost2010Prop44ColorRGB
 90
      255
102
RTVSPost2010PropOp44
 70
     0
102
RTVSPost2010Prop45
280
     0
102
RTVSPost2010PropOp45
 70
     0
102
RTVSPost2010Prop46
 90
       50
102
RTVSPost2010PropOp46
 70
     0
102
RTVSPost2010Prop47
 90
       50
102
RTVSPost2010PropOp47
 70
     0
102
RTVSPost2010Prop48
 90
       50
102
RTVSPost2010PropOp48
 70
     0
102
RTVSPost2010Prop49
280
     0
102
RTVSPost2010PropOp49
 70
     0
102
RTVSPost2010Prop50
 90
       50
102
RTVSPost2010PropOp50
 70
     0
102
RTVSPost2010Prop51ColorIndex
 90
      256
102
RTVSPost2010Prop51ColorRGB
 90
-16777216
102
RTVSPost2010PropOp51
 70
     0
102
RTVSPost2010Prop52
140
1.0
102
RTVSPost2010PropOp52
 70
     0
102
RTVSPost2010Prop53
 90
        2
102
RTVSPost2010PropOp53
 70
     0
102
RTVSPost2010Prop54
  1
strokes_ogs.tif
102
RTVSPost2010PropOp54
 70
     0
102
RTVSPost2010Prop55
280
     0
102
RTVSPost2010PropOp55
 70
     0
102
RTVSPost2010Prop56
140
1.0
102
RTVSPost2010PropOp56
 70
     0
102
RTVSPost2010Prop57
140
1.0
102
RTVSPost2010PropOp57
 70
     0
102
RTVSPropertyOp0
 70
     0
102
RTVSPropertyOp1
 70
     0
102
RTVSPropertyOp2
 70
     0
102
RTVSPropertyOp3
 70
     0
102
RTVSPropertyOp4
 70
     0
102
RTVSPropertyOp5
 70
     0
102
RTVSPropertyOp6
 70
     0
102
RTVSPropertyOp7
 70
     0
102
RTVSPropertyOp8
 70
     0
102
RTVSPropertyOp9
 70
     0
102
RTVSPropertyOp10
 70
     0
102
RTVSPropertyOp11
 70
     0
102
RTVSPropertyOp12
 70
     0
102
RTVSPropertyOp13
 70
     0
102
RTVSPropertyOp14
 70
     2
102
RTVSPropertyOp15
 70
     0
102
RTVSPropertyOp16
 70
     0
102
RTVSPropertyOp17
 70
     0
102
RTVSPropertyOp18
 70
     0
102
RTVSPropertyOp19
 70
     0
102
RTVSPropertyOp20
 70
     0
102
RTVSPropertyOp21
 70
     0
102
RTVSPropertyOp22
 70
     0
102
RTVSPropertyOp23
 70
     0
102
RTVSPropertyOp24
 70
     0
102
RTVSPropertyOp25
 70
     0
102
RTVSPropertyOp26
 70
     0
102
RTVSPropertyOp27
 70
     0
102
RTVSPropertyOp28
 70
     0
102
RTVSPropertyOp29
 70
     0
102
RTVSPropertyOp30
 70
     0
102
RTVSPropertyOp31
 70
     0
102
RTVSPropertyOp32
 70
     0
102
RTVSPropertyOp33
 70
     0
102
RTVSPropertyOp34
 70
     0
102
RTVSPropertyOp35
 70
     0
102
RTVSPropertyOp36
 70
     0
102
RTVSPropertyOp37
 70
     0
102
RTVSPropertyOp38
 70
     0
102
RTVSPropertyOp39
 70
     0
102
RTVSPropertyOp40
 70
     0
102
RTVSPropertyOp41
 70
     0
102
RTVSPropertyOp42
 70
     0
102
RTVSPropertyOp43
 70
     0
102
RTVSPropertyOp44
 70
     0
102
RTVSPropertyOp45
 70
     0
102
RTVSPropertyOp46
 70
     0
102
RTVSPropertyOp47
 70
     0
102
RTVSPropertyOp48
 70
     0
102
RTVSPropertyOp49
 70
     0
102
RTVSPropertyOp50
 70
     0
102
RTVSPropertyOp51
 70
     0
102
RTVSPropertyOp52
 70
     0
102
RTVSPropertyOp53
 70
     0
102
RTVSPropertyOp54
 70
     0
102
RTVSPropertyOp55
 70
     0
102
RTVSPropertyOp56
 70
     0
102
RTVSPropertyOp57
 70
     0
102
RTVSPropertyOp58
 70
     0
102
RTVSPropertyOp59
 70
     0
102
RTVSPropertyOp60
 70
     0
102
RTVSPropertyOp61
 70
     0
102
RTVSPropertyOp62
 70
     0
  0
XRECORD
  5
565
102
{ACAD_REACTORS
330
564
102
}
330
564
100
AcDbXrecord
280
     1
102
RTVSPost2010Prop28
280
     0
102
RTVSPost2010PropOp28
 70
     1
102
RTVSPost2010Prop29
280
     1
102
RTVSPost2010PropOp29
 70
     1
102
RTVSPost2010Prop30
280
     1
102
RTVSPost2010PropOp30
 70
     1
102
RTVSPost2010Prop31
280
     0
102
RTVSPost2010PropOp31
 70
     1
102
RTVSPost2010Prop32
280
     0
102
RTVSPost2010PropOp32
 70
     1
102
RTVSPost2010Prop33
280
     0
102
RTVSPost2010PropOp33
 70
     1
102
RTVSPost2010Prop34
280
     0
102
RTVSPost2010PropOp34
 70
     1
102
RTVSPost2010Prop35
280
     0
102
RTVSPost2010PropOp35
 70
     1
102
RTVSPost2010Prop36
280
     0
102
RTVSPost2010PropOp36
 70
     1
102
RTVSPost2010Prop37
 90
       50
102
RTVSPost2010PropOp37
 70
     1
102
RTVSPost2010Prop38
140
0.0
102
RTVSPost2010PropOp38
 70
     1
102
RTVSPost2010Prop39
140
1.0
102
RTVSPost2010PropOp39
 70
     1
102
RTVSPost2010Prop40
 90
        0
102
RTVSPost2010PropOp40
 70
     1
102
RTVSPost2010Prop41ColorIndex
 90
       18
102
RTVSPost2010Prop41ColorRGB
 90
        0
102
RTVSPost2010PropOp41
 70
     1
102
RTVSPost2010Prop42
 90
       50
102
RTVSPost2010PropOp42
 70
     1
102
RTVSPost2010Prop43
 90
        3
102
RTVSPost2010PropOp43
 70
     1
102
RTVSPost2010Prop44ColorIndex
 90
        5
102
RTVSPost2010Prop44ColorRGB
 90
      255
102
RTVSPost2010PropOp44
 70
     1
102
RTVSPost2010Prop45
280
     0
102
RTVSPost2010PropOp45
 70
     1
102
RTVSPost2010Prop46
 90
       50
102
RTVSPost2010PropOp46
 70
     1
102
RTVSPost2010Prop47
 90
       50
102
RTVSPost2010PropOp47
 70
     1
102
RTVSPost2010Prop48
 90
       50
102
RTVSPost2010PropOp48
 70
     1
102
RTVSPost2010Prop49
280
     0
102
RTVSPost2010PropOp49
 70
     1
102
RTVSPost2010Prop50
 90
       50
102
RTVSPost2010PropOp50
 70
     1
102
RTVSPost2010Prop51ColorIndex
 90
      256
102
RTVSPost2010Prop51ColorRGB
 90
-16777216
102
RTVSPost2010PropOp51
 70
     0
102
RTVSPost2010Prop52
140
1.0
102
RTVSPost2010PropOp52
 70
     0
102
RTVSPost2010Prop53
 90
        2
102
RTVSPost2010PropOp53
 70
     1
102
RTVSPost2010Prop54
  1
strokes_ogs.tif
102
RTVSPost2010PropOp54
 70
     1
102
RTVSPost2010Prop55
280
     0
102
RTVSPost2010PropOp55
 70
     1
102
RTVSPost2010Prop56
140
1.0
102
RTVSPost2010PropOp56
 70
     1
102
RTVSPost2010Prop57
140
1.0
102
RTVSPost2010PropOp57
 70
     1
102
RTVSPropertyOp0
 70
     1
102
RTVSPropertyOp1
 70
     1
102
RTVSPropertyOp2
 70
     1
102
RTVSPropertyOp3
 70
     1
102
RTVSPropertyOp4
 70
     1
102
RTVSPropertyOp5
 70
     1
102
RTVSPropertyOp6
 70
     1
102
RTVSPropertyOp7
 70
     1
102
RTVSPropertyOp8
 70
     1
102
RTVSPropertyOp9
 70
     1
102
RTVSPropertyOp10
 70
     1
102
RTVSPropertyOp11
 70
     1
102
RTVSPropertyOp12
 70
     1
102
RTVSPropertyOp13
 70
     1
102
RTVSPropertyOp14
 70
     1
102
RTVSPropertyOp15
 70
     1
102
RTVSPropertyOp16
 70
     1
102
RTVSPropertyOp17
 70
     1
102
RTVSPropertyOp18
 70
     1
102
RTVSPropertyOp19
 70
     1
102
RTVSPropertyOp20
 70
     1
102
RTVSPropertyOp21
 70
     1
102
RTVSPropertyOp22
 70
     1
102
RTVSPropertyOp23
 70
     1
102
RTVSPropertyOp24
 70
     1
102
RTVSPropertyOp25
 70
     1
102
RTVSPropertyOp26
 70
     1
102
RTVSPropertyOp27
 70
     1
102
RTVSPropertyOp28
 70
     1
102
RTVSPropertyOp29
 70
     1
102
RTVSPropertyOp30
 70
     1
102
RTVSPropertyOp31
 70
     1
102
RTVSPropertyOp32
 70
     1
102
RTVSPropertyOp33
 70
     1
102
RTVSPropertyOp34
 70
     1
102
RTVSPropertyOp35
 70
     1
102
RTVSPropertyOp36
 70
     1
102
RTVSPropertyOp37
 70
     1
102
RTVSPropertyOp38
 70
     1
102
RTVSPropertyOp39
 70
     1
102
RTVSPropertyOp40
 70
     1
102
RTVSPropertyOp41
 70
     1
102
RTVSPropertyOp42
 70
     1
102
RTVSPropertyOp43
 70
     1
102
RTVSPropertyOp44
 70
     1
102
RTVSPropertyOp45
 70
     1
102
RTVSPropertyOp46
 70
     1
102
RTVSPropertyOp47
 70
     1
102
RTVSPropertyOp48
 70
     1
102
RTVSPropertyOp49
 70
     1
102
RTVSPropertyOp50
 70
     1
102
RTVSPropertyOp51
 70
     0
102
RTVSPropertyOp52
 70
     0
102
RTVSPropertyOp53
 70
     1
102
RTVSPropertyOp54
 70
     1
102
RTVSPropertyOp55
 70
     1
102
RTVSPropertyOp56
 70
     1
102
RTVSPropertyOp57
 70
     1
102
RTVSPropertyOp58
 70
     1
102
RTVSPropertyOp59
 70
     1
102
RTVSPropertyOp60
 70
     1
102
RTVSPropertyOp61
 70
     1
102
RTVSPropertyOp62
 70
     1
  0
XRECORD
  5
549
102
{ACAD_REACTORS
330
548
102
}
330
548
100
AcDbXrecord
280
     1
102
RTVSPost2010Prop28
280
     0
102
RTVSPost2010PropOp28
 70
     1
102
RTVSPost2010Prop29
280
     1
102
RTVSPost2010PropOp29
 70
     1
102
RTVSPost2010Prop30
280
     1
102
RTVSPost2010PropOp30
 70
     1
102
RTVSPost2010Prop31
280
     0
102
RTVSPost2010PropOp31
 70
     1
102
RTVSPost2010Prop32
280
     0
102
RTVSPost2010PropOp32
 70
     1
102
RTVSPost2010Prop33
280
     0
102
RTVSPost2010PropOp33
 70
     1
102
RTVSPost2010Prop34
280
     0
102
RTVSPost2010PropOp34
 70
     1
102
RTVSPost2010Prop35
280
     0
102
RTVSPost2010PropOp35
 70
     1
102
RTVSPost2010Prop36
280
     0
102
RTVSPost2010PropOp36
 70
     1
102
RTVSPost2010Prop37
 90
       50
102
RTVSPost2010PropOp37
 70
     1
102
RTVSPost2010Prop38
140
0.0
102
RTVSPost2010PropOp38
 70
     1
102
RTVSPost2010Prop39
140
1.0
102
RTVSPost2010PropOp39
 70
     1
102
RTVSPost2010Prop40
 90
        0
102
RTVSPost2010PropOp40
 70
     1
102
RTVSPost2010Prop41ColorIndex
 90
       18
102
RTVSPost2010Prop41ColorRGB
 90
        0
102
RTVSPost2010PropOp41
 70
     1
102
RTVSPost2010Prop42
 90
       50
102
RTVSPost2010PropOp42
 70
     1
102
RTVSPost2010Prop43
 90
        3
102
RTVSPost2010PropOp43
 70
     1
102
RTVSPost2010Prop44ColorIndex
 90
        5
102
RTVSPost2010Prop44ColorRGB
 90
      255
102
RTVSPost2010PropOp44
 70
     1
102
RTVSPost2010Prop45
280
     0
102
RTVSPost2010PropOp45
 70
     1
102
RTVSPost2010Prop46
 90
       50
102
RTVSPost2010PropOp46
 70
     1
102
RTVSPost2010Prop47
 90
       50
102
RTVSPost2010PropOp47
 70
     1
102
RTVSPost2010Prop48
 90
       50
102
RTVSPost2010PropOp48
 70
     1
102
RTVSPost2010Prop49
280
     0
102
RTVSPost2010PropOp49
 70
     1
102
RTVSPost2010Prop50
 90
       50
102
RTVSPost2010PropOp50
 70
     1
102
RTVSPost2010Prop51ColorIndex
 90
      256
102
RTVSPost2010Prop51ColorRGB
 90
-16777216
102
RTVSPost2010PropOp51
 70
     0
102
RTVSPost2010Prop52
140
1.0
102
RTVSPost2010PropOp52
 70
     0
102
RTVSPost2010Prop53
 90
        2
102
RTVSPost2010PropOp53
 70
     1
102
RTVSPost2010Prop54
  1
strokes_ogs.tif
102
RTVSPost2010PropOp54
 70
     1
102
RTVSPost2010Prop55
280
     0
102
RTVSPost2010PropOp55
 70
     1
102
RTVSPost2010Prop56
140
1.0
102
RTVSPost2010PropOp56
 70
     1
102
RTVSPost2010Prop57
140
1.0
102
RTVSPost2010PropOp57
 70
     1
102
RTVSPropertyOp0
 70
     1
102
RTVSPropertyOp1
 70
     1
102
RTVSPropertyOp2
 70
     1
102
RTVSPropertyOp3
 70
     1
102
RTVSPropertyOp4
 70
     1
102
RTVSPropertyOp5
 70
     1
102
RTVSPropertyOp6
 70
     1
102
RTVSPropertyOp7
 70
     1
102
RTVSPropertyOp8
 70
     1
102
RTVSPropertyOp9
 70
     1
102
RTVSPropertyOp10
 70
     1
102
RTVSPropertyOp11
 70
     1
102
RTVSPropertyOp12
 70
     1
102
RTVSPropertyOp13
 70
     1
102
RTVSPropertyOp14
 70
     1
102
RTVSPropertyOp15
 70
     1
102
RTVSPropertyOp16
 70
     1
102
RTVSPropertyOp17
 70
     1
102
RTVSPropertyOp18
 70
     1
102
RTVSPropertyOp19
 70
     1
102
RTVSPropertyOp20
 70
     1
102
RTVSPropertyOp21
 70
     1
102
RTVSPropertyOp22
 70
     1
102
RTVSPropertyOp23
 70
     1
102
RTVSPropertyOp24
 70
     1
102
RTVSPropertyOp25
 70
     1
102
RTVSPropertyOp26
 70
     1
102
RTVSPropertyOp27
 70
     1
102
RTVSPropertyOp28
 70
     1
102
RTVSPropertyOp29
 70
     1
102
RTVSPropertyOp30
 70
     1
102
RTVSPropertyOp31
 70
     1
102
RTVSPropertyOp32
 70
     1
102
RTVSPropertyOp33
 70
     1
102
RTVSPropertyOp34
 70
     1
102
RTVSPropertyOp35
 70
     1
102
RTVSPropertyOp36
 70
     1
102
RTVSPropertyOp37
 70
     1
102
RTVSPropertyOp38
 70
     1
102
RTVSPropertyOp39
 70
     1
102
RTVSPropertyOp40
 70
     1
102
RTVSPropertyOp41
 70
     1
102
RTVSPropertyOp42
 70
     1
102
RTVSPropertyOp43
 70
     1
102
RTVSPropertyOp44
 70
     1
102
RTVSPropertyOp45
 70
     1
102
RTVSPropertyOp46
 70
     1
102
RTVSPropertyOp47
 70
     1
102
RTVSPropertyOp48
 70
     1
102
RTVSPropertyOp49
 70
     1
102
RTVSPropertyOp50
 70
     1
102
RTVSPropertyOp51
 70
     0
102
RTVSPropertyOp52
 70
     0
102
RTVSPropertyOp53
 70
     1
102
RTVSPropertyOp54
 70
     1
102
RTVSPropertyOp55
 70
     1
102
RTVSPropertyOp56
 70
     1
102
RTVSPropertyOp57
 70
     1
102
RTVSPropertyOp58
 70
     1
102
RTVSPropertyOp59
 70
     1
102
RTVSPropertyOp60
 70
     1
102
RTVSPropertyOp61
 70
     1
102
RTVSPropertyOp62
 70
     1
  0
XRECORD
  5
54B
102
{ACAD_REACTORS
330
54A
102
}
330
54A
100
AcDbXrecord
280
     1
102
RTVSPost2010Prop28
280
     0
102
RTVSPost2010PropOp28
 70
     1
102
RTVSPost2010Prop29
280
     1
102
RTVSPost2010PropOp29
 70
     1
102
RTVSPost2010Prop30
280
     1
102
RTVSPost2010PropOp30
 70
     1
102
RTVSPost2010Prop31
280
     0
102
RTVSPost2010PropOp31
 70
     1
102
RTVSPost2010Prop32
280
     0
102
RTVSPost2010PropOp32
 70
     1
102
RTVSPost2010Prop33
280
     0
102
RTVSPost2010PropOp33
 70
     1
102
RTVSPost2010Prop34
280
     0
102
RTVSPost2010PropOp34
 70
     1
102
RTVSPost2010Prop35
280
     0
102
RTVSPost2010PropOp35
 70
     1
102
RTVSPost2010Prop36
280
     0
102
RTVSPost2010PropOp36
 70
     1
102
RTVSPost2010Prop37
 90
       50
102
RTVSPost2010PropOp37
 70
     1
102
RTVSPost2010Prop38
140
0.0
102
RTVSPost2010PropOp38
 70
     1
102
RTVSPost2010Prop39
140
1.0
102
RTVSPost2010PropOp39
 70
     1
102
RTVSPost2010Prop40
 90
        0
102
RTVSPost2010PropOp40
 70
     1
102
RTVSPost2010Prop41ColorIndex
 90
       18
102
RTVSPost2010Prop41ColorRGB
 90
        0
102
RTVSPost2010PropOp41
 70
     1
102
RTVSPost2010Prop42
 90
       50
102
RTVSPost2010PropOp42
 70
     1
102
RTVSPost2010Prop43
 90
        3
102
RTVSPost2010PropOp43
 70
     1
102
RTVSPost2010Prop44ColorIndex
 90
        5
102
RTVSPost2010Prop44ColorRGB
 90
      255
102
RTVSPost2010PropOp44
 70
     1
102
RTVSPost2010Prop45
280
     0
102
RTVSPost2010PropOp45
 70
     1
102
RTVSPost2010Prop46
 90
       50
102
RTVSPost2010PropOp46
 70
     1
102
RTVSPost2010Prop47
 90
       50
102
RTVSPost2010PropOp47
 70
     1
102
RTVSPost2010Prop48
 90
       50
102
RTVSPost2010PropOp48
 70
     1
102
RTVSPost2010Prop49
280
     0
102
RTVSPost2010PropOp49
 70
     1
102
RTVSPost2010Prop50
 90
       50
102
RTVSPost2010PropOp50
 70
     1
102
RTVSPost2010Prop51ColorIndex
 90
      256
102
RTVSPost2010Prop51ColorRGB
 90
-16777216
102
RTVSPost2010PropOp51
 70
     0
102
RTVSPost2010Prop52
140
1.0
102
RTVSPost2010PropOp52
 70
     0
102
RTVSPost2010Prop53
 90
        2
102
RTVSPost2010PropOp53
 70
     1
102
RTVSPost2010Prop54
  1
strokes_ogs.tif
102
RTVSPost2010PropOp54
 70
     1
102
RTVSPost2010Prop55
280
     0
102
RTVSPost2010PropOp55
 70
     1
102
RTVSPost2010Prop56
140
1.0
102
RTVSPost2010PropOp56
 70
     1
102
RTVSPost2010Prop57
140
1.0
102
RTVSPost2010PropOp57
 70
     1
102
RTVSPropertyOp0
 70
     1
102
RTVSPropertyOp1
 70
     1
102
RTVSPropertyOp2
 70
     1
102
RTVSPropertyOp3
 70
     1
102
RTVSPropertyOp4
 70
     1
102
RTVSPropertyOp5
 70
     1
102
RTVSPropertyOp6
 70
     1
102
RTVSPropertyOp7
 70
     1
102
RTVSPropertyOp8
 70
     1
102
RTVSPropertyOp9
 70
     1
102
RTVSPropertyOp10
 70
     1
102
RTVSPropertyOp11
 70
     1
102
RTVSPropertyOp12
 70
     1
102
RTVSPropertyOp13
 70
     1
102
RTVSPropertyOp14
 70
     1
102
RTVSPropertyOp15
 70
     1
102
RTVSPropertyOp16
 70
     1
102
RTVSPropertyOp17
 70
     1
102
RTVSPropertyOp18
 70
     1
102
RTVSPropertyOp19
 70
     1
102
RTVSPropertyOp20
 70
     1
102
RTVSPropertyOp21
 70
     1
102
RTVSPropertyOp22
 70
     1
102
RTVSPropertyOp23
 70
     1
102
RTVSPropertyOp24
 70
     1
102
RTVSPropertyOp25
 70
     1
102
RTVSPropertyOp26
 70
     1
102
RTVSPropertyOp27
 70
     1
102
RTVSPropertyOp28
 70
     1
102
RTVSPropertyOp29
 70
     1
102
RTVSPropertyOp30
 70
     1
102
RTVSPropertyOp31
 70
     1
102
RTVSPropertyOp32
 70
     1
102
RTVSPropertyOp33
 70
     1
102
RTVSPropertyOp34
 70
     1
102
RTVSPropertyOp35
 70
     1
102
RTVSPropertyOp36
 70
     1
102
RTVSPropertyOp37
 70
     1
102
RTVSPropertyOp38
 70
     1
102
RTVSPropertyOp39
 70
     1
102
RTVSPropertyOp40
 70
     1
102
RTVSPropertyOp41
 70
     1
102
RTVSPropertyOp42
 70
     1
102
RTVSPropertyOp43
 70
     1
102
RTVSPropertyOp44
 70
     1
102
RTVSPropertyOp45
 70
     1
102
RTVSPropertyOp46
 70
     1
102
RTVSPropertyOp47
 70
     1
102
RTVSPropertyOp48
 70
     1
102
RTVSPropertyOp49
 70
     1
102
RTVSPropertyOp50
 70
     1
102
RTVSPropertyOp51
 70
     0
102
RTVSPropertyOp52
 70
     0
102
RTVSPropertyOp53
 70
     1
102
RTVSPropertyOp54
 70
     1
102
RTVSPropertyOp55
 70
     1
102
RTVSPropertyOp56
 70
     1
102
RTVSPropertyOp57
 70
     1
102
RTVSPropertyOp58
 70
     1
102
RTVSPropertyOp59
 70
     1
102
RTVSPropertyOp60
 70
     1
102
RTVSPropertyOp61
 70
     1
102
RTVSPropertyOp62
 70
     1
  0
XRECORD
  5
54D
102
{ACAD_REACTORS
330
54C
102
}
330
54C
100
AcDbXrecord
280
     1
102
RTVSPost2010Prop28
280
     0
102
RTVSPost2010PropOp28
 70
     1
102
RTVSPost2010Prop29
280
     1
102
RTVSPost2010PropOp29
 70
     1
102
RTVSPost2010Prop30
280
     1
102
RTVSPost2010PropOp30
 70
     1
102
RTVSPost2010Prop31
280
     0
102
RTVSPost2010PropOp31
 70
     1
102
RTVSPost2010Prop32
280
     0
102
RTVSPost2010PropOp32
 70
     1
102
RTVSPost2010Prop33
280
     0
102
RTVSPost2010PropOp33
 70
     1
102
RTVSPost2010Prop34
280
     0
102
RTVSPost2010PropOp34
 70
     1
102
RTVSPost2010Prop35
280
     0
102
RTVSPost2010PropOp35
 70
     1
102
RTVSPost2010Prop36
280
     0
102
RTVSPost2010PropOp36
 70
     1
102
RTVSPost2010Prop37
 90
       50
102
RTVSPost2010PropOp37
 70
     1
102
RTVSPost2010Prop38
140
0.0
102
RTVSPost2010PropOp38
 70
     1
102
RTVSPost2010Prop39
140
1.0
102
RTVSPost2010PropOp39
 70
     1
102
RTVSPost2010Prop40
 90
        0
102
RTVSPost2010PropOp40
 70
     1
102
RTVSPost2010Prop41ColorIndex
 90
       18
102
RTVSPost2010Prop41ColorRGB
 90
        0
102
RTVSPost2010PropOp41
 70
     1
102
RTVSPost2010Prop42
 90
       50
102
RTVSPost2010PropOp42
 70
     1
102
RTVSPost2010Prop43
 90
        3
102
RTVSPost2010PropOp43
 70
     1
102
RTVSPost2010Prop44ColorIndex
 90
        5
102
RTVSPost2010Prop44ColorRGB
 90
      255
102
RTVSPost2010PropOp44
 70
     1
102
RTVSPost2010Prop45
280
     0
102
RTVSPost2010PropOp45
 70
     1
102
RTVSPost2010Prop46
 90
       50
102
RTVSPost2010PropOp46
 70
     1
102
RTVSPost2010Prop47
 90
       50
102
RTVSPost2010PropOp47
 70
     1
102
RTVSPost2010Prop48
 90
       50
102
RTVSPost2010PropOp48
 70
     1
102
RTVSPost2010Prop49
280
     0
102
RTVSPost2010PropOp49
 70
     1
102
RTVSPost2010Prop50
 90
       50
102
RTVSPost2010PropOp50
 70
     1
102
RTVSPost2010Prop51ColorIndex
 90
      256
102
RTVSPost2010Prop51ColorRGB
 90
-16777216
102
RTVSPost2010PropOp51
 70
     0
102
RTVSPost2010Prop52
140
1.0
102
RTVSPost2010PropOp52
 70
     0
102
RTVSPost2010Prop53
 90
        2
102
RTVSPost2010PropOp53
 70
     1
102
RTVSPost2010Prop54
  1
strokes_ogs.tif
102
RTVSPost2010PropOp54
 70
     1
102
RTVSPost2010Prop55
280
     0
102
RTVSPost2010PropOp55
 70
     1
102
RTVSPost2010Prop56
140
1.0
102
RTVSPost2010PropOp56
 70
     1
102
RTVSPost2010Prop57
140
1.0
102
RTVSPost2010PropOp57
 70
     1
102
RTVSPropertyOp0
 70
     1
102
RTVSPropertyOp1
 70
     1
102
RTVSPropertyOp2
 70
     1
102
RTVSPropertyOp3
 70
     1
102
RTVSPropertyOp4
 70
     1
102
RTVSPropertyOp5
 70
     1
102
RTVSPropertyOp6
 70
     1
102
RTVSPropertyOp7
 70
     1
102
RTVSPropertyOp8
 70
     1
102
RTVSPropertyOp9
 70
     1
102
RTVSPropertyOp10
 70
     1
102
RTVSPropertyOp11
 70
     1
102
RTVSPropertyOp12
 70
     1
102
RTVSPropertyOp13
 70
     1
102
RTVSPropertyOp14
 70
     1
102
RTVSPropertyOp15
 70
     1
102
RTVSPropertyOp16
 70
     1
102
RTVSPropertyOp17
 70
     1
102
RTVSPropertyOp18
 70
     1
102
RTVSPropertyOp19
 70
     1
102
RTVSPropertyOp20
 70
     1
102
RTVSPropertyOp21
 70
     1
102
RTVSPropertyOp22
 70
     1
102
RTVSPropertyOp23
 70
     1
102
RTVSPropertyOp24
 70
     1
102
RTVSPropertyOp25
 70
     1
102
RTVSPropertyOp26
 70
     1
102
RTVSPropertyOp27
 70
     1
102
RTVSPropertyOp28
 70
     1
102
RTVSPropertyOp29
 70
     1
102
RTVSPropertyOp30
 70
     1
102
RTVSPropertyOp31
 70
     1
102
RTVSPropertyOp32
 70
     1
102
RTVSPropertyOp33
 70
     1
102
RTVSPropertyOp34
 70
     1
102
RTVSPropertyOp35
 70
     1
102
RTVSPropertyOp36
 70
     1
102
RTVSPropertyOp37
 70
     1
102
RTVSPropertyOp38
 70
     1
102
RTVSPropertyOp39
 70
     1
102
RTVSPropertyOp40
 70
     1
102
RTVSPropertyOp41
 70
     1
102
RTVSPropertyOp42
 70
     1
102
RTVSPropertyOp43
 70
     1
102
RTVSPropertyOp44
 70
     1
102
RTVSPropertyOp45
 70
     1
102
RTVSPropertyOp46
 70
     1
102
RTVSPropertyOp47
 70
     1
102
RTVSPropertyOp48
 70
     1
102
RTVSPropertyOp49
 70
     1
102
RTVSPropertyOp50
 70
     1
102
RTVSPropertyOp51
 70
     0
102
RTVSPropertyOp52
 70
     0
102
RTVSPropertyOp53
 70
     1
102
RTVSPropertyOp54
 70
     1
102
RTVSPropertyOp55
 70
     1
102
RTVSPropertyOp56
 70
     1
102
RTVSPropertyOp57
 70
     1
102
RTVSPropertyOp58
 70
     1
102
RTVSPropertyOp59
 70
     1
102
RTVSPropertyOp60
 70
     1
102
RTVSPropertyOp61
 70
     1
102
RTVSPropertyOp62
 70
     1
  0
XRECORD
  5
54F
102
{ACAD_REACTORS
330
54E
102
}
330
54E
100
AcDbXrecord
280
     1
102
RTVSPost2010Prop28
280
     0
102
RTVSPost2010PropOp28
 70
     1
102
RTVSPost2010Prop29
280
     1
102
RTVSPost2010PropOp29
 70
     1
102
RTVSPost2010Prop30
280
     1
102
RTVSPost2010PropOp30
 70
     1
102
RTVSPost2010Prop31
280
     0
102
RTVSPost2010PropOp31
 70
     1
102
RTVSPost2010Prop32
280
     0
102
RTVSPost2010PropOp32
 70
     1
102
RTVSPost2010Prop33
280
     0
102
RTVSPost2010PropOp33
 70
     1
102
RTVSPost2010Prop34
280
     0
102
RTVSPost2010PropOp34
 70
     1
102
RTVSPost2010Prop35
280
     0
102
RTVSPost2010PropOp35
 70
     1
102
RTVSPost2010Prop36
280
     0
102
RTVSPost2010PropOp36
 70
     1
102
RTVSPost2010Prop37
 90
       50
102
RTVSPost2010PropOp37
 70
     1
102
RTVSPost2010Prop38
140
0.0
102
RTVSPost2010PropOp38
 70
     1
102
RTVSPost2010Prop39
140
1.0
102
RTVSPost2010PropOp39
 70
     1
102
RTVSPost2010Prop40
 90
        0
102
RTVSPost2010PropOp40
 70
     1
102
RTVSPost2010Prop41ColorIndex
 90
       18
102
RTVSPost2010Prop41ColorRGB
 90
        0
102
RTVSPost2010PropOp41
 70
     1
102
RTVSPost2010Prop42
 90
       50
102
RTVSPost2010PropOp42
 70
     1
102
RTVSPost2010Prop43
 90
        3
102
RTVSPost2010PropOp43
 70
     1
102
RTVSPost2010Prop44ColorIndex
 90
        5
102
RTVSPost2010Prop44ColorRGB
 90
      255
102
RTVSPost2010PropOp44
 70
     1
102
RTVSPost2010Prop45
280
     0
102
RTVSPost2010PropOp45
 70
     1
102
RTVSPost2010Prop46
 90
       50
102
RTVSPost2010PropOp46
 70
     1
102
RTVSPost2010Prop47
 90
       50
102
RTVSPost2010PropOp47
 70
     1
102
RTVSPost2010Prop48
 90
       50
102
RTVSPost2010PropOp48
 70
     1
102
RTVSPost2010Prop49
280
     0
102
RTVSPost2010PropOp49
 70
     1
102
RTVSPost2010Prop50
 90
       50
102
RTVSPost2010PropOp50
 70
     1
102
RTVSPost2010Prop51ColorIndex
 90
      256
102
RTVSPost2010Prop51ColorRGB
 90
-16777216
102
RTVSPost2010PropOp51
 70
     0
102
RTVSPost2010Prop52
140
1.0
102
RTVSPost2010PropOp52
 70
     0
102
RTVSPost2010Prop53
 90
        2
102
RTVSPost2010PropOp53
 70
     1
102
RTVSPost2010Prop54
  1
strokes_ogs.tif
102
RTVSPost2010PropOp54
 70
     1
102
RTVSPost2010Prop55
280
     0
102
RTVSPost2010PropOp55
 70
     1
102
RTVSPost2010Prop56
140
1.0
102
RTVSPost2010PropOp56
 70
     1
102
RTVSPost2010Prop57
140
1.0
102
RTVSPost2010PropOp57
 70
     1
102
RTVSPropertyOp0
 70
     1
102
RTVSPropertyOp1
 70
     1
102
RTVSPropertyOp2
 70
     1
102
RTVSPropertyOp3
 70
     1
102
RTVSPropertyOp4
 70
     1
102
RTVSPropertyOp5
 70
     1
102
RTVSPropertyOp6
 70
     1
102
RTVSPropertyOp7
 70
     1
102
RTVSPropertyOp8
 70
     1
102
RTVSPropertyOp9
 70
     1
102
RTVSPropertyOp10
 70
     1
102
RTVSPropertyOp11
 70
     1
102
RTVSPropertyOp12
 70
     1
102
RTVSPropertyOp13
 70
     1
102
RTVSPropertyOp14
 70
     1
102
RTVSPropertyOp15
 70
     1
102
RTVSPropertyOp16
 70
     1
102
RTVSPropertyOp17
 70
     1
102
RTVSPropertyOp18
 70
     1
102
RTVSPropertyOp19
 70
     1
102
RTVSPropertyOp20
 70
     1
102
RTVSPropertyOp21
 70
     1
102
RTVSPropertyOp22
 70
     1
102
RTVSPropertyOp23
 70
     1
102
RTVSPropertyOp24
 70
     1
102
RTVSPropertyOp25
 70
     1
102
RTVSPropertyOp26
 70
     1
102
RTVSPropertyOp27
 70
     1
102
RTVSPropertyOp28
 70
     1
102
RTVSPropertyOp29
 70
     1
102
RTVSPropertyOp30
 70
     1
102
RTVSPropertyOp31
 70
     1
102
RTVSPropertyOp32
 70
     1
102
RTVSPropertyOp33
 70
     1
102
RTVSPropertyOp34
 70
     1
102
RTVSPropertyOp35
 70
     1
102
RTVSPropertyOp36
 70
     1
102
RTVSPropertyOp37
 70
     1
102
RTVSPropertyOp38
 70
     1
102
RTVSPropertyOp39
 70
     1
102
RTVSPropertyOp40
 70
     1
102
RTVSPropertyOp41
 70
     1
102
RTVSPropertyOp42
 70
     1
102
RTVSPropertyOp43
 70
     1
102
RTVSPropertyOp44
 70
     1
102
RTVSPropertyOp45
 70
     1
102
RTVSPropertyOp46
 70
     1
102
RTVSPropertyOp47
 70
     1
102
RTVSPropertyOp48
 70
     1
102
RTVSPropertyOp49
 70
     1
102
RTVSPropertyOp50
 70
     1
102
RTVSPropertyOp51
 70
     0
102
RTVSPropertyOp52
 70
     0
102
RTVSPropertyOp53
 70
     1
102
RTVSPropertyOp54
 70
     1
102
RTVSPropertyOp55
 70
     1
102
RTVSPropertyOp56
 70
     1
102
RTVSPropertyOp57
 70
     1
102
RTVSPropertyOp58
 70
     1
102
RTVSPropertyOp59
 70
     1
102
RTVSPropertyOp60
 70
     1
102
RTVSPropertyOp61
 70
     1
102
RTVSPropertyOp62
 70
     1
  0
XRECORD
  5
557
102
{ACAD_REACTORS
330
556
102
}
330
556
100
AcDbXrecord
280
     1
102
RTVSPost2010Prop28
280
     0
102
RTVSPost2010PropOp28
 70
     1
102
RTVSPost2010Prop29
280
     1
102
RTVSPost2010PropOp29
 70
     1
102
RTVSPost2010Prop30
280
     1
102
RTVSPost2010PropOp30
 70
     1
102
RTVSPost2010Prop31
280
     0
102
RTVSPost2010PropOp31
 70
     1
102
RTVSPost2010Prop32
280
     0
102
RTVSPost2010PropOp32
 70
     1
102
RTVSPost2010Prop33
280
     0
102
RTVSPost2010PropOp33
 70
     1
102
RTVSPost2010Prop34
280
     0
102
RTVSPost2010PropOp34
 70
     1
102
RTVSPost2010Prop35
280
     0
102
RTVSPost2010PropOp35
 70
     1
102
RTVSPost2010Prop36
280
     0
102
RTVSPost2010PropOp36
 70
     1
102
RTVSPost2010Prop37
 90
       50
102
RTVSPost2010PropOp37
 70
     1
102
RTVSPost2010Prop38
140
0.0
102
RTVSPost2010PropOp38
 70
     1
102
RTVSPost2010Prop39
140
1.0
102
RTVSPost2010PropOp39
 70
     1
102
RTVSPost2010Prop40
 90
        0
102
RTVSPost2010PropOp40
 70
     1
102
RTVSPost2010Prop41ColorIndex
 90
       18
102
RTVSPost2010Prop41ColorRGB
 90
        0
102
RTVSPost2010PropOp41
 70
     1
102
RTVSPost2010Prop42
 90
       50
102
RTVSPost2010PropOp42
 70
     1
102
RTVSPost2010Prop43
 90
        3
102
RTVSPost2010PropOp43
 70
     1
102
RTVSPost2010Prop44ColorIndex
 90
        5
102
RTVSPost2010Prop44ColorRGB
 90
      255
102
RTVSPost2010PropOp44
 70
     1
102
RTVSPost2010Prop45
280
     0
102
RTVSPost2010PropOp45
 70
     1
102
RTVSPost2010Prop46
 90
       50
102
RTVSPost2010PropOp46
 70
     1
102
RTVSPost2010Prop47
 90
       50
102
RTVSPost2010PropOp47
 70
     1
102
RTVSPost2010Prop48
 90
       50
102
RTVSPost2010PropOp48
 70
     1
102
RTVSPost2010Prop49
280
     0
102
RTVSPost2010PropOp49
 70
     1
102
RTVSPost2010Prop50
 90
       50
102
RTVSPost2010PropOp50
 70
     1
102
RTVSPost2010Prop51ColorIndex
 90
      256
102
RTVSPost2010Prop51ColorRGB
 90
-16777216
102
RTVSPost2010PropOp51
 70
     0
102
RTVSPost2010Prop52
140
1.0
102
RTVSPost2010PropOp52
 70
     0
102
RTVSPost2010Prop53
 90
        2
102
RTVSPost2010PropOp53
 70
     1
102
RTVSPost2010Prop54
  1
strokes_ogs.tif
102
RTVSPost2010PropOp54
 70
     1
102
RTVSPost2010Prop55
280
     0
102
RTVSPost2010PropOp55
 70
     1
102
RTVSPost2010Prop56
140
1.0
102
RTVSPost2010PropOp56
 70
     1
102
RTVSPost2010Prop57
140
1.0
102
RTVSPost2010PropOp57
 70
     1
102
RTVSPropertyOp0
 70
     1
102
RTVSPropertyOp1
 70
     1
102
RTVSPropertyOp2
 70
     1
102
RTVSPropertyOp3
 70
     1
102
RTVSPropertyOp4
 70
     1
102
RTVSPropertyOp5
 70
     1
102
RTVSPropertyOp6
 70
     1
102
RTVSPropertyOp7
 70
     1
102
RTVSPropertyOp8
 70
     1
102
RTVSPropertyOp9
 70
     1
102
RTVSPropertyOp10
 70
     1
102
RTVSPropertyOp11
 70
     1
102
RTVSPropertyOp12
 70
     1
102
RTVSPropertyOp13
 70
     1
102
RTVSPropertyOp14
 70
     1
102
RTVSPropertyOp15
 70
     1
102
RTVSPropertyOp16
 70
     1
102
RTVSPropertyOp17
 70
     1
102
RTVSPropertyOp18
 70
     1
102
RTVSPropertyOp19
 70
     1
102
RTVSPropertyOp20
 70
     1
102
RTVSPropertyOp21
 70
     1
102
RTVSPropertyOp22
 70
     1
102
RTVSPropertyOp23
 70
     1
102
RTVSPropertyOp24
 70
     1
102
RTVSPropertyOp25
 70
     1
102
RTVSPropertyOp26
 70
     1
102
RTVSPropertyOp27
 70
     1
102
RTVSPropertyOp28
 70
     1
102
RTVSPropertyOp29
 70
     1
102
RTVSPropertyOp30
 70
     1
102
RTVSPropertyOp31
 70
     1
102
RTVSPropertyOp32
 70
     1
102
RTVSPropertyOp33
 70
     1
102
RTVSPropertyOp34
 70
     1
102
RTVSPropertyOp35
 70
     1
102
RTVSPropertyOp36
 70
     1
102
RTVSPropertyOp37
 70
     1
102
RTVSPropertyOp38
 70
     1
102
RTVSPropertyOp39
 70
     1
102
RTVSPropertyOp40
 70
     1
102
RTVSPropertyOp41
 70
     1
102
RTVSPropertyOp42
 70
     1
102
RTVSPropertyOp43
 70
     1
102
RTVSPropertyOp44
 70
     1
102
RTVSPropertyOp45
 70
     1
102
RTVSPropertyOp46
 70
     1
102
RTVSPropertyOp47
 70
     1
102
RTVSPropertyOp48
 70
     1
102
RTVSPropertyOp49
 70
     1
102
RTVSPropertyOp50
 70
     1
102
RTVSPropertyOp51
 70
     0
102
RTVSPropertyOp52
 70
     0
102
RTVSPropertyOp53
 70
     1
102
RTVSPropertyOp54
 70
     1
102
RTVSPropertyOp55
 70
     1
102
RTVSPropertyOp56
 70
     1
102
RTVSPropertyOp57
 70
     1
102
RTVSPropertyOp58
 70
     1
102
RTVSPropertyOp59
 70
     1
102
RTVSPropertyOp60
 70
     1
102
RTVSPropertyOp61
 70
     1
102
RTVSPropertyOp62
 70
     1
  0
XRECORD
  5
573
102
{ACAD_REACTORS
330
572
102
}
330
572
100
AcDbXrecord
280
     1
102
RTVSPost2010Prop28
280
     0
102
RTVSPost2010PropOp28
 70
     0
102
RTVSPost2010Prop29
280
     1
102
RTVSPost2010PropOp29
 70
     0
102
RTVSPost2010Prop30
280
     1
102
RTVSPost2010PropOp30
 70
     0
102
RTVSPost2010Prop31
280
     0
102
RTVSPost2010PropOp31
 70
     0
102
RTVSPost2010Prop32
280
     0
102
RTVSPost2010PropOp32
 70
     0
102
RTVSPost2010Prop33
280
     0
102
RTVSPost2010PropOp33
 70
     0
102
RTVSPost2010Prop34
280
     0
102
RTVSPost2010PropOp34
 70
     0
102
RTVSPost2010Prop35
280
     0
102
RTVSPost2010PropOp35
 70
     0
102
RTVSPost2010Prop36
280
     0
102
RTVSPost2010PropOp36
 70
     0
102
RTVSPost2010Prop37
 90
       50
102
RTVSPost2010PropOp37
 70
     0
102
RTVSPost2010Prop38
140
0.0
102
RTVSPost2010PropOp38
 70
     0
102
RTVSPost2010Prop39
140
1.0
102
RTVSPost2010PropOp39
 70
     0
102
RTVSPost2010Prop40
 90
        0
102
RTVSPost2010PropOp40
 70
     0
102
RTVSPost2010Prop41ColorIndex
 90
       18
102
RTVSPost2010Prop41ColorRGB
 90
        0
102
RTVSPost2010PropOp41
 70
     0
102
RTVSPost2010Prop42
 90
       50
102
RTVSPost2010PropOp42
 70
     0
102
RTVSPost2010Prop43
 90
        3
102
RTVSPost2010PropOp43
 70
     0
102
RTVSPost2010Prop44ColorIndex
 90
        5
102
RTVSPost2010Prop44ColorRGB
 90
      255
102
RTVSPost2010PropOp44
 70
     0
102
RTVSPost2010Prop45
280
     0
102
RTVSPost2010PropOp45
 70
     0
102
RTVSPost2010Prop46
 90
       50
102
RTVSPost2010PropOp46
 70
     0
102
RTVSPost2010Prop47
 90
       50
102
RTVSPost2010PropOp47
 70
     0
102
RTVSPost2010Prop48
 90
       50
102
RTVSPost2010PropOp48
 70
     0
102
RTVSPost2010Prop49
280
     0
102
RTVSPost2010PropOp49
 70
     0
102
RTVSPost2010Prop50
 90
       50
102
RTVSPost2010PropOp50
 70
     0
102
RTVSPost2010Prop51ColorIndex
 90
      256
102
RTVSPost2010Prop51ColorRGB
 90
-16777216
102
RTVSPost2010PropOp51
 70
     0
102
RTVSPost2010Prop52
140
1.0
102
RTVSPost2010PropOp52
 70
     0
102
RTVSPost2010Prop53
 90
        2
102
RTVSPost2010PropOp53
 70
     0
102
RTVSPost2010Prop54
  1
strokes_ogs.tif
102
RTVSPost2010PropOp54
 70
     0
102
RTVSPost2010Prop55
280
     0
102
RTVSPost2010PropOp55
 70
     0
102
RTVSPost2010Prop56
140
1.0
102
RTVSPost2010PropOp56
 70
     0
102
RTVSPost2010Prop57
140
1.0
102
RTVSPost2010PropOp57
 70
     0
102
RTVSPropertyOp0
 70
     0
102
RTVSPropertyOp1
 70
     0
102
RTVSPropertyOp2
 70
     0
102
RTVSPropertyOp3
 70
     0
102
RTVSPropertyOp4
 70
     0
102
RTVSPropertyOp5
 70
     0
102
RTVSPropertyOp6
 70
     0
102
RTVSPropertyOp7
 70
     0
102
RTVSPropertyOp8
 70
     0
102
RTVSPropertyOp9
 70
     0
102
RTVSPropertyOp10
 70
     0
102
RTVSPropertyOp11
 70
     0
102
RTVSPropertyOp12
 70
     0
102
RTVSPropertyOp13
 70
     0
102
RTVSPropertyOp14
 70
     2
102
RTVSPropertyOp15
 70
     0
102
RTVSPropertyOp16
 70
     0
102
RTVSPropertyOp17
 70
     0
102
RTVSPropertyOp18
 70
     0
102
RTVSPropertyOp19
 70
     0
102
RTVSPropertyOp20
 70
     0
102
RTVSPropertyOp21
 70
     0
102
RTVSPropertyOp22
 70
     0
102
RTVSPropertyOp23
 70
     0
102
RTVSPropertyOp24
 70
     0
102
RTVSPropertyOp25
 70
     0
102
RTVSPropertyOp26
 70
     0
102
RTVSPropertyOp27
 70
     0
102
RTVSPropertyOp28
 70
     0
102
RTVSPropertyOp29
 70
     0
102
RTVSPropertyOp30
 70
     0
102
RTVSPropertyOp31
 70
     0
102
RTVSPropertyOp32
 70
     0
102
RTVSPropertyOp33
 70
     0
102
RTVSPropertyOp34
 70
     0
102
RTVSPropertyOp35
 70
     0
102
RTVSPropertyOp36
 70
     0
102
RTVSPropertyOp37
 70
     0
102
RTVSPropertyOp38
 70
     0
102
RTVSPropertyOp39
 70
     0
102
RTVSPropertyOp40
 70
     0
102
RTVSPropertyOp41
 70
     0
102
RTVSPropertyOp42
 70
     0
102
RTVSPropertyOp43
 70
     0
102
RTVSPropertyOp44
 70
     0
102
RTVSPropertyOp45
 70
     0
102
RTVSPropertyOp46
 70
     0
102
RTVSPropertyOp47
 70
     0
102
RTVSPropertyOp48
 70
     0
102
RTVSPropertyOp49
 70
     0
102
RTVSPropertyOp50
 70
     0
102
RTVSPropertyOp51
 70
     0
102
RTVSPropertyOp52
 70
     0
102
RTVSPropertyOp53
 70
     0
102
RTVSPropertyOp54
 70
     0
102
RTVSPropertyOp55
 70
     0
102
RTVSPropertyOp56
 70
     0
102
RTVSPropertyOp57
 70
     0
102
RTVSPropertyOp58
 70
     0
102
RTVSPropertyOp59
 70
     0
102
RTVSPropertyOp60
 70
     0
102
RTVSPropertyOp61
 70
     0
102
RTVSPropertyOp62
 70
     0
  0
XRECORD
  5
563
102
{ACAD_REACTORS
330
562
102
}
330
562
100
AcDbXrecord
280
     1
102
RTVSPost2010Prop28
280
     0
102
RTVSPost2010PropOp28
 70
     1
102
RTVSPost2010Prop29
280
     1
102
RTVSPost2010PropOp29
 70
     1
102
RTVSPost2010Prop30
280
     1
102
RTVSPost2010PropOp30
 70
     1
102
RTVSPost2010Prop31
280
     0
102
RTVSPost2010PropOp31
 70
     1
102
RTVSPost2010Prop32
280
     0
102
RTVSPost2010PropOp32
 70
     1
102
RTVSPost2010Prop33
280
     0
102
RTVSPost2010PropOp33
 70
     1
102
RTVSPost2010Prop34
280
     0
102
RTVSPost2010PropOp34
 70
     1
102
RTVSPost2010Prop35
280
     0
102
RTVSPost2010PropOp35
 70
     1
102
RTVSPost2010Prop36
280
     0
102
RTVSPost2010PropOp36
 70
     1
102
RTVSPost2010Prop37
 90
       50
102
RTVSPost2010PropOp37
 70
     1
102
RTVSPost2010Prop38
140
0.0
102
RTVSPost2010PropOp38
 70
     1
102
RTVSPost2010Prop39
140
1.0
102
RTVSPost2010PropOp39
 70
     1
102
RTVSPost2010Prop40
 90
        0
102
RTVSPost2010PropOp40
 70
     1
102
RTVSPost2010Prop41ColorIndex
 90
       18
102
RTVSPost2010Prop41ColorRGB
 90
        0
102
RTVSPost2010PropOp41
 70
     1
102
RTVSPost2010Prop42
 90
       50
102
RTVSPost2010PropOp42
 70
     1
102
RTVSPost2010Prop43
 90
        3
102
RTVSPost2010PropOp43
 70
     1
102
RTVSPost2010Prop44ColorIndex
 90
        5
102
RTVSPost2010Prop44ColorRGB
 90
      255
102
RTVSPost2010PropOp44
 70
     1
102
RTVSPost2010Prop45
280
     0
102
RTVSPost2010PropOp45
 70
     1
102
RTVSPost2010Prop46
 90
       50
102
RTVSPost2010PropOp46
 70
     1
102
RTVSPost2010Prop47
 90
       50
102
RTVSPost2010PropOp47
 70
     1
102
RTVSPost2010Prop48
 90
       50
102
RTVSPost2010PropOp48
 70
     1
102
RTVSPost2010Prop49
280
     0
102
RTVSPost2010PropOp49
 70
     1
102
RTVSPost2010Prop50
 90
       50
102
RTVSPost2010PropOp50
 70
     1
102
RTVSPost2010Prop51ColorIndex
 90
      256
102
RTVSPost2010Prop51ColorRGB
 90
-16777216
102
RTVSPost2010PropOp51
 70
     0
102
RTVSPost2010Prop52
140
1.0
102
RTVSPost2010PropOp52
 70
     0
102
RTVSPost2010Prop53
 90
        2
102
RTVSPost2010PropOp53
 70
     1
102
RTVSPost2010Prop54
  1
strokes_ogs.tif
102
RTVSPost2010PropOp54
 70
     1
102
RTVSPost2010Prop55
280
     0
102
RTVSPost2010PropOp55
 70
     1
102
RTVSPost2010Prop56
140
1.0
102
RTVSPost2010PropOp56
 70
     1
102
RTVSPost2010Prop57
140
1.0
102
RTVSPost2010PropOp57
 70
     1
102
RTVSPropertyOp0
 70
     1
102
RTVSPropertyOp1
 70
     1
102
RTVSPropertyOp2
 70
     1
102
RTVSPropertyOp3
 70
     1
102
RTVSPropertyOp4
 70
     1
102
RTVSPropertyOp5
 70
     1
102
RTVSPropertyOp6
 70
     1
102
RTVSPropertyOp7
 70
     1
102
RTVSPropertyOp8
 70
     1
102
RTVSPropertyOp9
 70
     1
102
RTVSPropertyOp10
 70
     1
102
RTVSPropertyOp11
 70
     1
102
RTVSPropertyOp12
 70
     1
102
RTVSPropertyOp13
 70
     1
102
RTVSPropertyOp14
 70
     1
102
RTVSPropertyOp15
 70
     1
102
RTVSPropertyOp16
 70
     1
102
RTVSPropertyOp17
 70
     1
102
RTVSPropertyOp18
 70
     1
102
RTVSPropertyOp19
 70
     1
102
RTVSPropertyOp20
 70
     1
102
RTVSPropertyOp21
 70
     1
102
RTVSPropertyOp22
 70
     1
102
RTVSPropertyOp23
 70
     1
102
RTVSPropertyOp24
 70
     1
102
RTVSPropertyOp25
 70
     1
102
RTVSPropertyOp26
 70
     1
102
RTVSPropertyOp27
 70
     1
102
RTVSPropertyOp28
 70
     1
102
RTVSPropertyOp29
 70
     1
102
RTVSPropertyOp30
 70
     1
102
RTVSPropertyOp31
 70
     1
102
RTVSPropertyOp32
 70
     1
102
RTVSPropertyOp33
 70
     1
102
RTVSPropertyOp34
 70
     1
102
RTVSPropertyOp35
 70
     1
102
RTVSPropertyOp36
 70
     1
102
RTVSPropertyOp37
 70
     1
102
RTVSPropertyOp38
 70
     1
102
RTVSPropertyOp39
 70
     1
102
RTVSPropertyOp40
 70
     1
102
RTVSPropertyOp41
 70
     1
102
RTVSPropertyOp42
 70
     1
102
RTVSPropertyOp43
 70
     1
102
RTVSPropertyOp44
 70
     1
102
RTVSPropertyOp45
 70
     1
102
RTVSPropertyOp46
 70
     1
102
RTVSPropertyOp47
 70
     1
102
RTVSPropertyOp48
 70
     1
102
RTVSPropertyOp49
 70
     1
102
RTVSPropertyOp50
 70
     1
102
RTVSPropertyOp51
 70
     0
102
RTVSPropertyOp52
 70
     0
102
RTVSPropertyOp53
 70
     1
102
RTVSPropertyOp54
 70
     1
102
RTVSPropertyOp55
 70
     1
102
RTVSPropertyOp56
 70
     1
102
RTVSPropertyOp57
 70
     1
102
RTVSPropertyOp58
 70
     1
102
RTVSPropertyOp59
 70
     1
102
RTVSPropertyOp60
 70
     1
102
RTVSPropertyOp61
 70
     1
102
RTVSPropertyOp62
 70
     1
  0
XRECORD
  5
575
102
{ACAD_REACTORS
330
574
102
}
330
574
100
AcDbXrecord
280
     1
102
RTVSPost2010Prop28
280
     0
102
RTVSPost2010PropOp28
 70
     0
102
RTVSPost2010Prop29
280
     1
102
RTVSPost2010PropOp29
 70
     0
102
RTVSPost2010Prop30
280
     1
102
RTVSPost2010PropOp30
 70
     0
102
RTVSPost2010Prop31
280
     0
102
RTVSPost2010PropOp31
 70
     0
102
RTVSPost2010Prop32
280
     0
102
RTVSPost2010PropOp32
 70
     0
102
RTVSPost2010Prop33
280
     0
102
RTVSPost2010PropOp33
 70
     0
102
RTVSPost2010Prop34
280
     0
102
RTVSPost2010PropOp34
 70
     0
102
RTVSPost2010Prop35
280
     0
102
RTVSPost2010PropOp35
 70
     0
102
RTVSPost2010Prop36
280
     0
102
RTVSPost2010PropOp36
 70
     0
102
RTVSPost2010Prop37
 90
       50
102
RTVSPost2010PropOp37
 70
     0
102
RTVSPost2010Prop38
140
0.0
102
RTVSPost2010PropOp38
 70
     0
102
RTVSPost2010Prop39
140
1.0
102
RTVSPost2010PropOp39
 70
     0
102
RTVSPost2010Prop40
 90
        0
102
RTVSPost2010PropOp40
 70
     0
102
RTVSPost2010Prop41ColorIndex
 90
       18
102
RTVSPost2010Prop41ColorRGB
 90
        0
102
RTVSPost2010PropOp41
 70
     0
102
RTVSPost2010Prop42
 90
       50
102
RTVSPost2010PropOp42
 70
     0
102
RTVSPost2010Prop43
 90
        3
102
RTVSPost2010PropOp43
 70
     0
102
RTVSPost2010Prop44ColorIndex
 90
        5
102
RTVSPost2010Prop44ColorRGB
 90
      255
102
RTVSPost2010PropOp44
 70
     0
102
RTVSPost2010Prop45
280
     0
102
RTVSPost2010PropOp45
 70
     0
102
RTVSPost2010Prop46
 90
       50
102
RTVSPost2010PropOp46
 70
     0
102
RTVSPost2010Prop47
 90
       50
102
RTVSPost2010PropOp47
 70
     0
102
RTVSPost2010Prop48
 90
       50
102
RTVSPost2010PropOp48
 70
     0
102
RTVSPost2010Prop49
280
     0
102
RTVSPost2010PropOp49
 70
     0
102
RTVSPost2010Prop50
 90
       50
102
RTVSPost2010PropOp50
 70
     0
102
RTVSPost2010Prop51ColorIndex
 90
      256
102
RTVSPost2010Prop51ColorRGB
 90
-16777216
102
RTVSPost2010PropOp51
 70
     0
102
RTVSPost2010Prop52
140
1.0
102
RTVSPost2010PropOp52
 70
     0
102
RTVSPost2010Prop53
 90
        2
102
RTVSPost2010PropOp53
 70
     0
102
RTVSPost2010Prop54
  1
strokes_ogs.tif
102
RTVSPost2010PropOp54
 70
     0
102
RTVSPost2010Prop55
280
     0
102
RTVSPost2010PropOp55
 70
     0
102
RTVSPost2010Prop56
140
1.0
102
RTVSPost2010PropOp56
 70
     0
102
RTVSPost2010Prop57
140
1.0
102
RTVSPost2010PropOp57
 70
     0
102
RTVSPropertyOp0
 70
     0
102
RTVSPropertyOp1
 70
     0
102
RTVSPropertyOp2
 70
     0
102
RTVSPropertyOp3
 70
     0
102
RTVSPropertyOp4
 70
     0
102
RTVSPropertyOp5
 70
     0
102
RTVSPropertyOp6
 70
     0
102
RTVSPropertyOp7
 70
     0
102
RTVSPropertyOp8
 70
     0
102
RTVSPropertyOp9
 70
     0
102
RTVSPropertyOp10
 70
     0
102
RTVSPropertyOp11
 70
     0
102
RTVSPropertyOp12
 70
     0
102
RTVSPropertyOp13
 70
     0
102
RTVSPropertyOp14
 70
     2
102
RTVSPropertyOp15
 70
     0
102
RTVSPropertyOp16
 70
     0
102
RTVSPropertyOp17
 70
     0
102
RTVSPropertyOp18
 70
     0
102
RTVSPropertyOp19
 70
     0
102
RTVSPropertyOp20
 70
     0
102
RTVSPropertyOp21
 70
     0
102
RTVSPropertyOp22
 70
     0
102
RTVSPropertyOp23
 70
     0
102
RTVSPropertyOp24
 70
     0
102
RTVSPropertyOp25
 70
     0
102
RTVSPropertyOp26
 70
     0
102
RTVSPropertyOp27
 70
     0
102
RTVSPropertyOp28
 70
     0
102
RTVSPropertyOp29
 70
     0
102
RTVSPropertyOp30
 70
     0
102
RTVSPropertyOp31
 70
     0
102
RTVSPropertyOp32
 70
     0
102
RTVSPropertyOp33
 70
     0
102
RTVSPropertyOp34
 70
     0
102
RTVSPropertyOp35
 70
     0
102
RTVSPropertyOp36
 70
     0
102
RTVSPropertyOp37
 70
     0
102
RTVSPropertyOp38
 70
     0
102
RTVSPropertyOp39
 70
     0
102
RTVSPropertyOp40
 70
     0
102
RTVSPropertyOp41
 70
     0
102
RTVSPropertyOp42
 70
     0
102
RTVSPropertyOp43
 70
     0
102
RTVSPropertyOp44
 70
     0
102
RTVSPropertyOp45
 70
     0
102
RTVSPropertyOp46
 70
     0
102
RTVSPropertyOp47
 70
     0
102
RTVSPropertyOp48
 70
     0
102
RTVSPropertyOp49
 70
     0
102
RTVSPropertyOp50
 70
     0
102
RTVSPropertyOp51
 70
     0
102
RTVSPropertyOp52
 70
     0
102
RTVSPropertyOp53
 70
     0
102
RTVSPropertyOp54
 70
     0
102
RTVSPropertyOp55
 70
     0
102
RTVSPropertyOp56
 70
     0
102
RTVSPropertyOp57
 70
     0
102
RTVSPropertyOp58
 70
     0
102
RTVSPropertyOp59
 70
     0
102
RTVSPropertyOp60
 70
     0
102
RTVSPropertyOp61
 70
     0
102
RTVSPropertyOp62
 70
     0
  0
XRECORD
  5
55B
102
{ACAD_REACTORS
330
55A
102
}
330
55A
100
AcDbXrecord
280
     1
102
RTVSPost2010Prop28
280
     0
102
RTVSPost2010PropOp28
 70
     1
102
RTVSPost2010Prop29
280
     1
102
RTVSPost2010PropOp29
 70
     1
102
RTVSPost2010Prop30
280
     1
102
RTVSPost2010PropOp30
 70
     1
102
RTVSPost2010Prop31
280
     0
102
RTVSPost2010PropOp31
 70
     1
102
RTVSPost2010Prop32
280
     0
102
RTVSPost2010PropOp32
 70
     1
102
RTVSPost2010Prop33
280
     0
102
RTVSPost2010PropOp33
 70
     1
102
RTVSPost2010Prop34
280
     0
102
RTVSPost2010PropOp34
 70
     1
102
RTVSPost2010Prop35
280
     0
102
RTVSPost2010PropOp35
 70
     1
102
RTVSPost2010Prop36
280
     0
102
RTVSPost2010PropOp36
 70
     1
102
RTVSPost2010Prop37
 90
       50
102
RTVSPost2010PropOp37
 70
     1
102
RTVSPost2010Prop38
140
0.0
102
RTVSPost2010PropOp38
 70
     1
102
RTVSPost2010Prop39
140
1.0
102
RTVSPost2010PropOp39
 70
     1
102
RTVSPost2010Prop40
 90
        0
102
RTVSPost2010PropOp40
 70
     1
102
RTVSPost2010Prop41ColorIndex
 90
       18
102
RTVSPost2010Prop41ColorRGB
 90
        0
102
RTVSPost2010PropOp41
 70
     1
102
RTVSPost2010Prop42
 90
       50
102
RTVSPost2010PropOp42
 70
     1
102
RTVSPost2010Prop43
 90
        3
102
RTVSPost2010PropOp43
 70
     1
102
RTVSPost2010Prop44ColorIndex
 90
        5
102
RTVSPost2010Prop44ColorRGB
 90
      255
102
RTVSPost2010PropOp44
 70
     1
102
RTVSPost2010Prop45
280
     0
102
RTVSPost2010PropOp45
 70
     1
102
RTVSPost2010Prop46
 90
       50
102
RTVSPost2010PropOp46
 70
     1
102
RTVSPost2010Prop47
 90
       50
102
RTVSPost2010PropOp47
 70
     1
102
RTVSPost2010Prop48
 90
       50
102
RTVSPost2010PropOp48
 70
     1
102
RTVSPost2010Prop49
280
     0
102
RTVSPost2010PropOp49
 70
     1
102
RTVSPost2010Prop50
 90
       50
102
RTVSPost2010PropOp50
 70
     1
102
RTVSPost2010Prop51ColorIndex
 90
      256
102
RTVSPost2010Prop51ColorRGB
 90
-16777216
102
RTVSPost2010PropOp51
 70
     0
102
RTVSPost2010Prop52
140
1.0
102
RTVSPost2010PropOp52
 70
     0
102
RTVSPost2010Prop53
 90
        2
102
RTVSPost2010PropOp53
 70
     1
102
RTVSPost2010Prop54
  1
strokes_ogs.tif
102
RTVSPost2010PropOp54
 70
     1
102
RTVSPost2010Prop55
280
     0
102
RTVSPost2010PropOp55
 70
     1
102
RTVSPost2010Prop56
140
1.0
102
RTVSPost2010PropOp56
 70
     1
102
RTVSPost2010Prop57
140
1.0
102
RTVSPost2010PropOp57
 70
     1
102
RTVSPropertyOp0
 70
     1
102
RTVSPropertyOp1
 70
     1
102
RTVSPropertyOp2
 70
     1
102
RTVSPropertyOp3
 70
     1
102
RTVSPropertyOp4
 70
     1
102
RTVSPropertyOp5
 70
     1
102
RTVSPropertyOp6
 70
     1
102
RTVSPropertyOp7
 70
     1
102
RTVSPropertyOp8
 70
     1
102
RTVSPropertyOp9
 70
     1
102
RTVSPropertyOp10
 70
     1
102
RTVSPropertyOp11
 70
     1
102
RTVSPropertyOp12
 70
     1
102
RTVSPropertyOp13
 70
     1
102
RTVSPropertyOp14
 70
     1
102
RTVSPropertyOp15
 70
     1
102
RTVSPropertyOp16
 70
     1
102
RTVSPropertyOp17
 70
     1
102
RTVSPropertyOp18
 70
     1
102
RTVSPropertyOp19
 70
     1
102
RTVSPropertyOp20
 70
     1
102
RTVSPropertyOp21
 70
     1
102
RTVSPropertyOp22
 70
     1
102
RTVSPropertyOp23
 70
     1
102
RTVSPropertyOp24
 70
     1
102
RTVSPropertyOp25
 70
     1
102
RTVSPropertyOp26
 70
     1
102
RTVSPropertyOp27
 70
     1
102
RTVSPropertyOp28
 70
     1
102
RTVSPropertyOp29
 70
     1
102
RTVSPropertyOp30
 70
     1
102
RTVSPropertyOp31
 70
     1
102
RTVSPropertyOp32
 70
     1
102
RTVSPropertyOp33
 70
     1
102
RTVSPropertyOp34
 70
     1
102
RTVSPropertyOp35
 70
     1
102
RTVSPropertyOp36
 70
     1
102
RTVSPropertyOp37
 70
     1
102
RTVSPropertyOp38
 70
     1
102
RTVSPropertyOp39
 70
     1
102
RTVSPropertyOp40
 70
     1
102
RTVSPropertyOp41
 70
     1
102
RTVSPropertyOp42
 70
     1
102
RTVSPropertyOp43
 70
     1
102
RTVSPropertyOp44
 70
     1
102
RTVSPropertyOp45
 70
     1
102
RTVSPropertyOp46
 70
     1
102
RTVSPropertyOp47
 70
     1
102
RTVSPropertyOp48
 70
     1
102
RTVSPropertyOp49
 70
     1
102
RTVSPropertyOp50
 70
     1
102
RTVSPropertyOp51
 70
     0
102
RTVSPropertyOp52
 70
     0
102
RTVSPropertyOp53
 70
     1
102
RTVSPropertyOp54
 70
     1
102
RTVSPropertyOp55
 70
     1
102
RTVSPropertyOp56
 70
     1
102
RTVSPropertyOp57
 70
     1
102
RTVSPropertyOp58
 70
     1
102
RTVSPropertyOp59
 70
     1
102
RTVSPropertyOp60
 70
     1
102
RTVSPropertyOp61
 70
     1
102
RTVSPropertyOp62
 70
     1
  0
XRECORD
  5
571
102
{ACAD_REACTORS
330
570
102
}
330
570
100
AcDbXrecord
280
     1
102
RTVSPost2010Prop28
280
     0
102
RTVSPost2010PropOp28
 70
     1
102
RTVSPost2010Prop29
280
     1
102
RTVSPost2010PropOp29
 70
     1
102
RTVSPost2010Prop30
280
     1
102
RTVSPost2010PropOp30
 70
     1
102
RTVSPost2010Prop31
280
     0
102
RTVSPost2010PropOp31
 70
     1
102
RTVSPost2010Prop32
280
     0
102
RTVSPost2010PropOp32
 70
     1
102
RTVSPost2010Prop33
280
     0
102
RTVSPost2010PropOp33
 70
     1
102
RTVSPost2010Prop34
280
     0
102
RTVSPost2010PropOp34
 70
     1
102
RTVSPost2010Prop35
280
     0
102
RTVSPost2010PropOp35
 70
     1
102
RTVSPost2010Prop36
280
     0
102
RTVSPost2010PropOp36
 70
     1
102
RTVSPost2010Prop37
 90
       50
102
RTVSPost2010PropOp37
 70
     1
102
RTVSPost2010Prop38
140
0.0
102
RTVSPost2010PropOp38
 70
     1
102
RTVSPost2010Prop39
140
1.0
102
RTVSPost2010PropOp39
 70
     1
102
RTVSPost2010Prop40
 90
        0
102
RTVSPost2010PropOp40
 70
     1
102
RTVSPost2010Prop41ColorIndex
 90
       18
102
RTVSPost2010Prop41ColorRGB
 90
        0
102
RTVSPost2010PropOp41
 70
     1
102
RTVSPost2010Prop42
 90
       50
102
RTVSPost2010PropOp42
 70
     1
102
RTVSPost2010Prop43
 90
        3
102
RTVSPost2010PropOp43
 70
     1
102
RTVSPost2010Prop44ColorIndex
 90
        5
102
RTVSPost2010Prop44ColorRGB
 90
      255
102
RTVSPost2010PropOp44
 70
     1
102
RTVSPost2010Prop45
280
     0
102
RTVSPost2010PropOp45
 70
     1
102
RTVSPost2010Prop46
 90
       50
102
RTVSPost2010PropOp46
 70
     1
102
RTVSPost2010Prop47
 90
       50
102
RTVSPost2010PropOp47
 70
     1
102
RTVSPost2010Prop48
 90
       50
102
RTVSPost2010PropOp48
 70
     1
102
RTVSPost2010Prop49
280
     0
102
RTVSPost2010PropOp49
 70
     1
102
RTVSPost2010Prop50
 90
       50
102
RTVSPost2010PropOp50
 70
     1
102
RTVSPost2010Prop51ColorIndex
 90
      256
102
RTVSPost2010Prop51ColorRGB
 90
-16777216
102
RTVSPost2010PropOp51
 70
     0
102
RTVSPost2010Prop52
140
1.0
102
RTVSPost2010PropOp52
 70
     0
102
RTVSPost2010Prop53
 90
        2
102
RTVSPost2010PropOp53
 70
     1
102
RTVSPost2010Prop54
  1
strokes_ogs.tif
102
RTVSPost2010PropOp54
 70
     1
102
RTVSPost2010Prop55
280
     0
102
RTVSPost2010PropOp55
 70
     1
102
RTVSPost2010Prop56
140
1.0
102
RTVSPost2010PropOp56
 70
     1
102
RTVSPost2010Prop57
140
1.0
102
RTVSPost2010PropOp57
 70
     1
102
RTVSPropertyOp0
 70
     1
102
RTVSPropertyOp1
 70
     1
102
RTVSPropertyOp2
 70
     1
102
RTVSPropertyOp3
 70
     1
102
RTVSPropertyOp4
 70
     1
102
RTVSPropertyOp5
 70
     1
102
RTVSPropertyOp6
 70
     1
102
RTVSPropertyOp7
 70
     1
102
RTVSPropertyOp8
 70
     1
102
RTVSPropertyOp9
 70
     1
102
RTVSPropertyOp10
 70
     1
102
RTVSPropertyOp11
 70
     1
102
RTVSPropertyOp12
 70
     1
102
RTVSPropertyOp13
 70
     1
102
RTVSPropertyOp14
 70
     1
102
RTVSPropertyOp15
 70
     1
102
RTVSPropertyOp16
 70
     1
102
RTVSPropertyOp17
 70
     1
102
RTVSPropertyOp18
 70
     1
102
RTVSPropertyOp19
 70
     1
102
RTVSPropertyOp20
 70
     1
102
RTVSPropertyOp21
 70
     1
102
RTVSPropertyOp22
 70
     1
102
RTVSPropertyOp23
 70
     1
102
RTVSPropertyOp24
 70
     1
102
RTVSPropertyOp25
 70
     1
102
RTVSPropertyOp26
 70
     1
102
RTVSPropertyOp27
 70
     1
102
RTVSPropertyOp28
 70
     1
102
RTVSPropertyOp29
 70
     1
102
RTVSPropertyOp30
 70
     1
102
RTVSPropertyOp31
 70
     1
102
RTVSPropertyOp32
 70
     1
102
RTVSPropertyOp33
 70
     1
102
RTVSPropertyOp34
 70
     1
102
RTVSPropertyOp35
 70
     1
102
RTVSPropertyOp36
 70
     1
102
RTVSPropertyOp37
 70
     1
102
RTVSPropertyOp38
 70
     1
102
RTVSPropertyOp39
 70
     1
102
RTVSPropertyOp40
 70
     1
102
RTVSPropertyOp41
 70
     1
102
RTVSPropertyOp42
 70
     1
102
RTVSPropertyOp43
 70
     1
102
RTVSPropertyOp44
 70
     1
102
RTVSPropertyOp45
 70
     1
102
RTVSPropertyOp46
 70
     1
102
RTVSPropertyOp47
 70
     1
102
RTVSPropertyOp48
 70
     1
102
RTVSPropertyOp49
 70
     1
102
RTVSPropertyOp50
 70
     1
102
RTVSPropertyOp51
 70
     0
102
RTVSPropertyOp52
 70
     0
102
RTVSPropertyOp53
 70
     1
102
RTVSPropertyOp54
 70
     1
102
RTVSPropertyOp55
 70
     1
102
RTVSPropertyOp56
 70
     1
102
RTVSPropertyOp57
 70
     1
102
RTVSPropertyOp58
 70
     1
102
RTVSPropertyOp59
 70
     1
102
RTVSPropertyOp60
 70
     1
102
RTVSPropertyOp61
 70
     1
102
RTVSPropertyOp62
 70
     1
  0
XRECORD
  5
56F
102
{ACAD_REACTORS
330
56E
102
}
330
56E
100
AcDbXrecord
280
     1
102
RTVSPost2010Prop28
280
     0
102
RTVSPost2010PropOp28
 70
     1
102
RTVSPost2010Prop29
280
     1
102
RTVSPost2010PropOp29
 70
     1
102
RTVSPost2010Prop30
280
     1
102
RTVSPost2010PropOp30
 70
     1
102
RTVSPost2010Prop31
280
     0
102
RTVSPost2010PropOp31
 70
     1
102
RTVSPost2010Prop32
280
     0
102
RTVSPost2010PropOp32
 70
     1
102
RTVSPost2010Prop33
280
     0
102
RTVSPost2010PropOp33
 70
     1
102
RTVSPost2010Prop34
280
     0
102
RTVSPost2010PropOp34
 70
     1
102
RTVSPost2010Prop35
280
     0
102
RTVSPost2010PropOp35
 70
     1
102
RTVSPost2010Prop36
280
     0
102
RTVSPost2010PropOp36
 70
     1
102
RTVSPost2010Prop37
 90
       50
102
RTVSPost2010PropOp37
 70
     1
102
RTVSPost2010Prop38
140
0.0
102
RTVSPost2010PropOp38
 70
     1
102
RTVSPost2010Prop39
140
1.0
102
RTVSPost2010PropOp39
 70
     1
102
RTVSPost2010Prop40
 90
        0
102
RTVSPost2010PropOp40
 70
     1
102
RTVSPost2010Prop41ColorIndex
 90
       18
102
RTVSPost2010Prop41ColorRGB
 90
        0
102
RTVSPost2010PropOp41
 70
     1
102
RTVSPost2010Prop42
 90
       50
102
RTVSPost2010PropOp42
 70
     1
102
RTVSPost2010Prop43
 90
        3
102
RTVSPost2010PropOp43
 70
     1
102
RTVSPost2010Prop44ColorIndex
 90
        5
102
RTVSPost2010Prop44ColorRGB
 90
      255
102
RTVSPost2010PropOp44
 70
     1
102
RTVSPost2010Prop45
280
     0
102
RTVSPost2010PropOp45
 70
     1
102
RTVSPost2010Prop46
 90
       50
102
RTVSPost2010PropOp46
 70
     1
102
RTVSPost2010Prop47
 90
       50
102
RTVSPost2010PropOp47
 70
     1
102
RTVSPost2010Prop48
 90
       50
102
RTVSPost2010PropOp48
 70
     1
102
RTVSPost2010Prop49
280
     0
102
RTVSPost2010PropOp49
 70
     1
102
RTVSPost2010Prop50
 90
       50
102
RTVSPost2010PropOp50
 70
     1
102
RTVSPost2010Prop51ColorIndex
 90
      256
102
RTVSPost2010Prop51ColorRGB
 90
-16777216
102
RTVSPost2010PropOp51
 70
     0
102
RTVSPost2010Prop52
140
1.0
102
RTVSPost2010PropOp52
 70
     0
102
RTVSPost2010Prop53
 90
        2
102
RTVSPost2010PropOp53
 70
     1
102
RTVSPost2010Prop54
  1
strokes_ogs.tif
102
RTVSPost2010PropOp54
 70
     1
102
RTVSPost2010Prop55
280
     0
102
RTVSPost2010PropOp55
 70
     1
102
RTVSPost2010Prop56
140
1.0
102
RTVSPost2010PropOp56
 70
     1
102
RTVSPost2010Prop57
140
1.0
102
RTVSPost2010PropOp57
 70
     1
102
RTVSPropertyOp0
 70
     1
102
RTVSPropertyOp1
 70
     1
102
RTVSPropertyOp2
 70
     1
102
RTVSPropertyOp3
 70
     1
102
RTVSPropertyOp4
 70
     1
102
RTVSPropertyOp5
 70
     1
102
RTVSPropertyOp6
 70
     1
102
RTVSPropertyOp7
 70
     1
102
RTVSPropertyOp8
 70
     1
102
RTVSPropertyOp9
 70
     1
102
RTVSPropertyOp10
 70
     1
102
RTVSPropertyOp11
 70
     1
102
RTVSPropertyOp12
 70
     1
102
RTVSPropertyOp13
 70
     1
102
RTVSPropertyOp14
 70
     1
102
RTVSPropertyOp15
 70
     1
102
RTVSPropertyOp16
 70
     1
102
RTVSPropertyOp17
 70
     1
102
RTVSPropertyOp18
 70
     1
102
RTVSPropertyOp19
 70
     1
102
RTVSPropertyOp20
 70
     1
102
RTVSPropertyOp21
 70
     1
102
RTVSPropertyOp22
 70
     1
102
RTVSPropertyOp23
 70
     1
102
RTVSPropertyOp24
 70
     1
102
RTVSPropertyOp25
 70
     1
102
RTVSPropertyOp26
 70
     1
102
RTVSPropertyOp27
 70
     1
102
RTVSPropertyOp28
 70
     1
102
RTVSPropertyOp29
 70
     1
102
RTVSPropertyOp30
 70
     1
102
RTVSPropertyOp31
 70
     1
102
RTVSPropertyOp32
 70
     1
102
RTVSPropertyOp33
 70
     1
102
RTVSPropertyOp34
 70
     1
102
RTVSPropertyOp35
 70
     1
102
RTVSPropertyOp36
 70
     1
102
RTVSPropertyOp37
 70
     1
102
RTVSPropertyOp38
 70
     1
102
RTVSPropertyOp39
 70
     1
102
RTVSPropertyOp40
 70
     1
102
RTVSPropertyOp41
 70
     1
102
RTVSPropertyOp42
 70
     1
102
RTVSPropertyOp43
 70
     1
102
RTVSPropertyOp44
 70
     1
102
RTVSPropertyOp45
 70
     1
102
RTVSPropertyOp46
 70
     1
102
RTVSPropertyOp47
 70
     1
102
RTVSPropertyOp48
 70
     1
102
RTVSPropertyOp49
 70
     1
102
RTVSPropertyOp50
 70
     1
102
RTVSPropertyOp51
 70
     0
102
RTVSPropertyOp52
 70
     0
102
RTVSPropertyOp53
 70
     1
102
RTVSPropertyOp54
 70
     1
102
RTVSPropertyOp55
 70
     1
102
RTVSPropertyOp56
 70
     1
102
RTVSPropertyOp57
 70
     1
102
RTVSPropertyOp58
 70
     1
102
RTVSPropertyOp59
 70
     1
102
RTVSPropertyOp60
 70
     1
102
RTVSPropertyOp61
 70
     1
102
RTVSPropertyOp62
 70
     1
  0
XRECORD
  5
569
102
{ACAD_REACTORS
330
568
102
}
330
568
100
AcDbXrecord
280
     1
102
RTVSPost2010Prop28
280
     0
102
RTVSPost2010PropOp28
 70
     1
102
RTVSPost2010Prop29
280
     1
102
RTVSPost2010PropOp29
 70
     1
102
RTVSPost2010Prop30
280
     1
102
RTVSPost2010PropOp30
 70
     1
102
RTVSPost2010Prop31
280
     0
102
RTVSPost2010PropOp31
 70
     1
102
RTVSPost2010Prop32
280
     0
102
RTVSPost2010PropOp32
 70
     1
102
RTVSPost2010Prop33
280
     0
102
RTVSPost2010PropOp33
 70
     1
102
RTVSPost2010Prop34
280
     0
102
RTVSPost2010PropOp34
 70
     1
102
RTVSPost2010Prop35
280
     0
102
RTVSPost2010PropOp35
 70
     1
102
RTVSPost2010Prop36
280
     0
102
RTVSPost2010PropOp36
 70
     1
102
RTVSPost2010Prop37
 90
       50
102
RTVSPost2010PropOp37
 70
     1
102
RTVSPost2010Prop38
140
0.0
102
RTVSPost2010PropOp38
 70
     1
102
RTVSPost2010Prop39
140
1.0
102
RTVSPost2010PropOp39
 70
     1
102
RTVSPost2010Prop40
 90
        0
102
RTVSPost2010PropOp40
 70
     1
102
RTVSPost2010Prop41ColorIndex
 90
       18
102
RTVSPost2010Prop41ColorRGB
 90
        0
102
RTVSPost2010PropOp41
 70
     1
102
RTVSPost2010Prop42
 90
       50
102
RTVSPost2010PropOp42
 70
     1
102
RTVSPost2010Prop43
 90
        3
102
RTVSPost2010PropOp43
 70
     1
102
RTVSPost2010Prop44ColorIndex
 90
        5
102
RTVSPost2010Prop44ColorRGB
 90
      255
102
RTVSPost2010PropOp44
 70
     1
102
RTVSPost2010Prop45
280
     0
102
RTVSPost2010PropOp45
 70
     1
102
RTVSPost2010Prop46
 90
       50
102
RTVSPost2010PropOp46
 70
     1
102
RTVSPost2010Prop47
 90
       50
102
RTVSPost2010PropOp47
 70
     1
102
RTVSPost2010Prop48
 90
       50
102
RTVSPost2010PropOp48
 70
     1
102
RTVSPost2010Prop49
280
     0
102
RTVSPost2010PropOp49
 70
     1
102
RTVSPost2010Prop50
 90
       50
102
RTVSPost2010PropOp50
 70
     1
102
RTVSPost2010Prop51ColorIndex
 90
      256
102
RTVSPost2010Prop51ColorRGB
 90
-16777216
102
RTVSPost2010PropOp51
 70
     0
102
RTVSPost2010Prop52
140
1.0
102
RTVSPost2010PropOp52
 70
     0
102
RTVSPost2010Prop53
 90
        2
102
RTVSPost2010PropOp53
 70
     1
102
RTVSPost2010Prop54
  1
strokes_ogs.tif
102
RTVSPost2010PropOp54
 70
     1
102
RTVSPost2010Prop55
280
     0
102
RTVSPost2010PropOp55
 70
     1
102
RTVSPost2010Prop56
140
1.0
102
RTVSPost2010PropOp56
 70
     1
102
RTVSPost2010Prop57
140
1.0
102
RTVSPost2010PropOp57
 70
     1
102
RTVSPropertyOp0
 70
     1
102
RTVSPropertyOp1
 70
     1
102
RTVSPropertyOp2
 70
     1
102
RTVSPropertyOp3
 70
     1
102
RTVSPropertyOp4
 70
     1
102
RTVSPropertyOp5
 70
     1
102
RTVSPropertyOp6
 70
     1
102
RTVSPropertyOp7
 70
     1
102
RTVSPropertyOp8
 70
     1
102
RTVSPropertyOp9
 70
     1
102
RTVSPropertyOp10
 70
     1
102
RTVSPropertyOp11
 70
     1
102
RTVSPropertyOp12
 70
     1
102
RTVSPropertyOp13
 70
     1
102
RTVSPropertyOp14
 70
     1
102
RTVSPropertyOp15
 70
     1
102
RTVSPropertyOp16
 70
     1
102
RTVSPropertyOp17
 70
     1
102
RTVSPropertyOp18
 70
     1
102
RTVSPropertyOp19
 70
     1
102
RTVSPropertyOp20
 70
     1
102
RTVSPropertyOp21
 70
     1
102
RTVSPropertyOp22
 70
     1
102
RTVSPropertyOp23
 70
     1
102
RTVSPropertyOp24
 70
     1
102
RTVSPropertyOp25
 70
     1
102
RTVSPropertyOp26
 70
     1
102
RTVSPropertyOp27
 70
     1
102
RTVSPropertyOp28
 70
     1
102
RTVSPropertyOp29
 70
     1
102
RTVSPropertyOp30
 70
     1
102
RTVSPropertyOp31
 70
     1
102
RTVSPropertyOp32
 70
     1
102
RTVSPropertyOp33
 70
     1
102
RTVSPropertyOp34
 70
     1
102
RTVSPropertyOp35
 70
     1
102
RTVSPropertyOp36
 70
     1
102
RTVSPropertyOp37
 70
     1
102
RTVSPropertyOp38
 70
     1
102
RTVSPropertyOp39
 70
     1
102
RTVSPropertyOp40
 70
     1
102
RTVSPropertyOp41
 70
     1
102
RTVSPropertyOp42
 70
     1
102
RTVSPropertyOp43
 70
     1
102
RTVSPropertyOp44
 70
     1
102
RTVSPropertyOp45
 70
     1
102
RTVSPropertyOp46
 70
     1
102
RTVSPropertyOp47
 70
     1
102
RTVSPropertyOp48
 70
     1
102
RTVSPropertyOp49
 70
     1
102
RTVSPropertyOp50
 70
     1
102
RTVSPropertyOp51
 70
     0
102
RTVSPropertyOp52
 70
     0
102
RTVSPropertyOp53
 70
     1
102
RTVSPropertyOp54
 70
     1
102
RTVSPropertyOp55
 70
     1
102
RTVSPropertyOp56
 70
     1
102
RTVSPropertyOp57
 70
     1
102
RTVSPropertyOp58
 70
     1
102
RTVSPropertyOp59
 70
     1
102
RTVSPropertyOp60
 70
     1
102
RTVSPropertyOp61
 70
     1
102
RTVSPropertyOp62
 70
     1
  0
XRECORD
  5
56B
102
{ACAD_REACTORS
330
56A
102
}
330
56A
100
AcDbXrecord
280
     1
102
RTVSPost2010Prop28
280
     0
102
RTVSPost2010PropOp28
 70
     1
102
RTVSPost2010Prop29
280
     1
102
RTVSPost2010PropOp29
 70
     1
102
RTVSPost2010Prop30
280
     1
102
RTVSPost2010PropOp30
 70
     1
102
RTVSPost2010Prop31
280
     0
102
RTVSPost2010PropOp31
 70
     1
102
RTVSPost2010Prop32
280
     0
102
RTVSPost2010PropOp32
 70
     1
102
RTVSPost2010Prop33
280
     0
102
RTVSPost2010PropOp33
 70
     1
102
RTVSPost2010Prop34
280
     0
102
RTVSPost2010PropOp34
 70
     1
102
RTVSPost2010Prop35
280
     0
102
RTVSPost2010PropOp35
 70
     1
102
RTVSPost2010Prop36
280
     0
102
RTVSPost2010PropOp36
 70
     1
102
RTVSPost2010Prop37
 90
       50
102
RTVSPost2010PropOp37
 70
     1
102
RTVSPost2010Prop38
140
0.0
102
RTVSPost2010PropOp38
 70
     1
102
RTVSPost2010Prop39
140
1.0
102
RTVSPost2010PropOp39
 70
     1
102
RTVSPost2010Prop40
 90
        0
102
RTVSPost2010PropOp40
 70
     1
102
RTVSPost2010Prop41ColorIndex
 90
       18
102
RTVSPost2010Prop41ColorRGB
 90
        0
102
RTVSPost2010PropOp41
 70
     1
102
RTVSPost2010Prop42
 90
       50
102
RTVSPost2010PropOp42
 70
     1
102
RTVSPost2010Prop43
 90
        3
102
RTVSPost2010PropOp43
 70
     1
102
RTVSPost2010Prop44ColorIndex
 90
        5
102
RTVSPost2010Prop44ColorRGB
 90
      255
102
RTVSPost2010PropOp44
 70
     1
102
RTVSPost2010Prop45
280
     0
102
RTVSPost2010PropOp45
 70
     1
102
RTVSPost2010Prop46
 90
       50
102
RTVSPost2010PropOp46
 70
     1
102
RTVSPost2010Prop47
 90
       50
102
RTVSPost2010PropOp47
 70
     1
102
RTVSPost2010Prop48
 90
       50
102
RTVSPost2010PropOp48
 70
     1
102
RTVSPost2010Prop49
280
     0
102
RTVSPost2010PropOp49
 70
     1
102
RTVSPost2010Prop50
 90
       50
102
RTVSPost2010PropOp50
 70
     1
102
RTVSPost2010Prop51ColorIndex
 90
      256
102
RTVSPost2010Prop51ColorRGB
 90
-16777216
102
RTVSPost2010PropOp51
 70
     0
102
RTVSPost2010Prop52
140
1.0
102
RTVSPost2010PropOp52
 70
     0
102
RTVSPost2010Prop53
 90
        2
102
RTVSPost2010PropOp53
 70
     1
102
RTVSPost2010Prop54
  1
strokes_ogs.tif
102
RTVSPost2010PropOp54
 70
     1
102
RTVSPost2010Prop55
280
     0
102
RTVSPost2010PropOp55
 70
     1
102
RTVSPost2010Prop56
140
1.0
102
RTVSPost2010PropOp56
 70
     1
102
RTVSPost2010Prop57
140
1.0
102
RTVSPost2010PropOp57
 70
     1
102
RTVSPropertyOp0
 70
     1
102
RTVSPropertyOp1
 70
     1
102
RTVSPropertyOp2
 70
     1
102
RTVSPropertyOp3
 70
     1
102
RTVSPropertyOp4
 70
     1
102
RTVSPropertyOp5
 70
     1
102
RTVSPropertyOp6
 70
     1
102
RTVSPropertyOp7
 70
     1
102
RTVSPropertyOp8
 70
     1
102
RTVSPropertyOp9
 70
     1
102
RTVSPropertyOp10
 70
     1
102
RTVSPropertyOp11
 70
     1
102
RTVSPropertyOp12
 70
     1
102
RTVSPropertyOp13
 70
     1
102
RTVSPropertyOp14
 70
     1
102
RTVSPropertyOp15
 70
     1
102
RTVSPropertyOp16
 70
     1
102
RTVSPropertyOp17
 70
     1
102
RTVSPropertyOp18
 70
     1
102
RTVSPropertyOp19
 70
     1
102
RTVSPropertyOp20
 70
     1
102
RTVSPropertyOp21
 70
     1
102
RTVSPropertyOp22
 70
     1
102
RTVSPropertyOp23
 70
     1
102
RTVSPropertyOp24
 70
     1
102
RTVSPropertyOp25
 70
     1
102
RTVSPropertyOp26
 70
     1
102
RTVSPropertyOp27
 70
     1
102
RTVSPropertyOp28
 70
     1
102
RTVSPropertyOp29
 70
     1
102
RTVSPropertyOp30
 70
     1
102
RTVSPropertyOp31
 70
     1
102
RTVSPropertyOp32
 70
     1
102
RTVSPropertyOp33
 70
     1
102
RTVSPropertyOp34
 70
     1
102
RTVSPropertyOp35
 70
     1
102
RTVSPropertyOp36
 70
     1
102
RTVSPropertyOp37
 70
     1
102
RTVSPropertyOp38
 70
     1
102
RTVSPropertyOp39
 70
     1
102
RTVSPropertyOp40
 70
     1
102
RTVSPropertyOp41
 70
     1
102
RTVSPropertyOp42
 70
     1
102
RTVSPropertyOp43
 70
     1
102
RTVSPropertyOp44
 70
     1
102
RTVSPropertyOp45
 70
     1
102
RTVSPropertyOp46
 70
     1
102
RTVSPropertyOp47
 70
     1
102
RTVSPropertyOp48
 70
     1
102
RTVSPropertyOp49
 70
     1
102
RTVSPropertyOp50
 70
     1
102
RTVSPropertyOp51
 70
     0
102
RTVSPropertyOp52
 70
     0
102
RTVSPropertyOp53
 70
     1
102
RTVSPropertyOp54
 70
     1
102
RTVSPropertyOp55
 70
     1
102
RTVSPropertyOp56
 70
     1
102
RTVSPropertyOp57
 70
     1
102
RTVSPropertyOp58
 70
     1
102
RTVSPropertyOp59
 70
     1
102
RTVSPropertyOp60
 70
     1
102
RTVSPropertyOp61
 70
     1
102
RTVSPropertyOp62
 70
     1
  0
XRECORD
  5
561
102
{ACAD_REACTORS
330
560
102
}
330
560
100
AcDbXrecord
280
     1
102
RTVSPost2010Prop28
280
     0
102
RTVSPost2010PropOp28
 70
     1
102
RTVSPost2010Prop29
280
     1
102
RTVSPost2010PropOp29
 70
     1
102
RTVSPost2010Prop30
280
     1
102
RTVSPost2010PropOp30
 70
     1
102
RTVSPost2010Prop31
280
     0
102
RTVSPost2010PropOp31
 70
     1
102
RTVSPost2010Prop32
280
     0
102
RTVSPost2010PropOp32
 70
     1
102
RTVSPost2010Prop33
280
     0
102
RTVSPost2010PropOp33
 70
     1
102
RTVSPost2010Prop34
280
     0
102
RTVSPost2010PropOp34
 70
     1
102
RTVSPost2010Prop35
280
     0
102
RTVSPost2010PropOp35
 70
     1
102
RTVSPost2010Prop36
280
     0
102
RTVSPost2010PropOp36
 70
     1
102
RTVSPost2010Prop37
 90
       50
102
RTVSPost2010PropOp37
 70
     1
102
RTVSPost2010Prop38
140
0.0
102
RTVSPost2010PropOp38
 70
     1
102
RTVSPost2010Prop39
140
1.0
102
RTVSPost2010PropOp39
 70
     1
102
RTVSPost2010Prop40
 90
        0
102
RTVSPost2010PropOp40
 70
     1
102
RTVSPost2010Prop41ColorIndex
 90
       18
102
RTVSPost2010Prop41ColorRGB
 90
        0
102
RTVSPost2010PropOp41
 70
     1
102
RTVSPost2010Prop42
 90
       50
102
RTVSPost2010PropOp42
 70
     1
102
RTVSPost2010Prop43
 90
        3
102
RTVSPost2010PropOp43
 70
     1
102
RTVSPost2010Prop44ColorIndex
 90
        5
102
RTVSPost2010Prop44ColorRGB
 90
      255
102
RTVSPost2010PropOp44
 70
     1
102
RTVSPost2010Prop45
280
     0
102
RTVSPost2010PropOp45
 70
     1
102
RTVSPost2010Prop46
 90
       50
102
RTVSPost2010PropOp46
 70
     1
102
RTVSPost2010Prop47
 90
       50
102
RTVSPost2010PropOp47
 70
     1
102
RTVSPost2010Prop48
 90
       50
102
RTVSPost2010PropOp48
 70
     1
102
RTVSPost2010Prop49
280
     0
102
RTVSPost2010PropOp49
 70
     1
102
RTVSPost2010Prop50
 90
       50
102
RTVSPost2010PropOp50
 70
     1
102
RTVSPost2010Prop51ColorIndex
 90
      256
102
RTVSPost2010Prop51ColorRGB
 90
-16777216
102
RTVSPost2010PropOp51
 70
     0
102
RTVSPost2010Prop52
140
1.0
102
RTVSPost2010PropOp52
 70
     0
102
RTVSPost2010Prop53
 90
        2
102
RTVSPost2010PropOp53
 70
     1
102
RTVSPost2010Prop54
  1
strokes_ogs.tif
102
RTVSPost2010PropOp54
 70
     1
102
RTVSPost2010Prop55
280
     0
102
RTVSPost2010PropOp55
 70
     1
102
RTVSPost2010Prop56
140
1.0
102
RTVSPost2010PropOp56
 70
     1
102
RTVSPost2010Prop57
140
1.0
102
RTVSPost2010PropOp57
 70
     1
102
RTVSPropertyOp0
 70
     1
102
RTVSPropertyOp1
 70
     1
102
RTVSPropertyOp2
 70
     1
102
RTVSPropertyOp3
 70
     1
102
RTVSPropertyOp4
 70
     1
102
RTVSPropertyOp5
 70
     1
102
RTVSPropertyOp6
 70
     1
102
RTVSPropertyOp7
 70
     1
102
RTVSPropertyOp8
 70
     1
102
RTVSPropertyOp9
 70
     1
102
RTVSPropertyOp10
 70
     1
102
RTVSPropertyOp11
 70
     1
102
RTVSPropertyOp12
 70
     1
102
RTVSPropertyOp13
 70
     1
102
RTVSPropertyOp14
 70
     1
102
RTVSPropertyOp15
 70
     1
102
RTVSPropertyOp16
 70
     1
102
RTVSPropertyOp17
 70
     1
102
RTVSPropertyOp18
 70
     1
102
RTVSPropertyOp19
 70
     1
102
RTVSPropertyOp20
 70
     1
102
RTVSPropertyOp21
 70
     1
102
RTVSPropertyOp22
 70
     1
102
RTVSPropertyOp23
 70
     1
102
RTVSPropertyOp24
 70
     1
102
RTVSPropertyOp25
 70
     1
102
RTVSPropertyOp26
 70
     1
102
RTVSPropertyOp27
 70
     1
102
RTVSPropertyOp28
 70
     1
102
RTVSPropertyOp29
 70
     1
102
RTVSPropertyOp30
 70
     1
102
RTVSPropertyOp31
 70
     1
102
RTVSPropertyOp32
 70
     1
102
RTVSPropertyOp33
 70
     1
102
RTVSPropertyOp34
 70
     1
102
RTVSPropertyOp35
 70
     1
102
RTVSPropertyOp36
 70
     1
102
RTVSPropertyOp37
 70
     1
102
RTVSPropertyOp38
 70
     1
102
RTVSPropertyOp39
 70
     1
102
RTVSPropertyOp40
 70
     1
102
RTVSPropertyOp41
 70
     1
102
RTVSPropertyOp42
 70
     1
102
RTVSPropertyOp43
 70
     1
102
RTVSPropertyOp44
 70
     1
102
RTVSPropertyOp45
 70
     1
102
RTVSPropertyOp46
 70
     1
102
RTVSPropertyOp47
 70
     1
102
RTVSPropertyOp48
 70
     1
102
RTVSPropertyOp49
 70
     1
102
RTVSPropertyOp50
 70
     1
102
RTVSPropertyOp51
 70
     0
102
RTVSPropertyOp52
 70
     0
102
RTVSPropertyOp53
 70
     1
102
RTVSPropertyOp54
 70
     1
102
RTVSPropertyOp55
 70
     1
102
RTVSPropertyOp56
 70
     1
102
RTVSPropertyOp57
 70
     1
102
RTVSPropertyOp58
 70
     1
102
RTVSPropertyOp59
 70
     1
102
RTVSPropertyOp60
 70
     1
102
RTVSPropertyOp61
 70
     1
102
RTVSPropertyOp62
 70
     1
  0
XRECORD
  5
555
102
{ACAD_REACTORS
330
554
102
}
330
554
100
AcDbXrecord
280
     1
102
RTVSPost2010Prop28
280
     0
102
RTVSPost2010PropOp28
 70
     1
102
RTVSPost2010Prop29
280
     1
102
RTVSPost2010PropOp29
 70
     1
102
RTVSPost2010Prop30
280
     1
102
RTVSPost2010PropOp30
 70
     1
102
RTVSPost2010Prop31
280
     0
102
RTVSPost2010PropOp31
 70
     1
102
RTVSPost2010Prop32
280
     0
102
RTVSPost2010PropOp32
 70
     1
102
RTVSPost2010Prop33
280
     0
102
RTVSPost2010PropOp33
 70
     1
102
RTVSPost2010Prop34
280
     0
102
RTVSPost2010PropOp34
 70
     1
102
RTVSPost2010Prop35
280
     0
102
RTVSPost2010PropOp35
 70
     1
102
RTVSPost2010Prop36
280
     0
102
RTVSPost2010PropOp36
 70
     1
102
RTVSPost2010Prop37
 90
       50
102
RTVSPost2010PropOp37
 70
     1
102
RTVSPost2010Prop38
140
0.0
102
RTVSPost2010PropOp38
 70
     1
102
RTVSPost2010Prop39
140
1.0
102
RTVSPost2010PropOp39
 70
     1
102
RTVSPost2010Prop40
 90
        0
102
RTVSPost2010PropOp40
 70
     1
102
RTVSPost2010Prop41ColorIndex
 90
       18
102
RTVSPost2010Prop41ColorRGB
 90
        0
102
RTVSPost2010PropOp41
 70
     1
102
RTVSPost2010Prop42
 90
       50
102
RTVSPost2010PropOp42
 70
     1
102
RTVSPost2010Prop43
 90
        3
102
RTVSPost2010PropOp43
 70
     1
102
RTVSPost2010Prop44ColorIndex
 90
        5
102
RTVSPost2010Prop44ColorRGB
 90
      255
102
RTVSPost2010PropOp44
 70
     1
102
RTVSPost2010Prop45
280
     0
102
RTVSPost2010PropOp45
 70
     1
102
RTVSPost2010Prop46
 90
       50
102
RTVSPost2010PropOp46
 70
     1
102
RTVSPost2010Prop47
 90
       50
102
RTVSPost2010PropOp47
 70
     1
102
RTVSPost2010Prop48
 90
       50
102
RTVSPost2010PropOp48
 70
     1
102
RTVSPost2010Prop49
280
     0
102
RTVSPost2010PropOp49
 70
     1
102
RTVSPost2010Prop50
 90
       50
102
RTVSPost2010PropOp50
 70
     1
102
RTVSPost2010Prop51ColorIndex
 90
      256
102
RTVSPost2010Prop51ColorRGB
 90
-16777216
102
RTVSPost2010PropOp51
 70
     0
102
RTVSPost2010Prop52
140
1.0
102
RTVSPost2010PropOp52
 70
     0
102
RTVSPost2010Prop53
 90
        2
102
RTVSPost2010PropOp53
 70
     1
102
RTVSPost2010Prop54
  1
strokes_ogs.tif
102
RTVSPost2010PropOp54
 70
     1
102
RTVSPost2010Prop55
280
     0
102
RTVSPost2010PropOp55
 70
     1
102
RTVSPost2010Prop56
140
1.0
102
RTVSPost2010PropOp56
 70
     1
102
RTVSPost2010Prop57
140
1.0
102
RTVSPost2010PropOp57
 70
     1
102
RTVSPropertyOp0
 70
     1
102
RTVSPropertyOp1
 70
     1
102
RTVSPropertyOp2
 70
     1
102
RTVSPropertyOp3
 70
     1
102
RTVSPropertyOp4
 70
     1
102
RTVSPropertyOp5
 70
     1
102
RTVSPropertyOp6
 70
     1
102
RTVSPropertyOp7
 70
     1
102
RTVSPropertyOp8
 70
     1
102
RTVSPropertyOp9
 70
     1
102
RTVSPropertyOp10
 70
     1
102
RTVSPropertyOp11
 70
     1
102
RTVSPropertyOp12
 70
     1
102
RTVSPropertyOp13
 70
     1
102
RTVSPropertyOp14
 70
     1
102
RTVSPropertyOp15
 70
     1
102
RTVSPropertyOp16
 70
     1
102
RTVSPropertyOp17
 70
     1
102
RTVSPropertyOp18
 70
     1
102
RTVSPropertyOp19
 70
     1
102
RTVSPropertyOp20
 70
     1
102
RTVSPropertyOp21
 70
     1
102
RTVSPropertyOp22
 70
     1
102
RTVSPropertyOp23
 70
     1
102
RTVSPropertyOp24
 70
     1
102
RTVSPropertyOp25
 70
     1
102
RTVSPropertyOp26
 70
     1
102
RTVSPropertyOp27
 70
     1
102
RTVSPropertyOp28
 70
     1
102
RTVSPropertyOp29
 70
     1
102
RTVSPropertyOp30
 70
     1
102
RTVSPropertyOp31
 70
     1
102
RTVSPropertyOp32
 70
     1
102
RTVSPropertyOp33
 70
     1
102
RTVSPropertyOp34
 70
     1
102
RTVSPropertyOp35
 70
     1
102
RTVSPropertyOp36
 70
     1
102
RTVSPropertyOp37
 70
     1
102
RTVSPropertyOp38
 70
     1
102
RTVSPropertyOp39
 70
     1
102
RTVSPropertyOp40
 70
     1
102
RTVSPropertyOp41
 70
     1
102
RTVSPropertyOp42
 70
     1
102
RTVSPropertyOp43
 70
     1
102
RTVSPropertyOp44
 70
     1
102
RTVSPropertyOp45
 70
     1
102
RTVSPropertyOp46
 70
     1
102
RTVSPropertyOp47
 70
     1
102
RTVSPropertyOp48
 70
     1
102
RTVSPropertyOp49
 70
     1
102
RTVSPropertyOp50
 70
     1
102
RTVSPropertyOp51
 70
     0
102
RTVSPropertyOp52
 70
     0
102
RTVSPropertyOp53
 70
     1
102
RTVSPropertyOp54
 70
     1
102
RTVSPropertyOp55
 70
     1
102
RTVSPropertyOp56
 70
     1
102
RTVSPropertyOp57
 70
     1
102
RTVSPropertyOp58
 70
     1
102
RTVSPropertyOp59
 70
     1
102
RTVSPropertyOp60
 70
     1
102
RTVSPropertyOp61
 70
     1
102
RTVSPropertyOp62
 70
     1
  0
XRECORD
  5
56D
102
{ACAD_REACTORS
330
56C
102
}
330
56C
100
AcDbXrecord
280
     1
102
RTVSPost2010Prop28
280
     0
102
RTVSPost2010PropOp28
 70
     1
102
RTVSPost2010Prop29
280
     1
102
RTVSPost2010PropOp29
 70
     1
102
RTVSPost2010Prop30
280
     1
102
RTVSPost2010PropOp30
 70
     1
102
RTVSPost2010Prop31
280
     0
102
RTVSPost2010PropOp31
 70
     1
102
RTVSPost2010Prop32
280
     0
102
RTVSPost2010PropOp32
 70
     1
102
RTVSPost2010Prop33
280
     0
102
RTVSPost2010PropOp33
 70
     1
102
RTVSPost2010Prop34
280
     0
102
RTVSPost2010PropOp34
 70
     1
102
RTVSPost2010Prop35
280
     0
102
RTVSPost2010PropOp35
 70
     1
102
RTVSPost2010Prop36
280
     0
102
RTVSPost2010PropOp36
 70
     1
102
RTVSPost2010Prop37
 90
       50
102
RTVSPost2010PropOp37
 70
     1
102
RTVSPost2010Prop38
140
0.0
102
RTVSPost2010PropOp38
 70
     1
102
RTVSPost2010Prop39
140
1.0
102
RTVSPost2010PropOp39
 70
     1
102
RTVSPost2010Prop40
 90
        0
102
RTVSPost2010PropOp40
 70
     1
102
RTVSPost2010Prop41ColorIndex
 90
       18
102
RTVSPost2010Prop41ColorRGB
 90
        0
102
RTVSPost2010PropOp41
 70
     1
102
RTVSPost2010Prop42
 90
       50
102
RTVSPost2010PropOp42
 70
     1
102
RTVSPost2010Prop43
 90
        3
102
RTVSPost2010PropOp43
 70
     1
102
RTVSPost2010Prop44ColorIndex
 90
        5
102
RTVSPost2010Prop44ColorRGB
 90
      255
102
RTVSPost2010PropOp44
 70
     1
102
RTVSPost2010Prop45
280
     0
102
RTVSPost2010PropOp45
 70
     1
102
RTVSPost2010Prop46
 90
       50
102
RTVSPost2010PropOp46
 70
     1
102
RTVSPost2010Prop47
 90
       50
102
RTVSPost2010PropOp47
 70
     1
102
RTVSPost2010Prop48
 90
       50
102
RTVSPost2010PropOp48
 70
     1
102
RTVSPost2010Prop49
280
     0
102
RTVSPost2010PropOp49
 70
     1
102
RTVSPost2010Prop50
 90
       50
102
RTVSPost2010PropOp50
 70
     1
102
RTVSPost2010Prop51ColorIndex
 90
      256
102
RTVSPost2010Prop51ColorRGB
 90
-16777216
102
RTVSPost2010PropOp51
 70
     0
102
RTVSPost2010Prop52
140
1.0
102
RTVSPost2010PropOp52
 70
     0
102
RTVSPost2010Prop53
 90
        2
102
RTVSPost2010PropOp53
 70
     1
102
RTVSPost2010Prop54
  1
strokes_ogs.tif
102
RTVSPost2010PropOp54
 70
     1
102
RTVSPost2010Prop55
280
     0
102
RTVSPost2010PropOp55
 70
     1
102
RTVSPost2010Prop56
140
1.0
102
RTVSPost2010PropOp56
 70
     1
102
RTVSPost2010Prop57
140
1.0
102
RTVSPost2010PropOp57
 70
     1
102
RTVSPropertyOp0
 70
     1
102
RTVSPropertyOp1
 70
     1
102
RTVSPropertyOp2
 70
     1
102
RTVSPropertyOp3
 70
     1
102
RTVSPropertyOp4
 70
     1
102
RTVSPropertyOp5
 70
     1
102
RTVSPropertyOp6
 70
     1
102
RTVSPropertyOp7
 70
     1
102
RTVSPropertyOp8
 70
     1
102
RTVSPropertyOp9
 70
     1
102
RTVSPropertyOp10
 70
     1
102
RTVSPropertyOp11
 70
     1
102
RTVSPropertyOp12
 70
     1
102
RTVSPropertyOp13
 70
     1
102
RTVSPropertyOp14
 70
     1
102
RTVSPropertyOp15
 70
     1
102
RTVSPropertyOp16
 70
     1
102
RTVSPropertyOp17
 70
     1
102
RTVSPropertyOp18
 70
     1
102
RTVSPropertyOp19
 70
     1
102
RTVSPropertyOp20
 70
     1
102
RTVSPropertyOp21
 70
     1
102
RTVSPropertyOp22
 70
     1
102
RTVSPropertyOp23
 70
     1
102
RTVSPropertyOp24
 70
     1
102
RTVSPropertyOp25
 70
     1
102
RTVSPropertyOp26
 70
     1
102
RTVSPropertyOp27
 70
     1
102
RTVSPropertyOp28
 70
     1
102
RTVSPropertyOp29
 70
     1
102
RTVSPropertyOp30
 70
     1
102
RTVSPropertyOp31
 70
     1
102
RTVSPropertyOp32
 70
     1
102
RTVSPropertyOp33
 70
     1
102
RTVSPropertyOp34
 70
     1
102
RTVSPropertyOp35
 70
     1
102
RTVSPropertyOp36
 70
     1
102
RTVSPropertyOp37
 70
     1
102
RTVSPropertyOp38
 70
     1
102
RTVSPropertyOp39
 70
     1
102
RTVSPropertyOp40
 70
     1
102
RTVSPropertyOp41
 70
     1
102
RTVSPropertyOp42
 70
     1
102
RTVSPropertyOp43
 70
     1
102
RTVSPropertyOp44
 70
     1
102
RTVSPropertyOp45
 70
     1
102
RTVSPropertyOp46
 70
     1
102
RTVSPropertyOp47
 70
     1
102
RTVSPropertyOp48
 70
     1
102
RTVSPropertyOp49
 70
     1
102
RTVSPropertyOp50
 70
     1
102
RTVSPropertyOp51
 70
     0
102
RTVSPropertyOp52
 70
     0
102
RTVSPropertyOp53
 70
     1
102
RTVSPropertyOp54
 70
     1
102
RTVSPropertyOp55
 70
     1
102
RTVSPropertyOp56
 70
     1
102
RTVSPropertyOp57
 70
     1
102
RTVSPropertyOp58
 70
     1
102
RTVSPropertyOp59
 70
     1
102
RTVSPropertyOp60
 70
     1
102
RTVSPropertyOp61
 70
     1
102
RTVSPropertyOp62
 70
     1
  0
ENDSEC
  0
EOF
