  0
SECTION
  2
HEADER
  9
$ACADVER
  1
AC1018
  9
$ACADMAINTVER
 70
   104
  9
$DWGCODEPAGE
  3
ANSI_932
  9
$INSBASE
 10
0.0
 20
0.0
 30
0.0
  9
$EXTMIN
 10
-0.87477426
 20
-0.78772791
 30
0.0
  9
$EXTMAX
 10
28681.89104226
 20
20000.75766552
 30
0.0
  9
$LIMMIN
 10
0.0
 20
0.0
  9
$LIMMAX
 10
420.0
 20
330.0
  9
$ORTHOMODE
 70
     0
  9
$REGENMODE
 70
     1
  9
$FILLMODE
 70
     1
  9
$QTEXTMODE
 70
     0
  9
$MIRRTEXT
 70
     0
  9
$LTSCALE
 40
1.0
  9
$ATTMODE
 70
     1
  9
$TEXTSIZE
 40
0.2
  9
$TRACEWID
 40
0.05
  9
$TEXTSTYLE
  7
STANDARD
  9
$CLAYER
  8
0
  9
$CELTYPE
  6
BYLAYER
  9
$CECOLOR
 62
   256
  9
$CELTSCALE
 40
1.0
  9
$DISPSILH
 70
     1
  9
$DIMSCALE
 40
1.0
  9
$DIMASZ
 40
0.18
  9
$DIMEXO
 40
0.0625
  9
$DIMDLI
 40
0.38
  9
$DIMRND
 40
0.0
  9
$DIMDLE
 40
0.0
  9
$DIMEXE
 40
0.18
  9
$DIMTP
 40
0.0
  9
$DIMTM
 40
0.0
  9
$DIMTXT
 40
0.18
  9
$DIMCEN
 40
0.09
  9
$DIMTSZ
 40
0.0
  9
$DIMTOL
 70
     0
  9
$DIMLIM
 70
     0
  9
$DIMTIH
 70
     1
  9
$DIMTOH
 70
     1
  9
$DIMSE1
 70
     0
  9
$DIMSE2
 70
     0
  9
$DIMTAD
 70
     0
  9
$DIMZIN
 70
     0
  9
$DIMBLK
  1

  9
$DIMASO
 70
     1
  9
$DIMSHO
 70
     0
  9
$DIMPOST
  1

  9
$DIMAPOST
  1

  9
$DIMALT
 70
     0
  9
$DIMALTD
 70
     2
  9
$DIMALTF
 40
25.4
  9
$DIMLFAC
 40
1.0
  9
$DIMTOFL
 70
     0
  9
$DIMTVP
 40
0.0
  9
$DIMTIX
 70
     0
  9
$DIMSOXD
 70
     0
  9
$DIMSAH
 70
     0
  9
$DIMBLK1
  1

  9
$DIMBLK2
  1

  9
$DIMSTYLE
  2
YKK_SGDOT1
  9
$DIMCLRD
 70
     0
  9
$DIMCLRE
 70
     0
  9
$DIMCLRT
 70
     0
  9
$DIMTFAC
 40
1.0
  9
$DIMGAP
 40
0.09
  9
$DIMJUST
 70
     0
  9
$DIMSD1
 70
     0
  9
$DIMSD2
 70
     0
  9
$DIMTOLJ
 70
     1
  9
$DIMTZIN
 70
     0
  9
$DIMALTZ
 70
     0
  9
$DIMALTTZ
 70
     0
  9
$DIMUPT
 70
     0
  9
$DIMDEC
 70
     4
  9
$DIMTDEC
 70
     4
  9
$DIMALTU
 70
     2
  9
$DIMALTTD
 70
     2
  9
$DIMTXSTY
  7
STANDARD
  9
$DIMAUNIT
 70
     0
  9
$DIMADEC
 70
     0
  9
$DIMALTRND
 40
0.0
  9
$DIMAZIN
 70
     0
  9
$DIMDSEP
 70
    46
  9
$DIMATFIT
 70
     3
  9
$DIMFRAC
 70
     0
  9
$DIMLDRBLK
  1

  9
$DIMLUNIT
 70
     2
  9
$DIMLWD
 70
    -2
  9
$DIMLWE
 70
    -2
  9
$DIMTMOVE
 70
     2
  9
$LUNITS
 70
     2
  9
$LUPREC
 70
     4
  9
$SKETCHINC
 40
0.1
  9
$FILLETRAD
 40
1.0
  9
$AUNITS
 70
     0
  9
$AUPREC
 70
     0
  9
$MENU
  1
tool/YKK
  9
$ELEVATION
 40
0.0
  9
$PELEVATION
 40
0.0
  9
$THICKNESS
 40
0.0
  9
$LIMCHECK
 70
     0
  9
$CHAMFERA
 40
0.0
  9
$CHAMFERB
 40
0.0
  9
$CHAMFERC
 40
0.0
  9
$CHAMFERD
 40
0.0
  9
$SKPOLY
 70
     0
  9
$TDCREATE
 40
2453046.710790463
  9
$TDUCREATE
 40
2453046.335790463
  9
$TDUPDATE
 40
2457185.492879028
  9
$TDUUPDATE
 40
2457185.117879028
  9
$TDINDWG
 40
0.0000543866
  9
$TDUSRTIMER
 40
0.0000543866
  9
$USRTIMER
 70
     1
  9
$ANGBASE
 50
0.0
  9
$ANGDIR
 70
     0
  9
$PDMODE
 70
     0
  9
$PDSIZE
 40
0.0
  9
$PLINEWID
 40
0.0
  9
$SPLFRAME
 70
     0
  9
$SPLINETYPE
 70
     6
  9
$SPLINESEGS
 70
     8
  9
$HANDSEED
  5
57E
  9
$SURFTAB1
 70
     6
  9
$SURFTAB2
 70
     6
  9
$SURFTYPE
 70
     6
  9
$SURFU
 70
     6
  9
$SURFV
 70
     6
  9
$UCSBASE
  2

  9
$UCSNAME
  2

  9
$UCSORG
 10
0.0
 20
0.0
 30
0.0
  9
$UCSXDIR
 10
1.0
 20
0.0
 30
0.0
  9
$UCSYDIR
 10
0.0
 20
1.0
 30
0.0
  9
$UCSORTHOREF
  2

  9
$UCSORTHOVIEW
 70
     0
  9
$UCSORGTOP
 10
0.0
 20
0.0
 30
0.0
  9
$UCSORGBOTTOM
 10
0.0
 20
0.0
 30
0.0
  9
$UCSORGLEFT
 10
0.0
 20
0.0
 30
0.0
  9
$UCSORGRIGHT
 10
0.0
 20
0.0
 30
0.0
  9
$UCSORGFRONT
 10
0.0
 20
0.0
 30
0.0
  9
$UCSORGBACK
 10
0.0
 20
0.0
 30
0.0
  9
$PUCSBASE
  2

  9
$PUCSNAME
  2

  9
$PUCSORG
 10
0.0
 20
0.0
 30
0.0
  9
$PUCSXDIR
 10
1.0
 20
0.0
 30
0.0
  9
$PUCSYDIR
 10
0.0
 20
1.0
 30
0.0
  9
$PUCSORTHOREF
  2

  9
$PUCSORTHOVIEW
 70
     0
  9
$PUCSORGTOP
 10
0.0
 20
0.0
 30
0.0
  9
$PUCSORGBOTTOM
 10
0.0
 20
0.0
 30
0.0
  9
$PUCSORGLEFT
 10
0.0
 20
0.0
 30
0.0
  9
$PUCSORGRIGHT
 10
0.0
 20
0.0
 30
0.0
  9
$PUCSORGFRONT
 10
0.0
 20
0.0
 30
0.0
  9
$PUCSORGBACK
 10
0.0
 20
0.0
 30
0.0
  9
$USERI1
 70
     0
  9
$USERI2
 70
     0
  9
$USERI3
 70
     0
  9
$USERI4
 70
     0
  9
$USERI5
 70
     0
  9
$USERR1
 40
0.0
  9
$USERR2
 40
0.0
  9
$USERR3
 40
0.0
  9
$USERR4
 40
0.0
  9
$USERR5
 40
0.0
  9
$WORLDVIEW
 70
     1
  9
$SHADEDGE
 70
     3
  9
$SHADEDIF
 70
    70
  9
$TILEMODE
 70
     1
  9
$MAXACTVP
 70
    16
  9
$PINSBASE
 10
0.0
 20
0.0
 30
0.0
  9
$PLIMCHECK
 70
     0
  9
$PEXTMIN
 10
1.00000000E+20
 20
1.00000000E+20
 30
1.00000000E+20
  9
$PEXTMAX
 10
-1.00000000E+20
 20
-1.00000000E+20
 30
-1.00000000E+20
  9
$PLIMMIN
 10
0.0
 20
0.0
  9
$PLIMMAX
 10
12.0
 20
9.0
  9
$UNITMODE
 70
     0
  9
$VISRETAIN
 70
     0
  9
$PLINEGEN
 70
     0
  9
$PSLTSCALE
 70
     0
  9
$TREEDEPTH
 70
  3020
  9
$CMLSTYLE
  2
STANDARD
  9
$CMLJUST
 70
     0
  9
$CMLSCALE
 40
1.0
  9
$PROXYGRAPHICS
 70
     1
  9
$MEASUREMENT
 70
     1
  9
$CELWEIGHT
370
    -1
  9
$ENDCAPS
280
     0
  9
$JOINSTYLE
280
     0
  9
$LWDISPLAY
290
     0
  9
$INSUNITS
 70
     0
  9
$HYPERLINKBASE
  1

  9
$STYLESHEET
  1

  9
$XEDIT
290
     1
  9
$CEPSNTYPE
380
     0
  9
$PSTYLEMODE
290
     1
  9
$FINGERPRINTGUID
  2
{476E148D-2AB3-4DED-B290-A4D560BBF8B1}
  9
$VERSIONGUID
  2
{A43BB984-A8D0-4BEA-BF97-E55801DC97FC}
  9
$EXTNAMES
290
     1
  9
$PSVPSCALE
 40
0.0
  9
$OLESTARTUP
290
     0
  9
$SORTENTS
280
   127
  9
$INDEXCTL
280
     0
  9
$HIDETEXT
280
     0
  9
$XCLIPFRAME
290
     0
  9
$HALOGAP
280
     0
  9
$OBSCOLOR
 70
   257
  9
$OBSLTYPE
280
     0
  9
$INTERSECTIONDISPLAY
280
     0
  9
$INTERSECTIONCOLOR
 70
   257
  9
$DIMASSOC
280
     1
  9
$PROJECTNAME
  1

  0
ENDSEC
  0
SECTION
  2
CLASSES
  0
CLASS
  1
DICTIONARYVAR
  2
AcDbDictionaryVar
  3
ObjectDBX Classes
 90
        0
 91
        8
280
     0
281
     0
  0
CLASS
  1
ACDBDICTIONARYWDFLT
  2
AcDbDictionaryWithDefault
  3
ObjectDBX Classes
 90
        0
 91
        1
280
     0
281
     0
  0
CLASS
  1
MATERIAL
  2
AcDbMaterial
  3
ObjectDBX Classes
 90
     1153
 91
        3
280
     0
281
     0
  0
CLASS
  1
VISUALSTYLE
  2
AcDbVisualStyle
  3
ObjectDBX Classes
 90
     4095
 91
       24
280
     0
281
     0
  0
CLASS
  1
TABLESTYLE
  2
AcDbTableStyle
  3
ObjectDBX Classes
 90
     4095
 91
        1
280
     0
281
     0
  0
CLASS
  1
SCALE
  2
AcDbScale
  3
ObjectDBX Classes
 90
     1153
 91
       17
280
     0
281
     0
  0
CLASS
  1
MLEADERSTYLE
  2
AcDbMLeaderStyle
  3
ACDB_MLEADERSTYLE_CLASS
 90
     4095
 91
        1
280
     0
281
     0
  0
CLASS
  1
ACDBSECTIONVIEWSTYLE
  2
AcDbSectionViewStyle
  3
ObjectDBX Classes
 90
     1025
 91
        1
280
     0
281
     0
  0
CLASS
  1
ACDBDETAILVIEWSTYLE
  2
AcDbDetailViewStyle
  3
ObjectDBX Classes
 90
     1025
 91
        1
280
     0
281
     0
  0
CLASS
  1
CELLSTYLEMAP
  2
AcDbCellStyleMap
  3
ObjectDBX Classes
 90
     1152
 91
        2
280
     0
281
     0
  0
ENDSEC
  0
SECTION
  2
TABLES
  0
TABLE
  2
VPORT
  5
471
330
0
100
AcDbSymbolTable
 70
     1
  0
VPORT
  5
49D
330
471
100
AcDbSymbolTableRecord
100
AcDbViewportTableRecord
  2
*ACTIVE
 70
     0
 10
0.0
 20
0.0
 11
1.0
 21
1.0
 12
14340.508134
 22
9999.9849688
 13
0.0
 23
0.0
 14
1.0
 24
1.0
 15
10.0
 25
10.0
 16
0.0
 26
0.0
 36
1.0
 17
0.0
 27
0.0
 37
0.0
 40
21503.95983961
 41
1.34178905
 42
50.0
 43
0.0
 44
0.0
 50
0.0
 51
0.0
 71
     0
 72
   100
 73
     1
 74
     0
 75
     1
 76
     0
 77
     0
 78
     0
281
     0
 65
     1
110
0.0
120
0.0
130
0.0
111
1.0
121
0.0
131
0.0
112
0.0
122
1.0
132
0.0
 79
     0
146
0.0
1001
ACAD_NAV_VCDISPLAY
1070
     1
  0
ENDTAB
  0
TABLE
  2
LTYPE
  5
46E
330
0
100
AcDbSymbolTable
 70
     3
  0
LTYPE
  5
47A
330
46E
100
AcDbSymbolTableRecord
100
AcDbLinetypeTableRecord
  2
BYBLOCK
 70
     0
  3

 72
    65
 73
     0
 40
0.0
  0
LTYPE
  5
47B
330
46E
100
AcDbSymbolTableRecord
100
AcDbLinetypeTableRecord
  2
BYLAYER
 70
     0
  3

 72
    65
 73
     0
 40
0.0
  0
LTYPE
  5
47C
330
46E
100
AcDbSymbolTableRecord
100
AcDbLinetypeTableRecord
  2
CONTINUOUS
 70
     0
  3
Solid line
 72
    65
 73
     0
 40
0.0
  0
LTYPE
  5
486
330
46E
100
AcDbSymbolTableRecord
100
AcDbLinetypeTableRecord
  2
CENTER
 70
     0
  3
____ _ ____ _ ____ _ ____ _ ____ _ ____ _ ____ 
 72
    65
 73
     4
 40
2.0
 49
1.25
 74
     0
 49
-0.25
 74
     0
 49
0.25
 74
     0
 49
-0.25
 74
     0
  0
LTYPE
  5
487
330
46E
100
AcDbSymbolTableRecord
100
AcDbLinetypeTableRecord
  2
HIDDEN
 70
     0
  3
__ __ __ __ __ __ __ __ __ __ __ __ __ __ __ __
 72
    65
 73
     2
 40
0.375
 49
0.25
 74
     0
 49
-0.125
 74
     0
  0
ENDTAB
  0
TABLE
  2
LAYER
  5
46B
330
0
100
AcDbSymbolTable
 70
    11
  0
LAYER
  5
477
330
46B
100
AcDbSymbolTableRecord
100
AcDbLayerTableRecord
  2
0
 70
     0
 62
     7
  6
CONTINUOUS
370
    -3
390
4A0
  0
LAYER
  5
48A
330
46B
100
AcDbSymbolTableRecord
100
AcDbLayerTableRecord
  2
YKK_IN
 70
     0
 62
     1
  6
CONTINUOUS
370
    -3
390
4A0
  0
LAYER
  5
48B
330
46B
100
AcDbSymbolTableRecord
100
AcDbLayerTableRecord
  2
YKK_F1
 70
     0
 62
     7
  6
CONTINUOUS
370
    -3
390
4A0
  0
LAYER
  5
48C
330
46B
100
AcDbSymbolTableRecord
100
AcDbLayerTableRecord
  2
YKK_N1
 70
     0
 62
     2
  6
CONTINUOUS
370
    -3
390
4A0
  0
LAYER
  5
48D
330
46B
100
AcDbSymbolTableRecord
100
AcDbLayerTableRecord
  2
YKK_Z1
 70
     0
 62
     7
  6
CONTINUOUS
370
    -3
390
4A0
  0
LAYER
  5
48E
330
46B
100
AcDbSymbolTableRecord
100
AcDbLayerTableRecord
  2
YKK_A1
 70
     0
 62
     4
  6
CONTINUOUS
370
    -3
390
4A0
  0
LAYER
  5
48F
330
46B
100
AcDbSymbolTableRecord
100
AcDbLayerTableRecord
  2
YKK_A2
 70
     0
 62
     3
  6
CONTINUOUS
370
    -3
390
4A0
  0
LAYER
  5
490
330
46B
100
AcDbSymbolTableRecord
100
AcDbLayerTableRecord
  2
YKK_B1
 70
     0
 62
     4
  6
CONTINUOUS
370
    -3
390
4A0
  0
LAYER
  5
491
330
46B
100
AcDbSymbolTableRecord
100
AcDbLayerTableRecord
  2
YKK_C1
 70
     0
 62
     4
  6
CONTINUOUS
370
    -3
390
4A0
  0
LAYER
  5
492
330
46B
100
AcDbSymbolTableRecord
100
AcDbLayerTableRecord
  2
YKK_B2
 70
     0
 62
     5
  6
CONTINUOUS
370
    -3
390
4A0
  0
LAYER
  5
493
330
46B
100
AcDbSymbolTableRecord
100
AcDbLayerTableRecord
  2
YKK_C2
 70
     0
 62
     5
  6
CONTINUOUS
370
    -3
390
4A0
  0
ENDTAB
  0
TABLE
  2
STYLE
  5
46C
330
0
100
AcDbSymbolTable
 70
     2
  0
STYLE
  5
478
330
46C
100
AcDbSymbolTableRecord
100
AcDbTextStyleTableRecord
  2
STANDARD
 70
     0
 40
0.0
 41
1.0
 50
0.0
 71
     0
 42
0.2
  3
txt
  4

  0
STYLE
  5
485
330
46C
100
AcDbSymbolTableRecord
100
AcDbTextStyleTableRecord
  2
EXTFONT
 70
     0
 40
60.0
 41
1.0
 50
0.0
 71
     0
 42
60.0
  3
txt.shx
  4
EXTFONT
  0
ENDTAB
  0
TABLE
  2
VIEW
  5
46F
330
0
100
AcDbSymbolTable
 70
     0
  0
ENDTAB
  0
TABLE
  2
UCS
  5
470
330
0
100
AcDbSymbolTable
 70
     0
  0
ENDTAB
  0
TABLE
  2
APPID
  5
472
330
0
100
AcDbSymbolTable
 70
     5
  0
APPID
  5
479
330
472
100
AcDbSymbolTableRecord
100
AcDbRegAppTableRecord
  2
ACAD
 70
     0
  0
APPID
  5
52B
330
472
100
AcDbSymbolTableRecord
100
AcDbRegAppTableRecord
  2
ACAD_MLEADERVER
 70
     0
  0
APPID
  5
53E
330
472
100
AcDbSymbolTableRecord
100
AcDbRegAppTableRecord
  2
ACAD_PSEXT
 70
     0
  0
APPID
  5
53F
330
472
100
AcDbSymbolTableRecord
100
AcDbRegAppTableRecord
  2
ACAD_NAV_VCDISPLAY
 70
     0
  0
APPID
  5
540
330
472
100
AcDbSymbolTableRecord
100
AcDbRegAppTableRecord
  2
YKK_AP_LOCKLAYER
 70
     0
  0
ENDTAB
  0
TABLE
  2
DIMSTYLE
  5
473
330
0
100
AcDbSymbolTable
 70
     1
100
AcDbDimStyleTable
 71
     0
  0
DIMSTYLE
105
489
330
473
100
AcDbSymbolTableRecord
100
AcDbDimStyleTableRecord
  2
YKK_SGDOT1
 70
     0
 41
20.0
 42
60.0
 43
0.0
 44
30.0
 73
     0
 74
     0
 77
     1
 78
    12
140
60.0
141
0.0
146
0.002
147
10.0
172
     1
279
     2
340
478
  0
ENDTAB
  0
TABLE
  2
BLOCK_RECORD
  5
46A
330
0
100
AcDbSymbolTable
 70
     0
  0
BLOCK_RECORD
  5
480
330
46A
100
AcDbSymbolTableRecord
100
AcDbBlockTableRecord
  2
*MODEL_SPACE
340
4F2
  0
BLOCK_RECORD
  5
47D
330
46A
100
AcDbSymbolTableRecord
100
AcDbBlockTableRecord
  2
*PAPER_SPACE
340
4F3
  0
ENDTAB
  0
ENDSEC
  0
SECTION
  2
BLOCKS
  0
BLOCK
  5
496
330
480
100
AcDbEntity
  8
0
100
AcDbBlockBegin
  2
*MODEL_SPACE
 70
     0
 10
0.0
 20
0.0
 30
0.0
  3
*MODEL_SPACE
  1

  0
ENDBLK
  5
497
330
480
100
AcDbEntity
  8
0
100
AcDbBlockEnd
  0
BLOCK
  5
494
330
47D
100
AcDbEntity
 67
     1
  8
0
100
AcDbBlockBegin
  2
*PAPER_SPACE
 70
     0
 10
0.0
 20
0.0
 30
0.0
  3
*PAPER_SPACE
  1

  0
ENDBLK
  5
495
330
47D
100
AcDbEntity
 67
     1
  8
0
100
AcDbBlockEnd
  0
ENDSEC
  0
SECTION
  2
ENTITIES
  0
LINE
  5
1D
330
480
100
AcDbEntity
  8
YKK_F1
100
AcDbLine
 10
0.0
 20
5600.0
 30
0.0
 11
28500.0
 21
5600.0
 31
0.0
  0
LINE
  5
1F
330
480
100
AcDbEntity
  8
YKK_F1
100
AcDbLine
 10
0.0
 20
6050.0
 30
0.0
 11
28500.0
 21
6050.0
 31
0.0
  0
LINE
  5
20
330
480
100
AcDbEntity
  8
YKK_F1
100
AcDbLine
 10
0.0
 20
12100.0
 30
0.0
 11
28500.0
 21
12100.0
 31
0.0
  0
LINE
  5
21
330
480
100
AcDbEntity
  8
YKK_F1
100
AcDbLine
 10
0.0
 20
12550.0
 30
0.0
 11
28500.0
 21
12550.0
 31
0.0
  0
LINE
  5
22
330
480
100
AcDbEntity
  8
YKK_F1
100
AcDbLine
 10
0.0
 20
6500.0
 30
0.0
 11
28500.0
 21
6500.0
 31
0.0
  0
LINE
  5
23
330
480
100
AcDbEntity
  8
YKK_F1
100
AcDbLine
 10
0.0
 20
13000.0
 30
0.0
 11
28500.0
 21
13000.0
 31
0.0
  0
LINE
  5
24
330
480
100
AcDbEntity
  8
YKK_F1
100
AcDbLine
 10
0.0
 20
18600.0
 30
0.0
 11
28500.0
 21
18600.0
 31
0.0
  0
LINE
  5
25
330
480
100
AcDbEntity
  8
YKK_F1
100
AcDbLine
 10
0.0
 20
19050.0
 30
0.0
 11
28500.0
 21
19050.0
 31
0.0
  0
LINE
  5
26
330
480
100
AcDbEntity
  8
YKK_F1
100
AcDbLine
 10
0.0
 20
0.0
 30
0.0
 11
28681.0155
 21
0.0
 31
0.0
  0
LINE
  5
27
330
480
100
AcDbEntity
  8
YKK_F1
100
AcDbLine
 10
0.0
 20
20000.0
 30
0.0
 11
28681.0155
 21
20000.0
 31
0.0
  0
LINE
  5
28
330
480
100
AcDbEntity
  8
YKK_F1
100
AcDbLine
 10
0.0
 20
19500.0
 30
0.0
 11
28500.0
 21
19500.0
 31
0.0
  0
LINE
  5
29
330
480
100
AcDbEntity
  8
YKK_F1
100
AcDbLine
 10
5700.0
 20
0.0
 30
0.0
 11
5700.0
 21
19500.0
 31
0.0
  0
LINE
  5
2A
330
480
100
AcDbEntity
  8
YKK_F1
100
AcDbLine
 10
11400.0
 20
0.0
 30
0.0
 11
11400.0
 21
19500.0
 31
0.0
  0
LINE
  5
2B
330
480
100
AcDbEntity
  8
YKK_F1
100
AcDbLine
 10
0.0
 20
0.0
 30
0.0
 11
0.0
 21
20000.0
 31
0.0
  0
POINT
  5
2C
330
480
100
AcDbEntity
  8
YKK_IN
100
AcDbPoint
 10
0.0
 20
0.0
 30
0.0
  0
POINT
  5
2E
330
480
100
AcDbEntity
  8
YKK_F1
100
AcDbPoint
 10
0.0
 20
0.0
 30
0.0
  0
POINT
  5
2F
330
480
100
AcDbEntity
  8
YKK_N1
100
AcDbPoint
 10
0.0
 20
0.0
 30
0.0
  0
POINT
  5
31
330
480
100
AcDbEntity
  8
YKK_Z1
100
AcDbPoint
 10
0.0
 20
0.0
 30
0.0
  0
POINT
  5
33
330
480
100
AcDbEntity
  8
YKK_A1
100
AcDbPoint
 10
0.0
 20
0.0
 30
0.0
  0
POINT
  5
35
330
480
100
AcDbEntity
  8
YKK_A2
100
AcDbPoint
 10
0.0
 20
0.0
 30
0.0
  0
POINT
  5
37
330
480
100
AcDbEntity
  8
YKK_B1
100
AcDbPoint
 10
0.0
 20
0.0
 30
0.0
  0
POINT
  5
39
330
480
100
AcDbEntity
  8
YKK_C1
100
AcDbPoint
 10
0.0
 20
0.0
 30
0.0
  0
POINT
  5
3B
330
480
100
AcDbEntity
  8
YKK_B2
100
AcDbPoint
 10
0.0
 20
0.0
 30
0.0
  0
POINT
  5
3D
330
480
100
AcDbEntity
  8
YKK_C2
100
AcDbPoint
 10
0.0
 20
0.0
 30
0.0
  0
TEXT
  5
3F
330
480
100
AcDbEntity
  8
0
100
AcDbText
 10
500.0
 20
19625.0
 30
0.0
 40
250.0
  1
ＢＦＤＰＰＪ２１　省エネ商品　ＹＤＰ－１００　つらいち枠　はめ殺し窓
  7
EXTFONT
100
AcDbText
  0
TEXT
  5
41
330
480
100
AcDbEntity
  8
0
100
AcDbText
 10
100.0
 20
18737.5
 30
0.0
 40
175.0
  1
W＝800　H＝900
  7
EXTFONT
100
AcDbText
  0
TEXT
  5
42
330
480
100
AcDbEntity
  8
0
100
AcDbText
 10
100.0
 20
19187.5
 30
0.0
 40
175.0
  1
はめ殺し窓
  7
EXTFONT
100
AcDbText
  0
TEXT
  5
43
330
480
100
AcDbEntity
  8
YKK_N1
100
AcDbText
 10
4190.0
 20
16750.42857143
 30
0.0
 40
60.0
  1
H=900
 50
90.0
 41
0.8
100
AcDbText
1001
ACAD
1000
MTEXTBEGIN
1070
    73
1070
     1
1070
    44
1040
1.0
1070
    74
1070
     0
1000
MTEXTEND
  0
TEXT
  5
44
330
480
100
AcDbEntity
  8
YKK_N1
100
AcDbText
 10
2690.0
 20
16750.42857143
 30
0.0
 40
60.0
  1
H=900
 50
90.0
 41
0.8
100
AcDbText
1001
ACAD
1000
MTEXTBEGIN
1070
    73
1070
     1
1070
    44
1040
1.0
1070
    74
1070
     0
1000
MTEXTEND
  0
LINE
  5
45
330
480
100
AcDbEntity
  8
YKK_N1
100
AcDbLine
 10
2700.0
 20
16426.0
 30
0.0
 11
2700.0
 21
17324.0
 31
0.0
  0
LINE
  5
46
330
480
100
AcDbEntity
  8
YKK_N1
100
AcDbLine
 10
4200.0
 20
16426.0
 30
0.0
 11
4200.0
 21
17324.0
 31
0.0
  0
LINE
  5
47
330
480
100
AcDbEntity
  8
YKK_Z1
  6
Continuous
100
AcDbLine
 10
3920.0
 20
17340.0
 30
0.0
 11
3920.0
 21
16875.0
 31
0.0
  0
LINE
  5
48
330
480
100
AcDbEntity
  8
YKK_C1
100
AcDbLine
 10
3700.0
 20
16445.0
 30
0.0
 11
3700.0
 21
17305.0
 31
0.0
  0
LINE
  5
49
330
480
100
AcDbEntity
  8
YKK_C1
100
AcDbLine
 10
3800.0
 20
16445.0
 30
0.0
 11
3800.0
 21
17305.0
 31
0.0
  0
LINE
  5
4A
330
480
100
AcDbEntity
  8
YKK_C1
100
AcDbLine
 10
3728.0
 20
16417.0
 30
0.0
 11
3728.0
 21
17333.0
 31
0.0
  0
LINE
  5
4B
330
480
100
AcDbEntity
  8
YKK_C1
100
AcDbLine
 10
3714.0
 20
16417.0
 30
0.0
 11
3714.0
 21
17333.0
 31
0.0
  0
LINE
  5
4C
330
480
100
AcDbEntity
  8
YKK_A1
100
AcDbLine
 10
1530.0
 20
17325.0
 30
0.0
 11
1530.0
 21
16425.0
 31
0.0
  0
LINE
  5
4D
330
480
100
AcDbEntity
  8
YKK_A1
100
AcDbLine
 10
2270.0
 20
16425.0
 30
0.0
 11
2270.0
 21
17325.0
 31
0.0
  0
LINE
  5
4E
330
480
100
AcDbEntity
  8
YKK_A1
100
AcDbLine
 10
1500.0
 20
17325.0
 30
0.0
 11
1500.0
 21
16425.0
 31
0.0
  0
LINE
  5
4F
330
480
100
AcDbEntity
  8
YKK_A1
100
AcDbLine
 10
2300.0
 20
16425.0
 30
0.0
 11
2300.0
 21
17325.0
 31
0.0
  0
LINE
  5
50
330
480
100
AcDbEntity
  8
YKK_A1
100
AcDbLine
 10
1485.0
 20
17340.0
 30
0.0
 11
1485.0
 21
16425.0
 31
0.0
  0
LINE
  5
51
330
480
100
AcDbEntity
  8
YKK_A1
100
AcDbLine
 10
2315.0
 20
16425.0
 30
0.0
 11
2315.0
 21
17340.0
 31
0.0
  0
LINE
  5
52
330
480
100
AcDbEntity
  8
YKK_N1
100
AcDbLine
 10
1501.0
 20
13925.0
 30
0.0
 11
2299.0
 21
13925.0
 31
0.0
  0
LINE
  5
53
330
480
100
AcDbEntity
  8
YKK_Z1
  6
Continuous
100
AcDbLine
 10
2315.0
 20
14205.0
 30
0.0
 11
1900.0
 21
14205.0
 31
0.0
  0
LINE
  5
54
330
480
100
AcDbEntity
  8
YKK_B1
100
AcDbLine
 10
1550.0
 20
14425.0
 30
0.0
 11
2250.0
 21
14425.0
 31
0.0
  0
LINE
  5
55
330
480
100
AcDbEntity
  8
YKK_B1
100
AcDbLine
 10
1520.0
 20
14325.0
 30
0.0
 11
2280.0
 21
14325.0
 31
0.0
  0
LINE
  5
56
330
480
100
AcDbEntity
  8
YKK_B1
100
AcDbLine
 10
1522.0
 20
14397.0
 30
0.0
 11
2278.0
 21
14397.0
 31
0.0
  0
LINE
  5
57
330
480
100
AcDbEntity
  8
YKK_B1
100
AcDbLine
 10
1522.0
 20
14411.0
 30
0.0
 11
2278.0
 21
14411.0
 31
0.0
  0
LINE
  5
58
330
480
100
AcDbEntity
  8
YKK_N1
  6
ByBlock
100
AcDbLine
 10
1586.60254038
 20
13875.0
 30
0.0
 11
1586.60254038
 21
13975.0
 31
0.0
  0
LINE
  5
59
330
480
100
AcDbEntity
  8
YKK_N1
  6
ByBlock
100
AcDbLine
 10
1500.0
 20
13925.0
 30
0.0
 11
1586.60254038
 21
13875.0
 31
0.0
  0
LINE
  5
5A
330
480
100
AcDbEntity
  8
YKK_N1
100
AcDbLine
 10
1500.0
 20
14265.0
 30
0.0
 11
1500.0
 21
13895.0
 31
0.0
  0
LINE
  5
5B
330
480
100
AcDbEntity
  8
YKK_Z1
  6
Continuous
100
AcDbLine
 10
1100.0
 20
14227.0
 30
0.0
 11
1460.0
 21
14227.0
 31
0.0
  0
LINE
  5
5C
330
480
100
AcDbEntity
  8
YKK_Z1
  6
Continuous
100
AcDbLine
 10
1460.0
 20
14215.0
 30
0.0
 11
1100.0
 21
14215.0
 31
0.0
  0
LINE
  5
5D
330
480
100
AcDbEntity
  8
YKK_Z1
  6
Continuous
100
AcDbLine
 10
1470.0
 20
14415.0
 30
0.0
 11
1450.0
 21
14415.0
 31
0.0
  0
LINE
  5
5E
330
480
100
AcDbEntity
  8
YKK_Z1
  6
CENTER
100
AcDbLine
 10
1462.5
 20
14320.0
 30
0.0
 11
1100.0
 21
14320.0
 31
0.0
  0
LINE
  5
60
330
480
100
AcDbEntity
  8
YKK_Z1
  6
HIDDEN
100
AcDbLine
 10
1450.0
 20
14395.0
 30
0.0
 11
1100.0
 21
14395.0
 31
0.0
  0
LINE
  5
62
330
480
100
AcDbEntity
  8
YKK_Z1
  6
Continuous
100
AcDbLine
 10
1298.28417067
 20
14415.0
 30
0.0
 11
1128.284259
 21
14245.0
 31
0.0
  0
LINE
  5
63
330
480
100
AcDbEntity
  8
YKK_Z1
  6
Continuous
100
AcDbLine
 10
1278.48518937
 20
14415.0
 30
0.0
 11
1108.4852777
 21
14245.0
 31
0.0
  0
LINE
  5
64
330
480
100
AcDbEntity
  8
YKK_Z1
  6
Continuous
100
AcDbLine
 10
1269.99991167
 20
14415.0
 30
0.0
 11
1100.0
 21
14245.0
 31
0.0
  0
LINE
  5
65
330
480
100
AcDbEntity
  8
YKK_Z1
  6
Continuous
100
AcDbLine
 10
1450.0
 20
14415.0
 30
0.0
 11
1100.0
 21
14415.0
 31
0.0
  0
LINE
  5
66
330
480
100
AcDbEntity
  8
YKK_Z1
  6
Continuous
100
AcDbLine
 10
1100.0
 20
14245.0
 30
0.0
 11
1450.0
 21
14245.0
 31
0.0
  0
LINE
  5
67
330
480
100
AcDbEntity
  8
YKK_Z1
  6
Continuous
100
AcDbLine
 10
1450.0
 20
14269.73103435
 30
0.0
 11
1425.2689785
 21
14245.0
 31
0.0
  0
LINE
  5
68
330
480
100
AcDbEntity
  8
YKK_Z1
  6
Continuous
100
AcDbLine
 10
1450.0
 20
14289.53002594
 30
0.0
 11
1405.4699972
 21
14245.0
 31
0.0
  0
LINE
  5
69
330
480
100
AcDbEntity
  8
YKK_Z1
  6
Continuous
100
AcDbLine
 10
1450.0
 20
14298.01530805
 30
0.0
 11
1396.9847195
 21
14245.0
 31
0.0
  0
LINE
  5
6A
330
480
100
AcDbEntity
  8
YKK_Z1
  6
Continuous
100
AcDbLine
 10
1450.0
 20
14245.0
 30
0.0
 11
1450.0
 21
14415.0
 31
0.0
  0
CIRCLE
  5
6B
330
480
100
AcDbEntity
  8
YKK_N1
100
AcDbCircle
 10
1729.0
 20
14425.0
 30
0.0
 40
6.5
  0
CIRCLE
  5
6C
330
480
100
AcDbEntity
  8
YKK_N1
100
AcDbCircle
 10
1729.0
 20
14425.0
 30
0.0
 40
10.0
  0
CIRCLE
  5
6D
330
480
100
AcDbEntity
  8
YKK_N1
100
AcDbCircle
 10
1729.0
 20
14325.0
 30
0.0
 40
10.0
  0
CIRCLE
  5
6E
330
480
100
AcDbEntity
  8
YKK_N1
100
AcDbCircle
 10
1729.0
 20
14205.0
 30
0.0
 40
10.0
  0
CIRCLE
  5
6F
330
480
100
AcDbEntity
  8
YKK_N1
100
AcDbCircle
 10
1729.0
 20
14325.0
 30
0.0
 40
10.0
  0
LINE
  5
70
330
480
100
AcDbEntity
  8
YKK_N1
  6
Continuous
100
AcDbLine
 10
1545.0
 20
14205.0
 30
0.0
 11
1759.0
 21
14205.0
 31
0.0
  0
LINE
  5
71
330
480
100
AcDbEntity
  8
YKK_Z1
  6
Continuous
100
AcDbLine
 10
1485.0
 20
14205.0
 30
0.0
 11
1900.0
 21
14205.0
 31
0.0
  0
LINE
  5
72
330
480
100
AcDbEntity
  8
YKK_N1
100
AcDbLine
 10
1729.0
 20
14325.0
 30
0.0
 11
1729.0
 21
14305.0
 31
0.0
  0
CIRCLE
  5
73
330
480
100
AcDbEntity
  8
YKK_N1
100
AcDbCircle
 10
1729.0
 20
14325.0
 30
0.0
 40
6.5
  0
LINE
  5
74
330
480
100
AcDbEntity
  8
YKK_N1
100
AcDbLine
 10
1729.0
 20
14205.0
 30
0.0
 11
1729.0
 21
14225.0
 31
0.0
  0
CIRCLE
  5
75
330
480
100
AcDbEntity
  8
YKK_N1
100
AcDbCircle
 10
1729.0
 20
14205.0
 30
0.0
 40
6.5
  0
TEXT
  5
76
330
480
100
AcDbEntity
  8
YKK_N1
100
AcDbText
 10
1719.0
 20
14044.71428571
 30
0.0
 40
60.0
  1
120
 50
90.0
 41
0.8
100
AcDbText
  0
TEXT
  5
77
330
480
100
AcDbEntity
  8
YKK_N1
100
AcDbText
 10
1684.0
 20
14303.0
 30
0.0
 40
60.0
  1
100
 50
90.0
 41
0.8
100
AcDbText
1001
ACAD
1000
MTEXTBEGIN
1070
    73
1070
     1
1070
    44
1040
1.0
1070
    74
1070
     0
1000
MTEXTEND
  0
LINE
  5
78
330
480
100
AcDbEntity
  8
YKK_N1
100
AcDbLine
 10
1729.0
 20
14325.0
 30
0.0
 11
1729.0
 21
14345.0
 31
0.0
  0
CIRCLE
  5
79
330
480
100
AcDbEntity
  8
YKK_N1
100
AcDbCircle
 10
1729.0
 20
14325.0
 30
0.0
 40
6.5
  0
LINE
  5
7A
330
480
100
AcDbEntity
  8
YKK_N1
100
AcDbLine
 10
1729.0
 20
14425.0
 30
0.0
 11
1729.0
 21
14405.0
 31
0.0
  0
LINE
  5
7B
330
480
100
AcDbEntity
  8
YKK_N1
  6
ByBlock
100
AcDbLine
 10
1586.60254038
 20
13975.0
 30
0.0
 11
1500.0
 21
13925.0
 31
0.0
  0
LINE
  5
7C
330
480
100
AcDbEntity
  8
YKK_N1
  6
ByBlock
100
AcDbLine
 10
1500.0
 20
13925.0
 30
0.0
 11
1600.0
 21
13925.0
 31
0.0
  0
LINE
  5
7D
330
480
100
AcDbEntity
  8
YKK_N1
100
AcDbLine
 10
1729.0
 20
14345.0
 30
0.0
 11
1729.0
 21
14405.0
 31
0.0
  0
LINE
  5
7E
330
480
100
AcDbEntity
  8
YKK_N1
100
AcDbLine
 10
1679.0
 20
14425.0
 30
0.0
 11
1699.0
 21
14425.0
 31
0.0
  0
LINE
  5
7F
330
480
100
AcDbEntity
  8
YKK_N1
100
AcDbLine
 10
1679.0
 20
14325.0
 30
0.0
 11
1699.0
 21
14325.0
 31
0.0
  0
LINE
  5
80
330
480
100
AcDbEntity
  8
YKK_N1
  6
Continuous
100
AcDbLine
 10
1729.0
 20
14205.0
 30
0.0
 11
1729.0
 21
14048.42857143
 31
0.0
  0
LINE
  5
81
330
480
100
AcDbEntity
  8
YKK_N1
  6
Continuous
100
AcDbLine
 10
1729.0
 20
14305.0
 30
0.0
 11
1729.0
 21
14225.0
 31
0.0
  0
LINE
  5
82
330
480
100
AcDbEntity
  8
YKK_N1
  6
Continuous
100
AcDbLine
 10
1669.0
 20
14325.0
 30
0.0
 11
1699.0
 21
14325.0
 31
0.0
  0
LINE
  5
83
330
480
100
AcDbEntity
  8
YKK_Z1
  6
Continuous
100
AcDbLine
 10
1460.0
 20
14227.0
 30
0.0
 11
1460.0
 21
14215.0
 31
0.0
  0
LINE
  5
84
330
480
100
AcDbEntity
  8
YKK_Z1
  6
Continuous
100
AcDbLine
 10
1481.42135735
 20
14205.0
 30
0.0
 11
1485.0
 21
14208.57864451
 31
0.0
  0
LINE
  5
85
330
480
100
AcDbEntity
  8
YKK_Z1
  6
Continuous
100
AcDbLine
 10
1460.0
 20
14211.86290521
 30
0.0
 11
1485.0
 21
14236.8629182
 31
0.0
  0
LINE
  5
86
330
480
100
AcDbEntity
  8
YKK_Z1
  6
Continuous
100
AcDbLine
 10
1460.0
 20
14240.14717891
 30
0.0
 11
1485.0
 21
14265.1471919
 31
0.0
  0
LINE
  5
87
330
480
100
AcDbEntity
  8
YKK_Z1
  6
Continuous
100
AcDbLine
 10
1460.0
 20
14268.43145261
 30
0.0
 11
1485.0
 21
14293.4314656
 31
0.0
  0
LINE
  5
88
330
480
100
AcDbEntity
  8
YKK_Z1
  6
Continuous
100
AcDbLine
 10
1460.0
 20
14296.7157263
 30
0.0
 11
1485.0
 21
14321.71573929
 31
0.0
  0
LINE
  5
8A
330
480
100
AcDbEntity
  8
YKK_Z1
  6
Continuous
100
AcDbLine
 10
1460.0
 20
14325.0
 30
0.0
 11
1485.0
 21
14325.0
 31
0.0
  0
LINE
  5
8B
330
480
100
AcDbEntity
  8
YKK_Z1
  6
Continuous
100
AcDbLine
 10
1460.0
 20
14205.0
 30
0.0
 11
1460.0
 21
14325.0
 31
0.0
  0
LINE
  5
8C
330
480
100
AcDbEntity
  8
YKK_Z1
  6
Continuous
100
AcDbLine
 10
1485.0
 20
14205.0
 30
0.0
 11
1460.0
 21
14205.0
 31
0.0
  0
LINE
  5
8D
330
480
100
AcDbEntity
  8
YKK_Z1
  6
Continuous
100
AcDbLine
 10
1485.0
 20
14325.0
 30
0.0
 11
1485.0
 21
14205.0
 31
0.0
  0
LINE
  5
8E
330
480
100
AcDbEntity
  8
YKK_B1
100
AcDbLine
 10
1500.0
 20
14425.0
 30
0.0
 11
1530.0
 21
14425.0
 31
0.0
  0
LINE
  5
8F
330
480
100
AcDbEntity
  8
YKK_B1
100
AcDbLine
 10
1530.0
 20
14364.0
 30
0.0
 11
1530.0
 21
14383.0
 31
0.0
  0
LINE
  5
90
330
480
100
AcDbEntity
  8
YKK_B1
100
AcDbLine
 10
1470.0
 20
14425.0
 30
0.0
 11
1470.0
 21
14364.0
 31
0.0
  0
LINE
  5
91
330
480
100
AcDbEntity
  8
YKK_B1
100
AcDbLine
 10
1500.0
 20
14425.0
 30
0.0
 11
1470.0
 21
14425.0
 31
0.0
  0
LINE
  5
92
330
480
100
AcDbEntity
  8
YKK_B1
100
AcDbLine
 10
1475.0
 20
14364.0
 30
0.0
 11
1475.0
 21
14357.0
 31
0.0
  0
LINE
  5
93
330
480
100
AcDbEntity
  8
YKK_B1
100
AcDbLine
 10
1500.0
 20
14364.0
 30
0.0
 11
1470.0
 21
14364.0
 31
0.0
  0
LINE
  5
94
330
480
100
AcDbEntity
  8
YKK_B1
100
AcDbLine
 10
1475.0
 20
14325.0
 30
0.0
 11
1475.0
 21
14332.0
 31
0.0
  0
LINE
  5
95
330
480
100
AcDbEntity
  8
YKK_B1
100
AcDbLine
 10
1500.0
 20
14325.0
 30
0.0
 11
1475.0
 21
14325.0
 31
0.0
  0
LINE
  5
96
330
480
100
AcDbEntity
  8
YKK_B1
100
AcDbLine
 10
1500.0
 20
14364.0
 30
0.0
 11
1530.0
 21
14364.0
 31
0.0
  0
LINE
  5
97
330
480
100
AcDbEntity
  8
YKK_B1
100
AcDbLine
 10
1500.0
 20
14325.0
 30
0.0
 11
1500.0
 21
14364.0
 31
0.0
  0
TEXT
  5
98
330
480
100
AcDbEntity
  8
YKK_N1
100
AcDbText
 10
1775.42857143
 20
13935.0
 30
0.0
 40
60.0
  1
W=800
 41
0.8
100
AcDbText
1001
ACAD
1000
MTEXTBEGIN
1070
    73
1070
     1
1070
    44
1040
1.0
1070
    74
1070
     0
1000
MTEXTEND
  0
LINE
  5
99
330
480
100
AcDbEntity
  8
YKK_N1
  6
ByBlock
100
AcDbLine
 10
2213.39745962
 20
13875.0
 30
0.0
 11
2300.0
 21
13925.0
 31
0.0
  0
LINE
  5
9A
330
480
100
AcDbEntity
  8
YKK_N1
  6
ByBlock
100
AcDbLine
 10
2213.39745962
 20
13975.0
 30
0.0
 11
2213.39745962
 21
13875.0
 31
0.0
  0
LINE
  5
9B
330
480
100
AcDbEntity
  8
YKK_N1
100
AcDbLine
 10
2300.0
 20
14265.0
 30
0.0
 11
2300.0
 21
13895.0
 31
0.0
  0
LINE
  5
9C
330
480
100
AcDbEntity
  8
YKK_Z1
  6
Continuous
100
AcDbLine
 10
2700.0
 20
14227.0
 30
0.0
 11
2340.0
 21
14227.0
 31
0.0
  0
LINE
  5
9D
330
480
100
AcDbEntity
  8
YKK_Z1
  6
Continuous
100
AcDbLine
 10
2340.0
 20
14215.0
 30
0.0
 11
2700.0
 21
14215.0
 31
0.0
  0
LINE
  5
9E
330
480
100
AcDbEntity
  8
YKK_Z1
  6
HIDDEN
100
AcDbLine
 10
2350.0
 20
14395.0
 30
0.0
 11
2700.0
 21
14395.0
 31
0.0
  0
LINE
  5
9F
330
480
100
AcDbEntity
  8
YKK_Z1
  6
CENTER
100
AcDbLine
 10
2337.5
 20
14320.0
 30
0.0
 11
2700.0
 21
14320.0
 31
0.0
  0
LINE
  5
A0
330
480
100
AcDbEntity
  8
YKK_Z1
  6
Continuous
100
AcDbLine
 10
2431.29935334
 20
14245.0
 30
0.0
 11
2601.29938278
 21
14415.0
 31
0.0
  0
LINE
  5
A1
330
480
100
AcDbEntity
  8
YKK_Z1
  6
Continuous
100
AcDbLine
 10
2411.50035832
 20
14245.0
 30
0.0
 11
2581.50038777
 21
14415.0
 31
0.0
  0
LINE
  5
A2
330
480
100
AcDbEntity
  8
YKK_Z1
  6
Continuous
100
AcDbLine
 10
2350.0
 20
14415.0
 30
0.0
 11
2700.0
 21
14415.0
 31
0.0
  0
LINE
  5
A3
330
480
100
AcDbEntity
  8
YKK_Z1
  6
Continuous
100
AcDbLine
 10
2700.0
 20
14245.0
 30
0.0
 11
2350.0
 21
14245.0
 31
0.0
  0
LINE
  5
A4
330
480
100
AcDbEntity
  8
YKK_N1
  6
ByBlock
100
AcDbLine
 10
2300.0
 20
13925.0
 30
0.0
 11
2213.39745962
 21
13975.0
 31
0.0
  0
LINE
  5
A5
330
480
100
AcDbEntity
  8
YKK_N1
  6
ByBlock
100
AcDbLine
 10
2300.0
 20
13925.0
 30
0.0
 11
2200.0
 21
13925.0
 31
0.0
  0
LINE
  5
A6
330
480
100
AcDbEntity
  8
YKK_B1
100
AcDbLine
 10
2300.0
 20
14425.0
 30
0.0
 11
2270.0
 21
14425.0
 31
0.0
  0
LINE
  5
A7
330
480
100
AcDbEntity
  8
YKK_B1
100
AcDbLine
 10
2300.0
 20
14364.0
 30
0.0
 11
2270.0
 21
14364.0
 31
0.0
  0
LINE
  5
A8
330
480
100
AcDbEntity
  8
YKK_B1
100
AcDbLine
 10
2270.0
 20
14364.0
 30
0.0
 11
2270.0
 21
14383.0
 31
0.0
  0
LINE
  5
A9
330
480
100
AcDbEntity
  8
YKK_Z1
  6
Continuous
100
AcDbLine
 10
2340.0
 20
14227.0
 30
0.0
 11
2340.0
 21
14215.0
 31
0.0
  0
LINE
  5
AA
330
480
100
AcDbEntity
  8
YKK_Z1
  6
Continuous
100
AcDbLine
 10
2330.0
 20
14415.0
 30
0.0
 11
2350.0
 21
14415.0
 31
0.0
  0
LINE
  5
AB
330
480
100
AcDbEntity
  8
YKK_Z1
  6
Continuous
100
AcDbLine
 10
2340.0
 20
14211.86290521
 30
0.0
 11
2333.1370936
 21
14205.0
 31
0.0
  0
LINE
  5
AC
330
480
100
AcDbEntity
  8
YKK_Z1
  6
Continuous
100
AcDbLine
 10
2340.0
 20
14240.14717891
 30
0.0
 11
2315.0
 21
14215.14718324
 31
0.0
  0
LINE
  5
AD
330
480
100
AcDbEntity
  8
YKK_Z1
  6
Continuous
100
AcDbLine
 10
2340.0
 20
14268.43145261
 30
0.0
 11
2315.0
 21
14243.43145694
 31
0.0
  0
LINE
  5
AE
330
480
100
AcDbEntity
  8
YKK_Z1
  6
Continuous
100
AcDbLine
 10
2340.0
 20
14296.7157263
 30
0.0
 11
2315.0
 21
14271.71573063
 31
0.0
  0
LINE
  5
AF
330
480
100
AcDbEntity
  8
YKK_Z1
  6
Continuous
100
AcDbLine
 10
2340.0
 20
14325.0
 30
0.0
 11
2315.0
 21
14300.00000433
 31
0.0
  0
LINE
  5
B0
330
480
100
AcDbEntity
  8
YKK_Z1
  6
Continuous
100
AcDbLine
 10
2340.0
 20
14325.0
 30
0.0
 11
2315.0
 21
14325.0
 31
0.0
  0
LINE
  5
B1
330
480
100
AcDbEntity
  8
YKK_Z1
  6
Continuous
100
AcDbLine
 10
2340.0
 20
14205.0
 30
0.0
 11
2340.0
 21
14325.0
 31
0.0
  0
LINE
  5
B2
330
480
100
AcDbEntity
  8
YKK_Z1
  6
Continuous
100
AcDbLine
 10
2315.0
 20
14205.0
 30
0.0
 11
2340.0
 21
14205.0
 31
0.0
  0
LINE
  5
B3
330
480
100
AcDbEntity
  8
YKK_Z1
  6
Continuous
100
AcDbLine
 10
2315.0
 20
14325.0
 30
0.0
 11
2315.0
 21
14205.0
 31
0.0
  0
LINE
  5
B4
330
480
100
AcDbEntity
  8
YKK_Z1
  6
Continuous
100
AcDbLine
 10
2403.01507474
 20
14245.0
 30
0.0
 11
2573.01510419
 21
14415.0
 31
0.0
  0
LINE
  5
B5
330
480
100
AcDbEntity
  8
YKK_Z1
  6
Continuous
100
AcDbLine
 10
2350.0
 20
14245.0
 30
0.0
 11
2350.0
 21
14415.0
 31
0.0
  0
LINE
  5
B6
330
480
100
AcDbEntity
  8
YKK_B1
100
AcDbLine
 10
2330.0
 20
14425.0
 30
0.0
 11
2330.0
 21
14364.0
 31
0.0
  0
LINE
  5
B7
330
480
100
AcDbEntity
  8
YKK_B1
100
AcDbLine
 10
2300.0
 20
14425.0
 30
0.0
 11
2330.0
 21
14425.0
 31
0.0
  0
LINE
  5
B8
330
480
100
AcDbEntity
  8
YKK_B1
100
AcDbLine
 10
2325.0
 20
14364.0
 30
0.0
 11
2325.0
 21
14357.0
 31
0.0
  0
LINE
  5
B9
330
480
100
AcDbEntity
  8
YKK_B1
100
AcDbLine
 10
2300.0
 20
14364.0
 30
0.0
 11
2330.0
 21
14364.0
 31
0.0
  0
LINE
  5
BA
330
480
100
AcDbEntity
  8
YKK_B1
100
AcDbLine
 10
2325.0
 20
14325.0
 30
0.0
 11
2325.0
 21
14332.0
 31
0.0
  0
LINE
  5
BB
330
480
100
AcDbEntity
  8
YKK_B1
100
AcDbLine
 10
2300.0
 20
14325.0
 30
0.0
 11
2325.0
 21
14325.0
 31
0.0
  0
LINE
  5
BC
330
480
100
AcDbEntity
  8
YKK_B1
100
AcDbLine
 10
2300.0
 20
14325.0
 30
0.0
 11
2300.0
 21
14364.0
 31
0.0
  0
LINE
  5
BE
330
480
100
AcDbEntity
  8
YKK_N1
100
AcDbLine
 10
1501.0
 20
16025.0
 30
0.0
 11
2299.0
 21
16025.0
 31
0.0
  0
TEXT
  5
BF
330
480
100
AcDbEntity
  8
YKK_A1
100
AcDbText
 10
1688.0
 20
16545.0
 30
0.0
 40
60.0
  1
複層ガラス 5+A12+5
 41
0.8
 72
     2
 11
2240.0
 21
16545.0
 31
0.0
100
AcDbText
  0
LINE
  5
C0
330
480
100
AcDbEntity
  8
YKK_A1
100
AcDbLine
 10
1530.0
 20
16425.0
 30
0.0
 11
2270.0
 21
16425.0
 31
0.0
  0
LINE
  5
C1
330
480
100
AcDbEntity
  8
YKK_A1
100
AcDbLine
 10
1500.0
 20
16425.0
 30
0.0
 11
2300.0
 21
16425.0
 31
0.0
  0
LINE
  5
C2
330
480
100
AcDbEntity
  8
YKK_A1
100
AcDbLine
 10
1485.0
 20
16425.0
 30
0.0
 11
2315.0
 21
16425.0
 31
0.0
  0
LINE
  5
C3
330
480
100
AcDbEntity
  8
YKK_N1
  6
ByBlock
100
AcDbLine
 10
1586.60254038
 20
16075.0
 30
0.0
 11
1500.0
 21
16025.0
 31
0.0
  0
LINE
  5
C4
330
480
100
AcDbEntity
  8
YKK_N1
  6
ByBlock
100
AcDbLine
 10
1586.60254038
 20
15975.0
 30
0.0
 11
1586.60254038
 21
16075.0
 31
0.0
  0
LINE
  5
C5
330
480
100
AcDbEntity
  8
YKK_N1
  6
ByBlock
100
AcDbLine
 10
1500.0
 20
16025.0
 30
0.0
 11
1586.60254038
 21
15975.0
 31
0.0
  0
LINE
  5
C6
330
480
100
AcDbEntity
  8
YKK_N1
  6
ByBlock
100
AcDbLine
 10
1500.0
 20
16025.0
 30
0.0
 11
1600.0
 21
16025.0
 31
0.0
  0
LINE
  5
C7
330
480
100
AcDbEntity
  8
YKK_N1
100
AcDbLine
 10
1500.0
 20
16365.0
 30
0.0
 11
1500.0
 21
15995.0
 31
0.0
  0
TEXT
  5
C8
330
480
100
AcDbEntity
  8
YKK_N1
100
AcDbText
 10
1775.42857143
 20
16035.0
 30
0.0
 40
60.0
  1
W=800
 41
0.8
100
AcDbText
1001
ACAD
1000
MTEXTBEGIN
1070
    73
1070
     1
1070
    44
1040
1.0
1070
    74
1070
     0
1000
MTEXTEND
  0
LINE
  5
C9
330
480
100
AcDbEntity
  8
YKK_N1
100
AcDbLine
 10
2360.0
 20
16425.0
 30
0.0
 11
2730.0
 21
16425.0
 31
0.0
  0
LINE
  5
CA
330
480
100
AcDbEntity
  8
YKK_N1
  6
ByBlock
100
AcDbLine
 10
2213.39745962
 20
15975.0
 30
0.0
 11
2300.0
 21
16025.0
 31
0.0
  0
LINE
  5
CB
330
480
100
AcDbEntity
  8
YKK_N1
  6
ByBlock
100
AcDbLine
 10
2300.0
 20
16025.0
 30
0.0
 11
2213.39745962
 21
16075.0
 31
0.0
  0
LINE
  5
CC
330
480
100
AcDbEntity
  8
YKK_N1
  6
ByBlock
100
AcDbLine
 10
2300.0
 20
16025.0
 30
0.0
 11
2200.0
 21
16025.0
 31
0.0
  0
LINE
  5
CD
330
480
100
AcDbEntity
  8
YKK_N1
  6
ByBlock
100
AcDbLine
 10
2213.39745962
 20
16075.0
 30
0.0
 11
2213.39745962
 21
15975.0
 31
0.0
  0
LINE
  5
CE
330
480
100
AcDbEntity
  8
YKK_N1
100
AcDbLine
 10
2300.0
 20
16365.0
 30
0.0
 11
2300.0
 21
15995.0
 31
0.0
  0
TEXT
  5
CF
330
480
100
AcDbEntity
  8
YKK_A1
100
AcDbText
 10
2208.0
 20
16455.0
 30
0.0
 40
60.0
  1
F
 41
0.8
 72
     2
 11
2240.0
 21
16455.0
 31
0.0
100
AcDbText
  0
LINE
  5
D0
330
480
100
AcDbEntity
  8
YKK_N1
  6
ByBlock
100
AcDbLine
 10
2650.0
 20
16511.60254038
 30
0.0
 11
2700.0
 21
16425.0
 31
0.0
  0
LINE
  5
D1
330
480
100
AcDbEntity
  8
YKK_N1
  6
ByBlock
100
AcDbLine
 10
2700.0
 20
16425.0
 30
0.0
 11
2750.0
 21
16511.60254038
 31
0.0
  0
LINE
  5
D2
330
480
100
AcDbEntity
  8
YKK_N1
  6
ByBlock
100
AcDbLine
 10
2700.0
 20
16425.0
 30
0.0
 11
2700.0
 21
16525.0
 31
0.0
  0
LINE
  5
D3
330
480
100
AcDbEntity
  8
YKK_N1
  6
ByBlock
100
AcDbLine
 10
2750.0
 20
16511.60254038
 30
0.0
 11
2650.0
 21
16511.60254038
 31
0.0
  0
LINE
  5
D4
330
480
100
AcDbEntity
  8
YKK_N1
  6
CENTER
100
AcDbLine
 10
4100.0
 20
15025.0
 30
0.0
 11
4600.0
 21
15025.0
 31
0.0
  0
LINE
  5
D5
330
480
100
AcDbEntity
  8
YKK_N1
100
AcDbLine
 10
4200.0
 20
16405.0
 30
0.0
 11
4200.0
 21
15045.0
 31
0.0
  0
LINE
  5
D6
330
480
100
AcDbEntity
  8
YKK_N1
100
AcDbLine
 10
4200.0
 20
15025.0
 30
0.0
 11
4200.0
 21
15045.0
 31
0.0
  0
CIRCLE
  5
D7
330
480
100
AcDbEntity
  8
YKK_N1
100
AcDbCircle
 10
4200.0
 20
15025.0
 30
0.0
 40
6.5
  0
CIRCLE
  5
D8
330
480
100
AcDbEntity
  8
YKK_N1
100
AcDbCircle
 10
4200.0
 20
15025.0
 30
0.0
 40
10.0
  0
TEXT
  5
D9
330
480
100
AcDbEntity
  8
YKK_N1
100
AcDbText
 10
4190.0
 20
15630.14285714
 30
0.0
 40
60.0
  1
1400
 50
90.0
 41
0.8
100
AcDbText
1001
ACAD
1000
MTEXTBEGIN
1070
    73
1070
     1
1070
    44
1040
1.0
1070
    74
1070
     0
1000
MTEXTEND
  0
LINE
  5
DA
330
480
100
AcDbEntity
  8
YKK_N1
  6
ByBlock
100
AcDbLine
 10
4150.0
 20
16511.60254038
 30
0.0
 11
4200.0
 21
16425.0
 31
0.0
  0
LINE
  5
DB
330
480
100
AcDbEntity
  8
YKK_N1
  6
ByBlock
100
AcDbLine
 10
4200.0
 20
16425.0
 30
0.0
 11
4250.0
 21
16511.60254038
 31
0.0
  0
LINE
  5
DC
330
480
100
AcDbEntity
  8
YKK_N1
  6
ByBlock
100
AcDbLine
 10
4200.0
 20
16425.0
 30
0.0
 11
4200.0
 21
16525.0
 31
0.0
  0
LINE
  5
DD
330
480
100
AcDbEntity
  8
YKK_Z1
  6
Continuous
100
AcDbLine
 10
3920.0
 20
16425.0
 30
0.0
 11
3920.0
 21
16875.0
 31
0.0
  0
LINE
  5
DE
330
480
100
AcDbEntity
  8
YKK_N1
100
AcDbLine
 10
3860.0
 20
16425.0
 30
0.0
 11
4230.0
 21
16425.0
 31
0.0
  0
LINE
  5
DF
330
480
100
AcDbEntity
  8
YKK_Z1
  6
Continuous
100
AcDbLine
 10
3898.0
 20
16400.0
 30
0.0
 11
3910.0
 21
16400.0
 31
0.0
  0
LINE
  5
E0
330
480
100
AcDbEntity
  8
YKK_Z1
  6
Continuous
100
AcDbLine
 10
3898.0
 20
16025.0
 30
0.0
 11
3898.0
 21
16400.0
 31
0.0
  0
LINE
  5
E1
330
480
100
AcDbEntity
  8
YKK_Z1
  6
Continuous
100
AcDbLine
 10
3910.0
 20
16400.0
 30
0.0
 11
3910.0
 21
16025.0
 31
0.0
  0
LINE
  5
E2
330
480
100
AcDbEntity
  8
YKK_Z1
  6
Continuous
100
AcDbLine
 10
3710.0
 20
16365.0
 30
0.0
 11
3710.0
 21
16325.0
 31
0.0
  0
LINE
  5
E3
330
480
100
AcDbEntity
  8
YKK_Z1
  6
Continuous
100
AcDbLine
 10
3913.13709479
 20
16400.0
 30
0.0
 11
3920.0
 21
16406.8629064
 31
0.0
  0
LINE
  5
E4
330
480
100
AcDbEntity
  8
YKK_Z1
  6
Continuous
100
AcDbLine
 10
3884.85282109
 20
16400.0
 30
0.0
 11
3909.85281676
 21
16425.0
 31
0.0
  0
LINE
  5
E5
330
480
100
AcDbEntity
  8
YKK_Z1
  6
Continuous
100
AcDbLine
 10
3856.56854739
 20
16400.0
 30
0.0
 11
3881.56854306
 21
16425.0
 31
0.0
  0
LINE
  5
E6
330
480
100
AcDbEntity
  8
YKK_Z1
  6
Continuous
100
AcDbLine
 10
3828.2842737
 20
16400.0
 30
0.0
 11
3853.28426937
 21
16425.0
 31
0.0
  0
LINE
  5
E7
330
480
100
AcDbEntity
  8
YKK_Z1
  6
Continuous
100
AcDbLine
 10
3800.0
 20
16400.0
 30
0.0
 11
3824.99999567
 21
16425.0
 31
0.0
  0
LINE
  5
E8
330
480
100
AcDbEntity
  8
YKK_Z1
  6
Continuous
100
AcDbLine
 10
3800.0
 20
16400.0
 30
0.0
 11
3800.0
 21
16425.0
 31
0.0
  0
LINE
  5
E9
330
480
100
AcDbEntity
  8
YKK_Z1
  6
Continuous
100
AcDbLine
 10
3920.0
 20
16400.0
 30
0.0
 11
3800.0
 21
16400.0
 31
0.0
  0
LINE
  5
EA
330
480
100
AcDbEntity
  8
YKK_Z1
  6
Continuous
100
AcDbLine
 10
3920.0
 20
16425.0
 30
0.0
 11
3920.0
 21
16400.0
 31
0.0
  0
LINE
  5
EB
330
480
100
AcDbEntity
  8
YKK_Z1
  6
Continuous
100
AcDbLine
 10
3800.0
 20
16425.0
 30
0.0
 11
3920.0
 21
16425.0
 31
0.0
  0
LINE
  5
EC
330
480
100
AcDbEntity
  8
YKK_Z1
  6
HIDDEN
100
AcDbLine
 10
3730.0
 20
16025.0
 30
0.0
 11
3730.0
 21
16325.0
 31
0.0
  0
LINE
  5
ED
330
480
100
AcDbEntity
  8
YKK_Z1
  6
CENTER
100
AcDbLine
 10
3805.0
 20
16345.0
 30
0.0
 11
3805.0
 21
16025.0
 31
0.0
  0
LINE
  5
EE
330
480
100
AcDbEntity
  8
YKK_Z1
  6
Continuous
100
AcDbLine
 10
3880.0
 20
16293.70064666
 30
0.0
 11
3710.0
 21
16123.70061722
 31
0.0
  0
LINE
  5
EF
330
480
100
AcDbEntity
  8
YKK_Z1
  6
Continuous
100
AcDbLine
 10
3880.0
 20
16313.49964168
 30
0.0
 11
3710.0
 21
16143.49961223
 31
0.0
  0
LINE
  5
F0
330
480
100
AcDbEntity
  8
YKK_Z1
  6
Continuous
100
AcDbLine
 10
3880.0
 20
16321.98492526
 30
0.0
 11
3710.0
 21
16151.98489581
 31
0.0
  0
LINE
  5
F2
330
480
100
AcDbEntity
  8
YKK_Z1
  6
Continuous
100
AcDbLine
 10
3710.0
 20
16325.0
 30
0.0
 11
3710.0
 21
16025.0
 31
0.0
  0
LINE
  5
F3
330
480
100
AcDbEntity
  8
YKK_Z1
  6
Continuous
100
AcDbLine
 10
3810.0
 20
16325.0
 30
0.0
 11
3710.0
 21
16325.0
 31
0.0
  0
LINE
  5
F4
330
480
100
AcDbEntity
  8
YKK_Z1
  6
Continuous
100
AcDbLine
 10
3820.0
 20
16350.0
 30
0.0
 11
3810.0
 21
16325.0
 31
0.0
  0
LINE
  5
F5
330
480
100
AcDbEntity
  8
YKK_Z1
  6
Continuous
100
AcDbLine
 10
3880.0
 20
16350.0
 30
0.0
 11
3820.0
 21
16350.0
 31
0.0
  0
LINE
  5
F6
330
480
100
AcDbEntity
  8
YKK_Z1
  6
Continuous
100
AcDbLine
 10
3880.0
 20
16025.0
 30
0.0
 11
3880.0
 21
16350.0
 31
0.0
  0
LINE
  5
F8
330
480
100
AcDbEntity
  8
YKK_C1
100
AcDbLine
 10
3761.0
 20
16425.0
 30
0.0
 11
3742.0
 21
16425.0
 31
0.0
  0
LINE
  5
F9
330
480
100
AcDbEntity
  8
YKK_C1
100
AcDbLine
 10
3755.0
 20
16385.0
 30
0.0
 11
3761.0
 21
16385.0
 31
0.0
  0
LINE
  5
FA
330
480
100
AcDbEntity
  8
YKK_C1
100
AcDbLine
 10
3755.0
 20
16390.0
 30
0.0
 11
3755.0
 21
16355.0
 31
0.0
  0
LINE
  5
FB
330
480
100
AcDbEntity
  8
YKK_C1
100
AcDbLine
 10
3700.0
 20
16365.0
 30
0.0
 11
3755.0
 21
16365.0
 31
0.0
  0
LINE
  5
FC
330
480
100
AcDbEntity
  8
YKK_C1
100
AcDbLine
 10
3700.0
 20
16390.0
 30
0.0
 11
3700.0
 21
16365.0
 31
0.0
  0
LINE
  5
FD
330
480
100
AcDbEntity
  8
YKK_C1
100
AcDbLine
 10
3800.0
 20
16385.0
 30
0.0
 11
3794.0
 21
16385.0
 31
0.0
  0
LINE
  5
FE
330
480
100
AcDbEntity
  8
YKK_C1
100
AcDbLine
 10
3800.0
 20
16425.0
 30
0.0
 11
3800.0
 21
16385.0
 31
0.0
  0
LINE
  5
FF
330
480
100
AcDbEntity
  8
YKK_C1
100
AcDbLine
 10
3700.0
 20
16390.0
 30
0.0
 11
3700.0
 21
16425.0
 31
0.0
  0
LINE
  5
100
330
480
100
AcDbEntity
  8
YKK_C1
100
AcDbLine
 10
3761.0
 20
16390.0
 30
0.0
 11
3700.0
 21
16390.0
 31
0.0
  0
LINE
  5
101
330
480
100
AcDbEntity
  8
YKK_C1
100
AcDbLine
 10
3761.0
 20
16425.0
 30
0.0
 11
3761.0
 21
16390.0
 31
0.0
  0
LINE
  5
102
330
480
100
AcDbEntity
  8
YKK_C1
100
AcDbLine
 10
3800.0
 20
16425.0
 30
0.0
 11
3761.0
 21
16425.0
 31
0.0
  0
LINE
  5
103
330
480
100
AcDbEntity
  8
YKK_N1
  6
ByBlock
100
AcDbLine
 10
4200.0
 20
16425.0
 30
0.0
 11
4200.0
 21
16405.0
 31
0.0
  0
LINE
  5
104
330
480
100
AcDbEntity
  8
YKK_N1
  6
ByBlock
100
AcDbLine
 10
4250.0
 20
16511.60254038
 30
0.0
 11
4150.0
 21
16511.60254038
 31
0.0
  0
LINE
  5
105
330
480
100
AcDbEntity
  8
YKK_A1
100
AcDbLine
 10
2270.0
 20
17325.0
 30
0.0
 11
1530.0
 21
17325.0
 31
0.0
  0
LINE
  5
106
330
480
100
AcDbEntity
  8
YKK_A1
100
AcDbLine
 10
2300.0
 20
17325.0
 30
0.0
 11
1500.0
 21
17325.0
 31
0.0
  0
LINE
  5
107
330
480
100
AcDbEntity
  8
YKK_A1
100
AcDbLine
 10
2315.0
 20
17340.0
 30
0.0
 11
1485.0
 21
17340.0
 31
0.0
  0
LINE
  5
108
330
480
100
AcDbEntity
  8
YKK_N1
100
AcDbLine
 10
2360.0
 20
17325.0
 30
0.0
 11
2730.0
 21
17325.0
 31
0.0
  0
LINE
  5
109
330
480
100
AcDbEntity
  8
YKK_N1
  6
ByBlock
100
AcDbLine
 10
2750.0
 20
17238.39745962
 30
0.0
 11
2700.0
 21
17325.0
 31
0.0
  0
LINE
  5
10A
330
480
100
AcDbEntity
  8
YKK_N1
  6
ByBlock
100
AcDbLine
 10
2650.0
 20
17238.39745962
 30
0.0
 11
2750.0
 21
17238.39745962
 31
0.0
  0
LINE
  5
10B
330
480
100
AcDbEntity
  8
YKK_N1
  6
ByBlock
100
AcDbLine
 10
2700.0
 20
17325.0
 30
0.0
 11
2650.0
 21
17238.39745962
 31
0.0
  0
LINE
  5
10C
330
480
100
AcDbEntity
  8
YKK_N1
  6
ByBlock
100
AcDbLine
 10
2700.0
 20
17325.0
 30
0.0
 11
2700.0
 21
17225.0
 31
0.0
  0
TEXT
  5
10D
330
480
100
AcDbEntity
  8
YKK_N1
100
AcDbText
 10
3678.0
 20
17112.0
 30
0.0
 40
60.0
  1
100
 41
0.8
100
AcDbText
1001
ACAD
1000
MTEXTBEGIN
1070
    73
1070
     1
1070
    44
1040
1.0
1070
    74
1070
     0
1000
MTEXTEND
  0
CIRCLE
  5
10E
330
480
100
AcDbEntity
  8
YKK_N1
100
AcDbCircle
 10
3700.0
 20
17067.0
 30
0.0
 40
6.5
  0
CIRCLE
  5
10F
330
480
100
AcDbEntity
  8
YKK_N1
100
AcDbCircle
 10
3700.0
 20
17067.0
 30
0.0
 40
10.0
  0
LINE
  5
110
330
480
100
AcDbEntity
  8
YKK_Z1
  6
Continuous
100
AcDbLine
 10
3898.0
 20
17725.0
 30
0.0
 11
3898.0
 21
17365.0
 31
0.0
  0
LINE
  5
111
330
480
100
AcDbEntity
  8
YKK_Z1
  6
Continuous
100
AcDbLine
 10
3910.0
 20
17365.0
 30
0.0
 11
3910.0
 21
17725.0
 31
0.0
  0
LINE
  5
112
330
480
100
AcDbEntity
  8
YKK_Z1
  6
HIDDEN
100
AcDbLine
 10
3730.0
 20
17725.0
 30
0.0
 11
3730.0
 21
17385.0
 31
0.0
  0
LINE
  5
113
330
480
100
AcDbEntity
  8
YKK_Z1
  6
CENTER
100
AcDbLine
 10
3805.0
 20
17385.0
 30
0.0
 11
3805.0
 21
17725.0
 31
0.0
  0
LINE
  5
114
330
480
100
AcDbEntity
  8
YKK_Z1
  6
Continuous
100
AcDbLine
 10
3710.0
 20
17385.0
 30
0.0
 11
3710.0
 21
17725.0
 31
0.0
  0
LINE
  5
115
330
480
100
AcDbEntity
  8
YKK_Z1
  6
Continuous
100
AcDbLine
 10
3880.0
 20
17725.0
 30
0.0
 11
3880.0
 21
17410.0
 31
0.0
  0
TEXT
  5
116
330
480
100
AcDbEntity
  8
YKK_N1
100
AcDbText
 10
3936.28571429
 20
17077.0
 30
0.0
 40
60.0
  1
120
 41
0.8
100
AcDbText
  0
LINE
  5
117
330
480
100
AcDbEntity
  8
YKK_N1
100
AcDbLine
 10
3860.0
 20
17325.0
 30
0.0
 11
4230.0
 21
17325.0
 31
0.0
  0
LINE
  5
118
330
480
100
AcDbEntity
  8
YKK_N1
  6
Continuous
100
AcDbLine
 10
3920.0
 20
17067.0
 30
0.0
 11
4076.57142857
 21
17067.0
 31
0.0
  0
LINE
  5
119
330
480
100
AcDbEntity
  8
YKK_N1
100
AcDbLine
 10
3800.0
 20
17067.0
 30
0.0
 11
3820.0
 21
17067.0
 31
0.0
  0
CIRCLE
  5
11A
330
480
100
AcDbEntity
  8
YKK_N1
100
AcDbCircle
 10
3800.0
 20
17067.0
 30
0.0
 40
6.5
  0
CIRCLE
  5
11B
330
480
100
AcDbEntity
  8
YKK_N1
100
AcDbCircle
 10
3800.0
 20
17067.0
 30
0.0
 40
10.0
  0
LINE
  5
11C
330
480
100
AcDbEntity
  8
YKK_N1
100
AcDbLine
 10
3920.0
 20
17067.0
 30
0.0
 11
3900.0
 21
17067.0
 31
0.0
  0
CIRCLE
  5
11D
330
480
100
AcDbEntity
  8
YKK_N1
100
AcDbCircle
 10
3920.0
 20
17067.0
 30
0.0
 40
6.5
  0
CIRCLE
  5
11E
330
480
100
AcDbEntity
  8
YKK_N1
100
AcDbCircle
 10
3920.0
 20
17067.0
 30
0.0
 40
10.0
  0
LINE
  5
11F
330
480
100
AcDbEntity
  8
YKK_N1
100
AcDbLine
 10
3800.0
 20
17067.0
 30
0.0
 11
3780.0
 21
17067.0
 31
0.0
  0
CIRCLE
  5
120
330
480
100
AcDbEntity
  8
YKK_N1
100
AcDbCircle
 10
3800.0
 20
17067.0
 30
0.0
 40
6.5
  0
CIRCLE
  5
121
330
480
100
AcDbEntity
  8
YKK_N1
100
AcDbCircle
 10
3800.0
 20
17067.0
 30
0.0
 40
10.0
  0
LINE
  5
122
330
480
100
AcDbEntity
  8
YKK_N1
100
AcDbLine
 10
3700.0
 20
17067.0
 30
0.0
 11
3720.0
 21
17067.0
 31
0.0
  0
LINE
  5
123
330
480
100
AcDbEntity
  8
YKK_N1
100
AcDbLine
 10
3780.0
 20
17067.0
 30
0.0
 11
3720.0
 21
17067.0
 31
0.0
  0
LINE
  5
124
330
480
100
AcDbEntity
  8
YKK_N1
100
AcDbLine
 10
3700.0
 20
17117.0
 30
0.0
 11
3700.0
 21
17097.0
 31
0.0
  0
LINE
  5
125
330
480
100
AcDbEntity
  8
YKK_N1
100
AcDbLine
 10
3800.0
 20
17117.0
 30
0.0
 11
3800.0
 21
17097.0
 31
0.0
  0
LINE
  5
126
330
480
100
AcDbEntity
  8
YKK_N1
  6
Continuous
100
AcDbLine
 10
3820.0
 20
17067.0
 30
0.0
 11
3900.0
 21
17067.0
 31
0.0
  0
LINE
  5
127
330
480
100
AcDbEntity
  8
YKK_N1
  6
Continuous
100
AcDbLine
 10
3920.0
 20
17280.0
 30
0.0
 11
3920.0
 21
17037.0
 31
0.0
  0
LINE
  5
128
330
480
100
AcDbEntity
  8
YKK_N1
  6
Continuous
100
AcDbLine
 10
3800.0
 20
17127.0
 30
0.0
 11
3800.0
 21
17097.0
 31
0.0
  0
LINE
  5
129
330
480
100
AcDbEntity
  8
YKK_Z1
  6
Continuous
100
AcDbLine
 10
3898.0
 20
17365.0
 30
0.0
 11
3910.0
 21
17365.0
 31
0.0
  0
LINE
  5
12A
330
480
100
AcDbEntity
  8
YKK_Z1
  6
Continuous
100
AcDbLine
 10
3710.0
 20
17365.0
 30
0.0
 11
3710.0
 21
17385.0
 31
0.0
  0
LINE
  5
12B
330
480
100
AcDbEntity
  8
YKK_Z1
  6
Continuous
100
AcDbLine
 10
3920.0
 20
17343.57864265
 30
0.0
 11
3916.42135549
 21
17340.0
 31
0.0
  0
LINE
  5
12C
330
480
100
AcDbEntity
  8
YKK_Z1
  6
Continuous
100
AcDbLine
 10
3913.13709479
 20
17365.0
 30
0.0
 11
3888.1370818
 21
17340.0
 31
0.0
  0
LINE
  5
12D
330
480
100
AcDbEntity
  8
YKK_Z1
  6
Continuous
100
AcDbLine
 10
3884.85282109
 20
17365.0
 30
0.0
 11
3859.8528081
 21
17340.0
 31
0.0
  0
LINE
  5
12E
330
480
100
AcDbEntity
  8
YKK_Z1
  6
Continuous
100
AcDbLine
 10
3856.56854739
 20
17365.0
 30
0.0
 11
3831.5685344
 21
17340.0
 31
0.0
  0
LINE
  5
12F
330
480
100
AcDbEntity
  8
YKK_Z1
  6
Continuous
100
AcDbLine
 10
3828.2842737
 20
17365.0
 30
0.0
 11
3803.28426071
 21
17340.0
 31
0.0
  0
LINE
  5
131
330
480
100
AcDbEntity
  8
YKK_Z1
  6
Continuous
100
AcDbLine
 10
3800.0
 20
17365.0
 30
0.0
 11
3800.0
 21
17340.0
 31
0.0
  0
LINE
  5
132
330
480
100
AcDbEntity
  8
YKK_Z1
  6
Continuous
100
AcDbLine
 10
3920.0
 20
17365.0
 30
0.0
 11
3800.0
 21
17365.0
 31
0.0
  0
LINE
  5
133
330
480
100
AcDbEntity
  8
YKK_Z1
  6
Continuous
100
AcDbLine
 10
3920.0
 20
17340.0
 30
0.0
 11
3920.0
 21
17365.0
 31
0.0
  0
LINE
  5
134
330
480
100
AcDbEntity
  8
YKK_Z1
  6
Continuous
100
AcDbLine
 10
3800.0
 20
17340.0
 30
0.0
 11
3920.0
 21
17340.0
 31
0.0
  0
LINE
  5
135
330
480
100
AcDbEntity
  8
YKK_Z1
  6
Continuous
100
AcDbLine
 10
3870.46999225
 20
17410.0
 30
0.0
 11
3880.0
 21
17419.5300028
 31
0.0
  0
LINE
  5
136
330
480
100
AcDbEntity
  8
YKK_Z1
  6
Continuous
100
AcDbLine
 10
3861.98471014
 20
17410.0
 30
0.0
 11
3880.0
 21
17428.0152805
 31
0.0
  0
LINE
  5
137
330
480
100
AcDbEntity
  8
YKK_Z1
  6
Continuous
100
AcDbLine
 10
3760.0
 20
17385.0
 30
0.0
 11
3710.0
 21
17385.0
 31
0.0
  0
LINE
  5
138
330
480
100
AcDbEntity
  8
YKK_Z1
  6
Continuous
100
AcDbLine
 10
3770.0
 20
17410.0
 30
0.0
 11
3760.0
 21
17385.0
 31
0.0
  0
LINE
  5
139
330
480
100
AcDbEntity
  8
YKK_Z1
  6
Continuous
100
AcDbLine
 10
3880.0
 20
17410.0
 30
0.0
 11
3770.0
 21
17410.0
 31
0.0
  0
LINE
  5
13B
330
480
100
AcDbEntity
  8
YKK_C1
100
AcDbLine
 10
3761.0
 20
17325.0
 30
0.0
 11
3742.0
 21
17325.0
 31
0.0
  0
LINE
  5
13C
330
480
100
AcDbEntity
  8
YKK_C1
100
AcDbLine
 10
3755.0
 20
17360.0
 30
0.0
 11
3764.0
 21
17360.0
 31
0.0
  0
LINE
  5
13D
330
480
100
AcDbEntity
  8
YKK_C1
100
AcDbLine
 10
3755.0
 20
17375.0
 30
0.0
 11
3755.0
 21
17349.0
 31
0.0
  0
LINE
  5
13E
330
480
100
AcDbEntity
  8
YKK_C1
100
AcDbLine
 10
3700.0
 20
17365.0
 30
0.0
 11
3755.0
 21
17365.0
 31
0.0
  0
LINE
  5
13F
330
480
100
AcDbEntity
  8
YKK_C1
100
AcDbLine
 10
3700.0
 20
17349.0
 30
0.0
 11
3700.0
 21
17365.0
 31
0.0
  0
LINE
  5
140
330
480
100
AcDbEntity
  8
YKK_C1
100
AcDbLine
 10
3800.0
 20
17349.0
 30
0.0
 11
3761.0
 21
17349.0
 31
0.0
  0
LINE
  5
141
330
480
100
AcDbEntity
  8
YKK_C1
100
AcDbLine
 10
3800.0
 20
17360.0
 30
0.0
 11
3791.0
 21
17360.0
 31
0.0
  0
LINE
  5
142
330
480
100
AcDbEntity
  8
YKK_C1
100
AcDbLine
 10
3800.0
 20
17325.0
 30
0.0
 11
3800.0
 21
17360.0
 31
0.0
  0
LINE
  5
143
330
480
100
AcDbEntity
  8
YKK_C1
100
AcDbLine
 10
3700.0
 20
17349.0
 30
0.0
 11
3700.0
 21
17325.0
 31
0.0
  0
LINE
  5
144
330
480
100
AcDbEntity
  8
YKK_C1
100
AcDbLine
 10
3761.0
 20
17349.0
 30
0.0
 11
3700.0
 21
17349.0
 31
0.0
  0
LINE
  5
145
330
480
100
AcDbEntity
  8
YKK_C1
100
AcDbLine
 10
3761.0
 20
17325.0
 30
0.0
 11
3761.0
 21
17349.0
 31
0.0
  0
LINE
  5
146
330
480
100
AcDbEntity
  8
YKK_C1
100
AcDbLine
 10
3800.0
 20
17325.0
 30
0.0
 11
3761.0
 21
17325.0
 31
0.0
  0
LINE
  5
147
330
480
100
AcDbEntity
  8
YKK_N1
  6
ByBlock
100
AcDbLine
 10
4250.0
 20
17238.39745962
 30
0.0
 11
4200.0
 21
17325.0
 31
0.0
  0
LINE
  5
148
330
480
100
AcDbEntity
  8
YKK_N1
  6
ByBlock
100
AcDbLine
 10
4150.0
 20
17238.39745962
 30
0.0
 11
4250.0
 21
17238.39745962
 31
0.0
  0
LINE
  5
149
330
480
100
AcDbEntity
  8
YKK_N1
  6
ByBlock
100
AcDbLine
 10
4200.0
 20
17325.0
 30
0.0
 11
4150.0
 21
17238.39745962
 31
0.0
  0
LINE
  5
14A
330
480
100
AcDbEntity
  8
YKK_N1
  6
ByBlock
100
AcDbLine
 10
4200.0
 20
17325.0
 30
0.0
 11
4200.0
 21
17225.0
 31
0.0
  0
LINE
  5
14B
330
480
100
AcDbEntity
  8
YKK_Z1
  6
Continuous
100
AcDbLine
 10
3710.0
 20
17526.71582933
 30
0.0
 11
3880.0
 21
17696.715741
 31
0.0
  0
LINE
  5
14C
330
480
100
AcDbEntity
  8
YKK_Z1
  6
Continuous
100
AcDbLine
 10
3710.0
 20
17546.51481063
 30
0.0
 11
3880.0
 21
17716.5147223
 31
0.0
  0
LINE
  5
14D
330
480
100
AcDbEntity
  8
YKK_Z1
  6
Continuous
100
AcDbLine
 10
3710.0
 20
17555.00008833
 30
0.0
 11
3880.0
 21
17725.0
 31
0.0
  0
TEXT
  5
14E
330
480
100
AcDbEntity
  8
YKK_N1
100
AcDbText
 10
9828.0
 20
17112.0
 30
0.0
 40
60.0
  1
100
 41
0.8
100
AcDbText
1001
ACAD
1000
MTEXTBEGIN
1070
    73
1070
     1
1070
    44
1040
1.0
1070
    74
1070
     0
1000
MTEXTEND
  0
LINE
  5
14F
330
480
100
AcDbEntity
  8
YKK_N1
100
AcDbLine
 10
9850.0
 20
17067.0
 30
0.0
 11
9870.0
 21
17067.0
 31
0.0
  0
CIRCLE
  5
150
330
480
100
AcDbEntity
  8
YKK_N1
100
AcDbCircle
 10
9850.0
 20
17067.0
 30
0.0
 40
10.0
  0
LINE
  5
151
330
480
100
AcDbEntity
  8
YKK_C1
100
AcDbLine
 10
9850.0
 20
16365.0
 30
0.0
 11
9905.0
 21
16365.0
 31
0.0
  0
LINE
  5
152
330
480
100
AcDbEntity
  8
YKK_C1
100
AcDbLine
 10
9911.0
 20
16390.0
 30
0.0
 11
9850.0
 21
16390.0
 31
0.0
  0
LINE
  5
153
330
480
100
AcDbEntity
  8
YKK_C1
100
AcDbLine
 10
9850.0
 20
17365.0
 30
0.0
 11
9905.0
 21
17365.0
 31
0.0
  0
LINE
  5
154
330
480
100
AcDbEntity
  8
YKK_C1
100
AcDbLine
 10
9911.0
 20
17349.0
 30
0.0
 11
9850.0
 21
17349.0
 31
0.0
  0
TEXT
  5
155
330
480
100
AcDbEntity
  8
YKK_N1
100
AcDbText
 10
8840.0
 20
16750.42857143
 30
0.0
 40
60.0
  1
H=900
 50
90.0
 41
0.8
100
AcDbText
1001
ACAD
1000
MTEXTBEGIN
1070
    73
1070
     1
1070
    44
1040
1.0
1070
    74
1070
     0
1000
MTEXTEND
  0
LINE
  5
156
330
480
100
AcDbEntity
  8
YKK_N1
100
AcDbLine
 10
8850.0
 20
16426.0
 30
0.0
 11
8850.0
 21
17324.0
 31
0.0
  0
LINE
  5
157
330
480
100
AcDbEntity
  8
YKK_C1
100
AcDbLine
 10
9850.0
 20
16445.0
 30
0.0
 11
9850.0
 21
17305.0
 31
0.0
  0
LINE
  5
158
330
480
100
AcDbEntity
  8
YKK_A1
100
AcDbLine
 10
7615.0
 20
17325.0
 30
0.0
 11
7615.0
 21
16425.0
 31
0.0
  0
LINE
  5
159
330
480
100
AcDbEntity
  8
YKK_A1
100
AcDbLine
 10
8420.0
 20
16425.0
 30
0.0
 11
8420.0
 21
17325.0
 31
0.0
  0
LINE
  5
15A
330
480
100
AcDbEntity
  8
YKK_A1
100
AcDbLine
 10
7585.0
 20
17325.0
 30
0.0
 11
7585.0
 21
16425.0
 31
0.0
  0
LINE
  5
15B
330
480
100
AcDbEntity
  8
YKK_A1
100
AcDbLine
 10
7615.0
 20
16425.0
 30
0.0
 11
7615.0
 21
17325.0
 31
0.0
  0
LINE
  5
15C
330
480
100
AcDbEntity
  8
YKK_A1
100
AcDbLine
 10
6780.0
 20
17325.0
 30
0.0
 11
6780.0
 21
16425.0
 31
0.0
  0
LINE
  5
15D
330
480
100
AcDbEntity
  8
YKK_A1
100
AcDbLine
 10
7585.0
 20
16425.0
 30
0.0
 11
7585.0
 21
17325.0
 31
0.0
  0
LINE
  5
15E
330
480
100
AcDbEntity
  8
YKK_A1
100
AcDbLine
 10
6750.0
 20
17325.0
 30
0.0
 11
6750.0
 21
16425.0
 31
0.0
  0
LINE
  5
15F
330
480
100
AcDbEntity
  8
YKK_A1
100
AcDbLine
 10
8450.0
 20
16425.0
 30
0.0
 11
8450.0
 21
17325.0
 31
0.0
  0
LINE
  5
160
330
480
100
AcDbEntity
  8
YKK_A1
100
AcDbLine
 10
6735.0
 20
17340.0
 30
0.0
 11
6735.0
 21
16425.0
 31
0.0
  0
LINE
  5
161
330
480
100
AcDbEntity
  8
YKK_A1
100
AcDbLine
 10
8465.0
 20
16425.0
 30
0.0
 11
8465.0
 21
17340.0
 31
0.0
  0
TEXT
  5
162
330
480
100
AcDbEntity
  8
YKK_N1
100
AcDbText
 10
7452.57142857
 20
13935.0
 30
0.0
 40
60.0
  1
W=1700
 41
0.8
100
AcDbText
1001
ACAD
1000
MTEXTBEGIN
1070
    73
1070
     1
1070
    44
1040
1.0
1070
    74
1070
     0
1000
MTEXTEND
  0
TEXT
  5
163
330
480
100
AcDbEntity
  8
YKK_N1
100
AcDbText
 10
7452.57142857
 20
15835.0
 30
0.0
 40
60.0
  1
W=1700
 41
0.8
100
AcDbText
1001
ACAD
1000
MTEXTBEGIN
1070
    73
1070
     1
1070
    44
1040
1.0
1070
    74
1070
     0
1000
MTEXTEND
  0
LINE
  5
164
330
480
100
AcDbEntity
  8
YKK_N1
100
AcDbLine
 10
7615.0
 20
16025.0
 30
0.0
 11
7635.0
 21
16025.0
 31
0.0
  0
CIRCLE
  5
165
330
480
100
AcDbEntity
  8
YKK_N1
100
AcDbCircle
 10
7615.0
 20
16025.0
 30
0.0
 40
6.5
  0
CIRCLE
  5
166
330
480
100
AcDbEntity
  8
YKK_N1
100
AcDbCircle
 10
7615.0
 20
16025.0
 30
0.0
 40
10.0
  0
TEXT
  5
167
330
480
100
AcDbEntity
  8
YKK_N1
100
AcDbText
 10
7554.28571429
 20
15927.5
 30
0.0
 40
60.0
  1
30
 41
0.8
100
AcDbText
1001
ACAD
1000
MTEXTBEGIN
1070
    73
1070
     1
1070
    44
1040
1.0
1070
    74
1070
     0
1000
MTEXTEND
  0
LINE
  5
168
330
480
100
AcDbEntity
  8
YKK_N1
100
AcDbLine
 10
7615.0
 20
16025.0
 30
0.0
 11
7635.0
 21
16025.0
 31
0.0
  0
CIRCLE
  5
169
330
480
100
AcDbEntity
  8
YKK_N1
100
AcDbCircle
 10
7615.0
 20
16025.0
 30
0.0
 40
6.5
  0
CIRCLE
  5
16A
330
480
100
AcDbEntity
  8
YKK_N1
100
AcDbCircle
 10
7615.0
 20
16025.0
 30
0.0
 40
10.0
  0
LINE
  5
16B
330
480
100
AcDbEntity
  8
YKK_N1
100
AcDbLine
 10
6751.0
 20
15825.0
 30
0.0
 11
8449.0
 21
15825.0
 31
0.0
  0
LINE
  5
16C
330
480
100
AcDbEntity
  8
YKK_N1
100
AcDbLine
 10
6751.0
 20
13925.0
 30
0.0
 11
8449.0
 21
13925.0
 31
0.0
  0
LINE
  5
16D
330
480
100
AcDbEntity
  8
YKK_Z1
  6
Continuous
100
AcDbLine
 10
8465.0
 20
14205.0
 30
0.0
 11
7600.0
 21
14205.0
 31
0.0
  0
LINE
  5
16E
330
480
100
AcDbEntity
  8
YKK_B1
100
AcDbLine
 10
7555.0
 20
14425.0
 30
0.0
 11
7645.0
 21
14425.0
 31
0.0
  0
LINE
  5
16F
330
480
100
AcDbEntity
  8
YKK_B1
100
AcDbLine
 10
7615.0
 20
14364.0
 30
0.0
 11
7645.0
 21
14364.0
 31
0.0
  0
LINE
  5
170
330
480
100
AcDbEntity
  8
YKK_A1
100
AcDbLine
 10
7615.0
 20
16425.0
 30
0.0
 11
8420.0
 21
16425.0
 31
0.0
  0
LINE
  5
171
330
480
100
AcDbEntity
  8
YKK_A1
100
AcDbLine
 10
6750.0
 20
16425.0
 30
0.0
 11
8450.0
 21
16425.0
 31
0.0
  0
LINE
  5
172
330
480
100
AcDbEntity
  8
YKK_A1
100
AcDbLine
 10
6735.0
 20
16425.0
 30
0.0
 11
8465.0
 21
16425.0
 31
0.0
  0
LINE
  5
173
330
480
100
AcDbEntity
  8
YKK_Z1
  6
Continuous
100
AcDbLine
 10
6350.0
 20
14227.0
 30
0.0
 11
6710.0
 21
14227.0
 31
0.0
  0
LINE
  5
174
330
480
100
AcDbEntity
  8
YKK_Z1
  6
Continuous
100
AcDbLine
 10
6710.0
 20
14215.0
 30
0.0
 11
6350.0
 21
14215.0
 31
0.0
  0
LINE
  5
175
330
480
100
AcDbEntity
  8
YKK_Z1
  6
HIDDEN
100
AcDbLine
 10
6700.0
 20
14395.0
 30
0.0
 11
6350.0
 21
14395.0
 31
0.0
  0
LINE
  5
176
330
480
100
AcDbEntity
  8
YKK_Z1
  6
CENTER
100
AcDbLine
 10
6712.5
 20
14320.0
 30
0.0
 11
6350.0
 21
14320.0
 31
0.0
  0
LINE
  5
177
330
480
100
AcDbEntity
  8
YKK_Z1
  6
Continuous
100
AcDbLine
 10
6548.28417067
 20
14415.0
 30
0.0
 11
6378.284259
 21
14245.0
 31
0.0
  0
LINE
  5
178
330
480
100
AcDbEntity
  8
YKK_Z1
  6
Continuous
100
AcDbLine
 10
6528.48518937
 20
14415.0
 30
0.0
 11
6358.4852777
 21
14245.0
 31
0.0
  0
LINE
  5
179
330
480
100
AcDbEntity
  8
YKK_Z1
  6
Continuous
100
AcDbLine
 10
6519.99991167
 20
14415.0
 30
0.0
 11
6350.0
 21
14245.0
 31
0.0
  0
LINE
  5
17A
330
480
100
AcDbEntity
  8
YKK_Z1
  6
Continuous
100
AcDbLine
 10
6700.0
 20
14415.0
 30
0.0
 11
6350.0
 21
14415.0
 31
0.0
  0
LINE
  5
17B
330
480
100
AcDbEntity
  8
YKK_Z1
  6
Continuous
100
AcDbLine
 10
6350.0
 20
14245.0
 30
0.0
 11
6700.0
 21
14245.0
 31
0.0
  0
LINE
  5
17C
330
480
100
AcDbEntity
  8
YKK_N1
  6
ByBlock
100
AcDbLine
 10
6836.60254038
 20
13875.0
 30
0.0
 11
6836.60254038
 21
13975.0
 31
0.0
  0
LINE
  5
17D
330
480
100
AcDbEntity
  8
YKK_N1
  6
ByBlock
100
AcDbLine
 10
6750.0
 20
13925.0
 30
0.0
 11
6836.60254038
 21
13875.0
 31
0.0
  0
LINE
  5
17E
330
480
100
AcDbEntity
  8
YKK_N1
100
AcDbLine
 10
6750.0
 20
14265.0
 30
0.0
 11
6750.0
 21
13895.0
 31
0.0
  0
LINE
  5
17F
330
480
100
AcDbEntity
  8
YKK_Z1
  6
Continuous
100
AcDbLine
 10
6735.0
 20
14205.0
 30
0.0
 11
7600.0
 21
14205.0
 31
0.0
  0
LINE
  5
180
330
480
100
AcDbEntity
  8
YKK_B1
100
AcDbLine
 10
6800.0
 20
14425.0
 30
0.0
 11
7535.0
 21
14425.0
 31
0.0
  0
LINE
  5
181
330
480
100
AcDbEntity
  8
YKK_B1
100
AcDbLine
 10
6770.0
 20
14325.0
 30
0.0
 11
7565.0
 21
14325.0
 31
0.0
  0
LINE
  5
182
330
480
100
AcDbEntity
  8
YKK_B1
100
AcDbLine
 10
6772.0
 20
14397.0
 30
0.0
 11
7563.0
 21
14397.0
 31
0.0
  0
LINE
  5
183
330
480
100
AcDbEntity
  8
YKK_B1
100
AcDbLine
 10
6772.0
 20
14411.0
 30
0.0
 11
7563.0
 21
14411.0
 31
0.0
  0
CIRCLE
  5
184
330
480
100
AcDbEntity
  8
YKK_N1
100
AcDbCircle
 10
6989.0
 20
14425.0
 30
0.0
 40
6.5
  0
CIRCLE
  5
185
330
480
100
AcDbEntity
  8
YKK_N1
100
AcDbCircle
 10
6989.0
 20
14425.0
 30
0.0
 40
10.0
  0
LINE
  5
186
330
480
100
AcDbEntity
  8
YKK_N1
  6
ByBlock
100
AcDbLine
 10
6836.60254038
 20
13975.0
 30
0.0
 11
6750.0
 21
13925.0
 31
0.0
  0
LINE
  5
187
330
480
100
AcDbEntity
  8
YKK_N1
  6
ByBlock
100
AcDbLine
 10
6750.0
 20
13925.0
 30
0.0
 11
6850.0
 21
13925.0
 31
0.0
  0
LINE
  5
188
330
480
100
AcDbEntity
  8
YKK_B1
100
AcDbLine
 10
6750.0
 20
14425.0
 30
0.0
 11
6780.0
 21
14425.0
 31
0.0
  0
LINE
  5
189
330
480
100
AcDbEntity
  8
YKK_B1
100
AcDbLine
 10
6750.0
 20
14364.0
 30
0.0
 11
6780.0
 21
14364.0
 31
0.0
  0
LINE
  5
18A
330
480
100
AcDbEntity
  8
YKK_Z1
  6
Continuous
100
AcDbLine
 10
6710.0
 20
14227.0
 30
0.0
 11
6710.0
 21
14215.0
 31
0.0
  0
LINE
  5
18B
330
480
100
AcDbEntity
  8
YKK_Z1
  6
Continuous
100
AcDbLine
 10
6720.0
 20
14415.0
 30
0.0
 11
6700.0
 21
14415.0
 31
0.0
  0
LINE
  5
18C
330
480
100
AcDbEntity
  8
YKK_Z1
  6
Continuous
100
AcDbLine
 10
6731.42135735
 20
14205.0
 30
0.0
 11
6735.0
 21
14208.57864451
 31
0.0
  0
LINE
  5
18D
330
480
100
AcDbEntity
  8
YKK_Z1
  6
Continuous
100
AcDbLine
 10
6710.0
 20
14211.86290521
 30
0.0
 11
6735.0
 21
14236.8629182
 31
0.0
  0
LINE
  5
18E
330
480
100
AcDbEntity
  8
YKK_Z1
  6
Continuous
100
AcDbLine
 10
6710.0
 20
14240.14717891
 30
0.0
 11
6735.0
 21
14265.1471919
 31
0.0
  0
LINE
  5
18F
330
480
100
AcDbEntity
  8
YKK_Z1
  6
Continuous
100
AcDbLine
 10
6710.0
 20
14268.43145261
 30
0.0
 11
6735.0
 21
14293.4314656
 31
0.0
  0
LINE
  5
190
330
480
100
AcDbEntity
  8
YKK_Z1
  6
Continuous
100
AcDbLine
 10
6710.0
 20
14296.7157263
 30
0.0
 11
6735.0
 21
14321.71573929
 31
0.0
  0
LINE
  5
192
330
480
100
AcDbEntity
  8
YKK_Z1
  6
Continuous
100
AcDbLine
 10
6710.0
 20
14325.0
 30
0.0
 11
6735.0
 21
14325.0
 31
0.0
  0
LINE
  5
193
330
480
100
AcDbEntity
  8
YKK_Z1
  6
Continuous
100
AcDbLine
 10
6710.0
 20
14205.0
 30
0.0
 11
6710.0
 21
14325.0
 31
0.0
  0
LINE
  5
194
330
480
100
AcDbEntity
  8
YKK_Z1
  6
Continuous
100
AcDbLine
 10
6735.0
 20
14205.0
 30
0.0
 11
6710.0
 21
14205.0
 31
0.0
  0
LINE
  5
195
330
480
100
AcDbEntity
  8
YKK_Z1
  6
Continuous
100
AcDbLine
 10
6735.0
 20
14325.0
 30
0.0
 11
6735.0
 21
14205.0
 31
0.0
  0
LINE
  5
196
330
480
100
AcDbEntity
  8
YKK_Z1
  6
Continuous
100
AcDbLine
 10
6700.0
 20
14269.73103435
 30
0.0
 11
6675.2689785
 21
14245.0
 31
0.0
  0
LINE
  5
197
330
480
100
AcDbEntity
  8
YKK_Z1
  6
Continuous
100
AcDbLine
 10
6700.0
 20
14289.53002594
 30
0.0
 11
6655.4699972
 21
14245.0
 31
0.0
  0
LINE
  5
198
330
480
100
AcDbEntity
  8
YKK_Z1
  6
Continuous
100
AcDbLine
 10
6700.0
 20
14298.01530805
 30
0.0
 11
6646.9847195
 21
14245.0
 31
0.0
  0
LINE
  5
199
330
480
100
AcDbEntity
  8
YKK_Z1
  6
Continuous
100
AcDbLine
 10
6700.0
 20
14245.0
 30
0.0
 11
6700.0
 21
14415.0
 31
0.0
  0
LINE
  5
19A
330
480
100
AcDbEntity
  8
YKK_B1
100
AcDbLine
 10
6720.0
 20
14425.0
 30
0.0
 11
6720.0
 21
14364.0
 31
0.0
  0
LINE
  5
19B
330
480
100
AcDbEntity
  8
YKK_B1
100
AcDbLine
 10
6750.0
 20
14425.0
 30
0.0
 11
6720.0
 21
14425.0
 31
0.0
  0
LINE
  5
19C
330
480
100
AcDbEntity
  8
YKK_B1
100
AcDbLine
 10
6725.0
 20
14364.0
 30
0.0
 11
6725.0
 21
14357.0
 31
0.0
  0
LINE
  5
19D
330
480
100
AcDbEntity
  8
YKK_B1
100
AcDbLine
 10
6750.0
 20
14364.0
 30
0.0
 11
6720.0
 21
14364.0
 31
0.0
  0
LINE
  5
19E
330
480
100
AcDbEntity
  8
YKK_B1
100
AcDbLine
 10
6725.0
 20
14325.0
 30
0.0
 11
6725.0
 21
14332.0
 31
0.0
  0
LINE
  5
19F
330
480
100
AcDbEntity
  8
YKK_B1
100
AcDbLine
 10
6750.0
 20
14325.0
 30
0.0
 11
6725.0
 21
14325.0
 31
0.0
  0
LINE
  5
1A0
330
480
100
AcDbEntity
  8
YKK_B1
100
AcDbLine
 10
6750.0
 20
14325.0
 30
0.0
 11
6750.0
 21
14364.0
 31
0.0
  0
LINE
  5
1A1
330
480
100
AcDbEntity
  8
YKK_N1
100
AcDbLine
 10
6989.0
 20
14325.0
 30
0.0
 11
6989.0
 21
14305.0
 31
0.0
  0
CIRCLE
  5
1A2
330
480
100
AcDbEntity
  8
YKK_N1
100
AcDbCircle
 10
6989.0
 20
14325.0
 30
0.0
 40
6.5
  0
CIRCLE
  5
1A3
330
480
100
AcDbEntity
  8
YKK_N1
100
AcDbCircle
 10
6989.0
 20
14325.0
 30
0.0
 40
10.0
  0
LINE
  5
1A4
330
480
100
AcDbEntity
  8
YKK_N1
100
AcDbLine
 10
6989.0
 20
14205.0
 30
0.0
 11
6989.0
 21
14225.0
 31
0.0
  0
CIRCLE
  5
1A5
330
480
100
AcDbEntity
  8
YKK_N1
100
AcDbCircle
 10
6989.0
 20
14205.0
 30
0.0
 40
6.5
  0
CIRCLE
  5
1A6
330
480
100
AcDbEntity
  8
YKK_N1
100
AcDbCircle
 10
6989.0
 20
14205.0
 30
0.0
 40
10.0
  0
TEXT
  5
1A7
330
480
100
AcDbEntity
  8
YKK_N1
100
AcDbText
 10
6979.0
 20
14044.71428571
 30
0.0
 40
60.0
  1
120
 50
90.0
 41
0.8
100
AcDbText
  0
TEXT
  5
1A8
330
480
100
AcDbEntity
  8
YKK_N1
100
AcDbText
 10
6944.0
 20
14303.0
 30
0.0
 40
60.0
  1
100
 50
90.0
 41
0.8
100
AcDbText
1001
ACAD
1000
MTEXTBEGIN
1070
    73
1070
     1
1070
    44
1040
1.0
1070
    74
1070
     0
1000
MTEXTEND
  0
LINE
  5
1A9
330
480
100
AcDbEntity
  8
YKK_N1
100
AcDbLine
 10
6989.0
 20
14325.0
 30
0.0
 11
6989.0
 21
14345.0
 31
0.0
  0
CIRCLE
  5
1AA
330
480
100
AcDbEntity
  8
YKK_N1
100
AcDbCircle
 10
6989.0
 20
14325.0
 30
0.0
 40
6.5
  0
CIRCLE
  5
1AB
330
480
100
AcDbEntity
  8
YKK_N1
100
AcDbCircle
 10
6989.0
 20
14325.0
 30
0.0
 40
10.0
  0
LINE
  5
1AC
330
480
100
AcDbEntity
  8
YKK_N1
100
AcDbLine
 10
6989.0
 20
14425.0
 30
0.0
 11
6989.0
 21
14405.0
 31
0.0
  0
LINE
  5
1AD
330
480
100
AcDbEntity
  8
YKK_N1
100
AcDbLine
 10
6989.0
 20
14345.0
 30
0.0
 11
6989.0
 21
14405.0
 31
0.0
  0
LINE
  5
1AE
330
480
100
AcDbEntity
  8
YKK_N1
100
AcDbLine
 10
6939.0
 20
14425.0
 30
0.0
 11
6959.0
 21
14425.0
 31
0.0
  0
LINE
  5
1AF
330
480
100
AcDbEntity
  8
YKK_N1
100
AcDbLine
 10
6939.0
 20
14325.0
 30
0.0
 11
6959.0
 21
14325.0
 31
0.0
  0
LINE
  5
1B0
330
480
100
AcDbEntity
  8
YKK_N1
  6
Continuous
100
AcDbLine
 10
6989.0
 20
14205.0
 30
0.0
 11
6989.0
 21
14048.42857143
 31
0.0
  0
LINE
  5
1B1
330
480
100
AcDbEntity
  8
YKK_N1
  6
Continuous
100
AcDbLine
 10
6989.0
 20
14305.0
 30
0.0
 11
6989.0
 21
14225.0
 31
0.0
  0
LINE
  5
1B2
330
480
100
AcDbEntity
  8
YKK_N1
  6
Continuous
100
AcDbLine
 10
6795.0
 20
14205.0
 30
0.0
 11
7019.0
 21
14205.0
 31
0.0
  0
LINE
  5
1B3
330
480
100
AcDbEntity
  8
YKK_N1
  6
Continuous
100
AcDbLine
 10
6929.0
 20
14325.0
 30
0.0
 11
6959.0
 21
14325.0
 31
0.0
  0
LINE
  5
1B4
330
480
100
AcDbEntity
  8
YKK_B1
100
AcDbLine
 10
6780.0
 20
14364.0
 30
0.0
 11
6780.0
 21
14383.0
 31
0.0
  0
LINE
  5
1B5
330
480
100
AcDbEntity
  8
YKK_B1
100
AcDbLine
 10
7600.0
 20
14364.0
 30
0.0
 11
7600.0
 21
14425.0
 31
0.0
  0
LINE
  5
1B6
330
480
100
AcDbEntity
  8
YKK_B1
100
AcDbLine
 10
7555.0
 20
14364.0
 30
0.0
 11
7555.0
 21
14383.0
 31
0.0
  0
LINE
  5
1B7
330
480
100
AcDbEntity
  8
YKK_B1
100
AcDbLine
 10
7585.0
 20
14364.0
 30
0.0
 11
7555.0
 21
14364.0
 31
0.0
  0
LINE
  5
1B8
330
480
100
AcDbEntity
  8
YKK_B1
100
AcDbLine
 10
7585.0
 20
14364.0
 30
0.0
 11
7585.0
 21
14325.0
 31
0.0
  0
LINE
  5
1B9
330
480
100
AcDbEntity
  8
YKK_B1
100
AcDbLine
 10
7615.0
 20
14364.0
 30
0.0
 11
7585.0
 21
14364.0
 31
0.0
  0
LINE
  5
1BA
330
480
100
AcDbEntity
  8
YKK_B1
100
AcDbLine
 10
7615.0
 20
14325.0
 30
0.0
 11
7615.0
 21
14364.0
 31
0.0
  0
LINE
  5
1BB
330
480
100
AcDbEntity
  8
YKK_B1
100
AcDbLine
 10
7585.0
 20
14325.0
 30
0.0
 11
7615.0
 21
14325.0
 31
0.0
  0
LINE
  5
1BC
330
480
100
AcDbEntity
  8
YKK_N1
100
AcDbLine
 10
6750.0
 20
16365.0
 30
0.0
 11
6750.0
 21
15795.0
 31
0.0
  0
LINE
  5
1BD
330
480
100
AcDbEntity
  8
YKK_N1
  6
ByBlock
100
AcDbLine
 10
6836.60254038
 20
15875.0
 30
0.0
 11
6750.0
 21
15825.0
 31
0.0
  0
LINE
  5
1BE
330
480
100
AcDbEntity
  8
YKK_N1
  6
ByBlock
100
AcDbLine
 10
6750.0
 20
15825.0
 30
0.0
 11
6836.60254038
 21
15775.0
 31
0.0
  0
LINE
  5
1BF
330
480
100
AcDbEntity
  8
YKK_N1
  6
ByBlock
100
AcDbLine
 10
6750.0
 20
15825.0
 30
0.0
 11
6850.0
 21
15825.0
 31
0.0
  0
LINE
  5
1C0
330
480
100
AcDbEntity
  8
YKK_N1
  6
ByBlock
100
AcDbLine
 10
6836.60254038
 20
15775.0
 30
0.0
 11
6836.60254038
 21
15875.0
 31
0.0
  0
LINE
  5
1C1
330
480
100
AcDbEntity
  8
YKK_N1
100
AcDbLine
 10
6770.0
 20
16025.0
 30
0.0
 11
7565.0
 21
16025.0
 31
0.0
  0
LINE
  5
1C2
330
480
100
AcDbEntity
  8
YKK_A1
100
AcDbLine
 10
6780.0
 20
16425.0
 30
0.0
 11
7585.0
 21
16425.0
 31
0.0
  0
LINE
  5
1C3
330
480
100
AcDbEntity
  8
YKK_N1
100
AcDbLine
 10
6750.0
 20
16025.0
 30
0.0
 11
6770.0
 21
16025.0
 31
0.0
  0
CIRCLE
  5
1C4
330
480
100
AcDbEntity
  8
YKK_N1
100
AcDbCircle
 10
6750.0
 20
16025.0
 30
0.0
 40
6.5
  0
CIRCLE
  5
1C5
330
480
100
AcDbEntity
  8
YKK_N1
100
AcDbCircle
 10
6750.0
 20
16025.0
 30
0.0
 40
10.0
  0
LINE
  5
1C6
330
480
100
AcDbEntity
  8
YKK_N1
100
AcDbLine
 10
6750.0
 20
16365.0
 30
0.0
 11
6750.0
 21
15995.0
 31
0.0
  0
TEXT
  5
1C7
330
480
100
AcDbEntity
  8
YKK_N1
100
AcDbText
 10
7098.92857143
 20
16035.0
 30
0.0
 40
60.0
  1
835
 41
0.8
100
AcDbText
1001
ACAD
1000
MTEXTBEGIN
1070
    73
1070
     1
1070
    44
1040
1.0
1070
    74
1070
     0
1000
MTEXTEND
  0
LINE
  5
1C8
330
480
100
AcDbEntity
  8
YKK_N1
100
AcDbLine
 10
7585.0
 20
16025.0
 30
0.0
 11
7565.0
 21
16025.0
 31
0.0
  0
CIRCLE
  5
1C9
330
480
100
AcDbEntity
  8
YKK_N1
100
AcDbCircle
 10
7585.0
 20
16025.0
 30
0.0
 40
6.5
  0
CIRCLE
  5
1CA
330
480
100
AcDbEntity
  8
YKK_N1
100
AcDbCircle
 10
7585.0
 20
16025.0
 30
0.0
 40
10.0
  0
LINE
  5
1CB
330
480
100
AcDbEntity
  8
YKK_N1
100
AcDbLine
 10
7585.0
 20
16025.0
 30
0.0
 11
7565.0
 21
16025.0
 31
0.0
  0
CIRCLE
  5
1CC
330
480
100
AcDbEntity
  8
YKK_N1
100
AcDbCircle
 10
7585.0
 20
16025.0
 30
0.0
 40
6.5
  0
CIRCLE
  5
1CD
330
480
100
AcDbEntity
  8
YKK_N1
100
AcDbCircle
 10
7585.0
 20
16025.0
 30
0.0
 40
10.0
  0
LINE
  5
1CE
330
480
100
AcDbEntity
  8
YKK_N1
100
AcDbLine
 10
7585.0
 20
16365.0
 30
0.0
 11
7585.0
 21
15995.0
 31
0.0
  0
LINE
  5
1CF
330
480
100
AcDbEntity
  8
YKK_N1
100
AcDbLine
 10
7585.0
 20
16025.0
 30
0.0
 11
7615.0
 21
16025.0
 31
0.0
  0
LINE
  5
1D0
330
480
100
AcDbEntity
  8
YKK_N1
100
AcDbLine
 10
7565.0
 20
16025.0
 30
0.0
 11
7545.0
 21
16025.0
 31
0.0
  0
LINE
  5
1D1
330
480
100
AcDbEntity
  8
YKK_N1
100
AcDbLine
 10
7615.0
 20
16365.0
 30
0.0
 11
7615.0
 21
15995.0
 31
0.0
  0
LINE
  5
1D2
330
480
100
AcDbEntity
  8
YKK_N1
100
AcDbLine
 10
7585.0
 20
16365.0
 30
0.0
 11
7585.0
 21
15995.0
 31
0.0
  0
LINE
  5
1D3
330
480
100
AcDbEntity
  8
YKK_N1
100
AcDbLine
 10
7615.0
 20
16365.0
 30
0.0
 11
7615.0
 21
15995.0
 31
0.0
  0
LINE
  5
1D4
330
480
100
AcDbEntity
  8
YKK_A1
100
AcDbLine
 10
7585.0
 20
16425.0
 30
0.0
 11
7615.0
 21
16425.0
 31
0.0
  0
TEXT
  5
1D5
330
480
100
AcDbEntity
  8
YKK_A1
100
AcDbText
 10
7493.0
 20
16455.0
 30
0.0
 40
60.0
  1
F
 41
0.8
 72
     2
 11
7525.0
 21
16455.0
 31
0.0
100
AcDbText
  0
LINE
  5
1D6
330
480
100
AcDbEntity
  8
YKK_Z1
  6
Continuous
100
AcDbLine
 10
8850.0
 20
14227.0
 30
0.0
 11
8490.0
 21
14227.0
 31
0.0
  0
LINE
  5
1D7
330
480
100
AcDbEntity
  8
YKK_Z1
  6
Continuous
100
AcDbLine
 10
8490.0
 20
14215.0
 30
0.0
 11
8850.0
 21
14215.0
 31
0.0
  0
LINE
  5
1D8
330
480
100
AcDbEntity
  8
YKK_Z1
  6
HIDDEN
100
AcDbLine
 10
8500.0
 20
14395.0
 30
0.0
 11
8850.0
 21
14395.0
 31
0.0
  0
LINE
  5
1D9
330
480
100
AcDbEntity
  8
YKK_Z1
  6
CENTER
100
AcDbLine
 10
8487.5
 20
14320.0
 30
0.0
 11
8850.0
 21
14320.0
 31
0.0
  0
LINE
  5
1DA
330
480
100
AcDbEntity
  8
YKK_Z1
  6
Continuous
100
AcDbLine
 10
8581.29935334
 20
14245.0
 30
0.0
 11
8751.29938278
 21
14415.0
 31
0.0
  0
LINE
  5
1DB
330
480
100
AcDbEntity
  8
YKK_Z1
  6
Continuous
100
AcDbLine
 10
8500.0
 20
14415.0
 30
0.0
 11
8850.0
 21
14415.0
 31
0.0
  0
LINE
  5
1DC
330
480
100
AcDbEntity
  8
YKK_Z1
  6
Continuous
100
AcDbLine
 10
8850.0
 20
14245.0
 30
0.0
 11
8500.0
 21
14245.0
 31
0.0
  0
LINE
  5
1DD
330
480
100
AcDbEntity
  8
YKK_N1
  6
ByBlock
100
AcDbLine
 10
8363.39745962
 20
13875.0
 30
0.0
 11
8450.0
 21
13925.0
 31
0.0
  0
LINE
  5
1DE
330
480
100
AcDbEntity
  8
YKK_N1
  6
ByBlock
100
AcDbLine
 10
8363.39745962
 20
13975.0
 30
0.0
 11
8363.39745962
 21
13875.0
 31
0.0
  0
LINE
  5
1DF
330
480
100
AcDbEntity
  8
YKK_N1
100
AcDbLine
 10
8450.0
 20
14265.0
 30
0.0
 11
8450.0
 21
13895.0
 31
0.0
  0
LINE
  5
1E0
330
480
100
AcDbEntity
  8
YKK_B1
100
AcDbLine
 10
7665.0
 20
14425.0
 30
0.0
 11
8400.0
 21
14425.0
 31
0.0
  0
LINE
  5
1E1
330
480
100
AcDbEntity
  8
YKK_B1
100
AcDbLine
 10
7635.0
 20
14325.0
 30
0.0
 11
8430.0
 21
14325.0
 31
0.0
  0
LINE
  5
1E2
330
480
100
AcDbEntity
  8
YKK_B1
100
AcDbLine
 10
7637.0
 20
14397.0
 30
0.0
 11
8428.0
 21
14397.0
 31
0.0
  0
LINE
  5
1E3
330
480
100
AcDbEntity
  8
YKK_B1
100
AcDbLine
 10
7637.0
 20
14411.0
 30
0.0
 11
8428.0
 21
14411.0
 31
0.0
  0
LINE
  5
1E4
330
480
100
AcDbEntity
  8
YKK_B1
100
AcDbLine
 10
7645.0
 20
14364.0
 30
0.0
 11
7645.0
 21
14383.0
 31
0.0
  0
LINE
  5
1E5
330
480
100
AcDbEntity
  8
YKK_B1
100
AcDbLine
 10
8450.0
 20
14425.0
 30
0.0
 11
8480.0
 21
14425.0
 31
0.0
  0
LINE
  5
1E6
330
480
100
AcDbEntity
  8
YKK_B1
100
AcDbLine
 10
8450.0
 20
14364.0
 30
0.0
 11
8480.0
 21
14364.0
 31
0.0
  0
LINE
  5
1E7
330
480
100
AcDbEntity
  8
YKK_B1
100
AcDbLine
 10
8450.0
 20
14325.0
 30
0.0
 11
8475.0
 21
14325.0
 31
0.0
  0
LINE
  5
1E8
330
480
100
AcDbEntity
  8
YKK_N1
  6
ByBlock
100
AcDbLine
 10
8450.0
 20
13925.0
 30
0.0
 11
8363.39745962
 21
13975.0
 31
0.0
  0
LINE
  5
1E9
330
480
100
AcDbEntity
  8
YKK_N1
  6
ByBlock
100
AcDbLine
 10
8450.0
 20
13925.0
 30
0.0
 11
8350.0
 21
13925.0
 31
0.0
  0
LINE
  5
1EA
330
480
100
AcDbEntity
  8
YKK_B1
100
AcDbLine
 10
8450.0
 20
14425.0
 30
0.0
 11
8420.0
 21
14425.0
 31
0.0
  0
LINE
  5
1EB
330
480
100
AcDbEntity
  8
YKK_B1
100
AcDbLine
 10
8420.0
 20
14364.0
 30
0.0
 11
8420.0
 21
14383.0
 31
0.0
  0
LINE
  5
1EC
330
480
100
AcDbEntity
  8
YKK_B1
100
AcDbLine
 10
8450.0
 20
14364.0
 30
0.0
 11
8420.0
 21
14364.0
 31
0.0
  0
LINE
  5
1ED
330
480
100
AcDbEntity
  8
YKK_B1
100
AcDbLine
 10
8450.0
 20
14325.0
 30
0.0
 11
8450.0
 21
14364.0
 31
0.0
  0
LINE
  5
1EE
330
480
100
AcDbEntity
  8
YKK_Z1
  6
Continuous
100
AcDbLine
 10
8490.0
 20
14227.0
 30
0.0
 11
8490.0
 21
14215.0
 31
0.0
  0
LINE
  5
1EF
330
480
100
AcDbEntity
  8
YKK_Z1
  6
Continuous
100
AcDbLine
 10
8480.0
 20
14415.0
 30
0.0
 11
8500.0
 21
14415.0
 31
0.0
  0
LINE
  5
1F0
330
480
100
AcDbEntity
  8
YKK_Z1
  6
Continuous
100
AcDbLine
 10
8490.0
 20
14211.86290521
 30
0.0
 11
8483.1370936
 21
14205.0
 31
0.0
  0
LINE
  5
1F1
330
480
100
AcDbEntity
  8
YKK_Z1
  6
Continuous
100
AcDbLine
 10
8490.0
 20
14240.14717891
 30
0.0
 11
8465.0
 21
14215.14718324
 31
0.0
  0
LINE
  5
1F2
330
480
100
AcDbEntity
  8
YKK_Z1
  6
Continuous
100
AcDbLine
 10
8490.0
 20
14268.43145261
 30
0.0
 11
8465.0
 21
14243.43145694
 31
0.0
  0
LINE
  5
1F3
330
480
100
AcDbEntity
  8
YKK_Z1
  6
Continuous
100
AcDbLine
 10
8490.0
 20
14296.7157263
 30
0.0
 11
8465.0
 21
14271.71573063
 31
0.0
  0
LINE
  5
1F4
330
480
100
AcDbEntity
  8
YKK_Z1
  6
Continuous
100
AcDbLine
 10
8490.0
 20
14325.0
 30
0.0
 11
8465.0
 21
14300.00000433
 31
0.0
  0
LINE
  5
1F5
330
480
100
AcDbEntity
  8
YKK_Z1
  6
Continuous
100
AcDbLine
 10
8490.0
 20
14325.0
 30
0.0
 11
8465.0
 21
14325.0
 31
0.0
  0
LINE
  5
1F6
330
480
100
AcDbEntity
  8
YKK_Z1
  6
Continuous
100
AcDbLine
 10
8490.0
 20
14205.0
 30
0.0
 11
8490.0
 21
14325.0
 31
0.0
  0
LINE
  5
1F7
330
480
100
AcDbEntity
  8
YKK_Z1
  6
Continuous
100
AcDbLine
 10
8465.0
 20
14205.0
 30
0.0
 11
8490.0
 21
14205.0
 31
0.0
  0
LINE
  5
1F8
330
480
100
AcDbEntity
  8
YKK_Z1
  6
Continuous
100
AcDbLine
 10
8465.0
 20
14325.0
 30
0.0
 11
8465.0
 21
14205.0
 31
0.0
  0
LINE
  5
1F9
330
480
100
AcDbEntity
  8
YKK_Z1
  6
Continuous
100
AcDbLine
 10
8561.50035832
 20
14245.0
 30
0.0
 11
8731.50038777
 21
14415.0
 31
0.0
  0
LINE
  5
1FA
330
480
100
AcDbEntity
  8
YKK_Z1
  6
Continuous
100
AcDbLine
 10
8553.01507474
 20
14245.0
 30
0.0
 11
8723.01510419
 21
14415.0
 31
0.0
  0
LINE
  5
1FB
330
480
100
AcDbEntity
  8
YKK_Z1
  6
Continuous
100
AcDbLine
 10
8500.0
 20
14245.0
 30
0.0
 11
8500.0
 21
14415.0
 31
0.0
  0
LINE
  5
1FC
330
480
100
AcDbEntity
  8
YKK_B1
100
AcDbLine
 10
8480.0
 20
14425.0
 30
0.0
 11
8480.0
 21
14364.0
 31
0.0
  0
LINE
  5
1FD
330
480
100
AcDbEntity
  8
YKK_B1
100
AcDbLine
 10
8475.0
 20
14364.0
 30
0.0
 11
8475.0
 21
14357.0
 31
0.0
  0
LINE
  5
1FE
330
480
100
AcDbEntity
  8
YKK_B1
100
AcDbLine
 10
8475.0
 20
14325.0
 30
0.0
 11
8475.0
 21
14332.0
 31
0.0
  0
LINE
  5
200
330
480
100
AcDbEntity
  8
YKK_N1
100
AcDbLine
 10
8510.0
 20
16425.0
 30
0.0
 11
8880.0
 21
16425.0
 31
0.0
  0
LINE
  5
201
330
480
100
AcDbEntity
  8
YKK_N1
100
AcDbLine
 10
8450.0
 20
16365.0
 30
0.0
 11
8450.0
 21
15795.0
 31
0.0
  0
LINE
  5
202
330
480
100
AcDbEntity
  8
YKK_N1
  6
ByBlock
100
AcDbLine
 10
8363.39745962
 20
15775.0
 30
0.0
 11
8450.0
 21
15825.0
 31
0.0
  0
LINE
  5
203
330
480
100
AcDbEntity
  8
YKK_N1
  6
ByBlock
100
AcDbLine
 10
8363.39745962
 20
15875.0
 30
0.0
 11
8363.39745962
 21
15775.0
 31
0.0
  0
LINE
  5
204
330
480
100
AcDbEntity
  8
YKK_N1
  6
ByBlock
100
AcDbLine
 10
8450.0
 20
15825.0
 30
0.0
 11
8363.39745962
 21
15875.0
 31
0.0
  0
LINE
  5
205
330
480
100
AcDbEntity
  8
YKK_N1
  6
ByBlock
100
AcDbLine
 10
8450.0
 20
15825.0
 30
0.0
 11
8350.0
 21
15825.0
 31
0.0
  0
LINE
  5
206
330
480
100
AcDbEntity
  8
YKK_N1
100
AcDbLine
 10
7635.0
 20
16025.0
 30
0.0
 11
8430.0
 21
16025.0
 31
0.0
  0
TEXT
  5
207
330
480
100
AcDbEntity
  8
YKK_A1
100
AcDbText
 10
7838.0
 20
16545.0
 30
0.0
 40
60.0
  1
複層ガラス 5+A12+5
 41
0.8
 72
     2
 11
8390.0
 21
16545.0
 31
0.0
100
AcDbText
  0
LINE
  5
208
330
480
100
AcDbEntity
  8
YKK_N1
100
AcDbLine
 10
7635.0
 20
16025.0
 30
0.0
 11
7655.0
 21
16025.0
 31
0.0
  0
TEXT
  5
209
330
480
100
AcDbEntity
  8
YKK_N1
100
AcDbText
 10
7963.92857143
 20
16035.0
 30
0.0
 40
60.0
  1
835
 41
0.8
100
AcDbText
1001
ACAD
1000
MTEXTBEGIN
1070
    73
1070
     1
1070
    44
1040
1.0
1070
    74
1070
     0
1000
MTEXTEND
  0
CIRCLE
  5
20A
330
480
100
AcDbEntity
  8
YKK_N1
100
AcDbCircle
 10
8450.0
 20
16025.0
 30
0.0
 40
10.0
  0
LINE
  5
20B
330
480
100
AcDbEntity
  8
YKK_N1
100
AcDbLine
 10
8450.0
 20
16025.0
 30
0.0
 11
8430.0
 21
16025.0
 31
0.0
  0
CIRCLE
  5
20C
330
480
100
AcDbEntity
  8
YKK_N1
100
AcDbCircle
 10
8450.0
 20
16025.0
 30
0.0
 40
6.5
  0
LINE
  5
20D
330
480
100
AcDbEntity
  8
YKK_N1
100
AcDbLine
 10
8450.0
 20
16365.0
 30
0.0
 11
8450.0
 21
15995.0
 31
0.0
  0
TEXT
  5
20E
330
480
100
AcDbEntity
  8
YKK_A1
100
AcDbText
 10
8358.0
 20
16455.0
 30
0.0
 40
60.0
  1
F
 41
0.8
 72
     2
 11
8390.0
 21
16455.0
 31
0.0
100
AcDbText
  0
LINE
  5
20F
330
480
100
AcDbEntity
  8
YKK_N1
  6
ByBlock
100
AcDbLine
 10
8800.0
 20
16511.60254038
 30
0.0
 11
8850.0
 21
16425.0
 31
0.0
  0
LINE
  5
210
330
480
100
AcDbEntity
  8
YKK_N1
  6
ByBlock
100
AcDbLine
 10
8850.0
 20
16425.0
 30
0.0
 11
8900.0
 21
16511.60254038
 31
0.0
  0
LINE
  5
211
330
480
100
AcDbEntity
  8
YKK_N1
  6
ByBlock
100
AcDbLine
 10
8850.0
 20
16425.0
 30
0.0
 11
8850.0
 21
16525.0
 31
0.0
  0
LINE
  5
212
330
480
100
AcDbEntity
  8
YKK_N1
  6
ByBlock
100
AcDbLine
 10
8900.0
 20
16511.60254038
 30
0.0
 11
8800.0
 21
16511.60254038
 31
0.0
  0
LINE
  5
214
330
480
100
AcDbEntity
  8
YKK_C1
100
AcDbLine
 10
9850.0
 20
16390.0
 30
0.0
 11
9850.0
 21
16365.0
 31
0.0
  0
LINE
  5
215
330
480
100
AcDbEntity
  8
YKK_C1
100
AcDbLine
 10
9850.0
 20
16390.0
 30
0.0
 11
9850.0
 21
16425.0
 31
0.0
  0
LINE
  5
216
330
480
100
AcDbEntity
  8
YKK_A1
100
AcDbLine
 10
8420.0
 20
17325.0
 30
0.0
 11
7615.0
 21
17325.0
 31
0.0
  0
LINE
  5
217
330
480
100
AcDbEntity
  8
YKK_A1
100
AcDbLine
 10
8450.0
 20
17325.0
 30
0.0
 11
6750.0
 21
17325.0
 31
0.0
  0
LINE
  5
218
330
480
100
AcDbEntity
  8
YKK_A1
100
AcDbLine
 10
8465.0
 20
17340.0
 30
0.0
 11
6735.0
 21
17340.0
 31
0.0
  0
TEXT
  5
219
330
480
100
AcDbEntity
  8
0
100
AcDbText
 10
5800.0
 20
18737.5
 30
0.0
 40
175.0
  1
W＝1,700　H＝900
  7
EXTFONT
100
AcDbText
  0
LINE
  5
21A
330
480
100
AcDbEntity
  8
YKK_A1
100
AcDbLine
 10
7585.0
 20
17325.0
 30
0.0
 11
6780.0
 21
17325.0
 31
0.0
  0
LINE
  5
21B
330
480
100
AcDbEntity
  8
YKK_A1
100
AcDbLine
 10
7615.0
 20
17325.0
 30
0.0
 11
7585.0
 21
17325.0
 31
0.0
  0
TEXT
  5
21C
330
480
100
AcDbEntity
  8
0
100
AcDbText
 10
5800.0
 20
19187.5
 30
0.0
 40
175.0
  1
はめ殺し窓連窓
  7
EXTFONT
100
AcDbText
  0
LINE
  5
21D
330
480
100
AcDbEntity
  8
YKK_N1
100
AcDbLine
 10
8510.0
 20
17325.0
 30
0.0
 11
8880.0
 21
17325.0
 31
0.0
  0
LINE
  5
21E
330
480
100
AcDbEntity
  8
YKK_N1
  6
ByBlock
100
AcDbLine
 10
8900.0
 20
17238.39745962
 30
0.0
 11
8850.0
 21
17325.0
 31
0.0
  0
LINE
  5
21F
330
480
100
AcDbEntity
  8
YKK_N1
  6
ByBlock
100
AcDbLine
 10
8800.0
 20
17238.39745962
 30
0.0
 11
8900.0
 21
17238.39745962
 31
0.0
  0
LINE
  5
220
330
480
100
AcDbEntity
  8
YKK_N1
  6
ByBlock
100
AcDbLine
 10
8850.0
 20
17325.0
 30
0.0
 11
8800.0
 21
17238.39745962
 31
0.0
  0
LINE
  5
221
330
480
100
AcDbEntity
  8
YKK_N1
  6
ByBlock
100
AcDbLine
 10
8850.0
 20
17325.0
 30
0.0
 11
8850.0
 21
17225.0
 31
0.0
  0
CIRCLE
  5
222
330
480
100
AcDbEntity
  8
YKK_N1
100
AcDbCircle
 10
9850.0
 20
17067.0
 30
0.0
 40
6.5
  0
LINE
  5
223
330
480
100
AcDbEntity
  8
YKK_N1
100
AcDbLine
 10
9850.0
 20
17117.0
 30
0.0
 11
9850.0
 21
17097.0
 31
0.0
  0
LINE
  5
225
330
480
100
AcDbEntity
  8
YKK_C1
100
AcDbLine
 10
9850.0
 20
17349.0
 30
0.0
 11
9850.0
 21
17365.0
 31
0.0
  0
LINE
  5
226
330
480
100
AcDbEntity
  8
YKK_C1
100
AcDbLine
 10
9850.0
 20
17349.0
 30
0.0
 11
9850.0
 21
17325.0
 31
0.0
  0
TEXT
  5
227
330
480
100
AcDbEntity
  8
YKK_N1
100
AcDbText
 10
10340.0
 20
16750.42857143
 30
0.0
 40
60.0
  1
H=900
 50
90.0
 41
0.8
100
AcDbText
1001
ACAD
1000
MTEXTBEGIN
1070
    73
1070
     1
1070
    44
1040
1.0
1070
    74
1070
     0
1000
MTEXTEND
  0
LINE
  5
228
330
480
100
AcDbEntity
  8
YKK_N1
100
AcDbLine
 10
10350.0
 20
16426.0
 30
0.0
 11
10350.0
 21
17324.0
 31
0.0
  0
LINE
  5
229
330
480
100
AcDbEntity
  8
YKK_Z1
  6
Continuous
100
AcDbLine
 10
10070.0
 20
17340.0
 30
0.0
 11
10070.0
 21
16875.0
 31
0.0
  0
LINE
  5
22A
330
480
100
AcDbEntity
  8
YKK_C1
100
AcDbLine
 10
9950.0
 20
16445.0
 30
0.0
 11
9950.0
 21
17305.0
 31
0.0
  0
LINE
  5
22B
330
480
100
AcDbEntity
  8
YKK_C1
100
AcDbLine
 10
9878.0
 20
16417.0
 30
0.0
 11
9878.0
 21
17333.0
 31
0.0
  0
LINE
  5
22C
330
480
100
AcDbEntity
  8
YKK_C1
100
AcDbLine
 10
9864.0
 20
16417.0
 30
0.0
 11
9864.0
 21
17333.0
 31
0.0
  0
TEXT
  5
22D
330
480
100
AcDbEntity
  8
YKK_N1
100
AcDbText
 10
13990.0
 20
16906.42857143
 30
0.0
 40
60.0
  1
900
 50
90.0
 41
0.8
100
AcDbText
1001
ACAD
1000
MTEXTBEGIN
1070
    73
1070
     1
1070
    44
1040
1.0
1070
    74
1070
     0
1000
MTEXTEND
  0
LINE
  5
22E
330
480
100
AcDbEntity
  8
YKK_N1
100
AcDbLine
 10
14000.0
 20
16545.0
 30
0.0
 11
14000.0
 21
17405.0
 31
0.0
  0
LINE
  5
22F
330
480
100
AcDbEntity
  8
YKK_N1
100
AcDbLine
 10
14200.0
 20
15526.0
 30
0.0
 11
14200.0
 21
17424.0
 31
0.0
  0
LINE
  5
230
330
480
100
AcDbEntity
  8
YKK_A1
100
AcDbLine
 10
12830.0
 20
17425.0
 30
0.0
 11
12830.0
 21
16525.0
 31
0.0
  0
LINE
  5
231
330
480
100
AcDbEntity
  8
YKK_A1
100
AcDbLine
 10
13570.0
 20
16525.0
 30
0.0
 11
13570.0
 21
17425.0
 31
0.0
  0
LINE
  5
232
330
480
100
AcDbEntity
  8
YKK_A1
100
AcDbLine
 10
12800.0
 20
17425.0
 30
0.0
 11
12800.0
 21
16525.0
 31
0.0
  0
LINE
  5
233
330
480
100
AcDbEntity
  8
YKK_A1
100
AcDbLine
 10
13600.0
 20
16525.0
 30
0.0
 11
13600.0
 21
17425.0
 31
0.0
  0
LINE
  5
234
330
480
100
AcDbEntity
  8
YKK_A1
100
AcDbLine
 10
12785.0
 20
17440.0
 30
0.0
 11
12785.0
 21
15525.0
 31
0.0
  0
LINE
  5
235
330
480
100
AcDbEntity
  8
YKK_A1
100
AcDbLine
 10
13615.0
 20
15525.0
 30
0.0
 11
13615.0
 21
17440.0
 31
0.0
  0
LINE
  5
236
330
480
100
AcDbEntity
  8
YKK_N1
100
AcDbLine
 10
10350.0
 20
16405.0
 30
0.0
 11
10350.0
 21
15045.0
 31
0.0
  0
LINE
  5
237
330
480
100
AcDbEntity
  8
YKK_N1
  6
CENTER
100
AcDbLine
 10
10250.0
 20
15025.0
 30
0.0
 11
10750.0
 21
15025.0
 31
0.0
  0
LINE
  5
238
330
480
100
AcDbEntity
  8
YKK_N1
100
AcDbLine
 10
10350.0
 20
15025.0
 30
0.0
 11
10350.0
 21
15045.0
 31
0.0
  0
CIRCLE
  5
239
330
480
100
AcDbEntity
  8
YKK_N1
100
AcDbCircle
 10
10350.0
 20
15025.0
 30
0.0
 40
6.5
  0
CIRCLE
  5
23A
330
480
100
AcDbEntity
  8
YKK_N1
100
AcDbCircle
 10
10350.0
 20
15025.0
 30
0.0
 40
10.0
  0
TEXT
  5
23B
330
480
100
AcDbEntity
  8
YKK_N1
100
AcDbText
 10
10340.0
 20
15630.14285714
 30
0.0
 40
60.0
  1
1400
 50
90.0
 41
0.8
100
AcDbText
1001
ACAD
1000
MTEXTBEGIN
1070
    73
1070
     1
1070
    44
1040
1.0
1070
    74
1070
     0
1000
MTEXTEND
  0
LINE
  5
23C
330
480
100
AcDbEntity
  8
YKK_N1
  6
ByBlock
100
AcDbLine
 10
10300.0
 20
16511.60254038
 30
0.0
 11
10350.0
 21
16425.0
 31
0.0
  0
LINE
  5
23D
330
480
100
AcDbEntity
  8
YKK_N1
  6
ByBlock
100
AcDbLine
 10
10350.0
 20
16425.0
 30
0.0
 11
10400.0
 21
16511.60254038
 31
0.0
  0
LINE
  5
23E
330
480
100
AcDbEntity
  8
YKK_N1
  6
ByBlock
100
AcDbLine
 10
10350.0
 20
16425.0
 30
0.0
 11
10350.0
 21
16525.0
 31
0.0
  0
LINE
  5
23F
330
480
100
AcDbEntity
  8
YKK_Z1
  6
Continuous
100
AcDbLine
 10
10070.0
 20
16425.0
 30
0.0
 11
10070.0
 21
16875.0
 31
0.0
  0
LINE
  5
240
330
480
100
AcDbEntity
  8
YKK_N1
100
AcDbLine
 10
10010.0
 20
16425.0
 30
0.0
 11
10380.0
 21
16425.0
 31
0.0
  0
LINE
  5
241
330
480
100
AcDbEntity
  8
YKK_Z1
  6
Continuous
100
AcDbLine
 10
10048.0
 20
16400.0
 30
0.0
 11
10060.0
 21
16400.0
 31
0.0
  0
LINE
  5
242
330
480
100
AcDbEntity
  8
YKK_Z1
  6
Continuous
100
AcDbLine
 10
10048.0
 20
16025.0
 30
0.0
 11
10048.0
 21
16400.0
 31
0.0
  0
LINE
  5
243
330
480
100
AcDbEntity
  8
YKK_Z1
  6
Continuous
100
AcDbLine
 10
10060.0
 20
16400.0
 30
0.0
 11
10060.0
 21
16025.0
 31
0.0
  0
LINE
  5
244
330
480
100
AcDbEntity
  8
YKK_Z1
  6
Continuous
100
AcDbLine
 10
9860.0
 20
16365.0
 30
0.0
 11
9860.0
 21
16325.0
 31
0.0
  0
LINE
  5
245
330
480
100
AcDbEntity
  8
YKK_Z1
  6
Continuous
100
AcDbLine
 10
10063.13709479
 20
16400.0
 30
0.0
 11
10070.0
 21
16406.8629064
 31
0.0
  0
LINE
  5
246
330
480
100
AcDbEntity
  8
YKK_Z1
  6
Continuous
100
AcDbLine
 10
10034.85282109
 20
16400.0
 30
0.0
 11
10059.85281676
 21
16425.0
 31
0.0
  0
LINE
  5
247
330
480
100
AcDbEntity
  8
YKK_Z1
  6
Continuous
100
AcDbLine
 10
10006.56854739
 20
16400.0
 30
0.0
 11
10031.56854306
 21
16425.0
 31
0.0
  0
LINE
  5
248
330
480
100
AcDbEntity
  8
YKK_Z1
  6
Continuous
100
AcDbLine
 10
9978.2842737
 20
16400.0
 30
0.0
 11
10003.28426937
 21
16425.0
 31
0.0
  0
LINE
  5
249
330
480
100
AcDbEntity
  8
YKK_Z1
  6
Continuous
100
AcDbLine
 10
9950.0
 20
16400.0
 30
0.0
 11
9974.99999567
 21
16425.0
 31
0.0
  0
LINE
  5
24A
330
480
100
AcDbEntity
  8
YKK_Z1
  6
Continuous
100
AcDbLine
 10
9950.0
 20
16400.0
 30
0.0
 11
9950.0
 21
16425.0
 31
0.0
  0
LINE
  5
24B
330
480
100
AcDbEntity
  8
YKK_Z1
  6
Continuous
100
AcDbLine
 10
10070.0
 20
16400.0
 30
0.0
 11
9950.0
 21
16400.0
 31
0.0
  0
LINE
  5
24C
330
480
100
AcDbEntity
  8
YKK_Z1
  6
Continuous
100
AcDbLine
 10
10070.0
 20
16425.0
 30
0.0
 11
10070.0
 21
16400.0
 31
0.0
  0
LINE
  5
24D
330
480
100
AcDbEntity
  8
YKK_Z1
  6
Continuous
100
AcDbLine
 10
9950.0
 20
16425.0
 30
0.0
 11
10070.0
 21
16425.0
 31
0.0
  0
LINE
  5
24E
330
480
100
AcDbEntity
  8
YKK_Z1
  6
HIDDEN
100
AcDbLine
 10
9880.0
 20
16025.0
 30
0.0
 11
9880.0
 21
16325.0
 31
0.0
  0
LINE
  5
24F
330
480
100
AcDbEntity
  8
YKK_Z1
  6
CENTER
100
AcDbLine
 10
9955.0
 20
16345.0
 30
0.0
 11
9955.0
 21
16025.0
 31
0.0
  0
LINE
  5
250
330
480
100
AcDbEntity
  8
YKK_Z1
  6
Continuous
100
AcDbLine
 10
10030.0
 20
16293.70064666
 30
0.0
 11
9860.0
 21
16123.70061722
 31
0.0
  0
LINE
  5
251
330
480
100
AcDbEntity
  8
YKK_Z1
  6
Continuous
100
AcDbLine
 10
10030.0
 20
16313.49964168
 30
0.0
 11
9860.0
 21
16143.49961223
 31
0.0
  0
LINE
  5
252
330
480
100
AcDbEntity
  8
YKK_Z1
  6
Continuous
100
AcDbLine
 10
10030.0
 20
16321.98492526
 30
0.0
 11
9860.0
 21
16151.98489581
 31
0.0
  0
LINE
  5
254
330
480
100
AcDbEntity
  8
YKK_Z1
  6
Continuous
100
AcDbLine
 10
9860.0
 20
16325.0
 30
0.0
 11
9860.0
 21
16025.0
 31
0.0
  0
LINE
  5
255
330
480
100
AcDbEntity
  8
YKK_Z1
  6
Continuous
100
AcDbLine
 10
9960.0
 20
16325.0
 30
0.0
 11
9860.0
 21
16325.0
 31
0.0
  0
LINE
  5
256
330
480
100
AcDbEntity
  8
YKK_Z1
  6
Continuous
100
AcDbLine
 10
9970.0
 20
16350.0
 30
0.0
 11
9960.0
 21
16325.0
 31
0.0
  0
LINE
  5
257
330
480
100
AcDbEntity
  8
YKK_Z1
  6
Continuous
100
AcDbLine
 10
10030.0
 20
16350.0
 30
0.0
 11
9970.0
 21
16350.0
 31
0.0
  0
LINE
  5
258
330
480
100
AcDbEntity
  8
YKK_Z1
  6
Continuous
100
AcDbLine
 10
10030.0
 20
16025.0
 30
0.0
 11
10030.0
 21
16350.0
 31
0.0
  0
LINE
  5
259
330
480
100
AcDbEntity
  8
YKK_C1
100
AcDbLine
 10
9911.0
 20
16425.0
 30
0.0
 11
9892.0
 21
16425.0
 31
0.0
  0
LINE
  5
25A
330
480
100
AcDbEntity
  8
YKK_C1
100
AcDbLine
 10
9905.0
 20
16385.0
 30
0.0
 11
9911.0
 21
16385.0
 31
0.0
  0
LINE
  5
25B
330
480
100
AcDbEntity
  8
YKK_C1
100
AcDbLine
 10
9905.0
 20
16390.0
 30
0.0
 11
9905.0
 21
16355.0
 31
0.0
  0
LINE
  5
25C
330
480
100
AcDbEntity
  8
YKK_C1
100
AcDbLine
 10
9950.0
 20
16385.0
 30
0.0
 11
9944.0
 21
16385.0
 31
0.0
  0
LINE
  5
25D
330
480
100
AcDbEntity
  8
YKK_C1
100
AcDbLine
 10
9950.0
 20
16425.0
 30
0.0
 11
9950.0
 21
16385.0
 31
0.0
  0
LINE
  5
25E
330
480
100
AcDbEntity
  8
YKK_C1
100
AcDbLine
 10
9911.0
 20
16425.0
 30
0.0
 11
9911.0
 21
16390.0
 31
0.0
  0
LINE
  5
25F
330
480
100
AcDbEntity
  8
YKK_C1
100
AcDbLine
 10
9950.0
 20
16425.0
 30
0.0
 11
9911.0
 21
16425.0
 31
0.0
  0
LINE
  5
260
330
480
100
AcDbEntity
  8
YKK_N1
  6
ByBlock
100
AcDbLine
 10
10350.0
 20
16425.0
 30
0.0
 11
10350.0
 21
16405.0
 31
0.0
  0
LINE
  5
261
330
480
100
AcDbEntity
  8
YKK_N1
  6
ByBlock
100
AcDbLine
 10
10400.0
 20
16511.60254038
 30
0.0
 11
10300.0
 21
16511.60254038
 31
0.0
  0
TEXT
  5
262
330
480
100
AcDbEntity
  8
YKK_N1
100
AcDbText
 10
13075.42857143
 20
13835.0
 30
0.0
 40
60.0
  1
W=800
 41
0.8
100
AcDbText
1001
ACAD
1000
MTEXTBEGIN
1070
    73
1070
     1
1070
    44
1040
1.0
1070
    74
1070
     0
1000
MTEXTEND
  0
LINE
  5
263
330
480
100
AcDbEntity
  8
YKK_N1
100
AcDbLine
 10
12801.0
 20
13825.0
 30
0.0
 11
13599.0
 21
13825.0
 31
0.0
  0
LINE
  5
264
330
480
100
AcDbEntity
  8
YKK_B1
100
AcDbLine
 10
12850.0
 20
14325.0
 30
0.0
 11
13550.0
 21
14325.0
 31
0.0
  0
LINE
  5
265
330
480
100
AcDbEntity
  8
YKK_B1
100
AcDbLine
 10
12820.0
 20
14225.0
 30
0.0
 11
13580.0
 21
14225.0
 31
0.0
  0
LINE
  5
266
330
480
100
AcDbEntity
  8
YKK_B1
100
AcDbLine
 10
12822.0
 20
14297.0
 30
0.0
 11
13578.0
 21
14297.0
 31
0.0
  0
LINE
  5
267
330
480
100
AcDbEntity
  8
YKK_B1
100
AcDbLine
 10
12822.0
 20
14311.0
 30
0.0
 11
13578.0
 21
14311.0
 31
0.0
  0
LINE
  5
268
330
480
100
AcDbEntity
  8
YKK_Z1
  6
Continuous
100
AcDbLine
 10
13615.0
 20
14105.0
 30
0.0
 11
13200.0
 21
14105.0
 31
0.0
  0
LINE
  5
269
330
480
100
AcDbEntity
  8
YKK_N1
100
AcDbLine
 10
12800.0
 20
14165.0
 30
0.0
 11
12800.0
 21
13795.0
 31
0.0
  0
LINE
  5
26A
330
480
100
AcDbEntity
  8
YKK_N1
  6
ByBlock
100
AcDbLine
 10
12886.60254038
 20
13875.0
 30
0.0
 11
12800.0
 21
13825.0
 31
0.0
  0
LINE
  5
26B
330
480
100
AcDbEntity
  8
YKK_N1
  6
ByBlock
100
AcDbLine
 10
12886.60254038
 20
13775.0
 30
0.0
 11
12886.60254038
 21
13875.0
 31
0.0
  0
LINE
  5
26C
330
480
100
AcDbEntity
  8
YKK_N1
  6
ByBlock
100
AcDbLine
 10
12800.0
 20
13825.0
 30
0.0
 11
12886.60254038
 21
13775.0
 31
0.0
  0
LINE
  5
26D
330
480
100
AcDbEntity
  8
YKK_N1
  6
ByBlock
100
AcDbLine
 10
12800.0
 20
13825.0
 30
0.0
 11
12900.0
 21
13825.0
 31
0.0
  0
LINE
  5
26E
330
480
100
AcDbEntity
  8
YKK_Z1
  6
Continuous
100
AcDbLine
 10
12400.0
 20
14127.0
 30
0.0
 11
12760.0
 21
14127.0
 31
0.0
  0
LINE
  5
26F
330
480
100
AcDbEntity
  8
YKK_Z1
  6
Continuous
100
AcDbLine
 10
12760.0
 20
14115.0
 30
0.0
 11
12400.0
 21
14115.0
 31
0.0
  0
LINE
  5
270
330
480
100
AcDbEntity
  8
YKK_Z1
  6
HIDDEN
100
AcDbLine
 10
12750.0
 20
14295.0
 30
0.0
 11
12400.0
 21
14295.0
 31
0.0
  0
LINE
  5
271
330
480
100
AcDbEntity
  8
YKK_Z1
  6
CENTER
100
AcDbLine
 10
12762.5
 20
14220.0
 30
0.0
 11
12400.0
 21
14220.0
 31
0.0
  0
LINE
  5
272
330
480
100
AcDbEntity
  8
YKK_Z1
  6
Continuous
100
AcDbLine
 10
12750.0
 20
14315.0
 30
0.0
 11
12400.0
 21
14315.0
 31
0.0
  0
LINE
  5
273
330
480
100
AcDbEntity
  8
YKK_Z1
  6
Continuous
100
AcDbLine
 10
12400.0
 20
14145.0
 30
0.0
 11
12750.0
 21
14145.0
 31
0.0
  0
LINE
  5
274
330
480
100
AcDbEntity
  8
YKK_Z1
  6
Continuous
100
AcDbLine
 10
12598.28417067
 20
14315.0
 30
0.0
 11
12428.284259
 21
14145.0
 31
0.0
  0
LINE
  5
275
330
480
100
AcDbEntity
  8
YKK_Z1
  6
Continuous
100
AcDbLine
 10
12578.48518937
 20
14315.0
 30
0.0
 11
12408.4852777
 21
14145.0
 31
0.0
  0
LINE
  5
276
330
480
100
AcDbEntity
  8
YKK_Z1
  6
Continuous
100
AcDbLine
 10
12569.99991167
 20
14315.0
 30
0.0
 11
12400.0
 21
14145.0
 31
0.0
  0
TEXT
  5
277
330
480
100
AcDbEntity
  8
YKK_N1
100
AcDbText
 10
12984.0
 20
14203.0
 30
0.0
 40
60.0
  1
100
 50
90.0
 41
0.8
100
AcDbText
1001
ACAD
1000
MTEXTBEGIN
1070
    73
1070
     1
1070
    44
1040
1.0
1070
    74
1070
     0
1000
MTEXTEND
  0
LINE
  5
278
330
480
100
AcDbEntity
  8
YKK_N1
  6
Continuous
100
AcDbLine
 10
12845.0
 20
14105.0
 30
0.0
 11
13059.0
 21
14105.0
 31
0.0
  0
LINE
  5
279
330
480
100
AcDbEntity
  8
YKK_Z1
  6
Continuous
100
AcDbLine
 10
12785.0
 20
14105.0
 30
0.0
 11
13200.0
 21
14105.0
 31
0.0
  0
LINE
  5
27A
330
480
100
AcDbEntity
  8
YKK_B1
100
AcDbLine
 10
12800.0
 20
14325.0
 30
0.0
 11
12830.0
 21
14325.0
 31
0.0
  0
LINE
  5
27B
330
480
100
AcDbEntity
  8
YKK_B1
100
AcDbLine
 10
12830.0
 20
14264.0
 30
0.0
 11
12830.0
 21
14283.0
 31
0.0
  0
LINE
  5
27C
330
480
100
AcDbEntity
  8
YKK_B1
100
AcDbLine
 10
12770.0
 20
14325.0
 30
0.0
 11
12770.0
 21
14264.0
 31
0.0
  0
LINE
  5
27D
330
480
100
AcDbEntity
  8
YKK_B1
100
AcDbLine
 10
12800.0
 20
14325.0
 30
0.0
 11
12770.0
 21
14325.0
 31
0.0
  0
LINE
  5
27E
330
480
100
AcDbEntity
  8
YKK_B1
100
AcDbLine
 10
12775.0
 20
14264.0
 30
0.0
 11
12775.0
 21
14257.0
 31
0.0
  0
LINE
  5
27F
330
480
100
AcDbEntity
  8
YKK_B1
100
AcDbLine
 10
12800.0
 20
14264.0
 30
0.0
 11
12770.0
 21
14264.0
 31
0.0
  0
LINE
  5
280
330
480
100
AcDbEntity
  8
YKK_B1
100
AcDbLine
 10
12775.0
 20
14225.0
 30
0.0
 11
12775.0
 21
14232.0
 31
0.0
  0
LINE
  5
281
330
480
100
AcDbEntity
  8
YKK_B1
100
AcDbLine
 10
12800.0
 20
14225.0
 30
0.0
 11
12775.0
 21
14225.0
 31
0.0
  0
LINE
  5
282
330
480
100
AcDbEntity
  8
YKK_B1
100
AcDbLine
 10
12800.0
 20
14264.0
 30
0.0
 11
12830.0
 21
14264.0
 31
0.0
  0
LINE
  5
283
330
480
100
AcDbEntity
  8
YKK_B1
100
AcDbLine
 10
12800.0
 20
14225.0
 30
0.0
 11
12800.0
 21
14264.0
 31
0.0
  0
LINE
  5
284
330
480
100
AcDbEntity
  8
YKK_Z1
  6
Continuous
100
AcDbLine
 10
12760.0
 20
14127.0
 30
0.0
 11
12760.0
 21
14115.0
 31
0.0
  0
LINE
  5
285
330
480
100
AcDbEntity
  8
YKK_Z1
  6
Continuous
100
AcDbLine
 10
12770.0
 20
14315.0
 30
0.0
 11
12750.0
 21
14315.0
 31
0.0
  0
LINE
  5
286
330
480
100
AcDbEntity
  8
YKK_Z1
  6
Continuous
100
AcDbLine
 10
12781.42135735
 20
14105.0
 30
0.0
 11
12785.0
 21
14108.57864451
 31
0.0
  0
LINE
  5
287
330
480
100
AcDbEntity
  8
YKK_Z1
  6
Continuous
100
AcDbLine
 10
12760.0
 20
14111.86290521
 30
0.0
 11
12785.0
 21
14136.8629182
 31
0.0
  0
LINE
  5
288
330
480
100
AcDbEntity
  8
YKK_Z1
  6
Continuous
100
AcDbLine
 10
12760.0
 20
14140.14717891
 30
0.0
 11
12785.0
 21
14165.1471919
 31
0.0
  0
LINE
  5
289
330
480
100
AcDbEntity
  8
YKK_Z1
  6
Continuous
100
AcDbLine
 10
12760.0
 20
14168.43145261
 30
0.0
 11
12785.0
 21
14193.4314656
 31
0.0
  0
LINE
  5
28A
330
480
100
AcDbEntity
  8
YKK_Z1
  6
Continuous
100
AcDbLine
 10
12760.0
 20
14196.7157263
 30
0.0
 11
12785.0
 21
14221.71573929
 31
0.0
  0
LINE
  5
28C
330
480
100
AcDbEntity
  8
YKK_Z1
  6
Continuous
100
AcDbLine
 10
12760.0
 20
14225.0
 30
0.0
 11
12785.0
 21
14225.0
 31
0.0
  0
LINE
  5
28D
330
480
100
AcDbEntity
  8
YKK_Z1
  6
Continuous
100
AcDbLine
 10
12760.0
 20
14105.0
 30
0.0
 11
12760.0
 21
14225.0
 31
0.0
  0
LINE
  5
28E
330
480
100
AcDbEntity
  8
YKK_Z1
  6
Continuous
100
AcDbLine
 10
12785.0
 20
14105.0
 30
0.0
 11
12760.0
 21
14105.0
 31
0.0
  0
LINE
  5
28F
330
480
100
AcDbEntity
  8
YKK_Z1
  6
Continuous
100
AcDbLine
 10
12785.0
 20
14225.0
 30
0.0
 11
12785.0
 21
14105.0
 31
0.0
  0
LINE
  5
290
330
480
100
AcDbEntity
  8
YKK_Z1
  6
Continuous
100
AcDbLine
 10
12750.0
 20
14169.73103435
 30
0.0
 11
12725.2689785
 21
14145.0
 31
0.0
  0
LINE
  5
291
330
480
100
AcDbEntity
  8
YKK_Z1
  6
Continuous
100
AcDbLine
 10
12750.0
 20
14189.53002594
 30
0.0
 11
12705.4699972
 21
14145.0
 31
0.0
  0
LINE
  5
292
330
480
100
AcDbEntity
  8
YKK_Z1
  6
Continuous
100
AcDbLine
 10
12750.0
 20
14198.01530805
 30
0.0
 11
12696.9847195
 21
14145.0
 31
0.0
  0
LINE
  5
293
330
480
100
AcDbEntity
  8
YKK_Z1
  6
Continuous
100
AcDbLine
 10
12750.0
 20
14145.0
 30
0.0
 11
12750.0
 21
14315.0
 31
0.0
  0
LINE
  5
294
330
480
100
AcDbEntity
  8
YKK_N1
100
AcDbLine
 10
13029.0
 20
14225.0
 30
0.0
 11
13029.0
 21
14245.0
 31
0.0
  0
CIRCLE
  5
295
330
480
100
AcDbEntity
  8
YKK_N1
100
AcDbCircle
 10
13029.0
 20
14225.0
 30
0.0
 40
6.5
  0
CIRCLE
  5
296
330
480
100
AcDbEntity
  8
YKK_N1
100
AcDbCircle
 10
13029.0
 20
14225.0
 30
0.0
 40
10.0
  0
LINE
  5
297
330
480
100
AcDbEntity
  8
YKK_N1
100
AcDbLine
 10
13029.0
 20
14325.0
 30
0.0
 11
13029.0
 21
14305.0
 31
0.0
  0
CIRCLE
  5
298
330
480
100
AcDbEntity
  8
YKK_N1
100
AcDbCircle
 10
13029.0
 20
14325.0
 30
0.0
 40
6.5
  0
CIRCLE
  5
299
330
480
100
AcDbEntity
  8
YKK_N1
100
AcDbCircle
 10
13029.0
 20
14325.0
 30
0.0
 40
10.0
  0
LINE
  5
29A
330
480
100
AcDbEntity
  8
YKK_N1
100
AcDbLine
 10
13029.0
 20
14225.0
 30
0.0
 11
13029.0
 21
14205.0
 31
0.0
  0
CIRCLE
  5
29B
330
480
100
AcDbEntity
  8
YKK_N1
100
AcDbCircle
 10
13029.0
 20
14225.0
 30
0.0
 40
6.5
  0
CIRCLE
  5
29C
330
480
100
AcDbEntity
  8
YKK_N1
100
AcDbCircle
 10
13029.0
 20
14225.0
 30
0.0
 40
10.0
  0
LINE
  5
29D
330
480
100
AcDbEntity
  8
YKK_N1
100
AcDbLine
 10
13029.0
 20
14105.0
 30
0.0
 11
13029.0
 21
14125.0
 31
0.0
  0
CIRCLE
  5
29E
330
480
100
AcDbEntity
  8
YKK_N1
100
AcDbCircle
 10
13029.0
 20
14105.0
 30
0.0
 40
6.5
  0
CIRCLE
  5
29F
330
480
100
AcDbEntity
  8
YKK_N1
100
AcDbCircle
 10
13029.0
 20
14105.0
 30
0.0
 40
10.0
  0
TEXT
  5
2A0
330
480
100
AcDbEntity
  8
YKK_N1
100
AcDbText
 10
13019.0
 20
13944.71428571
 30
0.0
 40
60.0
  1
120
 50
90.0
 41
0.8
100
AcDbText
  0
LINE
  5
2A1
330
480
100
AcDbEntity
  8
YKK_N1
  6
Continuous
100
AcDbLine
 10
13029.0
 20
14105.0
 30
0.0
 11
13029.0
 21
13948.42857143
 31
0.0
  0
LINE
  5
2A2
330
480
100
AcDbEntity
  8
YKK_N1
  6
Continuous
100
AcDbLine
 10
13029.0
 20
14205.0
 30
0.0
 11
13029.0
 21
14125.0
 31
0.0
  0
LINE
  5
2A3
330
480
100
AcDbEntity
  8
YKK_N1
  6
Continuous
100
AcDbLine
 10
12969.0
 20
14225.0
 30
0.0
 11
12999.0
 21
14225.0
 31
0.0
  0
LINE
  5
2A4
330
480
100
AcDbEntity
  8
YKK_N1
100
AcDbLine
 10
13029.0
 20
14245.0
 30
0.0
 11
13029.0
 21
14305.0
 31
0.0
  0
LINE
  5
2A5
330
480
100
AcDbEntity
  8
YKK_N1
100
AcDbLine
 10
12979.0
 20
14325.0
 30
0.0
 11
12999.0
 21
14325.0
 31
0.0
  0
LINE
  5
2A6
330
480
100
AcDbEntity
  8
YKK_N1
100
AcDbLine
 10
12979.0
 20
14225.0
 30
0.0
 11
12999.0
 21
14225.0
 31
0.0
  0
LINE
  5
2A7
330
480
100
AcDbEntity
  8
YKK_N1
100
AcDbLine
 10
13600.0
 20
14165.0
 30
0.0
 11
13600.0
 21
13795.0
 31
0.0
  0
LINE
  5
2A8
330
480
100
AcDbEntity
  8
YKK_N1
  6
ByBlock
100
AcDbLine
 10
13600.0
 20
13825.0
 30
0.0
 11
13500.0
 21
13825.0
 31
0.0
  0
LINE
  5
2A9
330
480
100
AcDbEntity
  8
YKK_N1
  6
ByBlock
100
AcDbLine
 10
13513.39745962
 20
13775.0
 30
0.0
 11
13600.0
 21
13825.0
 31
0.0
  0
LINE
  5
2AA
330
480
100
AcDbEntity
  8
YKK_N1
  6
ByBlock
100
AcDbLine
 10
13513.39745962
 20
13875.0
 30
0.0
 11
13513.39745962
 21
13775.0
 31
0.0
  0
LINE
  5
2AB
330
480
100
AcDbEntity
  8
YKK_N1
  6
ByBlock
100
AcDbLine
 10
13600.0
 20
13825.0
 30
0.0
 11
13513.39745962
 21
13875.0
 31
0.0
  0
LINE
  5
2AC
330
480
100
AcDbEntity
  8
YKK_Z1
  6
Continuous
100
AcDbLine
 10
14000.0
 20
14127.0
 30
0.0
 11
13640.0
 21
14127.0
 31
0.0
  0
LINE
  5
2AD
330
480
100
AcDbEntity
  8
YKK_Z1
  6
Continuous
100
AcDbLine
 10
13640.0
 20
14115.0
 30
0.0
 11
14000.0
 21
14115.0
 31
0.0
  0
LINE
  5
2AE
330
480
100
AcDbEntity
  8
YKK_Z1
  6
HIDDEN
100
AcDbLine
 10
13650.0
 20
14295.0
 30
0.0
 11
14000.0
 21
14295.0
 31
0.0
  0
LINE
  5
2AF
330
480
100
AcDbEntity
  8
YKK_Z1
  6
CENTER
100
AcDbLine
 10
13637.5
 20
14220.0
 30
0.0
 11
14000.0
 21
14220.0
 31
0.0
  0
LINE
  5
2B0
330
480
100
AcDbEntity
  8
YKK_Z1
  6
Continuous
100
AcDbLine
 10
13731.29935334
 20
14145.0
 30
0.0
 11
13901.29938278
 21
14315.0
 31
0.0
  0
LINE
  5
2B1
330
480
100
AcDbEntity
  8
YKK_Z1
  6
Continuous
100
AcDbLine
 10
13711.50035832
 20
14145.0
 30
0.0
 11
13881.50038777
 21
14315.0
 31
0.0
  0
LINE
  5
2B2
330
480
100
AcDbEntity
  8
YKK_Z1
  6
Continuous
100
AcDbLine
 10
13703.01507474
 20
14145.0
 30
0.0
 11
13873.01510419
 21
14315.0
 31
0.0
  0
LINE
  5
2B3
330
480
100
AcDbEntity
  8
YKK_Z1
  6
Continuous
100
AcDbLine
 10
13650.0
 20
14315.0
 30
0.0
 11
14000.0
 21
14315.0
 31
0.0
  0
LINE
  5
2B4
330
480
100
AcDbEntity
  8
YKK_Z1
  6
Continuous
100
AcDbLine
 10
14000.0
 20
14145.0
 30
0.0
 11
13650.0
 21
14145.0
 31
0.0
  0
LINE
  5
2B5
330
480
100
AcDbEntity
  8
YKK_B1
100
AcDbLine
 10
13600.0
 20
14325.0
 30
0.0
 11
13570.0
 21
14325.0
 31
0.0
  0
LINE
  5
2B6
330
480
100
AcDbEntity
  8
YKK_B1
100
AcDbLine
 10
13570.0
 20
14264.0
 30
0.0
 11
13570.0
 21
14283.0
 31
0.0
  0
LINE
  5
2B7
330
480
100
AcDbEntity
  8
YKK_B1
100
AcDbLine
 10
13630.0
 20
14325.0
 30
0.0
 11
13630.0
 21
14264.0
 31
0.0
  0
LINE
  5
2B8
330
480
100
AcDbEntity
  8
YKK_B1
100
AcDbLine
 10
13600.0
 20
14325.0
 30
0.0
 11
13630.0
 21
14325.0
 31
0.0
  0
LINE
  5
2B9
330
480
100
AcDbEntity
  8
YKK_B1
100
AcDbLine
 10
13625.0
 20
14264.0
 30
0.0
 11
13625.0
 21
14257.0
 31
0.0
  0
LINE
  5
2BA
330
480
100
AcDbEntity
  8
YKK_B1
100
AcDbLine
 10
13600.0
 20
14264.0
 30
0.0
 11
13630.0
 21
14264.0
 31
0.0
  0
LINE
  5
2BB
330
480
100
AcDbEntity
  8
YKK_B1
100
AcDbLine
 10
13625.0
 20
14225.0
 30
0.0
 11
13625.0
 21
14232.0
 31
0.0
  0
LINE
  5
2BC
330
480
100
AcDbEntity
  8
YKK_B1
100
AcDbLine
 10
13600.0
 20
14225.0
 30
0.0
 11
13625.0
 21
14225.0
 31
0.0
  0
LINE
  5
2BD
330
480
100
AcDbEntity
  8
YKK_B1
100
AcDbLine
 10
13600.0
 20
14264.0
 30
0.0
 11
13570.0
 21
14264.0
 31
0.0
  0
LINE
  5
2BE
330
480
100
AcDbEntity
  8
YKK_B1
100
AcDbLine
 10
13600.0
 20
14225.0
 30
0.0
 11
13600.0
 21
14264.0
 31
0.0
  0
LINE
  5
2BF
330
480
100
AcDbEntity
  8
YKK_Z1
  6
Continuous
100
AcDbLine
 10
13640.0
 20
14127.0
 30
0.0
 11
13640.0
 21
14115.0
 31
0.0
  0
LINE
  5
2C0
330
480
100
AcDbEntity
  8
YKK_Z1
  6
Continuous
100
AcDbLine
 10
13630.0
 20
14315.0
 30
0.0
 11
13650.0
 21
14315.0
 31
0.0
  0
LINE
  5
2C1
330
480
100
AcDbEntity
  8
YKK_Z1
  6
Continuous
100
AcDbLine
 10
13640.0
 20
14111.86290521
 30
0.0
 11
13633.1370936
 21
14105.0
 31
0.0
  0
LINE
  5
2C2
330
480
100
AcDbEntity
  8
YKK_Z1
  6
Continuous
100
AcDbLine
 10
13640.0
 20
14140.14717891
 30
0.0
 11
13615.0
 21
14115.14718324
 31
0.0
  0
LINE
  5
2C3
330
480
100
AcDbEntity
  8
YKK_Z1
  6
Continuous
100
AcDbLine
 10
13640.0
 20
14168.43145261
 30
0.0
 11
13615.0
 21
14143.43145694
 31
0.0
  0
LINE
  5
2C4
330
480
100
AcDbEntity
  8
YKK_Z1
  6
Continuous
100
AcDbLine
 10
13640.0
 20
14196.7157263
 30
0.0
 11
13615.0
 21
14171.71573063
 31
0.0
  0
LINE
  5
2C5
330
480
100
AcDbEntity
  8
YKK_Z1
  6
Continuous
100
AcDbLine
 10
13640.0
 20
14225.0
 30
0.0
 11
13615.0
 21
14200.00000433
 31
0.0
  0
LINE
  5
2C6
330
480
100
AcDbEntity
  8
YKK_Z1
  6
Continuous
100
AcDbLine
 10
13640.0
 20
14225.0
 30
0.0
 11
13615.0
 21
14225.0
 31
0.0
  0
LINE
  5
2C7
330
480
100
AcDbEntity
  8
YKK_Z1
  6
Continuous
100
AcDbLine
 10
13640.0
 20
14105.0
 30
0.0
 11
13640.0
 21
14225.0
 31
0.0
  0
LINE
  5
2C8
330
480
100
AcDbEntity
  8
YKK_Z1
  6
Continuous
100
AcDbLine
 10
13615.0
 20
14105.0
 30
0.0
 11
13640.0
 21
14105.0
 31
0.0
  0
LINE
  5
2C9
330
480
100
AcDbEntity
  8
YKK_Z1
  6
Continuous
100
AcDbLine
 10
13615.0
 20
14225.0
 30
0.0
 11
13615.0
 21
14105.0
 31
0.0
  0
LINE
  5
2CA
330
480
100
AcDbEntity
  8
YKK_Z1
  6
Continuous
100
AcDbLine
 10
13650.0
 20
14145.0
 30
0.0
 11
13650.0
 21
14315.0
 31
0.0
  0
TEXT
  5
2CC
330
480
100
AcDbEntity
  8
YKK_N1
100
AcDbText
 10
13075.42857143
 20
15135.0
 30
0.0
 40
60.0
  1
W=800
 41
0.8
100
AcDbText
1001
ACAD
1000
MTEXTBEGIN
1070
    73
1070
     1
1070
    44
1040
1.0
1070
    74
1070
     0
1000
MTEXTEND
  0
LINE
  5
2CD
330
480
100
AcDbEntity
  8
YKK_N1
100
AcDbLine
 10
12801.0
 20
15125.0
 30
0.0
 11
13599.0
 21
15125.0
 31
0.0
  0
TEXT
  5
2CE
330
480
100
AcDbEntity
  8
YKK_A1
100
AcDbText
 10
12988.0
 20
16645.0
 30
0.0
 40
60.0
  1
複層ガラス 5+A12+5
 41
0.8
 72
     2
 11
13540.0
 21
16645.0
 31
0.0
100
AcDbText
  0
LINE
  5
2CF
330
480
100
AcDbEntity
  8
YKK_A1
100
AcDbLine
 10
12830.0
 20
16525.0
 30
0.0
 11
13570.0
 21
16525.0
 31
0.0
  0
LINE
  5
2D0
330
480
100
AcDbEntity
  8
YKK_A1
100
AcDbLine
 10
12800.0
 20
16525.0
 30
0.0
 11
13600.0
 21
16525.0
 31
0.0
  0
LINE
  5
2D1
330
480
100
AcDbEntity
  8
YKK_A1
100
AcDbLine
 10
13600.0
 20
16525.0
 30
0.0
 11
12800.0
 21
16525.0
 31
0.0
  0
LINE
  5
2D2
330
480
100
AcDbEntity
  8
YKK_A1
100
AcDbLine
 10
12800.0
 20
16425.0
 30
0.0
 11
13600.0
 21
16425.0
 31
0.0
  0
TEXT
  5
2D3
330
480
100
AcDbEntity
  8
YKK_A1
100
AcDbText
 10
12988.0
 20
15645.0
 30
0.0
 40
60.0
  1
複層ガラス 5+A12+5
 41
0.8
 72
     2
 11
13540.0
 21
15645.0
 31
0.0
100
AcDbText
  0
LINE
  5
2D4
330
480
100
AcDbEntity
  8
YKK_A1
100
AcDbLine
 10
13570.0
 20
16425.0
 30
0.0
 11
12830.0
 21
16425.0
 31
0.0
  0
LINE
  5
2D5
330
480
100
AcDbEntity
  8
YKK_A1
100
AcDbLine
 10
12830.0
 20
15525.0
 30
0.0
 11
13570.0
 21
15525.0
 31
0.0
  0
LINE
  5
2D6
330
480
100
AcDbEntity
  8
YKK_A1
100
AcDbLine
 10
13600.0
 20
16425.0
 30
0.0
 11
12800.0
 21
16425.0
 31
0.0
  0
LINE
  5
2D7
330
480
100
AcDbEntity
  8
YKK_A1
100
AcDbLine
 10
12800.0
 20
15525.0
 30
0.0
 11
13600.0
 21
15525.0
 31
0.0
  0
LINE
  5
2D8
330
480
100
AcDbEntity
  8
YKK_A1
100
AcDbLine
 10
12785.0
 20
15525.0
 30
0.0
 11
13615.0
 21
15525.0
 31
0.0
  0
LINE
  5
2D9
330
480
100
AcDbEntity
  8
YKK_A1
100
AcDbLine
 10
12830.0
 20
16425.0
 30
0.0
 11
12830.0
 21
15525.0
 31
0.0
  0
LINE
  5
2DA
330
480
100
AcDbEntity
  8
YKK_A1
100
AcDbLine
 10
12800.0
 20
16425.0
 30
0.0
 11
12800.0
 21
15525.0
 31
0.0
  0
LINE
  5
2DB
330
480
100
AcDbEntity
  8
YKK_N1
100
AcDbLine
 10
12800.0
 20
15465.0
 30
0.0
 11
12800.0
 21
15095.0
 31
0.0
  0
LINE
  5
2DC
330
480
100
AcDbEntity
  8
YKK_N1
  6
ByBlock
100
AcDbLine
 10
12886.60254038
 20
15175.0
 30
0.0
 11
12800.0
 21
15125.0
 31
0.0
  0
LINE
  5
2DD
330
480
100
AcDbEntity
  8
YKK_N1
  6
ByBlock
100
AcDbLine
 10
12886.60254038
 20
15075.0
 30
0.0
 11
12886.60254038
 21
15175.0
 31
0.0
  0
LINE
  5
2DE
330
480
100
AcDbEntity
  8
YKK_N1
  6
ByBlock
100
AcDbLine
 10
12800.0
 20
15125.0
 30
0.0
 11
12886.60254038
 21
15075.0
 31
0.0
  0
LINE
  5
2DF
330
480
100
AcDbEntity
  8
YKK_N1
  6
ByBlock
100
AcDbLine
 10
12800.0
 20
15125.0
 30
0.0
 11
12900.0
 21
15125.0
 31
0.0
  0
LINE
  5
2E0
330
480
100
AcDbEntity
  8
YKK_A1
100
AcDbLine
 10
12800.0
 20
16525.0
 30
0.0
 11
12800.0
 21
16425.0
 31
0.0
  0
TEXT
  5
2E1
330
480
100
AcDbEntity
  8
YKK_N1
100
AcDbText
 10
13990.0
 20
15906.42857143
 30
0.0
 40
60.0
  1
900
 50
90.0
 41
0.8
100
AcDbText
1001
ACAD
1000
MTEXTBEGIN
1070
    73
1070
     1
1070
    44
1040
1.0
1070
    74
1070
     0
1000
MTEXTEND
  0
LINE
  5
2E2
330
480
100
AcDbEntity
  8
YKK_N1
100
AcDbLine
 10
14000.0
 20
15545.0
 30
0.0
 11
14000.0
 21
16405.0
 31
0.0
  0
LINE
  5
2E3
330
480
100
AcDbEntity
  8
YKK_A1
100
AcDbLine
 10
13570.0
 20
15525.0
 30
0.0
 11
13570.0
 21
16425.0
 31
0.0
  0
LINE
  5
2E4
330
480
100
AcDbEntity
  8
YKK_A1
100
AcDbLine
 10
13600.0
 20
15525.0
 30
0.0
 11
13600.0
 21
16425.0
 31
0.0
  0
LINE
  5
2E5
330
480
100
AcDbEntity
  8
YKK_N1
100
AcDbLine
 10
13660.0
 20
15525.0
 30
0.0
 11
14030.0
 21
15525.0
 31
0.0
  0
LINE
  5
2E6
330
480
100
AcDbEntity
  8
YKK_N1
100
AcDbLine
 10
13660.0
 20
15525.0
 30
0.0
 11
14230.0
 21
15525.0
 31
0.0
  0
LINE
  5
2E7
330
480
100
AcDbEntity
  8
YKK_N1
100
AcDbLine
 10
13600.0
 20
15465.0
 30
0.0
 11
13600.0
 21
15095.0
 31
0.0
  0
LINE
  5
2E8
330
480
100
AcDbEntity
  8
YKK_N1
  6
ByBlock
100
AcDbLine
 10
13600.0
 20
15125.0
 30
0.0
 11
13500.0
 21
15125.0
 31
0.0
  0
LINE
  5
2E9
330
480
100
AcDbEntity
  8
YKK_N1
  6
ByBlock
100
AcDbLine
 10
13513.39745962
 20
15075.0
 30
0.0
 11
13600.0
 21
15125.0
 31
0.0
  0
LINE
  5
2EA
330
480
100
AcDbEntity
  8
YKK_N1
  6
ByBlock
100
AcDbLine
 10
13513.39745962
 20
15175.0
 30
0.0
 11
13513.39745962
 21
15075.0
 31
0.0
  0
LINE
  5
2EB
330
480
100
AcDbEntity
  8
YKK_N1
  6
ByBlock
100
AcDbLine
 10
13600.0
 20
15125.0
 30
0.0
 11
13513.39745962
 21
15175.0
 31
0.0
  0
TEXT
  5
2EC
330
480
100
AcDbEntity
  8
YKK_A1
100
AcDbText
 10
13508.0
 20
15555.0
 30
0.0
 40
60.0
  1
F
 41
0.8
 72
     2
 11
13540.0
 21
15555.0
 31
0.0
100
AcDbText
  0
LINE
  5
2ED
330
480
100
AcDbEntity
  8
YKK_N1
100
AcDbLine
 10
14000.0
 20
15525.0
 30
0.0
 11
14000.0
 21
15545.0
 31
0.0
  0
CIRCLE
  5
2EE
330
480
100
AcDbEntity
  8
YKK_N1
100
AcDbCircle
 10
14000.0
 20
15525.0
 30
0.0
 40
6.5
  0
CIRCLE
  5
2EF
330
480
100
AcDbEntity
  8
YKK_N1
100
AcDbCircle
 10
14000.0
 20
15525.0
 30
0.0
 40
10.0
  0
LINE
  5
2F0
330
480
100
AcDbEntity
  8
YKK_N1
  6
ByBlock
100
AcDbLine
 10
14150.0
 20
15611.60254038
 30
0.0
 11
14200.0
 21
15525.0
 31
0.0
  0
LINE
  5
2F1
330
480
100
AcDbEntity
  8
YKK_N1
  6
ByBlock
100
AcDbLine
 10
14250.0
 20
15611.60254038
 30
0.0
 11
14150.0
 21
15611.60254038
 31
0.0
  0
LINE
  5
2F2
330
480
100
AcDbEntity
  8
YKK_N1
  6
ByBlock
100
AcDbLine
 10
14200.0
 20
15525.0
 30
0.0
 11
14250.0
 21
15611.60254038
 31
0.0
  0
LINE
  5
2F3
330
480
100
AcDbEntity
  8
YKK_N1
  6
ByBlock
100
AcDbLine
 10
14200.0
 20
15525.0
 30
0.0
 11
14200.0
 21
15625.0
 31
0.0
  0
LINE
  5
2F4
330
480
100
AcDbEntity
  8
YKK_N1
100
AcDbLine
 10
13660.0
 20
16425.0
 30
0.0
 11
14030.0
 21
16425.0
 31
0.0
  0
LINE
  5
2F5
330
480
100
AcDbEntity
  8
YKK_N1
100
AcDbLine
 10
13660.0
 20
16525.0
 30
0.0
 11
14030.0
 21
16525.0
 31
0.0
  0
LINE
  5
2F6
330
480
100
AcDbEntity
  8
YKK_N1
100
AcDbLine
 10
13660.0
 20
16425.0
 30
0.0
 11
14030.0
 21
16425.0
 31
0.0
  0
LINE
  5
2F7
330
480
100
AcDbEntity
  8
YKK_N1
100
AcDbLine
 10
13660.0
 20
16525.0
 30
0.0
 11
14030.0
 21
16525.0
 31
0.0
  0
LINE
  5
2F8
330
480
100
AcDbEntity
  8
YKK_A1
100
AcDbLine
 10
13600.0
 20
16425.0
 30
0.0
 11
13600.0
 21
16525.0
 31
0.0
  0
TEXT
  5
2F9
330
480
100
AcDbEntity
  8
YKK_A1
100
AcDbText
 10
13508.0
 20
16555.0
 30
0.0
 40
60.0
  1
F
 41
0.8
 72
     2
 11
13540.0
 21
16555.0
 31
0.0
100
AcDbText
  0
TEXT
  5
2FA
330
480
100
AcDbEntity
  8
YKK_N1
100
AcDbText
 10
14190.0
 20
16327.57142857
 30
0.0
 40
60.0
  1
H=1900
 50
90.0
 41
0.8
100
AcDbText
1001
ACAD
1000
MTEXTBEGIN
1070
    73
1070
     1
1070
    44
1040
1.0
1070
    74
1070
     0
1000
MTEXTEND
  0
TEXT
  5
2FB
330
480
100
AcDbEntity
  8
YKK_N1
100
AcDbText
 10
14097.5
 20
16403.0
 30
0.0
 40
60.0
  1
100
 50
90.0
 41
0.8
100
AcDbText
1001
ACAD
1000
MTEXTBEGIN
1070
    73
1070
     1
1070
    44
1040
1.0
1070
    74
1070
     0
1000
MTEXTEND
  0
LINE
  5
2FC
330
480
100
AcDbEntity
  8
YKK_N1
100
AcDbLine
 10
14000.0
 20
16425.0
 30
0.0
 11
14000.0
 21
16445.0
 31
0.0
  0
CIRCLE
  5
2FD
330
480
100
AcDbEntity
  8
YKK_N1
100
AcDbCircle
 10
14000.0
 20
16425.0
 30
0.0
 40
6.5
  0
CIRCLE
  5
2FE
330
480
100
AcDbEntity
  8
YKK_N1
100
AcDbCircle
 10
14000.0
 20
16425.0
 30
0.0
 40
10.0
  0
LINE
  5
2FF
330
480
100
AcDbEntity
  8
YKK_N1
100
AcDbLine
 10
14000.0
 20
16425.0
 30
0.0
 11
14000.0
 21
16405.0
 31
0.0
  0
CIRCLE
  5
300
330
480
100
AcDbEntity
  8
YKK_N1
100
AcDbCircle
 10
14000.0
 20
16425.0
 30
0.0
 40
6.5
  0
CIRCLE
  5
301
330
480
100
AcDbEntity
  8
YKK_N1
100
AcDbCircle
 10
14000.0
 20
16425.0
 30
0.0
 40
10.0
  0
LINE
  5
302
330
480
100
AcDbEntity
  8
YKK_N1
100
AcDbLine
 10
14000.0
 20
16525.0
 30
0.0
 11
14000.0
 21
16545.0
 31
0.0
  0
CIRCLE
  5
303
330
480
100
AcDbEntity
  8
YKK_N1
100
AcDbCircle
 10
14000.0
 20
16525.0
 30
0.0
 40
6.5
  0
CIRCLE
  5
304
330
480
100
AcDbEntity
  8
YKK_N1
100
AcDbCircle
 10
14000.0
 20
16525.0
 30
0.0
 40
10.0
  0
LINE
  5
305
330
480
100
AcDbEntity
  8
YKK_N1
100
AcDbLine
 10
14000.0
 20
16525.0
 30
0.0
 11
14000.0
 21
16505.0
 31
0.0
  0
CIRCLE
  5
306
330
480
100
AcDbEntity
  8
YKK_N1
100
AcDbCircle
 10
14000.0
 20
16525.0
 30
0.0
 40
6.5
  0
CIRCLE
  5
307
330
480
100
AcDbEntity
  8
YKK_N1
100
AcDbCircle
 10
14000.0
 20
16525.0
 30
0.0
 40
10.0
  0
LINE
  5
308
330
480
100
AcDbEntity
  8
YKK_N1
100
AcDbLine
 10
14000.0
 20
16445.0
 30
0.0
 11
14000.0
 21
16505.0
 31
0.0
  0
TEXT
  5
309
330
480
100
AcDbEntity
  8
0
100
AcDbText
 10
11500.0
 20
18737.5
 30
0.0
 40
175.0
  1
W＝800　H＝1,900
  7
EXTFONT
100
AcDbText
  0
TEXT
  5
30A
330
480
100
AcDbEntity
  8
0
100
AcDbText
 10
11500.0
 20
19187.5
 30
0.0
 40
175.0
  1
はめ殺し窓段窓
  7
EXTFONT
100
AcDbText
  0
LINE
  5
30B
330
480
100
AcDbEntity
  8
YKK_Z1
  6
Continuous
100
AcDbLine
 10
10048.0
 20
17725.0
 30
0.0
 11
10048.0
 21
17365.0
 31
0.0
  0
LINE
  5
30C
330
480
100
AcDbEntity
  8
YKK_Z1
  6
Continuous
100
AcDbLine
 10
10060.0
 20
17365.0
 30
0.0
 11
10060.0
 21
17725.0
 31
0.0
  0
LINE
  5
30D
330
480
100
AcDbEntity
  8
YKK_Z1
  6
HIDDEN
100
AcDbLine
 10
9880.0
 20
17725.0
 30
0.0
 11
9880.0
 21
17385.0
 31
0.0
  0
LINE
  5
30E
330
480
100
AcDbEntity
  8
YKK_Z1
  6
CENTER
100
AcDbLine
 10
9955.0
 20
17385.0
 30
0.0
 11
9955.0
 21
17725.0
 31
0.0
  0
LINE
  5
30F
330
480
100
AcDbEntity
  8
YKK_Z1
  6
Continuous
100
AcDbLine
 10
9860.0
 20
17385.0
 30
0.0
 11
9860.0
 21
17725.0
 31
0.0
  0
LINE
  5
310
330
480
100
AcDbEntity
  8
YKK_Z1
  6
Continuous
100
AcDbLine
 10
10030.0
 20
17725.0
 30
0.0
 11
10030.0
 21
17410.0
 31
0.0
  0
TEXT
  5
311
330
480
100
AcDbEntity
  8
YKK_N1
100
AcDbText
 10
10086.28571429
 20
17077.0
 30
0.0
 40
60.0
  1
120
 41
0.8
100
AcDbText
  0
LINE
  5
312
330
480
100
AcDbEntity
  8
YKK_N1
100
AcDbLine
 10
10010.0
 20
17325.0
 30
0.0
 11
10380.0
 21
17325.0
 31
0.0
  0
LINE
  5
313
330
480
100
AcDbEntity
  8
YKK_N1
  6
Continuous
100
AcDbLine
 10
10070.0
 20
17067.0
 30
0.0
 11
10226.57142857
 21
17067.0
 31
0.0
  0
LINE
  5
314
330
480
100
AcDbEntity
  8
YKK_N1
100
AcDbLine
 10
9950.0
 20
17067.0
 30
0.0
 11
9970.0
 21
17067.0
 31
0.0
  0
CIRCLE
  5
315
330
480
100
AcDbEntity
  8
YKK_N1
100
AcDbCircle
 10
9950.0
 20
17067.0
 30
0.0
 40
6.5
  0
CIRCLE
  5
316
330
480
100
AcDbEntity
  8
YKK_N1
100
AcDbCircle
 10
9950.0
 20
17067.0
 30
0.0
 40
10.0
  0
LINE
  5
317
330
480
100
AcDbEntity
  8
YKK_N1
100
AcDbLine
 10
10070.0
 20
17067.0
 30
0.0
 11
10050.0
 21
17067.0
 31
0.0
  0
CIRCLE
  5
318
330
480
100
AcDbEntity
  8
YKK_N1
100
AcDbCircle
 10
10070.0
 20
17067.0
 30
0.0
 40
6.5
  0
CIRCLE
  5
319
330
480
100
AcDbEntity
  8
YKK_N1
100
AcDbCircle
 10
10070.0
 20
17067.0
 30
0.0
 40
10.0
  0
LINE
  5
31A
330
480
100
AcDbEntity
  8
YKK_N1
100
AcDbLine
 10
9950.0
 20
17067.0
 30
0.0
 11
9930.0
 21
17067.0
 31
0.0
  0
CIRCLE
  5
31B
330
480
100
AcDbEntity
  8
YKK_N1
100
AcDbCircle
 10
9950.0
 20
17067.0
 30
0.0
 40
6.5
  0
CIRCLE
  5
31C
330
480
100
AcDbEntity
  8
YKK_N1
100
AcDbCircle
 10
9950.0
 20
17067.0
 30
0.0
 40
10.0
  0
LINE
  5
31D
330
480
100
AcDbEntity
  8
YKK_N1
100
AcDbLine
 10
9930.0
 20
17067.0
 30
0.0
 11
9870.0
 21
17067.0
 31
0.0
  0
LINE
  5
31E
330
480
100
AcDbEntity
  8
YKK_N1
100
AcDbLine
 10
9950.0
 20
17117.0
 30
0.0
 11
9950.0
 21
17097.0
 31
0.0
  0
LINE
  5
31F
330
480
100
AcDbEntity
  8
YKK_N1
  6
Continuous
100
AcDbLine
 10
9970.0
 20
17067.0
 30
0.0
 11
10050.0
 21
17067.0
 31
0.0
  0
LINE
  5
320
330
480
100
AcDbEntity
  8
YKK_N1
  6
Continuous
100
AcDbLine
 10
10070.0
 20
17280.0
 30
0.0
 11
10070.0
 21
17037.0
 31
0.0
  0
LINE
  5
321
330
480
100
AcDbEntity
  8
YKK_N1
  6
Continuous
100
AcDbLine
 10
9950.0
 20
17127.0
 30
0.0
 11
9950.0
 21
17097.0
 31
0.0
  0
LINE
  5
322
330
480
100
AcDbEntity
  8
YKK_Z1
  6
Continuous
100
AcDbLine
 10
10048.0
 20
17365.0
 30
0.0
 11
10060.0
 21
17365.0
 31
0.0
  0
LINE
  5
323
330
480
100
AcDbEntity
  8
YKK_Z1
  6
Continuous
100
AcDbLine
 10
9860.0
 20
17365.0
 30
0.0
 11
9860.0
 21
17385.0
 31
0.0
  0
LINE
  5
324
330
480
100
AcDbEntity
  8
YKK_Z1
  6
Continuous
100
AcDbLine
 10
10070.0
 20
17343.57864265
 30
0.0
 11
10066.42135549
 21
17340.0
 31
0.0
  0
LINE
  5
325
330
480
100
AcDbEntity
  8
YKK_Z1
  6
Continuous
100
AcDbLine
 10
10063.13709479
 20
17365.0
 30
0.0
 11
10038.1370818
 21
17340.0
 31
0.0
  0
LINE
  5
326
330
480
100
AcDbEntity
  8
YKK_Z1
  6
Continuous
100
AcDbLine
 10
10034.85282109
 20
17365.0
 30
0.0
 11
10009.8528081
 21
17340.0
 31
0.0
  0
LINE
  5
327
330
480
100
AcDbEntity
  8
YKK_Z1
  6
Continuous
100
AcDbLine
 10
10006.56854739
 20
17365.0
 30
0.0
 11
9981.5685344
 21
17340.0
 31
0.0
  0
LINE
  5
328
330
480
100
AcDbEntity
  8
YKK_Z1
  6
Continuous
100
AcDbLine
 10
9978.2842737
 20
17365.0
 30
0.0
 11
9953.28426071
 21
17340.0
 31
0.0
  0
LINE
  5
32A
330
480
100
AcDbEntity
  8
YKK_Z1
  6
Continuous
100
AcDbLine
 10
9950.0
 20
17365.0
 30
0.0
 11
9950.0
 21
17340.0
 31
0.0
  0
LINE
  5
32B
330
480
100
AcDbEntity
  8
YKK_Z1
  6
Continuous
100
AcDbLine
 10
10070.0
 20
17365.0
 30
0.0
 11
9950.0
 21
17365.0
 31
0.0
  0
LINE
  5
32C
330
480
100
AcDbEntity
  8
YKK_Z1
  6
Continuous
100
AcDbLine
 10
10070.0
 20
17340.0
 30
0.0
 11
10070.0
 21
17365.0
 31
0.0
  0
LINE
  5
32D
330
480
100
AcDbEntity
  8
YKK_Z1
  6
Continuous
100
AcDbLine
 10
9950.0
 20
17340.0
 30
0.0
 11
10070.0
 21
17340.0
 31
0.0
  0
LINE
  5
32E
330
480
100
AcDbEntity
  8
YKK_Z1
  6
Continuous
100
AcDbLine
 10
10020.46999225
 20
17410.0
 30
0.0
 11
10030.0
 21
17419.5300028
 31
0.0
  0
LINE
  5
32F
330
480
100
AcDbEntity
  8
YKK_Z1
  6
Continuous
100
AcDbLine
 10
10011.98471014
 20
17410.0
 30
0.0
 11
10030.0
 21
17428.0152805
 31
0.0
  0
LINE
  5
330
330
480
100
AcDbEntity
  8
YKK_Z1
  6
Continuous
100
AcDbLine
 10
9910.0
 20
17385.0
 30
0.0
 11
9860.0
 21
17385.0
 31
0.0
  0
LINE
  5
331
330
480
100
AcDbEntity
  8
YKK_Z1
  6
Continuous
100
AcDbLine
 10
9920.0
 20
17410.0
 30
0.0
 11
9910.0
 21
17385.0
 31
0.0
  0
LINE
  5
332
330
480
100
AcDbEntity
  8
YKK_Z1
  6
Continuous
100
AcDbLine
 10
10030.0
 20
17410.0
 30
0.0
 11
9920.0
 21
17410.0
 31
0.0
  0
LINE
  5
333
330
480
100
AcDbEntity
  8
YKK_C1
100
AcDbLine
 10
9911.0
 20
17325.0
 30
0.0
 11
9892.0
 21
17325.0
 31
0.0
  0
LINE
  5
334
330
480
100
AcDbEntity
  8
YKK_C1
100
AcDbLine
 10
9905.0
 20
17360.0
 30
0.0
 11
9914.0
 21
17360.0
 31
0.0
  0
LINE
  5
335
330
480
100
AcDbEntity
  8
YKK_C1
100
AcDbLine
 10
9905.0
 20
17375.0
 30
0.0
 11
9905.0
 21
17349.0
 31
0.0
  0
LINE
  5
336
330
480
100
AcDbEntity
  8
YKK_C1
100
AcDbLine
 10
9950.0
 20
17349.0
 30
0.0
 11
9911.0
 21
17349.0
 31
0.0
  0
LINE
  5
337
330
480
100
AcDbEntity
  8
YKK_C1
100
AcDbLine
 10
9950.0
 20
17360.0
 30
0.0
 11
9941.0
 21
17360.0
 31
0.0
  0
LINE
  5
338
330
480
100
AcDbEntity
  8
YKK_C1
100
AcDbLine
 10
9950.0
 20
17325.0
 30
0.0
 11
9950.0
 21
17360.0
 31
0.0
  0
LINE
  5
339
330
480
100
AcDbEntity
  8
YKK_C1
100
AcDbLine
 10
9911.0
 20
17325.0
 30
0.0
 11
9911.0
 21
17349.0
 31
0.0
  0
LINE
  5
33A
330
480
100
AcDbEntity
  8
YKK_C1
100
AcDbLine
 10
9950.0
 20
17325.0
 30
0.0
 11
9911.0
 21
17325.0
 31
0.0
  0
LINE
  5
33B
330
480
100
AcDbEntity
  8
YKK_N1
  6
ByBlock
100
AcDbLine
 10
10400.0
 20
17238.39745962
 30
0.0
 11
10350.0
 21
17325.0
 31
0.0
  0
LINE
  5
33C
330
480
100
AcDbEntity
  8
YKK_N1
  6
ByBlock
100
AcDbLine
 10
10300.0
 20
17238.39745962
 30
0.0
 11
10400.0
 21
17238.39745962
 31
0.0
  0
LINE
  5
33D
330
480
100
AcDbEntity
  8
YKK_N1
  6
ByBlock
100
AcDbLine
 10
10350.0
 20
17325.0
 30
0.0
 11
10300.0
 21
17238.39745962
 31
0.0
  0
LINE
  5
33E
330
480
100
AcDbEntity
  8
YKK_N1
  6
ByBlock
100
AcDbLine
 10
10350.0
 20
17325.0
 30
0.0
 11
10350.0
 21
17225.0
 31
0.0
  0
LINE
  5
33F
330
480
100
AcDbEntity
  8
YKK_Z1
  6
Continuous
100
AcDbLine
 10
9860.0
 20
17526.71582933
 30
0.0
 11
10030.0
 21
17696.715741
 31
0.0
  0
LINE
  5
340
330
480
100
AcDbEntity
  8
YKK_Z1
  6
Continuous
100
AcDbLine
 10
9860.0
 20
17546.51481063
 30
0.0
 11
10030.0
 21
17716.5147223
 31
0.0
  0
LINE
  5
341
330
480
100
AcDbEntity
  8
YKK_Z1
  6
Continuous
100
AcDbLine
 10
9860.0
 20
17555.00008833
 30
0.0
 11
10030.0
 21
17725.0
 31
0.0
  0
LINE
  5
342
330
480
100
AcDbEntity
  8
YKK_A1
100
AcDbLine
 10
13570.0
 20
17425.0
 30
0.0
 11
12830.0
 21
17425.0
 31
0.0
  0
LINE
  5
343
330
480
100
AcDbEntity
  8
YKK_A1
100
AcDbLine
 10
13600.0
 20
17425.0
 30
0.0
 11
12800.0
 21
17425.0
 31
0.0
  0
LINE
  5
344
330
480
100
AcDbEntity
  8
YKK_A1
100
AcDbLine
 10
13615.0
 20
17440.0
 30
0.0
 11
12785.0
 21
17440.0
 31
0.0
  0
LINE
  5
345
330
480
100
AcDbEntity
  8
YKK_N1
100
AcDbLine
 10
13660.0
 20
17425.0
 30
0.0
 11
14030.0
 21
17425.0
 31
0.0
  0
LINE
  5
346
330
480
100
AcDbEntity
  8
YKK_N1
100
AcDbLine
 10
13660.0
 20
17425.0
 30
0.0
 11
14230.0
 21
17425.0
 31
0.0
  0
LINE
  5
347
330
480
100
AcDbEntity
  8
YKK_N1
100
AcDbLine
 10
14000.0
 20
17425.0
 30
0.0
 11
14000.0
 21
17405.0
 31
0.0
  0
CIRCLE
  5
348
330
480
100
AcDbEntity
  8
YKK_N1
100
AcDbCircle
 10
14000.0
 20
17425.0
 30
0.0
 40
6.5
  0
CIRCLE
  5
349
330
480
100
AcDbEntity
  8
YKK_N1
100
AcDbCircle
 10
14000.0
 20
17425.0
 30
0.0
 40
10.0
  0
LINE
  5
34A
330
480
100
AcDbEntity
  8
YKK_N1
  6
ByBlock
100
AcDbLine
 10
14250.0
 20
17338.39745962
 30
0.0
 11
14200.0
 21
17425.0
 31
0.0
  0
LINE
  5
34B
330
480
100
AcDbEntity
  8
YKK_N1
  6
ByBlock
100
AcDbLine
 10
14150.0
 20
17338.39745962
 30
0.0
 11
14250.0
 21
17338.39745962
 31
0.0
  0
LINE
  5
34C
330
480
100
AcDbEntity
  8
YKK_N1
  6
ByBlock
100
AcDbLine
 10
14200.0
 20
17425.0
 30
0.0
 11
14150.0
 21
17338.39745962
 31
0.0
  0
LINE
  5
34D
330
480
100
AcDbEntity
  8
YKK_N1
  6
ByBlock
100
AcDbLine
 10
14200.0
 20
17425.0
 30
0.0
 11
14200.0
 21
17325.0
 31
0.0
  0
LINE
  5
34E
330
480
100
AcDbEntity
  8
YKK_F1
100
AcDbLine
 10
17100.0
 20
0.0
 30
0.0
 11
17100.0
 21
19500.0
 31
0.0
  0
LINE
  5
34F
330
480
100
AcDbEntity
  8
YKK_F1
100
AcDbLine
 10
22800.0
 20
0.0
 30
0.0
 11
22800.0
 21
19500.0
 31
0.0
  0
LINE
  5
350
330
480
100
AcDbEntity
  8
YKK_F1
100
AcDbLine
 10
28500.0
 20
0.0
 30
0.0
 11
28500.0
 21
20000.0
 31
0.0
  0
LINE
  5
351
330
480
100
AcDbEntity
  8
YKK_F1
100
AcDbLine
 10
28681.0155
 20
0.0
 30
0.0
 11
28681.0155
 21
20000.0
 31
0.0
  0
TEXT
  5
352
330
480
100
AcDbEntity
  8
0
100
AcDbText
 10
22915.0
 20
4959.2247
 30
0.0
 40
201.25
  1
耐風圧性
  7
EXTFONT
100
AcDbText
  0
TEXT
  5
353
330
480
100
AcDbEntity
  8
0
100
AcDbText
 10
22915.0
 20
3235.7247
 30
0.0
 40
201.25
  1
水密性
  7
EXTFONT
100
AcDbText
  0
TEXT
  5
354
330
480
100
AcDbEntity
  8
0
100
AcDbText
 10
22915.0
 20
3810.7247
 30
0.0
 40
201.25
  1
気密性
  7
EXTFONT
100
AcDbText
  0
TEXT
  5
355
330
480
100
AcDbEntity
  8
0
100
AcDbText
 10
22915.0
 20
2660.7247
 30
0.0
 40
201.25
  1
遮音性
  7
EXTFONT
100
AcDbText
  0
TEXT
  5
356
330
480
100
AcDbEntity
  8
0
100
AcDbText
 10
22915.0
 20
2173.7247
 30
0.0
 40
201.25
  1
断熱性
  7
EXTFONT
100
AcDbText
  0
TEXT
  5
357
330
480
100
AcDbEntity
  8
0
100
AcDbText
 10
22915.0
 20
904.2247
 30
0.0
 40
201.25
  1
ただし、窓種・サイズにより適応値が異なります。
  7
EXTFONT
100
AcDbText
  0
TEXT
  5
358
330
480
100
AcDbEntity
  8
0
100
AcDbText
 10
22915.0
 20
5712.6247
 30
0.0
 40
201.25
  1
ＹＤＰ－１００　はめ殺し窓　性能等級
  7
EXTFONT
100
AcDbText
  0
TEXT
  5
359
330
480
100
AcDbEntity
  8
0
100
AcDbText
 10
24211.05
 20
4673.2247
 30
0.0
 40
201.25
  1
Ｓ－６（２８００Ｐａ）
  7
EXTFONT
100
AcDbText
  0
TEXT
  5
35A
330
480
100
AcDbEntity
  8
0
100
AcDbText
 10
24211.05
 20
1885.7247
 30
0.0
 40
201.25
  1
（複層ガラス５＋Ａ１２＋５の場合）
  7
EXTFONT
100
AcDbText
  0
TEXT
  5
35B
330
480
100
AcDbEntity
  8
0
100
AcDbText
 10
24211.05
 20
2172.7247
 30
0.0
 40
201.25
  1
Ｈ－３（０．２８７ｍ２・Ｋ／Ｗ以上）
  7
EXTFONT
100
AcDbText
  0
TEXT
  5
35C
330
480
100
AcDbEntity
  8
0
100
AcDbText
 10
24211.05
 20
3810.7247
 30
0.0
 40
201.25
  1
Ａ－４（２等級線）
  7
EXTFONT
100
AcDbText
  0
TEXT
  5
35D
330
480
100
AcDbEntity
  8
0
100
AcDbText
 10
24211.05
 20
4385.7247
 30
0.0
 40
201.25
  1
Ｓ－７（３６００Ｐａ）
  7
EXTFONT
100
AcDbText
  0
TEXT
  5
35E
330
480
100
AcDbEntity
  8
0
100
AcDbText
 10
24211.05
 20
2659.7247
 30
0.0
 40
201.25
  1
Ｔ－２（３０等級線）
  7
EXTFONT
100
AcDbText
  0
TEXT
  5
35F
330
480
100
AcDbEntity
  8
0
100
AcDbText
 10
24211.05
 20
3235.7247
 30
0.0
 40
201.25
  1
Ｗ－５（５００Ｐａ）
  7
EXTFONT
100
AcDbText
  0
TEXT
  5
360
330
480
100
AcDbEntity
  8
0
100
AcDbText
 10
24211.05
 20
4960.7247
 30
0.0
 40
201.25
  1
Ｓ－５（２４００Ｐａ）
  7
EXTFONT
100
AcDbText
  0
TEXT
  5
361
330
480
100
AcDbEntity
  8
YKK_N1
100
AcDbText
 10
15490.0
 20
16906.42857143
 30
0.0
 40
60.0
  1
900
 50
90.0
 41
0.8
100
AcDbText
1001
ACAD
1000
MTEXTBEGIN
1070
    73
1070
     1
1070
    44
1040
1.0
1070
    74
1070
     0
1000
MTEXTEND
  0
LINE
  5
362
330
480
100
AcDbEntity
  8
YKK_N1
100
AcDbLine
 10
15500.0
 20
16545.0
 30
0.0
 11
15500.0
 21
17405.0
 31
0.0
  0
LINE
  5
363
330
480
100
AcDbEntity
  8
YKK_N1
100
AcDbLine
 10
15700.0
 20
15526.0
 30
0.0
 11
15700.0
 21
17424.0
 31
0.0
  0
LINE
  5
364
330
480
100
AcDbEntity
  8
YKK_C1
100
AcDbLine
 10
15000.0
 20
16545.0
 30
0.0
 11
15000.0
 21
17405.0
 31
0.0
  0
LINE
  5
365
330
480
100
AcDbEntity
  8
YKK_C1
100
AcDbLine
 10
15100.0
 20
16545.0
 30
0.0
 11
15100.0
 21
17405.0
 31
0.0
  0
LINE
  5
366
330
480
100
AcDbEntity
  8
YKK_C1
100
AcDbLine
 10
15028.0
 20
16517.0
 30
0.0
 11
15028.0
 21
17433.0
 31
0.0
  0
LINE
  5
367
330
480
100
AcDbEntity
  8
YKK_C1
100
AcDbLine
 10
15014.0
 20
16517.0
 30
0.0
 11
15014.0
 21
17433.0
 31
0.0
  0
LINE
  5
368
330
480
100
AcDbEntity
  8
YKK_Z1
  6
Continuous
100
AcDbLine
 10
15220.0
 20
17440.0
 30
0.0
 11
15220.0
 21
16475.0
 31
0.0
  0
TEXT
  5
369
330
480
100
AcDbEntity
  8
YKK_N1
100
AcDbText
 10
15490.0
 20
15906.42857143
 30
0.0
 40
60.0
  1
900
 50
90.0
 41
0.8
100
AcDbText
1001
ACAD
1000
MTEXTBEGIN
1070
    73
1070
     1
1070
    44
1040
1.0
1070
    74
1070
     0
1000
MTEXTEND
  0
LINE
  5
36A
330
480
100
AcDbEntity
  8
YKK_N1
100
AcDbLine
 10
15160.0
 20
16425.0
 30
0.0
 11
15530.0
 21
16425.0
 31
0.0
  0
LINE
  5
36B
330
480
100
AcDbEntity
  8
YKK_N1
100
AcDbLine
 10
15160.0
 20
15525.0
 30
0.0
 11
15530.0
 21
15525.0
 31
0.0
  0
LINE
  5
36C
330
480
100
AcDbEntity
  8
YKK_N1
100
AcDbLine
 10
15160.0
 20
16525.0
 30
0.0
 11
15530.0
 21
16525.0
 31
0.0
  0
LINE
  5
36D
330
480
100
AcDbEntity
  8
YKK_N1
100
AcDbLine
 10
15160.0
 20
16425.0
 30
0.0
 11
15530.0
 21
16425.0
 31
0.0
  0
LINE
  5
36E
330
480
100
AcDbEntity
  8
YKK_N1
100
AcDbLine
 10
15160.0
 20
16525.0
 30
0.0
 11
15530.0
 21
16525.0
 31
0.0
  0
LINE
  5
36F
330
480
100
AcDbEntity
  8
YKK_N1
100
AcDbLine
 10
15160.0
 20
15525.0
 30
0.0
 11
15730.0
 21
15525.0
 31
0.0
  0
LINE
  5
370
330
480
100
AcDbEntity
  8
YKK_C1
100
AcDbLine
 10
15000.0
 20
15545.0
 30
0.0
 11
15000.0
 21
16405.0
 31
0.0
  0
LINE
  5
371
330
480
100
AcDbEntity
  8
YKK_C1
100
AcDbLine
 10
15100.0
 20
15545.0
 30
0.0
 11
15100.0
 21
16405.0
 31
0.0
  0
LINE
  5
372
330
480
100
AcDbEntity
  8
YKK_C1
100
AcDbLine
 10
15028.0
 20
15517.0
 30
0.0
 11
15028.0
 21
16433.0
 31
0.0
  0
LINE
  5
373
330
480
100
AcDbEntity
  8
YKK_C1
100
AcDbLine
 10
15014.0
 20
15517.0
 30
0.0
 11
15014.0
 21
16433.0
 31
0.0
  0
LINE
  5
374
330
480
100
AcDbEntity
  8
YKK_Z1
  6
Continuous
100
AcDbLine
 10
15220.0
 20
15525.0
 30
0.0
 11
15220.0
 21
16475.0
 31
0.0
  0
LINE
  5
375
330
480
100
AcDbEntity
  8
YKK_Z1
  6
Continuous
100
AcDbLine
 10
15198.0
 20
15125.0
 30
0.0
 11
15198.0
 21
15500.0
 31
0.0
  0
LINE
  5
376
330
480
100
AcDbEntity
  8
YKK_Z1
  6
Continuous
100
AcDbLine
 10
15210.0
 20
15500.0
 30
0.0
 11
15210.0
 21
15125.0
 31
0.0
  0
LINE
  5
377
330
480
100
AcDbEntity
  8
YKK_Z1
  6
Continuous
100
AcDbLine
 10
15010.0
 20
15465.0
 30
0.0
 11
15010.0
 21
15425.0
 31
0.0
  0
LINE
  5
378
330
480
100
AcDbEntity
  8
YKK_Z1
  6
CENTER
100
AcDbLine
 10
15105.0
 20
15445.0
 30
0.0
 11
15105.0
 21
15125.0
 31
0.0
  0
LINE
  5
379
330
480
100
AcDbEntity
  8
YKK_Z1
  6
Continuous
100
AcDbLine
 10
15120.0
 20
15450.0
 30
0.0
 11
15110.0
 21
15425.0
 31
0.0
  0
LINE
  5
37A
330
480
100
AcDbEntity
  8
YKK_Z1
  6
Continuous
100
AcDbLine
 10
15180.0
 20
15125.0
 30
0.0
 11
15180.0
 21
15450.0
 31
0.0
  0
LINE
  5
37B
330
480
100
AcDbEntity
  8
YKK_Z1
  6
HIDDEN
100
AcDbLine
 10
15030.0
 20
15125.0
 30
0.0
 11
15030.0
 21
15425.0
 31
0.0
  0
LINE
  5
37C
330
480
100
AcDbEntity
  8
YKK_Z1
  6
Continuous
100
AcDbLine
 10
15180.0
 20
15393.70064666
 30
0.0
 11
15010.0
 21
15223.70061722
 31
0.0
  0
LINE
  5
37D
330
480
100
AcDbEntity
  8
YKK_Z1
  6
Continuous
100
AcDbLine
 10
15180.0
 20
15413.49964168
 30
0.0
 11
15010.0
 21
15243.49961223
 31
0.0
  0
LINE
  5
37E
330
480
100
AcDbEntity
  8
YKK_Z1
  6
Continuous
100
AcDbLine
 10
15180.0
 20
15421.98492526
 30
0.0
 11
15010.0
 21
15251.98489581
 31
0.0
  0
LINE
  5
380
330
480
100
AcDbEntity
  8
YKK_Z1
  6
Continuous
100
AcDbLine
 10
15010.0
 20
15425.0
 30
0.0
 11
15010.0
 21
15125.0
 31
0.0
  0
LINE
  5
381
330
480
100
AcDbEntity
  8
YKK_Z1
  6
Continuous
100
AcDbLine
 10
15110.0
 20
15425.0
 30
0.0
 11
15010.0
 21
15425.0
 31
0.0
  0
LINE
  5
382
330
480
100
AcDbEntity
  8
YKK_Z1
  6
Continuous
100
AcDbLine
 10
15156.56854739
 20
15500.0
 30
0.0
 11
15181.56854306
 21
15525.0
 31
0.0
  0
LINE
  5
383
330
480
100
AcDbEntity
  8
YKK_Z1
  6
Continuous
100
AcDbLine
 10
15220.0
 20
15500.0
 30
0.0
 11
15100.0
 21
15500.0
 31
0.0
  0
LINE
  5
384
330
480
100
AcDbEntity
  8
YKK_Z1
  6
Continuous
100
AcDbLine
 10
15100.0
 20
15525.0
 30
0.0
 11
15220.0
 21
15525.0
 31
0.0
  0
LINE
  5
386
330
480
100
AcDbEntity
  8
YKK_C1
100
AcDbLine
 10
15061.0
 20
15525.0
 30
0.0
 11
15042.0
 21
15525.0
 31
0.0
  0
LINE
  5
387
330
480
100
AcDbEntity
  8
YKK_C1
100
AcDbLine
 10
15055.0
 20
15485.0
 30
0.0
 11
15061.0
 21
15485.0
 31
0.0
  0
LINE
  5
388
330
480
100
AcDbEntity
  8
YKK_C1
100
AcDbLine
 10
15055.0
 20
15490.0
 30
0.0
 11
15055.0
 21
15455.0
 31
0.0
  0
LINE
  5
389
330
480
100
AcDbEntity
  8
YKK_C1
100
AcDbLine
 10
15000.0
 20
15465.0
 30
0.0
 11
15055.0
 21
15465.0
 31
0.0
  0
LINE
  5
38A
330
480
100
AcDbEntity
  8
YKK_C1
100
AcDbLine
 10
15000.0
 20
15490.0
 30
0.0
 11
15000.0
 21
15465.0
 31
0.0
  0
LINE
  5
38B
330
480
100
AcDbEntity
  8
YKK_C1
100
AcDbLine
 10
15100.0
 20
15485.0
 30
0.0
 11
15094.0
 21
15485.0
 31
0.0
  0
LINE
  5
38C
330
480
100
AcDbEntity
  8
YKK_C1
100
AcDbLine
 10
15100.0
 20
15525.0
 30
0.0
 11
15100.0
 21
15485.0
 31
0.0
  0
LINE
  5
38D
330
480
100
AcDbEntity
  8
YKK_C1
100
AcDbLine
 10
15000.0
 20
15490.0
 30
0.0
 11
15000.0
 21
15525.0
 31
0.0
  0
LINE
  5
38E
330
480
100
AcDbEntity
  8
YKK_C1
100
AcDbLine
 10
15061.0
 20
15490.0
 30
0.0
 11
15000.0
 21
15490.0
 31
0.0
  0
LINE
  5
38F
330
480
100
AcDbEntity
  8
YKK_C1
100
AcDbLine
 10
15061.0
 20
15525.0
 30
0.0
 11
15061.0
 21
15490.0
 31
0.0
  0
LINE
  5
390
330
480
100
AcDbEntity
  8
YKK_C1
100
AcDbLine
 10
15100.0
 20
15525.0
 30
0.0
 11
15061.0
 21
15525.0
 31
0.0
  0
LINE
  5
391
330
480
100
AcDbEntity
  8
YKK_Z1
  6
Continuous
100
AcDbLine
 10
15128.2842737
 20
15500.0
 30
0.0
 11
15153.28426937
 21
15525.0
 31
0.0
  0
LINE
  5
392
330
480
100
AcDbEntity
  8
YKK_Z1
  6
Continuous
100
AcDbLine
 10
15100.0
 20
15500.0
 30
0.0
 11
15124.99999567
 21
15525.0
 31
0.0
  0
LINE
  5
393
330
480
100
AcDbEntity
  8
YKK_Z1
  6
Continuous
100
AcDbLine
 10
15100.0
 20
15500.0
 30
0.0
 11
15100.0
 21
15525.0
 31
0.0
  0
LINE
  5
394
330
480
100
AcDbEntity
  8
YKK_Z1
  6
Continuous
100
AcDbLine
 10
15180.0
 20
15450.0
 30
0.0
 11
15120.0
 21
15450.0
 31
0.0
  0
LINE
  5
395
330
480
100
AcDbEntity
  8
YKK_Z1
  6
Continuous
100
AcDbLine
 10
15198.0
 20
15500.0
 30
0.0
 11
15210.0
 21
15500.0
 31
0.0
  0
LINE
  5
396
330
480
100
AcDbEntity
  8
YKK_Z1
  6
Continuous
100
AcDbLine
 10
15213.13709479
 20
15500.0
 30
0.0
 11
15220.0
 21
15506.8629064
 31
0.0
  0
LINE
  5
397
330
480
100
AcDbEntity
  8
YKK_Z1
  6
Continuous
100
AcDbLine
 10
15184.85282109
 20
15500.0
 30
0.0
 11
15209.85281676
 21
15525.0
 31
0.0
  0
LINE
  5
398
330
480
100
AcDbEntity
  8
YKK_Z1
  6
Continuous
100
AcDbLine
 10
15220.0
 20
15525.0
 30
0.0
 11
15220.0
 21
15500.0
 31
0.0
  0
LINE
  5
399
330
480
100
AcDbEntity
  8
YKK_C1
100
AcDbLine
 10
15100.0
 20
16525.0
 30
0.0
 11
15100.0
 21
16425.0
 31
0.0
  0
LINE
  5
39A
330
480
100
AcDbEntity
  8
YKK_C1
100
AcDbLine
 10
15000.0
 20
16449.0
 30
0.0
 11
15000.0
 21
16425.0
 31
0.0
  0
LINE
  5
39B
330
480
100
AcDbEntity
  8
YKK_C1
100
AcDbLine
 10
15061.0
 20
16425.0
 30
0.0
 11
15061.0
 21
16449.0
 31
0.0
  0
TEXT
  5
39C
330
480
100
AcDbEntity
  8
YKK_N1
100
AcDbText
 10
14978.0
 20
16212.0
 30
0.0
 40
60.0
  1
100
 41
0.8
100
AcDbText
1001
ACAD
1000
MTEXTBEGIN
1070
    73
1070
     1
1070
    44
1040
1.0
1070
    74
1070
     0
1000
MTEXTEND
  0
LINE
  5
39D
330
480
100
AcDbEntity
  8
YKK_N1
100
AcDbLine
 10
15100.0
 20
16167.0
 30
0.0
 11
15080.0
 21
16167.0
 31
0.0
  0
CIRCLE
  5
39E
330
480
100
AcDbEntity
  8
YKK_N1
100
AcDbCircle
 10
15100.0
 20
16167.0
 30
0.0
 40
6.5
  0
CIRCLE
  5
39F
330
480
100
AcDbEntity
  8
YKK_N1
100
AcDbCircle
 10
15100.0
 20
16167.0
 30
0.0
 40
10.0
  0
LINE
  5
3A0
330
480
100
AcDbEntity
  8
YKK_N1
100
AcDbLine
 10
15000.0
 20
16167.0
 30
0.0
 11
15020.0
 21
16167.0
 31
0.0
  0
CIRCLE
  5
3A1
330
480
100
AcDbEntity
  8
YKK_N1
100
AcDbCircle
 10
15000.0
 20
16167.0
 30
0.0
 40
6.5
  0
CIRCLE
  5
3A2
330
480
100
AcDbEntity
  8
YKK_N1
100
AcDbCircle
 10
15000.0
 20
16167.0
 30
0.0
 40
10.0
  0
LINE
  5
3A3
330
480
100
AcDbEntity
  8
YKK_N1
100
AcDbLine
 10
15080.0
 20
16167.0
 30
0.0
 11
15020.0
 21
16167.0
 31
0.0
  0
LINE
  5
3A4
330
480
100
AcDbEntity
  8
YKK_N1
100
AcDbLine
 10
15000.0
 20
16217.0
 30
0.0
 11
15000.0
 21
16197.0
 31
0.0
  0
LINE
  5
3A5
330
480
100
AcDbEntity
  8
YKK_N1
100
AcDbLine
 10
15100.0
 20
16217.0
 30
0.0
 11
15100.0
 21
16197.0
 31
0.0
  0
LINE
  5
3A7
330
480
100
AcDbEntity
  8
YKK_C1
100
AcDbLine
 10
15061.0
 20
16425.0
 30
0.0
 11
15042.0
 21
16425.0
 31
0.0
  0
LINE
  5
3A8
330
480
100
AcDbEntity
  8
YKK_C1
100
AcDbLine
 10
15100.0
 20
16425.0
 30
0.0
 11
15061.0
 21
16425.0
 31
0.0
  0
LINE
  5
3A9
330
480
100
AcDbEntity
  8
YKK_C1
100
AcDbLine
 10
15000.0
 20
16490.0
 30
0.0
 11
15000.0
 21
16449.0
 31
0.0
  0
LINE
  5
3AA
330
480
100
AcDbEntity
  8
YKK_C1
100
AcDbLine
 10
15061.0
 20
16449.0
 30
0.0
 11
15000.0
 21
16449.0
 31
0.0
  0
LINE
  5
3AC
330
480
100
AcDbEntity
  8
YKK_C1
100
AcDbLine
 10
15061.0
 20
16525.0
 30
0.0
 11
15042.0
 21
16525.0
 31
0.0
  0
LINE
  5
3AD
330
480
100
AcDbEntity
  8
YKK_C1
100
AcDbLine
 10
15000.0
 20
16490.0
 30
0.0
 11
15000.0
 21
16525.0
 31
0.0
  0
LINE
  5
3AE
330
480
100
AcDbEntity
  8
YKK_C1
100
AcDbLine
 10
15061.0
 20
16490.0
 30
0.0
 11
15000.0
 21
16490.0
 31
0.0
  0
LINE
  5
3AF
330
480
100
AcDbEntity
  8
YKK_C1
100
AcDbLine
 10
15061.0
 20
16525.0
 30
0.0
 11
15061.0
 21
16490.0
 31
0.0
  0
LINE
  5
3B0
330
480
100
AcDbEntity
  8
YKK_C1
100
AcDbLine
 10
15100.0
 20
16525.0
 30
0.0
 11
15061.0
 21
16525.0
 31
0.0
  0
LINE
  5
3B1
330
480
100
AcDbEntity
  8
YKK_N1
100
AcDbLine
 10
15500.0
 20
15545.0
 30
0.0
 11
15500.0
 21
16405.0
 31
0.0
  0
LINE
  5
3B2
330
480
100
AcDbEntity
  8
YKK_N1
  6
CENTER
100
AcDbLine
 10
15600.0
 20
15125.0
 30
0.0
 11
16100.0
 21
15125.0
 31
0.0
  0
LINE
  5
3B3
330
480
100
AcDbEntity
  8
YKK_N1
100
AcDbLine
 10
15700.0
 20
15505.0
 30
0.0
 11
15700.0
 21
15145.0
 31
0.0
  0
LINE
  5
3B4
330
480
100
AcDbEntity
  8
YKK_N1
100
AcDbLine
 10
15700.0
 20
15125.0
 30
0.0
 11
15700.0
 21
15145.0
 31
0.0
  0
CIRCLE
  5
3B5
330
480
100
AcDbEntity
  8
YKK_N1
100
AcDbCircle
 10
15700.0
 20
15125.0
 30
0.0
 40
6.5
  0
CIRCLE
  5
3B6
330
480
100
AcDbEntity
  8
YKK_N1
100
AcDbCircle
 10
15700.0
 20
15125.0
 30
0.0
 40
10.0
  0
TEXT
  5
3B7
330
480
100
AcDbEntity
  8
YKK_N1
100
AcDbText
 10
15690.0
 20
15256.42857143
 30
0.0
 40
60.0
  1
400
 50
90.0
 41
0.8
100
AcDbText
1001
ACAD
1000
MTEXTBEGIN
1070
    73
1070
     1
1070
    44
1040
1.0
1070
    74
1070
     0
1000
MTEXTEND
  0
LINE
  5
3B8
330
480
100
AcDbEntity
  8
YKK_N1
  6
ByBlock
100
AcDbLine
 10
15750.0
 20
15611.60254038
 30
0.0
 11
15650.0
 21
15611.60254038
 31
0.0
  0
LINE
  5
3B9
330
480
100
AcDbEntity
  8
YKK_N1
  6
ByBlock
100
AcDbLine
 10
15700.0
 20
15525.0
 30
0.0
 11
15750.0
 21
15611.60254038
 31
0.0
  0
LINE
  5
3BA
330
480
100
AcDbEntity
  8
YKK_N1
  6
ByBlock
100
AcDbLine
 10
15700.0
 20
15525.0
 30
0.0
 11
15700.0
 21
15505.0
 31
0.0
  0
LINE
  5
3BB
330
480
100
AcDbEntity
  8
YKK_N1
  6
ByBlock
100
AcDbLine
 10
15650.0
 20
15611.60254038
 30
0.0
 11
15700.0
 21
15525.0
 31
0.0
  0
LINE
  5
3BC
330
480
100
AcDbEntity
  8
YKK_N1
  6
ByBlock
100
AcDbLine
 10
15700.0
 20
15525.0
 30
0.0
 11
15700.0
 21
15625.0
 31
0.0
  0
LINE
  5
3BD
330
480
100
AcDbEntity
  8
YKK_N1
100
AcDbLine
 10
15500.0
 20
15525.0
 30
0.0
 11
15500.0
 21
15545.0
 31
0.0
  0
CIRCLE
  5
3BE
330
480
100
AcDbEntity
  8
YKK_N1
100
AcDbCircle
 10
15500.0
 20
15525.0
 30
0.0
 40
6.5
  0
CIRCLE
  5
3BF
330
480
100
AcDbEntity
  8
YKK_N1
100
AcDbCircle
 10
15500.0
 20
15525.0
 30
0.0
 40
10.0
  0
TEXT
  5
3C0
330
480
100
AcDbEntity
  8
YKK_N1
100
AcDbText
 10
15690.0
 20
16327.57142857
 30
0.0
 40
60.0
  1
H=1900
 50
90.0
 41
0.8
100
AcDbText
1001
ACAD
1000
MTEXTBEGIN
1070
    73
1070
     1
1070
    44
1040
1.0
1070
    74
1070
     0
1000
MTEXTEND
  0
TEXT
  5
3C1
330
480
100
AcDbEntity
  8
YKK_N1
100
AcDbText
 10
15597.5
 20
16403.0
 30
0.0
 40
60.0
  1
100
 50
90.0
 41
0.8
100
AcDbText
1001
ACAD
1000
MTEXTBEGIN
1070
    73
1070
     1
1070
    44
1040
1.0
1070
    74
1070
     0
1000
MTEXTEND
  0
LINE
  5
3C2
330
480
100
AcDbEntity
  8
YKK_N1
100
AcDbLine
 10
15500.0
 20
16425.0
 30
0.0
 11
15500.0
 21
16445.0
 31
0.0
  0
CIRCLE
  5
3C3
330
480
100
AcDbEntity
  8
YKK_N1
100
AcDbCircle
 10
15500.0
 20
16425.0
 30
0.0
 40
6.5
  0
CIRCLE
  5
3C4
330
480
100
AcDbEntity
  8
YKK_N1
100
AcDbCircle
 10
15500.0
 20
16425.0
 30
0.0
 40
10.0
  0
LINE
  5
3C5
330
480
100
AcDbEntity
  8
YKK_N1
100
AcDbLine
 10
15500.0
 20
16425.0
 30
0.0
 11
15500.0
 21
16405.0
 31
0.0
  0
CIRCLE
  5
3C6
330
480
100
AcDbEntity
  8
YKK_N1
100
AcDbCircle
 10
15500.0
 20
16425.0
 30
0.0
 40
6.5
  0
CIRCLE
  5
3C7
330
480
100
AcDbEntity
  8
YKK_N1
100
AcDbCircle
 10
15500.0
 20
16425.0
 30
0.0
 40
10.0
  0
LINE
  5
3C8
330
480
100
AcDbEntity
  8
YKK_N1
100
AcDbLine
 10
15500.0
 20
16525.0
 30
0.0
 11
15500.0
 21
16545.0
 31
0.0
  0
CIRCLE
  5
3C9
330
480
100
AcDbEntity
  8
YKK_N1
100
AcDbCircle
 10
15500.0
 20
16525.0
 30
0.0
 40
6.5
  0
CIRCLE
  5
3CA
330
480
100
AcDbEntity
  8
YKK_N1
100
AcDbCircle
 10
15500.0
 20
16525.0
 30
0.0
 40
10.0
  0
LINE
  5
3CB
330
480
100
AcDbEntity
  8
YKK_N1
100
AcDbLine
 10
15500.0
 20
16525.0
 30
0.0
 11
15500.0
 21
16505.0
 31
0.0
  0
CIRCLE
  5
3CC
330
480
100
AcDbEntity
  8
YKK_N1
100
AcDbCircle
 10
15500.0
 20
16525.0
 30
0.0
 40
6.5
  0
CIRCLE
  5
3CD
330
480
100
AcDbEntity
  8
YKK_N1
100
AcDbCircle
 10
15500.0
 20
16525.0
 30
0.0
 40
10.0
  0
LINE
  5
3CE
330
480
100
AcDbEntity
  8
YKK_N1
100
AcDbLine
 10
15500.0
 20
16445.0
 30
0.0
 11
15500.0
 21
16505.0
 31
0.0
  0
LINE
  5
3CF
330
480
100
AcDbEntity
  8
YKK_N1
100
AcDbLine
 10
15160.0
 20
17425.0
 30
0.0
 11
15530.0
 21
17425.0
 31
0.0
  0
LINE
  5
3D0
330
480
100
AcDbEntity
  8
YKK_N1
100
AcDbLine
 10
15160.0
 20
17425.0
 30
0.0
 11
15730.0
 21
17425.0
 31
0.0
  0
LINE
  5
3D1
330
480
100
AcDbEntity
  8
YKK_C1
100
AcDbLine
 10
15055.0
 20
17475.0
 30
0.0
 11
15055.0
 21
17449.0
 31
0.0
  0
LINE
  5
3D2
330
480
100
AcDbEntity
  8
YKK_C1
100
AcDbLine
 10
15000.0
 20
17449.0
 30
0.0
 11
15000.0
 21
17465.0
 31
0.0
  0
LINE
  5
3D3
330
480
100
AcDbEntity
  8
YKK_C1
100
AcDbLine
 10
15100.0
 20
17425.0
 30
0.0
 11
15100.0
 21
17460.0
 31
0.0
  0
LINE
  5
3D4
330
480
100
AcDbEntity
  8
YKK_Z1
  6
Continuous
100
AcDbLine
 10
15213.13709479
 20
17465.0
 30
0.0
 11
15188.1370818
 21
17440.0
 31
0.0
  0
LINE
  5
3D5
330
480
100
AcDbEntity
  8
YKK_Z1
  6
Continuous
100
AcDbLine
 10
15184.85282109
 20
17465.0
 30
0.0
 11
15159.8528081
 21
17440.0
 31
0.0
  0
LINE
  5
3D6
330
480
100
AcDbEntity
  8
YKK_Z1
  6
Continuous
100
AcDbLine
 10
15156.56854739
 20
17465.0
 30
0.0
 11
15131.5685344
 21
17440.0
 31
0.0
  0
LINE
  5
3D7
330
480
100
AcDbEntity
  8
YKK_Z1
  6
Continuous
100
AcDbLine
 10
15128.2842737
 20
17465.0
 30
0.0
 11
15103.28426071
 21
17440.0
 31
0.0
  0
LINE
  5
3D8
330
480
100
AcDbEntity
  8
YKK_Z1
  6
Continuous
100
AcDbLine
 10
15100.0
 20
17465.0
 30
0.0
 11
15100.0
 21
17440.0
 31
0.0
  0
LINE
  5
3D9
330
480
100
AcDbEntity
  8
YKK_Z1
  6
Continuous
100
AcDbLine
 10
15220.0
 20
17440.0
 30
0.0
 11
15220.0
 21
17465.0
 31
0.0
  0
LINE
  5
3DA
330
480
100
AcDbEntity
  8
YKK_Z1
  6
Continuous
100
AcDbLine
 10
15100.0
 20
17440.0
 30
0.0
 11
15220.0
 21
17440.0
 31
0.0
  0
LINE
  5
3DC
330
480
100
AcDbEntity
  8
YKK_C1
100
AcDbLine
 10
15061.0
 20
17425.0
 30
0.0
 11
15042.0
 21
17425.0
 31
0.0
  0
LINE
  5
3DD
330
480
100
AcDbEntity
  8
YKK_C1
100
AcDbLine
 10
15100.0
 20
17449.0
 30
0.0
 11
15061.0
 21
17449.0
 31
0.0
  0
LINE
  5
3DE
330
480
100
AcDbEntity
  8
YKK_C1
100
AcDbLine
 10
15000.0
 20
17449.0
 30
0.0
 11
15000.0
 21
17425.0
 31
0.0
  0
LINE
  5
3DF
330
480
100
AcDbEntity
  8
YKK_C1
100
AcDbLine
 10
15061.0
 20
17449.0
 30
0.0
 11
15000.0
 21
17449.0
 31
0.0
  0
LINE
  5
3E0
330
480
100
AcDbEntity
  8
YKK_C1
100
AcDbLine
 10
15061.0
 20
17425.0
 30
0.0
 11
15061.0
 21
17449.0
 31
0.0
  0
LINE
  5
3E1
330
480
100
AcDbEntity
  8
YKK_C1
100
AcDbLine
 10
15100.0
 20
17425.0
 30
0.0
 11
15061.0
 21
17425.0
 31
0.0
  0
LINE
  5
3E2
330
480
100
AcDbEntity
  8
YKK_Z1
  6
Continuous
100
AcDbLine
 10
15220.0
 20
17443.57864265
 30
0.0
 11
15216.42135549
 21
17440.0
 31
0.0
  0
LINE
  5
3E3
330
480
100
AcDbEntity
  8
YKK_Z1
  6
Continuous
100
AcDbLine
 10
15220.0
 20
17465.0
 30
0.0
 11
15100.0
 21
17465.0
 31
0.0
  0
LINE
  5
3E4
330
480
100
AcDbEntity
  8
YKK_C1
100
AcDbLine
 10
15055.0
 20
17460.0
 30
0.0
 11
15064.0
 21
17460.0
 31
0.0
  0
LINE
  5
3E5
330
480
100
AcDbEntity
  8
YKK_C1
100
AcDbLine
 10
15000.0
 20
17465.0
 30
0.0
 11
15055.0
 21
17465.0
 31
0.0
  0
LINE
  5
3E6
330
480
100
AcDbEntity
  8
YKK_C1
100
AcDbLine
 10
15100.0
 20
17460.0
 30
0.0
 11
15091.0
 21
17460.0
 31
0.0
  0
LINE
  5
3E7
330
480
100
AcDbEntity
  8
YKK_Z1
  6
Continuous
100
AcDbLine
 10
15010.0
 20
17465.0
 30
0.0
 11
15010.0
 21
17485.0
 31
0.0
  0
LINE
  5
3E9
330
480
100
AcDbEntity
  8
YKK_Z1
  6
HIDDEN
100
AcDbLine
 10
15030.0
 20
17825.0
 30
0.0
 11
15030.0
 21
17485.0
 31
0.0
  0
LINE
  5
3EA
330
480
100
AcDbEntity
  8
YKK_Z1
  6
CENTER
100
AcDbLine
 10
15105.0
 20
17485.0
 30
0.0
 11
15105.0
 21
17825.0
 31
0.0
  0
LINE
  5
3EB
330
480
100
AcDbEntity
  8
YKK_Z1
  6
Continuous
100
AcDbLine
 10
15010.0
 20
17626.71582933
 30
0.0
 11
15180.0
 21
17796.715741
 31
0.0
  0
LINE
  5
3EC
330
480
100
AcDbEntity
  8
YKK_Z1
  6
Continuous
100
AcDbLine
 10
15170.46999225
 20
17510.0
 30
0.0
 11
15180.0
 21
17519.5300028
 31
0.0
  0
LINE
  5
3ED
330
480
100
AcDbEntity
  8
YKK_Z1
  6
Continuous
100
AcDbLine
 10
15010.0
 20
17646.51481063
 30
0.0
 11
15180.0
 21
17816.5147223
 31
0.0
  0
LINE
  5
3EE
330
480
100
AcDbEntity
  8
YKK_Z1
  6
Continuous
100
AcDbLine
 10
15161.98471014
 20
17510.0
 30
0.0
 11
15180.0
 21
17528.0152805
 31
0.0
  0
LINE
  5
3EF
330
480
100
AcDbEntity
  8
YKK_Z1
  6
Continuous
100
AcDbLine
 10
15010.0
 20
17655.00008833
 30
0.0
 11
15180.0
 21
17825.0
 31
0.0
  0
LINE
  5
3F0
330
480
100
AcDbEntity
  8
YKK_Z1
  6
Continuous
100
AcDbLine
 10
15010.0
 20
17485.0
 30
0.0
 11
15010.0
 21
17825.0
 31
0.0
  0
LINE
  5
3F1
330
480
100
AcDbEntity
  8
YKK_Z1
  6
Continuous
100
AcDbLine
 10
15060.0
 20
17485.0
 30
0.0
 11
15010.0
 21
17485.0
 31
0.0
  0
LINE
  5
3F2
330
480
100
AcDbEntity
  8
YKK_Z1
  6
Continuous
100
AcDbLine
 10
15070.0
 20
17510.0
 30
0.0
 11
15060.0
 21
17485.0
 31
0.0
  0
LINE
  5
3F3
330
480
100
AcDbEntity
  8
YKK_Z1
  6
Continuous
100
AcDbLine
 10
15180.0
 20
17510.0
 30
0.0
 11
15070.0
 21
17510.0
 31
0.0
  0
LINE
  5
3F4
330
480
100
AcDbEntity
  8
YKK_Z1
  6
Continuous
100
AcDbLine
 10
15180.0
 20
17825.0
 30
0.0
 11
15180.0
 21
17510.0
 31
0.0
  0
LINE
  5
3F5
330
480
100
AcDbEntity
  8
YKK_Z1
  6
Continuous
100
AcDbLine
 10
15198.0
 20
17465.0
 30
0.0
 11
15210.0
 21
17465.0
 31
0.0
  0
LINE
  5
3F6
330
480
100
AcDbEntity
  8
YKK_Z1
  6
Continuous
100
AcDbLine
 10
15198.0
 20
17825.0
 30
0.0
 11
15198.0
 21
17465.0
 31
0.0
  0
LINE
  5
3F7
330
480
100
AcDbEntity
  8
YKK_Z1
  6
Continuous
100
AcDbLine
 10
15210.0
 20
17465.0
 30
0.0
 11
15210.0
 21
17825.0
 31
0.0
  0
LINE
  5
3F8
330
480
100
AcDbEntity
  8
YKK_N1
  6
ByBlock
100
AcDbLine
 10
15750.0
 20
17338.39745962
 30
0.0
 11
15700.0
 21
17425.0
 31
0.0
  0
LINE
  5
3F9
330
480
100
AcDbEntity
  8
YKK_N1
  6
ByBlock
100
AcDbLine
 10
15650.0
 20
17338.39745962
 30
0.0
 11
15750.0
 21
17338.39745962
 31
0.0
  0
LINE
  5
3FA
330
480
100
AcDbEntity
  8
YKK_N1
  6
ByBlock
100
AcDbLine
 10
15700.0
 20
17425.0
 30
0.0
 11
15650.0
 21
17338.39745962
 31
0.0
  0
LINE
  5
3FB
330
480
100
AcDbEntity
  8
YKK_N1
  6
ByBlock
100
AcDbLine
 10
15700.0
 20
17425.0
 30
0.0
 11
15700.0
 21
17325.0
 31
0.0
  0
LINE
  5
3FC
330
480
100
AcDbEntity
  8
YKK_N1
100
AcDbLine
 10
15500.0
 20
17425.0
 30
0.0
 11
15500.0
 21
17405.0
 31
0.0
  0
CIRCLE
  5
3FD
330
480
100
AcDbEntity
  8
YKK_N1
100
AcDbCircle
 10
15500.0
 20
17425.0
 30
0.0
 40
6.5
  0
CIRCLE
  5
3FE
330
480
100
AcDbEntity
  8
YKK_N1
100
AcDbCircle
 10
15500.0
 20
17425.0
 30
0.0
 40
10.0
  0
ENDSEC
  0
SECTION
  2
OBJECTS
  0
DICTIONARY
  5
475
330
0
100
AcDbDictionary
281
     1
  3
ACAD_CIP_PREVIOUS_PRODUCT_INFO
350
53D
  3
ACAD_COLOR
350
4D3
  3
ACAD_DETAILVIEWSTYLE
350
4EC
  3
ACAD_GROUP
350
476
  3
ACAD_LAYOUT
350
4F1
  3
ACAD_MATERIAL
350
4A1
  3
ACAD_MLEADERSTYLE
350
4E8
  3
ACAD_MLINESTYLE
350
483
  3
ACAD_PLOTSETTINGS
350
4F0
  3
ACAD_PLOTSTYLENAME
350
49F
  3
ACAD_SCALELIST
350
4D6
  3
ACAD_SECTIONVIEWSTYLE
350
4EA
  3
ACAD_TABLESTYLE
350
4D4
  3
ACAD_VISUALSTYLE
350
4BA
  3
ACDB_RECOMPOSE_DATA
350
543
  3
ACDBVARIABLEDICTIONARY
350
498
  0
XRECORD
  5
53D
102
{ACAD_REACTORS
330
475
102
}
330
475
100
AcDbXrecord
280
     1
300
ACD
300
2014
300
86063ACD_2014_0F
  0
DICTIONARY
  5
4D3
102
{ACAD_REACTORS
330
475
102
}
330
475
100
AcDbDictionary
281
     1
  0
DICTIONARY
  5
4EC
102
{ACAD_REACTORS
330
475
102
}
330
475
100
AcDbDictionary
281
     1
  3
Imperial24
350
4ED
  0
DICTIONARY
  5
476
102
{ACAD_REACTORS
330
475
102
}
330
475
100
AcDbDictionary
281
     1
  0
DICTIONARY
  5
4F1
102
{ACAD_REACTORS
330
475
102
}
330
475
100
AcDbDictionary
281
     1
  3
Model
350
4F2
  3
レイアウト1
350
4F3
  0
DICTIONARY
  5
4A1
102
{ACAD_REACTORS
330
475
102
}
330
475
100
AcDbDictionary
281
     1
  3
ByBlock
350
4AA
  3
ByLayer
350
4A2
  3
Global
350
4B2
  0
DICTIONARY
  5
4E8
102
{ACAD_REACTORS
330
475
102
}
330
475
100
AcDbDictionary
281
     1
  3
Standard
350
4E9
  0
DICTIONARY
  5
483
102
{ACAD_REACTORS
330
475
102
}
330
475
100
AcDbDictionary
281
     1
  3
STANDARD
350
484
  0
DICTIONARY
  5
4F0
102
{ACAD_REACTORS
330
475
102
}
330
475
100
AcDbDictionary
281
     1
  0
ACDBDICTIONARYWDFLT
  5
49F
102
{ACAD_REACTORS
330
475
102
}
330
475
100
AcDbDictionary
281
     1
  3
Normal
350
4A0
100
AcDbDictionaryWithDefault
340
4A0
  0
DICTIONARY
  5
4D6
102
{ACAD_REACTORS
330
475
102
}
330
475
100
AcDbDictionary
281
     1
  3
A0
350
4D7
  3
A1
350
4D8
  3
A2
350
4D9
  3
A3
350
4DA
  3
A4
350
4DB
  3
A5
350
4DC
  3
A6
350
4DD
  3
A7
350
4DE
  3
A8
350
4DF
  3
A9
350
4E0
  3
B0
350
4E1
  3
B1
350
4E2
  3
B2
350
4E3
  3
B3
350
4E4
  3
B4
350
4E5
  3
B5
350
4E6
  3
B6
350
4E7
  0
DICTIONARY
  5
4EA
102
{ACAD_REACTORS
330
475
102
}
330
475
100
AcDbDictionary
281
     1
  3
Imperial24
350
4EB
  0
DICTIONARY
  5
4D4
102
{ACAD_REACTORS
330
475
102
}
330
475
100
AcDbDictionary
281
     1
  3
Standard
350
4D5
  0
DICTIONARY
  5
4BA
102
{ACAD_REACTORS
330
475
102
}
330
475
100
AcDbDictionary
281
     1
  3
2dWireframe
350
4C0
  3
Basic
350
4BF
  3
Brighten
350
4C6
  3
ColorChange
350
4CA
  3
Conceptual
350
4C3
  3
Dim
350
4C5
  3
EdgeColorOff
350
4D2
  3
Facepattern
350
4C9
  3
Flat
350
4BB
  3
FlatWithEdges
350
4BC
  3
Gouraud
350
4BD
  3
GouraudWithEdges
350
4BE
  3
Hidden
350
4C2
  3
JitterOff
350
4D0
  3
Linepattern
350
4C8
  3
OverhangOff
350
4D1
  3
Realistic
350
4C4
  3
Shaded
350
4CF
  3
Shaded with edges
350
4CE
  3
Shades of Gray
350
4CB
  3
Sketchy
350
4CC
  3
Thicken
350
4C7
  3
Wireframe
350
4C1
  3
X-Ray
350
4CD
  0
XRECORD
  5
543
102
{ACAD_REACTORS
330
475
102
}
330
475
100
AcDbXrecord
280
     1
 90
        1
330
4D5
  0
DICTIONARY
  5
498
102
{ACAD_REACTORS
330
475
102
}
330
475
100
AcDbDictionary
281
     1
  3
CANNOSCALE
350
536
  3
CMLEADERSTYLE
350
533
  3
CTABLESTYLE
350
532
  3
CVIEWDETAILSTYLE
350
534
  3
CVIEWSECTIONSTYLE
350
535
  3
DIMADEC
350
499
  3
XCLIPFRAME
350
541
  0
ACDBDETAILVIEWSTYLE
  5
4ED
102
{ACAD_XDICTIONARY
360
57C
102
}
102
{ACAD_REACTORS
330
4EC
102
}
330
4EC
100
AcDbModelDocViewStyle
 70
     0
  3
Imperial24
290
     0
100
AcDbDetailViewStyle
 70
     0
 71
     0
 90
        3
 71
     1
340
478
 62
   256
 40
0.24
340
0
 62
   256
 40
0.24
300

 40
0.36
280
     3
 71
     2
340
47C
 90
       25
 62
   256
 71
     3
340
478
 62
   256
 40
0.24
 90
        1
 40
0.75
 90
        1
300
%<\AcVar ViewType \f "%tc1">% %<\AcVar ViewDetailId>%\PSCALE %<\AcVar ViewScale \f "%sn">%
 71
     4
340
47C
 90
       25
 62
   256
340
47C
 90
       25
 62
   256
280
     0
  0
LAYOUT
  5
4F2
102
{ACAD_REACTORS
330
4F1
102
}
330
4F1
100
AcDbPlotSettings
  1

  2
C:\ACAD-I\support\plotters\Default Windows System Printer.pc3
  4
A4
  6

 40
3.17499995
 41
3.17499995
 42
3.17500305
 43
3.17498779
 44
209.88865662
 45
297.05300903
 46
0.0
 47
0.0
 48
0.0
 49
0.0
140
0.0
141
0.0
142
1.0
143
3304.77914855
 70
 11952
 72
     0
 73
     1
 74
     0
  7
monochrome.ctb
 75
     0
147
0.00030259
 76
     0
 77
     2
 78
   300
148
87056.29031842
149
2896.39384233
100
AcDbLayout
  1
Model
 70
     1
 71
     0
 10
0.0
 20
0.0
 11
12.0
 21
9.0
 12
0.0
 22
0.0
 32
0.0
 14
0.0
 24
0.0
 34
0.0
 15
0.0
 25
0.0
 35
0.0
146
0.0
 13
0.0
 23
0.0
 33
0.0
 16
1.0
 26
0.0
 36
0.0
 17
0.0
 27
1.0
 37
0.0
 76
     0
330
480
1001
ACAD_PSEXT
1000
C:\ACAD-I\support\plotters\Default Windows System Printer.pc3
1000
Fiery PRO80 65-55C-KM PS3.0jp
1000
IP_10.230.204.212
1000

1070
     0
  0
LAYOUT
  5
4F3
102
{ACAD_REACTORS
330
4F1
102
}
330
4F1
100
AcDbPlotSettings
  1

  2
C:\ACAD-I\support\plotters\Default Windows System Printer.pc3
  4
A4
  6

 40
3.17499995
 41
3.17499995
 42
3.17500305
 43
3.17498779
 44
209.88865662
 45
297.05300903
 46
0.0
 47
0.0
 48
0.0
 49
0.0
140
0.0
141
0.0
142
1.0
143
1.0
 70
 15024
 72
     0
 73
     1
 74
     5
  7
monochrome.ctb
 75
    16
147
1.0
 76
     0
 77
     2
 78
   300
148
0.0
149
0.0
100
AcDbLayout
  1
レイアウト1
 70
     0
 71
     1
 10
0.0
 20
0.0
 11
12.0
 21
9.0
 12
0.0
 22
0.0
 32
0.0
 14
1.00000000E+20
 24
1.00000000E+20
 34
1.00000000E+20
 15
-1.00000000E+20
 25
-1.00000000E+20
 35
-1.00000000E+20
146
0.0
 13
0.0
 23
0.0
 33
0.0
 16
1.0
 26
0.0
 36
0.0
 17
0.0
 27
1.0
 37
0.0
 76
     0
330
47D
1001
ACAD_PSEXT
1000
C:\ACAD-I\support\plotters\Default Windows System Printer.pc3
1000
Fiery PRO80 65-55C-KM PS3.0jp
1000
IP_10.230.204.212
1000

1070
     0
  0
MATERIAL
  5
4AA
102
{ACAD_XDICTIONARY
360
4AB
102
}
102
{ACAD_REACTORS
330
4A1
102
}
330
4A1
100
AcDbMaterial
  1
ByBlock
 72
     0
 43
0.02083333
 43
0.0
 43
0.0
 43
0.0
 43
0.0
 43
0.02083333
 43
0.0
 43
0.0
 43
0.0
 43
0.0
 43
1.0
 43
0.0
 43
0.0
 43
0.0
 43
0.0
 43
1.0
 77
     0
 47
0.02083333
 47
0.0
 47
0.0
 47
0.0
 47
0.0
 47
0.02083333
 47
0.0
 47
0.0
 47
0.0
 47
0.0
 47
1.0
 47
0.0
 47
0.0
 47
0.0
 47
0.0
 47
1.0
171
     0
 49
0.02083333
 49
0.0
 49
0.0
 49
0.0
 49
0.0
 49
0.02083333
 49
0.0
 49
0.0
 49
0.0
 49
0.0
 49
1.0
 49
0.0
 49
0.0
 49
0.0
 49
0.0
 49
1.0
175
     0
142
0.02083333
142
0.0
142
0.0
142
0.0
142
0.0
142
0.02083333
142
0.0
142
0.0
142
0.0
142
0.0
142
1.0
142
0.0
142
0.0
142
0.0
142
0.0
142
1.0
179
     0
144
0.02083333
144
0.0
144
0.0
144
0.0
144
0.0
144
0.02083333
144
0.0
144
0.0
144
0.0
144
0.0
144
1.0
144
0.0
144
0.0
144
0.0
144
0.0
144
1.0
147
0.02083333
147
0.0
147
0.0
147
0.0
147
0.0
147
0.02083333
147
0.0
147
0.0
147
0.0
147
0.0
147
1.0
147
0.0
147
0.0
147
0.0
147
0.0
147
1.0
  0
MATERIAL
  5
4A2
102
{ACAD_XDICTIONARY
360
4A3
102
}
102
{ACAD_REACTORS
330
4A1
102
}
330
4A1
100
AcDbMaterial
  1
ByLayer
 72
     0
 43
0.02083333
 43
0.0
 43
0.0
 43
0.0
 43
0.0
 43
0.02083333
 43
0.0
 43
0.0
 43
0.0
 43
0.0
 43
1.0
 43
0.0
 43
0.0
 43
0.0
 43
0.0
 43
1.0
 77
     0
 47
0.02083333
 47
0.0
 47
0.0
 47
0.0
 47
0.0
 47
0.02083333
 47
0.0
 47
0.0
 47
0.0
 47
0.0
 47
1.0
 47
0.0
 47
0.0
 47
0.0
 47
0.0
 47
1.0
171
     0
 49
0.02083333
 49
0.0
 49
0.0
 49
0.0
 49
0.0
 49
0.02083333
 49
0.0
 49
0.0
 49
0.0
 49
0.0
 49
1.0
 49
0.0
 49
0.0
 49
0.0
 49
0.0
 49
1.0
175
     0
142
0.02083333
142
0.0
142
0.0
142
0.0
142
0.0
142
0.02083333
142
0.0
142
0.0
142
0.0
142
0.0
142
1.0
142
0.0
142
0.0
142
0.0
142
0.0
142
1.0
179
     0
144
0.02083333
144
0.0
144
0.0
144
0.0
144
0.0
144
0.02083333
144
0.0
144
0.0
144
0.0
144
0.0
144
1.0
144
0.0
144
0.0
144
0.0
144
0.0
144
1.0
147
0.02083333
147
0.0
147
0.0
147
0.0
147
0.0
147
0.02083333
147
0.0
147
0.0
147
0.0
147
0.0
147
1.0
147
0.0
147
0.0
147
0.0
147
0.0
147
1.0
  0
MATERIAL
  5
4B2
102
{ACAD_XDICTIONARY
360
4B3
102
}
102
{ACAD_REACTORS
330
4A1
102
}
330
4A1
100
AcDbMaterial
  1
Global
 72
     0
 43
0.02083333
 43
0.0
 43
0.0
 43
0.0
 43
0.0
 43
0.02083333
 43
0.0
 43
0.0
 43
0.0
 43
0.0
 43
1.0
 43
0.0
 43
0.0
 43
0.0
 43
0.0
 43
1.0
 77
     0
 47
0.02083333
 47
0.0
 47
0.0
 47
0.0
 47
0.0
 47
0.02083333
 47
0.0
 47
0.0
 47
0.0
 47
0.0
 47
1.0
 47
0.0
 47
0.0
 47
0.0
 47
0.0
 47
1.0
171
     0
 49
0.02083333
 49
0.0
 49
0.0
 49
0.0
 49
0.0
 49
0.02083333
 49
0.0
 49
0.0
 49
0.0
 49
0.0
 49
1.0
 49
0.0
 49
0.0
 49
0.0
 49
0.0
 49
1.0
175
     0
142
0.02083333
142
0.0
142
0.0
142
0.0
142
0.0
142
0.02083333
142
0.0
142
0.0
142
0.0
142
0.0
142
1.0
142
0.0
142
0.0
142
0.0
142
0.0
142
1.0
179
     0
144
0.02083333
144
0.0
144
0.0
144
0.0
144
0.0
144
0.02083333
144
0.0
144
0.0
144
0.0
144
0.0
144
1.0
144
0.0
144
0.0
144
0.0
144
0.0
144
1.0
147
0.02083333
147
0.0
147
0.0
147
0.0
147
0.0
147
0.02083333
147
0.0
147
0.0
147
0.0
147
0.0
147
1.0
147
0.0
147
0.0
147
0.0
147
0.0
147
1.0
  0
MLEADERSTYLE
  5
4E9
102
{ACAD_XDICTIONARY
360
578
102
}
102
{ACAD_REACTORS
330
4E8
102
}
330
4E8
100
AcDbMLeaderStyle
170
     2
171
     1
172
     0
 90
        2
 40
0.0
 41
0.0
173
     1
 91
-1056964608
340
47A
 92
       -2
290
     1
 42
0.09
291
     1
 43
0.36
  3
Standard
 44
0.18
300

342
478
174
     1
178
     6
175
     1
176
     0
 93
-1056964608
 45
0.18
292
     0
297
     0
 46
0.18
 94
-1056964608
 47
1.0
 49
1.0
140
1.0
293
     1
141
0.0
294
     1
177
     0
142
1.0
295
     0
296
     0
143
0.125
1001
ACAD_MLEADERVER
1070
     2
  0
MLINESTYLE
  5
484
102
{ACAD_REACTORS
330
483
102
}
330
483
100
AcDbMlineStyle
  2
STANDARD
 70
     0
  3

 62
   256
 51
90.0
 52
90.0
 71
     2
 49
0.5
 62
   256
  6
BYLAYER
 49
-0.5
 62
   256
  6
BYLAYER
  0
ACDBPLACEHOLDER
  5
4A0
102
{ACAD_REACTORS
330
49F
102
}
330
49F
  0
SCALE
  5
4D7
102
{ACAD_REACTORS
330
4D6
102
}
330
4D6
100
AcDbScale
 70
     0
300
1:1
140
1.0
141
1.0
290
     1
  0
SCALE
  5
4D8
102
{ACAD_REACTORS
330
4D6
102
}
330
4D6
100
AcDbScale
 70
     0
300
1/128" = 1'-0"
140
0.0078125
141
12.0
290
     0
  0
SCALE
  5
4D9
102
{ACAD_REACTORS
330
4D6
102
}
330
4D6
100
AcDbScale
 70
     0
300
1/64" = 1'-0"
140
0.015625
141
12.0
290
     0
  0
SCALE
  5
4DA
102
{ACAD_REACTORS
330
4D6
102
}
330
4D6
100
AcDbScale
 70
     0
300
1/32" = 1'-0"
140
0.03125
141
12.0
290
     0
  0
SCALE
  5
4DB
102
{ACAD_REACTORS
330
4D6
102
}
330
4D6
100
AcDbScale
 70
     0
300
1/16" = 1'-0"
140
0.0625
141
12.0
290
     0
  0
SCALE
  5
4DC
102
{ACAD_REACTORS
330
4D6
102
}
330
4D6
100
AcDbScale
 70
     0
300
3/32" = 1'-0"
140
0.09375
141
12.0
290
     0
  0
SCALE
  5
4DD
102
{ACAD_REACTORS
330
4D6
102
}
330
4D6
100
AcDbScale
 70
     0
300
1/8" = 1'-0"
140
0.125
141
12.0
290
     0
  0
SCALE
  5
4DE
102
{ACAD_REACTORS
330
4D6
102
}
330
4D6
100
AcDbScale
 70
     0
300
3/16" = 1'-0"
140
0.1875
141
12.0
290
     0
  0
SCALE
  5
4DF
102
{ACAD_REACTORS
330
4D6
102
}
330
4D6
100
AcDbScale
 70
     0
300
1/4" = 1'-0"
140
0.25
141
12.0
290
     0
  0
SCALE
  5
4E0
102
{ACAD_REACTORS
330
4D6
102
}
330
4D6
100
AcDbScale
 70
     0
300
3/8" = 1'-0"
140
0.375
141
12.0
290
     0
  0
SCALE
  5
4E1
102
{ACAD_REACTORS
330
4D6
102
}
330
4D6
100
AcDbScale
 70
     0
300
1/2" = 1'-0"
140
0.5
141
12.0
290
     0
  0
SCALE
  5
4E2
102
{ACAD_REACTORS
330
4D6
102
}
330
4D6
100
AcDbScale
 70
     0
300
3/4" = 1'-0"
140
0.75
141
12.0
290
     0
  0
SCALE
  5
4E3
102
{ACAD_REACTORS
330
4D6
102
}
330
4D6
100
AcDbScale
 70
     0
300
1" = 1'-0"
140
1.0
141
12.0
290
     0
  0
SCALE
  5
4E4
102
{ACAD_REACTORS
330
4D6
102
}
330
4D6
100
AcDbScale
 70
     0
300
1-1/2" = 1'-0"
140
1.5
141
12.0
290
     0
  0
SCALE
  5
4E5
102
{ACAD_REACTORS
330
4D6
102
}
330
4D6
100
AcDbScale
 70
     0
300
3" = 1'-0"
140
3.0
141
12.0
290
     0
  0
SCALE
  5
4E6
102
{ACAD_REACTORS
330
4D6
102
}
330
4D6
100
AcDbScale
 70
     0
300
6" = 1'-0"
140
6.0
141
12.0
290
     0
  0
SCALE
  5
4E7
102
{ACAD_REACTORS
330
4D6
102
}
330
4D6
100
AcDbScale
 70
     0
300
1'-0" = 1'-0"
140
12.0
141
12.0
290
     0
  0
ACDBSECTIONVIEWSTYLE
  5
4EB
102
{ACAD_XDICTIONARY
360
57A
102
}
102
{ACAD_REACTORS
330
4EA
102
}
330
4EA
100
AcDbModelDocViewStyle
 70
     0
  3
Imperial24
290
     0
100
AcDbSectionViewStyle
 70
     0
 71
     0
 90
      102
 71
     1
340
478
 62
   256
 40
5.0
340
0
340
0
 62
   256
 40
5.0
300
I, O, Q, S, X, Z
 40
10.0
 90
        0
 40
2.5
 90
        0
 71
     2
340
47C
 90
       25
 62
   256
340
47C
 90
       50
 62
   256
 40
5.0
 40
2.5
 40
5.0
 71
     3
340
478
 62
   256
 40
5.0
 90
        0
 40
15.0
 90
        1
300
%<\AcVar ViewSectionStartId>%-%<\AcVar ViewSectionEndId>% (%<\AcVar ViewScale \f "%sn">%)
 71
     4
 62
   256
 62
   257
300
ANSI31
 40
1.0
 90
        0
290
     0
290
     0
 90
        6
 40
0.0
 40
1.57079633
 40
0.26179939
 40
1.30899694
 40
-0.26179939
 40
1.83259571
  0
TABLESTYLE
  5
4D5
102
{ACAD_XDICTIONARY
360
4F4
102
}
102
{ACAD_REACTORS
330
4D4
102
}
330
4D4
100
AcDbTableStyle
  3
Standard
 70
     0
 71
     0
 40
0.06
 41
0.06
280
     0
281
     0
  7
STANDARD
140
0.18
170
     2
 62
     0
 63
     7
283
     0
274
    -2
284
     1
 64
     0
275
    -2
285
     1
 65
     0
276
    -2
286
     1
 66
     0
277
    -2
287
     1
 67
     0
278
    -2
288
     1
 68
     0
279
    -2
289
     1
 69
     0
  7
STANDARD
140
0.25
170
     5
 62
     0
 63
     7
283
     0
274
    -2
284
     1
 64
     0
275
    -2
285
     1
 65
     0
276
    -2
286
     1
 66
     0
277
    -2
287
     1
 67
     0
278
    -2
288
     1
 68
     0
279
    -2
289
     1
 69
     0
  7
STANDARD
140
0.18
170
     5
 62
     0
 63
     7
283
     0
274
    -2
284
     1
 64
     0
275
    -2
285
     1
 65
     0
276
    -2
286
     1
 66
     0
277
    -2
287
     1
 67
     0
278
    -2
288
     1
 68
     0
279
    -2
289
     1
 69
     0
  0
VISUALSTYLE
  5
4C0
102
{ACAD_XDICTIONARY
360
551
102
}
102
{ACAD_REACTORS
330
4BA
102
}
330
4BA
100
AcDbVisualStyle
  2
2dWireframe
 70
     4
 71
     0
 72
     2
 73
     0
 90
        0
 40
-0.6
 41
-30.0
 62
     5
 63
     7
421
 16777215
 74
     1
 91
        4
 64
     7
 65
   257
 75
     1
175
     1
 42
1.0
 92
        0
 66
   257
 43
1.0
 76
     1
 77
     6
 78
     2
 67
     7
 79
     5
170
     0
171
     0
290
     0
174
     0
 93
        1
 44
0.0
173
     0
291
     0
 45
0.0
1001
ACAD
1000
AcDbSavedByObjectVersion
1070
     0
  0
VISUALSTYLE
  5
4BF
102
{ACAD_XDICTIONARY
360
54F
102
}
102
{ACAD_REACTORS
330
4BA
102
}
330
4BA
100
AcDbVisualStyle
  2
Basic
 70
     7
 71
     1
 72
     0
 73
     1
 90
        0
 40
-0.6
 41
-30.0
 62
     5
 63
     7
421
 16777215
 74
     0
 91
        4
 64
     7
 65
   257
 75
     1
175
     1
 42
1.0
 92
        8
 66
     7
 43
1.0
 76
     1
 77
     6
 78
     2
 67
     7
 79
     5
170
     0
171
     0
290
     0
174
     0
 93
        1
 44
0.0
173
     0
291
     1
 45
0.0
1001
ACAD
1000
AcDbSavedByObjectVersion
1070
     0
  0
VISUALSTYLE
  5
4C6
102
{ACAD_XDICTIONARY
360
55D
102
}
102
{ACAD_REACTORS
330
4BA
102
}
330
4BA
100
AcDbVisualStyle
  2
Brighten
 70
    12
 71
     2
 72
     2
 73
     0
 90
        0
 40
-0.6
 41
-30.0
 62
     5
 63
     7
421
 16777215
 74
     1
 91
        4
 64
     7
 65
   257
 75
     1
175
     1
 42
1.0
 92
        8
 66
     7
 43
1.0
 76
     1
 77
     6
 78
     2
 67
     7
 79
     5
170
     0
171
     0
290
     0
174
     0
 93
        1
 44
50.0
173
     0
291
     1
 45
0.0
1001
ACAD
1000
AcDbSavedByObjectVersion
1070
     0
  0
VISUALSTYLE
  5
4CA
102
{ACAD_XDICTIONARY
360
565
102
}
102
{ACAD_REACTORS
330
4BA
102
}
330
4BA
100
AcDbVisualStyle
  2
ColorChange
 70
    16
 71
     2
 72
     2
 73
     3
 90
        0
 40
-0.6
 41
-30.0
 62
     5
 63
     8
421
  8421504
 74
     1
 91
        4
 64
     7
 65
   257
 75
     1
175
     1
 42
1.0
 92
        8
 66
     8
424
  8421504
 43
1.0
 76
     1
 77
     6
 78
     2
 67
     7
 79
     5
170
     0
171
     0
290
     0
174
     0
 93
        1
 44
0.0
173
     0
291
     1
 45
0.0
1001
ACAD
1000
AcDbSavedByObjectVersion
1070
     0
  0
VISUALSTYLE
  5
4C3
102
{ACAD_XDICTIONARY
360
557
102
}
102
{ACAD_REACTORS
330
4BA
102
}
330
4BA
100
AcDbVisualStyle
  2
Conceptual
 70
     9
 71
     3
 72
     2
 73
     0
 90
        0
 40
-0.6
 41
-30.0
 62
     5
 63
     7
421
 16777215
 74
     2
 91
        2
 64
     7
 65
   257
 75
     1
175
     1
 42
179.0
 92
        8
 66
     7
 43
1.0
 76
     1
 77
     6
 78
     2
 67
     7
 79
     3
170
     0
171
     0
290
     0
174
     0
 93
        1
 44
0.0
173
     0
291
     0
 45
0.0
1001
ACAD
1000
AcDbSavedByObjectVersion
1070
     0
  0
VISUALSTYLE
  5
4C5
102
{ACAD_XDICTIONARY
360
55B
102
}
102
{ACAD_REACTORS
330
4BA
102
}
330
4BA
100
AcDbVisualStyle
  2
Dim
 70
    11
 71
     2
 72
     2
 73
     0
 90
        0
 40
-0.6
 41
-30.0
 62
     5
 63
     7
421
 16777215
 74
     1
 91
        4
 64
     7
 65
   257
 75
     1
175
     1
 42
1.0
 92
        8
 66
     7
 43
1.0
 76
     1
 77
     6
 78
     2
 67
     7
 79
     5
170
     0
171
     0
290
     0
174
     0
 93
        1
 44
-50.0
173
     0
291
     1
 45
0.0
1001
ACAD
1000
AcDbSavedByObjectVersion
1070
     0
  0
VISUALSTYLE
  5
4D2
102
{ACAD_XDICTIONARY
360
575
102
}
102
{ACAD_REACTORS
330
4BA
102
}
330
4BA
100
AcDbVisualStyle
  2
EdgeColorOff
 70
    22
 71
     2
 72
     2
 73
     0
 90
        0
 40
-0.6
 41
-30.0
 62
     5
 63
     7
421
 16777215
 74
     1
 91
        4
 64
     7
 65
   257
 75
     1
175
     1
 42
1.0
 92
        8
 66
     7
 43
1.0
 76
     1
 77
     6
 78
     2
 67
     7
 79
     5
170
     0
171
     0
290
     0
174
     0
 93
        1
 44
0.0
173
     0
291
     1
 45
0.0
1001
ACAD
1000
AcDbSavedByObjectVersion
1070
     0
  0
VISUALSTYLE
  5
4C9
102
{ACAD_XDICTIONARY
360
563
102
}
102
{ACAD_REACTORS
330
4BA
102
}
330
4BA
100
AcDbVisualStyle
  2
Facepattern
 70
    15
 71
     2
 72
     2
 73
     0
 90
        0
 40
-0.6
 41
-30.0
 62
     5
 63
     7
421
 16777215
 74
     1
 91
        4
 64
     7
 65
   257
 75
     1
175
     1
 42
1.0
 92
        8
 66
     7
 43
1.0
 76
     1
 77
     6
 78
     2
 67
     7
 79
     5
170
     0
171
     0
290
     0
174
     0
 93
        1
 44
0.0
173
     0
291
     1
 45
0.0
1001
ACAD
1000
AcDbSavedByObjectVersion
1070
     0
  0
VISUALSTYLE
  5
4BB
102
{ACAD_XDICTIONARY
360
547
102
}
102
{ACAD_REACTORS
330
4BA
102
}
330
4BA
100
AcDbVisualStyle
  2
Flat
 70
     0
 71
     2
 72
     1
 73
     1
 90
        2
 40
-0.6
 41
30.0
 62
     5
 63
     7
421
 16777215
 74
     0
 91
        0
 64
     7
 65
   257
 75
     1
175
     1
 42
1.0
 92
        8
 66
     7
 43
1.0
 76
     1
 77
     6
 78
     2
 67
     7
 79
     5
170
     0
171
     0
290
     0
174
     0
 93
       13
 44
0.0
173
     0
291
     1
 45
0.0
1001
ACAD
1000
AcDbSavedByObjectVersion
1070
     0
  0
VISUALSTYLE
  5
4BC
102
{ACAD_XDICTIONARY
360
549
102
}
102
{ACAD_REACTORS
330
4BA
102
}
330
4BA
100
AcDbVisualStyle
  2
FlatWithEdges
 70
     1
 71
     2
 72
     1
 73
     1
 90
        2
 40
-0.6
 41
30.0
 62
     5
 63
     7
421
 16777215
 74
     1
 91
        0
 64
     7
 65
   257
 75
     1
175
     1
 42
1.0
 92
        0
 66
   257
 43
1.0
 76
     1
 77
     6
 78
     2
 67
     7
 79
     5
170
     0
171
     0
290
     0
174
     0
 93
       13
 44
0.0
173
     0
291
     1
 45
0.0
1001
ACAD
1000
AcDbSavedByObjectVersion
1070
     0
  0
VISUALSTYLE
  5
4BD
102
{ACAD_XDICTIONARY
360
54B
102
}
102
{ACAD_REACTORS
330
4BA
102
}
330
4BA
100
AcDbVisualStyle
  2
Gouraud
 70
     2
 71
     2
 72
     2
 73
     1
 90
        2
 40
-0.6
 41
30.0
 62
     5
 63
     7
421
 16777215
 74
     0
 91
        0
 64
     7
 65
   257
 75
     1
175
     1
 42
1.0
 92
        0
 66
     7
 43
1.0
 76
     1
 77
     6
 78
     2
 67
     7
 79
     5
170
     0
171
     0
290
     0
174
     0
 93
       13
 44
0.0
173
     0
291
     1
 45
0.0
1001
ACAD
1000
AcDbSavedByObjectVersion
1070
     0
  0
VISUALSTYLE
  5
4BE
102
{ACAD_XDICTIONARY
360
54D
102
}
102
{ACAD_REACTORS
330
4BA
102
}
330
4BA
100
AcDbVisualStyle
  2
GouraudWithEdges
 70
     3
 71
     2
 72
     2
 73
     1
 90
        2
 40
-0.6
 41
30.0
 62
     5
 63
     7
421
 16777215
 74
     1
 91
        0
 64
     7
 65
   257
 75
     1
175
     1
 42
1.0
 92
        0
 66
   257
 43
1.0
 76
     1
 77
     6
 78
     2
 67
     7
 79
     5
170
     0
171
     0
290
     0
174
     0
 93
       13
 44
0.0
173
     0
291
     1
 45
0.0
1001
ACAD
1000
AcDbSavedByObjectVersion
1070
     0
  0
VISUALSTYLE
  5
4C2
102
{ACAD_XDICTIONARY
360
555
102
}
102
{ACAD_REACTORS
330
4BA
102
}
330
4BA
100
AcDbVisualStyle
  2
Hidden
 70
     6
 71
     1
 72
     2
 73
     2
 90
        0
 40
-0.6
 41
-30.0
 62
     5
 63
     7
421
 16777215
 74
     2
 91
        2
 64
     7
 65
   257
 75
     2
175
     1
 42
40.0
 92
        0
 66
   257
 43
1.0
 76
     1
 77
     6
 78
     2
 67
     7
 79
     3
170
     0
171
     0
290
     0
174
     0
 93
        1
 44
0.0
173
     0
291
     0
 45
0.0
1001
ACAD
1000
AcDbSavedByObjectVersion
1070
     0
  0
VISUALSTYLE
  5
4D0
102
{ACAD_XDICTIONARY
360
571
102
}
102
{ACAD_REACTORS
330
4BA
102
}
330
4BA
100
AcDbVisualStyle
  2
JitterOff
 70
    20
 71
     2
 72
     2
 73
     0
 90
        0
 40
-0.6
 41
-30.0
 62
     5
 63
     7
421
 16777215
 74
     1
 91
        4
 64
     7
 65
   257
 75
     1
175
     1
 42
1.0
 92
       10
 66
     7
 43
1.0
 76
     1
 77
     6
 78
     2
 67
     7
 79
     5
170
     0
171
     0
290
     0
174
     0
 93
        1
 44
0.0
173
     0
291
     1
 45
0.0
1001
ACAD
1000
AcDbSavedByObjectVersion
1070
     0
  0
VISUALSTYLE
  5
4C8
102
{ACAD_XDICTIONARY
360
561
102
}
102
{ACAD_REACTORS
330
4BA
102
}
330
4BA
100
AcDbVisualStyle
  2
Linepattern
 70
    14
 71
     2
 72
     2
 73
     0
 90
        0
 40
-0.6
 41
-30.0
 62
     5
 63
     7
421
 16777215
 74
     1
 91
        4
 64
     7
 65
   257
 75
     7
175
     7
 42
1.0
 92
        8
 66
     7
 43
1.0
 76
     1
 77
     6
 78
     2
 67
     7
 79
     5
170
     0
171
     0
290
     0
174
     0
 93
        1
 44
0.0
173
     0
291
     1
 45
0.0
1001
ACAD
1000
AcDbSavedByObjectVersion
1070
     0
  0
VISUALSTYLE
  5
4D1
102
{ACAD_XDICTIONARY
360
573
102
}
102
{ACAD_REACTORS
330
4BA
102
}
330
4BA
100
AcDbVisualStyle
  2
OverhangOff
 70
    21
 71
     2
 72
     2
 73
     0
 90
        0
 40
-0.6
 41
-30.0
 62
     5
 63
     7
421
 16777215
 74
     1
 91
        4
 64
     7
 65
   257
 75
     1
175
     1
 42
1.0
 92
        9
 66
     7
 43
1.0
 76
     1
 77
     6
 78
     2
 67
     7
 79
     5
170
     0
171
     0
290
     0
174
     0
 93
        1
 44
0.0
173
     0
291
     1
 45
0.0
1001
ACAD
1000
AcDbSavedByObjectVersion
1070
     0
  0
VISUALSTYLE
  5
4C4
102
{ACAD_XDICTIONARY
360
559
102
}
102
{ACAD_REACTORS
330
4BA
102
}
330
4BA
100
AcDbVisualStyle
  2
Realistic
 70
     8
 71
     2
 72
     2
 73
     0
 90
        2
 40
-0.6
 41
30.0
 62
     5
 63
     7
421
 16777215
 74
     0
 91
        0
 64
     7
 65
   257
 75
     1
175
     1
 42
1.0
 92
        8
 66
   257
 43
1.0
 76
     1
 77
     6
 78
     2
 67
     7
 79
     3
170
     0
171
     0
290
     0
174
     0
 93
       13
 44
0.0
173
     0
291
     0
 45
0.0
1001
ACAD
1000
AcDbSavedByObjectVersion
1070
     0
  0
VISUALSTYLE
  5
4CF
102
{ACAD_XDICTIONARY
360
56F
102
}
102
{ACAD_REACTORS
330
4BA
102
}
330
4BA
100
AcDbVisualStyle
  2
Shaded
 70
    27
 71
     2
 72
     2
 73
     1
 90
        2
 40
-0.6
 41
30.0
 62
     5
 63
     7
421
 16777215
 74
     0
 91
        4
 64
     7
 65
   257
 75
     1
175
     1
 42
1.0
 92
        8
 66
   257
 43
1.0
 76
     1
 77
     6
 78
     2
 67
     8
425
  7895160
 79
     3
170
     0
171
     0
290
     0
174
     0
 93
        5
 44
0.0
173
     0
291
     0
 45
0.0
1001
ACAD
1000
AcDbSavedByObjectVersion
1070
     0
  0
VISUALSTYLE
  5
4CE
102
{ACAD_XDICTIONARY
360
56D
102
}
102
{ACAD_REACTORS
330
4BA
102
}
330
4BA
100
AcDbVisualStyle
  2
Shaded with edges
 70
    26
 71
     2
 72
     2
 73
     1
 90
        2
 40
-0.6
 41
30.0
 62
     5
 63
     7
421
 16777215
 74
     1
 91
       10
 64
     7
 65
   257
 75
     2
175
     1
 42
1.0
 92
        8
 66
   257
 43
1.0
 76
     1
 77
     6
 78
     2
 67
     7
 79
     3
170
     0
171
     0
290
     0
174
     0
 93
        5
 44
0.0
173
     0
291
     0
 45
0.0
1001
ACAD
1000
AcDbSavedByObjectVersion
1070
     0
  0
VISUALSTYLE
  5
4CB
102
{ACAD_XDICTIONARY
360
567
102
}
102
{ACAD_REACTORS
330
4BA
102
}
330
4BA
100
AcDbVisualStyle
  2
Shades of Gray
 70
    23
 71
     2
 72
     2
 73
     3
 90
        0
 40
-0.6
 41
-30.0
 62
     5
 63
     7
421
 16777215
 74
     2
 91
        2
 64
     7
 65
     7
 75
     1
175
     1
 42
40.0
 92
        8
 66
     7
 43
1.0
 76
     1
 77
     6
 78
     2
 67
     7
 79
     3
170
     0
171
     0
290
     0
174
     0
 93
        1
 44
0.0
173
     0
291
     0
 45
0.0
1001
ACAD
1000
AcDbSavedByObjectVersion
1070
     0
  0
VISUALSTYLE
  5
4CC
102
{ACAD_XDICTIONARY
360
569
102
}
102
{ACAD_REACTORS
330
4BA
102
}
330
4BA
100
AcDbVisualStyle
  2
Sketchy
 70
    24
 71
     1
 72
     2
 73
     2
 90
        0
 40
-0.6
 41
-30.0
 62
     5
 63
     7
421
 16777215
 74
     2
 91
        2
 64
     7
 65
     7
 75
     1
175
     1
 42
40.0
 92
       11
 66
     7
 43
1.0
 76
     1
 77
     6
 78
     2
 67
     7
 79
     6
170
     0
171
     0
290
     0
174
     0
 93
        1
 44
0.0
173
     0
291
     0
 45
0.0
1001
ACAD
1000
AcDbSavedByObjectVersion
1070
     0
  0
VISUALSTYLE
  5
4C7
102
{ACAD_XDICTIONARY
360
55F
102
}
102
{ACAD_REACTORS
330
4BA
102
}
330
4BA
100
AcDbVisualStyle
  2
Thicken
 70
    13
 71
     2
 72
     2
 73
     0
 90
        0
 40
-0.6
 41
-30.0
 62
     5
 63
     7
421
 16777215
 74
     1
 91
        4
 64
     7
 65
   257
 75
     1
175
     1
 42
1.0
 92
       12
 66
     7
 43
1.0
 76
     1
 77
     6
 78
     2
 67
     7
 79
     5
170
     0
171
     0
290
     0
174
     0
 93
        1
 44
0.0
173
     0
291
     1
 45
0.0
1001
ACAD
1000
AcDbSavedByObjectVersion
1070
     0
  0
VISUALSTYLE
  5
4C1
102
{ACAD_XDICTIONARY
360
553
102
}
102
{ACAD_REACTORS
330
4BA
102
}
330
4BA
100
AcDbVisualStyle
  2
Wireframe
 70
     5
 71
     0
 72
     2
 73
     0
 90
        0
 40
-0.6
 41
-30.0
 62
     5
 63
     7
421
 16777215
 74
     1
 91
        4
 64
     7
 65
   257
 75
     1
175
     1
 42
1.0
 92
        0
 66
   257
 43
1.0
 76
     1
 77
     6
 78
     2
 67
     7
 79
     3
170
     0
171
     0
290
     0
174
     0
 93
        1
 44
0.0
173
     0
291
     0
 45
0.0
1001
ACAD
1000
AcDbSavedByObjectVersion
1070
     0
  0
VISUALSTYLE
  5
4CD
102
{ACAD_XDICTIONARY
360
56B
102
}
102
{ACAD_REACTORS
330
4BA
102
}
330
4BA
100
AcDbVisualStyle
  2
X-Ray
 70
    25
 71
     2
 72
     2
 73
     1
 90
        1
 40
0.5
 41
-30.0
 62
     5
 63
     7
421
 16777215
 74
     1
 91
        0
 64
     7
 65
   257
 75
     1
175
     1
 42
1.0
 92
        8
 66
     7
 43
1.0
 76
     1
 77
     6
 78
     2
 67
     7
 79
     3
170
     0
171
     0
290
     0
174
     0
 93
       13
 44
0.0
173
     0
291
     0
 45
0.0
1001
ACAD
1000
AcDbSavedByObjectVersion
1070
     0
  0
DICTIONARYVAR
  5
536
102
{ACAD_REACTORS
330
498
102
}
330
498
100
DictionaryVariables
280
     0
  1
1:1
  0
DICTIONARYVAR
  5
533
102
{ACAD_REACTORS
330
498
102
}
330
498
100
DictionaryVariables
280
     0
  1
STANDARD
  0
DICTIONARYVAR
  5
532
102
{ACAD_REACTORS
330
498
102
}
330
498
100
DictionaryVariables
280
     0
  1
STANDARD
  0
DICTIONARYVAR
  5
534
102
{ACAD_REACTORS
330
498
102
}
330
498
100
DictionaryVariables
280
     0
  1
Imperial24
  0
DICTIONARYVAR
  5
535
102
{ACAD_REACTORS
330
498
102
}
330
498
100
DictionaryVariables
280
     0
  1
Imperial24
  0
DICTIONARYVAR
  5
499
102
{ACAD_REACTORS
330
498
102
}
330
498
100
DictionaryVariables
280
     0
  1
0
  0
DICTIONARYVAR
  5
541
102
{ACAD_REACTORS
330
498
102
}
330
498
100
DictionaryVariables
280
     0
  1
2
  0
DICTIONARY
  5
57C
330
4ED
100
AcDbDictionary
280
     1
281
     1
  3
ACAD_XREC_ROUNDTRIP
360
57D
  0
DICTIONARY
  5
4AB
330
4AA
100
AcDbDictionary
280
     1
281
     1
  3
ACAD_XREC_ROUNDTRIP
360
545
  3
BUMPTILE
360
4AD
  3
DIFFUSETILE
360
4AC
  3
OPACITYTILE
360
4B0
  3
REFLECTIONTILE
360
4AF
  3
REFRACTIONTILE
360
4B1
  3
SPECULARTILE
360
4AE
  0
DICTIONARY
  5
4A3
330
4A2
100
AcDbDictionary
280
     1
281
     1
  3
ACAD_XREC_ROUNDTRIP
360
544
  3
BUMPTILE
360
4A5
  3
DIFFUSETILE
360
4A4
  3
OPACITYTILE
360
4A8
  3
REFLECTIONTILE
360
4A7
  3
REFRACTIONTILE
360
4A9
  3
SPECULARTILE
360
4A6
  0
DICTIONARY
  5
4B3
330
4B2
100
AcDbDictionary
280
     1
281
     1
  3
ACAD_XREC_ROUNDTRIP
360
546
  3
BUMPTILE
360
4B5
  3
DIFFUSETILE
360
4B4
  3
OPACITYTILE
360
4B8
  3
REFLECTIONTILE
360
4B7
  3
REFRACTIONTILE
360
4B9
  3
SPECULARTILE
360
4B6
  0
DICTIONARY
  5
578
330
4E9
100
AcDbDictionary
280
     1
281
     1
  3
ACAD_XREC_ROUNDTRIP
360
579
  0
DICTIONARY
  5
57A
330
4EB
100
AcDbDictionary
280
     1
281
     1
  3
ACAD_XREC_ROUNDTRIP
360
57B
  0
DICTIONARY
  5
4F4
330
4D5
100
AcDbDictionary
280
     1
281
     1
  3
ACAD_ROUNDTRIP_2008_TABLESTYLE_CELLSTYLEMAP
360
542
  3
ACAD_XREC_ROUNDTRIP
360
577
  0
DICTIONARY
  5
551
330
4C0
100
AcDbDictionary
280
     1
281
     1
  3
ACAD_XREC_ROUNDTRIP
360
552
  0
DICTIONARY
  5
54F
330
4BF
100
AcDbDictionary
280
     1
281
     1
  3
ACAD_XREC_ROUNDTRIP
360
550
  0
DICTIONARY
  5
55D
330
4C6
100
AcDbDictionary
280
     1
281
     1
  3
ACAD_XREC_ROUNDTRIP
360
55E
  0
DICTIONARY
  5
565
330
4CA
100
AcDbDictionary
280
     1
281
     1
  3
ACAD_XREC_ROUNDTRIP
360
566
  0
DICTIONARY
  5
557
330
4C3
100
AcDbDictionary
280
     1
281
     1
  3
ACAD_XREC_ROUNDTRIP
360
558
  0
DICTIONARY
  5
55B
330
4C5
100
AcDbDictionary
280
     1
281
     1
  3
ACAD_XREC_ROUNDTRIP
360
55C
  0
DICTIONARY
  5
575
330
4D2
100
AcDbDictionary
280
     1
281
     1
  3
ACAD_XREC_ROUNDTRIP
360
576
  0
DICTIONARY
  5
563
330
4C9
100
AcDbDictionary
280
     1
281
     1
  3
ACAD_XREC_ROUNDTRIP
360
564
  0
DICTIONARY
  5
547
330
4BB
100
AcDbDictionary
280
     1
281
     1
  3
ACAD_XREC_ROUNDTRIP
360
548
  0
DICTIONARY
  5
549
330
4BC
100
AcDbDictionary
280
     1
281
     1
  3
ACAD_XREC_ROUNDTRIP
360
54A
  0
DICTIONARY
  5
54B
330
4BD
100
AcDbDictionary
280
     1
281
     1
  3
ACAD_XREC_ROUNDTRIP
360
54C
  0
DICTIONARY
  5
54D
330
4BE
100
AcDbDictionary
280
     1
281
     1
  3
ACAD_XREC_ROUNDTRIP
360
54E
  0
DICTIONARY
  5
555
330
4C2
100
AcDbDictionary
280
     1
281
     1
  3
ACAD_XREC_ROUNDTRIP
360
556
  0
DICTIONARY
  5
571
330
4D0
100
AcDbDictionary
280
     1
281
     1
  3
ACAD_XREC_ROUNDTRIP
360
572
  0
DICTIONARY
  5
561
330
4C8
100
AcDbDictionary
280
     1
281
     1
  3
ACAD_XREC_ROUNDTRIP
360
562
  0
DICTIONARY
  5
573
330
4D1
100
AcDbDictionary
280
     1
281
     1
  3
ACAD_XREC_ROUNDTRIP
360
574
  0
DICTIONARY
  5
559
330
4C4
100
AcDbDictionary
280
     1
281
     1
  3
ACAD_XREC_ROUNDTRIP
360
55A
  0
DICTIONARY
  5
56F
330
4CF
100
AcDbDictionary
280
     1
281
     1
  3
ACAD_XREC_ROUNDTRIP
360
570
  0
DICTIONARY
  5
56D
330
4CE
100
AcDbDictionary
280
     1
281
     1
  3
ACAD_XREC_ROUNDTRIP
360
56E
  0
DICTIONARY
  5
567
330
4CB
100
AcDbDictionary
280
     1
281
     1
  3
ACAD_XREC_ROUNDTRIP
360
568
  0
DICTIONARY
  5
569
330
4CC
100
AcDbDictionary
280
     1
281
     1
  3
ACAD_XREC_ROUNDTRIP
360
56A
  0
DICTIONARY
  5
55F
330
4C7
100
AcDbDictionary
280
     1
281
     1
  3
ACAD_XREC_ROUNDTRIP
360
560
  0
DICTIONARY
  5
553
330
4C1
100
AcDbDictionary
280
     1
281
     1
  3
ACAD_XREC_ROUNDTRIP
360
554
  0
DICTIONARY
  5
56B
330
4CD
100
AcDbDictionary
280
     1
281
     1
  3
ACAD_XREC_ROUNDTRIP
360
56C
  0
XRECORD
  5
57D
102
{ACAD_REACTORS
330
57C
102
}
330
57C
100
AcDbXrecord
280
     1
102
DISPLAYNAME
  1
Imperial24
102
FLAGS
 90
        0
  0
XRECORD
  5
545
102
{ACAD_REACTORS
330
4AB
102
}
330
4AB
100
AcDbXrecord
280
     1
102
MATERIAL
148
0.0
149
0.0
149
0.0
 93
        0
 94
      127
282
     0
 72
     0
 77
     0
171
     0
175
     0
179
     0
273
     0
  0
XRECORD
  5
4AD
102
{ACAD_REACTORS
330
4AB
102
}
330
4AB
100
AcDbXrecord
280
     1
270
     1
271
     1
  0
XRECORD
  5
4AC
102
{ACAD_REACTORS
330
4AB
102
}
330
4AB
100
AcDbXrecord
280
     1
270
     1
271
     1
  0
XRECORD
  5
4B0
102
{ACAD_REACTORS
330
4AB
102
}
330
4AB
100
AcDbXrecord
280
     1
270
     1
271
     1
  0
XRECORD
  5
4AF
102
{ACAD_REACTORS
330
4AB
102
}
330
4AB
100
AcDbXrecord
280
     1
270
     1
271
     1
  0
XRECORD
  5
4B1
102
{ACAD_REACTORS
330
4AB
102
}
330
4AB
100
AcDbXrecord
280
     1
270
     1
271
     1
  0
XRECORD
  5
4AE
102
{ACAD_REACTORS
330
4AB
102
}
330
4AB
100
AcDbXrecord
280
     1
270
     1
271
     1
  0
XRECORD
  5
544
102
{ACAD_REACTORS
330
4A3
102
}
330
4A3
100
AcDbXrecord
280
     1
102
MATERIAL
148
0.0
149
0.0
149
0.0
 93
        0
 94
      127
282
     0
 72
     0
 77
     0
171
     0
175
     0
179
     0
273
     0
  0
XRECORD
  5
4A5
102
{ACAD_REACTORS
330
4A3
102
}
330
4A3
100
AcDbXrecord
280
     1
270
     1
271
     1
  0
XRECORD
  5
4A4
102
{ACAD_REACTORS
330
4A3
102
}
330
4A3
100
AcDbXrecord
280
     1
270
     1
271
     1
  0
XRECORD
  5
4A8
102
{ACAD_REACTORS
330
4A3
102
}
330
4A3
100
AcDbXrecord
280
     1
270
     1
271
     1
  0
XRECORD
  5
4A7
102
{ACAD_REACTORS
330
4A3
102
}
330
4A3
100
AcDbXrecord
280
     1
270
     1
271
     1
  0
XRECORD
  5
4A9
102
{ACAD_REACTORS
330
4A3
102
}
330
4A3
100
AcDbXrecord
280
     1
270
     1
271
     1
  0
XRECORD
  5
4A6
102
{ACAD_REACTORS
330
4A3
102
}
330
4A3
100
AcDbXrecord
280
     1
270
     1
271
     1
  0
XRECORD
  5
546
102
{ACAD_REACTORS
330
4B3
102
}
330
4B3
100
AcDbXrecord
280
     1
102
MATERIAL
148
0.0
149
0.0
149
0.0
 93
        0
 94
      127
282
     0
 72
     0
 77
     0
171
     0
175
     0
179
     0
273
     0
  0
XRECORD
  5
4B5
102
{ACAD_REACTORS
330
4B3
102
}
330
4B3
100
AcDbXrecord
280
     1
270
     1
271
     1
  0
XRECORD
  5
4B4
102
{ACAD_REACTORS
330
4B3
102
}
330
4B3
100
AcDbXrecord
280
     1
270
     1
271
     1
  0
XRECORD
  5
4B8
102
{ACAD_REACTORS
330
4B3
102
}
330
4B3
100
AcDbXrecord
280
     1
270
     1
271
     1
  0
XRECORD
  5
4B7
102
{ACAD_REACTORS
330
4B3
102
}
330
4B3
100
AcDbXrecord
280
     1
270
     1
271
     1
  0
XRECORD
  5
4B9
102
{ACAD_REACTORS
330
4B3
102
}
330
4B3
100
AcDbXrecord
280
     1
270
     1
271
     1
  0
XRECORD
  5
4B6
102
{ACAD_REACTORS
330
4B3
102
}
330
4B3
100
AcDbXrecord
280
     1
270
     1
271
     1
  0
XRECORD
  5
579
102
{ACAD_REACTORS
330
578
102
}
330
578
100
AcDbXrecord
280
     1
102
ACAD_ROUNDTRIP_2012_MLEADER_STYLE
298
     1
  0
XRECORD
  5
57B
102
{ACAD_REACTORS
330
57A
102
}
330
57A
100
AcDbXrecord
280
     1
102
DISPLAYNAME
  1
Imperial24
102
FLAGS
 90
        0
  0
CELLSTYLEMAP
  5
542
102
{ACAD_REACTORS
330
4F4
102
}
330
4F4
100
AcDbCellStyleMap
 90
        3
300
CELLSTYLE
  1
TABLEFORMAT_BEGIN
 90
        5
170
     1
 91
        0
 92
    32768
 62
   257
 93
        1
300
CONTENTFORMAT
  1
CONTENTFORMAT_BEGIN
 90
        0
 91
        0
 92
      512
 93
        0
300

 40
0.0
140
1.0
 94
        5
 62
     0
340
478
144
0.25
309
CONTENTFORMAT_END
171
     0
 94
        0
309
TABLEFORMAT_END
  1
CELLSTYLE_BEGIN
 90
        1
 91
        1
300
_TITLE
309
CELLSTYLE_END
300
CELLSTYLE
  1
TABLEFORMAT_BEGIN
 90
        5
170
     1
 91
        0
 92
        0
 62
   257
 93
        1
300
CONTENTFORMAT
  1
CONTENTFORMAT_BEGIN
 90
        0
 91
        0
 92
      512
 93
        0
300

 40
0.0
140
1.0
 94
        5
 62
     0
340
478
144
0.18
309
CONTENTFORMAT_END
171
     0
 94
        0
309
TABLEFORMAT_END
  1
CELLSTYLE_BEGIN
 90
        2
 91
        1
300
_HEADER
309
CELLSTYLE_END
300
CELLSTYLE
  1
TABLEFORMAT_BEGIN
 90
        5
170
     1
 91
        0
 92
        0
 62
   257
 93
        1
300
CONTENTFORMAT
  1
CONTENTFORMAT_BEGIN
 90
        0
 91
        0
 92
      512
 93
        0
300

 40
0.0
140
1.0
 94
        2
 62
     0
340
478
144
0.18
309
CONTENTFORMAT_END
171
     0
 94
        0
309
TABLEFORMAT_END
  1
CELLSTYLE_BEGIN
 90
        3
 91
        2
300
_DATA
309
CELLSTYLE_END
  0
XRECORD
  5
577
102
{ACAD_REACTORS
330
4F4
102
}
330
4F4
100
AcDbXrecord
280
     1
102
ACAD_ROUNDTRIP_PRE2007_TABLESTYLE
 90
      512
 91
        0
  1

 92
      512
 93
        0
  2

 94
      512
 95
        0
  3

  0
XRECORD
  5
552
102
{ACAD_REACTORS
330
551
102
}
330
551
100
AcDbXrecord
280
     1
102
RTVSPost2010Prop28
280
     1
102
RTVSPost2010PropOp28
 70
     1
102
RTVSPost2010Prop29
280
     1
102
RTVSPost2010PropOp29
 70
     1
102
RTVSPost2010Prop30
280
     0
102
RTVSPost2010PropOp30
 70
     1
102
RTVSPost2010Prop31
280
     0
102
RTVSPost2010PropOp31
 70
     1
102
RTVSPost2010Prop32
280
     0
102
RTVSPost2010PropOp32
 70
     1
102
RTVSPost2010Prop33
280
     0
102
RTVSPost2010PropOp33
 70
     1
102
RTVSPost2010Prop34
280
     0
102
RTVSPost2010PropOp34
 70
     1
102
RTVSPost2010Prop35
280
     0
102
RTVSPost2010PropOp35
 70
     1
102
RTVSPost2010Prop36
280
     0
102
RTVSPost2010PropOp36
 70
     1
102
RTVSPost2010Prop37
 90
       50
102
RTVSPost2010PropOp37
 70
     1
102
RTVSPost2010Prop38
140
0.0
102
RTVSPost2010PropOp38
 70
     1
102
RTVSPost2010Prop39
140
1.0
102
RTVSPost2010PropOp39
 70
     1
102
RTVSPost2010Prop40
 90
        0
102
RTVSPost2010PropOp40
 70
     1
102
RTVSPost2010Prop41ColorIndex
 90
       18
102
RTVSPost2010Prop41ColorRGB
 90
        0
102
RTVSPost2010PropOp41
 70
     1
102
RTVSPost2010Prop42
 90
       50
102
RTVSPost2010PropOp42
 70
     1
102
RTVSPost2010Prop43
 90
        3
102
RTVSPost2010PropOp43
 70
     1
102
RTVSPost2010Prop44ColorIndex
 90
        5
102
RTVSPost2010Prop44ColorRGB
 90
      255
102
RTVSPost2010PropOp44
 70
     1
102
RTVSPost2010Prop45
280
     0
102
RTVSPost2010PropOp45
 70
     1
102
RTVSPost2010Prop46
 90
       50
102
RTVSPost2010PropOp46
 70
     1
102
RTVSPost2010Prop47
 90
       50
102
RTVSPost2010PropOp47
 70
     1
102
RTVSPost2010Prop48
 90
       50
102
RTVSPost2010PropOp48
 70
     1
102
RTVSPost2010Prop49
280
     0
102
RTVSPost2010PropOp49
 70
     1
102
RTVSPost2010Prop50
 90
       50
102
RTVSPost2010PropOp50
 70
     1
102
RTVSPost2010Prop51ColorIndex
 90
      256
102
RTVSPost2010Prop51ColorRGB
 90
-16777216
102
RTVSPost2010PropOp51
 70
     0
102
RTVSPost2010Prop52
140
1.0
102
RTVSPost2010PropOp52
 70
     0
102
RTVSPost2010Prop53
 90
        2
102
RTVSPost2010PropOp53
 70
     1
102
RTVSPost2010Prop54
  1
strokes_ogs.tif
102
RTVSPost2010PropOp54
 70
     1
102
RTVSPost2010Prop55
280
     0
102
RTVSPost2010PropOp55
 70
     1
102
RTVSPost2010Prop56
140
1.0
102
RTVSPost2010PropOp56
 70
     1
102
RTVSPost2010Prop57
140
1.0
102
RTVSPost2010PropOp57
 70
     1
102
RTVSPropertyOp0
 70
     1
102
RTVSPropertyOp1
 70
     1
102
RTVSPropertyOp2
 70
     1
102
RTVSPropertyOp3
 70
     1
102
RTVSPropertyOp4
 70
     1
102
RTVSPropertyOp5
 70
     1
102
RTVSPropertyOp6
 70
     1
102
RTVSPropertyOp7
 70
     1
102
RTVSPropertyOp8
 70
     1
102
RTVSPropertyOp9
 70
     1
102
RTVSPropertyOp10
 70
     1
102
RTVSPropertyOp11
 70
     1
102
RTVSPropertyOp12
 70
     1
102
RTVSPropertyOp13
 70
     1
102
RTVSPropertyOp14
 70
     1
102
RTVSPropertyOp15
 70
     1
102
RTVSPropertyOp16
 70
     1
102
RTVSPropertyOp17
 70
     1
102
RTVSPropertyOp18
 70
     1
102
RTVSPropertyOp19
 70
     1
102
RTVSPropertyOp20
 70
     1
102
RTVSPropertyOp21
 70
     1
102
RTVSPropertyOp22
 70
     1
102
RTVSPropertyOp23
 70
     1
102
RTVSPropertyOp24
 70
     1
102
RTVSPropertyOp25
 70
     1
102
RTVSPropertyOp26
 70
     1
102
RTVSPropertyOp27
 70
     1
102
RTVSPropertyOp28
 70
     1
102
RTVSPropertyOp29
 70
     1
102
RTVSPropertyOp30
 70
     1
102
RTVSPropertyOp31
 70
     1
102
RTVSPropertyOp32
 70
     1
102
RTVSPropertyOp33
 70
     1
102
RTVSPropertyOp34
 70
     1
102
RTVSPropertyOp35
 70
     1
102
RTVSPropertyOp36
 70
     1
102
RTVSPropertyOp37
 70
     1
102
RTVSPropertyOp38
 70
     1
102
RTVSPropertyOp39
 70
     1
102
RTVSPropertyOp40
 70
     1
102
RTVSPropertyOp41
 70
     1
102
RTVSPropertyOp42
 70
     1
102
RTVSPropertyOp43
 70
     1
102
RTVSPropertyOp44
 70
     1
102
RTVSPropertyOp45
 70
     1
102
RTVSPropertyOp46
 70
     1
102
RTVSPropertyOp47
 70
     1
102
RTVSPropertyOp48
 70
     1
102
RTVSPropertyOp49
 70
     1
102
RTVSPropertyOp50
 70
     1
102
RTVSPropertyOp51
 70
     0
102
RTVSPropertyOp52
 70
     0
102
RTVSPropertyOp53
 70
     1
102
RTVSPropertyOp54
 70
     1
102
RTVSPropertyOp55
 70
     1
102
RTVSPropertyOp56
 70
     1
102
RTVSPropertyOp57
 70
     1
102
RTVSPropertyOp58
 70
     1
102
RTVSPropertyOp59
 70
     1
102
RTVSPropertyOp60
 70
     1
102
RTVSPropertyOp61
 70
     1
102
RTVSPropertyOp62
 70
     1
  0
XRECORD
  5
550
102
{ACAD_REACTORS
330
54F
102
}
330
54F
100
AcDbXrecord
280
     1
102
RTVSPost2010Prop28
280
     0
102
RTVSPost2010PropOp28
 70
     1
102
RTVSPost2010Prop29
280
     1
102
RTVSPost2010PropOp29
 70
     1
102
RTVSPost2010Prop30
280
     1
102
RTVSPost2010PropOp30
 70
     1
102
RTVSPost2010Prop31
280
     0
102
RTVSPost2010PropOp31
 70
     1
102
RTVSPost2010Prop32
280
     0
102
RTVSPost2010PropOp32
 70
     1
102
RTVSPost2010Prop33
280
     0
102
RTVSPost2010PropOp33
 70
     1
102
RTVSPost2010Prop34
280
     0
102
RTVSPost2010PropOp34
 70
     1
102
RTVSPost2010Prop35
280
     0
102
RTVSPost2010PropOp35
 70
     1
102
RTVSPost2010Prop36
280
     0
102
RTVSPost2010PropOp36
 70
     1
102
RTVSPost2010Prop37
 90
       50
102
RTVSPost2010PropOp37
 70
     1
102
RTVSPost2010Prop38
140
0.0
102
RTVSPost2010PropOp38
 70
     1
102
RTVSPost2010Prop39
140
1.0
102
RTVSPost2010PropOp39
 70
     1
102
RTVSPost2010Prop40
 90
        0
102
RTVSPost2010PropOp40
 70
     1
102
RTVSPost2010Prop41ColorIndex
 90
       18
102
RTVSPost2010Prop41ColorRGB
 90
        0
102
RTVSPost2010PropOp41
 70
     1
102
RTVSPost2010Prop42
 90
       50
102
RTVSPost2010PropOp42
 70
     1
102
RTVSPost2010Prop43
 90
        3
102
RTVSPost2010PropOp43
 70
     1
102
RTVSPost2010Prop44ColorIndex
 90
        5
102
RTVSPost2010Prop44ColorRGB
 90
      255
102
RTVSPost2010PropOp44
 70
     1
102
RTVSPost2010Prop45
280
     0
102
RTVSPost2010PropOp45
 70
     1
102
RTVSPost2010Prop46
 90
       50
102
RTVSPost2010PropOp46
 70
     1
102
RTVSPost2010Prop47
 90
       50
102
RTVSPost2010PropOp47
 70
     1
102
RTVSPost2010Prop48
 90
       50
102
RTVSPost2010PropOp48
 70
     1
102
RTVSPost2010Prop49
280
     0
102
RTVSPost2010PropOp49
 70
     1
102
RTVSPost2010Prop50
 90
       50
102
RTVSPost2010PropOp50
 70
     1
102
RTVSPost2010Prop51ColorIndex
 90
      256
102
RTVSPost2010Prop51ColorRGB
 90
-16777216
102
RTVSPost2010PropOp51
 70
     0
102
RTVSPost2010Prop52
140
1.0
102
RTVSPost2010PropOp52
 70
     0
102
RTVSPost2010Prop53
 90
        2
102
RTVSPost2010PropOp53
 70
     1
102
RTVSPost2010Prop54
  1
strokes_ogs.tif
102
RTVSPost2010PropOp54
 70
     1
102
RTVSPost2010Prop55
280
     0
102
RTVSPost2010PropOp55
 70
     1
102
RTVSPost2010Prop56
140
1.0
102
RTVSPost2010PropOp56
 70
     1
102
RTVSPost2010Prop57
140
1.0
102
RTVSPost2010PropOp57
 70
     1
102
RTVSPropertyOp0
 70
     1
102
RTVSPropertyOp1
 70
     1
102
RTVSPropertyOp2
 70
     1
102
RTVSPropertyOp3
 70
     1
102
RTVSPropertyOp4
 70
     1
102
RTVSPropertyOp5
 70
     1
102
RTVSPropertyOp6
 70
     1
102
RTVSPropertyOp7
 70
     1
102
RTVSPropertyOp8
 70
     1
102
RTVSPropertyOp9
 70
     1
102
RTVSPropertyOp10
 70
     1
102
RTVSPropertyOp11
 70
     1
102
RTVSPropertyOp12
 70
     1
102
RTVSPropertyOp13
 70
     1
102
RTVSPropertyOp14
 70
     1
102
RTVSPropertyOp15
 70
     1
102
RTVSPropertyOp16
 70
     1
102
RTVSPropertyOp17
 70
     1
102
RTVSPropertyOp18
 70
     1
102
RTVSPropertyOp19
 70
     1
102
RTVSPropertyOp20
 70
     1
102
RTVSPropertyOp21
 70
     1
102
RTVSPropertyOp22
 70
     1
102
RTVSPropertyOp23
 70
     1
102
RTVSPropertyOp24
 70
     1
102
RTVSPropertyOp25
 70
     1
102
RTVSPropertyOp26
 70
     1
102
RTVSPropertyOp27
 70
     1
102
RTVSPropertyOp28
 70
     1
102
RTVSPropertyOp29
 70
     1
102
RTVSPropertyOp30
 70
     1
102
RTVSPropertyOp31
 70
     1
102
RTVSPropertyOp32
 70
     1
102
RTVSPropertyOp33
 70
     1
102
RTVSPropertyOp34
 70
     1
102
RTVSPropertyOp35
 70
     1
102
RTVSPropertyOp36
 70
     1
102
RTVSPropertyOp37
 70
     1
102
RTVSPropertyOp38
 70
     1
102
RTVSPropertyOp39
 70
     1
102
RTVSPropertyOp40
 70
     1
102
RTVSPropertyOp41
 70
     1
102
RTVSPropertyOp42
 70
     1
102
RTVSPropertyOp43
 70
     1
102
RTVSPropertyOp44
 70
     1
102
RTVSPropertyOp45
 70
     1
102
RTVSPropertyOp46
 70
     1
102
RTVSPropertyOp47
 70
     1
102
RTVSPropertyOp48
 70
     1
102
RTVSPropertyOp49
 70
     1
102
RTVSPropertyOp50
 70
     1
102
RTVSPropertyOp51
 70
     0
102
RTVSPropertyOp52
 70
     0
102
RTVSPropertyOp53
 70
     1
102
RTVSPropertyOp54
 70
     1
102
RTVSPropertyOp55
 70
     1
102
RTVSPropertyOp56
 70
     1
102
RTVSPropertyOp57
 70
     1
102
RTVSPropertyOp58
 70
     1
102
RTVSPropertyOp59
 70
     1
102
RTVSPropertyOp60
 70
     1
102
RTVSPropertyOp61
 70
     1
102
RTVSPropertyOp62
 70
     1
  0
XRECORD
  5
55E
102
{ACAD_REACTORS
330
55D
102
}
330
55D
100
AcDbXrecord
280
     1
102
RTVSPost2010Prop28
280
     0
102
RTVSPost2010PropOp28
 70
     1
102
RTVSPost2010Prop29
280
     1
102
RTVSPost2010PropOp29
 70
     1
102
RTVSPost2010Prop30
280
     1
102
RTVSPost2010PropOp30
 70
     1
102
RTVSPost2010Prop31
280
     0
102
RTVSPost2010PropOp31
 70
     1
102
RTVSPost2010Prop32
280
     0
102
RTVSPost2010PropOp32
 70
     1
102
RTVSPost2010Prop33
280
     0
102
RTVSPost2010PropOp33
 70
     1
102
RTVSPost2010Prop34
280
     0
102
RTVSPost2010PropOp34
 70
     1
102
RTVSPost2010Prop35
280
     0
102
RTVSPost2010PropOp35
 70
     1
102
RTVSPost2010Prop36
280
     0
102
RTVSPost2010PropOp36
 70
     1
102
RTVSPost2010Prop37
 90
       50
102
RTVSPost2010PropOp37
 70
     1
102
RTVSPost2010Prop38
140
0.0
102
RTVSPost2010PropOp38
 70
     1
102
RTVSPost2010Prop39
140
1.0
102
RTVSPost2010PropOp39
 70
     1
102
RTVSPost2010Prop40
 90
        0
102
RTVSPost2010PropOp40
 70
     1
102
RTVSPost2010Prop41ColorIndex
 90
       18
102
RTVSPost2010Prop41ColorRGB
 90
        0
102
RTVSPost2010PropOp41
 70
     1
102
RTVSPost2010Prop42
 90
       50
102
RTVSPost2010PropOp42
 70
     1
102
RTVSPost2010Prop43
 90
        3
102
RTVSPost2010PropOp43
 70
     1
102
RTVSPost2010Prop44ColorIndex
 90
        5
102
RTVSPost2010Prop44ColorRGB
 90
      255
102
RTVSPost2010PropOp44
 70
     1
102
RTVSPost2010Prop45
280
     0
102
RTVSPost2010PropOp45
 70
     1
102
RTVSPost2010Prop46
 90
       50
102
RTVSPost2010PropOp46
 70
     1
102
RTVSPost2010Prop47
 90
       50
102
RTVSPost2010PropOp47
 70
     1
102
RTVSPost2010Prop48
 90
       50
102
RTVSPost2010PropOp48
 70
     1
102
RTVSPost2010Prop49
280
     0
102
RTVSPost2010PropOp49
 70
     1
102
RTVSPost2010Prop50
 90
       50
102
RTVSPost2010PropOp50
 70
     1
102
RTVSPost2010Prop51ColorIndex
 90
      256
102
RTVSPost2010Prop51ColorRGB
 90
-16777216
102
RTVSPost2010PropOp51
 70
     0
102
RTVSPost2010Prop52
140
1.0
102
RTVSPost2010PropOp52
 70
     0
102
RTVSPost2010Prop53
 90
        2
102
RTVSPost2010PropOp53
 70
     1
102
RTVSPost2010Prop54
  1
strokes_ogs.tif
102
RTVSPost2010PropOp54
 70
     1
102
RTVSPost2010Prop55
280
     0
102
RTVSPost2010PropOp55
 70
     1
102
RTVSPost2010Prop56
140
1.0
102
RTVSPost2010PropOp56
 70
     1
102
RTVSPost2010Prop57
140
1.0
102
RTVSPost2010PropOp57
 70
     1
102
RTVSPropertyOp0
 70
     1
102
RTVSPropertyOp1
 70
     1
102
RTVSPropertyOp2
 70
     1
102
RTVSPropertyOp3
 70
     1
102
RTVSPropertyOp4
 70
     1
102
RTVSPropertyOp5
 70
     1
102
RTVSPropertyOp6
 70
     1
102
RTVSPropertyOp7
 70
     1
102
RTVSPropertyOp8
 70
     1
102
RTVSPropertyOp9
 70
     1
102
RTVSPropertyOp10
 70
     1
102
RTVSPropertyOp11
 70
     1
102
RTVSPropertyOp12
 70
     1
102
RTVSPropertyOp13
 70
     1
102
RTVSPropertyOp14
 70
     1
102
RTVSPropertyOp15
 70
     1
102
RTVSPropertyOp16
 70
     1
102
RTVSPropertyOp17
 70
     1
102
RTVSPropertyOp18
 70
     1
102
RTVSPropertyOp19
 70
     1
102
RTVSPropertyOp20
 70
     1
102
RTVSPropertyOp21
 70
     1
102
RTVSPropertyOp22
 70
     1
102
RTVSPropertyOp23
 70
     1
102
RTVSPropertyOp24
 70
     1
102
RTVSPropertyOp25
 70
     1
102
RTVSPropertyOp26
 70
     1
102
RTVSPropertyOp27
 70
     1
102
RTVSPropertyOp28
 70
     1
102
RTVSPropertyOp29
 70
     1
102
RTVSPropertyOp30
 70
     1
102
RTVSPropertyOp31
 70
     1
102
RTVSPropertyOp32
 70
     1
102
RTVSPropertyOp33
 70
     1
102
RTVSPropertyOp34
 70
     1
102
RTVSPropertyOp35
 70
     1
102
RTVSPropertyOp36
 70
     1
102
RTVSPropertyOp37
 70
     1
102
RTVSPropertyOp38
 70
     1
102
RTVSPropertyOp39
 70
     1
102
RTVSPropertyOp40
 70
     1
102
RTVSPropertyOp41
 70
     1
102
RTVSPropertyOp42
 70
     1
102
RTVSPropertyOp43
 70
     1
102
RTVSPropertyOp44
 70
     1
102
RTVSPropertyOp45
 70
     1
102
RTVSPropertyOp46
 70
     1
102
RTVSPropertyOp47
 70
     1
102
RTVSPropertyOp48
 70
     1
102
RTVSPropertyOp49
 70
     1
102
RTVSPropertyOp50
 70
     1
102
RTVSPropertyOp51
 70
     0
102
RTVSPropertyOp52
 70
     0
102
RTVSPropertyOp53
 70
     1
102
RTVSPropertyOp54
 70
     1
102
RTVSPropertyOp55
 70
     1
102
RTVSPropertyOp56
 70
     1
102
RTVSPropertyOp57
 70
     1
102
RTVSPropertyOp58
 70
     1
102
RTVSPropertyOp59
 70
     1
102
RTVSPropertyOp60
 70
     1
102
RTVSPropertyOp61
 70
     1
102
RTVSPropertyOp62
 70
     1
  0
XRECORD
  5
566
102
{ACAD_REACTORS
330
565
102
}
330
565
100
AcDbXrecord
280
     1
102
RTVSPost2010Prop28
280
     0
102
RTVSPost2010PropOp28
 70
     1
102
RTVSPost2010Prop29
280
     1
102
RTVSPost2010PropOp29
 70
     1
102
RTVSPost2010Prop30
280
     1
102
RTVSPost2010PropOp30
 70
     1
102
RTVSPost2010Prop31
280
     0
102
RTVSPost2010PropOp31
 70
     1
102
RTVSPost2010Prop32
280
     0
102
RTVSPost2010PropOp32
 70
     1
102
RTVSPost2010Prop33
280
     0
102
RTVSPost2010PropOp33
 70
     1
102
RTVSPost2010Prop34
280
     0
102
RTVSPost2010PropOp34
 70
     1
102
RTVSPost2010Prop35
280
     0
102
RTVSPost2010PropOp35
 70
     1
102
RTVSPost2010Prop36
280
     0
102
RTVSPost2010PropOp36
 70
     1
102
RTVSPost2010Prop37
 90
       50
102
RTVSPost2010PropOp37
 70
     1
102
RTVSPost2010Prop38
140
0.0
102
RTVSPost2010PropOp38
 70
     1
102
RTVSPost2010Prop39
140
1.0
102
RTVSPost2010PropOp39
 70
     1
102
RTVSPost2010Prop40
 90
        0
102
RTVSPost2010PropOp40
 70
     1
102
RTVSPost2010Prop41ColorIndex
 90
       18
102
RTVSPost2010Prop41ColorRGB
 90
        0
102
RTVSPost2010PropOp41
 70
     1
102
RTVSPost2010Prop42
 90
       50
102
RTVSPost2010PropOp42
 70
     1
102
RTVSPost2010Prop43
 90
        3
102
RTVSPost2010PropOp43
 70
     1
102
RTVSPost2010Prop44ColorIndex
 90
        5
102
RTVSPost2010Prop44ColorRGB
 90
      255
102
RTVSPost2010PropOp44
 70
     1
102
RTVSPost2010Prop45
280
     0
102
RTVSPost2010PropOp45
 70
     1
102
RTVSPost2010Prop46
 90
       50
102
RTVSPost2010PropOp46
 70
     1
102
RTVSPost2010Prop47
 90
       50
102
RTVSPost2010PropOp47
 70
     1
102
RTVSPost2010Prop48
 90
       50
102
RTVSPost2010PropOp48
 70
     1
102
RTVSPost2010Prop49
280
     0
102
RTVSPost2010PropOp49
 70
     1
102
RTVSPost2010Prop50
 90
       50
102
RTVSPost2010PropOp50
 70
     1
102
RTVSPost2010Prop51ColorIndex
 90
      256
102
RTVSPost2010Prop51ColorRGB
 90
-16777216
102
RTVSPost2010PropOp51
 70
     0
102
RTVSPost2010Prop52
140
1.0
102
RTVSPost2010PropOp52
 70
     0
102
RTVSPost2010Prop53
 90
        2
102
RTVSPost2010PropOp53
 70
     1
102
RTVSPost2010Prop54
  1
strokes_ogs.tif
102
RTVSPost2010PropOp54
 70
     1
102
RTVSPost2010Prop55
280
     0
102
RTVSPost2010PropOp55
 70
     1
102
RTVSPost2010Prop56
140
1.0
102
RTVSPost2010PropOp56
 70
     1
102
RTVSPost2010Prop57
140
1.0
102
RTVSPost2010PropOp57
 70
     1
102
RTVSPropertyOp0
 70
     1
102
RTVSPropertyOp1
 70
     1
102
RTVSPropertyOp2
 70
     1
102
RTVSPropertyOp3
 70
     1
102
RTVSPropertyOp4
 70
     1
102
RTVSPropertyOp5
 70
     1
102
RTVSPropertyOp6
 70
     1
102
RTVSPropertyOp7
 70
     1
102
RTVSPropertyOp8
 70
     1
102
RTVSPropertyOp9
 70
     1
102
RTVSPropertyOp10
 70
     1
102
RTVSPropertyOp11
 70
     1
102
RTVSPropertyOp12
 70
     1
102
RTVSPropertyOp13
 70
     1
102
RTVSPropertyOp14
 70
     1
102
RTVSPropertyOp15
 70
     1
102
RTVSPropertyOp16
 70
     1
102
RTVSPropertyOp17
 70
     1
102
RTVSPropertyOp18
 70
     1
102
RTVSPropertyOp19
 70
     1
102
RTVSPropertyOp20
 70
     1
102
RTVSPropertyOp21
 70
     1
102
RTVSPropertyOp22
 70
     1
102
RTVSPropertyOp23
 70
     1
102
RTVSPropertyOp24
 70
     1
102
RTVSPropertyOp25
 70
     1
102
RTVSPropertyOp26
 70
     1
102
RTVSPropertyOp27
 70
     1
102
RTVSPropertyOp28
 70
     1
102
RTVSPropertyOp29
 70
     1
102
RTVSPropertyOp30
 70
     1
102
RTVSPropertyOp31
 70
     1
102
RTVSPropertyOp32
 70
     1
102
RTVSPropertyOp33
 70
     1
102
RTVSPropertyOp34
 70
     1
102
RTVSPropertyOp35
 70
     1
102
RTVSPropertyOp36
 70
     1
102
RTVSPropertyOp37
 70
     1
102
RTVSPropertyOp38
 70
     1
102
RTVSPropertyOp39
 70
     1
102
RTVSPropertyOp40
 70
     1
102
RTVSPropertyOp41
 70
     1
102
RTVSPropertyOp42
 70
     1
102
RTVSPropertyOp43
 70
     1
102
RTVSPropertyOp44
 70
     1
102
RTVSPropertyOp45
 70
     1
102
RTVSPropertyOp46
 70
     1
102
RTVSPropertyOp47
 70
     1
102
RTVSPropertyOp48
 70
     1
102
RTVSPropertyOp49
 70
     1
102
RTVSPropertyOp50
 70
     1
102
RTVSPropertyOp51
 70
     0
102
RTVSPropertyOp52
 70
     0
102
RTVSPropertyOp53
 70
     1
102
RTVSPropertyOp54
 70
     1
102
RTVSPropertyOp55
 70
     1
102
RTVSPropertyOp56
 70
     1
102
RTVSPropertyOp57
 70
     1
102
RTVSPropertyOp58
 70
     1
102
RTVSPropertyOp59
 70
     1
102
RTVSPropertyOp60
 70
     1
102
RTVSPropertyOp61
 70
     1
102
RTVSPropertyOp62
 70
     1
  0
XRECORD
  5
558
102
{ACAD_REACTORS
330
557
102
}
330
557
100
AcDbXrecord
280
     1
102
RTVSPost2010Prop28
280
     0
102
RTVSPost2010PropOp28
 70
     1
102
RTVSPost2010Prop29
280
     1
102
RTVSPost2010PropOp29
 70
     1
102
RTVSPost2010Prop30
280
     1
102
RTVSPost2010PropOp30
 70
     1
102
RTVSPost2010Prop31
280
     0
102
RTVSPost2010PropOp31
 70
     1
102
RTVSPost2010Prop32
280
     0
102
RTVSPost2010PropOp32
 70
     1
102
RTVSPost2010Prop33
280
     0
102
RTVSPost2010PropOp33
 70
     1
102
RTVSPost2010Prop34
280
     0
102
RTVSPost2010PropOp34
 70
     1
102
RTVSPost2010Prop35
280
     0
102
RTVSPost2010PropOp35
 70
     1
102
RTVSPost2010Prop36
280
     0
102
RTVSPost2010PropOp36
 70
     1
102
RTVSPost2010Prop37
 90
       50
102
RTVSPost2010PropOp37
 70
     1
102
RTVSPost2010Prop38
140
0.0
102
RTVSPost2010PropOp38
 70
     1
102
RTVSPost2010Prop39
140
1.0
102
RTVSPost2010PropOp39
 70
     1
102
RTVSPost2010Prop40
 90
        0
102
RTVSPost2010PropOp40
 70
     1
102
RTVSPost2010Prop41ColorIndex
 90
       18
102
RTVSPost2010Prop41ColorRGB
 90
        0
102
RTVSPost2010PropOp41
 70
     1
102
RTVSPost2010Prop42
 90
       50
102
RTVSPost2010PropOp42
 70
     1
102
RTVSPost2010Prop43
 90
        3
102
RTVSPost2010PropOp43
 70
     1
102
RTVSPost2010Prop44ColorIndex
 90
        5
102
RTVSPost2010Prop44ColorRGB
 90
      255
102
RTVSPost2010PropOp44
 70
     1
102
RTVSPost2010Prop45
280
     0
102
RTVSPost2010PropOp45
 70
     1
102
RTVSPost2010Prop46
 90
       50
102
RTVSPost2010PropOp46
 70
     1
102
RTVSPost2010Prop47
 90
       50
102
RTVSPost2010PropOp47
 70
     1
102
RTVSPost2010Prop48
 90
       50
102
RTVSPost2010PropOp48
 70
     1
102
RTVSPost2010Prop49
280
     0
102
RTVSPost2010PropOp49
 70
     1
102
RTVSPost2010Prop50
 90
       50
102
RTVSPost2010PropOp50
 70
     1
102
RTVSPost2010Prop51ColorIndex
 90
      256
102
RTVSPost2010Prop51ColorRGB
 90
-16777216
102
RTVSPost2010PropOp51
 70
     0
102
RTVSPost2010Prop52
140
1.0
102
RTVSPost2010PropOp52
 70
     0
102
RTVSPost2010Prop53
 90
        2
102
RTVSPost2010PropOp53
 70
     1
102
RTVSPost2010Prop54
  1
strokes_ogs.tif
102
RTVSPost2010PropOp54
 70
     1
102
RTVSPost2010Prop55
280
     0
102
RTVSPost2010PropOp55
 70
     1
102
RTVSPost2010Prop56
140
1.0
102
RTVSPost2010PropOp56
 70
     1
102
RTVSPost2010Prop57
140
1.0
102
RTVSPost2010PropOp57
 70
     1
102
RTVSPropertyOp0
 70
     1
102
RTVSPropertyOp1
 70
     1
102
RTVSPropertyOp2
 70
     1
102
RTVSPropertyOp3
 70
     1
102
RTVSPropertyOp4
 70
     1
102
RTVSPropertyOp5
 70
     1
102
RTVSPropertyOp6
 70
     1
102
RTVSPropertyOp7
 70
     1
102
RTVSPropertyOp8
 70
     1
102
RTVSPropertyOp9
 70
     1
102
RTVSPropertyOp10
 70
     1
102
RTVSPropertyOp11
 70
     1
102
RTVSPropertyOp12
 70
     1
102
RTVSPropertyOp13
 70
     1
102
RTVSPropertyOp14
 70
     1
102
RTVSPropertyOp15
 70
     1
102
RTVSPropertyOp16
 70
     1
102
RTVSPropertyOp17
 70
     1
102
RTVSPropertyOp18
 70
     1
102
RTVSPropertyOp19
 70
     1
102
RTVSPropertyOp20
 70
     1
102
RTVSPropertyOp21
 70
     1
102
RTVSPropertyOp22
 70
     1
102
RTVSPropertyOp23
 70
     1
102
RTVSPropertyOp24
 70
     1
102
RTVSPropertyOp25
 70
     1
102
RTVSPropertyOp26
 70
     1
102
RTVSPropertyOp27
 70
     1
102
RTVSPropertyOp28
 70
     1
102
RTVSPropertyOp29
 70
     1
102
RTVSPropertyOp30
 70
     1
102
RTVSPropertyOp31
 70
     1
102
RTVSPropertyOp32
 70
     1
102
RTVSPropertyOp33
 70
     1
102
RTVSPropertyOp34
 70
     1
102
RTVSPropertyOp35
 70
     1
102
RTVSPropertyOp36
 70
     1
102
RTVSPropertyOp37
 70
     1
102
RTVSPropertyOp38
 70
     1
102
RTVSPropertyOp39
 70
     1
102
RTVSPropertyOp40
 70
     1
102
RTVSPropertyOp41
 70
     1
102
RTVSPropertyOp42
 70
     1
102
RTVSPropertyOp43
 70
     1
102
RTVSPropertyOp44
 70
     1
102
RTVSPropertyOp45
 70
     1
102
RTVSPropertyOp46
 70
     1
102
RTVSPropertyOp47
 70
     1
102
RTVSPropertyOp48
 70
     1
102
RTVSPropertyOp49
 70
     1
102
RTVSPropertyOp50
 70
     1
102
RTVSPropertyOp51
 70
     0
102
RTVSPropertyOp52
 70
     0
102
RTVSPropertyOp53
 70
     1
102
RTVSPropertyOp54
 70
     1
102
RTVSPropertyOp55
 70
     1
102
RTVSPropertyOp56
 70
     1
102
RTVSPropertyOp57
 70
     1
102
RTVSPropertyOp58
 70
     1
102
RTVSPropertyOp59
 70
     1
102
RTVSPropertyOp60
 70
     1
102
RTVSPropertyOp61
 70
     1
102
RTVSPropertyOp62
 70
     1
  0
XRECORD
  5
55C
102
{ACAD_REACTORS
330
55B
102
}
330
55B
100
AcDbXrecord
280
     1
102
RTVSPost2010Prop28
280
     0
102
RTVSPost2010PropOp28
 70
     1
102
RTVSPost2010Prop29
280
     1
102
RTVSPost2010PropOp29
 70
     1
102
RTVSPost2010Prop30
280
     1
102
RTVSPost2010PropOp30
 70
     1
102
RTVSPost2010Prop31
280
     0
102
RTVSPost2010PropOp31
 70
     1
102
RTVSPost2010Prop32
280
     0
102
RTVSPost2010PropOp32
 70
     1
102
RTVSPost2010Prop33
280
     0
102
RTVSPost2010PropOp33
 70
     1
102
RTVSPost2010Prop34
280
     0
102
RTVSPost2010PropOp34
 70
     1
102
RTVSPost2010Prop35
280
     0
102
RTVSPost2010PropOp35
 70
     1
102
RTVSPost2010Prop36
280
     0
102
RTVSPost2010PropOp36
 70
     1
102
RTVSPost2010Prop37
 90
       50
102
RTVSPost2010PropOp37
 70
     1
102
RTVSPost2010Prop38
140
0.0
102
RTVSPost2010PropOp38
 70
     1
102
RTVSPost2010Prop39
140
1.0
102
RTVSPost2010PropOp39
 70
     1
102
RTVSPost2010Prop40
 90
        0
102
RTVSPost2010PropOp40
 70
     1
102
RTVSPost2010Prop41ColorIndex
 90
       18
102
RTVSPost2010Prop41ColorRGB
 90
        0
102
RTVSPost2010PropOp41
 70
     1
102
RTVSPost2010Prop42
 90
       50
102
RTVSPost2010PropOp42
 70
     1
102
RTVSPost2010Prop43
 90
        3
102
RTVSPost2010PropOp43
 70
     1
102
RTVSPost2010Prop44ColorIndex
 90
        5
102
RTVSPost2010Prop44ColorRGB
 90
      255
102
RTVSPost2010PropOp44
 70
     1
102
RTVSPost2010Prop45
280
     0
102
RTVSPost2010PropOp45
 70
     1
102
RTVSPost2010Prop46
 90
       50
102
RTVSPost2010PropOp46
 70
     1
102
RTVSPost2010Prop47
 90
       50
102
RTVSPost2010PropOp47
 70
     1
102
RTVSPost2010Prop48
 90
       50
102
RTVSPost2010PropOp48
 70
     1
102
RTVSPost2010Prop49
280
     0
102
RTVSPost2010PropOp49
 70
     1
102
RTVSPost2010Prop50
 90
       50
102
RTVSPost2010PropOp50
 70
     1
102
RTVSPost2010Prop51ColorIndex
 90
      256
102
RTVSPost2010Prop51ColorRGB
 90
-16777216
102
RTVSPost2010PropOp51
 70
     0
102
RTVSPost2010Prop52
140
1.0
102
RTVSPost2010PropOp52
 70
     0
102
RTVSPost2010Prop53
 90
        2
102
RTVSPost2010PropOp53
 70
     1
102
RTVSPost2010Prop54
  1
strokes_ogs.tif
102
RTVSPost2010PropOp54
 70
     1
102
RTVSPost2010Prop55
280
     0
102
RTVSPost2010PropOp55
 70
     1
102
RTVSPost2010Prop56
140
1.0
102
RTVSPost2010PropOp56
 70
     1
102
RTVSPost2010Prop57
140
1.0
102
RTVSPost2010PropOp57
 70
     1
102
RTVSPropertyOp0
 70
     1
102
RTVSPropertyOp1
 70
     1
102
RTVSPropertyOp2
 70
     1
102
RTVSPropertyOp3
 70
     1
102
RTVSPropertyOp4
 70
     1
102
RTVSPropertyOp5
 70
     1
102
RTVSPropertyOp6
 70
     1
102
RTVSPropertyOp7
 70
     1
102
RTVSPropertyOp8
 70
     1
102
RTVSPropertyOp9
 70
     1
102
RTVSPropertyOp10
 70
     1
102
RTVSPropertyOp11
 70
     1
102
RTVSPropertyOp12
 70
     1
102
RTVSPropertyOp13
 70
     1
102
RTVSPropertyOp14
 70
     1
102
RTVSPropertyOp15
 70
     1
102
RTVSPropertyOp16
 70
     1
102
RTVSPropertyOp17
 70
     1
102
RTVSPropertyOp18
 70
     1
102
RTVSPropertyOp19
 70
     1
102
RTVSPropertyOp20
 70
     1
102
RTVSPropertyOp21
 70
     1
102
RTVSPropertyOp22
 70
     1
102
RTVSPropertyOp23
 70
     1
102
RTVSPropertyOp24
 70
     1
102
RTVSPropertyOp25
 70
     1
102
RTVSPropertyOp26
 70
     1
102
RTVSPropertyOp27
 70
     1
102
RTVSPropertyOp28
 70
     1
102
RTVSPropertyOp29
 70
     1
102
RTVSPropertyOp30
 70
     1
102
RTVSPropertyOp31
 70
     1
102
RTVSPropertyOp32
 70
     1
102
RTVSPropertyOp33
 70
     1
102
RTVSPropertyOp34
 70
     1
102
RTVSPropertyOp35
 70
     1
102
RTVSPropertyOp36
 70
     1
102
RTVSPropertyOp37
 70
     1
102
RTVSPropertyOp38
 70
     1
102
RTVSPropertyOp39
 70
     1
102
RTVSPropertyOp40
 70
     1
102
RTVSPropertyOp41
 70
     1
102
RTVSPropertyOp42
 70
     1
102
RTVSPropertyOp43
 70
     1
102
RTVSPropertyOp44
 70
     1
102
RTVSPropertyOp45
 70
     1
102
RTVSPropertyOp46
 70
     1
102
RTVSPropertyOp47
 70
     1
102
RTVSPropertyOp48
 70
     1
102
RTVSPropertyOp49
 70
     1
102
RTVSPropertyOp50
 70
     1
102
RTVSPropertyOp51
 70
     0
102
RTVSPropertyOp52
 70
     0
102
RTVSPropertyOp53
 70
     1
102
RTVSPropertyOp54
 70
     1
102
RTVSPropertyOp55
 70
     1
102
RTVSPropertyOp56
 70
     1
102
RTVSPropertyOp57
 70
     1
102
RTVSPropertyOp58
 70
     1
102
RTVSPropertyOp59
 70
     1
102
RTVSPropertyOp60
 70
     1
102
RTVSPropertyOp61
 70
     1
102
RTVSPropertyOp62
 70
     1
  0
XRECORD
  5
576
102
{ACAD_REACTORS
330
575
102
}
330
575
100
AcDbXrecord
280
     1
102
RTVSPost2010Prop28
280
     0
102
RTVSPost2010PropOp28
 70
     0
102
RTVSPost2010Prop29
280
     1
102
RTVSPost2010PropOp29
 70
     0
102
RTVSPost2010Prop30
280
     1
102
RTVSPost2010PropOp30
 70
     0
102
RTVSPost2010Prop31
280
     0
102
RTVSPost2010PropOp31
 70
     0
102
RTVSPost2010Prop32
280
     0
102
RTVSPost2010PropOp32
 70
     0
102
RTVSPost2010Prop33
280
     0
102
RTVSPost2010PropOp33
 70
     0
102
RTVSPost2010Prop34
280
     0
102
RTVSPost2010PropOp34
 70
     0
102
RTVSPost2010Prop35
280
     0
102
RTVSPost2010PropOp35
 70
     0
102
RTVSPost2010Prop36
280
     0
102
RTVSPost2010PropOp36
 70
     0
102
RTVSPost2010Prop37
 90
       50
102
RTVSPost2010PropOp37
 70
     0
102
RTVSPost2010Prop38
140
0.0
102
RTVSPost2010PropOp38
 70
     0
102
RTVSPost2010Prop39
140
1.0
102
RTVSPost2010PropOp39
 70
     0
102
RTVSPost2010Prop40
 90
        0
102
RTVSPost2010PropOp40
 70
     0
102
RTVSPost2010Prop41ColorIndex
 90
       18
102
RTVSPost2010Prop41ColorRGB
 90
        0
102
RTVSPost2010PropOp41
 70
     0
102
RTVSPost2010Prop42
 90
       50
102
RTVSPost2010PropOp42
 70
     0
102
RTVSPost2010Prop43
 90
        3
102
RTVSPost2010PropOp43
 70
     0
102
RTVSPost2010Prop44ColorIndex
 90
        5
102
RTVSPost2010Prop44ColorRGB
 90
      255
102
RTVSPost2010PropOp44
 70
     0
102
RTVSPost2010Prop45
280
     0
102
RTVSPost2010PropOp45
 70
     0
102
RTVSPost2010Prop46
 90
       50
102
RTVSPost2010PropOp46
 70
     0
102
RTVSPost2010Prop47
 90
       50
102
RTVSPost2010PropOp47
 70
     0
102
RTVSPost2010Prop48
 90
       50
102
RTVSPost2010PropOp48
 70
     0
102
RTVSPost2010Prop49
280
     0
102
RTVSPost2010PropOp49
 70
     0
102
RTVSPost2010Prop50
 90
       50
102
RTVSPost2010PropOp50
 70
     0
102
RTVSPost2010Prop51ColorIndex
 90
      256
102
RTVSPost2010Prop51ColorRGB
 90
-16777216
102
RTVSPost2010PropOp51
 70
     0
102
RTVSPost2010Prop52
140
1.0
102
RTVSPost2010PropOp52
 70
     0
102
RTVSPost2010Prop53
 90
        2
102
RTVSPost2010PropOp53
 70
     0
102
RTVSPost2010Prop54
  1
strokes_ogs.tif
102
RTVSPost2010PropOp54
 70
     0
102
RTVSPost2010Prop55
280
     0
102
RTVSPost2010PropOp55
 70
     0
102
RTVSPost2010Prop56
140
1.0
102
RTVSPost2010PropOp56
 70
     0
102
RTVSPost2010Prop57
140
1.0
102
RTVSPost2010PropOp57
 70
     0
102
RTVSPropertyOp0
 70
     0
102
RTVSPropertyOp1
 70
     0
102
RTVSPropertyOp2
 70
     0
102
RTVSPropertyOp3
 70
     0
102
RTVSPropertyOp4
 70
     0
102
RTVSPropertyOp5
 70
     0
102
RTVSPropertyOp6
 70
     0
102
RTVSPropertyOp7
 70
     0
102
RTVSPropertyOp8
 70
     0
102
RTVSPropertyOp9
 70
     0
102
RTVSPropertyOp10
 70
     0
102
RTVSPropertyOp11
 70
     0
102
RTVSPropertyOp12
 70
     0
102
RTVSPropertyOp13
 70
     0
102
RTVSPropertyOp14
 70
     2
102
RTVSPropertyOp15
 70
     0
102
RTVSPropertyOp16
 70
     0
102
RTVSPropertyOp17
 70
     0
102
RTVSPropertyOp18
 70
     0
102
RTVSPropertyOp19
 70
     0
102
RTVSPropertyOp20
 70
     0
102
RTVSPropertyOp21
 70
     0
102
RTVSPropertyOp22
 70
     0
102
RTVSPropertyOp23
 70
     0
102
RTVSPropertyOp24
 70
     0
102
RTVSPropertyOp25
 70
     0
102
RTVSPropertyOp26
 70
     0
102
RTVSPropertyOp27
 70
     0
102
RTVSPropertyOp28
 70
     0
102
RTVSPropertyOp29
 70
     0
102
RTVSPropertyOp30
 70
     0
102
RTVSPropertyOp31
 70
     0
102
RTVSPropertyOp32
 70
     0
102
RTVSPropertyOp33
 70
     0
102
RTVSPropertyOp34
 70
     0
102
RTVSPropertyOp35
 70
     0
102
RTVSPropertyOp36
 70
     0
102
RTVSPropertyOp37
 70
     0
102
RTVSPropertyOp38
 70
     0
102
RTVSPropertyOp39
 70
     0
102
RTVSPropertyOp40
 70
     0
102
RTVSPropertyOp41
 70
     0
102
RTVSPropertyOp42
 70
     0
102
RTVSPropertyOp43
 70
     0
102
RTVSPropertyOp44
 70
     0
102
RTVSPropertyOp45
 70
     0
102
RTVSPropertyOp46
 70
     0
102
RTVSPropertyOp47
 70
     0
102
RTVSPropertyOp48
 70
     0
102
RTVSPropertyOp49
 70
     0
102
RTVSPropertyOp50
 70
     0
102
RTVSPropertyOp51
 70
     0
102
RTVSPropertyOp52
 70
     0
102
RTVSPropertyOp53
 70
     0
102
RTVSPropertyOp54
 70
     0
102
RTVSPropertyOp55
 70
     0
102
RTVSPropertyOp56
 70
     0
102
RTVSPropertyOp57
 70
     0
102
RTVSPropertyOp58
 70
     0
102
RTVSPropertyOp59
 70
     0
102
RTVSPropertyOp60
 70
     0
102
RTVSPropertyOp61
 70
     0
102
RTVSPropertyOp62
 70
     0
  0
XRECORD
  5
564
102
{ACAD_REACTORS
330
563
102
}
330
563
100
AcDbXrecord
280
     1
102
RTVSPost2010Prop28
280
     0
102
RTVSPost2010PropOp28
 70
     1
102
RTVSPost2010Prop29
280
     1
102
RTVSPost2010PropOp29
 70
     1
102
RTVSPost2010Prop30
280
     1
102
RTVSPost2010PropOp30
 70
     1
102
RTVSPost2010Prop31
280
     0
102
RTVSPost2010PropOp31
 70
     1
102
RTVSPost2010Prop32
280
     0
102
RTVSPost2010PropOp32
 70
     1
102
RTVSPost2010Prop33
280
     0
102
RTVSPost2010PropOp33
 70
     1
102
RTVSPost2010Prop34
280
     0
102
RTVSPost2010PropOp34
 70
     1
102
RTVSPost2010Prop35
280
     0
102
RTVSPost2010PropOp35
 70
     1
102
RTVSPost2010Prop36
280
     0
102
RTVSPost2010PropOp36
 70
     1
102
RTVSPost2010Prop37
 90
       50
102
RTVSPost2010PropOp37
 70
     1
102
RTVSPost2010Prop38
140
0.0
102
RTVSPost2010PropOp38
 70
     1
102
RTVSPost2010Prop39
140
1.0
102
RTVSPost2010PropOp39
 70
     1
102
RTVSPost2010Prop40
 90
        0
102
RTVSPost2010PropOp40
 70
     1
102
RTVSPost2010Prop41ColorIndex
 90
       18
102
RTVSPost2010Prop41ColorRGB
 90
        0
102
RTVSPost2010PropOp41
 70
     1
102
RTVSPost2010Prop42
 90
       50
102
RTVSPost2010PropOp42
 70
     1
102
RTVSPost2010Prop43
 90
        3
102
RTVSPost2010PropOp43
 70
     1
102
RTVSPost2010Prop44ColorIndex
 90
        5
102
RTVSPost2010Prop44ColorRGB
 90
      255
102
RTVSPost2010PropOp44
 70
     1
102
RTVSPost2010Prop45
280
     0
102
RTVSPost2010PropOp45
 70
     1
102
RTVSPost2010Prop46
 90
       50
102
RTVSPost2010PropOp46
 70
     1
102
RTVSPost2010Prop47
 90
       50
102
RTVSPost2010PropOp47
 70
     1
102
RTVSPost2010Prop48
 90
       50
102
RTVSPost2010PropOp48
 70
     1
102
RTVSPost2010Prop49
280
     0
102
RTVSPost2010PropOp49
 70
     1
102
RTVSPost2010Prop50
 90
       50
102
RTVSPost2010PropOp50
 70
     1
102
RTVSPost2010Prop51ColorIndex
 90
      256
102
RTVSPost2010Prop51ColorRGB
 90
-16777216
102
RTVSPost2010PropOp51
 70
     0
102
RTVSPost2010Prop52
140
1.0
102
RTVSPost2010PropOp52
 70
     0
102
RTVSPost2010Prop53
 90
        2
102
RTVSPost2010PropOp53
 70
     1
102
RTVSPost2010Prop54
  1
strokes_ogs.tif
102
RTVSPost2010PropOp54
 70
     1
102
RTVSPost2010Prop55
280
     0
102
RTVSPost2010PropOp55
 70
     1
102
RTVSPost2010Prop56
140
1.0
102
RTVSPost2010PropOp56
 70
     1
102
RTVSPost2010Prop57
140
1.0
102
RTVSPost2010PropOp57
 70
     1
102
RTVSPropertyOp0
 70
     1
102
RTVSPropertyOp1
 70
     1
102
RTVSPropertyOp2
 70
     1
102
RTVSPropertyOp3
 70
     1
102
RTVSPropertyOp4
 70
     1
102
RTVSPropertyOp5
 70
     1
102
RTVSPropertyOp6
 70
     1
102
RTVSPropertyOp7
 70
     1
102
RTVSPropertyOp8
 70
     1
102
RTVSPropertyOp9
 70
     1
102
RTVSPropertyOp10
 70
     1
102
RTVSPropertyOp11
 70
     1
102
RTVSPropertyOp12
 70
     1
102
RTVSPropertyOp13
 70
     1
102
RTVSPropertyOp14
 70
     1
102
RTVSPropertyOp15
 70
     1
102
RTVSPropertyOp16
 70
     1
102
RTVSPropertyOp17
 70
     1
102
RTVSPropertyOp18
 70
     1
102
RTVSPropertyOp19
 70
     1
102
RTVSPropertyOp20
 70
     1
102
RTVSPropertyOp21
 70
     1
102
RTVSPropertyOp22
 70
     1
102
RTVSPropertyOp23
 70
     1
102
RTVSPropertyOp24
 70
     1
102
RTVSPropertyOp25
 70
     1
102
RTVSPropertyOp26
 70
     1
102
RTVSPropertyOp27
 70
     1
102
RTVSPropertyOp28
 70
     1
102
RTVSPropertyOp29
 70
     1
102
RTVSPropertyOp30
 70
     1
102
RTVSPropertyOp31
 70
     1
102
RTVSPropertyOp32
 70
     1
102
RTVSPropertyOp33
 70
     1
102
RTVSPropertyOp34
 70
     1
102
RTVSPropertyOp35
 70
     1
102
RTVSPropertyOp36
 70
     1
102
RTVSPropertyOp37
 70
     1
102
RTVSPropertyOp38
 70
     1
102
RTVSPropertyOp39
 70
     1
102
RTVSPropertyOp40
 70
     1
102
RTVSPropertyOp41
 70
     1
102
RTVSPropertyOp42
 70
     1
102
RTVSPropertyOp43
 70
     1
102
RTVSPropertyOp44
 70
     1
102
RTVSPropertyOp45
 70
     1
102
RTVSPropertyOp46
 70
     1
102
RTVSPropertyOp47
 70
     1
102
RTVSPropertyOp48
 70
     1
102
RTVSPropertyOp49
 70
     1
102
RTVSPropertyOp50
 70
     1
102
RTVSPropertyOp51
 70
     0
102
RTVSPropertyOp52
 70
     0
102
RTVSPropertyOp53
 70
     1
102
RTVSPropertyOp54
 70
     1
102
RTVSPropertyOp55
 70
     1
102
RTVSPropertyOp56
 70
     1
102
RTVSPropertyOp57
 70
     1
102
RTVSPropertyOp58
 70
     1
102
RTVSPropertyOp59
 70
     1
102
RTVSPropertyOp60
 70
     1
102
RTVSPropertyOp61
 70
     1
102
RTVSPropertyOp62
 70
     1
  0
XRECORD
  5
548
102
{ACAD_REACTORS
330
547
102
}
330
547
100
AcDbXrecord
280
     1
102
RTVSPost2010Prop28
280
     0
102
RTVSPost2010PropOp28
 70
     1
102
RTVSPost2010Prop29
280
     1
102
RTVSPost2010PropOp29
 70
     1
102
RTVSPost2010Prop30
280
     1
102
RTVSPost2010PropOp30
 70
     1
102
RTVSPost2010Prop31
280
     0
102
RTVSPost2010PropOp31
 70
     1
102
RTVSPost2010Prop32
280
     0
102
RTVSPost2010PropOp32
 70
     1
102
RTVSPost2010Prop33
280
     0
102
RTVSPost2010PropOp33
 70
     1
102
RTVSPost2010Prop34
280
     0
102
RTVSPost2010PropOp34
 70
     1
102
RTVSPost2010Prop35
280
     0
102
RTVSPost2010PropOp35
 70
     1
102
RTVSPost2010Prop36
280
     0
102
RTVSPost2010PropOp36
 70
     1
102
RTVSPost2010Prop37
 90
       50
102
RTVSPost2010PropOp37
 70
     1
102
RTVSPost2010Prop38
140
0.0
102
RTVSPost2010PropOp38
 70
     1
102
RTVSPost2010Prop39
140
1.0
102
RTVSPost2010PropOp39
 70
     1
102
RTVSPost2010Prop40
 90
        0
102
RTVSPost2010PropOp40
 70
     1
102
RTVSPost2010Prop41ColorIndex
 90
       18
102
RTVSPost2010Prop41ColorRGB
 90
        0
102
RTVSPost2010PropOp41
 70
     1
102
RTVSPost2010Prop42
 90
       50
102
RTVSPost2010PropOp42
 70
     1
102
RTVSPost2010Prop43
 90
        3
102
RTVSPost2010PropOp43
 70
     1
102
RTVSPost2010Prop44ColorIndex
 90
        5
102
RTVSPost2010Prop44ColorRGB
 90
      255
102
RTVSPost2010PropOp44
 70
     1
102
RTVSPost2010Prop45
280
     0
102
RTVSPost2010PropOp45
 70
     1
102
RTVSPost2010Prop46
 90
       50
102
RTVSPost2010PropOp46
 70
     1
102
RTVSPost2010Prop47
 90
       50
102
RTVSPost2010PropOp47
 70
     1
102
RTVSPost2010Prop48
 90
       50
102
RTVSPost2010PropOp48
 70
     1
102
RTVSPost2010Prop49
280
     0
102
RTVSPost2010PropOp49
 70
     1
102
RTVSPost2010Prop50
 90
       50
102
RTVSPost2010PropOp50
 70
     1
102
RTVSPost2010Prop51ColorIndex
 90
      256
102
RTVSPost2010Prop51ColorRGB
 90
-16777216
102
RTVSPost2010PropOp51
 70
     0
102
RTVSPost2010Prop52
140
1.0
102
RTVSPost2010PropOp52
 70
     0
102
RTVSPost2010Prop53
 90
        2
102
RTVSPost2010PropOp53
 70
     1
102
RTVSPost2010Prop54
  1
strokes_ogs.tif
102
RTVSPost2010PropOp54
 70
     1
102
RTVSPost2010Prop55
280
     0
102
RTVSPost2010PropOp55
 70
     1
102
RTVSPost2010Prop56
140
1.0
102
RTVSPost2010PropOp56
 70
     1
102
RTVSPost2010Prop57
140
1.0
102
RTVSPost2010PropOp57
 70
     1
102
RTVSPropertyOp0
 70
     1
102
RTVSPropertyOp1
 70
     1
102
RTVSPropertyOp2
 70
     1
102
RTVSPropertyOp3
 70
     1
102
RTVSPropertyOp4
 70
     1
102
RTVSPropertyOp5
 70
     1
102
RTVSPropertyOp6
 70
     1
102
RTVSPropertyOp7
 70
     1
102
RTVSPropertyOp8
 70
     1
102
RTVSPropertyOp9
 70
     1
102
RTVSPropertyOp10
 70
     1
102
RTVSPropertyOp11
 70
     1
102
RTVSPropertyOp12
 70
     1
102
RTVSPropertyOp13
 70
     1
102
RTVSPropertyOp14
 70
     1
102
RTVSPropertyOp15
 70
     1
102
RTVSPropertyOp16
 70
     1
102
RTVSPropertyOp17
 70
     1
102
RTVSPropertyOp18
 70
     1
102
RTVSPropertyOp19
 70
     1
102
RTVSPropertyOp20
 70
     1
102
RTVSPropertyOp21
 70
     1
102
RTVSPropertyOp22
 70
     1
102
RTVSPropertyOp23
 70
     1
102
RTVSPropertyOp24
 70
     1
102
RTVSPropertyOp25
 70
     1
102
RTVSPropertyOp26
 70
     1
102
RTVSPropertyOp27
 70
     1
102
RTVSPropertyOp28
 70
     1
102
RTVSPropertyOp29
 70
     1
102
RTVSPropertyOp30
 70
     1
102
RTVSPropertyOp31
 70
     1
102
RTVSPropertyOp32
 70
     1
102
RTVSPropertyOp33
 70
     1
102
RTVSPropertyOp34
 70
     1
102
RTVSPropertyOp35
 70
     1
102
RTVSPropertyOp36
 70
     1
102
RTVSPropertyOp37
 70
     1
102
RTVSPropertyOp38
 70
     1
102
RTVSPropertyOp39
 70
     1
102
RTVSPropertyOp40
 70
     1
102
RTVSPropertyOp41
 70
     1
102
RTVSPropertyOp42
 70
     1
102
RTVSPropertyOp43
 70
     1
102
RTVSPropertyOp44
 70
     1
102
RTVSPropertyOp45
 70
     1
102
RTVSPropertyOp46
 70
     1
102
RTVSPropertyOp47
 70
     1
102
RTVSPropertyOp48
 70
     1
102
RTVSPropertyOp49
 70
     1
102
RTVSPropertyOp50
 70
     1
102
RTVSPropertyOp51
 70
     0
102
RTVSPropertyOp52
 70
     0
102
RTVSPropertyOp53
 70
     1
102
RTVSPropertyOp54
 70
     1
102
RTVSPropertyOp55
 70
     1
102
RTVSPropertyOp56
 70
     1
102
RTVSPropertyOp57
 70
     1
102
RTVSPropertyOp58
 70
     1
102
RTVSPropertyOp59
 70
     1
102
RTVSPropertyOp60
 70
     1
102
RTVSPropertyOp61
 70
     1
102
RTVSPropertyOp62
 70
     1
  0
XRECORD
  5
54A
102
{ACAD_REACTORS
330
549
102
}
330
549
100
AcDbXrecord
280
     1
102
RTVSPost2010Prop28
280
     0
102
RTVSPost2010PropOp28
 70
     1
102
RTVSPost2010Prop29
280
     1
102
RTVSPost2010PropOp29
 70
     1
102
RTVSPost2010Prop30
280
     1
102
RTVSPost2010PropOp30
 70
     1
102
RTVSPost2010Prop31
280
     0
102
RTVSPost2010PropOp31
 70
     1
102
RTVSPost2010Prop32
280
     0
102
RTVSPost2010PropOp32
 70
     1
102
RTVSPost2010Prop33
280
     0
102
RTVSPost2010PropOp33
 70
     1
102
RTVSPost2010Prop34
280
     0
102
RTVSPost2010PropOp34
 70
     1
102
RTVSPost2010Prop35
280
     0
102
RTVSPost2010PropOp35
 70
     1
102
RTVSPost2010Prop36
280
     0
102
RTVSPost2010PropOp36
 70
     1
102
RTVSPost2010Prop37
 90
       50
102
RTVSPost2010PropOp37
 70
     1
102
RTVSPost2010Prop38
140
0.0
102
RTVSPost2010PropOp38
 70
     1
102
RTVSPost2010Prop39
140
1.0
102
RTVSPost2010PropOp39
 70
     1
102
RTVSPost2010Prop40
 90
        0
102
RTVSPost2010PropOp40
 70
     1
102
RTVSPost2010Prop41ColorIndex
 90
       18
102
RTVSPost2010Prop41ColorRGB
 90
        0
102
RTVSPost2010PropOp41
 70
     1
102
RTVSPost2010Prop42
 90
       50
102
RTVSPost2010PropOp42
 70
     1
102
RTVSPost2010Prop43
 90
        3
102
RTVSPost2010PropOp43
 70
     1
102
RTVSPost2010Prop44ColorIndex
 90
        5
102
RTVSPost2010Prop44ColorRGB
 90
      255
102
RTVSPost2010PropOp44
 70
     1
102
RTVSPost2010Prop45
280
     0
102
RTVSPost2010PropOp45
 70
     1
102
RTVSPost2010Prop46
 90
       50
102
RTVSPost2010PropOp46
 70
     1
102
RTVSPost2010Prop47
 90
       50
102
RTVSPost2010PropOp47
 70
     1
102
RTVSPost2010Prop48
 90
       50
102
RTVSPost2010PropOp48
 70
     1
102
RTVSPost2010Prop49
280
     0
102
RTVSPost2010PropOp49
 70
     1
102
RTVSPost2010Prop50
 90
       50
102
RTVSPost2010PropOp50
 70
     1
102
RTVSPost2010Prop51ColorIndex
 90
      256
102
RTVSPost2010Prop51ColorRGB
 90
-16777216
102
RTVSPost2010PropOp51
 70
     0
102
RTVSPost2010Prop52
140
1.0
102
RTVSPost2010PropOp52
 70
     0
102
RTVSPost2010Prop53
 90
        2
102
RTVSPost2010PropOp53
 70
     1
102
RTVSPost2010Prop54
  1
strokes_ogs.tif
102
RTVSPost2010PropOp54
 70
     1
102
RTVSPost2010Prop55
280
     0
102
RTVSPost2010PropOp55
 70
     1
102
RTVSPost2010Prop56
140
1.0
102
RTVSPost2010PropOp56
 70
     1
102
RTVSPost2010Prop57
140
1.0
102
RTVSPost2010PropOp57
 70
     1
102
RTVSPropertyOp0
 70
     1
102
RTVSPropertyOp1
 70
     1
102
RTVSPropertyOp2
 70
     1
102
RTVSPropertyOp3
 70
     1
102
RTVSPropertyOp4
 70
     1
102
RTVSPropertyOp5
 70
     1
102
RTVSPropertyOp6
 70
     1
102
RTVSPropertyOp7
 70
     1
102
RTVSPropertyOp8
 70
     1
102
RTVSPropertyOp9
 70
     1
102
RTVSPropertyOp10
 70
     1
102
RTVSPropertyOp11
 70
     1
102
RTVSPropertyOp12
 70
     1
102
RTVSPropertyOp13
 70
     1
102
RTVSPropertyOp14
 70
     1
102
RTVSPropertyOp15
 70
     1
102
RTVSPropertyOp16
 70
     1
102
RTVSPropertyOp17
 70
     1
102
RTVSPropertyOp18
 70
     1
102
RTVSPropertyOp19
 70
     1
102
RTVSPropertyOp20
 70
     1
102
RTVSPropertyOp21
 70
     1
102
RTVSPropertyOp22
 70
     1
102
RTVSPropertyOp23
 70
     1
102
RTVSPropertyOp24
 70
     1
102
RTVSPropertyOp25
 70
     1
102
RTVSPropertyOp26
 70
     1
102
RTVSPropertyOp27
 70
     1
102
RTVSPropertyOp28
 70
     1
102
RTVSPropertyOp29
 70
     1
102
RTVSPropertyOp30
 70
     1
102
RTVSPropertyOp31
 70
     1
102
RTVSPropertyOp32
 70
     1
102
RTVSPropertyOp33
 70
     1
102
RTVSPropertyOp34
 70
     1
102
RTVSPropertyOp35
 70
     1
102
RTVSPropertyOp36
 70
     1
102
RTVSPropertyOp37
 70
     1
102
RTVSPropertyOp38
 70
     1
102
RTVSPropertyOp39
 70
     1
102
RTVSPropertyOp40
 70
     1
102
RTVSPropertyOp41
 70
     1
102
RTVSPropertyOp42
 70
     1
102
RTVSPropertyOp43
 70
     1
102
RTVSPropertyOp44
 70
     1
102
RTVSPropertyOp45
 70
     1
102
RTVSPropertyOp46
 70
     1
102
RTVSPropertyOp47
 70
     1
102
RTVSPropertyOp48
 70
     1
102
RTVSPropertyOp49
 70
     1
102
RTVSPropertyOp50
 70
     1
102
RTVSPropertyOp51
 70
     0
102
RTVSPropertyOp52
 70
     0
102
RTVSPropertyOp53
 70
     1
102
RTVSPropertyOp54
 70
     1
102
RTVSPropertyOp55
 70
     1
102
RTVSPropertyOp56
 70
     1
102
RTVSPropertyOp57
 70
     1
102
RTVSPropertyOp58
 70
     1
102
RTVSPropertyOp59
 70
     1
102
RTVSPropertyOp60
 70
     1
102
RTVSPropertyOp61
 70
     1
102
RTVSPropertyOp62
 70
     1
  0
XRECORD
  5
54C
102
{ACAD_REACTORS
330
54B
102
}
330
54B
100
AcDbXrecord
280
     1
102
RTVSPost2010Prop28
280
     0
102
RTVSPost2010PropOp28
 70
     1
102
RTVSPost2010Prop29
280
     1
102
RTVSPost2010PropOp29
 70
     1
102
RTVSPost2010Prop30
280
     1
102
RTVSPost2010PropOp30
 70
     1
102
RTVSPost2010Prop31
280
     0
102
RTVSPost2010PropOp31
 70
     1
102
RTVSPost2010Prop32
280
     0
102
RTVSPost2010PropOp32
 70
     1
102
RTVSPost2010Prop33
280
     0
102
RTVSPost2010PropOp33
 70
     1
102
RTVSPost2010Prop34
280
     0
102
RTVSPost2010PropOp34
 70
     1
102
RTVSPost2010Prop35
280
     0
102
RTVSPost2010PropOp35
 70
     1
102
RTVSPost2010Prop36
280
     0
102
RTVSPost2010PropOp36
 70
     1
102
RTVSPost2010Prop37
 90
       50
102
RTVSPost2010PropOp37
 70
     1
102
RTVSPost2010Prop38
140
0.0
102
RTVSPost2010PropOp38
 70
     1
102
RTVSPost2010Prop39
140
1.0
102
RTVSPost2010PropOp39
 70
     1
102
RTVSPost2010Prop40
 90
        0
102
RTVSPost2010PropOp40
 70
     1
102
RTVSPost2010Prop41ColorIndex
 90
       18
102
RTVSPost2010Prop41ColorRGB
 90
        0
102
RTVSPost2010PropOp41
 70
     1
102
RTVSPost2010Prop42
 90
       50
102
RTVSPost2010PropOp42
 70
     1
102
RTVSPost2010Prop43
 90
        3
102
RTVSPost2010PropOp43
 70
     1
102
RTVSPost2010Prop44ColorIndex
 90
        5
102
RTVSPost2010Prop44ColorRGB
 90
      255
102
RTVSPost2010PropOp44
 70
     1
102
RTVSPost2010Prop45
280
     0
102
RTVSPost2010PropOp45
 70
     1
102
RTVSPost2010Prop46
 90
       50
102
RTVSPost2010PropOp46
 70
     1
102
RTVSPost2010Prop47
 90
       50
102
RTVSPost2010PropOp47
 70
     1
102
RTVSPost2010Prop48
 90
       50
102
RTVSPost2010PropOp48
 70
     1
102
RTVSPost2010Prop49
280
     0
102
RTVSPost2010PropOp49
 70
     1
102
RTVSPost2010Prop50
 90
       50
102
RTVSPost2010PropOp50
 70
     1
102
RTVSPost2010Prop51ColorIndex
 90
      256
102
RTVSPost2010Prop51ColorRGB
 90
-16777216
102
RTVSPost2010PropOp51
 70
     0
102
RTVSPost2010Prop52
140
1.0
102
RTVSPost2010PropOp52
 70
     0
102
RTVSPost2010Prop53
 90
        2
102
RTVSPost2010PropOp53
 70
     1
102
RTVSPost2010Prop54
  1
strokes_ogs.tif
102
RTVSPost2010PropOp54
 70
     1
102
RTVSPost2010Prop55
280
     0
102
RTVSPost2010PropOp55
 70
     1
102
RTVSPost2010Prop56
140
1.0
102
RTVSPost2010PropOp56
 70
     1
102
RTVSPost2010Prop57
140
1.0
102
RTVSPost2010PropOp57
 70
     1
102
RTVSPropertyOp0
 70
     1
102
RTVSPropertyOp1
 70
     1
102
RTVSPropertyOp2
 70
     1
102
RTVSPropertyOp3
 70
     1
102
RTVSPropertyOp4
 70
     1
102
RTVSPropertyOp5
 70
     1
102
RTVSPropertyOp6
 70
     1
102
RTVSPropertyOp7
 70
     1
102
RTVSPropertyOp8
 70
     1
102
RTVSPropertyOp9
 70
     1
102
RTVSPropertyOp10
 70
     1
102
RTVSPropertyOp11
 70
     1
102
RTVSPropertyOp12
 70
     1
102
RTVSPropertyOp13
 70
     1
102
RTVSPropertyOp14
 70
     1
102
RTVSPropertyOp15
 70
     1
102
RTVSPropertyOp16
 70
     1
102
RTVSPropertyOp17
 70
     1
102
RTVSPropertyOp18
 70
     1
102
RTVSPropertyOp19
 70
     1
102
RTVSPropertyOp20
 70
     1
102
RTVSPropertyOp21
 70
     1
102
RTVSPropertyOp22
 70
     1
102
RTVSPropertyOp23
 70
     1
102
RTVSPropertyOp24
 70
     1
102
RTVSPropertyOp25
 70
     1
102
RTVSPropertyOp26
 70
     1
102
RTVSPropertyOp27
 70
     1
102
RTVSPropertyOp28
 70
     1
102
RTVSPropertyOp29
 70
     1
102
RTVSPropertyOp30
 70
     1
102
RTVSPropertyOp31
 70
     1
102
RTVSPropertyOp32
 70
     1
102
RTVSPropertyOp33
 70
     1
102
RTVSPropertyOp34
 70
     1
102
RTVSPropertyOp35
 70
     1
102
RTVSPropertyOp36
 70
     1
102
RTVSPropertyOp37
 70
     1
102
RTVSPropertyOp38
 70
     1
102
RTVSPropertyOp39
 70
     1
102
RTVSPropertyOp40
 70
     1
102
RTVSPropertyOp41
 70
     1
102
RTVSPropertyOp42
 70
     1
102
RTVSPropertyOp43
 70
     1
102
RTVSPropertyOp44
 70
     1
102
RTVSPropertyOp45
 70
     1
102
RTVSPropertyOp46
 70
     1
102
RTVSPropertyOp47
 70
     1
102
RTVSPropertyOp48
 70
     1
102
RTVSPropertyOp49
 70
     1
102
RTVSPropertyOp50
 70
     1
102
RTVSPropertyOp51
 70
     0
102
RTVSPropertyOp52
 70
     0
102
RTVSPropertyOp53
 70
     1
102
RTVSPropertyOp54
 70
     1
102
RTVSPropertyOp55
 70
     1
102
RTVSPropertyOp56
 70
     1
102
RTVSPropertyOp57
 70
     1
102
RTVSPropertyOp58
 70
     1
102
RTVSPropertyOp59
 70
     1
102
RTVSPropertyOp60
 70
     1
102
RTVSPropertyOp61
 70
     1
102
RTVSPropertyOp62
 70
     1
  0
XRECORD
  5
54E
102
{ACAD_REACTORS
330
54D
102
}
330
54D
100
AcDbXrecord
280
     1
102
RTVSPost2010Prop28
280
     0
102
RTVSPost2010PropOp28
 70
     1
102
RTVSPost2010Prop29
280
     1
102
RTVSPost2010PropOp29
 70
     1
102
RTVSPost2010Prop30
280
     1
102
RTVSPost2010PropOp30
 70
     1
102
RTVSPost2010Prop31
280
     0
102
RTVSPost2010PropOp31
 70
     1
102
RTVSPost2010Prop32
280
     0
102
RTVSPost2010PropOp32
 70
     1
102
RTVSPost2010Prop33
280
     0
102
RTVSPost2010PropOp33
 70
     1
102
RTVSPost2010Prop34
280
     0
102
RTVSPost2010PropOp34
 70
     1
102
RTVSPost2010Prop35
280
     0
102
RTVSPost2010PropOp35
 70
     1
102
RTVSPost2010Prop36
280
     0
102
RTVSPost2010PropOp36
 70
     1
102
RTVSPost2010Prop37
 90
       50
102
RTVSPost2010PropOp37
 70
     1
102
RTVSPost2010Prop38
140
0.0
102
RTVSPost2010PropOp38
 70
     1
102
RTVSPost2010Prop39
140
1.0
102
RTVSPost2010PropOp39
 70
     1
102
RTVSPost2010Prop40
 90
        0
102
RTVSPost2010PropOp40
 70
     1
102
RTVSPost2010Prop41ColorIndex
 90
       18
102
RTVSPost2010Prop41ColorRGB
 90
        0
102
RTVSPost2010PropOp41
 70
     1
102
RTVSPost2010Prop42
 90
       50
102
RTVSPost2010PropOp42
 70
     1
102
RTVSPost2010Prop43
 90
        3
102
RTVSPost2010PropOp43
 70
     1
102
RTVSPost2010Prop44ColorIndex
 90
        5
102
RTVSPost2010Prop44ColorRGB
 90
      255
102
RTVSPost2010PropOp44
 70
     1
102
RTVSPost2010Prop45
280
     0
102
RTVSPost2010PropOp45
 70
     1
102
RTVSPost2010Prop46
 90
       50
102
RTVSPost2010PropOp46
 70
     1
102
RTVSPost2010Prop47
 90
       50
102
RTVSPost2010PropOp47
 70
     1
102
RTVSPost2010Prop48
 90
       50
102
RTVSPost2010PropOp48
 70
     1
102
RTVSPost2010Prop49
280
     0
102
RTVSPost2010PropOp49
 70
     1
102
RTVSPost2010Prop50
 90
       50
102
RTVSPost2010PropOp50
 70
     1
102
RTVSPost2010Prop51ColorIndex
 90
      256
102
RTVSPost2010Prop51ColorRGB
 90
-16777216
102
RTVSPost2010PropOp51
 70
     0
102
RTVSPost2010Prop52
140
1.0
102
RTVSPost2010PropOp52
 70
     0
102
RTVSPost2010Prop53
 90
        2
102
RTVSPost2010PropOp53
 70
     1
102
RTVSPost2010Prop54
  1
strokes_ogs.tif
102
RTVSPost2010PropOp54
 70
     1
102
RTVSPost2010Prop55
280
     0
102
RTVSPost2010PropOp55
 70
     1
102
RTVSPost2010Prop56
140
1.0
102
RTVSPost2010PropOp56
 70
     1
102
RTVSPost2010Prop57
140
1.0
102
RTVSPost2010PropOp57
 70
     1
102
RTVSPropertyOp0
 70
     1
102
RTVSPropertyOp1
 70
     1
102
RTVSPropertyOp2
 70
     1
102
RTVSPropertyOp3
 70
     1
102
RTVSPropertyOp4
 70
     1
102
RTVSPropertyOp5
 70
     1
102
RTVSPropertyOp6
 70
     1
102
RTVSPropertyOp7
 70
     1
102
RTVSPropertyOp8
 70
     1
102
RTVSPropertyOp9
 70
     1
102
RTVSPropertyOp10
 70
     1
102
RTVSPropertyOp11
 70
     1
102
RTVSPropertyOp12
 70
     1
102
RTVSPropertyOp13
 70
     1
102
RTVSPropertyOp14
 70
     1
102
RTVSPropertyOp15
 70
     1
102
RTVSPropertyOp16
 70
     1
102
RTVSPropertyOp17
 70
     1
102
RTVSPropertyOp18
 70
     1
102
RTVSPropertyOp19
 70
     1
102
RTVSPropertyOp20
 70
     1
102
RTVSPropertyOp21
 70
     1
102
RTVSPropertyOp22
 70
     1
102
RTVSPropertyOp23
 70
     1
102
RTVSPropertyOp24
 70
     1
102
RTVSPropertyOp25
 70
     1
102
RTVSPropertyOp26
 70
     1
102
RTVSPropertyOp27
 70
     1
102
RTVSPropertyOp28
 70
     1
102
RTVSPropertyOp29
 70
     1
102
RTVSPropertyOp30
 70
     1
102
RTVSPropertyOp31
 70
     1
102
RTVSPropertyOp32
 70
     1
102
RTVSPropertyOp33
 70
     1
102
RTVSPropertyOp34
 70
     1
102
RTVSPropertyOp35
 70
     1
102
RTVSPropertyOp36
 70
     1
102
RTVSPropertyOp37
 70
     1
102
RTVSPropertyOp38
 70
     1
102
RTVSPropertyOp39
 70
     1
102
RTVSPropertyOp40
 70
     1
102
RTVSPropertyOp41
 70
     1
102
RTVSPropertyOp42
 70
     1
102
RTVSPropertyOp43
 70
     1
102
RTVSPropertyOp44
 70
     1
102
RTVSPropertyOp45
 70
     1
102
RTVSPropertyOp46
 70
     1
102
RTVSPropertyOp47
 70
     1
102
RTVSPropertyOp48
 70
     1
102
RTVSPropertyOp49
 70
     1
102
RTVSPropertyOp50
 70
     1
102
RTVSPropertyOp51
 70
     0
102
RTVSPropertyOp52
 70
     0
102
RTVSPropertyOp53
 70
     1
102
RTVSPropertyOp54
 70
     1
102
RTVSPropertyOp55
 70
     1
102
RTVSPropertyOp56
 70
     1
102
RTVSPropertyOp57
 70
     1
102
RTVSPropertyOp58
 70
     1
102
RTVSPropertyOp59
 70
     1
102
RTVSPropertyOp60
 70
     1
102
RTVSPropertyOp61
 70
     1
102
RTVSPropertyOp62
 70
     1
  0
XRECORD
  5
556
102
{ACAD_REACTORS
330
555
102
}
330
555
100
AcDbXrecord
280
     1
102
RTVSPost2010Prop28
280
     0
102
RTVSPost2010PropOp28
 70
     1
102
RTVSPost2010Prop29
280
     1
102
RTVSPost2010PropOp29
 70
     1
102
RTVSPost2010Prop30
280
     1
102
RTVSPost2010PropOp30
 70
     1
102
RTVSPost2010Prop31
280
     0
102
RTVSPost2010PropOp31
 70
     1
102
RTVSPost2010Prop32
280
     0
102
RTVSPost2010PropOp32
 70
     1
102
RTVSPost2010Prop33
280
     0
102
RTVSPost2010PropOp33
 70
     1
102
RTVSPost2010Prop34
280
     0
102
RTVSPost2010PropOp34
 70
     1
102
RTVSPost2010Prop35
280
     0
102
RTVSPost2010PropOp35
 70
     1
102
RTVSPost2010Prop36
280
     0
102
RTVSPost2010PropOp36
 70
     1
102
RTVSPost2010Prop37
 90
       50
102
RTVSPost2010PropOp37
 70
     1
102
RTVSPost2010Prop38
140
0.0
102
RTVSPost2010PropOp38
 70
     1
102
RTVSPost2010Prop39
140
1.0
102
RTVSPost2010PropOp39
 70
     1
102
RTVSPost2010Prop40
 90
        0
102
RTVSPost2010PropOp40
 70
     1
102
RTVSPost2010Prop41ColorIndex
 90
       18
102
RTVSPost2010Prop41ColorRGB
 90
        0
102
RTVSPost2010PropOp41
 70
     1
102
RTVSPost2010Prop42
 90
       50
102
RTVSPost2010PropOp42
 70
     1
102
RTVSPost2010Prop43
 90
        3
102
RTVSPost2010PropOp43
 70
     1
102
RTVSPost2010Prop44ColorIndex
 90
        5
102
RTVSPost2010Prop44ColorRGB
 90
      255
102
RTVSPost2010PropOp44
 70
     1
102
RTVSPost2010Prop45
280
     0
102
RTVSPost2010PropOp45
 70
     1
102
RTVSPost2010Prop46
 90
       50
102
RTVSPost2010PropOp46
 70
     1
102
RTVSPost2010Prop47
 90
       50
102
RTVSPost2010PropOp47
 70
     1
102
RTVSPost2010Prop48
 90
       50
102
RTVSPost2010PropOp48
 70
     1
102
RTVSPost2010Prop49
280
     0
102
RTVSPost2010PropOp49
 70
     1
102
RTVSPost2010Prop50
 90
       50
102
RTVSPost2010PropOp50
 70
     1
102
RTVSPost2010Prop51ColorIndex
 90
      256
102
RTVSPost2010Prop51ColorRGB
 90
-16777216
102
RTVSPost2010PropOp51
 70
     0
102
RTVSPost2010Prop52
140
1.0
102
RTVSPost2010PropOp52
 70
     0
102
RTVSPost2010Prop53
 90
        2
102
RTVSPost2010PropOp53
 70
     1
102
RTVSPost2010Prop54
  1
strokes_ogs.tif
102
RTVSPost2010PropOp54
 70
     1
102
RTVSPost2010Prop55
280
     0
102
RTVSPost2010PropOp55
 70
     1
102
RTVSPost2010Prop56
140
1.0
102
RTVSPost2010PropOp56
 70
     1
102
RTVSPost2010Prop57
140
1.0
102
RTVSPost2010PropOp57
 70
     1
102
RTVSPropertyOp0
 70
     1
102
RTVSPropertyOp1
 70
     1
102
RTVSPropertyOp2
 70
     1
102
RTVSPropertyOp3
 70
     1
102
RTVSPropertyOp4
 70
     1
102
RTVSPropertyOp5
 70
     1
102
RTVSPropertyOp6
 70
     1
102
RTVSPropertyOp7
 70
     1
102
RTVSPropertyOp8
 70
     1
102
RTVSPropertyOp9
 70
     1
102
RTVSPropertyOp10
 70
     1
102
RTVSPropertyOp11
 70
     1
102
RTVSPropertyOp12
 70
     1
102
RTVSPropertyOp13
 70
     1
102
RTVSPropertyOp14
 70
     1
102
RTVSPropertyOp15
 70
     1
102
RTVSPropertyOp16
 70
     1
102
RTVSPropertyOp17
 70
     1
102
RTVSPropertyOp18
 70
     1
102
RTVSPropertyOp19
 70
     1
102
RTVSPropertyOp20
 70
     1
102
RTVSPropertyOp21
 70
     1
102
RTVSPropertyOp22
 70
     1
102
RTVSPropertyOp23
 70
     1
102
RTVSPropertyOp24
 70
     1
102
RTVSPropertyOp25
 70
     1
102
RTVSPropertyOp26
 70
     1
102
RTVSPropertyOp27
 70
     1
102
RTVSPropertyOp28
 70
     1
102
RTVSPropertyOp29
 70
     1
102
RTVSPropertyOp30
 70
     1
102
RTVSPropertyOp31
 70
     1
102
RTVSPropertyOp32
 70
     1
102
RTVSPropertyOp33
 70
     1
102
RTVSPropertyOp34
 70
     1
102
RTVSPropertyOp35
 70
     1
102
RTVSPropertyOp36
 70
     1
102
RTVSPropertyOp37
 70
     1
102
RTVSPropertyOp38
 70
     1
102
RTVSPropertyOp39
 70
     1
102
RTVSPropertyOp40
 70
     1
102
RTVSPropertyOp41
 70
     1
102
RTVSPropertyOp42
 70
     1
102
RTVSPropertyOp43
 70
     1
102
RTVSPropertyOp44
 70
     1
102
RTVSPropertyOp45
 70
     1
102
RTVSPropertyOp46
 70
     1
102
RTVSPropertyOp47
 70
     1
102
RTVSPropertyOp48
 70
     1
102
RTVSPropertyOp49
 70
     1
102
RTVSPropertyOp50
 70
     1
102
RTVSPropertyOp51
 70
     0
102
RTVSPropertyOp52
 70
     0
102
RTVSPropertyOp53
 70
     1
102
RTVSPropertyOp54
 70
     1
102
RTVSPropertyOp55
 70
     1
102
RTVSPropertyOp56
 70
     1
102
RTVSPropertyOp57
 70
     1
102
RTVSPropertyOp58
 70
     1
102
RTVSPropertyOp59
 70
     1
102
RTVSPropertyOp60
 70
     1
102
RTVSPropertyOp61
 70
     1
102
RTVSPropertyOp62
 70
     1
  0
XRECORD
  5
572
102
{ACAD_REACTORS
330
571
102
}
330
571
100
AcDbXrecord
280
     1
102
RTVSPost2010Prop28
280
     0
102
RTVSPost2010PropOp28
 70
     0
102
RTVSPost2010Prop29
280
     1
102
RTVSPost2010PropOp29
 70
     0
102
RTVSPost2010Prop30
280
     1
102
RTVSPost2010PropOp30
 70
     0
102
RTVSPost2010Prop31
280
     0
102
RTVSPost2010PropOp31
 70
     0
102
RTVSPost2010Prop32
280
     0
102
RTVSPost2010PropOp32
 70
     0
102
RTVSPost2010Prop33
280
     0
102
RTVSPost2010PropOp33
 70
     0
102
RTVSPost2010Prop34
280
     0
102
RTVSPost2010PropOp34
 70
     0
102
RTVSPost2010Prop35
280
     0
102
RTVSPost2010PropOp35
 70
     0
102
RTVSPost2010Prop36
280
     0
102
RTVSPost2010PropOp36
 70
     0
102
RTVSPost2010Prop37
 90
       50
102
RTVSPost2010PropOp37
 70
     0
102
RTVSPost2010Prop38
140
0.0
102
RTVSPost2010PropOp38
 70
     0
102
RTVSPost2010Prop39
140
1.0
102
RTVSPost2010PropOp39
 70
     0
102
RTVSPost2010Prop40
 90
        0
102
RTVSPost2010PropOp40
 70
     0
102
RTVSPost2010Prop41ColorIndex
 90
       18
102
RTVSPost2010Prop41ColorRGB
 90
        0
102
RTVSPost2010PropOp41
 70
     0
102
RTVSPost2010Prop42
 90
       50
102
RTVSPost2010PropOp42
 70
     0
102
RTVSPost2010Prop43
 90
        3
102
RTVSPost2010PropOp43
 70
     0
102
RTVSPost2010Prop44ColorIndex
 90
        5
102
RTVSPost2010Prop44ColorRGB
 90
      255
102
RTVSPost2010PropOp44
 70
     0
102
RTVSPost2010Prop45
280
     0
102
RTVSPost2010PropOp45
 70
     0
102
RTVSPost2010Prop46
 90
       50
102
RTVSPost2010PropOp46
 70
     0
102
RTVSPost2010Prop47
 90
       50
102
RTVSPost2010PropOp47
 70
     0
102
RTVSPost2010Prop48
 90
       50
102
RTVSPost2010PropOp48
 70
     0
102
RTVSPost2010Prop49
280
     0
102
RTVSPost2010PropOp49
 70
     0
102
RTVSPost2010Prop50
 90
       50
102
RTVSPost2010PropOp50
 70
     0
102
RTVSPost2010Prop51ColorIndex
 90
      256
102
RTVSPost2010Prop51ColorRGB
 90
-16777216
102
RTVSPost2010PropOp51
 70
     0
102
RTVSPost2010Prop52
140
1.0
102
RTVSPost2010PropOp52
 70
     0
102
RTVSPost2010Prop53
 90
        2
102
RTVSPost2010PropOp53
 70
     0
102
RTVSPost2010Prop54
  1
strokes_ogs.tif
102
RTVSPost2010PropOp54
 70
     0
102
RTVSPost2010Prop55
280
     0
102
RTVSPost2010PropOp55
 70
     0
102
RTVSPost2010Prop56
140
1.0
102
RTVSPost2010PropOp56
 70
     0
102
RTVSPost2010Prop57
140
1.0
102
RTVSPost2010PropOp57
 70
     0
102
RTVSPropertyOp0
 70
     0
102
RTVSPropertyOp1
 70
     0
102
RTVSPropertyOp2
 70
     0
102
RTVSPropertyOp3
 70
     0
102
RTVSPropertyOp4
 70
     0
102
RTVSPropertyOp5
 70
     0
102
RTVSPropertyOp6
 70
     0
102
RTVSPropertyOp7
 70
     0
102
RTVSPropertyOp8
 70
     0
102
RTVSPropertyOp9
 70
     0
102
RTVSPropertyOp10
 70
     0
102
RTVSPropertyOp11
 70
     0
102
RTVSPropertyOp12
 70
     0
102
RTVSPropertyOp13
 70
     0
102
RTVSPropertyOp14
 70
     2
102
RTVSPropertyOp15
 70
     0
102
RTVSPropertyOp16
 70
     0
102
RTVSPropertyOp17
 70
     0
102
RTVSPropertyOp18
 70
     0
102
RTVSPropertyOp19
 70
     0
102
RTVSPropertyOp20
 70
     0
102
RTVSPropertyOp21
 70
     0
102
RTVSPropertyOp22
 70
     0
102
RTVSPropertyOp23
 70
     0
102
RTVSPropertyOp24
 70
     0
102
RTVSPropertyOp25
 70
     0
102
RTVSPropertyOp26
 70
     0
102
RTVSPropertyOp27
 70
     0
102
RTVSPropertyOp28
 70
     0
102
RTVSPropertyOp29
 70
     0
102
RTVSPropertyOp30
 70
     0
102
RTVSPropertyOp31
 70
     0
102
RTVSPropertyOp32
 70
     0
102
RTVSPropertyOp33
 70
     0
102
RTVSPropertyOp34
 70
     0
102
RTVSPropertyOp35
 70
     0
102
RTVSPropertyOp36
 70
     0
102
RTVSPropertyOp37
 70
     0
102
RTVSPropertyOp38
 70
     0
102
RTVSPropertyOp39
 70
     0
102
RTVSPropertyOp40
 70
     0
102
RTVSPropertyOp41
 70
     0
102
RTVSPropertyOp42
 70
     0
102
RTVSPropertyOp43
 70
     0
102
RTVSPropertyOp44
 70
     0
102
RTVSPropertyOp45
 70
     0
102
RTVSPropertyOp46
 70
     0
102
RTVSPropertyOp47
 70
     0
102
RTVSPropertyOp48
 70
     0
102
RTVSPropertyOp49
 70
     0
102
RTVSPropertyOp50
 70
     0
102
RTVSPropertyOp51
 70
     0
102
RTVSPropertyOp52
 70
     0
102
RTVSPropertyOp53
 70
     0
102
RTVSPropertyOp54
 70
     0
102
RTVSPropertyOp55
 70
     0
102
RTVSPropertyOp56
 70
     0
102
RTVSPropertyOp57
 70
     0
102
RTVSPropertyOp58
 70
     0
102
RTVSPropertyOp59
 70
     0
102
RTVSPropertyOp60
 70
     0
102
RTVSPropertyOp61
 70
     0
102
RTVSPropertyOp62
 70
     0
  0
XRECORD
  5
562
102
{ACAD_REACTORS
330
561
102
}
330
561
100
AcDbXrecord
280
     1
102
RTVSPost2010Prop28
280
     0
102
RTVSPost2010PropOp28
 70
     1
102
RTVSPost2010Prop29
280
     1
102
RTVSPost2010PropOp29
 70
     1
102
RTVSPost2010Prop30
280
     1
102
RTVSPost2010PropOp30
 70
     1
102
RTVSPost2010Prop31
280
     0
102
RTVSPost2010PropOp31
 70
     1
102
RTVSPost2010Prop32
280
     0
102
RTVSPost2010PropOp32
 70
     1
102
RTVSPost2010Prop33
280
     0
102
RTVSPost2010PropOp33
 70
     1
102
RTVSPost2010Prop34
280
     0
102
RTVSPost2010PropOp34
 70
     1
102
RTVSPost2010Prop35
280
     0
102
RTVSPost2010PropOp35
 70
     1
102
RTVSPost2010Prop36
280
     0
102
RTVSPost2010PropOp36
 70
     1
102
RTVSPost2010Prop37
 90
       50
102
RTVSPost2010PropOp37
 70
     1
102
RTVSPost2010Prop38
140
0.0
102
RTVSPost2010PropOp38
 70
     1
102
RTVSPost2010Prop39
140
1.0
102
RTVSPost2010PropOp39
 70
     1
102
RTVSPost2010Prop40
 90
        0
102
RTVSPost2010PropOp40
 70
     1
102
RTVSPost2010Prop41ColorIndex
 90
       18
102
RTVSPost2010Prop41ColorRGB
 90
        0
102
RTVSPost2010PropOp41
 70
     1
102
RTVSPost2010Prop42
 90
       50
102
RTVSPost2010PropOp42
 70
     1
102
RTVSPost2010Prop43
 90
        3
102
RTVSPost2010PropOp43
 70
     1
102
RTVSPost2010Prop44ColorIndex
 90
        5
102
RTVSPost2010Prop44ColorRGB
 90
      255
102
RTVSPost2010PropOp44
 70
     1
102
RTVSPost2010Prop45
280
     0
102
RTVSPost2010PropOp45
 70
     1
102
RTVSPost2010Prop46
 90
       50
102
RTVSPost2010PropOp46
 70
     1
102
RTVSPost2010Prop47
 90
       50
102
RTVSPost2010PropOp47
 70
     1
102
RTVSPost2010Prop48
 90
       50
102
RTVSPost2010PropOp48
 70
     1
102
RTVSPost2010Prop49
280
     0
102
RTVSPost2010PropOp49
 70
     1
102
RTVSPost2010Prop50
 90
       50
102
RTVSPost2010PropOp50
 70
     1
102
RTVSPost2010Prop51ColorIndex
 90
      256
102
RTVSPost2010Prop51ColorRGB
 90
-16777216
102
RTVSPost2010PropOp51
 70
     0
102
RTVSPost2010Prop52
140
1.0
102
RTVSPost2010PropOp52
 70
     0
102
RTVSPost2010Prop53
 90
        2
102
RTVSPost2010PropOp53
 70
     1
102
RTVSPost2010Prop54
  1
strokes_ogs.tif
102
RTVSPost2010PropOp54
 70
     1
102
RTVSPost2010Prop55
280
     0
102
RTVSPost2010PropOp55
 70
     1
102
RTVSPost2010Prop56
140
1.0
102
RTVSPost2010PropOp56
 70
     1
102
RTVSPost2010Prop57
140
1.0
102
RTVSPost2010PropOp57
 70
     1
102
RTVSPropertyOp0
 70
     1
102
RTVSPropertyOp1
 70
     1
102
RTVSPropertyOp2
 70
     1
102
RTVSPropertyOp3
 70
     1
102
RTVSPropertyOp4
 70
     1
102
RTVSPropertyOp5
 70
     1
102
RTVSPropertyOp6
 70
     1
102
RTVSPropertyOp7
 70
     1
102
RTVSPropertyOp8
 70
     1
102
RTVSPropertyOp9
 70
     1
102
RTVSPropertyOp10
 70
     1
102
RTVSPropertyOp11
 70
     1
102
RTVSPropertyOp12
 70
     1
102
RTVSPropertyOp13
 70
     1
102
RTVSPropertyOp14
 70
     1
102
RTVSPropertyOp15
 70
     1
102
RTVSPropertyOp16
 70
     1
102
RTVSPropertyOp17
 70
     1
102
RTVSPropertyOp18
 70
     1
102
RTVSPropertyOp19
 70
     1
102
RTVSPropertyOp20
 70
     1
102
RTVSPropertyOp21
 70
     1
102
RTVSPropertyOp22
 70
     1
102
RTVSPropertyOp23
 70
     1
102
RTVSPropertyOp24
 70
     1
102
RTVSPropertyOp25
 70
     1
102
RTVSPropertyOp26
 70
     1
102
RTVSPropertyOp27
 70
     1
102
RTVSPropertyOp28
 70
     1
102
RTVSPropertyOp29
 70
     1
102
RTVSPropertyOp30
 70
     1
102
RTVSPropertyOp31
 70
     1
102
RTVSPropertyOp32
 70
     1
102
RTVSPropertyOp33
 70
     1
102
RTVSPropertyOp34
 70
     1
102
RTVSPropertyOp35
 70
     1
102
RTVSPropertyOp36
 70
     1
102
RTVSPropertyOp37
 70
     1
102
RTVSPropertyOp38
 70
     1
102
RTVSPropertyOp39
 70
     1
102
RTVSPropertyOp40
 70
     1
102
RTVSPropertyOp41
 70
     1
102
RTVSPropertyOp42
 70
     1
102
RTVSPropertyOp43
 70
     1
102
RTVSPropertyOp44
 70
     1
102
RTVSPropertyOp45
 70
     1
102
RTVSPropertyOp46
 70
     1
102
RTVSPropertyOp47
 70
     1
102
RTVSPropertyOp48
 70
     1
102
RTVSPropertyOp49
 70
     1
102
RTVSPropertyOp50
 70
     1
102
RTVSPropertyOp51
 70
     0
102
RTVSPropertyOp52
 70
     0
102
RTVSPropertyOp53
 70
     1
102
RTVSPropertyOp54
 70
     1
102
RTVSPropertyOp55
 70
     1
102
RTVSPropertyOp56
 70
     1
102
RTVSPropertyOp57
 70
     1
102
RTVSPropertyOp58
 70
     1
102
RTVSPropertyOp59
 70
     1
102
RTVSPropertyOp60
 70
     1
102
RTVSPropertyOp61
 70
     1
102
RTVSPropertyOp62
 70
     1
  0
XRECORD
  5
574
102
{ACAD_REACTORS
330
573
102
}
330
573
100
AcDbXrecord
280
     1
102
RTVSPost2010Prop28
280
     0
102
RTVSPost2010PropOp28
 70
     0
102
RTVSPost2010Prop29
280
     1
102
RTVSPost2010PropOp29
 70
     0
102
RTVSPost2010Prop30
280
     1
102
RTVSPost2010PropOp30
 70
     0
102
RTVSPost2010Prop31
280
     0
102
RTVSPost2010PropOp31
 70
     0
102
RTVSPost2010Prop32
280
     0
102
RTVSPost2010PropOp32
 70
     0
102
RTVSPost2010Prop33
280
     0
102
RTVSPost2010PropOp33
 70
     0
102
RTVSPost2010Prop34
280
     0
102
RTVSPost2010PropOp34
 70
     0
102
RTVSPost2010Prop35
280
     0
102
RTVSPost2010PropOp35
 70
     0
102
RTVSPost2010Prop36
280
     0
102
RTVSPost2010PropOp36
 70
     0
102
RTVSPost2010Prop37
 90
       50
102
RTVSPost2010PropOp37
 70
     0
102
RTVSPost2010Prop38
140
0.0
102
RTVSPost2010PropOp38
 70
     0
102
RTVSPost2010Prop39
140
1.0
102
RTVSPost2010PropOp39
 70
     0
102
RTVSPost2010Prop40
 90
        0
102
RTVSPost2010PropOp40
 70
     0
102
RTVSPost2010Prop41ColorIndex
 90
       18
102
RTVSPost2010Prop41ColorRGB
 90
        0
102
RTVSPost2010PropOp41
 70
     0
102
RTVSPost2010Prop42
 90
       50
102
RTVSPost2010PropOp42
 70
     0
102
RTVSPost2010Prop43
 90
        3
102
RTVSPost2010PropOp43
 70
     0
102
RTVSPost2010Prop44ColorIndex
 90
        5
102
RTVSPost2010Prop44ColorRGB
 90
      255
102
RTVSPost2010PropOp44
 70
     0
102
RTVSPost2010Prop45
280
     0
102
RTVSPost2010PropOp45
 70
     0
102
RTVSPost2010Prop46
 90
       50
102
RTVSPost2010PropOp46
 70
     0
102
RTVSPost2010Prop47
 90
       50
102
RTVSPost2010PropOp47
 70
     0
102
RTVSPost2010Prop48
 90
       50
102
RTVSPost2010PropOp48
 70
     0
102
RTVSPost2010Prop49
280
     0
102
RTVSPost2010PropOp49
 70
     0
102
RTVSPost2010Prop50
 90
       50
102
RTVSPost2010PropOp50
 70
     0
102
RTVSPost2010Prop51ColorIndex
 90
      256
102
RTVSPost2010Prop51ColorRGB
 90
-16777216
102
RTVSPost2010PropOp51
 70
     0
102
RTVSPost2010Prop52
140
1.0
102
RTVSPost2010PropOp52
 70
     0
102
RTVSPost2010Prop53
 90
        2
102
RTVSPost2010PropOp53
 70
     0
102
RTVSPost2010Prop54
  1
strokes_ogs.tif
102
RTVSPost2010PropOp54
 70
     0
102
RTVSPost2010Prop55
280
     0
102
RTVSPost2010PropOp55
 70
     0
102
RTVSPost2010Prop56
140
1.0
102
RTVSPost2010PropOp56
 70
     0
102
RTVSPost2010Prop57
140
1.0
102
RTVSPost2010PropOp57
 70
     0
102
RTVSPropertyOp0
 70
     0
102
RTVSPropertyOp1
 70
     0
102
RTVSPropertyOp2
 70
     0
102
RTVSPropertyOp3
 70
     0
102
RTVSPropertyOp4
 70
     0
102
RTVSPropertyOp5
 70
     0
102
RTVSPropertyOp6
 70
     0
102
RTVSPropertyOp7
 70
     0
102
RTVSPropertyOp8
 70
     0
102
RTVSPropertyOp9
 70
     0
102
RTVSPropertyOp10
 70
     0
102
RTVSPropertyOp11
 70
     0
102
RTVSPropertyOp12
 70
     0
102
RTVSPropertyOp13
 70
     0
102
RTVSPropertyOp14
 70
     2
102
RTVSPropertyOp15
 70
     0
102
RTVSPropertyOp16
 70
     0
102
RTVSPropertyOp17
 70
     0
102
RTVSPropertyOp18
 70
     0
102
RTVSPropertyOp19
 70
     0
102
RTVSPropertyOp20
 70
     0
102
RTVSPropertyOp21
 70
     0
102
RTVSPropertyOp22
 70
     0
102
RTVSPropertyOp23
 70
     0
102
RTVSPropertyOp24
 70
     0
102
RTVSPropertyOp25
 70
     0
102
RTVSPropertyOp26
 70
     0
102
RTVSPropertyOp27
 70
     0
102
RTVSPropertyOp28
 70
     0
102
RTVSPropertyOp29
 70
     0
102
RTVSPropertyOp30
 70
     0
102
RTVSPropertyOp31
 70
     0
102
RTVSPropertyOp32
 70
     0
102
RTVSPropertyOp33
 70
     0
102
RTVSPropertyOp34
 70
     0
102
RTVSPropertyOp35
 70
     0
102
RTVSPropertyOp36
 70
     0
102
RTVSPropertyOp37
 70
     0
102
RTVSPropertyOp38
 70
     0
102
RTVSPropertyOp39
 70
     0
102
RTVSPropertyOp40
 70
     0
102
RTVSPropertyOp41
 70
     0
102
RTVSPropertyOp42
 70
     0
102
RTVSPropertyOp43
 70
     0
102
RTVSPropertyOp44
 70
     0
102
RTVSPropertyOp45
 70
     0
102
RTVSPropertyOp46
 70
     0
102
RTVSPropertyOp47
 70
     0
102
RTVSPropertyOp48
 70
     0
102
RTVSPropertyOp49
 70
     0
102
RTVSPropertyOp50
 70
     0
102
RTVSPropertyOp51
 70
     0
102
RTVSPropertyOp52
 70
     0
102
RTVSPropertyOp53
 70
     0
102
RTVSPropertyOp54
 70
     0
102
RTVSPropertyOp55
 70
     0
102
RTVSPropertyOp56
 70
     0
102
RTVSPropertyOp57
 70
     0
102
RTVSPropertyOp58
 70
     0
102
RTVSPropertyOp59
 70
     0
102
RTVSPropertyOp60
 70
     0
102
RTVSPropertyOp61
 70
     0
102
RTVSPropertyOp62
 70
     0
  0
XRECORD
  5
55A
102
{ACAD_REACTORS
330
559
102
}
330
559
100
AcDbXrecord
280
     1
102
RTVSPost2010Prop28
280
     0
102
RTVSPost2010PropOp28
 70
     1
102
RTVSPost2010Prop29
280
     1
102
RTVSPost2010PropOp29
 70
     1
102
RTVSPost2010Prop30
280
     1
102
RTVSPost2010PropOp30
 70
     1
102
RTVSPost2010Prop31
280
     0
102
RTVSPost2010PropOp31
 70
     1
102
RTVSPost2010Prop32
280
     0
102
RTVSPost2010PropOp32
 70
     1
102
RTVSPost2010Prop33
280
     0
102
RTVSPost2010PropOp33
 70
     1
102
RTVSPost2010Prop34
280
     0
102
RTVSPost2010PropOp34
 70
     1
102
RTVSPost2010Prop35
280
     0
102
RTVSPost2010PropOp35
 70
     1
102
RTVSPost2010Prop36
280
     0
102
RTVSPost2010PropOp36
 70
     1
102
RTVSPost2010Prop37
 90
       50
102
RTVSPost2010PropOp37
 70
     1
102
RTVSPost2010Prop38
140
0.0
102
RTVSPost2010PropOp38
 70
     1
102
RTVSPost2010Prop39
140
1.0
102
RTVSPost2010PropOp39
 70
     1
102
RTVSPost2010Prop40
 90
        0
102
RTVSPost2010PropOp40
 70
     1
102
RTVSPost2010Prop41ColorIndex
 90
       18
102
RTVSPost2010Prop41ColorRGB
 90
        0
102
RTVSPost2010PropOp41
 70
     1
102
RTVSPost2010Prop42
 90
       50
102
RTVSPost2010PropOp42
 70
     1
102
RTVSPost2010Prop43
 90
        3
102
RTVSPost2010PropOp43
 70
     1
102
RTVSPost2010Prop44ColorIndex
 90
        5
102
RTVSPost2010Prop44ColorRGB
 90
      255
102
RTVSPost2010PropOp44
 70
     1
102
RTVSPost2010Prop45
280
     0
102
RTVSPost2010PropOp45
 70
     1
102
RTVSPost2010Prop46
 90
       50
102
RTVSPost2010PropOp46
 70
     1
102
RTVSPost2010Prop47
 90
       50
102
RTVSPost2010PropOp47
 70
     1
102
RTVSPost2010Prop48
 90
       50
102
RTVSPost2010PropOp48
 70
     1
102
RTVSPost2010Prop49
280
     0
102
RTVSPost2010PropOp49
 70
     1
102
RTVSPost2010Prop50
 90
       50
102
RTVSPost2010PropOp50
 70
     1
102
RTVSPost2010Prop51ColorIndex
 90
      256
102
RTVSPost2010Prop51ColorRGB
 90
-16777216
102
RTVSPost2010PropOp51
 70
     0
102
RTVSPost2010Prop52
140
1.0
102
RTVSPost2010PropOp52
 70
     0
102
RTVSPost2010Prop53
 90
        2
102
RTVSPost2010PropOp53
 70
     1
102
RTVSPost2010Prop54
  1
strokes_ogs.tif
102
RTVSPost2010PropOp54
 70
     1
102
RTVSPost2010Prop55
280
     0
102
RTVSPost2010PropOp55
 70
     1
102
RTVSPost2010Prop56
140
1.0
102
RTVSPost2010PropOp56
 70
     1
102
RTVSPost2010Prop57
140
1.0
102
RTVSPost2010PropOp57
 70
     1
102
RTVSPropertyOp0
 70
     1
102
RTVSPropertyOp1
 70
     1
102
RTVSPropertyOp2
 70
     1
102
RTVSPropertyOp3
 70
     1
102
RTVSPropertyOp4
 70
     1
102
RTVSPropertyOp5
 70
     1
102
RTVSPropertyOp6
 70
     1
102
RTVSPropertyOp7
 70
     1
102
RTVSPropertyOp8
 70
     1
102
RTVSPropertyOp9
 70
     1
102
RTVSPropertyOp10
 70
     1
102
RTVSPropertyOp11
 70
     1
102
RTVSPropertyOp12
 70
     1
102
RTVSPropertyOp13
 70
     1
102
RTVSPropertyOp14
 70
     1
102
RTVSPropertyOp15
 70
     1
102
RTVSPropertyOp16
 70
     1
102
RTVSPropertyOp17
 70
     1
102
RTVSPropertyOp18
 70
     1
102
RTVSPropertyOp19
 70
     1
102
RTVSPropertyOp20
 70
     1
102
RTVSPropertyOp21
 70
     1
102
RTVSPropertyOp22
 70
     1
102
RTVSPropertyOp23
 70
     1
102
RTVSPropertyOp24
 70
     1
102
RTVSPropertyOp25
 70
     1
102
RTVSPropertyOp26
 70
     1
102
RTVSPropertyOp27
 70
     1
102
RTVSPropertyOp28
 70
     1
102
RTVSPropertyOp29
 70
     1
102
RTVSPropertyOp30
 70
     1
102
RTVSPropertyOp31
 70
     1
102
RTVSPropertyOp32
 70
     1
102
RTVSPropertyOp33
 70
     1
102
RTVSPropertyOp34
 70
     1
102
RTVSPropertyOp35
 70
     1
102
RTVSPropertyOp36
 70
     1
102
RTVSPropertyOp37
 70
     1
102
RTVSPropertyOp38
 70
     1
102
RTVSPropertyOp39
 70
     1
102
RTVSPropertyOp40
 70
     1
102
RTVSPropertyOp41
 70
     1
102
RTVSPropertyOp42
 70
     1
102
RTVSPropertyOp43
 70
     1
102
RTVSPropertyOp44
 70
     1
102
RTVSPropertyOp45
 70
     1
102
RTVSPropertyOp46
 70
     1
102
RTVSPropertyOp47
 70
     1
102
RTVSPropertyOp48
 70
     1
102
RTVSPropertyOp49
 70
     1
102
RTVSPropertyOp50
 70
     1
102
RTVSPropertyOp51
 70
     0
102
RTVSPropertyOp52
 70
     0
102
RTVSPropertyOp53
 70
     1
102
RTVSPropertyOp54
 70
     1
102
RTVSPropertyOp55
 70
     1
102
RTVSPropertyOp56
 70
     1
102
RTVSPropertyOp57
 70
     1
102
RTVSPropertyOp58
 70
     1
102
RTVSPropertyOp59
 70
     1
102
RTVSPropertyOp60
 70
     1
102
RTVSPropertyOp61
 70
     1
102
RTVSPropertyOp62
 70
     1
  0
XRECORD
  5
570
102
{ACAD_REACTORS
330
56F
102
}
330
56F
100
AcDbXrecord
280
     1
102
RTVSPost2010Prop28
280
     0
102
RTVSPost2010PropOp28
 70
     1
102
RTVSPost2010Prop29
280
     1
102
RTVSPost2010PropOp29
 70
     1
102
RTVSPost2010Prop30
280
     1
102
RTVSPost2010PropOp30
 70
     1
102
RTVSPost2010Prop31
280
     0
102
RTVSPost2010PropOp31
 70
     1
102
RTVSPost2010Prop32
280
     0
102
RTVSPost2010PropOp32
 70
     1
102
RTVSPost2010Prop33
280
     0
102
RTVSPost2010PropOp33
 70
     1
102
RTVSPost2010Prop34
280
     0
102
RTVSPost2010PropOp34
 70
     1
102
RTVSPost2010Prop35
280
     0
102
RTVSPost2010PropOp35
 70
     1
102
RTVSPost2010Prop36
280
     0
102
RTVSPost2010PropOp36
 70
     1
102
RTVSPost2010Prop37
 90
       50
102
RTVSPost2010PropOp37
 70
     1
102
RTVSPost2010Prop38
140
0.0
102
RTVSPost2010PropOp38
 70
     1
102
RTVSPost2010Prop39
140
1.0
102
RTVSPost2010PropOp39
 70
     1
102
RTVSPost2010Prop40
 90
        0
102
RTVSPost2010PropOp40
 70
     1
102
RTVSPost2010Prop41ColorIndex
 90
       18
102
RTVSPost2010Prop41ColorRGB
 90
        0
102
RTVSPost2010PropOp41
 70
     1
102
RTVSPost2010Prop42
 90
       50
102
RTVSPost2010PropOp42
 70
     1
102
RTVSPost2010Prop43
 90
        3
102
RTVSPost2010PropOp43
 70
     1
102
RTVSPost2010Prop44ColorIndex
 90
        5
102
RTVSPost2010Prop44ColorRGB
 90
      255
102
RTVSPost2010PropOp44
 70
     1
102
RTVSPost2010Prop45
280
     0
102
RTVSPost2010PropOp45
 70
     1
102
RTVSPost2010Prop46
 90
       50
102
RTVSPost2010PropOp46
 70
     1
102
RTVSPost2010Prop47
 90
       50
102
RTVSPost2010PropOp47
 70
     1
102
RTVSPost2010Prop48
 90
       50
102
RTVSPost2010PropOp48
 70
     1
102
RTVSPost2010Prop49
280
     0
102
RTVSPost2010PropOp49
 70
     1
102
RTVSPost2010Prop50
 90
       50
102
RTVSPost2010PropOp50
 70
     1
102
RTVSPost2010Prop51ColorIndex
 90
      256
102
RTVSPost2010Prop51ColorRGB
 90
-16777216
102
RTVSPost2010PropOp51
 70
     0
102
RTVSPost2010Prop52
140
1.0
102
RTVSPost2010PropOp52
 70
     0
102
RTVSPost2010Prop53
 90
        2
102
RTVSPost2010PropOp53
 70
     1
102
RTVSPost2010Prop54
  1
strokes_ogs.tif
102
RTVSPost2010PropOp54
 70
     1
102
RTVSPost2010Prop55
280
     0
102
RTVSPost2010PropOp55
 70
     1
102
RTVSPost2010Prop56
140
1.0
102
RTVSPost2010PropOp56
 70
     1
102
RTVSPost2010Prop57
140
1.0
102
RTVSPost2010PropOp57
 70
     1
102
RTVSPropertyOp0
 70
     1
102
RTVSPropertyOp1
 70
     1
102
RTVSPropertyOp2
 70
     1
102
RTVSPropertyOp3
 70
     1
102
RTVSPropertyOp4
 70
     1
102
RTVSPropertyOp5
 70
     1
102
RTVSPropertyOp6
 70
     1
102
RTVSPropertyOp7
 70
     1
102
RTVSPropertyOp8
 70
     1
102
RTVSPropertyOp9
 70
     1
102
RTVSPropertyOp10
 70
     1
102
RTVSPropertyOp11
 70
     1
102
RTVSPropertyOp12
 70
     1
102
RTVSPropertyOp13
 70
     1
102
RTVSPropertyOp14
 70
     1
102
RTVSPropertyOp15
 70
     1
102
RTVSPropertyOp16
 70
     1
102
RTVSPropertyOp17
 70
     1
102
RTVSPropertyOp18
 70
     1
102
RTVSPropertyOp19
 70
     1
102
RTVSPropertyOp20
 70
     1
102
RTVSPropertyOp21
 70
     1
102
RTVSPropertyOp22
 70
     1
102
RTVSPropertyOp23
 70
     1
102
RTVSPropertyOp24
 70
     1
102
RTVSPropertyOp25
 70
     1
102
RTVSPropertyOp26
 70
     1
102
RTVSPropertyOp27
 70
     1
102
RTVSPropertyOp28
 70
     1
102
RTVSPropertyOp29
 70
     1
102
RTVSPropertyOp30
 70
     1
102
RTVSPropertyOp31
 70
     1
102
RTVSPropertyOp32
 70
     1
102
RTVSPropertyOp33
 70
     1
102
RTVSPropertyOp34
 70
     1
102
RTVSPropertyOp35
 70
     1
102
RTVSPropertyOp36
 70
     1
102
RTVSPropertyOp37
 70
     1
102
RTVSPropertyOp38
 70
     1
102
RTVSPropertyOp39
 70
     1
102
RTVSPropertyOp40
 70
     1
102
RTVSPropertyOp41
 70
     1
102
RTVSPropertyOp42
 70
     1
102
RTVSPropertyOp43
 70
     1
102
RTVSPropertyOp44
 70
     1
102
RTVSPropertyOp45
 70
     1
102
RTVSPropertyOp46
 70
     1
102
RTVSPropertyOp47
 70
     1
102
RTVSPropertyOp48
 70
     1
102
RTVSPropertyOp49
 70
     1
102
RTVSPropertyOp50
 70
     1
102
RTVSPropertyOp51
 70
     0
102
RTVSPropertyOp52
 70
     0
102
RTVSPropertyOp53
 70
     1
102
RTVSPropertyOp54
 70
     1
102
RTVSPropertyOp55
 70
     1
102
RTVSPropertyOp56
 70
     1
102
RTVSPropertyOp57
 70
     1
102
RTVSPropertyOp58
 70
     1
102
RTVSPropertyOp59
 70
     1
102
RTVSPropertyOp60
 70
     1
102
RTVSPropertyOp61
 70
     1
102
RTVSPropertyOp62
 70
     1
  0
XRECORD
  5
56E
102
{ACAD_REACTORS
330
56D
102
}
330
56D
100
AcDbXrecord
280
     1
102
RTVSPost2010Prop28
280
     0
102
RTVSPost2010PropOp28
 70
     1
102
RTVSPost2010Prop29
280
     1
102
RTVSPost2010PropOp29
 70
     1
102
RTVSPost2010Prop30
280
     1
102
RTVSPost2010PropOp30
 70
     1
102
RTVSPost2010Prop31
280
     0
102
RTVSPost2010PropOp31
 70
     1
102
RTVSPost2010Prop32
280
     0
102
RTVSPost2010PropOp32
 70
     1
102
RTVSPost2010Prop33
280
     0
102
RTVSPost2010PropOp33
 70
     1
102
RTVSPost2010Prop34
280
     0
102
RTVSPost2010PropOp34
 70
     1
102
RTVSPost2010Prop35
280
     0
102
RTVSPost2010PropOp35
 70
     1
102
RTVSPost2010Prop36
280
     0
102
RTVSPost2010PropOp36
 70
     1
102
RTVSPost2010Prop37
 90
       50
102
RTVSPost2010PropOp37
 70
     1
102
RTVSPost2010Prop38
140
0.0
102
RTVSPost2010PropOp38
 70
     1
102
RTVSPost2010Prop39
140
1.0
102
RTVSPost2010PropOp39
 70
     1
102
RTVSPost2010Prop40
 90
        0
102
RTVSPost2010PropOp40
 70
     1
102
RTVSPost2010Prop41ColorIndex
 90
       18
102
RTVSPost2010Prop41ColorRGB
 90
        0
102
RTVSPost2010PropOp41
 70
     1
102
RTVSPost2010Prop42
 90
       50
102
RTVSPost2010PropOp42
 70
     1
102
RTVSPost2010Prop43
 90
        3
102
RTVSPost2010PropOp43
 70
     1
102
RTVSPost2010Prop44ColorIndex
 90
        5
102
RTVSPost2010Prop44ColorRGB
 90
      255
102
RTVSPost2010PropOp44
 70
     1
102
RTVSPost2010Prop45
280
     0
102
RTVSPost2010PropOp45
 70
     1
102
RTVSPost2010Prop46
 90
       50
102
RTVSPost2010PropOp46
 70
     1
102
RTVSPost2010Prop47
 90
       50
102
RTVSPost2010PropOp47
 70
     1
102
RTVSPost2010Prop48
 90
       50
102
RTVSPost2010PropOp48
 70
     1
102
RTVSPost2010Prop49
280
     0
102
RTVSPost2010PropOp49
 70
     1
102
RTVSPost2010Prop50
 90
       50
102
RTVSPost2010PropOp50
 70
     1
102
RTVSPost2010Prop51ColorIndex
 90
      256
102
RTVSPost2010Prop51ColorRGB
 90
-16777216
102
RTVSPost2010PropOp51
 70
     0
102
RTVSPost2010Prop52
140
1.0
102
RTVSPost2010PropOp52
 70
     0
102
RTVSPost2010Prop53
 90
        2
102
RTVSPost2010PropOp53
 70
     1
102
RTVSPost2010Prop54
  1
strokes_ogs.tif
102
RTVSPost2010PropOp54
 70
     1
102
RTVSPost2010Prop55
280
     0
102
RTVSPost2010PropOp55
 70
     1
102
RTVSPost2010Prop56
140
1.0
102
RTVSPost2010PropOp56
 70
     1
102
RTVSPost2010Prop57
140
1.0
102
RTVSPost2010PropOp57
 70
     1
102
RTVSPropertyOp0
 70
     1
102
RTVSPropertyOp1
 70
     1
102
RTVSPropertyOp2
 70
     1
102
RTVSPropertyOp3
 70
     1
102
RTVSPropertyOp4
 70
     1
102
RTVSPropertyOp5
 70
     1
102
RTVSPropertyOp6
 70
     1
102
RTVSPropertyOp7
 70
     1
102
RTVSPropertyOp8
 70
     1
102
RTVSPropertyOp9
 70
     1
102
RTVSPropertyOp10
 70
     1
102
RTVSPropertyOp11
 70
     1
102
RTVSPropertyOp12
 70
     1
102
RTVSPropertyOp13
 70
     1
102
RTVSPropertyOp14
 70
     1
102
RTVSPropertyOp15
 70
     1
102
RTVSPropertyOp16
 70
     1
102
RTVSPropertyOp17
 70
     1
102
RTVSPropertyOp18
 70
     1
102
RTVSPropertyOp19
 70
     1
102
RTVSPropertyOp20
 70
     1
102
RTVSPropertyOp21
 70
     1
102
RTVSPropertyOp22
 70
     1
102
RTVSPropertyOp23
 70
     1
102
RTVSPropertyOp24
 70
     1
102
RTVSPropertyOp25
 70
     1
102
RTVSPropertyOp26
 70
     1
102
RTVSPropertyOp27
 70
     1
102
RTVSPropertyOp28
 70
     1
102
RTVSPropertyOp29
 70
     1
102
RTVSPropertyOp30
 70
     1
102
RTVSPropertyOp31
 70
     1
102
RTVSPropertyOp32
 70
     1
102
RTVSPropertyOp33
 70
     1
102
RTVSPropertyOp34
 70
     1
102
RTVSPropertyOp35
 70
     1
102
RTVSPropertyOp36
 70
     1
102
RTVSPropertyOp37
 70
     1
102
RTVSPropertyOp38
 70
     1
102
RTVSPropertyOp39
 70
     1
102
RTVSPropertyOp40
 70
     1
102
RTVSPropertyOp41
 70
     1
102
RTVSPropertyOp42
 70
     1
102
RTVSPropertyOp43
 70
     1
102
RTVSPropertyOp44
 70
     1
102
RTVSPropertyOp45
 70
     1
102
RTVSPropertyOp46
 70
     1
102
RTVSPropertyOp47
 70
     1
102
RTVSPropertyOp48
 70
     1
102
RTVSPropertyOp49
 70
     1
102
RTVSPropertyOp50
 70
     1
102
RTVSPropertyOp51
 70
     0
102
RTVSPropertyOp52
 70
     0
102
RTVSPropertyOp53
 70
     1
102
RTVSPropertyOp54
 70
     1
102
RTVSPropertyOp55
 70
     1
102
RTVSPropertyOp56
 70
     1
102
RTVSPropertyOp57
 70
     1
102
RTVSPropertyOp58
 70
     1
102
RTVSPropertyOp59
 70
     1
102
RTVSPropertyOp60
 70
     1
102
RTVSPropertyOp61
 70
     1
102
RTVSPropertyOp62
 70
     1
  0
XRECORD
  5
568
102
{ACAD_REACTORS
330
567
102
}
330
567
100
AcDbXrecord
280
     1
102
RTVSPost2010Prop28
280
     0
102
RTVSPost2010PropOp28
 70
     1
102
RTVSPost2010Prop29
280
     1
102
RTVSPost2010PropOp29
 70
     1
102
RTVSPost2010Prop30
280
     1
102
RTVSPost2010PropOp30
 70
     1
102
RTVSPost2010Prop31
280
     0
102
RTVSPost2010PropOp31
 70
     1
102
RTVSPost2010Prop32
280
     0
102
RTVSPost2010PropOp32
 70
     1
102
RTVSPost2010Prop33
280
     0
102
RTVSPost2010PropOp33
 70
     1
102
RTVSPost2010Prop34
280
     0
102
RTVSPost2010PropOp34
 70
     1
102
RTVSPost2010Prop35
280
     0
102
RTVSPost2010PropOp35
 70
     1
102
RTVSPost2010Prop36
280
     0
102
RTVSPost2010PropOp36
 70
     1
102
RTVSPost2010Prop37
 90
       50
102
RTVSPost2010PropOp37
 70
     1
102
RTVSPost2010Prop38
140
0.0
102
RTVSPost2010PropOp38
 70
     1
102
RTVSPost2010Prop39
140
1.0
102
RTVSPost2010PropOp39
 70
     1
102
RTVSPost2010Prop40
 90
        0
102
RTVSPost2010PropOp40
 70
     1
102
RTVSPost2010Prop41ColorIndex
 90
       18
102
RTVSPost2010Prop41ColorRGB
 90
        0
102
RTVSPost2010PropOp41
 70
     1
102
RTVSPost2010Prop42
 90
       50
102
RTVSPost2010PropOp42
 70
     1
102
RTVSPost2010Prop43
 90
        3
102
RTVSPost2010PropOp43
 70
     1
102
RTVSPost2010Prop44ColorIndex
 90
        5
102
RTVSPost2010Prop44ColorRGB
 90
      255
102
RTVSPost2010PropOp44
 70
     1
102
RTVSPost2010Prop45
280
     0
102
RTVSPost2010PropOp45
 70
     1
102
RTVSPost2010Prop46
 90
       50
102
RTVSPost2010PropOp46
 70
     1
102
RTVSPost2010Prop47
 90
       50
102
RTVSPost2010PropOp47
 70
     1
102
RTVSPost2010Prop48
 90
       50
102
RTVSPost2010PropOp48
 70
     1
102
RTVSPost2010Prop49
280
     0
102
RTVSPost2010PropOp49
 70
     1
102
RTVSPost2010Prop50
 90
       50
102
RTVSPost2010PropOp50
 70
     1
102
RTVSPost2010Prop51ColorIndex
 90
      256
102
RTVSPost2010Prop51ColorRGB
 90
-16777216
102
RTVSPost2010PropOp51
 70
     0
102
RTVSPost2010Prop52
140
1.0
102
RTVSPost2010PropOp52
 70
     0
102
RTVSPost2010Prop53
 90
        2
102
RTVSPost2010PropOp53
 70
     1
102
RTVSPost2010Prop54
  1
strokes_ogs.tif
102
RTVSPost2010PropOp54
 70
     1
102
RTVSPost2010Prop55
280
     0
102
RTVSPost2010PropOp55
 70
     1
102
RTVSPost2010Prop56
140
1.0
102
RTVSPost2010PropOp56
 70
     1
102
RTVSPost2010Prop57
140
1.0
102
RTVSPost2010PropOp57
 70
     1
102
RTVSPropertyOp0
 70
     1
102
RTVSPropertyOp1
 70
     1
102
RTVSPropertyOp2
 70
     1
102
RTVSPropertyOp3
 70
     1
102
RTVSPropertyOp4
 70
     1
102
RTVSPropertyOp5
 70
     1
102
RTVSPropertyOp6
 70
     1
102
RTVSPropertyOp7
 70
     1
102
RTVSPropertyOp8
 70
     1
102
RTVSPropertyOp9
 70
     1
102
RTVSPropertyOp10
 70
     1
102
RTVSPropertyOp11
 70
     1
102
RTVSPropertyOp12
 70
     1
102
RTVSPropertyOp13
 70
     1
102
RTVSPropertyOp14
 70
     1
102
RTVSPropertyOp15
 70
     1
102
RTVSPropertyOp16
 70
     1
102
RTVSPropertyOp17
 70
     1
102
RTVSPropertyOp18
 70
     1
102
RTVSPropertyOp19
 70
     1
102
RTVSPropertyOp20
 70
     1
102
RTVSPropertyOp21
 70
     1
102
RTVSPropertyOp22
 70
     1
102
RTVSPropertyOp23
 70
     1
102
RTVSPropertyOp24
 70
     1
102
RTVSPropertyOp25
 70
     1
102
RTVSPropertyOp26
 70
     1
102
RTVSPropertyOp27
 70
     1
102
RTVSPropertyOp28
 70
     1
102
RTVSPropertyOp29
 70
     1
102
RTVSPropertyOp30
 70
     1
102
RTVSPropertyOp31
 70
     1
102
RTVSPropertyOp32
 70
     1
102
RTVSPropertyOp33
 70
     1
102
RTVSPropertyOp34
 70
     1
102
RTVSPropertyOp35
 70
     1
102
RTVSPropertyOp36
 70
     1
102
RTVSPropertyOp37
 70
     1
102
RTVSPropertyOp38
 70
     1
102
RTVSPropertyOp39
 70
     1
102
RTVSPropertyOp40
 70
     1
102
RTVSPropertyOp41
 70
     1
102
RTVSPropertyOp42
 70
     1
102
RTVSPropertyOp43
 70
     1
102
RTVSPropertyOp44
 70
     1
102
RTVSPropertyOp45
 70
     1
102
RTVSPropertyOp46
 70
     1
102
RTVSPropertyOp47
 70
     1
102
RTVSPropertyOp48
 70
     1
102
RTVSPropertyOp49
 70
     1
102
RTVSPropertyOp50
 70
     1
102
RTVSPropertyOp51
 70
     0
102
RTVSPropertyOp52
 70
     0
102
RTVSPropertyOp53
 70
     1
102
RTVSPropertyOp54
 70
     1
102
RTVSPropertyOp55
 70
     1
102
RTVSPropertyOp56
 70
     1
102
RTVSPropertyOp57
 70
     1
102
RTVSPropertyOp58
 70
     1
102
RTVSPropertyOp59
 70
     1
102
RTVSPropertyOp60
 70
     1
102
RTVSPropertyOp61
 70
     1
102
RTVSPropertyOp62
 70
     1
  0
XRECORD
  5
56A
102
{ACAD_REACTORS
330
569
102
}
330
569
100
AcDbXrecord
280
     1
102
RTVSPost2010Prop28
280
     0
102
RTVSPost2010PropOp28
 70
     1
102
RTVSPost2010Prop29
280
     1
102
RTVSPost2010PropOp29
 70
     1
102
RTVSPost2010Prop30
280
     1
102
RTVSPost2010PropOp30
 70
     1
102
RTVSPost2010Prop31
280
     0
102
RTVSPost2010PropOp31
 70
     1
102
RTVSPost2010Prop32
280
     0
102
RTVSPost2010PropOp32
 70
     1
102
RTVSPost2010Prop33
280
     0
102
RTVSPost2010PropOp33
 70
     1
102
RTVSPost2010Prop34
280
     0
102
RTVSPost2010PropOp34
 70
     1
102
RTVSPost2010Prop35
280
     0
102
RTVSPost2010PropOp35
 70
     1
102
RTVSPost2010Prop36
280
     0
102
RTVSPost2010PropOp36
 70
     1
102
RTVSPost2010Prop37
 90
       50
102
RTVSPost2010PropOp37
 70
     1
102
RTVSPost2010Prop38
140
0.0
102
RTVSPost2010PropOp38
 70
     1
102
RTVSPost2010Prop39
140
1.0
102
RTVSPost2010PropOp39
 70
     1
102
RTVSPost2010Prop40
 90
        0
102
RTVSPost2010PropOp40
 70
     1
102
RTVSPost2010Prop41ColorIndex
 90
       18
102
RTVSPost2010Prop41ColorRGB
 90
        0
102
RTVSPost2010PropOp41
 70
     1
102
RTVSPost2010Prop42
 90
       50
102
RTVSPost2010PropOp42
 70
     1
102
RTVSPost2010Prop43
 90
        3
102
RTVSPost2010PropOp43
 70
     1
102
RTVSPost2010Prop44ColorIndex
 90
        5
102
RTVSPost2010Prop44ColorRGB
 90
      255
102
RTVSPost2010PropOp44
 70
     1
102
RTVSPost2010Prop45
280
     0
102
RTVSPost2010PropOp45
 70
     1
102
RTVSPost2010Prop46
 90
       50
102
RTVSPost2010PropOp46
 70
     1
102
RTVSPost2010Prop47
 90
       50
102
RTVSPost2010PropOp47
 70
     1
102
RTVSPost2010Prop48
 90
       50
102
RTVSPost2010PropOp48
 70
     1
102
RTVSPost2010Prop49
280
     0
102
RTVSPost2010PropOp49
 70
     1
102
RTVSPost2010Prop50
 90
       50
102
RTVSPost2010PropOp50
 70
     1
102
RTVSPost2010Prop51ColorIndex
 90
      256
102
RTVSPost2010Prop51ColorRGB
 90
-16777216
102
RTVSPost2010PropOp51
 70
     0
102
RTVSPost2010Prop52
140
1.0
102
RTVSPost2010PropOp52
 70
     0
102
RTVSPost2010Prop53
 90
        2
102
RTVSPost2010PropOp53
 70
     1
102
RTVSPost2010Prop54
  1
strokes_ogs.tif
102
RTVSPost2010PropOp54
 70
     1
102
RTVSPost2010Prop55
280
     0
102
RTVSPost2010PropOp55
 70
     1
102
RTVSPost2010Prop56
140
1.0
102
RTVSPost2010PropOp56
 70
     1
102
RTVSPost2010Prop57
140
1.0
102
RTVSPost2010PropOp57
 70
     1
102
RTVSPropertyOp0
 70
     1
102
RTVSPropertyOp1
 70
     1
102
RTVSPropertyOp2
 70
     1
102
RTVSPropertyOp3
 70
     1
102
RTVSPropertyOp4
 70
     1
102
RTVSPropertyOp5
 70
     1
102
RTVSPropertyOp6
 70
     1
102
RTVSPropertyOp7
 70
     1
102
RTVSPropertyOp8
 70
     1
102
RTVSPropertyOp9
 70
     1
102
RTVSPropertyOp10
 70
     1
102
RTVSPropertyOp11
 70
     1
102
RTVSPropertyOp12
 70
     1
102
RTVSPropertyOp13
 70
     1
102
RTVSPropertyOp14
 70
     1
102
RTVSPropertyOp15
 70
     1
102
RTVSPropertyOp16
 70
     1
102
RTVSPropertyOp17
 70
     1
102
RTVSPropertyOp18
 70
     1
102
RTVSPropertyOp19
 70
     1
102
RTVSPropertyOp20
 70
     1
102
RTVSPropertyOp21
 70
     1
102
RTVSPropertyOp22
 70
     1
102
RTVSPropertyOp23
 70
     1
102
RTVSPropertyOp24
 70
     1
102
RTVSPropertyOp25
 70
     1
102
RTVSPropertyOp26
 70
     1
102
RTVSPropertyOp27
 70
     1
102
RTVSPropertyOp28
 70
     1
102
RTVSPropertyOp29
 70
     1
102
RTVSPropertyOp30
 70
     1
102
RTVSPropertyOp31
 70
     1
102
RTVSPropertyOp32
 70
     1
102
RTVSPropertyOp33
 70
     1
102
RTVSPropertyOp34
 70
     1
102
RTVSPropertyOp35
 70
     1
102
RTVSPropertyOp36
 70
     1
102
RTVSPropertyOp37
 70
     1
102
RTVSPropertyOp38
 70
     1
102
RTVSPropertyOp39
 70
     1
102
RTVSPropertyOp40
 70
     1
102
RTVSPropertyOp41
 70
     1
102
RTVSPropertyOp42
 70
     1
102
RTVSPropertyOp43
 70
     1
102
RTVSPropertyOp44
 70
     1
102
RTVSPropertyOp45
 70
     1
102
RTVSPropertyOp46
 70
     1
102
RTVSPropertyOp47
 70
     1
102
RTVSPropertyOp48
 70
     1
102
RTVSPropertyOp49
 70
     1
102
RTVSPropertyOp50
 70
     1
102
RTVSPropertyOp51
 70
     0
102
RTVSPropertyOp52
 70
     0
102
RTVSPropertyOp53
 70
     1
102
RTVSPropertyOp54
 70
     1
102
RTVSPropertyOp55
 70
     1
102
RTVSPropertyOp56
 70
     1
102
RTVSPropertyOp57
 70
     1
102
RTVSPropertyOp58
 70
     1
102
RTVSPropertyOp59
 70
     1
102
RTVSPropertyOp60
 70
     1
102
RTVSPropertyOp61
 70
     1
102
RTVSPropertyOp62
 70
     1
  0
XRECORD
  5
560
102
{ACAD_REACTORS
330
55F
102
}
330
55F
100
AcDbXrecord
280
     1
102
RTVSPost2010Prop28
280
     0
102
RTVSPost2010PropOp28
 70
     1
102
RTVSPost2010Prop29
280
     1
102
RTVSPost2010PropOp29
 70
     1
102
RTVSPost2010Prop30
280
     1
102
RTVSPost2010PropOp30
 70
     1
102
RTVSPost2010Prop31
280
     0
102
RTVSPost2010PropOp31
 70
     1
102
RTVSPost2010Prop32
280
     0
102
RTVSPost2010PropOp32
 70
     1
102
RTVSPost2010Prop33
280
     0
102
RTVSPost2010PropOp33
 70
     1
102
RTVSPost2010Prop34
280
     0
102
RTVSPost2010PropOp34
 70
     1
102
RTVSPost2010Prop35
280
     0
102
RTVSPost2010PropOp35
 70
     1
102
RTVSPost2010Prop36
280
     0
102
RTVSPost2010PropOp36
 70
     1
102
RTVSPost2010Prop37
 90
       50
102
RTVSPost2010PropOp37
 70
     1
102
RTVSPost2010Prop38
140
0.0
102
RTVSPost2010PropOp38
 70
     1
102
RTVSPost2010Prop39
140
1.0
102
RTVSPost2010PropOp39
 70
     1
102
RTVSPost2010Prop40
 90
        0
102
RTVSPost2010PropOp40
 70
     1
102
RTVSPost2010Prop41ColorIndex
 90
       18
102
RTVSPost2010Prop41ColorRGB
 90
        0
102
RTVSPost2010PropOp41
 70
     1
102
RTVSPost2010Prop42
 90
       50
102
RTVSPost2010PropOp42
 70
     1
102
RTVSPost2010Prop43
 90
        3
102
RTVSPost2010PropOp43
 70
     1
102
RTVSPost2010Prop44ColorIndex
 90
        5
102
RTVSPost2010Prop44ColorRGB
 90
      255
102
RTVSPost2010PropOp44
 70
     1
102
RTVSPost2010Prop45
280
     0
102
RTVSPost2010PropOp45
 70
     1
102
RTVSPost2010Prop46
 90
       50
102
RTVSPost2010PropOp46
 70
     1
102
RTVSPost2010Prop47
 90
       50
102
RTVSPost2010PropOp47
 70
     1
102
RTVSPost2010Prop48
 90
       50
102
RTVSPost2010PropOp48
 70
     1
102
RTVSPost2010Prop49
280
     0
102
RTVSPost2010PropOp49
 70
     1
102
RTVSPost2010Prop50
 90
       50
102
RTVSPost2010PropOp50
 70
     1
102
RTVSPost2010Prop51ColorIndex
 90
      256
102
RTVSPost2010Prop51ColorRGB
 90
-16777216
102
RTVSPost2010PropOp51
 70
     0
102
RTVSPost2010Prop52
140
1.0
102
RTVSPost2010PropOp52
 70
     0
102
RTVSPost2010Prop53
 90
        2
102
RTVSPost2010PropOp53
 70
     1
102
RTVSPost2010Prop54
  1
strokes_ogs.tif
102
RTVSPost2010PropOp54
 70
     1
102
RTVSPost2010Prop55
280
     0
102
RTVSPost2010PropOp55
 70
     1
102
RTVSPost2010Prop56
140
1.0
102
RTVSPost2010PropOp56
 70
     1
102
RTVSPost2010Prop57
140
1.0
102
RTVSPost2010PropOp57
 70
     1
102
RTVSPropertyOp0
 70
     1
102
RTVSPropertyOp1
 70
     1
102
RTVSPropertyOp2
 70
     1
102
RTVSPropertyOp3
 70
     1
102
RTVSPropertyOp4
 70
     1
102
RTVSPropertyOp5
 70
     1
102
RTVSPropertyOp6
 70
     1
102
RTVSPropertyOp7
 70
     1
102
RTVSPropertyOp8
 70
     1
102
RTVSPropertyOp9
 70
     1
102
RTVSPropertyOp10
 70
     1
102
RTVSPropertyOp11
 70
     1
102
RTVSPropertyOp12
 70
     1
102
RTVSPropertyOp13
 70
     1
102
RTVSPropertyOp14
 70
     1
102
RTVSPropertyOp15
 70
     1
102
RTVSPropertyOp16
 70
     1
102
RTVSPropertyOp17
 70
     1
102
RTVSPropertyOp18
 70
     1
102
RTVSPropertyOp19
 70
     1
102
RTVSPropertyOp20
 70
     1
102
RTVSPropertyOp21
 70
     1
102
RTVSPropertyOp22
 70
     1
102
RTVSPropertyOp23
 70
     1
102
RTVSPropertyOp24
 70
     1
102
RTVSPropertyOp25
 70
     1
102
RTVSPropertyOp26
 70
     1
102
RTVSPropertyOp27
 70
     1
102
RTVSPropertyOp28
 70
     1
102
RTVSPropertyOp29
 70
     1
102
RTVSPropertyOp30
 70
     1
102
RTVSPropertyOp31
 70
     1
102
RTVSPropertyOp32
 70
     1
102
RTVSPropertyOp33
 70
     1
102
RTVSPropertyOp34
 70
     1
102
RTVSPropertyOp35
 70
     1
102
RTVSPropertyOp36
 70
     1
102
RTVSPropertyOp37
 70
     1
102
RTVSPropertyOp38
 70
     1
102
RTVSPropertyOp39
 70
     1
102
RTVSPropertyOp40
 70
     1
102
RTVSPropertyOp41
 70
     1
102
RTVSPropertyOp42
 70
     1
102
RTVSPropertyOp43
 70
     1
102
RTVSPropertyOp44
 70
     1
102
RTVSPropertyOp45
 70
     1
102
RTVSPropertyOp46
 70
     1
102
RTVSPropertyOp47
 70
     1
102
RTVSPropertyOp48
 70
     1
102
RTVSPropertyOp49
 70
     1
102
RTVSPropertyOp50
 70
     1
102
RTVSPropertyOp51
 70
     0
102
RTVSPropertyOp52
 70
     0
102
RTVSPropertyOp53
 70
     1
102
RTVSPropertyOp54
 70
     1
102
RTVSPropertyOp55
 70
     1
102
RTVSPropertyOp56
 70
     1
102
RTVSPropertyOp57
 70
     1
102
RTVSPropertyOp58
 70
     1
102
RTVSPropertyOp59
 70
     1
102
RTVSPropertyOp60
 70
     1
102
RTVSPropertyOp61
 70
     1
102
RTVSPropertyOp62
 70
     1
  0
XRECORD
  5
554
102
{ACAD_REACTORS
330
553
102
}
330
553
100
AcDbXrecord
280
     1
102
RTVSPost2010Prop28
280
     0
102
RTVSPost2010PropOp28
 70
     1
102
RTVSPost2010Prop29
280
     1
102
RTVSPost2010PropOp29
 70
     1
102
RTVSPost2010Prop30
280
     1
102
RTVSPost2010PropOp30
 70
     1
102
RTVSPost2010Prop31
280
     0
102
RTVSPost2010PropOp31
 70
     1
102
RTVSPost2010Prop32
280
     0
102
RTVSPost2010PropOp32
 70
     1
102
RTVSPost2010Prop33
280
     0
102
RTVSPost2010PropOp33
 70
     1
102
RTVSPost2010Prop34
280
     0
102
RTVSPost2010PropOp34
 70
     1
102
RTVSPost2010Prop35
280
     0
102
RTVSPost2010PropOp35
 70
     1
102
RTVSPost2010Prop36
280
     0
102
RTVSPost2010PropOp36
 70
     1
102
RTVSPost2010Prop37
 90
       50
102
RTVSPost2010PropOp37
 70
     1
102
RTVSPost2010Prop38
140
0.0
102
RTVSPost2010PropOp38
 70
     1
102
RTVSPost2010Prop39
140
1.0
102
RTVSPost2010PropOp39
 70
     1
102
RTVSPost2010Prop40
 90
        0
102
RTVSPost2010PropOp40
 70
     1
102
RTVSPost2010Prop41ColorIndex
 90
       18
102
RTVSPost2010Prop41ColorRGB
 90
        0
102
RTVSPost2010PropOp41
 70
     1
102
RTVSPost2010Prop42
 90
       50
102
RTVSPost2010PropOp42
 70
     1
102
RTVSPost2010Prop43
 90
        3
102
RTVSPost2010PropOp43
 70
     1
102
RTVSPost2010Prop44ColorIndex
 90
        5
102
RTVSPost2010Prop44ColorRGB
 90
      255
102
RTVSPost2010PropOp44
 70
     1
102
RTVSPost2010Prop45
280
     0
102
RTVSPost2010PropOp45
 70
     1
102
RTVSPost2010Prop46
 90
       50
102
RTVSPost2010PropOp46
 70
     1
102
RTVSPost2010Prop47
 90
       50
102
RTVSPost2010PropOp47
 70
     1
102
RTVSPost2010Prop48
 90
       50
102
RTVSPost2010PropOp48
 70
     1
102
RTVSPost2010Prop49
280
     0
102
RTVSPost2010PropOp49
 70
     1
102
RTVSPost2010Prop50
 90
       50
102
RTVSPost2010PropOp50
 70
     1
102
RTVSPost2010Prop51ColorIndex
 90
      256
102
RTVSPost2010Prop51ColorRGB
 90
-16777216
102
RTVSPost2010PropOp51
 70
     0
102
RTVSPost2010Prop52
140
1.0
102
RTVSPost2010PropOp52
 70
     0
102
RTVSPost2010Prop53
 90
        2
102
RTVSPost2010PropOp53
 70
     1
102
RTVSPost2010Prop54
  1
strokes_ogs.tif
102
RTVSPost2010PropOp54
 70
     1
102
RTVSPost2010Prop55
280
     0
102
RTVSPost2010PropOp55
 70
     1
102
RTVSPost2010Prop56
140
1.0
102
RTVSPost2010PropOp56
 70
     1
102
RTVSPost2010Prop57
140
1.0
102
RTVSPost2010PropOp57
 70
     1
102
RTVSPropertyOp0
 70
     1
102
RTVSPropertyOp1
 70
     1
102
RTVSPropertyOp2
 70
     1
102
RTVSPropertyOp3
 70
     1
102
RTVSPropertyOp4
 70
     1
102
RTVSPropertyOp5
 70
     1
102
RTVSPropertyOp6
 70
     1
102
RTVSPropertyOp7
 70
     1
102
RTVSPropertyOp8
 70
     1
102
RTVSPropertyOp9
 70
     1
102
RTVSPropertyOp10
 70
     1
102
RTVSPropertyOp11
 70
     1
102
RTVSPropertyOp12
 70
     1
102
RTVSPropertyOp13
 70
     1
102
RTVSPropertyOp14
 70
     1
102
RTVSPropertyOp15
 70
     1
102
RTVSPropertyOp16
 70
     1
102
RTVSPropertyOp17
 70
     1
102
RTVSPropertyOp18
 70
     1
102
RTVSPropertyOp19
 70
     1
102
RTVSPropertyOp20
 70
     1
102
RTVSPropertyOp21
 70
     1
102
RTVSPropertyOp22
 70
     1
102
RTVSPropertyOp23
 70
     1
102
RTVSPropertyOp24
 70
     1
102
RTVSPropertyOp25
 70
     1
102
RTVSPropertyOp26
 70
     1
102
RTVSPropertyOp27
 70
     1
102
RTVSPropertyOp28
 70
     1
102
RTVSPropertyOp29
 70
     1
102
RTVSPropertyOp30
 70
     1
102
RTVSPropertyOp31
 70
     1
102
RTVSPropertyOp32
 70
     1
102
RTVSPropertyOp33
 70
     1
102
RTVSPropertyOp34
 70
     1
102
RTVSPropertyOp35
 70
     1
102
RTVSPropertyOp36
 70
     1
102
RTVSPropertyOp37
 70
     1
102
RTVSPropertyOp38
 70
     1
102
RTVSPropertyOp39
 70
     1
102
RTVSPropertyOp40
 70
     1
102
RTVSPropertyOp41
 70
     1
102
RTVSPropertyOp42
 70
     1
102
RTVSPropertyOp43
 70
     1
102
RTVSPropertyOp44
 70
     1
102
RTVSPropertyOp45
 70
     1
102
RTVSPropertyOp46
 70
     1
102
RTVSPropertyOp47
 70
     1
102
RTVSPropertyOp48
 70
     1
102
RTVSPropertyOp49
 70
     1
102
RTVSPropertyOp50
 70
     1
102
RTVSPropertyOp51
 70
     0
102
RTVSPropertyOp52
 70
     0
102
RTVSPropertyOp53
 70
     1
102
RTVSPropertyOp54
 70
     1
102
RTVSPropertyOp55
 70
     1
102
RTVSPropertyOp56
 70
     1
102
RTVSPropertyOp57
 70
     1
102
RTVSPropertyOp58
 70
     1
102
RTVSPropertyOp59
 70
     1
102
RTVSPropertyOp60
 70
     1
102
RTVSPropertyOp61
 70
     1
102
RTVSPropertyOp62
 70
     1
  0
XRECORD
  5
56C
102
{ACAD_REACTORS
330
56B
102
}
330
56B
100
AcDbXrecord
280
     1
102
RTVSPost2010Prop28
280
     0
102
RTVSPost2010PropOp28
 70
     1
102
RTVSPost2010Prop29
280
     1
102
RTVSPost2010PropOp29
 70
     1
102
RTVSPost2010Prop30
280
     1
102
RTVSPost2010PropOp30
 70
     1
102
RTVSPost2010Prop31
280
     0
102
RTVSPost2010PropOp31
 70
     1
102
RTVSPost2010Prop32
280
     0
102
RTVSPost2010PropOp32
 70
     1
102
RTVSPost2010Prop33
280
     0
102
RTVSPost2010PropOp33
 70
     1
102
RTVSPost2010Prop34
280
     0
102
RTVSPost2010PropOp34
 70
     1
102
RTVSPost2010Prop35
280
     0
102
RTVSPost2010PropOp35
 70
     1
102
RTVSPost2010Prop36
280
     0
102
RTVSPost2010PropOp36
 70
     1
102
RTVSPost2010Prop37
 90
       50
102
RTVSPost2010PropOp37
 70
     1
102
RTVSPost2010Prop38
140
0.0
102
RTVSPost2010PropOp38
 70
     1
102
RTVSPost2010Prop39
140
1.0
102
RTVSPost2010PropOp39
 70
     1
102
RTVSPost2010Prop40
 90
        0
102
RTVSPost2010PropOp40
 70
     1
102
RTVSPost2010Prop41ColorIndex
 90
       18
102
RTVSPost2010Prop41ColorRGB
 90
        0
102
RTVSPost2010PropOp41
 70
     1
102
RTVSPost2010Prop42
 90
       50
102
RTVSPost2010PropOp42
 70
     1
102
RTVSPost2010Prop43
 90
        3
102
RTVSPost2010PropOp43
 70
     1
102
RTVSPost2010Prop44ColorIndex
 90
        5
102
RTVSPost2010Prop44ColorRGB
 90
      255
102
RTVSPost2010PropOp44
 70
     1
102
RTVSPost2010Prop45
280
     0
102
RTVSPost2010PropOp45
 70
     1
102
RTVSPost2010Prop46
 90
       50
102
RTVSPost2010PropOp46
 70
     1
102
RTVSPost2010Prop47
 90
       50
102
RTVSPost2010PropOp47
 70
     1
102
RTVSPost2010Prop48
 90
       50
102
RTVSPost2010PropOp48
 70
     1
102
RTVSPost2010Prop49
280
     0
102
RTVSPost2010PropOp49
 70
     1
102
RTVSPost2010Prop50
 90
       50
102
RTVSPost2010PropOp50
 70
     1
102
RTVSPost2010Prop51ColorIndex
 90
      256
102
RTVSPost2010Prop51ColorRGB
 90
-16777216
102
RTVSPost2010PropOp51
 70
     0
102
RTVSPost2010Prop52
140
1.0
102
RTVSPost2010PropOp52
 70
     0
102
RTVSPost2010Prop53
 90
        2
102
RTVSPost2010PropOp53
 70
     1
102
RTVSPost2010Prop54
  1
strokes_ogs.tif
102
RTVSPost2010PropOp54
 70
     1
102
RTVSPost2010Prop55
280
     0
102
RTVSPost2010PropOp55
 70
     1
102
RTVSPost2010Prop56
140
1.0
102
RTVSPost2010PropOp56
 70
     1
102
RTVSPost2010Prop57
140
1.0
102
RTVSPost2010PropOp57
 70
     1
102
RTVSPropertyOp0
 70
     1
102
RTVSPropertyOp1
 70
     1
102
RTVSPropertyOp2
 70
     1
102
RTVSPropertyOp3
 70
     1
102
RTVSPropertyOp4
 70
     1
102
RTVSPropertyOp5
 70
     1
102
RTVSPropertyOp6
 70
     1
102
RTVSPropertyOp7
 70
     1
102
RTVSPropertyOp8
 70
     1
102
RTVSPropertyOp9
 70
     1
102
RTVSPropertyOp10
 70
     1
102
RTVSPropertyOp11
 70
     1
102
RTVSPropertyOp12
 70
     1
102
RTVSPropertyOp13
 70
     1
102
RTVSPropertyOp14
 70
     1
102
RTVSPropertyOp15
 70
     1
102
RTVSPropertyOp16
 70
     1
102
RTVSPropertyOp17
 70
     1
102
RTVSPropertyOp18
 70
     1
102
RTVSPropertyOp19
 70
     1
102
RTVSPropertyOp20
 70
     1
102
RTVSPropertyOp21
 70
     1
102
RTVSPropertyOp22
 70
     1
102
RTVSPropertyOp23
 70
     1
102
RTVSPropertyOp24
 70
     1
102
RTVSPropertyOp25
 70
     1
102
RTVSPropertyOp26
 70
     1
102
RTVSPropertyOp27
 70
     1
102
RTVSPropertyOp28
 70
     1
102
RTVSPropertyOp29
 70
     1
102
RTVSPropertyOp30
 70
     1
102
RTVSPropertyOp31
 70
     1
102
RTVSPropertyOp32
 70
     1
102
RTVSPropertyOp33
 70
     1
102
RTVSPropertyOp34
 70
     1
102
RTVSPropertyOp35
 70
     1
102
RTVSPropertyOp36
 70
     1
102
RTVSPropertyOp37
 70
     1
102
RTVSPropertyOp38
 70
     1
102
RTVSPropertyOp39
 70
     1
102
RTVSPropertyOp40
 70
     1
102
RTVSPropertyOp41
 70
     1
102
RTVSPropertyOp42
 70
     1
102
RTVSPropertyOp43
 70
     1
102
RTVSPropertyOp44
 70
     1
102
RTVSPropertyOp45
 70
     1
102
RTVSPropertyOp46
 70
     1
102
RTVSPropertyOp47
 70
     1
102
RTVSPropertyOp48
 70
     1
102
RTVSPropertyOp49
 70
     1
102
RTVSPropertyOp50
 70
     1
102
RTVSPropertyOp51
 70
     0
102
RTVSPropertyOp52
 70
     0
102
RTVSPropertyOp53
 70
     1
102
RTVSPropertyOp54
 70
     1
102
RTVSPropertyOp55
 70
     1
102
RTVSPropertyOp56
 70
     1
102
RTVSPropertyOp57
 70
     1
102
RTVSPropertyOp58
 70
     1
102
RTVSPropertyOp59
 70
     1
102
RTVSPropertyOp60
 70
     1
102
RTVSPropertyOp61
 70
     1
102
RTVSPropertyOp62
 70
     1
  0
ENDSEC
  0
EOF
