  0
SECTION
  2
HEADER
  9
$ACADVER
  1
AC1018
  9
$ACADMAINTVER
 70
   104
  9
$DWGCODEPAGE
  3
ANSI_932
  9
$INSBASE
 10
0.0
 20
0.0
 30
0.0
  9
$EXTMIN
 10
-1.31256543
 20
-0.91528518
 30
-0.10000763
  9
$EXTMAX
 10
28682.32859968
 20
20000.91565773
 30
0.00000153
  9
$LIMMIN
 10
0.0
 20
0.0
  9
$LIMMAX
 10
420.0
 20
330.0
  9
$ORTHOMODE
 70
     0
  9
$REGENMODE
 70
     1
  9
$FILLMODE
 70
     1
  9
$QTEXTMODE
 70
     0
  9
$MIRRTEXT
 70
     0
  9
$LTSCALE
 40
1.0
  9
$ATTMODE
 70
     1
  9
$TEXTSIZE
 40
0.2
  9
$TRACEWID
 40
0.05
  9
$TEXTSTYLE
  7
STANDARD
  9
$CLAYER
  8
0
  9
$CELTYPE
  6
BYLAYER
  9
$CECOLOR
 62
   256
  9
$CELTSCALE
 40
1.0
  9
$DISPSILH
 70
     1
  9
$DIMSCALE
 40
1.0
  9
$DIMASZ
 40
0.18
  9
$DIMEXO
 40
0.0625
  9
$DIMDLI
 40
0.38
  9
$DIMRND
 40
0.0
  9
$DIMDLE
 40
0.0
  9
$DIMEXE
 40
0.18
  9
$DIMTP
 40
0.0
  9
$DIMTM
 40
0.0
  9
$DIMTXT
 40
0.18
  9
$DIMCEN
 40
0.09
  9
$DIMTSZ
 40
0.0
  9
$DIMTOL
 70
     0
  9
$DIMLIM
 70
     0
  9
$DIMTIH
 70
     1
  9
$DIMTOH
 70
     1
  9
$DIMSE1
 70
     0
  9
$DIMSE2
 70
     0
  9
$DIMTAD
 70
     0
  9
$DIMZIN
 70
     0
  9
$DIMBLK
  1

  9
$DIMASO
 70
     1
  9
$DIMSHO
 70
     0
  9
$DIMPOST
  1

  9
$DIMAPOST
  1

  9
$DIMALT
 70
     0
  9
$DIMALTD
 70
     2
  9
$DIMALTF
 40
25.4
  9
$DIMLFAC
 40
1.0
  9
$DIMTOFL
 70
     0
  9
$DIMTVP
 40
0.0
  9
$DIMTIX
 70
     0
  9
$DIMSOXD
 70
     0
  9
$DIMSAH
 70
     0
  9
$DIMBLK1
  1

  9
$DIMBLK2
  1

  9
$DIMSTYLE
  2
YKK_SGDOT1
  9
$DIMCLRD
 70
     0
  9
$DIMCLRE
 70
     0
  9
$DIMCLRT
 70
     0
  9
$DIMTFAC
 40
1.0
  9
$DIMGAP
 40
0.09
  9
$DIMJUST
 70
     0
  9
$DIMSD1
 70
     0
  9
$DIMSD2
 70
     0
  9
$DIMTOLJ
 70
     1
  9
$DIMTZIN
 70
     0
  9
$DIMALTZ
 70
     0
  9
$DIMALTTZ
 70
     0
  9
$DIMUPT
 70
     0
  9
$DIMDEC
 70
     4
  9
$DIMTDEC
 70
     4
  9
$DIMALTU
 70
     2
  9
$DIMALTTD
 70
     2
  9
$DIMTXSTY
  7
STANDARD
  9
$DIMAUNIT
 70
     0
  9
$DIMADEC
 70
     0
  9
$DIMALTRND
 40
0.0
  9
$DIMAZIN
 70
     0
  9
$DIMDSEP
 70
    46
  9
$DIMATFIT
 70
     3
  9
$DIMFRAC
 70
     0
  9
$DIMLDRBLK
  1

  9
$DIMLUNIT
 70
     2
  9
$DIMLWD
 70
    -2
  9
$DIMLWE
 70
    -2
  9
$DIMTMOVE
 70
     2
  9
$LUNITS
 70
     2
  9
$LUPREC
 70
     4
  9
$SKETCHINC
 40
0.1
  9
$FILLETRAD
 40
1.0
  9
$AUNITS
 70
     0
  9
$AUPREC
 70
     0
  9
$MENU
  1
tool/YKK
  9
$ELEVATION
 40
0.0
  9
$PELEVATION
 40
0.0
  9
$THICKNESS
 40
0.0
  9
$LIMCHECK
 70
     0
  9
$CHAMFERA
 40
0.0
  9
$CHAMFERB
 40
0.0
  9
$CHAMFERC
 40
0.0
  9
$CHAMFERD
 40
0.0
  9
$SKPOLY
 70
     0
  9
$TDCREATE
 40
2453046.710803669
  9
$TDUCREATE
 40
2453046.335803669
  9
$TDUPDATE
 40
2457185.492897292
  9
$TDUUPDATE
 40
2457185.117897292
  9
$TDINDWG
 40
0.0000590856
  9
$TDUSRTIMER
 40
0.0000590856
  9
$USRTIMER
 70
     1
  9
$ANGBASE
 50
0.0
  9
$ANGDIR
 70
     0
  9
$PDMODE
 70
     0
  9
$PDSIZE
 40
0.0
  9
$PLINEWID
 40
0.0
  9
$SPLFRAME
 70
     0
  9
$SPLINETYPE
 70
     6
  9
$SPLINESEGS
 70
     8
  9
$HANDSEED
  5
647
  9
$SURFTAB1
 70
     6
  9
$SURFTAB2
 70
     6
  9
$SURFTYPE
 70
     6
  9
$SURFU
 70
     6
  9
$SURFV
 70
     6
  9
$UCSBASE
  2

  9
$UCSNAME
  2

  9
$UCSORG
 10
0.0
 20
0.0
 30
0.0
  9
$UCSXDIR
 10
1.0
 20
0.0
 30
0.0
  9
$UCSYDIR
 10
0.0
 20
1.0
 30
0.0
  9
$UCSORTHOREF
  2

  9
$UCSORTHOVIEW
 70
     0
  9
$UCSORGTOP
 10
0.0
 20
0.0
 30
0.0
  9
$UCSORGBOTTOM
 10
0.0
 20
0.0
 30
0.0
  9
$UCSORGLEFT
 10
0.0
 20
0.0
 30
0.0
  9
$UCSORGRIGHT
 10
0.0
 20
0.0
 30
0.0
  9
$UCSORGFRONT
 10
0.0
 20
0.0
 30
0.0
  9
$UCSORGBACK
 10
0.0
 20
0.0
 30
0.0
  9
$PUCSBASE
  2

  9
$PUCSNAME
  2

  9
$PUCSORG
 10
0.0
 20
0.0
 30
0.0
  9
$PUCSXDIR
 10
1.0
 20
0.0
 30
0.0
  9
$PUCSYDIR
 10
0.0
 20
1.0
 30
0.0
  9
$PUCSORTHOREF
  2

  9
$PUCSORTHOVIEW
 70
     0
  9
$PUCSORGTOP
 10
0.0
 20
0.0
 30
0.0
  9
$PUCSORGBOTTOM
 10
0.0
 20
0.0
 30
0.0
  9
$PUCSORGLEFT
 10
0.0
 20
0.0
 30
0.0
  9
$PUCSORGRIGHT
 10
0.0
 20
0.0
 30
0.0
  9
$PUCSORGFRONT
 10
0.0
 20
0.0
 30
0.0
  9
$PUCSORGBACK
 10
0.0
 20
0.0
 30
0.0
  9
$USERI1
 70
     0
  9
$USERI2
 70
     0
  9
$USERI3
 70
     0
  9
$USERI4
 70
     0
  9
$USERI5
 70
     0
  9
$USERR1
 40
0.0
  9
$USERR2
 40
0.0
  9
$USERR3
 40
0.0
  9
$USERR4
 40
0.0
  9
$USERR5
 40
0.0
  9
$WORLDVIEW
 70
     1
  9
$SHADEDGE
 70
     3
  9
$SHADEDIF
 70
    70
  9
$TILEMODE
 70
     1
  9
$MAXACTVP
 70
    16
  9
$PINSBASE
 10
0.0
 20
0.0
 30
0.0
  9
$PLIMCHECK
 70
     0
  9
$PEXTMIN
 10
1.00000000E+20
 20
1.00000000E+20
 30
1.00000000E+20
  9
$PEXTMAX
 10
-1.00000000E+20
 20
-1.00000000E+20
 30
-1.00000000E+20
  9
$PLIMMIN
 10
0.0
 20
0.0
  9
$PLIMMAX
 10
12.0
 20
9.0
  9
$UNITMODE
 70
     0
  9
$VISRETAIN
 70
     0
  9
$PLINEGEN
 70
     0
  9
$PSLTSCALE
 70
     0
  9
$TREEDEPTH
 70
  3020
  9
$CMLSTYLE
  2
STANDARD
  9
$CMLJUST
 70
     0
  9
$CMLSCALE
 40
1.0
  9
$PROXYGRAPHICS
 70
     1
  9
$MEASUREMENT
 70
     1
  9
$CELWEIGHT
370
    -1
  9
$ENDCAPS
280
     0
  9
$JOINSTYLE
280
     0
  9
$LWDISPLAY
290
     0
  9
$INSUNITS
 70
     0
  9
$HYPERLINKBASE
  1

  9
$STYLESHEET
  1

  9
$XEDIT
290
     1
  9
$CEPSNTYPE
380
     0
  9
$PSTYLEMODE
290
     1
  9
$FINGERPRINTGUID
  2
{7822E801-64E1-4BDE-811F-95B36655BF7D}
  9
$VERSIONGUID
  2
{5D3FE90A-2F96-4D01-8494-7F5AF6014415}
  9
$EXTNAMES
290
     1
  9
$PSVPSCALE
 40
0.0
  9
$OLESTARTUP
290
     0
  9
$SORTENTS
280
   127
  9
$INDEXCTL
280
     0
  9
$HIDETEXT
280
     0
  9
$XCLIPFRAME
290
     0
  9
$HALOGAP
280
     0
  9
$OBSCOLOR
 70
   257
  9
$OBSLTYPE
280
     0
  9
$INTERSECTIONDISPLAY
280
     0
  9
$INTERSECTIONCOLOR
 70
   257
  9
$DIMASSOC
280
     1
  9
$PROJECTNAME
  1

  0
ENDSEC
  0
SECTION
  2
CLASSES
  0
CLASS
  1
DICTIONARYVAR
  2
AcDbDictionaryVar
  3
ObjectDBX Classes
 90
        0
 91
        8
280
     0
281
     0
  0
CLASS
  1
ACDBDICTIONARYWDFLT
  2
AcDbDictionaryWithDefault
  3
ObjectDBX Classes
 90
        0
 91
        1
280
     0
281
     0
  0
CLASS
  1
MATERIAL
  2
AcDbMaterial
  3
ObjectDBX Classes
 90
     1153
 91
        3
280
     0
281
     0
  0
CLASS
  1
VISUALSTYLE
  2
AcDbVisualStyle
  3
ObjectDBX Classes
 90
     4095
 91
       24
280
     0
281
     0
  0
CLASS
  1
TABLESTYLE
  2
AcDbTableStyle
  3
ObjectDBX Classes
 90
     4095
 91
        1
280
     0
281
     0
  0
CLASS
  1
SCALE
  2
AcDbScale
  3
ObjectDBX Classes
 90
     1153
 91
       17
280
     0
281
     0
  0
CLASS
  1
MLEADERSTYLE
  2
AcDbMLeaderStyle
  3
ACDB_MLEADERSTYLE_CLASS
 90
     4095
 91
        1
280
     0
281
     0
  0
CLASS
  1
ACDBSECTIONVIEWSTYLE
  2
AcDbSectionViewStyle
  3
ObjectDBX Classes
 90
     1025
 91
        1
280
     0
281
     0
  0
CLASS
  1
ACDBDETAILVIEWSTYLE
  2
AcDbDetailViewStyle
  3
ObjectDBX Classes
 90
     1025
 91
        1
280
     0
281
     0
  0
CLASS
  1
CELLSTYLEMAP
  2
AcDbCellStyleMap
  3
ObjectDBX Classes
 90
     1152
 91
        2
280
     0
281
     0
  0
ENDSEC
  0
SECTION
  2
TABLES
  0
TABLE
  2
VPORT
  5
539
330
0
100
AcDbSymbolTable
 70
     1
  0
VPORT
  5
566
330
539
100
AcDbSymbolTableRecord
100
AcDbViewportTableRecord
  2
*ACTIVE
 70
     0
 10
0.0
 20
0.0
 11
1.0
 21
1.0
 12
14340.50801713
 22
10000.00018627
 13
0.0
 23
0.0
 14
1.0
 24
1.0
 15
10.0
 25
10.0
 16
0.0
 26
0.0
 36
1.0
 17
0.0
 27
0.0
 37
0.0
 40
21504.61610341
 41
1.34178905
 42
50.0
 43
0.0
 44
0.0
 50
0.0
 51
0.0
 71
     0
 72
   100
 73
     1
 74
     0
 75
     1
 76
     0
 77
     0
 78
     0
281
     0
 65
     1
110
0.0
120
0.0
130
0.0
111
1.0
121
0.0
131
0.0
112
0.0
122
1.0
132
0.0
 79
     0
146
0.0
1001
ACAD_NAV_VCDISPLAY
1070
     1
  0
ENDTAB
  0
TABLE
  2
LTYPE
  5
536
330
0
100
AcDbSymbolTable
 70
     4
  0
LTYPE
  5
542
330
536
100
AcDbSymbolTableRecord
100
AcDbLinetypeTableRecord
  2
BYBLOCK
 70
     0
  3

 72
    65
 73
     0
 40
0.0
  0
LTYPE
  5
543
330
536
100
AcDbSymbolTableRecord
100
AcDbLinetypeTableRecord
  2
BYLAYER
 70
     0
  3

 72
    65
 73
     0
 40
0.0
  0
LTYPE
  5
544
330
536
100
AcDbSymbolTableRecord
100
AcDbLinetypeTableRecord
  2
CONTINUOUS
 70
     0
  3
Solid line
 72
    65
 73
     0
 40
0.0
  0
LTYPE
  5
54E
330
536
100
AcDbSymbolTableRecord
100
AcDbLinetypeTableRecord
  2
CENTER
 70
     0
  3
____ _ ____ _ ____ _ ____ _ ____ _ ____ _ ____ 
 72
    65
 73
     4
 40
2.0
 49
1.25
 74
     0
 49
-0.25
 74
     0
 49
0.25
 74
     0
 49
-0.25
 74
     0
  0
LTYPE
  5
54F
330
536
100
AcDbSymbolTableRecord
100
AcDbLinetypeTableRecord
  2
PHANTOM
 70
     0
  3
______  __  __  ______  __  __  ______  __  __ 
 72
    65
 73
     6
 40
2.5
 49
1.25
 74
     0
 49
-0.25
 74
     0
 49
0.25
 74
     0
 49
-0.25
 74
     0
 49
0.25
 74
     0
 49
-0.25
 74
     0
  0
LTYPE
  5
550
330
536
100
AcDbSymbolTableRecord
100
AcDbLinetypeTableRecord
  2
HIDDEN
 70
     0
  3
__ __ __ __ __ __ __ __ __ __ __ __ __ __ __ __
 72
    65
 73
     2
 40
0.375
 49
0.25
 74
     0
 49
-0.125
 74
     0
  0
ENDTAB
  0
TABLE
  2
LAYER
  5
533
330
0
100
AcDbSymbolTable
 70
    11
  0
LAYER
  5
53F
330
533
100
AcDbSymbolTableRecord
100
AcDbLayerTableRecord
  2
0
 70
     0
 62
     7
  6
CONTINUOUS
370
    -3
390
569
  0
LAYER
  5
553
330
533
100
AcDbSymbolTableRecord
100
AcDbLayerTableRecord
  2
YKK_IN
 70
     0
 62
     1
  6
CONTINUOUS
370
    -3
390
569
  0
LAYER
  5
554
330
533
100
AcDbSymbolTableRecord
100
AcDbLayerTableRecord
  2
YKK_F1
 70
     0
 62
     7
  6
CONTINUOUS
370
    -3
390
569
  0
LAYER
  5
555
330
533
100
AcDbSymbolTableRecord
100
AcDbLayerTableRecord
  2
YKK_N1
 70
     0
 62
     2
  6
CONTINUOUS
370
    -3
390
569
  0
LAYER
  5
556
330
533
100
AcDbSymbolTableRecord
100
AcDbLayerTableRecord
  2
YKK_Z1
 70
     0
 62
     7
  6
CONTINUOUS
370
    -3
390
569
  0
LAYER
  5
557
330
533
100
AcDbSymbolTableRecord
100
AcDbLayerTableRecord
  2
YKK_A1
 70
     0
 62
     4
  6
CONTINUOUS
370
    -3
390
569
  0
LAYER
  5
558
330
533
100
AcDbSymbolTableRecord
100
AcDbLayerTableRecord
  2
YKK_A2
 70
     0
 62
     3
  6
CONTINUOUS
370
    -3
390
569
  0
LAYER
  5
559
330
533
100
AcDbSymbolTableRecord
100
AcDbLayerTableRecord
  2
YKK_B1
 70
     0
 62
     4
  6
CONTINUOUS
370
    -3
390
569
  0
LAYER
  5
55A
330
533
100
AcDbSymbolTableRecord
100
AcDbLayerTableRecord
  2
YKK_C1
 70
     0
 62
     4
  6
CONTINUOUS
370
    -3
390
569
  0
LAYER
  5
55B
330
533
100
AcDbSymbolTableRecord
100
AcDbLayerTableRecord
  2
YKK_B2
 70
     0
 62
     5
  6
CONTINUOUS
370
    -3
390
569
  0
LAYER
  5
55C
330
533
100
AcDbSymbolTableRecord
100
AcDbLayerTableRecord
  2
YKK_C2
 70
     0
 62
     5
  6
CONTINUOUS
370
    -3
390
569
  0
ENDTAB
  0
TABLE
  2
STYLE
  5
534
330
0
100
AcDbSymbolTable
 70
     2
  0
STYLE
  5
540
330
534
100
AcDbSymbolTableRecord
100
AcDbTextStyleTableRecord
  2
STANDARD
 70
     0
 40
0.0
 41
1.0
 50
0.0
 71
     0
 42
0.2
  3
txt
  4
EXTFONT.SHX
  0
STYLE
  5
54D
330
534
100
AcDbSymbolTableRecord
100
AcDbTextStyleTableRecord
  2
EXTFONT
 70
     0
 40
60.0
 41
1.0
 50
0.0
 71
     0
 42
60.0
  3
txt.shx
  4
EXTFONT
  0
ENDTAB
  0
TABLE
  2
VIEW
  5
537
330
0
100
AcDbSymbolTable
 70
     0
  0
ENDTAB
  0
TABLE
  2
UCS
  5
538
330
0
100
AcDbSymbolTable
 70
     0
  0
ENDTAB
  0
TABLE
  2
APPID
  5
53A
330
0
100
AcDbSymbolTable
 70
     5
  0
APPID
  5
541
330
53A
100
AcDbSymbolTableRecord
100
AcDbRegAppTableRecord
  2
ACAD
 70
     0
  0
APPID
  5
5F4
330
53A
100
AcDbSymbolTableRecord
100
AcDbRegAppTableRecord
  2
ACAD_MLEADERVER
 70
     0
  0
APPID
  5
607
330
53A
100
AcDbSymbolTableRecord
100
AcDbRegAppTableRecord
  2
ACAD_PSEXT
 70
     0
  0
APPID
  5
608
330
53A
100
AcDbSymbolTableRecord
100
AcDbRegAppTableRecord
  2
ACAD_NAV_VCDISPLAY
 70
     0
  0
APPID
  5
609
330
53A
100
AcDbSymbolTableRecord
100
AcDbRegAppTableRecord
  2
YKK_AP_LOCKLAYER
 70
     0
  0
ENDTAB
  0
TABLE
  2
DIMSTYLE
  5
53B
330
0
100
AcDbSymbolTable
 70
     1
100
AcDbDimStyleTable
 71
     0
  0
DIMSTYLE
105
552
330
53B
100
AcDbSymbolTableRecord
100
AcDbDimStyleTableRecord
  2
YKK_SGDOT1
 70
     0
 41
20.0
 42
60.0
 43
0.0
 44
30.0
 73
     0
 74
     0
 77
     1
 78
    12
140
60.0
141
0.0
146
0.002
147
10.0
172
     1
279
     2
340
540
  0
ENDTAB
  0
TABLE
  2
BLOCK_RECORD
  5
532
330
0
100
AcDbSymbolTable
 70
     0
  0
BLOCK_RECORD
  5
548
330
532
100
AcDbSymbolTableRecord
100
AcDbBlockTableRecord
  2
*MODEL_SPACE
340
5BB
  0
BLOCK_RECORD
  5
545
330
532
100
AcDbSymbolTableRecord
100
AcDbBlockTableRecord
  2
*PAPER_SPACE
340
5BC
  0
ENDTAB
  0
ENDSEC
  0
SECTION
  2
BLOCKS
  0
BLOCK
  5
55F
330
548
100
AcDbEntity
  8
0
100
AcDbBlockBegin
  2
*MODEL_SPACE
 70
     0
 10
0.0
 20
0.0
 30
0.0
  3
*MODEL_SPACE
  1

  0
ENDBLK
  5
560
330
548
100
AcDbEntity
  8
0
100
AcDbBlockEnd
  0
BLOCK
  5
55D
330
545
100
AcDbEntity
 67
     1
  8
0
100
AcDbBlockBegin
  2
*PAPER_SPACE
 70
     0
 10
0.0
 20
0.0
 30
0.0
  3
*PAPER_SPACE
  1

  0
ENDBLK
  5
55E
330
545
100
AcDbEntity
 67
     1
  8
0
100
AcDbBlockEnd
  0
ENDSEC
  0
SECTION
  2
ENTITIES
  0
TEXT
  5
1D
330
548
100
AcDbEntity
  8
0
100
AcDbText
 10
11500.0
 20
19187.5
 30
0.0
 40
175.0
  1
上段外開き窓、下段はめ殺し窓
  7
EXTFONT
100
AcDbText
  0
LINE
  5
1F
330
548
100
AcDbEntity
  8
YKK_F1
100
AcDbLine
 10
0.0
 20
5600.0
 30
0.0
 11
28500.0
 21
5600.0
 31
0.0
  0
LINE
  5
21
330
548
100
AcDbEntity
  8
YKK_F1
100
AcDbLine
 10
0.0
 20
6050.0
 30
0.0
 11
28500.0
 21
6050.0
 31
0.0
  0
LINE
  5
22
330
548
100
AcDbEntity
  8
YKK_F1
100
AcDbLine
 10
0.0
 20
12100.0
 30
0.0
 11
28500.0
 21
12100.0
 31
0.0
  0
LINE
  5
23
330
548
100
AcDbEntity
  8
YKK_F1
100
AcDbLine
 10
0.0
 20
12550.0
 30
0.0
 11
28500.0
 21
12550.0
 31
0.0
  0
LINE
  5
24
330
548
100
AcDbEntity
  8
YKK_F1
100
AcDbLine
 10
0.0
 20
6500.0
 30
0.0
 11
28500.0
 21
6500.0
 31
0.0
  0
LINE
  5
25
330
548
100
AcDbEntity
  8
YKK_F1
100
AcDbLine
 10
0.0
 20
13000.0
 30
0.0
 11
28500.0
 21
13000.0
 31
0.0
  0
LINE
  5
26
330
548
100
AcDbEntity
  8
YKK_F1
100
AcDbLine
 10
0.0
 20
18600.0
 30
0.0
 11
28500.0
 21
18600.0
 31
0.0
  0
LINE
  5
27
330
548
100
AcDbEntity
  8
YKK_F1
100
AcDbLine
 10
0.0
 20
19050.0
 30
0.0
 11
28500.0
 21
19050.0
 31
0.0
  0
LINE
  5
28
330
548
100
AcDbEntity
  8
YKK_F1
100
AcDbLine
 10
0.0
 20
0.0
 30
0.0
 11
28681.0155
 21
0.0
 31
0.0
  0
LINE
  5
29
330
548
100
AcDbEntity
  8
YKK_F1
100
AcDbLine
 10
0.0
 20
20000.0
 30
0.0
 11
28681.0155
 21
20000.0
 31
0.0
  0
LINE
  5
2A
330
548
100
AcDbEntity
  8
YKK_F1
100
AcDbLine
 10
0.0
 20
19500.0
 30
0.0
 11
28500.0
 21
19500.0
 31
0.0
  0
LINE
  5
2B
330
548
100
AcDbEntity
  8
YKK_F1
100
AcDbLine
 10
5700.0
 20
0.0
 30
0.0
 11
5700.0
 21
19500.0
 31
0.0
  0
LINE
  5
2C
330
548
100
AcDbEntity
  8
YKK_F1
100
AcDbLine
 10
11400.0
 20
0.0
 30
0.0
 11
11400.0
 21
19500.0
 31
0.0
  0
LINE
  5
2D
330
548
100
AcDbEntity
  8
YKK_F1
100
AcDbLine
 10
0.0
 20
0.0
 30
0.0
 11
0.0
 21
20000.0
 31
0.0
  0
POINT
  5
2E
330
548
100
AcDbEntity
  8
YKK_IN
100
AcDbPoint
 10
0.0
 20
0.0
 30
0.0
  0
POINT
  5
30
330
548
100
AcDbEntity
  8
YKK_F1
100
AcDbPoint
 10
0.0
 20
0.0
 30
0.0
  0
POINT
  5
31
330
548
100
AcDbEntity
  8
YKK_N1
100
AcDbPoint
 10
0.0
 20
0.0
 30
0.0
  0
POINT
  5
33
330
548
100
AcDbEntity
  8
YKK_Z1
100
AcDbPoint
 10
0.0
 20
0.0
 30
0.0
  0
POINT
  5
35
330
548
100
AcDbEntity
  8
YKK_A1
100
AcDbPoint
 10
0.0
 20
0.0
 30
0.0
  0
POINT
  5
37
330
548
100
AcDbEntity
  8
YKK_A2
100
AcDbPoint
 10
0.0
 20
0.0
 30
0.0
  0
POINT
  5
39
330
548
100
AcDbEntity
  8
YKK_B1
100
AcDbPoint
 10
0.0
 20
0.0
 30
0.0
  0
POINT
  5
3B
330
548
100
AcDbEntity
  8
YKK_C1
100
AcDbPoint
 10
0.0
 20
0.0
 30
0.0
  0
POINT
  5
3D
330
548
100
AcDbEntity
  8
YKK_B2
100
AcDbPoint
 10
0.0
 20
0.0
 30
0.0
  0
POINT
  5
3F
330
548
100
AcDbEntity
  8
YKK_C2
100
AcDbPoint
 10
0.0
 20
0.0
 30
0.0
  0
TEXT
  5
41
330
548
100
AcDbEntity
  8
0
100
AcDbText
 10
500.0
 20
19625.0
 30
0.0
 40
250.0
  1
ＢＦＤＰＰＪ２４　省エネ商品　ＹＤＰ－１００　つらいち枠　外開き窓
  7
EXTFONT
100
AcDbText
  0
LINE
  5
42
330
548
100
AcDbEntity
  8
YKK_N1
100
AcDbLine
 10
2350.0
 20
16334.85
 30
0.0
 11
2350.0
 21
15964.85
 31
0.0
  0
LINE
  5
43
330
548
100
AcDbEntity
  8
YKK_N1
100
AcDbLine
 10
1450.0
 20
16334.85
 30
0.0
 11
1450.0
 21
15964.85
 31
0.0
  0
LINE
  5
44
330
548
100
AcDbEntity
  8
YKK_N1
100
AcDbLine
 10
4250.0
 20
16374.85
 30
0.0
 11
4250.0
 21
15614.85
 31
0.0
  0
LINE
  5
45
330
548
100
AcDbEntity
  8
YKK_Z1
  6
Continuous
100
AcDbLine
 10
3948.0
 20
15994.85
 30
0.0
 11
3948.0
 21
16369.85
 31
0.0
  0
LINE
  5
46
330
548
100
AcDbEntity
  8
YKK_Z1
  6
Continuous
100
AcDbLine
 10
3960.0
 20
16369.85
 30
0.0
 11
3960.0
 21
15994.85
 31
0.0
  0
LINE
  5
47
330
548
100
AcDbEntity
  8
YKK_Z1
  6
HIDDEN
100
AcDbLine
 10
3780.0
 20
15994.85
 30
0.0
 11
3780.0
 21
16294.85
 31
0.0
  0
LINE
  5
49
330
548
100
AcDbEntity
  8
YKK_Z1
  6
CENTER
100
AcDbLine
 10
3855.0
 20
16314.85
 30
0.0
 11
3855.0
 21
15994.85
 31
0.0
  0
LINE
  5
4B
330
548
100
AcDbEntity
  8
YKK_Z1
  6
Continuous
100
AcDbLine
 10
3930.0
 20
16263.55064666
 30
0.0
 11
3760.0
 21
16093.55061722
 31
0.0
  0
LINE
  5
4C
330
548
100
AcDbEntity
  8
YKK_Z1
  6
Continuous
100
AcDbLine
 10
3930.0
 20
16283.34964168
 30
0.0
 11
3760.0
 21
16113.34961223
 31
0.0
  0
LINE
  5
4D
330
548
100
AcDbEntity
  8
YKK_Z1
  6
Continuous
100
AcDbLine
 10
3930.0
 20
16291.83492526
 30
0.0
 11
3760.0
 21
16121.83489581
 31
0.0
  0
LINE
  5
4E
330
548
100
AcDbEntity
  8
YKK_Z1
  6
Continuous
100
AcDbLine
 10
3760.0
 20
16294.85
 30
0.0
 11
3760.0
 21
15994.85
 31
0.0
  0
LINE
  5
4F
330
548
100
AcDbEntity
  8
YKK_Z1
  6
Continuous
100
AcDbLine
 10
3930.0
 20
15994.85
 30
0.0
 11
3930.0
 21
16319.85
 31
0.0
  0
LINE
  5
50
330
548
100
AcDbEntity
  8
YKK_B1
  6
PHANTOM
100
AcDbLine
 10
1455.0
 20
13855.16495526
 30
0.0
 11
1455.0
 21
14745.16495526
 31
0.0
  0
ARC
  5
52
330
548
100
AcDbEntity
  8
YKK_B1
  6
PHANTOM
100
AcDbCircle
 10
1455.0
 20
13855.16495526
 30
0.0
 40
890.0
100
AcDbArc
 50
0.0
 51
90.0
  0
LINE
  5
53
330
548
100
AcDbEntity
  8
YKK_N1
100
AcDbLine
 10
1451.0
 20
13355.16495526
 30
0.0
 11
2349.0
 21
13355.16495526
 31
0.0
  0
LINE
  5
54
330
548
100
AcDbEntity
  8
YKK_Z1
  6
Continuous
100
AcDbLine
 10
2365.0
 20
13635.16495526
 30
0.0
 11
1900.0
 21
13635.16495526
 31
0.0
  0
LINE
  5
55
330
548
100
AcDbEntity
  8
YKK_B1
100
AcDbLine
 10
1470.0
 20
13855.16495526
 30
0.0
 11
2330.0
 21
13855.16495526
 31
0.0
  0
LINE
  5
56
330
548
100
AcDbEntity
  8
YKK_B1
100
AcDbLine
 10
1470.0
 20
13755.16495526
 30
0.0
 11
2330.0
 21
13755.16495526
 31
0.0
  0
LINE
  5
57
330
548
100
AcDbEntity
  8
YKK_B1
100
AcDbLine
 10
1522.0
 20
13827.16495526
 30
0.0
 11
2278.0
 21
13827.16495526
 31
0.0
  0
LINE
  5
58
330
548
100
AcDbEntity
  8
YKK_B1
100
AcDbLine
 10
1522.0
 20
13841.16495526
 30
0.0
 11
2278.0
 21
13841.16495526
 31
0.0
  0
LINE
  5
59
330
548
100
AcDbEntity
  8
YKK_N1
  6
ByBlock
100
AcDbLine
 10
1536.60254038
 20
13405.16495526
 30
0.0
 11
1450.0
 21
13355.16495526
 31
0.0
  0
LINE
  5
5A
330
548
100
AcDbEntity
  8
YKK_N1
  6
ByBlock
100
AcDbLine
 10
1450.0
 20
13355.16495526
 30
0.0
 11
1536.60254038
 21
13305.16495526
 31
0.0
  0
LINE
  5
5B
330
548
100
AcDbEntity
  8
YKK_N1
  6
ByBlock
100
AcDbLine
 10
1450.0
 20
13355.16495526
 30
0.0
 11
1550.0
 21
13355.16495526
 31
0.0
  0
LINE
  5
5C
330
548
100
AcDbEntity
  8
YKK_Z1
  6
Continuous
100
AcDbLine
 10
1435.0
 20
13635.16495526
 30
0.0
 11
1900.0
 21
13635.16495526
 31
0.0
  0
LINE
  5
5D
330
548
100
AcDbEntity
  8
YKK_B1
100
AcDbLine
 10
1530.0
 20
13855.16495526
 30
0.0
 11
1455.0
 21
13855.16495526
 31
0.0
  0
LINE
  5
5E
330
548
100
AcDbEntity
  8
YKK_B1
100
AcDbLine
 10
1450.0
 20
13801.16495526
 30
0.0
 11
1480.0
 21
13801.16495526
 31
0.0
  0
LINE
  5
5F
330
548
100
AcDbEntity
  8
YKK_N1
100
AcDbLine
 10
1450.0
 20
13695.16495526
 30
0.0
 11
1450.0
 21
13325.16495526
 31
0.0
  0
LINE
  5
60
330
548
100
AcDbEntity
  8
YKK_Z1
  6
Continuous
100
AcDbLine
 10
1050.0
 20
13657.16495526
 30
0.0
 11
1410.0
 21
13657.16495526
 31
0.0
  0
LINE
  5
61
330
548
100
AcDbEntity
  8
YKK_Z1
  6
Continuous
100
AcDbLine
 10
1410.0
 20
13645.16495526
 30
0.0
 11
1050.0
 21
13645.16495526
 31
0.0
  0
LINE
  5
62
330
548
100
AcDbEntity
  8
YKK_Z1
  6
HIDDEN
100
AcDbLine
 10
1400.0
 20
13825.16495526
 30
0.0
 11
1050.0
 21
13825.16495526
 31
0.0
  0
LINE
  5
63
330
548
100
AcDbEntity
  8
YKK_Z1
  6
CENTER
100
AcDbLine
 10
1412.5
 20
13750.16495526
 30
0.0
 11
1050.0
 21
13750.16495526
 31
0.0
  0
LINE
  5
64
330
548
100
AcDbEntity
  8
YKK_Z1
  6
Continuous
100
AcDbLine
 10
1248.28417067
 20
13845.16495526
 30
0.0
 11
1078.284259
 21
13675.16495526
 31
0.0
  0
LINE
  5
65
330
548
100
AcDbEntity
  8
YKK_Z1
  6
Continuous
100
AcDbLine
 10
1228.48518937
 20
13845.16495526
 30
0.0
 11
1058.4852777
 21
13675.16495526
 31
0.0
  0
LINE
  5
66
330
548
100
AcDbEntity
  8
YKK_Z1
  6
Continuous
100
AcDbLine
 10
1219.99991167
 20
13845.16495526
 30
0.0
 11
1050.0
 21
13675.16495526
 31
0.0
  0
LINE
  5
67
330
548
100
AcDbEntity
  8
YKK_Z1
  6
Continuous
100
AcDbLine
 10
1400.0
 20
13845.16495526
 30
0.0
 11
1050.0
 21
13845.16495526
 31
0.0
  0
LINE
  5
68
330
548
100
AcDbEntity
  8
YKK_Z1
  6
Continuous
100
AcDbLine
 10
1050.0
 20
13675.16495526
 30
0.0
 11
1400.0
 21
13675.16495526
 31
0.0
  0
LINE
  5
69
330
548
100
AcDbEntity
  8
YKK_Z1
  6
Continuous
100
AcDbLine
 10
1410.0
 20
13657.16495526
 30
0.0
 11
1410.0
 21
13645.16495526
 31
0.0
  0
LINE
  5
6A
330
548
100
AcDbEntity
  8
YKK_Z1
  6
Continuous
100
AcDbLine
 10
1420.0
 20
13845.16495526
 30
0.0
 11
1400.0
 21
13845.16495526
 31
0.0
  0
LINE
  5
6B
330
548
100
AcDbEntity
  8
YKK_Z1
  6
Continuous
100
AcDbLine
 10
1431.42135735
 20
13635.16495526
 30
0.0
 11
1435.0
 21
13638.74359977
 31
0.0
  0
LINE
  5
6C
330
548
100
AcDbEntity
  8
YKK_Z1
  6
Continuous
100
AcDbLine
 10
1410.0
 20
13642.02786048
 30
0.0
 11
1435.0
 21
13667.02787347
 31
0.0
  0
LINE
  5
6D
330
548
100
AcDbEntity
  8
YKK_Z1
  6
Continuous
100
AcDbLine
 10
1410.0
 20
13670.31213417
 30
0.0
 11
1435.0
 21
13695.31214716
 31
0.0
  0
LINE
  5
6E
330
548
100
AcDbEntity
  8
YKK_Z1
  6
Continuous
100
AcDbLine
 10
1410.0
 20
13698.59640787
 30
0.0
 11
1435.0
 21
13723.59642086
 31
0.0
  0
LINE
  5
6F
330
548
100
AcDbEntity
  8
YKK_Z1
  6
Continuous
100
AcDbLine
 10
1410.0
 20
13726.88068157
 30
0.0
 11
1435.0
 21
13751.88069456
 31
0.0
  0
LINE
  5
71
330
548
100
AcDbEntity
  8
YKK_Z1
  6
Continuous
100
AcDbLine
 10
1410.0
 20
13755.16495526
 30
0.0
 11
1435.0
 21
13755.16495526
 31
0.0
  0
LINE
  5
72
330
548
100
AcDbEntity
  8
YKK_Z1
  6
Continuous
100
AcDbLine
 10
1410.0
 20
13635.16495526
 30
0.0
 11
1410.0
 21
13755.16495526
 31
0.0
  0
LINE
  5
73
330
548
100
AcDbEntity
  8
YKK_Z1
  6
Continuous
100
AcDbLine
 10
1435.0
 20
13635.16495526
 30
0.0
 11
1410.0
 21
13635.16495526
 31
0.0
  0
LINE
  5
74
330
548
100
AcDbEntity
  8
YKK_Z1
  6
Continuous
100
AcDbLine
 10
1435.0
 20
13755.16495526
 30
0.0
 11
1435.0
 21
13635.16495526
 31
0.0
  0
LINE
  5
75
330
548
100
AcDbEntity
  8
YKK_Z1
  6
Continuous
100
AcDbLine
 10
1400.0
 20
13699.89598961
 30
0.0
 11
1375.2689785
 21
13675.16495526
 31
0.0
  0
LINE
  5
76
330
548
100
AcDbEntity
  8
YKK_Z1
  6
Continuous
100
AcDbLine
 10
1400.0
 20
13719.6949812
 30
0.0
 11
1355.4699972
 21
13675.16495526
 31
0.0
  0
LINE
  5
77
330
548
100
AcDbEntity
  8
YKK_Z1
  6
Continuous
100
AcDbLine
 10
1400.0
 20
13728.18026331
 30
0.0
 11
1346.9847195
 21
13675.16495526
 31
0.0
  0
LINE
  5
78
330
548
100
AcDbEntity
  8
YKK_Z1
  6
Continuous
100
AcDbLine
 10
1400.0
 20
13675.16495526
 30
0.0
 11
1400.0
 21
13845.16495526
 31
0.0
  0
LINE
  5
79
330
548
100
AcDbEntity
  8
YKK_B1
100
AcDbLine
 10
1425.0
 20
13800.16495526
 30
0.0
 11
1425.0
 21
13793.16495526
 31
0.0
  0
LINE
  5
7A
330
548
100
AcDbEntity
  8
YKK_B1
100
AcDbLine
 10
1420.0
 20
13800.16495526
 30
0.0
 11
1450.0
 21
13800.16495526
 31
0.0
  0
LINE
  5
7B
330
548
100
AcDbEntity
  8
YKK_B1
100
AcDbLine
 10
1420.0
 20
13855.16495526
 30
0.0
 11
1420.0
 21
13800.16495526
 31
0.0
  0
LINE
  5
7C
330
548
100
AcDbEntity
  8
YKK_B1
100
AcDbLine
 10
1450.0
 20
13855.16495526
 30
0.0
 11
1420.0
 21
13855.16495526
 31
0.0
  0
LINE
  5
7D
330
548
100
AcDbEntity
  8
YKK_B1
100
AcDbLine
 10
1425.0
 20
13755.16495526
 30
0.0
 11
1425.0
 21
13762.16495526
 31
0.0
  0
LINE
  5
7E
330
548
100
AcDbEntity
  8
YKK_B1
100
AcDbLine
 10
1450.0
 20
13755.16495526
 30
0.0
 11
1425.0
 21
13755.16495526
 31
0.0
  0
LINE
  5
7F
330
548
100
AcDbEntity
  8
YKK_B1
100
AcDbLine
 10
1450.0
 20
13755.16495526
 30
0.0
 11
1450.0
 21
13855.16495526
 31
0.0
  0
TEXT
  5
80
330
548
100
AcDbEntity
  8
YKK_N1
100
AcDbText
 10
1698.0
 20
13474.87924098
 30
0.0
 40
60.0
  1
120
 50
90.0
 41
0.8
100
AcDbText
  0
LINE
  5
81
330
548
100
AcDbEntity
  8
YKK_N1
  6
Continuous
100
AcDbLine
 10
1708.0
 20
13635.16495526
 30
0.0
 11
1708.0
 21
13478.59352669
 31
0.0
  0
LINE
  5
82
330
548
100
AcDbEntity
  8
YKK_N1
  6
ByBlock
100
AcDbLine
 10
1536.60254038
 20
13305.16495526
 30
0.0
 11
1536.60254038
 21
13405.16495526
 31
0.0
  0
TEXT
  5
83
330
548
100
AcDbEntity
  8
YKK_N1
100
AcDbText
 10
1775.42857143
 20
13365.16495526
 30
0.0
 40
60.0
  1
W=900
 41
0.8
100
AcDbText
1001
ACAD
1000
MTEXTBEGIN
1070
    73
1070
     1
1070
    44
1040
1.0
1070
    74
1070
     0
1000
MTEXTEND
  0
LINE
  5
84
330
548
100
AcDbEntity
  8
YKK_N1
  6
Continuous
100
AcDbLine
 10
1495.0
 20
13635.16495526
 30
0.0
 11
1738.0
 21
13635.16495526
 31
0.0
  0
LINE
  5
85
330
548
100
AcDbEntity
  8
YKK_N1
100
AcDbLine
 10
1708.0
 20
13755.16495526
 30
0.0
 11
1708.0
 21
13735.16495526
 31
0.0
  0
CIRCLE
  5
86
330
548
100
AcDbEntity
  8
YKK_N1
100
AcDbCircle
 10
1708.0
 20
13755.16495526
 30
0.0
 40
6.5
  0
CIRCLE
  5
87
330
548
100
AcDbEntity
  8
YKK_N1
100
AcDbCircle
 10
1708.0
 20
13755.16495526
 30
0.0
 40
10.0
  0
LINE
  5
88
330
548
100
AcDbEntity
  8
YKK_N1
100
AcDbLine
 10
1708.0
 20
13635.16495526
 30
0.0
 11
1708.0
 21
13655.16495526
 31
0.0
  0
CIRCLE
  5
89
330
548
100
AcDbEntity
  8
YKK_N1
100
AcDbCircle
 10
1708.0
 20
13635.16495526
 30
0.0
 40
6.5
  0
CIRCLE
  5
8A
330
548
100
AcDbEntity
  8
YKK_N1
100
AcDbCircle
 10
1708.0
 20
13635.16495526
 30
0.0
 40
10.0
  0
TEXT
  5
8B
330
548
100
AcDbEntity
  8
YKK_N1
100
AcDbText
 10
1663.0
 20
13733.16495526
 30
0.0
 40
60.0
  1
100
 50
90.0
 41
0.8
100
AcDbText
1001
ACAD
1000
MTEXTBEGIN
1070
    73
1070
     1
1070
    44
1040
1.0
1070
    74
1070
     0
1000
MTEXTEND
  0
LINE
  5
8C
330
548
100
AcDbEntity
  8
YKK_N1
100
AcDbLine
 10
1708.0
 20
13755.16495526
 30
0.0
 11
1708.0
 21
13775.16495526
 31
0.0
  0
CIRCLE
  5
8D
330
548
100
AcDbEntity
  8
YKK_N1
100
AcDbCircle
 10
1708.0
 20
13755.16495526
 30
0.0
 40
6.5
  0
CIRCLE
  5
8E
330
548
100
AcDbEntity
  8
YKK_N1
100
AcDbCircle
 10
1708.0
 20
13755.16495526
 30
0.0
 40
10.0
  0
LINE
  5
8F
330
548
100
AcDbEntity
  8
YKK_N1
100
AcDbLine
 10
1708.0
 20
13855.16495526
 30
0.0
 11
1708.0
 21
13835.16495526
 31
0.0
  0
CIRCLE
  5
90
330
548
100
AcDbEntity
  8
YKK_N1
100
AcDbCircle
 10
1708.0
 20
13855.16495526
 30
0.0
 40
6.5
  0
CIRCLE
  5
91
330
548
100
AcDbEntity
  8
YKK_N1
100
AcDbCircle
 10
1708.0
 20
13855.16495526
 30
0.0
 40
10.0
  0
LINE
  5
92
330
548
100
AcDbEntity
  8
YKK_N1
100
AcDbLine
 10
1708.0
 20
13775.16495526
 30
0.0
 11
1708.0
 21
13835.16495526
 31
0.0
  0
LINE
  5
93
330
548
100
AcDbEntity
  8
YKK_N1
100
AcDbLine
 10
1658.0
 20
13855.16495526
 30
0.0
 11
1678.0
 21
13855.16495526
 31
0.0
  0
LINE
  5
94
330
548
100
AcDbEntity
  8
YKK_N1
100
AcDbLine
 10
1658.0
 20
13755.16495526
 30
0.0
 11
1678.0
 21
13755.16495526
 31
0.0
  0
LINE
  5
95
330
548
100
AcDbEntity
  8
YKK_N1
  6
Continuous
100
AcDbLine
 10
1708.0
 20
13735.16495526
 30
0.0
 11
1708.0
 21
13655.16495526
 31
0.0
  0
LINE
  5
96
330
548
100
AcDbEntity
  8
YKK_N1
  6
Continuous
100
AcDbLine
 10
1648.0
 20
13755.16495526
 30
0.0
 11
1678.0
 21
13755.16495526
 31
0.0
  0
LINE
  5
97
330
548
100
AcDbEntity
  8
YKK_B1
100
AcDbLine
 10
1530.0
 20
13813.16495526
 30
0.0
 11
1514.0
 21
13813.16495526
 31
0.0
  0
LINE
  5
98
330
548
100
AcDbEntity
  8
YKK_B1
100
AcDbLine
 10
1530.0
 20
13805.16495526
 30
0.0
 11
1530.0
 21
13813.16495526
 31
0.0
  0
LINE
  5
99
330
548
100
AcDbEntity
  8
YKK_B1
100
AcDbLine
 10
1514.0
 20
13855.16495526
 30
0.0
 11
1514.0
 21
13805.16495526
 31
0.0
  0
LINE
  5
9A
330
548
100
AcDbEntity
  8
YKK_B1
100
AcDbLine
 10
1475.0
 20
13805.16495526
 30
0.0
 11
1475.0
 21
13855.16495526
 31
0.0
  0
LINE
  5
9B
330
548
100
AcDbEntity
  8
YKK_B1
100
AcDbLine
 10
1530.0
 20
13805.16495526
 30
0.0
 11
1475.0
 21
13805.16495526
 31
0.0
  0
LINE
  5
9C
330
548
100
AcDbEntity
  8
YKK_Z1
  6
Continuous
100
AcDbLine
 10
2750.0
 20
13657.16495526
 30
0.0
 11
2390.0
 21
13657.16495526
 31
0.0
  0
LINE
  5
9D
330
548
100
AcDbEntity
  8
YKK_Z1
  6
Continuous
100
AcDbLine
 10
2390.0
 20
13645.16495526
 30
0.0
 11
2750.0
 21
13645.16495526
 31
0.0
  0
LINE
  5
9E
330
548
100
AcDbEntity
  8
YKK_Z1
  6
HIDDEN
100
AcDbLine
 10
2400.0
 20
13825.16495526
 30
0.0
 11
2750.0
 21
13825.16495526
 31
0.0
  0
LINE
  5
9F
330
548
100
AcDbEntity
  8
YKK_Z1
  6
CENTER
100
AcDbLine
 10
2387.5
 20
13750.16495526
 30
0.0
 11
2750.0
 21
13750.16495526
 31
0.0
  0
LINE
  5
A0
330
548
100
AcDbEntity
  8
YKK_Z1
  6
Continuous
100
AcDbLine
 10
2481.29935334
 20
13675.16495526
 30
0.0
 11
2651.29938278
 21
13845.16495526
 31
0.0
  0
LINE
  5
A1
330
548
100
AcDbEntity
  8
YKK_Z1
  6
Continuous
100
AcDbLine
 10
2461.50035832
 20
13675.16495526
 30
0.0
 11
2631.50038777
 21
13845.16495526
 31
0.0
  0
LINE
  5
A2
330
548
100
AcDbEntity
  8
YKK_Z1
  6
Continuous
100
AcDbLine
 10
2453.01507474
 20
13675.16495526
 30
0.0
 11
2623.01510419
 21
13845.16495526
 31
0.0
  0
LINE
  5
A3
330
548
100
AcDbEntity
  8
YKK_Z1
  6
Continuous
100
AcDbLine
 10
2400.0
 20
13845.16495526
 30
0.0
 11
2750.0
 21
13845.16495526
 31
0.0
  0
LINE
  5
A4
330
548
100
AcDbEntity
  8
YKK_Z1
  6
Continuous
100
AcDbLine
 10
2750.0
 20
13675.16495526
 30
0.0
 11
2400.0
 21
13675.16495526
 31
0.0
  0
LINE
  5
A5
330
548
100
AcDbEntity
  8
YKK_N1
100
AcDbLine
 10
2350.0
 20
13695.16495526
 30
0.0
 11
2350.0
 21
13325.16495526
 31
0.0
  0
LINE
  5
A6
330
548
100
AcDbEntity
  8
YKK_N1
  6
ByBlock
100
AcDbLine
 10
2263.39745962
 20
13305.16495526
 30
0.0
 11
2350.0
 21
13355.16495526
 31
0.0
  0
LINE
  5
A7
330
548
100
AcDbEntity
  8
YKK_N1
  6
ByBlock
100
AcDbLine
 10
2350.0
 20
13355.16495526
 30
0.0
 11
2263.39745962
 21
13405.16495526
 31
0.0
  0
LINE
  5
A8
330
548
100
AcDbEntity
  8
YKK_N1
  6
ByBlock
100
AcDbLine
 10
2350.0
 20
13355.16495526
 30
0.0
 11
2250.0
 21
13355.16495526
 31
0.0
  0
LINE
  5
A9
330
548
100
AcDbEntity
  8
YKK_N1
  6
ByBlock
100
AcDbLine
 10
2263.39745962
 20
13405.16495526
 30
0.0
 11
2263.39745962
 21
13305.16495526
 31
0.0
  0
LINE
  5
AA
330
548
100
AcDbEntity
  8
YKK_B1
100
AcDbLine
 10
2270.0
 20
13855.16495526
 30
0.0
 11
2345.0
 21
13855.16495526
 31
0.0
  0
LINE
  5
AB
330
548
100
AcDbEntity
  8
YKK_B1
100
AcDbLine
 10
2270.0
 20
13805.16495526
 30
0.0
 11
2325.0
 21
13805.16495526
 31
0.0
  0
LINE
  5
AC
330
548
100
AcDbEntity
  8
YKK_B1
100
AcDbLine
 10
2270.0
 20
13813.16495526
 30
0.0
 11
2286.0
 21
13813.16495526
 31
0.0
  0
LINE
  5
AD
330
548
100
AcDbEntity
  8
YKK_B1
100
AcDbLine
 10
2270.0
 20
13805.16495526
 30
0.0
 11
2270.0
 21
13813.16495526
 31
0.0
  0
LINE
  5
AE
330
548
100
AcDbEntity
  8
YKK_B1
100
AcDbLine
 10
2286.0
 20
13855.16495526
 30
0.0
 11
2286.0
 21
13805.16495526
 31
0.0
  0
LINE
  5
AF
330
548
100
AcDbEntity
  8
YKK_Z1
  6
Continuous
100
AcDbLine
 10
2390.0
 20
13657.16495526
 30
0.0
 11
2390.0
 21
13645.16495526
 31
0.0
  0
LINE
  5
B0
330
548
100
AcDbEntity
  8
YKK_Z1
  6
Continuous
100
AcDbLine
 10
2380.0
 20
13845.16495526
 30
0.0
 11
2400.0
 21
13845.16495526
 31
0.0
  0
LINE
  5
B1
330
548
100
AcDbEntity
  8
YKK_Z1
  6
Continuous
100
AcDbLine
 10
2390.0
 20
13642.02786048
 30
0.0
 11
2383.1370936
 21
13635.16495526
 31
0.0
  0
LINE
  5
B2
330
548
100
AcDbEntity
  8
YKK_Z1
  6
Continuous
100
AcDbLine
 10
2390.0
 20
13670.31213417
 30
0.0
 11
2365.0
 21
13645.3121385
 31
0.0
  0
LINE
  5
B3
330
548
100
AcDbEntity
  8
YKK_Z1
  6
Continuous
100
AcDbLine
 10
2390.0
 20
13698.59640787
 30
0.0
 11
2365.0
 21
13673.5964122
 31
0.0
  0
LINE
  5
B4
330
548
100
AcDbEntity
  8
YKK_Z1
  6
Continuous
100
AcDbLine
 10
2390.0
 20
13726.88068157
 30
0.0
 11
2365.0
 21
13701.8806859
 31
0.0
  0
LINE
  5
B5
330
548
100
AcDbEntity
  8
YKK_Z1
  6
Continuous
100
AcDbLine
 10
2390.0
 20
13755.16495526
 30
0.0
 11
2365.0
 21
13730.16495959
 31
0.0
  0
LINE
  5
B6
330
548
100
AcDbEntity
  8
YKK_Z1
  6
Continuous
100
AcDbLine
 10
2390.0
 20
13755.16495526
 30
0.0
 11
2365.0
 21
13755.16495526
 31
0.0
  0
LINE
  5
B7
330
548
100
AcDbEntity
  8
YKK_Z1
  6
Continuous
100
AcDbLine
 10
2390.0
 20
13635.16495526
 30
0.0
 11
2390.0
 21
13755.16495526
 31
0.0
  0
LINE
  5
B8
330
548
100
AcDbEntity
  8
YKK_Z1
  6
Continuous
100
AcDbLine
 10
2365.0
 20
13635.16495526
 30
0.0
 11
2390.0
 21
13635.16495526
 31
0.0
  0
LINE
  5
B9
330
548
100
AcDbEntity
  8
YKK_Z1
  6
Continuous
100
AcDbLine
 10
2365.0
 20
13755.16495526
 30
0.0
 11
2365.0
 21
13635.16495526
 31
0.0
  0
LINE
  5
BA
330
548
100
AcDbEntity
  8
YKK_Z1
  6
Continuous
100
AcDbLine
 10
2400.0
 20
13675.16495526
 30
0.0
 11
2400.0
 21
13845.16495526
 31
0.0
  0
LINE
  5
BB
330
548
100
AcDbEntity
  8
YKK_B1
100
AcDbLine
 10
2325.0
 20
13805.16495526
 30
0.0
 11
2325.0
 21
13855.16495526
 31
0.0
  0
LINE
  5
BC
330
548
100
AcDbEntity
  8
YKK_B1
100
AcDbLine
 10
2375.0
 20
13800.16495526
 30
0.0
 11
2375.0
 21
13793.16495526
 31
0.0
  0
LINE
  5
BD
330
548
100
AcDbEntity
  8
YKK_B1
100
AcDbLine
 10
2380.0
 20
13800.16495526
 30
0.0
 11
2350.0
 21
13800.16495526
 31
0.0
  0
LINE
  5
BE
330
548
100
AcDbEntity
  8
YKK_B1
100
AcDbLine
 10
2380.0
 20
13855.16495526
 30
0.0
 11
2380.0
 21
13800.16495526
 31
0.0
  0
LINE
  5
BF
330
548
100
AcDbEntity
  8
YKK_B1
100
AcDbLine
 10
2350.0
 20
13855.16495526
 30
0.0
 11
2380.0
 21
13855.16495526
 31
0.0
  0
LINE
  5
C0
330
548
100
AcDbEntity
  8
YKK_B1
100
AcDbLine
 10
2375.0
 20
13755.16495526
 30
0.0
 11
2375.0
 21
13762.16495526
 31
0.0
  0
LINE
  5
C1
330
548
100
AcDbEntity
  8
YKK_B1
100
AcDbLine
 10
2350.0
 20
13755.16495526
 30
0.0
 11
2375.0
 21
13755.16495526
 31
0.0
  0
LINE
  5
C2
330
548
100
AcDbEntity
  8
YKK_B1
100
AcDbLine
 10
2350.0
 20
13801.16495526
 30
0.0
 11
2320.0
 21
13801.16495526
 31
0.0
  0
LINE
  5
C3
330
548
100
AcDbEntity
  8
YKK_B1
100
AcDbLine
 10
2350.0
 20
13755.16495526
 30
0.0
 11
2350.0
 21
13855.16495526
 31
0.0
  0
LINE
  5
C5
330
548
100
AcDbEntity
  8
YKK_N1
100
AcDbLine
 10
1451.0
 20
15994.85
 30
0.0
 11
2349.0
 21
15994.85
 31
0.0
  0
LINE
  5
C6
330
548
100
AcDbEntity
  8
YKK_N1
  6
ByBlock
100
AcDbLine
 10
1536.60254038
 20
16044.85
 30
0.0
 11
1450.0
 21
15994.85
 31
0.0
  0
LINE
  5
C7
330
548
100
AcDbEntity
  8
YKK_N1
  6
ByBlock
100
AcDbLine
 10
1450.0
 20
15994.85
 30
0.0
 11
1536.60254038
 21
15944.85
 31
0.0
  0
LINE
  5
C8
330
548
100
AcDbEntity
  8
YKK_N1
  6
ByBlock
100
AcDbLine
 10
1450.0
 20
15994.85
 30
0.0
 11
1550.0
 21
15994.85
 31
0.0
  0
LINE
  5
C9
330
548
100
AcDbEntity
  8
YKK_N1
  6
ByBlock
100
AcDbLine
 10
1536.60254038
 20
15944.85
 30
0.0
 11
1536.60254038
 21
16044.85
 31
0.0
  0
TEXT
  5
CA
330
548
100
AcDbEntity
  8
YKK_N1
100
AcDbText
 10
1775.42857143
 20
16004.85
 30
0.0
 40
60.0
  1
W=900
 41
0.8
100
AcDbText
1001
ACAD
1000
MTEXTBEGIN
1070
    73
1070
     1
1070
    44
1040
1.0
1070
    74
1070
     0
1000
MTEXTEND
  0
LINE
  5
CB
330
548
100
AcDbEntity
  8
YKK_N1
  6
ByBlock
100
AcDbLine
 10
2263.39745962
 20
15944.85
 30
0.0
 11
2350.0
 21
15994.85
 31
0.0
  0
LINE
  5
CC
330
548
100
AcDbEntity
  8
YKK_N1
  6
ByBlock
100
AcDbLine
 10
2350.0
 20
15994.85
 30
0.0
 11
2263.39745962
 21
16044.85
 31
0.0
  0
LINE
  5
CD
330
548
100
AcDbEntity
  8
YKK_N1
  6
ByBlock
100
AcDbLine
 10
2350.0
 20
15994.85
 30
0.0
 11
2250.0
 21
15994.85
 31
0.0
  0
LINE
  5
CE
330
548
100
AcDbEntity
  8
YKK_N1
  6
ByBlock
100
AcDbLine
 10
2263.39745962
 20
16044.85
 30
0.0
 11
2263.39745962
 21
15944.85
 31
0.0
  0
CIRCLE
  5
CF
330
548
100
AcDbEntity
  8
YKK_N1
100
AcDbCircle
 10
4250.0
 20
15594.85
 30
0.0
 40
10.0
  0
LINE
  5
D0
330
548
100
AcDbEntity
  8
YKK_N1
  6
CENTER
100
AcDbLine
 10
4150.0
 20
15594.85
 30
0.0
 11
4650.0
 21
15594.85
 31
0.0
  0
LINE
  5
D1
330
548
100
AcDbEntity
  8
YKK_N1
100
AcDbLine
 10
4250.0
 20
15594.85
 30
0.0
 11
4250.0
 21
15614.85
 31
0.0
  0
CIRCLE
  5
D2
330
548
100
AcDbEntity
  8
YKK_N1
100
AcDbCircle
 10
4250.0
 20
15594.85
 30
0.0
 40
6.5
  0
TEXT
  5
D4
330
548
100
AcDbEntity
  8
YKK_N1
100
AcDbText
 10
4240.0
 20
15926.27857143
 30
0.0
 40
60.0
  1
800
 50
90.0
 41
0.8
100
AcDbText
1001
ACAD
1000
MTEXTBEGIN
1070
    73
1070
     1
1070
    44
1040
1.0
1070
    74
1070
     0
1000
MTEXTEND
  0
ARC
  5
D5
330
548
100
AcDbEntity
  8
YKK_A2
  6
ByBlock
100
AcDbCircle
 10
2304.25
 20
17031.85
 30
-0.1
 40
3.0
100
AcDbArc
 50
90.0
 51
180.0
  0
TEXT
  5
D6
330
548
100
AcDbEntity
  8
0
100
AcDbText
 10
100.0
 20
18737.5
 30
0.0
 40
175.0
  1
W＝900　H＝1,500
  7
EXTFONT
100
AcDbText
  0
TEXT
  5
D7
330
548
100
AcDbEntity
  8
0
100
AcDbText
 10
100.0
 20
19187.5
 30
0.0
 40
175.0
  1
外開き窓
  7
EXTFONT
100
AcDbText
  0
LINE
  5
D8
330
548
100
AcDbEntity
  8
YKK_N1
  6
ByBlock
100
AcDbLine
 10
2800.0
 20
17808.24745962
 30
0.0
 11
2750.0
 21
17894.85
 31
0.0
  0
LINE
  5
D9
330
548
100
AcDbEntity
  8
YKK_N1
  6
ByBlock
100
AcDbLine
 10
2750.0
 20
17894.85
 30
0.0
 11
2700.0
 21
17808.24745962
 31
0.0
  0
LINE
  5
DA
330
548
100
AcDbEntity
  8
YKK_N1
  6
ByBlock
100
AcDbLine
 10
2750.0
 20
17894.85
 30
0.0
 11
2750.0
 21
17794.85
 31
0.0
  0
LINE
  5
DB
330
548
100
AcDbEntity
  8
YKK_N1
100
AcDbLine
 10
2750.0
 20
16395.85
 30
0.0
 11
2750.0
 21
17893.85
 31
0.0
  0
LINE
  5
DC
330
548
100
AcDbEntity
  8
YKK_A1
  6
CENTER
100
AcDbLine
 10
1480.0
 20
17129.85
 30
0.0
 11
2320.0
 21
17864.85
 31
0.0
  0
LINE
  5
DD
330
548
100
AcDbEntity
  8
YKK_A1
100
AcDbLine
 10
1530.0
 20
17814.85
 30
0.0
 11
1530.0
 21
16439.85
 31
0.0
  0
LINE
  5
DE
330
548
100
AcDbEntity
  8
YKK_A1
100
AcDbLine
 10
2270.0
 20
16439.85
 30
0.0
 11
2270.0
 21
17814.85
 31
0.0
  0
LINE
  5
DF
330
548
100
AcDbEntity
  8
YKK_A1
100
AcDbLine
 10
1480.0
 20
17864.85
 30
0.0
 11
1480.0
 21
16394.85
 31
0.0
  0
LINE
  5
E0
330
548
100
AcDbEntity
  8
YKK_A1
100
AcDbLine
 10
2320.0
 20
16394.85
 30
0.0
 11
2320.0
 21
17864.85
 31
0.0
  0
LINE
  5
E1
330
548
100
AcDbEntity
  8
YKK_A1
100
AcDbLine
 10
1450.0
 20
17894.85
 30
0.0
 11
1450.0
 21
16394.85
 31
0.0
  0
LINE
  5
E2
330
548
100
AcDbEntity
  8
YKK_A1
100
AcDbLine
 10
2350.0
 20
16394.85
 30
0.0
 11
2350.0
 21
17894.85
 31
0.0
  0
LINE
  5
E3
330
548
100
AcDbEntity
  8
YKK_A1
100
AcDbLine
 10
1435.0
 20
17909.85
 30
0.0
 11
1435.0
 21
16394.85
 31
0.0
  0
LINE
  5
E4
330
548
100
AcDbEntity
  8
YKK_A1
100
AcDbLine
 10
2365.0
 20
16394.85
 30
0.0
 11
2365.0
 21
17909.85
 31
0.0
  0
TEXT
  5
E5
330
548
100
AcDbEntity
  8
YKK_A1
100
AcDbText
 10
1619.2
 20
16469.85
 30
0.0
 40
60.0
  1
複層ガラス 5+A12+5
 41
0.8
 72
     2
 11
2240.0
 21
16469.85
 31
0.0
100
AcDbText
  0
LINE
  5
E6
330
548
100
AcDbEntity
  8
YKK_A1
  6
CENTER
100
AcDbLine
 10
1480.0
 20
17129.85
 30
0.0
 11
2320.0
 21
16394.85
 31
0.0
  0
LINE
  5
E7
330
548
100
AcDbEntity
  8
YKK_A1
100
AcDbLine
 10
1530.0
 20
16439.85
 30
0.0
 11
2270.0
 21
16439.85
 31
0.0
  0
LINE
  5
E8
330
548
100
AcDbEntity
  8
YKK_A1
100
AcDbLine
 10
1480.0
 20
16394.85
 30
0.0
 11
2320.0
 21
16394.85
 31
0.0
  0
LINE
  5
E9
330
548
100
AcDbEntity
  8
YKK_A1
100
AcDbLine
 10
1450.0
 20
16394.85
 30
0.0
 11
2350.0
 21
16394.85
 31
0.0
  0
LINE
  5
EA
330
548
100
AcDbEntity
  8
YKK_A1
100
AcDbLine
 10
1435.0
 20
16394.85
 30
0.0
 11
2365.0
 21
16394.85
 31
0.0
  0
LINE
  5
EB
330
548
100
AcDbEntity
  8
YKK_A2
  6
ByBlock
100
AcDbLine
 10
1694.22260274
 20
16427.35
 30
0.0
 11
1780.0
 21
16427.35
 31
0.0
  0
LINE
  5
EC
330
548
100
AcDbEntity
  8
YKK_A2
  6
ByBlock
100
AcDbLine
 10
1693.19520548
 20
16437.35
 30
0.0
 11
1780.0
 21
16437.35
 31
0.0
  0
LINE
  5
ED
330
548
100
AcDbEntity
  8
YKK_A2
  6
ByBlock
100
AcDbLine
 10
1682.0
 20
16452.55
 30
0.0
 11
1682.0
 21
16446.55
 31
0.0
  0
LINE
  5
EE
330
548
100
AcDbEntity
  8
YKK_A2
  6
ByBlock
100
AcDbLine
 10
1668.0
 20
16452.55
 30
0.0
 11
1668.0
 21
16446.55
 31
0.0
  0
LINE
  5
EF
330
548
100
AcDbEntity
  8
YKK_A2
  6
ByBlock
100
AcDbLine
 10
1668.0
 20
16452.55
 30
0.0
 11
1682.0
 21
16452.55
 31
0.0
  0
LINE
  5
F0
330
548
100
AcDbEntity
  8
YKK_A2
  6
ByBlock
100
AcDbLine
 10
1682.0
 20
16446.55
 30
0.0
 11
1692.25
 21
16446.55
 31
0.0
  0
LINE
  5
F1
330
548
100
AcDbEntity
  8
YKK_A2
  6
ByBlock
100
AcDbLine
 10
1707.5
 20
16396.85
 30
0.0
 11
1707.5
 21
16394.85
 31
0.0
  0
LINE
  5
F2
330
548
100
AcDbEntity
  8
YKK_A2
  6
ByBlock
100
AcDbLine
 10
1690.0
 20
16410.35
 30
0.0
 11
1690.0
 21
16396.85
 31
0.0
  0
LINE
  5
F3
330
548
100
AcDbEntity
  8
YKK_A2
  6
ByBlock
100
AcDbLine
 10
1685.0
 20
16417.35
 30
0.0
 11
1685.0
 21
16410.35
 31
0.0
  0
LINE
  5
F4
330
548
100
AcDbEntity
  8
YKK_A2
  6
ByBlock
100
AcDbLine
 10
1665.0
 20
16417.35
 30
0.0
 11
1665.0
 21
16410.35
 31
0.0
  0
LINE
  5
F5
330
548
100
AcDbEntity
  8
YKK_A2
  6
ByBlock
100
AcDbLine
 10
1685.0
 20
16410.35
 30
0.0
 11
1690.0
 21
16410.35
 31
0.0
  0
LINE
  5
F6
330
548
100
AcDbEntity
  8
YKK_A2
  6
ByBlock
100
AcDbLine
 10
1685.0
 20
16417.35
 30
0.0
 11
1695.25
 21
16417.35
 31
0.0
  0
LINE
  5
F7
330
548
100
AcDbEntity
  8
YKK_A2
  6
ByBlock
100
AcDbLine
 10
1692.25
 20
16446.55
 30
0.0
 11
1695.25
 21
16417.35
 31
0.0
  0
LINE
  5
F8
330
548
100
AcDbEntity
  8
YKK_A2
  6
ByBlock
100
AcDbLine
 10
1660.0
 20
16410.35
 30
0.0
 11
1660.0
 21
16396.85
 31
0.0
  0
LINE
  5
F9
330
548
100
AcDbEntity
  8
YKK_A2
  6
ByBlock
100
AcDbLine
 10
1642.5
 20
16396.85
 30
0.0
 11
1642.5
 21
16394.85
 31
0.0
  0
LINE
  5
FA
330
548
100
AcDbEntity
  8
YKK_A2
  6
ByBlock
100
AcDbLine
 10
1621.0
 20
16427.35
 30
0.0
 11
1621.0
 21
16405.85
 31
0.0
  0
LINE
  5
FB
330
548
100
AcDbEntity
  8
YKK_A2
  6
ByBlock
100
AcDbLine
 10
1657.75
 20
16446.55
 30
0.0
 11
1654.75
 21
16417.35
 31
0.0
  0
LINE
  5
FC
330
548
100
AcDbEntity
  8
YKK_A2
  6
ByBlock
100
AcDbLine
 10
1657.75
 20
16446.55
 30
0.0
 11
1668.0
 21
16446.55
 31
0.0
  0
LINE
  5
FD
330
548
100
AcDbEntity
  8
YKK_A2
  6
ByBlock
100
AcDbLine
 10
1660.0
 20
16410.35
 30
0.0
 11
1665.0
 21
16410.35
 31
0.0
  0
LINE
  5
FE
330
548
100
AcDbEntity
  8
YKK_A2
  6
ByBlock
100
AcDbLine
 10
1654.75
 20
16417.35
 30
0.0
 11
1665.0
 21
16417.35
 31
0.0
  0
LINE
  5
FF
330
548
100
AcDbEntity
  8
YKK_A2
  6
ByBlock
100
AcDbLine
 10
1642.5
 20
16396.85
 30
0.0
 11
1707.5
 21
16396.85
 31
0.0
  0
LINE
  5
100
330
548
100
AcDbEntity
  8
YKK_A2
  6
ByBlock
100
AcDbLine
 10
1642.5
 20
16394.85
 30
0.0
 11
1707.5
 21
16394.85
 31
0.0
  0
LINE
  5
101
330
548
100
AcDbEntity
  8
YKK_A2
  6
ByBlock
100
AcDbLine
 10
1584.0
 20
16437.35
 30
0.0
 11
1584.0
 21
16427.35
 31
0.0
  0
CIRCLE
  5
102
330
548
100
AcDbEntity
  8
YKK_A2
  6
ByBlock
100
AcDbCircle
 10
1574.0
 20
16411.85
 30
0.0
 40
4.0
  0
LINE
  5
103
330
548
100
AcDbEntity
  8
YKK_A2
  6
ByBlock
100
AcDbLine
 10
1567.0
 20
16427.35
 30
0.0
 11
1567.0
 21
16405.85
 31
0.0
  0
LINE
  5
104
330
548
100
AcDbEntity
  8
YKK_A2
  6
ByBlock
100
AcDbLine
 10
1584.0
 20
16437.35
 30
0.0
 11
1656.80479452
 21
16437.35
 31
0.0
  0
LINE
  5
105
330
548
100
AcDbEntity
  8
YKK_A2
  6
ByBlock
100
AcDbLine
 10
1567.0
 20
16427.35
 30
0.0
 11
1655.77739726
 21
16427.35
 31
0.0
  0
CIRCLE
  5
106
330
548
100
AcDbEntity
  8
YKK_A2
  6
ByBlock
100
AcDbCircle
 10
1614.0
 20
16411.85
 30
0.0
 40
4.0
  0
LINE
  5
107
330
548
100
AcDbEntity
  8
YKK_A2
  6
ByBlock
100
AcDbLine
 10
1567.0
 20
16405.85
 30
0.0
 11
1621.0
 21
16405.85
 31
0.0
  0
LINE
  5
108
330
548
100
AcDbEntity
  8
YKK_A2
  6
ByBlock
100
AcDbLine
 10
1780.0
 20
16437.35
 30
0.0
 11
1780.0
 21
16427.35
 31
0.0
  0
TEXT
  5
109
330
548
100
AcDbEntity
  8
YKK_N1
100
AcDbText
 10
2740.0
 20
16997.42142857
 30
0.0
 40
60.0
  1
H=1500
 50
90.0
 41
0.8
100
AcDbText
1001
ACAD
1000
MTEXTBEGIN
1070
    73
1070
     1
1070
    44
1040
1.0
1070
    74
1070
     0
1000
MTEXTEND
  0
LINE
  5
10A
330
548
100
AcDbEntity
  8
YKK_N1
100
AcDbLine
 10
2135.0
 20
17044.85
 30
0.0
 11
2135.0
 21
17024.85
 31
0.0
  0
LINE
  5
10B
330
548
100
AcDbEntity
  8
YKK_A2
  6
ByBlock
100
AcDbLine
 10
2305.0
 20
17008.85
 30
0.0
 11
2305.0
 21
17074.85
 31
0.0
  0
LINE
  5
10C
330
548
100
AcDbEntity
  8
YKK_A2
  6
ByBlock
100
AcDbLine
 10
2301.25
 20
17044.85
 30
0.0
 11
2301.25
 21
16914.85
 31
0.0
  0
LINE
  5
10D
330
548
100
AcDbEntity
  8
YKK_A2
  6
ByBlock
100
AcDbLine
 10
2285.0
 20
17074.85
 30
0.0
 11
2285.0
 21
17008.85
 31
0.0
  0
LINE
  5
10E
330
548
100
AcDbEntity
  8
YKK_A2
  6
ByBlock
100
AcDbLine
 10
2288.75
 20
17044.85
 30
0.0
 11
2288.75
 21
16914.85
 31
0.0
  0
LINE
  5
10F
330
548
100
AcDbEntity
  8
YKK_N1
100
AcDbLine
 10
2410.0
 20
16394.85
 30
0.0
 11
2780.0
 21
16394.85
 31
0.0
  0
LINE
  5
110
330
548
100
AcDbEntity
  8
YKK_N1
100
AcDbLine
 10
2135.0
 20
17024.85
 30
0.0
 11
2135.0
 21
16414.85
 31
0.0
  0
LINE
  5
111
330
548
100
AcDbEntity
  8
YKK_N1
100
AcDbLine
 10
2135.0
 20
16394.85
 30
0.0
 11
2135.0
 21
16414.85
 31
0.0
  0
CIRCLE
  5
112
330
548
100
AcDbEntity
  8
YKK_N1
100
AcDbCircle
 10
2135.0
 20
16394.85
 30
0.0
 40
6.5
  0
CIRCLE
  5
113
330
548
100
AcDbEntity
  8
YKK_N1
100
AcDbCircle
 10
2135.0
 20
16394.85
 30
0.0
 40
10.0
  0
LINE
  5
114
330
548
100
AcDbEntity
  8
YKK_N1
100
AcDbLine
 10
2075.0
 20
16394.85
 30
0.0
 11
2105.0
 21
16394.85
 31
0.0
  0
LINE
  5
115
330
548
100
AcDbEntity
  8
YKK_A2
  6
ByBlock
100
AcDbLine
 10
2301.25
 20
16914.85
 30
0.0
 11
2288.75
 21
16914.85
 31
0.0
  0
TEXT
  5
116
330
548
100
AcDbEntity
  8
YKK_N1
100
AcDbText
 10
2125.0
 20
16650.13571429
 30
0.0
 40
60.0
  1
650
 50
90.0
 41
0.8
100
AcDbText
1001
ACAD
1000
MTEXTBEGIN
1070
    73
1070
     1
1070
    44
1040
1.0
1070
    74
1070
     0
1000
MTEXTEND
  0
LINE
  5
118
330
548
100
AcDbEntity
  8
YKK_A2
  6
ByBlock
100
AcDbLine
 10
2285.0
 20
17008.85
 30
0.0
 11
2288.75
 21
17008.85
 31
0.0
  0
LINE
  5
119
330
548
100
AcDbEntity
  8
YKK_A2
  6
ByBlock
100
AcDbLine
 10
2301.25
 20
17008.85
 30
0.0
 11
2305.0
 21
17008.85
 31
0.0
  0
LINE
  5
11A
330
548
100
AcDbEntity
  8
YKK_N1
  6
ByBlock
100
AcDbLine
 10
2700.0
 20
16481.45254038
 30
0.0
 11
2750.0
 21
16394.85
 31
0.0
  0
LINE
  5
11B
330
548
100
AcDbEntity
  8
YKK_N1
  6
ByBlock
100
AcDbLine
 10
2800.0
 20
16481.45254038
 30
0.0
 11
2700.0
 21
16481.45254038
 31
0.0
  0
LINE
  5
11C
330
548
100
AcDbEntity
  8
YKK_N1
  6
ByBlock
100
AcDbLine
 10
2750.0
 20
16394.85
 30
0.0
 11
2800.0
 21
16481.45254038
 31
0.0
  0
LINE
  5
11D
330
548
100
AcDbEntity
  8
YKK_N1
  6
ByBlock
100
AcDbLine
 10
2750.0
 20
16394.85
 30
0.0
 11
2750.0
 21
16494.85
 31
0.0
  0
LINE
  5
11E
330
548
100
AcDbEntity
  8
YKK_A2
  6
ByBlock
100
AcDbLine
 10
2305.0
 20
17074.85
 30
0.0
 11
2285.0
 21
17074.85
 31
0.0
  0
LINE
  5
11F
330
548
100
AcDbEntity
  8
YKK_A2
  6
ByBlock
100
AcDbLine
 10
2305.0
 20
17054.85
 30
0.0
 11
2285.0
 21
17054.85
 31
0.0
  0
LINE
  5
120
330
548
100
AcDbEntity
  8
YKK_A2
  6
ByBlock
100
AcDbLine
 10
2288.75
 20
17044.85
 30
0.0
 11
2301.25
 21
17044.85
 31
0.0
  0
CIRCLE
  5
121
330
548
100
AcDbEntity
  8
YKK_N1
100
AcDbCircle
 10
2135.0
 20
17044.85
 30
0.0
 40
6.5
  0
CIRCLE
  5
122
330
548
100
AcDbEntity
  8
YKK_N1
100
AcDbCircle
 10
2135.0
 20
17044.85
 30
0.0
 40
10.0
  0
LINE
  5
123
330
548
100
AcDbEntity
  8
YKK_A2
  6
ByBlock
100
AcDbLine
 10
2285.75
 20
17034.85
 30
0.0
 11
2285.0
 21
17034.85
 31
0.0
  0
ARC
  5
124
330
548
100
AcDbEntity
  8
YKK_A2
  6
ByBlock
100
AcDbCircle
 10
2285.75
 20
17031.85
 30
0.0
 40
3.0
100
AcDbArc
 50
0.0
 51
90.0
  0
LINE
  5
125
330
548
100
AcDbEntity
  8
YKK_A2
  6
ByBlock
100
AcDbLine
 10
2285.0
 20
17054.85
 30
0.0
 11
2288.75
 21
17044.85
 31
0.0
  0
LINE
  5
126
330
548
100
AcDbEntity
  8
YKK_N1
100
AcDbLine
 10
2235.0
 20
17044.85
 30
0.0
 11
2105.0
 21
17044.85
 31
0.0
  0
LINE
  5
127
330
548
100
AcDbEntity
  8
YKK_A2
  6
ByBlock
100
AcDbLine
 10
2305.0
 20
17034.85
 30
0.0
 11
2304.25
 21
17034.85
 31
0.0
  0
LINE
  5
128
330
548
100
AcDbEntity
  8
YKK_A2
  6
ByBlock
100
AcDbLine
 10
2305.0
 20
17054.85
 30
0.0
 11
2301.25
 21
17044.85
 31
0.0
  0
LINE
  5
129
330
548
100
AcDbEntity
  8
YKK_N1
  6
ByBlock
100
AcDbLine
 10
2700.0
 20
17808.24745962
 30
0.0
 11
2800.0
 21
17808.24745962
 31
0.0
  0
LINE
  5
12A
330
548
100
AcDbEntity
  8
YKK_A1
100
AcDbLine
 10
2270.0
 20
17814.85
 30
0.0
 11
1530.0
 21
17814.85
 31
0.0
  0
LINE
  5
12B
330
548
100
AcDbEntity
  8
YKK_A1
100
AcDbLine
 10
2320.0
 20
17864.85
 30
0.0
 11
1480.0
 21
17864.85
 31
0.0
  0
LINE
  5
12C
330
548
100
AcDbEntity
  8
YKK_A1
100
AcDbLine
 10
2350.0
 20
17894.85
 30
0.0
 11
1450.0
 21
17894.85
 31
0.0
  0
LINE
  5
12D
330
548
100
AcDbEntity
  8
YKK_A1
100
AcDbLine
 10
2365.0
 20
17909.85
 30
0.0
 11
1435.0
 21
17909.85
 31
0.0
  0
LINE
  5
12E
330
548
100
AcDbEntity
  8
YKK_N1
100
AcDbLine
 10
2410.0
 20
17894.85
 30
0.0
 11
2780.0
 21
17894.85
 31
0.0
  0
LINE
  5
12F
330
548
100
AcDbEntity
  8
YKK_N1
  6
ByBlock
100
AcDbLine
 10
4300.0
 20
17808.24745962
 30
0.0
 11
4250.0
 21
17894.85
 31
0.0
  0
LINE
  5
130
330
548
100
AcDbEntity
  8
YKK_N1
  6
ByBlock
100
AcDbLine
 10
4250.0
 20
17894.85
 30
0.0
 11
4200.0
 21
17808.24745962
 31
0.0
  0
LINE
  5
131
330
548
100
AcDbEntity
  8
YKK_N1
  6
ByBlock
100
AcDbLine
 10
4250.0
 20
17894.85
 30
0.0
 11
4250.0
 21
17794.85
 31
0.0
  0
LINE
  5
132
330
548
100
AcDbEntity
  8
YKK_N1
100
AcDbLine
 10
4250.0
 20
16395.85
 30
0.0
 11
4250.0
 21
17893.85
 31
0.0
  0
LINE
  5
133
330
548
100
AcDbEntity
  8
YKK_N1
  6
Continuous
100
AcDbLine
 10
3970.0
 20
17849.85
 30
0.0
 11
3970.0
 21
17435.85
 31
0.0
  0
LINE
  5
134
330
548
100
AcDbEntity
  8
YKK_Z1
  6
Continuous
100
AcDbLine
 10
3970.0
 20
17909.85
 30
0.0
 11
3970.0
 21
17144.85
 31
0.0
  0
LINE
  5
135
330
548
100
AcDbEntity
  8
YKK_C1
100
AcDbLine
 10
3850.0
 20
16414.85
 30
0.0
 11
3850.0
 21
17874.85
 31
0.0
  0
LINE
  5
136
330
548
100
AcDbEntity
  8
YKK_C1
100
AcDbLine
 10
3778.0
 20
16431.85
 30
0.0
 11
3778.0
 21
17822.85
 31
0.0
  0
LINE
  5
137
330
548
100
AcDbEntity
  8
YKK_C1
100
AcDbLine
 10
3764.0
 20
16431.85
 30
0.0
 11
3764.0
 21
17822.85
 31
0.0
  0
LINE
  5
138
330
548
100
AcDbEntity
  8
YKK_N1
  6
ByBlock
100
AcDbLine
 10
4300.0
 20
16481.45254038
 30
0.0
 11
4200.0
 21
16481.45254038
 31
0.0
  0
LINE
  5
139
330
548
100
AcDbEntity
  8
YKK_N1
  6
ByBlock
100
AcDbLine
 10
4250.0
 20
16394.85
 30
0.0
 11
4300.0
 21
16481.45254038
 31
0.0
  0
LINE
  5
13A
330
548
100
AcDbEntity
  8
YKK_N1
  6
ByBlock
100
AcDbLine
 10
4200.0
 20
17808.24745962
 30
0.0
 11
4300.0
 21
17808.24745962
 31
0.0
  0
LINE
  5
13B
330
548
100
AcDbEntity
  8
YKK_N1
100
AcDbLine
 10
3910.0
 20
16394.85
 30
0.0
 11
4280.0
 21
16394.85
 31
0.0
  0
TEXT
  5
13C
330
548
100
AcDbEntity
  8
YKK_N1
100
AcDbText
 10
4240.0
 20
16997.42142857
 30
0.0
 40
60.0
  1
H=1500
 50
90.0
 41
0.8
100
AcDbText
1001
ACAD
1000
MTEXTBEGIN
1070
    73
1070
     1
1070
    44
1040
1.0
1070
    74
1070
     0
1000
MTEXTEND
  0
LINE
  5
13D
330
548
100
AcDbEntity
  8
YKK_Z1
  6
Continuous
100
AcDbLine
 10
3970.0
 20
16394.85
 30
0.0
 11
3970.0
 21
17144.85
 31
0.0
  0
LINE
  5
13E
330
548
100
AcDbEntity
  8
YKK_C1
100
AcDbLine
 10
3750.0
 20
16459.85
 30
0.0
 11
3750.0
 21
17794.85
 31
0.0
  0
LINE
  5
13F
330
548
100
AcDbEntity
  8
YKK_Z1
  6
Continuous
100
AcDbLine
 10
3948.0
 20
16369.85
 30
0.0
 11
3960.0
 21
16369.85
 31
0.0
  0
LINE
  5
140
330
548
100
AcDbEntity
  8
YKK_Z1
  6
Continuous
100
AcDbLine
 10
3760.0
 20
16334.85
 30
0.0
 11
3760.0
 21
16294.85
 31
0.0
  0
LINE
  5
141
330
548
100
AcDbEntity
  8
YKK_Z1
  6
Continuous
100
AcDbLine
 10
3963.13709479
 20
16369.85
 30
0.0
 11
3970.0
 21
16376.7129064
 31
0.0
  0
LINE
  5
142
330
548
100
AcDbEntity
  8
YKK_Z1
  6
Continuous
100
AcDbLine
 10
3934.85282109
 20
16369.85
 30
0.0
 11
3959.85281676
 21
16394.85
 31
0.0
  0
LINE
  5
143
330
548
100
AcDbEntity
  8
YKK_Z1
  6
Continuous
100
AcDbLine
 10
3906.56854739
 20
16369.85
 30
0.0
 11
3931.56854306
 21
16394.85
 31
0.0
  0
LINE
  5
144
330
548
100
AcDbEntity
  8
YKK_Z1
  6
Continuous
100
AcDbLine
 10
3878.2842737
 20
16369.85
 30
0.0
 11
3903.28426937
 21
16394.85
 31
0.0
  0
LINE
  5
145
330
548
100
AcDbEntity
  8
YKK_Z1
  6
Continuous
100
AcDbLine
 10
3850.0
 20
16369.85
 30
0.0
 11
3874.99999567
 21
16394.85
 31
0.0
  0
LINE
  5
146
330
548
100
AcDbEntity
  8
YKK_Z1
  6
Continuous
100
AcDbLine
 10
3850.0
 20
16369.85
 30
0.0
 11
3850.0
 21
16394.85
 31
0.0
  0
LINE
  5
147
330
548
100
AcDbEntity
  8
YKK_Z1
  6
Continuous
100
AcDbLine
 10
3970.0
 20
16369.85
 30
0.0
 11
3850.0
 21
16369.85
 31
0.0
  0
LINE
  5
148
330
548
100
AcDbEntity
  8
YKK_Z1
  6
Continuous
100
AcDbLine
 10
3970.0
 20
16394.85
 30
0.0
 11
3970.0
 21
16369.85
 31
0.0
  0
LINE
  5
149
330
548
100
AcDbEntity
  8
YKK_Z1
  6
Continuous
100
AcDbLine
 10
3850.0
 20
16394.85
 30
0.0
 11
3970.0
 21
16394.85
 31
0.0
  0
LINE
  5
14A
330
548
100
AcDbEntity
  8
YKK_Z1
  6
Continuous
100
AcDbLine
 10
3860.0
 20
16294.85
 30
0.0
 11
3760.0
 21
16294.85
 31
0.0
  0
LINE
  5
14B
330
548
100
AcDbEntity
  8
YKK_Z1
  6
Continuous
100
AcDbLine
 10
3870.0
 20
16319.85
 30
0.0
 11
3860.0
 21
16294.85
 31
0.0
  0
LINE
  5
14C
330
548
100
AcDbEntity
  8
YKK_Z1
  6
Continuous
100
AcDbLine
 10
3930.0
 20
16319.85
 30
0.0
 11
3870.0
 21
16319.85
 31
0.0
  0
LINE
  5
14D
330
548
100
AcDbEntity
  8
YKK_C1
100
AcDbLine
 10
3792.0
 20
16439.85
 30
0.0
 11
3792.0
 21
16423.85
 31
0.0
  0
LINE
  5
14E
330
548
100
AcDbEntity
  8
YKK_C1
100
AcDbLine
 10
3800.0
 20
16439.85
 30
0.0
 11
3792.0
 21
16439.85
 31
0.0
  0
LINE
  5
14F
330
548
100
AcDbEntity
  8
YKK_C1
100
AcDbLine
 10
3750.0
 20
16423.85
 30
0.0
 11
3800.0
 21
16423.85
 31
0.0
  0
LINE
  5
150
330
548
100
AcDbEntity
  8
YKK_C1
100
AcDbLine
 10
3750.0
 20
16439.85
 30
0.0
 11
3750.0
 21
16357.85
 31
0.0
  0
LINE
  5
151
330
548
100
AcDbEntity
  8
YKK_C1
100
AcDbLine
 10
3800.0
 20
16389.85
 30
0.0
 11
3750.0
 21
16389.85
 31
0.0
  0
LINE
  5
152
330
548
100
AcDbEntity
  8
YKK_C1
100
AcDbLine
 10
3800.0
 20
16439.85
 30
0.0
 11
3800.0
 21
16389.85
 31
0.0
  0
LINE
  5
153
330
548
100
AcDbEntity
  8
YKK_C1
100
AcDbLine
 10
3777.0
 20
16359.85
 30
0.0
 11
3850.0
 21
16359.85
 31
0.0
  0
LINE
  5
154
330
548
100
AcDbEntity
  8
YKK_C1
100
AcDbLine
 10
3805.0
 20
16359.85
 30
0.0
 11
3805.0
 21
16324.85
 31
0.0
  0
LINE
  5
155
330
548
100
AcDbEntity
  8
YKK_C1
100
AcDbLine
 10
3750.0
 20
16334.85
 30
0.0
 11
3805.0
 21
16334.85
 31
0.0
  0
LINE
  5
156
330
548
100
AcDbEntity
  8
YKK_C1
100
AcDbLine
 10
3750.0
 20
16359.85
 30
0.0
 11
3750.0
 21
16334.85
 31
0.0
  0
LINE
  5
157
330
548
100
AcDbEntity
  8
YKK_C1
100
AcDbLine
 10
3805.0
 20
16354.85
 30
0.0
 11
3811.0
 21
16354.85
 31
0.0
  0
LINE
  5
158
330
548
100
AcDbEntity
  8
YKK_C1
100
AcDbLine
 10
3850.0
 20
16354.85
 30
0.0
 11
3844.0
 21
16354.85
 31
0.0
  0
LINE
  5
159
330
548
100
AcDbEntity
  8
YKK_C1
100
AcDbLine
 10
3850.0
 20
16394.85
 30
0.0
 11
3850.0
 21
16354.85
 31
0.0
  0
LINE
  5
15B
330
548
100
AcDbEntity
  8
YKK_C1
100
AcDbLine
 10
3777.0
 20
16359.85
 30
0.0
 11
3750.0
 21
16359.85
 31
0.0
  0
LINE
  5
15D
330
548
100
AcDbEntity
  8
YKK_C1
100
AcDbLine
 10
3804.0
 20
16359.85
 30
0.0
 11
3750.0
 21
16359.85
 31
0.0
  0
LINE
  5
15E
330
548
100
AcDbEntity
  8
YKK_C1
100
AcDbLine
 10
3804.0
 20
16394.85
 30
0.0
 11
3804.0
 21
16359.85
 31
0.0
  0
LINE
  5
15F
330
548
100
AcDbEntity
  8
YKK_C1
100
AcDbLine
 10
3850.0
 20
16394.85
 30
0.0
 11
3804.0
 21
16394.85
 31
0.0
  0
LINE
  5
160
330
548
100
AcDbEntity
  8
YKK_N1
  6
ByBlock
100
AcDbLine
 10
4250.0
 20
16394.85
 30
0.0
 11
4250.0
 21
16374.85
 31
0.0
  0
LINE
  5
161
330
548
100
AcDbEntity
  8
YKK_N1
  6
ByBlock
100
AcDbLine
 10
4200.0
 20
16481.45254038
 30
0.0
 11
4250.0
 21
16394.85
 31
0.0
  0
LINE
  5
162
330
548
100
AcDbEntity
  8
YKK_N1
  6
ByBlock
100
AcDbLine
 10
4250.0
 20
16394.85
 30
0.0
 11
4250.0
 21
16494.85
 31
0.0
  0
CIRCLE
  5
163
330
548
100
AcDbEntity
  8
YKK_N1
100
AcDbCircle
 10
3970.0
 20
17465.85
 30
0.0
 40
10.0
  0
LINE
  5
164
330
548
100
AcDbEntity
  8
YKK_N1
  6
Continuous
100
AcDbLine
 10
3970.0
 20
17465.85
 30
0.0
 11
4126.57142857
 21
17465.85
 31
0.0
  0
LINE
  5
165
330
548
100
AcDbEntity
  8
YKK_N1
100
AcDbLine
 10
3850.0
 20
17465.85
 30
0.0
 11
3870.0
 21
17465.85
 31
0.0
  0
CIRCLE
  5
166
330
548
100
AcDbEntity
  8
YKK_N1
100
AcDbCircle
 10
3850.0
 20
17465.85
 30
0.0
 40
6.5
  0
CIRCLE
  5
167
330
548
100
AcDbEntity
  8
YKK_N1
100
AcDbCircle
 10
3850.0
 20
17465.85
 30
0.0
 40
10.0
  0
LINE
  5
168
330
548
100
AcDbEntity
  8
YKK_N1
100
AcDbLine
 10
3970.0
 20
17465.85
 30
0.0
 11
3950.0
 21
17465.85
 31
0.0
  0
CIRCLE
  5
169
330
548
100
AcDbEntity
  8
YKK_N1
100
AcDbCircle
 10
3970.0
 20
17465.85
 30
0.0
 40
6.5
  0
TEXT
  5
16A
330
548
100
AcDbEntity
  8
YKK_N1
100
AcDbText
 10
3728.0
 20
17510.85
 30
0.0
 40
60.0
  1
100
 41
0.8
100
AcDbText
1001
ACAD
1000
MTEXTBEGIN
1070
    73
1070
     1
1070
    44
1040
1.0
1070
    74
1070
     0
1000
MTEXTEND
  0
LINE
  5
16B
330
548
100
AcDbEntity
  8
YKK_N1
100
AcDbLine
 10
3850.0
 20
17465.85
 30
0.0
 11
3830.0
 21
17465.85
 31
0.0
  0
CIRCLE
  5
16C
330
548
100
AcDbEntity
  8
YKK_N1
100
AcDbCircle
 10
3850.0
 20
17465.85
 30
0.0
 40
6.5
  0
CIRCLE
  5
16D
330
548
100
AcDbEntity
  8
YKK_N1
100
AcDbCircle
 10
3850.0
 20
17465.85
 30
0.0
 40
10.0
  0
LINE
  5
16E
330
548
100
AcDbEntity
  8
YKK_N1
100
AcDbLine
 10
3750.0
 20
17465.85
 30
0.0
 11
3770.0
 21
17465.85
 31
0.0
  0
CIRCLE
  5
16F
330
548
100
AcDbEntity
  8
YKK_N1
100
AcDbCircle
 10
3750.0
 20
17465.85
 30
0.0
 40
6.5
  0
CIRCLE
  5
170
330
548
100
AcDbEntity
  8
YKK_N1
100
AcDbCircle
 10
3750.0
 20
17465.85
 30
0.0
 40
10.0
  0
LINE
  5
171
330
548
100
AcDbEntity
  8
YKK_N1
100
AcDbLine
 10
3830.0
 20
17465.85
 30
0.0
 11
3770.0
 21
17465.85
 31
0.0
  0
LINE
  5
172
330
548
100
AcDbEntity
  8
YKK_N1
100
AcDbLine
 10
3750.0
 20
17515.85
 30
0.0
 11
3750.0
 21
17495.85
 31
0.0
  0
LINE
  5
173
330
548
100
AcDbEntity
  8
YKK_N1
100
AcDbLine
 10
3850.0
 20
17515.85
 30
0.0
 11
3850.0
 21
17495.85
 31
0.0
  0
LINE
  5
174
330
548
100
AcDbEntity
  8
YKK_N1
  6
Continuous
100
AcDbLine
 10
3870.0
 20
17465.85
 30
0.0
 11
3950.0
 21
17465.85
 31
0.0
  0
LINE
  5
175
330
548
100
AcDbEntity
  8
YKK_N1
  6
Continuous
100
AcDbLine
 10
3850.0
 20
17525.85
 30
0.0
 11
3850.0
 21
17495.85
 31
0.0
  0
TEXT
  5
176
330
548
100
AcDbEntity
  8
YKK_N1
100
AcDbText
 10
3986.28571429
 20
17475.85
 30
0.0
 40
60.0
  1
120
 41
0.8
100
AcDbText
  0
LINE
  5
177
330
548
100
AcDbEntity
  8
YKK_N1
100
AcDbLine
 10
3910.0
 20
17894.85
 30
0.0
 11
4280.0
 21
17894.85
 31
0.0
  0
LINE
  5
178
330
548
100
AcDbEntity
  8
YKK_Z1
  6
Continuous
100
AcDbLine
 10
3948.0
 20
18294.85
 30
0.0
 11
3948.0
 21
17934.85
 31
0.0
  0
LINE
  5
179
330
548
100
AcDbEntity
  8
YKK_Z1
  6
Continuous
100
AcDbLine
 10
3960.0
 20
17934.85
 30
0.0
 11
3960.0
 21
18294.85
 31
0.0
  0
LINE
  5
17A
330
548
100
AcDbEntity
  8
YKK_Z1
  6
HIDDEN
100
AcDbLine
 10
3780.0
 20
18294.85
 30
0.0
 11
3780.0
 21
17954.85
 31
0.0
  0
LINE
  5
17B
330
548
100
AcDbEntity
  8
YKK_Z1
  6
CENTER
100
AcDbLine
 10
3855.0
 20
17954.85
 30
0.0
 11
3855.0
 21
18294.85
 31
0.0
  0
LINE
  5
17C
330
548
100
AcDbEntity
  8
YKK_Z1
  6
Continuous
100
AcDbLine
 10
3760.0
 20
18096.56582933
 30
0.0
 11
3930.0
 21
18266.565741
 31
0.0
  0
LINE
  5
17D
330
548
100
AcDbEntity
  8
YKK_Z1
  6
Continuous
100
AcDbLine
 10
3760.0
 20
18116.36481063
 30
0.0
 11
3930.0
 21
18286.3647223
 31
0.0
  0
LINE
  5
17E
330
548
100
AcDbEntity
  8
YKK_Z1
  6
Continuous
100
AcDbLine
 10
3760.0
 20
18124.85008833
 30
0.0
 11
3930.0
 21
18294.85
 31
0.0
  0
LINE
  5
17F
330
548
100
AcDbEntity
  8
YKK_Z1
  6
Continuous
100
AcDbLine
 10
3760.0
 20
17954.85
 30
0.0
 11
3760.0
 21
18294.85
 31
0.0
  0
LINE
  5
180
330
548
100
AcDbEntity
  8
YKK_Z1
  6
Continuous
100
AcDbLine
 10
3930.0
 20
18294.85
 30
0.0
 11
3930.0
 21
17979.85
 31
0.0
  0
LINE
  5
181
330
548
100
AcDbEntity
  8
YKK_Z1
  6
Continuous
100
AcDbLine
 10
3948.0
 20
17934.85
 30
0.0
 11
3960.0
 21
17934.85
 31
0.0
  0
LINE
  5
182
330
548
100
AcDbEntity
  8
YKK_Z1
  6
Continuous
100
AcDbLine
 10
3760.0
 20
17934.85
 30
0.0
 11
3760.0
 21
17954.85
 31
0.0
  0
LINE
  5
183
330
548
100
AcDbEntity
  8
YKK_Z1
  6
Continuous
100
AcDbLine
 10
3970.0
 20
17913.42864265
 30
0.0
 11
3966.42135549
 21
17909.85
 31
0.0
  0
LINE
  5
184
330
548
100
AcDbEntity
  8
YKK_Z1
  6
Continuous
100
AcDbLine
 10
3963.13709479
 20
17934.85
 30
0.0
 11
3938.1370818
 21
17909.85
 31
0.0
  0
LINE
  5
185
330
548
100
AcDbEntity
  8
YKK_Z1
  6
Continuous
100
AcDbLine
 10
3934.85282109
 20
17934.85
 30
0.0
 11
3909.8528081
 21
17909.85
 31
0.0
  0
LINE
  5
186
330
548
100
AcDbEntity
  8
YKK_Z1
  6
Continuous
100
AcDbLine
 10
3906.56854739
 20
17934.85
 30
0.0
 11
3881.5685344
 21
17909.85
 31
0.0
  0
LINE
  5
187
330
548
100
AcDbEntity
  8
YKK_Z1
  6
Continuous
100
AcDbLine
 10
3878.2842737
 20
17934.85
 30
0.0
 11
3853.28426071
 21
17909.85
 31
0.0
  0
LINE
  5
189
330
548
100
AcDbEntity
  8
YKK_Z1
  6
Continuous
100
AcDbLine
 10
3850.0
 20
17934.85
 30
0.0
 11
3850.0
 21
17909.85
 31
0.0
  0
LINE
  5
18A
330
548
100
AcDbEntity
  8
YKK_Z1
  6
Continuous
100
AcDbLine
 10
3970.0
 20
17934.85
 30
0.0
 11
3850.0
 21
17934.85
 31
0.0
  0
LINE
  5
18B
330
548
100
AcDbEntity
  8
YKK_Z1
  6
Continuous
100
AcDbLine
 10
3970.0
 20
17909.85
 30
0.0
 11
3970.0
 21
17934.85
 31
0.0
  0
LINE
  5
18C
330
548
100
AcDbEntity
  8
YKK_Z1
  6
Continuous
100
AcDbLine
 10
3850.0
 20
17909.85
 30
0.0
 11
3970.0
 21
17909.85
 31
0.0
  0
LINE
  5
18D
330
548
100
AcDbEntity
  8
YKK_Z1
  6
Continuous
100
AcDbLine
 10
3920.46999225
 20
17979.85
 30
0.0
 11
3930.0
 21
17989.3800028
 31
0.0
  0
LINE
  5
18E
330
548
100
AcDbEntity
  8
YKK_Z1
  6
Continuous
100
AcDbLine
 10
3911.98471014
 20
17979.85
 30
0.0
 11
3930.0
 21
17997.8652805
 31
0.0
  0
LINE
  5
18F
330
548
100
AcDbEntity
  8
YKK_Z1
  6
Continuous
100
AcDbLine
 10
3810.0
 20
17954.85
 30
0.0
 11
3760.0
 21
17954.85
 31
0.0
  0
LINE
  5
190
330
548
100
AcDbEntity
  8
YKK_Z1
  6
Continuous
100
AcDbLine
 10
3820.0
 20
17979.85
 30
0.0
 11
3810.0
 21
17954.85
 31
0.0
  0
LINE
  5
191
330
548
100
AcDbEntity
  8
YKK_Z1
  6
Continuous
100
AcDbLine
 10
3930.0
 20
17979.85
 30
0.0
 11
3820.0
 21
17979.85
 31
0.0
  0
LINE
  5
192
330
548
100
AcDbEntity
  8
YKK_C1
100
AcDbLine
 10
3792.0
 20
17814.85
 30
0.0
 11
3792.0
 21
17830.85
 31
0.0
  0
LINE
  5
193
330
548
100
AcDbEntity
  8
YKK_C1
100
AcDbLine
 10
3800.0
 20
17814.85
 30
0.0
 11
3792.0
 21
17814.85
 31
0.0
  0
LINE
  5
194
330
548
100
AcDbEntity
  8
YKK_C1
100
AcDbLine
 10
3800.0
 20
17830.85
 30
0.0
 11
3750.0
 21
17830.85
 31
0.0
  0
LINE
  5
195
330
548
100
AcDbEntity
  8
YKK_C1
100
AcDbLine
 10
3750.0
 20
17814.85
 30
0.0
 11
3750.0
 21
17889.85
 31
0.0
  0
LINE
  5
196
330
548
100
AcDbEntity
  8
YKK_C1
100
AcDbLine
 10
3800.0
 20
17869.85
 30
0.0
 11
3750.0
 21
17869.85
 31
0.0
  0
LINE
  5
197
330
548
100
AcDbEntity
  8
YKK_C1
100
AcDbLine
 10
3800.0
 20
17814.85
 30
0.0
 11
3800.0
 21
17869.85
 31
0.0
  0
LINE
  5
198
330
548
100
AcDbEntity
  8
YKK_C1
100
AcDbLine
 10
3805.0
 20
17944.85
 30
0.0
 11
3805.0
 21
17929.85
 31
0.0
  0
LINE
  5
199
330
548
100
AcDbEntity
  8
YKK_C1
100
AcDbLine
 10
3750.0
 20
17934.85
 30
0.0
 11
3805.0
 21
17934.85
 31
0.0
  0
LINE
  5
19A
330
548
100
AcDbEntity
  8
YKK_C1
100
AcDbLine
 10
3750.0
 20
17894.85
 30
0.0
 11
3750.0
 21
17934.85
 31
0.0
  0
LINE
  5
19B
330
548
100
AcDbEntity
  8
YKK_C1
100
AcDbLine
 10
3805.0
 20
17929.85
 30
0.0
 11
3814.0
 21
17929.85
 31
0.0
  0
LINE
  5
19C
330
548
100
AcDbEntity
  8
YKK_C1
100
AcDbLine
 10
3805.0
 20
17919.85
 30
0.0
 11
3805.0
 21
17929.85
 31
0.0
  0
LINE
  5
19D
330
548
100
AcDbEntity
  8
YKK_C1
100
AcDbLine
 10
3850.0
 20
17919.85
 30
0.0
 11
3805.0
 21
17919.85
 31
0.0
  0
LINE
  5
19E
330
548
100
AcDbEntity
  8
YKK_C1
100
AcDbLine
 10
3850.0
 20
17929.85
 30
0.0
 11
3841.0
 21
17929.85
 31
0.0
  0
LINE
  5
19F
330
548
100
AcDbEntity
  8
YKK_C1
100
AcDbLine
 10
3850.0
 20
17894.85
 30
0.0
 11
3850.0
 21
17929.85
 31
0.0
  0
LINE
  5
1A0
330
548
100
AcDbEntity
  8
YKK_C1
100
AcDbLine
 10
3804.0
 20
17894.85
 30
0.0
 11
3804.0
 21
17864.85
 31
0.0
  0
LINE
  5
1A1
330
548
100
AcDbEntity
  8
YKK_C1
100
AcDbLine
 10
3850.0
 20
17894.85
 30
0.0
 11
3750.0
 21
17894.85
 31
0.0
  0
LINE
  5
1A2
330
548
100
AcDbEntity
  8
YKK_N1
100
AcDbLine
 10
7585.0
 20
16334.85
 30
0.0
 11
7585.0
 21
15964.85
 31
0.0
  0
LINE
  5
1A3
330
548
100
AcDbEntity
  8
YKK_N1
100
AcDbLine
 10
6750.0
 20
16334.85
 30
0.0
 11
6750.0
 21
15964.85
 31
0.0
  0
LINE
  5
1A4
330
548
100
AcDbEntity
  8
YKK_N1
100
AcDbLine
 10
7615.0
 20
16334.85
 30
0.0
 11
7615.0
 21
15964.85
 31
0.0
  0
LINE
  5
1A5
330
548
100
AcDbEntity
  8
YKK_N1
100
AcDbLine
 10
7585.0
 20
16334.85
 30
0.0
 11
7585.0
 21
15964.85
 31
0.0
  0
LINE
  5
1A6
330
548
100
AcDbEntity
  8
YKK_N1
100
AcDbLine
 10
8450.0
 20
16334.85
 30
0.0
 11
8450.0
 21
15964.85
 31
0.0
  0
LINE
  5
1A7
330
548
100
AcDbEntity
  8
YKK_N1
100
AcDbLine
 10
7615.0
 20
16334.85
 30
0.0
 11
7615.0
 21
15964.85
 31
0.0
  0
LINE
  5
1A8
330
548
100
AcDbEntity
  8
YKK_N1
100
AcDbLine
 10
8450.0
 20
16334.85
 30
0.0
 11
8450.0
 21
15764.85
 31
0.0
  0
LINE
  5
1A9
330
548
100
AcDbEntity
  8
YKK_N1
100
AcDbLine
 10
6750.0
 20
16334.85
 30
0.0
 11
6750.0
 21
15764.85
 31
0.0
  0
LINE
  5
1AA
330
548
100
AcDbEntity
  8
YKK_N1
100
AcDbLine
 10
10350.0
 20
16374.85
 30
0.0
 11
10350.0
 21
15614.85
 31
0.0
  0
LINE
  5
1AB
330
548
100
AcDbEntity
  8
YKK_Z1
  6
Continuous
100
AcDbLine
 10
10048.0
 20
15994.85
 30
0.0
 11
10048.0
 21
16369.85
 31
0.0
  0
LINE
  5
1AC
330
548
100
AcDbEntity
  8
YKK_Z1
  6
Continuous
100
AcDbLine
 10
10060.0
 20
16369.85
 30
0.0
 11
10060.0
 21
15994.85
 31
0.0
  0
LINE
  5
1AD
330
548
100
AcDbEntity
  8
YKK_Z1
  6
HIDDEN
100
AcDbLine
 10
9880.0
 20
15994.85
 30
0.0
 11
9880.0
 21
16294.85
 31
0.0
  0
LINE
  5
1AE
330
548
100
AcDbEntity
  8
YKK_Z1
  6
CENTER
100
AcDbLine
 10
9955.0
 20
16314.85
 30
0.0
 11
9955.0
 21
15994.85
 31
0.0
  0
LINE
  5
1AF
330
548
100
AcDbEntity
  8
YKK_Z1
  6
Continuous
100
AcDbLine
 10
10030.0
 20
16263.55064666
 30
0.0
 11
9860.0
 21
16093.55061722
 31
0.0
  0
LINE
  5
1B0
330
548
100
AcDbEntity
  8
YKK_Z1
  6
Continuous
100
AcDbLine
 10
10030.0
 20
16283.34964168
 30
0.0
 11
9860.0
 21
16113.34961223
 31
0.0
  0
LINE
  5
1B1
330
548
100
AcDbEntity
  8
YKK_Z1
  6
Continuous
100
AcDbLine
 10
10030.0
 20
16291.83492526
 30
0.0
 11
9860.0
 21
16121.83489581
 31
0.0
  0
LINE
  5
1B2
330
548
100
AcDbEntity
  8
YKK_Z1
  6
Continuous
100
AcDbLine
 10
9860.0
 20
16294.85
 30
0.0
 11
9860.0
 21
15994.85
 31
0.0
  0
LINE
  5
1B3
330
548
100
AcDbEntity
  8
YKK_Z1
  6
Continuous
100
AcDbLine
 10
10030.0
 20
15994.85
 30
0.0
 11
10030.0
 21
16319.85
 31
0.0
  0
TEXT
  5
1B4
330
548
100
AcDbEntity
  8
YKK_N1
100
AcDbText
 10
14040.0
 20
16199.99285714
 30
0.0
 40
60.0
  1
1000
 50
90.0
 41
0.8
100
AcDbText
1001
ACAD
1000
MTEXTBEGIN
1070
    73
1070
     1
1070
    44
1040
1.0
1070
    74
1070
     0
1000
MTEXTEND
  0
LINE
  5
1B5
330
548
100
AcDbEntity
  8
YKK_N1
100
AcDbLine
 10
14050.0
 20
15814.85
 30
0.0
 11
14050.0
 21
16774.85
 31
0.0
  0
LINE
  5
1B6
330
548
100
AcDbEntity
  8
YKK_N1
100
AcDbLine
 10
14250.0
 20
15795.85
 30
0.0
 11
14250.0
 21
17893.85
 31
0.0
  0
LINE
  5
1B7
330
548
100
AcDbEntity
  8
YKK_A1
100
AcDbLine
 10
12780.0
 20
16794.85
 30
0.0
 11
12780.0
 21
15794.85
 31
0.0
  0
LINE
  5
1B8
330
548
100
AcDbEntity
  8
YKK_A1
100
AcDbLine
 10
13620.0
 20
15794.85
 30
0.0
 11
13620.0
 21
16794.85
 31
0.0
  0
LINE
  5
1B9
330
548
100
AcDbEntity
  8
YKK_A1
100
AcDbLine
 10
12750.0
 20
16794.85
 30
0.0
 11
12750.0
 21
15794.85
 31
0.0
  0
LINE
  5
1BA
330
548
100
AcDbEntity
  8
YKK_A1
100
AcDbLine
 10
13650.0
 20
15794.85
 30
0.0
 11
13650.0
 21
16794.85
 31
0.0
  0
LINE
  5
1BB
330
548
100
AcDbEntity
  8
YKK_A1
100
AcDbLine
 10
12735.0
 20
17909.85
 30
0.0
 11
12735.0
 21
15794.85
 31
0.0
  0
LINE
  5
1BC
330
548
100
AcDbEntity
  8
YKK_A1
100
AcDbLine
 10
13665.0
 20
15794.85
 30
0.0
 11
13665.0
 21
17909.85
 31
0.0
  0
TEXT
  5
1BD
330
548
100
AcDbEntity
  8
YKK_N1
100
AcDbText
 10
7452.57142857
 20
13365.16495526
 30
0.0
 40
60.0
  1
W=1700
 41
0.8
100
AcDbText
1001
ACAD
1000
MTEXTBEGIN
1070
    73
1070
     1
1070
    44
1040
1.0
1070
    74
1070
     0
1000
MTEXTEND
  0
TEXT
  5
1BE
330
548
100
AcDbEntity
  8
YKK_N1
100
AcDbText
 10
7452.57142857
 20
15804.85
 30
0.0
 40
60.0
  1
W=1700
 41
0.8
100
AcDbText
1001
ACAD
1000
MTEXTBEGIN
1070
    73
1070
     1
1070
    44
1040
1.0
1070
    74
1070
     0
1000
MTEXTEND
  0
LINE
  5
1BF
330
548
100
AcDbEntity
  8
YKK_N1
100
AcDbLine
 10
7615.0
 20
15994.85
 30
0.0
 11
7635.0
 21
15994.85
 31
0.0
  0
CIRCLE
  5
1C0
330
548
100
AcDbEntity
  8
YKK_N1
100
AcDbCircle
 10
7615.0
 20
15994.85
 30
0.0
 40
6.5
  0
CIRCLE
  5
1C1
330
548
100
AcDbEntity
  8
YKK_N1
100
AcDbCircle
 10
7615.0
 20
15994.85
 30
0.0
 40
10.0
  0
TEXT
  5
1C2
330
548
100
AcDbEntity
  8
YKK_N1
100
AcDbText
 10
7554.28571429
 20
15897.35
 30
0.0
 40
60.0
  1
30
 41
0.8
100
AcDbText
1001
ACAD
1000
MTEXTBEGIN
1070
    73
1070
     1
1070
    44
1040
1.0
1070
    74
1070
     0
1000
MTEXTEND
  0
LINE
  5
1C3
330
548
100
AcDbEntity
  8
YKK_N1
100
AcDbLine
 10
7615.0
 20
15994.85
 30
0.0
 11
7635.0
 21
15994.85
 31
0.0
  0
CIRCLE
  5
1C4
330
548
100
AcDbEntity
  8
YKK_N1
100
AcDbCircle
 10
7615.0
 20
15994.85
 30
0.0
 40
6.5
  0
CIRCLE
  5
1C5
330
548
100
AcDbEntity
  8
YKK_N1
100
AcDbCircle
 10
7615.0
 20
15994.85
 30
0.0
 40
10.0
  0
LINE
  5
1C6
330
548
100
AcDbEntity
  8
YKK_N1
100
AcDbLine
 10
6751.0
 20
15794.85
 30
0.0
 11
8449.0
 21
15794.85
 31
0.0
  0
LINE
  5
1C7
330
548
100
AcDbEntity
  8
YKK_N1
100
AcDbLine
 10
6751.0
 20
13355.16495526
 30
0.0
 11
8449.0
 21
13355.16495526
 31
0.0
  0
LINE
  5
1C8
330
548
100
AcDbEntity
  8
YKK_B1
100
AcDbLine
 10
7585.0
 20
13855.16495526
 30
0.0
 11
7645.0
 21
13855.16495526
 31
0.0
  0
LINE
  5
1C9
330
548
100
AcDbEntity
  8
YKK_B1
100
AcDbLine
 10
7585.0
 20
13855.16495526
 30
0.0
 11
7645.0
 21
13855.16495526
 31
0.0
  0
LINE
  5
1CA
330
548
100
AcDbEntity
  8
YKK_B1
100
AcDbLine
 10
7585.0
 20
13801.16495526
 30
0.0
 11
7645.0
 21
13801.16495526
 31
0.0
  0
ARC
  5
1CB
330
548
100
AcDbEntity
  8
YKK_B1
  6
PHANTOM
100
AcDbCircle
 10
6755.0
 20
13855.16495526
 30
0.0
 40
825.0
100
AcDbArc
 50
0.0
 51
90.0
  0
LINE
  5
1CC
330
548
100
AcDbEntity
  8
YKK_Z1
  6
Continuous
100
AcDbLine
 10
6350.0
 20
13657.16495526
 30
0.0
 11
6710.0
 21
13657.16495526
 31
0.0
  0
LINE
  5
1CD
330
548
100
AcDbEntity
  8
YKK_Z1
  6
Continuous
100
AcDbLine
 10
6710.0
 20
13645.16495526
 30
0.0
 11
6350.0
 21
13645.16495526
 31
0.0
  0
LINE
  5
1CE
330
548
100
AcDbEntity
  8
YKK_Z1
  6
HIDDEN
100
AcDbLine
 10
6700.0
 20
13825.16495526
 30
0.0
 11
6350.0
 21
13825.16495526
 31
0.0
  0
LINE
  5
1CF
330
548
100
AcDbEntity
  8
YKK_Z1
  6
CENTER
100
AcDbLine
 10
6712.5
 20
13750.16495526
 30
0.0
 11
6350.0
 21
13750.16495526
 31
0.0
  0
LINE
  5
1D0
330
548
100
AcDbEntity
  8
YKK_Z1
  6
Continuous
100
AcDbLine
 10
6548.28417067
 20
13845.16495526
 30
0.0
 11
6378.284259
 21
13675.16495526
 31
0.0
  0
LINE
  5
1D1
330
548
100
AcDbEntity
  8
YKK_Z1
  6
Continuous
100
AcDbLine
 10
6528.48518937
 20
13845.16495526
 30
0.0
 11
6358.4852777
 21
13675.16495526
 31
0.0
  0
LINE
  5
1D2
330
548
100
AcDbEntity
  8
YKK_Z1
  6
Continuous
100
AcDbLine
 10
6519.99991167
 20
13845.16495526
 30
0.0
 11
6350.0
 21
13675.16495526
 31
0.0
  0
LINE
  5
1D3
330
548
100
AcDbEntity
  8
YKK_Z1
  6
Continuous
100
AcDbLine
 10
6700.0
 20
13845.16495526
 30
0.0
 11
6350.0
 21
13845.16495526
 31
0.0
  0
LINE
  5
1D4
330
548
100
AcDbEntity
  8
YKK_Z1
  6
Continuous
100
AcDbLine
 10
6350.0
 20
13675.16495526
 30
0.0
 11
6700.0
 21
13675.16495526
 31
0.0
  0
LINE
  5
1D5
330
548
100
AcDbEntity
  8
YKK_B1
  6
PHANTOM
100
AcDbLine
 10
6755.0
 20
13855.16495526
 30
0.0
 11
6755.0
 21
14680.16495526
 31
0.0
  0
LINE
  5
1D6
330
548
100
AcDbEntity
  8
YKK_Z1
  6
Continuous
100
AcDbLine
 10
6735.0
 20
13635.16495526
 30
0.0
 11
7167.5
 21
13635.16495526
 31
0.0
  0
LINE
  5
1D7
330
548
100
AcDbEntity
  8
YKK_B1
100
AcDbLine
 10
6770.0
 20
13855.16495526
 30
0.0
 11
7565.0
 21
13855.16495526
 31
0.0
  0
LINE
  5
1D8
330
548
100
AcDbEntity
  8
YKK_B1
100
AcDbLine
 10
6770.0
 20
13755.16495526
 30
0.0
 11
7565.0
 21
13755.16495526
 31
0.0
  0
LINE
  5
1D9
330
548
100
AcDbEntity
  8
YKK_B1
100
AcDbLine
 10
6822.0
 20
13827.16495526
 30
0.0
 11
7513.0
 21
13827.16495526
 31
0.0
  0
LINE
  5
1DA
330
548
100
AcDbEntity
  8
YKK_B1
100
AcDbLine
 10
6822.0
 20
13841.16495526
 30
0.0
 11
7513.0
 21
13841.16495526
 31
0.0
  0
TEXT
  5
1DB
330
548
100
AcDbEntity
  8
YKK_N1
100
AcDbText
 10
6979.0
 20
13474.87924098
 30
0.0
 40
60.0
  1
120
 50
90.0
 41
0.8
100
AcDbText
  0
LINE
  5
1DC
330
548
100
AcDbEntity
  8
YKK_N1
100
AcDbLine
 10
6750.0
 20
13695.16495526
 30
0.0
 11
6750.0
 21
13325.16495526
 31
0.0
  0
LINE
  5
1DD
330
548
100
AcDbEntity
  8
YKK_N1
  6
Continuous
100
AcDbLine
 10
6989.0
 20
13635.16495526
 30
0.0
 11
6989.0
 21
13478.59352669
 31
0.0
  0
LINE
  5
1DE
330
548
100
AcDbEntity
  8
YKK_N1
  6
ByBlock
100
AcDbLine
 10
6836.60254038
 20
13405.16495526
 30
0.0
 11
6750.0
 21
13355.16495526
 31
0.0
  0
LINE
  5
1DF
330
548
100
AcDbEntity
  8
YKK_N1
  6
ByBlock
100
AcDbLine
 10
6750.0
 20
13355.16495526
 30
0.0
 11
6836.60254038
 21
13305.16495526
 31
0.0
  0
LINE
  5
1E0
330
548
100
AcDbEntity
  8
YKK_N1
  6
ByBlock
100
AcDbLine
 10
6750.0
 20
13355.16495526
 30
0.0
 11
6850.0
 21
13355.16495526
 31
0.0
  0
LINE
  5
1E1
330
548
100
AcDbEntity
  8
YKK_N1
  6
ByBlock
100
AcDbLine
 10
6836.60254038
 20
13305.16495526
 30
0.0
 11
6836.60254038
 21
13405.16495526
 31
0.0
  0
LINE
  5
1E2
330
548
100
AcDbEntity
  8
YKK_B1
100
AcDbLine
 10
6830.0
 20
13855.16495526
 30
0.0
 11
6755.0
 21
13855.16495526
 31
0.0
  0
LINE
  5
1E3
330
548
100
AcDbEntity
  8
YKK_B1
100
AcDbLine
 10
6830.0
 20
13805.16495526
 30
0.0
 11
6775.0
 21
13805.16495526
 31
0.0
  0
LINE
  5
1E4
330
548
100
AcDbEntity
  8
YKK_B1
100
AcDbLine
 10
6750.0
 20
13801.16495526
 30
0.0
 11
6780.0
 21
13801.16495526
 31
0.0
  0
LINE
  5
1E5
330
548
100
AcDbEntity
  8
YKK_Z1
  6
Continuous
100
AcDbLine
 10
6710.0
 20
13657.16495526
 30
0.0
 11
6710.0
 21
13645.16495526
 31
0.0
  0
LINE
  5
1E6
330
548
100
AcDbEntity
  8
YKK_Z1
  6
Continuous
100
AcDbLine
 10
6720.0
 20
13845.16495526
 30
0.0
 11
6700.0
 21
13845.16495526
 31
0.0
  0
LINE
  5
1E7
330
548
100
AcDbEntity
  8
YKK_Z1
  6
Continuous
100
AcDbLine
 10
6731.42135735
 20
13635.16495526
 30
0.0
 11
6735.0
 21
13638.74359977
 31
0.0
  0
LINE
  5
1E8
330
548
100
AcDbEntity
  8
YKK_Z1
  6
Continuous
100
AcDbLine
 10
6710.0
 20
13642.02786048
 30
0.0
 11
6735.0
 21
13667.02787347
 31
0.0
  0
LINE
  5
1E9
330
548
100
AcDbEntity
  8
YKK_Z1
  6
Continuous
100
AcDbLine
 10
6710.0
 20
13670.31213417
 30
0.0
 11
6735.0
 21
13695.31214716
 31
0.0
  0
LINE
  5
1EA
330
548
100
AcDbEntity
  8
YKK_Z1
  6
Continuous
100
AcDbLine
 10
6710.0
 20
13698.59640787
 30
0.0
 11
6735.0
 21
13723.59642086
 31
0.0
  0
LINE
  5
1EB
330
548
100
AcDbEntity
  8
YKK_Z1
  6
Continuous
100
AcDbLine
 10
6710.0
 20
13726.88068157
 30
0.0
 11
6735.0
 21
13751.88069456
 31
0.0
  0
LINE
  5
1ED
330
548
100
AcDbEntity
  8
YKK_Z1
  6
Continuous
100
AcDbLine
 10
6710.0
 20
13755.16495526
 30
0.0
 11
6735.0
 21
13755.16495526
 31
0.0
  0
LINE
  5
1EE
330
548
100
AcDbEntity
  8
YKK_Z1
  6
Continuous
100
AcDbLine
 10
6710.0
 20
13635.16495526
 30
0.0
 11
6710.0
 21
13755.16495526
 31
0.0
  0
LINE
  5
1EF
330
548
100
AcDbEntity
  8
YKK_Z1
  6
Continuous
100
AcDbLine
 10
6735.0
 20
13635.16495526
 30
0.0
 11
6710.0
 21
13635.16495526
 31
0.0
  0
LINE
  5
1F0
330
548
100
AcDbEntity
  8
YKK_Z1
  6
Continuous
100
AcDbLine
 10
6735.0
 20
13755.16495526
 30
0.0
 11
6735.0
 21
13635.16495526
 31
0.0
  0
LINE
  5
1F1
330
548
100
AcDbEntity
  8
YKK_Z1
  6
Continuous
100
AcDbLine
 10
6700.0
 20
13699.89598961
 30
0.0
 11
6675.2689785
 21
13675.16495526
 31
0.0
  0
LINE
  5
1F2
330
548
100
AcDbEntity
  8
YKK_Z1
  6
Continuous
100
AcDbLine
 10
6700.0
 20
13719.6949812
 30
0.0
 11
6655.4699972
 21
13675.16495526
 31
0.0
  0
LINE
  5
1F3
330
548
100
AcDbEntity
  8
YKK_Z1
  6
Continuous
100
AcDbLine
 10
6700.0
 20
13728.18026331
 30
0.0
 11
6646.9847195
 21
13675.16495526
 31
0.0
  0
LINE
  5
1F4
330
548
100
AcDbEntity
  8
YKK_Z1
  6
Continuous
100
AcDbLine
 10
6700.0
 20
13675.16495526
 30
0.0
 11
6700.0
 21
13845.16495526
 31
0.0
  0
LINE
  5
1F5
330
548
100
AcDbEntity
  8
YKK_B1
100
AcDbLine
 10
6775.0
 20
13805.16495526
 30
0.0
 11
6775.0
 21
13855.16495526
 31
0.0
  0
LINE
  5
1F6
330
548
100
AcDbEntity
  8
YKK_B1
100
AcDbLine
 10
6725.0
 20
13800.16495526
 30
0.0
 11
6725.0
 21
13793.16495526
 31
0.0
  0
LINE
  5
1F7
330
548
100
AcDbEntity
  8
YKK_B1
100
AcDbLine
 10
6720.0
 20
13800.16495526
 30
0.0
 11
6750.0
 21
13800.16495526
 31
0.0
  0
LINE
  5
1F8
330
548
100
AcDbEntity
  8
YKK_B1
100
AcDbLine
 10
6720.0
 20
13855.16495526
 30
0.0
 11
6720.0
 21
13800.16495526
 31
0.0
  0
LINE
  5
1F9
330
548
100
AcDbEntity
  8
YKK_B1
100
AcDbLine
 10
6750.0
 20
13855.16495526
 30
0.0
 11
6720.0
 21
13855.16495526
 31
0.0
  0
LINE
  5
1FA
330
548
100
AcDbEntity
  8
YKK_B1
100
AcDbLine
 10
6725.0
 20
13755.16495526
 30
0.0
 11
6725.0
 21
13762.16495526
 31
0.0
  0
LINE
  5
1FB
330
548
100
AcDbEntity
  8
YKK_B1
100
AcDbLine
 10
6750.0
 20
13755.16495526
 30
0.0
 11
6725.0
 21
13755.16495526
 31
0.0
  0
LINE
  5
1FC
330
548
100
AcDbEntity
  8
YKK_B1
100
AcDbLine
 10
6750.0
 20
13755.16495526
 30
0.0
 11
6750.0
 21
13855.16495526
 31
0.0
  0
LINE
  5
1FD
330
548
100
AcDbEntity
  8
YKK_N1
100
AcDbLine
 10
6989.0
 20
13755.16495526
 30
0.0
 11
6989.0
 21
13735.16495526
 31
0.0
  0
CIRCLE
  5
1FE
330
548
100
AcDbEntity
  8
YKK_N1
100
AcDbCircle
 10
6989.0
 20
13755.16495526
 30
0.0
 40
6.5
  0
CIRCLE
  5
1FF
330
548
100
AcDbEntity
  8
YKK_N1
100
AcDbCircle
 10
6989.0
 20
13755.16495526
 30
0.0
 40
10.0
  0
LINE
  5
200
330
548
100
AcDbEntity
  8
YKK_N1
100
AcDbLine
 10
6989.0
 20
13635.16495526
 30
0.0
 11
6989.0
 21
13655.16495526
 31
0.0
  0
CIRCLE
  5
201
330
548
100
AcDbEntity
  8
YKK_N1
100
AcDbCircle
 10
6989.0
 20
13635.16495526
 30
0.0
 40
6.5
  0
CIRCLE
  5
202
330
548
100
AcDbEntity
  8
YKK_N1
100
AcDbCircle
 10
6989.0
 20
13635.16495526
 30
0.0
 40
10.0
  0
TEXT
  5
203
330
548
100
AcDbEntity
  8
YKK_N1
100
AcDbText
 10
6944.0
 20
13733.16495526
 30
0.0
 40
60.0
  1
100
 50
90.0
 41
0.8
100
AcDbText
1001
ACAD
1000
MTEXTBEGIN
1070
    73
1070
     1
1070
    44
1040
1.0
1070
    74
1070
     0
1000
MTEXTEND
  0
LINE
  5
204
330
548
100
AcDbEntity
  8
YKK_N1
100
AcDbLine
 10
6989.0
 20
13755.16495526
 30
0.0
 11
6989.0
 21
13775.16495526
 31
0.0
  0
CIRCLE
  5
205
330
548
100
AcDbEntity
  8
YKK_N1
100
AcDbCircle
 10
6989.0
 20
13755.16495526
 30
0.0
 40
6.5
  0
CIRCLE
  5
206
330
548
100
AcDbEntity
  8
YKK_N1
100
AcDbCircle
 10
6989.0
 20
13755.16495526
 30
0.0
 40
10.0
  0
LINE
  5
207
330
548
100
AcDbEntity
  8
YKK_N1
100
AcDbLine
 10
6989.0
 20
13855.16495526
 30
0.0
 11
6989.0
 21
13835.16495526
 31
0.0
  0
CIRCLE
  5
208
330
548
100
AcDbEntity
  8
YKK_N1
100
AcDbCircle
 10
6989.0
 20
13855.16495526
 30
0.0
 40
6.5
  0
CIRCLE
  5
209
330
548
100
AcDbEntity
  8
YKK_N1
100
AcDbCircle
 10
6989.0
 20
13855.16495526
 30
0.0
 40
10.0
  0
LINE
  5
20A
330
548
100
AcDbEntity
  8
YKK_N1
100
AcDbLine
 10
6989.0
 20
13775.16495526
 30
0.0
 11
6989.0
 21
13835.16495526
 31
0.0
  0
LINE
  5
20B
330
548
100
AcDbEntity
  8
YKK_N1
100
AcDbLine
 10
6939.0
 20
13855.16495526
 30
0.0
 11
6959.0
 21
13855.16495526
 31
0.0
  0
LINE
  5
20C
330
548
100
AcDbEntity
  8
YKK_N1
100
AcDbLine
 10
6939.0
 20
13755.16495526
 30
0.0
 11
6959.0
 21
13755.16495526
 31
0.0
  0
LINE
  5
20D
330
548
100
AcDbEntity
  8
YKK_N1
  6
Continuous
100
AcDbLine
 10
6989.0
 20
13735.16495526
 30
0.0
 11
6989.0
 21
13655.16495526
 31
0.0
  0
LINE
  5
20E
330
548
100
AcDbEntity
  8
YKK_N1
  6
Continuous
100
AcDbLine
 10
6795.0
 20
13635.16495526
 30
0.0
 11
7019.0
 21
13635.16495526
 31
0.0
  0
LINE
  5
20F
330
548
100
AcDbEntity
  8
YKK_N1
  6
Continuous
100
AcDbLine
 10
6929.0
 20
13755.16495526
 30
0.0
 11
6959.0
 21
13755.16495526
 31
0.0
  0
LINE
  5
210
330
548
100
AcDbEntity
  8
YKK_B1
100
AcDbLine
 10
6830.0
 20
13813.16495526
 30
0.0
 11
6814.0
 21
13813.16495526
 31
0.0
  0
LINE
  5
211
330
548
100
AcDbEntity
  8
YKK_B1
100
AcDbLine
 10
6830.0
 20
13805.16495526
 30
0.0
 11
6830.0
 21
13813.16495526
 31
0.0
  0
LINE
  5
212
330
548
100
AcDbEntity
  8
YKK_B1
100
AcDbLine
 10
6814.0
 20
13855.16495526
 30
0.0
 11
6814.0
 21
13805.16495526
 31
0.0
  0
LINE
  5
213
330
548
100
AcDbEntity
  8
YKK_B1
100
AcDbLine
 10
7585.0
 20
13855.16495526
 30
0.0
 11
7585.0
 21
13755.16495526
 31
0.0
  0
LINE
  5
214
330
548
100
AcDbEntity
  8
YKK_B1
100
AcDbLine
 10
7585.0
 20
13755.16495526
 30
0.0
 11
7615.0
 21
13755.16495526
 31
0.0
  0
LINE
  5
215
330
548
100
AcDbEntity
  8
YKK_B1
100
AcDbLine
 10
7615.0
 20
13755.16495526
 30
0.0
 11
7615.0
 21
13801.16495526
 31
0.0
  0
LINE
  5
216
330
548
100
AcDbEntity
  8
YKK_B1
100
AcDbLine
 10
7585.0
 20
13801.16495526
 30
0.0
 11
7555.0
 21
13801.16495526
 31
0.0
  0
LINE
  5
217
330
548
100
AcDbEntity
  8
YKK_B1
100
AcDbLine
 10
7505.0
 20
13813.16495526
 30
0.0
 11
7521.0
 21
13813.16495526
 31
0.0
  0
LINE
  5
218
330
548
100
AcDbEntity
  8
YKK_B1
100
AcDbLine
 10
7505.0
 20
13805.16495526
 30
0.0
 11
7505.0
 21
13813.16495526
 31
0.0
  0
LINE
  5
219
330
548
100
AcDbEntity
  8
YKK_B1
100
AcDbLine
 10
7521.0
 20
13855.16495526
 30
0.0
 11
7521.0
 21
13805.16495526
 31
0.0
  0
LINE
  5
21A
330
548
100
AcDbEntity
  8
YKK_B1
100
AcDbLine
 10
7505.0
 20
13855.16495526
 30
0.0
 11
7580.0
 21
13855.16495526
 31
0.0
  0
LINE
  5
21B
330
548
100
AcDbEntity
  8
YKK_B1
100
AcDbLine
 10
7560.0
 20
13805.16495526
 30
0.0
 11
7560.0
 21
13855.16495526
 31
0.0
  0
LINE
  5
21C
330
548
100
AcDbEntity
  8
YKK_B1
100
AcDbLine
 10
7505.0
 20
13805.16495526
 30
0.0
 11
7560.0
 21
13805.16495526
 31
0.0
  0
LINE
  5
21D
330
548
100
AcDbEntity
  8
YKK_N1
100
AcDbLine
 10
6770.0
 20
15994.85
 30
0.0
 11
7565.0
 21
15994.85
 31
0.0
  0
LINE
  5
21E
330
548
100
AcDbEntity
  8
YKK_N1
  6
ByBlock
100
AcDbLine
 10
6836.60254038
 20
15844.85
 30
0.0
 11
6750.0
 21
15794.85
 31
0.0
  0
LINE
  5
21F
330
548
100
AcDbEntity
  8
YKK_N1
  6
ByBlock
100
AcDbLine
 10
6750.0
 20
15794.85
 30
0.0
 11
6836.60254038
 21
15744.85
 31
0.0
  0
LINE
  5
220
330
548
100
AcDbEntity
  8
YKK_N1
  6
ByBlock
100
AcDbLine
 10
6750.0
 20
15794.85
 30
0.0
 11
6850.0
 21
15794.85
 31
0.0
  0
LINE
  5
221
330
548
100
AcDbEntity
  8
YKK_N1
  6
ByBlock
100
AcDbLine
 10
6836.60254038
 20
15744.85
 30
0.0
 11
6836.60254038
 21
15844.85
 31
0.0
  0
LINE
  5
222
330
548
100
AcDbEntity
  8
YKK_N1
100
AcDbLine
 10
6750.0
 20
15994.85
 30
0.0
 11
6770.0
 21
15994.85
 31
0.0
  0
CIRCLE
  5
223
330
548
100
AcDbEntity
  8
YKK_N1
100
AcDbCircle
 10
6750.0
 20
15994.85
 30
0.0
 40
6.5
  0
CIRCLE
  5
224
330
548
100
AcDbEntity
  8
YKK_N1
100
AcDbCircle
 10
6750.0
 20
15994.85
 30
0.0
 40
10.0
  0
TEXT
  5
225
330
548
100
AcDbEntity
  8
YKK_N1
100
AcDbText
 10
7098.92857143
 20
16004.85
 30
0.0
 40
60.0
  1
835
 41
0.8
100
AcDbText
1001
ACAD
1000
MTEXTBEGIN
1070
    73
1070
     1
1070
    44
1040
1.0
1070
    74
1070
     0
1000
MTEXTEND
  0
LINE
  5
226
330
548
100
AcDbEntity
  8
YKK_N1
100
AcDbLine
 10
7585.0
 20
15994.85
 30
0.0
 11
7565.0
 21
15994.85
 31
0.0
  0
CIRCLE
  5
227
330
548
100
AcDbEntity
  8
YKK_N1
100
AcDbCircle
 10
7585.0
 20
15994.85
 30
0.0
 40
6.5
  0
CIRCLE
  5
228
330
548
100
AcDbEntity
  8
YKK_N1
100
AcDbCircle
 10
7585.0
 20
15994.85
 30
0.0
 40
10.0
  0
LINE
  5
229
330
548
100
AcDbEntity
  8
YKK_N1
100
AcDbLine
 10
7585.0
 20
15994.85
 30
0.0
 11
7565.0
 21
15994.85
 31
0.0
  0
CIRCLE
  5
22A
330
548
100
AcDbEntity
  8
YKK_N1
100
AcDbCircle
 10
7585.0
 20
15994.85
 30
0.0
 40
6.5
  0
CIRCLE
  5
22B
330
548
100
AcDbEntity
  8
YKK_N1
100
AcDbCircle
 10
7585.0
 20
15994.85
 30
0.0
 40
10.0
  0
LINE
  5
22C
330
548
100
AcDbEntity
  8
YKK_N1
100
AcDbLine
 10
7585.0
 20
15994.85
 30
0.0
 11
7615.0
 21
15994.85
 31
0.0
  0
LINE
  5
22D
330
548
100
AcDbEntity
  8
YKK_N1
100
AcDbLine
 10
7565.0
 20
15994.85
 30
0.0
 11
7545.0
 21
15994.85
 31
0.0
  0
LINE
  5
22E
330
548
100
AcDbEntity
  8
YKK_Z1
  6
Continuous
100
AcDbLine
 10
8850.0
 20
13657.16495526
 30
0.0
 11
8490.0
 21
13657.16495526
 31
0.0
  0
LINE
  5
22F
330
548
100
AcDbEntity
  8
YKK_Z1
  6
Continuous
100
AcDbLine
 10
8490.0
 20
13645.16495526
 30
0.0
 11
8850.0
 21
13645.16495526
 31
0.0
  0
LINE
  5
230
330
548
100
AcDbEntity
  8
YKK_Z1
  6
HIDDEN
100
AcDbLine
 10
8500.0
 20
13825.16495526
 30
0.0
 11
8850.0
 21
13825.16495526
 31
0.0
  0
LINE
  5
231
330
548
100
AcDbEntity
  8
YKK_Z1
  6
CENTER
100
AcDbLine
 10
8487.5
 20
13750.16495526
 30
0.0
 11
8850.0
 21
13750.16495526
 31
0.0
  0
LINE
  5
232
330
548
100
AcDbEntity
  8
YKK_Z1
  6
Continuous
100
AcDbLine
 10
8581.29935334
 20
13675.16495526
 30
0.0
 11
8751.29938278
 21
13845.16495526
 31
0.0
  0
LINE
  5
233
330
548
100
AcDbEntity
  8
YKK_Z1
  6
Continuous
100
AcDbLine
 10
8500.0
 20
13845.16495526
 30
0.0
 11
8850.0
 21
13845.16495526
 31
0.0
  0
LINE
  5
234
330
548
100
AcDbEntity
  8
YKK_Z1
  6
Continuous
100
AcDbLine
 10
8850.0
 20
13675.16495526
 30
0.0
 11
8500.0
 21
13675.16495526
 31
0.0
  0
LINE
  5
235
330
548
100
AcDbEntity
  8
YKK_Z1
  6
Continuous
100
AcDbLine
 10
8465.0
 20
13635.16495526
 30
0.0
 11
8032.5
 21
13635.16495526
 31
0.0
  0
LINE
  5
236
330
548
100
AcDbEntity
  8
YKK_B1
100
AcDbLine
 10
7665.0
 20
13855.16495526
 30
0.0
 11
8400.0
 21
13855.16495526
 31
0.0
  0
LINE
  5
237
330
548
100
AcDbEntity
  8
YKK_B1
100
AcDbLine
 10
7635.0
 20
13755.16495526
 30
0.0
 11
8430.0
 21
13755.16495526
 31
0.0
  0
LINE
  5
238
330
548
100
AcDbEntity
  8
YKK_B1
100
AcDbLine
 10
7637.0
 20
13827.16495526
 30
0.0
 11
8428.0
 21
13827.16495526
 31
0.0
  0
LINE
  5
239
330
548
100
AcDbEntity
  8
YKK_B1
100
AcDbLine
 10
7637.0
 20
13841.16495526
 30
0.0
 11
8428.0
 21
13841.16495526
 31
0.0
  0
LINE
  5
23A
330
548
100
AcDbEntity
  8
YKK_B1
100
AcDbLine
 10
7645.0
 20
13801.16495526
 30
0.0
 11
7645.0
 21
13813.16495526
 31
0.0
  0
LINE
  5
23B
330
548
100
AcDbEntity
  8
YKK_N1
100
AcDbLine
 10
8450.0
 20
13695.16495526
 30
0.0
 11
8450.0
 21
13325.16495526
 31
0.0
  0
LINE
  5
23C
330
548
100
AcDbEntity
  8
YKK_N1
  6
ByBlock
100
AcDbLine
 10
8363.39745962
 20
13305.16495526
 30
0.0
 11
8450.0
 21
13355.16495526
 31
0.0
  0
LINE
  5
23D
330
548
100
AcDbEntity
  8
YKK_N1
  6
ByBlock
100
AcDbLine
 10
8363.39745962
 20
13405.16495526
 30
0.0
 11
8363.39745962
 21
13305.16495526
 31
0.0
  0
LINE
  5
23E
330
548
100
AcDbEntity
  8
YKK_N1
  6
ByBlock
100
AcDbLine
 10
8450.0
 20
13355.16495526
 30
0.0
 11
8363.39745962
 21
13405.16495526
 31
0.0
  0
LINE
  5
23F
330
548
100
AcDbEntity
  8
YKK_N1
  6
ByBlock
100
AcDbLine
 10
8450.0
 20
13355.16495526
 30
0.0
 11
8350.0
 21
13355.16495526
 31
0.0
  0
LINE
  5
240
330
548
100
AcDbEntity
  8
YKK_B1
100
AcDbLine
 10
8450.0
 20
13855.16495526
 30
0.0
 11
8480.0
 21
13855.16495526
 31
0.0
  0
LINE
  5
241
330
548
100
AcDbEntity
  8
YKK_B1
100
AcDbLine
 10
8450.0
 20
13794.16495526
 30
0.0
 11
8480.0
 21
13794.16495526
 31
0.0
  0
LINE
  5
242
330
548
100
AcDbEntity
  8
YKK_B1
100
AcDbLine
 10
8450.0
 20
13755.16495526
 30
0.0
 11
8475.0
 21
13755.16495526
 31
0.0
  0
LINE
  5
243
330
548
100
AcDbEntity
  8
YKK_B1
100
AcDbLine
 10
8450.0
 20
13855.16495526
 30
0.0
 11
8420.0
 21
13855.16495526
 31
0.0
  0
LINE
  5
244
330
548
100
AcDbEntity
  8
YKK_B1
100
AcDbLine
 10
8420.0
 20
13794.16495526
 30
0.0
 11
8420.0
 21
13813.16495526
 31
0.0
  0
LINE
  5
245
330
548
100
AcDbEntity
  8
YKK_B1
100
AcDbLine
 10
8450.0
 20
13794.16495526
 30
0.0
 11
8420.0
 21
13794.16495526
 31
0.0
  0
LINE
  5
246
330
548
100
AcDbEntity
  8
YKK_B1
100
AcDbLine
 10
8450.0
 20
13755.16495526
 30
0.0
 11
8450.0
 21
13794.16495526
 31
0.0
  0
LINE
  5
247
330
548
100
AcDbEntity
  8
YKK_Z1
  6
Continuous
100
AcDbLine
 10
8490.0
 20
13657.16495526
 30
0.0
 11
8490.0
 21
13645.16495526
 31
0.0
  0
LINE
  5
248
330
548
100
AcDbEntity
  8
YKK_Z1
  6
Continuous
100
AcDbLine
 10
8480.0
 20
13845.16495526
 30
0.0
 11
8500.0
 21
13845.16495526
 31
0.0
  0
LINE
  5
249
330
548
100
AcDbEntity
  8
YKK_Z1
  6
Continuous
100
AcDbLine
 10
8490.0
 20
13642.02786048
 30
0.0
 11
8483.1370936
 21
13635.16495526
 31
0.0
  0
LINE
  5
24A
330
548
100
AcDbEntity
  8
YKK_Z1
  6
Continuous
100
AcDbLine
 10
8490.0
 20
13670.31213417
 30
0.0
 11
8465.0
 21
13645.3121385
 31
0.0
  0
LINE
  5
24B
330
548
100
AcDbEntity
  8
YKK_Z1
  6
Continuous
100
AcDbLine
 10
8490.0
 20
13698.59640787
 30
0.0
 11
8465.0
 21
13673.5964122
 31
0.0
  0
LINE
  5
24C
330
548
100
AcDbEntity
  8
YKK_Z1
  6
Continuous
100
AcDbLine
 10
8490.0
 20
13726.88068157
 30
0.0
 11
8465.0
 21
13701.8806859
 31
0.0
  0
LINE
  5
24D
330
548
100
AcDbEntity
  8
YKK_Z1
  6
Continuous
100
AcDbLine
 10
8490.0
 20
13755.16495526
 30
0.0
 11
8465.0
 21
13730.16495959
 31
0.0
  0
LINE
  5
24E
330
548
100
AcDbEntity
  8
YKK_Z1
  6
Continuous
100
AcDbLine
 10
8490.0
 20
13755.16495526
 30
0.0
 11
8465.0
 21
13755.16495526
 31
0.0
  0
LINE
  5
24F
330
548
100
AcDbEntity
  8
YKK_Z1
  6
Continuous
100
AcDbLine
 10
8490.0
 20
13635.16495526
 30
0.0
 11
8490.0
 21
13755.16495526
 31
0.0
  0
LINE
  5
250
330
548
100
AcDbEntity
  8
YKK_Z1
  6
Continuous
100
AcDbLine
 10
8465.0
 20
13635.16495526
 30
0.0
 11
8490.0
 21
13635.16495526
 31
0.0
  0
LINE
  5
251
330
548
100
AcDbEntity
  8
YKK_Z1
  6
Continuous
100
AcDbLine
 10
8465.0
 20
13755.16495526
 30
0.0
 11
8465.0
 21
13635.16495526
 31
0.0
  0
LINE
  5
252
330
548
100
AcDbEntity
  8
YKK_Z1
  6
Continuous
100
AcDbLine
 10
8561.50035832
 20
13675.16495526
 30
0.0
 11
8731.50038777
 21
13845.16495526
 31
0.0
  0
LINE
  5
253
330
548
100
AcDbEntity
  8
YKK_Z1
  6
Continuous
100
AcDbLine
 10
8553.01507474
 20
13675.16495526
 30
0.0
 11
8723.01510419
 21
13845.16495526
 31
0.0
  0
LINE
  5
254
330
548
100
AcDbEntity
  8
YKK_Z1
  6
Continuous
100
AcDbLine
 10
8500.0
 20
13675.16495526
 30
0.0
 11
8500.0
 21
13845.16495526
 31
0.0
  0
LINE
  5
255
330
548
100
AcDbEntity
  8
YKK_B1
100
AcDbLine
 10
8480.0
 20
13855.16495526
 30
0.0
 11
8480.0
 21
13794.16495526
 31
0.0
  0
LINE
  5
256
330
548
100
AcDbEntity
  8
YKK_B1
100
AcDbLine
 10
8475.0
 20
13794.16495526
 30
0.0
 11
8475.0
 21
13787.16495526
 31
0.0
  0
LINE
  5
257
330
548
100
AcDbEntity
  8
YKK_B1
100
AcDbLine
 10
8475.0
 20
13755.16495526
 30
0.0
 11
8475.0
 21
13762.16495526
 31
0.0
  0
LINE
  5
259
330
548
100
AcDbEntity
  8
YKK_N1
100
AcDbLine
 10
7635.0
 20
15994.85
 30
0.0
 11
8430.0
 21
15994.85
 31
0.0
  0
LINE
  5
25A
330
548
100
AcDbEntity
  8
YKK_N1
100
AcDbLine
 10
7635.0
 20
15994.85
 30
0.0
 11
7655.0
 21
15994.85
 31
0.0
  0
TEXT
  5
25B
330
548
100
AcDbEntity
  8
YKK_N1
100
AcDbText
 10
7963.92857143
 20
16004.85
 30
0.0
 40
60.0
  1
835
 41
0.8
100
AcDbText
1001
ACAD
1000
MTEXTBEGIN
1070
    73
1070
     1
1070
    44
1040
1.0
1070
    74
1070
     0
1000
MTEXTEND
  0
LINE
  5
25C
330
548
100
AcDbEntity
  8
YKK_N1
  6
ByBlock
100
AcDbLine
 10
8363.39745962
 20
15744.85
 30
0.0
 11
8450.0
 21
15794.85
 31
0.0
  0
LINE
  5
25D
330
548
100
AcDbEntity
  8
YKK_N1
  6
ByBlock
100
AcDbLine
 10
8363.39745962
 20
15844.85
 30
0.0
 11
8363.39745962
 21
15744.85
 31
0.0
  0
LINE
  5
25E
330
548
100
AcDbEntity
  8
YKK_N1
  6
ByBlock
100
AcDbLine
 10
8450.0
 20
15794.85
 30
0.0
 11
8363.39745962
 21
15844.85
 31
0.0
  0
LINE
  5
25F
330
548
100
AcDbEntity
  8
YKK_N1
  6
ByBlock
100
AcDbLine
 10
8450.0
 20
15794.85
 30
0.0
 11
8350.0
 21
15794.85
 31
0.0
  0
CIRCLE
  5
260
330
548
100
AcDbEntity
  8
YKK_N1
100
AcDbCircle
 10
8450.0
 20
15994.85
 30
0.0
 40
10.0
  0
LINE
  5
261
330
548
100
AcDbEntity
  8
YKK_N1
100
AcDbLine
 10
8450.0
 20
15994.85
 30
0.0
 11
8430.0
 21
15994.85
 31
0.0
  0
CIRCLE
  5
262
330
548
100
AcDbEntity
  8
YKK_N1
100
AcDbCircle
 10
8450.0
 20
15994.85
 30
0.0
 40
6.5
  0
LINE
  5
263
330
548
100
AcDbEntity
  8
YKK_N1
  6
CENTER
100
AcDbLine
 10
10250.0
 20
15594.85
 30
0.0
 11
10750.0
 21
15594.85
 31
0.0
  0
LINE
  5
264
330
548
100
AcDbEntity
  8
YKK_N1
100
AcDbLine
 10
10350.0
 20
15594.85
 30
0.0
 11
10350.0
 21
15614.85
 31
0.0
  0
CIRCLE
  5
265
330
548
100
AcDbEntity
  8
YKK_N1
100
AcDbCircle
 10
10350.0
 20
15594.85
 30
0.0
 40
6.5
  0
CIRCLE
  5
266
330
548
100
AcDbEntity
  8
YKK_N1
100
AcDbCircle
 10
10350.0
 20
15594.85
 30
0.0
 40
10.0
  0
TEXT
  5
268
330
548
100
AcDbEntity
  8
YKK_N1
100
AcDbText
 10
10340.0
 20
15926.27857143
 30
0.0
 40
60.0
  1
800
 50
90.0
 41
0.8
100
AcDbText
1001
ACAD
1000
MTEXTBEGIN
1070
    73
1070
     1
1070
    44
1040
1.0
1070
    74
1070
     0
1000
MTEXTEND
  0
LINE
  5
269
330
548
100
AcDbEntity
  8
YKK_B1
  6
PHANTOM
100
AcDbLine
 10
12755.0
 20
13855.15
 30
0.0
 11
12755.0
 21
14745.15
 31
0.0
  0
ARC
  5
26A
330
548
100
AcDbEntity
  8
YKK_B1
  6
PHANTOM
100
AcDbCircle
 10
12755.0
 20
13855.15
 30
0.0
 40
890.0
100
AcDbArc
 50
0.0
 51
90.0
  0
TEXT
  5
26B
330
548
100
AcDbEntity
  8
YKK_N1
100
AcDbText
 10
13075.42857143
 20
13365.15
 30
0.0
 40
60.0
  1
W=900
 41
0.8
100
AcDbText
1001
ACAD
1000
MTEXTBEGIN
1070
    73
1070
     1
1070
    44
1040
1.0
1070
    74
1070
     0
1000
MTEXTEND
  0
LINE
  5
26C
330
548
100
AcDbEntity
  8
YKK_N1
100
AcDbLine
 10
12751.0
 20
13355.15
 30
0.0
 11
13649.0
 21
13355.15
 31
0.0
  0
LINE
  5
26D
330
548
100
AcDbEntity
  8
YKK_B1
100
AcDbLine
 10
12770.0
 20
13855.15
 30
0.0
 11
13630.0
 21
13855.15
 31
0.0
  0
LINE
  5
26E
330
548
100
AcDbEntity
  8
YKK_B1
100
AcDbLine
 10
12770.0
 20
13755.15
 30
0.0
 11
13630.0
 21
13755.15
 31
0.0
  0
LINE
  5
26F
330
548
100
AcDbEntity
  8
YKK_B1
100
AcDbLine
 10
12822.0
 20
13827.15
 30
0.0
 11
13578.0
 21
13827.15
 31
0.0
  0
LINE
  5
270
330
548
100
AcDbEntity
  8
YKK_B1
100
AcDbLine
 10
12822.0
 20
13841.15
 30
0.0
 11
13578.0
 21
13841.15
 31
0.0
  0
LINE
  5
271
330
548
100
AcDbEntity
  8
YKK_Z1
  6
Continuous
100
AcDbLine
 10
13665.0
 20
13635.16495526
 30
0.0
 11
13200.0
 21
13635.16495526
 31
0.0
  0
LINE
  5
272
330
548
100
AcDbEntity
  8
YKK_Z1
  6
Continuous
100
AcDbLine
 10
12350.0
 20
13657.16495526
 30
0.0
 11
12710.0
 21
13657.16495526
 31
0.0
  0
LINE
  5
273
330
548
100
AcDbEntity
  8
YKK_Z1
  6
Continuous
100
AcDbLine
 10
12710.0
 20
13645.16495526
 30
0.0
 11
12350.0
 21
13645.16495526
 31
0.0
  0
LINE
  5
274
330
548
100
AcDbEntity
  8
YKK_Z1
  6
HIDDEN
100
AcDbLine
 10
12700.0
 20
13825.16495526
 30
0.0
 11
12350.0
 21
13825.16495526
 31
0.0
  0
LINE
  5
275
330
548
100
AcDbEntity
  8
YKK_Z1
  6
CENTER
100
AcDbLine
 10
12712.5
 20
13750.16495526
 30
0.0
 11
12350.0
 21
13750.16495526
 31
0.0
  0
LINE
  5
276
330
548
100
AcDbEntity
  8
YKK_Z1
  6
Continuous
100
AcDbLine
 10
12700.0
 20
13719.6949812
 30
0.0
 11
12655.4699972
 21
13675.16495526
 31
0.0
  0
LINE
  5
277
330
548
100
AcDbEntity
  8
YKK_Z1
  6
Continuous
100
AcDbLine
 10
12700.0
 20
13728.18026331
 30
0.0
 11
12646.9847195
 21
13675.16495526
 31
0.0
  0
LINE
  5
278
330
548
100
AcDbEntity
  8
YKK_Z1
  6
Continuous
100
AcDbLine
 10
12700.0
 20
13845.16495526
 30
0.0
 11
12350.0
 21
13845.16495526
 31
0.0
  0
LINE
  5
279
330
548
100
AcDbEntity
  8
YKK_Z1
  6
Continuous
100
AcDbLine
 10
12350.0
 20
13675.16495526
 30
0.0
 11
12700.0
 21
13675.16495526
 31
0.0
  0
LINE
  5
27A
330
548
100
AcDbEntity
  8
YKK_Z1
  6
Continuous
100
AcDbLine
 10
12548.28417067
 20
13845.16495526
 30
0.0
 11
12378.284259
 21
13675.16495526
 31
0.0
  0
LINE
  5
27B
330
548
100
AcDbEntity
  8
YKK_Z1
  6
Continuous
100
AcDbLine
 10
12528.48518937
 20
13845.16495526
 30
0.0
 11
12358.4852777
 21
13675.16495526
 31
0.0
  0
LINE
  5
27C
330
548
100
AcDbEntity
  8
YKK_Z1
  6
Continuous
100
AcDbLine
 10
12519.99991167
 20
13845.16495526
 30
0.0
 11
12350.0
 21
13675.16495526
 31
0.0
  0
TEXT
  5
27D
330
548
100
AcDbEntity
  8
YKK_N1
100
AcDbText
 10
12998.0
 20
13474.87924098
 30
0.0
 40
60.0
  1
120
 50
90.0
 41
0.8
100
AcDbText
  0
LINE
  5
27E
330
548
100
AcDbEntity
  8
YKK_N1
  6
Continuous
100
AcDbLine
 10
13008.0
 20
13635.16495526
 30
0.0
 11
13008.0
 21
13478.59352669
 31
0.0
  0
LINE
  5
27F
330
548
100
AcDbEntity
  8
YKK_N1
100
AcDbLine
 10
12750.0
 20
13695.15
 30
0.0
 11
12750.0
 21
13325.15
 31
0.0
  0
LINE
  5
280
330
548
100
AcDbEntity
  8
YKK_N1
  6
ByBlock
100
AcDbLine
 10
12836.60254038
 20
13405.15
 30
0.0
 11
12750.0
 21
13355.15
 31
0.0
  0
LINE
  5
281
330
548
100
AcDbEntity
  8
YKK_N1
  6
ByBlock
100
AcDbLine
 10
12836.60254038
 20
13305.15
 30
0.0
 11
12836.60254038
 21
13405.15
 31
0.0
  0
LINE
  5
282
330
548
100
AcDbEntity
  8
YKK_N1
  6
ByBlock
100
AcDbLine
 10
12750.0
 20
13355.15
 30
0.0
 11
12836.60254038
 21
13305.15
 31
0.0
  0
LINE
  5
283
330
548
100
AcDbEntity
  8
YKK_N1
  6
ByBlock
100
AcDbLine
 10
12750.0
 20
13355.15
 30
0.0
 11
12850.0
 21
13355.15
 31
0.0
  0
TEXT
  5
284
330
548
100
AcDbEntity
  8
YKK_N1
100
AcDbText
 10
12963.0
 20
13733.15
 30
0.0
 40
60.0
  1
100
 50
90.0
 41
0.8
100
AcDbText
1001
ACAD
1000
MTEXTBEGIN
1070
    73
1070
     1
1070
    44
1040
1.0
1070
    74
1070
     0
1000
MTEXTEND
  0
LINE
  5
285
330
548
100
AcDbEntity
  8
YKK_N1
  6
Continuous
100
AcDbLine
 10
12795.0
 20
13635.16495526
 30
0.0
 11
13038.0
 21
13635.16495526
 31
0.0
  0
LINE
  5
286
330
548
100
AcDbEntity
  8
YKK_Z1
  6
Continuous
100
AcDbLine
 10
12735.0
 20
13635.16495526
 30
0.0
 11
13200.0
 21
13635.16495526
 31
0.0
  0
LINE
  5
287
330
548
100
AcDbEntity
  8
YKK_B1
100
AcDbLine
 10
12830.0
 20
13813.15
 30
0.0
 11
12814.0
 21
13813.15
 31
0.0
  0
LINE
  5
288
330
548
100
AcDbEntity
  8
YKK_B1
100
AcDbLine
 10
12830.0
 20
13805.15
 30
0.0
 11
12830.0
 21
13813.15
 31
0.0
  0
LINE
  5
289
330
548
100
AcDbEntity
  8
YKK_B1
100
AcDbLine
 10
12814.0
 20
13855.15
 30
0.0
 11
12814.0
 21
13805.15
 31
0.0
  0
LINE
  5
28A
330
548
100
AcDbEntity
  8
YKK_B1
100
AcDbLine
 10
12830.0
 20
13855.15
 30
0.0
 11
12755.0
 21
13855.15
 31
0.0
  0
LINE
  5
28B
330
548
100
AcDbEntity
  8
YKK_B1
100
AcDbLine
 10
12775.0
 20
13805.15
 30
0.0
 11
12775.0
 21
13855.15
 31
0.0
  0
LINE
  5
28C
330
548
100
AcDbEntity
  8
YKK_B1
100
AcDbLine
 10
12830.0
 20
13805.15
 30
0.0
 11
12775.0
 21
13805.15
 31
0.0
  0
LINE
  5
28D
330
548
100
AcDbEntity
  8
YKK_B1
100
AcDbLine
 10
12725.0
 20
13800.15
 30
0.0
 11
12725.0
 21
13793.15
 31
0.0
  0
LINE
  5
28E
330
548
100
AcDbEntity
  8
YKK_B1
100
AcDbLine
 10
12720.0
 20
13800.15
 30
0.0
 11
12750.0
 21
13800.15
 31
0.0
  0
LINE
  5
28F
330
548
100
AcDbEntity
  8
YKK_B1
100
AcDbLine
 10
12720.0
 20
13855.15
 30
0.0
 11
12720.0
 21
13800.15
 31
0.0
  0
LINE
  5
290
330
548
100
AcDbEntity
  8
YKK_B1
100
AcDbLine
 10
12750.0
 20
13855.15
 30
0.0
 11
12720.0
 21
13855.15
 31
0.0
  0
LINE
  5
291
330
548
100
AcDbEntity
  8
YKK_B1
100
AcDbLine
 10
12725.0
 20
13755.15
 30
0.0
 11
12725.0
 21
13762.15
 31
0.0
  0
LINE
  5
292
330
548
100
AcDbEntity
  8
YKK_B1
100
AcDbLine
 10
12750.0
 20
13755.15
 30
0.0
 11
12725.0
 21
13755.15
 31
0.0
  0
LINE
  5
293
330
548
100
AcDbEntity
  8
YKK_B1
100
AcDbLine
 10
12750.0
 20
13801.15
 30
0.0
 11
12780.0
 21
13801.15
 31
0.0
  0
LINE
  5
294
330
548
100
AcDbEntity
  8
YKK_B1
100
AcDbLine
 10
12750.0
 20
13755.15
 30
0.0
 11
12750.0
 21
13855.15
 31
0.0
  0
LINE
  5
295
330
548
100
AcDbEntity
  8
YKK_Z1
  6
Continuous
100
AcDbLine
 10
12710.0
 20
13657.16495526
 30
0.0
 11
12710.0
 21
13645.16495526
 31
0.0
  0
LINE
  5
296
330
548
100
AcDbEntity
  8
YKK_Z1
  6
Continuous
100
AcDbLine
 10
12720.0
 20
13845.16495526
 30
0.0
 11
12700.0
 21
13845.16495526
 31
0.0
  0
LINE
  5
297
330
548
100
AcDbEntity
  8
YKK_Z1
  6
Continuous
100
AcDbLine
 10
12731.42135735
 20
13635.16495526
 30
0.0
 11
12735.0
 21
13638.74359977
 31
0.0
  0
LINE
  5
298
330
548
100
AcDbEntity
  8
YKK_Z1
  6
Continuous
100
AcDbLine
 10
12710.0
 20
13642.02786048
 30
0.0
 11
12735.0
 21
13667.02787347
 31
0.0
  0
LINE
  5
299
330
548
100
AcDbEntity
  8
YKK_Z1
  6
Continuous
100
AcDbLine
 10
12710.0
 20
13670.31213417
 30
0.0
 11
12735.0
 21
13695.31214716
 31
0.0
  0
LINE
  5
29A
330
548
100
AcDbEntity
  8
YKK_Z1
  6
Continuous
100
AcDbLine
 10
12710.0
 20
13698.59640787
 30
0.0
 11
12735.0
 21
13723.59642086
 31
0.0
  0
LINE
  5
29B
330
548
100
AcDbEntity
  8
YKK_Z1
  6
Continuous
100
AcDbLine
 10
12710.0
 20
13726.88068157
 30
0.0
 11
12735.0
 21
13751.88069456
 31
0.0
  0
LINE
  5
29D
330
548
100
AcDbEntity
  8
YKK_Z1
  6
Continuous
100
AcDbLine
 10
12710.0
 20
13755.16495526
 30
0.0
 11
12735.0
 21
13755.16495526
 31
0.0
  0
LINE
  5
29E
330
548
100
AcDbEntity
  8
YKK_Z1
  6
Continuous
100
AcDbLine
 10
12710.0
 20
13635.16495526
 30
0.0
 11
12710.0
 21
13755.16495526
 31
0.0
  0
LINE
  5
29F
330
548
100
AcDbEntity
  8
YKK_Z1
  6
Continuous
100
AcDbLine
 10
12735.0
 20
13635.16495526
 30
0.0
 11
12710.0
 21
13635.16495526
 31
0.0
  0
LINE
  5
2A0
330
548
100
AcDbEntity
  8
YKK_Z1
  6
Continuous
100
AcDbLine
 10
12735.0
 20
13755.16495526
 30
0.0
 11
12735.0
 21
13635.16495526
 31
0.0
  0
LINE
  5
2A1
330
548
100
AcDbEntity
  8
YKK_Z1
  6
Continuous
100
AcDbLine
 10
12700.0
 20
13699.89598961
 30
0.0
 11
12675.2689785
 21
13675.16495526
 31
0.0
  0
LINE
  5
2A2
330
548
100
AcDbEntity
  8
YKK_Z1
  6
Continuous
100
AcDbLine
 10
12700.0
 20
13675.16495526
 30
0.0
 11
12700.0
 21
13845.16495526
 31
0.0
  0
LINE
  5
2A3
330
548
100
AcDbEntity
  8
YKK_N1
100
AcDbLine
 10
13008.0
 20
13755.15
 30
0.0
 11
13008.0
 21
13775.15
 31
0.0
  0
CIRCLE
  5
2A4
330
548
100
AcDbEntity
  8
YKK_N1
100
AcDbCircle
 10
13008.0
 20
13755.15
 30
0.0
 40
6.5
  0
CIRCLE
  5
2A5
330
548
100
AcDbEntity
  8
YKK_N1
100
AcDbCircle
 10
13008.0
 20
13755.15
 30
0.0
 40
10.0
  0
LINE
  5
2A6
330
548
100
AcDbEntity
  8
YKK_N1
100
AcDbLine
 10
13008.0
 20
13855.15
 30
0.0
 11
13008.0
 21
13835.15
 31
0.0
  0
CIRCLE
  5
2A7
330
548
100
AcDbEntity
  8
YKK_N1
100
AcDbCircle
 10
13008.0
 20
13855.15
 30
0.0
 40
6.5
  0
CIRCLE
  5
2A8
330
548
100
AcDbEntity
  8
YKK_N1
100
AcDbCircle
 10
13008.0
 20
13855.15
 30
0.0
 40
10.0
  0
LINE
  5
2A9
330
548
100
AcDbEntity
  8
YKK_N1
100
AcDbLine
 10
13008.0
 20
13755.16495526
 30
0.0
 11
13008.0
 21
13735.16495526
 31
0.0
  0
CIRCLE
  5
2AA
330
548
100
AcDbEntity
  8
YKK_N1
100
AcDbCircle
 10
13008.0
 20
13755.16495526
 30
0.0
 40
6.5
  0
CIRCLE
  5
2AB
330
548
100
AcDbEntity
  8
YKK_N1
100
AcDbCircle
 10
13008.0
 20
13755.16495526
 30
0.0
 40
10.0
  0
LINE
  5
2AC
330
548
100
AcDbEntity
  8
YKK_N1
100
AcDbLine
 10
13008.0
 20
13635.16495526
 30
0.0
 11
13008.0
 21
13655.16495526
 31
0.0
  0
CIRCLE
  5
2AD
330
548
100
AcDbEntity
  8
YKK_N1
100
AcDbCircle
 10
13008.0
 20
13635.16495526
 30
0.0
 40
6.5
  0
CIRCLE
  5
2AE
330
548
100
AcDbEntity
  8
YKK_N1
100
AcDbCircle
 10
13008.0
 20
13635.16495526
 30
0.0
 40
10.0
  0
LINE
  5
2AF
330
548
100
AcDbEntity
  8
YKK_N1
  6
Continuous
100
AcDbLine
 10
13008.0
 20
13735.16495526
 30
0.0
 11
13008.0
 21
13655.16495526
 31
0.0
  0
LINE
  5
2B0
330
548
100
AcDbEntity
  8
YKK_N1
  6
Continuous
100
AcDbLine
 10
12948.0
 20
13755.16495526
 30
0.0
 11
12978.0
 21
13755.16495526
 31
0.0
  0
LINE
  5
2B1
330
548
100
AcDbEntity
  8
YKK_N1
100
AcDbLine
 10
13008.0
 20
13775.15
 30
0.0
 11
13008.0
 21
13835.15
 31
0.0
  0
LINE
  5
2B2
330
548
100
AcDbEntity
  8
YKK_N1
100
AcDbLine
 10
12958.0
 20
13855.15
 30
0.0
 11
12978.0
 21
13855.15
 31
0.0
  0
LINE
  5
2B3
330
548
100
AcDbEntity
  8
YKK_N1
100
AcDbLine
 10
12958.0
 20
13755.15
 30
0.0
 11
12978.0
 21
13755.15
 31
0.0
  0
LINE
  5
2B4
330
548
100
AcDbEntity
  8
YKK_Z1
  6
Continuous
100
AcDbLine
 10
14050.0
 20
13657.16495526
 30
0.0
 11
13690.0
 21
13657.16495526
 31
0.0
  0
LINE
  5
2B5
330
548
100
AcDbEntity
  8
YKK_Z1
  6
Continuous
100
AcDbLine
 10
13690.0
 20
13645.16495526
 30
0.0
 11
14050.0
 21
13645.16495526
 31
0.0
  0
LINE
  5
2B6
330
548
100
AcDbEntity
  8
YKK_Z1
  6
HIDDEN
100
AcDbLine
 10
13700.0
 20
13825.16495526
 30
0.0
 11
14050.0
 21
13825.16495526
 31
0.0
  0
LINE
  5
2B7
330
548
100
AcDbEntity
  8
YKK_Z1
  6
CENTER
100
AcDbLine
 10
13687.5
 20
13750.16495526
 30
0.0
 11
14050.0
 21
13750.16495526
 31
0.0
  0
LINE
  5
2B8
330
548
100
AcDbEntity
  8
YKK_Z1
  6
Continuous
100
AcDbLine
 10
13761.50035832
 20
13675.16495526
 30
0.0
 11
13931.50038777
 21
13845.16495526
 31
0.0
  0
LINE
  5
2B9
330
548
100
AcDbEntity
  8
YKK_Z1
  6
Continuous
100
AcDbLine
 10
13753.01507474
 20
13675.16495526
 30
0.0
 11
13923.01510419
 21
13845.16495526
 31
0.0
  0
LINE
  5
2BA
330
548
100
AcDbEntity
  8
YKK_Z1
  6
Continuous
100
AcDbLine
 10
13700.0
 20
13845.16495526
 30
0.0
 11
14050.0
 21
13845.16495526
 31
0.0
  0
LINE
  5
2BB
330
548
100
AcDbEntity
  8
YKK_Z1
  6
Continuous
100
AcDbLine
 10
14050.0
 20
13675.16495526
 30
0.0
 11
13700.0
 21
13675.16495526
 31
0.0
  0
LINE
  5
2BC
330
548
100
AcDbEntity
  8
YKK_N1
100
AcDbLine
 10
13650.0
 20
13695.15
 30
0.0
 11
13650.0
 21
13325.15
 31
0.0
  0
LINE
  5
2BD
330
548
100
AcDbEntity
  8
YKK_N1
  6
ByBlock
100
AcDbLine
 10
13563.39745962
 20
13305.15
 30
0.0
 11
13650.0
 21
13355.15
 31
0.0
  0
LINE
  5
2BE
330
548
100
AcDbEntity
  8
YKK_N1
  6
ByBlock
100
AcDbLine
 10
13563.39745962
 20
13405.15
 30
0.0
 11
13563.39745962
 21
13305.15
 31
0.0
  0
LINE
  5
2BF
330
548
100
AcDbEntity
  8
YKK_N1
  6
ByBlock
100
AcDbLine
 10
13650.0
 20
13355.15
 30
0.0
 11
13563.39745962
 21
13405.15
 31
0.0
  0
LINE
  5
2C0
330
548
100
AcDbEntity
  8
YKK_N1
  6
ByBlock
100
AcDbLine
 10
13650.0
 20
13355.15
 30
0.0
 11
13550.0
 21
13355.15
 31
0.0
  0
LINE
  5
2C1
330
548
100
AcDbEntity
  8
YKK_B1
100
AcDbLine
 10
13570.0
 20
13813.15
 30
0.0
 11
13586.0
 21
13813.15
 31
0.0
  0
LINE
  5
2C2
330
548
100
AcDbEntity
  8
YKK_B1
100
AcDbLine
 10
13570.0
 20
13805.15
 30
0.0
 11
13570.0
 21
13813.15
 31
0.0
  0
LINE
  5
2C3
330
548
100
AcDbEntity
  8
YKK_B1
100
AcDbLine
 10
13586.0
 20
13855.15
 30
0.0
 11
13586.0
 21
13805.15
 31
0.0
  0
LINE
  5
2C4
330
548
100
AcDbEntity
  8
YKK_B1
100
AcDbLine
 10
13570.0
 20
13855.15
 30
0.0
 11
13645.0
 21
13855.15
 31
0.0
  0
LINE
  5
2C5
330
548
100
AcDbEntity
  8
YKK_B1
100
AcDbLine
 10
13625.0
 20
13805.15
 30
0.0
 11
13625.0
 21
13855.15
 31
0.0
  0
LINE
  5
2C6
330
548
100
AcDbEntity
  8
YKK_B1
100
AcDbLine
 10
13570.0
 20
13805.15
 30
0.0
 11
13625.0
 21
13805.15
 31
0.0
  0
LINE
  5
2C7
330
548
100
AcDbEntity
  8
YKK_B1
100
AcDbLine
 10
13675.0
 20
13800.15
 30
0.0
 11
13675.0
 21
13793.15
 31
0.0
  0
LINE
  5
2C8
330
548
100
AcDbEntity
  8
YKK_B1
100
AcDbLine
 10
13680.0
 20
13800.15
 30
0.0
 11
13650.0
 21
13800.15
 31
0.0
  0
LINE
  5
2C9
330
548
100
AcDbEntity
  8
YKK_B1
100
AcDbLine
 10
13680.0
 20
13855.15
 30
0.0
 11
13680.0
 21
13800.15
 31
0.0
  0
LINE
  5
2CA
330
548
100
AcDbEntity
  8
YKK_B1
100
AcDbLine
 10
13650.0
 20
13855.15
 30
0.0
 11
13680.0
 21
13855.15
 31
0.0
  0
LINE
  5
2CB
330
548
100
AcDbEntity
  8
YKK_B1
100
AcDbLine
 10
13675.0
 20
13755.15
 30
0.0
 11
13675.0
 21
13762.15
 31
0.0
  0
LINE
  5
2CC
330
548
100
AcDbEntity
  8
YKK_B1
100
AcDbLine
 10
13650.0
 20
13755.15
 30
0.0
 11
13675.0
 21
13755.15
 31
0.0
  0
LINE
  5
2CD
330
548
100
AcDbEntity
  8
YKK_B1
100
AcDbLine
 10
13650.0
 20
13801.15
 30
0.0
 11
13620.0
 21
13801.15
 31
0.0
  0
LINE
  5
2CE
330
548
100
AcDbEntity
  8
YKK_B1
100
AcDbLine
 10
13650.0
 20
13755.15
 30
0.0
 11
13650.0
 21
13855.15
 31
0.0
  0
LINE
  5
2CF
330
548
100
AcDbEntity
  8
YKK_Z1
  6
Continuous
100
AcDbLine
 10
13690.0
 20
13657.16495526
 30
0.0
 11
13690.0
 21
13645.16495526
 31
0.0
  0
LINE
  5
2D0
330
548
100
AcDbEntity
  8
YKK_Z1
  6
Continuous
100
AcDbLine
 10
13680.0
 20
13845.16495526
 30
0.0
 11
13700.0
 21
13845.16495526
 31
0.0
  0
LINE
  5
2D1
330
548
100
AcDbEntity
  8
YKK_Z1
  6
Continuous
100
AcDbLine
 10
13690.0
 20
13642.02786048
 30
0.0
 11
13683.1370936
 21
13635.16495526
 31
0.0
  0
LINE
  5
2D2
330
548
100
AcDbEntity
  8
YKK_Z1
  6
Continuous
100
AcDbLine
 10
13690.0
 20
13670.31213417
 30
0.0
 11
13665.0
 21
13645.3121385
 31
0.0
  0
LINE
  5
2D3
330
548
100
AcDbEntity
  8
YKK_Z1
  6
Continuous
100
AcDbLine
 10
13690.0
 20
13698.59640787
 30
0.0
 11
13665.0
 21
13673.5964122
 31
0.0
  0
LINE
  5
2D4
330
548
100
AcDbEntity
  8
YKK_Z1
  6
Continuous
100
AcDbLine
 10
13690.0
 20
13726.88068157
 30
0.0
 11
13665.0
 21
13701.8806859
 31
0.0
  0
LINE
  5
2D5
330
548
100
AcDbEntity
  8
YKK_Z1
  6
Continuous
100
AcDbLine
 10
13690.0
 20
13755.16495526
 30
0.0
 11
13665.0
 21
13730.16495959
 31
0.0
  0
LINE
  5
2D6
330
548
100
AcDbEntity
  8
YKK_Z1
  6
Continuous
100
AcDbLine
 10
13690.0
 20
13755.16495526
 30
0.0
 11
13665.0
 21
13755.16495526
 31
0.0
  0
LINE
  5
2D7
330
548
100
AcDbEntity
  8
YKK_Z1
  6
Continuous
100
AcDbLine
 10
13690.0
 20
13635.16495526
 30
0.0
 11
13690.0
 21
13755.16495526
 31
0.0
  0
LINE
  5
2D8
330
548
100
AcDbEntity
  8
YKK_Z1
  6
Continuous
100
AcDbLine
 10
13665.0
 20
13635.16495526
 30
0.0
 11
13690.0
 21
13635.16495526
 31
0.0
  0
LINE
  5
2D9
330
548
100
AcDbEntity
  8
YKK_Z1
  6
Continuous
100
AcDbLine
 10
13665.0
 20
13755.16495526
 30
0.0
 11
13665.0
 21
13635.16495526
 31
0.0
  0
LINE
  5
2DA
330
548
100
AcDbEntity
  8
YKK_Z1
  6
Continuous
100
AcDbLine
 10
13700.0
 20
13675.16495526
 30
0.0
 11
13700.0
 21
13845.16495526
 31
0.0
  0
LINE
  5
2DB
330
548
100
AcDbEntity
  8
YKK_Z1
  6
Continuous
100
AcDbLine
 10
13781.29935334
 20
13675.16495526
 30
0.0
 11
13951.29938278
 21
13845.16495526
 31
0.0
  0
TEXT
  5
2DD
330
548
100
AcDbEntity
  8
YKK_N1
100
AcDbText
 10
13075.42857143
 20
15404.85
 30
0.0
 40
60.0
  1
W=900
 41
0.8
100
AcDbText
1001
ACAD
1000
MTEXTBEGIN
1070
    73
1070
     1
1070
    44
1040
1.0
1070
    74
1070
     0
1000
MTEXTEND
  0
LINE
  5
2DE
330
548
100
AcDbEntity
  8
YKK_N1
100
AcDbLine
 10
12751.0
 20
15394.85
 30
0.0
 11
13649.0
 21
15394.85
 31
0.0
  0
TEXT
  5
2DF
330
548
100
AcDbEntity
  8
YKK_A1
100
AcDbText
 10
12969.2
 20
15914.85
 30
0.0
 40
60.0
  1
複層ガラス 5+A12+5
 41
0.8
 72
     2
 11
13590.0
 21
15914.85
 31
0.0
100
AcDbText
  0
LINE
  5
2E0
330
548
100
AcDbEntity
  8
YKK_A1
100
AcDbLine
 10
12780.0
 20
15794.85
 30
0.0
 11
13620.0
 21
15794.85
 31
0.0
  0
LINE
  5
2E1
330
548
100
AcDbEntity
  8
YKK_A1
100
AcDbLine
 10
12750.0
 20
15794.85
 30
0.0
 11
13650.0
 21
15794.85
 31
0.0
  0
LINE
  5
2E2
330
548
100
AcDbEntity
  8
YKK_A1
100
AcDbLine
 10
12735.0
 20
15794.85
 30
0.0
 11
13665.0
 21
15794.85
 31
0.0
  0
LINE
  5
2E3
330
548
100
AcDbEntity
  8
YKK_N1
100
AcDbLine
 10
12750.0
 20
15734.85
 30
0.0
 11
12750.0
 21
15364.85
 31
0.0
  0
LINE
  5
2E4
330
548
100
AcDbEntity
  8
YKK_N1
  6
ByBlock
100
AcDbLine
 10
12836.60254038
 20
15444.85
 30
0.0
 11
12750.0
 21
15394.85
 31
0.0
  0
LINE
  5
2E5
330
548
100
AcDbEntity
  8
YKK_N1
  6
ByBlock
100
AcDbLine
 10
12836.60254038
 20
15344.85
 30
0.0
 11
12836.60254038
 21
15444.85
 31
0.0
  0
LINE
  5
2E6
330
548
100
AcDbEntity
  8
YKK_N1
  6
ByBlock
100
AcDbLine
 10
12750.0
 20
15394.85
 30
0.0
 11
12836.60254038
 21
15344.85
 31
0.0
  0
LINE
  5
2E7
330
548
100
AcDbEntity
  8
YKK_N1
  6
ByBlock
100
AcDbLine
 10
12750.0
 20
15394.85
 30
0.0
 11
12850.0
 21
15394.85
 31
0.0
  0
LINE
  5
2E8
330
548
100
AcDbEntity
  8
YKK_N1
100
AcDbLine
 10
13650.0
 20
15734.85
 30
0.0
 11
13650.0
 21
15364.85
 31
0.0
  0
LINE
  5
2E9
330
548
100
AcDbEntity
  8
YKK_N1
  6
ByBlock
100
AcDbLine
 10
13563.39745962
 20
15344.85
 30
0.0
 11
13650.0
 21
15394.85
 31
0.0
  0
LINE
  5
2EA
330
548
100
AcDbEntity
  8
YKK_N1
  6
ByBlock
100
AcDbLine
 10
13563.39745962
 20
15444.85
 30
0.0
 11
13563.39745962
 21
15344.85
 31
0.0
  0
LINE
  5
2EB
330
548
100
AcDbEntity
  8
YKK_N1
  6
ByBlock
100
AcDbLine
 10
13650.0
 20
15394.85
 30
0.0
 11
13563.39745962
 21
15444.85
 31
0.0
  0
LINE
  5
2EC
330
548
100
AcDbEntity
  8
YKK_N1
  6
ByBlock
100
AcDbLine
 10
13650.0
 20
15394.85
 30
0.0
 11
13550.0
 21
15394.85
 31
0.0
  0
LINE
  5
2ED
330
548
100
AcDbEntity
  8
YKK_N1
100
AcDbLine
 10
13710.0
 20
15794.85
 30
0.0
 11
14080.0
 21
15794.85
 31
0.0
  0
LINE
  5
2EE
330
548
100
AcDbEntity
  8
YKK_N1
100
AcDbLine
 10
13710.0
 20
15794.85
 30
0.0
 11
14280.0
 21
15794.85
 31
0.0
  0
TEXT
  5
2EF
330
548
100
AcDbEntity
  8
YKK_A1
100
AcDbText
 10
13558.0
 20
15824.85
 30
0.0
 40
60.0
  1
F
 41
0.8
 72
     2
 11
13590.0
 21
15824.85
 31
0.0
100
AcDbText
  0
LINE
  5
2F0
330
548
100
AcDbEntity
  8
YKK_N1
  6
ByBlock
100
AcDbLine
 10
14200.0
 20
15881.45254038
 30
0.0
 11
14250.0
 21
15794.85
 31
0.0
  0
LINE
  5
2F1
330
548
100
AcDbEntity
  8
YKK_N1
  6
ByBlock
100
AcDbLine
 10
14250.0
 20
15794.85
 30
0.0
 11
14300.0
 21
15881.45254038
 31
0.0
  0
LINE
  5
2F2
330
548
100
AcDbEntity
  8
YKK_N1
  6
ByBlock
100
AcDbLine
 10
14250.0
 20
15794.85
 30
0.0
 11
14250.0
 21
15894.85
 31
0.0
  0
LINE
  5
2F3
330
548
100
AcDbEntity
  8
YKK_N1
100
AcDbLine
 10
14050.0
 20
15794.85
 30
0.0
 11
14050.0
 21
15814.85
 31
0.0
  0
CIRCLE
  5
2F4
330
548
100
AcDbEntity
  8
YKK_N1
100
AcDbCircle
 10
14050.0
 20
15794.85
 30
0.0
 40
6.5
  0
CIRCLE
  5
2F5
330
548
100
AcDbEntity
  8
YKK_N1
100
AcDbCircle
 10
14050.0
 20
15794.85
 30
0.0
 40
10.0
  0
LINE
  5
2F6
330
548
100
AcDbEntity
  8
YKK_N1
  6
ByBlock
100
AcDbLine
 10
14300.0
 20
15881.45254038
 30
0.0
 11
14200.0
 21
15881.45254038
 31
0.0
  0
TEXT
  5
2F7
330
548
100
AcDbEntity
  8
YKK_N1
100
AcDbText
 10
9828.0
 20
17510.85
 30
0.0
 40
60.0
  1
100
 41
0.8
100
AcDbText
1001
ACAD
1000
MTEXTBEGIN
1070
    73
1070
     1
1070
    44
1040
1.0
1070
    74
1070
     0
1000
MTEXTEND
  0
LINE
  5
2F8
330
548
100
AcDbEntity
  8
YKK_N1
100
AcDbLine
 10
9850.0
 20
17465.85
 30
0.0
 11
9870.0
 21
17465.85
 31
0.0
  0
CIRCLE
  5
2F9
330
548
100
AcDbEntity
  8
YKK_N1
100
AcDbCircle
 10
9850.0
 20
17465.85
 30
0.0
 40
10.0
  0
LINE
  5
2FA
330
548
100
AcDbEntity
  8
YKK_C1
100
AcDbLine
 10
9850.0
 20
16423.85
 30
0.0
 11
9900.0
 21
16423.85
 31
0.0
  0
LINE
  5
2FB
330
548
100
AcDbEntity
  8
YKK_C1
100
AcDbLine
 10
9900.0
 20
16389.85
 30
0.0
 11
9850.0
 21
16389.85
 31
0.0
  0
LINE
  5
2FC
330
548
100
AcDbEntity
  8
YKK_C1
100
AcDbLine
 10
9900.0
 20
17830.85
 30
0.0
 11
9850.0
 21
17830.85
 31
0.0
  0
LINE
  5
2FD
330
548
100
AcDbEntity
  8
YKK_C1
100
AcDbLine
 10
9900.0
 20
17869.85
 30
0.0
 11
9850.0
 21
17869.85
 31
0.0
  0
LINE
  5
2FE
330
548
100
AcDbEntity
  8
YKK_C1
100
AcDbLine
 10
9850.0
 20
16334.85
 30
0.0
 11
9905.0
 21
16334.85
 31
0.0
  0
LINE
  5
2FF
330
548
100
AcDbEntity
  8
YKK_C1
100
AcDbLine
 10
9877.0
 20
16359.85
 30
0.0
 11
9850.0
 21
16359.85
 31
0.0
  0
LINE
  5
300
330
548
100
AcDbEntity
  8
YKK_C1
100
AcDbLine
 10
9904.0
 20
16359.85
 30
0.0
 11
9850.0
 21
16359.85
 31
0.0
  0
LINE
  5
301
330
548
100
AcDbEntity
  8
YKK_C1
100
AcDbLine
 10
9850.0
 20
17934.85
 30
0.0
 11
9905.0
 21
17934.85
 31
0.0
  0
LINE
  5
302
330
548
100
AcDbEntity
  8
YKK_C1
100
AcDbLine
 10
9950.0
 20
17894.85
 30
0.0
 11
9850.0
 21
17894.85
 31
0.0
  0
TEXT
  5
303
330
548
100
AcDbEntity
  8
0
100
AcDbText
 10
5800.0
 20
19187.5
 30
0.0
 40
175.0
  1
外開き、はめ殺し連窓
  7
EXTFONT
100
AcDbText
  0
LINE
  5
304
330
548
100
AcDbEntity
  8
YKK_A1
100
AcDbLine
 10
8450.0
 20
17894.85
 30
0.0
 11
7615.0
 21
17894.85
 31
0.0
  0
LINE
  5
305
330
548
100
AcDbEntity
  8
YKK_A1
100
AcDbLine
 10
7615.0
 20
16394.85
 30
0.0
 11
8450.0
 21
16394.85
 31
0.0
  0
LINE
  5
306
330
548
100
AcDbEntity
  8
YKK_A1
100
AcDbLine
 10
8465.0
 20
17909.85
 30
0.0
 11
6735.0
 21
17909.85
 31
0.0
  0
LINE
  5
307
330
548
100
AcDbEntity
  8
YKK_A1
100
AcDbLine
 10
6735.0
 20
16394.85
 30
0.0
 11
8465.0
 21
16394.85
 31
0.0
  0
TEXT
  5
308
330
548
100
AcDbEntity
  8
0
100
AcDbText
 10
5800.0
 20
18737.5
 30
0.0
 40
175.0
  1
W＝1,700　H＝1,500
  7
EXTFONT
100
AcDbText
  0
LINE
  5
309
330
548
100
AcDbEntity
  8
YKK_A1
100
AcDbLine
 10
7615.0
 20
17894.85
 30
0.0
 11
7615.0
 21
16394.85
 31
0.0
  0
LINE
  5
30A
330
548
100
AcDbEntity
  8
YKK_A1
100
AcDbLine
 10
7585.0
 20
17894.85
 30
0.0
 11
7585.0
 21
16394.85
 31
0.0
  0
LINE
  5
30B
330
548
100
AcDbEntity
  8
YKK_A1
100
AcDbLine
 10
7615.0
 20
16394.85
 30
0.0
 11
7615.0
 21
17894.85
 31
0.0
  0
LINE
  5
30C
330
548
100
AcDbEntity
  8
YKK_A1
  6
CENTER
100
AcDbLine
 10
6780.0
 20
17129.85
 30
0.0
 11
7555.0
 21
17864.85
 31
0.0
  0
LINE
  5
30D
330
548
100
AcDbEntity
  8
YKK_A1
100
AcDbLine
 10
6830.0
 20
17814.85
 30
0.0
 11
6830.0
 21
16439.85
 31
0.0
  0
LINE
  5
30E
330
548
100
AcDbEntity
  8
YKK_A1
100
AcDbLine
 10
7505.0
 20
16439.85
 30
0.0
 11
7505.0
 21
17814.85
 31
0.0
  0
LINE
  5
30F
330
548
100
AcDbEntity
  8
YKK_A1
100
AcDbLine
 10
6780.0
 20
17864.85
 30
0.0
 11
6780.0
 21
16394.85
 31
0.0
  0
LINE
  5
310
330
548
100
AcDbEntity
  8
YKK_A1
100
AcDbLine
 10
7555.0
 20
16394.85
 30
0.0
 11
7555.0
 21
17864.85
 31
0.0
  0
LINE
  5
311
330
548
100
AcDbEntity
  8
YKK_A1
100
AcDbLine
 10
6750.0
 20
17894.85
 30
0.0
 11
6750.0
 21
16394.85
 31
0.0
  0
LINE
  5
312
330
548
100
AcDbEntity
  8
YKK_A1
100
AcDbLine
 10
7585.0
 20
16394.85
 30
0.0
 11
7585.0
 21
17894.85
 31
0.0
  0
LINE
  5
313
330
548
100
AcDbEntity
  8
YKK_A1
100
AcDbLine
 10
6735.0
 20
17909.85
 30
0.0
 11
6735.0
 21
16394.85
 31
0.0
  0
LINE
  5
314
330
548
100
AcDbEntity
  8
YKK_N1
100
AcDbLine
 10
7370.0
 20
17044.85
 30
0.0
 11
7370.0
 21
17024.85
 31
0.0
  0
LINE
  5
315
330
548
100
AcDbEntity
  8
YKK_A2
  6
ByBlock
100
AcDbLine
 10
7540.0
 20
17008.85
 30
0.0
 11
7540.0
 21
17074.85
 31
0.0
  0
LINE
  5
316
330
548
100
AcDbEntity
  8
YKK_A2
  6
ByBlock
100
AcDbLine
 10
7536.25
 20
17044.85
 30
0.0
 11
7536.25
 21
16914.85
 31
0.0
  0
LINE
  5
317
330
548
100
AcDbEntity
  8
YKK_A2
  6
ByBlock
100
AcDbLine
 10
7520.0
 20
17074.85
 30
0.0
 11
7520.0
 21
17008.85
 31
0.0
  0
LINE
  5
318
330
548
100
AcDbEntity
  8
YKK_A2
  6
ByBlock
100
AcDbLine
 10
7523.75
 20
17044.85
 30
0.0
 11
7523.75
 21
16914.85
 31
0.0
  0
LINE
  5
319
330
548
100
AcDbEntity
  8
YKK_A1
  6
CENTER
100
AcDbLine
 10
6780.0
 20
17129.85
 30
0.0
 11
7555.0
 21
16394.85
 31
0.0
  0
LINE
  5
31A
330
548
100
AcDbEntity
  8
YKK_A2
  6
ByBlock
100
AcDbLine
 10
6977.22260274
 20
16427.35
 30
0.0
 11
7063.0
 21
16427.35
 31
0.0
  0
LINE
  5
31B
330
548
100
AcDbEntity
  8
YKK_A2
  6
ByBlock
100
AcDbLine
 10
6976.19520548
 20
16437.35
 30
0.0
 11
7063.0
 21
16437.35
 31
0.0
  0
LINE
  5
31C
330
548
100
AcDbEntity
  8
YKK_A1
100
AcDbLine
 10
6830.0
 20
16439.85
 30
0.0
 11
7505.0
 21
16439.85
 31
0.0
  0
LINE
  5
31D
330
548
100
AcDbEntity
  8
YKK_A1
100
AcDbLine
 10
6780.0
 20
16394.85
 30
0.0
 11
7555.0
 21
16394.85
 31
0.0
  0
LINE
  5
31E
330
548
100
AcDbEntity
  8
YKK_A1
100
AcDbLine
 10
6750.0
 20
16394.85
 30
0.0
 11
7585.0
 21
16394.85
 31
0.0
  0
LINE
  5
31F
330
548
100
AcDbEntity
  8
YKK_A2
  6
ByBlock
100
AcDbLine
 10
6965.0
 20
16452.55
 30
0.0
 11
6965.0
 21
16446.55
 31
0.0
  0
LINE
  5
320
330
548
100
AcDbEntity
  8
YKK_A2
  6
ByBlock
100
AcDbLine
 10
6951.0
 20
16452.55
 30
0.0
 11
6951.0
 21
16446.55
 31
0.0
  0
LINE
  5
321
330
548
100
AcDbEntity
  8
YKK_A2
  6
ByBlock
100
AcDbLine
 10
6951.0
 20
16452.55
 30
0.0
 11
6965.0
 21
16452.55
 31
0.0
  0
LINE
  5
322
330
548
100
AcDbEntity
  8
YKK_A2
  6
ByBlock
100
AcDbLine
 10
6965.0
 20
16446.55
 30
0.0
 11
6975.25
 21
16446.55
 31
0.0
  0
LINE
  5
323
330
548
100
AcDbEntity
  8
YKK_A2
  6
ByBlock
100
AcDbLine
 10
6990.5
 20
16396.85
 30
0.0
 11
6990.5
 21
16394.85
 31
0.0
  0
LINE
  5
324
330
548
100
AcDbEntity
  8
YKK_A2
  6
ByBlock
100
AcDbLine
 10
6973.0
 20
16410.35
 30
0.0
 11
6973.0
 21
16396.85
 31
0.0
  0
LINE
  5
325
330
548
100
AcDbEntity
  8
YKK_A2
  6
ByBlock
100
AcDbLine
 10
6968.0
 20
16417.35
 30
0.0
 11
6968.0
 21
16410.35
 31
0.0
  0
LINE
  5
326
330
548
100
AcDbEntity
  8
YKK_A2
  6
ByBlock
100
AcDbLine
 10
6948.0
 20
16417.35
 30
0.0
 11
6948.0
 21
16410.35
 31
0.0
  0
LINE
  5
327
330
548
100
AcDbEntity
  8
YKK_A2
  6
ByBlock
100
AcDbLine
 10
6968.0
 20
16410.35
 30
0.0
 11
6973.0
 21
16410.35
 31
0.0
  0
LINE
  5
328
330
548
100
AcDbEntity
  8
YKK_A2
  6
ByBlock
100
AcDbLine
 10
6968.0
 20
16417.35
 30
0.0
 11
6978.25
 21
16417.35
 31
0.0
  0
LINE
  5
329
330
548
100
AcDbEntity
  8
YKK_A2
  6
ByBlock
100
AcDbLine
 10
6975.25
 20
16446.55
 30
0.0
 11
6978.25
 21
16417.35
 31
0.0
  0
LINE
  5
32A
330
548
100
AcDbEntity
  8
YKK_A2
  6
ByBlock
100
AcDbLine
 10
6943.0
 20
16410.35
 30
0.0
 11
6943.0
 21
16396.85
 31
0.0
  0
LINE
  5
32B
330
548
100
AcDbEntity
  8
YKK_A2
  6
ByBlock
100
AcDbLine
 10
6925.5
 20
16396.85
 30
0.0
 11
6925.5
 21
16394.85
 31
0.0
  0
LINE
  5
32C
330
548
100
AcDbEntity
  8
YKK_A2
  6
ByBlock
100
AcDbLine
 10
6904.0
 20
16427.35
 30
0.0
 11
6904.0
 21
16405.85
 31
0.0
  0
LINE
  5
32D
330
548
100
AcDbEntity
  8
YKK_A2
  6
ByBlock
100
AcDbLine
 10
6940.75
 20
16446.55
 30
0.0
 11
6937.75
 21
16417.35
 31
0.0
  0
LINE
  5
32E
330
548
100
AcDbEntity
  8
YKK_A2
  6
ByBlock
100
AcDbLine
 10
6940.75
 20
16446.55
 30
0.0
 11
6951.0
 21
16446.55
 31
0.0
  0
LINE
  5
32F
330
548
100
AcDbEntity
  8
YKK_A2
  6
ByBlock
100
AcDbLine
 10
6943.0
 20
16410.35
 30
0.0
 11
6948.0
 21
16410.35
 31
0.0
  0
LINE
  5
330
330
548
100
AcDbEntity
  8
YKK_A2
  6
ByBlock
100
AcDbLine
 10
6937.75
 20
16417.35
 30
0.0
 11
6948.0
 21
16417.35
 31
0.0
  0
LINE
  5
331
330
548
100
AcDbEntity
  8
YKK_A2
  6
ByBlock
100
AcDbLine
 10
6925.5
 20
16396.85
 30
0.0
 11
6990.5
 21
16396.85
 31
0.0
  0
LINE
  5
332
330
548
100
AcDbEntity
  8
YKK_A2
  6
ByBlock
100
AcDbLine
 10
6925.5
 20
16394.85
 30
0.0
 11
6990.5
 21
16394.85
 31
0.0
  0
LINE
  5
333
330
548
100
AcDbEntity
  8
YKK_A2
  6
ByBlock
100
AcDbLine
 10
6867.0
 20
16437.35
 30
0.0
 11
6867.0
 21
16427.35
 31
0.0
  0
CIRCLE
  5
334
330
548
100
AcDbEntity
  8
YKK_A2
  6
ByBlock
100
AcDbCircle
 10
6857.0
 20
16411.85
 30
0.0
 40
4.0
  0
LINE
  5
335
330
548
100
AcDbEntity
  8
YKK_A2
  6
ByBlock
100
AcDbLine
 10
6850.0
 20
16427.35
 30
0.0
 11
6850.0
 21
16405.85
 31
0.0
  0
LINE
  5
336
330
548
100
AcDbEntity
  8
YKK_A2
  6
ByBlock
100
AcDbLine
 10
6867.0
 20
16437.35
 30
0.0
 11
6939.80479452
 21
16437.35
 31
0.0
  0
LINE
  5
337
330
548
100
AcDbEntity
  8
YKK_A2
  6
ByBlock
100
AcDbLine
 10
6850.0
 20
16427.35
 30
0.0
 11
6938.77739726
 21
16427.35
 31
0.0
  0
CIRCLE
  5
338
330
548
100
AcDbEntity
  8
YKK_A2
  6
ByBlock
100
AcDbCircle
 10
6897.0
 20
16411.85
 30
0.0
 40
4.0
  0
LINE
  5
339
330
548
100
AcDbEntity
  8
YKK_A2
  6
ByBlock
100
AcDbLine
 10
6850.0
 20
16405.85
 30
0.0
 11
6904.0
 21
16405.85
 31
0.0
  0
LINE
  5
33A
330
548
100
AcDbEntity
  8
YKK_N1
100
AcDbLine
 10
7370.0
 20
17024.85
 30
0.0
 11
7370.0
 21
16414.85
 31
0.0
  0
LINE
  5
33B
330
548
100
AcDbEntity
  8
YKK_N1
100
AcDbLine
 10
7310.0
 20
16394.85
 30
0.0
 11
7340.0
 21
16394.85
 31
0.0
  0
TEXT
  5
33C
330
548
100
AcDbEntity
  8
YKK_A1
100
AcDbText
 10
7206.2
 20
16539.85
 30
0.0
 40
60.0
  1
複層ガラス
 41
0.8
 72
     2
 11
7475.0
 21
16539.85
 31
0.0
100
AcDbText
  0
TEXT
  5
33D
330
548
100
AcDbEntity
  8
YKK_A1
100
AcDbText
 10
7171.0
 20
16469.85
 30
0.0
 40
60.0
  1
5+A12+5
 41
0.8
 72
     2
 11
7475.0
 21
16469.85
 31
0.0
100
AcDbText
  0
LINE
  5
33E
330
548
100
AcDbEntity
  8
YKK_A2
  6
ByBlock
100
AcDbLine
 10
7063.0
 20
16437.35
 30
0.0
 11
7063.0
 21
16427.35
 31
0.0
  0
LINE
  5
33F
330
548
100
AcDbEntity
  8
YKK_N1
100
AcDbLine
 10
7370.0
 20
16394.85
 30
0.0
 11
7370.0
 21
16414.85
 31
0.0
  0
CIRCLE
  5
340
330
548
100
AcDbEntity
  8
YKK_N1
100
AcDbCircle
 10
7370.0
 20
16394.85
 30
0.0
 40
6.5
  0
CIRCLE
  5
341
330
548
100
AcDbEntity
  8
YKK_N1
100
AcDbCircle
 10
7370.0
 20
16394.85
 30
0.0
 40
10.0
  0
LINE
  5
342
330
548
100
AcDbEntity
  8
YKK_A1
100
AcDbLine
 10
7585.0
 20
16394.85
 30
0.0
 11
7615.0
 21
16394.85
 31
0.0
  0
TEXT
  5
343
330
548
100
AcDbEntity
  8
YKK_N1
100
AcDbText
 10
7360.0
 20
16650.13571429
 30
0.0
 40
60.0
  1
650
 50
90.0
 41
0.8
100
AcDbText
1001
ACAD
1000
MTEXTBEGIN
1070
    73
1070
     1
1070
    44
1040
1.0
1070
    74
1070
     0
1000
MTEXTEND
  0
LINE
  5
344
330
548
100
AcDbEntity
  8
YKK_A2
  6
ByBlock
100
AcDbLine
 10
7536.25
 20
17008.85
 30
0.0
 11
7540.0
 21
17008.85
 31
0.0
  0
LINE
  5
346
330
548
100
AcDbEntity
  8
YKK_A2
  6
ByBlock
100
AcDbLine
 10
7520.0
 20
17008.85
 30
0.0
 11
7523.75
 21
17008.85
 31
0.0
  0
LINE
  5
347
330
548
100
AcDbEntity
  8
YKK_A2
  6
ByBlock
100
AcDbLine
 10
7536.25
 20
16914.85
 30
0.0
 11
7523.75
 21
16914.85
 31
0.0
  0
CIRCLE
  5
348
330
548
100
AcDbEntity
  8
YKK_N1
100
AcDbCircle
 10
7370.0
 20
17044.85
 30
0.0
 40
6.5
  0
CIRCLE
  5
349
330
548
100
AcDbEntity
  8
YKK_N1
100
AcDbCircle
 10
7370.0
 20
17044.85
 30
0.0
 40
10.0
  0
LINE
  5
34A
330
548
100
AcDbEntity
  8
YKK_A2
  6
ByBlock
100
AcDbLine
 10
7540.0
 20
17034.85
 30
0.0
 11
7539.25
 21
17034.85
 31
0.0
  0
ARC
  5
34B
330
548
100
AcDbEntity
  8
YKK_A2
  6
ByBlock
100
AcDbCircle
 10
7539.25
 20
17031.85
 30
0.0
 40
3.0
100
AcDbArc
 50
90.0
 51
180.0
  0
LINE
  5
34C
330
548
100
AcDbEntity
  8
YKK_A2
  6
ByBlock
100
AcDbLine
 10
7540.0
 20
17054.85
 30
0.0
 11
7536.25
 21
17044.85
 31
0.0
  0
LINE
  5
34D
330
548
100
AcDbEntity
  8
YKK_A2
  6
ByBlock
100
AcDbLine
 10
7520.75
 20
17034.85
 30
0.0
 11
7520.0
 21
17034.85
 31
0.0
  0
ARC
  5
34E
330
548
100
AcDbEntity
  8
YKK_A2
  6
ByBlock
100
AcDbCircle
 10
7520.75
 20
17031.85
 30
0.0
 40
3.0
100
AcDbArc
 50
0.0
 51
90.0
  0
LINE
  5
34F
330
548
100
AcDbEntity
  8
YKK_A2
  6
ByBlock
100
AcDbLine
 10
7520.0
 20
17054.85
 30
0.0
 11
7523.75
 21
17044.85
 31
0.0
  0
LINE
  5
350
330
548
100
AcDbEntity
  8
YKK_A2
  6
ByBlock
100
AcDbLine
 10
7540.0
 20
17074.85
 30
0.0
 11
7520.0
 21
17074.85
 31
0.0
  0
LINE
  5
351
330
548
100
AcDbEntity
  8
YKK_A2
  6
ByBlock
100
AcDbLine
 10
7540.0
 20
17054.85
 30
0.0
 11
7520.0
 21
17054.85
 31
0.0
  0
LINE
  5
352
330
548
100
AcDbEntity
  8
YKK_A2
  6
ByBlock
100
AcDbLine
 10
7523.75
 20
17044.85
 30
0.0
 11
7536.25
 21
17044.85
 31
0.0
  0
LINE
  5
353
330
548
100
AcDbEntity
  8
YKK_N1
100
AcDbLine
 10
7470.0
 20
17044.85
 30
0.0
 11
7340.0
 21
17044.85
 31
0.0
  0
LINE
  5
354
330
548
100
AcDbEntity
  8
YKK_A1
100
AcDbLine
 10
7505.0
 20
17814.85
 30
0.0
 11
6830.0
 21
17814.85
 31
0.0
  0
LINE
  5
355
330
548
100
AcDbEntity
  8
YKK_A1
100
AcDbLine
 10
7555.0
 20
17864.85
 30
0.0
 11
6780.0
 21
17864.85
 31
0.0
  0
LINE
  5
356
330
548
100
AcDbEntity
  8
YKK_A1
100
AcDbLine
 10
7585.0
 20
17894.85
 30
0.0
 11
6750.0
 21
17894.85
 31
0.0
  0
LINE
  5
357
330
548
100
AcDbEntity
  8
YKK_A1
100
AcDbLine
 10
7615.0
 20
17894.85
 30
0.0
 11
7585.0
 21
17894.85
 31
0.0
  0
LINE
  5
358
330
548
100
AcDbEntity
  8
YKK_N1
  6
ByBlock
100
AcDbLine
 10
8900.0
 20
17808.24745962
 30
0.0
 11
8850.0
 21
17894.85
 31
0.0
  0
LINE
  5
359
330
548
100
AcDbEntity
  8
YKK_N1
  6
ByBlock
100
AcDbLine
 10
8850.0
 20
17894.85
 30
0.0
 11
8800.0
 21
17808.24745962
 31
0.0
  0
LINE
  5
35A
330
548
100
AcDbEntity
  8
YKK_N1
  6
ByBlock
100
AcDbLine
 10
8850.0
 20
17894.85
 30
0.0
 11
8850.0
 21
17794.85
 31
0.0
  0
LINE
  5
35B
330
548
100
AcDbEntity
  8
YKK_N1
100
AcDbLine
 10
8850.0
 20
16395.85
 30
0.0
 11
8850.0
 21
17893.85
 31
0.0
  0
LINE
  5
35C
330
548
100
AcDbEntity
  8
YKK_A1
100
AcDbLine
 10
7645.0
 20
17894.85
 30
0.0
 11
7645.0
 21
16394.85
 31
0.0
  0
LINE
  5
35D
330
548
100
AcDbEntity
  8
YKK_A1
100
AcDbLine
 10
8420.0
 20
16394.85
 30
0.0
 11
8420.0
 21
17894.85
 31
0.0
  0
LINE
  5
35E
330
548
100
AcDbEntity
  8
YKK_A1
100
AcDbLine
 10
8450.0
 20
16394.85
 30
0.0
 11
8450.0
 21
17894.85
 31
0.0
  0
LINE
  5
35F
330
548
100
AcDbEntity
  8
YKK_A1
100
AcDbLine
 10
8465.0
 20
16394.85
 30
0.0
 11
8465.0
 21
17909.85
 31
0.0
  0
LINE
  5
360
330
548
100
AcDbEntity
  8
YKK_N1
100
AcDbLine
 10
8510.0
 20
16394.85
 30
0.0
 11
8880.0
 21
16394.85
 31
0.0
  0
TEXT
  5
361
330
548
100
AcDbEntity
  8
YKK_A1
100
AcDbText
 10
7769.2
 20
16514.85
 30
0.0
 40
60.0
  1
複層ガラス 5+A12+5
 41
0.8
 72
     2
 11
8390.0
 21
16514.85
 31
0.0
100
AcDbText
  0
LINE
  5
362
330
548
100
AcDbEntity
  8
YKK_A1
100
AcDbLine
 10
7645.0
 20
16394.85
 30
0.0
 11
8420.0
 21
16394.85
 31
0.0
  0
TEXT
  5
363
330
548
100
AcDbEntity
  8
YKK_A1
100
AcDbText
 10
8358.0
 20
16424.85
 30
0.0
 40
60.0
  1
F
 41
0.8
 72
     2
 11
8390.0
 21
16424.85
 31
0.0
100
AcDbText
  0
TEXT
  5
364
330
548
100
AcDbEntity
  8
YKK_N1
100
AcDbText
 10
8840.0
 20
16997.42142857
 30
0.0
 40
60.0
  1
H=1500
 50
90.0
 41
0.8
100
AcDbText
1001
ACAD
1000
MTEXTBEGIN
1070
    73
1070
     1
1070
    44
1040
1.0
1070
    74
1070
     0
1000
MTEXTEND
  0
LINE
  5
365
330
548
100
AcDbEntity
  8
YKK_C1
100
AcDbLine
 10
9850.0
 20
16459.85
 30
0.0
 11
9850.0
 21
17794.85
 31
0.0
  0
LINE
  5
366
330
548
100
AcDbEntity
  8
YKK_N1
  6
ByBlock
100
AcDbLine
 10
8800.0
 20
16481.45254038
 30
0.0
 11
8850.0
 21
16394.85
 31
0.0
  0
LINE
  5
367
330
548
100
AcDbEntity
  8
YKK_N1
  6
ByBlock
100
AcDbLine
 10
8900.0
 20
16481.45254038
 30
0.0
 11
8800.0
 21
16481.45254038
 31
0.0
  0
LINE
  5
368
330
548
100
AcDbEntity
  8
YKK_N1
  6
ByBlock
100
AcDbLine
 10
8850.0
 20
16394.85
 30
0.0
 11
8900.0
 21
16481.45254038
 31
0.0
  0
LINE
  5
369
330
548
100
AcDbEntity
  8
YKK_N1
  6
ByBlock
100
AcDbLine
 10
8850.0
 20
16394.85
 30
0.0
 11
8850.0
 21
16494.85
 31
0.0
  0
LINE
  5
36A
330
548
100
AcDbEntity
  8
YKK_C1
100
AcDbLine
 10
9850.0
 20
16439.85
 30
0.0
 11
9850.0
 21
16357.85
 31
0.0
  0
LINE
  5
36B
330
548
100
AcDbEntity
  8
YKK_C1
100
AcDbLine
 10
9850.0
 20
16359.85
 30
0.0
 11
9850.0
 21
16334.85
 31
0.0
  0
LINE
  5
36C
330
548
100
AcDbEntity
  8
YKK_N1
  6
ByBlock
100
AcDbLine
 10
8800.0
 20
17808.24745962
 30
0.0
 11
8900.0
 21
17808.24745962
 31
0.0
  0
CIRCLE
  5
36D
330
548
100
AcDbEntity
  8
YKK_N1
100
AcDbCircle
 10
9850.0
 20
17465.85
 30
0.0
 40
6.5
  0
LINE
  5
36E
330
548
100
AcDbEntity
  8
YKK_N1
100
AcDbLine
 10
9850.0
 20
17515.85
 30
0.0
 11
9850.0
 21
17495.85
 31
0.0
  0
LINE
  5
36F
330
548
100
AcDbEntity
  8
YKK_N1
100
AcDbLine
 10
8510.0
 20
17894.85
 30
0.0
 11
8880.0
 21
17894.85
 31
0.0
  0
LINE
  5
370
330
548
100
AcDbEntity
  8
YKK_A1
100
AcDbLine
 10
8420.0
 20
17894.85
 30
0.0
 11
7645.0
 21
17894.85
 31
0.0
  0
LINE
  5
371
330
548
100
AcDbEntity
  8
YKK_C1
100
AcDbLine
 10
9850.0
 20
17814.85
 30
0.0
 11
9850.0
 21
17889.85
 31
0.0
  0
LINE
  5
372
330
548
100
AcDbEntity
  8
YKK_C1
100
AcDbLine
 10
9850.0
 20
17894.85
 30
0.0
 11
9850.0
 21
17934.85
 31
0.0
  0
TEXT
  5
373
330
548
100
AcDbEntity
  8
0
100
AcDbText
 10
11500.0
 20
18737.5
 30
0.0
 40
175.0
  1
W＝900　H＝2,100
  7
EXTFONT
100
AcDbText
  0
LINE
  5
374
330
548
100
AcDbEntity
  8
YKK_N1
  6
ByBlock
100
AcDbLine
 10
10400.0
 20
17808.24745962
 30
0.0
 11
10350.0
 21
17894.85
 31
0.0
  0
LINE
  5
375
330
548
100
AcDbEntity
  8
YKK_N1
  6
ByBlock
100
AcDbLine
 10
10350.0
 20
17894.85
 30
0.0
 11
10300.0
 21
17808.24745962
 31
0.0
  0
LINE
  5
376
330
548
100
AcDbEntity
  8
YKK_N1
  6
ByBlock
100
AcDbLine
 10
10350.0
 20
17894.85
 30
0.0
 11
10350.0
 21
17794.85
 31
0.0
  0
LINE
  5
377
330
548
100
AcDbEntity
  8
YKK_N1
100
AcDbLine
 10
10350.0
 20
16395.85
 30
0.0
 11
10350.0
 21
17893.85
 31
0.0
  0
LINE
  5
378
330
548
100
AcDbEntity
  8
YKK_N1
  6
Continuous
100
AcDbLine
 10
10070.0
 20
17849.85
 30
0.0
 11
10070.0
 21
17435.85
 31
0.0
  0
LINE
  5
379
330
548
100
AcDbEntity
  8
YKK_Z1
  6
Continuous
100
AcDbLine
 10
10070.0
 20
17909.85
 30
0.0
 11
10070.0
 21
17144.85
 31
0.0
  0
LINE
  5
37A
330
548
100
AcDbEntity
  8
YKK_C1
100
AcDbLine
 10
9950.0
 20
16414.85
 30
0.0
 11
9950.0
 21
17874.85
 31
0.0
  0
LINE
  5
37B
330
548
100
AcDbEntity
  8
YKK_C1
100
AcDbLine
 10
9878.0
 20
16431.85
 30
0.0
 11
9878.0
 21
17822.85
 31
0.0
  0
LINE
  5
37C
330
548
100
AcDbEntity
  8
YKK_C1
100
AcDbLine
 10
9864.0
 20
16431.85
 30
0.0
 11
9864.0
 21
17822.85
 31
0.0
  0
TEXT
  5
37D
330
548
100
AcDbEntity
  8
YKK_N1
100
AcDbText
 10
10340.0
 20
16997.42142857
 30
0.0
 40
60.0
  1
H=1500
 50
90.0
 41
0.8
100
AcDbText
1001
ACAD
1000
MTEXTBEGIN
1070
    73
1070
     1
1070
    44
1040
1.0
1070
    74
1070
     0
1000
MTEXTEND
  0
LINE
  5
37E
330
548
100
AcDbEntity
  8
YKK_Z1
  6
Continuous
100
AcDbLine
 10
10070.0
 20
16394.85
 30
0.0
 11
10070.0
 21
17144.85
 31
0.0
  0
LINE
  5
37F
330
548
100
AcDbEntity
  8
YKK_N1
100
AcDbLine
 10
10010.0
 20
16394.85
 30
0.0
 11
10380.0
 21
16394.85
 31
0.0
  0
LINE
  5
380
330
548
100
AcDbEntity
  8
YKK_Z1
  6
Continuous
100
AcDbLine
 10
10048.0
 20
16369.85
 30
0.0
 11
10060.0
 21
16369.85
 31
0.0
  0
LINE
  5
381
330
548
100
AcDbEntity
  8
YKK_Z1
  6
Continuous
100
AcDbLine
 10
9860.0
 20
16334.85
 30
0.0
 11
9860.0
 21
16294.85
 31
0.0
  0
LINE
  5
382
330
548
100
AcDbEntity
  8
YKK_Z1
  6
Continuous
100
AcDbLine
 10
10063.13709479
 20
16369.85
 30
0.0
 11
10070.0
 21
16376.7129064
 31
0.0
  0
LINE
  5
383
330
548
100
AcDbEntity
  8
YKK_Z1
  6
Continuous
100
AcDbLine
 10
10034.85282109
 20
16369.85
 30
0.0
 11
10059.85281676
 21
16394.85
 31
0.0
  0
LINE
  5
384
330
548
100
AcDbEntity
  8
YKK_Z1
  6
Continuous
100
AcDbLine
 10
10006.56854739
 20
16369.85
 30
0.0
 11
10031.56854306
 21
16394.85
 31
0.0
  0
LINE
  5
385
330
548
100
AcDbEntity
  8
YKK_Z1
  6
Continuous
100
AcDbLine
 10
9978.2842737
 20
16369.85
 30
0.0
 11
10003.28426937
 21
16394.85
 31
0.0
  0
LINE
  5
386
330
548
100
AcDbEntity
  8
YKK_Z1
  6
Continuous
100
AcDbLine
 10
9950.0
 20
16369.85
 30
0.0
 11
9974.99999567
 21
16394.85
 31
0.0
  0
LINE
  5
387
330
548
100
AcDbEntity
  8
YKK_Z1
  6
Continuous
100
AcDbLine
 10
9950.0
 20
16369.85
 30
0.0
 11
9950.0
 21
16394.85
 31
0.0
  0
LINE
  5
388
330
548
100
AcDbEntity
  8
YKK_Z1
  6
Continuous
100
AcDbLine
 10
10070.0
 20
16369.85
 30
0.0
 11
9950.0
 21
16369.85
 31
0.0
  0
LINE
  5
389
330
548
100
AcDbEntity
  8
YKK_Z1
  6
Continuous
100
AcDbLine
 10
10070.0
 20
16394.85
 30
0.0
 11
10070.0
 21
16369.85
 31
0.0
  0
LINE
  5
38A
330
548
100
AcDbEntity
  8
YKK_Z1
  6
Continuous
100
AcDbLine
 10
9950.0
 20
16394.85
 30
0.0
 11
10070.0
 21
16394.85
 31
0.0
  0
LINE
  5
38B
330
548
100
AcDbEntity
  8
YKK_Z1
  6
Continuous
100
AcDbLine
 10
9960.0
 20
16294.85
 30
0.0
 11
9860.0
 21
16294.85
 31
0.0
  0
LINE
  5
38C
330
548
100
AcDbEntity
  8
YKK_Z1
  6
Continuous
100
AcDbLine
 10
9970.0
 20
16319.85
 30
0.0
 11
9960.0
 21
16294.85
 31
0.0
  0
LINE
  5
38D
330
548
100
AcDbEntity
  8
YKK_Z1
  6
Continuous
100
AcDbLine
 10
10030.0
 20
16319.85
 30
0.0
 11
9970.0
 21
16319.85
 31
0.0
  0
LINE
  5
38E
330
548
100
AcDbEntity
  8
YKK_C1
100
AcDbLine
 10
9892.0
 20
16439.85
 30
0.0
 11
9892.0
 21
16423.85
 31
0.0
  0
LINE
  5
38F
330
548
100
AcDbEntity
  8
YKK_C1
100
AcDbLine
 10
9900.0
 20
16439.85
 30
0.0
 11
9892.0
 21
16439.85
 31
0.0
  0
LINE
  5
390
330
548
100
AcDbEntity
  8
YKK_C1
100
AcDbLine
 10
9900.0
 20
16439.85
 30
0.0
 11
9900.0
 21
16389.85
 31
0.0
  0
LINE
  5
391
330
548
100
AcDbEntity
  8
YKK_C1
100
AcDbLine
 10
9877.0
 20
16359.85
 30
0.0
 11
9950.0
 21
16359.85
 31
0.0
  0
LINE
  5
392
330
548
100
AcDbEntity
  8
YKK_C1
100
AcDbLine
 10
9905.0
 20
16359.85
 30
0.0
 11
9905.0
 21
16324.85
 31
0.0
  0
LINE
  5
393
330
548
100
AcDbEntity
  8
YKK_C1
100
AcDbLine
 10
9905.0
 20
16354.85
 30
0.0
 11
9911.0
 21
16354.85
 31
0.0
  0
LINE
  5
394
330
548
100
AcDbEntity
  8
YKK_C1
100
AcDbLine
 10
9950.0
 20
16354.85
 30
0.0
 11
9944.0
 21
16354.85
 31
0.0
  0
LINE
  5
395
330
548
100
AcDbEntity
  8
YKK_C1
100
AcDbLine
 10
9950.0
 20
16394.85
 30
0.0
 11
9950.0
 21
16354.85
 31
0.0
  0
LINE
  5
398
330
548
100
AcDbEntity
  8
YKK_C1
100
AcDbLine
 10
9904.0
 20
16394.85
 30
0.0
 11
9904.0
 21
16359.85
 31
0.0
  0
LINE
  5
399
330
548
100
AcDbEntity
  8
YKK_C1
100
AcDbLine
 10
9950.0
 20
16394.85
 30
0.0
 11
9904.0
 21
16394.85
 31
0.0
  0
LINE
  5
39A
330
548
100
AcDbEntity
  8
YKK_N1
  6
ByBlock
100
AcDbLine
 10
10350.0
 20
16394.85
 30
0.0
 11
10350.0
 21
16374.85
 31
0.0
  0
LINE
  5
39B
330
548
100
AcDbEntity
  8
YKK_N1
  6
ByBlock
100
AcDbLine
 10
10300.0
 20
16481.45254038
 30
0.0
 11
10350.0
 21
16394.85
 31
0.0
  0
LINE
  5
39C
330
548
100
AcDbEntity
  8
YKK_N1
  6
ByBlock
100
AcDbLine
 10
10400.0
 20
16481.45254038
 30
0.0
 11
10300.0
 21
16481.45254038
 31
0.0
  0
LINE
  5
39D
330
548
100
AcDbEntity
  8
YKK_N1
  6
ByBlock
100
AcDbLine
 10
10350.0
 20
16394.85
 30
0.0
 11
10400.0
 21
16481.45254038
 31
0.0
  0
LINE
  5
39E
330
548
100
AcDbEntity
  8
YKK_N1
  6
ByBlock
100
AcDbLine
 10
10350.0
 20
16394.85
 30
0.0
 11
10350.0
 21
16494.85
 31
0.0
  0
TEXT
  5
39F
330
548
100
AcDbEntity
  8
YKK_N1
100
AcDbText
 10
10086.28571429
 20
17475.85
 30
0.0
 40
60.0
  1
120
 41
0.8
100
AcDbText
  0
LINE
  5
3A0
330
548
100
AcDbEntity
  8
YKK_N1
  6
Continuous
100
AcDbLine
 10
10070.0
 20
17465.85
 30
0.0
 11
10226.57142857
 21
17465.85
 31
0.0
  0
LINE
  5
3A1
330
548
100
AcDbEntity
  8
YKK_N1
100
AcDbLine
 10
9950.0
 20
17465.85
 30
0.0
 11
9970.0
 21
17465.85
 31
0.0
  0
CIRCLE
  5
3A2
330
548
100
AcDbEntity
  8
YKK_N1
100
AcDbCircle
 10
9950.0
 20
17465.85
 30
0.0
 40
6.5
  0
CIRCLE
  5
3A3
330
548
100
AcDbEntity
  8
YKK_N1
100
AcDbCircle
 10
9950.0
 20
17465.85
 30
0.0
 40
10.0
  0
LINE
  5
3A4
330
548
100
AcDbEntity
  8
YKK_N1
100
AcDbLine
 10
10070.0
 20
17465.85
 30
0.0
 11
10050.0
 21
17465.85
 31
0.0
  0
CIRCLE
  5
3A5
330
548
100
AcDbEntity
  8
YKK_N1
100
AcDbCircle
 10
10070.0
 20
17465.85
 30
0.0
 40
6.5
  0
CIRCLE
  5
3A6
330
548
100
AcDbEntity
  8
YKK_N1
100
AcDbCircle
 10
10070.0
 20
17465.85
 30
0.0
 40
10.0
  0
LINE
  5
3A7
330
548
100
AcDbEntity
  8
YKK_N1
100
AcDbLine
 10
9950.0
 20
17465.85
 30
0.0
 11
9930.0
 21
17465.85
 31
0.0
  0
CIRCLE
  5
3A8
330
548
100
AcDbEntity
  8
YKK_N1
100
AcDbCircle
 10
9950.0
 20
17465.85
 30
0.0
 40
6.5
  0
CIRCLE
  5
3A9
330
548
100
AcDbEntity
  8
YKK_N1
100
AcDbCircle
 10
9950.0
 20
17465.85
 30
0.0
 40
10.0
  0
LINE
  5
3AA
330
548
100
AcDbEntity
  8
YKK_N1
100
AcDbLine
 10
9930.0
 20
17465.85
 30
0.0
 11
9870.0
 21
17465.85
 31
0.0
  0
LINE
  5
3AB
330
548
100
AcDbEntity
  8
YKK_N1
100
AcDbLine
 10
9950.0
 20
17515.85
 30
0.0
 11
9950.0
 21
17495.85
 31
0.0
  0
LINE
  5
3AC
330
548
100
AcDbEntity
  8
YKK_N1
  6
Continuous
100
AcDbLine
 10
9970.0
 20
17465.85
 30
0.0
 11
10050.0
 21
17465.85
 31
0.0
  0
LINE
  5
3AD
330
548
100
AcDbEntity
  8
YKK_N1
  6
Continuous
100
AcDbLine
 10
9950.0
 20
17525.85
 30
0.0
 11
9950.0
 21
17495.85
 31
0.0
  0
LINE
  5
3AE
330
548
100
AcDbEntity
  8
YKK_N1
  6
ByBlock
100
AcDbLine
 10
10300.0
 20
17808.24745962
 30
0.0
 11
10400.0
 21
17808.24745962
 31
0.0
  0
LINE
  5
3AF
330
548
100
AcDbEntity
  8
YKK_Z1
  6
Continuous
100
AcDbLine
 10
10048.0
 20
18294.85
 30
0.0
 11
10048.0
 21
17934.85
 31
0.0
  0
LINE
  5
3B0
330
548
100
AcDbEntity
  8
YKK_Z1
  6
Continuous
100
AcDbLine
 10
10060.0
 20
17934.85
 30
0.0
 11
10060.0
 21
18294.85
 31
0.0
  0
LINE
  5
3B1
330
548
100
AcDbEntity
  8
YKK_Z1
  6
HIDDEN
100
AcDbLine
 10
9880.0
 20
18294.85
 30
0.0
 11
9880.0
 21
17954.85
 31
0.0
  0
LINE
  5
3B2
330
548
100
AcDbEntity
  8
YKK_Z1
  6
CENTER
100
AcDbLine
 10
9955.0
 20
17954.85
 30
0.0
 11
9955.0
 21
18294.85
 31
0.0
  0
LINE
  5
3B3
330
548
100
AcDbEntity
  8
YKK_Z1
  6
Continuous
100
AcDbLine
 10
9860.0
 20
18096.56582933
 30
0.0
 11
10030.0
 21
18266.565741
 31
0.0
  0
LINE
  5
3B4
330
548
100
AcDbEntity
  8
YKK_Z1
  6
Continuous
100
AcDbLine
 10
9860.0
 20
18116.36481063
 30
0.0
 11
10030.0
 21
18286.3647223
 31
0.0
  0
LINE
  5
3B5
330
548
100
AcDbEntity
  8
YKK_Z1
  6
Continuous
100
AcDbLine
 10
9860.0
 20
18124.85008833
 30
0.0
 11
10030.0
 21
18294.85
 31
0.0
  0
LINE
  5
3B6
330
548
100
AcDbEntity
  8
YKK_Z1
  6
Continuous
100
AcDbLine
 10
9860.0
 20
17954.85
 30
0.0
 11
9860.0
 21
18294.85
 31
0.0
  0
LINE
  5
3B7
330
548
100
AcDbEntity
  8
YKK_Z1
  6
Continuous
100
AcDbLine
 10
10030.0
 20
18294.85
 30
0.0
 11
10030.0
 21
17979.85
 31
0.0
  0
LINE
  5
3B8
330
548
100
AcDbEntity
  8
YKK_N1
100
AcDbLine
 10
10010.0
 20
17894.85
 30
0.0
 11
10380.0
 21
17894.85
 31
0.0
  0
LINE
  5
3B9
330
548
100
AcDbEntity
  8
YKK_Z1
  6
Continuous
100
AcDbLine
 10
10048.0
 20
17934.85
 30
0.0
 11
10060.0
 21
17934.85
 31
0.0
  0
LINE
  5
3BA
330
548
100
AcDbEntity
  8
YKK_Z1
  6
Continuous
100
AcDbLine
 10
9860.0
 20
17934.85
 30
0.0
 11
9860.0
 21
17954.85
 31
0.0
  0
LINE
  5
3BB
330
548
100
AcDbEntity
  8
YKK_Z1
  6
Continuous
100
AcDbLine
 10
10070.0
 20
17913.42864265
 30
0.0
 11
10066.42135549
 21
17909.85
 31
0.0
  0
LINE
  5
3BC
330
548
100
AcDbEntity
  8
YKK_Z1
  6
Continuous
100
AcDbLine
 10
10063.13709479
 20
17934.85
 30
0.0
 11
10038.1370818
 21
17909.85
 31
0.0
  0
LINE
  5
3BD
330
548
100
AcDbEntity
  8
YKK_Z1
  6
Continuous
100
AcDbLine
 10
10034.85282109
 20
17934.85
 30
0.0
 11
10009.8528081
 21
17909.85
 31
0.0
  0
LINE
  5
3BE
330
548
100
AcDbEntity
  8
YKK_Z1
  6
Continuous
100
AcDbLine
 10
10006.56854739
 20
17934.85
 30
0.0
 11
9981.5685344
 21
17909.85
 31
0.0
  0
LINE
  5
3BF
330
548
100
AcDbEntity
  8
YKK_Z1
  6
Continuous
100
AcDbLine
 10
9978.2842737
 20
17934.85
 30
0.0
 11
9953.28426071
 21
17909.85
 31
0.0
  0
LINE
  5
3C1
330
548
100
AcDbEntity
  8
YKK_Z1
  6
Continuous
100
AcDbLine
 10
9950.0
 20
17934.85
 30
0.0
 11
9950.0
 21
17909.85
 31
0.0
  0
LINE
  5
3C2
330
548
100
AcDbEntity
  8
YKK_Z1
  6
Continuous
100
AcDbLine
 10
10070.0
 20
17934.85
 30
0.0
 11
9950.0
 21
17934.85
 31
0.0
  0
LINE
  5
3C3
330
548
100
AcDbEntity
  8
YKK_Z1
  6
Continuous
100
AcDbLine
 10
10070.0
 20
17909.85
 30
0.0
 11
10070.0
 21
17934.85
 31
0.0
  0
LINE
  5
3C4
330
548
100
AcDbEntity
  8
YKK_Z1
  6
Continuous
100
AcDbLine
 10
9950.0
 20
17909.85
 30
0.0
 11
10070.0
 21
17909.85
 31
0.0
  0
LINE
  5
3C5
330
548
100
AcDbEntity
  8
YKK_Z1
  6
Continuous
100
AcDbLine
 10
10020.46999225
 20
17979.85
 30
0.0
 11
10030.0
 21
17989.3800028
 31
0.0
  0
LINE
  5
3C6
330
548
100
AcDbEntity
  8
YKK_Z1
  6
Continuous
100
AcDbLine
 10
10011.98471014
 20
17979.85
 30
0.0
 11
10030.0
 21
17997.8652805
 31
0.0
  0
LINE
  5
3C7
330
548
100
AcDbEntity
  8
YKK_Z1
  6
Continuous
100
AcDbLine
 10
9910.0
 20
17954.85
 30
0.0
 11
9860.0
 21
17954.85
 31
0.0
  0
LINE
  5
3C8
330
548
100
AcDbEntity
  8
YKK_Z1
  6
Continuous
100
AcDbLine
 10
9920.0
 20
17979.85
 30
0.0
 11
9910.0
 21
17954.85
 31
0.0
  0
LINE
  5
3C9
330
548
100
AcDbEntity
  8
YKK_Z1
  6
Continuous
100
AcDbLine
 10
10030.0
 20
17979.85
 30
0.0
 11
9920.0
 21
17979.85
 31
0.0
  0
LINE
  5
3CA
330
548
100
AcDbEntity
  8
YKK_C1
100
AcDbLine
 10
9892.0
 20
17814.85
 30
0.0
 11
9892.0
 21
17830.85
 31
0.0
  0
LINE
  5
3CB
330
548
100
AcDbEntity
  8
YKK_C1
100
AcDbLine
 10
9900.0
 20
17814.85
 30
0.0
 11
9892.0
 21
17814.85
 31
0.0
  0
LINE
  5
3CC
330
548
100
AcDbEntity
  8
YKK_C1
100
AcDbLine
 10
9900.0
 20
17814.85
 30
0.0
 11
9900.0
 21
17869.85
 31
0.0
  0
LINE
  5
3CD
330
548
100
AcDbEntity
  8
YKK_C1
100
AcDbLine
 10
9905.0
 20
17944.85
 30
0.0
 11
9905.0
 21
17929.85
 31
0.0
  0
LINE
  5
3CE
330
548
100
AcDbEntity
  8
YKK_C1
100
AcDbLine
 10
9905.0
 20
17929.85
 30
0.0
 11
9914.0
 21
17929.85
 31
0.0
  0
LINE
  5
3CF
330
548
100
AcDbEntity
  8
YKK_C1
100
AcDbLine
 10
9905.0
 20
17919.85
 30
0.0
 11
9905.0
 21
17929.85
 31
0.0
  0
LINE
  5
3D0
330
548
100
AcDbEntity
  8
YKK_C1
100
AcDbLine
 10
9950.0
 20
17919.85
 30
0.0
 11
9905.0
 21
17919.85
 31
0.0
  0
LINE
  5
3D1
330
548
100
AcDbEntity
  8
YKK_C1
100
AcDbLine
 10
9950.0
 20
17929.85
 30
0.0
 11
9941.0
 21
17929.85
 31
0.0
  0
LINE
  5
3D2
330
548
100
AcDbEntity
  8
YKK_C1
100
AcDbLine
 10
9950.0
 20
17894.85
 30
0.0
 11
9950.0
 21
17929.85
 31
0.0
  0
LINE
  5
3D3
330
548
100
AcDbEntity
  8
YKK_C1
100
AcDbLine
 10
9904.0
 20
17894.85
 30
0.0
 11
9904.0
 21
17864.85
 31
0.0
  0
LINE
  5
3D4
330
548
100
AcDbEntity
  8
YKK_N1
  6
ByBlock
100
AcDbLine
 10
14300.0
 20
17808.24745962
 30
0.0
 11
14250.0
 21
17894.85
 31
0.0
  0
LINE
  5
3D5
330
548
100
AcDbEntity
  8
YKK_N1
  6
ByBlock
100
AcDbLine
 10
14250.0
 20
17894.85
 30
0.0
 11
14200.0
 21
17808.24745962
 31
0.0
  0
LINE
  5
3D6
330
548
100
AcDbEntity
  8
YKK_N1
  6
ByBlock
100
AcDbLine
 10
14250.0
 20
17894.85
 30
0.0
 11
14250.0
 21
17794.85
 31
0.0
  0
LINE
  5
3D7
330
548
100
AcDbEntity
  8
YKK_N1
100
AcDbLine
 10
14050.0
 20
16914.85
 30
0.0
 11
14050.0
 21
17874.85
 31
0.0
  0
LINE
  5
3D8
330
548
100
AcDbEntity
  8
YKK_A1
  6
CENTER
100
AcDbLine
 10
12780.0
 20
17379.85
 30
0.0
 11
13620.0
 21
17864.85
 31
0.0
  0
LINE
  5
3D9
330
548
100
AcDbEntity
  8
YKK_A1
100
AcDbLine
 10
12830.0
 20
17814.85
 30
0.0
 11
12830.0
 21
16939.85
 31
0.0
  0
LINE
  5
3DA
330
548
100
AcDbEntity
  8
YKK_A1
100
AcDbLine
 10
13570.0
 20
16939.85
 30
0.0
 11
13570.0
 21
17814.85
 31
0.0
  0
LINE
  5
3DB
330
548
100
AcDbEntity
  8
YKK_A1
100
AcDbLine
 10
12780.0
 20
17864.85
 30
0.0
 11
12780.0
 21
16894.85
 31
0.0
  0
LINE
  5
3DC
330
548
100
AcDbEntity
  8
YKK_A1
100
AcDbLine
 10
13620.0
 20
16894.85
 30
0.0
 11
13620.0
 21
17864.85
 31
0.0
  0
LINE
  5
3DD
330
548
100
AcDbEntity
  8
YKK_A1
100
AcDbLine
 10
12750.0
 20
17894.85
 30
0.0
 11
12750.0
 21
16894.85
 31
0.0
  0
LINE
  5
3DE
330
548
100
AcDbEntity
  8
YKK_A1
100
AcDbLine
 10
13650.0
 20
16894.85
 30
0.0
 11
13650.0
 21
17894.85
 31
0.0
  0
TEXT
  5
3DF
330
548
100
AcDbEntity
  8
YKK_A1
100
AcDbText
 10
12919.2
 20
16969.85
 30
0.0
 40
60.0
  1
複層ガラス 5+A12+5
 41
0.8
 72
     2
 11
13540.0
 21
16969.85
 31
0.0
100
AcDbText
  0
LINE
  5
3E0
330
548
100
AcDbEntity
  8
YKK_A1
  6
CENTER
100
AcDbLine
 10
12780.0
 20
17379.85
 30
0.0
 11
13620.0
 21
16894.85
 31
0.0
  0
LINE
  5
3E1
330
548
100
AcDbEntity
  8
YKK_A1
100
AcDbLine
 10
12830.0
 20
16939.85
 30
0.0
 11
13570.0
 21
16939.85
 31
0.0
  0
LINE
  5
3E2
330
548
100
AcDbEntity
  8
YKK_A1
100
AcDbLine
 10
12780.0
 20
16894.85
 30
0.0
 11
13620.0
 21
16894.85
 31
0.0
  0
LINE
  5
3E3
330
548
100
AcDbEntity
  8
YKK_A1
100
AcDbLine
 10
12750.0
 20
16894.85
 30
0.0
 11
13650.0
 21
16894.85
 31
0.0
  0
LINE
  5
3E4
330
548
100
AcDbEntity
  8
YKK_A1
100
AcDbLine
 10
13650.0
 20
16894.85
 30
0.0
 11
12750.0
 21
16894.85
 31
0.0
  0
LINE
  5
3E5
330
548
100
AcDbEntity
  8
YKK_A1
100
AcDbLine
 10
12750.0
 20
16794.85
 30
0.0
 11
13650.0
 21
16794.85
 31
0.0
  0
LINE
  5
3E6
330
548
100
AcDbEntity
  8
YKK_A1
100
AcDbLine
 10
13620.0
 20
16794.85
 30
0.0
 11
12780.0
 21
16794.85
 31
0.0
  0
LINE
  5
3E7
330
548
100
AcDbEntity
  8
YKK_A1
100
AcDbLine
 10
13650.0
 20
16794.85
 30
0.0
 11
12750.0
 21
16794.85
 31
0.0
  0
LINE
  5
3E8
330
548
100
AcDbEntity
  8
YKK_A2
  6
ByBlock
100
AcDbLine
 10
12884.0
 20
16937.35
 30
0.0
 11
12956.80479452
 21
16937.35
 31
0.0
  0
LINE
  5
3E9
330
548
100
AcDbEntity
  8
YKK_A2
  6
ByBlock
100
AcDbLine
 10
12867.0
 20
16927.35
 30
0.0
 11
12955.77739726
 21
16927.35
 31
0.0
  0
LINE
  5
3EA
330
548
100
AcDbEntity
  8
YKK_A2
  6
ByBlock
100
AcDbLine
 10
12921.0
 20
16927.35
 30
0.0
 11
12921.0
 21
16905.85
 31
0.0
  0
LINE
  5
3EB
330
548
100
AcDbEntity
  8
YKK_A2
  6
ByBlock
100
AcDbLine
 10
12884.0
 20
16937.35
 30
0.0
 11
12884.0
 21
16927.35
 31
0.0
  0
CIRCLE
  5
3EC
330
548
100
AcDbEntity
  8
YKK_A2
  6
ByBlock
100
AcDbCircle
 10
12874.0
 20
16911.85
 30
0.0
 40
4.0
  0
LINE
  5
3ED
330
548
100
AcDbEntity
  8
YKK_A2
  6
ByBlock
100
AcDbLine
 10
12867.0
 20
16927.35
 30
0.0
 11
12867.0
 21
16905.85
 31
0.0
  0
CIRCLE
  5
3EE
330
548
100
AcDbEntity
  8
YKK_A2
  6
ByBlock
100
AcDbCircle
 10
12914.0
 20
16911.85
 30
0.0
 40
4.0
  0
LINE
  5
3EF
330
548
100
AcDbEntity
  8
YKK_A2
  6
ByBlock
100
AcDbLine
 10
12867.0
 20
16905.85
 30
0.0
 11
12921.0
 21
16905.85
 31
0.0
  0
LINE
  5
3F0
330
548
100
AcDbEntity
  8
YKK_A1
100
AcDbLine
 10
12750.0
 20
16894.85
 30
0.0
 11
12750.0
 21
16794.85
 31
0.0
  0
LINE
  5
3F1
330
548
100
AcDbEntity
  8
YKK_A2
  6
ByBlock
100
AcDbLine
 10
13080.0
 20
16937.35
 30
0.0
 11
13080.0
 21
16927.35
 31
0.0
  0
LINE
  5
3F2
330
548
100
AcDbEntity
  8
YKK_A2
  6
ByBlock
100
AcDbLine
 10
12982.0
 20
16952.55
 30
0.0
 11
12982.0
 21
16946.55
 31
0.0
  0
LINE
  5
3F3
330
548
100
AcDbEntity
  8
YKK_A2
  6
ByBlock
100
AcDbLine
 10
12968.0
 20
16952.55
 30
0.0
 11
12968.0
 21
16946.55
 31
0.0
  0
LINE
  5
3F4
330
548
100
AcDbEntity
  8
YKK_A2
  6
ByBlock
100
AcDbLine
 10
12968.0
 20
16952.55
 30
0.0
 11
12982.0
 21
16952.55
 31
0.0
  0
LINE
  5
3F5
330
548
100
AcDbEntity
  8
YKK_A2
  6
ByBlock
100
AcDbLine
 10
12982.0
 20
16946.55
 30
0.0
 11
12992.25
 21
16946.55
 31
0.0
  0
LINE
  5
3F6
330
548
100
AcDbEntity
  8
YKK_A2
  6
ByBlock
100
AcDbLine
 10
13007.5
 20
16896.85
 30
0.0
 11
13007.5
 21
16894.85
 31
0.0
  0
LINE
  5
3F7
330
548
100
AcDbEntity
  8
YKK_A2
  6
ByBlock
100
AcDbLine
 10
12990.0
 20
16910.35
 30
0.0
 11
12990.0
 21
16896.85
 31
0.0
  0
LINE
  5
3F8
330
548
100
AcDbEntity
  8
YKK_A2
  6
ByBlock
100
AcDbLine
 10
12985.0
 20
16917.35
 30
0.0
 11
12985.0
 21
16910.35
 31
0.0
  0
LINE
  5
3F9
330
548
100
AcDbEntity
  8
YKK_A2
  6
ByBlock
100
AcDbLine
 10
12965.0
 20
16917.35
 30
0.0
 11
12965.0
 21
16910.35
 31
0.0
  0
LINE
  5
3FA
330
548
100
AcDbEntity
  8
YKK_A2
  6
ByBlock
100
AcDbLine
 10
12985.0
 20
16910.35
 30
0.0
 11
12990.0
 21
16910.35
 31
0.0
  0
LINE
  5
3FB
330
548
100
AcDbEntity
  8
YKK_A2
  6
ByBlock
100
AcDbLine
 10
12985.0
 20
16917.35
 30
0.0
 11
12995.25
 21
16917.35
 31
0.0
  0
LINE
  5
3FC
330
548
100
AcDbEntity
  8
YKK_A2
  6
ByBlock
100
AcDbLine
 10
12992.25
 20
16946.55
 30
0.0
 11
12995.25
 21
16917.35
 31
0.0
  0
LINE
  5
3FD
330
548
100
AcDbEntity
  8
YKK_A2
  6
ByBlock
100
AcDbLine
 10
12960.0
 20
16910.35
 30
0.0
 11
12960.0
 21
16896.85
 31
0.0
  0
LINE
  5
3FE
330
548
100
AcDbEntity
  8
YKK_A2
  6
ByBlock
100
AcDbLine
 10
12942.5
 20
16896.85
 30
0.0
 11
12942.5
 21
16894.85
 31
0.0
  0
LINE
  5
3FF
330
548
100
AcDbEntity
  8
YKK_A2
  6
ByBlock
100
AcDbLine
 10
12957.75
 20
16946.55
 30
0.0
 11
12954.75
 21
16917.35
 31
0.0
  0
LINE
  5
400
330
548
100
AcDbEntity
  8
YKK_A2
  6
ByBlock
100
AcDbLine
 10
12957.75
 20
16946.55
 30
0.0
 11
12968.0
 21
16946.55
 31
0.0
  0
LINE
  5
401
330
548
100
AcDbEntity
  8
YKK_A2
  6
ByBlock
100
AcDbLine
 10
12960.0
 20
16910.35
 30
0.0
 11
12965.0
 21
16910.35
 31
0.0
  0
LINE
  5
402
330
548
100
AcDbEntity
  8
YKK_A2
  6
ByBlock
100
AcDbLine
 10
12954.75
 20
16917.35
 30
0.0
 11
12965.0
 21
16917.35
 31
0.0
  0
LINE
  5
403
330
548
100
AcDbEntity
  8
YKK_A2
  6
ByBlock
100
AcDbLine
 10
12942.5
 20
16896.85
 30
0.0
 11
13007.5
 21
16896.85
 31
0.0
  0
LINE
  5
404
330
548
100
AcDbEntity
  8
YKK_A2
  6
ByBlock
100
AcDbLine
 10
12942.5
 20
16894.85
 30
0.0
 11
13007.5
 21
16894.85
 31
0.0
  0
LINE
  5
405
330
548
100
AcDbEntity
  8
YKK_A2
  6
ByBlock
100
AcDbLine
 10
12994.22260274
 20
16927.35
 30
0.0
 11
13080.0
 21
16927.35
 31
0.0
  0
LINE
  5
406
330
548
100
AcDbEntity
  8
YKK_A2
  6
ByBlock
100
AcDbLine
 10
12993.19520548
 20
16937.35
 30
0.0
 11
13080.0
 21
16937.35
 31
0.0
  0
TEXT
  5
407
330
548
100
AcDbEntity
  8
YKK_N1
100
AcDbText
 10
13425.0
 20
17026.27857143
 30
0.0
 40
60.0
  1
400
 50
90.0
 41
0.8
100
AcDbText
1001
ACAD
1000
MTEXTBEGIN
1070
    73
1070
     1
1070
    44
1040
1.0
1070
    74
1070
     0
1000
MTEXTEND
  0
LINE
  5
408
330
548
100
AcDbEntity
  8
YKK_N1
100
AcDbLine
 10
13435.0
 20
17274.85
 30
0.0
 11
13435.0
 21
16914.85
 31
0.0
  0
LINE
  5
409
330
548
100
AcDbEntity
  8
YKK_N1
100
AcDbLine
 10
13710.0
 20
16794.85
 30
0.0
 11
14080.0
 21
16794.85
 31
0.0
  0
LINE
  5
40A
330
548
100
AcDbEntity
  8
YKK_N1
100
AcDbLine
 10
13710.0
 20
16894.85
 30
0.0
 11
14080.0
 21
16894.85
 31
0.0
  0
LINE
  5
40B
330
548
100
AcDbEntity
  8
YKK_N1
100
AcDbLine
 10
13710.0
 20
16794.85
 30
0.0
 11
14080.0
 21
16794.85
 31
0.0
  0
LINE
  5
40C
330
548
100
AcDbEntity
  8
YKK_N1
100
AcDbLine
 10
13710.0
 20
16894.85
 30
0.0
 11
14080.0
 21
16894.85
 31
0.0
  0
LINE
  5
40D
330
548
100
AcDbEntity
  8
YKK_N1
100
AcDbLine
 10
13435.0
 20
16894.85
 30
0.0
 11
13435.0
 21
16914.85
 31
0.0
  0
CIRCLE
  5
40E
330
548
100
AcDbEntity
  8
YKK_N1
100
AcDbCircle
 10
13435.0
 20
16894.85
 30
0.0
 40
6.5
  0
CIRCLE
  5
40F
330
548
100
AcDbEntity
  8
YKK_N1
100
AcDbCircle
 10
13435.0
 20
16894.85
 30
0.0
 40
10.0
  0
LINE
  5
410
330
548
100
AcDbEntity
  8
YKK_N1
100
AcDbLine
 10
13375.0
 20
16894.85
 30
0.0
 11
13405.0
 21
16894.85
 31
0.0
  0
LINE
  5
411
330
548
100
AcDbEntity
  8
YKK_A1
100
AcDbLine
 10
13650.0
 20
16794.85
 30
0.0
 11
13650.0
 21
16894.85
 31
0.0
  0
LINE
  5
412
330
548
100
AcDbEntity
  8
YKK_N1
100
AcDbLine
 10
14050.0
 20
16894.85
 30
0.0
 11
14050.0
 21
16914.85
 31
0.0
  0
CIRCLE
  5
413
330
548
100
AcDbEntity
  8
YKK_N1
100
AcDbCircle
 10
14050.0
 20
16894.85
 30
0.0
 40
6.5
  0
CIRCLE
  5
414
330
548
100
AcDbEntity
  8
YKK_N1
100
AcDbCircle
 10
14050.0
 20
16894.85
 30
0.0
 40
10.0
  0
LINE
  5
415
330
548
100
AcDbEntity
  8
YKK_N1
100
AcDbLine
 10
14050.0
 20
16794.85
 30
0.0
 11
14050.0
 21
16814.85
 31
0.0
  0
CIRCLE
  5
416
330
548
100
AcDbEntity
  8
YKK_N1
100
AcDbCircle
 10
14050.0
 20
16794.85
 30
0.0
 40
6.5
  0
CIRCLE
  5
417
330
548
100
AcDbEntity
  8
YKK_N1
100
AcDbCircle
 10
14050.0
 20
16794.85
 30
0.0
 40
10.0
  0
LINE
  5
418
330
548
100
AcDbEntity
  8
YKK_N1
100
AcDbLine
 10
14050.0
 20
16894.85
 30
0.0
 11
14050.0
 21
16874.85
 31
0.0
  0
CIRCLE
  5
419
330
548
100
AcDbEntity
  8
YKK_N1
100
AcDbCircle
 10
14050.0
 20
16894.85
 30
0.0
 40
6.5
  0
CIRCLE
  5
41A
330
548
100
AcDbEntity
  8
YKK_N1
100
AcDbCircle
 10
14050.0
 20
16894.85
 30
0.0
 40
10.0
  0
LINE
  5
41B
330
548
100
AcDbEntity
  8
YKK_N1
100
AcDbLine
 10
14050.0
 20
16794.85
 30
0.0
 11
14050.0
 21
16774.85
 31
0.0
  0
CIRCLE
  5
41C
330
548
100
AcDbEntity
  8
YKK_N1
100
AcDbCircle
 10
14050.0
 20
16794.85
 30
0.0
 40
6.5
  0
CIRCLE
  5
41D
330
548
100
AcDbEntity
  8
YKK_N1
100
AcDbCircle
 10
14050.0
 20
16794.85
 30
0.0
 40
10.0
  0
LINE
  5
41E
330
548
100
AcDbEntity
  8
YKK_N1
100
AcDbLine
 10
14050.0
 20
16814.85
 30
0.0
 11
14050.0
 21
16874.85
 31
0.0
  0
TEXT
  5
41F
330
548
100
AcDbEntity
  8
YKK_N1
100
AcDbText
 10
14240.0
 20
16697.42142857
 30
0.0
 40
60.0
  1
H=2100
 50
90.0
 41
0.8
100
AcDbText
1001
ACAD
1000
MTEXTBEGIN
1070
    73
1070
     1
1070
    44
1040
1.0
1070
    74
1070
     0
1000
MTEXTEND
  0
TEXT
  5
420
330
548
100
AcDbEntity
  8
YKK_N1
100
AcDbText
 10
14147.5
 20
16772.85
 30
0.0
 40
60.0
  1
100
 50
90.0
 41
0.8
100
AcDbText
1001
ACAD
1000
MTEXTBEGIN
1070
    73
1070
     1
1070
    44
1040
1.0
1070
    74
1070
     0
1000
MTEXTEND
  0
LINE
  5
421
330
548
100
AcDbEntity
  8
YKK_N1
100
AcDbLine
 10
13535.0
 20
17294.85
 30
0.0
 11
13405.0
 21
17294.85
 31
0.0
  0
LINE
  5
422
330
548
100
AcDbEntity
  8
YKK_N1
100
AcDbLine
 10
13435.0
 20
17294.85
 30
0.0
 11
13435.0
 21
17274.85
 31
0.0
  0
CIRCLE
  5
423
330
548
100
AcDbEntity
  8
YKK_N1
100
AcDbCircle
 10
13435.0
 20
17294.85
 30
0.0
 40
6.5
  0
CIRCLE
  5
424
330
548
100
AcDbEntity
  8
YKK_N1
100
AcDbCircle
 10
13435.0
 20
17294.85
 30
0.0
 40
10.0
  0
LINE
  5
425
330
548
100
AcDbEntity
  8
YKK_A2
  6
ByBlock
100
AcDbLine
 10
13605.0
 20
17284.85
 30
0.0
 11
13604.25
 21
17284.85
 31
0.0
  0
ARC
  5
426
330
548
100
AcDbEntity
  8
YKK_A2
  6
ByBlock
100
AcDbCircle
 10
13604.25
 20
17281.85
 30
0.0
 40
3.0
100
AcDbArc
 50
90.0
 51
180.0
  0
LINE
  5
427
330
548
100
AcDbEntity
  8
YKK_A2
  6
ByBlock
100
AcDbLine
 10
13601.25
 20
17258.85
 30
0.0
 11
13605.0
 21
17258.85
 31
0.0
  0
LINE
  5
428
330
548
100
AcDbEntity
  8
YKK_A2
  6
ByBlock
100
AcDbLine
 10
13605.0
 20
17258.85
 30
0.0
 11
13605.0
 21
17324.85
 31
0.0
  0
LINE
  5
429
330
548
100
AcDbEntity
  8
YKK_A2
  6
ByBlock
100
AcDbLine
 10
13605.0
 20
17304.85
 30
0.0
 11
13601.25
 21
17294.85
 31
0.0
  0
LINE
  5
42A
330
548
100
AcDbEntity
  8
YKK_A2
  6
ByBlock
100
AcDbLine
 10
13601.25
 20
17294.85
 30
0.0
 11
13601.25
 21
17164.85
 31
0.0
  0
LINE
  5
42B
330
548
100
AcDbEntity
  8
YKK_A2
  6
ByBlock
100
AcDbLine
 10
13585.75
 20
17284.85
 30
0.0
 11
13585.0
 21
17284.85
 31
0.0
  0
ARC
  5
42D
330
548
100
AcDbEntity
  8
YKK_A2
  6
ByBlock
100
AcDbCircle
 10
13585.75
 20
17281.85
 30
0.0
 40
3.0
100
AcDbArc
 50
0.0
 51
90.0
  0
LINE
  5
42E
330
548
100
AcDbEntity
  8
YKK_A2
  6
ByBlock
100
AcDbLine
 10
13585.0
 20
17258.85
 30
0.0
 11
13588.75
 21
17258.85
 31
0.0
  0
LINE
  5
42F
330
548
100
AcDbEntity
  8
YKK_A2
  6
ByBlock
100
AcDbLine
 10
13585.0
 20
17324.85
 30
0.0
 11
13585.0
 21
17258.85
 31
0.0
  0
LINE
  5
430
330
548
100
AcDbEntity
  8
YKK_A2
  6
ByBlock
100
AcDbLine
 10
13585.0
 20
17304.85
 30
0.0
 11
13588.75
 21
17294.85
 31
0.0
  0
LINE
  5
431
330
548
100
AcDbEntity
  8
YKK_A2
  6
ByBlock
100
AcDbLine
 10
13588.75
 20
17294.85
 30
0.0
 11
13588.75
 21
17164.85
 31
0.0
  0
LINE
  5
432
330
548
100
AcDbEntity
  8
YKK_A2
  6
ByBlock
100
AcDbLine
 10
13605.0
 20
17324.85
 30
0.0
 11
13585.0
 21
17324.85
 31
0.0
  0
LINE
  5
433
330
548
100
AcDbEntity
  8
YKK_A2
  6
ByBlock
100
AcDbLine
 10
13601.25
 20
17164.85
 30
0.0
 11
13588.75
 21
17164.85
 31
0.0
  0
LINE
  5
434
330
548
100
AcDbEntity
  8
YKK_A2
  6
ByBlock
100
AcDbLine
 10
13605.0
 20
17304.85
 30
0.0
 11
13585.0
 21
17304.85
 31
0.0
  0
LINE
  5
435
330
548
100
AcDbEntity
  8
YKK_A2
  6
ByBlock
100
AcDbLine
 10
13588.75
 20
17294.85
 30
0.0
 11
13601.25
 21
17294.85
 31
0.0
  0
TEXT
  5
436
330
548
100
AcDbEntity
  8
YKK_N1
100
AcDbText
 10
14040.0
 20
17299.99285714
 30
0.0
 40
60.0
  1
1000
 50
90.0
 41
0.8
100
AcDbText
1001
ACAD
1000
MTEXTBEGIN
1070
    73
1070
     1
1070
    44
1040
1.0
1070
    74
1070
     0
1000
MTEXTEND
  0
LINE
  5
437
330
548
100
AcDbEntity
  8
YKK_N1
  6
ByBlock
100
AcDbLine
 10
14200.0
 20
17808.24745962
 30
0.0
 11
14300.0
 21
17808.24745962
 31
0.0
  0
LINE
  5
438
330
548
100
AcDbEntity
  8
YKK_A1
100
AcDbLine
 10
13570.0
 20
17814.85
 30
0.0
 11
12830.0
 21
17814.85
 31
0.0
  0
LINE
  5
439
330
548
100
AcDbEntity
  8
YKK_A1
100
AcDbLine
 10
13620.0
 20
17864.85
 30
0.0
 11
12780.0
 21
17864.85
 31
0.0
  0
LINE
  5
43A
330
548
100
AcDbEntity
  8
YKK_A1
100
AcDbLine
 10
13650.0
 20
17894.85
 30
0.0
 11
12750.0
 21
17894.85
 31
0.0
  0
LINE
  5
43B
330
548
100
AcDbEntity
  8
YKK_A1
100
AcDbLine
 10
13665.0
 20
17909.85
 30
0.0
 11
12735.0
 21
17909.85
 31
0.0
  0
LINE
  5
43C
330
548
100
AcDbEntity
  8
YKK_N1
100
AcDbLine
 10
13710.0
 20
17894.85
 30
0.0
 11
14080.0
 21
17894.85
 31
0.0
  0
LINE
  5
43D
330
548
100
AcDbEntity
  8
YKK_N1
100
AcDbLine
 10
13710.0
 20
17894.85
 30
0.0
 11
14280.0
 21
17894.85
 31
0.0
  0
LINE
  5
43E
330
548
100
AcDbEntity
  8
YKK_N1
100
AcDbLine
 10
14050.0
 20
17894.85
 30
0.0
 11
14050.0
 21
17874.85
 31
0.0
  0
CIRCLE
  5
43F
330
548
100
AcDbEntity
  8
YKK_N1
100
AcDbCircle
 10
14050.0
 20
17894.85
 30
0.0
 40
6.5
  0
CIRCLE
  5
440
330
548
100
AcDbEntity
  8
YKK_N1
100
AcDbCircle
 10
14050.0
 20
17894.85
 30
0.0
 40
10.0
  0
LINE
  5
441
330
548
100
AcDbEntity
  8
YKK_F1
100
AcDbLine
 10
17100.0
 20
0.0
 30
0.0
 11
17100.0
 21
19500.0
 31
0.0
  0
LINE
  5
442
330
548
100
AcDbEntity
  8
YKK_F1
100
AcDbLine
 10
22800.0
 20
0.0
 30
0.0
 11
22800.0
 21
19500.0
 31
0.0
  0
LINE
  5
443
330
548
100
AcDbEntity
  8
YKK_F1
100
AcDbLine
 10
28500.0
 20
0.0
 30
0.0
 11
28500.0
 21
20000.0
 31
0.0
  0
LINE
  5
444
330
548
100
AcDbEntity
  8
YKK_F1
100
AcDbLine
 10
28681.0155
 20
0.0
 30
0.0
 11
28681.0155
 21
20000.0
 31
0.0
  0
TEXT
  5
445
330
548
100
AcDbEntity
  8
0
100
AcDbText
 10
22915.0
 20
4959.2247
 30
0.0
 40
201.25
  1
耐風圧性
  7
EXTFONT
100
AcDbText
  0
TEXT
  5
446
330
548
100
AcDbEntity
  8
0
100
AcDbText
 10
22915.0
 20
3235.7247
 30
0.0
 40
201.25
  1
水密性
  7
EXTFONT
100
AcDbText
  0
TEXT
  5
447
330
548
100
AcDbEntity
  8
0
100
AcDbText
 10
22915.0
 20
3810.7247
 30
0.0
 40
201.25
  1
気密性
  7
EXTFONT
100
AcDbText
  0
TEXT
  5
448
330
548
100
AcDbEntity
  8
0
100
AcDbText
 10
22915.0
 20
2660.7247
 30
0.0
 40
201.25
  1
遮音性
  7
EXTFONT
100
AcDbText
  0
TEXT
  5
449
330
548
100
AcDbEntity
  8
0
100
AcDbText
 10
22915.0
 20
2173.7247
 30
0.0
 40
201.25
  1
断熱性
  7
EXTFONT
100
AcDbText
  0
TEXT
  5
44A
330
548
100
AcDbEntity
  8
0
100
AcDbText
 10
22915.0
 20
904.2247
 30
0.0
 40
201.25
  1
ただし、窓種・サイズにより適応値が異なります。
  7
EXTFONT
100
AcDbText
  0
TEXT
  5
44B
330
548
100
AcDbEntity
  8
0
100
AcDbText
 10
22915.0
 20
5712.6247
 30
0.0
 40
201.25
  1
ＹＤＰ－１００　外開き窓　性能等級
  7
EXTFONT
100
AcDbText
  0
TEXT
  5
44C
330
548
100
AcDbEntity
  8
0
100
AcDbText
 10
24211.05
 20
1885.7247
 30
0.0
 40
201.25
  1
（複層ガラス５＋Ａ１２＋５の場合）
  7
EXTFONT
100
AcDbText
  0
TEXT
  5
44D
330
548
100
AcDbEntity
  8
0
100
AcDbText
 10
24211.05
 20
2172.7247
 30
0.0
 40
201.25
  1
Ｈ－３（０．２８７ｍ２・Ｋ／Ｗ以上）
  7
EXTFONT
100
AcDbText
  0
TEXT
  5
44E
330
548
100
AcDbEntity
  8
0
100
AcDbText
 10
24211.05
 20
2659.7247
 30
0.0
 40
201.25
  1
Ｔ－２（３０等級線）
  7
EXTFONT
100
AcDbText
  0
TEXT
  5
44F
330
548
100
AcDbEntity
  8
0
100
AcDbText
 10
24211.05
 20
3235.7247
 30
0.0
 40
201.25
  1
Ｗ－５（５００Ｐａ）
  7
EXTFONT
100
AcDbText
  0
TEXT
  5
450
330
548
100
AcDbEntity
  8
0
100
AcDbText
 10
24211.05
 20
3810.7247
 30
0.0
 40
201.25
  1
Ａ－４（２等級線）
  7
EXTFONT
100
AcDbText
  0
TEXT
  5
451
330
548
100
AcDbEntity
  8
0
100
AcDbText
 10
24211.05
 20
4960.7247
 30
0.0
 40
201.25
  1
Ｓ－５（２４００Ｐａ）
  7
EXTFONT
100
AcDbText
  0
TEXT
  5
452
330
548
100
AcDbEntity
  8
0
100
AcDbText
 10
24211.05
 20
4385.7247
 30
0.0
 40
201.25
  1
Ｓ－７（３６００Ｐａ）
  7
EXTFONT
100
AcDbText
  0
TEXT
  5
453
330
548
100
AcDbEntity
  8
0
100
AcDbText
 10
24211.05
 20
4673.2247
 30
0.0
 40
201.25
  1
Ｓ－６（２８００Ｐａ）
  7
EXTFONT
100
AcDbText
  0
TEXT
  5
454
330
548
100
AcDbEntity
  8
YKK_N1
100
AcDbText
 10
15540.0
 20
16199.99285714
 30
0.0
 40
60.0
  1
1000
 50
90.0
 41
0.8
100
AcDbText
1001
ACAD
1000
MTEXTBEGIN
1070
    73
1070
     1
1070
    44
1040
1.0
1070
    74
1070
     0
1000
MTEXTEND
  0
LINE
  5
455
330
548
100
AcDbEntity
  8
YKK_N1
100
AcDbLine
 10
15550.0
 20
15814.85
 30
0.0
 11
15550.0
 21
16774.85
 31
0.0
  0
LINE
  5
456
330
548
100
AcDbEntity
  8
YKK_N1
100
AcDbLine
 10
15750.0
 20
15795.85
 30
0.0
 11
15750.0
 21
17893.85
 31
0.0
  0
LINE
  5
457
330
548
100
AcDbEntity
  8
YKK_C1
100
AcDbLine
 10
15050.0
 20
15814.85
 30
0.0
 11
15050.0
 21
16774.85
 31
0.0
  0
LINE
  5
458
330
548
100
AcDbEntity
  8
YKK_C1
100
AcDbLine
 10
15150.0
 20
15814.85
 30
0.0
 11
15150.0
 21
16774.85
 31
0.0
  0
LINE
  5
459
330
548
100
AcDbEntity
  8
YKK_C1
100
AcDbLine
 10
15078.0
 20
15786.85
 30
0.0
 11
15078.0
 21
16802.85
 31
0.0
  0
LINE
  5
45A
330
548
100
AcDbEntity
  8
YKK_C1
100
AcDbLine
 10
15064.0
 20
15786.85
 30
0.0
 11
15064.0
 21
16802.85
 31
0.0
  0
LINE
  5
45B
330
548
100
AcDbEntity
  8
YKK_Z1
  6
Continuous
100
AcDbLine
 10
15270.0
 20
15794.85
 30
0.0
 11
15270.0
 21
16844.85
 31
0.0
  0
LINE
  5
45C
330
548
100
AcDbEntity
  8
YKK_N1
100
AcDbLine
 10
15210.0
 20
15794.85
 30
0.0
 11
15580.0
 21
15794.85
 31
0.0
  0
LINE
  5
45D
330
548
100
AcDbEntity
  8
YKK_N1
100
AcDbLine
 10
15210.0
 20
15794.85
 30
0.0
 11
15780.0
 21
15794.85
 31
0.0
  0
LINE
  5
45E
330
548
100
AcDbEntity
  8
YKK_Z1
  6
Continuous
100
AcDbLine
 10
15248.0
 20
15394.85
 30
0.0
 11
15248.0
 21
15769.85
 31
0.0
  0
LINE
  5
45F
330
548
100
AcDbEntity
  8
YKK_Z1
  6
Continuous
100
AcDbLine
 10
15260.0
 20
15769.85
 30
0.0
 11
15260.0
 21
15394.85
 31
0.0
  0
LINE
  5
460
330
548
100
AcDbEntity
  8
YKK_Z1
  6
HIDDEN
100
AcDbLine
 10
15080.0
 20
15394.85
 30
0.0
 11
15080.0
 21
15694.85
 31
0.0
  0
LINE
  5
461
330
548
100
AcDbEntity
  8
YKK_Z1
  6
CENTER
100
AcDbLine
 10
15155.0
 20
15714.85
 30
0.0
 11
15155.0
 21
15394.85
 31
0.0
  0
LINE
  5
462
330
548
100
AcDbEntity
  8
YKK_Z1
  6
Continuous
100
AcDbLine
 10
15060.0
 20
15694.85
 30
0.0
 11
15060.0
 21
15394.85
 31
0.0
  0
LINE
  5
463
330
548
100
AcDbEntity
  8
YKK_Z1
  6
Continuous
100
AcDbLine
 10
15230.0
 20
15394.85
 30
0.0
 11
15230.0
 21
15719.85
 31
0.0
  0
LINE
  5
465
330
548
100
AcDbEntity
  8
YKK_Z1
  6
Continuous
100
AcDbLine
 10
15178.2842737
 20
15769.85
 30
0.0
 11
15203.28426937
 21
15794.85
 31
0.0
  0
LINE
  5
466
330
548
100
AcDbEntity
  8
YKK_Z1
  6
Continuous
100
AcDbLine
 10
15270.0
 20
15769.85
 30
0.0
 11
15150.0
 21
15769.85
 31
0.0
  0
LINE
  5
467
330
548
100
AcDbEntity
  8
YKK_Z1
  6
Continuous
100
AcDbLine
 10
15150.0
 20
15794.85
 30
0.0
 11
15270.0
 21
15794.85
 31
0.0
  0
LINE
  5
468
330
548
100
AcDbEntity
  8
YKK_Z1
  6
Continuous
100
AcDbLine
 10
15230.0
 20
15663.55064666
 30
0.0
 11
15060.0
 21
15493.55061722
 31
0.0
  0
LINE
  5
469
330
548
100
AcDbEntity
  8
YKK_Z1
  6
Continuous
100
AcDbLine
 10
15230.0
 20
15683.34964168
 30
0.0
 11
15060.0
 21
15513.34961223
 31
0.0
  0
LINE
  5
46A
330
548
100
AcDbEntity
  8
YKK_Z1
  6
Continuous
100
AcDbLine
 10
15230.0
 20
15691.83492526
 30
0.0
 11
15060.0
 21
15521.83489581
 31
0.0
  0
LINE
  5
46B
330
548
100
AcDbEntity
  8
YKK_Z1
  6
Continuous
100
AcDbLine
 10
15230.0
 20
15719.85
 30
0.0
 11
15170.0
 21
15719.85
 31
0.0
  0
LINE
  5
46D
330
548
100
AcDbEntity
  8
YKK_C1
100
AcDbLine
 10
15111.0
 20
15794.85
 30
0.0
 11
15092.0
 21
15794.85
 31
0.0
  0
LINE
  5
46E
330
548
100
AcDbEntity
  8
YKK_C1
100
AcDbLine
 10
15105.0
 20
15754.85
 30
0.0
 11
15111.0
 21
15754.85
 31
0.0
  0
LINE
  5
46F
330
548
100
AcDbEntity
  8
YKK_C1
100
AcDbLine
 10
15105.0
 20
15759.85
 30
0.0
 11
15105.0
 21
15724.85
 31
0.0
  0
LINE
  5
470
330
548
100
AcDbEntity
  8
YKK_C1
100
AcDbLine
 10
15050.0
 20
15734.85
 30
0.0
 11
15105.0
 21
15734.85
 31
0.0
  0
LINE
  5
471
330
548
100
AcDbEntity
  8
YKK_C1
100
AcDbLine
 10
15050.0
 20
15759.85
 30
0.0
 11
15050.0
 21
15734.85
 31
0.0
  0
LINE
  5
472
330
548
100
AcDbEntity
  8
YKK_C1
100
AcDbLine
 10
15150.0
 20
15754.85
 30
0.0
 11
15144.0
 21
15754.85
 31
0.0
  0
LINE
  5
473
330
548
100
AcDbEntity
  8
YKK_C1
100
AcDbLine
 10
15150.0
 20
15794.85
 30
0.0
 11
15150.0
 21
15754.85
 31
0.0
  0
LINE
  5
474
330
548
100
AcDbEntity
  8
YKK_C1
100
AcDbLine
 10
15050.0
 20
15759.85
 30
0.0
 11
15050.0
 21
15794.85
 31
0.0
  0
LINE
  5
475
330
548
100
AcDbEntity
  8
YKK_C1
100
AcDbLine
 10
15111.0
 20
15759.85
 30
0.0
 11
15050.0
 21
15759.85
 31
0.0
  0
LINE
  5
476
330
548
100
AcDbEntity
  8
YKK_C1
100
AcDbLine
 10
15111.0
 20
15794.85
 30
0.0
 11
15111.0
 21
15759.85
 31
0.0
  0
LINE
  5
477
330
548
100
AcDbEntity
  8
YKK_C1
100
AcDbLine
 10
15150.0
 20
15794.85
 30
0.0
 11
15111.0
 21
15794.85
 31
0.0
  0
LINE
  5
478
330
548
100
AcDbEntity
  8
YKK_Z1
  6
Continuous
100
AcDbLine
 10
15060.0
 20
15734.85
 30
0.0
 11
15060.0
 21
15694.85
 31
0.0
  0
LINE
  5
479
330
548
100
AcDbEntity
  8
YKK_Z1
  6
Continuous
100
AcDbLine
 10
15150.0
 20
15769.85
 30
0.0
 11
15174.99999567
 21
15794.85
 31
0.0
  0
LINE
  5
47A
330
548
100
AcDbEntity
  8
YKK_Z1
  6
Continuous
100
AcDbLine
 10
15150.0
 20
15769.85
 30
0.0
 11
15150.0
 21
15794.85
 31
0.0
  0
LINE
  5
47B
330
548
100
AcDbEntity
  8
YKK_Z1
  6
Continuous
100
AcDbLine
 10
15160.0
 20
15694.85
 30
0.0
 11
15060.0
 21
15694.85
 31
0.0
  0
LINE
  5
47C
330
548
100
AcDbEntity
  8
YKK_Z1
  6
Continuous
100
AcDbLine
 10
15170.0
 20
15719.85
 30
0.0
 11
15160.0
 21
15694.85
 31
0.0
  0
LINE
  5
47D
330
548
100
AcDbEntity
  8
YKK_Z1
  6
Continuous
100
AcDbLine
 10
15248.0
 20
15769.85
 30
0.0
 11
15260.0
 21
15769.85
 31
0.0
  0
LINE
  5
47E
330
548
100
AcDbEntity
  8
YKK_Z1
  6
Continuous
100
AcDbLine
 10
15263.13709479
 20
15769.85
 30
0.0
 11
15270.0
 21
15776.7129064
 31
0.0
  0
LINE
  5
47F
330
548
100
AcDbEntity
  8
YKK_Z1
  6
Continuous
100
AcDbLine
 10
15234.85282109
 20
15769.85
 30
0.0
 11
15259.85281676
 21
15794.85
 31
0.0
  0
LINE
  5
480
330
548
100
AcDbEntity
  8
YKK_Z1
  6
Continuous
100
AcDbLine
 10
15206.56854739
 20
15769.85
 30
0.0
 11
15231.56854306
 21
15794.85
 31
0.0
  0
LINE
  5
481
330
548
100
AcDbEntity
  8
YKK_Z1
  6
Continuous
100
AcDbLine
 10
15270.0
 20
15794.85
 30
0.0
 11
15270.0
 21
15769.85
 31
0.0
  0
LINE
  5
482
330
548
100
AcDbEntity
  8
YKK_N1
  6
CENTER
100
AcDbLine
 10
15650.0
 20
15594.85
 30
0.0
 11
16150.0
 21
15594.85
 31
0.0
  0
LINE
  5
483
330
548
100
AcDbEntity
  8
YKK_N1
  6
ByBlock
100
AcDbLine
 10
15700.0
 20
15881.45254038
 30
0.0
 11
15750.0
 21
15794.85
 31
0.0
  0
LINE
  5
484
330
548
100
AcDbEntity
  8
YKK_N1
  6
ByBlock
100
AcDbLine
 10
15750.0
 20
15794.85
 30
0.0
 11
15800.0
 21
15881.45254038
 31
0.0
  0
LINE
  5
485
330
548
100
AcDbEntity
  8
YKK_N1
  6
ByBlock
100
AcDbLine
 10
15750.0
 20
15794.85
 30
0.0
 11
15750.0
 21
15894.85
 31
0.0
  0
CIRCLE
  5
486
330
548
100
AcDbEntity
  8
YKK_N1
100
AcDbCircle
 10
15750.0
 20
15594.85
 30
0.0
 40
10.0
  0
TEXT
  5
487
330
548
100
AcDbEntity
  8
YKK_N1
100
AcDbText
 10
15740.0
 20
15626.27857143
 30
0.0
 40
60.0
  1
200
 50
90.0
 41
0.8
100
AcDbText
1001
ACAD
1000
MTEXTBEGIN
1070
    73
1070
     1
1070
    44
1040
1.0
1070
    74
1070
     0
1000
MTEXTEND
  0
LINE
  5
488
330
548
100
AcDbEntity
  8
YKK_N1
100
AcDbLine
 10
15550.0
 20
15794.85
 30
0.0
 11
15550.0
 21
15814.85
 31
0.0
  0
CIRCLE
  5
489
330
548
100
AcDbEntity
  8
YKK_N1
100
AcDbCircle
 10
15550.0
 20
15794.85
 30
0.0
 40
6.5
  0
CIRCLE
  5
48A
330
548
100
AcDbEntity
  8
YKK_N1
100
AcDbCircle
 10
15550.0
 20
15794.85
 30
0.0
 40
10.0
  0
LINE
  5
48B
330
548
100
AcDbEntity
  8
YKK_N1
  6
ByBlock
100
AcDbLine
 10
15750.0
 20
15794.85
 30
0.0
 11
15750.0
 21
15774.85
 31
0.0
  0
LINE
  5
48C
330
548
100
AcDbEntity
  8
YKK_N1
100
AcDbLine
 10
15750.0
 20
15594.85
 30
0.0
 11
15750.0
 21
15614.85
 31
0.0
  0
CIRCLE
  5
48D
330
548
100
AcDbEntity
  8
YKK_N1
100
AcDbCircle
 10
15750.0
 20
15594.85
 30
0.0
 40
6.5
  0
LINE
  5
48E
330
548
100
AcDbEntity
  8
YKK_N1
100
AcDbLine
 10
15750.0
 20
15774.85
 30
0.0
 11
15750.0
 21
15614.85
 31
0.0
  0
LINE
  5
48F
330
548
100
AcDbEntity
  8
YKK_N1
  6
ByBlock
100
AcDbLine
 10
15800.0
 20
15881.45254038
 30
0.0
 11
15700.0
 21
15881.45254038
 31
0.0
  0
LINE
  5
490
330
548
100
AcDbEntity
  8
YKK_N1
  6
ByBlock
100
AcDbLine
 10
15800.0
 20
17808.24745962
 30
0.0
 11
15750.0
 21
17894.85
 31
0.0
  0
LINE
  5
491
330
548
100
AcDbEntity
  8
YKK_N1
  6
ByBlock
100
AcDbLine
 10
15750.0
 20
17894.85
 30
0.0
 11
15700.0
 21
17808.24745962
 31
0.0
  0
LINE
  5
492
330
548
100
AcDbEntity
  8
YKK_N1
  6
ByBlock
100
AcDbLine
 10
15750.0
 20
17894.85
 30
0.0
 11
15750.0
 21
17794.85
 31
0.0
  0
LINE
  5
493
330
548
100
AcDbEntity
  8
YKK_N1
100
AcDbLine
 10
15550.0
 20
16914.85
 30
0.0
 11
15550.0
 21
17874.85
 31
0.0
  0
LINE
  5
494
330
548
100
AcDbEntity
  8
YKK_C1
100
AcDbLine
 10
15150.0
 20
16914.85
 30
0.0
 11
15150.0
 21
17874.85
 31
0.0
  0
LINE
  5
495
330
548
100
AcDbEntity
  8
YKK_C1
100
AcDbLine
 10
15078.0
 20
16931.85
 30
0.0
 11
15078.0
 21
17822.85
 31
0.0
  0
LINE
  5
496
330
548
100
AcDbEntity
  8
YKK_C1
100
AcDbLine
 10
15064.0
 20
16931.85
 30
0.0
 11
15064.0
 21
17822.85
 31
0.0
  0
LINE
  5
497
330
548
100
AcDbEntity
  8
YKK_Z1
  6
Continuous
100
AcDbLine
 10
15270.0
 20
17909.85
 30
0.0
 11
15270.0
 21
16844.85
 31
0.0
  0
LINE
  5
498
330
548
100
AcDbEntity
  8
YKK_N1
100
AcDbLine
 10
15210.0
 20
16794.85
 30
0.0
 11
15580.0
 21
16794.85
 31
0.0
  0
LINE
  5
499
330
548
100
AcDbEntity
  8
YKK_N1
100
AcDbLine
 10
15210.0
 20
16894.85
 30
0.0
 11
15580.0
 21
16894.85
 31
0.0
  0
LINE
  5
49A
330
548
100
AcDbEntity
  8
YKK_N1
100
AcDbLine
 10
15210.0
 20
16794.85
 30
0.0
 11
15580.0
 21
16794.85
 31
0.0
  0
LINE
  5
49B
330
548
100
AcDbEntity
  8
YKK_N1
100
AcDbLine
 10
15210.0
 20
16894.85
 30
0.0
 11
15580.0
 21
16894.85
 31
0.0
  0
LINE
  5
49C
330
548
100
AcDbEntity
  8
YKK_C1
100
AcDbLine
 10
15050.0
 20
16959.85
 30
0.0
 11
15050.0
 21
17794.85
 31
0.0
  0
TEXT
  5
49D
330
548
100
AcDbEntity
  8
YKK_N1
100
AcDbText
 10
15028.0
 20
16553.85
 30
0.0
 40
60.0
  1
100
 41
0.8
100
AcDbText
1001
ACAD
1000
MTEXTBEGIN
1070
    73
1070
     1
1070
    44
1040
1.0
1070
    74
1070
     0
1000
MTEXTEND
  0
LINE
  5
49E
330
548
100
AcDbEntity
  8
YKK_N1
100
AcDbLine
 10
15150.0
 20
16508.85
 30
0.0
 11
15130.0
 21
16508.85
 31
0.0
  0
CIRCLE
  5
49F
330
548
100
AcDbEntity
  8
YKK_N1
100
AcDbCircle
 10
15150.0
 20
16508.85
 30
0.0
 40
6.5
  0
CIRCLE
  5
4A0
330
548
100
AcDbEntity
  8
YKK_N1
100
AcDbCircle
 10
15150.0
 20
16508.85
 30
0.0
 40
10.0
  0
LINE
  5
4A1
330
548
100
AcDbEntity
  8
YKK_N1
100
AcDbLine
 10
15050.0
 20
16508.85
 30
0.0
 11
15070.0
 21
16508.85
 31
0.0
  0
CIRCLE
  5
4A2
330
548
100
AcDbEntity
  8
YKK_N1
100
AcDbCircle
 10
15050.0
 20
16508.85
 30
0.0
 40
6.5
  0
CIRCLE
  5
4A3
330
548
100
AcDbEntity
  8
YKK_N1
100
AcDbCircle
 10
15050.0
 20
16508.85
 30
0.0
 40
10.0
  0
LINE
  5
4A4
330
548
100
AcDbEntity
  8
YKK_N1
100
AcDbLine
 10
15130.0
 20
16508.85
 30
0.0
 11
15070.0
 21
16508.85
 31
0.0
  0
LINE
  5
4A5
330
548
100
AcDbEntity
  8
YKK_N1
100
AcDbLine
 10
15050.0
 20
16558.85
 30
0.0
 11
15050.0
 21
16538.85
 31
0.0
  0
LINE
  5
4A6
330
548
100
AcDbEntity
  8
YKK_N1
100
AcDbLine
 10
15150.0
 20
16558.85
 30
0.0
 11
15150.0
 21
16538.85
 31
0.0
  0
LINE
  5
4A7
330
548
100
AcDbEntity
  8
YKK_C1
100
AcDbLine
 10
15092.0
 20
16939.85
 30
0.0
 11
15092.0
 21
16923.85
 31
0.0
  0
LINE
  5
4A8
330
548
100
AcDbEntity
  8
YKK_C1
100
AcDbLine
 10
15100.0
 20
16939.85
 30
0.0
 11
15092.0
 21
16939.85
 31
0.0
  0
LINE
  5
4A9
330
548
100
AcDbEntity
  8
YKK_C1
100
AcDbLine
 10
15050.0
 20
16923.85
 30
0.0
 11
15100.0
 21
16923.85
 31
0.0
  0
LINE
  5
4AA
330
548
100
AcDbEntity
  8
YKK_C1
100
AcDbLine
 10
15050.0
 20
16939.85
 30
0.0
 11
15050.0
 21
16857.85
 31
0.0
  0
LINE
  5
4AB
330
548
100
AcDbEntity
  8
YKK_C1
100
AcDbLine
 10
15100.0
 20
16889.85
 30
0.0
 11
15050.0
 21
16889.85
 31
0.0
  0
LINE
  5
4AC
330
548
100
AcDbEntity
  8
YKK_C1
100
AcDbLine
 10
15100.0
 20
16939.85
 30
0.0
 11
15100.0
 21
16889.85
 31
0.0
  0
LINE
  5
4AD
330
548
100
AcDbEntity
  8
YKK_C1
100
AcDbLine
 10
15050.0
 20
16859.85
 30
0.0
 11
15050.0
 21
16818.85
 31
0.0
  0
LINE
  5
4AE
330
548
100
AcDbEntity
  8
YKK_C1
100
AcDbLine
 10
15150.0
 20
16894.85
 30
0.0
 11
15150.0
 21
16794.85
 31
0.0
  0
LINE
  5
4B0
330
548
100
AcDbEntity
  8
YKK_C1
100
AcDbLine
 10
15111.0
 20
16794.85
 30
0.0
 11
15092.0
 21
16794.85
 31
0.0
  0
LINE
  5
4B1
330
548
100
AcDbEntity
  8
YKK_C1
100
AcDbLine
 10
15050.0
 20
16818.85
 30
0.0
 11
15050.0
 21
16794.85
 31
0.0
  0
LINE
  5
4B2
330
548
100
AcDbEntity
  8
YKK_C1
100
AcDbLine
 10
15111.0
 20
16818.85
 30
0.0
 11
15050.0
 21
16818.85
 31
0.0
  0
LINE
  5
4B3
330
548
100
AcDbEntity
  8
YKK_C1
100
AcDbLine
 10
15111.0
 20
16794.85
 30
0.0
 11
15111.0
 21
16818.85
 31
0.0
  0
LINE
  5
4B4
330
548
100
AcDbEntity
  8
YKK_C1
100
AcDbLine
 10
15150.0
 20
16794.85
 30
0.0
 11
15111.0
 21
16794.85
 31
0.0
  0
LINE
  5
4B5
330
548
100
AcDbEntity
  8
YKK_C1
100
AcDbLine
 10
15077.0
 20
16859.85
 30
0.0
 11
15050.0
 21
16859.85
 31
0.0
  0
LINE
  5
4B7
330
548
100
AcDbEntity
  8
YKK_C1
100
AcDbLine
 10
15104.0
 20
16859.85
 30
0.0
 11
15050.0
 21
16859.85
 31
0.0
  0
LINE
  5
4B8
330
548
100
AcDbEntity
  8
YKK_C1
100
AcDbLine
 10
15104.0
 20
16894.85
 30
0.0
 11
15104.0
 21
16859.85
 31
0.0
  0
LINE
  5
4B9
330
548
100
AcDbEntity
  8
YKK_C1
100
AcDbLine
 10
15150.0
 20
16894.85
 30
0.0
 11
15104.0
 21
16894.85
 31
0.0
  0
TEXT
  5
4BA
330
548
100
AcDbEntity
  8
YKK_N1
100
AcDbText
 10
15740.0
 20
16697.42142857
 30
0.0
 40
60.0
  1
H=2100
 50
90.0
 41
0.8
100
AcDbText
1001
ACAD
1000
MTEXTBEGIN
1070
    73
1070
     1
1070
    44
1040
1.0
1070
    74
1070
     0
1000
MTEXTEND
  0
LINE
  5
4BB
330
548
100
AcDbEntity
  8
YKK_N1
100
AcDbLine
 10
15550.0
 20
16894.85
 30
0.0
 11
15550.0
 21
16914.85
 31
0.0
  0
CIRCLE
  5
4BC
330
548
100
AcDbEntity
  8
YKK_N1
100
AcDbCircle
 10
15550.0
 20
16894.85
 30
0.0
 40
6.5
  0
CIRCLE
  5
4BD
330
548
100
AcDbEntity
  8
YKK_N1
100
AcDbCircle
 10
15550.0
 20
16894.85
 30
0.0
 40
10.0
  0
TEXT
  5
4BE
330
548
100
AcDbEntity
  8
YKK_N1
100
AcDbText
 10
15647.5
 20
16772.85
 30
0.0
 40
60.0
  1
100
 50
90.0
 41
0.8
100
AcDbText
1001
ACAD
1000
MTEXTBEGIN
1070
    73
1070
     1
1070
    44
1040
1.0
1070
    74
1070
     0
1000
MTEXTEND
  0
LINE
  5
4BF
330
548
100
AcDbEntity
  8
YKK_N1
100
AcDbLine
 10
15550.0
 20
16794.85
 30
0.0
 11
15550.0
 21
16814.85
 31
0.0
  0
CIRCLE
  5
4C0
330
548
100
AcDbEntity
  8
YKK_N1
100
AcDbCircle
 10
15550.0
 20
16794.85
 30
0.0
 40
6.5
  0
CIRCLE
  5
4C1
330
548
100
AcDbEntity
  8
YKK_N1
100
AcDbCircle
 10
15550.0
 20
16794.85
 30
0.0
 40
10.0
  0
LINE
  5
4C2
330
548
100
AcDbEntity
  8
YKK_N1
100
AcDbLine
 10
15550.0
 20
16894.85
 30
0.0
 11
15550.0
 21
16874.85
 31
0.0
  0
CIRCLE
  5
4C3
330
548
100
AcDbEntity
  8
YKK_N1
100
AcDbCircle
 10
15550.0
 20
16894.85
 30
0.0
 40
6.5
  0
CIRCLE
  5
4C4
330
548
100
AcDbEntity
  8
YKK_N1
100
AcDbCircle
 10
15550.0
 20
16894.85
 30
0.0
 40
10.0
  0
LINE
  5
4C5
330
548
100
AcDbEntity
  8
YKK_N1
100
AcDbLine
 10
15550.0
 20
16794.85
 30
0.0
 11
15550.0
 21
16774.85
 31
0.0
  0
CIRCLE
  5
4C6
330
548
100
AcDbEntity
  8
YKK_N1
100
AcDbCircle
 10
15550.0
 20
16794.85
 30
0.0
 40
6.5
  0
CIRCLE
  5
4C7
330
548
100
AcDbEntity
  8
YKK_N1
100
AcDbCircle
 10
15550.0
 20
16794.85
 30
0.0
 40
10.0
  0
LINE
  5
4C8
330
548
100
AcDbEntity
  8
YKK_N1
100
AcDbLine
 10
15550.0
 20
16814.85
 30
0.0
 11
15550.0
 21
16874.85
 31
0.0
  0
TEXT
  5
4C9
330
548
100
AcDbEntity
  8
YKK_N1
100
AcDbText
 10
15540.0
 20
17299.99285714
 30
0.0
 40
60.0
  1
1000
 50
90.0
 41
0.8
100
AcDbText
1001
ACAD
1000
MTEXTBEGIN
1070
    73
1070
     1
1070
    44
1040
1.0
1070
    74
1070
     0
1000
MTEXTEND
  0
LINE
  5
4CA
330
548
100
AcDbEntity
  8
YKK_N1
  6
ByBlock
100
AcDbLine
 10
15700.0
 20
17808.24745962
 30
0.0
 11
15800.0
 21
17808.24745962
 31
0.0
  0
LINE
  5
4CB
330
548
100
AcDbEntity
  8
YKK_N1
100
AcDbLine
 10
15210.0
 20
17894.85
 30
0.0
 11
15580.0
 21
17894.85
 31
0.0
  0
LINE
  5
4CC
330
548
100
AcDbEntity
  8
YKK_N1
100
AcDbLine
 10
15210.0
 20
17894.85
 30
0.0
 11
15780.0
 21
17894.85
 31
0.0
  0
LINE
  5
4CD
330
548
100
AcDbEntity
  8
YKK_Z1
  6
Continuous
100
AcDbLine
 10
15248.0
 20
18294.85
 30
0.0
 11
15248.0
 21
17934.85
 31
0.0
  0
LINE
  5
4CE
330
548
100
AcDbEntity
  8
YKK_Z1
  6
Continuous
100
AcDbLine
 10
15260.0
 20
17934.85
 30
0.0
 11
15260.0
 21
18294.85
 31
0.0
  0
LINE
  5
4CF
330
548
100
AcDbEntity
  8
YKK_Z1
  6
HIDDEN
100
AcDbLine
 10
15080.0
 20
18294.85
 30
0.0
 11
15080.0
 21
17954.85
 31
0.0
  0
LINE
  5
4D0
330
548
100
AcDbEntity
  8
YKK_Z1
  6
CENTER
100
AcDbLine
 10
15155.0
 20
17954.85
 30
0.0
 11
15155.0
 21
18294.85
 31
0.0
  0
LINE
  5
4D1
330
548
100
AcDbEntity
  8
YKK_Z1
  6
Continuous
100
AcDbLine
 10
15060.0
 20
18096.56582933
 30
0.0
 11
15230.0
 21
18266.565741
 31
0.0
  0
LINE
  5
4D2
330
548
100
AcDbEntity
  8
YKK_Z1
  6
Continuous
100
AcDbLine
 10
15060.0
 20
18116.36481063
 30
0.0
 11
15230.0
 21
18286.3647223
 31
0.0
  0
LINE
  5
4D3
330
548
100
AcDbEntity
  8
YKK_Z1
  6
Continuous
100
AcDbLine
 10
15060.0
 20
18124.85008833
 30
0.0
 11
15230.0
 21
18294.85
 31
0.0
  0
LINE
  5
4D4
330
548
100
AcDbEntity
  8
YKK_Z1
  6
Continuous
100
AcDbLine
 10
15060.0
 20
17954.85
 30
0.0
 11
15060.0
 21
18294.85
 31
0.0
  0
LINE
  5
4D5
330
548
100
AcDbEntity
  8
YKK_Z1
  6
Continuous
100
AcDbLine
 10
15230.0
 20
18294.85
 30
0.0
 11
15230.0
 21
17979.85
 31
0.0
  0
LINE
  5
4D6
330
548
100
AcDbEntity
  8
YKK_Z1
  6
Continuous
100
AcDbLine
 10
15270.0
 20
17934.85
 30
0.0
 11
15150.0
 21
17934.85
 31
0.0
  0
LINE
  5
4D7
330
548
100
AcDbEntity
  8
YKK_Z1
  6
Continuous
100
AcDbLine
 10
15150.0
 20
17909.85
 30
0.0
 11
15270.0
 21
17909.85
 31
0.0
  0
LINE
  5
4D8
330
548
100
AcDbEntity
  8
YKK_Z1
  6
Continuous
100
AcDbLine
 10
15230.0
 20
17979.85
 30
0.0
 11
15120.0
 21
17979.85
 31
0.0
  0
LINE
  5
4D9
330
548
100
AcDbEntity
  8
YKK_C1
100
AcDbLine
 10
15092.0
 20
17814.85
 30
0.0
 11
15092.0
 21
17830.85
 31
0.0
  0
LINE
  5
4DA
330
548
100
AcDbEntity
  8
YKK_C1
100
AcDbLine
 10
15100.0
 20
17814.85
 30
0.0
 11
15092.0
 21
17814.85
 31
0.0
  0
LINE
  5
4DB
330
548
100
AcDbEntity
  8
YKK_C1
100
AcDbLine
 10
15100.0
 20
17830.85
 30
0.0
 11
15050.0
 21
17830.85
 31
0.0
  0
LINE
  5
4DC
330
548
100
AcDbEntity
  8
YKK_C1
100
AcDbLine
 10
15050.0
 20
17814.85
 30
0.0
 11
15050.0
 21
17889.85
 31
0.0
  0
LINE
  5
4DD
330
548
100
AcDbEntity
  8
YKK_C1
100
AcDbLine
 10
15100.0
 20
17869.85
 30
0.0
 11
15050.0
 21
17869.85
 31
0.0
  0
LINE
  5
4DE
330
548
100
AcDbEntity
  8
YKK_C1
100
AcDbLine
 10
15100.0
 20
17814.85
 30
0.0
 11
15100.0
 21
17869.85
 31
0.0
  0
LINE
  5
4DF
330
548
100
AcDbEntity
  8
YKK_C1
100
AcDbLine
 10
15105.0
 20
17944.85
 30
0.0
 11
15105.0
 21
17929.85
 31
0.0
  0
LINE
  5
4E0
330
548
100
AcDbEntity
  8
YKK_C1
100
AcDbLine
 10
15050.0
 20
17934.85
 30
0.0
 11
15105.0
 21
17934.85
 31
0.0
  0
LINE
  5
4E1
330
548
100
AcDbEntity
  8
YKK_C1
100
AcDbLine
 10
15050.0
 20
17894.85
 30
0.0
 11
15050.0
 21
17934.85
 31
0.0
  0
LINE
  5
4E2
330
548
100
AcDbEntity
  8
YKK_C1
100
AcDbLine
 10
15105.0
 20
17929.85
 30
0.0
 11
15114.0
 21
17929.85
 31
0.0
  0
LINE
  5
4E3
330
548
100
AcDbEntity
  8
YKK_C1
100
AcDbLine
 10
15105.0
 20
17919.85
 30
0.0
 11
15105.0
 21
17929.85
 31
0.0
  0
LINE
  5
4E4
330
548
100
AcDbEntity
  8
YKK_C1
100
AcDbLine
 10
15150.0
 20
17919.85
 30
0.0
 11
15105.0
 21
17919.85
 31
0.0
  0
LINE
  5
4E5
330
548
100
AcDbEntity
  8
YKK_C1
100
AcDbLine
 10
15150.0
 20
17929.85
 30
0.0
 11
15141.0
 21
17929.85
 31
0.0
  0
LINE
  5
4E6
330
548
100
AcDbEntity
  8
YKK_C1
100
AcDbLine
 10
15150.0
 20
17894.85
 30
0.0
 11
15150.0
 21
17929.85
 31
0.0
  0
LINE
  5
4E7
330
548
100
AcDbEntity
  8
YKK_C1
100
AcDbLine
 10
15104.0
 20
17894.85
 30
0.0
 11
15104.0
 21
17864.85
 31
0.0
  0
LINE
  5
4E8
330
548
100
AcDbEntity
  8
YKK_C1
100
AcDbLine
 10
15150.0
 20
17894.85
 30
0.0
 11
15050.0
 21
17894.85
 31
0.0
  0
LINE
  5
4E9
330
548
100
AcDbEntity
  8
YKK_Z1
  6
Continuous
100
AcDbLine
 10
15060.0
 20
17934.85
 30
0.0
 11
15060.0
 21
17954.85
 31
0.0
  0
LINE
  5
4EA
330
548
100
AcDbEntity
  8
YKK_Z1
  6
Continuous
100
AcDbLine
 10
15178.2842737
 20
17934.85
 30
0.0
 11
15153.28426071
 21
17909.85
 31
0.0
  0
LINE
  5
4EC
330
548
100
AcDbEntity
  8
YKK_Z1
  6
Continuous
100
AcDbLine
 10
15150.0
 20
17934.85
 30
0.0
 11
15150.0
 21
17909.85
 31
0.0
  0
LINE
  5
4ED
330
548
100
AcDbEntity
  8
YKK_Z1
  6
Continuous
100
AcDbLine
 10
15110.0
 20
17954.85
 30
0.0
 11
15060.0
 21
17954.85
 31
0.0
  0
LINE
  5
4EE
330
548
100
AcDbEntity
  8
YKK_Z1
  6
Continuous
100
AcDbLine
 10
15120.0
 20
17979.85
 30
0.0
 11
15110.0
 21
17954.85
 31
0.0
  0
LINE
  5
4EF
330
548
100
AcDbEntity
  8
YKK_Z1
  6
Continuous
100
AcDbLine
 10
15248.0
 20
17934.85
 30
0.0
 11
15260.0
 21
17934.85
 31
0.0
  0
LINE
  5
4F0
330
548
100
AcDbEntity
  8
YKK_Z1
  6
Continuous
100
AcDbLine
 10
15270.0
 20
17913.42864265
 30
0.0
 11
15266.42135549
 21
17909.85
 31
0.0
  0
LINE
  5
4F1
330
548
100
AcDbEntity
  8
YKK_Z1
  6
Continuous
100
AcDbLine
 10
15263.13709479
 20
17934.85
 30
0.0
 11
15238.1370818
 21
17909.85
 31
0.0
  0
LINE
  5
4F2
330
548
100
AcDbEntity
  8
YKK_Z1
  6
Continuous
100
AcDbLine
 10
15234.85282109
 20
17934.85
 30
0.0
 11
15209.8528081
 21
17909.85
 31
0.0
  0
LINE
  5
4F3
330
548
100
AcDbEntity
  8
YKK_Z1
  6
Continuous
100
AcDbLine
 10
15206.56854739
 20
17934.85
 30
0.0
 11
15181.5685344
 21
17909.85
 31
0.0
  0
LINE
  5
4F4
330
548
100
AcDbEntity
  8
YKK_Z1
  6
Continuous
100
AcDbLine
 10
15270.0
 20
17909.85
 30
0.0
 11
15270.0
 21
17934.85
 31
0.0
  0
LINE
  5
4F5
330
548
100
AcDbEntity
  8
YKK_Z1
  6
Continuous
100
AcDbLine
 10
15220.46999225
 20
17979.85
 30
0.0
 11
15230.0
 21
17989.3800028
 31
0.0
  0
LINE
  5
4F6
330
548
100
AcDbEntity
  8
YKK_Z1
  6
Continuous
100
AcDbLine
 10
15211.98471014
 20
17979.85
 30
0.0
 11
15230.0
 21
17997.8652805
 31
0.0
  0
LINE
  5
4F7
330
548
100
AcDbEntity
  8
YKK_N1
100
AcDbLine
 10
15550.0
 20
17894.85
 30
0.0
 11
15550.0
 21
17874.85
 31
0.0
  0
CIRCLE
  5
4F8
330
548
100
AcDbEntity
  8
YKK_N1
100
AcDbCircle
 10
15550.0
 20
17894.85
 30
0.0
 40
6.5
  0
CIRCLE
  5
4F9
330
548
100
AcDbEntity
  8
YKK_N1
100
AcDbCircle
 10
15550.0
 20
17894.85
 30
0.0
 40
10.0
  0
ENDSEC
  0
SECTION
  2
OBJECTS
  0
DICTIONARY
  5
53D
330
0
100
AcDbDictionary
281
     1
  3
ACAD_CIP_PREVIOUS_PRODUCT_INFO
350
606
  3
ACAD_COLOR
350
59C
  3
ACAD_DETAILVIEWSTYLE
350
5B5
  3
ACAD_GROUP
350
53E
  3
ACAD_LAYOUT
350
5BA
  3
ACAD_MATERIAL
350
56A
  3
ACAD_MLEADERSTYLE
350
5B1
  3
ACAD_MLINESTYLE
350
54B
  3
ACAD_PLOTSETTINGS
350
5B9
  3
ACAD_PLOTSTYLENAME
350
568
  3
ACAD_SCALELIST
350
59F
  3
ACAD_SECTIONVIEWSTYLE
350
5B3
  3
ACAD_TABLESTYLE
350
59D
  3
ACAD_VISUALSTYLE
350
583
  3
ACDB_RECOMPOSE_DATA
350
60C
  3
ACDBVARIABLEDICTIONARY
350
561
  0
XRECORD
  5
606
102
{ACAD_REACTORS
330
53D
102
}
330
53D
100
AcDbXrecord
280
     1
300
ACD
300
2014
300
86063ACD_2014_0F
  0
DICTIONARY
  5
59C
102
{ACAD_REACTORS
330
53D
102
}
330
53D
100
AcDbDictionary
281
     1
  0
DICTIONARY
  5
5B5
102
{ACAD_REACTORS
330
53D
102
}
330
53D
100
AcDbDictionary
281
     1
  3
Imperial24
350
5B6
  0
DICTIONARY
  5
53E
102
{ACAD_REACTORS
330
53D
102
}
330
53D
100
AcDbDictionary
281
     1
  0
DICTIONARY
  5
5BA
102
{ACAD_REACTORS
330
53D
102
}
330
53D
100
AcDbDictionary
281
     1
  3
Model
350
5BB
  3
レイアウト1
350
5BC
  0
DICTIONARY
  5
56A
102
{ACAD_REACTORS
330
53D
102
}
330
53D
100
AcDbDictionary
281
     1
  3
ByBlock
350
573
  3
ByLayer
350
56B
  3
Global
350
57B
  0
DICTIONARY
  5
5B1
102
{ACAD_REACTORS
330
53D
102
}
330
53D
100
AcDbDictionary
281
     1
  3
Standard
350
5B2
  0
DICTIONARY
  5
54B
102
{ACAD_REACTORS
330
53D
102
}
330
53D
100
AcDbDictionary
281
     1
  3
STANDARD
350
54C
  0
DICTIONARY
  5
5B9
102
{ACAD_REACTORS
330
53D
102
}
330
53D
100
AcDbDictionary
281
     1
  0
ACDBDICTIONARYWDFLT
  5
568
102
{ACAD_REACTORS
330
53D
102
}
330
53D
100
AcDbDictionary
281
     1
  3
Normal
350
569
100
AcDbDictionaryWithDefault
340
569
  0
DICTIONARY
  5
59F
102
{ACAD_REACTORS
330
53D
102
}
330
53D
100
AcDbDictionary
281
     1
  3
A0
350
5A0
  3
A1
350
5A1
  3
A2
350
5A2
  3
A3
350
5A3
  3
A4
350
5A4
  3
A5
350
5A5
  3
A6
350
5A6
  3
A7
350
5A7
  3
A8
350
5A8
  3
A9
350
5A9
  3
B0
350
5AA
  3
B1
350
5AB
  3
B2
350
5AC
  3
B3
350
5AD
  3
B4
350
5AE
  3
B5
350
5AF
  3
B6
350
5B0
  0
DICTIONARY
  5
5B3
102
{ACAD_REACTORS
330
53D
102
}
330
53D
100
AcDbDictionary
281
     1
  3
Imperial24
350
5B4
  0
DICTIONARY
  5
59D
102
{ACAD_REACTORS
330
53D
102
}
330
53D
100
AcDbDictionary
281
     1
  3
Standard
350
59E
  0
DICTIONARY
  5
583
102
{ACAD_REACTORS
330
53D
102
}
330
53D
100
AcDbDictionary
281
     1
  3
2dWireframe
350
589
  3
Basic
350
588
  3
Brighten
350
58F
  3
ColorChange
350
593
  3
Conceptual
350
58C
  3
Dim
350
58E
  3
EdgeColorOff
350
59B
  3
Facepattern
350
592
  3
Flat
350
584
  3
FlatWithEdges
350
585
  3
Gouraud
350
586
  3
GouraudWithEdges
350
587
  3
Hidden
350
58B
  3
JitterOff
350
599
  3
Linepattern
350
591
  3
OverhangOff
350
59A
  3
Realistic
350
58D
  3
Shaded
350
598
  3
Shaded with edges
350
597
  3
Shades of Gray
350
594
  3
Sketchy
350
595
  3
Thicken
350
590
  3
Wireframe
350
58A
  3
X-Ray
350
596
  0
XRECORD
  5
60C
102
{ACAD_REACTORS
330
53D
102
}
330
53D
100
AcDbXrecord
280
     1
 90
        1
330
59E
  0
DICTIONARY
  5
561
102
{ACAD_REACTORS
330
53D
102
}
330
53D
100
AcDbDictionary
281
     1
  3
CANNOSCALE
350
5FF
  3
CMLEADERSTYLE
350
5FC
  3
CTABLESTYLE
350
5FB
  3
CVIEWDETAILSTYLE
350
5FD
  3
CVIEWSECTIONSTYLE
350
5FE
  3
DIMADEC
350
562
  3
XCLIPFRAME
350
60A
  0
ACDBDETAILVIEWSTYLE
  5
5B6
102
{ACAD_XDICTIONARY
360
645
102
}
102
{ACAD_REACTORS
330
5B5
102
}
330
5B5
100
AcDbModelDocViewStyle
 70
     0
  3
Imperial24
290
     0
100
AcDbDetailViewStyle
 70
     0
 71
     0
 90
        3
 71
     1
340
540
 62
   256
 40
0.24
340
0
 62
   256
 40
0.24
300

 40
0.36
280
     3
 71
     2
340
544
 90
       25
 62
   256
 71
     3
340
540
 62
   256
 40
0.24
 90
        1
 40
0.75
 90
        1
300
%<\AcVar ViewType \f "%tc1">% %<\AcVar ViewDetailId>%\PSCALE %<\AcVar ViewScale \f "%sn">%
 71
     4
340
544
 90
       25
 62
   256
340
544
 90
       25
 62
   256
280
     0
  0
LAYOUT
  5
5BB
102
{ACAD_REACTORS
330
5BA
102
}
330
5BA
100
AcDbPlotSettings
  1

  2
C:\ACAD-I\support\plotters\Default Windows System Printer.pc3
  4
A4
  6

 40
3.17499995
 41
3.17499995
 42
3.17500305
 43
3.17498779
 44
209.88865662
 45
297.05300903
 46
0.0
 47
0.0
 48
0.0
 49
0.0
140
0.0
141
0.0
142
1.0
143
3304.82632881
 70
 11952
 72
     0
 73
     1
 74
     0
  7
monochrome.ctb
 75
     0
147
0.00030259
 76
     0
 77
     2
 78
   300
148
87034.94378514
149
2899.6748614
100
AcDbLayout
  1
Model
 70
     1
 71
     0
 10
0.0
 20
0.0
 11
12.0
 21
9.0
 12
0.0
 22
0.0
 32
0.0
 14
0.0
 24
0.0
 34
0.0
 15
0.0
 25
0.0
 35
0.0
146
0.0
 13
0.0
 23
0.0
 33
0.0
 16
1.0
 26
0.0
 36
0.0
 17
0.0
 27
1.0
 37
0.0
 76
     0
330
548
1001
ACAD_PSEXT
1000
C:\ACAD-I\support\plotters\Default Windows System Printer.pc3
1000
Fiery PRO80 65-55C-KM PS3.0jp
1000
IP_10.230.204.212
1000

1070
     0
  0
LAYOUT
  5
5BC
102
{ACAD_REACTORS
330
5BA
102
}
330
5BA
100
AcDbPlotSettings
  1

  2
C:\ACAD-I\support\plotters\Default Windows System Printer.pc3
  4
A4
  6

 40
3.17499995
 41
3.17499995
 42
3.17500305
 43
3.17498779
 44
209.88865662
 45
297.05300903
 46
0.0
 47
0.0
 48
0.0
 49
0.0
140
0.0
141
0.0
142
1.0
143
1.0
 70
 15024
 72
     0
 73
     1
 74
     5
  7
monochrome.ctb
 75
    16
147
1.0
 76
     0
 77
     2
 78
   300
148
0.0
149
0.0
100
AcDbLayout
  1
レイアウト1
 70
     0
 71
     1
 10
0.0
 20
0.0
 11
12.0
 21
9.0
 12
0.0
 22
0.0
 32
0.0
 14
1.00000000E+20
 24
1.00000000E+20
 34
1.00000000E+20
 15
-1.00000000E+20
 25
-1.00000000E+20
 35
-1.00000000E+20
146
0.0
 13
0.0
 23
0.0
 33
0.0
 16
1.0
 26
0.0
 36
0.0
 17
0.0
 27
1.0
 37
0.0
 76
     0
330
545
1001
ACAD_PSEXT
1000
C:\ACAD-I\support\plotters\Default Windows System Printer.pc3
1000
Fiery PRO80 65-55C-KM PS3.0jp
1000
IP_10.230.204.212
1000

1070
     0
  0
MATERIAL
  5
573
102
{ACAD_XDICTIONARY
360
574
102
}
102
{ACAD_REACTORS
330
56A
102
}
330
56A
100
AcDbMaterial
  1
ByBlock
 72
     0
 43
0.02083333
 43
0.0
 43
0.0
 43
0.0
 43
0.0
 43
0.02083333
 43
0.0
 43
0.0
 43
0.0
 43
0.0
 43
1.0
 43
0.0
 43
0.0
 43
0.0
 43
0.0
 43
1.0
 77
     0
 47
0.02083333
 47
0.0
 47
0.0
 47
0.0
 47
0.0
 47
0.02083333
 47
0.0
 47
0.0
 47
0.0
 47
0.0
 47
1.0
 47
0.0
 47
0.0
 47
0.0
 47
0.0
 47
1.0
171
     0
 49
0.02083333
 49
0.0
 49
0.0
 49
0.0
 49
0.0
 49
0.02083333
 49
0.0
 49
0.0
 49
0.0
 49
0.0
 49
1.0
 49
0.0
 49
0.0
 49
0.0
 49
0.0
 49
1.0
175
     0
142
0.02083333
142
0.0
142
0.0
142
0.0
142
0.0
142
0.02083333
142
0.0
142
0.0
142
0.0
142
0.0
142
1.0
142
0.0
142
0.0
142
0.0
142
0.0
142
1.0
179
     0
144
0.02083333
144
0.0
144
0.0
144
0.0
144
0.0
144
0.02083333
144
0.0
144
0.0
144
0.0
144
0.0
144
1.0
144
0.0
144
0.0
144
0.0
144
0.0
144
1.0
147
0.02083333
147
0.0
147
0.0
147
0.0
147
0.0
147
0.02083333
147
0.0
147
0.0
147
0.0
147
0.0
147
1.0
147
0.0
147
0.0
147
0.0
147
0.0
147
1.0
  0
MATERIAL
  5
56B
102
{ACAD_XDICTIONARY
360
56C
102
}
102
{ACAD_REACTORS
330
56A
102
}
330
56A
100
AcDbMaterial
  1
ByLayer
 72
     0
 43
0.02083333
 43
0.0
 43
0.0
 43
0.0
 43
0.0
 43
0.02083333
 43
0.0
 43
0.0
 43
0.0
 43
0.0
 43
1.0
 43
0.0
 43
0.0
 43
0.0
 43
0.0
 43
1.0
 77
     0
 47
0.02083333
 47
0.0
 47
0.0
 47
0.0
 47
0.0
 47
0.02083333
 47
0.0
 47
0.0
 47
0.0
 47
0.0
 47
1.0
 47
0.0
 47
0.0
 47
0.0
 47
0.0
 47
1.0
171
     0
 49
0.02083333
 49
0.0
 49
0.0
 49
0.0
 49
0.0
 49
0.02083333
 49
0.0
 49
0.0
 49
0.0
 49
0.0
 49
1.0
 49
0.0
 49
0.0
 49
0.0
 49
0.0
 49
1.0
175
     0
142
0.02083333
142
0.0
142
0.0
142
0.0
142
0.0
142
0.02083333
142
0.0
142
0.0
142
0.0
142
0.0
142
1.0
142
0.0
142
0.0
142
0.0
142
0.0
142
1.0
179
     0
144
0.02083333
144
0.0
144
0.0
144
0.0
144
0.0
144
0.02083333
144
0.0
144
0.0
144
0.0
144
0.0
144
1.0
144
0.0
144
0.0
144
0.0
144
0.0
144
1.0
147
0.02083333
147
0.0
147
0.0
147
0.0
147
0.0
147
0.02083333
147
0.0
147
0.0
147
0.0
147
0.0
147
1.0
147
0.0
147
0.0
147
0.0
147
0.0
147
1.0
  0
MATERIAL
  5
57B
102
{ACAD_XDICTIONARY
360
57C
102
}
102
{ACAD_REACTORS
330
56A
102
}
330
56A
100
AcDbMaterial
  1
Global
 72
     0
 43
0.02083333
 43
0.0
 43
0.0
 43
0.0
 43
0.0
 43
0.02083333
 43
0.0
 43
0.0
 43
0.0
 43
0.0
 43
1.0
 43
0.0
 43
0.0
 43
0.0
 43
0.0
 43
1.0
 77
     0
 47
0.02083333
 47
0.0
 47
0.0
 47
0.0
 47
0.0
 47
0.02083333
 47
0.0
 47
0.0
 47
0.0
 47
0.0
 47
1.0
 47
0.0
 47
0.0
 47
0.0
 47
0.0
 47
1.0
171
     0
 49
0.02083333
 49
0.0
 49
0.0
 49
0.0
 49
0.0
 49
0.02083333
 49
0.0
 49
0.0
 49
0.0
 49
0.0
 49
1.0
 49
0.0
 49
0.0
 49
0.0
 49
0.0
 49
1.0
175
     0
142
0.02083333
142
0.0
142
0.0
142
0.0
142
0.0
142
0.02083333
142
0.0
142
0.0
142
0.0
142
0.0
142
1.0
142
0.0
142
0.0
142
0.0
142
0.0
142
1.0
179
     0
144
0.02083333
144
0.0
144
0.0
144
0.0
144
0.0
144
0.02083333
144
0.0
144
0.0
144
0.0
144
0.0
144
1.0
144
0.0
144
0.0
144
0.0
144
0.0
144
1.0
147
0.02083333
147
0.0
147
0.0
147
0.0
147
0.0
147
0.02083333
147
0.0
147
0.0
147
0.0
147
0.0
147
1.0
147
0.0
147
0.0
147
0.0
147
0.0
147
1.0
  0
MLEADERSTYLE
  5
5B2
102
{ACAD_XDICTIONARY
360
641
102
}
102
{ACAD_REACTORS
330
5B1
102
}
330
5B1
100
AcDbMLeaderStyle
170
     2
171
     1
172
     0
 90
        2
 40
0.0
 41
0.0
173
     1
 91
-1056964608
340
542
 92
       -2
290
     1
 42
0.09
291
     1
 43
0.36
  3
Standard
 44
0.18
300

342
540
174
     1
178
     6
175
     1
176
     0
 93
-1056964608
 45
0.18
292
     0
297
     0
 46
0.18
 94
-1056964608
 47
1.0
 49
1.0
140
1.0
293
     1
141
0.0
294
     1
177
     0
142
1.0
295
     0
296
     0
143
0.125
1001
ACAD_MLEADERVER
1070
     2
  0
MLINESTYLE
  5
54C
102
{ACAD_REACTORS
330
54B
102
}
330
54B
100
AcDbMlineStyle
  2
STANDARD
 70
     0
  3

 62
   256
 51
90.0
 52
90.0
 71
     2
 49
0.5
 62
   256
  6
BYLAYER
 49
-0.5
 62
   256
  6
BYLAYER
  0
ACDBPLACEHOLDER
  5
569
102
{ACAD_REACTORS
330
568
102
}
330
568
  0
SCALE
  5
5A0
102
{ACAD_REACTORS
330
59F
102
}
330
59F
100
AcDbScale
 70
     0
300
1:1
140
1.0
141
1.0
290
     1
  0
SCALE
  5
5A1
102
{ACAD_REACTORS
330
59F
102
}
330
59F
100
AcDbScale
 70
     0
300
1/128" = 1'-0"
140
0.0078125
141
12.0
290
     0
  0
SCALE
  5
5A2
102
{ACAD_REACTORS
330
59F
102
}
330
59F
100
AcDbScale
 70
     0
300
1/64" = 1'-0"
140
0.015625
141
12.0
290
     0
  0
SCALE
  5
5A3
102
{ACAD_REACTORS
330
59F
102
}
330
59F
100
AcDbScale
 70
     0
300
1/32" = 1'-0"
140
0.03125
141
12.0
290
     0
  0
SCALE
  5
5A4
102
{ACAD_REACTORS
330
59F
102
}
330
59F
100
AcDbScale
 70
     0
300
1/16" = 1'-0"
140
0.0625
141
12.0
290
     0
  0
SCALE
  5
5A5
102
{ACAD_REACTORS
330
59F
102
}
330
59F
100
AcDbScale
 70
     0
300
3/32" = 1'-0"
140
0.09375
141
12.0
290
     0
  0
SCALE
  5
5A6
102
{ACAD_REACTORS
330
59F
102
}
330
59F
100
AcDbScale
 70
     0
300
1/8" = 1'-0"
140
0.125
141
12.0
290
     0
  0
SCALE
  5
5A7
102
{ACAD_REACTORS
330
59F
102
}
330
59F
100
AcDbScale
 70
     0
300
3/16" = 1'-0"
140
0.1875
141
12.0
290
     0
  0
SCALE
  5
5A8
102
{ACAD_REACTORS
330
59F
102
}
330
59F
100
AcDbScale
 70
     0
300
1/4" = 1'-0"
140
0.25
141
12.0
290
     0
  0
SCALE
  5
5A9
102
{ACAD_REACTORS
330
59F
102
}
330
59F
100
AcDbScale
 70
     0
300
3/8" = 1'-0"
140
0.375
141
12.0
290
     0
  0
SCALE
  5
5AA
102
{ACAD_REACTORS
330
59F
102
}
330
59F
100
AcDbScale
 70
     0
300
1/2" = 1'-0"
140
0.5
141
12.0
290
     0
  0
SCALE
  5
5AB
102
{ACAD_REACTORS
330
59F
102
}
330
59F
100
AcDbScale
 70
     0
300
3/4" = 1'-0"
140
0.75
141
12.0
290
     0
  0
SCALE
  5
5AC
102
{ACAD_REACTORS
330
59F
102
}
330
59F
100
AcDbScale
 70
     0
300
1" = 1'-0"
140
1.0
141
12.0
290
     0
  0
SCALE
  5
5AD
102
{ACAD_REACTORS
330
59F
102
}
330
59F
100
AcDbScale
 70
     0
300
1-1/2" = 1'-0"
140
1.5
141
12.0
290
     0
  0
SCALE
  5
5AE
102
{ACAD_REACTORS
330
59F
102
}
330
59F
100
AcDbScale
 70
     0
300
3" = 1'-0"
140
3.0
141
12.0
290
     0
  0
SCALE
  5
5AF
102
{ACAD_REACTORS
330
59F
102
}
330
59F
100
AcDbScale
 70
     0
300
6" = 1'-0"
140
6.0
141
12.0
290
     0
  0
SCALE
  5
5B0
102
{ACAD_REACTORS
330
59F
102
}
330
59F
100
AcDbScale
 70
     0
300
1'-0" = 1'-0"
140
12.0
141
12.0
290
     0
  0
ACDBSECTIONVIEWSTYLE
  5
5B4
102
{ACAD_XDICTIONARY
360
643
102
}
102
{ACAD_REACTORS
330
5B3
102
}
330
5B3
100
AcDbModelDocViewStyle
 70
     0
  3
Imperial24
290
     0
100
AcDbSectionViewStyle
 70
     0
 71
     0
 90
      102
 71
     1
340
540
 62
   256
 40
5.0
340
0
340
0
 62
   256
 40
5.0
300
I, O, Q, S, X, Z
 40
10.0
 90
        0
 40
2.5
 90
        0
 71
     2
340
544
 90
       25
 62
   256
340
544
 90
       50
 62
   256
 40
5.0
 40
2.5
 40
5.0
 71
     3
340
540
 62
   256
 40
5.0
 90
        0
 40
15.0
 90
        1
300
%<\AcVar ViewSectionStartId>%-%<\AcVar ViewSectionEndId>% (%<\AcVar ViewScale \f "%sn">%)
 71
     4
 62
   256
 62
   257
300
ANSI31
 40
1.0
 90
        0
290
     0
290
     0
 90
        6
 40
0.0
 40
1.57079633
 40
0.26179939
 40
1.30899694
 40
-0.26179939
 40
1.83259571
  0
TABLESTYLE
  5
59E
102
{ACAD_XDICTIONARY
360
5BD
102
}
102
{ACAD_REACTORS
330
59D
102
}
330
59D
100
AcDbTableStyle
  3
Standard
 70
     0
 71
     0
 40
0.06
 41
0.06
280
     0
281
     0
  7
STANDARD
140
0.18
170
     2
 62
     0
 63
     7
283
     0
274
    -2
284
     1
 64
     0
275
    -2
285
     1
 65
     0
276
    -2
286
     1
 66
     0
277
    -2
287
     1
 67
     0
278
    -2
288
     1
 68
     0
279
    -2
289
     1
 69
     0
  7
STANDARD
140
0.25
170
     5
 62
     0
 63
     7
283
     0
274
    -2
284
     1
 64
     0
275
    -2
285
     1
 65
     0
276
    -2
286
     1
 66
     0
277
    -2
287
     1
 67
     0
278
    -2
288
     1
 68
     0
279
    -2
289
     1
 69
     0
  7
STANDARD
140
0.18
170
     5
 62
     0
 63
     7
283
     0
274
    -2
284
     1
 64
     0
275
    -2
285
     1
 65
     0
276
    -2
286
     1
 66
     0
277
    -2
287
     1
 67
     0
278
    -2
288
     1
 68
     0
279
    -2
289
     1
 69
     0
  0
VISUALSTYLE
  5
589
102
{ACAD_XDICTIONARY
360
61A
102
}
102
{ACAD_REACTORS
330
583
102
}
330
583
100
AcDbVisualStyle
  2
2dWireframe
 70
     4
 71
     0
 72
     2
 73
     0
 90
        0
 40
-0.6
 41
-30.0
 62
     5
 63
     7
421
 16777215
 74
     1
 91
        4
 64
     7
 65
   257
 75
     1
175
     1
 42
1.0
 92
        0
 66
   257
 43
1.0
 76
     1
 77
     6
 78
     2
 67
     7
 79
     5
170
     0
171
     0
290
     0
174
     0
 93
        1
 44
0.0
173
     0
291
     0
 45
0.0
1001
ACAD
1000
AcDbSavedByObjectVersion
1070
     0
  0
VISUALSTYLE
  5
588
102
{ACAD_XDICTIONARY
360
618
102
}
102
{ACAD_REACTORS
330
583
102
}
330
583
100
AcDbVisualStyle
  2
Basic
 70
     7
 71
     1
 72
     0
 73
     1
 90
        0
 40
-0.6
 41
-30.0
 62
     5
 63
     7
421
 16777215
 74
     0
 91
        4
 64
     7
 65
   257
 75
     1
175
     1
 42
1.0
 92
        8
 66
     7
 43
1.0
 76
     1
 77
     6
 78
     2
 67
     7
 79
     5
170
     0
171
     0
290
     0
174
     0
 93
        1
 44
0.0
173
     0
291
     1
 45
0.0
1001
ACAD
1000
AcDbSavedByObjectVersion
1070
     0
  0
VISUALSTYLE
  5
58F
102
{ACAD_XDICTIONARY
360
626
102
}
102
{ACAD_REACTORS
330
583
102
}
330
583
100
AcDbVisualStyle
  2
Brighten
 70
    12
 71
     2
 72
     2
 73
     0
 90
        0
 40
-0.6
 41
-30.0
 62
     5
 63
     7
421
 16777215
 74
     1
 91
        4
 64
     7
 65
   257
 75
     1
175
     1
 42
1.0
 92
        8
 66
     7
 43
1.0
 76
     1
 77
     6
 78
     2
 67
     7
 79
     5
170
     0
171
     0
290
     0
174
     0
 93
        1
 44
50.0
173
     0
291
     1
 45
0.0
1001
ACAD
1000
AcDbSavedByObjectVersion
1070
     0
  0
VISUALSTYLE
  5
593
102
{ACAD_XDICTIONARY
360
62E
102
}
102
{ACAD_REACTORS
330
583
102
}
330
583
100
AcDbVisualStyle
  2
ColorChange
 70
    16
 71
     2
 72
     2
 73
     3
 90
        0
 40
-0.6
 41
-30.0
 62
     5
 63
     8
421
  8421504
 74
     1
 91
        4
 64
     7
 65
   257
 75
     1
175
     1
 42
1.0
 92
        8
 66
     8
424
  8421504
 43
1.0
 76
     1
 77
     6
 78
     2
 67
     7
 79
     5
170
     0
171
     0
290
     0
174
     0
 93
        1
 44
0.0
173
     0
291
     1
 45
0.0
1001
ACAD
1000
AcDbSavedByObjectVersion
1070
     0
  0
VISUALSTYLE
  5
58C
102
{ACAD_XDICTIONARY
360
620
102
}
102
{ACAD_REACTORS
330
583
102
}
330
583
100
AcDbVisualStyle
  2
Conceptual
 70
     9
 71
     3
 72
     2
 73
     0
 90
        0
 40
-0.6
 41
-30.0
 62
     5
 63
     7
421
 16777215
 74
     2
 91
        2
 64
     7
 65
   257
 75
     1
175
     1
 42
179.0
 92
        8
 66
     7
 43
1.0
 76
     1
 77
     6
 78
     2
 67
     7
 79
     3
170
     0
171
     0
290
     0
174
     0
 93
        1
 44
0.0
173
     0
291
     0
 45
0.0
1001
ACAD
1000
AcDbSavedByObjectVersion
1070
     0
  0
VISUALSTYLE
  5
58E
102
{ACAD_XDICTIONARY
360
624
102
}
102
{ACAD_REACTORS
330
583
102
}
330
583
100
AcDbVisualStyle
  2
Dim
 70
    11
 71
     2
 72
     2
 73
     0
 90
        0
 40
-0.6
 41
-30.0
 62
     5
 63
     7
421
 16777215
 74
     1
 91
        4
 64
     7
 65
   257
 75
     1
175
     1
 42
1.0
 92
        8
 66
     7
 43
1.0
 76
     1
 77
     6
 78
     2
 67
     7
 79
     5
170
     0
171
     0
290
     0
174
     0
 93
        1
 44
-50.0
173
     0
291
     1
 45
0.0
1001
ACAD
1000
AcDbSavedByObjectVersion
1070
     0
  0
VISUALSTYLE
  5
59B
102
{ACAD_XDICTIONARY
360
63E
102
}
102
{ACAD_REACTORS
330
583
102
}
330
583
100
AcDbVisualStyle
  2
EdgeColorOff
 70
    22
 71
     2
 72
     2
 73
     0
 90
        0
 40
-0.6
 41
-30.0
 62
     5
 63
     7
421
 16777215
 74
     1
 91
        4
 64
     7
 65
   257
 75
     1
175
     1
 42
1.0
 92
        8
 66
     7
 43
1.0
 76
     1
 77
     6
 78
     2
 67
     7
 79
     5
170
     0
171
     0
290
     0
174
     0
 93
        1
 44
0.0
173
     0
291
     1
 45
0.0
1001
ACAD
1000
AcDbSavedByObjectVersion
1070
     0
  0
VISUALSTYLE
  5
592
102
{ACAD_XDICTIONARY
360
62C
102
}
102
{ACAD_REACTORS
330
583
102
}
330
583
100
AcDbVisualStyle
  2
Facepattern
 70
    15
 71
     2
 72
     2
 73
     0
 90
        0
 40
-0.6
 41
-30.0
 62
     5
 63
     7
421
 16777215
 74
     1
 91
        4
 64
     7
 65
   257
 75
     1
175
     1
 42
1.0
 92
        8
 66
     7
 43
1.0
 76
     1
 77
     6
 78
     2
 67
     7
 79
     5
170
     0
171
     0
290
     0
174
     0
 93
        1
 44
0.0
173
     0
291
     1
 45
0.0
1001
ACAD
1000
AcDbSavedByObjectVersion
1070
     0
  0
VISUALSTYLE
  5
584
102
{ACAD_XDICTIONARY
360
610
102
}
102
{ACAD_REACTORS
330
583
102
}
330
583
100
AcDbVisualStyle
  2
Flat
 70
     0
 71
     2
 72
     1
 73
     1
 90
        2
 40
-0.6
 41
30.0
 62
     5
 63
     7
421
 16777215
 74
     0
 91
        0
 64
     7
 65
   257
 75
     1
175
     1
 42
1.0
 92
        8
 66
     7
 43
1.0
 76
     1
 77
     6
 78
     2
 67
     7
 79
     5
170
     0
171
     0
290
     0
174
     0
 93
       13
 44
0.0
173
     0
291
     1
 45
0.0
1001
ACAD
1000
AcDbSavedByObjectVersion
1070
     0
  0
VISUALSTYLE
  5
585
102
{ACAD_XDICTIONARY
360
612
102
}
102
{ACAD_REACTORS
330
583
102
}
330
583
100
AcDbVisualStyle
  2
FlatWithEdges
 70
     1
 71
     2
 72
     1
 73
     1
 90
        2
 40
-0.6
 41
30.0
 62
     5
 63
     7
421
 16777215
 74
     1
 91
        0
 64
     7
 65
   257
 75
     1
175
     1
 42
1.0
 92
        0
 66
   257
 43
1.0
 76
     1
 77
     6
 78
     2
 67
     7
 79
     5
170
     0
171
     0
290
     0
174
     0
 93
       13
 44
0.0
173
     0
291
     1
 45
0.0
1001
ACAD
1000
AcDbSavedByObjectVersion
1070
     0
  0
VISUALSTYLE
  5
586
102
{ACAD_XDICTIONARY
360
614
102
}
102
{ACAD_REACTORS
330
583
102
}
330
583
100
AcDbVisualStyle
  2
Gouraud
 70
     2
 71
     2
 72
     2
 73
     1
 90
        2
 40
-0.6
 41
30.0
 62
     5
 63
     7
421
 16777215
 74
     0
 91
        0
 64
     7
 65
   257
 75
     1
175
     1
 42
1.0
 92
        0
 66
     7
 43
1.0
 76
     1
 77
     6
 78
     2
 67
     7
 79
     5
170
     0
171
     0
290
     0
174
     0
 93
       13
 44
0.0
173
     0
291
     1
 45
0.0
1001
ACAD
1000
AcDbSavedByObjectVersion
1070
     0
  0
VISUALSTYLE
  5
587
102
{ACAD_XDICTIONARY
360
616
102
}
102
{ACAD_REACTORS
330
583
102
}
330
583
100
AcDbVisualStyle
  2
GouraudWithEdges
 70
     3
 71
     2
 72
     2
 73
     1
 90
        2
 40
-0.6
 41
30.0
 62
     5
 63
     7
421
 16777215
 74
     1
 91
        0
 64
     7
 65
   257
 75
     1
175
     1
 42
1.0
 92
        0
 66
   257
 43
1.0
 76
     1
 77
     6
 78
     2
 67
     7
 79
     5
170
     0
171
     0
290
     0
174
     0
 93
       13
 44
0.0
173
     0
291
     1
 45
0.0
1001
ACAD
1000
AcDbSavedByObjectVersion
1070
     0
  0
VISUALSTYLE
  5
58B
102
{ACAD_XDICTIONARY
360
61E
102
}
102
{ACAD_REACTORS
330
583
102
}
330
583
100
AcDbVisualStyle
  2
Hidden
 70
     6
 71
     1
 72
     2
 73
     2
 90
        0
 40
-0.6
 41
-30.0
 62
     5
 63
     7
421
 16777215
 74
     2
 91
        2
 64
     7
 65
   257
 75
     2
175
     1
 42
40.0
 92
        0
 66
   257
 43
1.0
 76
     1
 77
     6
 78
     2
 67
     7
 79
     3
170
     0
171
     0
290
     0
174
     0
 93
        1
 44
0.0
173
     0
291
     0
 45
0.0
1001
ACAD
1000
AcDbSavedByObjectVersion
1070
     0
  0
VISUALSTYLE
  5
599
102
{ACAD_XDICTIONARY
360
63A
102
}
102
{ACAD_REACTORS
330
583
102
}
330
583
100
AcDbVisualStyle
  2
JitterOff
 70
    20
 71
     2
 72
     2
 73
     0
 90
        0
 40
-0.6
 41
-30.0
 62
     5
 63
     7
421
 16777215
 74
     1
 91
        4
 64
     7
 65
   257
 75
     1
175
     1
 42
1.0
 92
       10
 66
     7
 43
1.0
 76
     1
 77
     6
 78
     2
 67
     7
 79
     5
170
     0
171
     0
290
     0
174
     0
 93
        1
 44
0.0
173
     0
291
     1
 45
0.0
1001
ACAD
1000
AcDbSavedByObjectVersion
1070
     0
  0
VISUALSTYLE
  5
591
102
{ACAD_XDICTIONARY
360
62A
102
}
102
{ACAD_REACTORS
330
583
102
}
330
583
100
AcDbVisualStyle
  2
Linepattern
 70
    14
 71
     2
 72
     2
 73
     0
 90
        0
 40
-0.6
 41
-30.0
 62
     5
 63
     7
421
 16777215
 74
     1
 91
        4
 64
     7
 65
   257
 75
     7
175
     7
 42
1.0
 92
        8
 66
     7
 43
1.0
 76
     1
 77
     6
 78
     2
 67
     7
 79
     5
170
     0
171
     0
290
     0
174
     0
 93
        1
 44
0.0
173
     0
291
     1
 45
0.0
1001
ACAD
1000
AcDbSavedByObjectVersion
1070
     0
  0
VISUALSTYLE
  5
59A
102
{ACAD_XDICTIONARY
360
63C
102
}
102
{ACAD_REACTORS
330
583
102
}
330
583
100
AcDbVisualStyle
  2
OverhangOff
 70
    21
 71
     2
 72
     2
 73
     0
 90
        0
 40
-0.6
 41
-30.0
 62
     5
 63
     7
421
 16777215
 74
     1
 91
        4
 64
     7
 65
   257
 75
     1
175
     1
 42
1.0
 92
        9
 66
     7
 43
1.0
 76
     1
 77
     6
 78
     2
 67
     7
 79
     5
170
     0
171
     0
290
     0
174
     0
 93
        1
 44
0.0
173
     0
291
     1
 45
0.0
1001
ACAD
1000
AcDbSavedByObjectVersion
1070
     0
  0
VISUALSTYLE
  5
58D
102
{ACAD_XDICTIONARY
360
622
102
}
102
{ACAD_REACTORS
330
583
102
}
330
583
100
AcDbVisualStyle
  2
Realistic
 70
     8
 71
     2
 72
     2
 73
     0
 90
        2
 40
-0.6
 41
30.0
 62
     5
 63
     7
421
 16777215
 74
     0
 91
        0
 64
     7
 65
   257
 75
     1
175
     1
 42
1.0
 92
        8
 66
   257
 43
1.0
 76
     1
 77
     6
 78
     2
 67
     7
 79
     3
170
     0
171
     0
290
     0
174
     0
 93
       13
 44
0.0
173
     0
291
     0
 45
0.0
1001
ACAD
1000
AcDbSavedByObjectVersion
1070
     0
  0
VISUALSTYLE
  5
598
102
{ACAD_XDICTIONARY
360
638
102
}
102
{ACAD_REACTORS
330
583
102
}
330
583
100
AcDbVisualStyle
  2
Shaded
 70
    27
 71
     2
 72
     2
 73
     1
 90
        2
 40
-0.6
 41
30.0
 62
     5
 63
     7
421
 16777215
 74
     0
 91
        4
 64
     7
 65
   257
 75
     1
175
     1
 42
1.0
 92
        8
 66
   257
 43
1.0
 76
     1
 77
     6
 78
     2
 67
     8
425
  7895160
 79
     3
170
     0
171
     0
290
     0
174
     0
 93
        5
 44
0.0
173
     0
291
     0
 45
0.0
1001
ACAD
1000
AcDbSavedByObjectVersion
1070
     0
  0
VISUALSTYLE
  5
597
102
{ACAD_XDICTIONARY
360
636
102
}
102
{ACAD_REACTORS
330
583
102
}
330
583
100
AcDbVisualStyle
  2
Shaded with edges
 70
    26
 71
     2
 72
     2
 73
     1
 90
        2
 40
-0.6
 41
30.0
 62
     5
 63
     7
421
 16777215
 74
     1
 91
       10
 64
     7
 65
   257
 75
     2
175
     1
 42
1.0
 92
        8
 66
   257
 43
1.0
 76
     1
 77
     6
 78
     2
 67
     7
 79
     3
170
     0
171
     0
290
     0
174
     0
 93
        5
 44
0.0
173
     0
291
     0
 45
0.0
1001
ACAD
1000
AcDbSavedByObjectVersion
1070
     0
  0
VISUALSTYLE
  5
594
102
{ACAD_XDICTIONARY
360
630
102
}
102
{ACAD_REACTORS
330
583
102
}
330
583
100
AcDbVisualStyle
  2
Shades of Gray
 70
    23
 71
     2
 72
     2
 73
     3
 90
        0
 40
-0.6
 41
-30.0
 62
     5
 63
     7
421
 16777215
 74
     2
 91
        2
 64
     7
 65
     7
 75
     1
175
     1
 42
40.0
 92
        8
 66
     7
 43
1.0
 76
     1
 77
     6
 78
     2
 67
     7
 79
     3
170
     0
171
     0
290
     0
174
     0
 93
        1
 44
0.0
173
     0
291
     0
 45
0.0
1001
ACAD
1000
AcDbSavedByObjectVersion
1070
     0
  0
VISUALSTYLE
  5
595
102
{ACAD_XDICTIONARY
360
632
102
}
102
{ACAD_REACTORS
330
583
102
}
330
583
100
AcDbVisualStyle
  2
Sketchy
 70
    24
 71
     1
 72
     2
 73
     2
 90
        0
 40
-0.6
 41
-30.0
 62
     5
 63
     7
421
 16777215
 74
     2
 91
        2
 64
     7
 65
     7
 75
     1
175
     1
 42
40.0
 92
       11
 66
     7
 43
1.0
 76
     1
 77
     6
 78
     2
 67
     7
 79
     6
170
     0
171
     0
290
     0
174
     0
 93
        1
 44
0.0
173
     0
291
     0
 45
0.0
1001
ACAD
1000
AcDbSavedByObjectVersion
1070
     0
  0
VISUALSTYLE
  5
590
102
{ACAD_XDICTIONARY
360
628
102
}
102
{ACAD_REACTORS
330
583
102
}
330
583
100
AcDbVisualStyle
  2
Thicken
 70
    13
 71
     2
 72
     2
 73
     0
 90
        0
 40
-0.6
 41
-30.0
 62
     5
 63
     7
421
 16777215
 74
     1
 91
        4
 64
     7
 65
   257
 75
     1
175
     1
 42
1.0
 92
       12
 66
     7
 43
1.0
 76
     1
 77
     6
 78
     2
 67
     7
 79
     5
170
     0
171
     0
290
     0
174
     0
 93
        1
 44
0.0
173
     0
291
     1
 45
0.0
1001
ACAD
1000
AcDbSavedByObjectVersion
1070
     0
  0
VISUALSTYLE
  5
58A
102
{ACAD_XDICTIONARY
360
61C
102
}
102
{ACAD_REACTORS
330
583
102
}
330
583
100
AcDbVisualStyle
  2
Wireframe
 70
     5
 71
     0
 72
     2
 73
     0
 90
        0
 40
-0.6
 41
-30.0
 62
     5
 63
     7
421
 16777215
 74
     1
 91
        4
 64
     7
 65
   257
 75
     1
175
     1
 42
1.0
 92
        0
 66
   257
 43
1.0
 76
     1
 77
     6
 78
     2
 67
     7
 79
     3
170
     0
171
     0
290
     0
174
     0
 93
        1
 44
0.0
173
     0
291
     0
 45
0.0
1001
ACAD
1000
AcDbSavedByObjectVersion
1070
     0
  0
VISUALSTYLE
  5
596
102
{ACAD_XDICTIONARY
360
634
102
}
102
{ACAD_REACTORS
330
583
102
}
330
583
100
AcDbVisualStyle
  2
X-Ray
 70
    25
 71
     2
 72
     2
 73
     1
 90
        1
 40
0.5
 41
-30.0
 62
     5
 63
     7
421
 16777215
 74
     1
 91
        0
 64
     7
 65
   257
 75
     1
175
     1
 42
1.0
 92
        8
 66
     7
 43
1.0
 76
     1
 77
     6
 78
     2
 67
     7
 79
     3
170
     0
171
     0
290
     0
174
     0
 93
       13
 44
0.0
173
     0
291
     0
 45
0.0
1001
ACAD
1000
AcDbSavedByObjectVersion
1070
     0
  0
DICTIONARYVAR
  5
5FF
102
{ACAD_REACTORS
330
561
102
}
330
561
100
DictionaryVariables
280
     0
  1
1:1
  0
DICTIONARYVAR
  5
5FC
102
{ACAD_REACTORS
330
561
102
}
330
561
100
DictionaryVariables
280
     0
  1
STANDARD
  0
DICTIONARYVAR
  5
5FB
102
{ACAD_REACTORS
330
561
102
}
330
561
100
DictionaryVariables
280
     0
  1
STANDARD
  0
DICTIONARYVAR
  5
5FD
102
{ACAD_REACTORS
330
561
102
}
330
561
100
DictionaryVariables
280
     0
  1
Imperial24
  0
DICTIONARYVAR
  5
5FE
102
{ACAD_REACTORS
330
561
102
}
330
561
100
DictionaryVariables
280
     0
  1
Imperial24
  0
DICTIONARYVAR
  5
562
102
{ACAD_REACTORS
330
561
102
}
330
561
100
DictionaryVariables
280
     0
  1
0
  0
DICTIONARYVAR
  5
60A
102
{ACAD_REACTORS
330
561
102
}
330
561
100
DictionaryVariables
280
     0
  1
2
  0
DICTIONARY
  5
645
330
5B6
100
AcDbDictionary
280
     1
281
     1
  3
ACAD_XREC_ROUNDTRIP
360
646
  0
DICTIONARY
  5
574
330
573
100
AcDbDictionary
280
     1
281
     1
  3
ACAD_XREC_ROUNDTRIP
360
60E
  3
BUMPTILE
360
576
  3
DIFFUSETILE
360
575
  3
OPACITYTILE
360
579
  3
REFLECTIONTILE
360
578
  3
REFRACTIONTILE
360
57A
  3
SPECULARTILE
360
577
  0
DICTIONARY
  5
56C
330
56B
100
AcDbDictionary
280
     1
281
     1
  3
ACAD_XREC_ROUNDTRIP
360
60D
  3
BUMPTILE
360
56E
  3
DIFFUSETILE
360
56D
  3
OPACITYTILE
360
571
  3
REFLECTIONTILE
360
570
  3
REFRACTIONTILE
360
572
  3
SPECULARTILE
360
56F
  0
DICTIONARY
  5
57C
330
57B
100
AcDbDictionary
280
     1
281
     1
  3
ACAD_XREC_ROUNDTRIP
360
60F
  3
BUMPTILE
360
57E
  3
DIFFUSETILE
360
57D
  3
OPACITYTILE
360
581
  3
REFLECTIONTILE
360
580
  3
REFRACTIONTILE
360
582
  3
SPECULARTILE
360
57F
  0
DICTIONARY
  5
641
330
5B2
100
AcDbDictionary
280
     1
281
     1
  3
ACAD_XREC_ROUNDTRIP
360
642
  0
DICTIONARY
  5
643
330
5B4
100
AcDbDictionary
280
     1
281
     1
  3
ACAD_XREC_ROUNDTRIP
360
644
  0
DICTIONARY
  5
5BD
330
59E
100
AcDbDictionary
280
     1
281
     1
  3
ACAD_ROUNDTRIP_2008_TABLESTYLE_CELLSTYLEMAP
360
60B
  3
ACAD_XREC_ROUNDTRIP
360
640
  0
DICTIONARY
  5
61A
330
589
100
AcDbDictionary
280
     1
281
     1
  3
ACAD_XREC_ROUNDTRIP
360
61B
  0
DICTIONARY
  5
618
330
588
100
AcDbDictionary
280
     1
281
     1
  3
ACAD_XREC_ROUNDTRIP
360
619
  0
DICTIONARY
  5
626
330
58F
100
AcDbDictionary
280
     1
281
     1
  3
ACAD_XREC_ROUNDTRIP
360
627
  0
DICTIONARY
  5
62E
330
593
100
AcDbDictionary
280
     1
281
     1
  3
ACAD_XREC_ROUNDTRIP
360
62F
  0
DICTIONARY
  5
620
330
58C
100
AcDbDictionary
280
     1
281
     1
  3
ACAD_XREC_ROUNDTRIP
360
621
  0
DICTIONARY
  5
624
330
58E
100
AcDbDictionary
280
     1
281
     1
  3
ACAD_XREC_ROUNDTRIP
360
625
  0
DICTIONARY
  5
63E
330
59B
100
AcDbDictionary
280
     1
281
     1
  3
ACAD_XREC_ROUNDTRIP
360
63F
  0
DICTIONARY
  5
62C
330
592
100
AcDbDictionary
280
     1
281
     1
  3
ACAD_XREC_ROUNDTRIP
360
62D
  0
DICTIONARY
  5
610
330
584
100
AcDbDictionary
280
     1
281
     1
  3
ACAD_XREC_ROUNDTRIP
360
611
  0
DICTIONARY
  5
612
330
585
100
AcDbDictionary
280
     1
281
     1
  3
ACAD_XREC_ROUNDTRIP
360
613
  0
DICTIONARY
  5
614
330
586
100
AcDbDictionary
280
     1
281
     1
  3
ACAD_XREC_ROUNDTRIP
360
615
  0
DICTIONARY
  5
616
330
587
100
AcDbDictionary
280
     1
281
     1
  3
ACAD_XREC_ROUNDTRIP
360
617
  0
DICTIONARY
  5
61E
330
58B
100
AcDbDictionary
280
     1
281
     1
  3
ACAD_XREC_ROUNDTRIP
360
61F
  0
DICTIONARY
  5
63A
330
599
100
AcDbDictionary
280
     1
281
     1
  3
ACAD_XREC_ROUNDTRIP
360
63B
  0
DICTIONARY
  5
62A
330
591
100
AcDbDictionary
280
     1
281
     1
  3
ACAD_XREC_ROUNDTRIP
360
62B
  0
DICTIONARY
  5
63C
330
59A
100
AcDbDictionary
280
     1
281
     1
  3
ACAD_XREC_ROUNDTRIP
360
63D
  0
DICTIONARY
  5
622
330
58D
100
AcDbDictionary
280
     1
281
     1
  3
ACAD_XREC_ROUNDTRIP
360
623
  0
DICTIONARY
  5
638
330
598
100
AcDbDictionary
280
     1
281
     1
  3
ACAD_XREC_ROUNDTRIP
360
639
  0
DICTIONARY
  5
636
330
597
100
AcDbDictionary
280
     1
281
     1
  3
ACAD_XREC_ROUNDTRIP
360
637
  0
DICTIONARY
  5
630
330
594
100
AcDbDictionary
280
     1
281
     1
  3
ACAD_XREC_ROUNDTRIP
360
631
  0
DICTIONARY
  5
632
330
595
100
AcDbDictionary
280
     1
281
     1
  3
ACAD_XREC_ROUNDTRIP
360
633
  0
DICTIONARY
  5
628
330
590
100
AcDbDictionary
280
     1
281
     1
  3
ACAD_XREC_ROUNDTRIP
360
629
  0
DICTIONARY
  5
61C
330
58A
100
AcDbDictionary
280
     1
281
     1
  3
ACAD_XREC_ROUNDTRIP
360
61D
  0
DICTIONARY
  5
634
330
596
100
AcDbDictionary
280
     1
281
     1
  3
ACAD_XREC_ROUNDTRIP
360
635
  0
XRECORD
  5
646
102
{ACAD_REACTORS
330
645
102
}
330
645
100
AcDbXrecord
280
     1
102
DISPLAYNAME
  1
Imperial24
102
FLAGS
 90
        0
  0
XRECORD
  5
60E
102
{ACAD_REACTORS
330
574
102
}
330
574
100
AcDbXrecord
280
     1
102
MATERIAL
148
0.0
149
0.0
149
0.0
 93
        0
 94
      127
282
     0
 72
     0
 77
     0
171
     0
175
     0
179
     0
273
     0
  0
XRECORD
  5
576
102
{ACAD_REACTORS
330
574
102
}
330
574
100
AcDbXrecord
280
     1
270
     1
271
     1
  0
XRECORD
  5
575
102
{ACAD_REACTORS
330
574
102
}
330
574
100
AcDbXrecord
280
     1
270
     1
271
     1
  0
XRECORD
  5
579
102
{ACAD_REACTORS
330
574
102
}
330
574
100
AcDbXrecord
280
     1
270
     1
271
     1
  0
XRECORD
  5
578
102
{ACAD_REACTORS
330
574
102
}
330
574
100
AcDbXrecord
280
     1
270
     1
271
     1
  0
XRECORD
  5
57A
102
{ACAD_REACTORS
330
574
102
}
330
574
100
AcDbXrecord
280
     1
270
     1
271
     1
  0
XRECORD
  5
577
102
{ACAD_REACTORS
330
574
102
}
330
574
100
AcDbXrecord
280
     1
270
     1
271
     1
  0
XRECORD
  5
60D
102
{ACAD_REACTORS
330
56C
102
}
330
56C
100
AcDbXrecord
280
     1
102
MATERIAL
148
0.0
149
0.0
149
0.0
 93
        0
 94
      127
282
     0
 72
     0
 77
     0
171
     0
175
     0
179
     0
273
     0
  0
XRECORD
  5
56E
102
{ACAD_REACTORS
330
56C
102
}
330
56C
100
AcDbXrecord
280
     1
270
     1
271
     1
  0
XRECORD
  5
56D
102
{ACAD_REACTORS
330
56C
102
}
330
56C
100
AcDbXrecord
280
     1
270
     1
271
     1
  0
XRECORD
  5
571
102
{ACAD_REACTORS
330
56C
102
}
330
56C
100
AcDbXrecord
280
     1
270
     1
271
     1
  0
XRECORD
  5
570
102
{ACAD_REACTORS
330
56C
102
}
330
56C
100
AcDbXrecord
280
     1
270
     1
271
     1
  0
XRECORD
  5
572
102
{ACAD_REACTORS
330
56C
102
}
330
56C
100
AcDbXrecord
280
     1
270
     1
271
     1
  0
XRECORD
  5
56F
102
{ACAD_REACTORS
330
56C
102
}
330
56C
100
AcDbXrecord
280
     1
270
     1
271
     1
  0
XRECORD
  5
60F
102
{ACAD_REACTORS
330
57C
102
}
330
57C
100
AcDbXrecord
280
     1
102
MATERIAL
148
0.0
149
0.0
149
0.0
 93
        0
 94
      127
282
     0
 72
     0
 77
     0
171
     0
175
     0
179
     0
273
     0
  0
XRECORD
  5
57E
102
{ACAD_REACTORS
330
57C
102
}
330
57C
100
AcDbXrecord
280
     1
270
     1
271
     1
  0
XRECORD
  5
57D
102
{ACAD_REACTORS
330
57C
102
}
330
57C
100
AcDbXrecord
280
     1
270
     1
271
     1
  0
XRECORD
  5
581
102
{ACAD_REACTORS
330
57C
102
}
330
57C
100
AcDbXrecord
280
     1
270
     1
271
     1
  0
XRECORD
  5
580
102
{ACAD_REACTORS
330
57C
102
}
330
57C
100
AcDbXrecord
280
     1
270
     1
271
     1
  0
XRECORD
  5
582
102
{ACAD_REACTORS
330
57C
102
}
330
57C
100
AcDbXrecord
280
     1
270
     1
271
     1
  0
XRECORD
  5
57F
102
{ACAD_REACTORS
330
57C
102
}
330
57C
100
AcDbXrecord
280
     1
270
     1
271
     1
  0
XRECORD
  5
642
102
{ACAD_REACTORS
330
641
102
}
330
641
100
AcDbXrecord
280
     1
102
ACAD_ROUNDTRIP_2012_MLEADER_STYLE
298
     1
  0
XRECORD
  5
644
102
{ACAD_REACTORS
330
643
102
}
330
643
100
AcDbXrecord
280
     1
102
DISPLAYNAME
  1
Imperial24
102
FLAGS
 90
        0
  0
CELLSTYLEMAP
  5
60B
102
{ACAD_REACTORS
330
5BD
102
}
330
5BD
100
AcDbCellStyleMap
 90
        3
300
CELLSTYLE
  1
TABLEFORMAT_BEGIN
 90
        5
170
     1
 91
        0
 92
    32768
 62
   257
 93
        1
300
CONTENTFORMAT
  1
CONTENTFORMAT_BEGIN
 90
        0
 91
        0
 92
      512
 93
        0
300

 40
0.0
140
1.0
 94
        5
 62
     0
340
540
144
0.25
309
CONTENTFORMAT_END
171
     0
 94
        0
309
TABLEFORMAT_END
  1
CELLSTYLE_BEGIN
 90
        1
 91
        1
300
_TITLE
309
CELLSTYLE_END
300
CELLSTYLE
  1
TABLEFORMAT_BEGIN
 90
        5
170
     1
 91
        0
 92
        0
 62
   257
 93
        1
300
CONTENTFORMAT
  1
CONTENTFORMAT_BEGIN
 90
        0
 91
        0
 92
      512
 93
        0
300

 40
0.0
140
1.0
 94
        5
 62
     0
340
540
144
0.18
309
CONTENTFORMAT_END
171
     0
 94
        0
309
TABLEFORMAT_END
  1
CELLSTYLE_BEGIN
 90
        2
 91
        1
300
_HEADER
309
CELLSTYLE_END
300
CELLSTYLE
  1
TABLEFORMAT_BEGIN
 90
        5
170
     1
 91
        0
 92
        0
 62
   257
 93
        1
300
CONTENTFORMAT
  1
CONTENTFORMAT_BEGIN
 90
        0
 91
        0
 92
      512
 93
        0
300

 40
0.0
140
1.0
 94
        2
 62
     0
340
540
144
0.18
309
CONTENTFORMAT_END
171
     0
 94
        0
309
TABLEFORMAT_END
  1
CELLSTYLE_BEGIN
 90
        3
 91
        2
300
_DATA
309
CELLSTYLE_END
  0
XRECORD
  5
640
102
{ACAD_REACTORS
330
5BD
102
}
330
5BD
100
AcDbXrecord
280
     1
102
ACAD_ROUNDTRIP_PRE2007_TABLESTYLE
 90
      512
 91
        0
  1

 92
      512
 93
        0
  2

 94
      512
 95
        0
  3

  0
XRECORD
  5
61B
102
{ACAD_REACTORS
330
61A
102
}
330
61A
100
AcDbXrecord
280
     1
102
RTVSPost2010Prop28
280
     1
102
RTVSPost2010PropOp28
 70
     1
102
RTVSPost2010Prop29
280
     1
102
RTVSPost2010PropOp29
 70
     1
102
RTVSPost2010Prop30
280
     0
102
RTVSPost2010PropOp30
 70
     1
102
RTVSPost2010Prop31
280
     0
102
RTVSPost2010PropOp31
 70
     1
102
RTVSPost2010Prop32
280
     0
102
RTVSPost2010PropOp32
 70
     1
102
RTVSPost2010Prop33
280
     0
102
RTVSPost2010PropOp33
 70
     1
102
RTVSPost2010Prop34
280
     0
102
RTVSPost2010PropOp34
 70
     1
102
RTVSPost2010Prop35
280
     0
102
RTVSPost2010PropOp35
 70
     1
102
RTVSPost2010Prop36
280
     0
102
RTVSPost2010PropOp36
 70
     1
102
RTVSPost2010Prop37
 90
       50
102
RTVSPost2010PropOp37
 70
     1
102
RTVSPost2010Prop38
140
0.0
102
RTVSPost2010PropOp38
 70
     1
102
RTVSPost2010Prop39
140
1.0
102
RTVSPost2010PropOp39
 70
     1
102
RTVSPost2010Prop40
 90
        0
102
RTVSPost2010PropOp40
 70
     1
102
RTVSPost2010Prop41ColorIndex
 90
       18
102
RTVSPost2010Prop41ColorRGB
 90
        0
102
RTVSPost2010PropOp41
 70
     1
102
RTVSPost2010Prop42
 90
       50
102
RTVSPost2010PropOp42
 70
     1
102
RTVSPost2010Prop43
 90
        3
102
RTVSPost2010PropOp43
 70
     1
102
RTVSPost2010Prop44ColorIndex
 90
        5
102
RTVSPost2010Prop44ColorRGB
 90
      255
102
RTVSPost2010PropOp44
 70
     1
102
RTVSPost2010Prop45
280
     0
102
RTVSPost2010PropOp45
 70
     1
102
RTVSPost2010Prop46
 90
       50
102
RTVSPost2010PropOp46
 70
     1
102
RTVSPost2010Prop47
 90
       50
102
RTVSPost2010PropOp47
 70
     1
102
RTVSPost2010Prop48
 90
       50
102
RTVSPost2010PropOp48
 70
     1
102
RTVSPost2010Prop49
280
     0
102
RTVSPost2010PropOp49
 70
     1
102
RTVSPost2010Prop50
 90
       50
102
RTVSPost2010PropOp50
 70
     1
102
RTVSPost2010Prop51ColorIndex
 90
      256
102
RTVSPost2010Prop51ColorRGB
 90
-16777216
102
RTVSPost2010PropOp51
 70
     0
102
RTVSPost2010Prop52
140
1.0
102
RTVSPost2010PropOp52
 70
     0
102
RTVSPost2010Prop53
 90
        2
102
RTVSPost2010PropOp53
 70
     1
102
RTVSPost2010Prop54
  1
strokes_ogs.tif
102
RTVSPost2010PropOp54
 70
     1
102
RTVSPost2010Prop55
280
     0
102
RTVSPost2010PropOp55
 70
     1
102
RTVSPost2010Prop56
140
1.0
102
RTVSPost2010PropOp56
 70
     1
102
RTVSPost2010Prop57
140
1.0
102
RTVSPost2010PropOp57
 70
     1
102
RTVSPropertyOp0
 70
     1
102
RTVSPropertyOp1
 70
     1
102
RTVSPropertyOp2
 70
     1
102
RTVSPropertyOp3
 70
     1
102
RTVSPropertyOp4
 70
     1
102
RTVSPropertyOp5
 70
     1
102
RTVSPropertyOp6
 70
     1
102
RTVSPropertyOp7
 70
     1
102
RTVSPropertyOp8
 70
     1
102
RTVSPropertyOp9
 70
     1
102
RTVSPropertyOp10
 70
     1
102
RTVSPropertyOp11
 70
     1
102
RTVSPropertyOp12
 70
     1
102
RTVSPropertyOp13
 70
     1
102
RTVSPropertyOp14
 70
     1
102
RTVSPropertyOp15
 70
     1
102
RTVSPropertyOp16
 70
     1
102
RTVSPropertyOp17
 70
     1
102
RTVSPropertyOp18
 70
     1
102
RTVSPropertyOp19
 70
     1
102
RTVSPropertyOp20
 70
     1
102
RTVSPropertyOp21
 70
     1
102
RTVSPropertyOp22
 70
     1
102
RTVSPropertyOp23
 70
     1
102
RTVSPropertyOp24
 70
     1
102
RTVSPropertyOp25
 70
     1
102
RTVSPropertyOp26
 70
     1
102
RTVSPropertyOp27
 70
     1
102
RTVSPropertyOp28
 70
     1
102
RTVSPropertyOp29
 70
     1
102
RTVSPropertyOp30
 70
     1
102
RTVSPropertyOp31
 70
     1
102
RTVSPropertyOp32
 70
     1
102
RTVSPropertyOp33
 70
     1
102
RTVSPropertyOp34
 70
     1
102
RTVSPropertyOp35
 70
     1
102
RTVSPropertyOp36
 70
     1
102
RTVSPropertyOp37
 70
     1
102
RTVSPropertyOp38
 70
     1
102
RTVSPropertyOp39
 70
     1
102
RTVSPropertyOp40
 70
     1
102
RTVSPropertyOp41
 70
     1
102
RTVSPropertyOp42
 70
     1
102
RTVSPropertyOp43
 70
     1
102
RTVSPropertyOp44
 70
     1
102
RTVSPropertyOp45
 70
     1
102
RTVSPropertyOp46
 70
     1
102
RTVSPropertyOp47
 70
     1
102
RTVSPropertyOp48
 70
     1
102
RTVSPropertyOp49
 70
     1
102
RTVSPropertyOp50
 70
     1
102
RTVSPropertyOp51
 70
     0
102
RTVSPropertyOp52
 70
     0
102
RTVSPropertyOp53
 70
     1
102
RTVSPropertyOp54
 70
     1
102
RTVSPropertyOp55
 70
     1
102
RTVSPropertyOp56
 70
     1
102
RTVSPropertyOp57
 70
     1
102
RTVSPropertyOp58
 70
     1
102
RTVSPropertyOp59
 70
     1
102
RTVSPropertyOp60
 70
     1
102
RTVSPropertyOp61
 70
     1
102
RTVSPropertyOp62
 70
     1
  0
XRECORD
  5
619
102
{ACAD_REACTORS
330
618
102
}
330
618
100
AcDbXrecord
280
     1
102
RTVSPost2010Prop28
280
     0
102
RTVSPost2010PropOp28
 70
     1
102
RTVSPost2010Prop29
280
     1
102
RTVSPost2010PropOp29
 70
     1
102
RTVSPost2010Prop30
280
     1
102
RTVSPost2010PropOp30
 70
     1
102
RTVSPost2010Prop31
280
     0
102
RTVSPost2010PropOp31
 70
     1
102
RTVSPost2010Prop32
280
     0
102
RTVSPost2010PropOp32
 70
     1
102
RTVSPost2010Prop33
280
     0
102
RTVSPost2010PropOp33
 70
     1
102
RTVSPost2010Prop34
280
     0
102
RTVSPost2010PropOp34
 70
     1
102
RTVSPost2010Prop35
280
     0
102
RTVSPost2010PropOp35
 70
     1
102
RTVSPost2010Prop36
280
     0
102
RTVSPost2010PropOp36
 70
     1
102
RTVSPost2010Prop37
 90
       50
102
RTVSPost2010PropOp37
 70
     1
102
RTVSPost2010Prop38
140
0.0
102
RTVSPost2010PropOp38
 70
     1
102
RTVSPost2010Prop39
140
1.0
102
RTVSPost2010PropOp39
 70
     1
102
RTVSPost2010Prop40
 90
        0
102
RTVSPost2010PropOp40
 70
     1
102
RTVSPost2010Prop41ColorIndex
 90
       18
102
RTVSPost2010Prop41ColorRGB
 90
        0
102
RTVSPost2010PropOp41
 70
     1
102
RTVSPost2010Prop42
 90
       50
102
RTVSPost2010PropOp42
 70
     1
102
RTVSPost2010Prop43
 90
        3
102
RTVSPost2010PropOp43
 70
     1
102
RTVSPost2010Prop44ColorIndex
 90
        5
102
RTVSPost2010Prop44ColorRGB
 90
      255
102
RTVSPost2010PropOp44
 70
     1
102
RTVSPost2010Prop45
280
     0
102
RTVSPost2010PropOp45
 70
     1
102
RTVSPost2010Prop46
 90
       50
102
RTVSPost2010PropOp46
 70
     1
102
RTVSPost2010Prop47
 90
       50
102
RTVSPost2010PropOp47
 70
     1
102
RTVSPost2010Prop48
 90
       50
102
RTVSPost2010PropOp48
 70
     1
102
RTVSPost2010Prop49
280
     0
102
RTVSPost2010PropOp49
 70
     1
102
RTVSPost2010Prop50
 90
       50
102
RTVSPost2010PropOp50
 70
     1
102
RTVSPost2010Prop51ColorIndex
 90
      256
102
RTVSPost2010Prop51ColorRGB
 90
-16777216
102
RTVSPost2010PropOp51
 70
     0
102
RTVSPost2010Prop52
140
1.0
102
RTVSPost2010PropOp52
 70
     0
102
RTVSPost2010Prop53
 90
        2
102
RTVSPost2010PropOp53
 70
     1
102
RTVSPost2010Prop54
  1
strokes_ogs.tif
102
RTVSPost2010PropOp54
 70
     1
102
RTVSPost2010Prop55
280
     0
102
RTVSPost2010PropOp55
 70
     1
102
RTVSPost2010Prop56
140
1.0
102
RTVSPost2010PropOp56
 70
     1
102
RTVSPost2010Prop57
140
1.0
102
RTVSPost2010PropOp57
 70
     1
102
RTVSPropertyOp0
 70
     1
102
RTVSPropertyOp1
 70
     1
102
RTVSPropertyOp2
 70
     1
102
RTVSPropertyOp3
 70
     1
102
RTVSPropertyOp4
 70
     1
102
RTVSPropertyOp5
 70
     1
102
RTVSPropertyOp6
 70
     1
102
RTVSPropertyOp7
 70
     1
102
RTVSPropertyOp8
 70
     1
102
RTVSPropertyOp9
 70
     1
102
RTVSPropertyOp10
 70
     1
102
RTVSPropertyOp11
 70
     1
102
RTVSPropertyOp12
 70
     1
102
RTVSPropertyOp13
 70
     1
102
RTVSPropertyOp14
 70
     1
102
RTVSPropertyOp15
 70
     1
102
RTVSPropertyOp16
 70
     1
102
RTVSPropertyOp17
 70
     1
102
RTVSPropertyOp18
 70
     1
102
RTVSPropertyOp19
 70
     1
102
RTVSPropertyOp20
 70
     1
102
RTVSPropertyOp21
 70
     1
102
RTVSPropertyOp22
 70
     1
102
RTVSPropertyOp23
 70
     1
102
RTVSPropertyOp24
 70
     1
102
RTVSPropertyOp25
 70
     1
102
RTVSPropertyOp26
 70
     1
102
RTVSPropertyOp27
 70
     1
102
RTVSPropertyOp28
 70
     1
102
RTVSPropertyOp29
 70
     1
102
RTVSPropertyOp30
 70
     1
102
RTVSPropertyOp31
 70
     1
102
RTVSPropertyOp32
 70
     1
102
RTVSPropertyOp33
 70
     1
102
RTVSPropertyOp34
 70
     1
102
RTVSPropertyOp35
 70
     1
102
RTVSPropertyOp36
 70
     1
102
RTVSPropertyOp37
 70
     1
102
RTVSPropertyOp38
 70
     1
102
RTVSPropertyOp39
 70
     1
102
RTVSPropertyOp40
 70
     1
102
RTVSPropertyOp41
 70
     1
102
RTVSPropertyOp42
 70
     1
102
RTVSPropertyOp43
 70
     1
102
RTVSPropertyOp44
 70
     1
102
RTVSPropertyOp45
 70
     1
102
RTVSPropertyOp46
 70
     1
102
RTVSPropertyOp47
 70
     1
102
RTVSPropertyOp48
 70
     1
102
RTVSPropertyOp49
 70
     1
102
RTVSPropertyOp50
 70
     1
102
RTVSPropertyOp51
 70
     0
102
RTVSPropertyOp52
 70
     0
102
RTVSPropertyOp53
 70
     1
102
RTVSPropertyOp54
 70
     1
102
RTVSPropertyOp55
 70
     1
102
RTVSPropertyOp56
 70
     1
102
RTVSPropertyOp57
 70
     1
102
RTVSPropertyOp58
 70
     1
102
RTVSPropertyOp59
 70
     1
102
RTVSPropertyOp60
 70
     1
102
RTVSPropertyOp61
 70
     1
102
RTVSPropertyOp62
 70
     1
  0
XRECORD
  5
627
102
{ACAD_REACTORS
330
626
102
}
330
626
100
AcDbXrecord
280
     1
102
RTVSPost2010Prop28
280
     0
102
RTVSPost2010PropOp28
 70
     1
102
RTVSPost2010Prop29
280
     1
102
RTVSPost2010PropOp29
 70
     1
102
RTVSPost2010Prop30
280
     1
102
RTVSPost2010PropOp30
 70
     1
102
RTVSPost2010Prop31
280
     0
102
RTVSPost2010PropOp31
 70
     1
102
RTVSPost2010Prop32
280
     0
102
RTVSPost2010PropOp32
 70
     1
102
RTVSPost2010Prop33
280
     0
102
RTVSPost2010PropOp33
 70
     1
102
RTVSPost2010Prop34
280
     0
102
RTVSPost2010PropOp34
 70
     1
102
RTVSPost2010Prop35
280
     0
102
RTVSPost2010PropOp35
 70
     1
102
RTVSPost2010Prop36
280
     0
102
RTVSPost2010PropOp36
 70
     1
102
RTVSPost2010Prop37
 90
       50
102
RTVSPost2010PropOp37
 70
     1
102
RTVSPost2010Prop38
140
0.0
102
RTVSPost2010PropOp38
 70
     1
102
RTVSPost2010Prop39
140
1.0
102
RTVSPost2010PropOp39
 70
     1
102
RTVSPost2010Prop40
 90
        0
102
RTVSPost2010PropOp40
 70
     1
102
RTVSPost2010Prop41ColorIndex
 90
       18
102
RTVSPost2010Prop41ColorRGB
 90
        0
102
RTVSPost2010PropOp41
 70
     1
102
RTVSPost2010Prop42
 90
       50
102
RTVSPost2010PropOp42
 70
     1
102
RTVSPost2010Prop43
 90
        3
102
RTVSPost2010PropOp43
 70
     1
102
RTVSPost2010Prop44ColorIndex
 90
        5
102
RTVSPost2010Prop44ColorRGB
 90
      255
102
RTVSPost2010PropOp44
 70
     1
102
RTVSPost2010Prop45
280
     0
102
RTVSPost2010PropOp45
 70
     1
102
RTVSPost2010Prop46
 90
       50
102
RTVSPost2010PropOp46
 70
     1
102
RTVSPost2010Prop47
 90
       50
102
RTVSPost2010PropOp47
 70
     1
102
RTVSPost2010Prop48
 90
       50
102
RTVSPost2010PropOp48
 70
     1
102
RTVSPost2010Prop49
280
     0
102
RTVSPost2010PropOp49
 70
     1
102
RTVSPost2010Prop50
 90
       50
102
RTVSPost2010PropOp50
 70
     1
102
RTVSPost2010Prop51ColorIndex
 90
      256
102
RTVSPost2010Prop51ColorRGB
 90
-16777216
102
RTVSPost2010PropOp51
 70
     0
102
RTVSPost2010Prop52
140
1.0
102
RTVSPost2010PropOp52
 70
     0
102
RTVSPost2010Prop53
 90
        2
102
RTVSPost2010PropOp53
 70
     1
102
RTVSPost2010Prop54
  1
strokes_ogs.tif
102
RTVSPost2010PropOp54
 70
     1
102
RTVSPost2010Prop55
280
     0
102
RTVSPost2010PropOp55
 70
     1
102
RTVSPost2010Prop56
140
1.0
102
RTVSPost2010PropOp56
 70
     1
102
RTVSPost2010Prop57
140
1.0
102
RTVSPost2010PropOp57
 70
     1
102
RTVSPropertyOp0
 70
     1
102
RTVSPropertyOp1
 70
     1
102
RTVSPropertyOp2
 70
     1
102
RTVSPropertyOp3
 70
     1
102
RTVSPropertyOp4
 70
     1
102
RTVSPropertyOp5
 70
     1
102
RTVSPropertyOp6
 70
     1
102
RTVSPropertyOp7
 70
     1
102
RTVSPropertyOp8
 70
     1
102
RTVSPropertyOp9
 70
     1
102
RTVSPropertyOp10
 70
     1
102
RTVSPropertyOp11
 70
     1
102
RTVSPropertyOp12
 70
     1
102
RTVSPropertyOp13
 70
     1
102
RTVSPropertyOp14
 70
     1
102
RTVSPropertyOp15
 70
     1
102
RTVSPropertyOp16
 70
     1
102
RTVSPropertyOp17
 70
     1
102
RTVSPropertyOp18
 70
     1
102
RTVSPropertyOp19
 70
     1
102
RTVSPropertyOp20
 70
     1
102
RTVSPropertyOp21
 70
     1
102
RTVSPropertyOp22
 70
     1
102
RTVSPropertyOp23
 70
     1
102
RTVSPropertyOp24
 70
     1
102
RTVSPropertyOp25
 70
     1
102
RTVSPropertyOp26
 70
     1
102
RTVSPropertyOp27
 70
     1
102
RTVSPropertyOp28
 70
     1
102
RTVSPropertyOp29
 70
     1
102
RTVSPropertyOp30
 70
     1
102
RTVSPropertyOp31
 70
     1
102
RTVSPropertyOp32
 70
     1
102
RTVSPropertyOp33
 70
     1
102
RTVSPropertyOp34
 70
     1
102
RTVSPropertyOp35
 70
     1
102
RTVSPropertyOp36
 70
     1
102
RTVSPropertyOp37
 70
     1
102
RTVSPropertyOp38
 70
     1
102
RTVSPropertyOp39
 70
     1
102
RTVSPropertyOp40
 70
     1
102
RTVSPropertyOp41
 70
     1
102
RTVSPropertyOp42
 70
     1
102
RTVSPropertyOp43
 70
     1
102
RTVSPropertyOp44
 70
     1
102
RTVSPropertyOp45
 70
     1
102
RTVSPropertyOp46
 70
     1
102
RTVSPropertyOp47
 70
     1
102
RTVSPropertyOp48
 70
     1
102
RTVSPropertyOp49
 70
     1
102
RTVSPropertyOp50
 70
     1
102
RTVSPropertyOp51
 70
     0
102
RTVSPropertyOp52
 70
     0
102
RTVSPropertyOp53
 70
     1
102
RTVSPropertyOp54
 70
     1
102
RTVSPropertyOp55
 70
     1
102
RTVSPropertyOp56
 70
     1
102
RTVSPropertyOp57
 70
     1
102
RTVSPropertyOp58
 70
     1
102
RTVSPropertyOp59
 70
     1
102
RTVSPropertyOp60
 70
     1
102
RTVSPropertyOp61
 70
     1
102
RTVSPropertyOp62
 70
     1
  0
XRECORD
  5
62F
102
{ACAD_REACTORS
330
62E
102
}
330
62E
100
AcDbXrecord
280
     1
102
RTVSPost2010Prop28
280
     0
102
RTVSPost2010PropOp28
 70
     1
102
RTVSPost2010Prop29
280
     1
102
RTVSPost2010PropOp29
 70
     1
102
RTVSPost2010Prop30
280
     1
102
RTVSPost2010PropOp30
 70
     1
102
RTVSPost2010Prop31
280
     0
102
RTVSPost2010PropOp31
 70
     1
102
RTVSPost2010Prop32
280
     0
102
RTVSPost2010PropOp32
 70
     1
102
RTVSPost2010Prop33
280
     0
102
RTVSPost2010PropOp33
 70
     1
102
RTVSPost2010Prop34
280
     0
102
RTVSPost2010PropOp34
 70
     1
102
RTVSPost2010Prop35
280
     0
102
RTVSPost2010PropOp35
 70
     1
102
RTVSPost2010Prop36
280
     0
102
RTVSPost2010PropOp36
 70
     1
102
RTVSPost2010Prop37
 90
       50
102
RTVSPost2010PropOp37
 70
     1
102
RTVSPost2010Prop38
140
0.0
102
RTVSPost2010PropOp38
 70
     1
102
RTVSPost2010Prop39
140
1.0
102
RTVSPost2010PropOp39
 70
     1
102
RTVSPost2010Prop40
 90
        0
102
RTVSPost2010PropOp40
 70
     1
102
RTVSPost2010Prop41ColorIndex
 90
       18
102
RTVSPost2010Prop41ColorRGB
 90
        0
102
RTVSPost2010PropOp41
 70
     1
102
RTVSPost2010Prop42
 90
       50
102
RTVSPost2010PropOp42
 70
     1
102
RTVSPost2010Prop43
 90
        3
102
RTVSPost2010PropOp43
 70
     1
102
RTVSPost2010Prop44ColorIndex
 90
        5
102
RTVSPost2010Prop44ColorRGB
 90
      255
102
RTVSPost2010PropOp44
 70
     1
102
RTVSPost2010Prop45
280
     0
102
RTVSPost2010PropOp45
 70
     1
102
RTVSPost2010Prop46
 90
       50
102
RTVSPost2010PropOp46
 70
     1
102
RTVSPost2010Prop47
 90
       50
102
RTVSPost2010PropOp47
 70
     1
102
RTVSPost2010Prop48
 90
       50
102
RTVSPost2010PropOp48
 70
     1
102
RTVSPost2010Prop49
280
     0
102
RTVSPost2010PropOp49
 70
     1
102
RTVSPost2010Prop50
 90
       50
102
RTVSPost2010PropOp50
 70
     1
102
RTVSPost2010Prop51ColorIndex
 90
      256
102
RTVSPost2010Prop51ColorRGB
 90
-16777216
102
RTVSPost2010PropOp51
 70
     0
102
RTVSPost2010Prop52
140
1.0
102
RTVSPost2010PropOp52
 70
     0
102
RTVSPost2010Prop53
 90
        2
102
RTVSPost2010PropOp53
 70
     1
102
RTVSPost2010Prop54
  1
strokes_ogs.tif
102
RTVSPost2010PropOp54
 70
     1
102
RTVSPost2010Prop55
280
     0
102
RTVSPost2010PropOp55
 70
     1
102
RTVSPost2010Prop56
140
1.0
102
RTVSPost2010PropOp56
 70
     1
102
RTVSPost2010Prop57
140
1.0
102
RTVSPost2010PropOp57
 70
     1
102
RTVSPropertyOp0
 70
     1
102
RTVSPropertyOp1
 70
     1
102
RTVSPropertyOp2
 70
     1
102
RTVSPropertyOp3
 70
     1
102
RTVSPropertyOp4
 70
     1
102
RTVSPropertyOp5
 70
     1
102
RTVSPropertyOp6
 70
     1
102
RTVSPropertyOp7
 70
     1
102
RTVSPropertyOp8
 70
     1
102
RTVSPropertyOp9
 70
     1
102
RTVSPropertyOp10
 70
     1
102
RTVSPropertyOp11
 70
     1
102
RTVSPropertyOp12
 70
     1
102
RTVSPropertyOp13
 70
     1
102
RTVSPropertyOp14
 70
     1
102
RTVSPropertyOp15
 70
     1
102
RTVSPropertyOp16
 70
     1
102
RTVSPropertyOp17
 70
     1
102
RTVSPropertyOp18
 70
     1
102
RTVSPropertyOp19
 70
     1
102
RTVSPropertyOp20
 70
     1
102
RTVSPropertyOp21
 70
     1
102
RTVSPropertyOp22
 70
     1
102
RTVSPropertyOp23
 70
     1
102
RTVSPropertyOp24
 70
     1
102
RTVSPropertyOp25
 70
     1
102
RTVSPropertyOp26
 70
     1
102
RTVSPropertyOp27
 70
     1
102
RTVSPropertyOp28
 70
     1
102
RTVSPropertyOp29
 70
     1
102
RTVSPropertyOp30
 70
     1
102
RTVSPropertyOp31
 70
     1
102
RTVSPropertyOp32
 70
     1
102
RTVSPropertyOp33
 70
     1
102
RTVSPropertyOp34
 70
     1
102
RTVSPropertyOp35
 70
     1
102
RTVSPropertyOp36
 70
     1
102
RTVSPropertyOp37
 70
     1
102
RTVSPropertyOp38
 70
     1
102
RTVSPropertyOp39
 70
     1
102
RTVSPropertyOp40
 70
     1
102
RTVSPropertyOp41
 70
     1
102
RTVSPropertyOp42
 70
     1
102
RTVSPropertyOp43
 70
     1
102
RTVSPropertyOp44
 70
     1
102
RTVSPropertyOp45
 70
     1
102
RTVSPropertyOp46
 70
     1
102
RTVSPropertyOp47
 70
     1
102
RTVSPropertyOp48
 70
     1
102
RTVSPropertyOp49
 70
     1
102
RTVSPropertyOp50
 70
     1
102
RTVSPropertyOp51
 70
     0
102
RTVSPropertyOp52
 70
     0
102
RTVSPropertyOp53
 70
     1
102
RTVSPropertyOp54
 70
     1
102
RTVSPropertyOp55
 70
     1
102
RTVSPropertyOp56
 70
     1
102
RTVSPropertyOp57
 70
     1
102
RTVSPropertyOp58
 70
     1
102
RTVSPropertyOp59
 70
     1
102
RTVSPropertyOp60
 70
     1
102
RTVSPropertyOp61
 70
     1
102
RTVSPropertyOp62
 70
     1
  0
XRECORD
  5
621
102
{ACAD_REACTORS
330
620
102
}
330
620
100
AcDbXrecord
280
     1
102
RTVSPost2010Prop28
280
     0
102
RTVSPost2010PropOp28
 70
     1
102
RTVSPost2010Prop29
280
     1
102
RTVSPost2010PropOp29
 70
     1
102
RTVSPost2010Prop30
280
     1
102
RTVSPost2010PropOp30
 70
     1
102
RTVSPost2010Prop31
280
     0
102
RTVSPost2010PropOp31
 70
     1
102
RTVSPost2010Prop32
280
     0
102
RTVSPost2010PropOp32
 70
     1
102
RTVSPost2010Prop33
280
     0
102
RTVSPost2010PropOp33
 70
     1
102
RTVSPost2010Prop34
280
     0
102
RTVSPost2010PropOp34
 70
     1
102
RTVSPost2010Prop35
280
     0
102
RTVSPost2010PropOp35
 70
     1
102
RTVSPost2010Prop36
280
     0
102
RTVSPost2010PropOp36
 70
     1
102
RTVSPost2010Prop37
 90
       50
102
RTVSPost2010PropOp37
 70
     1
102
RTVSPost2010Prop38
140
0.0
102
RTVSPost2010PropOp38
 70
     1
102
RTVSPost2010Prop39
140
1.0
102
RTVSPost2010PropOp39
 70
     1
102
RTVSPost2010Prop40
 90
        0
102
RTVSPost2010PropOp40
 70
     1
102
RTVSPost2010Prop41ColorIndex
 90
       18
102
RTVSPost2010Prop41ColorRGB
 90
        0
102
RTVSPost2010PropOp41
 70
     1
102
RTVSPost2010Prop42
 90
       50
102
RTVSPost2010PropOp42
 70
     1
102
RTVSPost2010Prop43
 90
        3
102
RTVSPost2010PropOp43
 70
     1
102
RTVSPost2010Prop44ColorIndex
 90
        5
102
RTVSPost2010Prop44ColorRGB
 90
      255
102
RTVSPost2010PropOp44
 70
     1
102
RTVSPost2010Prop45
280
     0
102
RTVSPost2010PropOp45
 70
     1
102
RTVSPost2010Prop46
 90
       50
102
RTVSPost2010PropOp46
 70
     1
102
RTVSPost2010Prop47
 90
       50
102
RTVSPost2010PropOp47
 70
     1
102
RTVSPost2010Prop48
 90
       50
102
RTVSPost2010PropOp48
 70
     1
102
RTVSPost2010Prop49
280
     0
102
RTVSPost2010PropOp49
 70
     1
102
RTVSPost2010Prop50
 90
       50
102
RTVSPost2010PropOp50
 70
     1
102
RTVSPost2010Prop51ColorIndex
 90
      256
102
RTVSPost2010Prop51ColorRGB
 90
-16777216
102
RTVSPost2010PropOp51
 70
     0
102
RTVSPost2010Prop52
140
1.0
102
RTVSPost2010PropOp52
 70
     0
102
RTVSPost2010Prop53
 90
        2
102
RTVSPost2010PropOp53
 70
     1
102
RTVSPost2010Prop54
  1
strokes_ogs.tif
102
RTVSPost2010PropOp54
 70
     1
102
RTVSPost2010Prop55
280
     0
102
RTVSPost2010PropOp55
 70
     1
102
RTVSPost2010Prop56
140
1.0
102
RTVSPost2010PropOp56
 70
     1
102
RTVSPost2010Prop57
140
1.0
102
RTVSPost2010PropOp57
 70
     1
102
RTVSPropertyOp0
 70
     1
102
RTVSPropertyOp1
 70
     1
102
RTVSPropertyOp2
 70
     1
102
RTVSPropertyOp3
 70
     1
102
RTVSPropertyOp4
 70
     1
102
RTVSPropertyOp5
 70
     1
102
RTVSPropertyOp6
 70
     1
102
RTVSPropertyOp7
 70
     1
102
RTVSPropertyOp8
 70
     1
102
RTVSPropertyOp9
 70
     1
102
RTVSPropertyOp10
 70
     1
102
RTVSPropertyOp11
 70
     1
102
RTVSPropertyOp12
 70
     1
102
RTVSPropertyOp13
 70
     1
102
RTVSPropertyOp14
 70
     1
102
RTVSPropertyOp15
 70
     1
102
RTVSPropertyOp16
 70
     1
102
RTVSPropertyOp17
 70
     1
102
RTVSPropertyOp18
 70
     1
102
RTVSPropertyOp19
 70
     1
102
RTVSPropertyOp20
 70
     1
102
RTVSPropertyOp21
 70
     1
102
RTVSPropertyOp22
 70
     1
102
RTVSPropertyOp23
 70
     1
102
RTVSPropertyOp24
 70
     1
102
RTVSPropertyOp25
 70
     1
102
RTVSPropertyOp26
 70
     1
102
RTVSPropertyOp27
 70
     1
102
RTVSPropertyOp28
 70
     1
102
RTVSPropertyOp29
 70
     1
102
RTVSPropertyOp30
 70
     1
102
RTVSPropertyOp31
 70
     1
102
RTVSPropertyOp32
 70
     1
102
RTVSPropertyOp33
 70
     1
102
RTVSPropertyOp34
 70
     1
102
RTVSPropertyOp35
 70
     1
102
RTVSPropertyOp36
 70
     1
102
RTVSPropertyOp37
 70
     1
102
RTVSPropertyOp38
 70
     1
102
RTVSPropertyOp39
 70
     1
102
RTVSPropertyOp40
 70
     1
102
RTVSPropertyOp41
 70
     1
102
RTVSPropertyOp42
 70
     1
102
RTVSPropertyOp43
 70
     1
102
RTVSPropertyOp44
 70
     1
102
RTVSPropertyOp45
 70
     1
102
RTVSPropertyOp46
 70
     1
102
RTVSPropertyOp47
 70
     1
102
RTVSPropertyOp48
 70
     1
102
RTVSPropertyOp49
 70
     1
102
RTVSPropertyOp50
 70
     1
102
RTVSPropertyOp51
 70
     0
102
RTVSPropertyOp52
 70
     0
102
RTVSPropertyOp53
 70
     1
102
RTVSPropertyOp54
 70
     1
102
RTVSPropertyOp55
 70
     1
102
RTVSPropertyOp56
 70
     1
102
RTVSPropertyOp57
 70
     1
102
RTVSPropertyOp58
 70
     1
102
RTVSPropertyOp59
 70
     1
102
RTVSPropertyOp60
 70
     1
102
RTVSPropertyOp61
 70
     1
102
RTVSPropertyOp62
 70
     1
  0
XRECORD
  5
625
102
{ACAD_REACTORS
330
624
102
}
330
624
100
AcDbXrecord
280
     1
102
RTVSPost2010Prop28
280
     0
102
RTVSPost2010PropOp28
 70
     1
102
RTVSPost2010Prop29
280
     1
102
RTVSPost2010PropOp29
 70
     1
102
RTVSPost2010Prop30
280
     1
102
RTVSPost2010PropOp30
 70
     1
102
RTVSPost2010Prop31
280
     0
102
RTVSPost2010PropOp31
 70
     1
102
RTVSPost2010Prop32
280
     0
102
RTVSPost2010PropOp32
 70
     1
102
RTVSPost2010Prop33
280
     0
102
RTVSPost2010PropOp33
 70
     1
102
RTVSPost2010Prop34
280
     0
102
RTVSPost2010PropOp34
 70
     1
102
RTVSPost2010Prop35
280
     0
102
RTVSPost2010PropOp35
 70
     1
102
RTVSPost2010Prop36
280
     0
102
RTVSPost2010PropOp36
 70
     1
102
RTVSPost2010Prop37
 90
       50
102
RTVSPost2010PropOp37
 70
     1
102
RTVSPost2010Prop38
140
0.0
102
RTVSPost2010PropOp38
 70
     1
102
RTVSPost2010Prop39
140
1.0
102
RTVSPost2010PropOp39
 70
     1
102
RTVSPost2010Prop40
 90
        0
102
RTVSPost2010PropOp40
 70
     1
102
RTVSPost2010Prop41ColorIndex
 90
       18
102
RTVSPost2010Prop41ColorRGB
 90
        0
102
RTVSPost2010PropOp41
 70
     1
102
RTVSPost2010Prop42
 90
       50
102
RTVSPost2010PropOp42
 70
     1
102
RTVSPost2010Prop43
 90
        3
102
RTVSPost2010PropOp43
 70
     1
102
RTVSPost2010Prop44ColorIndex
 90
        5
102
RTVSPost2010Prop44ColorRGB
 90
      255
102
RTVSPost2010PropOp44
 70
     1
102
RTVSPost2010Prop45
280
     0
102
RTVSPost2010PropOp45
 70
     1
102
RTVSPost2010Prop46
 90
       50
102
RTVSPost2010PropOp46
 70
     1
102
RTVSPost2010Prop47
 90
       50
102
RTVSPost2010PropOp47
 70
     1
102
RTVSPost2010Prop48
 90
       50
102
RTVSPost2010PropOp48
 70
     1
102
RTVSPost2010Prop49
280
     0
102
RTVSPost2010PropOp49
 70
     1
102
RTVSPost2010Prop50
 90
       50
102
RTVSPost2010PropOp50
 70
     1
102
RTVSPost2010Prop51ColorIndex
 90
      256
102
RTVSPost2010Prop51ColorRGB
 90
-16777216
102
RTVSPost2010PropOp51
 70
     0
102
RTVSPost2010Prop52
140
1.0
102
RTVSPost2010PropOp52
 70
     0
102
RTVSPost2010Prop53
 90
        2
102
RTVSPost2010PropOp53
 70
     1
102
RTVSPost2010Prop54
  1
strokes_ogs.tif
102
RTVSPost2010PropOp54
 70
     1
102
RTVSPost2010Prop55
280
     0
102
RTVSPost2010PropOp55
 70
     1
102
RTVSPost2010Prop56
140
1.0
102
RTVSPost2010PropOp56
 70
     1
102
RTVSPost2010Prop57
140
1.0
102
RTVSPost2010PropOp57
 70
     1
102
RTVSPropertyOp0
 70
     1
102
RTVSPropertyOp1
 70
     1
102
RTVSPropertyOp2
 70
     1
102
RTVSPropertyOp3
 70
     1
102
RTVSPropertyOp4
 70
     1
102
RTVSPropertyOp5
 70
     1
102
RTVSPropertyOp6
 70
     1
102
RTVSPropertyOp7
 70
     1
102
RTVSPropertyOp8
 70
     1
102
RTVSPropertyOp9
 70
     1
102
RTVSPropertyOp10
 70
     1
102
RTVSPropertyOp11
 70
     1
102
RTVSPropertyOp12
 70
     1
102
RTVSPropertyOp13
 70
     1
102
RTVSPropertyOp14
 70
     1
102
RTVSPropertyOp15
 70
     1
102
RTVSPropertyOp16
 70
     1
102
RTVSPropertyOp17
 70
     1
102
RTVSPropertyOp18
 70
     1
102
RTVSPropertyOp19
 70
     1
102
RTVSPropertyOp20
 70
     1
102
RTVSPropertyOp21
 70
     1
102
RTVSPropertyOp22
 70
     1
102
RTVSPropertyOp23
 70
     1
102
RTVSPropertyOp24
 70
     1
102
RTVSPropertyOp25
 70
     1
102
RTVSPropertyOp26
 70
     1
102
RTVSPropertyOp27
 70
     1
102
RTVSPropertyOp28
 70
     1
102
RTVSPropertyOp29
 70
     1
102
RTVSPropertyOp30
 70
     1
102
RTVSPropertyOp31
 70
     1
102
RTVSPropertyOp32
 70
     1
102
RTVSPropertyOp33
 70
     1
102
RTVSPropertyOp34
 70
     1
102
RTVSPropertyOp35
 70
     1
102
RTVSPropertyOp36
 70
     1
102
RTVSPropertyOp37
 70
     1
102
RTVSPropertyOp38
 70
     1
102
RTVSPropertyOp39
 70
     1
102
RTVSPropertyOp40
 70
     1
102
RTVSPropertyOp41
 70
     1
102
RTVSPropertyOp42
 70
     1
102
RTVSPropertyOp43
 70
     1
102
RTVSPropertyOp44
 70
     1
102
RTVSPropertyOp45
 70
     1
102
RTVSPropertyOp46
 70
     1
102
RTVSPropertyOp47
 70
     1
102
RTVSPropertyOp48
 70
     1
102
RTVSPropertyOp49
 70
     1
102
RTVSPropertyOp50
 70
     1
102
RTVSPropertyOp51
 70
     0
102
RTVSPropertyOp52
 70
     0
102
RTVSPropertyOp53
 70
     1
102
RTVSPropertyOp54
 70
     1
102
RTVSPropertyOp55
 70
     1
102
RTVSPropertyOp56
 70
     1
102
RTVSPropertyOp57
 70
     1
102
RTVSPropertyOp58
 70
     1
102
RTVSPropertyOp59
 70
     1
102
RTVSPropertyOp60
 70
     1
102
RTVSPropertyOp61
 70
     1
102
RTVSPropertyOp62
 70
     1
  0
XRECORD
  5
63F
102
{ACAD_REACTORS
330
63E
102
}
330
63E
100
AcDbXrecord
280
     1
102
RTVSPost2010Prop28
280
     0
102
RTVSPost2010PropOp28
 70
     0
102
RTVSPost2010Prop29
280
     1
102
RTVSPost2010PropOp29
 70
     0
102
RTVSPost2010Prop30
280
     1
102
RTVSPost2010PropOp30
 70
     0
102
RTVSPost2010Prop31
280
     0
102
RTVSPost2010PropOp31
 70
     0
102
RTVSPost2010Prop32
280
     0
102
RTVSPost2010PropOp32
 70
     0
102
RTVSPost2010Prop33
280
     0
102
RTVSPost2010PropOp33
 70
     0
102
RTVSPost2010Prop34
280
     0
102
RTVSPost2010PropOp34
 70
     0
102
RTVSPost2010Prop35
280
     0
102
RTVSPost2010PropOp35
 70
     0
102
RTVSPost2010Prop36
280
     0
102
RTVSPost2010PropOp36
 70
     0
102
RTVSPost2010Prop37
 90
       50
102
RTVSPost2010PropOp37
 70
     0
102
RTVSPost2010Prop38
140
0.0
102
RTVSPost2010PropOp38
 70
     0
102
RTVSPost2010Prop39
140
1.0
102
RTVSPost2010PropOp39
 70
     0
102
RTVSPost2010Prop40
 90
        0
102
RTVSPost2010PropOp40
 70
     0
102
RTVSPost2010Prop41ColorIndex
 90
       18
102
RTVSPost2010Prop41ColorRGB
 90
        0
102
RTVSPost2010PropOp41
 70
     0
102
RTVSPost2010Prop42
 90
       50
102
RTVSPost2010PropOp42
 70
     0
102
RTVSPost2010Prop43
 90
        3
102
RTVSPost2010PropOp43
 70
     0
102
RTVSPost2010Prop44ColorIndex
 90
        5
102
RTVSPost2010Prop44ColorRGB
 90
      255
102
RTVSPost2010PropOp44
 70
     0
102
RTVSPost2010Prop45
280
     0
102
RTVSPost2010PropOp45
 70
     0
102
RTVSPost2010Prop46
 90
       50
102
RTVSPost2010PropOp46
 70
     0
102
RTVSPost2010Prop47
 90
       50
102
RTVSPost2010PropOp47
 70
     0
102
RTVSPost2010Prop48
 90
       50
102
RTVSPost2010PropOp48
 70
     0
102
RTVSPost2010Prop49
280
     0
102
RTVSPost2010PropOp49
 70
     0
102
RTVSPost2010Prop50
 90
       50
102
RTVSPost2010PropOp50
 70
     0
102
RTVSPost2010Prop51ColorIndex
 90
      256
102
RTVSPost2010Prop51ColorRGB
 90
-16777216
102
RTVSPost2010PropOp51
 70
     0
102
RTVSPost2010Prop52
140
1.0
102
RTVSPost2010PropOp52
 70
     0
102
RTVSPost2010Prop53
 90
        2
102
RTVSPost2010PropOp53
 70
     0
102
RTVSPost2010Prop54
  1
strokes_ogs.tif
102
RTVSPost2010PropOp54
 70
     0
102
RTVSPost2010Prop55
280
     0
102
RTVSPost2010PropOp55
 70
     0
102
RTVSPost2010Prop56
140
1.0
102
RTVSPost2010PropOp56
 70
     0
102
RTVSPost2010Prop57
140
1.0
102
RTVSPost2010PropOp57
 70
     0
102
RTVSPropertyOp0
 70
     0
102
RTVSPropertyOp1
 70
     0
102
RTVSPropertyOp2
 70
     0
102
RTVSPropertyOp3
 70
     0
102
RTVSPropertyOp4
 70
     0
102
RTVSPropertyOp5
 70
     0
102
RTVSPropertyOp6
 70
     0
102
RTVSPropertyOp7
 70
     0
102
RTVSPropertyOp8
 70
     0
102
RTVSPropertyOp9
 70
     0
102
RTVSPropertyOp10
 70
     0
102
RTVSPropertyOp11
 70
     0
102
RTVSPropertyOp12
 70
     0
102
RTVSPropertyOp13
 70
     0
102
RTVSPropertyOp14
 70
     2
102
RTVSPropertyOp15
 70
     0
102
RTVSPropertyOp16
 70
     0
102
RTVSPropertyOp17
 70
     0
102
RTVSPropertyOp18
 70
     0
102
RTVSPropertyOp19
 70
     0
102
RTVSPropertyOp20
 70
     0
102
RTVSPropertyOp21
 70
     0
102
RTVSPropertyOp22
 70
     0
102
RTVSPropertyOp23
 70
     0
102
RTVSPropertyOp24
 70
     0
102
RTVSPropertyOp25
 70
     0
102
RTVSPropertyOp26
 70
     0
102
RTVSPropertyOp27
 70
     0
102
RTVSPropertyOp28
 70
     0
102
RTVSPropertyOp29
 70
     0
102
RTVSPropertyOp30
 70
     0
102
RTVSPropertyOp31
 70
     0
102
RTVSPropertyOp32
 70
     0
102
RTVSPropertyOp33
 70
     0
102
RTVSPropertyOp34
 70
     0
102
RTVSPropertyOp35
 70
     0
102
RTVSPropertyOp36
 70
     0
102
RTVSPropertyOp37
 70
     0
102
RTVSPropertyOp38
 70
     0
102
RTVSPropertyOp39
 70
     0
102
RTVSPropertyOp40
 70
     0
102
RTVSPropertyOp41
 70
     0
102
RTVSPropertyOp42
 70
     0
102
RTVSPropertyOp43
 70
     0
102
RTVSPropertyOp44
 70
     0
102
RTVSPropertyOp45
 70
     0
102
RTVSPropertyOp46
 70
     0
102
RTVSPropertyOp47
 70
     0
102
RTVSPropertyOp48
 70
     0
102
RTVSPropertyOp49
 70
     0
102
RTVSPropertyOp50
 70
     0
102
RTVSPropertyOp51
 70
     0
102
RTVSPropertyOp52
 70
     0
102
RTVSPropertyOp53
 70
     0
102
RTVSPropertyOp54
 70
     0
102
RTVSPropertyOp55
 70
     0
102
RTVSPropertyOp56
 70
     0
102
RTVSPropertyOp57
 70
     0
102
RTVSPropertyOp58
 70
     0
102
RTVSPropertyOp59
 70
     0
102
RTVSPropertyOp60
 70
     0
102
RTVSPropertyOp61
 70
     0
102
RTVSPropertyOp62
 70
     0
  0
XRECORD
  5
62D
102
{ACAD_REACTORS
330
62C
102
}
330
62C
100
AcDbXrecord
280
     1
102
RTVSPost2010Prop28
280
     0
102
RTVSPost2010PropOp28
 70
     1
102
RTVSPost2010Prop29
280
     1
102
RTVSPost2010PropOp29
 70
     1
102
RTVSPost2010Prop30
280
     1
102
RTVSPost2010PropOp30
 70
     1
102
RTVSPost2010Prop31
280
     0
102
RTVSPost2010PropOp31
 70
     1
102
RTVSPost2010Prop32
280
     0
102
RTVSPost2010PropOp32
 70
     1
102
RTVSPost2010Prop33
280
     0
102
RTVSPost2010PropOp33
 70
     1
102
RTVSPost2010Prop34
280
     0
102
RTVSPost2010PropOp34
 70
     1
102
RTVSPost2010Prop35
280
     0
102
RTVSPost2010PropOp35
 70
     1
102
RTVSPost2010Prop36
280
     0
102
RTVSPost2010PropOp36
 70
     1
102
RTVSPost2010Prop37
 90
       50
102
RTVSPost2010PropOp37
 70
     1
102
RTVSPost2010Prop38
140
0.0
102
RTVSPost2010PropOp38
 70
     1
102
RTVSPost2010Prop39
140
1.0
102
RTVSPost2010PropOp39
 70
     1
102
RTVSPost2010Prop40
 90
        0
102
RTVSPost2010PropOp40
 70
     1
102
RTVSPost2010Prop41ColorIndex
 90
       18
102
RTVSPost2010Prop41ColorRGB
 90
        0
102
RTVSPost2010PropOp41
 70
     1
102
RTVSPost2010Prop42
 90
       50
102
RTVSPost2010PropOp42
 70
     1
102
RTVSPost2010Prop43
 90
        3
102
RTVSPost2010PropOp43
 70
     1
102
RTVSPost2010Prop44ColorIndex
 90
        5
102
RTVSPost2010Prop44ColorRGB
 90
      255
102
RTVSPost2010PropOp44
 70
     1
102
RTVSPost2010Prop45
280
     0
102
RTVSPost2010PropOp45
 70
     1
102
RTVSPost2010Prop46
 90
       50
102
RTVSPost2010PropOp46
 70
     1
102
RTVSPost2010Prop47
 90
       50
102
RTVSPost2010PropOp47
 70
     1
102
RTVSPost2010Prop48
 90
       50
102
RTVSPost2010PropOp48
 70
     1
102
RTVSPost2010Prop49
280
     0
102
RTVSPost2010PropOp49
 70
     1
102
RTVSPost2010Prop50
 90
       50
102
RTVSPost2010PropOp50
 70
     1
102
RTVSPost2010Prop51ColorIndex
 90
      256
102
RTVSPost2010Prop51ColorRGB
 90
-16777216
102
RTVSPost2010PropOp51
 70
     0
102
RTVSPost2010Prop52
140
1.0
102
RTVSPost2010PropOp52
 70
     0
102
RTVSPost2010Prop53
 90
        2
102
RTVSPost2010PropOp53
 70
     1
102
RTVSPost2010Prop54
  1
strokes_ogs.tif
102
RTVSPost2010PropOp54
 70
     1
102
RTVSPost2010Prop55
280
     0
102
RTVSPost2010PropOp55
 70
     1
102
RTVSPost2010Prop56
140
1.0
102
RTVSPost2010PropOp56
 70
     1
102
RTVSPost2010Prop57
140
1.0
102
RTVSPost2010PropOp57
 70
     1
102
RTVSPropertyOp0
 70
     1
102
RTVSPropertyOp1
 70
     1
102
RTVSPropertyOp2
 70
     1
102
RTVSPropertyOp3
 70
     1
102
RTVSPropertyOp4
 70
     1
102
RTVSPropertyOp5
 70
     1
102
RTVSPropertyOp6
 70
     1
102
RTVSPropertyOp7
 70
     1
102
RTVSPropertyOp8
 70
     1
102
RTVSPropertyOp9
 70
     1
102
RTVSPropertyOp10
 70
     1
102
RTVSPropertyOp11
 70
     1
102
RTVSPropertyOp12
 70
     1
102
RTVSPropertyOp13
 70
     1
102
RTVSPropertyOp14
 70
     1
102
RTVSPropertyOp15
 70
     1
102
RTVSPropertyOp16
 70
     1
102
RTVSPropertyOp17
 70
     1
102
RTVSPropertyOp18
 70
     1
102
RTVSPropertyOp19
 70
     1
102
RTVSPropertyOp20
 70
     1
102
RTVSPropertyOp21
 70
     1
102
RTVSPropertyOp22
 70
     1
102
RTVSPropertyOp23
 70
     1
102
RTVSPropertyOp24
 70
     1
102
RTVSPropertyOp25
 70
     1
102
RTVSPropertyOp26
 70
     1
102
RTVSPropertyOp27
 70
     1
102
RTVSPropertyOp28
 70
     1
102
RTVSPropertyOp29
 70
     1
102
RTVSPropertyOp30
 70
     1
102
RTVSPropertyOp31
 70
     1
102
RTVSPropertyOp32
 70
     1
102
RTVSPropertyOp33
 70
     1
102
RTVSPropertyOp34
 70
     1
102
RTVSPropertyOp35
 70
     1
102
RTVSPropertyOp36
 70
     1
102
RTVSPropertyOp37
 70
     1
102
RTVSPropertyOp38
 70
     1
102
RTVSPropertyOp39
 70
     1
102
RTVSPropertyOp40
 70
     1
102
RTVSPropertyOp41
 70
     1
102
RTVSPropertyOp42
 70
     1
102
RTVSPropertyOp43
 70
     1
102
RTVSPropertyOp44
 70
     1
102
RTVSPropertyOp45
 70
     1
102
RTVSPropertyOp46
 70
     1
102
RTVSPropertyOp47
 70
     1
102
RTVSPropertyOp48
 70
     1
102
RTVSPropertyOp49
 70
     1
102
RTVSPropertyOp50
 70
     1
102
RTVSPropertyOp51
 70
     0
102
RTVSPropertyOp52
 70
     0
102
RTVSPropertyOp53
 70
     1
102
RTVSPropertyOp54
 70
     1
102
RTVSPropertyOp55
 70
     1
102
RTVSPropertyOp56
 70
     1
102
RTVSPropertyOp57
 70
     1
102
RTVSPropertyOp58
 70
     1
102
RTVSPropertyOp59
 70
     1
102
RTVSPropertyOp60
 70
     1
102
RTVSPropertyOp61
 70
     1
102
RTVSPropertyOp62
 70
     1
  0
XRECORD
  5
611
102
{ACAD_REACTORS
330
610
102
}
330
610
100
AcDbXrecord
280
     1
102
RTVSPost2010Prop28
280
     0
102
RTVSPost2010PropOp28
 70
     1
102
RTVSPost2010Prop29
280
     1
102
RTVSPost2010PropOp29
 70
     1
102
RTVSPost2010Prop30
280
     1
102
RTVSPost2010PropOp30
 70
     1
102
RTVSPost2010Prop31
280
     0
102
RTVSPost2010PropOp31
 70
     1
102
RTVSPost2010Prop32
280
     0
102
RTVSPost2010PropOp32
 70
     1
102
RTVSPost2010Prop33
280
     0
102
RTVSPost2010PropOp33
 70
     1
102
RTVSPost2010Prop34
280
     0
102
RTVSPost2010PropOp34
 70
     1
102
RTVSPost2010Prop35
280
     0
102
RTVSPost2010PropOp35
 70
     1
102
RTVSPost2010Prop36
280
     0
102
RTVSPost2010PropOp36
 70
     1
102
RTVSPost2010Prop37
 90
       50
102
RTVSPost2010PropOp37
 70
     1
102
RTVSPost2010Prop38
140
0.0
102
RTVSPost2010PropOp38
 70
     1
102
RTVSPost2010Prop39
140
1.0
102
RTVSPost2010PropOp39
 70
     1
102
RTVSPost2010Prop40
 90
        0
102
RTVSPost2010PropOp40
 70
     1
102
RTVSPost2010Prop41ColorIndex
 90
       18
102
RTVSPost2010Prop41ColorRGB
 90
        0
102
RTVSPost2010PropOp41
 70
     1
102
RTVSPost2010Prop42
 90
       50
102
RTVSPost2010PropOp42
 70
     1
102
RTVSPost2010Prop43
 90
        3
102
RTVSPost2010PropOp43
 70
     1
102
RTVSPost2010Prop44ColorIndex
 90
        5
102
RTVSPost2010Prop44ColorRGB
 90
      255
102
RTVSPost2010PropOp44
 70
     1
102
RTVSPost2010Prop45
280
     0
102
RTVSPost2010PropOp45
 70
     1
102
RTVSPost2010Prop46
 90
       50
102
RTVSPost2010PropOp46
 70
     1
102
RTVSPost2010Prop47
 90
       50
102
RTVSPost2010PropOp47
 70
     1
102
RTVSPost2010Prop48
 90
       50
102
RTVSPost2010PropOp48
 70
     1
102
RTVSPost2010Prop49
280
     0
102
RTVSPost2010PropOp49
 70
     1
102
RTVSPost2010Prop50
 90
       50
102
RTVSPost2010PropOp50
 70
     1
102
RTVSPost2010Prop51ColorIndex
 90
      256
102
RTVSPost2010Prop51ColorRGB
 90
-16777216
102
RTVSPost2010PropOp51
 70
     0
102
RTVSPost2010Prop52
140
1.0
102
RTVSPost2010PropOp52
 70
     0
102
RTVSPost2010Prop53
 90
        2
102
RTVSPost2010PropOp53
 70
     1
102
RTVSPost2010Prop54
  1
strokes_ogs.tif
102
RTVSPost2010PropOp54
 70
     1
102
RTVSPost2010Prop55
280
     0
102
RTVSPost2010PropOp55
 70
     1
102
RTVSPost2010Prop56
140
1.0
102
RTVSPost2010PropOp56
 70
     1
102
RTVSPost2010Prop57
140
1.0
102
RTVSPost2010PropOp57
 70
     1
102
RTVSPropertyOp0
 70
     1
102
RTVSPropertyOp1
 70
     1
102
RTVSPropertyOp2
 70
     1
102
RTVSPropertyOp3
 70
     1
102
RTVSPropertyOp4
 70
     1
102
RTVSPropertyOp5
 70
     1
102
RTVSPropertyOp6
 70
     1
102
RTVSPropertyOp7
 70
     1
102
RTVSPropertyOp8
 70
     1
102
RTVSPropertyOp9
 70
     1
102
RTVSPropertyOp10
 70
     1
102
RTVSPropertyOp11
 70
     1
102
RTVSPropertyOp12
 70
     1
102
RTVSPropertyOp13
 70
     1
102
RTVSPropertyOp14
 70
     1
102
RTVSPropertyOp15
 70
     1
102
RTVSPropertyOp16
 70
     1
102
RTVSPropertyOp17
 70
     1
102
RTVSPropertyOp18
 70
     1
102
RTVSPropertyOp19
 70
     1
102
RTVSPropertyOp20
 70
     1
102
RTVSPropertyOp21
 70
     1
102
RTVSPropertyOp22
 70
     1
102
RTVSPropertyOp23
 70
     1
102
RTVSPropertyOp24
 70
     1
102
RTVSPropertyOp25
 70
     1
102
RTVSPropertyOp26
 70
     1
102
RTVSPropertyOp27
 70
     1
102
RTVSPropertyOp28
 70
     1
102
RTVSPropertyOp29
 70
     1
102
RTVSPropertyOp30
 70
     1
102
RTVSPropertyOp31
 70
     1
102
RTVSPropertyOp32
 70
     1
102
RTVSPropertyOp33
 70
     1
102
RTVSPropertyOp34
 70
     1
102
RTVSPropertyOp35
 70
     1
102
RTVSPropertyOp36
 70
     1
102
RTVSPropertyOp37
 70
     1
102
RTVSPropertyOp38
 70
     1
102
RTVSPropertyOp39
 70
     1
102
RTVSPropertyOp40
 70
     1
102
RTVSPropertyOp41
 70
     1
102
RTVSPropertyOp42
 70
     1
102
RTVSPropertyOp43
 70
     1
102
RTVSPropertyOp44
 70
     1
102
RTVSPropertyOp45
 70
     1
102
RTVSPropertyOp46
 70
     1
102
RTVSPropertyOp47
 70
     1
102
RTVSPropertyOp48
 70
     1
102
RTVSPropertyOp49
 70
     1
102
RTVSPropertyOp50
 70
     1
102
RTVSPropertyOp51
 70
     0
102
RTVSPropertyOp52
 70
     0
102
RTVSPropertyOp53
 70
     1
102
RTVSPropertyOp54
 70
     1
102
RTVSPropertyOp55
 70
     1
102
RTVSPropertyOp56
 70
     1
102
RTVSPropertyOp57
 70
     1
102
RTVSPropertyOp58
 70
     1
102
RTVSPropertyOp59
 70
     1
102
RTVSPropertyOp60
 70
     1
102
RTVSPropertyOp61
 70
     1
102
RTVSPropertyOp62
 70
     1
  0
XRECORD
  5
613
102
{ACAD_REACTORS
330
612
102
}
330
612
100
AcDbXrecord
280
     1
102
RTVSPost2010Prop28
280
     0
102
RTVSPost2010PropOp28
 70
     1
102
RTVSPost2010Prop29
280
     1
102
RTVSPost2010PropOp29
 70
     1
102
RTVSPost2010Prop30
280
     1
102
RTVSPost2010PropOp30
 70
     1
102
RTVSPost2010Prop31
280
     0
102
RTVSPost2010PropOp31
 70
     1
102
RTVSPost2010Prop32
280
     0
102
RTVSPost2010PropOp32
 70
     1
102
RTVSPost2010Prop33
280
     0
102
RTVSPost2010PropOp33
 70
     1
102
RTVSPost2010Prop34
280
     0
102
RTVSPost2010PropOp34
 70
     1
102
RTVSPost2010Prop35
280
     0
102
RTVSPost2010PropOp35
 70
     1
102
RTVSPost2010Prop36
280
     0
102
RTVSPost2010PropOp36
 70
     1
102
RTVSPost2010Prop37
 90
       50
102
RTVSPost2010PropOp37
 70
     1
102
RTVSPost2010Prop38
140
0.0
102
RTVSPost2010PropOp38
 70
     1
102
RTVSPost2010Prop39
140
1.0
102
RTVSPost2010PropOp39
 70
     1
102
RTVSPost2010Prop40
 90
        0
102
RTVSPost2010PropOp40
 70
     1
102
RTVSPost2010Prop41ColorIndex
 90
       18
102
RTVSPost2010Prop41ColorRGB
 90
        0
102
RTVSPost2010PropOp41
 70
     1
102
RTVSPost2010Prop42
 90
       50
102
RTVSPost2010PropOp42
 70
     1
102
RTVSPost2010Prop43
 90
        3
102
RTVSPost2010PropOp43
 70
     1
102
RTVSPost2010Prop44ColorIndex
 90
        5
102
RTVSPost2010Prop44ColorRGB
 90
      255
102
RTVSPost2010PropOp44
 70
     1
102
RTVSPost2010Prop45
280
     0
102
RTVSPost2010PropOp45
 70
     1
102
RTVSPost2010Prop46
 90
       50
102
RTVSPost2010PropOp46
 70
     1
102
RTVSPost2010Prop47
 90
       50
102
RTVSPost2010PropOp47
 70
     1
102
RTVSPost2010Prop48
 90
       50
102
RTVSPost2010PropOp48
 70
     1
102
RTVSPost2010Prop49
280
     0
102
RTVSPost2010PropOp49
 70
     1
102
RTVSPost2010Prop50
 90
       50
102
RTVSPost2010PropOp50
 70
     1
102
RTVSPost2010Prop51ColorIndex
 90
      256
102
RTVSPost2010Prop51ColorRGB
 90
-16777216
102
RTVSPost2010PropOp51
 70
     0
102
RTVSPost2010Prop52
140
1.0
102
RTVSPost2010PropOp52
 70
     0
102
RTVSPost2010Prop53
 90
        2
102
RTVSPost2010PropOp53
 70
     1
102
RTVSPost2010Prop54
  1
strokes_ogs.tif
102
RTVSPost2010PropOp54
 70
     1
102
RTVSPost2010Prop55
280
     0
102
RTVSPost2010PropOp55
 70
     1
102
RTVSPost2010Prop56
140
1.0
102
RTVSPost2010PropOp56
 70
     1
102
RTVSPost2010Prop57
140
1.0
102
RTVSPost2010PropOp57
 70
     1
102
RTVSPropertyOp0
 70
     1
102
RTVSPropertyOp1
 70
     1
102
RTVSPropertyOp2
 70
     1
102
RTVSPropertyOp3
 70
     1
102
RTVSPropertyOp4
 70
     1
102
RTVSPropertyOp5
 70
     1
102
RTVSPropertyOp6
 70
     1
102
RTVSPropertyOp7
 70
     1
102
RTVSPropertyOp8
 70
     1
102
RTVSPropertyOp9
 70
     1
102
RTVSPropertyOp10
 70
     1
102
RTVSPropertyOp11
 70
     1
102
RTVSPropertyOp12
 70
     1
102
RTVSPropertyOp13
 70
     1
102
RTVSPropertyOp14
 70
     1
102
RTVSPropertyOp15
 70
     1
102
RTVSPropertyOp16
 70
     1
102
RTVSPropertyOp17
 70
     1
102
RTVSPropertyOp18
 70
     1
102
RTVSPropertyOp19
 70
     1
102
RTVSPropertyOp20
 70
     1
102
RTVSPropertyOp21
 70
     1
102
RTVSPropertyOp22
 70
     1
102
RTVSPropertyOp23
 70
     1
102
RTVSPropertyOp24
 70
     1
102
RTVSPropertyOp25
 70
     1
102
RTVSPropertyOp26
 70
     1
102
RTVSPropertyOp27
 70
     1
102
RTVSPropertyOp28
 70
     1
102
RTVSPropertyOp29
 70
     1
102
RTVSPropertyOp30
 70
     1
102
RTVSPropertyOp31
 70
     1
102
RTVSPropertyOp32
 70
     1
102
RTVSPropertyOp33
 70
     1
102
RTVSPropertyOp34
 70
     1
102
RTVSPropertyOp35
 70
     1
102
RTVSPropertyOp36
 70
     1
102
RTVSPropertyOp37
 70
     1
102
RTVSPropertyOp38
 70
     1
102
RTVSPropertyOp39
 70
     1
102
RTVSPropertyOp40
 70
     1
102
RTVSPropertyOp41
 70
     1
102
RTVSPropertyOp42
 70
     1
102
RTVSPropertyOp43
 70
     1
102
RTVSPropertyOp44
 70
     1
102
RTVSPropertyOp45
 70
     1
102
RTVSPropertyOp46
 70
     1
102
RTVSPropertyOp47
 70
     1
102
RTVSPropertyOp48
 70
     1
102
RTVSPropertyOp49
 70
     1
102
RTVSPropertyOp50
 70
     1
102
RTVSPropertyOp51
 70
     0
102
RTVSPropertyOp52
 70
     0
102
RTVSPropertyOp53
 70
     1
102
RTVSPropertyOp54
 70
     1
102
RTVSPropertyOp55
 70
     1
102
RTVSPropertyOp56
 70
     1
102
RTVSPropertyOp57
 70
     1
102
RTVSPropertyOp58
 70
     1
102
RTVSPropertyOp59
 70
     1
102
RTVSPropertyOp60
 70
     1
102
RTVSPropertyOp61
 70
     1
102
RTVSPropertyOp62
 70
     1
  0
XRECORD
  5
615
102
{ACAD_REACTORS
330
614
102
}
330
614
100
AcDbXrecord
280
     1
102
RTVSPost2010Prop28
280
     0
102
RTVSPost2010PropOp28
 70
     1
102
RTVSPost2010Prop29
280
     1
102
RTVSPost2010PropOp29
 70
     1
102
RTVSPost2010Prop30
280
     1
102
RTVSPost2010PropOp30
 70
     1
102
RTVSPost2010Prop31
280
     0
102
RTVSPost2010PropOp31
 70
     1
102
RTVSPost2010Prop32
280
     0
102
RTVSPost2010PropOp32
 70
     1
102
RTVSPost2010Prop33
280
     0
102
RTVSPost2010PropOp33
 70
     1
102
RTVSPost2010Prop34
280
     0
102
RTVSPost2010PropOp34
 70
     1
102
RTVSPost2010Prop35
280
     0
102
RTVSPost2010PropOp35
 70
     1
102
RTVSPost2010Prop36
280
     0
102
RTVSPost2010PropOp36
 70
     1
102
RTVSPost2010Prop37
 90
       50
102
RTVSPost2010PropOp37
 70
     1
102
RTVSPost2010Prop38
140
0.0
102
RTVSPost2010PropOp38
 70
     1
102
RTVSPost2010Prop39
140
1.0
102
RTVSPost2010PropOp39
 70
     1
102
RTVSPost2010Prop40
 90
        0
102
RTVSPost2010PropOp40
 70
     1
102
RTVSPost2010Prop41ColorIndex
 90
       18
102
RTVSPost2010Prop41ColorRGB
 90
        0
102
RTVSPost2010PropOp41
 70
     1
102
RTVSPost2010Prop42
 90
       50
102
RTVSPost2010PropOp42
 70
     1
102
RTVSPost2010Prop43
 90
        3
102
RTVSPost2010PropOp43
 70
     1
102
RTVSPost2010Prop44ColorIndex
 90
        5
102
RTVSPost2010Prop44ColorRGB
 90
      255
102
RTVSPost2010PropOp44
 70
     1
102
RTVSPost2010Prop45
280
     0
102
RTVSPost2010PropOp45
 70
     1
102
RTVSPost2010Prop46
 90
       50
102
RTVSPost2010PropOp46
 70
     1
102
RTVSPost2010Prop47
 90
       50
102
RTVSPost2010PropOp47
 70
     1
102
RTVSPost2010Prop48
 90
       50
102
RTVSPost2010PropOp48
 70
     1
102
RTVSPost2010Prop49
280
     0
102
RTVSPost2010PropOp49
 70
     1
102
RTVSPost2010Prop50
 90
       50
102
RTVSPost2010PropOp50
 70
     1
102
RTVSPost2010Prop51ColorIndex
 90
      256
102
RTVSPost2010Prop51ColorRGB
 90
-16777216
102
RTVSPost2010PropOp51
 70
     0
102
RTVSPost2010Prop52
140
1.0
102
RTVSPost2010PropOp52
 70
     0
102
RTVSPost2010Prop53
 90
        2
102
RTVSPost2010PropOp53
 70
     1
102
RTVSPost2010Prop54
  1
strokes_ogs.tif
102
RTVSPost2010PropOp54
 70
     1
102
RTVSPost2010Prop55
280
     0
102
RTVSPost2010PropOp55
 70
     1
102
RTVSPost2010Prop56
140
1.0
102
RTVSPost2010PropOp56
 70
     1
102
RTVSPost2010Prop57
140
1.0
102
RTVSPost2010PropOp57
 70
     1
102
RTVSPropertyOp0
 70
     1
102
RTVSPropertyOp1
 70
     1
102
RTVSPropertyOp2
 70
     1
102
RTVSPropertyOp3
 70
     1
102
RTVSPropertyOp4
 70
     1
102
RTVSPropertyOp5
 70
     1
102
RTVSPropertyOp6
 70
     1
102
RTVSPropertyOp7
 70
     1
102
RTVSPropertyOp8
 70
     1
102
RTVSPropertyOp9
 70
     1
102
RTVSPropertyOp10
 70
     1
102
RTVSPropertyOp11
 70
     1
102
RTVSPropertyOp12
 70
     1
102
RTVSPropertyOp13
 70
     1
102
RTVSPropertyOp14
 70
     1
102
RTVSPropertyOp15
 70
     1
102
RTVSPropertyOp16
 70
     1
102
RTVSPropertyOp17
 70
     1
102
RTVSPropertyOp18
 70
     1
102
RTVSPropertyOp19
 70
     1
102
RTVSPropertyOp20
 70
     1
102
RTVSPropertyOp21
 70
     1
102
RTVSPropertyOp22
 70
     1
102
RTVSPropertyOp23
 70
     1
102
RTVSPropertyOp24
 70
     1
102
RTVSPropertyOp25
 70
     1
102
RTVSPropertyOp26
 70
     1
102
RTVSPropertyOp27
 70
     1
102
RTVSPropertyOp28
 70
     1
102
RTVSPropertyOp29
 70
     1
102
RTVSPropertyOp30
 70
     1
102
RTVSPropertyOp31
 70
     1
102
RTVSPropertyOp32
 70
     1
102
RTVSPropertyOp33
 70
     1
102
RTVSPropertyOp34
 70
     1
102
RTVSPropertyOp35
 70
     1
102
RTVSPropertyOp36
 70
     1
102
RTVSPropertyOp37
 70
     1
102
RTVSPropertyOp38
 70
     1
102
RTVSPropertyOp39
 70
     1
102
RTVSPropertyOp40
 70
     1
102
RTVSPropertyOp41
 70
     1
102
RTVSPropertyOp42
 70
     1
102
RTVSPropertyOp43
 70
     1
102
RTVSPropertyOp44
 70
     1
102
RTVSPropertyOp45
 70
     1
102
RTVSPropertyOp46
 70
     1
102
RTVSPropertyOp47
 70
     1
102
RTVSPropertyOp48
 70
     1
102
RTVSPropertyOp49
 70
     1
102
RTVSPropertyOp50
 70
     1
102
RTVSPropertyOp51
 70
     0
102
RTVSPropertyOp52
 70
     0
102
RTVSPropertyOp53
 70
     1
102
RTVSPropertyOp54
 70
     1
102
RTVSPropertyOp55
 70
     1
102
RTVSPropertyOp56
 70
     1
102
RTVSPropertyOp57
 70
     1
102
RTVSPropertyOp58
 70
     1
102
RTVSPropertyOp59
 70
     1
102
RTVSPropertyOp60
 70
     1
102
RTVSPropertyOp61
 70
     1
102
RTVSPropertyOp62
 70
     1
  0
XRECORD
  5
617
102
{ACAD_REACTORS
330
616
102
}
330
616
100
AcDbXrecord
280
     1
102
RTVSPost2010Prop28
280
     0
102
RTVSPost2010PropOp28
 70
     1
102
RTVSPost2010Prop29
280
     1
102
RTVSPost2010PropOp29
 70
     1
102
RTVSPost2010Prop30
280
     1
102
RTVSPost2010PropOp30
 70
     1
102
RTVSPost2010Prop31
280
     0
102
RTVSPost2010PropOp31
 70
     1
102
RTVSPost2010Prop32
280
     0
102
RTVSPost2010PropOp32
 70
     1
102
RTVSPost2010Prop33
280
     0
102
RTVSPost2010PropOp33
 70
     1
102
RTVSPost2010Prop34
280
     0
102
RTVSPost2010PropOp34
 70
     1
102
RTVSPost2010Prop35
280
     0
102
RTVSPost2010PropOp35
 70
     1
102
RTVSPost2010Prop36
280
     0
102
RTVSPost2010PropOp36
 70
     1
102
RTVSPost2010Prop37
 90
       50
102
RTVSPost2010PropOp37
 70
     1
102
RTVSPost2010Prop38
140
0.0
102
RTVSPost2010PropOp38
 70
     1
102
RTVSPost2010Prop39
140
1.0
102
RTVSPost2010PropOp39
 70
     1
102
RTVSPost2010Prop40
 90
        0
102
RTVSPost2010PropOp40
 70
     1
102
RTVSPost2010Prop41ColorIndex
 90
       18
102
RTVSPost2010Prop41ColorRGB
 90
        0
102
RTVSPost2010PropOp41
 70
     1
102
RTVSPost2010Prop42
 90
       50
102
RTVSPost2010PropOp42
 70
     1
102
RTVSPost2010Prop43
 90
        3
102
RTVSPost2010PropOp43
 70
     1
102
RTVSPost2010Prop44ColorIndex
 90
        5
102
RTVSPost2010Prop44ColorRGB
 90
      255
102
RTVSPost2010PropOp44
 70
     1
102
RTVSPost2010Prop45
280
     0
102
RTVSPost2010PropOp45
 70
     1
102
RTVSPost2010Prop46
 90
       50
102
RTVSPost2010PropOp46
 70
     1
102
RTVSPost2010Prop47
 90
       50
102
RTVSPost2010PropOp47
 70
     1
102
RTVSPost2010Prop48
 90
       50
102
RTVSPost2010PropOp48
 70
     1
102
RTVSPost2010Prop49
280
     0
102
RTVSPost2010PropOp49
 70
     1
102
RTVSPost2010Prop50
 90
       50
102
RTVSPost2010PropOp50
 70
     1
102
RTVSPost2010Prop51ColorIndex
 90
      256
102
RTVSPost2010Prop51ColorRGB
 90
-16777216
102
RTVSPost2010PropOp51
 70
     0
102
RTVSPost2010Prop52
140
1.0
102
RTVSPost2010PropOp52
 70
     0
102
RTVSPost2010Prop53
 90
        2
102
RTVSPost2010PropOp53
 70
     1
102
RTVSPost2010Prop54
  1
strokes_ogs.tif
102
RTVSPost2010PropOp54
 70
     1
102
RTVSPost2010Prop55
280
     0
102
RTVSPost2010PropOp55
 70
     1
102
RTVSPost2010Prop56
140
1.0
102
RTVSPost2010PropOp56
 70
     1
102
RTVSPost2010Prop57
140
1.0
102
RTVSPost2010PropOp57
 70
     1
102
RTVSPropertyOp0
 70
     1
102
RTVSPropertyOp1
 70
     1
102
RTVSPropertyOp2
 70
     1
102
RTVSPropertyOp3
 70
     1
102
RTVSPropertyOp4
 70
     1
102
RTVSPropertyOp5
 70
     1
102
RTVSPropertyOp6
 70
     1
102
RTVSPropertyOp7
 70
     1
102
RTVSPropertyOp8
 70
     1
102
RTVSPropertyOp9
 70
     1
102
RTVSPropertyOp10
 70
     1
102
RTVSPropertyOp11
 70
     1
102
RTVSPropertyOp12
 70
     1
102
RTVSPropertyOp13
 70
     1
102
RTVSPropertyOp14
 70
     1
102
RTVSPropertyOp15
 70
     1
102
RTVSPropertyOp16
 70
     1
102
RTVSPropertyOp17
 70
     1
102
RTVSPropertyOp18
 70
     1
102
RTVSPropertyOp19
 70
     1
102
RTVSPropertyOp20
 70
     1
102
RTVSPropertyOp21
 70
     1
102
RTVSPropertyOp22
 70
     1
102
RTVSPropertyOp23
 70
     1
102
RTVSPropertyOp24
 70
     1
102
RTVSPropertyOp25
 70
     1
102
RTVSPropertyOp26
 70
     1
102
RTVSPropertyOp27
 70
     1
102
RTVSPropertyOp28
 70
     1
102
RTVSPropertyOp29
 70
     1
102
RTVSPropertyOp30
 70
     1
102
RTVSPropertyOp31
 70
     1
102
RTVSPropertyOp32
 70
     1
102
RTVSPropertyOp33
 70
     1
102
RTVSPropertyOp34
 70
     1
102
RTVSPropertyOp35
 70
     1
102
RTVSPropertyOp36
 70
     1
102
RTVSPropertyOp37
 70
     1
102
RTVSPropertyOp38
 70
     1
102
RTVSPropertyOp39
 70
     1
102
RTVSPropertyOp40
 70
     1
102
RTVSPropertyOp41
 70
     1
102
RTVSPropertyOp42
 70
     1
102
RTVSPropertyOp43
 70
     1
102
RTVSPropertyOp44
 70
     1
102
RTVSPropertyOp45
 70
     1
102
RTVSPropertyOp46
 70
     1
102
RTVSPropertyOp47
 70
     1
102
RTVSPropertyOp48
 70
     1
102
RTVSPropertyOp49
 70
     1
102
RTVSPropertyOp50
 70
     1
102
RTVSPropertyOp51
 70
     0
102
RTVSPropertyOp52
 70
     0
102
RTVSPropertyOp53
 70
     1
102
RTVSPropertyOp54
 70
     1
102
RTVSPropertyOp55
 70
     1
102
RTVSPropertyOp56
 70
     1
102
RTVSPropertyOp57
 70
     1
102
RTVSPropertyOp58
 70
     1
102
RTVSPropertyOp59
 70
     1
102
RTVSPropertyOp60
 70
     1
102
RTVSPropertyOp61
 70
     1
102
RTVSPropertyOp62
 70
     1
  0
XRECORD
  5
61F
102
{ACAD_REACTORS
330
61E
102
}
330
61E
100
AcDbXrecord
280
     1
102
RTVSPost2010Prop28
280
     0
102
RTVSPost2010PropOp28
 70
     1
102
RTVSPost2010Prop29
280
     1
102
RTVSPost2010PropOp29
 70
     1
102
RTVSPost2010Prop30
280
     1
102
RTVSPost2010PropOp30
 70
     1
102
RTVSPost2010Prop31
280
     0
102
RTVSPost2010PropOp31
 70
     1
102
RTVSPost2010Prop32
280
     0
102
RTVSPost2010PropOp32
 70
     1
102
RTVSPost2010Prop33
280
     0
102
RTVSPost2010PropOp33
 70
     1
102
RTVSPost2010Prop34
280
     0
102
RTVSPost2010PropOp34
 70
     1
102
RTVSPost2010Prop35
280
     0
102
RTVSPost2010PropOp35
 70
     1
102
RTVSPost2010Prop36
280
     0
102
RTVSPost2010PropOp36
 70
     1
102
RTVSPost2010Prop37
 90
       50
102
RTVSPost2010PropOp37
 70
     1
102
RTVSPost2010Prop38
140
0.0
102
RTVSPost2010PropOp38
 70
     1
102
RTVSPost2010Prop39
140
1.0
102
RTVSPost2010PropOp39
 70
     1
102
RTVSPost2010Prop40
 90
        0
102
RTVSPost2010PropOp40
 70
     1
102
RTVSPost2010Prop41ColorIndex
 90
       18
102
RTVSPost2010Prop41ColorRGB
 90
        0
102
RTVSPost2010PropOp41
 70
     1
102
RTVSPost2010Prop42
 90
       50
102
RTVSPost2010PropOp42
 70
     1
102
RTVSPost2010Prop43
 90
        3
102
RTVSPost2010PropOp43
 70
     1
102
RTVSPost2010Prop44ColorIndex
 90
        5
102
RTVSPost2010Prop44ColorRGB
 90
      255
102
RTVSPost2010PropOp44
 70
     1
102
RTVSPost2010Prop45
280
     0
102
RTVSPost2010PropOp45
 70
     1
102
RTVSPost2010Prop46
 90
       50
102
RTVSPost2010PropOp46
 70
     1
102
RTVSPost2010Prop47
 90
       50
102
RTVSPost2010PropOp47
 70
     1
102
RTVSPost2010Prop48
 90
       50
102
RTVSPost2010PropOp48
 70
     1
102
RTVSPost2010Prop49
280
     0
102
RTVSPost2010PropOp49
 70
     1
102
RTVSPost2010Prop50
 90
       50
102
RTVSPost2010PropOp50
 70
     1
102
RTVSPost2010Prop51ColorIndex
 90
      256
102
RTVSPost2010Prop51ColorRGB
 90
-16777216
102
RTVSPost2010PropOp51
 70
     0
102
RTVSPost2010Prop52
140
1.0
102
RTVSPost2010PropOp52
 70
     0
102
RTVSPost2010Prop53
 90
        2
102
RTVSPost2010PropOp53
 70
     1
102
RTVSPost2010Prop54
  1
strokes_ogs.tif
102
RTVSPost2010PropOp54
 70
     1
102
RTVSPost2010Prop55
280
     0
102
RTVSPost2010PropOp55
 70
     1
102
RTVSPost2010Prop56
140
1.0
102
RTVSPost2010PropOp56
 70
     1
102
RTVSPost2010Prop57
140
1.0
102
RTVSPost2010PropOp57
 70
     1
102
RTVSPropertyOp0
 70
     1
102
RTVSPropertyOp1
 70
     1
102
RTVSPropertyOp2
 70
     1
102
RTVSPropertyOp3
 70
     1
102
RTVSPropertyOp4
 70
     1
102
RTVSPropertyOp5
 70
     1
102
RTVSPropertyOp6
 70
     1
102
RTVSPropertyOp7
 70
     1
102
RTVSPropertyOp8
 70
     1
102
RTVSPropertyOp9
 70
     1
102
RTVSPropertyOp10
 70
     1
102
RTVSPropertyOp11
 70
     1
102
RTVSPropertyOp12
 70
     1
102
RTVSPropertyOp13
 70
     1
102
RTVSPropertyOp14
 70
     1
102
RTVSPropertyOp15
 70
     1
102
RTVSPropertyOp16
 70
     1
102
RTVSPropertyOp17
 70
     1
102
RTVSPropertyOp18
 70
     1
102
RTVSPropertyOp19
 70
     1
102
RTVSPropertyOp20
 70
     1
102
RTVSPropertyOp21
 70
     1
102
RTVSPropertyOp22
 70
     1
102
RTVSPropertyOp23
 70
     1
102
RTVSPropertyOp24
 70
     1
102
RTVSPropertyOp25
 70
     1
102
RTVSPropertyOp26
 70
     1
102
RTVSPropertyOp27
 70
     1
102
RTVSPropertyOp28
 70
     1
102
RTVSPropertyOp29
 70
     1
102
RTVSPropertyOp30
 70
     1
102
RTVSPropertyOp31
 70
     1
102
RTVSPropertyOp32
 70
     1
102
RTVSPropertyOp33
 70
     1
102
RTVSPropertyOp34
 70
     1
102
RTVSPropertyOp35
 70
     1
102
RTVSPropertyOp36
 70
     1
102
RTVSPropertyOp37
 70
     1
102
RTVSPropertyOp38
 70
     1
102
RTVSPropertyOp39
 70
     1
102
RTVSPropertyOp40
 70
     1
102
RTVSPropertyOp41
 70
     1
102
RTVSPropertyOp42
 70
     1
102
RTVSPropertyOp43
 70
     1
102
RTVSPropertyOp44
 70
     1
102
RTVSPropertyOp45
 70
     1
102
RTVSPropertyOp46
 70
     1
102
RTVSPropertyOp47
 70
     1
102
RTVSPropertyOp48
 70
     1
102
RTVSPropertyOp49
 70
     1
102
RTVSPropertyOp50
 70
     1
102
RTVSPropertyOp51
 70
     0
102
RTVSPropertyOp52
 70
     0
102
RTVSPropertyOp53
 70
     1
102
RTVSPropertyOp54
 70
     1
102
RTVSPropertyOp55
 70
     1
102
RTVSPropertyOp56
 70
     1
102
RTVSPropertyOp57
 70
     1
102
RTVSPropertyOp58
 70
     1
102
RTVSPropertyOp59
 70
     1
102
RTVSPropertyOp60
 70
     1
102
RTVSPropertyOp61
 70
     1
102
RTVSPropertyOp62
 70
     1
  0
XRECORD
  5
63B
102
{ACAD_REACTORS
330
63A
102
}
330
63A
100
AcDbXrecord
280
     1
102
RTVSPost2010Prop28
280
     0
102
RTVSPost2010PropOp28
 70
     0
102
RTVSPost2010Prop29
280
     1
102
RTVSPost2010PropOp29
 70
     0
102
RTVSPost2010Prop30
280
     1
102
RTVSPost2010PropOp30
 70
     0
102
RTVSPost2010Prop31
280
     0
102
RTVSPost2010PropOp31
 70
     0
102
RTVSPost2010Prop32
280
     0
102
RTVSPost2010PropOp32
 70
     0
102
RTVSPost2010Prop33
280
     0
102
RTVSPost2010PropOp33
 70
     0
102
RTVSPost2010Prop34
280
     0
102
RTVSPost2010PropOp34
 70
     0
102
RTVSPost2010Prop35
280
     0
102
RTVSPost2010PropOp35
 70
     0
102
RTVSPost2010Prop36
280
     0
102
RTVSPost2010PropOp36
 70
     0
102
RTVSPost2010Prop37
 90
       50
102
RTVSPost2010PropOp37
 70
     0
102
RTVSPost2010Prop38
140
0.0
102
RTVSPost2010PropOp38
 70
     0
102
RTVSPost2010Prop39
140
1.0
102
RTVSPost2010PropOp39
 70
     0
102
RTVSPost2010Prop40
 90
        0
102
RTVSPost2010PropOp40
 70
     0
102
RTVSPost2010Prop41ColorIndex
 90
       18
102
RTVSPost2010Prop41ColorRGB
 90
        0
102
RTVSPost2010PropOp41
 70
     0
102
RTVSPost2010Prop42
 90
       50
102
RTVSPost2010PropOp42
 70
     0
102
RTVSPost2010Prop43
 90
        3
102
RTVSPost2010PropOp43
 70
     0
102
RTVSPost2010Prop44ColorIndex
 90
        5
102
RTVSPost2010Prop44ColorRGB
 90
      255
102
RTVSPost2010PropOp44
 70
     0
102
RTVSPost2010Prop45
280
     0
102
RTVSPost2010PropOp45
 70
     0
102
RTVSPost2010Prop46
 90
       50
102
RTVSPost2010PropOp46
 70
     0
102
RTVSPost2010Prop47
 90
       50
102
RTVSPost2010PropOp47
 70
     0
102
RTVSPost2010Prop48
 90
       50
102
RTVSPost2010PropOp48
 70
     0
102
RTVSPost2010Prop49
280
     0
102
RTVSPost2010PropOp49
 70
     0
102
RTVSPost2010Prop50
 90
       50
102
RTVSPost2010PropOp50
 70
     0
102
RTVSPost2010Prop51ColorIndex
 90
      256
102
RTVSPost2010Prop51ColorRGB
 90
-16777216
102
RTVSPost2010PropOp51
 70
     0
102
RTVSPost2010Prop52
140
1.0
102
RTVSPost2010PropOp52
 70
     0
102
RTVSPost2010Prop53
 90
        2
102
RTVSPost2010PropOp53
 70
     0
102
RTVSPost2010Prop54
  1
strokes_ogs.tif
102
RTVSPost2010PropOp54
 70
     0
102
RTVSPost2010Prop55
280
     0
102
RTVSPost2010PropOp55
 70
     0
102
RTVSPost2010Prop56
140
1.0
102
RTVSPost2010PropOp56
 70
     0
102
RTVSPost2010Prop57
140
1.0
102
RTVSPost2010PropOp57
 70
     0
102
RTVSPropertyOp0
 70
     0
102
RTVSPropertyOp1
 70
     0
102
RTVSPropertyOp2
 70
     0
102
RTVSPropertyOp3
 70
     0
102
RTVSPropertyOp4
 70
     0
102
RTVSPropertyOp5
 70
     0
102
RTVSPropertyOp6
 70
     0
102
RTVSPropertyOp7
 70
     0
102
RTVSPropertyOp8
 70
     0
102
RTVSPropertyOp9
 70
     0
102
RTVSPropertyOp10
 70
     0
102
RTVSPropertyOp11
 70
     0
102
RTVSPropertyOp12
 70
     0
102
RTVSPropertyOp13
 70
     0
102
RTVSPropertyOp14
 70
     2
102
RTVSPropertyOp15
 70
     0
102
RTVSPropertyOp16
 70
     0
102
RTVSPropertyOp17
 70
     0
102
RTVSPropertyOp18
 70
     0
102
RTVSPropertyOp19
 70
     0
102
RTVSPropertyOp20
 70
     0
102
RTVSPropertyOp21
 70
     0
102
RTVSPropertyOp22
 70
     0
102
RTVSPropertyOp23
 70
     0
102
RTVSPropertyOp24
 70
     0
102
RTVSPropertyOp25
 70
     0
102
RTVSPropertyOp26
 70
     0
102
RTVSPropertyOp27
 70
     0
102
RTVSPropertyOp28
 70
     0
102
RTVSPropertyOp29
 70
     0
102
RTVSPropertyOp30
 70
     0
102
RTVSPropertyOp31
 70
     0
102
RTVSPropertyOp32
 70
     0
102
RTVSPropertyOp33
 70
     0
102
RTVSPropertyOp34
 70
     0
102
RTVSPropertyOp35
 70
     0
102
RTVSPropertyOp36
 70
     0
102
RTVSPropertyOp37
 70
     0
102
RTVSPropertyOp38
 70
     0
102
RTVSPropertyOp39
 70
     0
102
RTVSPropertyOp40
 70
     0
102
RTVSPropertyOp41
 70
     0
102
RTVSPropertyOp42
 70
     0
102
RTVSPropertyOp43
 70
     0
102
RTVSPropertyOp44
 70
     0
102
RTVSPropertyOp45
 70
     0
102
RTVSPropertyOp46
 70
     0
102
RTVSPropertyOp47
 70
     0
102
RTVSPropertyOp48
 70
     0
102
RTVSPropertyOp49
 70
     0
102
RTVSPropertyOp50
 70
     0
102
RTVSPropertyOp51
 70
     0
102
RTVSPropertyOp52
 70
     0
102
RTVSPropertyOp53
 70
     0
102
RTVSPropertyOp54
 70
     0
102
RTVSPropertyOp55
 70
     0
102
RTVSPropertyOp56
 70
     0
102
RTVSPropertyOp57
 70
     0
102
RTVSPropertyOp58
 70
     0
102
RTVSPropertyOp59
 70
     0
102
RTVSPropertyOp60
 70
     0
102
RTVSPropertyOp61
 70
     0
102
RTVSPropertyOp62
 70
     0
  0
XRECORD
  5
62B
102
{ACAD_REACTORS
330
62A
102
}
330
62A
100
AcDbXrecord
280
     1
102
RTVSPost2010Prop28
280
     0
102
RTVSPost2010PropOp28
 70
     1
102
RTVSPost2010Prop29
280
     1
102
RTVSPost2010PropOp29
 70
     1
102
RTVSPost2010Prop30
280
     1
102
RTVSPost2010PropOp30
 70
     1
102
RTVSPost2010Prop31
280
     0
102
RTVSPost2010PropOp31
 70
     1
102
RTVSPost2010Prop32
280
     0
102
RTVSPost2010PropOp32
 70
     1
102
RTVSPost2010Prop33
280
     0
102
RTVSPost2010PropOp33
 70
     1
102
RTVSPost2010Prop34
280
     0
102
RTVSPost2010PropOp34
 70
     1
102
RTVSPost2010Prop35
280
     0
102
RTVSPost2010PropOp35
 70
     1
102
RTVSPost2010Prop36
280
     0
102
RTVSPost2010PropOp36
 70
     1
102
RTVSPost2010Prop37
 90
       50
102
RTVSPost2010PropOp37
 70
     1
102
RTVSPost2010Prop38
140
0.0
102
RTVSPost2010PropOp38
 70
     1
102
RTVSPost2010Prop39
140
1.0
102
RTVSPost2010PropOp39
 70
     1
102
RTVSPost2010Prop40
 90
        0
102
RTVSPost2010PropOp40
 70
     1
102
RTVSPost2010Prop41ColorIndex
 90
       18
102
RTVSPost2010Prop41ColorRGB
 90
        0
102
RTVSPost2010PropOp41
 70
     1
102
RTVSPost2010Prop42
 90
       50
102
RTVSPost2010PropOp42
 70
     1
102
RTVSPost2010Prop43
 90
        3
102
RTVSPost2010PropOp43
 70
     1
102
RTVSPost2010Prop44ColorIndex
 90
        5
102
RTVSPost2010Prop44ColorRGB
 90
      255
102
RTVSPost2010PropOp44
 70
     1
102
RTVSPost2010Prop45
280
     0
102
RTVSPost2010PropOp45
 70
     1
102
RTVSPost2010Prop46
 90
       50
102
RTVSPost2010PropOp46
 70
     1
102
RTVSPost2010Prop47
 90
       50
102
RTVSPost2010PropOp47
 70
     1
102
RTVSPost2010Prop48
 90
       50
102
RTVSPost2010PropOp48
 70
     1
102
RTVSPost2010Prop49
280
     0
102
RTVSPost2010PropOp49
 70
     1
102
RTVSPost2010Prop50
 90
       50
102
RTVSPost2010PropOp50
 70
     1
102
RTVSPost2010Prop51ColorIndex
 90
      256
102
RTVSPost2010Prop51ColorRGB
 90
-16777216
102
RTVSPost2010PropOp51
 70
     0
102
RTVSPost2010Prop52
140
1.0
102
RTVSPost2010PropOp52
 70
     0
102
RTVSPost2010Prop53
 90
        2
102
RTVSPost2010PropOp53
 70
     1
102
RTVSPost2010Prop54
  1
strokes_ogs.tif
102
RTVSPost2010PropOp54
 70
     1
102
RTVSPost2010Prop55
280
     0
102
RTVSPost2010PropOp55
 70
     1
102
RTVSPost2010Prop56
140
1.0
102
RTVSPost2010PropOp56
 70
     1
102
RTVSPost2010Prop57
140
1.0
102
RTVSPost2010PropOp57
 70
     1
102
RTVSPropertyOp0
 70
     1
102
RTVSPropertyOp1
 70
     1
102
RTVSPropertyOp2
 70
     1
102
RTVSPropertyOp3
 70
     1
102
RTVSPropertyOp4
 70
     1
102
RTVSPropertyOp5
 70
     1
102
RTVSPropertyOp6
 70
     1
102
RTVSPropertyOp7
 70
     1
102
RTVSPropertyOp8
 70
     1
102
RTVSPropertyOp9
 70
     1
102
RTVSPropertyOp10
 70
     1
102
RTVSPropertyOp11
 70
     1
102
RTVSPropertyOp12
 70
     1
102
RTVSPropertyOp13
 70
     1
102
RTVSPropertyOp14
 70
     1
102
RTVSPropertyOp15
 70
     1
102
RTVSPropertyOp16
 70
     1
102
RTVSPropertyOp17
 70
     1
102
RTVSPropertyOp18
 70
     1
102
RTVSPropertyOp19
 70
     1
102
RTVSPropertyOp20
 70
     1
102
RTVSPropertyOp21
 70
     1
102
RTVSPropertyOp22
 70
     1
102
RTVSPropertyOp23
 70
     1
102
RTVSPropertyOp24
 70
     1
102
RTVSPropertyOp25
 70
     1
102
RTVSPropertyOp26
 70
     1
102
RTVSPropertyOp27
 70
     1
102
RTVSPropertyOp28
 70
     1
102
RTVSPropertyOp29
 70
     1
102
RTVSPropertyOp30
 70
     1
102
RTVSPropertyOp31
 70
     1
102
RTVSPropertyOp32
 70
     1
102
RTVSPropertyOp33
 70
     1
102
RTVSPropertyOp34
 70
     1
102
RTVSPropertyOp35
 70
     1
102
RTVSPropertyOp36
 70
     1
102
RTVSPropertyOp37
 70
     1
102
RTVSPropertyOp38
 70
     1
102
RTVSPropertyOp39
 70
     1
102
RTVSPropertyOp40
 70
     1
102
RTVSPropertyOp41
 70
     1
102
RTVSPropertyOp42
 70
     1
102
RTVSPropertyOp43
 70
     1
102
RTVSPropertyOp44
 70
     1
102
RTVSPropertyOp45
 70
     1
102
RTVSPropertyOp46
 70
     1
102
RTVSPropertyOp47
 70
     1
102
RTVSPropertyOp48
 70
     1
102
RTVSPropertyOp49
 70
     1
102
RTVSPropertyOp50
 70
     1
102
RTVSPropertyOp51
 70
     0
102
RTVSPropertyOp52
 70
     0
102
RTVSPropertyOp53
 70
     1
102
RTVSPropertyOp54
 70
     1
102
RTVSPropertyOp55
 70
     1
102
RTVSPropertyOp56
 70
     1
102
RTVSPropertyOp57
 70
     1
102
RTVSPropertyOp58
 70
     1
102
RTVSPropertyOp59
 70
     1
102
RTVSPropertyOp60
 70
     1
102
RTVSPropertyOp61
 70
     1
102
RTVSPropertyOp62
 70
     1
  0
XRECORD
  5
63D
102
{ACAD_REACTORS
330
63C
102
}
330
63C
100
AcDbXrecord
280
     1
102
RTVSPost2010Prop28
280
     0
102
RTVSPost2010PropOp28
 70
     0
102
RTVSPost2010Prop29
280
     1
102
RTVSPost2010PropOp29
 70
     0
102
RTVSPost2010Prop30
280
     1
102
RTVSPost2010PropOp30
 70
     0
102
RTVSPost2010Prop31
280
     0
102
RTVSPost2010PropOp31
 70
     0
102
RTVSPost2010Prop32
280
     0
102
RTVSPost2010PropOp32
 70
     0
102
RTVSPost2010Prop33
280
     0
102
RTVSPost2010PropOp33
 70
     0
102
RTVSPost2010Prop34
280
     0
102
RTVSPost2010PropOp34
 70
     0
102
RTVSPost2010Prop35
280
     0
102
RTVSPost2010PropOp35
 70
     0
102
RTVSPost2010Prop36
280
     0
102
RTVSPost2010PropOp36
 70
     0
102
RTVSPost2010Prop37
 90
       50
102
RTVSPost2010PropOp37
 70
     0
102
RTVSPost2010Prop38
140
0.0
102
RTVSPost2010PropOp38
 70
     0
102
RTVSPost2010Prop39
140
1.0
102
RTVSPost2010PropOp39
 70
     0
102
RTVSPost2010Prop40
 90
        0
102
RTVSPost2010PropOp40
 70
     0
102
RTVSPost2010Prop41ColorIndex
 90
       18
102
RTVSPost2010Prop41ColorRGB
 90
        0
102
RTVSPost2010PropOp41
 70
     0
102
RTVSPost2010Prop42
 90
       50
102
RTVSPost2010PropOp42
 70
     0
102
RTVSPost2010Prop43
 90
        3
102
RTVSPost2010PropOp43
 70
     0
102
RTVSPost2010Prop44ColorIndex
 90
        5
102
RTVSPost2010Prop44ColorRGB
 90
      255
102
RTVSPost2010PropOp44
 70
     0
102
RTVSPost2010Prop45
280
     0
102
RTVSPost2010PropOp45
 70
     0
102
RTVSPost2010Prop46
 90
       50
102
RTVSPost2010PropOp46
 70
     0
102
RTVSPost2010Prop47
 90
       50
102
RTVSPost2010PropOp47
 70
     0
102
RTVSPost2010Prop48
 90
       50
102
RTVSPost2010PropOp48
 70
     0
102
RTVSPost2010Prop49
280
     0
102
RTVSPost2010PropOp49
 70
     0
102
RTVSPost2010Prop50
 90
       50
102
RTVSPost2010PropOp50
 70
     0
102
RTVSPost2010Prop51ColorIndex
 90
      256
102
RTVSPost2010Prop51ColorRGB
 90
-16777216
102
RTVSPost2010PropOp51
 70
     0
102
RTVSPost2010Prop52
140
1.0
102
RTVSPost2010PropOp52
 70
     0
102
RTVSPost2010Prop53
 90
        2
102
RTVSPost2010PropOp53
 70
     0
102
RTVSPost2010Prop54
  1
strokes_ogs.tif
102
RTVSPost2010PropOp54
 70
     0
102
RTVSPost2010Prop55
280
     0
102
RTVSPost2010PropOp55
 70
     0
102
RTVSPost2010Prop56
140
1.0
102
RTVSPost2010PropOp56
 70
     0
102
RTVSPost2010Prop57
140
1.0
102
RTVSPost2010PropOp57
 70
     0
102
RTVSPropertyOp0
 70
     0
102
RTVSPropertyOp1
 70
     0
102
RTVSPropertyOp2
 70
     0
102
RTVSPropertyOp3
 70
     0
102
RTVSPropertyOp4
 70
     0
102
RTVSPropertyOp5
 70
     0
102
RTVSPropertyOp6
 70
     0
102
RTVSPropertyOp7
 70
     0
102
RTVSPropertyOp8
 70
     0
102
RTVSPropertyOp9
 70
     0
102
RTVSPropertyOp10
 70
     0
102
RTVSPropertyOp11
 70
     0
102
RTVSPropertyOp12
 70
     0
102
RTVSPropertyOp13
 70
     0
102
RTVSPropertyOp14
 70
     2
102
RTVSPropertyOp15
 70
     0
102
RTVSPropertyOp16
 70
     0
102
RTVSPropertyOp17
 70
     0
102
RTVSPropertyOp18
 70
     0
102
RTVSPropertyOp19
 70
     0
102
RTVSPropertyOp20
 70
     0
102
RTVSPropertyOp21
 70
     0
102
RTVSPropertyOp22
 70
     0
102
RTVSPropertyOp23
 70
     0
102
RTVSPropertyOp24
 70
     0
102
RTVSPropertyOp25
 70
     0
102
RTVSPropertyOp26
 70
     0
102
RTVSPropertyOp27
 70
     0
102
RTVSPropertyOp28
 70
     0
102
RTVSPropertyOp29
 70
     0
102
RTVSPropertyOp30
 70
     0
102
RTVSPropertyOp31
 70
     0
102
RTVSPropertyOp32
 70
     0
102
RTVSPropertyOp33
 70
     0
102
RTVSPropertyOp34
 70
     0
102
RTVSPropertyOp35
 70
     0
102
RTVSPropertyOp36
 70
     0
102
RTVSPropertyOp37
 70
     0
102
RTVSPropertyOp38
 70
     0
102
RTVSPropertyOp39
 70
     0
102
RTVSPropertyOp40
 70
     0
102
RTVSPropertyOp41
 70
     0
102
RTVSPropertyOp42
 70
     0
102
RTVSPropertyOp43
 70
     0
102
RTVSPropertyOp44
 70
     0
102
RTVSPropertyOp45
 70
     0
102
RTVSPropertyOp46
 70
     0
102
RTVSPropertyOp47
 70
     0
102
RTVSPropertyOp48
 70
     0
102
RTVSPropertyOp49
 70
     0
102
RTVSPropertyOp50
 70
     0
102
RTVSPropertyOp51
 70
     0
102
RTVSPropertyOp52
 70
     0
102
RTVSPropertyOp53
 70
     0
102
RTVSPropertyOp54
 70
     0
102
RTVSPropertyOp55
 70
     0
102
RTVSPropertyOp56
 70
     0
102
RTVSPropertyOp57
 70
     0
102
RTVSPropertyOp58
 70
     0
102
RTVSPropertyOp59
 70
     0
102
RTVSPropertyOp60
 70
     0
102
RTVSPropertyOp61
 70
     0
102
RTVSPropertyOp62
 70
     0
  0
XRECORD
  5
623
102
{ACAD_REACTORS
330
622
102
}
330
622
100
AcDbXrecord
280
     1
102
RTVSPost2010Prop28
280
     0
102
RTVSPost2010PropOp28
 70
     1
102
RTVSPost2010Prop29
280
     1
102
RTVSPost2010PropOp29
 70
     1
102
RTVSPost2010Prop30
280
     1
102
RTVSPost2010PropOp30
 70
     1
102
RTVSPost2010Prop31
280
     0
102
RTVSPost2010PropOp31
 70
     1
102
RTVSPost2010Prop32
280
     0
102
RTVSPost2010PropOp32
 70
     1
102
RTVSPost2010Prop33
280
     0
102
RTVSPost2010PropOp33
 70
     1
102
RTVSPost2010Prop34
280
     0
102
RTVSPost2010PropOp34
 70
     1
102
RTVSPost2010Prop35
280
     0
102
RTVSPost2010PropOp35
 70
     1
102
RTVSPost2010Prop36
280
     0
102
RTVSPost2010PropOp36
 70
     1
102
RTVSPost2010Prop37
 90
       50
102
RTVSPost2010PropOp37
 70
     1
102
RTVSPost2010Prop38
140
0.0
102
RTVSPost2010PropOp38
 70
     1
102
RTVSPost2010Prop39
140
1.0
102
RTVSPost2010PropOp39
 70
     1
102
RTVSPost2010Prop40
 90
        0
102
RTVSPost2010PropOp40
 70
     1
102
RTVSPost2010Prop41ColorIndex
 90
       18
102
RTVSPost2010Prop41ColorRGB
 90
        0
102
RTVSPost2010PropOp41
 70
     1
102
RTVSPost2010Prop42
 90
       50
102
RTVSPost2010PropOp42
 70
     1
102
RTVSPost2010Prop43
 90
        3
102
RTVSPost2010PropOp43
 70
     1
102
RTVSPost2010Prop44ColorIndex
 90
        5
102
RTVSPost2010Prop44ColorRGB
 90
      255
102
RTVSPost2010PropOp44
 70
     1
102
RTVSPost2010Prop45
280
     0
102
RTVSPost2010PropOp45
 70
     1
102
RTVSPost2010Prop46
 90
       50
102
RTVSPost2010PropOp46
 70
     1
102
RTVSPost2010Prop47
 90
       50
102
RTVSPost2010PropOp47
 70
     1
102
RTVSPost2010Prop48
 90
       50
102
RTVSPost2010PropOp48
 70
     1
102
RTVSPost2010Prop49
280
     0
102
RTVSPost2010PropOp49
 70
     1
102
RTVSPost2010Prop50
 90
       50
102
RTVSPost2010PropOp50
 70
     1
102
RTVSPost2010Prop51ColorIndex
 90
      256
102
RTVSPost2010Prop51ColorRGB
 90
-16777216
102
RTVSPost2010PropOp51
 70
     0
102
RTVSPost2010Prop52
140
1.0
102
RTVSPost2010PropOp52
 70
     0
102
RTVSPost2010Prop53
 90
        2
102
RTVSPost2010PropOp53
 70
     1
102
RTVSPost2010Prop54
  1
strokes_ogs.tif
102
RTVSPost2010PropOp54
 70
     1
102
RTVSPost2010Prop55
280
     0
102
RTVSPost2010PropOp55
 70
     1
102
RTVSPost2010Prop56
140
1.0
102
RTVSPost2010PropOp56
 70
     1
102
RTVSPost2010Prop57
140
1.0
102
RTVSPost2010PropOp57
 70
     1
102
RTVSPropertyOp0
 70
     1
102
RTVSPropertyOp1
 70
     1
102
RTVSPropertyOp2
 70
     1
102
RTVSPropertyOp3
 70
     1
102
RTVSPropertyOp4
 70
     1
102
RTVSPropertyOp5
 70
     1
102
RTVSPropertyOp6
 70
     1
102
RTVSPropertyOp7
 70
     1
102
RTVSPropertyOp8
 70
     1
102
RTVSPropertyOp9
 70
     1
102
RTVSPropertyOp10
 70
     1
102
RTVSPropertyOp11
 70
     1
102
RTVSPropertyOp12
 70
     1
102
RTVSPropertyOp13
 70
     1
102
RTVSPropertyOp14
 70
     1
102
RTVSPropertyOp15
 70
     1
102
RTVSPropertyOp16
 70
     1
102
RTVSPropertyOp17
 70
     1
102
RTVSPropertyOp18
 70
     1
102
RTVSPropertyOp19
 70
     1
102
RTVSPropertyOp20
 70
     1
102
RTVSPropertyOp21
 70
     1
102
RTVSPropertyOp22
 70
     1
102
RTVSPropertyOp23
 70
     1
102
RTVSPropertyOp24
 70
     1
102
RTVSPropertyOp25
 70
     1
102
RTVSPropertyOp26
 70
     1
102
RTVSPropertyOp27
 70
     1
102
RTVSPropertyOp28
 70
     1
102
RTVSPropertyOp29
 70
     1
102
RTVSPropertyOp30
 70
     1
102
RTVSPropertyOp31
 70
     1
102
RTVSPropertyOp32
 70
     1
102
RTVSPropertyOp33
 70
     1
102
RTVSPropertyOp34
 70
     1
102
RTVSPropertyOp35
 70
     1
102
RTVSPropertyOp36
 70
     1
102
RTVSPropertyOp37
 70
     1
102
RTVSPropertyOp38
 70
     1
102
RTVSPropertyOp39
 70
     1
102
RTVSPropertyOp40
 70
     1
102
RTVSPropertyOp41
 70
     1
102
RTVSPropertyOp42
 70
     1
102
RTVSPropertyOp43
 70
     1
102
RTVSPropertyOp44
 70
     1
102
RTVSPropertyOp45
 70
     1
102
RTVSPropertyOp46
 70
     1
102
RTVSPropertyOp47
 70
     1
102
RTVSPropertyOp48
 70
     1
102
RTVSPropertyOp49
 70
     1
102
RTVSPropertyOp50
 70
     1
102
RTVSPropertyOp51
 70
     0
102
RTVSPropertyOp52
 70
     0
102
RTVSPropertyOp53
 70
     1
102
RTVSPropertyOp54
 70
     1
102
RTVSPropertyOp55
 70
     1
102
RTVSPropertyOp56
 70
     1
102
RTVSPropertyOp57
 70
     1
102
RTVSPropertyOp58
 70
     1
102
RTVSPropertyOp59
 70
     1
102
RTVSPropertyOp60
 70
     1
102
RTVSPropertyOp61
 70
     1
102
RTVSPropertyOp62
 70
     1
  0
XRECORD
  5
639
102
{ACAD_REACTORS
330
638
102
}
330
638
100
AcDbXrecord
280
     1
102
RTVSPost2010Prop28
280
     0
102
RTVSPost2010PropOp28
 70
     1
102
RTVSPost2010Prop29
280
     1
102
RTVSPost2010PropOp29
 70
     1
102
RTVSPost2010Prop30
280
     1
102
RTVSPost2010PropOp30
 70
     1
102
RTVSPost2010Prop31
280
     0
102
RTVSPost2010PropOp31
 70
     1
102
RTVSPost2010Prop32
280
     0
102
RTVSPost2010PropOp32
 70
     1
102
RTVSPost2010Prop33
280
     0
102
RTVSPost2010PropOp33
 70
     1
102
RTVSPost2010Prop34
280
     0
102
RTVSPost2010PropOp34
 70
     1
102
RTVSPost2010Prop35
280
     0
102
RTVSPost2010PropOp35
 70
     1
102
RTVSPost2010Prop36
280
     0
102
RTVSPost2010PropOp36
 70
     1
102
RTVSPost2010Prop37
 90
       50
102
RTVSPost2010PropOp37
 70
     1
102
RTVSPost2010Prop38
140
0.0
102
RTVSPost2010PropOp38
 70
     1
102
RTVSPost2010Prop39
140
1.0
102
RTVSPost2010PropOp39
 70
     1
102
RTVSPost2010Prop40
 90
        0
102
RTVSPost2010PropOp40
 70
     1
102
RTVSPost2010Prop41ColorIndex
 90
       18
102
RTVSPost2010Prop41ColorRGB
 90
        0
102
RTVSPost2010PropOp41
 70
     1
102
RTVSPost2010Prop42
 90
       50
102
RTVSPost2010PropOp42
 70
     1
102
RTVSPost2010Prop43
 90
        3
102
RTVSPost2010PropOp43
 70
     1
102
RTVSPost2010Prop44ColorIndex
 90
        5
102
RTVSPost2010Prop44ColorRGB
 90
      255
102
RTVSPost2010PropOp44
 70
     1
102
RTVSPost2010Prop45
280
     0
102
RTVSPost2010PropOp45
 70
     1
102
RTVSPost2010Prop46
 90
       50
102
RTVSPost2010PropOp46
 70
     1
102
RTVSPost2010Prop47
 90
       50
102
RTVSPost2010PropOp47
 70
     1
102
RTVSPost2010Prop48
 90
       50
102
RTVSPost2010PropOp48
 70
     1
102
RTVSPost2010Prop49
280
     0
102
RTVSPost2010PropOp49
 70
     1
102
RTVSPost2010Prop50
 90
       50
102
RTVSPost2010PropOp50
 70
     1
102
RTVSPost2010Prop51ColorIndex
 90
      256
102
RTVSPost2010Prop51ColorRGB
 90
-16777216
102
RTVSPost2010PropOp51
 70
     0
102
RTVSPost2010Prop52
140
1.0
102
RTVSPost2010PropOp52
 70
     0
102
RTVSPost2010Prop53
 90
        2
102
RTVSPost2010PropOp53
 70
     1
102
RTVSPost2010Prop54
  1
strokes_ogs.tif
102
RTVSPost2010PropOp54
 70
     1
102
RTVSPost2010Prop55
280
     0
102
RTVSPost2010PropOp55
 70
     1
102
RTVSPost2010Prop56
140
1.0
102
RTVSPost2010PropOp56
 70
     1
102
RTVSPost2010Prop57
140
1.0
102
RTVSPost2010PropOp57
 70
     1
102
RTVSPropertyOp0
 70
     1
102
RTVSPropertyOp1
 70
     1
102
RTVSPropertyOp2
 70
     1
102
RTVSPropertyOp3
 70
     1
102
RTVSPropertyOp4
 70
     1
102
RTVSPropertyOp5
 70
     1
102
RTVSPropertyOp6
 70
     1
102
RTVSPropertyOp7
 70
     1
102
RTVSPropertyOp8
 70
     1
102
RTVSPropertyOp9
 70
     1
102
RTVSPropertyOp10
 70
     1
102
RTVSPropertyOp11
 70
     1
102
RTVSPropertyOp12
 70
     1
102
RTVSPropertyOp13
 70
     1
102
RTVSPropertyOp14
 70
     1
102
RTVSPropertyOp15
 70
     1
102
RTVSPropertyOp16
 70
     1
102
RTVSPropertyOp17
 70
     1
102
RTVSPropertyOp18
 70
     1
102
RTVSPropertyOp19
 70
     1
102
RTVSPropertyOp20
 70
     1
102
RTVSPropertyOp21
 70
     1
102
RTVSPropertyOp22
 70
     1
102
RTVSPropertyOp23
 70
     1
102
RTVSPropertyOp24
 70
     1
102
RTVSPropertyOp25
 70
     1
102
RTVSPropertyOp26
 70
     1
102
RTVSPropertyOp27
 70
     1
102
RTVSPropertyOp28
 70
     1
102
RTVSPropertyOp29
 70
     1
102
RTVSPropertyOp30
 70
     1
102
RTVSPropertyOp31
 70
     1
102
RTVSPropertyOp32
 70
     1
102
RTVSPropertyOp33
 70
     1
102
RTVSPropertyOp34
 70
     1
102
RTVSPropertyOp35
 70
     1
102
RTVSPropertyOp36
 70
     1
102
RTVSPropertyOp37
 70
     1
102
RTVSPropertyOp38
 70
     1
102
RTVSPropertyOp39
 70
     1
102
RTVSPropertyOp40
 70
     1
102
RTVSPropertyOp41
 70
     1
102
RTVSPropertyOp42
 70
     1
102
RTVSPropertyOp43
 70
     1
102
RTVSPropertyOp44
 70
     1
102
RTVSPropertyOp45
 70
     1
102
RTVSPropertyOp46
 70
     1
102
RTVSPropertyOp47
 70
     1
102
RTVSPropertyOp48
 70
     1
102
RTVSPropertyOp49
 70
     1
102
RTVSPropertyOp50
 70
     1
102
RTVSPropertyOp51
 70
     0
102
RTVSPropertyOp52
 70
     0
102
RTVSPropertyOp53
 70
     1
102
RTVSPropertyOp54
 70
     1
102
RTVSPropertyOp55
 70
     1
102
RTVSPropertyOp56
 70
     1
102
RTVSPropertyOp57
 70
     1
102
RTVSPropertyOp58
 70
     1
102
RTVSPropertyOp59
 70
     1
102
RTVSPropertyOp60
 70
     1
102
RTVSPropertyOp61
 70
     1
102
RTVSPropertyOp62
 70
     1
  0
XRECORD
  5
637
102
{ACAD_REACTORS
330
636
102
}
330
636
100
AcDbXrecord
280
     1
102
RTVSPost2010Prop28
280
     0
102
RTVSPost2010PropOp28
 70
     1
102
RTVSPost2010Prop29
280
     1
102
RTVSPost2010PropOp29
 70
     1
102
RTVSPost2010Prop30
280
     1
102
RTVSPost2010PropOp30
 70
     1
102
RTVSPost2010Prop31
280
     0
102
RTVSPost2010PropOp31
 70
     1
102
RTVSPost2010Prop32
280
     0
102
RTVSPost2010PropOp32
 70
     1
102
RTVSPost2010Prop33
280
     0
102
RTVSPost2010PropOp33
 70
     1
102
RTVSPost2010Prop34
280
     0
102
RTVSPost2010PropOp34
 70
     1
102
RTVSPost2010Prop35
280
     0
102
RTVSPost2010PropOp35
 70
     1
102
RTVSPost2010Prop36
280
     0
102
RTVSPost2010PropOp36
 70
     1
102
RTVSPost2010Prop37
 90
       50
102
RTVSPost2010PropOp37
 70
     1
102
RTVSPost2010Prop38
140
0.0
102
RTVSPost2010PropOp38
 70
     1
102
RTVSPost2010Prop39
140
1.0
102
RTVSPost2010PropOp39
 70
     1
102
RTVSPost2010Prop40
 90
        0
102
RTVSPost2010PropOp40
 70
     1
102
RTVSPost2010Prop41ColorIndex
 90
       18
102
RTVSPost2010Prop41ColorRGB
 90
        0
102
RTVSPost2010PropOp41
 70
     1
102
RTVSPost2010Prop42
 90
       50
102
RTVSPost2010PropOp42
 70
     1
102
RTVSPost2010Prop43
 90
        3
102
RTVSPost2010PropOp43
 70
     1
102
RTVSPost2010Prop44ColorIndex
 90
        5
102
RTVSPost2010Prop44ColorRGB
 90
      255
102
RTVSPost2010PropOp44
 70
     1
102
RTVSPost2010Prop45
280
     0
102
RTVSPost2010PropOp45
 70
     1
102
RTVSPost2010Prop46
 90
       50
102
RTVSPost2010PropOp46
 70
     1
102
RTVSPost2010Prop47
 90
       50
102
RTVSPost2010PropOp47
 70
     1
102
RTVSPost2010Prop48
 90
       50
102
RTVSPost2010PropOp48
 70
     1
102
RTVSPost2010Prop49
280
     0
102
RTVSPost2010PropOp49
 70
     1
102
RTVSPost2010Prop50
 90
       50
102
RTVSPost2010PropOp50
 70
     1
102
RTVSPost2010Prop51ColorIndex
 90
      256
102
RTVSPost2010Prop51ColorRGB
 90
-16777216
102
RTVSPost2010PropOp51
 70
     0
102
RTVSPost2010Prop52
140
1.0
102
RTVSPost2010PropOp52
 70
     0
102
RTVSPost2010Prop53
 90
        2
102
RTVSPost2010PropOp53
 70
     1
102
RTVSPost2010Prop54
  1
strokes_ogs.tif
102
RTVSPost2010PropOp54
 70
     1
102
RTVSPost2010Prop55
280
     0
102
RTVSPost2010PropOp55
 70
     1
102
RTVSPost2010Prop56
140
1.0
102
RTVSPost2010PropOp56
 70
     1
102
RTVSPost2010Prop57
140
1.0
102
RTVSPost2010PropOp57
 70
     1
102
RTVSPropertyOp0
 70
     1
102
RTVSPropertyOp1
 70
     1
102
RTVSPropertyOp2
 70
     1
102
RTVSPropertyOp3
 70
     1
102
RTVSPropertyOp4
 70
     1
102
RTVSPropertyOp5
 70
     1
102
RTVSPropertyOp6
 70
     1
102
RTVSPropertyOp7
 70
     1
102
RTVSPropertyOp8
 70
     1
102
RTVSPropertyOp9
 70
     1
102
RTVSPropertyOp10
 70
     1
102
RTVSPropertyOp11
 70
     1
102
RTVSPropertyOp12
 70
     1
102
RTVSPropertyOp13
 70
     1
102
RTVSPropertyOp14
 70
     1
102
RTVSPropertyOp15
 70
     1
102
RTVSPropertyOp16
 70
     1
102
RTVSPropertyOp17
 70
     1
102
RTVSPropertyOp18
 70
     1
102
RTVSPropertyOp19
 70
     1
102
RTVSPropertyOp20
 70
     1
102
RTVSPropertyOp21
 70
     1
102
RTVSPropertyOp22
 70
     1
102
RTVSPropertyOp23
 70
     1
102
RTVSPropertyOp24
 70
     1
102
RTVSPropertyOp25
 70
     1
102
RTVSPropertyOp26
 70
     1
102
RTVSPropertyOp27
 70
     1
102
RTVSPropertyOp28
 70
     1
102
RTVSPropertyOp29
 70
     1
102
RTVSPropertyOp30
 70
     1
102
RTVSPropertyOp31
 70
     1
102
RTVSPropertyOp32
 70
     1
102
RTVSPropertyOp33
 70
     1
102
RTVSPropertyOp34
 70
     1
102
RTVSPropertyOp35
 70
     1
102
RTVSPropertyOp36
 70
     1
102
RTVSPropertyOp37
 70
     1
102
RTVSPropertyOp38
 70
     1
102
RTVSPropertyOp39
 70
     1
102
RTVSPropertyOp40
 70
     1
102
RTVSPropertyOp41
 70
     1
102
RTVSPropertyOp42
 70
     1
102
RTVSPropertyOp43
 70
     1
102
RTVSPropertyOp44
 70
     1
102
RTVSPropertyOp45
 70
     1
102
RTVSPropertyOp46
 70
     1
102
RTVSPropertyOp47
 70
     1
102
RTVSPropertyOp48
 70
     1
102
RTVSPropertyOp49
 70
     1
102
RTVSPropertyOp50
 70
     1
102
RTVSPropertyOp51
 70
     0
102
RTVSPropertyOp52
 70
     0
102
RTVSPropertyOp53
 70
     1
102
RTVSPropertyOp54
 70
     1
102
RTVSPropertyOp55
 70
     1
102
RTVSPropertyOp56
 70
     1
102
RTVSPropertyOp57
 70
     1
102
RTVSPropertyOp58
 70
     1
102
RTVSPropertyOp59
 70
     1
102
RTVSPropertyOp60
 70
     1
102
RTVSPropertyOp61
 70
     1
102
RTVSPropertyOp62
 70
     1
  0
XRECORD
  5
631
102
{ACAD_REACTORS
330
630
102
}
330
630
100
AcDbXrecord
280
     1
102
RTVSPost2010Prop28
280
     0
102
RTVSPost2010PropOp28
 70
     1
102
RTVSPost2010Prop29
280
     1
102
RTVSPost2010PropOp29
 70
     1
102
RTVSPost2010Prop30
280
     1
102
RTVSPost2010PropOp30
 70
     1
102
RTVSPost2010Prop31
280
     0
102
RTVSPost2010PropOp31
 70
     1
102
RTVSPost2010Prop32
280
     0
102
RTVSPost2010PropOp32
 70
     1
102
RTVSPost2010Prop33
280
     0
102
RTVSPost2010PropOp33
 70
     1
102
RTVSPost2010Prop34
280
     0
102
RTVSPost2010PropOp34
 70
     1
102
RTVSPost2010Prop35
280
     0
102
RTVSPost2010PropOp35
 70
     1
102
RTVSPost2010Prop36
280
     0
102
RTVSPost2010PropOp36
 70
     1
102
RTVSPost2010Prop37
 90
       50
102
RTVSPost2010PropOp37
 70
     1
102
RTVSPost2010Prop38
140
0.0
102
RTVSPost2010PropOp38
 70
     1
102
RTVSPost2010Prop39
140
1.0
102
RTVSPost2010PropOp39
 70
     1
102
RTVSPost2010Prop40
 90
        0
102
RTVSPost2010PropOp40
 70
     1
102
RTVSPost2010Prop41ColorIndex
 90
       18
102
RTVSPost2010Prop41ColorRGB
 90
        0
102
RTVSPost2010PropOp41
 70
     1
102
RTVSPost2010Prop42
 90
       50
102
RTVSPost2010PropOp42
 70
     1
102
RTVSPost2010Prop43
 90
        3
102
RTVSPost2010PropOp43
 70
     1
102
RTVSPost2010Prop44ColorIndex
 90
        5
102
RTVSPost2010Prop44ColorRGB
 90
      255
102
RTVSPost2010PropOp44
 70
     1
102
RTVSPost2010Prop45
280
     0
102
RTVSPost2010PropOp45
 70
     1
102
RTVSPost2010Prop46
 90
       50
102
RTVSPost2010PropOp46
 70
     1
102
RTVSPost2010Prop47
 90
       50
102
RTVSPost2010PropOp47
 70
     1
102
RTVSPost2010Prop48
 90
       50
102
RTVSPost2010PropOp48
 70
     1
102
RTVSPost2010Prop49
280
     0
102
RTVSPost2010PropOp49
 70
     1
102
RTVSPost2010Prop50
 90
       50
102
RTVSPost2010PropOp50
 70
     1
102
RTVSPost2010Prop51ColorIndex
 90
      256
102
RTVSPost2010Prop51ColorRGB
 90
-16777216
102
RTVSPost2010PropOp51
 70
     0
102
RTVSPost2010Prop52
140
1.0
102
RTVSPost2010PropOp52
 70
     0
102
RTVSPost2010Prop53
 90
        2
102
RTVSPost2010PropOp53
 70
     1
102
RTVSPost2010Prop54
  1
strokes_ogs.tif
102
RTVSPost2010PropOp54
 70
     1
102
RTVSPost2010Prop55
280
     0
102
RTVSPost2010PropOp55
 70
     1
102
RTVSPost2010Prop56
140
1.0
102
RTVSPost2010PropOp56
 70
     1
102
RTVSPost2010Prop57
140
1.0
102
RTVSPost2010PropOp57
 70
     1
102
RTVSPropertyOp0
 70
     1
102
RTVSPropertyOp1
 70
     1
102
RTVSPropertyOp2
 70
     1
102
RTVSPropertyOp3
 70
     1
102
RTVSPropertyOp4
 70
     1
102
RTVSPropertyOp5
 70
     1
102
RTVSPropertyOp6
 70
     1
102
RTVSPropertyOp7
 70
     1
102
RTVSPropertyOp8
 70
     1
102
RTVSPropertyOp9
 70
     1
102
RTVSPropertyOp10
 70
     1
102
RTVSPropertyOp11
 70
     1
102
RTVSPropertyOp12
 70
     1
102
RTVSPropertyOp13
 70
     1
102
RTVSPropertyOp14
 70
     1
102
RTVSPropertyOp15
 70
     1
102
RTVSPropertyOp16
 70
     1
102
RTVSPropertyOp17
 70
     1
102
RTVSPropertyOp18
 70
     1
102
RTVSPropertyOp19
 70
     1
102
RTVSPropertyOp20
 70
     1
102
RTVSPropertyOp21
 70
     1
102
RTVSPropertyOp22
 70
     1
102
RTVSPropertyOp23
 70
     1
102
RTVSPropertyOp24
 70
     1
102
RTVSPropertyOp25
 70
     1
102
RTVSPropertyOp26
 70
     1
102
RTVSPropertyOp27
 70
     1
102
RTVSPropertyOp28
 70
     1
102
RTVSPropertyOp29
 70
     1
102
RTVSPropertyOp30
 70
     1
102
RTVSPropertyOp31
 70
     1
102
RTVSPropertyOp32
 70
     1
102
RTVSPropertyOp33
 70
     1
102
RTVSPropertyOp34
 70
     1
102
RTVSPropertyOp35
 70
     1
102
RTVSPropertyOp36
 70
     1
102
RTVSPropertyOp37
 70
     1
102
RTVSPropertyOp38
 70
     1
102
RTVSPropertyOp39
 70
     1
102
RTVSPropertyOp40
 70
     1
102
RTVSPropertyOp41
 70
     1
102
RTVSPropertyOp42
 70
     1
102
RTVSPropertyOp43
 70
     1
102
RTVSPropertyOp44
 70
     1
102
RTVSPropertyOp45
 70
     1
102
RTVSPropertyOp46
 70
     1
102
RTVSPropertyOp47
 70
     1
102
RTVSPropertyOp48
 70
     1
102
RTVSPropertyOp49
 70
     1
102
RTVSPropertyOp50
 70
     1
102
RTVSPropertyOp51
 70
     0
102
RTVSPropertyOp52
 70
     0
102
RTVSPropertyOp53
 70
     1
102
RTVSPropertyOp54
 70
     1
102
RTVSPropertyOp55
 70
     1
102
RTVSPropertyOp56
 70
     1
102
RTVSPropertyOp57
 70
     1
102
RTVSPropertyOp58
 70
     1
102
RTVSPropertyOp59
 70
     1
102
RTVSPropertyOp60
 70
     1
102
RTVSPropertyOp61
 70
     1
102
RTVSPropertyOp62
 70
     1
  0
XRECORD
  5
633
102
{ACAD_REACTORS
330
632
102
}
330
632
100
AcDbXrecord
280
     1
102
RTVSPost2010Prop28
280
     0
102
RTVSPost2010PropOp28
 70
     1
102
RTVSPost2010Prop29
280
     1
102
RTVSPost2010PropOp29
 70
     1
102
RTVSPost2010Prop30
280
     1
102
RTVSPost2010PropOp30
 70
     1
102
RTVSPost2010Prop31
280
     0
102
RTVSPost2010PropOp31
 70
     1
102
RTVSPost2010Prop32
280
     0
102
RTVSPost2010PropOp32
 70
     1
102
RTVSPost2010Prop33
280
     0
102
RTVSPost2010PropOp33
 70
     1
102
RTVSPost2010Prop34
280
     0
102
RTVSPost2010PropOp34
 70
     1
102
RTVSPost2010Prop35
280
     0
102
RTVSPost2010PropOp35
 70
     1
102
RTVSPost2010Prop36
280
     0
102
RTVSPost2010PropOp36
 70
     1
102
RTVSPost2010Prop37
 90
       50
102
RTVSPost2010PropOp37
 70
     1
102
RTVSPost2010Prop38
140
0.0
102
RTVSPost2010PropOp38
 70
     1
102
RTVSPost2010Prop39
140
1.0
102
RTVSPost2010PropOp39
 70
     1
102
RTVSPost2010Prop40
 90
        0
102
RTVSPost2010PropOp40
 70
     1
102
RTVSPost2010Prop41ColorIndex
 90
       18
102
RTVSPost2010Prop41ColorRGB
 90
        0
102
RTVSPost2010PropOp41
 70
     1
102
RTVSPost2010Prop42
 90
       50
102
RTVSPost2010PropOp42
 70
     1
102
RTVSPost2010Prop43
 90
        3
102
RTVSPost2010PropOp43
 70
     1
102
RTVSPost2010Prop44ColorIndex
 90
        5
102
RTVSPost2010Prop44ColorRGB
 90
      255
102
RTVSPost2010PropOp44
 70
     1
102
RTVSPost2010Prop45
280
     0
102
RTVSPost2010PropOp45
 70
     1
102
RTVSPost2010Prop46
 90
       50
102
RTVSPost2010PropOp46
 70
     1
102
RTVSPost2010Prop47
 90
       50
102
RTVSPost2010PropOp47
 70
     1
102
RTVSPost2010Prop48
 90
       50
102
RTVSPost2010PropOp48
 70
     1
102
RTVSPost2010Prop49
280
     0
102
RTVSPost2010PropOp49
 70
     1
102
RTVSPost2010Prop50
 90
       50
102
RTVSPost2010PropOp50
 70
     1
102
RTVSPost2010Prop51ColorIndex
 90
      256
102
RTVSPost2010Prop51ColorRGB
 90
-16777216
102
RTVSPost2010PropOp51
 70
     0
102
RTVSPost2010Prop52
140
1.0
102
RTVSPost2010PropOp52
 70
     0
102
RTVSPost2010Prop53
 90
        2
102
RTVSPost2010PropOp53
 70
     1
102
RTVSPost2010Prop54
  1
strokes_ogs.tif
102
RTVSPost2010PropOp54
 70
     1
102
RTVSPost2010Prop55
280
     0
102
RTVSPost2010PropOp55
 70
     1
102
RTVSPost2010Prop56
140
1.0
102
RTVSPost2010PropOp56
 70
     1
102
RTVSPost2010Prop57
140
1.0
102
RTVSPost2010PropOp57
 70
     1
102
RTVSPropertyOp0
 70
     1
102
RTVSPropertyOp1
 70
     1
102
RTVSPropertyOp2
 70
     1
102
RTVSPropertyOp3
 70
     1
102
RTVSPropertyOp4
 70
     1
102
RTVSPropertyOp5
 70
     1
102
RTVSPropertyOp6
 70
     1
102
RTVSPropertyOp7
 70
     1
102
RTVSPropertyOp8
 70
     1
102
RTVSPropertyOp9
 70
     1
102
RTVSPropertyOp10
 70
     1
102
RTVSPropertyOp11
 70
     1
102
RTVSPropertyOp12
 70
     1
102
RTVSPropertyOp13
 70
     1
102
RTVSPropertyOp14
 70
     1
102
RTVSPropertyOp15
 70
     1
102
RTVSPropertyOp16
 70
     1
102
RTVSPropertyOp17
 70
     1
102
RTVSPropertyOp18
 70
     1
102
RTVSPropertyOp19
 70
     1
102
RTVSPropertyOp20
 70
     1
102
RTVSPropertyOp21
 70
     1
102
RTVSPropertyOp22
 70
     1
102
RTVSPropertyOp23
 70
     1
102
RTVSPropertyOp24
 70
     1
102
RTVSPropertyOp25
 70
     1
102
RTVSPropertyOp26
 70
     1
102
RTVSPropertyOp27
 70
     1
102
RTVSPropertyOp28
 70
     1
102
RTVSPropertyOp29
 70
     1
102
RTVSPropertyOp30
 70
     1
102
RTVSPropertyOp31
 70
     1
102
RTVSPropertyOp32
 70
     1
102
RTVSPropertyOp33
 70
     1
102
RTVSPropertyOp34
 70
     1
102
RTVSPropertyOp35
 70
     1
102
RTVSPropertyOp36
 70
     1
102
RTVSPropertyOp37
 70
     1
102
RTVSPropertyOp38
 70
     1
102
RTVSPropertyOp39
 70
     1
102
RTVSPropertyOp40
 70
     1
102
RTVSPropertyOp41
 70
     1
102
RTVSPropertyOp42
 70
     1
102
RTVSPropertyOp43
 70
     1
102
RTVSPropertyOp44
 70
     1
102
RTVSPropertyOp45
 70
     1
102
RTVSPropertyOp46
 70
     1
102
RTVSPropertyOp47
 70
     1
102
RTVSPropertyOp48
 70
     1
102
RTVSPropertyOp49
 70
     1
102
RTVSPropertyOp50
 70
     1
102
RTVSPropertyOp51
 70
     0
102
RTVSPropertyOp52
 70
     0
102
RTVSPropertyOp53
 70
     1
102
RTVSPropertyOp54
 70
     1
102
RTVSPropertyOp55
 70
     1
102
RTVSPropertyOp56
 70
     1
102
RTVSPropertyOp57
 70
     1
102
RTVSPropertyOp58
 70
     1
102
RTVSPropertyOp59
 70
     1
102
RTVSPropertyOp60
 70
     1
102
RTVSPropertyOp61
 70
     1
102
RTVSPropertyOp62
 70
     1
  0
XRECORD
  5
629
102
{ACAD_REACTORS
330
628
102
}
330
628
100
AcDbXrecord
280
     1
102
RTVSPost2010Prop28
280
     0
102
RTVSPost2010PropOp28
 70
     1
102
RTVSPost2010Prop29
280
     1
102
RTVSPost2010PropOp29
 70
     1
102
RTVSPost2010Prop30
280
     1
102
RTVSPost2010PropOp30
 70
     1
102
RTVSPost2010Prop31
280
     0
102
RTVSPost2010PropOp31
 70
     1
102
RTVSPost2010Prop32
280
     0
102
RTVSPost2010PropOp32
 70
     1
102
RTVSPost2010Prop33
280
     0
102
RTVSPost2010PropOp33
 70
     1
102
RTVSPost2010Prop34
280
     0
102
RTVSPost2010PropOp34
 70
     1
102
RTVSPost2010Prop35
280
     0
102
RTVSPost2010PropOp35
 70
     1
102
RTVSPost2010Prop36
280
     0
102
RTVSPost2010PropOp36
 70
     1
102
RTVSPost2010Prop37
 90
       50
102
RTVSPost2010PropOp37
 70
     1
102
RTVSPost2010Prop38
140
0.0
102
RTVSPost2010PropOp38
 70
     1
102
RTVSPost2010Prop39
140
1.0
102
RTVSPost2010PropOp39
 70
     1
102
RTVSPost2010Prop40
 90
        0
102
RTVSPost2010PropOp40
 70
     1
102
RTVSPost2010Prop41ColorIndex
 90
       18
102
RTVSPost2010Prop41ColorRGB
 90
        0
102
RTVSPost2010PropOp41
 70
     1
102
RTVSPost2010Prop42
 90
       50
102
RTVSPost2010PropOp42
 70
     1
102
RTVSPost2010Prop43
 90
        3
102
RTVSPost2010PropOp43
 70
     1
102
RTVSPost2010Prop44ColorIndex
 90
        5
102
RTVSPost2010Prop44ColorRGB
 90
      255
102
RTVSPost2010PropOp44
 70
     1
102
RTVSPost2010Prop45
280
     0
102
RTVSPost2010PropOp45
 70
     1
102
RTVSPost2010Prop46
 90
       50
102
RTVSPost2010PropOp46
 70
     1
102
RTVSPost2010Prop47
 90
       50
102
RTVSPost2010PropOp47
 70
     1
102
RTVSPost2010Prop48
 90
       50
102
RTVSPost2010PropOp48
 70
     1
102
RTVSPost2010Prop49
280
     0
102
RTVSPost2010PropOp49
 70
     1
102
RTVSPost2010Prop50
 90
       50
102
RTVSPost2010PropOp50
 70
     1
102
RTVSPost2010Prop51ColorIndex
 90
      256
102
RTVSPost2010Prop51ColorRGB
 90
-16777216
102
RTVSPost2010PropOp51
 70
     0
102
RTVSPost2010Prop52
140
1.0
102
RTVSPost2010PropOp52
 70
     0
102
RTVSPost2010Prop53
 90
        2
102
RTVSPost2010PropOp53
 70
     1
102
RTVSPost2010Prop54
  1
strokes_ogs.tif
102
RTVSPost2010PropOp54
 70
     1
102
RTVSPost2010Prop55
280
     0
102
RTVSPost2010PropOp55
 70
     1
102
RTVSPost2010Prop56
140
1.0
102
RTVSPost2010PropOp56
 70
     1
102
RTVSPost2010Prop57
140
1.0
102
RTVSPost2010PropOp57
 70
     1
102
RTVSPropertyOp0
 70
     1
102
RTVSPropertyOp1
 70
     1
102
RTVSPropertyOp2
 70
     1
102
RTVSPropertyOp3
 70
     1
102
RTVSPropertyOp4
 70
     1
102
RTVSPropertyOp5
 70
     1
102
RTVSPropertyOp6
 70
     1
102
RTVSPropertyOp7
 70
     1
102
RTVSPropertyOp8
 70
     1
102
RTVSPropertyOp9
 70
     1
102
RTVSPropertyOp10
 70
     1
102
RTVSPropertyOp11
 70
     1
102
RTVSPropertyOp12
 70
     1
102
RTVSPropertyOp13
 70
     1
102
RTVSPropertyOp14
 70
     1
102
RTVSPropertyOp15
 70
     1
102
RTVSPropertyOp16
 70
     1
102
RTVSPropertyOp17
 70
     1
102
RTVSPropertyOp18
 70
     1
102
RTVSPropertyOp19
 70
     1
102
RTVSPropertyOp20
 70
     1
102
RTVSPropertyOp21
 70
     1
102
RTVSPropertyOp22
 70
     1
102
RTVSPropertyOp23
 70
     1
102
RTVSPropertyOp24
 70
     1
102
RTVSPropertyOp25
 70
     1
102
RTVSPropertyOp26
 70
     1
102
RTVSPropertyOp27
 70
     1
102
RTVSPropertyOp28
 70
     1
102
RTVSPropertyOp29
 70
     1
102
RTVSPropertyOp30
 70
     1
102
RTVSPropertyOp31
 70
     1
102
RTVSPropertyOp32
 70
     1
102
RTVSPropertyOp33
 70
     1
102
RTVSPropertyOp34
 70
     1
102
RTVSPropertyOp35
 70
     1
102
RTVSPropertyOp36
 70
     1
102
RTVSPropertyOp37
 70
     1
102
RTVSPropertyOp38
 70
     1
102
RTVSPropertyOp39
 70
     1
102
RTVSPropertyOp40
 70
     1
102
RTVSPropertyOp41
 70
     1
102
RTVSPropertyOp42
 70
     1
102
RTVSPropertyOp43
 70
     1
102
RTVSPropertyOp44
 70
     1
102
RTVSPropertyOp45
 70
     1
102
RTVSPropertyOp46
 70
     1
102
RTVSPropertyOp47
 70
     1
102
RTVSPropertyOp48
 70
     1
102
RTVSPropertyOp49
 70
     1
102
RTVSPropertyOp50
 70
     1
102
RTVSPropertyOp51
 70
     0
102
RTVSPropertyOp52
 70
     0
102
RTVSPropertyOp53
 70
     1
102
RTVSPropertyOp54
 70
     1
102
RTVSPropertyOp55
 70
     1
102
RTVSPropertyOp56
 70
     1
102
RTVSPropertyOp57
 70
     1
102
RTVSPropertyOp58
 70
     1
102
RTVSPropertyOp59
 70
     1
102
RTVSPropertyOp60
 70
     1
102
RTVSPropertyOp61
 70
     1
102
RTVSPropertyOp62
 70
     1
  0
XRECORD
  5
61D
102
{ACAD_REACTORS
330
61C
102
}
330
61C
100
AcDbXrecord
280
     1
102
RTVSPost2010Prop28
280
     0
102
RTVSPost2010PropOp28
 70
     1
102
RTVSPost2010Prop29
280
     1
102
RTVSPost2010PropOp29
 70
     1
102
RTVSPost2010Prop30
280
     1
102
RTVSPost2010PropOp30
 70
     1
102
RTVSPost2010Prop31
280
     0
102
RTVSPost2010PropOp31
 70
     1
102
RTVSPost2010Prop32
280
     0
102
RTVSPost2010PropOp32
 70
     1
102
RTVSPost2010Prop33
280
     0
102
RTVSPost2010PropOp33
 70
     1
102
RTVSPost2010Prop34
280
     0
102
RTVSPost2010PropOp34
 70
     1
102
RTVSPost2010Prop35
280
     0
102
RTVSPost2010PropOp35
 70
     1
102
RTVSPost2010Prop36
280
     0
102
RTVSPost2010PropOp36
 70
     1
102
RTVSPost2010Prop37
 90
       50
102
RTVSPost2010PropOp37
 70
     1
102
RTVSPost2010Prop38
140
0.0
102
RTVSPost2010PropOp38
 70
     1
102
RTVSPost2010Prop39
140
1.0
102
RTVSPost2010PropOp39
 70
     1
102
RTVSPost2010Prop40
 90
        0
102
RTVSPost2010PropOp40
 70
     1
102
RTVSPost2010Prop41ColorIndex
 90
       18
102
RTVSPost2010Prop41ColorRGB
 90
        0
102
RTVSPost2010PropOp41
 70
     1
102
RTVSPost2010Prop42
 90
       50
102
RTVSPost2010PropOp42
 70
     1
102
RTVSPost2010Prop43
 90
        3
102
RTVSPost2010PropOp43
 70
     1
102
RTVSPost2010Prop44ColorIndex
 90
        5
102
RTVSPost2010Prop44ColorRGB
 90
      255
102
RTVSPost2010PropOp44
 70
     1
102
RTVSPost2010Prop45
280
     0
102
RTVSPost2010PropOp45
 70
     1
102
RTVSPost2010Prop46
 90
       50
102
RTVSPost2010PropOp46
 70
     1
102
RTVSPost2010Prop47
 90
       50
102
RTVSPost2010PropOp47
 70
     1
102
RTVSPost2010Prop48
 90
       50
102
RTVSPost2010PropOp48
 70
     1
102
RTVSPost2010Prop49
280
     0
102
RTVSPost2010PropOp49
 70
     1
102
RTVSPost2010Prop50
 90
       50
102
RTVSPost2010PropOp50
 70
     1
102
RTVSPost2010Prop51ColorIndex
 90
      256
102
RTVSPost2010Prop51ColorRGB
 90
-16777216
102
RTVSPost2010PropOp51
 70
     0
102
RTVSPost2010Prop52
140
1.0
102
RTVSPost2010PropOp52
 70
     0
102
RTVSPost2010Prop53
 90
        2
102
RTVSPost2010PropOp53
 70
     1
102
RTVSPost2010Prop54
  1
strokes_ogs.tif
102
RTVSPost2010PropOp54
 70
     1
102
RTVSPost2010Prop55
280
     0
102
RTVSPost2010PropOp55
 70
     1
102
RTVSPost2010Prop56
140
1.0
102
RTVSPost2010PropOp56
 70
     1
102
RTVSPost2010Prop57
140
1.0
102
RTVSPost2010PropOp57
 70
     1
102
RTVSPropertyOp0
 70
     1
102
RTVSPropertyOp1
 70
     1
102
RTVSPropertyOp2
 70
     1
102
RTVSPropertyOp3
 70
     1
102
RTVSPropertyOp4
 70
     1
102
RTVSPropertyOp5
 70
     1
102
RTVSPropertyOp6
 70
     1
102
RTVSPropertyOp7
 70
     1
102
RTVSPropertyOp8
 70
     1
102
RTVSPropertyOp9
 70
     1
102
RTVSPropertyOp10
 70
     1
102
RTVSPropertyOp11
 70
     1
102
RTVSPropertyOp12
 70
     1
102
RTVSPropertyOp13
 70
     1
102
RTVSPropertyOp14
 70
     1
102
RTVSPropertyOp15
 70
     1
102
RTVSPropertyOp16
 70
     1
102
RTVSPropertyOp17
 70
     1
102
RTVSPropertyOp18
 70
     1
102
RTVSPropertyOp19
 70
     1
102
RTVSPropertyOp20
 70
     1
102
RTVSPropertyOp21
 70
     1
102
RTVSPropertyOp22
 70
     1
102
RTVSPropertyOp23
 70
     1
102
RTVSPropertyOp24
 70
     1
102
RTVSPropertyOp25
 70
     1
102
RTVSPropertyOp26
 70
     1
102
RTVSPropertyOp27
 70
     1
102
RTVSPropertyOp28
 70
     1
102
RTVSPropertyOp29
 70
     1
102
RTVSPropertyOp30
 70
     1
102
RTVSPropertyOp31
 70
     1
102
RTVSPropertyOp32
 70
     1
102
RTVSPropertyOp33
 70
     1
102
RTVSPropertyOp34
 70
     1
102
RTVSPropertyOp35
 70
     1
102
RTVSPropertyOp36
 70
     1
102
RTVSPropertyOp37
 70
     1
102
RTVSPropertyOp38
 70
     1
102
RTVSPropertyOp39
 70
     1
102
RTVSPropertyOp40
 70
     1
102
RTVSPropertyOp41
 70
     1
102
RTVSPropertyOp42
 70
     1
102
RTVSPropertyOp43
 70
     1
102
RTVSPropertyOp44
 70
     1
102
RTVSPropertyOp45
 70
     1
102
RTVSPropertyOp46
 70
     1
102
RTVSPropertyOp47
 70
     1
102
RTVSPropertyOp48
 70
     1
102
RTVSPropertyOp49
 70
     1
102
RTVSPropertyOp50
 70
     1
102
RTVSPropertyOp51
 70
     0
102
RTVSPropertyOp52
 70
     0
102
RTVSPropertyOp53
 70
     1
102
RTVSPropertyOp54
 70
     1
102
RTVSPropertyOp55
 70
     1
102
RTVSPropertyOp56
 70
     1
102
RTVSPropertyOp57
 70
     1
102
RTVSPropertyOp58
 70
     1
102
RTVSPropertyOp59
 70
     1
102
RTVSPropertyOp60
 70
     1
102
RTVSPropertyOp61
 70
     1
102
RTVSPropertyOp62
 70
     1
  0
XRECORD
  5
635
102
{ACAD_REACTORS
330
634
102
}
330
634
100
AcDbXrecord
280
     1
102
RTVSPost2010Prop28
280
     0
102
RTVSPost2010PropOp28
 70
     1
102
RTVSPost2010Prop29
280
     1
102
RTVSPost2010PropOp29
 70
     1
102
RTVSPost2010Prop30
280
     1
102
RTVSPost2010PropOp30
 70
     1
102
RTVSPost2010Prop31
280
     0
102
RTVSPost2010PropOp31
 70
     1
102
RTVSPost2010Prop32
280
     0
102
RTVSPost2010PropOp32
 70
     1
102
RTVSPost2010Prop33
280
     0
102
RTVSPost2010PropOp33
 70
     1
102
RTVSPost2010Prop34
280
     0
102
RTVSPost2010PropOp34
 70
     1
102
RTVSPost2010Prop35
280
     0
102
RTVSPost2010PropOp35
 70
     1
102
RTVSPost2010Prop36
280
     0
102
RTVSPost2010PropOp36
 70
     1
102
RTVSPost2010Prop37
 90
       50
102
RTVSPost2010PropOp37
 70
     1
102
RTVSPost2010Prop38
140
0.0
102
RTVSPost2010PropOp38
 70
     1
102
RTVSPost2010Prop39
140
1.0
102
RTVSPost2010PropOp39
 70
     1
102
RTVSPost2010Prop40
 90
        0
102
RTVSPost2010PropOp40
 70
     1
102
RTVSPost2010Prop41ColorIndex
 90
       18
102
RTVSPost2010Prop41ColorRGB
 90
        0
102
RTVSPost2010PropOp41
 70
     1
102
RTVSPost2010Prop42
 90
       50
102
RTVSPost2010PropOp42
 70
     1
102
RTVSPost2010Prop43
 90
        3
102
RTVSPost2010PropOp43
 70
     1
102
RTVSPost2010Prop44ColorIndex
 90
        5
102
RTVSPost2010Prop44ColorRGB
 90
      255
102
RTVSPost2010PropOp44
 70
     1
102
RTVSPost2010Prop45
280
     0
102
RTVSPost2010PropOp45
 70
     1
102
RTVSPost2010Prop46
 90
       50
102
RTVSPost2010PropOp46
 70
     1
102
RTVSPost2010Prop47
 90
       50
102
RTVSPost2010PropOp47
 70
     1
102
RTVSPost2010Prop48
 90
       50
102
RTVSPost2010PropOp48
 70
     1
102
RTVSPost2010Prop49
280
     0
102
RTVSPost2010PropOp49
 70
     1
102
RTVSPost2010Prop50
 90
       50
102
RTVSPost2010PropOp50
 70
     1
102
RTVSPost2010Prop51ColorIndex
 90
      256
102
RTVSPost2010Prop51ColorRGB
 90
-16777216
102
RTVSPost2010PropOp51
 70
     0
102
RTVSPost2010Prop52
140
1.0
102
RTVSPost2010PropOp52
 70
     0
102
RTVSPost2010Prop53
 90
        2
102
RTVSPost2010PropOp53
 70
     1
102
RTVSPost2010Prop54
  1
strokes_ogs.tif
102
RTVSPost2010PropOp54
 70
     1
102
RTVSPost2010Prop55
280
     0
102
RTVSPost2010PropOp55
 70
     1
102
RTVSPost2010Prop56
140
1.0
102
RTVSPost2010PropOp56
 70
     1
102
RTVSPost2010Prop57
140
1.0
102
RTVSPost2010PropOp57
 70
     1
102
RTVSPropertyOp0
 70
     1
102
RTVSPropertyOp1
 70
     1
102
RTVSPropertyOp2
 70
     1
102
RTVSPropertyOp3
 70
     1
102
RTVSPropertyOp4
 70
     1
102
RTVSPropertyOp5
 70
     1
102
RTVSPropertyOp6
 70
     1
102
RTVSPropertyOp7
 70
     1
102
RTVSPropertyOp8
 70
     1
102
RTVSPropertyOp9
 70
     1
102
RTVSPropertyOp10
 70
     1
102
RTVSPropertyOp11
 70
     1
102
RTVSPropertyOp12
 70
     1
102
RTVSPropertyOp13
 70
     1
102
RTVSPropertyOp14
 70
     1
102
RTVSPropertyOp15
 70
     1
102
RTVSPropertyOp16
 70
     1
102
RTVSPropertyOp17
 70
     1
102
RTVSPropertyOp18
 70
     1
102
RTVSPropertyOp19
 70
     1
102
RTVSPropertyOp20
 70
     1
102
RTVSPropertyOp21
 70
     1
102
RTVSPropertyOp22
 70
     1
102
RTVSPropertyOp23
 70
     1
102
RTVSPropertyOp24
 70
     1
102
RTVSPropertyOp25
 70
     1
102
RTVSPropertyOp26
 70
     1
102
RTVSPropertyOp27
 70
     1
102
RTVSPropertyOp28
 70
     1
102
RTVSPropertyOp29
 70
     1
102
RTVSPropertyOp30
 70
     1
102
RTVSPropertyOp31
 70
     1
102
RTVSPropertyOp32
 70
     1
102
RTVSPropertyOp33
 70
     1
102
RTVSPropertyOp34
 70
     1
102
RTVSPropertyOp35
 70
     1
102
RTVSPropertyOp36
 70
     1
102
RTVSPropertyOp37
 70
     1
102
RTVSPropertyOp38
 70
     1
102
RTVSPropertyOp39
 70
     1
102
RTVSPropertyOp40
 70
     1
102
RTVSPropertyOp41
 70
     1
102
RTVSPropertyOp42
 70
     1
102
RTVSPropertyOp43
 70
     1
102
RTVSPropertyOp44
 70
     1
102
RTVSPropertyOp45
 70
     1
102
RTVSPropertyOp46
 70
     1
102
RTVSPropertyOp47
 70
     1
102
RTVSPropertyOp48
 70
     1
102
RTVSPropertyOp49
 70
     1
102
RTVSPropertyOp50
 70
     1
102
RTVSPropertyOp51
 70
     0
102
RTVSPropertyOp52
 70
     0
102
RTVSPropertyOp53
 70
     1
102
RTVSPropertyOp54
 70
     1
102
RTVSPropertyOp55
 70
     1
102
RTVSPropertyOp56
 70
     1
102
RTVSPropertyOp57
 70
     1
102
RTVSPropertyOp58
 70
     1
102
RTVSPropertyOp59
 70
     1
102
RTVSPropertyOp60
 70
     1
102
RTVSPropertyOp61
 70
     1
102
RTVSPropertyOp62
 70
     1
  0
ENDSEC
  0
EOF
