  0
SECTION
  2
HEADER
  9
$ACADVER
  1
AC1018
  9
$ACADMAINTVER
 70
   104
  9
$DWGCODEPAGE
  3
ANSI_932
  9
$INSBASE
 10
0.0
 20
0.0
 30
0.0
  9
$EXTMIN
 10
-1.31256543
 20
-0.91528518
 30
0.0
  9
$EXTMAX
 10
28682.32859968
 20
20000.91565773
 30
0.0
  9
$LIMMIN
 10
0.0
 20
0.0
  9
$LIMMAX
 10
420.0
 20
330.0
  9
$ORTHOMODE
 70
     0
  9
$REGENMODE
 70
     1
  9
$FILLMODE
 70
     1
  9
$QTEXTMODE
 70
     0
  9
$MIRRTEXT
 70
     0
  9
$LTSCALE
 40
1.0
  9
$ATTMODE
 70
     1
  9
$TEXTSIZE
 40
0.2
  9
$TRACEWID
 40
0.05
  9
$TEXTSTYLE
  7
STANDARD
  9
$CLAYER
  8
0
  9
$CELTYPE
  6
BYLAYER
  9
$CECOLOR
 62
   256
  9
$CELTSCALE
 40
1.0
  9
$DISPSILH
 70
     1
  9
$DIMSCALE
 40
1.0
  9
$DIMASZ
 40
0.18
  9
$DIMEXO
 40
0.0625
  9
$DIMDLI
 40
0.38
  9
$DIMRND
 40
0.0
  9
$DIMDLE
 40
0.0
  9
$DIMEXE
 40
0.18
  9
$DIMTP
 40
0.0
  9
$DIMTM
 40
0.0
  9
$DIMTXT
 40
0.18
  9
$DIMCEN
 40
0.09
  9
$DIMTSZ
 40
0.0
  9
$DIMTOL
 70
     0
  9
$DIMLIM
 70
     0
  9
$DIMTIH
 70
     1
  9
$DIMTOH
 70
     1
  9
$DIMSE1
 70
     0
  9
$DIMSE2
 70
     0
  9
$DIMTAD
 70
     0
  9
$DIMZIN
 70
     0
  9
$DIMBLK
  1

  9
$DIMASO
 70
     1
  9
$DIMSHO
 70
     0
  9
$DIMPOST
  1

  9
$DIMAPOST
  1

  9
$DIMALT
 70
     0
  9
$DIMALTD
 70
     2
  9
$DIMALTF
 40
25.4
  9
$DIMLFAC
 40
1.0
  9
$DIMTOFL
 70
     0
  9
$DIMTVP
 40
0.0
  9
$DIMTIX
 70
     0
  9
$DIMSOXD
 70
     0
  9
$DIMSAH
 70
     0
  9
$DIMBLK1
  1

  9
$DIMBLK2
  1

  9
$DIMSTYLE
  2
YKK_SGDOT1
  9
$DIMCLRD
 70
     0
  9
$DIMCLRE
 70
     0
  9
$DIMCLRT
 70
     0
  9
$DIMTFAC
 40
1.0
  9
$DIMGAP
 40
0.09
  9
$DIMJUST
 70
     0
  9
$DIMSD1
 70
     0
  9
$DIMSD2
 70
     0
  9
$DIMTOLJ
 70
     1
  9
$DIMTZIN
 70
     0
  9
$DIMALTZ
 70
     0
  9
$DIMALTTZ
 70
     0
  9
$DIMUPT
 70
     0
  9
$DIMDEC
 70
     4
  9
$DIMTDEC
 70
     4
  9
$DIMALTU
 70
     2
  9
$DIMALTTD
 70
     2
  9
$DIMTXSTY
  7
STANDARD
  9
$DIMAUNIT
 70
     0
  9
$DIMADEC
 70
     0
  9
$DIMALTRND
 40
0.0
  9
$DIMAZIN
 70
     0
  9
$DIMDSEP
 70
    46
  9
$DIMATFIT
 70
     3
  9
$DIMFRAC
 70
     0
  9
$DIMLDRBLK
  1

  9
$DIMLUNIT
 70
     2
  9
$DIMLWD
 70
    -2
  9
$DIMLWE
 70
    -2
  9
$DIMTMOVE
 70
     2
  9
$LUNITS
 70
     2
  9
$LUPREC
 70
     4
  9
$SKETCHINC
 40
0.1
  9
$FILLETRAD
 40
1.0
  9
$AUNITS
 70
     0
  9
$AUPREC
 70
     0
  9
$MENU
  1
tool/YKK
  9
$ELEVATION
 40
0.0
  9
$PELEVATION
 40
0.0
  9
$THICKNESS
 40
0.0
  9
$LIMCHECK
 70
     0
  9
$CHAMFERA
 40
0.0
  9
$CHAMFERB
 40
0.0
  9
$CHAMFERC
 40
0.0
  9
$CHAMFERD
 40
0.0
  9
$SKPOLY
 70
     0
  9
$TDCREATE
 40
2453046.710811991
  9
$TDUCREATE
 40
2453046.335811991
  9
$TDUPDATE
 40
2457185.492908021
  9
$TDUUPDATE
 40
2457185.117908021
  9
$TDINDWG
 40
0.0000565972
  9
$TDUSRTIMER
 40
0.0000565972
  9
$USRTIMER
 70
     1
  9
$ANGBASE
 50
0.0
  9
$ANGDIR
 70
     0
  9
$PDMODE
 70
     0
  9
$PDSIZE
 40
0.0
  9
$PLINEWID
 40
0.0
  9
$SPLFRAME
 70
     0
  9
$SPLINETYPE
 70
     6
  9
$SPLINESEGS
 70
     8
  9
$HANDSEED
  5
5EC
  9
$SURFTAB1
 70
     6
  9
$SURFTAB2
 70
     6
  9
$SURFTYPE
 70
     6
  9
$SURFU
 70
     6
  9
$SURFV
 70
     6
  9
$UCSBASE
  2

  9
$UCSNAME
  2

  9
$UCSORG
 10
0.0
 20
0.0
 30
0.0
  9
$UCSXDIR
 10
1.0
 20
0.0
 30
0.0
  9
$UCSYDIR
 10
0.0
 20
1.0
 30
0.0
  9
$UCSORTHOREF
  2

  9
$UCSORTHOVIEW
 70
     0
  9
$UCSORGTOP
 10
0.0
 20
0.0
 30
0.0
  9
$UCSORGBOTTOM
 10
0.0
 20
0.0
 30
0.0
  9
$UCSORGLEFT
 10
0.0
 20
0.0
 30
0.0
  9
$UCSORGRIGHT
 10
0.0
 20
0.0
 30
0.0
  9
$UCSORGFRONT
 10
0.0
 20
0.0
 30
0.0
  9
$UCSORGBACK
 10
0.0
 20
0.0
 30
0.0
  9
$PUCSBASE
  2

  9
$PUCSNAME
  2

  9
$PUCSORG
 10
0.0
 20
0.0
 30
0.0
  9
$PUCSXDIR
 10
1.0
 20
0.0
 30
0.0
  9
$PUCSYDIR
 10
0.0
 20
1.0
 30
0.0
  9
$PUCSORTHOREF
  2

  9
$PUCSORTHOVIEW
 70
     0
  9
$PUCSORGTOP
 10
0.0
 20
0.0
 30
0.0
  9
$PUCSORGBOTTOM
 10
0.0
 20
0.0
 30
0.0
  9
$PUCSORGLEFT
 10
0.0
 20
0.0
 30
0.0
  9
$PUCSORGRIGHT
 10
0.0
 20
0.0
 30
0.0
  9
$PUCSORGFRONT
 10
0.0
 20
0.0
 30
0.0
  9
$PUCSORGBACK
 10
0.0
 20
0.0
 30
0.0
  9
$USERI1
 70
     0
  9
$USERI2
 70
     0
  9
$USERI3
 70
     0
  9
$USERI4
 70
     0
  9
$USERI5
 70
     0
  9
$USERR1
 40
0.0
  9
$USERR2
 40
0.0
  9
$USERR3
 40
0.0
  9
$USERR4
 40
0.0
  9
$USERR5
 40
0.0
  9
$WORLDVIEW
 70
     1
  9
$SHADEDGE
 70
     3
  9
$SHADEDIF
 70
    70
  9
$TILEMODE
 70
     1
  9
$MAXACTVP
 70
    16
  9
$PINSBASE
 10
0.0
 20
0.0
 30
0.0
  9
$PLIMCHECK
 70
     0
  9
$PEXTMIN
 10
1.00000000E+20
 20
1.00000000E+20
 30
1.00000000E+20
  9
$PEXTMAX
 10
-1.00000000E+20
 20
-1.00000000E+20
 30
-1.00000000E+20
  9
$PLIMMIN
 10
0.0
 20
0.0
  9
$PLIMMAX
 10
12.0
 20
9.0
  9
$UNITMODE
 70
     0
  9
$VISRETAIN
 70
     0
  9
$PLINEGEN
 70
     0
  9
$PSLTSCALE
 70
     0
  9
$TREEDEPTH
 70
  3020
  9
$CMLSTYLE
  2
STANDARD
  9
$CMLJUST
 70
     0
  9
$CMLSCALE
 40
1.0
  9
$PROXYGRAPHICS
 70
     1
  9
$MEASUREMENT
 70
     1
  9
$CELWEIGHT
370
    -1
  9
$ENDCAPS
280
     0
  9
$JOINSTYLE
280
     0
  9
$LWDISPLAY
290
     0
  9
$INSUNITS
 70
     0
  9
$HYPERLINKBASE
  1

  9
$STYLESHEET
  1

  9
$XEDIT
290
     1
  9
$CEPSNTYPE
380
     0
  9
$PSTYLEMODE
290
     1
  9
$FINGERPRINTGUID
  2
{D4B7BA90-2DE9-4C6C-AE9D-58060C1E5FE9}
  9
$VERSIONGUID
  2
{540C9EDA-9B8E-451A-84AF-6F3B7612EF16}
  9
$EXTNAMES
290
     1
  9
$PSVPSCALE
 40
0.0
  9
$OLESTARTUP
290
     0
  9
$SORTENTS
280
   127
  9
$INDEXCTL
280
     0
  9
$HIDETEXT
280
     0
  9
$XCLIPFRAME
290
     0
  9
$HALOGAP
280
     0
  9
$OBSCOLOR
 70
   257
  9
$OBSLTYPE
280
     0
  9
$INTERSECTIONDISPLAY
280
     0
  9
$INTERSECTIONCOLOR
 70
   257
  9
$DIMASSOC
280
     1
  9
$PROJECTNAME
  1

  0
ENDSEC
  0
SECTION
  2
CLASSES
  0
CLASS
  1
DICTIONARYVAR
  2
AcDbDictionaryVar
  3
ObjectDBX Classes
 90
        0
 91
        8
280
     0
281
     0
  0
CLASS
  1
ACDBDICTIONARYWDFLT
  2
AcDbDictionaryWithDefault
  3
ObjectDBX Classes
 90
        0
 91
        1
280
     0
281
     0
  0
CLASS
  1
MATERIAL
  2
AcDbMaterial
  3
ObjectDBX Classes
 90
     1153
 91
        3
280
     0
281
     0
  0
CLASS
  1
VISUALSTYLE
  2
AcDbVisualStyle
  3
ObjectDBX Classes
 90
     4095
 91
       24
280
     0
281
     0
  0
CLASS
  1
TABLESTYLE
  2
AcDbTableStyle
  3
ObjectDBX Classes
 90
     4095
 91
        1
280
     0
281
     0
  0
CLASS
  1
SCALE
  2
AcDbScale
  3
ObjectDBX Classes
 90
     1153
 91
       17
280
     0
281
     0
  0
CLASS
  1
MLEADERSTYLE
  2
AcDbMLeaderStyle
  3
ACDB_MLEADERSTYLE_CLASS
 90
     4095
 91
        1
280
     0
281
     0
  0
CLASS
  1
ACDBSECTIONVIEWSTYLE
  2
AcDbSectionViewStyle
  3
ObjectDBX Classes
 90
     1025
 91
        1
280
     0
281
     0
  0
CLASS
  1
ACDBDETAILVIEWSTYLE
  2
AcDbDetailViewStyle
  3
ObjectDBX Classes
 90
     1025
 91
        1
280
     0
281
     0
  0
CLASS
  1
CELLSTYLEMAP
  2
AcDbCellStyleMap
  3
ObjectDBX Classes
 90
     1152
 91
        2
280
     0
281
     0
  0
ENDSEC
  0
SECTION
  2
TABLES
  0
TABLE
  2
VPORT
  5
4DE
330
0
100
AcDbSymbolTable
 70
     1
  0
VPORT
  5
50B
330
4DE
100
AcDbSymbolTableRecord
100
AcDbViewportTableRecord
  2
*ACTIVE
 70
     0
 10
0.0
 20
0.0
 11
1.0
 21
1.0
 12
14340.50801713
 22
10000.00018627
 13
0.0
 23
0.0
 14
1.0
 24
1.0
 15
10.0
 25
10.0
 16
0.0
 26
0.0
 36
1.0
 17
0.0
 27
0.0
 37
0.0
 40
21504.61610341
 41
1.34178905
 42
50.0
 43
0.0
 44
0.0
 50
0.0
 51
0.0
 71
     0
 72
   100
 73
     1
 74
     0
 75
     1
 76
     0
 77
     0
 78
     0
281
     0
 65
     1
110
0.0
120
0.0
130
0.0
111
1.0
121
0.0
131
0.0
112
0.0
122
1.0
132
0.0
 79
     0
146
0.0
1001
ACAD_NAV_VCDISPLAY
1070
     1
  0
ENDTAB
  0
TABLE
  2
LTYPE
  5
4DB
330
0
100
AcDbSymbolTable
 70
     4
  0
LTYPE
  5
4E7
330
4DB
100
AcDbSymbolTableRecord
100
AcDbLinetypeTableRecord
  2
BYBLOCK
 70
     0
  3

 72
    65
 73
     0
 40
0.0
  0
LTYPE
  5
4E8
330
4DB
100
AcDbSymbolTableRecord
100
AcDbLinetypeTableRecord
  2
BYLAYER
 70
     0
  3

 72
    65
 73
     0
 40
0.0
  0
LTYPE
  5
4E9
330
4DB
100
AcDbSymbolTableRecord
100
AcDbLinetypeTableRecord
  2
CONTINUOUS
 70
     0
  3
Solid line
 72
    65
 73
     0
 40
0.0
  0
LTYPE
  5
4F3
330
4DB
100
AcDbSymbolTableRecord
100
AcDbLinetypeTableRecord
  2
CENTER
 70
     0
  3
____ _ ____ _ ____ _ ____ _ ____ _ ____ _ ____ 
 72
    65
 73
     4
 40
2.0
 49
1.25
 74
     0
 49
-0.25
 74
     0
 49
0.25
 74
     0
 49
-0.25
 74
     0
  0
LTYPE
  5
4F4
330
4DB
100
AcDbSymbolTableRecord
100
AcDbLinetypeTableRecord
  2
PHANTOM
 70
     0
  3
______  __  __  ______  __  __  ______  __  __ 
 72
    65
 73
     6
 40
2.5
 49
1.25
 74
     0
 49
-0.25
 74
     0
 49
0.25
 74
     0
 49
-0.25
 74
     0
 49
0.25
 74
     0
 49
-0.25
 74
     0
  0
LTYPE
  5
4F5
330
4DB
100
AcDbSymbolTableRecord
100
AcDbLinetypeTableRecord
  2
HIDDEN
 70
     0
  3
__ __ __ __ __ __ __ __ __ __ __ __ __ __ __ __
 72
    65
 73
     2
 40
0.375
 49
0.25
 74
     0
 49
-0.125
 74
     0
  0
ENDTAB
  0
TABLE
  2
LAYER
  5
4D8
330
0
100
AcDbSymbolTable
 70
    11
  0
LAYER
  5
4E4
330
4D8
100
AcDbSymbolTableRecord
100
AcDbLayerTableRecord
  2
0
 70
     0
 62
     7
  6
CONTINUOUS
370
    -3
390
50E
  0
LAYER
  5
4F8
330
4D8
100
AcDbSymbolTableRecord
100
AcDbLayerTableRecord
  2
YKK_IN
 70
     0
 62
     1
  6
CONTINUOUS
370
    -3
390
50E
  0
LAYER
  5
4F9
330
4D8
100
AcDbSymbolTableRecord
100
AcDbLayerTableRecord
  2
YKK_F1
 70
     0
 62
     7
  6
CONTINUOUS
370
    -3
390
50E
  0
LAYER
  5
4FA
330
4D8
100
AcDbSymbolTableRecord
100
AcDbLayerTableRecord
  2
YKK_N1
 70
     0
 62
     2
  6
CONTINUOUS
370
    -3
390
50E
  0
LAYER
  5
4FB
330
4D8
100
AcDbSymbolTableRecord
100
AcDbLayerTableRecord
  2
YKK_Z1
 70
     0
 62
     7
  6
CONTINUOUS
370
    -3
390
50E
  0
LAYER
  5
4FC
330
4D8
100
AcDbSymbolTableRecord
100
AcDbLayerTableRecord
  2
YKK_A1
 70
     0
 62
     4
  6
CONTINUOUS
370
    -3
390
50E
  0
LAYER
  5
4FD
330
4D8
100
AcDbSymbolTableRecord
100
AcDbLayerTableRecord
  2
YKK_A2
 70
     0
 62
     3
  6
CONTINUOUS
370
    -3
390
50E
  0
LAYER
  5
4FE
330
4D8
100
AcDbSymbolTableRecord
100
AcDbLayerTableRecord
  2
YKK_B1
 70
     0
 62
     4
  6
CONTINUOUS
370
    -3
390
50E
  0
LAYER
  5
4FF
330
4D8
100
AcDbSymbolTableRecord
100
AcDbLayerTableRecord
  2
YKK_C1
 70
     0
 62
     4
  6
CONTINUOUS
370
    -3
390
50E
  0
LAYER
  5
500
330
4D8
100
AcDbSymbolTableRecord
100
AcDbLayerTableRecord
  2
YKK_B2
 70
     0
 62
     5
  6
CONTINUOUS
370
    -3
390
50E
  0
LAYER
  5
501
330
4D8
100
AcDbSymbolTableRecord
100
AcDbLayerTableRecord
  2
YKK_C2
 70
     0
 62
     5
  6
CONTINUOUS
370
    -3
390
50E
  0
ENDTAB
  0
TABLE
  2
STYLE
  5
4D9
330
0
100
AcDbSymbolTable
 70
     2
  0
STYLE
  5
4E5
330
4D9
100
AcDbSymbolTableRecord
100
AcDbTextStyleTableRecord
  2
STANDARD
 70
     0
 40
0.0
 41
1.0
 50
0.0
 71
     0
 42
0.2
  3
txt
  4
EXTFONT.SHX
  0
STYLE
  5
4F2
330
4D9
100
AcDbSymbolTableRecord
100
AcDbTextStyleTableRecord
  2
EXTFONT
 70
     0
 40
60.0
 41
1.0
 50
0.0
 71
     0
 42
60.0
  3
txt.shx
  4
EXTFONT
  0
ENDTAB
  0
TABLE
  2
VIEW
  5
4DC
330
0
100
AcDbSymbolTable
 70
     0
  0
ENDTAB
  0
TABLE
  2
UCS
  5
4DD
330
0
100
AcDbSymbolTable
 70
     0
  0
ENDTAB
  0
TABLE
  2
APPID
  5
4DF
330
0
100
AcDbSymbolTable
 70
     5
  0
APPID
  5
4E6
330
4DF
100
AcDbSymbolTableRecord
100
AcDbRegAppTableRecord
  2
ACAD
 70
     0
  0
APPID
  5
599
330
4DF
100
AcDbSymbolTableRecord
100
AcDbRegAppTableRecord
  2
ACAD_MLEADERVER
 70
     0
  0
APPID
  5
5AC
330
4DF
100
AcDbSymbolTableRecord
100
AcDbRegAppTableRecord
  2
ACAD_PSEXT
 70
     0
  0
APPID
  5
5AD
330
4DF
100
AcDbSymbolTableRecord
100
AcDbRegAppTableRecord
  2
ACAD_NAV_VCDISPLAY
 70
     0
  0
APPID
  5
5AE
330
4DF
100
AcDbSymbolTableRecord
100
AcDbRegAppTableRecord
  2
YKK_AP_LOCKLAYER
 70
     0
  0
ENDTAB
  0
TABLE
  2
DIMSTYLE
  5
4E0
330
0
100
AcDbSymbolTable
 70
     1
100
AcDbDimStyleTable
 71
     0
  0
DIMSTYLE
105
4F7
330
4E0
100
AcDbSymbolTableRecord
100
AcDbDimStyleTableRecord
  2
YKK_SGDOT1
 70
     0
 41
20.0
 42
60.0
 43
0.0
 44
30.0
 73
     0
 74
     0
 77
     1
 78
    12
140
60.0
141
0.0
146
0.002
147
10.0
172
     1
279
     2
340
4E5
  0
ENDTAB
  0
TABLE
  2
BLOCK_RECORD
  5
4D7
330
0
100
AcDbSymbolTable
 70
     0
  0
BLOCK_RECORD
  5
4ED
330
4D7
100
AcDbSymbolTableRecord
100
AcDbBlockTableRecord
  2
*MODEL_SPACE
340
560
  0
BLOCK_RECORD
  5
4EA
330
4D7
100
AcDbSymbolTableRecord
100
AcDbBlockTableRecord
  2
*PAPER_SPACE
340
561
  0
ENDTAB
  0
ENDSEC
  0
SECTION
  2
BLOCKS
  0
BLOCK
  5
504
330
4ED
100
AcDbEntity
  8
0
100
AcDbBlockBegin
  2
*MODEL_SPACE
 70
     0
 10
0.0
 20
0.0
 30
0.0
  3
*MODEL_SPACE
  1

  0
ENDBLK
  5
505
330
4ED
100
AcDbEntity
  8
0
100
AcDbBlockEnd
  0
BLOCK
  5
502
330
4EA
100
AcDbEntity
 67
     1
  8
0
100
AcDbBlockBegin
  2
*PAPER_SPACE
 70
     0
 10
0.0
 20
0.0
 30
0.0
  3
*PAPER_SPACE
  1

  0
ENDBLK
  5
503
330
4EA
100
AcDbEntity
 67
     1
  8
0
100
AcDbBlockEnd
  0
ENDSEC
  0
SECTION
  2
ENTITIES
  0
TEXT
  5
1D
330
4ED
100
AcDbEntity
  8
0
100
AcDbText
 10
11500.0
 20
19187.5
 30
0.0
 40
175.0
  1
上段縦辷り出し窓、下段はめ殺し窓
  7
EXTFONT
100
AcDbText
  0
LINE
  5
1F
330
4ED
100
AcDbEntity
  8
YKK_N1
  6
ByBlock
100
AcDbLine
 10
14350.0
 20
15981.90254038
 30
0.0
 11
14250.0
 21
15981.90254038
 31
0.0
  0
LINE
  5
21
330
4ED
100
AcDbEntity
  8
YKK_N1
  6
ByBlock
100
AcDbLine
 10
14300.0
 20
15895.3
 30
0.0
 11
14350.0
 21
15981.90254038
 31
0.0
  0
LINE
  5
22
330
4ED
100
AcDbEntity
  8
YKK_N1
  6
ByBlock
100
AcDbLine
 10
14350.0
 20
17908.69745962
 30
0.0
 11
14300.0
 21
17995.3
 31
0.0
  0
LINE
  5
23
330
4ED
100
AcDbEntity
  8
YKK_N1
  6
ByBlock
100
AcDbLine
 10
14250.0
 20
17908.69745962
 30
0.0
 11
14350.0
 21
17908.69745962
 31
0.0
  0
LINE
  5
24
330
4ED
100
AcDbEntity
  8
YKK_F1
100
AcDbLine
 10
0.0
 20
5600.0
 30
0.0
 11
28500.0
 21
5600.0
 31
0.0
  0
LINE
  5
26
330
4ED
100
AcDbEntity
  8
YKK_F1
100
AcDbLine
 10
0.0
 20
6050.0
 30
0.0
 11
28500.0
 21
6050.0
 31
0.0
  0
LINE
  5
27
330
4ED
100
AcDbEntity
  8
YKK_F1
100
AcDbLine
 10
0.0
 20
12100.0
 30
0.0
 11
28500.0
 21
12100.0
 31
0.0
  0
LINE
  5
28
330
4ED
100
AcDbEntity
  8
YKK_F1
100
AcDbLine
 10
0.0
 20
12550.0
 30
0.0
 11
28500.0
 21
12550.0
 31
0.0
  0
LINE
  5
29
330
4ED
100
AcDbEntity
  8
YKK_F1
100
AcDbLine
 10
0.0
 20
6500.0
 30
0.0
 11
28500.0
 21
6500.0
 31
0.0
  0
LINE
  5
2A
330
4ED
100
AcDbEntity
  8
YKK_F1
100
AcDbLine
 10
0.0
 20
13000.0
 30
0.0
 11
28500.0
 21
13000.0
 31
0.0
  0
LINE
  5
2B
330
4ED
100
AcDbEntity
  8
YKK_F1
100
AcDbLine
 10
0.0
 20
18600.0
 30
0.0
 11
28500.0
 21
18600.0
 31
0.0
  0
LINE
  5
2C
330
4ED
100
AcDbEntity
  8
YKK_F1
100
AcDbLine
 10
0.0
 20
19050.0
 30
0.0
 11
28500.0
 21
19050.0
 31
0.0
  0
LINE
  5
2D
330
4ED
100
AcDbEntity
  8
YKK_F1
100
AcDbLine
 10
0.0
 20
0.0
 30
0.0
 11
28681.0155
 21
0.0
 31
0.0
  0
LINE
  5
2E
330
4ED
100
AcDbEntity
  8
YKK_F1
100
AcDbLine
 10
0.0
 20
20000.0
 30
0.0
 11
28681.0155
 21
20000.0
 31
0.0
  0
LINE
  5
2F
330
4ED
100
AcDbEntity
  8
YKK_F1
100
AcDbLine
 10
0.0
 20
19500.0
 30
0.0
 11
28500.0
 21
19500.0
 31
0.0
  0
LINE
  5
30
330
4ED
100
AcDbEntity
  8
YKK_F1
100
AcDbLine
 10
5700.0
 20
0.0
 30
0.0
 11
5700.0
 21
19500.0
 31
0.0
  0
LINE
  5
31
330
4ED
100
AcDbEntity
  8
YKK_F1
100
AcDbLine
 10
11400.0
 20
0.0
 30
0.0
 11
11400.0
 21
19500.0
 31
0.0
  0
LINE
  5
32
330
4ED
100
AcDbEntity
  8
YKK_F1
100
AcDbLine
 10
0.0
 20
0.0
 30
0.0
 11
0.0
 21
20000.0
 31
0.0
  0
POINT
  5
33
330
4ED
100
AcDbEntity
  8
YKK_IN
100
AcDbPoint
 10
0.0
 20
0.0
 30
0.0
  0
POINT
  5
35
330
4ED
100
AcDbEntity
  8
YKK_F1
100
AcDbPoint
 10
0.0
 20
0.0
 30
0.0
  0
POINT
  5
36
330
4ED
100
AcDbEntity
  8
YKK_N1
100
AcDbPoint
 10
0.0
 20
0.0
 30
0.0
  0
POINT
  5
37
330
4ED
100
AcDbEntity
  8
YKK_Z1
100
AcDbPoint
 10
0.0
 20
0.0
 30
0.0
  0
POINT
  5
39
330
4ED
100
AcDbEntity
  8
YKK_A1
100
AcDbPoint
 10
0.0
 20
0.0
 30
0.0
  0
POINT
  5
3B
330
4ED
100
AcDbEntity
  8
YKK_A2
100
AcDbPoint
 10
0.0
 20
0.0
 30
0.0
  0
POINT
  5
3D
330
4ED
100
AcDbEntity
  8
YKK_B1
100
AcDbPoint
 10
0.0
 20
0.0
 30
0.0
  0
POINT
  5
3F
330
4ED
100
AcDbEntity
  8
YKK_C1
100
AcDbPoint
 10
0.0
 20
0.0
 30
0.0
  0
POINT
  5
41
330
4ED
100
AcDbEntity
  8
YKK_B2
100
AcDbPoint
 10
0.0
 20
0.0
 30
0.0
  0
POINT
  5
43
330
4ED
100
AcDbEntity
  8
YKK_C2
100
AcDbPoint
 10
0.0
 20
0.0
 30
0.0
  0
TEXT
  5
45
330
4ED
100
AcDbEntity
  8
0
100
AcDbText
 10
500.0
 20
19625.0
 30
0.0
 40
250.0
  1
ＢＦＤＰＰＪ２６　省エネ商品　ＹＤＰ－１００　つらいち枠　縦辷り出し窓
  7
EXTFONT
100
AcDbText
  0
TEXT
  5
46
330
4ED
100
AcDbEntity
  8
0
100
AcDbText
 10
100.0
 20
18737.5
 30
0.0
 40
175.0
  1
W＝1,000　H＝1,500
  7
EXTFONT
100
AcDbText
  0
TEXT
  5
47
330
4ED
100
AcDbEntity
  8
0
100
AcDbText
 10
100.0
 20
19187.5
 30
0.0
 40
175.0
  1
縦辷り出し窓
  7
EXTFONT
100
AcDbText
  0
LINE
  5
48
330
4ED
100
AcDbEntity
  8
YKK_N1
100
AcDbLine
 10
2185.0
 20
17125.3
 30
0.0
 11
2185.0
 21
16515.3
 31
0.0
  0
LINE
  5
49
330
4ED
100
AcDbEntity
  8
YKK_N1
100
AcDbLine
 10
2800.0
 20
16496.3
 30
0.0
 11
2800.0
 21
17994.3
 31
0.0
  0
LINE
  5
4A
330
4ED
100
AcDbEntity
  8
YKK_N1
100
AcDbLine
 10
4300.0
 20
16496.3
 30
0.0
 11
4300.0
 21
17994.3
 31
0.0
  0
LINE
  5
4B
330
4ED
100
AcDbEntity
  8
YKK_Z1
  6
Continuous
100
AcDbLine
 10
4020.0
 20
16495.3
 30
0.0
 11
4020.0
 21
17245.3
 31
0.0
  0
LINE
  5
4C
330
4ED
100
AcDbEntity
  8
YKK_C1
100
AcDbLine
 10
3800.0
 20
16560.3
 30
0.0
 11
3800.0
 21
17895.3
 31
0.0
  0
LINE
  5
4D
330
4ED
100
AcDbEntity
  8
YKK_C1
100
AcDbLine
 10
3900.0
 20
16515.3
 30
0.0
 11
3900.0
 21
17975.3
 31
0.0
  0
LINE
  5
4E
330
4ED
100
AcDbEntity
  8
YKK_C1
100
AcDbLine
 10
3828.0
 20
16532.3
 30
0.0
 11
3828.0
 21
17923.3
 31
0.0
  0
LINE
  5
4F
330
4ED
100
AcDbEntity
  8
YKK_C1
100
AcDbLine
 10
3814.0
 20
16532.3
 30
0.0
 11
3814.0
 21
17923.3
 31
0.0
  0
LINE
  5
50
330
4ED
100
AcDbEntity
  8
YKK_A1
  6
CENTER
100
AcDbLine
 10
1900.0
 20
17230.3
 30
0.0
 11
1430.0
 21
16495.3
 31
0.0
  0
LINE
  5
52
330
4ED
100
AcDbEntity
  8
YKK_A1
  6
CENTER
100
AcDbLine
 10
1430.0
 20
17965.3
 30
0.0
 11
2370.0
 21
16495.3
 31
0.0
  0
LINE
  5
53
330
4ED
100
AcDbEntity
  8
YKK_A1
100
AcDbLine
 10
1480.0
 20
17915.3
 30
0.0
 11
1480.0
 21
16540.3
 31
0.0
  0
LINE
  5
54
330
4ED
100
AcDbEntity
  8
YKK_A1
100
AcDbLine
 10
2320.0
 20
16540.3
 30
0.0
 11
2320.0
 21
17915.3
 31
0.0
  0
LINE
  5
55
330
4ED
100
AcDbEntity
  8
YKK_A1
100
AcDbLine
 10
1430.0
 20
17965.3
 30
0.0
 11
1430.0
 21
16495.3
 31
0.0
  0
LINE
  5
56
330
4ED
100
AcDbEntity
  8
YKK_A1
100
AcDbLine
 10
2370.0
 20
16495.3
 30
0.0
 11
2370.0
 21
17965.3
 31
0.0
  0
LINE
  5
57
330
4ED
100
AcDbEntity
  8
YKK_A1
100
AcDbLine
 10
1400.0
 20
17995.3
 30
0.0
 11
1400.0
 21
16495.3
 31
0.0
  0
LINE
  5
58
330
4ED
100
AcDbEntity
  8
YKK_A1
100
AcDbLine
 10
2400.0
 20
16495.3
 30
0.0
 11
2400.0
 21
17995.3
 31
0.0
  0
LINE
  5
59
330
4ED
100
AcDbEntity
  8
YKK_A1
100
AcDbLine
 10
1385.0
 20
18010.3
 30
0.0
 11
1385.0
 21
16495.3
 31
0.0
  0
LINE
  5
5A
330
4ED
100
AcDbEntity
  8
YKK_A1
100
AcDbLine
 10
2415.0
 20
16495.3
 30
0.0
 11
2415.0
 21
18010.3
 31
0.0
  0
LINE
  5
5B
330
4ED
100
AcDbEntity
  8
YKK_N1
100
AcDbLine
 10
1401.0
 20
13254.66807879
 30
0.0
 11
2399.0
 21
13254.66807879
 31
0.0
  0
LINE
  5
5C
330
4ED
100
AcDbEntity
  8
YKK_Z1
  6
Continuous
100
AcDbLine
 10
2415.0
 20
13534.66807879
 30
0.0
 11
1900.0
 21
13534.66807879
 31
0.0
  0
LINE
  5
5D
330
4ED
100
AcDbEntity
  8
YKK_B1
100
AcDbLine
 10
1420.0
 20
13754.66807879
 30
0.0
 11
2380.0
 21
13754.66807879
 31
0.0
  0
LINE
  5
5E
330
4ED
100
AcDbEntity
  8
YKK_B1
100
AcDbLine
 10
1420.0
 20
13654.66807879
 30
0.0
 11
2380.0
 21
13654.66807879
 31
0.0
  0
ARC
  5
5F
330
4ED
100
AcDbEntity
  8
YKK_B1
  6
PHANTOM
100
AcDbCircle
 10
1405.06944261
 20
13766.39375784
 30
0.0
 40
989.9999999999996
100
AcDbArc
 50
359.32136603
 51
81.17290523
  0
LINE
  5
61
330
4ED
100
AcDbEntity
  8
YKK_B1
100
AcDbLine
 10
1472.0
 20
13726.66807879
 30
0.0
 11
2328.0
 21
13726.66807879
 31
0.0
  0
LINE
  5
62
330
4ED
100
AcDbEntity
  8
YKK_B1
100
AcDbLine
 10
1472.0
 20
13740.66807879
 30
0.0
 11
2328.0
 21
13740.66807879
 31
0.0
  0
LINE
  5
63
330
4ED
100
AcDbEntity
  8
YKK_B1
  6
PHANTOM
100
AcDbLine
 10
1557.0
 20
13754.66807879
 30
0.0
 11
1556.98805649
 21
14744.66812362
 31
0.0
  0
LINE
  5
64
330
4ED
100
AcDbEntity
  8
YKK_N1
  6
ByBlock
100
AcDbLine
 10
1486.60254038
 20
13304.66807879
 30
0.0
 11
1400.0
 21
13254.66807879
 31
0.0
  0
LINE
  5
65
330
4ED
100
AcDbEntity
  8
YKK_N1
  6
ByBlock
100
AcDbLine
 10
1400.0
 20
13254.66807879
 30
0.0
 11
1486.60254038
 21
13204.66807879
 31
0.0
  0
LINE
  5
66
330
4ED
100
AcDbEntity
  8
YKK_N1
  6
ByBlock
100
AcDbLine
 10
1400.0
 20
13254.66807879
 30
0.0
 11
1500.0
 21
13254.66807879
 31
0.0
  0
LINE
  5
67
330
4ED
100
AcDbEntity
  8
YKK_N1
  6
Continuous
100
AcDbLine
 10
1445.0
 20
13534.66807879
 30
0.0
 11
1716.0
 21
13534.66807879
 31
0.0
  0
LINE
  5
68
330
4ED
100
AcDbEntity
  8
YKK_Z1
  6
Continuous
100
AcDbLine
 10
1385.0
 20
13534.66807879
 30
0.0
 11
1900.0
 21
13534.66807879
 31
0.0
  0
LINE
  5
69
330
4ED
100
AcDbEntity
  8
YKK_B1
100
AcDbLine
 10
1480.0
 20
13754.66807879
 30
0.0
 11
1405.0
 21
13754.66807879
 31
0.0
  0
LINE
  5
6A
330
4ED
100
AcDbEntity
  8
YKK_B1
100
AcDbLine
 10
1480.0
 20
13704.66807879
 30
0.0
 11
1425.0
 21
13704.66807879
 31
0.0
  0
LINE
  5
6B
330
4ED
100
AcDbEntity
  8
YKK_N1
100
AcDbLine
 10
1400.0
 20
13594.66807879
 30
0.0
 11
1400.0
 21
13224.66807879
 31
0.0
  0
LINE
  5
6C
330
4ED
100
AcDbEntity
  8
YKK_Z1
  6
Continuous
100
AcDbLine
 10
1000.0
 20
13556.66807879
 30
0.0
 11
1360.0
 21
13556.66807879
 31
0.0
  0
LINE
  5
6D
330
4ED
100
AcDbEntity
  8
YKK_Z1
  6
Continuous
100
AcDbLine
 10
1360.0
 20
13544.66807879
 30
0.0
 11
1000.0
 21
13544.66807879
 31
0.0
  0
LINE
  5
6E
330
4ED
100
AcDbEntity
  8
YKK_Z1
  6
HIDDEN
100
AcDbLine
 10
1350.0
 20
13724.66807879
 30
0.0
 11
1000.0
 21
13724.66807879
 31
0.0
  0
LINE
  5
70
330
4ED
100
AcDbEntity
  8
YKK_Z1
  6
CENTER
100
AcDbLine
 10
1362.5
 20
13649.66807879
 30
0.0
 11
1000.0
 21
13649.66807879
 31
0.0
  0
LINE
  5
71
330
4ED
100
AcDbEntity
  8
YKK_Z1
  6
Continuous
100
AcDbLine
 10
1198.28417067
 20
13744.66807879
 30
0.0
 11
1028.284259
 21
13574.66807879
 31
0.0
  0
LINE
  5
72
330
4ED
100
AcDbEntity
  8
YKK_Z1
  6
Continuous
100
AcDbLine
 10
1178.48518937
 20
13744.66807879
 30
0.0
 11
1008.4852777
 21
13574.66807879
 31
0.0
  0
LINE
  5
73
330
4ED
100
AcDbEntity
  8
YKK_Z1
  6
Continuous
100
AcDbLine
 10
1350.0
 20
13744.66807879
 30
0.0
 11
1000.0
 21
13744.66807879
 31
0.0
  0
LINE
  5
74
330
4ED
100
AcDbEntity
  8
YKK_Z1
  6
Continuous
100
AcDbLine
 10
1000.0
 20
13574.66807879
 30
0.0
 11
1350.0
 21
13574.66807879
 31
0.0
  0
LINE
  5
75
330
4ED
100
AcDbEntity
  8
YKK_Z1
  6
Continuous
100
AcDbLine
 10
1169.99991167
 20
13744.66807879
 30
0.0
 11
1000.0
 21
13574.66807879
 31
0.0
  0
LINE
  5
76
330
4ED
100
AcDbEntity
  8
YKK_Z1
  6
Continuous
100
AcDbLine
 10
1360.0
 20
13556.66807879
 30
0.0
 11
1360.0
 21
13544.66807879
 31
0.0
  0
LINE
  5
77
330
4ED
100
AcDbEntity
  8
YKK_Z1
  6
Continuous
100
AcDbLine
 10
1370.0
 20
13744.66807879
 30
0.0
 11
1350.0
 21
13744.66807879
 31
0.0
  0
LINE
  5
78
330
4ED
100
AcDbEntity
  8
YKK_Z1
  6
Continuous
100
AcDbLine
 10
1381.42135735
 20
13534.66807879
 30
0.0
 11
1385.0
 21
13538.24672329
 31
0.0
  0
LINE
  5
79
330
4ED
100
AcDbEntity
  8
YKK_Z1
  6
Continuous
100
AcDbLine
 10
1360.0
 20
13541.530984
 30
0.0
 11
1385.0
 21
13566.53099699
 31
0.0
  0
LINE
  5
7A
330
4ED
100
AcDbEntity
  8
YKK_Z1
  6
Continuous
100
AcDbLine
 10
1360.0
 20
13569.8152577
 30
0.0
 11
1385.0
 21
13594.81527069
 31
0.0
  0
LINE
  5
7B
330
4ED
100
AcDbEntity
  8
YKK_Z1
  6
Continuous
100
AcDbLine
 10
1360.0
 20
13598.09953139
 30
0.0
 11
1385.0
 21
13623.09954439
 31
0.0
  0
LINE
  5
7C
330
4ED
100
AcDbEntity
  8
YKK_Z1
  6
Continuous
100
AcDbLine
 10
1360.0
 20
13626.38380509
 30
0.0
 11
1385.0
 21
13651.38381808
 31
0.0
  0
LINE
  5
7E
330
4ED
100
AcDbEntity
  8
YKK_Z1
  6
Continuous
100
AcDbLine
 10
1360.0
 20
13654.66807879
 30
0.0
 11
1385.0
 21
13654.66807879
 31
0.0
  0
LINE
  5
7F
330
4ED
100
AcDbEntity
  8
YKK_Z1
  6
Continuous
100
AcDbLine
 10
1360.0
 20
13534.66807879
 30
0.0
 11
1360.0
 21
13654.66807879
 31
0.0
  0
LINE
  5
80
330
4ED
100
AcDbEntity
  8
YKK_Z1
  6
Continuous
100
AcDbLine
 10
1385.0
 20
13534.66807879
 30
0.0
 11
1360.0
 21
13534.66807879
 31
0.0
  0
LINE
  5
81
330
4ED
100
AcDbEntity
  8
YKK_Z1
  6
Continuous
100
AcDbLine
 10
1385.0
 20
13654.66807879
 30
0.0
 11
1385.0
 21
13534.66807879
 31
0.0
  0
LINE
  5
82
330
4ED
100
AcDbEntity
  8
YKK_Z1
  6
Continuous
100
AcDbLine
 10
1350.0
 20
13599.39911314
 30
0.0
 11
1325.2689785
 21
13574.66807879
 31
0.0
  0
LINE
  5
83
330
4ED
100
AcDbEntity
  8
YKK_Z1
  6
Continuous
100
AcDbLine
 10
1350.0
 20
13619.19810473
 30
0.0
 11
1305.4699972
 21
13574.66807879
 31
0.0
  0
LINE
  5
84
330
4ED
100
AcDbEntity
  8
YKK_Z1
  6
Continuous
100
AcDbLine
 10
1350.0
 20
13627.68338684
 30
0.0
 11
1296.9847195
 21
13574.66807879
 31
0.0
  0
LINE
  5
85
330
4ED
100
AcDbEntity
  8
YKK_Z1
  6
Continuous
100
AcDbLine
 10
1350.0
 20
13574.66807879
 30
0.0
 11
1350.0
 21
13744.66807879
 31
0.0
  0
LINE
  5
86
330
4ED
100
AcDbEntity
  8
YKK_B1
100
AcDbLine
 10
1425.0
 20
13704.66807879
 30
0.0
 11
1425.0
 21
13754.66807879
 31
0.0
  0
LINE
  5
87
330
4ED
100
AcDbEntity
  8
YKK_B1
100
AcDbLine
 10
1375.0
 20
13699.66807879
 30
0.0
 11
1375.0
 21
13692.66807879
 31
0.0
  0
LINE
  5
88
330
4ED
100
AcDbEntity
  8
YKK_B1
100
AcDbLine
 10
1370.0
 20
13699.66807879
 30
0.0
 11
1400.0
 21
13699.66807879
 31
0.0
  0
LINE
  5
89
330
4ED
100
AcDbEntity
  8
YKK_B1
100
AcDbLine
 10
1370.0
 20
13754.66807879
 30
0.0
 11
1370.0
 21
13699.66807879
 31
0.0
  0
LINE
  5
8A
330
4ED
100
AcDbEntity
  8
YKK_B1
100
AcDbLine
 10
1400.0
 20
13754.66807879
 30
0.0
 11
1370.0
 21
13754.66807879
 31
0.0
  0
LINE
  5
8B
330
4ED
100
AcDbEntity
  8
YKK_B1
100
AcDbLine
 10
1375.0
 20
13654.66807879
 30
0.0
 11
1375.0
 21
13661.66807879
 31
0.0
  0
LINE
  5
8C
330
4ED
100
AcDbEntity
  8
YKK_B1
100
AcDbLine
 10
1400.0
 20
13654.66807879
 30
0.0
 11
1375.0
 21
13654.66807879
 31
0.0
  0
LINE
  5
8D
330
4ED
100
AcDbEntity
  8
YKK_B1
100
AcDbLine
 10
1400.0
 20
13700.66807879
 30
0.0
 11
1430.0
 21
13700.66807879
 31
0.0
  0
LINE
  5
8E
330
4ED
100
AcDbEntity
  8
YKK_B1
100
AcDbLine
 10
1400.0
 20
13654.66807879
 30
0.0
 11
1400.0
 21
13754.66807879
 31
0.0
  0
TEXT
  5
8F
330
4ED
100
AcDbEntity
  8
YKK_N1
100
AcDbText
 10
1676.0
 20
13374.3823645
 30
0.0
 40
60.0
  1
120
 50
90.0
 41
0.8
100
AcDbText
  0
LINE
  5
90
330
4ED
100
AcDbEntity
  8
YKK_N1
  6
Continuous
100
AcDbLine
 10
1686.0
 20
13534.66807879
 30
0.0
 11
1686.0
 21
13378.09665022
 31
0.0
  0
LINE
  5
91
330
4ED
100
AcDbEntity
  8
YKK_N1
  6
ByBlock
100
AcDbLine
 10
1486.60254038
 20
13204.66807879
 30
0.0
 11
1486.60254038
 21
13304.66807879
 31
0.0
  0
TEXT
  5
92
330
4ED
100
AcDbEntity
  8
YKK_N1
100
AcDbText
 10
1752.57142857
 20
13264.66807879
 30
0.0
 40
60.0
  1
W=1000
 41
0.8
100
AcDbText
1001
ACAD
1000
MTEXTBEGIN
1070
    73
1070
     1
1070
    44
1040
1.0
1070
    74
1070
     0
1000
MTEXTEND
  0
LINE
  5
93
330
4ED
100
AcDbEntity
  8
YKK_N1
100
AcDbLine
 10
1686.0
 20
13654.66807879
 30
0.0
 11
1686.0
 21
13634.66807879
 31
0.0
  0
CIRCLE
  5
94
330
4ED
100
AcDbEntity
  8
YKK_N1
100
AcDbCircle
 10
1686.0
 20
13654.66807879
 30
0.0
 40
6.5
  0
CIRCLE
  5
95
330
4ED
100
AcDbEntity
  8
YKK_N1
100
AcDbCircle
 10
1686.0
 20
13654.66807879
 30
0.0
 40
10.0
  0
LINE
  5
96
330
4ED
100
AcDbEntity
  8
YKK_N1
100
AcDbLine
 10
1686.0
 20
13534.66807879
 30
0.0
 11
1686.0
 21
13554.66807879
 31
0.0
  0
CIRCLE
  5
97
330
4ED
100
AcDbEntity
  8
YKK_N1
100
AcDbCircle
 10
1686.0
 20
13534.66807879
 30
0.0
 40
6.5
  0
CIRCLE
  5
98
330
4ED
100
AcDbEntity
  8
YKK_N1
100
AcDbCircle
 10
1686.0
 20
13534.66807879
 30
0.0
 40
10.0
  0
TEXT
  5
99
330
4ED
100
AcDbEntity
  8
YKK_N1
100
AcDbText
 10
1641.0
 20
13632.66807879
 30
0.0
 40
60.0
  1
100
 50
90.0
 41
0.8
100
AcDbText
1001
ACAD
1000
MTEXTBEGIN
1070
    73
1070
     1
1070
    44
1040
1.0
1070
    74
1070
     0
1000
MTEXTEND
  0
LINE
  5
9A
330
4ED
100
AcDbEntity
  8
YKK_N1
100
AcDbLine
 10
1686.0
 20
13654.66807879
 30
0.0
 11
1686.0
 21
13674.66807879
 31
0.0
  0
CIRCLE
  5
9B
330
4ED
100
AcDbEntity
  8
YKK_N1
100
AcDbCircle
 10
1686.0
 20
13654.66807879
 30
0.0
 40
6.5
  0
CIRCLE
  5
9C
330
4ED
100
AcDbEntity
  8
YKK_N1
100
AcDbCircle
 10
1686.0
 20
13654.66807879
 30
0.0
 40
10.0
  0
LINE
  5
9D
330
4ED
100
AcDbEntity
  8
YKK_N1
100
AcDbLine
 10
1686.0
 20
13754.66807879
 30
0.0
 11
1686.0
 21
13734.66807879
 31
0.0
  0
CIRCLE
  5
9E
330
4ED
100
AcDbEntity
  8
YKK_N1
100
AcDbCircle
 10
1686.0
 20
13754.66807879
 30
0.0
 40
6.5
  0
CIRCLE
  5
9F
330
4ED
100
AcDbEntity
  8
YKK_N1
100
AcDbCircle
 10
1686.0
 20
13754.66807879
 30
0.0
 40
10.0
  0
LINE
  5
A0
330
4ED
100
AcDbEntity
  8
YKK_N1
100
AcDbLine
 10
1686.0
 20
13674.66807879
 30
0.0
 11
1686.0
 21
13734.66807879
 31
0.0
  0
LINE
  5
A1
330
4ED
100
AcDbEntity
  8
YKK_N1
100
AcDbLine
 10
1636.0
 20
13754.66807879
 30
0.0
 11
1656.0
 21
13754.66807879
 31
0.0
  0
LINE
  5
A2
330
4ED
100
AcDbEntity
  8
YKK_N1
100
AcDbLine
 10
1636.0
 20
13654.66807879
 30
0.0
 11
1656.0
 21
13654.66807879
 31
0.0
  0
LINE
  5
A3
330
4ED
100
AcDbEntity
  8
YKK_N1
  6
Continuous
100
AcDbLine
 10
1686.0
 20
13634.66807879
 30
0.0
 11
1686.0
 21
13554.66807879
 31
0.0
  0
LINE
  5
A4
330
4ED
100
AcDbEntity
  8
YKK_N1
  6
Continuous
100
AcDbLine
 10
1626.0
 20
13654.66807879
 30
0.0
 11
1656.0
 21
13654.66807879
 31
0.0
  0
LINE
  5
A5
330
4ED
100
AcDbEntity
  8
YKK_B1
100
AcDbLine
 10
1480.0
 20
13712.66807879
 30
0.0
 11
1464.0
 21
13712.66807879
 31
0.0
  0
LINE
  5
A6
330
4ED
100
AcDbEntity
  8
YKK_B1
100
AcDbLine
 10
1480.0
 20
13704.66807879
 30
0.0
 11
1480.0
 21
13712.66807879
 31
0.0
  0
LINE
  5
A7
330
4ED
100
AcDbEntity
  8
YKK_B1
100
AcDbLine
 10
1464.0
 20
13754.66807879
 30
0.0
 11
1464.0
 21
13704.66807879
 31
0.0
  0
LINE
  5
A8
330
4ED
100
AcDbEntity
  8
YKK_Z1
  6
Continuous
100
AcDbLine
 10
2800.0
 20
13556.66807879
 30
0.0
 11
2440.0
 21
13556.66807879
 31
0.0
  0
LINE
  5
A9
330
4ED
100
AcDbEntity
  8
YKK_Z1
  6
Continuous
100
AcDbLine
 10
2440.0
 20
13544.66807879
 30
0.0
 11
2800.0
 21
13544.66807879
 31
0.0
  0
LINE
  5
AA
330
4ED
100
AcDbEntity
  8
YKK_Z1
  6
HIDDEN
100
AcDbLine
 10
2450.0
 20
13724.66807879
 30
0.0
 11
2800.0
 21
13724.66807879
 31
0.0
  0
LINE
  5
AB
330
4ED
100
AcDbEntity
  8
YKK_Z1
  6
CENTER
100
AcDbLine
 10
2437.5
 20
13649.66807879
 30
0.0
 11
2800.0
 21
13649.66807879
 31
0.0
  0
LINE
  5
AC
330
4ED
100
AcDbEntity
  8
YKK_Z1
  6
Continuous
100
AcDbLine
 10
2531.29935334
 20
13574.66807879
 30
0.0
 11
2701.29938278
 21
13744.66807879
 31
0.0
  0
LINE
  5
AD
330
4ED
100
AcDbEntity
  8
YKK_Z1
  6
Continuous
100
AcDbLine
 10
2511.50035832
 20
13574.66807879
 30
0.0
 11
2681.50038777
 21
13744.66807879
 31
0.0
  0
LINE
  5
AE
330
4ED
100
AcDbEntity
  8
YKK_Z1
  6
Continuous
100
AcDbLine
 10
2503.01507474
 20
13574.66807879
 30
0.0
 11
2673.01510419
 21
13744.66807879
 31
0.0
  0
LINE
  5
AF
330
4ED
100
AcDbEntity
  8
YKK_Z1
  6
Continuous
100
AcDbLine
 10
2450.0
 20
13744.66807879
 30
0.0
 11
2800.0
 21
13744.66807879
 31
0.0
  0
LINE
  5
B0
330
4ED
100
AcDbEntity
  8
YKK_Z1
  6
Continuous
100
AcDbLine
 10
2800.0
 20
13574.66807879
 30
0.0
 11
2450.0
 21
13574.66807879
 31
0.0
  0
LINE
  5
B1
330
4ED
100
AcDbEntity
  8
YKK_N1
100
AcDbLine
 10
2400.0
 20
13594.66807879
 30
0.0
 11
2400.0
 21
13224.66807879
 31
0.0
  0
LINE
  5
B2
330
4ED
100
AcDbEntity
  8
YKK_N1
  6
ByBlock
100
AcDbLine
 10
2313.39745962
 20
13204.66807879
 30
0.0
 11
2400.0
 21
13254.66807879
 31
0.0
  0
LINE
  5
B3
330
4ED
100
AcDbEntity
  8
YKK_N1
  6
ByBlock
100
AcDbLine
 10
2313.39745962
 20
13304.66807879
 30
0.0
 11
2313.39745962
 21
13204.66807879
 31
0.0
  0
LINE
  5
B4
330
4ED
100
AcDbEntity
  8
YKK_N1
  6
ByBlock
100
AcDbLine
 10
2400.0
 20
13254.66807879
 30
0.0
 11
2313.39745962
 21
13304.66807879
 31
0.0
  0
LINE
  5
B5
330
4ED
100
AcDbEntity
  8
YKK_N1
  6
ByBlock
100
AcDbLine
 10
2400.0
 20
13254.66807879
 30
0.0
 11
2300.0
 21
13254.66807879
 31
0.0
  0
LINE
  5
B6
330
4ED
100
AcDbEntity
  8
YKK_Z1
  6
Continuous
100
AcDbLine
 10
2440.0
 20
13556.66807879
 30
0.0
 11
2440.0
 21
13544.66807879
 31
0.0
  0
LINE
  5
B7
330
4ED
100
AcDbEntity
  8
YKK_Z1
  6
Continuous
100
AcDbLine
 10
2430.0
 20
13744.66807879
 30
0.0
 11
2450.0
 21
13744.66807879
 31
0.0
  0
LINE
  5
B8
330
4ED
100
AcDbEntity
  8
YKK_Z1
  6
Continuous
100
AcDbLine
 10
2440.0
 20
13541.530984
 30
0.0
 11
2433.1370936
 21
13534.66807879
 31
0.0
  0
LINE
  5
B9
330
4ED
100
AcDbEntity
  8
YKK_Z1
  6
Continuous
100
AcDbLine
 10
2440.0
 20
13569.8152577
 30
0.0
 11
2415.0
 21
13544.81526203
 31
0.0
  0
LINE
  5
BA
330
4ED
100
AcDbEntity
  8
YKK_Z1
  6
Continuous
100
AcDbLine
 10
2440.0
 20
13598.09953139
 30
0.0
 11
2415.0
 21
13573.09953572
 31
0.0
  0
LINE
  5
BB
330
4ED
100
AcDbEntity
  8
YKK_Z1
  6
Continuous
100
AcDbLine
 10
2440.0
 20
13626.38380509
 30
0.0
 11
2415.0
 21
13601.38380942
 31
0.0
  0
LINE
  5
BC
330
4ED
100
AcDbEntity
  8
YKK_Z1
  6
Continuous
100
AcDbLine
 10
2440.0
 20
13654.66807879
 30
0.0
 11
2415.0
 21
13629.66808312
 31
0.0
  0
LINE
  5
BD
330
4ED
100
AcDbEntity
  8
YKK_Z1
  6
Continuous
100
AcDbLine
 10
2440.0
 20
13654.66807879
 30
0.0
 11
2415.0
 21
13654.66807879
 31
0.0
  0
LINE
  5
BE
330
4ED
100
AcDbEntity
  8
YKK_Z1
  6
Continuous
100
AcDbLine
 10
2440.0
 20
13534.66807879
 30
0.0
 11
2440.0
 21
13654.66807879
 31
0.0
  0
LINE
  5
BF
330
4ED
100
AcDbEntity
  8
YKK_Z1
  6
Continuous
100
AcDbLine
 10
2415.0
 20
13534.66807879
 30
0.0
 11
2440.0
 21
13534.66807879
 31
0.0
  0
LINE
  5
C0
330
4ED
100
AcDbEntity
  8
YKK_Z1
  6
Continuous
100
AcDbLine
 10
2415.0
 20
13654.66807879
 30
0.0
 11
2415.0
 21
13534.66807879
 31
0.0
  0
LINE
  5
C1
330
4ED
100
AcDbEntity
  8
YKK_Z1
  6
Continuous
100
AcDbLine
 10
2450.0
 20
13574.66807879
 30
0.0
 11
2450.0
 21
13744.66807879
 31
0.0
  0
LINE
  5
C2
330
4ED
100
AcDbEntity
  8
YKK_B1
100
AcDbLine
 10
2320.0
 20
13712.66807879
 30
0.0
 11
2336.0
 21
13712.66807879
 31
0.0
  0
LINE
  5
C3
330
4ED
100
AcDbEntity
  8
YKK_B1
100
AcDbLine
 10
2320.0
 20
13704.66807879
 30
0.0
 11
2320.0
 21
13712.66807879
 31
0.0
  0
LINE
  5
C4
330
4ED
100
AcDbEntity
  8
YKK_B1
100
AcDbLine
 10
2336.0
 20
13754.66807879
 30
0.0
 11
2336.0
 21
13704.66807879
 31
0.0
  0
LINE
  5
C5
330
4ED
100
AcDbEntity
  8
YKK_B1
100
AcDbLine
 10
2320.0
 20
13754.66807879
 30
0.0
 11
2395.0
 21
13754.66807879
 31
0.0
  0
LINE
  5
C6
330
4ED
100
AcDbEntity
  8
YKK_B1
100
AcDbLine
 10
2375.0
 20
13704.66807879
 30
0.0
 11
2375.0
 21
13754.66807879
 31
0.0
  0
LINE
  5
C7
330
4ED
100
AcDbEntity
  8
YKK_B1
100
AcDbLine
 10
2320.0
 20
13704.66807879
 30
0.0
 11
2375.0
 21
13704.66807879
 31
0.0
  0
LINE
  5
C8
330
4ED
100
AcDbEntity
  8
YKK_B1
100
AcDbLine
 10
2425.0
 20
13699.66807879
 30
0.0
 11
2425.0
 21
13692.66807879
 31
0.0
  0
LINE
  5
C9
330
4ED
100
AcDbEntity
  8
YKK_B1
100
AcDbLine
 10
2430.0
 20
13699.66807879
 30
0.0
 11
2400.0
 21
13699.66807879
 31
0.0
  0
LINE
  5
CA
330
4ED
100
AcDbEntity
  8
YKK_B1
100
AcDbLine
 10
2430.0
 20
13754.66807879
 30
0.0
 11
2430.0
 21
13699.66807879
 31
0.0
  0
LINE
  5
CB
330
4ED
100
AcDbEntity
  8
YKK_B1
100
AcDbLine
 10
2400.0
 20
13754.66807879
 30
0.0
 11
2430.0
 21
13754.66807879
 31
0.0
  0
LINE
  5
CC
330
4ED
100
AcDbEntity
  8
YKK_B1
100
AcDbLine
 10
2425.0
 20
13654.66807879
 30
0.0
 11
2425.0
 21
13661.66807879
 31
0.0
  0
LINE
  5
CD
330
4ED
100
AcDbEntity
  8
YKK_B1
100
AcDbLine
 10
2400.0
 20
13654.66807879
 30
0.0
 11
2425.0
 21
13654.66807879
 31
0.0
  0
LINE
  5
CE
330
4ED
100
AcDbEntity
  8
YKK_B1
100
AcDbLine
 10
2400.0
 20
13700.66807879
 30
0.0
 11
2370.0
 21
13700.66807879
 31
0.0
  0
LINE
  5
CF
330
4ED
100
AcDbEntity
  8
YKK_B1
100
AcDbLine
 10
2400.0
 20
13654.66807879
 30
0.0
 11
2400.0
 21
13754.66807879
 31
0.0
  0
LINE
  5
D1
330
4ED
100
AcDbEntity
  8
YKK_N1
100
AcDbLine
 10
1401.0
 20
16095.3
 30
0.0
 11
2399.0
 21
16095.3
 31
0.0
  0
TEXT
  5
D2
330
4ED
100
AcDbEntity
  8
YKK_A1
100
AcDbText
 10
1669.2
 20
16570.3
 30
0.0
 40
60.0
  1
複層ガラス 5+A12+5
 41
0.8
 72
     2
 11
2290.0
 21
16570.3
 31
0.0
100
AcDbText
  0
LINE
  5
D3
330
4ED
100
AcDbEntity
  8
YKK_A1
100
AcDbLine
 10
1480.0
 20
16540.3
 30
0.0
 11
2320.0
 21
16540.3
 31
0.0
  0
LINE
  5
D4
330
4ED
100
AcDbEntity
  8
YKK_A1
100
AcDbLine
 10
1430.0
 20
16495.3
 30
0.0
 11
2370.0
 21
16495.3
 31
0.0
  0
LINE
  5
D5
330
4ED
100
AcDbEntity
  8
YKK_A1
100
AcDbLine
 10
1400.0
 20
16495.3
 30
0.0
 11
2400.0
 21
16495.3
 31
0.0
  0
LINE
  5
D6
330
4ED
100
AcDbEntity
  8
YKK_A1
100
AcDbLine
 10
1385.0
 20
16495.3
 30
0.0
 11
2415.0
 21
16495.3
 31
0.0
  0
LINE
  5
D7
330
4ED
100
AcDbEntity
  8
YKK_N1
  6
ByBlock
100
AcDbLine
 10
1486.60254038
 20
16145.3
 30
0.0
 11
1400.0
 21
16095.3
 31
0.0
  0
LINE
  5
D8
330
4ED
100
AcDbEntity
  8
YKK_N1
  6
ByBlock
100
AcDbLine
 10
1400.0
 20
16095.3
 30
0.0
 11
1486.60254038
 21
16045.3
 31
0.0
  0
LINE
  5
D9
330
4ED
100
AcDbEntity
  8
YKK_N1
  6
ByBlock
100
AcDbLine
 10
1400.0
 20
16095.3
 30
0.0
 11
1500.0
 21
16095.3
 31
0.0
  0
LINE
  5
DA
330
4ED
100
AcDbEntity
  8
YKK_N1
100
AcDbLine
 10
1400.0
 20
16435.3
 30
0.0
 11
1400.0
 21
16065.3
 31
0.0
  0
LINE
  5
DB
330
4ED
100
AcDbEntity
  8
YKK_N1
  6
ByBlock
100
AcDbLine
 10
1486.60254038
 20
16045.3
 30
0.0
 11
1486.60254038
 21
16145.3
 31
0.0
  0
TEXT
  5
DC
330
4ED
100
AcDbEntity
  8
YKK_N1
100
AcDbText
 10
1752.57142857
 20
16105.3
 30
0.0
 40
60.0
  1
W=1000
 41
0.8
100
AcDbText
1001
ACAD
1000
MTEXTBEGIN
1070
    73
1070
     1
1070
    44
1040
1.0
1070
    74
1070
     0
1000
MTEXTEND
  0
LINE
  5
DD
330
4ED
100
AcDbEntity
  8
YKK_N1
100
AcDbLine
 10
2460.0
 20
16495.3
 30
0.0
 11
2830.0
 21
16495.3
 31
0.0
  0
LINE
  5
DE
330
4ED
100
AcDbEntity
  8
YKK_N1
  6
ByBlock
100
AcDbLine
 10
2313.39745962
 20
16045.3
 30
0.0
 11
2400.0
 21
16095.3
 31
0.0
  0
LINE
  5
DF
330
4ED
100
AcDbEntity
  8
YKK_N1
  6
ByBlock
100
AcDbLine
 10
2313.39745962
 20
16145.3
 30
0.0
 11
2313.39745962
 21
16045.3
 31
0.0
  0
LINE
  5
E0
330
4ED
100
AcDbEntity
  8
YKK_N1
  6
ByBlock
100
AcDbLine
 10
2400.0
 20
16095.3
 30
0.0
 11
2313.39745962
 21
16145.3
 31
0.0
  0
LINE
  5
E1
330
4ED
100
AcDbEntity
  8
YKK_N1
  6
ByBlock
100
AcDbLine
 10
2400.0
 20
16095.3
 30
0.0
 11
2300.0
 21
16095.3
 31
0.0
  0
LINE
  5
E2
330
4ED
100
AcDbEntity
  8
YKK_N1
100
AcDbLine
 10
2400.0
 20
16435.3
 30
0.0
 11
2400.0
 21
16065.3
 31
0.0
  0
LINE
  5
E3
330
4ED
100
AcDbEntity
  8
YKK_N1
100
AcDbLine
 10
2185.0
 20
16495.3
 30
0.0
 11
2185.0
 21
16515.3
 31
0.0
  0
CIRCLE
  5
E4
330
4ED
100
AcDbEntity
  8
YKK_N1
100
AcDbCircle
 10
2185.0
 20
16495.3
 30
0.0
 40
6.5
  0
CIRCLE
  5
E5
330
4ED
100
AcDbEntity
  8
YKK_N1
100
AcDbCircle
 10
2185.0
 20
16495.3
 30
0.0
 40
10.0
  0
TEXT
  5
E6
330
4ED
100
AcDbEntity
  8
YKK_N1
100
AcDbText
 10
2175.0
 20
16750.58571429
 30
0.0
 40
60.0
  1
650
 50
90.0
 41
0.8
100
AcDbText
1001
ACAD
1000
MTEXTBEGIN
1070
    73
1070
     1
1070
    44
1040
1.0
1070
    74
1070
     0
1000
MTEXTEND
  0
LINE
  5
E7
330
4ED
100
AcDbEntity
  8
YKK_N1
100
AcDbLine
 10
2125.0
 20
16495.3
 30
0.0
 11
2155.0
 21
16495.3
 31
0.0
  0
LINE
  5
E8
330
4ED
100
AcDbEntity
  8
YKK_N1
  6
ByBlock
100
AcDbLine
 10
2750.0
 20
16581.90254038
 30
0.0
 11
2800.0
 21
16495.3
 31
0.0
  0
LINE
  5
E9
330
4ED
100
AcDbEntity
  8
YKK_N1
  6
ByBlock
100
AcDbLine
 10
2850.0
 20
16581.90254038
 30
0.0
 11
2750.0
 21
16581.90254038
 31
0.0
  0
LINE
  5
EA
330
4ED
100
AcDbEntity
  8
YKK_N1
  6
ByBlock
100
AcDbLine
 10
2800.0
 20
16495.3
 30
0.0
 11
2850.0
 21
16581.90254038
 31
0.0
  0
LINE
  5
EB
330
4ED
100
AcDbEntity
  8
YKK_N1
  6
ByBlock
100
AcDbLine
 10
2800.0
 20
16495.3
 30
0.0
 11
2800.0
 21
16595.3
 31
0.0
  0
TEXT
  5
EC
330
4ED
100
AcDbEntity
  8
YKK_N1
100
AcDbText
 10
4290.0
 20
16026.72857143
 30
0.0
 40
60.0
  1
800
 50
90.0
 41
0.8
100
AcDbText
1001
ACAD
1000
MTEXTBEGIN
1070
    73
1070
     1
1070
    44
1040
1.0
1070
    74
1070
     0
1000
MTEXTEND
  0
LINE
  5
ED
330
4ED
100
AcDbEntity
  8
YKK_N1
  6
ByBlock
100
AcDbLine
 10
4250.0
 20
16581.90254038
 30
0.0
 11
4300.0
 21
16495.3
 31
0.0
  0
LINE
  5
EE
330
4ED
100
AcDbEntity
  8
YKK_N1
  6
ByBlock
100
AcDbLine
 10
4350.0
 20
16581.90254038
 30
0.0
 11
4250.0
 21
16581.90254038
 31
0.0
  0
LINE
  5
EF
330
4ED
100
AcDbEntity
  8
YKK_N1
100
AcDbLine
 10
3960.0
 20
16495.3
 30
0.0
 11
4330.0
 21
16495.3
 31
0.0
  0
LINE
  5
F0
330
4ED
100
AcDbEntity
  8
YKK_N1
  6
CENTER
100
AcDbLine
 10
4200.0
 20
15695.3
 30
0.0
 11
4700.0
 21
15695.3
 31
0.0
  0
LINE
  5
F1
330
4ED
100
AcDbEntity
  8
YKK_Z1
  6
Continuous
100
AcDbLine
 10
3998.0
 20
16095.3
 30
0.0
 11
3998.0
 21
16470.3
 31
0.0
  0
LINE
  5
F2
330
4ED
100
AcDbEntity
  8
YKK_Z1
  6
Continuous
100
AcDbLine
 10
4010.0
 20
16470.3
 30
0.0
 11
4010.0
 21
16095.3
 31
0.0
  0
LINE
  5
F3
330
4ED
100
AcDbEntity
  8
YKK_C1
100
AcDbLine
 10
3855.0
 20
16460.3
 30
0.0
 11
3855.0
 21
16425.3
 31
0.0
  0
LINE
  5
F4
330
4ED
100
AcDbEntity
  8
YKK_C1
100
AcDbLine
 10
3800.0
 20
16460.3
 30
0.0
 11
3800.0
 21
16435.3
 31
0.0
  0
LINE
  5
F5
330
4ED
100
AcDbEntity
  8
YKK_Z1
  6
Continuous
100
AcDbLine
 10
3980.0
 20
16364.00064666
 30
0.0
 11
3810.0
 21
16194.00061722
 31
0.0
  0
LINE
  5
F6
330
4ED
100
AcDbEntity
  8
YKK_Z1
  6
Continuous
100
AcDbLine
 10
3980.0
 20
16383.79964168
 30
0.0
 11
3810.0
 21
16213.79961223
 31
0.0
  0
LINE
  5
F7
330
4ED
100
AcDbEntity
  8
YKK_Z1
  6
Continuous
100
AcDbLine
 10
3980.0
 20
16392.28492526
 30
0.0
 11
3810.0
 21
16222.28489581
 31
0.0
  0
LINE
  5
F8
330
4ED
100
AcDbEntity
  8
YKK_Z1
  6
Continuous
100
AcDbLine
 10
3980.0
 20
16420.3
 30
0.0
 11
3920.0
 21
16420.3
 31
0.0
  0
LINE
  5
F9
330
4ED
100
AcDbEntity
  8
YKK_Z1
  6
Continuous
100
AcDbLine
 10
3810.0
 20
16435.3
 30
0.0
 11
3810.0
 21
16395.3
 31
0.0
  0
LINE
  5
FA
330
4ED
100
AcDbEntity
  8
YKK_Z1
  6
HIDDEN
100
AcDbLine
 10
3830.0
 20
16095.3
 30
0.0
 11
3830.0
 21
16395.3
 31
0.0
  0
LINE
  5
FB
330
4ED
100
AcDbEntity
  8
YKK_Z1
  6
CENTER
100
AcDbLine
 10
3905.0
 20
16415.3
 30
0.0
 11
3905.0
 21
16095.3
 31
0.0
  0
LINE
  5
FC
330
4ED
100
AcDbEntity
  8
YKK_Z1
  6
Continuous
100
AcDbLine
 10
3810.0
 20
16395.3
 30
0.0
 11
3810.0
 21
16095.3
 31
0.0
  0
LINE
  5
FD
330
4ED
100
AcDbEntity
  8
YKK_Z1
  6
Continuous
100
AcDbLine
 10
3910.0
 20
16395.3
 30
0.0
 11
3810.0
 21
16395.3
 31
0.0
  0
LINE
  5
FE
330
4ED
100
AcDbEntity
  8
YKK_Z1
  6
Continuous
100
AcDbLine
 10
3920.0
 20
16420.3
 30
0.0
 11
3910.0
 21
16395.3
 31
0.0
  0
LINE
  5
FF
330
4ED
100
AcDbEntity
  8
YKK_C1
100
AcDbLine
 10
3800.0
 20
16435.3
 30
0.0
 11
3855.0
 21
16435.3
 31
0.0
  0
LINE
  5
101
330
4ED
100
AcDbEntity
  8
YKK_Z1
  6
Continuous
100
AcDbLine
 10
3980.0
 20
16095.3
 30
0.0
 11
3980.0
 21
16420.3
 31
0.0
  0
LINE
  5
102
330
4ED
100
AcDbEntity
  8
YKK_Z1
  6
Continuous
100
AcDbLine
 10
3956.56854739
 20
16470.3
 30
0.0
 11
3981.56854306
 21
16495.3
 31
0.0
  0
LINE
  5
103
330
4ED
100
AcDbEntity
  8
YKK_Z1
  6
Continuous
100
AcDbLine
 10
4020.0
 20
16470.3
 30
0.0
 11
3900.0
 21
16470.3
 31
0.0
  0
LINE
  5
104
330
4ED
100
AcDbEntity
  8
YKK_Z1
  6
Continuous
100
AcDbLine
 10
3900.0
 20
16495.3
 30
0.0
 11
4020.0
 21
16495.3
 31
0.0
  0
LINE
  5
105
330
4ED
100
AcDbEntity
  8
YKK_Z1
  6
Continuous
100
AcDbLine
 10
3928.2842737
 20
16470.3
 30
0.0
 11
3953.28426937
 21
16495.3
 31
0.0
  0
LINE
  5
106
330
4ED
100
AcDbEntity
  8
YKK_Z1
  6
Continuous
100
AcDbLine
 10
3900.0
 20
16470.3
 30
0.0
 11
3924.99999567
 21
16495.3
 31
0.0
  0
LINE
  5
107
330
4ED
100
AcDbEntity
  8
YKK_Z1
  6
Continuous
100
AcDbLine
 10
3900.0
 20
16470.3
 30
0.0
 11
3900.0
 21
16495.3
 31
0.0
  0
LINE
  5
108
330
4ED
100
AcDbEntity
  8
YKK_C1
100
AcDbLine
 10
3842.0
 20
16540.3
 30
0.0
 11
3842.0
 21
16524.3
 31
0.0
  0
LINE
  5
109
330
4ED
100
AcDbEntity
  8
YKK_C1
100
AcDbLine
 10
3850.0
 20
16540.3
 30
0.0
 11
3842.0
 21
16540.3
 31
0.0
  0
LINE
  5
10A
330
4ED
100
AcDbEntity
  8
YKK_C1
100
AcDbLine
 10
3800.0
 20
16524.3
 30
0.0
 11
3850.0
 21
16524.3
 31
0.0
  0
LINE
  5
10B
330
4ED
100
AcDbEntity
  8
YKK_C1
100
AcDbLine
 10
3800.0
 20
16540.3
 30
0.0
 11
3800.0
 21
16458.3
 31
0.0
  0
LINE
  5
10C
330
4ED
100
AcDbEntity
  8
YKK_C1
100
AcDbLine
 10
3850.0
 20
16490.3
 30
0.0
 11
3800.0
 21
16490.3
 31
0.0
  0
LINE
  5
10D
330
4ED
100
AcDbEntity
  8
YKK_C1
100
AcDbLine
 10
3850.0
 20
16540.3
 30
0.0
 11
3850.0
 21
16490.3
 31
0.0
  0
LINE
  5
10E
330
4ED
100
AcDbEntity
  8
YKK_C1
100
AcDbLine
 10
3827.0
 20
16460.3
 30
0.0
 11
3900.0
 21
16460.3
 31
0.0
  0
LINE
  5
10F
330
4ED
100
AcDbEntity
  8
YKK_C1
100
AcDbLine
 10
3855.0
 20
16455.3
 30
0.0
 11
3861.0
 21
16455.3
 31
0.0
  0
LINE
  5
110
330
4ED
100
AcDbEntity
  8
YKK_C1
100
AcDbLine
 10
3900.0
 20
16455.3
 30
0.0
 11
3894.0
 21
16455.3
 31
0.0
  0
LINE
  5
111
330
4ED
100
AcDbEntity
  8
YKK_C1
100
AcDbLine
 10
3900.0
 20
16495.3
 30
0.0
 11
3900.0
 21
16455.3
 31
0.0
  0
LINE
  5
113
330
4ED
100
AcDbEntity
  8
YKK_C1
100
AcDbLine
 10
3827.0
 20
16460.3
 30
0.0
 11
3800.0
 21
16460.3
 31
0.0
  0
LINE
  5
115
330
4ED
100
AcDbEntity
  8
YKK_C1
100
AcDbLine
 10
3854.0
 20
16460.3
 30
0.0
 11
3800.0
 21
16460.3
 31
0.0
  0
LINE
  5
116
330
4ED
100
AcDbEntity
  8
YKK_C1
100
AcDbLine
 10
3854.0
 20
16495.3
 30
0.0
 11
3854.0
 21
16460.3
 31
0.0
  0
LINE
  5
117
330
4ED
100
AcDbEntity
  8
YKK_C1
100
AcDbLine
 10
3900.0
 20
16495.3
 30
0.0
 11
3854.0
 21
16495.3
 31
0.0
  0
LINE
  5
118
330
4ED
100
AcDbEntity
  8
YKK_Z1
  6
Continuous
100
AcDbLine
 10
3998.0
 20
16470.3
 30
0.0
 11
4010.0
 21
16470.3
 31
0.0
  0
LINE
  5
119
330
4ED
100
AcDbEntity
  8
YKK_Z1
  6
Continuous
100
AcDbLine
 10
4013.13709479
 20
16470.3
 30
0.0
 11
4020.0
 21
16477.1629064
 31
0.0
  0
LINE
  5
11A
330
4ED
100
AcDbEntity
  8
YKK_Z1
  6
Continuous
100
AcDbLine
 10
3984.85282109
 20
16470.3
 30
0.0
 11
4009.85281676
 21
16495.3
 31
0.0
  0
LINE
  5
11B
330
4ED
100
AcDbEntity
  8
YKK_Z1
  6
Continuous
100
AcDbLine
 10
4020.0
 20
16495.3
 30
0.0
 11
4020.0
 21
16470.3
 31
0.0
  0
LINE
  5
11C
330
4ED
100
AcDbEntity
  8
YKK_N1
100
AcDbLine
 10
4300.0
 20
16475.3
 30
0.0
 11
4300.0
 21
15715.3
 31
0.0
  0
LINE
  5
11D
330
4ED
100
AcDbEntity
  8
YKK_N1
100
AcDbLine
 10
4300.0
 20
15695.3
 30
0.0
 11
4300.0
 21
15715.3
 31
0.0
  0
CIRCLE
  5
11E
330
4ED
100
AcDbEntity
  8
YKK_N1
100
AcDbCircle
 10
4300.0
 20
15695.3
 30
0.0
 40
6.5
  0
CIRCLE
  5
11F
330
4ED
100
AcDbEntity
  8
YKK_N1
100
AcDbCircle
 10
4300.0
 20
15695.3
 30
0.0
 40
10.0
  0
LINE
  5
120
330
4ED
100
AcDbEntity
  8
YKK_N1
  6
ByBlock
100
AcDbLine
 10
4300.0
 20
16495.3
 30
0.0
 11
4300.0
 21
16475.3
 31
0.0
  0
LINE
  5
121
330
4ED
100
AcDbEntity
  8
YKK_N1
  6
ByBlock
100
AcDbLine
 10
4300.0
 20
16495.3
 30
0.0
 11
4350.0
 21
16581.90254038
 31
0.0
  0
LINE
  5
122
330
4ED
100
AcDbEntity
  8
YKK_N1
  6
ByBlock
100
AcDbLine
 10
4300.0
 20
16495.3
 30
0.0
 11
4300.0
 21
16595.3
 31
0.0
  0
LINE
  5
123
330
4ED
100
AcDbEntity
  8
YKK_A1
100
AcDbLine
 10
2320.0
 20
17915.3
 30
0.0
 11
1480.0
 21
17915.3
 31
0.0
  0
LINE
  5
124
330
4ED
100
AcDbEntity
  8
YKK_A1
100
AcDbLine
 10
2370.0
 20
17965.3
 30
0.0
 11
1430.0
 21
17965.3
 31
0.0
  0
LINE
  5
125
330
4ED
100
AcDbEntity
  8
YKK_A1
100
AcDbLine
 10
2400.0
 20
17995.3
 30
0.0
 11
1400.0
 21
17995.3
 31
0.0
  0
LINE
  5
126
330
4ED
100
AcDbEntity
  8
YKK_A1
100
AcDbLine
 10
2415.0
 20
18010.3
 30
0.0
 11
1385.0
 21
18010.3
 31
0.0
  0
LINE
  5
127
330
4ED
100
AcDbEntity
  8
YKK_N1
  6
ByBlock
100
AcDbLine
 10
2850.0
 20
17908.69745962
 30
0.0
 11
2800.0
 21
17995.3
 31
0.0
  0
LINE
  5
128
330
4ED
100
AcDbEntity
  8
YKK_N1
  6
ByBlock
100
AcDbLine
 10
2800.0
 20
17995.3
 30
0.0
 11
2750.0
 21
17908.69745962
 31
0.0
  0
LINE
  5
129
330
4ED
100
AcDbEntity
  8
YKK_N1
  6
ByBlock
100
AcDbLine
 10
2800.0
 20
17995.3
 30
0.0
 11
2800.0
 21
17895.3
 31
0.0
  0
LINE
  5
12A
330
4ED
100
AcDbEntity
  8
YKK_N1
100
AcDbLine
 10
2185.0
 20
17145.3
 30
0.0
 11
2185.0
 21
17125.3
 31
0.0
  0
CIRCLE
  5
12B
330
4ED
100
AcDbEntity
  8
YKK_N1
100
AcDbCircle
 10
2185.0
 20
17145.3
 30
0.0
 40
6.5
  0
CIRCLE
  5
12C
330
4ED
100
AcDbEntity
  8
YKK_N1
100
AcDbCircle
 10
2185.0
 20
17145.3
 30
0.0
 40
10.0
  0
LINE
  5
12D
330
4ED
100
AcDbEntity
  8
YKK_N1
100
AcDbLine
 10
2285.0
 20
17145.3
 30
0.0
 11
2155.0
 21
17145.3
 31
0.0
  0
LINE
  5
12E
330
4ED
100
AcDbEntity
  8
YKK_A2
  6
ByBlock
100
AcDbLine
 10
2355.0
 20
17135.3
 30
0.0
 11
2354.25
 21
17135.3
 31
0.0
  0
ARC
  5
12F
330
4ED
100
AcDbEntity
  8
YKK_A2
  6
ByBlock
100
AcDbCircle
 10
2354.25
 20
17132.3
 30
0.0
 40
3.0
100
AcDbArc
 50
90.0
 51
180.0
  0
LINE
  5
130
330
4ED
100
AcDbEntity
  8
YKK_A2
  6
ByBlock
100
AcDbLine
 10
2351.25
 20
17109.3
 30
0.0
 11
2355.0
 21
17109.3
 31
0.0
  0
LINE
  5
131
330
4ED
100
AcDbEntity
  8
YKK_A2
  6
ByBlock
100
AcDbLine
 10
2355.0
 20
17109.3
 30
0.0
 11
2355.0
 21
17175.3
 31
0.0
  0
LINE
  5
132
330
4ED
100
AcDbEntity
  8
YKK_A2
  6
ByBlock
100
AcDbLine
 10
2355.0
 20
17155.3
 30
0.0
 11
2351.25
 21
17145.3
 31
0.0
  0
LINE
  5
133
330
4ED
100
AcDbEntity
  8
YKK_A2
  6
ByBlock
100
AcDbLine
 10
2351.25
 20
17145.3
 30
0.0
 11
2351.25
 21
17015.3
 31
0.0
  0
LINE
  5
134
330
4ED
100
AcDbEntity
  8
YKK_A2
  6
ByBlock
100
AcDbLine
 10
2335.75
 20
17135.3
 30
0.0
 11
2335.0
 21
17135.3
 31
0.0
  0
ARC
  5
136
330
4ED
100
AcDbEntity
  8
YKK_A2
  6
ByBlock
100
AcDbCircle
 10
2335.75
 20
17132.3
 30
0.0
 40
3.0
100
AcDbArc
 50
0.0
 51
90.0
  0
LINE
  5
137
330
4ED
100
AcDbEntity
  8
YKK_A2
  6
ByBlock
100
AcDbLine
 10
2335.0
 20
17109.3
 30
0.0
 11
2338.75
 21
17109.3
 31
0.0
  0
LINE
  5
138
330
4ED
100
AcDbEntity
  8
YKK_A2
  6
ByBlock
100
AcDbLine
 10
2335.0
 20
17175.3
 30
0.0
 11
2335.0
 21
17109.3
 31
0.0
  0
LINE
  5
139
330
4ED
100
AcDbEntity
  8
YKK_A2
  6
ByBlock
100
AcDbLine
 10
2335.0
 20
17155.3
 30
0.0
 11
2338.75
 21
17145.3
 31
0.0
  0
LINE
  5
13A
330
4ED
100
AcDbEntity
  8
YKK_A2
  6
ByBlock
100
AcDbLine
 10
2338.75
 20
17145.3
 30
0.0
 11
2338.75
 21
17015.3
 31
0.0
  0
LINE
  5
13B
330
4ED
100
AcDbEntity
  8
YKK_A2
  6
ByBlock
100
AcDbLine
 10
2355.0
 20
17175.3
 30
0.0
 11
2335.0
 21
17175.3
 31
0.0
  0
LINE
  5
13C
330
4ED
100
AcDbEntity
  8
YKK_A2
  6
ByBlock
100
AcDbLine
 10
2351.25
 20
17015.3
 30
0.0
 11
2338.75
 21
17015.3
 31
0.0
  0
LINE
  5
13D
330
4ED
100
AcDbEntity
  8
YKK_A2
  6
ByBlock
100
AcDbLine
 10
2355.0
 20
17155.3
 30
0.0
 11
2335.0
 21
17155.3
 31
0.0
  0
LINE
  5
13E
330
4ED
100
AcDbEntity
  8
YKK_A2
  6
ByBlock
100
AcDbLine
 10
2338.75
 20
17145.3
 30
0.0
 11
2351.25
 21
17145.3
 31
0.0
  0
TEXT
  5
13F
330
4ED
100
AcDbEntity
  8
YKK_N1
100
AcDbText
 10
2790.0
 20
17097.87142857
 30
0.0
 40
60.0
  1
H=1500
 50
90.0
 41
0.8
100
AcDbText
1001
ACAD
1000
MTEXTBEGIN
1070
    73
1070
     1
1070
    44
1040
1.0
1070
    74
1070
     0
1000
MTEXTEND
  0
LINE
  5
140
330
4ED
100
AcDbEntity
  8
YKK_N1
  6
ByBlock
100
AcDbLine
 10
2750.0
 20
17908.69745962
 30
0.0
 11
2850.0
 21
17908.69745962
 31
0.0
  0
LINE
  5
141
330
4ED
100
AcDbEntity
  8
YKK_N1
100
AcDbLine
 10
2460.0
 20
17995.3
 30
0.0
 11
2830.0
 21
17995.3
 31
0.0
  0
LINE
  5
142
330
4ED
100
AcDbEntity
  8
YKK_N1
  6
ByBlock
100
AcDbLine
 10
4250.0
 20
17908.69745962
 30
0.0
 11
4350.0
 21
17908.69745962
 31
0.0
  0
LINE
  5
143
330
4ED
100
AcDbEntity
  8
YKK_N1
  6
ByBlock
100
AcDbLine
 10
4300.0
 20
17995.3
 30
0.0
 11
4250.0
 21
17908.69745962
 31
0.0
  0
TEXT
  5
144
330
4ED
100
AcDbEntity
  8
YKK_N1
100
AcDbText
 10
4290.0
 20
17097.87142857
 30
0.0
 40
60.0
  1
H=1500
 50
90.0
 41
0.8
100
AcDbText
1001
ACAD
1000
MTEXTBEGIN
1070
    73
1070
     1
1070
    44
1040
1.0
1070
    74
1070
     0
1000
MTEXTEND
  0
LINE
  5
145
330
4ED
100
AcDbEntity
  8
YKK_N1
100
AcDbLine
 10
3960.0
 20
17995.3
 30
0.0
 11
4330.0
 21
17995.3
 31
0.0
  0
LINE
  5
146
330
4ED
100
AcDbEntity
  8
YKK_Z1
  6
Continuous
100
AcDbLine
 10
4020.0
 20
18010.3
 30
0.0
 11
4020.0
 21
17245.3
 31
0.0
  0
LINE
  5
147
330
4ED
100
AcDbEntity
  8
YKK_C1
100
AcDbLine
 10
3800.0
 20
17915.3
 30
0.0
 11
3800.0
 21
17990.3
 31
0.0
  0
LINE
  5
148
330
4ED
100
AcDbEntity
  8
YKK_C1
100
AcDbLine
 10
3850.0
 20
17915.3
 30
0.0
 11
3850.0
 21
17970.3
 31
0.0
  0
LINE
  5
149
330
4ED
100
AcDbEntity
  8
YKK_N1
  6
Continuous
100
AcDbLine
 10
3920.0
 20
17566.3
 30
0.0
 11
4000.0
 21
17566.3
 31
0.0
  0
LINE
  5
14A
330
4ED
100
AcDbEntity
  8
YKK_N1
100
AcDbLine
 10
3900.0
 20
17566.3
 30
0.0
 11
3920.0
 21
17566.3
 31
0.0
  0
CIRCLE
  5
14B
330
4ED
100
AcDbEntity
  8
YKK_N1
100
AcDbCircle
 10
3900.0
 20
17566.3
 30
0.0
 40
6.5
  0
CIRCLE
  5
14C
330
4ED
100
AcDbEntity
  8
YKK_N1
100
AcDbCircle
 10
3900.0
 20
17566.3
 30
0.0
 40
10.0
  0
TEXT
  5
14D
330
4ED
100
AcDbEntity
  8
YKK_N1
100
AcDbText
 10
3778.0
 20
17611.3
 30
0.0
 40
60.0
  1
100
 41
0.8
100
AcDbText
1001
ACAD
1000
MTEXTBEGIN
1070
    73
1070
     1
1070
    44
1040
1.0
1070
    74
1070
     0
1000
MTEXTEND
  0
LINE
  5
14E
330
4ED
100
AcDbEntity
  8
YKK_N1
100
AcDbLine
 10
3900.0
 20
17566.3
 30
0.0
 11
3880.0
 21
17566.3
 31
0.0
  0
CIRCLE
  5
14F
330
4ED
100
AcDbEntity
  8
YKK_N1
100
AcDbCircle
 10
3900.0
 20
17566.3
 30
0.0
 40
6.5
  0
CIRCLE
  5
150
330
4ED
100
AcDbEntity
  8
YKK_N1
100
AcDbCircle
 10
3900.0
 20
17566.3
 30
0.0
 40
10.0
  0
LINE
  5
151
330
4ED
100
AcDbEntity
  8
YKK_N1
100
AcDbLine
 10
3800.0
 20
17566.3
 30
0.0
 11
3820.0
 21
17566.3
 31
0.0
  0
CIRCLE
  5
152
330
4ED
100
AcDbEntity
  8
YKK_N1
100
AcDbCircle
 10
3800.0
 20
17566.3
 30
0.0
 40
6.5
  0
CIRCLE
  5
153
330
4ED
100
AcDbEntity
  8
YKK_N1
100
AcDbCircle
 10
3800.0
 20
17566.3
 30
0.0
 40
10.0
  0
LINE
  5
154
330
4ED
100
AcDbEntity
  8
YKK_N1
100
AcDbLine
 10
3880.0
 20
17566.3
 30
0.0
 11
3820.0
 21
17566.3
 31
0.0
  0
LINE
  5
155
330
4ED
100
AcDbEntity
  8
YKK_N1
100
AcDbLine
 10
3800.0
 20
17616.3
 30
0.0
 11
3800.0
 21
17596.3
 31
0.0
  0
LINE
  5
156
330
4ED
100
AcDbEntity
  8
YKK_N1
100
AcDbLine
 10
3900.0
 20
17616.3
 30
0.0
 11
3900.0
 21
17596.3
 31
0.0
  0
LINE
  5
157
330
4ED
100
AcDbEntity
  8
YKK_N1
  6
Continuous
100
AcDbLine
 10
3900.0
 20
17626.3
 30
0.0
 11
3900.0
 21
17596.3
 31
0.0
  0
LINE
  5
158
330
4ED
100
AcDbEntity
  8
YKK_C1
100
AcDbLine
 10
3842.0
 20
17915.3
 30
0.0
 11
3842.0
 21
17931.3
 31
0.0
  0
LINE
  5
159
330
4ED
100
AcDbEntity
  8
YKK_C1
100
AcDbLine
 10
3850.0
 20
17915.3
 30
0.0
 11
3842.0
 21
17915.3
 31
0.0
  0
LINE
  5
15A
330
4ED
100
AcDbEntity
  8
YKK_C1
100
AcDbLine
 10
3850.0
 20
17931.3
 30
0.0
 11
3800.0
 21
17931.3
 31
0.0
  0
LINE
  5
15B
330
4ED
100
AcDbEntity
  8
YKK_N1
100
AcDbLine
 10
4020.0
 20
17566.3
 30
0.0
 11
4000.0
 21
17566.3
 31
0.0
  0
CIRCLE
  5
15C
330
4ED
100
AcDbEntity
  8
YKK_N1
100
AcDbCircle
 10
4020.0
 20
17566.3
 30
0.0
 40
6.5
  0
CIRCLE
  5
15D
330
4ED
100
AcDbEntity
  8
YKK_N1
100
AcDbCircle
 10
4020.0
 20
17566.3
 30
0.0
 40
10.0
  0
TEXT
  5
15E
330
4ED
100
AcDbEntity
  8
YKK_N1
100
AcDbText
 10
4036.28571429
 20
17576.3
 30
0.0
 40
60.0
  1
120
 41
0.8
100
AcDbText
  0
LINE
  5
15F
330
4ED
100
AcDbEntity
  8
YKK_N1
  6
Continuous
100
AcDbLine
 10
4020.0
 20
17566.3
 30
0.0
 11
4176.57142857
 21
17566.3
 31
0.0
  0
LINE
  5
160
330
4ED
100
AcDbEntity
  8
YKK_N1
  6
Continuous
100
AcDbLine
 10
4020.0
 20
17950.3
 30
0.0
 11
4020.0
 21
17536.3
 31
0.0
  0
LINE
  5
161
330
4ED
100
AcDbEntity
  8
YKK_Z1
  6
Continuous
100
AcDbLine
 10
3984.85282109
 20
18035.3
 30
0.0
 11
3959.8528081
 21
18010.3
 31
0.0
  0
LINE
  5
162
330
4ED
100
AcDbEntity
  8
YKK_Z1
  6
Continuous
100
AcDbLine
 10
4020.0
 20
18035.3
 30
0.0
 11
3900.0
 21
18035.3
 31
0.0
  0
LINE
  5
163
330
4ED
100
AcDbEntity
  8
YKK_Z1
  6
Continuous
100
AcDbLine
 10
3900.0
 20
18010.3
 30
0.0
 11
4020.0
 21
18010.3
 31
0.0
  0
LINE
  5
164
330
4ED
100
AcDbEntity
  8
YKK_Z1
  6
Continuous
100
AcDbLine
 10
3810.0
 20
18197.01582933
 30
0.0
 11
3980.0
 21
18367.015741
 31
0.0
  0
LINE
  5
165
330
4ED
100
AcDbEntity
  8
YKK_Z1
  6
Continuous
100
AcDbLine
 10
3970.46999225
 20
18080.3
 30
0.0
 11
3980.0
 21
18089.8300028
 31
0.0
  0
LINE
  5
166
330
4ED
100
AcDbEntity
  8
YKK_Z1
  6
Continuous
100
AcDbLine
 10
3810.0
 20
18216.81481063
 30
0.0
 11
3980.0
 21
18386.8147223
 31
0.0
  0
LINE
  5
167
330
4ED
100
AcDbEntity
  8
YKK_Z1
  6
Continuous
100
AcDbLine
 10
3961.98471014
 20
18080.3
 30
0.0
 11
3980.0
 21
18098.3152805
 31
0.0
  0
LINE
  5
168
330
4ED
100
AcDbEntity
  8
YKK_Z1
  6
Continuous
100
AcDbLine
 10
3810.0
 20
18225.30008833
 30
0.0
 11
3980.0
 21
18395.3
 31
0.0
  0
LINE
  5
169
330
4ED
100
AcDbEntity
  8
YKK_Z1
  6
Continuous
100
AcDbLine
 10
3980.0
 20
18080.3
 30
0.0
 11
3870.0
 21
18080.3
 31
0.0
  0
LINE
  5
16A
330
4ED
100
AcDbEntity
  8
YKK_Z1
  6
Continuous
100
AcDbLine
 10
3810.0
 20
18035.3
 30
0.0
 11
3810.0
 21
18055.3
 31
0.0
  0
LINE
  5
16B
330
4ED
100
AcDbEntity
  8
YKK_Z1
  6
Continuous
100
AcDbLine
 10
3956.56854739
 20
18035.3
 30
0.0
 11
3931.5685344
 21
18010.3
 31
0.0
  0
LINE
  5
16C
330
4ED
100
AcDbEntity
  8
YKK_Z1
  6
Continuous
100
AcDbLine
 10
3928.2842737
 20
18035.3
 30
0.0
 11
3903.28426071
 21
18010.3
 31
0.0
  0
LINE
  5
16E
330
4ED
100
AcDbEntity
  8
YKK_Z1
  6
Continuous
100
AcDbLine
 10
3900.0
 20
18035.3
 30
0.0
 11
3900.0
 21
18010.3
 31
0.0
  0
LINE
  5
16F
330
4ED
100
AcDbEntity
  8
YKK_Z1
  6
HIDDEN
100
AcDbLine
 10
3830.0
 20
18395.3
 30
0.0
 11
3830.0
 21
18055.3
 31
0.0
  0
LINE
  5
170
330
4ED
100
AcDbEntity
  8
YKK_Z1
  6
CENTER
100
AcDbLine
 10
3905.0
 20
18055.3
 30
0.0
 11
3905.0
 21
18395.3
 31
0.0
  0
LINE
  5
171
330
4ED
100
AcDbEntity
  8
YKK_Z1
  6
Continuous
100
AcDbLine
 10
3810.0
 20
18055.3
 30
0.0
 11
3810.0
 21
18395.3
 31
0.0
  0
LINE
  5
172
330
4ED
100
AcDbEntity
  8
YKK_Z1
  6
Continuous
100
AcDbLine
 10
3860.0
 20
18055.3
 30
0.0
 11
3810.0
 21
18055.3
 31
0.0
  0
LINE
  5
173
330
4ED
100
AcDbEntity
  8
YKK_Z1
  6
Continuous
100
AcDbLine
 10
3870.0
 20
18080.3
 30
0.0
 11
3860.0
 21
18055.3
 31
0.0
  0
LINE
  5
174
330
4ED
100
AcDbEntity
  8
YKK_C1
100
AcDbLine
 10
3850.0
 20
17970.3
 30
0.0
 11
3800.0
 21
17970.3
 31
0.0
  0
LINE
  5
175
330
4ED
100
AcDbEntity
  8
YKK_C1
100
AcDbLine
 10
3855.0
 20
18045.3
 30
0.0
 11
3855.0
 21
18030.3
 31
0.0
  0
LINE
  5
176
330
4ED
100
AcDbEntity
  8
YKK_C1
100
AcDbLine
 10
3800.0
 20
18035.3
 30
0.0
 11
3855.0
 21
18035.3
 31
0.0
  0
LINE
  5
177
330
4ED
100
AcDbEntity
  8
YKK_C1
100
AcDbLine
 10
3800.0
 20
17995.3
 30
0.0
 11
3800.0
 21
18035.3
 31
0.0
  0
LINE
  5
178
330
4ED
100
AcDbEntity
  8
YKK_C1
100
AcDbLine
 10
3855.0
 20
18030.3
 30
0.0
 11
3864.0
 21
18030.3
 31
0.0
  0
LINE
  5
179
330
4ED
100
AcDbEntity
  8
YKK_C1
100
AcDbLine
 10
3855.0
 20
18020.3
 30
0.0
 11
3855.0
 21
18030.3
 31
0.0
  0
LINE
  5
17A
330
4ED
100
AcDbEntity
  8
YKK_C1
100
AcDbLine
 10
3900.0
 20
18020.3
 30
0.0
 11
3855.0
 21
18020.3
 31
0.0
  0
LINE
  5
17B
330
4ED
100
AcDbEntity
  8
YKK_C1
100
AcDbLine
 10
3900.0
 20
18030.3
 30
0.0
 11
3891.0
 21
18030.3
 31
0.0
  0
LINE
  5
17C
330
4ED
100
AcDbEntity
  8
YKK_C1
100
AcDbLine
 10
3900.0
 20
17995.3
 30
0.0
 11
3900.0
 21
18030.3
 31
0.0
  0
LINE
  5
17D
330
4ED
100
AcDbEntity
  8
YKK_C1
100
AcDbLine
 10
3854.0
 20
17995.3
 30
0.0
 11
3854.0
 21
17965.3
 31
0.0
  0
LINE
  5
17E
330
4ED
100
AcDbEntity
  8
YKK_C1
100
AcDbLine
 10
3900.0
 20
17995.3
 30
0.0
 11
3800.0
 21
17995.3
 31
0.0
  0
LINE
  5
17F
330
4ED
100
AcDbEntity
  8
YKK_Z1
  6
Continuous
100
AcDbLine
 10
3998.0
 20
18035.3
 30
0.0
 11
4010.0
 21
18035.3
 31
0.0
  0
LINE
  5
180
330
4ED
100
AcDbEntity
  8
YKK_Z1
  6
Continuous
100
AcDbLine
 10
3998.0
 20
18395.3
 30
0.0
 11
3998.0
 21
18035.3
 31
0.0
  0
LINE
  5
181
330
4ED
100
AcDbEntity
  8
YKK_Z1
  6
Continuous
100
AcDbLine
 10
4010.0
 20
18035.3
 30
0.0
 11
4010.0
 21
18395.3
 31
0.0
  0
LINE
  5
182
330
4ED
100
AcDbEntity
  8
YKK_Z1
  6
Continuous
100
AcDbLine
 10
4020.0
 20
18013.87864265
 30
0.0
 11
4016.42135549
 21
18010.3
 31
0.0
  0
LINE
  5
183
330
4ED
100
AcDbEntity
  8
YKK_Z1
  6
Continuous
100
AcDbLine
 10
4013.13709479
 20
18035.3
 30
0.0
 11
3988.1370818
 21
18010.3
 31
0.0
  0
LINE
  5
184
330
4ED
100
AcDbEntity
  8
YKK_Z1
  6
Continuous
100
AcDbLine
 10
4020.0
 20
18010.3
 30
0.0
 11
4020.0
 21
18035.3
 31
0.0
  0
LINE
  5
185
330
4ED
100
AcDbEntity
  8
YKK_Z1
  6
Continuous
100
AcDbLine
 10
3980.0
 20
18395.3
 30
0.0
 11
3980.0
 21
18080.3
 31
0.0
  0
LINE
  5
186
330
4ED
100
AcDbEntity
  8
YKK_N1
  6
ByBlock
100
AcDbLine
 10
4350.0
 20
17908.69745962
 30
0.0
 11
4300.0
 21
17995.3
 31
0.0
  0
LINE
  5
187
330
4ED
100
AcDbEntity
  8
YKK_N1
  6
ByBlock
100
AcDbLine
 10
4300.0
 20
17995.3
 30
0.0
 11
4300.0
 21
17895.3
 31
0.0
  0
LINE
  5
188
330
4ED
100
AcDbEntity
  8
YKK_N1
100
AcDbLine
 10
7370.0
 20
17125.3
 30
0.0
 11
7370.0
 21
16515.3
 31
0.0
  0
LINE
  5
189
330
4ED
100
AcDbEntity
  8
YKK_N1
100
AcDbLine
 10
9000.0
 20
16496.3
 30
0.0
 11
9000.0
 21
17994.3
 31
0.0
  0
LINE
  5
18A
330
4ED
100
AcDbEntity
  8
YKK_A1
100
AcDbLine
 10
7645.0
 20
17995.3
 30
0.0
 11
7645.0
 21
16495.3
 31
0.0
  0
LINE
  5
18B
330
4ED
100
AcDbEntity
  8
YKK_A1
100
AcDbLine
 10
8570.0
 20
16495.3
 30
0.0
 11
8570.0
 21
17995.3
 31
0.0
  0
LINE
  5
18C
330
4ED
100
AcDbEntity
  8
YKK_A1
100
AcDbLine
 10
7615.0
 20
17995.3
 30
0.0
 11
7615.0
 21
16495.3
 31
0.0
  0
LINE
  5
18D
330
4ED
100
AcDbEntity
  8
YKK_A1
100
AcDbLine
 10
8600.0
 20
16495.3
 30
0.0
 11
8600.0
 21
17995.3
 31
0.0
  0
LINE
  5
18E
330
4ED
100
AcDbEntity
  8
YKK_A1
100
AcDbLine
 10
7585.0
 20
17995.3
 30
0.0
 11
7585.0
 21
16495.3
 31
0.0
  0
LINE
  5
18F
330
4ED
100
AcDbEntity
  8
YKK_A1
100
AcDbLine
 10
7615.0
 20
16495.3
 30
0.0
 11
7615.0
 21
17995.3
 31
0.0
  0
LINE
  5
190
330
4ED
100
AcDbEntity
  8
YKK_A1
  6
CENTER
100
AcDbLine
 10
7092.5
 20
17230.3
 30
0.0
 11
6630.0
 21
16495.3
 31
0.0
  0
LINE
  5
191
330
4ED
100
AcDbEntity
  8
YKK_A1
  6
CENTER
100
AcDbLine
 10
6630.0
 20
17965.3
 30
0.0
 11
7555.0
 21
16495.3
 31
0.0
  0
LINE
  5
192
330
4ED
100
AcDbEntity
  8
YKK_A1
100
AcDbLine
 10
6680.0
 20
17915.3
 30
0.0
 11
6680.0
 21
16540.3
 31
0.0
  0
LINE
  5
193
330
4ED
100
AcDbEntity
  8
YKK_A1
100
AcDbLine
 10
7505.0
 20
16540.3
 30
0.0
 11
7505.0
 21
17915.3
 31
0.0
  0
LINE
  5
194
330
4ED
100
AcDbEntity
  8
YKK_A1
100
AcDbLine
 10
6630.0
 20
17965.3
 30
0.0
 11
6630.0
 21
16495.3
 31
0.0
  0
LINE
  5
195
330
4ED
100
AcDbEntity
  8
YKK_A1
100
AcDbLine
 10
7555.0
 20
16495.3
 30
0.0
 11
7555.0
 21
17965.3
 31
0.0
  0
LINE
  5
196
330
4ED
100
AcDbEntity
  8
YKK_A1
100
AcDbLine
 10
6600.0
 20
17995.3
 30
0.0
 11
6600.0
 21
16495.3
 31
0.0
  0
LINE
  5
197
330
4ED
100
AcDbEntity
  8
YKK_A1
100
AcDbLine
 10
7585.0
 20
16495.3
 30
0.0
 11
7585.0
 21
17995.3
 31
0.0
  0
LINE
  5
198
330
4ED
100
AcDbEntity
  8
YKK_A1
100
AcDbLine
 10
6585.0
 20
18010.3
 30
0.0
 11
6585.0
 21
16495.3
 31
0.0
  0
LINE
  5
199
330
4ED
100
AcDbEntity
  8
YKK_A1
100
AcDbLine
 10
8615.0
 20
16495.3
 30
0.0
 11
8615.0
 21
18010.3
 31
0.0
  0
TEXT
  5
19A
330
4ED
100
AcDbEntity
  8
YKK_N1
100
AcDbText
 10
7452.57142857
 20
13264.66807879
 30
0.0
 40
60.0
  1
W=2000
 41
0.8
100
AcDbText
1001
ACAD
1000
MTEXTBEGIN
1070
    73
1070
     1
1070
    44
1040
1.0
1070
    74
1070
     0
1000
MTEXTEND
  0
TEXT
  5
19B
330
4ED
100
AcDbEntity
  8
YKK_N1
100
AcDbText
 10
7452.57142857
 20
15905.3
 30
0.0
 40
60.0
  1
W=2000
 41
0.8
100
AcDbText
1001
ACAD
1000
MTEXTBEGIN
1070
    73
1070
     1
1070
    44
1040
1.0
1070
    74
1070
     0
1000
MTEXTEND
  0
LINE
  5
19C
330
4ED
100
AcDbEntity
  8
YKK_N1
100
AcDbLine
 10
7615.0
 20
16095.3
 30
0.0
 11
7635.0
 21
16095.3
 31
0.0
  0
CIRCLE
  5
19D
330
4ED
100
AcDbEntity
  8
YKK_N1
100
AcDbCircle
 10
7615.0
 20
16095.3
 30
0.0
 40
6.5
  0
CIRCLE
  5
19E
330
4ED
100
AcDbEntity
  8
YKK_N1
100
AcDbCircle
 10
7615.0
 20
16095.3
 30
0.0
 40
10.0
  0
TEXT
  5
19F
330
4ED
100
AcDbEntity
  8
YKK_N1
100
AcDbText
 10
7554.28571429
 20
15997.8
 30
0.0
 40
60.0
  1
30
 41
0.8
100
AcDbText
1001
ACAD
1000
MTEXTBEGIN
1070
    73
1070
     1
1070
    44
1040
1.0
1070
    74
1070
     0
1000
MTEXTEND
  0
LINE
  5
1A0
330
4ED
100
AcDbEntity
  8
YKK_N1
100
AcDbLine
 10
7615.0
 20
16095.3
 30
0.0
 11
7635.0
 21
16095.3
 31
0.0
  0
CIRCLE
  5
1A1
330
4ED
100
AcDbEntity
  8
YKK_N1
100
AcDbCircle
 10
7615.0
 20
16095.3
 30
0.0
 40
6.5
  0
CIRCLE
  5
1A2
330
4ED
100
AcDbEntity
  8
YKK_N1
100
AcDbCircle
 10
7615.0
 20
16095.3
 30
0.0
 40
10.0
  0
LINE
  5
1A3
330
4ED
100
AcDbEntity
  8
YKK_N1
100
AcDbLine
 10
6601.0
 20
15895.3
 30
0.0
 11
8599.0
 21
15895.3
 31
0.0
  0
LINE
  5
1A4
330
4ED
100
AcDbEntity
  8
YKK_N1
100
AcDbLine
 10
6601.0
 20
13254.66807879
 30
0.0
 11
8599.0
 21
13254.66807879
 31
0.0
  0
LINE
  5
1A5
330
4ED
100
AcDbEntity
  8
YKK_B1
100
AcDbLine
 10
7585.0
 20
13754.66807879
 30
0.0
 11
7645.0
 21
13754.66807879
 31
0.0
  0
LINE
  5
1A6
330
4ED
100
AcDbEntity
  8
YKK_B1
100
AcDbLine
 10
7585.0
 20
13754.66807879
 30
0.0
 11
7645.0
 21
13754.66807879
 31
0.0
  0
LINE
  5
1A7
330
4ED
100
AcDbEntity
  8
YKK_B1
100
AcDbLine
 10
7585.0
 20
13700.66807879
 30
0.0
 11
7645.0
 21
13700.66807879
 31
0.0
  0
ARC
  5
1A8
330
4ED
100
AcDbEntity
  8
YKK_B1
  6
PHANTOM
100
AcDbCircle
 10
6605.07271843
 20
13766.57587642
 30
0.0
 40
975.0
100
AcDbArc
 50
359.30022204
 51
81.03617764
  0
LINE
  5
1A9
330
4ED
100
AcDbEntity
  8
YKK_A1
100
AcDbLine
 10
7615.0
 20
16495.3
 30
0.0
 11
8600.0
 21
16495.3
 31
0.0
  0
LINE
  5
1AA
330
4ED
100
AcDbEntity
  8
YKK_A1
100
AcDbLine
 10
6585.0
 20
16495.3
 30
0.0
 11
8615.0
 21
16495.3
 31
0.0
  0
LINE
  5
1AB
330
4ED
100
AcDbEntity
  8
YKK_Z1
  6
Continuous
100
AcDbLine
 10
6200.0
 20
13556.66807879
 30
0.0
 11
6560.0
 21
13556.66807879
 31
0.0
  0
LINE
  5
1AC
330
4ED
100
AcDbEntity
  8
YKK_Z1
  6
Continuous
100
AcDbLine
 10
6560.0
 20
13544.66807879
 30
0.0
 11
6200.0
 21
13544.66807879
 31
0.0
  0
LINE
  5
1AD
330
4ED
100
AcDbEntity
  8
YKK_Z1
  6
HIDDEN
100
AcDbLine
 10
6550.0
 20
13724.66807879
 30
0.0
 11
6200.0
 21
13724.66807879
 31
0.0
  0
LINE
  5
1AE
330
4ED
100
AcDbEntity
  8
YKK_Z1
  6
CENTER
100
AcDbLine
 10
6562.5
 20
13649.66807879
 30
0.0
 11
6200.0
 21
13649.66807879
 31
0.0
  0
LINE
  5
1AF
330
4ED
100
AcDbEntity
  8
YKK_Z1
  6
Continuous
100
AcDbLine
 10
6550.0
 20
13627.68338684
 30
0.0
 11
6496.9847195
 21
13574.66807879
 31
0.0
  0
LINE
  5
1B0
330
4ED
100
AcDbEntity
  8
YKK_Z1
  6
Continuous
100
AcDbLine
 10
6550.0
 20
13744.66807879
 30
0.0
 11
6200.0
 21
13744.66807879
 31
0.0
  0
LINE
  5
1B1
330
4ED
100
AcDbEntity
  8
YKK_Z1
  6
Continuous
100
AcDbLine
 10
6200.0
 20
13574.66807879
 30
0.0
 11
6550.0
 21
13574.66807879
 31
0.0
  0
LINE
  5
1B2
330
4ED
100
AcDbEntity
  8
YKK_Z1
  6
Continuous
100
AcDbLine
 10
6378.48518937
 20
13744.66807879
 30
0.0
 11
6208.4852777
 21
13574.66807879
 31
0.0
  0
LINE
  5
1B3
330
4ED
100
AcDbEntity
  8
YKK_Z1
  6
Continuous
100
AcDbLine
 10
6369.99991167
 20
13744.66807879
 30
0.0
 11
6200.0
 21
13574.66807879
 31
0.0
  0
LINE
  5
1B4
330
4ED
100
AcDbEntity
  8
YKK_Z1
  6
Continuous
100
AcDbLine
 10
6398.28417067
 20
13744.66807879
 30
0.0
 11
6228.284259
 21
13574.66807879
 31
0.0
  0
LINE
  5
1B5
330
4ED
100
AcDbEntity
  8
YKK_B1
  6
PHANTOM
100
AcDbLine
 10
6757.0
 20
13754.66807879
 30
0.0
 11
6756.98823745
 21
14729.66812282
 31
0.0
  0
LINE
  5
1B6
330
4ED
100
AcDbEntity
  8
YKK_B1
100
AcDbLine
 10
6620.0
 20
13754.66807879
 30
0.0
 11
7565.0
 21
13754.66807879
 31
0.0
  0
LINE
  5
1B7
330
4ED
100
AcDbEntity
  8
YKK_B1
100
AcDbLine
 10
6620.0
 20
13654.66807879
 30
0.0
 11
7565.0
 21
13654.66807879
 31
0.0
  0
LINE
  5
1B8
330
4ED
100
AcDbEntity
  8
YKK_B1
100
AcDbLine
 10
6672.0
 20
13726.66807879
 30
0.0
 11
7513.0
 21
13726.66807879
 31
0.0
  0
LINE
  5
1B9
330
4ED
100
AcDbEntity
  8
YKK_B1
100
AcDbLine
 10
6672.0
 20
13740.66807879
 30
0.0
 11
7513.0
 21
13740.66807879
 31
0.0
  0
TEXT
  5
1BA
330
4ED
100
AcDbEntity
  8
YKK_N1
100
AcDbText
 10
6872.0
 20
13374.3823645
 30
0.0
 40
60.0
  1
120
 50
90.0
 41
0.8
100
AcDbText
  0
LINE
  5
1BB
330
4ED
100
AcDbEntity
  8
YKK_N1
100
AcDbLine
 10
6600.0
 20
13594.66807879
 30
0.0
 11
6600.0
 21
13224.66807879
 31
0.0
  0
LINE
  5
1BC
330
4ED
100
AcDbEntity
  8
YKK_N1
  6
Continuous
100
AcDbLine
 10
6882.0
 20
13534.66807879
 30
0.0
 11
6882.0
 21
13378.09665022
 31
0.0
  0
LINE
  5
1BD
330
4ED
100
AcDbEntity
  8
YKK_N1
  6
ByBlock
100
AcDbLine
 10
6686.60254038
 20
13304.66807879
 30
0.0
 11
6600.0
 21
13254.66807879
 31
0.0
  0
LINE
  5
1BE
330
4ED
100
AcDbEntity
  8
YKK_N1
  6
ByBlock
100
AcDbLine
 10
6686.60254038
 20
13204.66807879
 30
0.0
 11
6686.60254038
 21
13304.66807879
 31
0.0
  0
LINE
  5
1BF
330
4ED
100
AcDbEntity
  8
YKK_N1
  6
ByBlock
100
AcDbLine
 10
6600.0
 20
13254.66807879
 30
0.0
 11
6686.60254038
 21
13204.66807879
 31
0.0
  0
LINE
  5
1C0
330
4ED
100
AcDbEntity
  8
YKK_N1
  6
ByBlock
100
AcDbLine
 10
6600.0
 20
13254.66807879
 30
0.0
 11
6700.0
 21
13254.66807879
 31
0.0
  0
TEXT
  5
1C1
330
4ED
100
AcDbEntity
  8
YKK_N1
100
AcDbText
 10
6837.0
 20
13632.66807879
 30
0.0
 40
60.0
  1
100
 50
90.0
 41
0.8
100
AcDbText
1001
ACAD
1000
MTEXTBEGIN
1070
    73
1070
     1
1070
    44
1040
1.0
1070
    74
1070
     0
1000
MTEXTEND
  0
LINE
  5
1C2
330
4ED
100
AcDbEntity
  8
YKK_N1
  6
Continuous
100
AcDbLine
 10
6645.0
 20
13534.66807879
 30
0.0
 11
6912.0
 21
13534.66807879
 31
0.0
  0
LINE
  5
1C3
330
4ED
100
AcDbEntity
  8
YKK_Z1
  6
Continuous
100
AcDbLine
 10
6585.0
 20
13534.66807879
 30
0.0
 11
7017.5
 21
13534.66807879
 31
0.0
  0
LINE
  5
1C4
330
4ED
100
AcDbEntity
  8
YKK_Z1
  6
Continuous
100
AcDbLine
 10
6560.0
 20
13556.66807879
 30
0.0
 11
6560.0
 21
13544.66807879
 31
0.0
  0
LINE
  5
1C5
330
4ED
100
AcDbEntity
  8
YKK_Z1
  6
Continuous
100
AcDbLine
 10
6570.0
 20
13744.66807879
 30
0.0
 11
6550.0
 21
13744.66807879
 31
0.0
  0
LINE
  5
1C6
330
4ED
100
AcDbEntity
  8
YKK_Z1
  6
Continuous
100
AcDbLine
 10
6581.42135735
 20
13534.66807879
 30
0.0
 11
6585.0
 21
13538.24672329
 31
0.0
  0
LINE
  5
1C7
330
4ED
100
AcDbEntity
  8
YKK_Z1
  6
Continuous
100
AcDbLine
 10
6560.0
 20
13541.530984
 30
0.0
 11
6585.0
 21
13566.53099699
 31
0.0
  0
LINE
  5
1C8
330
4ED
100
AcDbEntity
  8
YKK_Z1
  6
Continuous
100
AcDbLine
 10
6560.0
 20
13569.8152577
 30
0.0
 11
6585.0
 21
13594.81527069
 31
0.0
  0
LINE
  5
1C9
330
4ED
100
AcDbEntity
  8
YKK_Z1
  6
Continuous
100
AcDbLine
 10
6560.0
 20
13598.09953139
 30
0.0
 11
6585.0
 21
13623.09954439
 31
0.0
  0
LINE
  5
1CA
330
4ED
100
AcDbEntity
  8
YKK_Z1
  6
Continuous
100
AcDbLine
 10
6560.0
 20
13626.38380509
 30
0.0
 11
6585.0
 21
13651.38381808
 31
0.0
  0
LINE
  5
1CC
330
4ED
100
AcDbEntity
  8
YKK_Z1
  6
Continuous
100
AcDbLine
 10
6560.0
 20
13654.66807879
 30
0.0
 11
6585.0
 21
13654.66807879
 31
0.0
  0
LINE
  5
1CD
330
4ED
100
AcDbEntity
  8
YKK_Z1
  6
Continuous
100
AcDbLine
 10
6560.0
 20
13534.66807879
 30
0.0
 11
6560.0
 21
13654.66807879
 31
0.0
  0
LINE
  5
1CE
330
4ED
100
AcDbEntity
  8
YKK_Z1
  6
Continuous
100
AcDbLine
 10
6585.0
 20
13534.66807879
 30
0.0
 11
6560.0
 21
13534.66807879
 31
0.0
  0
LINE
  5
1CF
330
4ED
100
AcDbEntity
  8
YKK_Z1
  6
Continuous
100
AcDbLine
 10
6585.0
 20
13654.66807879
 30
0.0
 11
6585.0
 21
13534.66807879
 31
0.0
  0
LINE
  5
1D0
330
4ED
100
AcDbEntity
  8
YKK_Z1
  6
Continuous
100
AcDbLine
 10
6550.0
 20
13599.39911314
 30
0.0
 11
6525.2689785
 21
13574.66807879
 31
0.0
  0
LINE
  5
1D1
330
4ED
100
AcDbEntity
  8
YKK_Z1
  6
Continuous
100
AcDbLine
 10
6550.0
 20
13619.19810473
 30
0.0
 11
6505.4699972
 21
13574.66807879
 31
0.0
  0
LINE
  5
1D2
330
4ED
100
AcDbEntity
  8
YKK_Z1
  6
Continuous
100
AcDbLine
 10
6550.0
 20
13574.66807879
 30
0.0
 11
6550.0
 21
13744.66807879
 31
0.0
  0
LINE
  5
1D3
330
4ED
100
AcDbEntity
  8
YKK_B1
100
AcDbLine
 10
6680.0
 20
13712.66807879
 30
0.0
 11
6664.0
 21
13712.66807879
 31
0.0
  0
LINE
  5
1D4
330
4ED
100
AcDbEntity
  8
YKK_B1
100
AcDbLine
 10
6680.0
 20
13704.66807879
 30
0.0
 11
6680.0
 21
13712.66807879
 31
0.0
  0
LINE
  5
1D5
330
4ED
100
AcDbEntity
  8
YKK_B1
100
AcDbLine
 10
6664.0
 20
13754.66807879
 30
0.0
 11
6664.0
 21
13704.66807879
 31
0.0
  0
LINE
  5
1D6
330
4ED
100
AcDbEntity
  8
YKK_B1
100
AcDbLine
 10
6680.0
 20
13754.66807879
 30
0.0
 11
6605.0
 21
13754.66807879
 31
0.0
  0
LINE
  5
1D7
330
4ED
100
AcDbEntity
  8
YKK_B1
100
AcDbLine
 10
6625.0
 20
13704.66807879
 30
0.0
 11
6625.0
 21
13754.66807879
 31
0.0
  0
LINE
  5
1D8
330
4ED
100
AcDbEntity
  8
YKK_B1
100
AcDbLine
 10
6680.0
 20
13704.66807879
 30
0.0
 11
6625.0
 21
13704.66807879
 31
0.0
  0
LINE
  5
1D9
330
4ED
100
AcDbEntity
  8
YKK_B1
100
AcDbLine
 10
6575.0
 20
13699.66807879
 30
0.0
 11
6575.0
 21
13692.66807879
 31
0.0
  0
LINE
  5
1DA
330
4ED
100
AcDbEntity
  8
YKK_B1
100
AcDbLine
 10
6570.0
 20
13699.66807879
 30
0.0
 11
6600.0
 21
13699.66807879
 31
0.0
  0
LINE
  5
1DB
330
4ED
100
AcDbEntity
  8
YKK_B1
100
AcDbLine
 10
6570.0
 20
13754.66807879
 30
0.0
 11
6570.0
 21
13699.66807879
 31
0.0
  0
LINE
  5
1DC
330
4ED
100
AcDbEntity
  8
YKK_B1
100
AcDbLine
 10
6600.0
 20
13754.66807879
 30
0.0
 11
6570.0
 21
13754.66807879
 31
0.0
  0
LINE
  5
1DD
330
4ED
100
AcDbEntity
  8
YKK_B1
100
AcDbLine
 10
6575.0
 20
13654.66807879
 30
0.0
 11
6575.0
 21
13661.66807879
 31
0.0
  0
LINE
  5
1DE
330
4ED
100
AcDbEntity
  8
YKK_B1
100
AcDbLine
 10
6600.0
 20
13654.66807879
 30
0.0
 11
6575.0
 21
13654.66807879
 31
0.0
  0
LINE
  5
1DF
330
4ED
100
AcDbEntity
  8
YKK_B1
100
AcDbLine
 10
6600.0
 20
13700.66807879
 30
0.0
 11
6630.0
 21
13700.66807879
 31
0.0
  0
LINE
  5
1E0
330
4ED
100
AcDbEntity
  8
YKK_B1
100
AcDbLine
 10
6600.0
 20
13654.66807879
 30
0.0
 11
6600.0
 21
13754.66807879
 31
0.0
  0
LINE
  5
1E1
330
4ED
100
AcDbEntity
  8
YKK_N1
100
AcDbLine
 10
6882.0
 20
13654.66807879
 30
0.0
 11
6882.0
 21
13634.66807879
 31
0.0
  0
CIRCLE
  5
1E2
330
4ED
100
AcDbEntity
  8
YKK_N1
100
AcDbCircle
 10
6882.0
 20
13654.66807879
 30
0.0
 40
6.5
  0
CIRCLE
  5
1E3
330
4ED
100
AcDbEntity
  8
YKK_N1
100
AcDbCircle
 10
6882.0
 20
13654.66807879
 30
0.0
 40
10.0
  0
LINE
  5
1E4
330
4ED
100
AcDbEntity
  8
YKK_N1
100
AcDbLine
 10
6882.0
 20
13534.66807879
 30
0.0
 11
6882.0
 21
13554.66807879
 31
0.0
  0
CIRCLE
  5
1E5
330
4ED
100
AcDbEntity
  8
YKK_N1
100
AcDbCircle
 10
6882.0
 20
13534.66807879
 30
0.0
 40
6.5
  0
CIRCLE
  5
1E6
330
4ED
100
AcDbEntity
  8
YKK_N1
100
AcDbCircle
 10
6882.0
 20
13534.66807879
 30
0.0
 40
10.0
  0
LINE
  5
1E7
330
4ED
100
AcDbEntity
  8
YKK_N1
100
AcDbLine
 10
6882.0
 20
13654.66807879
 30
0.0
 11
6882.0
 21
13674.66807879
 31
0.0
  0
CIRCLE
  5
1E8
330
4ED
100
AcDbEntity
  8
YKK_N1
100
AcDbCircle
 10
6882.0
 20
13654.66807879
 30
0.0
 40
6.5
  0
CIRCLE
  5
1E9
330
4ED
100
AcDbEntity
  8
YKK_N1
100
AcDbCircle
 10
6882.0
 20
13654.66807879
 30
0.0
 40
10.0
  0
LINE
  5
1EA
330
4ED
100
AcDbEntity
  8
YKK_N1
100
AcDbLine
 10
6882.0
 20
13754.66807879
 30
0.0
 11
6882.0
 21
13734.66807879
 31
0.0
  0
CIRCLE
  5
1EB
330
4ED
100
AcDbEntity
  8
YKK_N1
100
AcDbCircle
 10
6882.0
 20
13754.66807879
 30
0.0
 40
6.5
  0
CIRCLE
  5
1EC
330
4ED
100
AcDbEntity
  8
YKK_N1
100
AcDbCircle
 10
6882.0
 20
13754.66807879
 30
0.0
 40
10.0
  0
LINE
  5
1ED
330
4ED
100
AcDbEntity
  8
YKK_N1
100
AcDbLine
 10
6882.0
 20
13674.66807879
 30
0.0
 11
6882.0
 21
13734.66807879
 31
0.0
  0
LINE
  5
1EE
330
4ED
100
AcDbEntity
  8
YKK_N1
100
AcDbLine
 10
6832.0
 20
13754.66807879
 30
0.0
 11
6852.0
 21
13754.66807879
 31
0.0
  0
LINE
  5
1EF
330
4ED
100
AcDbEntity
  8
YKK_N1
100
AcDbLine
 10
6832.0
 20
13654.66807879
 30
0.0
 11
6852.0
 21
13654.66807879
 31
0.0
  0
LINE
  5
1F0
330
4ED
100
AcDbEntity
  8
YKK_N1
  6
Continuous
100
AcDbLine
 10
6882.0
 20
13634.66807879
 30
0.0
 11
6882.0
 21
13554.66807879
 31
0.0
  0
LINE
  5
1F1
330
4ED
100
AcDbEntity
  8
YKK_N1
  6
Continuous
100
AcDbLine
 10
6822.0
 20
13654.66807879
 30
0.0
 11
6852.0
 21
13654.66807879
 31
0.0
  0
LINE
  5
1F2
330
4ED
100
AcDbEntity
  8
YKK_B1
100
AcDbLine
 10
7585.0
 20
13754.66807879
 30
0.0
 11
7585.0
 21
13654.66807879
 31
0.0
  0
LINE
  5
1F3
330
4ED
100
AcDbEntity
  8
YKK_B1
100
AcDbLine
 10
7585.0
 20
13654.66807879
 30
0.0
 11
7615.0
 21
13654.66807879
 31
0.0
  0
LINE
  5
1F4
330
4ED
100
AcDbEntity
  8
YKK_B1
100
AcDbLine
 10
7615.0
 20
13654.66807879
 30
0.0
 11
7615.0
 21
13700.66807879
 31
0.0
  0
LINE
  5
1F5
330
4ED
100
AcDbEntity
  8
YKK_B1
100
AcDbLine
 10
7585.0
 20
13700.66807879
 30
0.0
 11
7555.0
 21
13700.66807879
 31
0.0
  0
LINE
  5
1F6
330
4ED
100
AcDbEntity
  8
YKK_B1
100
AcDbLine
 10
7505.0
 20
13712.66807879
 30
0.0
 11
7521.0
 21
13712.66807879
 31
0.0
  0
LINE
  5
1F7
330
4ED
100
AcDbEntity
  8
YKK_B1
100
AcDbLine
 10
7505.0
 20
13704.66807879
 30
0.0
 11
7505.0
 21
13712.66807879
 31
0.0
  0
LINE
  5
1F8
330
4ED
100
AcDbEntity
  8
YKK_B1
100
AcDbLine
 10
7521.0
 20
13754.66807879
 30
0.0
 11
7521.0
 21
13704.66807879
 31
0.0
  0
LINE
  5
1F9
330
4ED
100
AcDbEntity
  8
YKK_B1
100
AcDbLine
 10
7505.0
 20
13754.66807879
 30
0.0
 11
7580.0
 21
13754.66807879
 31
0.0
  0
LINE
  5
1FA
330
4ED
100
AcDbEntity
  8
YKK_B1
100
AcDbLine
 10
7560.0
 20
13704.66807879
 30
0.0
 11
7560.0
 21
13754.66807879
 31
0.0
  0
LINE
  5
1FB
330
4ED
100
AcDbEntity
  8
YKK_B1
100
AcDbLine
 10
7505.0
 20
13704.66807879
 30
0.0
 11
7560.0
 21
13704.66807879
 31
0.0
  0
LINE
  5
1FC
330
4ED
100
AcDbEntity
  8
YKK_N1
  6
ByBlock
100
AcDbLine
 10
6686.60254038
 20
15945.3
 30
0.0
 11
6600.0
 21
15895.3
 31
0.0
  0
LINE
  5
1FD
330
4ED
100
AcDbEntity
  8
YKK_N1
  6
ByBlock
100
AcDbLine
 10
6686.60254038
 20
15845.3
 30
0.0
 11
6686.60254038
 21
15945.3
 31
0.0
  0
LINE
  5
1FE
330
4ED
100
AcDbEntity
  8
YKK_N1
100
AcDbLine
 10
6600.0
 20
16435.3
 30
0.0
 11
6600.0
 21
15865.3
 31
0.0
  0
LINE
  5
1FF
330
4ED
100
AcDbEntity
  8
YKK_N1
  6
ByBlock
100
AcDbLine
 10
6600.0
 20
15895.3
 30
0.0
 11
6686.60254038
 21
15845.3
 31
0.0
  0
LINE
  5
200
330
4ED
100
AcDbEntity
  8
YKK_N1
  6
ByBlock
100
AcDbLine
 10
6600.0
 20
15895.3
 30
0.0
 11
6700.0
 21
15895.3
 31
0.0
  0
TEXT
  5
201
330
4ED
100
AcDbEntity
  8
YKK_N1
100
AcDbText
 10
7023.92857143
 20
16105.3
 30
0.0
 40
60.0
  1
985
 41
0.8
100
AcDbText
1001
ACAD
1000
MTEXTBEGIN
1070
    73
1070
     1
1070
    44
1040
1.0
1070
    74
1070
     0
1000
MTEXTEND
  0
LINE
  5
202
330
4ED
100
AcDbEntity
  8
YKK_N1
100
AcDbLine
 10
6620.0
 20
16095.3
 30
0.0
 11
7565.0
 21
16095.3
 31
0.0
  0
TEXT
  5
203
330
4ED
100
AcDbEntity
  8
YKK_A1
100
AcDbText
 10
6854.2
 20
16570.3
 30
0.0
 40
60.0
  1
複層ガラス 5+A12+5
 41
0.8
 72
     2
 11
7475.0
 21
16570.3
 31
0.0
100
AcDbText
  0
LINE
  5
204
330
4ED
100
AcDbEntity
  8
YKK_A1
100
AcDbLine
 10
6680.0
 20
16540.3
 30
0.0
 11
7505.0
 21
16540.3
 31
0.0
  0
LINE
  5
205
330
4ED
100
AcDbEntity
  8
YKK_A1
100
AcDbLine
 10
6630.0
 20
16495.3
 30
0.0
 11
7555.0
 21
16495.3
 31
0.0
  0
LINE
  5
206
330
4ED
100
AcDbEntity
  8
YKK_A1
100
AcDbLine
 10
6600.0
 20
16495.3
 30
0.0
 11
7585.0
 21
16495.3
 31
0.0
  0
LINE
  5
207
330
4ED
100
AcDbEntity
  8
YKK_N1
100
AcDbLine
 10
6600.0
 20
16095.3
 30
0.0
 11
6620.0
 21
16095.3
 31
0.0
  0
CIRCLE
  5
208
330
4ED
100
AcDbEntity
  8
YKK_N1
100
AcDbCircle
 10
6600.0
 20
16095.3
 30
0.0
 40
6.5
  0
CIRCLE
  5
209
330
4ED
100
AcDbEntity
  8
YKK_N1
100
AcDbCircle
 10
6600.0
 20
16095.3
 30
0.0
 40
10.0
  0
LINE
  5
20A
330
4ED
100
AcDbEntity
  8
YKK_N1
100
AcDbLine
 10
6600.0
 20
16435.3
 30
0.0
 11
6600.0
 21
16065.3
 31
0.0
  0
LINE
  5
20B
330
4ED
100
AcDbEntity
  8
YKK_N1
100
AcDbLine
 10
7585.0
 20
16095.3
 30
0.0
 11
7565.0
 21
16095.3
 31
0.0
  0
CIRCLE
  5
20C
330
4ED
100
AcDbEntity
  8
YKK_N1
100
AcDbCircle
 10
7585.0
 20
16095.3
 30
0.0
 40
6.5
  0
CIRCLE
  5
20D
330
4ED
100
AcDbEntity
  8
YKK_N1
100
AcDbCircle
 10
7585.0
 20
16095.3
 30
0.0
 40
10.0
  0
LINE
  5
20E
330
4ED
100
AcDbEntity
  8
YKK_N1
100
AcDbLine
 10
7585.0
 20
16095.3
 30
0.0
 11
7565.0
 21
16095.3
 31
0.0
  0
CIRCLE
  5
20F
330
4ED
100
AcDbEntity
  8
YKK_N1
100
AcDbCircle
 10
7585.0
 20
16095.3
 30
0.0
 40
6.5
  0
CIRCLE
  5
210
330
4ED
100
AcDbEntity
  8
YKK_N1
100
AcDbCircle
 10
7585.0
 20
16095.3
 30
0.0
 40
10.0
  0
LINE
  5
211
330
4ED
100
AcDbEntity
  8
YKK_N1
100
AcDbLine
 10
7585.0
 20
16435.3
 30
0.0
 11
7585.0
 21
16065.3
 31
0.0
  0
LINE
  5
212
330
4ED
100
AcDbEntity
  8
YKK_N1
100
AcDbLine
 10
7585.0
 20
16095.3
 30
0.0
 11
7615.0
 21
16095.3
 31
0.0
  0
LINE
  5
213
330
4ED
100
AcDbEntity
  8
YKK_N1
100
AcDbLine
 10
7565.0
 20
16095.3
 30
0.0
 11
7545.0
 21
16095.3
 31
0.0
  0
LINE
  5
214
330
4ED
100
AcDbEntity
  8
YKK_N1
100
AcDbLine
 10
7615.0
 20
16435.3
 30
0.0
 11
7615.0
 21
16065.3
 31
0.0
  0
LINE
  5
215
330
4ED
100
AcDbEntity
  8
YKK_N1
100
AcDbLine
 10
7585.0
 20
16435.3
 30
0.0
 11
7585.0
 21
16065.3
 31
0.0
  0
LINE
  5
216
330
4ED
100
AcDbEntity
  8
YKK_N1
100
AcDbLine
 10
7615.0
 20
16435.3
 30
0.0
 11
7615.0
 21
16065.3
 31
0.0
  0
TEXT
  5
217
330
4ED
100
AcDbEntity
  8
YKK_N1
100
AcDbText
 10
7360.0
 20
16750.58571429
 30
0.0
 40
60.0
  1
650
 50
90.0
 41
0.8
100
AcDbText
1001
ACAD
1000
MTEXTBEGIN
1070
    73
1070
     1
1070
    44
1040
1.0
1070
    74
1070
     0
1000
MTEXTEND
  0
LINE
  5
218
330
4ED
100
AcDbEntity
  8
YKK_N1
100
AcDbLine
 10
7310.0
 20
16495.3
 30
0.0
 11
7340.0
 21
16495.3
 31
0.0
  0
LINE
  5
219
330
4ED
100
AcDbEntity
  8
YKK_N1
100
AcDbLine
 10
7370.0
 20
16495.3
 30
0.0
 11
7370.0
 21
16515.3
 31
0.0
  0
CIRCLE
  5
21A
330
4ED
100
AcDbEntity
  8
YKK_N1
100
AcDbCircle
 10
7370.0
 20
16495.3
 30
0.0
 40
6.5
  0
CIRCLE
  5
21B
330
4ED
100
AcDbEntity
  8
YKK_N1
100
AcDbCircle
 10
7370.0
 20
16495.3
 30
0.0
 40
10.0
  0
LINE
  5
21C
330
4ED
100
AcDbEntity
  8
YKK_A1
100
AcDbLine
 10
7585.0
 20
16495.3
 30
0.0
 11
7615.0
 21
16495.3
 31
0.0
  0
LINE
  5
21D
330
4ED
100
AcDbEntity
  8
YKK_Z1
  6
Continuous
100
AcDbLine
 10
9000.0
 20
13556.66807879
 30
0.0
 11
8640.0
 21
13556.66807879
 31
0.0
  0
LINE
  5
21E
330
4ED
100
AcDbEntity
  8
YKK_Z1
  6
Continuous
100
AcDbLine
 10
8640.0
 20
13544.66807879
 30
0.0
 11
9000.0
 21
13544.66807879
 31
0.0
  0
LINE
  5
21F
330
4ED
100
AcDbEntity
  8
YKK_Z1
  6
HIDDEN
100
AcDbLine
 10
8650.0
 20
13724.66807879
 30
0.0
 11
9000.0
 21
13724.66807879
 31
0.0
  0
LINE
  5
220
330
4ED
100
AcDbEntity
  8
YKK_Z1
  6
CENTER
100
AcDbLine
 10
8637.5
 20
13649.66807879
 30
0.0
 11
9000.0
 21
13649.66807879
 31
0.0
  0
LINE
  5
221
330
4ED
100
AcDbEntity
  8
YKK_Z1
  6
Continuous
100
AcDbLine
 10
8731.29935334
 20
13574.66807879
 30
0.0
 11
8901.29938278
 21
13744.66807879
 31
0.0
  0
LINE
  5
222
330
4ED
100
AcDbEntity
  8
YKK_Z1
  6
Continuous
100
AcDbLine
 10
8711.50035832
 20
13574.66807879
 30
0.0
 11
8881.50038777
 21
13744.66807879
 31
0.0
  0
LINE
  5
223
330
4ED
100
AcDbEntity
  8
YKK_Z1
  6
Continuous
100
AcDbLine
 10
8703.01507474
 20
13574.66807879
 30
0.0
 11
8873.01510419
 21
13744.66807879
 31
0.0
  0
LINE
  5
224
330
4ED
100
AcDbEntity
  8
YKK_Z1
  6
Continuous
100
AcDbLine
 10
8650.0
 20
13744.66807879
 30
0.0
 11
9000.0
 21
13744.66807879
 31
0.0
  0
LINE
  5
225
330
4ED
100
AcDbEntity
  8
YKK_Z1
  6
Continuous
100
AcDbLine
 10
9000.0
 20
13574.66807879
 30
0.0
 11
8650.0
 21
13574.66807879
 31
0.0
  0
LINE
  5
226
330
4ED
100
AcDbEntity
  8
YKK_B1
100
AcDbLine
 10
7665.0
 20
13754.66807879
 30
0.0
 11
8550.0
 21
13754.66807879
 31
0.0
  0
LINE
  5
227
330
4ED
100
AcDbEntity
  8
YKK_B1
100
AcDbLine
 10
7635.0
 20
13654.66807879
 30
0.0
 11
8580.0
 21
13654.66807879
 31
0.0
  0
LINE
  5
228
330
4ED
100
AcDbEntity
  8
YKK_B1
100
AcDbLine
 10
7637.0
 20
13726.66807879
 30
0.0
 11
8578.0
 21
13726.66807879
 31
0.0
  0
LINE
  5
229
330
4ED
100
AcDbEntity
  8
YKK_B1
100
AcDbLine
 10
7637.0
 20
13740.66807879
 30
0.0
 11
8578.0
 21
13740.66807879
 31
0.0
  0
LINE
  5
22A
330
4ED
100
AcDbEntity
  8
YKK_B1
100
AcDbLine
 10
7645.0
 20
13700.66807879
 30
0.0
 11
7645.0
 21
13712.66807879
 31
0.0
  0
LINE
  5
22B
330
4ED
100
AcDbEntity
  8
YKK_N1
100
AcDbLine
 10
8600.0
 20
13594.66807879
 30
0.0
 11
8600.0
 21
13224.66807879
 31
0.0
  0
LINE
  5
22C
330
4ED
100
AcDbEntity
  8
YKK_N1
  6
ByBlock
100
AcDbLine
 10
8513.39745962
 20
13204.66807879
 30
0.0
 11
8600.0
 21
13254.66807879
 31
0.0
  0
LINE
  5
22D
330
4ED
100
AcDbEntity
  8
YKK_N1
  6
ByBlock
100
AcDbLine
 10
8513.39745962
 20
13304.66807879
 30
0.0
 11
8513.39745962
 21
13204.66807879
 31
0.0
  0
LINE
  5
22E
330
4ED
100
AcDbEntity
  8
YKK_N1
  6
ByBlock
100
AcDbLine
 10
8600.0
 20
13254.66807879
 30
0.0
 11
8513.39745962
 21
13304.66807879
 31
0.0
  0
LINE
  5
22F
330
4ED
100
AcDbEntity
  8
YKK_N1
  6
ByBlock
100
AcDbLine
 10
8600.0
 20
13254.66807879
 30
0.0
 11
8500.0
 21
13254.66807879
 31
0.0
  0
LINE
  5
230
330
4ED
100
AcDbEntity
  8
YKK_Z1
  6
Continuous
100
AcDbLine
 10
8615.0
 20
13534.66807879
 30
0.0
 11
8182.5
 21
13534.66807879
 31
0.0
  0
LINE
  5
231
330
4ED
100
AcDbEntity
  8
YKK_Z1
  6
Continuous
100
AcDbLine
 10
8640.0
 20
13556.66807879
 30
0.0
 11
8640.0
 21
13544.66807879
 31
0.0
  0
LINE
  5
232
330
4ED
100
AcDbEntity
  8
YKK_Z1
  6
Continuous
100
AcDbLine
 10
8630.0
 20
13744.66807879
 30
0.0
 11
8650.0
 21
13744.66807879
 31
0.0
  0
LINE
  5
233
330
4ED
100
AcDbEntity
  8
YKK_Z1
  6
Continuous
100
AcDbLine
 10
8640.0
 20
13541.530984
 30
0.0
 11
8633.1370936
 21
13534.66807879
 31
0.0
  0
LINE
  5
234
330
4ED
100
AcDbEntity
  8
YKK_Z1
  6
Continuous
100
AcDbLine
 10
8640.0
 20
13569.8152577
 30
0.0
 11
8615.0
 21
13544.81526203
 31
0.0
  0
LINE
  5
235
330
4ED
100
AcDbEntity
  8
YKK_Z1
  6
Continuous
100
AcDbLine
 10
8640.0
 20
13598.09953139
 30
0.0
 11
8615.0
 21
13573.09953572
 31
0.0
  0
LINE
  5
236
330
4ED
100
AcDbEntity
  8
YKK_Z1
  6
Continuous
100
AcDbLine
 10
8640.0
 20
13626.38380509
 30
0.0
 11
8615.0
 21
13601.38380942
 31
0.0
  0
LINE
  5
237
330
4ED
100
AcDbEntity
  8
YKK_Z1
  6
Continuous
100
AcDbLine
 10
8640.0
 20
13654.66807879
 30
0.0
 11
8615.0
 21
13629.66808312
 31
0.0
  0
LINE
  5
238
330
4ED
100
AcDbEntity
  8
YKK_Z1
  6
Continuous
100
AcDbLine
 10
8640.0
 20
13654.66807879
 30
0.0
 11
8615.0
 21
13654.66807879
 31
0.0
  0
LINE
  5
239
330
4ED
100
AcDbEntity
  8
YKK_Z1
  6
Continuous
100
AcDbLine
 10
8640.0
 20
13534.66807879
 30
0.0
 11
8640.0
 21
13654.66807879
 31
0.0
  0
LINE
  5
23A
330
4ED
100
AcDbEntity
  8
YKK_Z1
  6
Continuous
100
AcDbLine
 10
8615.0
 20
13534.66807879
 30
0.0
 11
8640.0
 21
13534.66807879
 31
0.0
  0
LINE
  5
23B
330
4ED
100
AcDbEntity
  8
YKK_Z1
  6
Continuous
100
AcDbLine
 10
8615.0
 20
13654.66807879
 30
0.0
 11
8615.0
 21
13534.66807879
 31
0.0
  0
LINE
  5
23C
330
4ED
100
AcDbEntity
  8
YKK_Z1
  6
Continuous
100
AcDbLine
 10
8650.0
 20
13574.66807879
 30
0.0
 11
8650.0
 21
13744.66807879
 31
0.0
  0
LINE
  5
23D
330
4ED
100
AcDbEntity
  8
YKK_B1
100
AcDbLine
 10
8600.0
 20
13754.66807879
 30
0.0
 11
8570.0
 21
13754.66807879
 31
0.0
  0
LINE
  5
23E
330
4ED
100
AcDbEntity
  8
YKK_B1
100
AcDbLine
 10
8570.0
 20
13693.66807879
 30
0.0
 11
8570.0
 21
13712.66807879
 31
0.0
  0
LINE
  5
23F
330
4ED
100
AcDbEntity
  8
YKK_B1
100
AcDbLine
 10
8630.0
 20
13754.66807879
 30
0.0
 11
8630.0
 21
13693.66807879
 31
0.0
  0
LINE
  5
240
330
4ED
100
AcDbEntity
  8
YKK_B1
100
AcDbLine
 10
8600.0
 20
13754.66807879
 30
0.0
 11
8630.0
 21
13754.66807879
 31
0.0
  0
LINE
  5
241
330
4ED
100
AcDbEntity
  8
YKK_B1
100
AcDbLine
 10
8625.0
 20
13693.66807879
 30
0.0
 11
8625.0
 21
13686.66807879
 31
0.0
  0
LINE
  5
242
330
4ED
100
AcDbEntity
  8
YKK_B1
100
AcDbLine
 10
8600.0
 20
13693.66807879
 30
0.0
 11
8630.0
 21
13693.66807879
 31
0.0
  0
LINE
  5
243
330
4ED
100
AcDbEntity
  8
YKK_B1
100
AcDbLine
 10
8625.0
 20
13654.66807879
 30
0.0
 11
8625.0
 21
13661.66807879
 31
0.0
  0
LINE
  5
244
330
4ED
100
AcDbEntity
  8
YKK_B1
100
AcDbLine
 10
8600.0
 20
13654.66807879
 30
0.0
 11
8625.0
 21
13654.66807879
 31
0.0
  0
LINE
  5
245
330
4ED
100
AcDbEntity
  8
YKK_B1
100
AcDbLine
 10
8600.0
 20
13693.66807879
 30
0.0
 11
8570.0
 21
13693.66807879
 31
0.0
  0
LINE
  5
246
330
4ED
100
AcDbEntity
  8
YKK_B1
100
AcDbLine
 10
8600.0
 20
13654.66807879
 30
0.0
 11
8600.0
 21
13693.66807879
 31
0.0
  0
LINE
  5
248
330
4ED
100
AcDbEntity
  8
YKK_N1
100
AcDbLine
 10
8660.0
 20
16495.3
 30
0.0
 11
9030.0
 21
16495.3
 31
0.0
  0
LINE
  5
249
330
4ED
100
AcDbEntity
  8
YKK_N1
  6
ByBlock
100
AcDbLine
 10
8513.39745962
 20
15945.3
 30
0.0
 11
8513.39745962
 21
15845.3
 31
0.0
  0
LINE
  5
24A
330
4ED
100
AcDbEntity
  8
YKK_N1
  6
ByBlock
100
AcDbLine
 10
8600.0
 20
15895.3
 30
0.0
 11
8513.39745962
 21
15945.3
 31
0.0
  0
LINE
  5
24B
330
4ED
100
AcDbEntity
  8
YKK_N1
100
AcDbLine
 10
8600.0
 20
16435.3
 30
0.0
 11
8600.0
 21
15865.3
 31
0.0
  0
LINE
  5
24C
330
4ED
100
AcDbEntity
  8
YKK_N1
  6
ByBlock
100
AcDbLine
 10
8513.39745962
 20
15845.3
 30
0.0
 11
8600.0
 21
15895.3
 31
0.0
  0
LINE
  5
24D
330
4ED
100
AcDbEntity
  8
YKK_N1
  6
ByBlock
100
AcDbLine
 10
8600.0
 20
15895.3
 30
0.0
 11
8500.0
 21
15895.3
 31
0.0
  0
LINE
  5
24E
330
4ED
100
AcDbEntity
  8
YKK_N1
100
AcDbLine
 10
7635.0
 20
16095.3
 30
0.0
 11
8580.0
 21
16095.3
 31
0.0
  0
TEXT
  5
24F
330
4ED
100
AcDbEntity
  8
YKK_A1
100
AcDbText
 10
7919.2
 20
16615.3
 30
0.0
 40
60.0
  1
複層ガラス 5+A12+5
 41
0.8
 72
     2
 11
8540.0
 21
16615.3
 31
0.0
100
AcDbText
  0
LINE
  5
250
330
4ED
100
AcDbEntity
  8
YKK_A1
100
AcDbLine
 10
7645.0
 20
16495.3
 30
0.0
 11
8570.0
 21
16495.3
 31
0.0
  0
LINE
  5
251
330
4ED
100
AcDbEntity
  8
YKK_N1
100
AcDbLine
 10
7635.0
 20
16095.3
 30
0.0
 11
7655.0
 21
16095.3
 31
0.0
  0
TEXT
  5
252
330
4ED
100
AcDbEntity
  8
YKK_N1
100
AcDbText
 10
8038.92857143
 20
16105.3
 30
0.0
 40
60.0
  1
985
 41
0.8
100
AcDbText
1001
ACAD
1000
MTEXTBEGIN
1070
    73
1070
     1
1070
    44
1040
1.0
1070
    74
1070
     0
1000
MTEXTEND
  0
LINE
  5
253
330
4ED
100
AcDbEntity
  8
YKK_N1
100
AcDbLine
 10
8600.0
 20
16095.3
 30
0.0
 11
8580.0
 21
16095.3
 31
0.0
  0
CIRCLE
  5
254
330
4ED
100
AcDbEntity
  8
YKK_N1
100
AcDbCircle
 10
8600.0
 20
16095.3
 30
0.0
 40
6.5
  0
CIRCLE
  5
255
330
4ED
100
AcDbEntity
  8
YKK_N1
100
AcDbCircle
 10
8600.0
 20
16095.3
 30
0.0
 40
10.0
  0
LINE
  5
256
330
4ED
100
AcDbEntity
  8
YKK_N1
100
AcDbLine
 10
8600.0
 20
16435.3
 30
0.0
 11
8600.0
 21
16065.3
 31
0.0
  0
TEXT
  5
257
330
4ED
100
AcDbEntity
  8
YKK_A1
100
AcDbText
 10
8508.0
 20
16525.3
 30
0.0
 40
60.0
  1
F
 41
0.8
 72
     2
 11
8540.0
 21
16525.3
 31
0.0
100
AcDbText
  0
LINE
  5
258
330
4ED
100
AcDbEntity
  8
YKK_N1
  6
ByBlock
100
AcDbLine
 10
9050.0
 20
16581.90254038
 30
0.0
 11
8950.0
 21
16581.90254038
 31
0.0
  0
LINE
  5
259
330
4ED
100
AcDbEntity
  8
YKK_N1
  6
ByBlock
100
AcDbLine
 10
9000.0
 20
16495.3
 30
0.0
 11
9050.0
 21
16581.90254038
 31
0.0
  0
LINE
  5
25A
330
4ED
100
AcDbEntity
  8
YKK_N1
  6
ByBlock
100
AcDbLine
 10
8950.0
 20
16581.90254038
 30
0.0
 11
9000.0
 21
16495.3
 31
0.0
  0
LINE
  5
25B
330
4ED
100
AcDbEntity
  8
YKK_N1
  6
ByBlock
100
AcDbLine
 10
9000.0
 20
16495.3
 30
0.0
 11
9000.0
 21
16595.3
 31
0.0
  0
TEXT
  5
25C
330
4ED
100
AcDbEntity
  8
0
100
AcDbText
 10
5800.0
 20
19187.5
 30
0.0
 40
175.0
  1
縦辷り出し、はめ殺し連窓
  7
EXTFONT
100
AcDbText
  0
LINE
  5
25D
330
4ED
100
AcDbEntity
  8
YKK_A1
100
AcDbLine
 10
8600.0
 20
17995.3
 30
0.0
 11
7615.0
 21
17995.3
 31
0.0
  0
LINE
  5
25E
330
4ED
100
AcDbEntity
  8
YKK_A1
100
AcDbLine
 10
8615.0
 20
18010.3
 30
0.0
 11
6585.0
 21
18010.3
 31
0.0
  0
TEXT
  5
25F
330
4ED
100
AcDbEntity
  8
0
100
AcDbText
 10
5800.0
 20
18737.5
 30
0.0
 40
175.0
  1
W＝2,000　H＝1,500
  7
EXTFONT
100
AcDbText
  0
LINE
  5
260
330
4ED
100
AcDbEntity
  8
YKK_A1
100
AcDbLine
 10
7505.0
 20
17915.3
 30
0.0
 11
6680.0
 21
17915.3
 31
0.0
  0
LINE
  5
261
330
4ED
100
AcDbEntity
  8
YKK_N1
100
AcDbLine
 10
7370.0
 20
17145.3
 30
0.0
 11
7370.0
 21
17125.3
 31
0.0
  0
CIRCLE
  5
262
330
4ED
100
AcDbEntity
  8
YKK_N1
100
AcDbCircle
 10
7370.0
 20
17145.3
 30
0.0
 40
6.5
  0
CIRCLE
  5
263
330
4ED
100
AcDbEntity
  8
YKK_N1
100
AcDbCircle
 10
7370.0
 20
17145.3
 30
0.0
 40
10.0
  0
LINE
  5
264
330
4ED
100
AcDbEntity
  8
YKK_A2
  6
ByBlock
100
AcDbLine
 10
7540.0
 20
17135.3
 30
0.0
 11
7539.25
 21
17135.3
 31
0.0
  0
ARC
  5
265
330
4ED
100
AcDbEntity
  8
YKK_A2
  6
ByBlock
100
AcDbCircle
 10
7539.25
 20
17132.3
 30
0.0
 40
3.0
100
AcDbArc
 50
90.0
 51
180.0
  0
LINE
  5
266
330
4ED
100
AcDbEntity
  8
YKK_A2
  6
ByBlock
100
AcDbLine
 10
7536.25
 20
17109.3
 30
0.0
 11
7540.0
 21
17109.3
 31
0.0
  0
LINE
  5
267
330
4ED
100
AcDbEntity
  8
YKK_A2
  6
ByBlock
100
AcDbLine
 10
7540.0
 20
17109.3
 30
0.0
 11
7540.0
 21
17175.3
 31
0.0
  0
LINE
  5
268
330
4ED
100
AcDbEntity
  8
YKK_A2
  6
ByBlock
100
AcDbLine
 10
7540.0
 20
17155.3
 30
0.0
 11
7536.25
 21
17145.3
 31
0.0
  0
LINE
  5
269
330
4ED
100
AcDbEntity
  8
YKK_A2
  6
ByBlock
100
AcDbLine
 10
7536.25
 20
17145.3
 30
0.0
 11
7536.25
 21
17015.3
 31
0.0
  0
LINE
  5
26A
330
4ED
100
AcDbEntity
  8
YKK_A2
  6
ByBlock
100
AcDbLine
 10
7520.75
 20
17135.3
 30
0.0
 11
7520.0
 21
17135.3
 31
0.0
  0
ARC
  5
26C
330
4ED
100
AcDbEntity
  8
YKK_A2
  6
ByBlock
100
AcDbCircle
 10
7520.75
 20
17132.3
 30
0.0
 40
3.0
100
AcDbArc
 50
0.0
 51
90.0
  0
LINE
  5
26D
330
4ED
100
AcDbEntity
  8
YKK_A2
  6
ByBlock
100
AcDbLine
 10
7520.0
 20
17109.3
 30
0.0
 11
7523.75
 21
17109.3
 31
0.0
  0
LINE
  5
26E
330
4ED
100
AcDbEntity
  8
YKK_A2
  6
ByBlock
100
AcDbLine
 10
7520.0
 20
17175.3
 30
0.0
 11
7520.0
 21
17109.3
 31
0.0
  0
LINE
  5
26F
330
4ED
100
AcDbEntity
  8
YKK_A2
  6
ByBlock
100
AcDbLine
 10
7520.0
 20
17155.3
 30
0.0
 11
7523.75
 21
17145.3
 31
0.0
  0
LINE
  5
270
330
4ED
100
AcDbEntity
  8
YKK_A2
  6
ByBlock
100
AcDbLine
 10
7523.75
 20
17145.3
 30
0.0
 11
7523.75
 21
17015.3
 31
0.0
  0
LINE
  5
271
330
4ED
100
AcDbEntity
  8
YKK_A2
  6
ByBlock
100
AcDbLine
 10
7540.0
 20
17175.3
 30
0.0
 11
7520.0
 21
17175.3
 31
0.0
  0
LINE
  5
272
330
4ED
100
AcDbEntity
  8
YKK_A2
  6
ByBlock
100
AcDbLine
 10
7536.25
 20
17015.3
 30
0.0
 11
7523.75
 21
17015.3
 31
0.0
  0
LINE
  5
273
330
4ED
100
AcDbEntity
  8
YKK_A2
  6
ByBlock
100
AcDbLine
 10
7540.0
 20
17155.3
 30
0.0
 11
7520.0
 21
17155.3
 31
0.0
  0
LINE
  5
274
330
4ED
100
AcDbEntity
  8
YKK_A2
  6
ByBlock
100
AcDbLine
 10
7523.75
 20
17145.3
 30
0.0
 11
7536.25
 21
17145.3
 31
0.0
  0
LINE
  5
275
330
4ED
100
AcDbEntity
  8
YKK_N1
100
AcDbLine
 10
7470.0
 20
17145.3
 30
0.0
 11
7340.0
 21
17145.3
 31
0.0
  0
LINE
  5
276
330
4ED
100
AcDbEntity
  8
YKK_A1
100
AcDbLine
 10
7555.0
 20
17965.3
 30
0.0
 11
6630.0
 21
17965.3
 31
0.0
  0
LINE
  5
277
330
4ED
100
AcDbEntity
  8
YKK_A1
100
AcDbLine
 10
7585.0
 20
17995.3
 30
0.0
 11
6600.0
 21
17995.3
 31
0.0
  0
LINE
  5
278
330
4ED
100
AcDbEntity
  8
YKK_A1
100
AcDbLine
 10
7615.0
 20
17995.3
 30
0.0
 11
7585.0
 21
17995.3
 31
0.0
  0
LINE
  5
279
330
4ED
100
AcDbEntity
  8
YKK_N1
100
AcDbLine
 10
8660.0
 20
17995.3
 30
0.0
 11
9030.0
 21
17995.3
 31
0.0
  0
LINE
  5
27A
330
4ED
100
AcDbEntity
  8
YKK_A1
100
AcDbLine
 10
8570.0
 20
17995.3
 30
0.0
 11
7645.0
 21
17995.3
 31
0.0
  0
LINE
  5
27B
330
4ED
100
AcDbEntity
  8
YKK_N1
  6
ByBlock
100
AcDbLine
 10
9050.0
 20
17908.69745962
 30
0.0
 11
9000.0
 21
17995.3
 31
0.0
  0
LINE
  5
27C
330
4ED
100
AcDbEntity
  8
YKK_N1
  6
ByBlock
100
AcDbLine
 10
9000.0
 20
17995.3
 30
0.0
 11
8950.0
 21
17908.69745962
 31
0.0
  0
LINE
  5
27D
330
4ED
100
AcDbEntity
  8
YKK_N1
  6
ByBlock
100
AcDbLine
 10
9000.0
 20
17995.3
 30
0.0
 11
9000.0
 21
17895.3
 31
0.0
  0
TEXT
  5
27E
330
4ED
100
AcDbEntity
  8
YKK_N1
100
AcDbText
 10
8990.0
 20
17097.87142857
 30
0.0
 40
60.0
  1
H=1500
 50
90.0
 41
0.8
100
AcDbText
1001
ACAD
1000
MTEXTBEGIN
1070
    73
1070
     1
1070
    44
1040
1.0
1070
    74
1070
     0
1000
MTEXTEND
  0
LINE
  5
27F
330
4ED
100
AcDbEntity
  8
YKK_N1
  6
ByBlock
100
AcDbLine
 10
8950.0
 20
17908.69745962
 30
0.0
 11
9050.0
 21
17908.69745962
 31
0.0
  0
LINE
  5
280
330
4ED
100
AcDbEntity
  8
YKK_N1
100
AcDbLine
 10
10500.0
 20
16496.3
 30
0.0
 11
10500.0
 21
17994.3
 31
0.0
  0
LINE
  5
281
330
4ED
100
AcDbEntity
  8
YKK_Z1
  6
Continuous
100
AcDbLine
 10
10220.0
 20
16495.3
 30
0.0
 11
10220.0
 21
17245.3
 31
0.0
  0
LINE
  5
282
330
4ED
100
AcDbEntity
  8
YKK_C1
100
AcDbLine
 10
10000.0
 20
16560.3
 30
0.0
 11
10000.0
 21
17895.3
 31
0.0
  0
LINE
  5
283
330
4ED
100
AcDbEntity
  8
YKK_C1
100
AcDbLine
 10
10100.0
 20
16515.3
 30
0.0
 11
10100.0
 21
17975.3
 31
0.0
  0
LINE
  5
284
330
4ED
100
AcDbEntity
  8
YKK_C1
100
AcDbLine
 10
10028.0
 20
16532.3
 30
0.0
 11
10028.0
 21
17923.3
 31
0.0
  0
LINE
  5
285
330
4ED
100
AcDbEntity
  8
YKK_C1
100
AcDbLine
 10
10014.0
 20
16532.3
 30
0.0
 11
10014.0
 21
17923.3
 31
0.0
  0
TEXT
  5
286
330
4ED
100
AcDbEntity
  8
YKK_N1
100
AcDbText
 10
14290.0
 20
16797.87142857
 30
0.0
 40
60.0
  1
H=2100
 50
90.0
 41
0.8
100
AcDbText
1001
ACAD
1000
MTEXTBEGIN
1070
    73
1070
     1
1070
    44
1040
1.0
1070
    74
1070
     0
1000
MTEXTEND
  0
TEXT
  5
287
330
4ED
100
AcDbEntity
  8
YKK_N1
100
AcDbText
 10
14197.5
 20
16873.3
 30
0.0
 40
60.0
  1
100
 50
90.0
 41
0.8
100
AcDbText
1001
ACAD
1000
MTEXTBEGIN
1070
    73
1070
     1
1070
    44
1040
1.0
1070
    74
1070
     0
1000
MTEXTEND
  0
LINE
  5
288
330
4ED
100
AcDbEntity
  8
YKK_N1
100
AcDbLine
 10
14100.0
 20
16915.3
 30
0.0
 11
14100.0
 21
16975.3
 31
0.0
  0
LINE
  5
289
330
4ED
100
AcDbEntity
  8
YKK_N1
100
AcDbLine
 10
14300.0
 20
15896.3
 30
0.0
 11
14300.0
 21
17994.3
 31
0.0
  0
LINE
  5
28A
330
4ED
100
AcDbEntity
  8
YKK_A1
100
AcDbLine
 10
12700.0
 20
16995.3
 30
0.0
 11
12700.0
 21
16895.3
 31
0.0
  0
LINE
  5
28B
330
4ED
100
AcDbEntity
  8
YKK_A1
100
AcDbLine
 10
13700.0
 20
16895.3
 30
0.0
 11
13700.0
 21
16995.3
 31
0.0
  0
LINE
  5
28C
330
4ED
100
AcDbEntity
  8
YKK_A1
100
AcDbLine
 10
12685.0
 20
18010.3
 30
0.0
 11
12685.0
 21
15895.3
 31
0.0
  0
LINE
  5
28D
330
4ED
100
AcDbEntity
  8
YKK_A1
100
AcDbLine
 10
13715.0
 20
15895.3
 30
0.0
 11
13715.0
 21
18010.3
 31
0.0
  0
LINE
  5
28E
330
4ED
100
AcDbEntity
  8
YKK_N1
100
AcDbLine
 10
10500.0
 20
16475.3
 30
0.0
 11
10500.0
 21
15715.3
 31
0.0
  0
LINE
  5
28F
330
4ED
100
AcDbEntity
  8
YKK_N1
  6
CENTER
100
AcDbLine
 10
10400.0
 20
15695.3
 30
0.0
 11
10900.0
 21
15695.3
 31
0.0
  0
LINE
  5
290
330
4ED
100
AcDbEntity
  8
YKK_N1
100
AcDbLine
 10
10500.0
 20
15695.3
 30
0.0
 11
10500.0
 21
15715.3
 31
0.0
  0
CIRCLE
  5
291
330
4ED
100
AcDbEntity
  8
YKK_N1
100
AcDbCircle
 10
10500.0
 20
15695.3
 30
0.0
 40
6.5
  0
CIRCLE
  5
292
330
4ED
100
AcDbEntity
  8
YKK_N1
100
AcDbCircle
 10
10500.0
 20
15695.3
 30
0.0
 40
10.0
  0
LINE
  5
293
330
4ED
100
AcDbEntity
  8
YKK_N1
100
AcDbLine
 10
10160.0
 20
16495.3
 30
0.0
 11
10530.0
 21
16495.3
 31
0.0
  0
LINE
  5
294
330
4ED
100
AcDbEntity
  8
YKK_Z1
  6
Continuous
100
AcDbLine
 10
10198.0
 20
16095.3
 30
0.0
 11
10198.0
 21
16470.3
 31
0.0
  0
LINE
  5
295
330
4ED
100
AcDbEntity
  8
YKK_Z1
  6
Continuous
100
AcDbLine
 10
10210.0
 20
16470.3
 30
0.0
 11
10210.0
 21
16095.3
 31
0.0
  0
LINE
  5
296
330
4ED
100
AcDbEntity
  8
YKK_C1
100
AcDbLine
 10
10055.0
 20
16460.3
 30
0.0
 11
10055.0
 21
16425.3
 31
0.0
  0
LINE
  5
297
330
4ED
100
AcDbEntity
  8
YKK_C1
100
AcDbLine
 10
10000.0
 20
16460.3
 30
0.0
 11
10000.0
 21
16435.3
 31
0.0
  0
LINE
  5
298
330
4ED
100
AcDbEntity
  8
YKK_Z1
  6
Continuous
100
AcDbLine
 10
10180.0
 20
16364.00064666
 30
0.0
 11
10010.0
 21
16194.00061722
 31
0.0
  0
LINE
  5
299
330
4ED
100
AcDbEntity
  8
YKK_Z1
  6
Continuous
100
AcDbLine
 10
10180.0
 20
16383.79964168
 30
0.0
 11
10010.0
 21
16213.79961223
 31
0.0
  0
LINE
  5
29A
330
4ED
100
AcDbEntity
  8
YKK_Z1
  6
Continuous
100
AcDbLine
 10
10180.0
 20
16392.28492526
 30
0.0
 11
10010.0
 21
16222.28489581
 31
0.0
  0
LINE
  5
29B
330
4ED
100
AcDbEntity
  8
YKK_Z1
  6
Continuous
100
AcDbLine
 10
10180.0
 20
16420.3
 30
0.0
 11
10120.0
 21
16420.3
 31
0.0
  0
LINE
  5
29C
330
4ED
100
AcDbEntity
  8
YKK_Z1
  6
Continuous
100
AcDbLine
 10
10010.0
 20
16435.3
 30
0.0
 11
10010.0
 21
16395.3
 31
0.0
  0
LINE
  5
29D
330
4ED
100
AcDbEntity
  8
YKK_Z1
  6
HIDDEN
100
AcDbLine
 10
10030.0
 20
16095.3
 30
0.0
 11
10030.0
 21
16395.3
 31
0.0
  0
LINE
  5
29E
330
4ED
100
AcDbEntity
  8
YKK_Z1
  6
CENTER
100
AcDbLine
 10
10105.0
 20
16415.3
 30
0.0
 11
10105.0
 21
16095.3
 31
0.0
  0
LINE
  5
29F
330
4ED
100
AcDbEntity
  8
YKK_Z1
  6
Continuous
100
AcDbLine
 10
10010.0
 20
16395.3
 30
0.0
 11
10010.0
 21
16095.3
 31
0.0
  0
LINE
  5
2A0
330
4ED
100
AcDbEntity
  8
YKK_Z1
  6
Continuous
100
AcDbLine
 10
10110.0
 20
16395.3
 30
0.0
 11
10010.0
 21
16395.3
 31
0.0
  0
LINE
  5
2A1
330
4ED
100
AcDbEntity
  8
YKK_Z1
  6
Continuous
100
AcDbLine
 10
10120.0
 20
16420.3
 30
0.0
 11
10110.0
 21
16395.3
 31
0.0
  0
LINE
  5
2A2
330
4ED
100
AcDbEntity
  8
YKK_C1
100
AcDbLine
 10
10000.0
 20
16435.3
 30
0.0
 11
10055.0
 21
16435.3
 31
0.0
  0
LINE
  5
2A4
330
4ED
100
AcDbEntity
  8
YKK_Z1
  6
Continuous
100
AcDbLine
 10
10180.0
 20
16095.3
 30
0.0
 11
10180.0
 21
16420.3
 31
0.0
  0
LINE
  5
2A5
330
4ED
100
AcDbEntity
  8
YKK_Z1
  6
Continuous
100
AcDbLine
 10
10128.2842737
 20
16470.3
 30
0.0
 11
10153.28426937
 21
16495.3
 31
0.0
  0
LINE
  5
2A6
330
4ED
100
AcDbEntity
  8
YKK_Z1
  6
Continuous
100
AcDbLine
 10
10220.0
 20
16470.3
 30
0.0
 11
10100.0
 21
16470.3
 31
0.0
  0
LINE
  5
2A7
330
4ED
100
AcDbEntity
  8
YKK_Z1
  6
Continuous
100
AcDbLine
 10
10100.0
 20
16495.3
 30
0.0
 11
10220.0
 21
16495.3
 31
0.0
  0
LINE
  5
2A8
330
4ED
100
AcDbEntity
  8
YKK_Z1
  6
Continuous
100
AcDbLine
 10
10100.0
 20
16470.3
 30
0.0
 11
10124.99999567
 21
16495.3
 31
0.0
  0
LINE
  5
2A9
330
4ED
100
AcDbEntity
  8
YKK_Z1
  6
Continuous
100
AcDbLine
 10
10100.0
 20
16470.3
 30
0.0
 11
10100.0
 21
16495.3
 31
0.0
  0
LINE
  5
2AA
330
4ED
100
AcDbEntity
  8
YKK_C1
100
AcDbLine
 10
10042.0
 20
16540.3
 30
0.0
 11
10042.0
 21
16524.3
 31
0.0
  0
LINE
  5
2AB
330
4ED
100
AcDbEntity
  8
YKK_C1
100
AcDbLine
 10
10050.0
 20
16540.3
 30
0.0
 11
10042.0
 21
16540.3
 31
0.0
  0
LINE
  5
2AC
330
4ED
100
AcDbEntity
  8
YKK_C1
100
AcDbLine
 10
10000.0
 20
16524.3
 30
0.0
 11
10050.0
 21
16524.3
 31
0.0
  0
LINE
  5
2AD
330
4ED
100
AcDbEntity
  8
YKK_C1
100
AcDbLine
 10
10000.0
 20
16540.3
 30
0.0
 11
10000.0
 21
16458.3
 31
0.0
  0
LINE
  5
2AE
330
4ED
100
AcDbEntity
  8
YKK_C1
100
AcDbLine
 10
10050.0
 20
16490.3
 30
0.0
 11
10000.0
 21
16490.3
 31
0.0
  0
LINE
  5
2AF
330
4ED
100
AcDbEntity
  8
YKK_C1
100
AcDbLine
 10
10050.0
 20
16540.3
 30
0.0
 11
10050.0
 21
16490.3
 31
0.0
  0
LINE
  5
2B0
330
4ED
100
AcDbEntity
  8
YKK_C1
100
AcDbLine
 10
10027.0
 20
16460.3
 30
0.0
 11
10100.0
 21
16460.3
 31
0.0
  0
LINE
  5
2B1
330
4ED
100
AcDbEntity
  8
YKK_C1
100
AcDbLine
 10
10055.0
 20
16455.3
 30
0.0
 11
10061.0
 21
16455.3
 31
0.0
  0
LINE
  5
2B2
330
4ED
100
AcDbEntity
  8
YKK_C1
100
AcDbLine
 10
10100.0
 20
16455.3
 30
0.0
 11
10094.0
 21
16455.3
 31
0.0
  0
LINE
  5
2B3
330
4ED
100
AcDbEntity
  8
YKK_C1
100
AcDbLine
 10
10100.0
 20
16495.3
 30
0.0
 11
10100.0
 21
16455.3
 31
0.0
  0
LINE
  5
2B5
330
4ED
100
AcDbEntity
  8
YKK_C1
100
AcDbLine
 10
10027.0
 20
16460.3
 30
0.0
 11
10000.0
 21
16460.3
 31
0.0
  0
LINE
  5
2B7
330
4ED
100
AcDbEntity
  8
YKK_C1
100
AcDbLine
 10
10054.0
 20
16460.3
 30
0.0
 11
10000.0
 21
16460.3
 31
0.0
  0
LINE
  5
2B8
330
4ED
100
AcDbEntity
  8
YKK_C1
100
AcDbLine
 10
10054.0
 20
16495.3
 30
0.0
 11
10054.0
 21
16460.3
 31
0.0
  0
LINE
  5
2B9
330
4ED
100
AcDbEntity
  8
YKK_C1
100
AcDbLine
 10
10100.0
 20
16495.3
 30
0.0
 11
10054.0
 21
16495.3
 31
0.0
  0
LINE
  5
2BA
330
4ED
100
AcDbEntity
  8
YKK_Z1
  6
Continuous
100
AcDbLine
 10
10198.0
 20
16470.3
 30
0.0
 11
10210.0
 21
16470.3
 31
0.0
  0
LINE
  5
2BB
330
4ED
100
AcDbEntity
  8
YKK_Z1
  6
Continuous
100
AcDbLine
 10
10213.13709479
 20
16470.3
 30
0.0
 11
10220.0
 21
16477.1629064
 31
0.0
  0
LINE
  5
2BC
330
4ED
100
AcDbEntity
  8
YKK_Z1
  6
Continuous
100
AcDbLine
 10
10184.85282109
 20
16470.3
 30
0.0
 11
10209.85281676
 21
16495.3
 31
0.0
  0
LINE
  5
2BD
330
4ED
100
AcDbEntity
  8
YKK_Z1
  6
Continuous
100
AcDbLine
 10
10156.56854739
 20
16470.3
 30
0.0
 11
10181.56854306
 21
16495.3
 31
0.0
  0
LINE
  5
2BE
330
4ED
100
AcDbEntity
  8
YKK_Z1
  6
Continuous
100
AcDbLine
 10
10220.0
 20
16495.3
 30
0.0
 11
10220.0
 21
16470.3
 31
0.0
  0
TEXT
  5
2BF
330
4ED
100
AcDbEntity
  8
YKK_N1
100
AcDbText
 10
10490.0
 20
16026.72857143
 30
0.0
 40
60.0
  1
800
 50
90.0
 41
0.8
100
AcDbText
1001
ACAD
1000
MTEXTBEGIN
1070
    73
1070
     1
1070
    44
1040
1.0
1070
    74
1070
     0
1000
MTEXTEND
  0
LINE
  5
2C0
330
4ED
100
AcDbEntity
  8
YKK_N1
  6
ByBlock
100
AcDbLine
 10
10500.0
 20
16495.3
 30
0.0
 11
10500.0
 21
16475.3
 31
0.0
  0
LINE
  5
2C1
330
4ED
100
AcDbEntity
  8
YKK_N1
  6
ByBlock
100
AcDbLine
 10
10450.0
 20
16581.90254038
 30
0.0
 11
10500.0
 21
16495.3
 31
0.0
  0
LINE
  5
2C2
330
4ED
100
AcDbEntity
  8
YKK_N1
  6
ByBlock
100
AcDbLine
 10
10550.0
 20
16581.90254038
 30
0.0
 11
10450.0
 21
16581.90254038
 31
0.0
  0
LINE
  5
2C3
330
4ED
100
AcDbEntity
  8
YKK_N1
  6
ByBlock
100
AcDbLine
 10
10500.0
 20
16495.3
 30
0.0
 11
10550.0
 21
16581.90254038
 31
0.0
  0
LINE
  5
2C4
330
4ED
100
AcDbEntity
  8
YKK_N1
  6
ByBlock
100
AcDbLine
 10
10500.0
 20
16495.3
 30
0.0
 11
10500.0
 21
16595.3
 31
0.0
  0
TEXT
  5
2C5
330
4ED
100
AcDbEntity
  8
YKK_N1
100
AcDbText
 10
13052.57142857
 20
13264.7
 30
0.0
 40
60.0
  1
W=1000
 41
0.8
100
AcDbText
1001
ACAD
1000
MTEXTBEGIN
1070
    73
1070
     1
1070
    44
1040
1.0
1070
    74
1070
     0
1000
MTEXTEND
  0
LINE
  5
2C6
330
4ED
100
AcDbEntity
  8
YKK_N1
100
AcDbLine
 10
12701.0
 20
13254.7
 30
0.0
 11
13699.0
 21
13254.7
 31
0.0
  0
LINE
  5
2C7
330
4ED
100
AcDbEntity
  8
YKK_B1
100
AcDbLine
 10
12720.0
 20
13754.7
 30
0.0
 11
13680.0
 21
13754.7
 31
0.0
  0
LINE
  5
2C8
330
4ED
100
AcDbEntity
  8
YKK_B1
100
AcDbLine
 10
12720.0
 20
13654.7
 30
0.0
 11
13680.0
 21
13654.7
 31
0.0
  0
ARC
  5
2C9
330
4ED
100
AcDbEntity
  8
YKK_B1
  6
PHANTOM
100
AcDbCircle
 10
12705.06944261
 20
13766.42567905
 30
0.0
 40
989.9999999999996
100
AcDbArc
 50
359.32136603
 51
81.17290523
  0
LINE
  5
2CA
330
4ED
100
AcDbEntity
  8
YKK_B1
100
AcDbLine
 10
12772.0
 20
13726.7
 30
0.0
 11
13628.0
 21
13726.7
 31
0.0
  0
LINE
  5
2CB
330
4ED
100
AcDbEntity
  8
YKK_B1
100
AcDbLine
 10
12772.0
 20
13740.7
 30
0.0
 11
13628.0
 21
13740.7
 31
0.0
  0
LINE
  5
2CC
330
4ED
100
AcDbEntity
  8
YKK_Z1
  6
Continuous
100
AcDbLine
 10
13715.0
 20
13534.66807879
 30
0.0
 11
13200.0
 21
13534.66807879
 31
0.0
  0
LINE
  5
2CD
330
4ED
100
AcDbEntity
  8
YKK_B1
  6
PHANTOM
100
AcDbLine
 10
12857.0
 20
13754.7
 30
0.0
 11
12856.98805649
 21
14744.70004484
 31
0.0
  0
LINE
  5
2CE
330
4ED
100
AcDbEntity
  8
YKK_Z1
  6
Continuous
100
AcDbLine
 10
12300.0
 20
13556.66807879
 30
0.0
 11
12660.0
 21
13556.66807879
 31
0.0
  0
LINE
  5
2CF
330
4ED
100
AcDbEntity
  8
YKK_Z1
  6
Continuous
100
AcDbLine
 10
12660.0
 20
13544.66807879
 30
0.0
 11
12300.0
 21
13544.66807879
 31
0.0
  0
LINE
  5
2D0
330
4ED
100
AcDbEntity
  8
YKK_Z1
  6
Continuous
100
AcDbLine
 10
12670.0
 20
13744.66807879
 30
0.0
 11
12650.0
 21
13744.66807879
 31
0.0
  0
LINE
  5
2D1
330
4ED
100
AcDbEntity
  8
YKK_Z1
  6
CENTER
100
AcDbLine
 10
12662.5
 20
13649.66807879
 30
0.0
 11
12300.0
 21
13649.66807879
 31
0.0
  0
LINE
  5
2D2
330
4ED
100
AcDbEntity
  8
YKK_Z1
  6
HIDDEN
100
AcDbLine
 10
12650.0
 20
13724.66807879
 30
0.0
 11
12300.0
 21
13724.66807879
 31
0.0
  0
LINE
  5
2D3
330
4ED
100
AcDbEntity
  8
YKK_Z1
  6
Continuous
100
AcDbLine
 10
12498.28417067
 20
13744.66807879
 30
0.0
 11
12328.284259
 21
13574.66807879
 31
0.0
  0
LINE
  5
2D4
330
4ED
100
AcDbEntity
  8
YKK_Z1
  6
Continuous
100
AcDbLine
 10
12478.48518937
 20
13744.66807879
 30
0.0
 11
12308.4852777
 21
13574.66807879
 31
0.0
  0
LINE
  5
2D5
330
4ED
100
AcDbEntity
  8
YKK_Z1
  6
Continuous
100
AcDbLine
 10
12469.99991167
 20
13744.66807879
 30
0.0
 11
12300.0
 21
13574.66807879
 31
0.0
  0
LINE
  5
2D6
330
4ED
100
AcDbEntity
  8
YKK_Z1
  6
Continuous
100
AcDbLine
 10
12650.0
 20
13744.66807879
 30
0.0
 11
12300.0
 21
13744.66807879
 31
0.0
  0
LINE
  5
2D7
330
4ED
100
AcDbEntity
  8
YKK_Z1
  6
Continuous
100
AcDbLine
 10
12300.0
 20
13574.66807879
 30
0.0
 11
12650.0
 21
13574.66807879
 31
0.0
  0
LINE
  5
2D8
330
4ED
100
AcDbEntity
  8
YKK_Z1
  6
Continuous
100
AcDbLine
 10
12650.0
 20
13599.39911314
 30
0.0
 11
12625.2689785
 21
13574.66807879
 31
0.0
  0
LINE
  5
2D9
330
4ED
100
AcDbEntity
  8
YKK_Z1
  6
Continuous
100
AcDbLine
 10
12650.0
 20
13619.19810473
 30
0.0
 11
12605.4699972
 21
13574.66807879
 31
0.0
  0
LINE
  5
2DA
330
4ED
100
AcDbEntity
  8
YKK_Z1
  6
Continuous
100
AcDbLine
 10
12650.0
 20
13627.68338684
 30
0.0
 11
12596.9847195
 21
13574.66807879
 31
0.0
  0
LINE
  5
2DB
330
4ED
100
AcDbEntity
  8
YKK_Z1
  6
Continuous
100
AcDbLine
 10
12650.0
 20
13574.66807879
 30
0.0
 11
12650.0
 21
13744.66807879
 31
0.0
  0
TEXT
  5
2DC
330
4ED
100
AcDbEntity
  8
YKK_N1
100
AcDbText
 10
12976.0
 20
13374.3823645
 30
0.0
 40
60.0
  1
120
 50
90.0
 41
0.8
100
AcDbText
  0
LINE
  5
2DD
330
4ED
100
AcDbEntity
  8
YKK_N1
  6
Continuous
100
AcDbLine
 10
12986.0
 20
13534.66807879
 30
0.0
 11
12986.0
 21
13378.09665022
 31
0.0
  0
LINE
  5
2DE
330
4ED
100
AcDbEntity
  8
YKK_N1
100
AcDbLine
 10
12700.0
 20
13594.7
 30
0.0
 11
12700.0
 21
13224.7
 31
0.0
  0
LINE
  5
2DF
330
4ED
100
AcDbEntity
  8
YKK_N1
  6
ByBlock
100
AcDbLine
 10
12786.60254038
 20
13304.7
 30
0.0
 11
12700.0
 21
13254.7
 31
0.0
  0
LINE
  5
2E0
330
4ED
100
AcDbEntity
  8
YKK_N1
  6
ByBlock
100
AcDbLine
 10
12786.60254038
 20
13204.7
 30
0.0
 11
12786.60254038
 21
13304.7
 31
0.0
  0
LINE
  5
2E1
330
4ED
100
AcDbEntity
  8
YKK_N1
  6
ByBlock
100
AcDbLine
 10
12700.0
 20
13254.7
 30
0.0
 11
12786.60254038
 21
13204.7
 31
0.0
  0
LINE
  5
2E2
330
4ED
100
AcDbEntity
  8
YKK_N1
  6
ByBlock
100
AcDbLine
 10
12700.0
 20
13254.7
 30
0.0
 11
12800.0
 21
13254.7
 31
0.0
  0
TEXT
  5
2E3
330
4ED
100
AcDbEntity
  8
YKK_N1
100
AcDbText
 10
12941.0
 20
13632.7
 30
0.0
 40
60.0
  1
100
 50
90.0
 41
0.8
100
AcDbText
1001
ACAD
1000
MTEXTBEGIN
1070
    73
1070
     1
1070
    44
1040
1.0
1070
    74
1070
     0
1000
MTEXTEND
  0
LINE
  5
2E4
330
4ED
100
AcDbEntity
  8
YKK_N1
  6
Continuous
100
AcDbLine
 10
12745.0
 20
13534.66807879
 30
0.0
 11
13016.0
 21
13534.66807879
 31
0.0
  0
LINE
  5
2E5
330
4ED
100
AcDbEntity
  8
YKK_N1
  6
Continuous
100
AcDbLine
 10
12926.0
 20
13654.66807879
 30
0.0
 11
12956.0
 21
13654.66807879
 31
0.0
  0
LINE
  5
2E6
330
4ED
100
AcDbEntity
  8
YKK_N1
100
AcDbLine
 10
12936.0
 20
13754.7
 30
0.0
 11
12956.0
 21
13754.7
 31
0.0
  0
LINE
  5
2E7
330
4ED
100
AcDbEntity
  8
YKK_N1
100
AcDbLine
 10
12936.0
 20
13654.7
 30
0.0
 11
12956.0
 21
13654.7
 31
0.0
  0
LINE
  5
2E8
330
4ED
100
AcDbEntity
  8
YKK_Z1
  6
Continuous
100
AcDbLine
 10
12685.0
 20
13534.66807879
 30
0.0
 11
13200.0
 21
13534.66807879
 31
0.0
  0
LINE
  5
2E9
330
4ED
100
AcDbEntity
  8
YKK_B1
100
AcDbLine
 10
12780.0
 20
13712.7
 30
0.0
 11
12764.0
 21
13712.7
 31
0.0
  0
LINE
  5
2EA
330
4ED
100
AcDbEntity
  8
YKK_B1
100
AcDbLine
 10
12780.0
 20
13704.7
 30
0.0
 11
12780.0
 21
13712.7
 31
0.0
  0
LINE
  5
2EB
330
4ED
100
AcDbEntity
  8
YKK_B1
100
AcDbLine
 10
12764.0
 20
13754.7
 30
0.0
 11
12764.0
 21
13704.7
 31
0.0
  0
LINE
  5
2EC
330
4ED
100
AcDbEntity
  8
YKK_B1
100
AcDbLine
 10
12780.0
 20
13754.7
 30
0.0
 11
12705.0
 21
13754.7
 31
0.0
  0
LINE
  5
2ED
330
4ED
100
AcDbEntity
  8
YKK_B1
100
AcDbLine
 10
12725.0
 20
13704.7
 30
0.0
 11
12725.0
 21
13754.7
 31
0.0
  0
LINE
  5
2EE
330
4ED
100
AcDbEntity
  8
YKK_B1
100
AcDbLine
 10
12780.0
 20
13704.7
 30
0.0
 11
12725.0
 21
13704.7
 31
0.0
  0
LINE
  5
2EF
330
4ED
100
AcDbEntity
  8
YKK_B1
100
AcDbLine
 10
12675.0
 20
13699.7
 30
0.0
 11
12675.0
 21
13692.7
 31
0.0
  0
LINE
  5
2F0
330
4ED
100
AcDbEntity
  8
YKK_B1
100
AcDbLine
 10
12670.0
 20
13699.7
 30
0.0
 11
12700.0
 21
13699.7
 31
0.0
  0
LINE
  5
2F1
330
4ED
100
AcDbEntity
  8
YKK_B1
100
AcDbLine
 10
12670.0
 20
13754.7
 30
0.0
 11
12670.0
 21
13699.7
 31
0.0
  0
LINE
  5
2F2
330
4ED
100
AcDbEntity
  8
YKK_B1
100
AcDbLine
 10
12700.0
 20
13754.7
 30
0.0
 11
12670.0
 21
13754.7
 31
0.0
  0
LINE
  5
2F3
330
4ED
100
AcDbEntity
  8
YKK_B1
100
AcDbLine
 10
12675.0
 20
13654.7
 30
0.0
 11
12675.0
 21
13661.7
 31
0.0
  0
LINE
  5
2F4
330
4ED
100
AcDbEntity
  8
YKK_B1
100
AcDbLine
 10
12700.0
 20
13654.7
 30
0.0
 11
12675.0
 21
13654.7
 31
0.0
  0
LINE
  5
2F5
330
4ED
100
AcDbEntity
  8
YKK_B1
100
AcDbLine
 10
12700.0
 20
13700.7
 30
0.0
 11
12730.0
 21
13700.7
 31
0.0
  0
LINE
  5
2F6
330
4ED
100
AcDbEntity
  8
YKK_B1
100
AcDbLine
 10
12700.0
 20
13654.7
 30
0.0
 11
12700.0
 21
13754.7
 31
0.0
  0
LINE
  5
2F7
330
4ED
100
AcDbEntity
  8
YKK_Z1
  6
Continuous
100
AcDbLine
 10
12660.0
 20
13556.66807879
 30
0.0
 11
12660.0
 21
13544.66807879
 31
0.0
  0
LINE
  5
2F8
330
4ED
100
AcDbEntity
  8
YKK_Z1
  6
Continuous
100
AcDbLine
 10
12681.42135735
 20
13534.66807879
 30
0.0
 11
12685.0
 21
13538.24672329
 31
0.0
  0
LINE
  5
2F9
330
4ED
100
AcDbEntity
  8
YKK_Z1
  6
Continuous
100
AcDbLine
 10
12660.0
 20
13541.530984
 30
0.0
 11
12685.0
 21
13566.53099699
 31
0.0
  0
LINE
  5
2FA
330
4ED
100
AcDbEntity
  8
YKK_Z1
  6
Continuous
100
AcDbLine
 10
12660.0
 20
13569.8152577
 30
0.0
 11
12685.0
 21
13594.81527069
 31
0.0
  0
LINE
  5
2FB
330
4ED
100
AcDbEntity
  8
YKK_Z1
  6
Continuous
100
AcDbLine
 10
12660.0
 20
13598.09953139
 30
0.0
 11
12685.0
 21
13623.09954439
 31
0.0
  0
LINE
  5
2FC
330
4ED
100
AcDbEntity
  8
YKK_Z1
  6
Continuous
100
AcDbLine
 10
12660.0
 20
13626.38380509
 30
0.0
 11
12685.0
 21
13651.38381808
 31
0.0
  0
LINE
  5
2FE
330
4ED
100
AcDbEntity
  8
YKK_Z1
  6
Continuous
100
AcDbLine
 10
12660.0
 20
13654.66807879
 30
0.0
 11
12685.0
 21
13654.66807879
 31
0.0
  0
LINE
  5
2FF
330
4ED
100
AcDbEntity
  8
YKK_Z1
  6
Continuous
100
AcDbLine
 10
12660.0
 20
13534.66807879
 30
0.0
 11
12660.0
 21
13654.66807879
 31
0.0
  0
LINE
  5
300
330
4ED
100
AcDbEntity
  8
YKK_Z1
  6
Continuous
100
AcDbLine
 10
12685.0
 20
13534.66807879
 30
0.0
 11
12660.0
 21
13534.66807879
 31
0.0
  0
LINE
  5
301
330
4ED
100
AcDbEntity
  8
YKK_Z1
  6
Continuous
100
AcDbLine
 10
12685.0
 20
13654.66807879
 30
0.0
 11
12685.0
 21
13534.66807879
 31
0.0
  0
LINE
  5
302
330
4ED
100
AcDbEntity
  8
YKK_N1
100
AcDbLine
 10
12986.0
 20
13654.7
 30
0.0
 11
12986.0
 21
13674.7
 31
0.0
  0
CIRCLE
  5
303
330
4ED
100
AcDbEntity
  8
YKK_N1
100
AcDbCircle
 10
12986.0
 20
13654.7
 30
0.0
 40
6.5
  0
CIRCLE
  5
304
330
4ED
100
AcDbEntity
  8
YKK_N1
100
AcDbCircle
 10
12986.0
 20
13654.7
 30
0.0
 40
10.0
  0
LINE
  5
305
330
4ED
100
AcDbEntity
  8
YKK_N1
100
AcDbLine
 10
12986.0
 20
13754.7
 30
0.0
 11
12986.0
 21
13734.7
 31
0.0
  0
CIRCLE
  5
306
330
4ED
100
AcDbEntity
  8
YKK_N1
100
AcDbCircle
 10
12986.0
 20
13754.7
 30
0.0
 40
6.5
  0
CIRCLE
  5
307
330
4ED
100
AcDbEntity
  8
YKK_N1
100
AcDbCircle
 10
12986.0
 20
13754.7
 30
0.0
 40
10.0
  0
LINE
  5
308
330
4ED
100
AcDbEntity
  8
YKK_N1
100
AcDbLine
 10
12986.0
 20
13654.66807879
 30
0.0
 11
12986.0
 21
13634.66807879
 31
0.0
  0
CIRCLE
  5
309
330
4ED
100
AcDbEntity
  8
YKK_N1
100
AcDbCircle
 10
12986.0
 20
13654.66807879
 30
0.0
 40
6.5
  0
CIRCLE
  5
30A
330
4ED
100
AcDbEntity
  8
YKK_N1
100
AcDbCircle
 10
12986.0
 20
13654.66807879
 30
0.0
 40
10.0
  0
LINE
  5
30B
330
4ED
100
AcDbEntity
  8
YKK_N1
100
AcDbLine
 10
12986.0
 20
13534.66807879
 30
0.0
 11
12986.0
 21
13554.66807879
 31
0.0
  0
CIRCLE
  5
30C
330
4ED
100
AcDbEntity
  8
YKK_N1
100
AcDbCircle
 10
12986.0
 20
13534.66807879
 30
0.0
 40
6.5
  0
CIRCLE
  5
30D
330
4ED
100
AcDbEntity
  8
YKK_N1
100
AcDbCircle
 10
12986.0
 20
13534.66807879
 30
0.0
 40
10.0
  0
LINE
  5
30E
330
4ED
100
AcDbEntity
  8
YKK_N1
  6
Continuous
100
AcDbLine
 10
12986.0
 20
13634.66807879
 30
0.0
 11
12986.0
 21
13554.66807879
 31
0.0
  0
LINE
  5
30F
330
4ED
100
AcDbEntity
  8
YKK_N1
100
AcDbLine
 10
12986.0
 20
13674.7
 30
0.0
 11
12986.0
 21
13734.7
 31
0.0
  0
LINE
  5
310
330
4ED
100
AcDbEntity
  8
YKK_Z1
  6
Continuous
100
AcDbLine
 10
14100.0
 20
13556.66807879
 30
0.0
 11
13740.0
 21
13556.66807879
 31
0.0
  0
LINE
  5
311
330
4ED
100
AcDbEntity
  8
YKK_Z1
  6
Continuous
100
AcDbLine
 10
13740.0
 20
13544.66807879
 30
0.0
 11
14100.0
 21
13544.66807879
 31
0.0
  0
LINE
  5
312
330
4ED
100
AcDbEntity
  8
YKK_Z1
  6
HIDDEN
100
AcDbLine
 10
13750.0
 20
13724.66807879
 30
0.0
 11
14100.0
 21
13724.66807879
 31
0.0
  0
LINE
  5
313
330
4ED
100
AcDbEntity
  8
YKK_Z1
  6
CENTER
100
AcDbLine
 10
13737.5
 20
13649.66807879
 30
0.0
 11
14100.0
 21
13649.66807879
 31
0.0
  0
LINE
  5
314
330
4ED
100
AcDbEntity
  8
YKK_Z1
  6
Continuous
100
AcDbLine
 10
13750.0
 20
13744.66807879
 30
0.0
 11
14100.0
 21
13744.66807879
 31
0.0
  0
LINE
  5
315
330
4ED
100
AcDbEntity
  8
YKK_Z1
  6
Continuous
100
AcDbLine
 10
14100.0
 20
13574.66807879
 30
0.0
 11
13750.0
 21
13574.66807879
 31
0.0
  0
LINE
  5
316
330
4ED
100
AcDbEntity
  8
YKK_N1
100
AcDbLine
 10
13700.0
 20
13594.7
 30
0.0
 11
13700.0
 21
13224.7
 31
0.0
  0
LINE
  5
317
330
4ED
100
AcDbEntity
  8
YKK_N1
  6
ByBlock
100
AcDbLine
 10
13613.39745962
 20
13204.7
 30
0.0
 11
13700.0
 21
13254.7
 31
0.0
  0
LINE
  5
318
330
4ED
100
AcDbEntity
  8
YKK_N1
  6
ByBlock
100
AcDbLine
 10
13613.39745962
 20
13304.7
 30
0.0
 11
13613.39745962
 21
13204.7
 31
0.0
  0
LINE
  5
319
330
4ED
100
AcDbEntity
  8
YKK_N1
  6
ByBlock
100
AcDbLine
 10
13700.0
 20
13254.7
 30
0.0
 11
13613.39745962
 21
13304.7
 31
0.0
  0
LINE
  5
31A
330
4ED
100
AcDbEntity
  8
YKK_N1
  6
ByBlock
100
AcDbLine
 10
13700.0
 20
13254.7
 30
0.0
 11
13600.0
 21
13254.7
 31
0.0
  0
LINE
  5
31B
330
4ED
100
AcDbEntity
  8
YKK_B1
100
AcDbLine
 10
13620.0
 20
13712.7
 30
0.0
 11
13636.0
 21
13712.7
 31
0.0
  0
LINE
  5
31C
330
4ED
100
AcDbEntity
  8
YKK_B1
100
AcDbLine
 10
13620.0
 20
13704.7
 30
0.0
 11
13620.0
 21
13712.7
 31
0.0
  0
LINE
  5
31D
330
4ED
100
AcDbEntity
  8
YKK_B1
100
AcDbLine
 10
13636.0
 20
13754.7
 30
0.0
 11
13636.0
 21
13704.7
 31
0.0
  0
LINE
  5
31E
330
4ED
100
AcDbEntity
  8
YKK_B1
100
AcDbLine
 10
13620.0
 20
13754.7
 30
0.0
 11
13695.0
 21
13754.7
 31
0.0
  0
LINE
  5
31F
330
4ED
100
AcDbEntity
  8
YKK_B1
100
AcDbLine
 10
13675.0
 20
13704.7
 30
0.0
 11
13675.0
 21
13754.7
 31
0.0
  0
LINE
  5
320
330
4ED
100
AcDbEntity
  8
YKK_B1
100
AcDbLine
 10
13620.0
 20
13704.7
 30
0.0
 11
13675.0
 21
13704.7
 31
0.0
  0
LINE
  5
321
330
4ED
100
AcDbEntity
  8
YKK_B1
100
AcDbLine
 10
13725.0
 20
13699.7
 30
0.0
 11
13725.0
 21
13692.7
 31
0.0
  0
LINE
  5
322
330
4ED
100
AcDbEntity
  8
YKK_B1
100
AcDbLine
 10
13730.0
 20
13699.7
 30
0.0
 11
13700.0
 21
13699.7
 31
0.0
  0
LINE
  5
323
330
4ED
100
AcDbEntity
  8
YKK_B1
100
AcDbLine
 10
13730.0
 20
13754.7
 30
0.0
 11
13730.0
 21
13699.7
 31
0.0
  0
LINE
  5
324
330
4ED
100
AcDbEntity
  8
YKK_B1
100
AcDbLine
 10
13700.0
 20
13754.7
 30
0.0
 11
13730.0
 21
13754.7
 31
0.0
  0
LINE
  5
325
330
4ED
100
AcDbEntity
  8
YKK_B1
100
AcDbLine
 10
13725.0
 20
13654.7
 30
0.0
 11
13725.0
 21
13661.7
 31
0.0
  0
LINE
  5
326
330
4ED
100
AcDbEntity
  8
YKK_B1
100
AcDbLine
 10
13700.0
 20
13654.7
 30
0.0
 11
13725.0
 21
13654.7
 31
0.0
  0
LINE
  5
327
330
4ED
100
AcDbEntity
  8
YKK_B1
100
AcDbLine
 10
13700.0
 20
13700.7
 30
0.0
 11
13670.0
 21
13700.7
 31
0.0
  0
LINE
  5
328
330
4ED
100
AcDbEntity
  8
YKK_B1
100
AcDbLine
 10
13700.0
 20
13654.7
 30
0.0
 11
13700.0
 21
13754.7
 31
0.0
  0
LINE
  5
329
330
4ED
100
AcDbEntity
  8
YKK_Z1
  6
Continuous
100
AcDbLine
 10
13740.0
 20
13556.66807879
 30
0.0
 11
13740.0
 21
13544.66807879
 31
0.0
  0
LINE
  5
32A
330
4ED
100
AcDbEntity
  8
YKK_Z1
  6
Continuous
100
AcDbLine
 10
13730.0
 20
13744.66807879
 30
0.0
 11
13750.0
 21
13744.66807879
 31
0.0
  0
LINE
  5
32B
330
4ED
100
AcDbEntity
  8
YKK_Z1
  6
Continuous
100
AcDbLine
 10
13740.0
 20
13541.530984
 30
0.0
 11
13733.1370936
 21
13534.66807879
 31
0.0
  0
LINE
  5
32C
330
4ED
100
AcDbEntity
  8
YKK_Z1
  6
Continuous
100
AcDbLine
 10
13740.0
 20
13569.8152577
 30
0.0
 11
13715.0
 21
13544.81526203
 31
0.0
  0
LINE
  5
32D
330
4ED
100
AcDbEntity
  8
YKK_Z1
  6
Continuous
100
AcDbLine
 10
13740.0
 20
13598.09953139
 30
0.0
 11
13715.0
 21
13573.09953572
 31
0.0
  0
LINE
  5
32E
330
4ED
100
AcDbEntity
  8
YKK_Z1
  6
Continuous
100
AcDbLine
 10
13740.0
 20
13626.38380509
 30
0.0
 11
13715.0
 21
13601.38380942
 31
0.0
  0
LINE
  5
32F
330
4ED
100
AcDbEntity
  8
YKK_Z1
  6
Continuous
100
AcDbLine
 10
13740.0
 20
13654.66807879
 30
0.0
 11
13715.0
 21
13629.66808312
 31
0.0
  0
LINE
  5
330
330
4ED
100
AcDbEntity
  8
YKK_Z1
  6
Continuous
100
AcDbLine
 10
13740.0
 20
13654.66807879
 30
0.0
 11
13715.0
 21
13654.66807879
 31
0.0
  0
LINE
  5
331
330
4ED
100
AcDbEntity
  8
YKK_Z1
  6
Continuous
100
AcDbLine
 10
13740.0
 20
13534.66807879
 30
0.0
 11
13740.0
 21
13654.66807879
 31
0.0
  0
LINE
  5
332
330
4ED
100
AcDbEntity
  8
YKK_Z1
  6
Continuous
100
AcDbLine
 10
13715.0
 20
13534.66807879
 30
0.0
 11
13740.0
 21
13534.66807879
 31
0.0
  0
LINE
  5
333
330
4ED
100
AcDbEntity
  8
YKK_Z1
  6
Continuous
100
AcDbLine
 10
13715.0
 20
13654.66807879
 30
0.0
 11
13715.0
 21
13534.66807879
 31
0.0
  0
LINE
  5
334
330
4ED
100
AcDbEntity
  8
YKK_Z1
  6
Continuous
100
AcDbLine
 10
13750.0
 20
13574.66807879
 30
0.0
 11
13750.0
 21
13744.66807879
 31
0.0
  0
LINE
  5
335
330
4ED
100
AcDbEntity
  8
YKK_Z1
  6
Continuous
100
AcDbLine
 10
13831.29935334
 20
13574.66807879
 30
0.0
 11
14001.29938278
 21
13744.66807879
 31
0.0
  0
LINE
  5
336
330
4ED
100
AcDbEntity
  8
YKK_Z1
  6
Continuous
100
AcDbLine
 10
13811.50035832
 20
13574.66807879
 30
0.0
 11
13981.50038777
 21
13744.66807879
 31
0.0
  0
LINE
  5
337
330
4ED
100
AcDbEntity
  8
YKK_Z1
  6
Continuous
100
AcDbLine
 10
13803.01507474
 20
13574.66807879
 30
0.0
 11
13973.01510419
 21
13744.66807879
 31
0.0
  0
TEXT
  5
339
330
4ED
100
AcDbEntity
  8
YKK_N1
100
AcDbText
 10
13052.57142857
 20
15505.3
 30
0.0
 40
60.0
  1
W=1000
 41
0.8
100
AcDbText
1001
ACAD
1000
MTEXTBEGIN
1070
    73
1070
     1
1070
    44
1040
1.0
1070
    74
1070
     0
1000
MTEXTEND
  0
LINE
  5
33A
330
4ED
100
AcDbEntity
  8
YKK_N1
100
AcDbLine
 10
12701.0
 20
15495.3
 30
0.0
 11
13699.0
 21
15495.3
 31
0.0
  0
LINE
  5
33B
330
4ED
100
AcDbEntity
  8
YKK_A1
100
AcDbLine
 10
12700.0
 20
16895.3
 30
0.0
 11
13700.0
 21
16895.3
 31
0.0
  0
TEXT
  5
33C
330
4ED
100
AcDbEntity
  8
YKK_A1
100
AcDbText
 10
13019.2
 20
16015.3
 30
0.0
 40
60.0
  1
複層ガラス 5+A12+5
 41
0.8
 72
     2
 11
13640.0
 21
16015.3
 31
0.0
100
AcDbText
  0
LINE
  5
33D
330
4ED
100
AcDbEntity
  8
YKK_A1
100
AcDbLine
 10
13670.0
 20
16895.3
 30
0.0
 11
12730.0
 21
16895.3
 31
0.0
  0
LINE
  5
33E
330
4ED
100
AcDbEntity
  8
YKK_A1
100
AcDbLine
 10
12730.0
 20
15895.3
 30
0.0
 11
13670.0
 21
15895.3
 31
0.0
  0
LINE
  5
33F
330
4ED
100
AcDbEntity
  8
YKK_A1
100
AcDbLine
 10
13700.0
 20
16895.3
 30
0.0
 11
12700.0
 21
16895.3
 31
0.0
  0
LINE
  5
340
330
4ED
100
AcDbEntity
  8
YKK_A1
100
AcDbLine
 10
12700.0
 20
15895.3
 30
0.0
 11
13700.0
 21
15895.3
 31
0.0
  0
LINE
  5
341
330
4ED
100
AcDbEntity
  8
YKK_A1
100
AcDbLine
 10
12685.0
 20
15895.3
 30
0.0
 11
13715.0
 21
15895.3
 31
0.0
  0
LINE
  5
342
330
4ED
100
AcDbEntity
  8
YKK_A1
100
AcDbLine
 10
12730.0
 20
16895.3
 30
0.0
 11
12730.0
 21
15895.3
 31
0.0
  0
LINE
  5
343
330
4ED
100
AcDbEntity
  8
YKK_A1
100
AcDbLine
 10
12700.0
 20
16895.3
 30
0.0
 11
12700.0
 21
15895.3
 31
0.0
  0
LINE
  5
344
330
4ED
100
AcDbEntity
  8
YKK_N1
  6
ByBlock
100
AcDbLine
 10
12786.60254038
 20
15545.3
 30
0.0
 11
12700.0
 21
15495.3
 31
0.0
  0
LINE
  5
345
330
4ED
100
AcDbEntity
  8
YKK_N1
  6
ByBlock
100
AcDbLine
 10
12786.60254038
 20
15445.3
 30
0.0
 11
12786.60254038
 21
15545.3
 31
0.0
  0
LINE
  5
346
330
4ED
100
AcDbEntity
  8
YKK_N1
  6
ByBlock
100
AcDbLine
 10
12700.0
 20
15495.3
 30
0.0
 11
12786.60254038
 21
15445.3
 31
0.0
  0
LINE
  5
347
330
4ED
100
AcDbEntity
  8
YKK_N1
  6
ByBlock
100
AcDbLine
 10
12700.0
 20
15495.3
 30
0.0
 11
12800.0
 21
15495.3
 31
0.0
  0
LINE
  5
348
330
4ED
100
AcDbEntity
  8
YKK_N1
100
AcDbLine
 10
12700.0
 20
15835.3
 30
0.0
 11
12700.0
 21
15465.3
 31
0.0
  0
LINE
  5
349
330
4ED
100
AcDbEntity
  8
YKK_N1
  6
ByBlock
100
AcDbLine
 10
14250.0
 20
15981.90254038
 30
0.0
 11
14300.0
 21
15895.3
 31
0.0
  0
LINE
  5
34A
330
4ED
100
AcDbEntity
  8
YKK_N1
  6
ByBlock
100
AcDbLine
 10
14300.0
 20
15895.3
 30
0.0
 11
14300.0
 21
15995.3
 31
0.0
  0
LINE
  5
34B
330
4ED
100
AcDbEntity
  8
YKK_N1
100
AcDbLine
 10
14100.0
 20
15915.3
 30
0.0
 11
14100.0
 21
16875.3
 31
0.0
  0
TEXT
  5
34C
330
4ED
100
AcDbEntity
  8
YKK_A1
100
AcDbText
 10
13608.0
 20
15925.3
 30
0.0
 40
60.0
  1
F
 41
0.8
 72
     2
 11
13640.0
 21
15925.3
 31
0.0
100
AcDbText
  0
LINE
  5
34D
330
4ED
100
AcDbEntity
  8
YKK_A1
100
AcDbLine
 10
13670.0
 20
15895.3
 30
0.0
 11
13670.0
 21
16895.3
 31
0.0
  0
LINE
  5
34E
330
4ED
100
AcDbEntity
  8
YKK_A1
100
AcDbLine
 10
13700.0
 20
15895.3
 30
0.0
 11
13700.0
 21
16895.3
 31
0.0
  0
LINE
  5
34F
330
4ED
100
AcDbEntity
  8
YKK_N1
100
AcDbLine
 10
13760.0
 20
15895.3
 30
0.0
 11
14130.0
 21
15895.3
 31
0.0
  0
LINE
  5
350
330
4ED
100
AcDbEntity
  8
YKK_N1
100
AcDbLine
 10
13760.0
 20
15895.3
 30
0.0
 11
14330.0
 21
15895.3
 31
0.0
  0
LINE
  5
351
330
4ED
100
AcDbEntity
  8
YKK_N1
  6
ByBlock
100
AcDbLine
 10
13613.39745962
 20
15445.3
 30
0.0
 11
13700.0
 21
15495.3
 31
0.0
  0
LINE
  5
352
330
4ED
100
AcDbEntity
  8
YKK_N1
  6
ByBlock
100
AcDbLine
 10
13613.39745962
 20
15545.3
 30
0.0
 11
13613.39745962
 21
15445.3
 31
0.0
  0
LINE
  5
353
330
4ED
100
AcDbEntity
  8
YKK_N1
  6
ByBlock
100
AcDbLine
 10
13700.0
 20
15495.3
 30
0.0
 11
13613.39745962
 21
15545.3
 31
0.0
  0
LINE
  5
354
330
4ED
100
AcDbEntity
  8
YKK_N1
  6
ByBlock
100
AcDbLine
 10
13700.0
 20
15495.3
 30
0.0
 11
13600.0
 21
15495.3
 31
0.0
  0
LINE
  5
355
330
4ED
100
AcDbEntity
  8
YKK_N1
100
AcDbLine
 10
13700.0
 20
15835.3
 30
0.0
 11
13700.0
 21
15465.3
 31
0.0
  0
LINE
  5
356
330
4ED
100
AcDbEntity
  8
YKK_N1
100
AcDbLine
 10
14100.0
 20
15895.3
 30
0.0
 11
14100.0
 21
15915.3
 31
0.0
  0
CIRCLE
  5
357
330
4ED
100
AcDbEntity
  8
YKK_N1
100
AcDbCircle
 10
14100.0
 20
15895.3
 30
0.0
 40
6.5
  0
CIRCLE
  5
358
330
4ED
100
AcDbEntity
  8
YKK_N1
100
AcDbCircle
 10
14100.0
 20
15895.3
 30
0.0
 40
10.0
  0
LINE
  5
359
330
4ED
100
AcDbEntity
  8
YKK_N1
100
AcDbLine
 10
13760.0
 20
16895.3
 30
0.0
 11
14130.0
 21
16895.3
 31
0.0
  0
LINE
  5
35A
330
4ED
100
AcDbEntity
  8
YKK_N1
100
AcDbLine
 10
13760.0
 20
16895.3
 30
0.0
 11
14130.0
 21
16895.3
 31
0.0
  0
TEXT
  5
35B
330
4ED
100
AcDbEntity
  8
YKK_N1
100
AcDbText
 10
14090.0
 20
16300.44285714
 30
0.0
 40
60.0
  1
1000
 50
90.0
 41
0.8
100
AcDbText
1001
ACAD
1000
MTEXTBEGIN
1070
    73
1070
     1
1070
    44
1040
1.0
1070
    74
1070
     0
1000
MTEXTEND
  0
LINE
  5
35C
330
4ED
100
AcDbEntity
  8
YKK_N1
100
AcDbLine
 10
14100.0
 20
16895.3
 30
0.0
 11
14100.0
 21
16915.3
 31
0.0
  0
CIRCLE
  5
35D
330
4ED
100
AcDbEntity
  8
YKK_N1
100
AcDbCircle
 10
14100.0
 20
16895.3
 30
0.0
 40
6.5
  0
CIRCLE
  5
35E
330
4ED
100
AcDbEntity
  8
YKK_N1
100
AcDbCircle
 10
14100.0
 20
16895.3
 30
0.0
 40
10.0
  0
LINE
  5
35F
330
4ED
100
AcDbEntity
  8
YKK_N1
100
AcDbLine
 10
14100.0
 20
16895.3
 30
0.0
 11
14100.0
 21
16875.3
 31
0.0
  0
CIRCLE
  5
360
330
4ED
100
AcDbEntity
  8
YKK_N1
100
AcDbCircle
 10
14100.0
 20
16895.3
 30
0.0
 40
6.5
  0
CIRCLE
  5
361
330
4ED
100
AcDbEntity
  8
YKK_N1
100
AcDbCircle
 10
14100.0
 20
16895.3
 30
0.0
 40
10.0
  0
TEXT
  5
362
330
4ED
100
AcDbEntity
  8
0
100
AcDbText
 10
11500.0
 20
18737.5
 30
0.0
 40
175.0
  1
W＝1,000　H＝2,100
  7
EXTFONT
100
AcDbText
  0
LINE
  5
363
330
4ED
100
AcDbEntity
  8
YKK_N1
  6
ByBlock
100
AcDbLine
 10
10550.0
 20
17908.69745962
 30
0.0
 11
10500.0
 21
17995.3
 31
0.0
  0
LINE
  5
364
330
4ED
100
AcDbEntity
  8
YKK_N1
  6
ByBlock
100
AcDbLine
 10
10500.0
 20
17995.3
 30
0.0
 11
10450.0
 21
17908.69745962
 31
0.0
  0
LINE
  5
365
330
4ED
100
AcDbEntity
  8
YKK_N1
  6
ByBlock
100
AcDbLine
 10
10500.0
 20
17995.3
 30
0.0
 11
10500.0
 21
17895.3
 31
0.0
  0
LINE
  5
366
330
4ED
100
AcDbEntity
  8
YKK_Z1
  6
Continuous
100
AcDbLine
 10
10220.0
 20
18010.3
 30
0.0
 11
10220.0
 21
17245.3
 31
0.0
  0
LINE
  5
367
330
4ED
100
AcDbEntity
  8
YKK_C1
100
AcDbLine
 10
10000.0
 20
17915.3
 30
0.0
 11
10000.0
 21
17990.3
 31
0.0
  0
LINE
  5
368
330
4ED
100
AcDbEntity
  8
YKK_C1
100
AcDbLine
 10
10050.0
 20
17915.3
 30
0.0
 11
10050.0
 21
17970.3
 31
0.0
  0
LINE
  5
369
330
4ED
100
AcDbEntity
  8
YKK_N1
  6
Continuous
100
AcDbLine
 10
10120.0
 20
17566.3
 30
0.0
 11
10200.0
 21
17566.3
 31
0.0
  0
LINE
  5
36A
330
4ED
100
AcDbEntity
  8
YKK_N1
100
AcDbLine
 10
10100.0
 20
17566.3
 30
0.0
 11
10120.0
 21
17566.3
 31
0.0
  0
CIRCLE
  5
36B
330
4ED
100
AcDbEntity
  8
YKK_N1
100
AcDbCircle
 10
10100.0
 20
17566.3
 30
0.0
 40
6.5
  0
CIRCLE
  5
36C
330
4ED
100
AcDbEntity
  8
YKK_N1
100
AcDbCircle
 10
10100.0
 20
17566.3
 30
0.0
 40
10.0
  0
TEXT
  5
36D
330
4ED
100
AcDbEntity
  8
YKK_N1
100
AcDbText
 10
9978.0
 20
17611.3
 30
0.0
 40
60.0
  1
100
 41
0.8
100
AcDbText
1001
ACAD
1000
MTEXTBEGIN
1070
    73
1070
     1
1070
    44
1040
1.0
1070
    74
1070
     0
1000
MTEXTEND
  0
LINE
  5
36E
330
4ED
100
AcDbEntity
  8
YKK_N1
100
AcDbLine
 10
10100.0
 20
17566.3
 30
0.0
 11
10080.0
 21
17566.3
 31
0.0
  0
CIRCLE
  5
36F
330
4ED
100
AcDbEntity
  8
YKK_N1
100
AcDbCircle
 10
10100.0
 20
17566.3
 30
0.0
 40
6.5
  0
CIRCLE
  5
370
330
4ED
100
AcDbEntity
  8
YKK_N1
100
AcDbCircle
 10
10100.0
 20
17566.3
 30
0.0
 40
10.0
  0
LINE
  5
371
330
4ED
100
AcDbEntity
  8
YKK_N1
100
AcDbLine
 10
10000.0
 20
17566.3
 30
0.0
 11
10020.0
 21
17566.3
 31
0.0
  0
CIRCLE
  5
372
330
4ED
100
AcDbEntity
  8
YKK_N1
100
AcDbCircle
 10
10000.0
 20
17566.3
 30
0.0
 40
6.5
  0
CIRCLE
  5
373
330
4ED
100
AcDbEntity
  8
YKK_N1
100
AcDbCircle
 10
10000.0
 20
17566.3
 30
0.0
 40
10.0
  0
LINE
  5
374
330
4ED
100
AcDbEntity
  8
YKK_N1
100
AcDbLine
 10
10080.0
 20
17566.3
 30
0.0
 11
10020.0
 21
17566.3
 31
0.0
  0
LINE
  5
375
330
4ED
100
AcDbEntity
  8
YKK_N1
100
AcDbLine
 10
10000.0
 20
17616.3
 30
0.0
 11
10000.0
 21
17596.3
 31
0.0
  0
LINE
  5
376
330
4ED
100
AcDbEntity
  8
YKK_N1
100
AcDbLine
 10
10100.0
 20
17616.3
 30
0.0
 11
10100.0
 21
17596.3
 31
0.0
  0
LINE
  5
377
330
4ED
100
AcDbEntity
  8
YKK_N1
  6
Continuous
100
AcDbLine
 10
10100.0
 20
17626.3
 30
0.0
 11
10100.0
 21
17596.3
 31
0.0
  0
LINE
  5
378
330
4ED
100
AcDbEntity
  8
YKK_C1
100
AcDbLine
 10
10042.0
 20
17915.3
 30
0.0
 11
10042.0
 21
17931.3
 31
0.0
  0
LINE
  5
379
330
4ED
100
AcDbEntity
  8
YKK_C1
100
AcDbLine
 10
10050.0
 20
17915.3
 30
0.0
 11
10042.0
 21
17915.3
 31
0.0
  0
LINE
  5
37A
330
4ED
100
AcDbEntity
  8
YKK_C1
100
AcDbLine
 10
10050.0
 20
17931.3
 30
0.0
 11
10000.0
 21
17931.3
 31
0.0
  0
LINE
  5
37B
330
4ED
100
AcDbEntity
  8
YKK_N1
100
AcDbLine
 10
10220.0
 20
17566.3
 30
0.0
 11
10200.0
 21
17566.3
 31
0.0
  0
CIRCLE
  5
37C
330
4ED
100
AcDbEntity
  8
YKK_N1
100
AcDbCircle
 10
10220.0
 20
17566.3
 30
0.0
 40
6.5
  0
CIRCLE
  5
37D
330
4ED
100
AcDbEntity
  8
YKK_N1
100
AcDbCircle
 10
10220.0
 20
17566.3
 30
0.0
 40
10.0
  0
TEXT
  5
37E
330
4ED
100
AcDbEntity
  8
YKK_N1
100
AcDbText
 10
10236.28571429
 20
17576.3
 30
0.0
 40
60.0
  1
120
 41
0.8
100
AcDbText
  0
LINE
  5
37F
330
4ED
100
AcDbEntity
  8
YKK_N1
  6
Continuous
100
AcDbLine
 10
10220.0
 20
17566.3
 30
0.0
 11
10376.57142857
 21
17566.3
 31
0.0
  0
LINE
  5
380
330
4ED
100
AcDbEntity
  8
YKK_N1
  6
Continuous
100
AcDbLine
 10
10220.0
 20
17950.3
 30
0.0
 11
10220.0
 21
17536.3
 31
0.0
  0
TEXT
  5
381
330
4ED
100
AcDbEntity
  8
YKK_N1
100
AcDbText
 10
10490.0
 20
17097.87142857
 30
0.0
 40
60.0
  1
H=1500
 50
90.0
 41
0.8
100
AcDbText
1001
ACAD
1000
MTEXTBEGIN
1070
    73
1070
     1
1070
    44
1040
1.0
1070
    74
1070
     0
1000
MTEXTEND
  0
LINE
  5
382
330
4ED
100
AcDbEntity
  8
YKK_N1
  6
ByBlock
100
AcDbLine
 10
10450.0
 20
17908.69745962
 30
0.0
 11
10550.0
 21
17908.69745962
 31
0.0
  0
LINE
  5
383
330
4ED
100
AcDbEntity
  8
YKK_N1
100
AcDbLine
 10
10160.0
 20
17995.3
 30
0.0
 11
10530.0
 21
17995.3
 31
0.0
  0
LINE
  5
384
330
4ED
100
AcDbEntity
  8
YKK_Z1
  6
Continuous
100
AcDbLine
 10
10156.56854739
 20
18035.3
 30
0.0
 11
10131.5685344
 21
18010.3
 31
0.0
  0
LINE
  5
385
330
4ED
100
AcDbEntity
  8
YKK_Z1
  6
Continuous
100
AcDbLine
 10
10220.0
 20
18035.3
 30
0.0
 11
10100.0
 21
18035.3
 31
0.0
  0
LINE
  5
386
330
4ED
100
AcDbEntity
  8
YKK_Z1
  6
Continuous
100
AcDbLine
 10
10100.0
 20
18010.3
 30
0.0
 11
10220.0
 21
18010.3
 31
0.0
  0
LINE
  5
387
330
4ED
100
AcDbEntity
  8
YKK_Z1
  6
Continuous
100
AcDbLine
 10
10010.0
 20
18197.01582933
 30
0.0
 11
10180.0
 21
18367.015741
 31
0.0
  0
LINE
  5
388
330
4ED
100
AcDbEntity
  8
YKK_Z1
  6
Continuous
100
AcDbLine
 10
10010.0
 20
18216.81481063
 30
0.0
 11
10180.0
 21
18386.8147223
 31
0.0
  0
LINE
  5
389
330
4ED
100
AcDbEntity
  8
YKK_Z1
  6
Continuous
100
AcDbLine
 10
10010.0
 20
18225.30008833
 30
0.0
 11
10180.0
 21
18395.3
 31
0.0
  0
LINE
  5
38A
330
4ED
100
AcDbEntity
  8
YKK_Z1
  6
Continuous
100
AcDbLine
 10
10180.0
 20
18080.3
 30
0.0
 11
10070.0
 21
18080.3
 31
0.0
  0
LINE
  5
38B
330
4ED
100
AcDbEntity
  8
YKK_Z1
  6
Continuous
100
AcDbLine
 10
10010.0
 20
18035.3
 30
0.0
 11
10010.0
 21
18055.3
 31
0.0
  0
LINE
  5
38C
330
4ED
100
AcDbEntity
  8
YKK_Z1
  6
Continuous
100
AcDbLine
 10
10128.2842737
 20
18035.3
 30
0.0
 11
10103.28426071
 21
18010.3
 31
0.0
  0
LINE
  5
38E
330
4ED
100
AcDbEntity
  8
YKK_Z1
  6
Continuous
100
AcDbLine
 10
10100.0
 20
18035.3
 30
0.0
 11
10100.0
 21
18010.3
 31
0.0
  0
LINE
  5
38F
330
4ED
100
AcDbEntity
  8
YKK_Z1
  6
HIDDEN
100
AcDbLine
 10
10030.0
 20
18395.3
 30
0.0
 11
10030.0
 21
18055.3
 31
0.0
  0
LINE
  5
390
330
4ED
100
AcDbEntity
  8
YKK_Z1
  6
CENTER
100
AcDbLine
 10
10105.0
 20
18055.3
 30
0.0
 11
10105.0
 21
18395.3
 31
0.0
  0
LINE
  5
391
330
4ED
100
AcDbEntity
  8
YKK_Z1
  6
Continuous
100
AcDbLine
 10
10010.0
 20
18055.3
 30
0.0
 11
10010.0
 21
18395.3
 31
0.0
  0
LINE
  5
392
330
4ED
100
AcDbEntity
  8
YKK_Z1
  6
Continuous
100
AcDbLine
 10
10060.0
 20
18055.3
 30
0.0
 11
10010.0
 21
18055.3
 31
0.0
  0
LINE
  5
393
330
4ED
100
AcDbEntity
  8
YKK_Z1
  6
Continuous
100
AcDbLine
 10
10070.0
 20
18080.3
 30
0.0
 11
10060.0
 21
18055.3
 31
0.0
  0
LINE
  5
394
330
4ED
100
AcDbEntity
  8
YKK_C1
100
AcDbLine
 10
10050.0
 20
17970.3
 30
0.0
 11
10000.0
 21
17970.3
 31
0.0
  0
LINE
  5
395
330
4ED
100
AcDbEntity
  8
YKK_C1
100
AcDbLine
 10
10055.0
 20
18045.3
 30
0.0
 11
10055.0
 21
18030.3
 31
0.0
  0
LINE
  5
396
330
4ED
100
AcDbEntity
  8
YKK_C1
100
AcDbLine
 10
10000.0
 20
18035.3
 30
0.0
 11
10055.0
 21
18035.3
 31
0.0
  0
LINE
  5
397
330
4ED
100
AcDbEntity
  8
YKK_C1
100
AcDbLine
 10
10000.0
 20
17995.3
 30
0.0
 11
10000.0
 21
18035.3
 31
0.0
  0
LINE
  5
398
330
4ED
100
AcDbEntity
  8
YKK_C1
100
AcDbLine
 10
10055.0
 20
18030.3
 30
0.0
 11
10064.0
 21
18030.3
 31
0.0
  0
LINE
  5
399
330
4ED
100
AcDbEntity
  8
YKK_C1
100
AcDbLine
 10
10055.0
 20
18020.3
 30
0.0
 11
10055.0
 21
18030.3
 31
0.0
  0
LINE
  5
39A
330
4ED
100
AcDbEntity
  8
YKK_C1
100
AcDbLine
 10
10100.0
 20
18020.3
 30
0.0
 11
10055.0
 21
18020.3
 31
0.0
  0
LINE
  5
39B
330
4ED
100
AcDbEntity
  8
YKK_C1
100
AcDbLine
 10
10100.0
 20
18030.3
 30
0.0
 11
10091.0
 21
18030.3
 31
0.0
  0
LINE
  5
39C
330
4ED
100
AcDbEntity
  8
YKK_C1
100
AcDbLine
 10
10100.0
 20
17995.3
 30
0.0
 11
10100.0
 21
18030.3
 31
0.0
  0
LINE
  5
39D
330
4ED
100
AcDbEntity
  8
YKK_C1
100
AcDbLine
 10
10054.0
 20
17995.3
 30
0.0
 11
10054.0
 21
17965.3
 31
0.0
  0
LINE
  5
39E
330
4ED
100
AcDbEntity
  8
YKK_C1
100
AcDbLine
 10
10100.0
 20
17995.3
 30
0.0
 11
10000.0
 21
17995.3
 31
0.0
  0
LINE
  5
39F
330
4ED
100
AcDbEntity
  8
YKK_Z1
  6
Continuous
100
AcDbLine
 10
10198.0
 20
18035.3
 30
0.0
 11
10210.0
 21
18035.3
 31
0.0
  0
LINE
  5
3A0
330
4ED
100
AcDbEntity
  8
YKK_Z1
  6
Continuous
100
AcDbLine
 10
10198.0
 20
18395.3
 30
0.0
 11
10198.0
 21
18035.3
 31
0.0
  0
LINE
  5
3A1
330
4ED
100
AcDbEntity
  8
YKK_Z1
  6
Continuous
100
AcDbLine
 10
10210.0
 20
18035.3
 30
0.0
 11
10210.0
 21
18395.3
 31
0.0
  0
LINE
  5
3A2
330
4ED
100
AcDbEntity
  8
YKK_Z1
  6
Continuous
100
AcDbLine
 10
10220.0
 20
18013.87864265
 30
0.0
 11
10216.42135549
 21
18010.3
 31
0.0
  0
LINE
  5
3A3
330
4ED
100
AcDbEntity
  8
YKK_Z1
  6
Continuous
100
AcDbLine
 10
10213.13709479
 20
18035.3
 30
0.0
 11
10188.1370818
 21
18010.3
 31
0.0
  0
LINE
  5
3A4
330
4ED
100
AcDbEntity
  8
YKK_Z1
  6
Continuous
100
AcDbLine
 10
10184.85282109
 20
18035.3
 30
0.0
 11
10159.8528081
 21
18010.3
 31
0.0
  0
LINE
  5
3A5
330
4ED
100
AcDbEntity
  8
YKK_Z1
  6
Continuous
100
AcDbLine
 10
10220.0
 20
18010.3
 30
0.0
 11
10220.0
 21
18035.3
 31
0.0
  0
LINE
  5
3A6
330
4ED
100
AcDbEntity
  8
YKK_Z1
  6
Continuous
100
AcDbLine
 10
10170.46999225
 20
18080.3
 30
0.0
 11
10180.0
 21
18089.8300028
 31
0.0
  0
LINE
  5
3A7
330
4ED
100
AcDbEntity
  8
YKK_Z1
  6
Continuous
100
AcDbLine
 10
10161.98471014
 20
18080.3
 30
0.0
 11
10180.0
 21
18098.3152805
 31
0.0
  0
LINE
  5
3A8
330
4ED
100
AcDbEntity
  8
YKK_Z1
  6
Continuous
100
AcDbLine
 10
10180.0
 20
18395.3
 30
0.0
 11
10180.0
 21
18080.3
 31
0.0
  0
TEXT
  5
3A9
330
4ED
100
AcDbEntity
  8
YKK_A1
100
AcDbText
 10
12969.2
 20
17070.3
 30
0.0
 40
60.0
  1
複層ガラス 5+A12+5
 41
0.8
 72
     2
 11
13590.0
 21
17070.3
 31
0.0
100
AcDbText
  0
LINE
  5
3AA
330
4ED
100
AcDbEntity
  8
YKK_A1
  6
CENTER
100
AcDbLine
 10
12730.0
 20
17965.3
 30
0.0
 11
13670.0
 21
16995.3
 31
0.0
  0
LINE
  5
3AB
330
4ED
100
AcDbEntity
  8
YKK_A1
100
AcDbLine
 10
13620.0
 20
17915.3
 30
0.0
 11
12780.0
 21
17915.3
 31
0.0
  0
LINE
  5
3AC
330
4ED
100
AcDbEntity
  8
YKK_A1
100
AcDbLine
 10
12780.0
 20
17040.3
 30
0.0
 11
13620.0
 21
17040.3
 31
0.0
  0
LINE
  5
3AD
330
4ED
100
AcDbEntity
  8
YKK_A1
100
AcDbLine
 10
13670.0
 20
17965.3
 30
0.0
 11
12730.0
 21
17965.3
 31
0.0
  0
LINE
  5
3AE
330
4ED
100
AcDbEntity
  8
YKK_A1
100
AcDbLine
 10
12730.0
 20
16995.3
 30
0.0
 11
13670.0
 21
16995.3
 31
0.0
  0
LINE
  5
3AF
330
4ED
100
AcDbEntity
  8
YKK_A1
100
AcDbLine
 10
13700.0
 20
17995.3
 30
0.0
 11
12700.0
 21
17995.3
 31
0.0
  0
LINE
  5
3B0
330
4ED
100
AcDbEntity
  8
YKK_A1
100
AcDbLine
 10
12700.0
 20
16995.3
 30
0.0
 11
13700.0
 21
16995.3
 31
0.0
  0
LINE
  5
3B1
330
4ED
100
AcDbEntity
  8
YKK_A1
100
AcDbLine
 10
13700.0
 20
16995.3
 30
0.0
 11
12700.0
 21
16995.3
 31
0.0
  0
LINE
  5
3B2
330
4ED
100
AcDbEntity
  8
YKK_A1
100
AcDbLine
 10
13715.0
 20
18010.3
 30
0.0
 11
12685.0
 21
18010.3
 31
0.0
  0
LINE
  5
3B3
330
4ED
100
AcDbEntity
  8
YKK_A1
100
AcDbLine
 10
12730.0
 20
17965.3
 30
0.0
 11
12730.0
 21
16995.3
 31
0.0
  0
LINE
  5
3B4
330
4ED
100
AcDbEntity
  8
YKK_A1
100
AcDbLine
 10
12700.0
 20
17995.3
 30
0.0
 11
12700.0
 21
16995.3
 31
0.0
  0
LINE
  5
3B5
330
4ED
100
AcDbEntity
  8
YKK_A1
  6
CENTER
100
AcDbLine
 10
13200.0
 20
17480.3
 30
0.0
 11
12730.0
 21
16995.3
 31
0.0
  0
LINE
  5
3B6
330
4ED
100
AcDbEntity
  8
YKK_A1
100
AcDbLine
 10
12780.0
 20
17915.3
 30
0.0
 11
12780.0
 21
17040.3
 31
0.0
  0
LINE
  5
3B7
330
4ED
100
AcDbEntity
  8
YKK_N1
  6
ByBlock
100
AcDbLine
 10
14300.0
 20
17995.3
 30
0.0
 11
14250.0
 21
17908.69745962
 31
0.0
  0
LINE
  5
3B8
330
4ED
100
AcDbEntity
  8
YKK_N1
  6
ByBlock
100
AcDbLine
 10
14300.0
 20
17995.3
 30
0.0
 11
14300.0
 21
17895.3
 31
0.0
  0
LINE
  5
3B9
330
4ED
100
AcDbEntity
  8
YKK_N1
100
AcDbLine
 10
14100.0
 20
17015.3
 30
0.0
 11
14100.0
 21
17975.3
 31
0.0
  0
LINE
  5
3BA
330
4ED
100
AcDbEntity
  8
YKK_A1
100
AcDbLine
 10
13670.0
 20
16995.3
 30
0.0
 11
13670.0
 21
17965.3
 31
0.0
  0
LINE
  5
3BB
330
4ED
100
AcDbEntity
  8
YKK_A1
100
AcDbLine
 10
13700.0
 20
16995.3
 30
0.0
 11
13700.0
 21
17995.3
 31
0.0
  0
LINE
  5
3BC
330
4ED
100
AcDbEntity
  8
YKK_N1
100
AcDbLine
 10
13760.0
 20
16995.3
 30
0.0
 11
14130.0
 21
16995.3
 31
0.0
  0
LINE
  5
3BD
330
4ED
100
AcDbEntity
  8
YKK_N1
100
AcDbLine
 10
13760.0
 20
16995.3
 30
0.0
 11
14130.0
 21
16995.3
 31
0.0
  0
LINE
  5
3BE
330
4ED
100
AcDbEntity
  8
YKK_A1
100
AcDbLine
 10
13620.0
 20
17040.3
 30
0.0
 11
13620.0
 21
17915.3
 31
0.0
  0
LINE
  5
3BF
330
4ED
100
AcDbEntity
  8
YKK_N1
100
AcDbLine
 10
13585.0
 20
17395.3
 30
0.0
 11
13455.0
 21
17395.3
 31
0.0
  0
LINE
  5
3C0
330
4ED
100
AcDbEntity
  8
YKK_N1
100
AcDbLine
 10
13485.0
 20
17395.3
 30
0.0
 11
13485.0
 21
17375.3
 31
0.0
  0
CIRCLE
  5
3C1
330
4ED
100
AcDbEntity
  8
YKK_N1
100
AcDbCircle
 10
13485.0
 20
17395.3
 30
0.0
 40
6.5
  0
CIRCLE
  5
3C2
330
4ED
100
AcDbEntity
  8
YKK_N1
100
AcDbCircle
 10
13485.0
 20
17395.3
 30
0.0
 40
10.0
  0
LINE
  5
3C3
330
4ED
100
AcDbEntity
  8
YKK_N1
100
AcDbLine
 10
13485.0
 20
16995.3
 30
0.0
 11
13485.0
 21
17015.3
 31
0.0
  0
CIRCLE
  5
3C4
330
4ED
100
AcDbEntity
  8
YKK_N1
100
AcDbCircle
 10
13485.0
 20
16995.3
 30
0.0
 40
6.5
  0
CIRCLE
  5
3C5
330
4ED
100
AcDbEntity
  8
YKK_N1
100
AcDbCircle
 10
13485.0
 20
16995.3
 30
0.0
 40
10.0
  0
TEXT
  5
3C6
330
4ED
100
AcDbEntity
  8
YKK_N1
100
AcDbText
 10
13475.0
 20
17126.72857143
 30
0.0
 40
60.0
  1
400
 50
90.0
 41
0.8
100
AcDbText
1001
ACAD
1000
MTEXTBEGIN
1070
    73
1070
     1
1070
    44
1040
1.0
1070
    74
1070
     0
1000
MTEXTEND
  0
LINE
  5
3C7
330
4ED
100
AcDbEntity
  8
YKK_N1
100
AcDbLine
 10
13485.0
 20
17375.3
 30
0.0
 11
13485.0
 21
17015.3
 31
0.0
  0
LINE
  5
3C8
330
4ED
100
AcDbEntity
  8
YKK_N1
100
AcDbLine
 10
13425.0
 20
16995.3
 30
0.0
 11
13455.0
 21
16995.3
 31
0.0
  0
LINE
  5
3C9
330
4ED
100
AcDbEntity
  8
YKK_A2
  6
ByBlock
100
AcDbLine
 10
13655.0
 20
17385.3
 30
0.0
 11
13654.25
 21
17385.3
 31
0.0
  0
ARC
  5
3CA
330
4ED
100
AcDbEntity
  8
YKK_A2
  6
ByBlock
100
AcDbCircle
 10
13654.25
 20
17382.3
 30
0.0
 40
3.0
100
AcDbArc
 50
90.0
 51
180.0
  0
LINE
  5
3CB
330
4ED
100
AcDbEntity
  8
YKK_A2
  6
ByBlock
100
AcDbLine
 10
13651.25
 20
17359.3
 30
0.0
 11
13655.0
 21
17359.3
 31
0.0
  0
LINE
  5
3CC
330
4ED
100
AcDbEntity
  8
YKK_A2
  6
ByBlock
100
AcDbLine
 10
13655.0
 20
17359.3
 30
0.0
 11
13655.0
 21
17425.3
 31
0.0
  0
LINE
  5
3CD
330
4ED
100
AcDbEntity
  8
YKK_A2
  6
ByBlock
100
AcDbLine
 10
13655.0
 20
17405.3
 30
0.0
 11
13651.25
 21
17395.3
 31
0.0
  0
LINE
  5
3CE
330
4ED
100
AcDbEntity
  8
YKK_A2
  6
ByBlock
100
AcDbLine
 10
13651.25
 20
17395.3
 30
0.0
 11
13651.25
 21
17265.3
 31
0.0
  0
LINE
  5
3CF
330
4ED
100
AcDbEntity
  8
YKK_A2
  6
ByBlock
100
AcDbLine
 10
13635.75
 20
17385.3
 30
0.0
 11
13635.0
 21
17385.3
 31
0.0
  0
ARC
  5
3D1
330
4ED
100
AcDbEntity
  8
YKK_A2
  6
ByBlock
100
AcDbCircle
 10
13635.75
 20
17382.3
 30
0.0
 40
3.0
100
AcDbArc
 50
0.0
 51
90.0
  0
LINE
  5
3D2
330
4ED
100
AcDbEntity
  8
YKK_A2
  6
ByBlock
100
AcDbLine
 10
13635.0
 20
17359.3
 30
0.0
 11
13638.75
 21
17359.3
 31
0.0
  0
LINE
  5
3D3
330
4ED
100
AcDbEntity
  8
YKK_A2
  6
ByBlock
100
AcDbLine
 10
13635.0
 20
17425.3
 30
0.0
 11
13635.0
 21
17359.3
 31
0.0
  0
LINE
  5
3D4
330
4ED
100
AcDbEntity
  8
YKK_A2
  6
ByBlock
100
AcDbLine
 10
13635.0
 20
17405.3
 30
0.0
 11
13638.75
 21
17395.3
 31
0.0
  0
LINE
  5
3D5
330
4ED
100
AcDbEntity
  8
YKK_A2
  6
ByBlock
100
AcDbLine
 10
13638.75
 20
17395.3
 30
0.0
 11
13638.75
 21
17265.3
 31
0.0
  0
LINE
  5
3D6
330
4ED
100
AcDbEntity
  8
YKK_A2
  6
ByBlock
100
AcDbLine
 10
13655.0
 20
17425.3
 30
0.0
 11
13635.0
 21
17425.3
 31
0.0
  0
LINE
  5
3D7
330
4ED
100
AcDbEntity
  8
YKK_A2
  6
ByBlock
100
AcDbLine
 10
13651.25
 20
17265.3
 30
0.0
 11
13638.75
 21
17265.3
 31
0.0
  0
LINE
  5
3D8
330
4ED
100
AcDbEntity
  8
YKK_A2
  6
ByBlock
100
AcDbLine
 10
13655.0
 20
17405.3
 30
0.0
 11
13635.0
 21
17405.3
 31
0.0
  0
LINE
  5
3D9
330
4ED
100
AcDbEntity
  8
YKK_A2
  6
ByBlock
100
AcDbLine
 10
13638.75
 20
17395.3
 30
0.0
 11
13651.25
 21
17395.3
 31
0.0
  0
TEXT
  5
3DA
330
4ED
100
AcDbEntity
  8
YKK_N1
100
AcDbText
 10
14090.0
 20
17400.44285714
 30
0.0
 40
60.0
  1
1000
 50
90.0
 41
0.8
100
AcDbText
1001
ACAD
1000
MTEXTBEGIN
1070
    73
1070
     1
1070
    44
1040
1.0
1070
    74
1070
     0
1000
MTEXTEND
  0
LINE
  5
3DB
330
4ED
100
AcDbEntity
  8
YKK_N1
100
AcDbLine
 10
14100.0
 20
16995.3
 30
0.0
 11
14100.0
 21
17015.3
 31
0.0
  0
CIRCLE
  5
3DC
330
4ED
100
AcDbEntity
  8
YKK_N1
100
AcDbCircle
 10
14100.0
 20
16995.3
 30
0.0
 40
6.5
  0
CIRCLE
  5
3DD
330
4ED
100
AcDbEntity
  8
YKK_N1
100
AcDbCircle
 10
14100.0
 20
16995.3
 30
0.0
 40
10.0
  0
LINE
  5
3DE
330
4ED
100
AcDbEntity
  8
YKK_N1
100
AcDbLine
 10
14100.0
 20
16995.3
 30
0.0
 11
14100.0
 21
16975.3
 31
0.0
  0
CIRCLE
  5
3DF
330
4ED
100
AcDbEntity
  8
YKK_N1
100
AcDbCircle
 10
14100.0
 20
16995.3
 30
0.0
 40
6.5
  0
CIRCLE
  5
3E0
330
4ED
100
AcDbEntity
  8
YKK_N1
100
AcDbCircle
 10
14100.0
 20
16995.3
 30
0.0
 40
10.0
  0
LINE
  5
3E1
330
4ED
100
AcDbEntity
  8
YKK_N1
100
AcDbLine
 10
13760.0
 20
17995.3
 30
0.0
 11
14130.0
 21
17995.3
 31
0.0
  0
LINE
  5
3E2
330
4ED
100
AcDbEntity
  8
YKK_N1
100
AcDbLine
 10
13760.0
 20
17995.3
 30
0.0
 11
14330.0
 21
17995.3
 31
0.0
  0
LINE
  5
3E3
330
4ED
100
AcDbEntity
  8
YKK_N1
100
AcDbLine
 10
14100.0
 20
17995.3
 30
0.0
 11
14100.0
 21
17975.3
 31
0.0
  0
CIRCLE
  5
3E4
330
4ED
100
AcDbEntity
  8
YKK_N1
100
AcDbCircle
 10
14100.0
 20
17995.3
 30
0.0
 40
6.5
  0
CIRCLE
  5
3E5
330
4ED
100
AcDbEntity
  8
YKK_N1
100
AcDbCircle
 10
14100.0
 20
17995.3
 30
0.0
 40
10.0
  0
LINE
  5
3E6
330
4ED
100
AcDbEntity
  8
YKK_F1
100
AcDbLine
 10
17100.0
 20
0.0
 30
0.0
 11
17100.0
 21
19500.0
 31
0.0
  0
LINE
  5
3E7
330
4ED
100
AcDbEntity
  8
YKK_F1
100
AcDbLine
 10
22800.0
 20
0.0
 30
0.0
 11
22800.0
 21
19500.0
 31
0.0
  0
LINE
  5
3E8
330
4ED
100
AcDbEntity
  8
YKK_F1
100
AcDbLine
 10
28500.0
 20
0.0
 30
0.0
 11
28500.0
 21
20000.0
 31
0.0
  0
LINE
  5
3E9
330
4ED
100
AcDbEntity
  8
YKK_F1
100
AcDbLine
 10
28681.0155
 20
0.0
 30
0.0
 11
28681.0155
 21
20000.0
 31
0.0
  0
TEXT
  5
3EA
330
4ED
100
AcDbEntity
  8
0
100
AcDbText
 10
22915.0
 20
4959.2247
 30
0.0
 40
201.25
  1
耐風圧性
  7
EXTFONT
100
AcDbText
  0
TEXT
  5
3EB
330
4ED
100
AcDbEntity
  8
0
100
AcDbText
 10
22915.0
 20
3235.7247
 30
0.0
 40
201.25
  1
水密性
  7
EXTFONT
100
AcDbText
  0
TEXT
  5
3EC
330
4ED
100
AcDbEntity
  8
0
100
AcDbText
 10
22915.0
 20
3810.7247
 30
0.0
 40
201.25
  1
気密性
  7
EXTFONT
100
AcDbText
  0
TEXT
  5
3ED
330
4ED
100
AcDbEntity
  8
0
100
AcDbText
 10
22915.0
 20
2660.7247
 30
0.0
 40
201.25
  1
遮音性
  7
EXTFONT
100
AcDbText
  0
TEXT
  5
3EE
330
4ED
100
AcDbEntity
  8
0
100
AcDbText
 10
22915.0
 20
2173.7247
 30
0.0
 40
201.25
  1
断熱性
  7
EXTFONT
100
AcDbText
  0
TEXT
  5
3EF
330
4ED
100
AcDbEntity
  8
0
100
AcDbText
 10
22915.0
 20
904.2247
 30
0.0
 40
201.25
  1
ただし、窓種・サイズにより適応値が異なります。
  7
EXTFONT
100
AcDbText
  0
TEXT
  5
3F0
330
4ED
100
AcDbEntity
  8
0
100
AcDbText
 10
22915.0
 20
5712.6247
 30
0.0
 40
201.25
  1
ＹＤＰ－１００　縦辷り出し窓　性能等級
  7
EXTFONT
100
AcDbText
  0
TEXT
  5
3F1
330
4ED
100
AcDbEntity
  8
0
100
AcDbText
 10
24211.05
 20
4673.2247
 30
0.0
 40
201.25
  1
Ｓ－６（２８００Ｐａ）
  7
EXTFONT
100
AcDbText
  0
TEXT
  5
3F2
330
4ED
100
AcDbEntity
  8
0
100
AcDbText
 10
24211.05
 20
1885.7247
 30
0.0
 40
201.25
  1
（複層ガラス５＋Ａ１２＋５の場合）
  7
EXTFONT
100
AcDbText
  0
TEXT
  5
3F3
330
4ED
100
AcDbEntity
  8
0
100
AcDbText
 10
24211.05
 20
2172.7247
 30
0.0
 40
201.25
  1
Ｈ－３（０．２８７ｍ２・Ｋ／Ｗ以上）
  7
EXTFONT
100
AcDbText
  0
TEXT
  5
3F4
330
4ED
100
AcDbEntity
  8
0
100
AcDbText
 10
24211.05
 20
3810.7247
 30
0.0
 40
201.25
  1
Ａ－４（２等級線）
  7
EXTFONT
100
AcDbText
  0
TEXT
  5
3F5
330
4ED
100
AcDbEntity
  8
0
100
AcDbText
 10
24211.05
 20
4385.7247
 30
0.0
 40
201.25
  1
Ｓ－７（３６００Ｐａ）
  7
EXTFONT
100
AcDbText
  0
TEXT
  5
3F6
330
4ED
100
AcDbEntity
  8
0
100
AcDbText
 10
24211.05
 20
2659.7247
 30
0.0
 40
201.25
  1
Ｔ－２（３０等級線）
  7
EXTFONT
100
AcDbText
  0
TEXT
  5
3F7
330
4ED
100
AcDbEntity
  8
0
100
AcDbText
 10
24211.05
 20
3235.7247
 30
0.0
 40
201.25
  1
Ｗ－５（５００Ｐａ）
  7
EXTFONT
100
AcDbText
  0
TEXT
  5
3F8
330
4ED
100
AcDbEntity
  8
0
100
AcDbText
 10
24211.05
 20
4960.7247
 30
0.0
 40
201.25
  1
Ｓ－５（２４００Ｐａ）
  7
EXTFONT
100
AcDbText
  0
TEXT
  5
3F9
330
4ED
100
AcDbEntity
  8
YKK_N1
100
AcDbText
 10
15790.0
 20
16797.87142857
 30
0.0
 40
60.0
  1
H=2100
 50
90.0
 41
0.8
100
AcDbText
1001
ACAD
1000
MTEXTBEGIN
1070
    73
1070
     1
1070
    44
1040
1.0
1070
    74
1070
     0
1000
MTEXTEND
  0
TEXT
  5
3FA
330
4ED
100
AcDbEntity
  8
YKK_N1
100
AcDbText
 10
15697.5
 20
16873.3
 30
0.0
 40
60.0
  1
100
 50
90.0
 41
0.8
100
AcDbText
1001
ACAD
1000
MTEXTBEGIN
1070
    73
1070
     1
1070
    44
1040
1.0
1070
    74
1070
     0
1000
MTEXTEND
  0
LINE
  5
3FB
330
4ED
100
AcDbEntity
  8
YKK_N1
100
AcDbLine
 10
15600.0
 20
16915.3
 30
0.0
 11
15600.0
 21
16975.3
 31
0.0
  0
LINE
  5
3FC
330
4ED
100
AcDbEntity
  8
YKK_N1
100
AcDbLine
 10
15800.0
 20
15896.3
 30
0.0
 11
15800.0
 21
17994.3
 31
0.0
  0
LINE
  5
3FD
330
4ED
100
AcDbEntity
  8
YKK_C1
100
AcDbLine
 10
15100.0
 20
16960.3
 30
0.0
 11
15100.0
 21
16919.3
 31
0.0
  0
LINE
  5
3FE
330
4ED
100
AcDbEntity
  8
YKK_C1
100
AcDbLine
 10
15200.0
 20
16995.3
 30
0.0
 11
15200.0
 21
16895.3
 31
0.0
  0
LINE
  5
3FF
330
4ED
100
AcDbEntity
  8
YKK_Z1
  6
Continuous
100
AcDbLine
 10
15320.0
 20
18010.3
 30
0.0
 11
15320.0
 21
16945.3
 31
0.0
  0
LINE
  5
400
330
4ED
100
AcDbEntity
  8
YKK_N1
100
AcDbLine
 10
15260.0
 20
16895.3
 30
0.0
 11
15630.0
 21
16895.3
 31
0.0
  0
LINE
  5
401
330
4ED
100
AcDbEntity
  8
YKK_N1
100
AcDbLine
 10
15260.0
 20
15895.3
 30
0.0
 11
15630.0
 21
15895.3
 31
0.0
  0
LINE
  5
402
330
4ED
100
AcDbEntity
  8
YKK_N1
100
AcDbLine
 10
15260.0
 20
16895.3
 30
0.0
 11
15630.0
 21
16895.3
 31
0.0
  0
LINE
  5
403
330
4ED
100
AcDbEntity
  8
YKK_N1
100
AcDbLine
 10
15260.0
 20
15895.3
 30
0.0
 11
15830.0
 21
15895.3
 31
0.0
  0
LINE
  5
404
330
4ED
100
AcDbEntity
  8
YKK_C1
100
AcDbLine
 10
15100.0
 20
15915.3
 30
0.0
 11
15100.0
 21
16875.3
 31
0.0
  0
LINE
  5
405
330
4ED
100
AcDbEntity
  8
YKK_C1
100
AcDbLine
 10
15200.0
 20
15915.3
 30
0.0
 11
15200.0
 21
16875.3
 31
0.0
  0
LINE
  5
406
330
4ED
100
AcDbEntity
  8
YKK_C1
100
AcDbLine
 10
15128.0
 20
15887.3
 30
0.0
 11
15128.0
 21
16903.3
 31
0.0
  0
LINE
  5
407
330
4ED
100
AcDbEntity
  8
YKK_C1
100
AcDbLine
 10
15114.0
 20
15887.3
 30
0.0
 11
15114.0
 21
16903.3
 31
0.0
  0
LINE
  5
408
330
4ED
100
AcDbEntity
  8
YKK_Z1
  6
Continuous
100
AcDbLine
 10
15320.0
 20
15895.3
 30
0.0
 11
15320.0
 21
16945.3
 31
0.0
  0
LINE
  5
409
330
4ED
100
AcDbEntity
  8
YKK_C1
100
AcDbLine
 10
15200.0
 20
15895.3
 30
0.0
 11
15161.0
 21
15895.3
 31
0.0
  0
LINE
  5
40A
330
4ED
100
AcDbEntity
  8
YKK_Z1
  6
Continuous
100
AcDbLine
 10
15280.0
 20
15764.00064666
 30
0.0
 11
15110.0
 21
15594.00061722
 31
0.0
  0
LINE
  5
40B
330
4ED
100
AcDbEntity
  8
YKK_Z1
  6
Continuous
100
AcDbLine
 10
15280.0
 20
15783.79964168
 30
0.0
 11
15110.0
 21
15613.79961223
 31
0.0
  0
LINE
  5
40C
330
4ED
100
AcDbEntity
  8
YKK_Z1
  6
Continuous
100
AcDbLine
 10
15280.0
 20
15792.28492526
 30
0.0
 11
15110.0
 21
15622.28489581
 31
0.0
  0
LINE
  5
40D
330
4ED
100
AcDbEntity
  8
YKK_Z1
  6
Continuous
100
AcDbLine
 10
15210.0
 20
15795.3
 30
0.0
 11
15110.0
 21
15795.3
 31
0.0
  0
LINE
  5
40F
330
4ED
100
AcDbEntity
  8
YKK_C1
100
AcDbLine
 10
15161.0
 20
15895.3
 30
0.0
 11
15142.0
 21
15895.3
 31
0.0
  0
LINE
  5
410
330
4ED
100
AcDbEntity
  8
YKK_C1
100
AcDbLine
 10
15155.0
 20
15855.3
 30
0.0
 11
15161.0
 21
15855.3
 31
0.0
  0
LINE
  5
411
330
4ED
100
AcDbEntity
  8
YKK_C1
100
AcDbLine
 10
15155.0
 20
15860.3
 30
0.0
 11
15155.0
 21
15825.3
 31
0.0
  0
LINE
  5
412
330
4ED
100
AcDbEntity
  8
YKK_C1
100
AcDbLine
 10
15100.0
 20
15835.3
 30
0.0
 11
15155.0
 21
15835.3
 31
0.0
  0
LINE
  5
413
330
4ED
100
AcDbEntity
  8
YKK_C1
100
AcDbLine
 10
15100.0
 20
15860.3
 30
0.0
 11
15100.0
 21
15835.3
 31
0.0
  0
LINE
  5
414
330
4ED
100
AcDbEntity
  8
YKK_C1
100
AcDbLine
 10
15100.0
 20
15860.3
 30
0.0
 11
15100.0
 21
15895.3
 31
0.0
  0
LINE
  5
415
330
4ED
100
AcDbEntity
  8
YKK_C1
100
AcDbLine
 10
15161.0
 20
15860.3
 30
0.0
 11
15100.0
 21
15860.3
 31
0.0
  0
LINE
  5
416
330
4ED
100
AcDbEntity
  8
YKK_C1
100
AcDbLine
 10
15161.0
 20
15895.3
 30
0.0
 11
15161.0
 21
15860.3
 31
0.0
  0
LINE
  5
417
330
4ED
100
AcDbEntity
  8
YKK_Z1
  6
Continuous
100
AcDbLine
 10
15110.0
 20
15835.3
 30
0.0
 11
15110.0
 21
15795.3
 31
0.0
  0
LINE
  5
418
330
4ED
100
AcDbEntity
  8
YKK_Z1
  6
HIDDEN
100
AcDbLine
 10
15130.0
 20
15495.3
 30
0.0
 11
15130.0
 21
15795.3
 31
0.0
  0
LINE
  5
419
330
4ED
100
AcDbEntity
  8
YKK_Z1
  6
Continuous
100
AcDbLine
 10
15110.0
 20
15795.3
 30
0.0
 11
15110.0
 21
15495.3
 31
0.0
  0
LINE
  5
41A
330
4ED
100
AcDbEntity
  8
YKK_C1
100
AcDbLine
 10
15200.0
 20
15855.3
 30
0.0
 11
15194.0
 21
15855.3
 31
0.0
  0
LINE
  5
41B
330
4ED
100
AcDbEntity
  8
YKK_C1
100
AcDbLine
 10
15200.0
 20
15895.3
 30
0.0
 11
15200.0
 21
15855.3
 31
0.0
  0
LINE
  5
41C
330
4ED
100
AcDbEntity
  8
YKK_Z1
  6
Continuous
100
AcDbLine
 10
15298.0
 20
15870.3
 30
0.0
 11
15310.0
 21
15870.3
 31
0.0
  0
LINE
  5
41D
330
4ED
100
AcDbEntity
  8
YKK_Z1
  6
Continuous
100
AcDbLine
 10
15298.0
 20
15495.3
 30
0.0
 11
15298.0
 21
15870.3
 31
0.0
  0
LINE
  5
41E
330
4ED
100
AcDbEntity
  8
YKK_Z1
  6
Continuous
100
AcDbLine
 10
15310.0
 20
15870.3
 30
0.0
 11
15310.0
 21
15495.3
 31
0.0
  0
LINE
  5
41F
330
4ED
100
AcDbEntity
  8
YKK_Z1
  6
Continuous
100
AcDbLine
 10
15313.13709479
 20
15870.3
 30
0.0
 11
15320.0
 21
15877.1629064
 31
0.0
  0
LINE
  5
420
330
4ED
100
AcDbEntity
  8
YKK_Z1
  6
Continuous
100
AcDbLine
 10
15284.85282109
 20
15870.3
 30
0.0
 11
15309.85281676
 21
15895.3
 31
0.0
  0
LINE
  5
421
330
4ED
100
AcDbEntity
  8
YKK_Z1
  6
Continuous
100
AcDbLine
 10
15256.56854739
 20
15870.3
 30
0.0
 11
15281.56854306
 21
15895.3
 31
0.0
  0
LINE
  5
422
330
4ED
100
AcDbEntity
  8
YKK_Z1
  6
Continuous
100
AcDbLine
 10
15228.2842737
 20
15870.3
 30
0.0
 11
15253.28426937
 21
15895.3
 31
0.0
  0
LINE
  5
423
330
4ED
100
AcDbEntity
  8
YKK_Z1
  6
Continuous
100
AcDbLine
 10
15200.0
 20
15870.3
 30
0.0
 11
15224.99999567
 21
15895.3
 31
0.0
  0
LINE
  5
424
330
4ED
100
AcDbEntity
  8
YKK_Z1
  6
Continuous
100
AcDbLine
 10
15200.0
 20
15870.3
 30
0.0
 11
15200.0
 21
15895.3
 31
0.0
  0
LINE
  5
425
330
4ED
100
AcDbEntity
  8
YKK_Z1
  6
Continuous
100
AcDbLine
 10
15320.0
 20
15870.3
 30
0.0
 11
15200.0
 21
15870.3
 31
0.0
  0
LINE
  5
426
330
4ED
100
AcDbEntity
  8
YKK_Z1
  6
Continuous
100
AcDbLine
 10
15320.0
 20
15895.3
 30
0.0
 11
15320.0
 21
15870.3
 31
0.0
  0
LINE
  5
427
330
4ED
100
AcDbEntity
  8
YKK_Z1
  6
Continuous
100
AcDbLine
 10
15200.0
 20
15895.3
 30
0.0
 11
15320.0
 21
15895.3
 31
0.0
  0
LINE
  5
428
330
4ED
100
AcDbEntity
  8
YKK_Z1
  6
CENTER
100
AcDbLine
 10
15205.0
 20
15815.3
 30
0.0
 11
15205.0
 21
15495.3
 31
0.0
  0
LINE
  5
42A
330
4ED
100
AcDbEntity
  8
YKK_Z1
  6
Continuous
100
AcDbLine
 10
15220.0
 20
15820.3
 30
0.0
 11
15210.0
 21
15795.3
 31
0.0
  0
LINE
  5
42B
330
4ED
100
AcDbEntity
  8
YKK_Z1
  6
Continuous
100
AcDbLine
 10
15280.0
 20
15820.3
 30
0.0
 11
15220.0
 21
15820.3
 31
0.0
  0
LINE
  5
42C
330
4ED
100
AcDbEntity
  8
YKK_Z1
  6
Continuous
100
AcDbLine
 10
15280.0
 20
15495.3
 30
0.0
 11
15280.0
 21
15820.3
 31
0.0
  0
LINE
  5
42D
330
4ED
100
AcDbEntity
  8
YKK_N1
100
AcDbLine
 10
15200.0
 20
16609.3
 30
0.0
 11
15180.0
 21
16609.3
 31
0.0
  0
LINE
  5
42E
330
4ED
100
AcDbEntity
  8
YKK_C1
100
AcDbLine
 10
15200.0
 20
16895.3
 30
0.0
 11
15161.0
 21
16895.3
 31
0.0
  0
TEXT
  5
42F
330
4ED
100
AcDbEntity
  8
YKK_N1
100
AcDbText
 10
15078.0
 20
16654.3
 30
0.0
 40
60.0
  1
100
 41
0.8
100
AcDbText
1001
ACAD
1000
MTEXTBEGIN
1070
    73
1070
     1
1070
    44
1040
1.0
1070
    74
1070
     0
1000
MTEXTEND
  0
LINE
  5
430
330
4ED
100
AcDbEntity
  8
YKK_N1
100
AcDbLine
 10
15100.0
 20
16609.3
 30
0.0
 11
15120.0
 21
16609.3
 31
0.0
  0
CIRCLE
  5
431
330
4ED
100
AcDbEntity
  8
YKK_N1
100
AcDbCircle
 10
15100.0
 20
16609.3
 30
0.0
 40
6.5
  0
CIRCLE
  5
432
330
4ED
100
AcDbEntity
  8
YKK_N1
100
AcDbCircle
 10
15100.0
 20
16609.3
 30
0.0
 40
10.0
  0
LINE
  5
433
330
4ED
100
AcDbEntity
  8
YKK_N1
100
AcDbLine
 10
15180.0
 20
16609.3
 30
0.0
 11
15120.0
 21
16609.3
 31
0.0
  0
LINE
  5
434
330
4ED
100
AcDbEntity
  8
YKK_N1
100
AcDbLine
 10
15100.0
 20
16659.3
 30
0.0
 11
15100.0
 21
16639.3
 31
0.0
  0
LINE
  5
436
330
4ED
100
AcDbEntity
  8
YKK_C1
100
AcDbLine
 10
15161.0
 20
16895.3
 30
0.0
 11
15142.0
 21
16895.3
 31
0.0
  0
LINE
  5
437
330
4ED
100
AcDbEntity
  8
YKK_C1
100
AcDbLine
 10
15100.0
 20
16919.3
 30
0.0
 11
15100.0
 21
16895.3
 31
0.0
  0
LINE
  5
438
330
4ED
100
AcDbEntity
  8
YKK_C1
100
AcDbLine
 10
15161.0
 20
16919.3
 30
0.0
 11
15100.0
 21
16919.3
 31
0.0
  0
LINE
  5
439
330
4ED
100
AcDbEntity
  8
YKK_C1
100
AcDbLine
 10
15161.0
 20
16895.3
 30
0.0
 11
15161.0
 21
16919.3
 31
0.0
  0
CIRCLE
  5
43A
330
4ED
100
AcDbEntity
  8
YKK_N1
100
AcDbCircle
 10
15200.0
 20
16609.3
 30
0.0
 40
6.5
  0
CIRCLE
  5
43B
330
4ED
100
AcDbEntity
  8
YKK_N1
100
AcDbCircle
 10
15200.0
 20
16609.3
 30
0.0
 40
10.0
  0
LINE
  5
43C
330
4ED
100
AcDbEntity
  8
YKK_N1
100
AcDbLine
 10
15200.0
 20
16659.3
 30
0.0
 11
15200.0
 21
16639.3
 31
0.0
  0
LINE
  5
43D
330
4ED
100
AcDbEntity
  8
YKK_N1
  6
ByBlock
100
AcDbLine
 10
15750.0
 20
15981.90254038
 30
0.0
 11
15800.0
 21
15895.3
 31
0.0
  0
LINE
  5
43E
330
4ED
100
AcDbEntity
  8
YKK_N1
  6
ByBlock
100
AcDbLine
 10
15800.0
 20
15895.3
 30
0.0
 11
15850.0
 21
15981.90254038
 31
0.0
  0
LINE
  5
43F
330
4ED
100
AcDbEntity
  8
YKK_N1
  6
ByBlock
100
AcDbLine
 10
15800.0
 20
15895.3
 30
0.0
 11
15800.0
 21
15995.3
 31
0.0
  0
LINE
  5
440
330
4ED
100
AcDbEntity
  8
YKK_N1
100
AcDbLine
 10
15600.0
 20
15915.3
 30
0.0
 11
15600.0
 21
16875.3
 31
0.0
  0
LINE
  5
441
330
4ED
100
AcDbEntity
  8
YKK_N1
  6
CENTER
100
AcDbLine
 10
15700.0
 20
15695.3
 30
0.0
 11
16200.0
 21
15695.3
 31
0.0
  0
TEXT
  5
442
330
4ED
100
AcDbEntity
  8
YKK_N1
100
AcDbText
 10
15790.0
 20
15726.72857143
 30
0.0
 40
60.0
  1
200
 50
90.0
 41
0.8
100
AcDbText
1001
ACAD
1000
MTEXTBEGIN
1070
    73
1070
     1
1070
    44
1040
1.0
1070
    74
1070
     0
1000
MTEXTEND
  0
LINE
  5
443
330
4ED
100
AcDbEntity
  8
YKK_N1
100
AcDbLine
 10
15600.0
 20
15895.3
 30
0.0
 11
15600.0
 21
15915.3
 31
0.0
  0
CIRCLE
  5
444
330
4ED
100
AcDbEntity
  8
YKK_N1
100
AcDbCircle
 10
15600.0
 20
15895.3
 30
0.0
 40
6.5
  0
CIRCLE
  5
445
330
4ED
100
AcDbEntity
  8
YKK_N1
100
AcDbCircle
 10
15600.0
 20
15895.3
 30
0.0
 40
10.0
  0
LINE
  5
446
330
4ED
100
AcDbEntity
  8
YKK_N1
  6
ByBlock
100
AcDbLine
 10
15800.0
 20
15895.3
 30
0.0
 11
15800.0
 21
15875.3
 31
0.0
  0
LINE
  5
447
330
4ED
100
AcDbEntity
  8
YKK_N1
100
AcDbLine
 10
15800.0
 20
15695.3
 30
0.0
 11
15800.0
 21
15715.3
 31
0.0
  0
CIRCLE
  5
448
330
4ED
100
AcDbEntity
  8
YKK_N1
100
AcDbCircle
 10
15800.0
 20
15695.3
 30
0.0
 40
6.5
  0
CIRCLE
  5
449
330
4ED
100
AcDbEntity
  8
YKK_N1
100
AcDbCircle
 10
15800.0
 20
15695.3
 30
0.0
 40
10.0
  0
LINE
  5
44A
330
4ED
100
AcDbEntity
  8
YKK_N1
100
AcDbLine
 10
15800.0
 20
15875.3
 30
0.0
 11
15800.0
 21
15715.3
 31
0.0
  0
TEXT
  5
44B
330
4ED
100
AcDbEntity
  8
YKK_N1
100
AcDbText
 10
15590.0
 20
16300.44285714
 30
0.0
 40
60.0
  1
1000
 50
90.0
 41
0.8
100
AcDbText
1001
ACAD
1000
MTEXTBEGIN
1070
    73
1070
     1
1070
    44
1040
1.0
1070
    74
1070
     0
1000
MTEXTEND
  0
LINE
  5
44C
330
4ED
100
AcDbEntity
  8
YKK_N1
  6
ByBlock
100
AcDbLine
 10
15850.0
 20
15981.90254038
 30
0.0
 11
15750.0
 21
15981.90254038
 31
0.0
  0
LINE
  5
44D
330
4ED
100
AcDbEntity
  8
YKK_N1
100
AcDbLine
 10
15600.0
 20
16895.3
 30
0.0
 11
15600.0
 21
16915.3
 31
0.0
  0
CIRCLE
  5
44E
330
4ED
100
AcDbEntity
  8
YKK_N1
100
AcDbCircle
 10
15600.0
 20
16895.3
 30
0.0
 40
6.5
  0
CIRCLE
  5
44F
330
4ED
100
AcDbEntity
  8
YKK_N1
100
AcDbCircle
 10
15600.0
 20
16895.3
 30
0.0
 40
10.0
  0
LINE
  5
450
330
4ED
100
AcDbEntity
  8
YKK_N1
100
AcDbLine
 10
15600.0
 20
16895.3
 30
0.0
 11
15600.0
 21
16875.3
 31
0.0
  0
CIRCLE
  5
451
330
4ED
100
AcDbEntity
  8
YKK_N1
100
AcDbCircle
 10
15600.0
 20
16895.3
 30
0.0
 40
6.5
  0
CIRCLE
  5
452
330
4ED
100
AcDbEntity
  8
YKK_N1
100
AcDbCircle
 10
15600.0
 20
16895.3
 30
0.0
 40
10.0
  0
LINE
  5
453
330
4ED
100
AcDbEntity
  8
YKK_N1
100
AcDbLine
 10
15260.0
 20
16995.3
 30
0.0
 11
15630.0
 21
16995.3
 31
0.0
  0
LINE
  5
454
330
4ED
100
AcDbEntity
  8
YKK_N1
100
AcDbLine
 10
15260.0
 20
17995.3
 30
0.0
 11
15630.0
 21
17995.3
 31
0.0
  0
LINE
  5
455
330
4ED
100
AcDbEntity
  8
YKK_N1
100
AcDbLine
 10
15260.0
 20
16995.3
 30
0.0
 11
15630.0
 21
16995.3
 31
0.0
  0
LINE
  5
456
330
4ED
100
AcDbEntity
  8
YKK_N1
100
AcDbLine
 10
15260.0
 20
17995.3
 30
0.0
 11
15830.0
 21
17995.3
 31
0.0
  0
LINE
  5
457
330
4ED
100
AcDbEntity
  8
YKK_C1
100
AcDbLine
 10
15200.0
 20
17015.3
 30
0.0
 11
15200.0
 21
17975.3
 31
0.0
  0
LINE
  5
458
330
4ED
100
AcDbEntity
  8
YKK_C1
100
AcDbLine
 10
15100.0
 20
17915.3
 30
0.0
 11
15100.0
 21
17990.3
 31
0.0
  0
LINE
  5
459
330
4ED
100
AcDbEntity
  8
YKK_C1
100
AcDbLine
 10
15150.0
 20
17915.3
 30
0.0
 11
15150.0
 21
17970.3
 31
0.0
  0
LINE
  5
45A
330
4ED
100
AcDbEntity
  8
YKK_C1
100
AcDbLine
 10
15100.0
 20
17060.3
 30
0.0
 11
15100.0
 21
17895.3
 31
0.0
  0
LINE
  5
45B
330
4ED
100
AcDbEntity
  8
YKK_C1
100
AcDbLine
 10
15128.0
 20
17032.3
 30
0.0
 11
15128.0
 21
17923.3
 31
0.0
  0
LINE
  5
45C
330
4ED
100
AcDbEntity
  8
YKK_C1
100
AcDbLine
 10
15114.0
 20
17032.3
 30
0.0
 11
15114.0
 21
17923.3
 31
0.0
  0
LINE
  5
45D
330
4ED
100
AcDbEntity
  8
YKK_C1
100
AcDbLine
 10
15200.0
 20
16995.3
 30
0.0
 11
15154.0
 21
16995.3
 31
0.0
  0
LINE
  5
45E
330
4ED
100
AcDbEntity
  8
YKK_C1
100
AcDbLine
 10
15142.0
 20
17040.3
 30
0.0
 11
15142.0
 21
17024.3
 31
0.0
  0
LINE
  5
45F
330
4ED
100
AcDbEntity
  8
YKK_C1
100
AcDbLine
 10
15150.0
 20
17040.3
 30
0.0
 11
15142.0
 21
17040.3
 31
0.0
  0
LINE
  5
460
330
4ED
100
AcDbEntity
  8
YKK_C1
100
AcDbLine
 10
15100.0
 20
17024.3
 30
0.0
 11
15150.0
 21
17024.3
 31
0.0
  0
LINE
  5
461
330
4ED
100
AcDbEntity
  8
YKK_C1
100
AcDbLine
 10
15100.0
 20
17040.3
 30
0.0
 11
15100.0
 21
16958.3
 31
0.0
  0
LINE
  5
462
330
4ED
100
AcDbEntity
  8
YKK_C1
100
AcDbLine
 10
15150.0
 20
16990.3
 30
0.0
 11
15100.0
 21
16990.3
 31
0.0
  0
LINE
  5
463
330
4ED
100
AcDbEntity
  8
YKK_C1
100
AcDbLine
 10
15150.0
 20
17040.3
 30
0.0
 11
15150.0
 21
16990.3
 31
0.0
  0
LINE
  5
464
330
4ED
100
AcDbEntity
  8
YKK_C1
100
AcDbLine
 10
15127.0
 20
16960.3
 30
0.0
 11
15100.0
 21
16960.3
 31
0.0
  0
LINE
  5
466
330
4ED
100
AcDbEntity
  8
YKK_C1
100
AcDbLine
 10
15154.0
 20
16960.3
 30
0.0
 11
15100.0
 21
16960.3
 31
0.0
  0
LINE
  5
467
330
4ED
100
AcDbEntity
  8
YKK_C1
100
AcDbLine
 10
15154.0
 20
16995.3
 30
0.0
 11
15154.0
 21
16960.3
 31
0.0
  0
LINE
  5
468
330
4ED
100
AcDbEntity
  8
YKK_C1
100
AcDbLine
 10
15142.0
 20
17915.3
 30
0.0
 11
15142.0
 21
17931.3
 31
0.0
  0
LINE
  5
469
330
4ED
100
AcDbEntity
  8
YKK_C1
100
AcDbLine
 10
15150.0
 20
17915.3
 30
0.0
 11
15142.0
 21
17915.3
 31
0.0
  0
LINE
  5
46A
330
4ED
100
AcDbEntity
  8
YKK_C1
100
AcDbLine
 10
15150.0
 20
17931.3
 30
0.0
 11
15100.0
 21
17931.3
 31
0.0
  0
LINE
  5
46B
330
4ED
100
AcDbEntity
  8
YKK_C1
100
AcDbLine
 10
15200.0
 20
18020.3
 30
0.0
 11
15155.0
 21
18020.3
 31
0.0
  0
LINE
  5
46C
330
4ED
100
AcDbEntity
  8
YKK_C1
100
AcDbLine
 10
15200.0
 20
17995.3
 30
0.0
 11
15100.0
 21
17995.3
 31
0.0
  0
LINE
  5
46D
330
4ED
100
AcDbEntity
  8
YKK_Z1
  6
Continuous
100
AcDbLine
 10
15110.0
 20
18197.01582933
 30
0.0
 11
15280.0
 21
18367.015741
 31
0.0
  0
LINE
  5
46E
330
4ED
100
AcDbEntity
  8
YKK_Z1
  6
Continuous
100
AcDbLine
 10
15110.0
 20
18216.81481063
 30
0.0
 11
15280.0
 21
18386.8147223
 31
0.0
  0
LINE
  5
46F
330
4ED
100
AcDbEntity
  8
YKK_Z1
  6
Continuous
100
AcDbLine
 10
15110.0
 20
18225.30008833
 30
0.0
 11
15280.0
 21
18395.3
 31
0.0
  0
LINE
  5
470
330
4ED
100
AcDbEntity
  8
YKK_Z1
  6
Continuous
100
AcDbLine
 10
15280.0
 20
18080.3
 30
0.0
 11
15170.0
 21
18080.3
 31
0.0
  0
LINE
  5
471
330
4ED
100
AcDbEntity
  8
YKK_C1
100
AcDbLine
 10
15150.0
 20
17970.3
 30
0.0
 11
15100.0
 21
17970.3
 31
0.0
  0
LINE
  5
472
330
4ED
100
AcDbEntity
  8
YKK_C1
100
AcDbLine
 10
15155.0
 20
18045.3
 30
0.0
 11
15155.0
 21
18030.3
 31
0.0
  0
LINE
  5
473
330
4ED
100
AcDbEntity
  8
YKK_C1
100
AcDbLine
 10
15100.0
 20
18035.3
 30
0.0
 11
15155.0
 21
18035.3
 31
0.0
  0
LINE
  5
474
330
4ED
100
AcDbEntity
  8
YKK_C1
100
AcDbLine
 10
15100.0
 20
17995.3
 30
0.0
 11
15100.0
 21
18035.3
 31
0.0
  0
LINE
  5
475
330
4ED
100
AcDbEntity
  8
YKK_C1
100
AcDbLine
 10
15155.0
 20
18030.3
 30
0.0
 11
15164.0
 21
18030.3
 31
0.0
  0
LINE
  5
476
330
4ED
100
AcDbEntity
  8
YKK_C1
100
AcDbLine
 10
15155.0
 20
18020.3
 30
0.0
 11
15155.0
 21
18030.3
 31
0.0
  0
LINE
  5
477
330
4ED
100
AcDbEntity
  8
YKK_C1
100
AcDbLine
 10
15154.0
 20
17995.3
 30
0.0
 11
15154.0
 21
17965.3
 31
0.0
  0
LINE
  5
478
330
4ED
100
AcDbEntity
  8
YKK_Z1
  6
Continuous
100
AcDbLine
 10
15110.0
 20
18035.3
 30
0.0
 11
15110.0
 21
18055.3
 31
0.0
  0
LINE
  5
479
330
4ED
100
AcDbEntity
  8
YKK_Z1
  6
HIDDEN
100
AcDbLine
 10
15130.0
 20
18395.3
 30
0.0
 11
15130.0
 21
18055.3
 31
0.0
  0
LINE
  5
47A
330
4ED
100
AcDbEntity
  8
YKK_Z1
  6
Continuous
100
AcDbLine
 10
15110.0
 20
18055.3
 30
0.0
 11
15110.0
 21
18395.3
 31
0.0
  0
LINE
  5
47B
330
4ED
100
AcDbEntity
  8
YKK_Z1
  6
Continuous
100
AcDbLine
 10
15160.0
 20
18055.3
 30
0.0
 11
15110.0
 21
18055.3
 31
0.0
  0
LINE
  5
47C
330
4ED
100
AcDbEntity
  8
YKK_Z1
  6
Continuous
100
AcDbLine
 10
15170.0
 20
18080.3
 30
0.0
 11
15160.0
 21
18055.3
 31
0.0
  0
LINE
  5
47D
330
4ED
100
AcDbEntity
  8
YKK_C1
100
AcDbLine
 10
15200.0
 20
18030.3
 30
0.0
 11
15191.0
 21
18030.3
 31
0.0
  0
LINE
  5
47E
330
4ED
100
AcDbEntity
  8
YKK_C1
100
AcDbLine
 10
15200.0
 20
17995.3
 30
0.0
 11
15200.0
 21
18030.3
 31
0.0
  0
LINE
  5
47F
330
4ED
100
AcDbEntity
  8
YKK_Z1
  6
Continuous
100
AcDbLine
 10
15298.0
 20
18035.3
 30
0.0
 11
15310.0
 21
18035.3
 31
0.0
  0
LINE
  5
480
330
4ED
100
AcDbEntity
  8
YKK_Z1
  6
Continuous
100
AcDbLine
 10
15298.0
 20
18395.3
 30
0.0
 11
15298.0
 21
18035.3
 31
0.0
  0
LINE
  5
481
330
4ED
100
AcDbEntity
  8
YKK_Z1
  6
Continuous
100
AcDbLine
 10
15310.0
 20
18035.3
 30
0.0
 11
15310.0
 21
18395.3
 31
0.0
  0
LINE
  5
482
330
4ED
100
AcDbEntity
  8
YKK_Z1
  6
Continuous
100
AcDbLine
 10
15320.0
 20
18013.87864265
 30
0.0
 11
15316.42135549
 21
18010.3
 31
0.0
  0
LINE
  5
483
330
4ED
100
AcDbEntity
  8
YKK_Z1
  6
Continuous
100
AcDbLine
 10
15313.13709479
 20
18035.3
 30
0.0
 11
15288.1370818
 21
18010.3
 31
0.0
  0
LINE
  5
484
330
4ED
100
AcDbEntity
  8
YKK_Z1
  6
Continuous
100
AcDbLine
 10
15284.85282109
 20
18035.3
 30
0.0
 11
15259.8528081
 21
18010.3
 31
0.0
  0
LINE
  5
485
330
4ED
100
AcDbEntity
  8
YKK_Z1
  6
Continuous
100
AcDbLine
 10
15256.56854739
 20
18035.3
 30
0.0
 11
15231.5685344
 21
18010.3
 31
0.0
  0
LINE
  5
486
330
4ED
100
AcDbEntity
  8
YKK_Z1
  6
Continuous
100
AcDbLine
 10
15228.2842737
 20
18035.3
 30
0.0
 11
15203.28426071
 21
18010.3
 31
0.0
  0
LINE
  5
488
330
4ED
100
AcDbEntity
  8
YKK_Z1
  6
Continuous
100
AcDbLine
 10
15200.0
 20
18035.3
 30
0.0
 11
15200.0
 21
18010.3
 31
0.0
  0
LINE
  5
489
330
4ED
100
AcDbEntity
  8
YKK_Z1
  6
Continuous
100
AcDbLine
 10
15320.0
 20
18035.3
 30
0.0
 11
15200.0
 21
18035.3
 31
0.0
  0
LINE
  5
48A
330
4ED
100
AcDbEntity
  8
YKK_Z1
  6
Continuous
100
AcDbLine
 10
15320.0
 20
18010.3
 30
0.0
 11
15320.0
 21
18035.3
 31
0.0
  0
LINE
  5
48B
330
4ED
100
AcDbEntity
  8
YKK_Z1
  6
Continuous
100
AcDbLine
 10
15200.0
 20
18010.3
 30
0.0
 11
15320.0
 21
18010.3
 31
0.0
  0
LINE
  5
48C
330
4ED
100
AcDbEntity
  8
YKK_Z1
  6
CENTER
100
AcDbLine
 10
15205.0
 20
18055.3
 30
0.0
 11
15205.0
 21
18395.3
 31
0.0
  0
LINE
  5
48D
330
4ED
100
AcDbEntity
  8
YKK_Z1
  6
Continuous
100
AcDbLine
 10
15270.46999225
 20
18080.3
 30
0.0
 11
15280.0
 21
18089.8300028
 31
0.0
  0
LINE
  5
48E
330
4ED
100
AcDbEntity
  8
YKK_Z1
  6
Continuous
100
AcDbLine
 10
15261.98471014
 20
18080.3
 30
0.0
 11
15280.0
 21
18098.3152805
 31
0.0
  0
LINE
  5
48F
330
4ED
100
AcDbEntity
  8
YKK_Z1
  6
Continuous
100
AcDbLine
 10
15280.0
 20
18395.3
 30
0.0
 11
15280.0
 21
18080.3
 31
0.0
  0
LINE
  5
490
330
4ED
100
AcDbEntity
  8
YKK_N1
  6
ByBlock
100
AcDbLine
 10
15850.0
 20
17908.69745962
 30
0.0
 11
15800.0
 21
17995.3
 31
0.0
  0
LINE
  5
491
330
4ED
100
AcDbEntity
  8
YKK_N1
  6
ByBlock
100
AcDbLine
 10
15800.0
 20
17995.3
 30
0.0
 11
15750.0
 21
17908.69745962
 31
0.0
  0
LINE
  5
492
330
4ED
100
AcDbEntity
  8
YKK_N1
  6
ByBlock
100
AcDbLine
 10
15800.0
 20
17995.3
 30
0.0
 11
15800.0
 21
17895.3
 31
0.0
  0
LINE
  5
493
330
4ED
100
AcDbEntity
  8
YKK_N1
100
AcDbLine
 10
15600.0
 20
17015.3
 30
0.0
 11
15600.0
 21
17975.3
 31
0.0
  0
TEXT
  5
494
330
4ED
100
AcDbEntity
  8
YKK_N1
100
AcDbText
 10
15590.0
 20
17400.44285714
 30
0.0
 40
60.0
  1
1000
 50
90.0
 41
0.8
100
AcDbText
1001
ACAD
1000
MTEXTBEGIN
1070
    73
1070
     1
1070
    44
1040
1.0
1070
    74
1070
     0
1000
MTEXTEND
  0
LINE
  5
495
330
4ED
100
AcDbEntity
  8
YKK_N1
100
AcDbLine
 10
15600.0
 20
16995.3
 30
0.0
 11
15600.0
 21
17015.3
 31
0.0
  0
CIRCLE
  5
496
330
4ED
100
AcDbEntity
  8
YKK_N1
100
AcDbCircle
 10
15600.0
 20
16995.3
 30
0.0
 40
6.5
  0
CIRCLE
  5
497
330
4ED
100
AcDbEntity
  8
YKK_N1
100
AcDbCircle
 10
15600.0
 20
16995.3
 30
0.0
 40
10.0
  0
LINE
  5
498
330
4ED
100
AcDbEntity
  8
YKK_N1
100
AcDbLine
 10
15600.0
 20
16995.3
 30
0.0
 11
15600.0
 21
16975.3
 31
0.0
  0
CIRCLE
  5
499
330
4ED
100
AcDbEntity
  8
YKK_N1
100
AcDbCircle
 10
15600.0
 20
16995.3
 30
0.0
 40
6.5
  0
CIRCLE
  5
49A
330
4ED
100
AcDbEntity
  8
YKK_N1
100
AcDbCircle
 10
15600.0
 20
16995.3
 30
0.0
 40
10.0
  0
LINE
  5
49B
330
4ED
100
AcDbEntity
  8
YKK_N1
  6
ByBlock
100
AcDbLine
 10
15750.0
 20
17908.69745962
 30
0.0
 11
15850.0
 21
17908.69745962
 31
0.0
  0
LINE
  5
49C
330
4ED
100
AcDbEntity
  8
YKK_N1
100
AcDbLine
 10
15600.0
 20
17995.3
 30
0.0
 11
15600.0
 21
17975.3
 31
0.0
  0
CIRCLE
  5
49D
330
4ED
100
AcDbEntity
  8
YKK_N1
100
AcDbCircle
 10
15600.0
 20
17995.3
 30
0.0
 40
6.5
  0
CIRCLE
  5
49E
330
4ED
100
AcDbEntity
  8
YKK_N1
100
AcDbCircle
 10
15600.0
 20
17995.3
 30
0.0
 40
10.0
  0
ENDSEC
  0
SECTION
  2
OBJECTS
  0
DICTIONARY
  5
4E2
330
0
100
AcDbDictionary
281
     1
  3
ACAD_CIP_PREVIOUS_PRODUCT_INFO
350
5AB
  3
ACAD_COLOR
350
541
  3
ACAD_DETAILVIEWSTYLE
350
55A
  3
ACAD_GROUP
350
4E3
  3
ACAD_LAYOUT
350
55F
  3
ACAD_MATERIAL
350
50F
  3
ACAD_MLEADERSTYLE
350
556
  3
ACAD_MLINESTYLE
350
4F0
  3
ACAD_PLOTSETTINGS
350
55E
  3
ACAD_PLOTSTYLENAME
350
50D
  3
ACAD_SCALELIST
350
544
  3
ACAD_SECTIONVIEWSTYLE
350
558
  3
ACAD_TABLESTYLE
350
542
  3
ACAD_VISUALSTYLE
350
528
  3
ACDB_RECOMPOSE_DATA
350
5B1
  3
ACDBVARIABLEDICTIONARY
350
506
  0
XRECORD
  5
5AB
102
{ACAD_REACTORS
330
4E2
102
}
330
4E2
100
AcDbXrecord
280
     1
300
ACD
300
2014
300
86063ACD_2014_0F
  0
DICTIONARY
  5
541
102
{ACAD_REACTORS
330
4E2
102
}
330
4E2
100
AcDbDictionary
281
     1
  0
DICTIONARY
  5
55A
102
{ACAD_REACTORS
330
4E2
102
}
330
4E2
100
AcDbDictionary
281
     1
  3
Imperial24
350
55B
  0
DICTIONARY
  5
4E3
102
{ACAD_REACTORS
330
4E2
102
}
330
4E2
100
AcDbDictionary
281
     1
  0
DICTIONARY
  5
55F
102
{ACAD_REACTORS
330
4E2
102
}
330
4E2
100
AcDbDictionary
281
     1
  3
Model
350
560
  3
レイアウト1
350
561
  0
DICTIONARY
  5
50F
102
{ACAD_REACTORS
330
4E2
102
}
330
4E2
100
AcDbDictionary
281
     1
  3
ByBlock
350
518
  3
ByLayer
350
510
  3
Global
350
520
  0
DICTIONARY
  5
556
102
{ACAD_REACTORS
330
4E2
102
}
330
4E2
100
AcDbDictionary
281
     1
  3
Standard
350
557
  0
DICTIONARY
  5
4F0
102
{ACAD_REACTORS
330
4E2
102
}
330
4E2
100
AcDbDictionary
281
     1
  3
STANDARD
350
4F1
  0
DICTIONARY
  5
55E
102
{ACAD_REACTORS
330
4E2
102
}
330
4E2
100
AcDbDictionary
281
     1
  0
ACDBDICTIONARYWDFLT
  5
50D
102
{ACAD_REACTORS
330
4E2
102
}
330
4E2
100
AcDbDictionary
281
     1
  3
Normal
350
50E
100
AcDbDictionaryWithDefault
340
50E
  0
DICTIONARY
  5
544
102
{ACAD_REACTORS
330
4E2
102
}
330
4E2
100
AcDbDictionary
281
     1
  3
A0
350
545
  3
A1
350
546
  3
A2
350
547
  3
A3
350
548
  3
A4
350
549
  3
A5
350
54A
  3
A6
350
54B
  3
A7
350
54C
  3
A8
350
54D
  3
A9
350
54E
  3
B0
350
54F
  3
B1
350
550
  3
B2
350
551
  3
B3
350
552
  3
B4
350
553
  3
B5
350
554
  3
B6
350
555
  0
DICTIONARY
  5
558
102
{ACAD_REACTORS
330
4E2
102
}
330
4E2
100
AcDbDictionary
281
     1
  3
Imperial24
350
559
  0
DICTIONARY
  5
542
102
{ACAD_REACTORS
330
4E2
102
}
330
4E2
100
AcDbDictionary
281
     1
  3
Standard
350
543
  0
DICTIONARY
  5
528
102
{ACAD_REACTORS
330
4E2
102
}
330
4E2
100
AcDbDictionary
281
     1
  3
2dWireframe
350
52E
  3
Basic
350
52D
  3
Brighten
350
534
  3
ColorChange
350
538
  3
Conceptual
350
531
  3
Dim
350
533
  3
EdgeColorOff
350
540
  3
Facepattern
350
537
  3
Flat
350
529
  3
FlatWithEdges
350
52A
  3
Gouraud
350
52B
  3
GouraudWithEdges
350
52C
  3
Hidden
350
530
  3
JitterOff
350
53E
  3
Linepattern
350
536
  3
OverhangOff
350
53F
  3
Realistic
350
532
  3
Shaded
350
53D
  3
Shaded with edges
350
53C
  3
Shades of Gray
350
539
  3
Sketchy
350
53A
  3
Thicken
350
535
  3
Wireframe
350
52F
  3
X-Ray
350
53B
  0
XRECORD
  5
5B1
102
{ACAD_REACTORS
330
4E2
102
}
330
4E2
100
AcDbXrecord
280
     1
 90
        1
330
543
  0
DICTIONARY
  5
506
102
{ACAD_REACTORS
330
4E2
102
}
330
4E2
100
AcDbDictionary
281
     1
  3
CANNOSCALE
350
5A4
  3
CMLEADERSTYLE
350
5A1
  3
CTABLESTYLE
350
5A0
  3
CVIEWDETAILSTYLE
350
5A2
  3
CVIEWSECTIONSTYLE
350
5A3
  3
DIMADEC
350
507
  3
XCLIPFRAME
350
5AF
  0
ACDBDETAILVIEWSTYLE
  5
55B
102
{ACAD_XDICTIONARY
360
5EA
102
}
102
{ACAD_REACTORS
330
55A
102
}
330
55A
100
AcDbModelDocViewStyle
 70
     0
  3
Imperial24
290
     0
100
AcDbDetailViewStyle
 70
     0
 71
     0
 90
        3
 71
     1
340
4E5
 62
   256
 40
0.24
340
0
 62
   256
 40
0.24
300

 40
0.36
280
     3
 71
     2
340
4E9
 90
       25
 62
   256
 71
     3
340
4E5
 62
   256
 40
0.24
 90
        1
 40
0.75
 90
        1
300
%<\AcVar ViewType \f "%tc1">% %<\AcVar ViewDetailId>%\PSCALE %<\AcVar ViewScale \f "%sn">%
 71
     4
340
4E9
 90
       25
 62
   256
340
4E9
 90
       25
 62
   256
280
     0
  0
LAYOUT
  5
560
102
{ACAD_REACTORS
330
55F
102
}
330
55F
100
AcDbPlotSettings
  1

  2
C:\ACAD-I\support\plotters\Default Windows System Printer.pc3
  4
A4
  6

 40
3.17499995
 41
3.17499995
 42
3.17500305
 43
3.17498779
 44
209.88865662
 45
297.05300903
 46
0.0
 47
0.0
 48
0.0
 49
0.0
140
0.0
141
0.0
142
1.0
143
3304.82632881
 70
 11952
 72
     0
 73
     1
 74
     0
  7
monochrome.ctb
 75
     0
147
0.00030259
 76
     0
 77
     2
 78
   300
148
87034.94378514
149
2899.6748614
100
AcDbLayout
  1
Model
 70
     1
 71
     0
 10
0.0
 20
0.0
 11
12.0
 21
9.0
 12
0.0
 22
0.0
 32
0.0
 14
0.0
 24
0.0
 34
0.0
 15
0.0
 25
0.0
 35
0.0
146
0.0
 13
0.0
 23
0.0
 33
0.0
 16
1.0
 26
0.0
 36
0.0
 17
0.0
 27
1.0
 37
0.0
 76
     0
330
4ED
1001
ACAD_PSEXT
1000
C:\ACAD-I\support\plotters\Default Windows System Printer.pc3
1000
Fiery PRO80 65-55C-KM PS3.0jp
1000
IP_10.230.204.212
1000

1070
     0
  0
LAYOUT
  5
561
102
{ACAD_REACTORS
330
55F
102
}
330
55F
100
AcDbPlotSettings
  1

  2
C:\ACAD-I\support\plotters\Default Windows System Printer.pc3
  4
A4
  6

 40
3.17499995
 41
3.17499995
 42
3.17500305
 43
3.17498779
 44
209.88865662
 45
297.05300903
 46
0.0
 47
0.0
 48
0.0
 49
0.0
140
0.0
141
0.0
142
1.0
143
1.0
 70
 15024
 72
     0
 73
     1
 74
     5
  7
monochrome.ctb
 75
    16
147
1.0
 76
     0
 77
     2
 78
   300
148
0.0
149
0.0
100
AcDbLayout
  1
レイアウト1
 70
     0
 71
     1
 10
0.0
 20
0.0
 11
12.0
 21
9.0
 12
0.0
 22
0.0
 32
0.0
 14
1.00000000E+20
 24
1.00000000E+20
 34
1.00000000E+20
 15
-1.00000000E+20
 25
-1.00000000E+20
 35
-1.00000000E+20
146
0.0
 13
0.0
 23
0.0
 33
0.0
 16
1.0
 26
0.0
 36
0.0
 17
0.0
 27
1.0
 37
0.0
 76
     0
330
4EA
1001
ACAD_PSEXT
1000
C:\ACAD-I\support\plotters\Default Windows System Printer.pc3
1000
Fiery PRO80 65-55C-KM PS3.0jp
1000
IP_10.230.204.212
1000

1070
     0
  0
MATERIAL
  5
518
102
{ACAD_XDICTIONARY
360
519
102
}
102
{ACAD_REACTORS
330
50F
102
}
330
50F
100
AcDbMaterial
  1
ByBlock
 72
     0
 43
0.02083333
 43
0.0
 43
0.0
 43
0.0
 43
0.0
 43
0.02083333
 43
0.0
 43
0.0
 43
0.0
 43
0.0
 43
1.0
 43
0.0
 43
0.0
 43
0.0
 43
0.0
 43
1.0
 77
     0
 47
0.02083333
 47
0.0
 47
0.0
 47
0.0
 47
0.0
 47
0.02083333
 47
0.0
 47
0.0
 47
0.0
 47
0.0
 47
1.0
 47
0.0
 47
0.0
 47
0.0
 47
0.0
 47
1.0
171
     0
 49
0.02083333
 49
0.0
 49
0.0
 49
0.0
 49
0.0
 49
0.02083333
 49
0.0
 49
0.0
 49
0.0
 49
0.0
 49
1.0
 49
0.0
 49
0.0
 49
0.0
 49
0.0
 49
1.0
175
     0
142
0.02083333
142
0.0
142
0.0
142
0.0
142
0.0
142
0.02083333
142
0.0
142
0.0
142
0.0
142
0.0
142
1.0
142
0.0
142
0.0
142
0.0
142
0.0
142
1.0
179
     0
144
0.02083333
144
0.0
144
0.0
144
0.0
144
0.0
144
0.02083333
144
0.0
144
0.0
144
0.0
144
0.0
144
1.0
144
0.0
144
0.0
144
0.0
144
0.0
144
1.0
147
0.02083333
147
0.0
147
0.0
147
0.0
147
0.0
147
0.02083333
147
0.0
147
0.0
147
0.0
147
0.0
147
1.0
147
0.0
147
0.0
147
0.0
147
0.0
147
1.0
  0
MATERIAL
  5
510
102
{ACAD_XDICTIONARY
360
511
102
}
102
{ACAD_REACTORS
330
50F
102
}
330
50F
100
AcDbMaterial
  1
ByLayer
 72
     0
 43
0.02083333
 43
0.0
 43
0.0
 43
0.0
 43
0.0
 43
0.02083333
 43
0.0
 43
0.0
 43
0.0
 43
0.0
 43
1.0
 43
0.0
 43
0.0
 43
0.0
 43
0.0
 43
1.0
 77
     0
 47
0.02083333
 47
0.0
 47
0.0
 47
0.0
 47
0.0
 47
0.02083333
 47
0.0
 47
0.0
 47
0.0
 47
0.0
 47
1.0
 47
0.0
 47
0.0
 47
0.0
 47
0.0
 47
1.0
171
     0
 49
0.02083333
 49
0.0
 49
0.0
 49
0.0
 49
0.0
 49
0.02083333
 49
0.0
 49
0.0
 49
0.0
 49
0.0
 49
1.0
 49
0.0
 49
0.0
 49
0.0
 49
0.0
 49
1.0
175
     0
142
0.02083333
142
0.0
142
0.0
142
0.0
142
0.0
142
0.02083333
142
0.0
142
0.0
142
0.0
142
0.0
142
1.0
142
0.0
142
0.0
142
0.0
142
0.0
142
1.0
179
     0
144
0.02083333
144
0.0
144
0.0
144
0.0
144
0.0
144
0.02083333
144
0.0
144
0.0
144
0.0
144
0.0
144
1.0
144
0.0
144
0.0
144
0.0
144
0.0
144
1.0
147
0.02083333
147
0.0
147
0.0
147
0.0
147
0.0
147
0.02083333
147
0.0
147
0.0
147
0.0
147
0.0
147
1.0
147
0.0
147
0.0
147
0.0
147
0.0
147
1.0
  0
MATERIAL
  5
520
102
{ACAD_XDICTIONARY
360
521
102
}
102
{ACAD_REACTORS
330
50F
102
}
330
50F
100
AcDbMaterial
  1
Global
 72
     0
 43
0.02083333
 43
0.0
 43
0.0
 43
0.0
 43
0.0
 43
0.02083333
 43
0.0
 43
0.0
 43
0.0
 43
0.0
 43
1.0
 43
0.0
 43
0.0
 43
0.0
 43
0.0
 43
1.0
 77
     0
 47
0.02083333
 47
0.0
 47
0.0
 47
0.0
 47
0.0
 47
0.02083333
 47
0.0
 47
0.0
 47
0.0
 47
0.0
 47
1.0
 47
0.0
 47
0.0
 47
0.0
 47
0.0
 47
1.0
171
     0
 49
0.02083333
 49
0.0
 49
0.0
 49
0.0
 49
0.0
 49
0.02083333
 49
0.0
 49
0.0
 49
0.0
 49
0.0
 49
1.0
 49
0.0
 49
0.0
 49
0.0
 49
0.0
 49
1.0
175
     0
142
0.02083333
142
0.0
142
0.0
142
0.0
142
0.0
142
0.02083333
142
0.0
142
0.0
142
0.0
142
0.0
142
1.0
142
0.0
142
0.0
142
0.0
142
0.0
142
1.0
179
     0
144
0.02083333
144
0.0
144
0.0
144
0.0
144
0.0
144
0.02083333
144
0.0
144
0.0
144
0.0
144
0.0
144
1.0
144
0.0
144
0.0
144
0.0
144
0.0
144
1.0
147
0.02083333
147
0.0
147
0.0
147
0.0
147
0.0
147
0.02083333
147
0.0
147
0.0
147
0.0
147
0.0
147
1.0
147
0.0
147
0.0
147
0.0
147
0.0
147
1.0
  0
MLEADERSTYLE
  5
557
102
{ACAD_XDICTIONARY
360
5E6
102
}
102
{ACAD_REACTORS
330
556
102
}
330
556
100
AcDbMLeaderStyle
170
     2
171
     1
172
     0
 90
        2
 40
0.0
 41
0.0
173
     1
 91
-1056964608
340
4E7
 92
       -2
290
     1
 42
0.09
291
     1
 43
0.36
  3
Standard
 44
0.18
300

342
4E5
174
     1
178
     6
175
     1
176
     0
 93
-1056964608
 45
0.18
292
     0
297
     0
 46
0.18
 94
-1056964608
 47
1.0
 49
1.0
140
1.0
293
     1
141
0.0
294
     1
177
     0
142
1.0
295
     0
296
     0
143
0.125
1001
ACAD_MLEADERVER
1070
     2
  0
MLINESTYLE
  5
4F1
102
{ACAD_REACTORS
330
4F0
102
}
330
4F0
100
AcDbMlineStyle
  2
STANDARD
 70
     0
  3

 62
   256
 51
90.0
 52
90.0
 71
     2
 49
0.5
 62
   256
  6
BYLAYER
 49
-0.5
 62
   256
  6
BYLAYER
  0
ACDBPLACEHOLDER
  5
50E
102
{ACAD_REACTORS
330
50D
102
}
330
50D
  0
SCALE
  5
545
102
{ACAD_REACTORS
330
544
102
}
330
544
100
AcDbScale
 70
     0
300
1:1
140
1.0
141
1.0
290
     1
  0
SCALE
  5
546
102
{ACAD_REACTORS
330
544
102
}
330
544
100
AcDbScale
 70
     0
300
1/128" = 1'-0"
140
0.0078125
141
12.0
290
     0
  0
SCALE
  5
547
102
{ACAD_REACTORS
330
544
102
}
330
544
100
AcDbScale
 70
     0
300
1/64" = 1'-0"
140
0.015625
141
12.0
290
     0
  0
SCALE
  5
548
102
{ACAD_REACTORS
330
544
102
}
330
544
100
AcDbScale
 70
     0
300
1/32" = 1'-0"
140
0.03125
141
12.0
290
     0
  0
SCALE
  5
549
102
{ACAD_REACTORS
330
544
102
}
330
544
100
AcDbScale
 70
     0
300
1/16" = 1'-0"
140
0.0625
141
12.0
290
     0
  0
SCALE
  5
54A
102
{ACAD_REACTORS
330
544
102
}
330
544
100
AcDbScale
 70
     0
300
3/32" = 1'-0"
140
0.09375
141
12.0
290
     0
  0
SCALE
  5
54B
102
{ACAD_REACTORS
330
544
102
}
330
544
100
AcDbScale
 70
     0
300
1/8" = 1'-0"
140
0.125
141
12.0
290
     0
  0
SCALE
  5
54C
102
{ACAD_REACTORS
330
544
102
}
330
544
100
AcDbScale
 70
     0
300
3/16" = 1'-0"
140
0.1875
141
12.0
290
     0
  0
SCALE
  5
54D
102
{ACAD_REACTORS
330
544
102
}
330
544
100
AcDbScale
 70
     0
300
1/4" = 1'-0"
140
0.25
141
12.0
290
     0
  0
SCALE
  5
54E
102
{ACAD_REACTORS
330
544
102
}
330
544
100
AcDbScale
 70
     0
300
3/8" = 1'-0"
140
0.375
141
12.0
290
     0
  0
SCALE
  5
54F
102
{ACAD_REACTORS
330
544
102
}
330
544
100
AcDbScale
 70
     0
300
1/2" = 1'-0"
140
0.5
141
12.0
290
     0
  0
SCALE
  5
550
102
{ACAD_REACTORS
330
544
102
}
330
544
100
AcDbScale
 70
     0
300
3/4" = 1'-0"
140
0.75
141
12.0
290
     0
  0
SCALE
  5
551
102
{ACAD_REACTORS
330
544
102
}
330
544
100
AcDbScale
 70
     0
300
1" = 1'-0"
140
1.0
141
12.0
290
     0
  0
SCALE
  5
552
102
{ACAD_REACTORS
330
544
102
}
330
544
100
AcDbScale
 70
     0
300
1-1/2" = 1'-0"
140
1.5
141
12.0
290
     0
  0
SCALE
  5
553
102
{ACAD_REACTORS
330
544
102
}
330
544
100
AcDbScale
 70
     0
300
3" = 1'-0"
140
3.0
141
12.0
290
     0
  0
SCALE
  5
554
102
{ACAD_REACTORS
330
544
102
}
330
544
100
AcDbScale
 70
     0
300
6" = 1'-0"
140
6.0
141
12.0
290
     0
  0
SCALE
  5
555
102
{ACAD_REACTORS
330
544
102
}
330
544
100
AcDbScale
 70
     0
300
1'-0" = 1'-0"
140
12.0
141
12.0
290
     0
  0
ACDBSECTIONVIEWSTYLE
  5
559
102
{ACAD_XDICTIONARY
360
5E8
102
}
102
{ACAD_REACTORS
330
558
102
}
330
558
100
AcDbModelDocViewStyle
 70
     0
  3
Imperial24
290
     0
100
AcDbSectionViewStyle
 70
     0
 71
     0
 90
      102
 71
     1
340
4E5
 62
   256
 40
5.0
340
0
340
0
 62
   256
 40
5.0
300
I, O, Q, S, X, Z
 40
10.0
 90
        0
 40
2.5
 90
        0
 71
     2
340
4E9
 90
       25
 62
   256
340
4E9
 90
       50
 62
   256
 40
5.0
 40
2.5
 40
5.0
 71
     3
340
4E5
 62
   256
 40
5.0
 90
        0
 40
15.0
 90
        1
300
%<\AcVar ViewSectionStartId>%-%<\AcVar ViewSectionEndId>% (%<\AcVar ViewScale \f "%sn">%)
 71
     4
 62
   256
 62
   257
300
ANSI31
 40
1.0
 90
        0
290
     0
290
     0
 90
        6
 40
0.0
 40
1.57079633
 40
0.26179939
 40
1.30899694
 40
-0.26179939
 40
1.83259571
  0
TABLESTYLE
  5
543
102
{ACAD_XDICTIONARY
360
562
102
}
102
{ACAD_REACTORS
330
542
102
}
330
542
100
AcDbTableStyle
  3
Standard
 70
     0
 71
     0
 40
0.06
 41
0.06
280
     0
281
     0
  7
STANDARD
140
0.18
170
     2
 62
     0
 63
     7
283
     0
274
    -2
284
     1
 64
     0
275
    -2
285
     1
 65
     0
276
    -2
286
     1
 66
     0
277
    -2
287
     1
 67
     0
278
    -2
288
     1
 68
     0
279
    -2
289
     1
 69
     0
  7
STANDARD
140
0.25
170
     5
 62
     0
 63
     7
283
     0
274
    -2
284
     1
 64
     0
275
    -2
285
     1
 65
     0
276
    -2
286
     1
 66
     0
277
    -2
287
     1
 67
     0
278
    -2
288
     1
 68
     0
279
    -2
289
     1
 69
     0
  7
STANDARD
140
0.18
170
     5
 62
     0
 63
     7
283
     0
274
    -2
284
     1
 64
     0
275
    -2
285
     1
 65
     0
276
    -2
286
     1
 66
     0
277
    -2
287
     1
 67
     0
278
    -2
288
     1
 68
     0
279
    -2
289
     1
 69
     0
  0
VISUALSTYLE
  5
52E
102
{ACAD_XDICTIONARY
360
5BF
102
}
102
{ACAD_REACTORS
330
528
102
}
330
528
100
AcDbVisualStyle
  2
2dWireframe
 70
     4
 71
     0
 72
     2
 73
     0
 90
        0
 40
-0.6
 41
-30.0
 62
     5
 63
     7
421
 16777215
 74
     1
 91
        4
 64
     7
 65
   257
 75
     1
175
     1
 42
1.0
 92
        0
 66
   257
 43
1.0
 76
     1
 77
     6
 78
     2
 67
     7
 79
     5
170
     0
171
     0
290
     0
174
     0
 93
        1
 44
0.0
173
     0
291
     0
 45
0.0
1001
ACAD
1000
AcDbSavedByObjectVersion
1070
     0
  0
VISUALSTYLE
  5
52D
102
{ACAD_XDICTIONARY
360
5BD
102
}
102
{ACAD_REACTORS
330
528
102
}
330
528
100
AcDbVisualStyle
  2
Basic
 70
     7
 71
     1
 72
     0
 73
     1
 90
        0
 40
-0.6
 41
-30.0
 62
     5
 63
     7
421
 16777215
 74
     0
 91
        4
 64
     7
 65
   257
 75
     1
175
     1
 42
1.0
 92
        8
 66
     7
 43
1.0
 76
     1
 77
     6
 78
     2
 67
     7
 79
     5
170
     0
171
     0
290
     0
174
     0
 93
        1
 44
0.0
173
     0
291
     1
 45
0.0
1001
ACAD
1000
AcDbSavedByObjectVersion
1070
     0
  0
VISUALSTYLE
  5
534
102
{ACAD_XDICTIONARY
360
5CB
102
}
102
{ACAD_REACTORS
330
528
102
}
330
528
100
AcDbVisualStyle
  2
Brighten
 70
    12
 71
     2
 72
     2
 73
     0
 90
        0
 40
-0.6
 41
-30.0
 62
     5
 63
     7
421
 16777215
 74
     1
 91
        4
 64
     7
 65
   257
 75
     1
175
     1
 42
1.0
 92
        8
 66
     7
 43
1.0
 76
     1
 77
     6
 78
     2
 67
     7
 79
     5
170
     0
171
     0
290
     0
174
     0
 93
        1
 44
50.0
173
     0
291
     1
 45
0.0
1001
ACAD
1000
AcDbSavedByObjectVersion
1070
     0
  0
VISUALSTYLE
  5
538
102
{ACAD_XDICTIONARY
360
5D3
102
}
102
{ACAD_REACTORS
330
528
102
}
330
528
100
AcDbVisualStyle
  2
ColorChange
 70
    16
 71
     2
 72
     2
 73
     3
 90
        0
 40
-0.6
 41
-30.0
 62
     5
 63
     8
421
  8421504
 74
     1
 91
        4
 64
     7
 65
   257
 75
     1
175
     1
 42
1.0
 92
        8
 66
     8
424
  8421504
 43
1.0
 76
     1
 77
     6
 78
     2
 67
     7
 79
     5
170
     0
171
     0
290
     0
174
     0
 93
        1
 44
0.0
173
     0
291
     1
 45
0.0
1001
ACAD
1000
AcDbSavedByObjectVersion
1070
     0
  0
VISUALSTYLE
  5
531
102
{ACAD_XDICTIONARY
360
5C5
102
}
102
{ACAD_REACTORS
330
528
102
}
330
528
100
AcDbVisualStyle
  2
Conceptual
 70
     9
 71
     3
 72
     2
 73
     0
 90
        0
 40
-0.6
 41
-30.0
 62
     5
 63
     7
421
 16777215
 74
     2
 91
        2
 64
     7
 65
   257
 75
     1
175
     1
 42
179.0
 92
        8
 66
     7
 43
1.0
 76
     1
 77
     6
 78
     2
 67
     7
 79
     3
170
     0
171
     0
290
     0
174
     0
 93
        1
 44
0.0
173
     0
291
     0
 45
0.0
1001
ACAD
1000
AcDbSavedByObjectVersion
1070
     0
  0
VISUALSTYLE
  5
533
102
{ACAD_XDICTIONARY
360
5C9
102
}
102
{ACAD_REACTORS
330
528
102
}
330
528
100
AcDbVisualStyle
  2
Dim
 70
    11
 71
     2
 72
     2
 73
     0
 90
        0
 40
-0.6
 41
-30.0
 62
     5
 63
     7
421
 16777215
 74
     1
 91
        4
 64
     7
 65
   257
 75
     1
175
     1
 42
1.0
 92
        8
 66
     7
 43
1.0
 76
     1
 77
     6
 78
     2
 67
     7
 79
     5
170
     0
171
     0
290
     0
174
     0
 93
        1
 44
-50.0
173
     0
291
     1
 45
0.0
1001
ACAD
1000
AcDbSavedByObjectVersion
1070
     0
  0
VISUALSTYLE
  5
540
102
{ACAD_XDICTIONARY
360
5E3
102
}
102
{ACAD_REACTORS
330
528
102
}
330
528
100
AcDbVisualStyle
  2
EdgeColorOff
 70
    22
 71
     2
 72
     2
 73
     0
 90
        0
 40
-0.6
 41
-30.0
 62
     5
 63
     7
421
 16777215
 74
     1
 91
        4
 64
     7
 65
   257
 75
     1
175
     1
 42
1.0
 92
        8
 66
     7
 43
1.0
 76
     1
 77
     6
 78
     2
 67
     7
 79
     5
170
     0
171
     0
290
     0
174
     0
 93
        1
 44
0.0
173
     0
291
     1
 45
0.0
1001
ACAD
1000
AcDbSavedByObjectVersion
1070
     0
  0
VISUALSTYLE
  5
537
102
{ACAD_XDICTIONARY
360
5D1
102
}
102
{ACAD_REACTORS
330
528
102
}
330
528
100
AcDbVisualStyle
  2
Facepattern
 70
    15
 71
     2
 72
     2
 73
     0
 90
        0
 40
-0.6
 41
-30.0
 62
     5
 63
     7
421
 16777215
 74
     1
 91
        4
 64
     7
 65
   257
 75
     1
175
     1
 42
1.0
 92
        8
 66
     7
 43
1.0
 76
     1
 77
     6
 78
     2
 67
     7
 79
     5
170
     0
171
     0
290
     0
174
     0
 93
        1
 44
0.0
173
     0
291
     1
 45
0.0
1001
ACAD
1000
AcDbSavedByObjectVersion
1070
     0
  0
VISUALSTYLE
  5
529
102
{ACAD_XDICTIONARY
360
5B5
102
}
102
{ACAD_REACTORS
330
528
102
}
330
528
100
AcDbVisualStyle
  2
Flat
 70
     0
 71
     2
 72
     1
 73
     1
 90
        2
 40
-0.6
 41
30.0
 62
     5
 63
     7
421
 16777215
 74
     0
 91
        0
 64
     7
 65
   257
 75
     1
175
     1
 42
1.0
 92
        8
 66
     7
 43
1.0
 76
     1
 77
     6
 78
     2
 67
     7
 79
     5
170
     0
171
     0
290
     0
174
     0
 93
       13
 44
0.0
173
     0
291
     1
 45
0.0
1001
ACAD
1000
AcDbSavedByObjectVersion
1070
     0
  0
VISUALSTYLE
  5
52A
102
{ACAD_XDICTIONARY
360
5B7
102
}
102
{ACAD_REACTORS
330
528
102
}
330
528
100
AcDbVisualStyle
  2
FlatWithEdges
 70
     1
 71
     2
 72
     1
 73
     1
 90
        2
 40
-0.6
 41
30.0
 62
     5
 63
     7
421
 16777215
 74
     1
 91
        0
 64
     7
 65
   257
 75
     1
175
     1
 42
1.0
 92
        0
 66
   257
 43
1.0
 76
     1
 77
     6
 78
     2
 67
     7
 79
     5
170
     0
171
     0
290
     0
174
     0
 93
       13
 44
0.0
173
     0
291
     1
 45
0.0
1001
ACAD
1000
AcDbSavedByObjectVersion
1070
     0
  0
VISUALSTYLE
  5
52B
102
{ACAD_XDICTIONARY
360
5B9
102
}
102
{ACAD_REACTORS
330
528
102
}
330
528
100
AcDbVisualStyle
  2
Gouraud
 70
     2
 71
     2
 72
     2
 73
     1
 90
        2
 40
-0.6
 41
30.0
 62
     5
 63
     7
421
 16777215
 74
     0
 91
        0
 64
     7
 65
   257
 75
     1
175
     1
 42
1.0
 92
        0
 66
     7
 43
1.0
 76
     1
 77
     6
 78
     2
 67
     7
 79
     5
170
     0
171
     0
290
     0
174
     0
 93
       13
 44
0.0
173
     0
291
     1
 45
0.0
1001
ACAD
1000
AcDbSavedByObjectVersion
1070
     0
  0
VISUALSTYLE
  5
52C
102
{ACAD_XDICTIONARY
360
5BB
102
}
102
{ACAD_REACTORS
330
528
102
}
330
528
100
AcDbVisualStyle
  2
GouraudWithEdges
 70
     3
 71
     2
 72
     2
 73
     1
 90
        2
 40
-0.6
 41
30.0
 62
     5
 63
     7
421
 16777215
 74
     1
 91
        0
 64
     7
 65
   257
 75
     1
175
     1
 42
1.0
 92
        0
 66
   257
 43
1.0
 76
     1
 77
     6
 78
     2
 67
     7
 79
     5
170
     0
171
     0
290
     0
174
     0
 93
       13
 44
0.0
173
     0
291
     1
 45
0.0
1001
ACAD
1000
AcDbSavedByObjectVersion
1070
     0
  0
VISUALSTYLE
  5
530
102
{ACAD_XDICTIONARY
360
5C3
102
}
102
{ACAD_REACTORS
330
528
102
}
330
528
100
AcDbVisualStyle
  2
Hidden
 70
     6
 71
     1
 72
     2
 73
     2
 90
        0
 40
-0.6
 41
-30.0
 62
     5
 63
     7
421
 16777215
 74
     2
 91
        2
 64
     7
 65
   257
 75
     2
175
     1
 42
40.0
 92
        0
 66
   257
 43
1.0
 76
     1
 77
     6
 78
     2
 67
     7
 79
     3
170
     0
171
     0
290
     0
174
     0
 93
        1
 44
0.0
173
     0
291
     0
 45
0.0
1001
ACAD
1000
AcDbSavedByObjectVersion
1070
     0
  0
VISUALSTYLE
  5
53E
102
{ACAD_XDICTIONARY
360
5DF
102
}
102
{ACAD_REACTORS
330
528
102
}
330
528
100
AcDbVisualStyle
  2
JitterOff
 70
    20
 71
     2
 72
     2
 73
     0
 90
        0
 40
-0.6
 41
-30.0
 62
     5
 63
     7
421
 16777215
 74
     1
 91
        4
 64
     7
 65
   257
 75
     1
175
     1
 42
1.0
 92
       10
 66
     7
 43
1.0
 76
     1
 77
     6
 78
     2
 67
     7
 79
     5
170
     0
171
     0
290
     0
174
     0
 93
        1
 44
0.0
173
     0
291
     1
 45
0.0
1001
ACAD
1000
AcDbSavedByObjectVersion
1070
     0
  0
VISUALSTYLE
  5
536
102
{ACAD_XDICTIONARY
360
5CF
102
}
102
{ACAD_REACTORS
330
528
102
}
330
528
100
AcDbVisualStyle
  2
Linepattern
 70
    14
 71
     2
 72
     2
 73
     0
 90
        0
 40
-0.6
 41
-30.0
 62
     5
 63
     7
421
 16777215
 74
     1
 91
        4
 64
     7
 65
   257
 75
     7
175
     7
 42
1.0
 92
        8
 66
     7
 43
1.0
 76
     1
 77
     6
 78
     2
 67
     7
 79
     5
170
     0
171
     0
290
     0
174
     0
 93
        1
 44
0.0
173
     0
291
     1
 45
0.0
1001
ACAD
1000
AcDbSavedByObjectVersion
1070
     0
  0
VISUALSTYLE
  5
53F
102
{ACAD_XDICTIONARY
360
5E1
102
}
102
{ACAD_REACTORS
330
528
102
}
330
528
100
AcDbVisualStyle
  2
OverhangOff
 70
    21
 71
     2
 72
     2
 73
     0
 90
        0
 40
-0.6
 41
-30.0
 62
     5
 63
     7
421
 16777215
 74
     1
 91
        4
 64
     7
 65
   257
 75
     1
175
     1
 42
1.0
 92
        9
 66
     7
 43
1.0
 76
     1
 77
     6
 78
     2
 67
     7
 79
     5
170
     0
171
     0
290
     0
174
     0
 93
        1
 44
0.0
173
     0
291
     1
 45
0.0
1001
ACAD
1000
AcDbSavedByObjectVersion
1070
     0
  0
VISUALSTYLE
  5
532
102
{ACAD_XDICTIONARY
360
5C7
102
}
102
{ACAD_REACTORS
330
528
102
}
330
528
100
AcDbVisualStyle
  2
Realistic
 70
     8
 71
     2
 72
     2
 73
     0
 90
        2
 40
-0.6
 41
30.0
 62
     5
 63
     7
421
 16777215
 74
     0
 91
        0
 64
     7
 65
   257
 75
     1
175
     1
 42
1.0
 92
        8
 66
   257
 43
1.0
 76
     1
 77
     6
 78
     2
 67
     7
 79
     3
170
     0
171
     0
290
     0
174
     0
 93
       13
 44
0.0
173
     0
291
     0
 45
0.0
1001
ACAD
1000
AcDbSavedByObjectVersion
1070
     0
  0
VISUALSTYLE
  5
53D
102
{ACAD_XDICTIONARY
360
5DD
102
}
102
{ACAD_REACTORS
330
528
102
}
330
528
100
AcDbVisualStyle
  2
Shaded
 70
    27
 71
     2
 72
     2
 73
     1
 90
        2
 40
-0.6
 41
30.0
 62
     5
 63
     7
421
 16777215
 74
     0
 91
        4
 64
     7
 65
   257
 75
     1
175
     1
 42
1.0
 92
        8
 66
   257
 43
1.0
 76
     1
 77
     6
 78
     2
 67
     8
425
  7895160
 79
     3
170
     0
171
     0
290
     0
174
     0
 93
        5
 44
0.0
173
     0
291
     0
 45
0.0
1001
ACAD
1000
AcDbSavedByObjectVersion
1070
     0
  0
VISUALSTYLE
  5
53C
102
{ACAD_XDICTIONARY
360
5DB
102
}
102
{ACAD_REACTORS
330
528
102
}
330
528
100
AcDbVisualStyle
  2
Shaded with edges
 70
    26
 71
     2
 72
     2
 73
     1
 90
        2
 40
-0.6
 41
30.0
 62
     5
 63
     7
421
 16777215
 74
     1
 91
       10
 64
     7
 65
   257
 75
     2
175
     1
 42
1.0
 92
        8
 66
   257
 43
1.0
 76
     1
 77
     6
 78
     2
 67
     7
 79
     3
170
     0
171
     0
290
     0
174
     0
 93
        5
 44
0.0
173
     0
291
     0
 45
0.0
1001
ACAD
1000
AcDbSavedByObjectVersion
1070
     0
  0
VISUALSTYLE
  5
539
102
{ACAD_XDICTIONARY
360
5D5
102
}
102
{ACAD_REACTORS
330
528
102
}
330
528
100
AcDbVisualStyle
  2
Shades of Gray
 70
    23
 71
     2
 72
     2
 73
     3
 90
        0
 40
-0.6
 41
-30.0
 62
     5
 63
     7
421
 16777215
 74
     2
 91
        2
 64
     7
 65
     7
 75
     1
175
     1
 42
40.0
 92
        8
 66
     7
 43
1.0
 76
     1
 77
     6
 78
     2
 67
     7
 79
     3
170
     0
171
     0
290
     0
174
     0
 93
        1
 44
0.0
173
     0
291
     0
 45
0.0
1001
ACAD
1000
AcDbSavedByObjectVersion
1070
     0
  0
VISUALSTYLE
  5
53A
102
{ACAD_XDICTIONARY
360
5D7
102
}
102
{ACAD_REACTORS
330
528
102
}
330
528
100
AcDbVisualStyle
  2
Sketchy
 70
    24
 71
     1
 72
     2
 73
     2
 90
        0
 40
-0.6
 41
-30.0
 62
     5
 63
     7
421
 16777215
 74
     2
 91
        2
 64
     7
 65
     7
 75
     1
175
     1
 42
40.0
 92
       11
 66
     7
 43
1.0
 76
     1
 77
     6
 78
     2
 67
     7
 79
     6
170
     0
171
     0
290
     0
174
     0
 93
        1
 44
0.0
173
     0
291
     0
 45
0.0
1001
ACAD
1000
AcDbSavedByObjectVersion
1070
     0
  0
VISUALSTYLE
  5
535
102
{ACAD_XDICTIONARY
360
5CD
102
}
102
{ACAD_REACTORS
330
528
102
}
330
528
100
AcDbVisualStyle
  2
Thicken
 70
    13
 71
     2
 72
     2
 73
     0
 90
        0
 40
-0.6
 41
-30.0
 62
     5
 63
     7
421
 16777215
 74
     1
 91
        4
 64
     7
 65
   257
 75
     1
175
     1
 42
1.0
 92
       12
 66
     7
 43
1.0
 76
     1
 77
     6
 78
     2
 67
     7
 79
     5
170
     0
171
     0
290
     0
174
     0
 93
        1
 44
0.0
173
     0
291
     1
 45
0.0
1001
ACAD
1000
AcDbSavedByObjectVersion
1070
     0
  0
VISUALSTYLE
  5
52F
102
{ACAD_XDICTIONARY
360
5C1
102
}
102
{ACAD_REACTORS
330
528
102
}
330
528
100
AcDbVisualStyle
  2
Wireframe
 70
     5
 71
     0
 72
     2
 73
     0
 90
        0
 40
-0.6
 41
-30.0
 62
     5
 63
     7
421
 16777215
 74
     1
 91
        4
 64
     7
 65
   257
 75
     1
175
     1
 42
1.0
 92
        0
 66
   257
 43
1.0
 76
     1
 77
     6
 78
     2
 67
     7
 79
     3
170
     0
171
     0
290
     0
174
     0
 93
        1
 44
0.0
173
     0
291
     0
 45
0.0
1001
ACAD
1000
AcDbSavedByObjectVersion
1070
     0
  0
VISUALSTYLE
  5
53B
102
{ACAD_XDICTIONARY
360
5D9
102
}
102
{ACAD_REACTORS
330
528
102
}
330
528
100
AcDbVisualStyle
  2
X-Ray
 70
    25
 71
     2
 72
     2
 73
     1
 90
        1
 40
0.5
 41
-30.0
 62
     5
 63
     7
421
 16777215
 74
     1
 91
        0
 64
     7
 65
   257
 75
     1
175
     1
 42
1.0
 92
        8
 66
     7
 43
1.0
 76
     1
 77
     6
 78
     2
 67
     7
 79
     3
170
     0
171
     0
290
     0
174
     0
 93
       13
 44
0.0
173
     0
291
     0
 45
0.0
1001
ACAD
1000
AcDbSavedByObjectVersion
1070
     0
  0
DICTIONARYVAR
  5
5A4
102
{ACAD_REACTORS
330
506
102
}
330
506
100
DictionaryVariables
280
     0
  1
1:1
  0
DICTIONARYVAR
  5
5A1
102
{ACAD_REACTORS
330
506
102
}
330
506
100
DictionaryVariables
280
     0
  1
STANDARD
  0
DICTIONARYVAR
  5
5A0
102
{ACAD_REACTORS
330
506
102
}
330
506
100
DictionaryVariables
280
     0
  1
STANDARD
  0
DICTIONARYVAR
  5
5A2
102
{ACAD_REACTORS
330
506
102
}
330
506
100
DictionaryVariables
280
     0
  1
Imperial24
  0
DICTIONARYVAR
  5
5A3
102
{ACAD_REACTORS
330
506
102
}
330
506
100
DictionaryVariables
280
     0
  1
Imperial24
  0
DICTIONARYVAR
  5
507
102
{ACAD_REACTORS
330
506
102
}
330
506
100
DictionaryVariables
280
     0
  1
0
  0
DICTIONARYVAR
  5
5AF
102
{ACAD_REACTORS
330
506
102
}
330
506
100
DictionaryVariables
280
     0
  1
2
  0
DICTIONARY
  5
5EA
330
55B
100
AcDbDictionary
280
     1
281
     1
  3
ACAD_XREC_ROUNDTRIP
360
5EB
  0
DICTIONARY
  5
519
330
518
100
AcDbDictionary
280
     1
281
     1
  3
ACAD_XREC_ROUNDTRIP
360
5B3
  3
BUMPTILE
360
51B
  3
DIFFUSETILE
360
51A
  3
OPACITYTILE
360
51E
  3
REFLECTIONTILE
360
51D
  3
REFRACTIONTILE
360
51F
  3
SPECULARTILE
360
51C
  0
DICTIONARY
  5
511
330
510
100
AcDbDictionary
280
     1
281
     1
  3
ACAD_XREC_ROUNDTRIP
360
5B2
  3
BUMPTILE
360
513
  3
DIFFUSETILE
360
512
  3
OPACITYTILE
360
516
  3
REFLECTIONTILE
360
515
  3
REFRACTIONTILE
360
517
  3
SPECULARTILE
360
514
  0
DICTIONARY
  5
521
330
520
100
AcDbDictionary
280
     1
281
     1
  3
ACAD_XREC_ROUNDTRIP
360
5B4
  3
BUMPTILE
360
523
  3
DIFFUSETILE
360
522
  3
OPACITYTILE
360
526
  3
REFLECTIONTILE
360
525
  3
REFRACTIONTILE
360
527
  3
SPECULARTILE
360
524
  0
DICTIONARY
  5
5E6
330
557
100
AcDbDictionary
280
     1
281
     1
  3
ACAD_XREC_ROUNDTRIP
360
5E7
  0
DICTIONARY
  5
5E8
330
559
100
AcDbDictionary
280
     1
281
     1
  3
ACAD_XREC_ROUNDTRIP
360
5E9
  0
DICTIONARY
  5
562
330
543
100
AcDbDictionary
280
     1
281
     1
  3
ACAD_ROUNDTRIP_2008_TABLESTYLE_CELLSTYLEMAP
360
5B0
  3
ACAD_XREC_ROUNDTRIP
360
5E5
  0
DICTIONARY
  5
5BF
330
52E
100
AcDbDictionary
280
     1
281
     1
  3
ACAD_XREC_ROUNDTRIP
360
5C0
  0
DICTIONARY
  5
5BD
330
52D
100
AcDbDictionary
280
     1
281
     1
  3
ACAD_XREC_ROUNDTRIP
360
5BE
  0
DICTIONARY
  5
5CB
330
534
100
AcDbDictionary
280
     1
281
     1
  3
ACAD_XREC_ROUNDTRIP
360
5CC
  0
DICTIONARY
  5
5D3
330
538
100
AcDbDictionary
280
     1
281
     1
  3
ACAD_XREC_ROUNDTRIP
360
5D4
  0
DICTIONARY
  5
5C5
330
531
100
AcDbDictionary
280
     1
281
     1
  3
ACAD_XREC_ROUNDTRIP
360
5C6
  0
DICTIONARY
  5
5C9
330
533
100
AcDbDictionary
280
     1
281
     1
  3
ACAD_XREC_ROUNDTRIP
360
5CA
  0
DICTIONARY
  5
5E3
330
540
100
AcDbDictionary
280
     1
281
     1
  3
ACAD_XREC_ROUNDTRIP
360
5E4
  0
DICTIONARY
  5
5D1
330
537
100
AcDbDictionary
280
     1
281
     1
  3
ACAD_XREC_ROUNDTRIP
360
5D2
  0
DICTIONARY
  5
5B5
330
529
100
AcDbDictionary
280
     1
281
     1
  3
ACAD_XREC_ROUNDTRIP
360
5B6
  0
DICTIONARY
  5
5B7
330
52A
100
AcDbDictionary
280
     1
281
     1
  3
ACAD_XREC_ROUNDTRIP
360
5B8
  0
DICTIONARY
  5
5B9
330
52B
100
AcDbDictionary
280
     1
281
     1
  3
ACAD_XREC_ROUNDTRIP
360
5BA
  0
DICTIONARY
  5
5BB
330
52C
100
AcDbDictionary
280
     1
281
     1
  3
ACAD_XREC_ROUNDTRIP
360
5BC
  0
DICTIONARY
  5
5C3
330
530
100
AcDbDictionary
280
     1
281
     1
  3
ACAD_XREC_ROUNDTRIP
360
5C4
  0
DICTIONARY
  5
5DF
330
53E
100
AcDbDictionary
280
     1
281
     1
  3
ACAD_XREC_ROUNDTRIP
360
5E0
  0
DICTIONARY
  5
5CF
330
536
100
AcDbDictionary
280
     1
281
     1
  3
ACAD_XREC_ROUNDTRIP
360
5D0
  0
DICTIONARY
  5
5E1
330
53F
100
AcDbDictionary
280
     1
281
     1
  3
ACAD_XREC_ROUNDTRIP
360
5E2
  0
DICTIONARY
  5
5C7
330
532
100
AcDbDictionary
280
     1
281
     1
  3
ACAD_XREC_ROUNDTRIP
360
5C8
  0
DICTIONARY
  5
5DD
330
53D
100
AcDbDictionary
280
     1
281
     1
  3
ACAD_XREC_ROUNDTRIP
360
5DE
  0
DICTIONARY
  5
5DB
330
53C
100
AcDbDictionary
280
     1
281
     1
  3
ACAD_XREC_ROUNDTRIP
360
5DC
  0
DICTIONARY
  5
5D5
330
539
100
AcDbDictionary
280
     1
281
     1
  3
ACAD_XREC_ROUNDTRIP
360
5D6
  0
DICTIONARY
  5
5D7
330
53A
100
AcDbDictionary
280
     1
281
     1
  3
ACAD_XREC_ROUNDTRIP
360
5D8
  0
DICTIONARY
  5
5CD
330
535
100
AcDbDictionary
280
     1
281
     1
  3
ACAD_XREC_ROUNDTRIP
360
5CE
  0
DICTIONARY
  5
5C1
330
52F
100
AcDbDictionary
280
     1
281
     1
  3
ACAD_XREC_ROUNDTRIP
360
5C2
  0
DICTIONARY
  5
5D9
330
53B
100
AcDbDictionary
280
     1
281
     1
  3
ACAD_XREC_ROUNDTRIP
360
5DA
  0
XRECORD
  5
5EB
102
{ACAD_REACTORS
330
5EA
102
}
330
5EA
100
AcDbXrecord
280
     1
102
DISPLAYNAME
  1
Imperial24
102
FLAGS
 90
        0
  0
XRECORD
  5
5B3
102
{ACAD_REACTORS
330
519
102
}
330
519
100
AcDbXrecord
280
     1
102
MATERIAL
148
0.0
149
0.0
149
0.0
 93
        0
 94
      127
282
     0
 72
     0
 77
     0
171
     0
175
     0
179
     0
273
     0
  0
XRECORD
  5
51B
102
{ACAD_REACTORS
330
519
102
}
330
519
100
AcDbXrecord
280
     1
270
     1
271
     1
  0
XRECORD
  5
51A
102
{ACAD_REACTORS
330
519
102
}
330
519
100
AcDbXrecord
280
     1
270
     1
271
     1
  0
XRECORD
  5
51E
102
{ACAD_REACTORS
330
519
102
}
330
519
100
AcDbXrecord
280
     1
270
     1
271
     1
  0
XRECORD
  5
51D
102
{ACAD_REACTORS
330
519
102
}
330
519
100
AcDbXrecord
280
     1
270
     1
271
     1
  0
XRECORD
  5
51F
102
{ACAD_REACTORS
330
519
102
}
330
519
100
AcDbXrecord
280
     1
270
     1
271
     1
  0
XRECORD
  5
51C
102
{ACAD_REACTORS
330
519
102
}
330
519
100
AcDbXrecord
280
     1
270
     1
271
     1
  0
XRECORD
  5
5B2
102
{ACAD_REACTORS
330
511
102
}
330
511
100
AcDbXrecord
280
     1
102
MATERIAL
148
0.0
149
0.0
149
0.0
 93
        0
 94
      127
282
     0
 72
     0
 77
     0
171
     0
175
     0
179
     0
273
     0
  0
XRECORD
  5
513
102
{ACAD_REACTORS
330
511
102
}
330
511
100
AcDbXrecord
280
     1
270
     1
271
     1
  0
XRECORD
  5
512
102
{ACAD_REACTORS
330
511
102
}
330
511
100
AcDbXrecord
280
     1
270
     1
271
     1
  0
XRECORD
  5
516
102
{ACAD_REACTORS
330
511
102
}
330
511
100
AcDbXrecord
280
     1
270
     1
271
     1
  0
XRECORD
  5
515
102
{ACAD_REACTORS
330
511
102
}
330
511
100
AcDbXrecord
280
     1
270
     1
271
     1
  0
XRECORD
  5
517
102
{ACAD_REACTORS
330
511
102
}
330
511
100
AcDbXrecord
280
     1
270
     1
271
     1
  0
XRECORD
  5
514
102
{ACAD_REACTORS
330
511
102
}
330
511
100
AcDbXrecord
280
     1
270
     1
271
     1
  0
XRECORD
  5
5B4
102
{ACAD_REACTORS
330
521
102
}
330
521
100
AcDbXrecord
280
     1
102
MATERIAL
148
0.0
149
0.0
149
0.0
 93
        0
 94
      127
282
     0
 72
     0
 77
     0
171
     0
175
     0
179
     0
273
     0
  0
XRECORD
  5
523
102
{ACAD_REACTORS
330
521
102
}
330
521
100
AcDbXrecord
280
     1
270
     1
271
     1
  0
XRECORD
  5
522
102
{ACAD_REACTORS
330
521
102
}
330
521
100
AcDbXrecord
280
     1
270
     1
271
     1
  0
XRECORD
  5
526
102
{ACAD_REACTORS
330
521
102
}
330
521
100
AcDbXrecord
280
     1
270
     1
271
     1
  0
XRECORD
  5
525
102
{ACAD_REACTORS
330
521
102
}
330
521
100
AcDbXrecord
280
     1
270
     1
271
     1
  0
XRECORD
  5
527
102
{ACAD_REACTORS
330
521
102
}
330
521
100
AcDbXrecord
280
     1
270
     1
271
     1
  0
XRECORD
  5
524
102
{ACAD_REACTORS
330
521
102
}
330
521
100
AcDbXrecord
280
     1
270
     1
271
     1
  0
XRECORD
  5
5E7
102
{ACAD_REACTORS
330
5E6
102
}
330
5E6
100
AcDbXrecord
280
     1
102
ACAD_ROUNDTRIP_2012_MLEADER_STYLE
298
     1
  0
XRECORD
  5
5E9
102
{ACAD_REACTORS
330
5E8
102
}
330
5E8
100
AcDbXrecord
280
     1
102
DISPLAYNAME
  1
Imperial24
102
FLAGS
 90
        0
  0
CELLSTYLEMAP
  5
5B0
102
{ACAD_REACTORS
330
562
102
}
330
562
100
AcDbCellStyleMap
 90
        3
300
CELLSTYLE
  1
TABLEFORMAT_BEGIN
 90
        5
170
     1
 91
        0
 92
    32768
 62
   257
 93
        1
300
CONTENTFORMAT
  1
CONTENTFORMAT_BEGIN
 90
        0
 91
        0
 92
      512
 93
        0
300

 40
0.0
140
1.0
 94
        5
 62
     0
340
4E5
144
0.25
309
CONTENTFORMAT_END
171
     0
 94
        0
309
TABLEFORMAT_END
  1
CELLSTYLE_BEGIN
 90
        1
 91
        1
300
_TITLE
309
CELLSTYLE_END
300
CELLSTYLE
  1
TABLEFORMAT_BEGIN
 90
        5
170
     1
 91
        0
 92
        0
 62
   257
 93
        1
300
CONTENTFORMAT
  1
CONTENTFORMAT_BEGIN
 90
        0
 91
        0
 92
      512
 93
        0
300

 40
0.0
140
1.0
 94
        5
 62
     0
340
4E5
144
0.18
309
CONTENTFORMAT_END
171
     0
 94
        0
309
TABLEFORMAT_END
  1
CELLSTYLE_BEGIN
 90
        2
 91
        1
300
_HEADER
309
CELLSTYLE_END
300
CELLSTYLE
  1
TABLEFORMAT_BEGIN
 90
        5
170
     1
 91
        0
 92
        0
 62
   257
 93
        1
300
CONTENTFORMAT
  1
CONTENTFORMAT_BEGIN
 90
        0
 91
        0
 92
      512
 93
        0
300

 40
0.0
140
1.0
 94
        2
 62
     0
340
4E5
144
0.18
309
CONTENTFORMAT_END
171
     0
 94
        0
309
TABLEFORMAT_END
  1
CELLSTYLE_BEGIN
 90
        3
 91
        2
300
_DATA
309
CELLSTYLE_END
  0
XRECORD
  5
5E5
102
{ACAD_REACTORS
330
562
102
}
330
562
100
AcDbXrecord
280
     1
102
ACAD_ROUNDTRIP_PRE2007_TABLESTYLE
 90
      512
 91
        0
  1

 92
      512
 93
        0
  2

 94
      512
 95
        0
  3

  0
XRECORD
  5
5C0
102
{ACAD_REACTORS
330
5BF
102
}
330
5BF
100
AcDbXrecord
280
     1
102
RTVSPost2010Prop28
280
     1
102
RTVSPost2010PropOp28
 70
     1
102
RTVSPost2010Prop29
280
     1
102
RTVSPost2010PropOp29
 70
     1
102
RTVSPost2010Prop30
280
     0
102
RTVSPost2010PropOp30
 70
     1
102
RTVSPost2010Prop31
280
     0
102
RTVSPost2010PropOp31
 70
     1
102
RTVSPost2010Prop32
280
     0
102
RTVSPost2010PropOp32
 70
     1
102
RTVSPost2010Prop33
280
     0
102
RTVSPost2010PropOp33
 70
     1
102
RTVSPost2010Prop34
280
     0
102
RTVSPost2010PropOp34
 70
     1
102
RTVSPost2010Prop35
280
     0
102
RTVSPost2010PropOp35
 70
     1
102
RTVSPost2010Prop36
280
     0
102
RTVSPost2010PropOp36
 70
     1
102
RTVSPost2010Prop37
 90
       50
102
RTVSPost2010PropOp37
 70
     1
102
RTVSPost2010Prop38
140
0.0
102
RTVSPost2010PropOp38
 70
     1
102
RTVSPost2010Prop39
140
1.0
102
RTVSPost2010PropOp39
 70
     1
102
RTVSPost2010Prop40
 90
        0
102
RTVSPost2010PropOp40
 70
     1
102
RTVSPost2010Prop41ColorIndex
 90
       18
102
RTVSPost2010Prop41ColorRGB
 90
        0
102
RTVSPost2010PropOp41
 70
     1
102
RTVSPost2010Prop42
 90
       50
102
RTVSPost2010PropOp42
 70
     1
102
RTVSPost2010Prop43
 90
        3
102
RTVSPost2010PropOp43
 70
     1
102
RTVSPost2010Prop44ColorIndex
 90
        5
102
RTVSPost2010Prop44ColorRGB
 90
      255
102
RTVSPost2010PropOp44
 70
     1
102
RTVSPost2010Prop45
280
     0
102
RTVSPost2010PropOp45
 70
     1
102
RTVSPost2010Prop46
 90
       50
102
RTVSPost2010PropOp46
 70
     1
102
RTVSPost2010Prop47
 90
       50
102
RTVSPost2010PropOp47
 70
     1
102
RTVSPost2010Prop48
 90
       50
102
RTVSPost2010PropOp48
 70
     1
102
RTVSPost2010Prop49
280
     0
102
RTVSPost2010PropOp49
 70
     1
102
RTVSPost2010Prop50
 90
       50
102
RTVSPost2010PropOp50
 70
     1
102
RTVSPost2010Prop51ColorIndex
 90
      256
102
RTVSPost2010Prop51ColorRGB
 90
-16777216
102
RTVSPost2010PropOp51
 70
     0
102
RTVSPost2010Prop52
140
1.0
102
RTVSPost2010PropOp52
 70
     0
102
RTVSPost2010Prop53
 90
        2
102
RTVSPost2010PropOp53
 70
     1
102
RTVSPost2010Prop54
  1
strokes_ogs.tif
102
RTVSPost2010PropOp54
 70
     1
102
RTVSPost2010Prop55
280
     0
102
RTVSPost2010PropOp55
 70
     1
102
RTVSPost2010Prop56
140
1.0
102
RTVSPost2010PropOp56
 70
     1
102
RTVSPost2010Prop57
140
1.0
102
RTVSPost2010PropOp57
 70
     1
102
RTVSPropertyOp0
 70
     1
102
RTVSPropertyOp1
 70
     1
102
RTVSPropertyOp2
 70
     1
102
RTVSPropertyOp3
 70
     1
102
RTVSPropertyOp4
 70
     1
102
RTVSPropertyOp5
 70
     1
102
RTVSPropertyOp6
 70
     1
102
RTVSPropertyOp7
 70
     1
102
RTVSPropertyOp8
 70
     1
102
RTVSPropertyOp9
 70
     1
102
RTVSPropertyOp10
 70
     1
102
RTVSPropertyOp11
 70
     1
102
RTVSPropertyOp12
 70
     1
102
RTVSPropertyOp13
 70
     1
102
RTVSPropertyOp14
 70
     1
102
RTVSPropertyOp15
 70
     1
102
RTVSPropertyOp16
 70
     1
102
RTVSPropertyOp17
 70
     1
102
RTVSPropertyOp18
 70
     1
102
RTVSPropertyOp19
 70
     1
102
RTVSPropertyOp20
 70
     1
102
RTVSPropertyOp21
 70
     1
102
RTVSPropertyOp22
 70
     1
102
RTVSPropertyOp23
 70
     1
102
RTVSPropertyOp24
 70
     1
102
RTVSPropertyOp25
 70
     1
102
RTVSPropertyOp26
 70
     1
102
RTVSPropertyOp27
 70
     1
102
RTVSPropertyOp28
 70
     1
102
RTVSPropertyOp29
 70
     1
102
RTVSPropertyOp30
 70
     1
102
RTVSPropertyOp31
 70
     1
102
RTVSPropertyOp32
 70
     1
102
RTVSPropertyOp33
 70
     1
102
RTVSPropertyOp34
 70
     1
102
RTVSPropertyOp35
 70
     1
102
RTVSPropertyOp36
 70
     1
102
RTVSPropertyOp37
 70
     1
102
RTVSPropertyOp38
 70
     1
102
RTVSPropertyOp39
 70
     1
102
RTVSPropertyOp40
 70
     1
102
RTVSPropertyOp41
 70
     1
102
RTVSPropertyOp42
 70
     1
102
RTVSPropertyOp43
 70
     1
102
RTVSPropertyOp44
 70
     1
102
RTVSPropertyOp45
 70
     1
102
RTVSPropertyOp46
 70
     1
102
RTVSPropertyOp47
 70
     1
102
RTVSPropertyOp48
 70
     1
102
RTVSPropertyOp49
 70
     1
102
RTVSPropertyOp50
 70
     1
102
RTVSPropertyOp51
 70
     0
102
RTVSPropertyOp52
 70
     0
102
RTVSPropertyOp53
 70
     1
102
RTVSPropertyOp54
 70
     1
102
RTVSPropertyOp55
 70
     1
102
RTVSPropertyOp56
 70
     1
102
RTVSPropertyOp57
 70
     1
102
RTVSPropertyOp58
 70
     1
102
RTVSPropertyOp59
 70
     1
102
RTVSPropertyOp60
 70
     1
102
RTVSPropertyOp61
 70
     1
102
RTVSPropertyOp62
 70
     1
  0
XRECORD
  5
5BE
102
{ACAD_REACTORS
330
5BD
102
}
330
5BD
100
AcDbXrecord
280
     1
102
RTVSPost2010Prop28
280
     0
102
RTVSPost2010PropOp28
 70
     1
102
RTVSPost2010Prop29
280
     1
102
RTVSPost2010PropOp29
 70
     1
102
RTVSPost2010Prop30
280
     1
102
RTVSPost2010PropOp30
 70
     1
102
RTVSPost2010Prop31
280
     0
102
RTVSPost2010PropOp31
 70
     1
102
RTVSPost2010Prop32
280
     0
102
RTVSPost2010PropOp32
 70
     1
102
RTVSPost2010Prop33
280
     0
102
RTVSPost2010PropOp33
 70
     1
102
RTVSPost2010Prop34
280
     0
102
RTVSPost2010PropOp34
 70
     1
102
RTVSPost2010Prop35
280
     0
102
RTVSPost2010PropOp35
 70
     1
102
RTVSPost2010Prop36
280
     0
102
RTVSPost2010PropOp36
 70
     1
102
RTVSPost2010Prop37
 90
       50
102
RTVSPost2010PropOp37
 70
     1
102
RTVSPost2010Prop38
140
0.0
102
RTVSPost2010PropOp38
 70
     1
102
RTVSPost2010Prop39
140
1.0
102
RTVSPost2010PropOp39
 70
     1
102
RTVSPost2010Prop40
 90
        0
102
RTVSPost2010PropOp40
 70
     1
102
RTVSPost2010Prop41ColorIndex
 90
       18
102
RTVSPost2010Prop41ColorRGB
 90
        0
102
RTVSPost2010PropOp41
 70
     1
102
RTVSPost2010Prop42
 90
       50
102
RTVSPost2010PropOp42
 70
     1
102
RTVSPost2010Prop43
 90
        3
102
RTVSPost2010PropOp43
 70
     1
102
RTVSPost2010Prop44ColorIndex
 90
        5
102
RTVSPost2010Prop44ColorRGB
 90
      255
102
RTVSPost2010PropOp44
 70
     1
102
RTVSPost2010Prop45
280
     0
102
RTVSPost2010PropOp45
 70
     1
102
RTVSPost2010Prop46
 90
       50
102
RTVSPost2010PropOp46
 70
     1
102
RTVSPost2010Prop47
 90
       50
102
RTVSPost2010PropOp47
 70
     1
102
RTVSPost2010Prop48
 90
       50
102
RTVSPost2010PropOp48
 70
     1
102
RTVSPost2010Prop49
280
     0
102
RTVSPost2010PropOp49
 70
     1
102
RTVSPost2010Prop50
 90
       50
102
RTVSPost2010PropOp50
 70
     1
102
RTVSPost2010Prop51ColorIndex
 90
      256
102
RTVSPost2010Prop51ColorRGB
 90
-16777216
102
RTVSPost2010PropOp51
 70
     0
102
RTVSPost2010Prop52
140
1.0
102
RTVSPost2010PropOp52
 70
     0
102
RTVSPost2010Prop53
 90
        2
102
RTVSPost2010PropOp53
 70
     1
102
RTVSPost2010Prop54
  1
strokes_ogs.tif
102
RTVSPost2010PropOp54
 70
     1
102
RTVSPost2010Prop55
280
     0
102
RTVSPost2010PropOp55
 70
     1
102
RTVSPost2010Prop56
140
1.0
102
RTVSPost2010PropOp56
 70
     1
102
RTVSPost2010Prop57
140
1.0
102
RTVSPost2010PropOp57
 70
     1
102
RTVSPropertyOp0
 70
     1
102
RTVSPropertyOp1
 70
     1
102
RTVSPropertyOp2
 70
     1
102
RTVSPropertyOp3
 70
     1
102
RTVSPropertyOp4
 70
     1
102
RTVSPropertyOp5
 70
     1
102
RTVSPropertyOp6
 70
     1
102
RTVSPropertyOp7
 70
     1
102
RTVSPropertyOp8
 70
     1
102
RTVSPropertyOp9
 70
     1
102
RTVSPropertyOp10
 70
     1
102
RTVSPropertyOp11
 70
     1
102
RTVSPropertyOp12
 70
     1
102
RTVSPropertyOp13
 70
     1
102
RTVSPropertyOp14
 70
     1
102
RTVSPropertyOp15
 70
     1
102
RTVSPropertyOp16
 70
     1
102
RTVSPropertyOp17
 70
     1
102
RTVSPropertyOp18
 70
     1
102
RTVSPropertyOp19
 70
     1
102
RTVSPropertyOp20
 70
     1
102
RTVSPropertyOp21
 70
     1
102
RTVSPropertyOp22
 70
     1
102
RTVSPropertyOp23
 70
     1
102
RTVSPropertyOp24
 70
     1
102
RTVSPropertyOp25
 70
     1
102
RTVSPropertyOp26
 70
     1
102
RTVSPropertyOp27
 70
     1
102
RTVSPropertyOp28
 70
     1
102
RTVSPropertyOp29
 70
     1
102
RTVSPropertyOp30
 70
     1
102
RTVSPropertyOp31
 70
     1
102
RTVSPropertyOp32
 70
     1
102
RTVSPropertyOp33
 70
     1
102
RTVSPropertyOp34
 70
     1
102
RTVSPropertyOp35
 70
     1
102
RTVSPropertyOp36
 70
     1
102
RTVSPropertyOp37
 70
     1
102
RTVSPropertyOp38
 70
     1
102
RTVSPropertyOp39
 70
     1
102
RTVSPropertyOp40
 70
     1
102
RTVSPropertyOp41
 70
     1
102
RTVSPropertyOp42
 70
     1
102
RTVSPropertyOp43
 70
     1
102
RTVSPropertyOp44
 70
     1
102
RTVSPropertyOp45
 70
     1
102
RTVSPropertyOp46
 70
     1
102
RTVSPropertyOp47
 70
     1
102
RTVSPropertyOp48
 70
     1
102
RTVSPropertyOp49
 70
     1
102
RTVSPropertyOp50
 70
     1
102
RTVSPropertyOp51
 70
     0
102
RTVSPropertyOp52
 70
     0
102
RTVSPropertyOp53
 70
     1
102
RTVSPropertyOp54
 70
     1
102
RTVSPropertyOp55
 70
     1
102
RTVSPropertyOp56
 70
     1
102
RTVSPropertyOp57
 70
     1
102
RTVSPropertyOp58
 70
     1
102
RTVSPropertyOp59
 70
     1
102
RTVSPropertyOp60
 70
     1
102
RTVSPropertyOp61
 70
     1
102
RTVSPropertyOp62
 70
     1
  0
XRECORD
  5
5CC
102
{ACAD_REACTORS
330
5CB
102
}
330
5CB
100
AcDbXrecord
280
     1
102
RTVSPost2010Prop28
280
     0
102
RTVSPost2010PropOp28
 70
     1
102
RTVSPost2010Prop29
280
     1
102
RTVSPost2010PropOp29
 70
     1
102
RTVSPost2010Prop30
280
     1
102
RTVSPost2010PropOp30
 70
     1
102
RTVSPost2010Prop31
280
     0
102
RTVSPost2010PropOp31
 70
     1
102
RTVSPost2010Prop32
280
     0
102
RTVSPost2010PropOp32
 70
     1
102
RTVSPost2010Prop33
280
     0
102
RTVSPost2010PropOp33
 70
     1
102
RTVSPost2010Prop34
280
     0
102
RTVSPost2010PropOp34
 70
     1
102
RTVSPost2010Prop35
280
     0
102
RTVSPost2010PropOp35
 70
     1
102
RTVSPost2010Prop36
280
     0
102
RTVSPost2010PropOp36
 70
     1
102
RTVSPost2010Prop37
 90
       50
102
RTVSPost2010PropOp37
 70
     1
102
RTVSPost2010Prop38
140
0.0
102
RTVSPost2010PropOp38
 70
     1
102
RTVSPost2010Prop39
140
1.0
102
RTVSPost2010PropOp39
 70
     1
102
RTVSPost2010Prop40
 90
        0
102
RTVSPost2010PropOp40
 70
     1
102
RTVSPost2010Prop41ColorIndex
 90
       18
102
RTVSPost2010Prop41ColorRGB
 90
        0
102
RTVSPost2010PropOp41
 70
     1
102
RTVSPost2010Prop42
 90
       50
102
RTVSPost2010PropOp42
 70
     1
102
RTVSPost2010Prop43
 90
        3
102
RTVSPost2010PropOp43
 70
     1
102
RTVSPost2010Prop44ColorIndex
 90
        5
102
RTVSPost2010Prop44ColorRGB
 90
      255
102
RTVSPost2010PropOp44
 70
     1
102
RTVSPost2010Prop45
280
     0
102
RTVSPost2010PropOp45
 70
     1
102
RTVSPost2010Prop46
 90
       50
102
RTVSPost2010PropOp46
 70
     1
102
RTVSPost2010Prop47
 90
       50
102
RTVSPost2010PropOp47
 70
     1
102
RTVSPost2010Prop48
 90
       50
102
RTVSPost2010PropOp48
 70
     1
102
RTVSPost2010Prop49
280
     0
102
RTVSPost2010PropOp49
 70
     1
102
RTVSPost2010Prop50
 90
       50
102
RTVSPost2010PropOp50
 70
     1
102
RTVSPost2010Prop51ColorIndex
 90
      256
102
RTVSPost2010Prop51ColorRGB
 90
-16777216
102
RTVSPost2010PropOp51
 70
     0
102
RTVSPost2010Prop52
140
1.0
102
RTVSPost2010PropOp52
 70
     0
102
RTVSPost2010Prop53
 90
        2
102
RTVSPost2010PropOp53
 70
     1
102
RTVSPost2010Prop54
  1
strokes_ogs.tif
102
RTVSPost2010PropOp54
 70
     1
102
RTVSPost2010Prop55
280
     0
102
RTVSPost2010PropOp55
 70
     1
102
RTVSPost2010Prop56
140
1.0
102
RTVSPost2010PropOp56
 70
     1
102
RTVSPost2010Prop57
140
1.0
102
RTVSPost2010PropOp57
 70
     1
102
RTVSPropertyOp0
 70
     1
102
RTVSPropertyOp1
 70
     1
102
RTVSPropertyOp2
 70
     1
102
RTVSPropertyOp3
 70
     1
102
RTVSPropertyOp4
 70
     1
102
RTVSPropertyOp5
 70
     1
102
RTVSPropertyOp6
 70
     1
102
RTVSPropertyOp7
 70
     1
102
RTVSPropertyOp8
 70
     1
102
RTVSPropertyOp9
 70
     1
102
RTVSPropertyOp10
 70
     1
102
RTVSPropertyOp11
 70
     1
102
RTVSPropertyOp12
 70
     1
102
RTVSPropertyOp13
 70
     1
102
RTVSPropertyOp14
 70
     1
102
RTVSPropertyOp15
 70
     1
102
RTVSPropertyOp16
 70
     1
102
RTVSPropertyOp17
 70
     1
102
RTVSPropertyOp18
 70
     1
102
RTVSPropertyOp19
 70
     1
102
RTVSPropertyOp20
 70
     1
102
RTVSPropertyOp21
 70
     1
102
RTVSPropertyOp22
 70
     1
102
RTVSPropertyOp23
 70
     1
102
RTVSPropertyOp24
 70
     1
102
RTVSPropertyOp25
 70
     1
102
RTVSPropertyOp26
 70
     1
102
RTVSPropertyOp27
 70
     1
102
RTVSPropertyOp28
 70
     1
102
RTVSPropertyOp29
 70
     1
102
RTVSPropertyOp30
 70
     1
102
RTVSPropertyOp31
 70
     1
102
RTVSPropertyOp32
 70
     1
102
RTVSPropertyOp33
 70
     1
102
RTVSPropertyOp34
 70
     1
102
RTVSPropertyOp35
 70
     1
102
RTVSPropertyOp36
 70
     1
102
RTVSPropertyOp37
 70
     1
102
RTVSPropertyOp38
 70
     1
102
RTVSPropertyOp39
 70
     1
102
RTVSPropertyOp40
 70
     1
102
RTVSPropertyOp41
 70
     1
102
RTVSPropertyOp42
 70
     1
102
RTVSPropertyOp43
 70
     1
102
RTVSPropertyOp44
 70
     1
102
RTVSPropertyOp45
 70
     1
102
RTVSPropertyOp46
 70
     1
102
RTVSPropertyOp47
 70
     1
102
RTVSPropertyOp48
 70
     1
102
RTVSPropertyOp49
 70
     1
102
RTVSPropertyOp50
 70
     1
102
RTVSPropertyOp51
 70
     0
102
RTVSPropertyOp52
 70
     0
102
RTVSPropertyOp53
 70
     1
102
RTVSPropertyOp54
 70
     1
102
RTVSPropertyOp55
 70
     1
102
RTVSPropertyOp56
 70
     1
102
RTVSPropertyOp57
 70
     1
102
RTVSPropertyOp58
 70
     1
102
RTVSPropertyOp59
 70
     1
102
RTVSPropertyOp60
 70
     1
102
RTVSPropertyOp61
 70
     1
102
RTVSPropertyOp62
 70
     1
  0
XRECORD
  5
5D4
102
{ACAD_REACTORS
330
5D3
102
}
330
5D3
100
AcDbXrecord
280
     1
102
RTVSPost2010Prop28
280
     0
102
RTVSPost2010PropOp28
 70
     1
102
RTVSPost2010Prop29
280
     1
102
RTVSPost2010PropOp29
 70
     1
102
RTVSPost2010Prop30
280
     1
102
RTVSPost2010PropOp30
 70
     1
102
RTVSPost2010Prop31
280
     0
102
RTVSPost2010PropOp31
 70
     1
102
RTVSPost2010Prop32
280
     0
102
RTVSPost2010PropOp32
 70
     1
102
RTVSPost2010Prop33
280
     0
102
RTVSPost2010PropOp33
 70
     1
102
RTVSPost2010Prop34
280
     0
102
RTVSPost2010PropOp34
 70
     1
102
RTVSPost2010Prop35
280
     0
102
RTVSPost2010PropOp35
 70
     1
102
RTVSPost2010Prop36
280
     0
102
RTVSPost2010PropOp36
 70
     1
102
RTVSPost2010Prop37
 90
       50
102
RTVSPost2010PropOp37
 70
     1
102
RTVSPost2010Prop38
140
0.0
102
RTVSPost2010PropOp38
 70
     1
102
RTVSPost2010Prop39
140
1.0
102
RTVSPost2010PropOp39
 70
     1
102
RTVSPost2010Prop40
 90
        0
102
RTVSPost2010PropOp40
 70
     1
102
RTVSPost2010Prop41ColorIndex
 90
       18
102
RTVSPost2010Prop41ColorRGB
 90
        0
102
RTVSPost2010PropOp41
 70
     1
102
RTVSPost2010Prop42
 90
       50
102
RTVSPost2010PropOp42
 70
     1
102
RTVSPost2010Prop43
 90
        3
102
RTVSPost2010PropOp43
 70
     1
102
RTVSPost2010Prop44ColorIndex
 90
        5
102
RTVSPost2010Prop44ColorRGB
 90
      255
102
RTVSPost2010PropOp44
 70
     1
102
RTVSPost2010Prop45
280
     0
102
RTVSPost2010PropOp45
 70
     1
102
RTVSPost2010Prop46
 90
       50
102
RTVSPost2010PropOp46
 70
     1
102
RTVSPost2010Prop47
 90
       50
102
RTVSPost2010PropOp47
 70
     1
102
RTVSPost2010Prop48
 90
       50
102
RTVSPost2010PropOp48
 70
     1
102
RTVSPost2010Prop49
280
     0
102
RTVSPost2010PropOp49
 70
     1
102
RTVSPost2010Prop50
 90
       50
102
RTVSPost2010PropOp50
 70
     1
102
RTVSPost2010Prop51ColorIndex
 90
      256
102
RTVSPost2010Prop51ColorRGB
 90
-16777216
102
RTVSPost2010PropOp51
 70
     0
102
RTVSPost2010Prop52
140
1.0
102
RTVSPost2010PropOp52
 70
     0
102
RTVSPost2010Prop53
 90
        2
102
RTVSPost2010PropOp53
 70
     1
102
RTVSPost2010Prop54
  1
strokes_ogs.tif
102
RTVSPost2010PropOp54
 70
     1
102
RTVSPost2010Prop55
280
     0
102
RTVSPost2010PropOp55
 70
     1
102
RTVSPost2010Prop56
140
1.0
102
RTVSPost2010PropOp56
 70
     1
102
RTVSPost2010Prop57
140
1.0
102
RTVSPost2010PropOp57
 70
     1
102
RTVSPropertyOp0
 70
     1
102
RTVSPropertyOp1
 70
     1
102
RTVSPropertyOp2
 70
     1
102
RTVSPropertyOp3
 70
     1
102
RTVSPropertyOp4
 70
     1
102
RTVSPropertyOp5
 70
     1
102
RTVSPropertyOp6
 70
     1
102
RTVSPropertyOp7
 70
     1
102
RTVSPropertyOp8
 70
     1
102
RTVSPropertyOp9
 70
     1
102
RTVSPropertyOp10
 70
     1
102
RTVSPropertyOp11
 70
     1
102
RTVSPropertyOp12
 70
     1
102
RTVSPropertyOp13
 70
     1
102
RTVSPropertyOp14
 70
     1
102
RTVSPropertyOp15
 70
     1
102
RTVSPropertyOp16
 70
     1
102
RTVSPropertyOp17
 70
     1
102
RTVSPropertyOp18
 70
     1
102
RTVSPropertyOp19
 70
     1
102
RTVSPropertyOp20
 70
     1
102
RTVSPropertyOp21
 70
     1
102
RTVSPropertyOp22
 70
     1
102
RTVSPropertyOp23
 70
     1
102
RTVSPropertyOp24
 70
     1
102
RTVSPropertyOp25
 70
     1
102
RTVSPropertyOp26
 70
     1
102
RTVSPropertyOp27
 70
     1
102
RTVSPropertyOp28
 70
     1
102
RTVSPropertyOp29
 70
     1
102
RTVSPropertyOp30
 70
     1
102
RTVSPropertyOp31
 70
     1
102
RTVSPropertyOp32
 70
     1
102
RTVSPropertyOp33
 70
     1
102
RTVSPropertyOp34
 70
     1
102
RTVSPropertyOp35
 70
     1
102
RTVSPropertyOp36
 70
     1
102
RTVSPropertyOp37
 70
     1
102
RTVSPropertyOp38
 70
     1
102
RTVSPropertyOp39
 70
     1
102
RTVSPropertyOp40
 70
     1
102
RTVSPropertyOp41
 70
     1
102
RTVSPropertyOp42
 70
     1
102
RTVSPropertyOp43
 70
     1
102
RTVSPropertyOp44
 70
     1
102
RTVSPropertyOp45
 70
     1
102
RTVSPropertyOp46
 70
     1
102
RTVSPropertyOp47
 70
     1
102
RTVSPropertyOp48
 70
     1
102
RTVSPropertyOp49
 70
     1
102
RTVSPropertyOp50
 70
     1
102
RTVSPropertyOp51
 70
     0
102
RTVSPropertyOp52
 70
     0
102
RTVSPropertyOp53
 70
     1
102
RTVSPropertyOp54
 70
     1
102
RTVSPropertyOp55
 70
     1
102
RTVSPropertyOp56
 70
     1
102
RTVSPropertyOp57
 70
     1
102
RTVSPropertyOp58
 70
     1
102
RTVSPropertyOp59
 70
     1
102
RTVSPropertyOp60
 70
     1
102
RTVSPropertyOp61
 70
     1
102
RTVSPropertyOp62
 70
     1
  0
XRECORD
  5
5C6
102
{ACAD_REACTORS
330
5C5
102
}
330
5C5
100
AcDbXrecord
280
     1
102
RTVSPost2010Prop28
280
     0
102
RTVSPost2010PropOp28
 70
     1
102
RTVSPost2010Prop29
280
     1
102
RTVSPost2010PropOp29
 70
     1
102
RTVSPost2010Prop30
280
     1
102
RTVSPost2010PropOp30
 70
     1
102
RTVSPost2010Prop31
280
     0
102
RTVSPost2010PropOp31
 70
     1
102
RTVSPost2010Prop32
280
     0
102
RTVSPost2010PropOp32
 70
     1
102
RTVSPost2010Prop33
280
     0
102
RTVSPost2010PropOp33
 70
     1
102
RTVSPost2010Prop34
280
     0
102
RTVSPost2010PropOp34
 70
     1
102
RTVSPost2010Prop35
280
     0
102
RTVSPost2010PropOp35
 70
     1
102
RTVSPost2010Prop36
280
     0
102
RTVSPost2010PropOp36
 70
     1
102
RTVSPost2010Prop37
 90
       50
102
RTVSPost2010PropOp37
 70
     1
102
RTVSPost2010Prop38
140
0.0
102
RTVSPost2010PropOp38
 70
     1
102
RTVSPost2010Prop39
140
1.0
102
RTVSPost2010PropOp39
 70
     1
102
RTVSPost2010Prop40
 90
        0
102
RTVSPost2010PropOp40
 70
     1
102
RTVSPost2010Prop41ColorIndex
 90
       18
102
RTVSPost2010Prop41ColorRGB
 90
        0
102
RTVSPost2010PropOp41
 70
     1
102
RTVSPost2010Prop42
 90
       50
102
RTVSPost2010PropOp42
 70
     1
102
RTVSPost2010Prop43
 90
        3
102
RTVSPost2010PropOp43
 70
     1
102
RTVSPost2010Prop44ColorIndex
 90
        5
102
RTVSPost2010Prop44ColorRGB
 90
      255
102
RTVSPost2010PropOp44
 70
     1
102
RTVSPost2010Prop45
280
     0
102
RTVSPost2010PropOp45
 70
     1
102
RTVSPost2010Prop46
 90
       50
102
RTVSPost2010PropOp46
 70
     1
102
RTVSPost2010Prop47
 90
       50
102
RTVSPost2010PropOp47
 70
     1
102
RTVSPost2010Prop48
 90
       50
102
RTVSPost2010PropOp48
 70
     1
102
RTVSPost2010Prop49
280
     0
102
RTVSPost2010PropOp49
 70
     1
102
RTVSPost2010Prop50
 90
       50
102
RTVSPost2010PropOp50
 70
     1
102
RTVSPost2010Prop51ColorIndex
 90
      256
102
RTVSPost2010Prop51ColorRGB
 90
-16777216
102
RTVSPost2010PropOp51
 70
     0
102
RTVSPost2010Prop52
140
1.0
102
RTVSPost2010PropOp52
 70
     0
102
RTVSPost2010Prop53
 90
        2
102
RTVSPost2010PropOp53
 70
     1
102
RTVSPost2010Prop54
  1
strokes_ogs.tif
102
RTVSPost2010PropOp54
 70
     1
102
RTVSPost2010Prop55
280
     0
102
RTVSPost2010PropOp55
 70
     1
102
RTVSPost2010Prop56
140
1.0
102
RTVSPost2010PropOp56
 70
     1
102
RTVSPost2010Prop57
140
1.0
102
RTVSPost2010PropOp57
 70
     1
102
RTVSPropertyOp0
 70
     1
102
RTVSPropertyOp1
 70
     1
102
RTVSPropertyOp2
 70
     1
102
RTVSPropertyOp3
 70
     1
102
RTVSPropertyOp4
 70
     1
102
RTVSPropertyOp5
 70
     1
102
RTVSPropertyOp6
 70
     1
102
RTVSPropertyOp7
 70
     1
102
RTVSPropertyOp8
 70
     1
102
RTVSPropertyOp9
 70
     1
102
RTVSPropertyOp10
 70
     1
102
RTVSPropertyOp11
 70
     1
102
RTVSPropertyOp12
 70
     1
102
RTVSPropertyOp13
 70
     1
102
RTVSPropertyOp14
 70
     1
102
RTVSPropertyOp15
 70
     1
102
RTVSPropertyOp16
 70
     1
102
RTVSPropertyOp17
 70
     1
102
RTVSPropertyOp18
 70
     1
102
RTVSPropertyOp19
 70
     1
102
RTVSPropertyOp20
 70
     1
102
RTVSPropertyOp21
 70
     1
102
RTVSPropertyOp22
 70
     1
102
RTVSPropertyOp23
 70
     1
102
RTVSPropertyOp24
 70
     1
102
RTVSPropertyOp25
 70
     1
102
RTVSPropertyOp26
 70
     1
102
RTVSPropertyOp27
 70
     1
102
RTVSPropertyOp28
 70
     1
102
RTVSPropertyOp29
 70
     1
102
RTVSPropertyOp30
 70
     1
102
RTVSPropertyOp31
 70
     1
102
RTVSPropertyOp32
 70
     1
102
RTVSPropertyOp33
 70
     1
102
RTVSPropertyOp34
 70
     1
102
RTVSPropertyOp35
 70
     1
102
RTVSPropertyOp36
 70
     1
102
RTVSPropertyOp37
 70
     1
102
RTVSPropertyOp38
 70
     1
102
RTVSPropertyOp39
 70
     1
102
RTVSPropertyOp40
 70
     1
102
RTVSPropertyOp41
 70
     1
102
RTVSPropertyOp42
 70
     1
102
RTVSPropertyOp43
 70
     1
102
RTVSPropertyOp44
 70
     1
102
RTVSPropertyOp45
 70
     1
102
RTVSPropertyOp46
 70
     1
102
RTVSPropertyOp47
 70
     1
102
RTVSPropertyOp48
 70
     1
102
RTVSPropertyOp49
 70
     1
102
RTVSPropertyOp50
 70
     1
102
RTVSPropertyOp51
 70
     0
102
RTVSPropertyOp52
 70
     0
102
RTVSPropertyOp53
 70
     1
102
RTVSPropertyOp54
 70
     1
102
RTVSPropertyOp55
 70
     1
102
RTVSPropertyOp56
 70
     1
102
RTVSPropertyOp57
 70
     1
102
RTVSPropertyOp58
 70
     1
102
RTVSPropertyOp59
 70
     1
102
RTVSPropertyOp60
 70
     1
102
RTVSPropertyOp61
 70
     1
102
RTVSPropertyOp62
 70
     1
  0
XRECORD
  5
5CA
102
{ACAD_REACTORS
330
5C9
102
}
330
5C9
100
AcDbXrecord
280
     1
102
RTVSPost2010Prop28
280
     0
102
RTVSPost2010PropOp28
 70
     1
102
RTVSPost2010Prop29
280
     1
102
RTVSPost2010PropOp29
 70
     1
102
RTVSPost2010Prop30
280
     1
102
RTVSPost2010PropOp30
 70
     1
102
RTVSPost2010Prop31
280
     0
102
RTVSPost2010PropOp31
 70
     1
102
RTVSPost2010Prop32
280
     0
102
RTVSPost2010PropOp32
 70
     1
102
RTVSPost2010Prop33
280
     0
102
RTVSPost2010PropOp33
 70
     1
102
RTVSPost2010Prop34
280
     0
102
RTVSPost2010PropOp34
 70
     1
102
RTVSPost2010Prop35
280
     0
102
RTVSPost2010PropOp35
 70
     1
102
RTVSPost2010Prop36
280
     0
102
RTVSPost2010PropOp36
 70
     1
102
RTVSPost2010Prop37
 90
       50
102
RTVSPost2010PropOp37
 70
     1
102
RTVSPost2010Prop38
140
0.0
102
RTVSPost2010PropOp38
 70
     1
102
RTVSPost2010Prop39
140
1.0
102
RTVSPost2010PropOp39
 70
     1
102
RTVSPost2010Prop40
 90
        0
102
RTVSPost2010PropOp40
 70
     1
102
RTVSPost2010Prop41ColorIndex
 90
       18
102
RTVSPost2010Prop41ColorRGB
 90
        0
102
RTVSPost2010PropOp41
 70
     1
102
RTVSPost2010Prop42
 90
       50
102
RTVSPost2010PropOp42
 70
     1
102
RTVSPost2010Prop43
 90
        3
102
RTVSPost2010PropOp43
 70
     1
102
RTVSPost2010Prop44ColorIndex
 90
        5
102
RTVSPost2010Prop44ColorRGB
 90
      255
102
RTVSPost2010PropOp44
 70
     1
102
RTVSPost2010Prop45
280
     0
102
RTVSPost2010PropOp45
 70
     1
102
RTVSPost2010Prop46
 90
       50
102
RTVSPost2010PropOp46
 70
     1
102
RTVSPost2010Prop47
 90
       50
102
RTVSPost2010PropOp47
 70
     1
102
RTVSPost2010Prop48
 90
       50
102
RTVSPost2010PropOp48
 70
     1
102
RTVSPost2010Prop49
280
     0
102
RTVSPost2010PropOp49
 70
     1
102
RTVSPost2010Prop50
 90
       50
102
RTVSPost2010PropOp50
 70
     1
102
RTVSPost2010Prop51ColorIndex
 90
      256
102
RTVSPost2010Prop51ColorRGB
 90
-16777216
102
RTVSPost2010PropOp51
 70
     0
102
RTVSPost2010Prop52
140
1.0
102
RTVSPost2010PropOp52
 70
     0
102
RTVSPost2010Prop53
 90
        2
102
RTVSPost2010PropOp53
 70
     1
102
RTVSPost2010Prop54
  1
strokes_ogs.tif
102
RTVSPost2010PropOp54
 70
     1
102
RTVSPost2010Prop55
280
     0
102
RTVSPost2010PropOp55
 70
     1
102
RTVSPost2010Prop56
140
1.0
102
RTVSPost2010PropOp56
 70
     1
102
RTVSPost2010Prop57
140
1.0
102
RTVSPost2010PropOp57
 70
     1
102
RTVSPropertyOp0
 70
     1
102
RTVSPropertyOp1
 70
     1
102
RTVSPropertyOp2
 70
     1
102
RTVSPropertyOp3
 70
     1
102
RTVSPropertyOp4
 70
     1
102
RTVSPropertyOp5
 70
     1
102
RTVSPropertyOp6
 70
     1
102
RTVSPropertyOp7
 70
     1
102
RTVSPropertyOp8
 70
     1
102
RTVSPropertyOp9
 70
     1
102
RTVSPropertyOp10
 70
     1
102
RTVSPropertyOp11
 70
     1
102
RTVSPropertyOp12
 70
     1
102
RTVSPropertyOp13
 70
     1
102
RTVSPropertyOp14
 70
     1
102
RTVSPropertyOp15
 70
     1
102
RTVSPropertyOp16
 70
     1
102
RTVSPropertyOp17
 70
     1
102
RTVSPropertyOp18
 70
     1
102
RTVSPropertyOp19
 70
     1
102
RTVSPropertyOp20
 70
     1
102
RTVSPropertyOp21
 70
     1
102
RTVSPropertyOp22
 70
     1
102
RTVSPropertyOp23
 70
     1
102
RTVSPropertyOp24
 70
     1
102
RTVSPropertyOp25
 70
     1
102
RTVSPropertyOp26
 70
     1
102
RTVSPropertyOp27
 70
     1
102
RTVSPropertyOp28
 70
     1
102
RTVSPropertyOp29
 70
     1
102
RTVSPropertyOp30
 70
     1
102
RTVSPropertyOp31
 70
     1
102
RTVSPropertyOp32
 70
     1
102
RTVSPropertyOp33
 70
     1
102
RTVSPropertyOp34
 70
     1
102
RTVSPropertyOp35
 70
     1
102
RTVSPropertyOp36
 70
     1
102
RTVSPropertyOp37
 70
     1
102
RTVSPropertyOp38
 70
     1
102
RTVSPropertyOp39
 70
     1
102
RTVSPropertyOp40
 70
     1
102
RTVSPropertyOp41
 70
     1
102
RTVSPropertyOp42
 70
     1
102
RTVSPropertyOp43
 70
     1
102
RTVSPropertyOp44
 70
     1
102
RTVSPropertyOp45
 70
     1
102
RTVSPropertyOp46
 70
     1
102
RTVSPropertyOp47
 70
     1
102
RTVSPropertyOp48
 70
     1
102
RTVSPropertyOp49
 70
     1
102
RTVSPropertyOp50
 70
     1
102
RTVSPropertyOp51
 70
     0
102
RTVSPropertyOp52
 70
     0
102
RTVSPropertyOp53
 70
     1
102
RTVSPropertyOp54
 70
     1
102
RTVSPropertyOp55
 70
     1
102
RTVSPropertyOp56
 70
     1
102
RTVSPropertyOp57
 70
     1
102
RTVSPropertyOp58
 70
     1
102
RTVSPropertyOp59
 70
     1
102
RTVSPropertyOp60
 70
     1
102
RTVSPropertyOp61
 70
     1
102
RTVSPropertyOp62
 70
     1
  0
XRECORD
  5
5E4
102
{ACAD_REACTORS
330
5E3
102
}
330
5E3
100
AcDbXrecord
280
     1
102
RTVSPost2010Prop28
280
     0
102
RTVSPost2010PropOp28
 70
     0
102
RTVSPost2010Prop29
280
     1
102
RTVSPost2010PropOp29
 70
     0
102
RTVSPost2010Prop30
280
     1
102
RTVSPost2010PropOp30
 70
     0
102
RTVSPost2010Prop31
280
     0
102
RTVSPost2010PropOp31
 70
     0
102
RTVSPost2010Prop32
280
     0
102
RTVSPost2010PropOp32
 70
     0
102
RTVSPost2010Prop33
280
     0
102
RTVSPost2010PropOp33
 70
     0
102
RTVSPost2010Prop34
280
     0
102
RTVSPost2010PropOp34
 70
     0
102
RTVSPost2010Prop35
280
     0
102
RTVSPost2010PropOp35
 70
     0
102
RTVSPost2010Prop36
280
     0
102
RTVSPost2010PropOp36
 70
     0
102
RTVSPost2010Prop37
 90
       50
102
RTVSPost2010PropOp37
 70
     0
102
RTVSPost2010Prop38
140
0.0
102
RTVSPost2010PropOp38
 70
     0
102
RTVSPost2010Prop39
140
1.0
102
RTVSPost2010PropOp39
 70
     0
102
RTVSPost2010Prop40
 90
        0
102
RTVSPost2010PropOp40
 70
     0
102
RTVSPost2010Prop41ColorIndex
 90
       18
102
RTVSPost2010Prop41ColorRGB
 90
        0
102
RTVSPost2010PropOp41
 70
     0
102
RTVSPost2010Prop42
 90
       50
102
RTVSPost2010PropOp42
 70
     0
102
RTVSPost2010Prop43
 90
        3
102
RTVSPost2010PropOp43
 70
     0
102
RTVSPost2010Prop44ColorIndex
 90
        5
102
RTVSPost2010Prop44ColorRGB
 90
      255
102
RTVSPost2010PropOp44
 70
     0
102
RTVSPost2010Prop45
280
     0
102
RTVSPost2010PropOp45
 70
     0
102
RTVSPost2010Prop46
 90
       50
102
RTVSPost2010PropOp46
 70
     0
102
RTVSPost2010Prop47
 90
       50
102
RTVSPost2010PropOp47
 70
     0
102
RTVSPost2010Prop48
 90
       50
102
RTVSPost2010PropOp48
 70
     0
102
RTVSPost2010Prop49
280
     0
102
RTVSPost2010PropOp49
 70
     0
102
RTVSPost2010Prop50
 90
       50
102
RTVSPost2010PropOp50
 70
     0
102
RTVSPost2010Prop51ColorIndex
 90
      256
102
RTVSPost2010Prop51ColorRGB
 90
-16777216
102
RTVSPost2010PropOp51
 70
     0
102
RTVSPost2010Prop52
140
1.0
102
RTVSPost2010PropOp52
 70
     0
102
RTVSPost2010Prop53
 90
        2
102
RTVSPost2010PropOp53
 70
     0
102
RTVSPost2010Prop54
  1
strokes_ogs.tif
102
RTVSPost2010PropOp54
 70
     0
102
RTVSPost2010Prop55
280
     0
102
RTVSPost2010PropOp55
 70
     0
102
RTVSPost2010Prop56
140
1.0
102
RTVSPost2010PropOp56
 70
     0
102
RTVSPost2010Prop57
140
1.0
102
RTVSPost2010PropOp57
 70
     0
102
RTVSPropertyOp0
 70
     0
102
RTVSPropertyOp1
 70
     0
102
RTVSPropertyOp2
 70
     0
102
RTVSPropertyOp3
 70
     0
102
RTVSPropertyOp4
 70
     0
102
RTVSPropertyOp5
 70
     0
102
RTVSPropertyOp6
 70
     0
102
RTVSPropertyOp7
 70
     0
102
RTVSPropertyOp8
 70
     0
102
RTVSPropertyOp9
 70
     0
102
RTVSPropertyOp10
 70
     0
102
RTVSPropertyOp11
 70
     0
102
RTVSPropertyOp12
 70
     0
102
RTVSPropertyOp13
 70
     0
102
RTVSPropertyOp14
 70
     2
102
RTVSPropertyOp15
 70
     0
102
RTVSPropertyOp16
 70
     0
102
RTVSPropertyOp17
 70
     0
102
RTVSPropertyOp18
 70
     0
102
RTVSPropertyOp19
 70
     0
102
RTVSPropertyOp20
 70
     0
102
RTVSPropertyOp21
 70
     0
102
RTVSPropertyOp22
 70
     0
102
RTVSPropertyOp23
 70
     0
102
RTVSPropertyOp24
 70
     0
102
RTVSPropertyOp25
 70
     0
102
RTVSPropertyOp26
 70
     0
102
RTVSPropertyOp27
 70
     0
102
RTVSPropertyOp28
 70
     0
102
RTVSPropertyOp29
 70
     0
102
RTVSPropertyOp30
 70
     0
102
RTVSPropertyOp31
 70
     0
102
RTVSPropertyOp32
 70
     0
102
RTVSPropertyOp33
 70
     0
102
RTVSPropertyOp34
 70
     0
102
RTVSPropertyOp35
 70
     0
102
RTVSPropertyOp36
 70
     0
102
RTVSPropertyOp37
 70
     0
102
RTVSPropertyOp38
 70
     0
102
RTVSPropertyOp39
 70
     0
102
RTVSPropertyOp40
 70
     0
102
RTVSPropertyOp41
 70
     0
102
RTVSPropertyOp42
 70
     0
102
RTVSPropertyOp43
 70
     0
102
RTVSPropertyOp44
 70
     0
102
RTVSPropertyOp45
 70
     0
102
RTVSPropertyOp46
 70
     0
102
RTVSPropertyOp47
 70
     0
102
RTVSPropertyOp48
 70
     0
102
RTVSPropertyOp49
 70
     0
102
RTVSPropertyOp50
 70
     0
102
RTVSPropertyOp51
 70
     0
102
RTVSPropertyOp52
 70
     0
102
RTVSPropertyOp53
 70
     0
102
RTVSPropertyOp54
 70
     0
102
RTVSPropertyOp55
 70
     0
102
RTVSPropertyOp56
 70
     0
102
RTVSPropertyOp57
 70
     0
102
RTVSPropertyOp58
 70
     0
102
RTVSPropertyOp59
 70
     0
102
RTVSPropertyOp60
 70
     0
102
RTVSPropertyOp61
 70
     0
102
RTVSPropertyOp62
 70
     0
  0
XRECORD
  5
5D2
102
{ACAD_REACTORS
330
5D1
102
}
330
5D1
100
AcDbXrecord
280
     1
102
RTVSPost2010Prop28
280
     0
102
RTVSPost2010PropOp28
 70
     1
102
RTVSPost2010Prop29
280
     1
102
RTVSPost2010PropOp29
 70
     1
102
RTVSPost2010Prop30
280
     1
102
RTVSPost2010PropOp30
 70
     1
102
RTVSPost2010Prop31
280
     0
102
RTVSPost2010PropOp31
 70
     1
102
RTVSPost2010Prop32
280
     0
102
RTVSPost2010PropOp32
 70
     1
102
RTVSPost2010Prop33
280
     0
102
RTVSPost2010PropOp33
 70
     1
102
RTVSPost2010Prop34
280
     0
102
RTVSPost2010PropOp34
 70
     1
102
RTVSPost2010Prop35
280
     0
102
RTVSPost2010PropOp35
 70
     1
102
RTVSPost2010Prop36
280
     0
102
RTVSPost2010PropOp36
 70
     1
102
RTVSPost2010Prop37
 90
       50
102
RTVSPost2010PropOp37
 70
     1
102
RTVSPost2010Prop38
140
0.0
102
RTVSPost2010PropOp38
 70
     1
102
RTVSPost2010Prop39
140
1.0
102
RTVSPost2010PropOp39
 70
     1
102
RTVSPost2010Prop40
 90
        0
102
RTVSPost2010PropOp40
 70
     1
102
RTVSPost2010Prop41ColorIndex
 90
       18
102
RTVSPost2010Prop41ColorRGB
 90
        0
102
RTVSPost2010PropOp41
 70
     1
102
RTVSPost2010Prop42
 90
       50
102
RTVSPost2010PropOp42
 70
     1
102
RTVSPost2010Prop43
 90
        3
102
RTVSPost2010PropOp43
 70
     1
102
RTVSPost2010Prop44ColorIndex
 90
        5
102
RTVSPost2010Prop44ColorRGB
 90
      255
102
RTVSPost2010PropOp44
 70
     1
102
RTVSPost2010Prop45
280
     0
102
RTVSPost2010PropOp45
 70
     1
102
RTVSPost2010Prop46
 90
       50
102
RTVSPost2010PropOp46
 70
     1
102
RTVSPost2010Prop47
 90
       50
102
RTVSPost2010PropOp47
 70
     1
102
RTVSPost2010Prop48
 90
       50
102
RTVSPost2010PropOp48
 70
     1
102
RTVSPost2010Prop49
280
     0
102
RTVSPost2010PropOp49
 70
     1
102
RTVSPost2010Prop50
 90
       50
102
RTVSPost2010PropOp50
 70
     1
102
RTVSPost2010Prop51ColorIndex
 90
      256
102
RTVSPost2010Prop51ColorRGB
 90
-16777216
102
RTVSPost2010PropOp51
 70
     0
102
RTVSPost2010Prop52
140
1.0
102
RTVSPost2010PropOp52
 70
     0
102
RTVSPost2010Prop53
 90
        2
102
RTVSPost2010PropOp53
 70
     1
102
RTVSPost2010Prop54
  1
strokes_ogs.tif
102
RTVSPost2010PropOp54
 70
     1
102
RTVSPost2010Prop55
280
     0
102
RTVSPost2010PropOp55
 70
     1
102
RTVSPost2010Prop56
140
1.0
102
RTVSPost2010PropOp56
 70
     1
102
RTVSPost2010Prop57
140
1.0
102
RTVSPost2010PropOp57
 70
     1
102
RTVSPropertyOp0
 70
     1
102
RTVSPropertyOp1
 70
     1
102
RTVSPropertyOp2
 70
     1
102
RTVSPropertyOp3
 70
     1
102
RTVSPropertyOp4
 70
     1
102
RTVSPropertyOp5
 70
     1
102
RTVSPropertyOp6
 70
     1
102
RTVSPropertyOp7
 70
     1
102
RTVSPropertyOp8
 70
     1
102
RTVSPropertyOp9
 70
     1
102
RTVSPropertyOp10
 70
     1
102
RTVSPropertyOp11
 70
     1
102
RTVSPropertyOp12
 70
     1
102
RTVSPropertyOp13
 70
     1
102
RTVSPropertyOp14
 70
     1
102
RTVSPropertyOp15
 70
     1
102
RTVSPropertyOp16
 70
     1
102
RTVSPropertyOp17
 70
     1
102
RTVSPropertyOp18
 70
     1
102
RTVSPropertyOp19
 70
     1
102
RTVSPropertyOp20
 70
     1
102
RTVSPropertyOp21
 70
     1
102
RTVSPropertyOp22
 70
     1
102
RTVSPropertyOp23
 70
     1
102
RTVSPropertyOp24
 70
     1
102
RTVSPropertyOp25
 70
     1
102
RTVSPropertyOp26
 70
     1
102
RTVSPropertyOp27
 70
     1
102
RTVSPropertyOp28
 70
     1
102
RTVSPropertyOp29
 70
     1
102
RTVSPropertyOp30
 70
     1
102
RTVSPropertyOp31
 70
     1
102
RTVSPropertyOp32
 70
     1
102
RTVSPropertyOp33
 70
     1
102
RTVSPropertyOp34
 70
     1
102
RTVSPropertyOp35
 70
     1
102
RTVSPropertyOp36
 70
     1
102
RTVSPropertyOp37
 70
     1
102
RTVSPropertyOp38
 70
     1
102
RTVSPropertyOp39
 70
     1
102
RTVSPropertyOp40
 70
     1
102
RTVSPropertyOp41
 70
     1
102
RTVSPropertyOp42
 70
     1
102
RTVSPropertyOp43
 70
     1
102
RTVSPropertyOp44
 70
     1
102
RTVSPropertyOp45
 70
     1
102
RTVSPropertyOp46
 70
     1
102
RTVSPropertyOp47
 70
     1
102
RTVSPropertyOp48
 70
     1
102
RTVSPropertyOp49
 70
     1
102
RTVSPropertyOp50
 70
     1
102
RTVSPropertyOp51
 70
     0
102
RTVSPropertyOp52
 70
     0
102
RTVSPropertyOp53
 70
     1
102
RTVSPropertyOp54
 70
     1
102
RTVSPropertyOp55
 70
     1
102
RTVSPropertyOp56
 70
     1
102
RTVSPropertyOp57
 70
     1
102
RTVSPropertyOp58
 70
     1
102
RTVSPropertyOp59
 70
     1
102
RTVSPropertyOp60
 70
     1
102
RTVSPropertyOp61
 70
     1
102
RTVSPropertyOp62
 70
     1
  0
XRECORD
  5
5B6
102
{ACAD_REACTORS
330
5B5
102
}
330
5B5
100
AcDbXrecord
280
     1
102
RTVSPost2010Prop28
280
     0
102
RTVSPost2010PropOp28
 70
     1
102
RTVSPost2010Prop29
280
     1
102
RTVSPost2010PropOp29
 70
     1
102
RTVSPost2010Prop30
280
     1
102
RTVSPost2010PropOp30
 70
     1
102
RTVSPost2010Prop31
280
     0
102
RTVSPost2010PropOp31
 70
     1
102
RTVSPost2010Prop32
280
     0
102
RTVSPost2010PropOp32
 70
     1
102
RTVSPost2010Prop33
280
     0
102
RTVSPost2010PropOp33
 70
     1
102
RTVSPost2010Prop34
280
     0
102
RTVSPost2010PropOp34
 70
     1
102
RTVSPost2010Prop35
280
     0
102
RTVSPost2010PropOp35
 70
     1
102
RTVSPost2010Prop36
280
     0
102
RTVSPost2010PropOp36
 70
     1
102
RTVSPost2010Prop37
 90
       50
102
RTVSPost2010PropOp37
 70
     1
102
RTVSPost2010Prop38
140
0.0
102
RTVSPost2010PropOp38
 70
     1
102
RTVSPost2010Prop39
140
1.0
102
RTVSPost2010PropOp39
 70
     1
102
RTVSPost2010Prop40
 90
        0
102
RTVSPost2010PropOp40
 70
     1
102
RTVSPost2010Prop41ColorIndex
 90
       18
102
RTVSPost2010Prop41ColorRGB
 90
        0
102
RTVSPost2010PropOp41
 70
     1
102
RTVSPost2010Prop42
 90
       50
102
RTVSPost2010PropOp42
 70
     1
102
RTVSPost2010Prop43
 90
        3
102
RTVSPost2010PropOp43
 70
     1
102
RTVSPost2010Prop44ColorIndex
 90
        5
102
RTVSPost2010Prop44ColorRGB
 90
      255
102
RTVSPost2010PropOp44
 70
     1
102
RTVSPost2010Prop45
280
     0
102
RTVSPost2010PropOp45
 70
     1
102
RTVSPost2010Prop46
 90
       50
102
RTVSPost2010PropOp46
 70
     1
102
RTVSPost2010Prop47
 90
       50
102
RTVSPost2010PropOp47
 70
     1
102
RTVSPost2010Prop48
 90
       50
102
RTVSPost2010PropOp48
 70
     1
102
RTVSPost2010Prop49
280
     0
102
RTVSPost2010PropOp49
 70
     1
102
RTVSPost2010Prop50
 90
       50
102
RTVSPost2010PropOp50
 70
     1
102
RTVSPost2010Prop51ColorIndex
 90
      256
102
RTVSPost2010Prop51ColorRGB
 90
-16777216
102
RTVSPost2010PropOp51
 70
     0
102
RTVSPost2010Prop52
140
1.0
102
RTVSPost2010PropOp52
 70
     0
102
RTVSPost2010Prop53
 90
        2
102
RTVSPost2010PropOp53
 70
     1
102
RTVSPost2010Prop54
  1
strokes_ogs.tif
102
RTVSPost2010PropOp54
 70
     1
102
RTVSPost2010Prop55
280
     0
102
RTVSPost2010PropOp55
 70
     1
102
RTVSPost2010Prop56
140
1.0
102
RTVSPost2010PropOp56
 70
     1
102
RTVSPost2010Prop57
140
1.0
102
RTVSPost2010PropOp57
 70
     1
102
RTVSPropertyOp0
 70
     1
102
RTVSPropertyOp1
 70
     1
102
RTVSPropertyOp2
 70
     1
102
RTVSPropertyOp3
 70
     1
102
RTVSPropertyOp4
 70
     1
102
RTVSPropertyOp5
 70
     1
102
RTVSPropertyOp6
 70
     1
102
RTVSPropertyOp7
 70
     1
102
RTVSPropertyOp8
 70
     1
102
RTVSPropertyOp9
 70
     1
102
RTVSPropertyOp10
 70
     1
102
RTVSPropertyOp11
 70
     1
102
RTVSPropertyOp12
 70
     1
102
RTVSPropertyOp13
 70
     1
102
RTVSPropertyOp14
 70
     1
102
RTVSPropertyOp15
 70
     1
102
RTVSPropertyOp16
 70
     1
102
RTVSPropertyOp17
 70
     1
102
RTVSPropertyOp18
 70
     1
102
RTVSPropertyOp19
 70
     1
102
RTVSPropertyOp20
 70
     1
102
RTVSPropertyOp21
 70
     1
102
RTVSPropertyOp22
 70
     1
102
RTVSPropertyOp23
 70
     1
102
RTVSPropertyOp24
 70
     1
102
RTVSPropertyOp25
 70
     1
102
RTVSPropertyOp26
 70
     1
102
RTVSPropertyOp27
 70
     1
102
RTVSPropertyOp28
 70
     1
102
RTVSPropertyOp29
 70
     1
102
RTVSPropertyOp30
 70
     1
102
RTVSPropertyOp31
 70
     1
102
RTVSPropertyOp32
 70
     1
102
RTVSPropertyOp33
 70
     1
102
RTVSPropertyOp34
 70
     1
102
RTVSPropertyOp35
 70
     1
102
RTVSPropertyOp36
 70
     1
102
RTVSPropertyOp37
 70
     1
102
RTVSPropertyOp38
 70
     1
102
RTVSPropertyOp39
 70
     1
102
RTVSPropertyOp40
 70
     1
102
RTVSPropertyOp41
 70
     1
102
RTVSPropertyOp42
 70
     1
102
RTVSPropertyOp43
 70
     1
102
RTVSPropertyOp44
 70
     1
102
RTVSPropertyOp45
 70
     1
102
RTVSPropertyOp46
 70
     1
102
RTVSPropertyOp47
 70
     1
102
RTVSPropertyOp48
 70
     1
102
RTVSPropertyOp49
 70
     1
102
RTVSPropertyOp50
 70
     1
102
RTVSPropertyOp51
 70
     0
102
RTVSPropertyOp52
 70
     0
102
RTVSPropertyOp53
 70
     1
102
RTVSPropertyOp54
 70
     1
102
RTVSPropertyOp55
 70
     1
102
RTVSPropertyOp56
 70
     1
102
RTVSPropertyOp57
 70
     1
102
RTVSPropertyOp58
 70
     1
102
RTVSPropertyOp59
 70
     1
102
RTVSPropertyOp60
 70
     1
102
RTVSPropertyOp61
 70
     1
102
RTVSPropertyOp62
 70
     1
  0
XRECORD
  5
5B8
102
{ACAD_REACTORS
330
5B7
102
}
330
5B7
100
AcDbXrecord
280
     1
102
RTVSPost2010Prop28
280
     0
102
RTVSPost2010PropOp28
 70
     1
102
RTVSPost2010Prop29
280
     1
102
RTVSPost2010PropOp29
 70
     1
102
RTVSPost2010Prop30
280
     1
102
RTVSPost2010PropOp30
 70
     1
102
RTVSPost2010Prop31
280
     0
102
RTVSPost2010PropOp31
 70
     1
102
RTVSPost2010Prop32
280
     0
102
RTVSPost2010PropOp32
 70
     1
102
RTVSPost2010Prop33
280
     0
102
RTVSPost2010PropOp33
 70
     1
102
RTVSPost2010Prop34
280
     0
102
RTVSPost2010PropOp34
 70
     1
102
RTVSPost2010Prop35
280
     0
102
RTVSPost2010PropOp35
 70
     1
102
RTVSPost2010Prop36
280
     0
102
RTVSPost2010PropOp36
 70
     1
102
RTVSPost2010Prop37
 90
       50
102
RTVSPost2010PropOp37
 70
     1
102
RTVSPost2010Prop38
140
0.0
102
RTVSPost2010PropOp38
 70
     1
102
RTVSPost2010Prop39
140
1.0
102
RTVSPost2010PropOp39
 70
     1
102
RTVSPost2010Prop40
 90
        0
102
RTVSPost2010PropOp40
 70
     1
102
RTVSPost2010Prop41ColorIndex
 90
       18
102
RTVSPost2010Prop41ColorRGB
 90
        0
102
RTVSPost2010PropOp41
 70
     1
102
RTVSPost2010Prop42
 90
       50
102
RTVSPost2010PropOp42
 70
     1
102
RTVSPost2010Prop43
 90
        3
102
RTVSPost2010PropOp43
 70
     1
102
RTVSPost2010Prop44ColorIndex
 90
        5
102
RTVSPost2010Prop44ColorRGB
 90
      255
102
RTVSPost2010PropOp44
 70
     1
102
RTVSPost2010Prop45
280
     0
102
RTVSPost2010PropOp45
 70
     1
102
RTVSPost2010Prop46
 90
       50
102
RTVSPost2010PropOp46
 70
     1
102
RTVSPost2010Prop47
 90
       50
102
RTVSPost2010PropOp47
 70
     1
102
RTVSPost2010Prop48
 90
       50
102
RTVSPost2010PropOp48
 70
     1
102
RTVSPost2010Prop49
280
     0
102
RTVSPost2010PropOp49
 70
     1
102
RTVSPost2010Prop50
 90
       50
102
RTVSPost2010PropOp50
 70
     1
102
RTVSPost2010Prop51ColorIndex
 90
      256
102
RTVSPost2010Prop51ColorRGB
 90
-16777216
102
RTVSPost2010PropOp51
 70
     0
102
RTVSPost2010Prop52
140
1.0
102
RTVSPost2010PropOp52
 70
     0
102
RTVSPost2010Prop53
 90
        2
102
RTVSPost2010PropOp53
 70
     1
102
RTVSPost2010Prop54
  1
strokes_ogs.tif
102
RTVSPost2010PropOp54
 70
     1
102
RTVSPost2010Prop55
280
     0
102
RTVSPost2010PropOp55
 70
     1
102
RTVSPost2010Prop56
140
1.0
102
RTVSPost2010PropOp56
 70
     1
102
RTVSPost2010Prop57
140
1.0
102
RTVSPost2010PropOp57
 70
     1
102
RTVSPropertyOp0
 70
     1
102
RTVSPropertyOp1
 70
     1
102
RTVSPropertyOp2
 70
     1
102
RTVSPropertyOp3
 70
     1
102
RTVSPropertyOp4
 70
     1
102
RTVSPropertyOp5
 70
     1
102
RTVSPropertyOp6
 70
     1
102
RTVSPropertyOp7
 70
     1
102
RTVSPropertyOp8
 70
     1
102
RTVSPropertyOp9
 70
     1
102
RTVSPropertyOp10
 70
     1
102
RTVSPropertyOp11
 70
     1
102
RTVSPropertyOp12
 70
     1
102
RTVSPropertyOp13
 70
     1
102
RTVSPropertyOp14
 70
     1
102
RTVSPropertyOp15
 70
     1
102
RTVSPropertyOp16
 70
     1
102
RTVSPropertyOp17
 70
     1
102
RTVSPropertyOp18
 70
     1
102
RTVSPropertyOp19
 70
     1
102
RTVSPropertyOp20
 70
     1
102
RTVSPropertyOp21
 70
     1
102
RTVSPropertyOp22
 70
     1
102
RTVSPropertyOp23
 70
     1
102
RTVSPropertyOp24
 70
     1
102
RTVSPropertyOp25
 70
     1
102
RTVSPropertyOp26
 70
     1
102
RTVSPropertyOp27
 70
     1
102
RTVSPropertyOp28
 70
     1
102
RTVSPropertyOp29
 70
     1
102
RTVSPropertyOp30
 70
     1
102
RTVSPropertyOp31
 70
     1
102
RTVSPropertyOp32
 70
     1
102
RTVSPropertyOp33
 70
     1
102
RTVSPropertyOp34
 70
     1
102
RTVSPropertyOp35
 70
     1
102
RTVSPropertyOp36
 70
     1
102
RTVSPropertyOp37
 70
     1
102
RTVSPropertyOp38
 70
     1
102
RTVSPropertyOp39
 70
     1
102
RTVSPropertyOp40
 70
     1
102
RTVSPropertyOp41
 70
     1
102
RTVSPropertyOp42
 70
     1
102
RTVSPropertyOp43
 70
     1
102
RTVSPropertyOp44
 70
     1
102
RTVSPropertyOp45
 70
     1
102
RTVSPropertyOp46
 70
     1
102
RTVSPropertyOp47
 70
     1
102
RTVSPropertyOp48
 70
     1
102
RTVSPropertyOp49
 70
     1
102
RTVSPropertyOp50
 70
     1
102
RTVSPropertyOp51
 70
     0
102
RTVSPropertyOp52
 70
     0
102
RTVSPropertyOp53
 70
     1
102
RTVSPropertyOp54
 70
     1
102
RTVSPropertyOp55
 70
     1
102
RTVSPropertyOp56
 70
     1
102
RTVSPropertyOp57
 70
     1
102
RTVSPropertyOp58
 70
     1
102
RTVSPropertyOp59
 70
     1
102
RTVSPropertyOp60
 70
     1
102
RTVSPropertyOp61
 70
     1
102
RTVSPropertyOp62
 70
     1
  0
XRECORD
  5
5BA
102
{ACAD_REACTORS
330
5B9
102
}
330
5B9
100
AcDbXrecord
280
     1
102
RTVSPost2010Prop28
280
     0
102
RTVSPost2010PropOp28
 70
     1
102
RTVSPost2010Prop29
280
     1
102
RTVSPost2010PropOp29
 70
     1
102
RTVSPost2010Prop30
280
     1
102
RTVSPost2010PropOp30
 70
     1
102
RTVSPost2010Prop31
280
     0
102
RTVSPost2010PropOp31
 70
     1
102
RTVSPost2010Prop32
280
     0
102
RTVSPost2010PropOp32
 70
     1
102
RTVSPost2010Prop33
280
     0
102
RTVSPost2010PropOp33
 70
     1
102
RTVSPost2010Prop34
280
     0
102
RTVSPost2010PropOp34
 70
     1
102
RTVSPost2010Prop35
280
     0
102
RTVSPost2010PropOp35
 70
     1
102
RTVSPost2010Prop36
280
     0
102
RTVSPost2010PropOp36
 70
     1
102
RTVSPost2010Prop37
 90
       50
102
RTVSPost2010PropOp37
 70
     1
102
RTVSPost2010Prop38
140
0.0
102
RTVSPost2010PropOp38
 70
     1
102
RTVSPost2010Prop39
140
1.0
102
RTVSPost2010PropOp39
 70
     1
102
RTVSPost2010Prop40
 90
        0
102
RTVSPost2010PropOp40
 70
     1
102
RTVSPost2010Prop41ColorIndex
 90
       18
102
RTVSPost2010Prop41ColorRGB
 90
        0
102
RTVSPost2010PropOp41
 70
     1
102
RTVSPost2010Prop42
 90
       50
102
RTVSPost2010PropOp42
 70
     1
102
RTVSPost2010Prop43
 90
        3
102
RTVSPost2010PropOp43
 70
     1
102
RTVSPost2010Prop44ColorIndex
 90
        5
102
RTVSPost2010Prop44ColorRGB
 90
      255
102
RTVSPost2010PropOp44
 70
     1
102
RTVSPost2010Prop45
280
     0
102
RTVSPost2010PropOp45
 70
     1
102
RTVSPost2010Prop46
 90
       50
102
RTVSPost2010PropOp46
 70
     1
102
RTVSPost2010Prop47
 90
       50
102
RTVSPost2010PropOp47
 70
     1
102
RTVSPost2010Prop48
 90
       50
102
RTVSPost2010PropOp48
 70
     1
102
RTVSPost2010Prop49
280
     0
102
RTVSPost2010PropOp49
 70
     1
102
RTVSPost2010Prop50
 90
       50
102
RTVSPost2010PropOp50
 70
     1
102
RTVSPost2010Prop51ColorIndex
 90
      256
102
RTVSPost2010Prop51ColorRGB
 90
-16777216
102
RTVSPost2010PropOp51
 70
     0
102
RTVSPost2010Prop52
140
1.0
102
RTVSPost2010PropOp52
 70
     0
102
RTVSPost2010Prop53
 90
        2
102
RTVSPost2010PropOp53
 70
     1
102
RTVSPost2010Prop54
  1
strokes_ogs.tif
102
RTVSPost2010PropOp54
 70
     1
102
RTVSPost2010Prop55
280
     0
102
RTVSPost2010PropOp55
 70
     1
102
RTVSPost2010Prop56
140
1.0
102
RTVSPost2010PropOp56
 70
     1
102
RTVSPost2010Prop57
140
1.0
102
RTVSPost2010PropOp57
 70
     1
102
RTVSPropertyOp0
 70
     1
102
RTVSPropertyOp1
 70
     1
102
RTVSPropertyOp2
 70
     1
102
RTVSPropertyOp3
 70
     1
102
RTVSPropertyOp4
 70
     1
102
RTVSPropertyOp5
 70
     1
102
RTVSPropertyOp6
 70
     1
102
RTVSPropertyOp7
 70
     1
102
RTVSPropertyOp8
 70
     1
102
RTVSPropertyOp9
 70
     1
102
RTVSPropertyOp10
 70
     1
102
RTVSPropertyOp11
 70
     1
102
RTVSPropertyOp12
 70
     1
102
RTVSPropertyOp13
 70
     1
102
RTVSPropertyOp14
 70
     1
102
RTVSPropertyOp15
 70
     1
102
RTVSPropertyOp16
 70
     1
102
RTVSPropertyOp17
 70
     1
102
RTVSPropertyOp18
 70
     1
102
RTVSPropertyOp19
 70
     1
102
RTVSPropertyOp20
 70
     1
102
RTVSPropertyOp21
 70
     1
102
RTVSPropertyOp22
 70
     1
102
RTVSPropertyOp23
 70
     1
102
RTVSPropertyOp24
 70
     1
102
RTVSPropertyOp25
 70
     1
102
RTVSPropertyOp26
 70
     1
102
RTVSPropertyOp27
 70
     1
102
RTVSPropertyOp28
 70
     1
102
RTVSPropertyOp29
 70
     1
102
RTVSPropertyOp30
 70
     1
102
RTVSPropertyOp31
 70
     1
102
RTVSPropertyOp32
 70
     1
102
RTVSPropertyOp33
 70
     1
102
RTVSPropertyOp34
 70
     1
102
RTVSPropertyOp35
 70
     1
102
RTVSPropertyOp36
 70
     1
102
RTVSPropertyOp37
 70
     1
102
RTVSPropertyOp38
 70
     1
102
RTVSPropertyOp39
 70
     1
102
RTVSPropertyOp40
 70
     1
102
RTVSPropertyOp41
 70
     1
102
RTVSPropertyOp42
 70
     1
102
RTVSPropertyOp43
 70
     1
102
RTVSPropertyOp44
 70
     1
102
RTVSPropertyOp45
 70
     1
102
RTVSPropertyOp46
 70
     1
102
RTVSPropertyOp47
 70
     1
102
RTVSPropertyOp48
 70
     1
102
RTVSPropertyOp49
 70
     1
102
RTVSPropertyOp50
 70
     1
102
RTVSPropertyOp51
 70
     0
102
RTVSPropertyOp52
 70
     0
102
RTVSPropertyOp53
 70
     1
102
RTVSPropertyOp54
 70
     1
102
RTVSPropertyOp55
 70
     1
102
RTVSPropertyOp56
 70
     1
102
RTVSPropertyOp57
 70
     1
102
RTVSPropertyOp58
 70
     1
102
RTVSPropertyOp59
 70
     1
102
RTVSPropertyOp60
 70
     1
102
RTVSPropertyOp61
 70
     1
102
RTVSPropertyOp62
 70
     1
  0
XRECORD
  5
5BC
102
{ACAD_REACTORS
330
5BB
102
}
330
5BB
100
AcDbXrecord
280
     1
102
RTVSPost2010Prop28
280
     0
102
RTVSPost2010PropOp28
 70
     1
102
RTVSPost2010Prop29
280
     1
102
RTVSPost2010PropOp29
 70
     1
102
RTVSPost2010Prop30
280
     1
102
RTVSPost2010PropOp30
 70
     1
102
RTVSPost2010Prop31
280
     0
102
RTVSPost2010PropOp31
 70
     1
102
RTVSPost2010Prop32
280
     0
102
RTVSPost2010PropOp32
 70
     1
102
RTVSPost2010Prop33
280
     0
102
RTVSPost2010PropOp33
 70
     1
102
RTVSPost2010Prop34
280
     0
102
RTVSPost2010PropOp34
 70
     1
102
RTVSPost2010Prop35
280
     0
102
RTVSPost2010PropOp35
 70
     1
102
RTVSPost2010Prop36
280
     0
102
RTVSPost2010PropOp36
 70
     1
102
RTVSPost2010Prop37
 90
       50
102
RTVSPost2010PropOp37
 70
     1
102
RTVSPost2010Prop38
140
0.0
102
RTVSPost2010PropOp38
 70
     1
102
RTVSPost2010Prop39
140
1.0
102
RTVSPost2010PropOp39
 70
     1
102
RTVSPost2010Prop40
 90
        0
102
RTVSPost2010PropOp40
 70
     1
102
RTVSPost2010Prop41ColorIndex
 90
       18
102
RTVSPost2010Prop41ColorRGB
 90
        0
102
RTVSPost2010PropOp41
 70
     1
102
RTVSPost2010Prop42
 90
       50
102
RTVSPost2010PropOp42
 70
     1
102
RTVSPost2010Prop43
 90
        3
102
RTVSPost2010PropOp43
 70
     1
102
RTVSPost2010Prop44ColorIndex
 90
        5
102
RTVSPost2010Prop44ColorRGB
 90
      255
102
RTVSPost2010PropOp44
 70
     1
102
RTVSPost2010Prop45
280
     0
102
RTVSPost2010PropOp45
 70
     1
102
RTVSPost2010Prop46
 90
       50
102
RTVSPost2010PropOp46
 70
     1
102
RTVSPost2010Prop47
 90
       50
102
RTVSPost2010PropOp47
 70
     1
102
RTVSPost2010Prop48
 90
       50
102
RTVSPost2010PropOp48
 70
     1
102
RTVSPost2010Prop49
280
     0
102
RTVSPost2010PropOp49
 70
     1
102
RTVSPost2010Prop50
 90
       50
102
RTVSPost2010PropOp50
 70
     1
102
RTVSPost2010Prop51ColorIndex
 90
      256
102
RTVSPost2010Prop51ColorRGB
 90
-16777216
102
RTVSPost2010PropOp51
 70
     0
102
RTVSPost2010Prop52
140
1.0
102
RTVSPost2010PropOp52
 70
     0
102
RTVSPost2010Prop53
 90
        2
102
RTVSPost2010PropOp53
 70
     1
102
RTVSPost2010Prop54
  1
strokes_ogs.tif
102
RTVSPost2010PropOp54
 70
     1
102
RTVSPost2010Prop55
280
     0
102
RTVSPost2010PropOp55
 70
     1
102
RTVSPost2010Prop56
140
1.0
102
RTVSPost2010PropOp56
 70
     1
102
RTVSPost2010Prop57
140
1.0
102
RTVSPost2010PropOp57
 70
     1
102
RTVSPropertyOp0
 70
     1
102
RTVSPropertyOp1
 70
     1
102
RTVSPropertyOp2
 70
     1
102
RTVSPropertyOp3
 70
     1
102
RTVSPropertyOp4
 70
     1
102
RTVSPropertyOp5
 70
     1
102
RTVSPropertyOp6
 70
     1
102
RTVSPropertyOp7
 70
     1
102
RTVSPropertyOp8
 70
     1
102
RTVSPropertyOp9
 70
     1
102
RTVSPropertyOp10
 70
     1
102
RTVSPropertyOp11
 70
     1
102
RTVSPropertyOp12
 70
     1
102
RTVSPropertyOp13
 70
     1
102
RTVSPropertyOp14
 70
     1
102
RTVSPropertyOp15
 70
     1
102
RTVSPropertyOp16
 70
     1
102
RTVSPropertyOp17
 70
     1
102
RTVSPropertyOp18
 70
     1
102
RTVSPropertyOp19
 70
     1
102
RTVSPropertyOp20
 70
     1
102
RTVSPropertyOp21
 70
     1
102
RTVSPropertyOp22
 70
     1
102
RTVSPropertyOp23
 70
     1
102
RTVSPropertyOp24
 70
     1
102
RTVSPropertyOp25
 70
     1
102
RTVSPropertyOp26
 70
     1
102
RTVSPropertyOp27
 70
     1
102
RTVSPropertyOp28
 70
     1
102
RTVSPropertyOp29
 70
     1
102
RTVSPropertyOp30
 70
     1
102
RTVSPropertyOp31
 70
     1
102
RTVSPropertyOp32
 70
     1
102
RTVSPropertyOp33
 70
     1
102
RTVSPropertyOp34
 70
     1
102
RTVSPropertyOp35
 70
     1
102
RTVSPropertyOp36
 70
     1
102
RTVSPropertyOp37
 70
     1
102
RTVSPropertyOp38
 70
     1
102
RTVSPropertyOp39
 70
     1
102
RTVSPropertyOp40
 70
     1
102
RTVSPropertyOp41
 70
     1
102
RTVSPropertyOp42
 70
     1
102
RTVSPropertyOp43
 70
     1
102
RTVSPropertyOp44
 70
     1
102
RTVSPropertyOp45
 70
     1
102
RTVSPropertyOp46
 70
     1
102
RTVSPropertyOp47
 70
     1
102
RTVSPropertyOp48
 70
     1
102
RTVSPropertyOp49
 70
     1
102
RTVSPropertyOp50
 70
     1
102
RTVSPropertyOp51
 70
     0
102
RTVSPropertyOp52
 70
     0
102
RTVSPropertyOp53
 70
     1
102
RTVSPropertyOp54
 70
     1
102
RTVSPropertyOp55
 70
     1
102
RTVSPropertyOp56
 70
     1
102
RTVSPropertyOp57
 70
     1
102
RTVSPropertyOp58
 70
     1
102
RTVSPropertyOp59
 70
     1
102
RTVSPropertyOp60
 70
     1
102
RTVSPropertyOp61
 70
     1
102
RTVSPropertyOp62
 70
     1
  0
XRECORD
  5
5C4
102
{ACAD_REACTORS
330
5C3
102
}
330
5C3
100
AcDbXrecord
280
     1
102
RTVSPost2010Prop28
280
     0
102
RTVSPost2010PropOp28
 70
     1
102
RTVSPost2010Prop29
280
     1
102
RTVSPost2010PropOp29
 70
     1
102
RTVSPost2010Prop30
280
     1
102
RTVSPost2010PropOp30
 70
     1
102
RTVSPost2010Prop31
280
     0
102
RTVSPost2010PropOp31
 70
     1
102
RTVSPost2010Prop32
280
     0
102
RTVSPost2010PropOp32
 70
     1
102
RTVSPost2010Prop33
280
     0
102
RTVSPost2010PropOp33
 70
     1
102
RTVSPost2010Prop34
280
     0
102
RTVSPost2010PropOp34
 70
     1
102
RTVSPost2010Prop35
280
     0
102
RTVSPost2010PropOp35
 70
     1
102
RTVSPost2010Prop36
280
     0
102
RTVSPost2010PropOp36
 70
     1
102
RTVSPost2010Prop37
 90
       50
102
RTVSPost2010PropOp37
 70
     1
102
RTVSPost2010Prop38
140
0.0
102
RTVSPost2010PropOp38
 70
     1
102
RTVSPost2010Prop39
140
1.0
102
RTVSPost2010PropOp39
 70
     1
102
RTVSPost2010Prop40
 90
        0
102
RTVSPost2010PropOp40
 70
     1
102
RTVSPost2010Prop41ColorIndex
 90
       18
102
RTVSPost2010Prop41ColorRGB
 90
        0
102
RTVSPost2010PropOp41
 70
     1
102
RTVSPost2010Prop42
 90
       50
102
RTVSPost2010PropOp42
 70
     1
102
RTVSPost2010Prop43
 90
        3
102
RTVSPost2010PropOp43
 70
     1
102
RTVSPost2010Prop44ColorIndex
 90
        5
102
RTVSPost2010Prop44ColorRGB
 90
      255
102
RTVSPost2010PropOp44
 70
     1
102
RTVSPost2010Prop45
280
     0
102
RTVSPost2010PropOp45
 70
     1
102
RTVSPost2010Prop46
 90
       50
102
RTVSPost2010PropOp46
 70
     1
102
RTVSPost2010Prop47
 90
       50
102
RTVSPost2010PropOp47
 70
     1
102
RTVSPost2010Prop48
 90
       50
102
RTVSPost2010PropOp48
 70
     1
102
RTVSPost2010Prop49
280
     0
102
RTVSPost2010PropOp49
 70
     1
102
RTVSPost2010Prop50
 90
       50
102
RTVSPost2010PropOp50
 70
     1
102
RTVSPost2010Prop51ColorIndex
 90
      256
102
RTVSPost2010Prop51ColorRGB
 90
-16777216
102
RTVSPost2010PropOp51
 70
     0
102
RTVSPost2010Prop52
140
1.0
102
RTVSPost2010PropOp52
 70
     0
102
RTVSPost2010Prop53
 90
        2
102
RTVSPost2010PropOp53
 70
     1
102
RTVSPost2010Prop54
  1
strokes_ogs.tif
102
RTVSPost2010PropOp54
 70
     1
102
RTVSPost2010Prop55
280
     0
102
RTVSPost2010PropOp55
 70
     1
102
RTVSPost2010Prop56
140
1.0
102
RTVSPost2010PropOp56
 70
     1
102
RTVSPost2010Prop57
140
1.0
102
RTVSPost2010PropOp57
 70
     1
102
RTVSPropertyOp0
 70
     1
102
RTVSPropertyOp1
 70
     1
102
RTVSPropertyOp2
 70
     1
102
RTVSPropertyOp3
 70
     1
102
RTVSPropertyOp4
 70
     1
102
RTVSPropertyOp5
 70
     1
102
RTVSPropertyOp6
 70
     1
102
RTVSPropertyOp7
 70
     1
102
RTVSPropertyOp8
 70
     1
102
RTVSPropertyOp9
 70
     1
102
RTVSPropertyOp10
 70
     1
102
RTVSPropertyOp11
 70
     1
102
RTVSPropertyOp12
 70
     1
102
RTVSPropertyOp13
 70
     1
102
RTVSPropertyOp14
 70
     1
102
RTVSPropertyOp15
 70
     1
102
RTVSPropertyOp16
 70
     1
102
RTVSPropertyOp17
 70
     1
102
RTVSPropertyOp18
 70
     1
102
RTVSPropertyOp19
 70
     1
102
RTVSPropertyOp20
 70
     1
102
RTVSPropertyOp21
 70
     1
102
RTVSPropertyOp22
 70
     1
102
RTVSPropertyOp23
 70
     1
102
RTVSPropertyOp24
 70
     1
102
RTVSPropertyOp25
 70
     1
102
RTVSPropertyOp26
 70
     1
102
RTVSPropertyOp27
 70
     1
102
RTVSPropertyOp28
 70
     1
102
RTVSPropertyOp29
 70
     1
102
RTVSPropertyOp30
 70
     1
102
RTVSPropertyOp31
 70
     1
102
RTVSPropertyOp32
 70
     1
102
RTVSPropertyOp33
 70
     1
102
RTVSPropertyOp34
 70
     1
102
RTVSPropertyOp35
 70
     1
102
RTVSPropertyOp36
 70
     1
102
RTVSPropertyOp37
 70
     1
102
RTVSPropertyOp38
 70
     1
102
RTVSPropertyOp39
 70
     1
102
RTVSPropertyOp40
 70
     1
102
RTVSPropertyOp41
 70
     1
102
RTVSPropertyOp42
 70
     1
102
RTVSPropertyOp43
 70
     1
102
RTVSPropertyOp44
 70
     1
102
RTVSPropertyOp45
 70
     1
102
RTVSPropertyOp46
 70
     1
102
RTVSPropertyOp47
 70
     1
102
RTVSPropertyOp48
 70
     1
102
RTVSPropertyOp49
 70
     1
102
RTVSPropertyOp50
 70
     1
102
RTVSPropertyOp51
 70
     0
102
RTVSPropertyOp52
 70
     0
102
RTVSPropertyOp53
 70
     1
102
RTVSPropertyOp54
 70
     1
102
RTVSPropertyOp55
 70
     1
102
RTVSPropertyOp56
 70
     1
102
RTVSPropertyOp57
 70
     1
102
RTVSPropertyOp58
 70
     1
102
RTVSPropertyOp59
 70
     1
102
RTVSPropertyOp60
 70
     1
102
RTVSPropertyOp61
 70
     1
102
RTVSPropertyOp62
 70
     1
  0
XRECORD
  5
5E0
102
{ACAD_REACTORS
330
5DF
102
}
330
5DF
100
AcDbXrecord
280
     1
102
RTVSPost2010Prop28
280
     0
102
RTVSPost2010PropOp28
 70
     0
102
RTVSPost2010Prop29
280
     1
102
RTVSPost2010PropOp29
 70
     0
102
RTVSPost2010Prop30
280
     1
102
RTVSPost2010PropOp30
 70
     0
102
RTVSPost2010Prop31
280
     0
102
RTVSPost2010PropOp31
 70
     0
102
RTVSPost2010Prop32
280
     0
102
RTVSPost2010PropOp32
 70
     0
102
RTVSPost2010Prop33
280
     0
102
RTVSPost2010PropOp33
 70
     0
102
RTVSPost2010Prop34
280
     0
102
RTVSPost2010PropOp34
 70
     0
102
RTVSPost2010Prop35
280
     0
102
RTVSPost2010PropOp35
 70
     0
102
RTVSPost2010Prop36
280
     0
102
RTVSPost2010PropOp36
 70
     0
102
RTVSPost2010Prop37
 90
       50
102
RTVSPost2010PropOp37
 70
     0
102
RTVSPost2010Prop38
140
0.0
102
RTVSPost2010PropOp38
 70
     0
102
RTVSPost2010Prop39
140
1.0
102
RTVSPost2010PropOp39
 70
     0
102
RTVSPost2010Prop40
 90
        0
102
RTVSPost2010PropOp40
 70
     0
102
RTVSPost2010Prop41ColorIndex
 90
       18
102
RTVSPost2010Prop41ColorRGB
 90
        0
102
RTVSPost2010PropOp41
 70
     0
102
RTVSPost2010Prop42
 90
       50
102
RTVSPost2010PropOp42
 70
     0
102
RTVSPost2010Prop43
 90
        3
102
RTVSPost2010PropOp43
 70
     0
102
RTVSPost2010Prop44ColorIndex
 90
        5
102
RTVSPost2010Prop44ColorRGB
 90
      255
102
RTVSPost2010PropOp44
 70
     0
102
RTVSPost2010Prop45
280
     0
102
RTVSPost2010PropOp45
 70
     0
102
RTVSPost2010Prop46
 90
       50
102
RTVSPost2010PropOp46
 70
     0
102
RTVSPost2010Prop47
 90
       50
102
RTVSPost2010PropOp47
 70
     0
102
RTVSPost2010Prop48
 90
       50
102
RTVSPost2010PropOp48
 70
     0
102
RTVSPost2010Prop49
280
     0
102
RTVSPost2010PropOp49
 70
     0
102
RTVSPost2010Prop50
 90
       50
102
RTVSPost2010PropOp50
 70
     0
102
RTVSPost2010Prop51ColorIndex
 90
      256
102
RTVSPost2010Prop51ColorRGB
 90
-16777216
102
RTVSPost2010PropOp51
 70
     0
102
RTVSPost2010Prop52
140
1.0
102
RTVSPost2010PropOp52
 70
     0
102
RTVSPost2010Prop53
 90
        2
102
RTVSPost2010PropOp53
 70
     0
102
RTVSPost2010Prop54
  1
strokes_ogs.tif
102
RTVSPost2010PropOp54
 70
     0
102
RTVSPost2010Prop55
280
     0
102
RTVSPost2010PropOp55
 70
     0
102
RTVSPost2010Prop56
140
1.0
102
RTVSPost2010PropOp56
 70
     0
102
RTVSPost2010Prop57
140
1.0
102
RTVSPost2010PropOp57
 70
     0
102
RTVSPropertyOp0
 70
     0
102
RTVSPropertyOp1
 70
     0
102
RTVSPropertyOp2
 70
     0
102
RTVSPropertyOp3
 70
     0
102
RTVSPropertyOp4
 70
     0
102
RTVSPropertyOp5
 70
     0
102
RTVSPropertyOp6
 70
     0
102
RTVSPropertyOp7
 70
     0
102
RTVSPropertyOp8
 70
     0
102
RTVSPropertyOp9
 70
     0
102
RTVSPropertyOp10
 70
     0
102
RTVSPropertyOp11
 70
     0
102
RTVSPropertyOp12
 70
     0
102
RTVSPropertyOp13
 70
     0
102
RTVSPropertyOp14
 70
     2
102
RTVSPropertyOp15
 70
     0
102
RTVSPropertyOp16
 70
     0
102
RTVSPropertyOp17
 70
     0
102
RTVSPropertyOp18
 70
     0
102
RTVSPropertyOp19
 70
     0
102
RTVSPropertyOp20
 70
     0
102
RTVSPropertyOp21
 70
     0
102
RTVSPropertyOp22
 70
     0
102
RTVSPropertyOp23
 70
     0
102
RTVSPropertyOp24
 70
     0
102
RTVSPropertyOp25
 70
     0
102
RTVSPropertyOp26
 70
     0
102
RTVSPropertyOp27
 70
     0
102
RTVSPropertyOp28
 70
     0
102
RTVSPropertyOp29
 70
     0
102
RTVSPropertyOp30
 70
     0
102
RTVSPropertyOp31
 70
     0
102
RTVSPropertyOp32
 70
     0
102
RTVSPropertyOp33
 70
     0
102
RTVSPropertyOp34
 70
     0
102
RTVSPropertyOp35
 70
     0
102
RTVSPropertyOp36
 70
     0
102
RTVSPropertyOp37
 70
     0
102
RTVSPropertyOp38
 70
     0
102
RTVSPropertyOp39
 70
     0
102
RTVSPropertyOp40
 70
     0
102
RTVSPropertyOp41
 70
     0
102
RTVSPropertyOp42
 70
     0
102
RTVSPropertyOp43
 70
     0
102
RTVSPropertyOp44
 70
     0
102
RTVSPropertyOp45
 70
     0
102
RTVSPropertyOp46
 70
     0
102
RTVSPropertyOp47
 70
     0
102
RTVSPropertyOp48
 70
     0
102
RTVSPropertyOp49
 70
     0
102
RTVSPropertyOp50
 70
     0
102
RTVSPropertyOp51
 70
     0
102
RTVSPropertyOp52
 70
     0
102
RTVSPropertyOp53
 70
     0
102
RTVSPropertyOp54
 70
     0
102
RTVSPropertyOp55
 70
     0
102
RTVSPropertyOp56
 70
     0
102
RTVSPropertyOp57
 70
     0
102
RTVSPropertyOp58
 70
     0
102
RTVSPropertyOp59
 70
     0
102
RTVSPropertyOp60
 70
     0
102
RTVSPropertyOp61
 70
     0
102
RTVSPropertyOp62
 70
     0
  0
XRECORD
  5
5D0
102
{ACAD_REACTORS
330
5CF
102
}
330
5CF
100
AcDbXrecord
280
     1
102
RTVSPost2010Prop28
280
     0
102
RTVSPost2010PropOp28
 70
     1
102
RTVSPost2010Prop29
280
     1
102
RTVSPost2010PropOp29
 70
     1
102
RTVSPost2010Prop30
280
     1
102
RTVSPost2010PropOp30
 70
     1
102
RTVSPost2010Prop31
280
     0
102
RTVSPost2010PropOp31
 70
     1
102
RTVSPost2010Prop32
280
     0
102
RTVSPost2010PropOp32
 70
     1
102
RTVSPost2010Prop33
280
     0
102
RTVSPost2010PropOp33
 70
     1
102
RTVSPost2010Prop34
280
     0
102
RTVSPost2010PropOp34
 70
     1
102
RTVSPost2010Prop35
280
     0
102
RTVSPost2010PropOp35
 70
     1
102
RTVSPost2010Prop36
280
     0
102
RTVSPost2010PropOp36
 70
     1
102
RTVSPost2010Prop37
 90
       50
102
RTVSPost2010PropOp37
 70
     1
102
RTVSPost2010Prop38
140
0.0
102
RTVSPost2010PropOp38
 70
     1
102
RTVSPost2010Prop39
140
1.0
102
RTVSPost2010PropOp39
 70
     1
102
RTVSPost2010Prop40
 90
        0
102
RTVSPost2010PropOp40
 70
     1
102
RTVSPost2010Prop41ColorIndex
 90
       18
102
RTVSPost2010Prop41ColorRGB
 90
        0
102
RTVSPost2010PropOp41
 70
     1
102
RTVSPost2010Prop42
 90
       50
102
RTVSPost2010PropOp42
 70
     1
102
RTVSPost2010Prop43
 90
        3
102
RTVSPost2010PropOp43
 70
     1
102
RTVSPost2010Prop44ColorIndex
 90
        5
102
RTVSPost2010Prop44ColorRGB
 90
      255
102
RTVSPost2010PropOp44
 70
     1
102
RTVSPost2010Prop45
280
     0
102
RTVSPost2010PropOp45
 70
     1
102
RTVSPost2010Prop46
 90
       50
102
RTVSPost2010PropOp46
 70
     1
102
RTVSPost2010Prop47
 90
       50
102
RTVSPost2010PropOp47
 70
     1
102
RTVSPost2010Prop48
 90
       50
102
RTVSPost2010PropOp48
 70
     1
102
RTVSPost2010Prop49
280
     0
102
RTVSPost2010PropOp49
 70
     1
102
RTVSPost2010Prop50
 90
       50
102
RTVSPost2010PropOp50
 70
     1
102
RTVSPost2010Prop51ColorIndex
 90
      256
102
RTVSPost2010Prop51ColorRGB
 90
-16777216
102
RTVSPost2010PropOp51
 70
     0
102
RTVSPost2010Prop52
140
1.0
102
RTVSPost2010PropOp52
 70
     0
102
RTVSPost2010Prop53
 90
        2
102
RTVSPost2010PropOp53
 70
     1
102
RTVSPost2010Prop54
  1
strokes_ogs.tif
102
RTVSPost2010PropOp54
 70
     1
102
RTVSPost2010Prop55
280
     0
102
RTVSPost2010PropOp55
 70
     1
102
RTVSPost2010Prop56
140
1.0
102
RTVSPost2010PropOp56
 70
     1
102
RTVSPost2010Prop57
140
1.0
102
RTVSPost2010PropOp57
 70
     1
102
RTVSPropertyOp0
 70
     1
102
RTVSPropertyOp1
 70
     1
102
RTVSPropertyOp2
 70
     1
102
RTVSPropertyOp3
 70
     1
102
RTVSPropertyOp4
 70
     1
102
RTVSPropertyOp5
 70
     1
102
RTVSPropertyOp6
 70
     1
102
RTVSPropertyOp7
 70
     1
102
RTVSPropertyOp8
 70
     1
102
RTVSPropertyOp9
 70
     1
102
RTVSPropertyOp10
 70
     1
102
RTVSPropertyOp11
 70
     1
102
RTVSPropertyOp12
 70
     1
102
RTVSPropertyOp13
 70
     1
102
RTVSPropertyOp14
 70
     1
102
RTVSPropertyOp15
 70
     1
102
RTVSPropertyOp16
 70
     1
102
RTVSPropertyOp17
 70
     1
102
RTVSPropertyOp18
 70
     1
102
RTVSPropertyOp19
 70
     1
102
RTVSPropertyOp20
 70
     1
102
RTVSPropertyOp21
 70
     1
102
RTVSPropertyOp22
 70
     1
102
RTVSPropertyOp23
 70
     1
102
RTVSPropertyOp24
 70
     1
102
RTVSPropertyOp25
 70
     1
102
RTVSPropertyOp26
 70
     1
102
RTVSPropertyOp27
 70
     1
102
RTVSPropertyOp28
 70
     1
102
RTVSPropertyOp29
 70
     1
102
RTVSPropertyOp30
 70
     1
102
RTVSPropertyOp31
 70
     1
102
RTVSPropertyOp32
 70
     1
102
RTVSPropertyOp33
 70
     1
102
RTVSPropertyOp34
 70
     1
102
RTVSPropertyOp35
 70
     1
102
RTVSPropertyOp36
 70
     1
102
RTVSPropertyOp37
 70
     1
102
RTVSPropertyOp38
 70
     1
102
RTVSPropertyOp39
 70
     1
102
RTVSPropertyOp40
 70
     1
102
RTVSPropertyOp41
 70
     1
102
RTVSPropertyOp42
 70
     1
102
RTVSPropertyOp43
 70
     1
102
RTVSPropertyOp44
 70
     1
102
RTVSPropertyOp45
 70
     1
102
RTVSPropertyOp46
 70
     1
102
RTVSPropertyOp47
 70
     1
102
RTVSPropertyOp48
 70
     1
102
RTVSPropertyOp49
 70
     1
102
RTVSPropertyOp50
 70
     1
102
RTVSPropertyOp51
 70
     0
102
RTVSPropertyOp52
 70
     0
102
RTVSPropertyOp53
 70
     1
102
RTVSPropertyOp54
 70
     1
102
RTVSPropertyOp55
 70
     1
102
RTVSPropertyOp56
 70
     1
102
RTVSPropertyOp57
 70
     1
102
RTVSPropertyOp58
 70
     1
102
RTVSPropertyOp59
 70
     1
102
RTVSPropertyOp60
 70
     1
102
RTVSPropertyOp61
 70
     1
102
RTVSPropertyOp62
 70
     1
  0
XRECORD
  5
5E2
102
{ACAD_REACTORS
330
5E1
102
}
330
5E1
100
AcDbXrecord
280
     1
102
RTVSPost2010Prop28
280
     0
102
RTVSPost2010PropOp28
 70
     0
102
RTVSPost2010Prop29
280
     1
102
RTVSPost2010PropOp29
 70
     0
102
RTVSPost2010Prop30
280
     1
102
RTVSPost2010PropOp30
 70
     0
102
RTVSPost2010Prop31
280
     0
102
RTVSPost2010PropOp31
 70
     0
102
RTVSPost2010Prop32
280
     0
102
RTVSPost2010PropOp32
 70
     0
102
RTVSPost2010Prop33
280
     0
102
RTVSPost2010PropOp33
 70
     0
102
RTVSPost2010Prop34
280
     0
102
RTVSPost2010PropOp34
 70
     0
102
RTVSPost2010Prop35
280
     0
102
RTVSPost2010PropOp35
 70
     0
102
RTVSPost2010Prop36
280
     0
102
RTVSPost2010PropOp36
 70
     0
102
RTVSPost2010Prop37
 90
       50
102
RTVSPost2010PropOp37
 70
     0
102
RTVSPost2010Prop38
140
0.0
102
RTVSPost2010PropOp38
 70
     0
102
RTVSPost2010Prop39
140
1.0
102
RTVSPost2010PropOp39
 70
     0
102
RTVSPost2010Prop40
 90
        0
102
RTVSPost2010PropOp40
 70
     0
102
RTVSPost2010Prop41ColorIndex
 90
       18
102
RTVSPost2010Prop41ColorRGB
 90
        0
102
RTVSPost2010PropOp41
 70
     0
102
RTVSPost2010Prop42
 90
       50
102
RTVSPost2010PropOp42
 70
     0
102
RTVSPost2010Prop43
 90
        3
102
RTVSPost2010PropOp43
 70
     0
102
RTVSPost2010Prop44ColorIndex
 90
        5
102
RTVSPost2010Prop44ColorRGB
 90
      255
102
RTVSPost2010PropOp44
 70
     0
102
RTVSPost2010Prop45
280
     0
102
RTVSPost2010PropOp45
 70
     0
102
RTVSPost2010Prop46
 90
       50
102
RTVSPost2010PropOp46
 70
     0
102
RTVSPost2010Prop47
 90
       50
102
RTVSPost2010PropOp47
 70
     0
102
RTVSPost2010Prop48
 90
       50
102
RTVSPost2010PropOp48
 70
     0
102
RTVSPost2010Prop49
280
     0
102
RTVSPost2010PropOp49
 70
     0
102
RTVSPost2010Prop50
 90
       50
102
RTVSPost2010PropOp50
 70
     0
102
RTVSPost2010Prop51ColorIndex
 90
      256
102
RTVSPost2010Prop51ColorRGB
 90
-16777216
102
RTVSPost2010PropOp51
 70
     0
102
RTVSPost2010Prop52
140
1.0
102
RTVSPost2010PropOp52
 70
     0
102
RTVSPost2010Prop53
 90
        2
102
RTVSPost2010PropOp53
 70
     0
102
RTVSPost2010Prop54
  1
strokes_ogs.tif
102
RTVSPost2010PropOp54
 70
     0
102
RTVSPost2010Prop55
280
     0
102
RTVSPost2010PropOp55
 70
     0
102
RTVSPost2010Prop56
140
1.0
102
RTVSPost2010PropOp56
 70
     0
102
RTVSPost2010Prop57
140
1.0
102
RTVSPost2010PropOp57
 70
     0
102
RTVSPropertyOp0
 70
     0
102
RTVSPropertyOp1
 70
     0
102
RTVSPropertyOp2
 70
     0
102
RTVSPropertyOp3
 70
     0
102
RTVSPropertyOp4
 70
     0
102
RTVSPropertyOp5
 70
     0
102
RTVSPropertyOp6
 70
     0
102
RTVSPropertyOp7
 70
     0
102
RTVSPropertyOp8
 70
     0
102
RTVSPropertyOp9
 70
     0
102
RTVSPropertyOp10
 70
     0
102
RTVSPropertyOp11
 70
     0
102
RTVSPropertyOp12
 70
     0
102
RTVSPropertyOp13
 70
     0
102
RTVSPropertyOp14
 70
     2
102
RTVSPropertyOp15
 70
     0
102
RTVSPropertyOp16
 70
     0
102
RTVSPropertyOp17
 70
     0
102
RTVSPropertyOp18
 70
     0
102
RTVSPropertyOp19
 70
     0
102
RTVSPropertyOp20
 70
     0
102
RTVSPropertyOp21
 70
     0
102
RTVSPropertyOp22
 70
     0
102
RTVSPropertyOp23
 70
     0
102
RTVSPropertyOp24
 70
     0
102
RTVSPropertyOp25
 70
     0
102
RTVSPropertyOp26
 70
     0
102
RTVSPropertyOp27
 70
     0
102
RTVSPropertyOp28
 70
     0
102
RTVSPropertyOp29
 70
     0
102
RTVSPropertyOp30
 70
     0
102
RTVSPropertyOp31
 70
     0
102
RTVSPropertyOp32
 70
     0
102
RTVSPropertyOp33
 70
     0
102
RTVSPropertyOp34
 70
     0
102
RTVSPropertyOp35
 70
     0
102
RTVSPropertyOp36
 70
     0
102
RTVSPropertyOp37
 70
     0
102
RTVSPropertyOp38
 70
     0
102
RTVSPropertyOp39
 70
     0
102
RTVSPropertyOp40
 70
     0
102
RTVSPropertyOp41
 70
     0
102
RTVSPropertyOp42
 70
     0
102
RTVSPropertyOp43
 70
     0
102
RTVSPropertyOp44
 70
     0
102
RTVSPropertyOp45
 70
     0
102
RTVSPropertyOp46
 70
     0
102
RTVSPropertyOp47
 70
     0
102
RTVSPropertyOp48
 70
     0
102
RTVSPropertyOp49
 70
     0
102
RTVSPropertyOp50
 70
     0
102
RTVSPropertyOp51
 70
     0
102
RTVSPropertyOp52
 70
     0
102
RTVSPropertyOp53
 70
     0
102
RTVSPropertyOp54
 70
     0
102
RTVSPropertyOp55
 70
     0
102
RTVSPropertyOp56
 70
     0
102
RTVSPropertyOp57
 70
     0
102
RTVSPropertyOp58
 70
     0
102
RTVSPropertyOp59
 70
     0
102
RTVSPropertyOp60
 70
     0
102
RTVSPropertyOp61
 70
     0
102
RTVSPropertyOp62
 70
     0
  0
XRECORD
  5
5C8
102
{ACAD_REACTORS
330
5C7
102
}
330
5C7
100
AcDbXrecord
280
     1
102
RTVSPost2010Prop28
280
     0
102
RTVSPost2010PropOp28
 70
     1
102
RTVSPost2010Prop29
280
     1
102
RTVSPost2010PropOp29
 70
     1
102
RTVSPost2010Prop30
280
     1
102
RTVSPost2010PropOp30
 70
     1
102
RTVSPost2010Prop31
280
     0
102
RTVSPost2010PropOp31
 70
     1
102
RTVSPost2010Prop32
280
     0
102
RTVSPost2010PropOp32
 70
     1
102
RTVSPost2010Prop33
280
     0
102
RTVSPost2010PropOp33
 70
     1
102
RTVSPost2010Prop34
280
     0
102
RTVSPost2010PropOp34
 70
     1
102
RTVSPost2010Prop35
280
     0
102
RTVSPost2010PropOp35
 70
     1
102
RTVSPost2010Prop36
280
     0
102
RTVSPost2010PropOp36
 70
     1
102
RTVSPost2010Prop37
 90
       50
102
RTVSPost2010PropOp37
 70
     1
102
RTVSPost2010Prop38
140
0.0
102
RTVSPost2010PropOp38
 70
     1
102
RTVSPost2010Prop39
140
1.0
102
RTVSPost2010PropOp39
 70
     1
102
RTVSPost2010Prop40
 90
        0
102
RTVSPost2010PropOp40
 70
     1
102
RTVSPost2010Prop41ColorIndex
 90
       18
102
RTVSPost2010Prop41ColorRGB
 90
        0
102
RTVSPost2010PropOp41
 70
     1
102
RTVSPost2010Prop42
 90
       50
102
RTVSPost2010PropOp42
 70
     1
102
RTVSPost2010Prop43
 90
        3
102
RTVSPost2010PropOp43
 70
     1
102
RTVSPost2010Prop44ColorIndex
 90
        5
102
RTVSPost2010Prop44ColorRGB
 90
      255
102
RTVSPost2010PropOp44
 70
     1
102
RTVSPost2010Prop45
280
     0
102
RTVSPost2010PropOp45
 70
     1
102
RTVSPost2010Prop46
 90
       50
102
RTVSPost2010PropOp46
 70
     1
102
RTVSPost2010Prop47
 90
       50
102
RTVSPost2010PropOp47
 70
     1
102
RTVSPost2010Prop48
 90
       50
102
RTVSPost2010PropOp48
 70
     1
102
RTVSPost2010Prop49
280
     0
102
RTVSPost2010PropOp49
 70
     1
102
RTVSPost2010Prop50
 90
       50
102
RTVSPost2010PropOp50
 70
     1
102
RTVSPost2010Prop51ColorIndex
 90
      256
102
RTVSPost2010Prop51ColorRGB
 90
-16777216
102
RTVSPost2010PropOp51
 70
     0
102
RTVSPost2010Prop52
140
1.0
102
RTVSPost2010PropOp52
 70
     0
102
RTVSPost2010Prop53
 90
        2
102
RTVSPost2010PropOp53
 70
     1
102
RTVSPost2010Prop54
  1
strokes_ogs.tif
102
RTVSPost2010PropOp54
 70
     1
102
RTVSPost2010Prop55
280
     0
102
RTVSPost2010PropOp55
 70
     1
102
RTVSPost2010Prop56
140
1.0
102
RTVSPost2010PropOp56
 70
     1
102
RTVSPost2010Prop57
140
1.0
102
RTVSPost2010PropOp57
 70
     1
102
RTVSPropertyOp0
 70
     1
102
RTVSPropertyOp1
 70
     1
102
RTVSPropertyOp2
 70
     1
102
RTVSPropertyOp3
 70
     1
102
RTVSPropertyOp4
 70
     1
102
RTVSPropertyOp5
 70
     1
102
RTVSPropertyOp6
 70
     1
102
RTVSPropertyOp7
 70
     1
102
RTVSPropertyOp8
 70
     1
102
RTVSPropertyOp9
 70
     1
102
RTVSPropertyOp10
 70
     1
102
RTVSPropertyOp11
 70
     1
102
RTVSPropertyOp12
 70
     1
102
RTVSPropertyOp13
 70
     1
102
RTVSPropertyOp14
 70
     1
102
RTVSPropertyOp15
 70
     1
102
RTVSPropertyOp16
 70
     1
102
RTVSPropertyOp17
 70
     1
102
RTVSPropertyOp18
 70
     1
102
RTVSPropertyOp19
 70
     1
102
RTVSPropertyOp20
 70
     1
102
RTVSPropertyOp21
 70
     1
102
RTVSPropertyOp22
 70
     1
102
RTVSPropertyOp23
 70
     1
102
RTVSPropertyOp24
 70
     1
102
RTVSPropertyOp25
 70
     1
102
RTVSPropertyOp26
 70
     1
102
RTVSPropertyOp27
 70
     1
102
RTVSPropertyOp28
 70
     1
102
RTVSPropertyOp29
 70
     1
102
RTVSPropertyOp30
 70
     1
102
RTVSPropertyOp31
 70
     1
102
RTVSPropertyOp32
 70
     1
102
RTVSPropertyOp33
 70
     1
102
RTVSPropertyOp34
 70
     1
102
RTVSPropertyOp35
 70
     1
102
RTVSPropertyOp36
 70
     1
102
RTVSPropertyOp37
 70
     1
102
RTVSPropertyOp38
 70
     1
102
RTVSPropertyOp39
 70
     1
102
RTVSPropertyOp40
 70
     1
102
RTVSPropertyOp41
 70
     1
102
RTVSPropertyOp42
 70
     1
102
RTVSPropertyOp43
 70
     1
102
RTVSPropertyOp44
 70
     1
102
RTVSPropertyOp45
 70
     1
102
RTVSPropertyOp46
 70
     1
102
RTVSPropertyOp47
 70
     1
102
RTVSPropertyOp48
 70
     1
102
RTVSPropertyOp49
 70
     1
102
RTVSPropertyOp50
 70
     1
102
RTVSPropertyOp51
 70
     0
102
RTVSPropertyOp52
 70
     0
102
RTVSPropertyOp53
 70
     1
102
RTVSPropertyOp54
 70
     1
102
RTVSPropertyOp55
 70
     1
102
RTVSPropertyOp56
 70
     1
102
RTVSPropertyOp57
 70
     1
102
RTVSPropertyOp58
 70
     1
102
RTVSPropertyOp59
 70
     1
102
RTVSPropertyOp60
 70
     1
102
RTVSPropertyOp61
 70
     1
102
RTVSPropertyOp62
 70
     1
  0
XRECORD
  5
5DE
102
{ACAD_REACTORS
330
5DD
102
}
330
5DD
100
AcDbXrecord
280
     1
102
RTVSPost2010Prop28
280
     0
102
RTVSPost2010PropOp28
 70
     1
102
RTVSPost2010Prop29
280
     1
102
RTVSPost2010PropOp29
 70
     1
102
RTVSPost2010Prop30
280
     1
102
RTVSPost2010PropOp30
 70
     1
102
RTVSPost2010Prop31
280
     0
102
RTVSPost2010PropOp31
 70
     1
102
RTVSPost2010Prop32
280
     0
102
RTVSPost2010PropOp32
 70
     1
102
RTVSPost2010Prop33
280
     0
102
RTVSPost2010PropOp33
 70
     1
102
RTVSPost2010Prop34
280
     0
102
RTVSPost2010PropOp34
 70
     1
102
RTVSPost2010Prop35
280
     0
102
RTVSPost2010PropOp35
 70
     1
102
RTVSPost2010Prop36
280
     0
102
RTVSPost2010PropOp36
 70
     1
102
RTVSPost2010Prop37
 90
       50
102
RTVSPost2010PropOp37
 70
     1
102
RTVSPost2010Prop38
140
0.0
102
RTVSPost2010PropOp38
 70
     1
102
RTVSPost2010Prop39
140
1.0
102
RTVSPost2010PropOp39
 70
     1
102
RTVSPost2010Prop40
 90
        0
102
RTVSPost2010PropOp40
 70
     1
102
RTVSPost2010Prop41ColorIndex
 90
       18
102
RTVSPost2010Prop41ColorRGB
 90
        0
102
RTVSPost2010PropOp41
 70
     1
102
RTVSPost2010Prop42
 90
       50
102
RTVSPost2010PropOp42
 70
     1
102
RTVSPost2010Prop43
 90
        3
102
RTVSPost2010PropOp43
 70
     1
102
RTVSPost2010Prop44ColorIndex
 90
        5
102
RTVSPost2010Prop44ColorRGB
 90
      255
102
RTVSPost2010PropOp44
 70
     1
102
RTVSPost2010Prop45
280
     0
102
RTVSPost2010PropOp45
 70
     1
102
RTVSPost2010Prop46
 90
       50
102
RTVSPost2010PropOp46
 70
     1
102
RTVSPost2010Prop47
 90
       50
102
RTVSPost2010PropOp47
 70
     1
102
RTVSPost2010Prop48
 90
       50
102
RTVSPost2010PropOp48
 70
     1
102
RTVSPost2010Prop49
280
     0
102
RTVSPost2010PropOp49
 70
     1
102
RTVSPost2010Prop50
 90
       50
102
RTVSPost2010PropOp50
 70
     1
102
RTVSPost2010Prop51ColorIndex
 90
      256
102
RTVSPost2010Prop51ColorRGB
 90
-16777216
102
RTVSPost2010PropOp51
 70
     0
102
RTVSPost2010Prop52
140
1.0
102
RTVSPost2010PropOp52
 70
     0
102
RTVSPost2010Prop53
 90
        2
102
RTVSPost2010PropOp53
 70
     1
102
RTVSPost2010Prop54
  1
strokes_ogs.tif
102
RTVSPost2010PropOp54
 70
     1
102
RTVSPost2010Prop55
280
     0
102
RTVSPost2010PropOp55
 70
     1
102
RTVSPost2010Prop56
140
1.0
102
RTVSPost2010PropOp56
 70
     1
102
RTVSPost2010Prop57
140
1.0
102
RTVSPost2010PropOp57
 70
     1
102
RTVSPropertyOp0
 70
     1
102
RTVSPropertyOp1
 70
     1
102
RTVSPropertyOp2
 70
     1
102
RTVSPropertyOp3
 70
     1
102
RTVSPropertyOp4
 70
     1
102
RTVSPropertyOp5
 70
     1
102
RTVSPropertyOp6
 70
     1
102
RTVSPropertyOp7
 70
     1
102
RTVSPropertyOp8
 70
     1
102
RTVSPropertyOp9
 70
     1
102
RTVSPropertyOp10
 70
     1
102
RTVSPropertyOp11
 70
     1
102
RTVSPropertyOp12
 70
     1
102
RTVSPropertyOp13
 70
     1
102
RTVSPropertyOp14
 70
     1
102
RTVSPropertyOp15
 70
     1
102
RTVSPropertyOp16
 70
     1
102
RTVSPropertyOp17
 70
     1
102
RTVSPropertyOp18
 70
     1
102
RTVSPropertyOp19
 70
     1
102
RTVSPropertyOp20
 70
     1
102
RTVSPropertyOp21
 70
     1
102
RTVSPropertyOp22
 70
     1
102
RTVSPropertyOp23
 70
     1
102
RTVSPropertyOp24
 70
     1
102
RTVSPropertyOp25
 70
     1
102
RTVSPropertyOp26
 70
     1
102
RTVSPropertyOp27
 70
     1
102
RTVSPropertyOp28
 70
     1
102
RTVSPropertyOp29
 70
     1
102
RTVSPropertyOp30
 70
     1
102
RTVSPropertyOp31
 70
     1
102
RTVSPropertyOp32
 70
     1
102
RTVSPropertyOp33
 70
     1
102
RTVSPropertyOp34
 70
     1
102
RTVSPropertyOp35
 70
     1
102
RTVSPropertyOp36
 70
     1
102
RTVSPropertyOp37
 70
     1
102
RTVSPropertyOp38
 70
     1
102
RTVSPropertyOp39
 70
     1
102
RTVSPropertyOp40
 70
     1
102
RTVSPropertyOp41
 70
     1
102
RTVSPropertyOp42
 70
     1
102
RTVSPropertyOp43
 70
     1
102
RTVSPropertyOp44
 70
     1
102
RTVSPropertyOp45
 70
     1
102
RTVSPropertyOp46
 70
     1
102
RTVSPropertyOp47
 70
     1
102
RTVSPropertyOp48
 70
     1
102
RTVSPropertyOp49
 70
     1
102
RTVSPropertyOp50
 70
     1
102
RTVSPropertyOp51
 70
     0
102
RTVSPropertyOp52
 70
     0
102
RTVSPropertyOp53
 70
     1
102
RTVSPropertyOp54
 70
     1
102
RTVSPropertyOp55
 70
     1
102
RTVSPropertyOp56
 70
     1
102
RTVSPropertyOp57
 70
     1
102
RTVSPropertyOp58
 70
     1
102
RTVSPropertyOp59
 70
     1
102
RTVSPropertyOp60
 70
     1
102
RTVSPropertyOp61
 70
     1
102
RTVSPropertyOp62
 70
     1
  0
XRECORD
  5
5DC
102
{ACAD_REACTORS
330
5DB
102
}
330
5DB
100
AcDbXrecord
280
     1
102
RTVSPost2010Prop28
280
     0
102
RTVSPost2010PropOp28
 70
     1
102
RTVSPost2010Prop29
280
     1
102
RTVSPost2010PropOp29
 70
     1
102
RTVSPost2010Prop30
280
     1
102
RTVSPost2010PropOp30
 70
     1
102
RTVSPost2010Prop31
280
     0
102
RTVSPost2010PropOp31
 70
     1
102
RTVSPost2010Prop32
280
     0
102
RTVSPost2010PropOp32
 70
     1
102
RTVSPost2010Prop33
280
     0
102
RTVSPost2010PropOp33
 70
     1
102
RTVSPost2010Prop34
280
     0
102
RTVSPost2010PropOp34
 70
     1
102
RTVSPost2010Prop35
280
     0
102
RTVSPost2010PropOp35
 70
     1
102
RTVSPost2010Prop36
280
     0
102
RTVSPost2010PropOp36
 70
     1
102
RTVSPost2010Prop37
 90
       50
102
RTVSPost2010PropOp37
 70
     1
102
RTVSPost2010Prop38
140
0.0
102
RTVSPost2010PropOp38
 70
     1
102
RTVSPost2010Prop39
140
1.0
102
RTVSPost2010PropOp39
 70
     1
102
RTVSPost2010Prop40
 90
        0
102
RTVSPost2010PropOp40
 70
     1
102
RTVSPost2010Prop41ColorIndex
 90
       18
102
RTVSPost2010Prop41ColorRGB
 90
        0
102
RTVSPost2010PropOp41
 70
     1
102
RTVSPost2010Prop42
 90
       50
102
RTVSPost2010PropOp42
 70
     1
102
RTVSPost2010Prop43
 90
        3
102
RTVSPost2010PropOp43
 70
     1
102
RTVSPost2010Prop44ColorIndex
 90
        5
102
RTVSPost2010Prop44ColorRGB
 90
      255
102
RTVSPost2010PropOp44
 70
     1
102
RTVSPost2010Prop45
280
     0
102
RTVSPost2010PropOp45
 70
     1
102
RTVSPost2010Prop46
 90
       50
102
RTVSPost2010PropOp46
 70
     1
102
RTVSPost2010Prop47
 90
       50
102
RTVSPost2010PropOp47
 70
     1
102
RTVSPost2010Prop48
 90
       50
102
RTVSPost2010PropOp48
 70
     1
102
RTVSPost2010Prop49
280
     0
102
RTVSPost2010PropOp49
 70
     1
102
RTVSPost2010Prop50
 90
       50
102
RTVSPost2010PropOp50
 70
     1
102
RTVSPost2010Prop51ColorIndex
 90
      256
102
RTVSPost2010Prop51ColorRGB
 90
-16777216
102
RTVSPost2010PropOp51
 70
     0
102
RTVSPost2010Prop52
140
1.0
102
RTVSPost2010PropOp52
 70
     0
102
RTVSPost2010Prop53
 90
        2
102
RTVSPost2010PropOp53
 70
     1
102
RTVSPost2010Prop54
  1
strokes_ogs.tif
102
RTVSPost2010PropOp54
 70
     1
102
RTVSPost2010Prop55
280
     0
102
RTVSPost2010PropOp55
 70
     1
102
RTVSPost2010Prop56
140
1.0
102
RTVSPost2010PropOp56
 70
     1
102
RTVSPost2010Prop57
140
1.0
102
RTVSPost2010PropOp57
 70
     1
102
RTVSPropertyOp0
 70
     1
102
RTVSPropertyOp1
 70
     1
102
RTVSPropertyOp2
 70
     1
102
RTVSPropertyOp3
 70
     1
102
RTVSPropertyOp4
 70
     1
102
RTVSPropertyOp5
 70
     1
102
RTVSPropertyOp6
 70
     1
102
RTVSPropertyOp7
 70
     1
102
RTVSPropertyOp8
 70
     1
102
RTVSPropertyOp9
 70
     1
102
RTVSPropertyOp10
 70
     1
102
RTVSPropertyOp11
 70
     1
102
RTVSPropertyOp12
 70
     1
102
RTVSPropertyOp13
 70
     1
102
RTVSPropertyOp14
 70
     1
102
RTVSPropertyOp15
 70
     1
102
RTVSPropertyOp16
 70
     1
102
RTVSPropertyOp17
 70
     1
102
RTVSPropertyOp18
 70
     1
102
RTVSPropertyOp19
 70
     1
102
RTVSPropertyOp20
 70
     1
102
RTVSPropertyOp21
 70
     1
102
RTVSPropertyOp22
 70
     1
102
RTVSPropertyOp23
 70
     1
102
RTVSPropertyOp24
 70
     1
102
RTVSPropertyOp25
 70
     1
102
RTVSPropertyOp26
 70
     1
102
RTVSPropertyOp27
 70
     1
102
RTVSPropertyOp28
 70
     1
102
RTVSPropertyOp29
 70
     1
102
RTVSPropertyOp30
 70
     1
102
RTVSPropertyOp31
 70
     1
102
RTVSPropertyOp32
 70
     1
102
RTVSPropertyOp33
 70
     1
102
RTVSPropertyOp34
 70
     1
102
RTVSPropertyOp35
 70
     1
102
RTVSPropertyOp36
 70
     1
102
RTVSPropertyOp37
 70
     1
102
RTVSPropertyOp38
 70
     1
102
RTVSPropertyOp39
 70
     1
102
RTVSPropertyOp40
 70
     1
102
RTVSPropertyOp41
 70
     1
102
RTVSPropertyOp42
 70
     1
102
RTVSPropertyOp43
 70
     1
102
RTVSPropertyOp44
 70
     1
102
RTVSPropertyOp45
 70
     1
102
RTVSPropertyOp46
 70
     1
102
RTVSPropertyOp47
 70
     1
102
RTVSPropertyOp48
 70
     1
102
RTVSPropertyOp49
 70
     1
102
RTVSPropertyOp50
 70
     1
102
RTVSPropertyOp51
 70
     0
102
RTVSPropertyOp52
 70
     0
102
RTVSPropertyOp53
 70
     1
102
RTVSPropertyOp54
 70
     1
102
RTVSPropertyOp55
 70
     1
102
RTVSPropertyOp56
 70
     1
102
RTVSPropertyOp57
 70
     1
102
RTVSPropertyOp58
 70
     1
102
RTVSPropertyOp59
 70
     1
102
RTVSPropertyOp60
 70
     1
102
RTVSPropertyOp61
 70
     1
102
RTVSPropertyOp62
 70
     1
  0
XRECORD
  5
5D6
102
{ACAD_REACTORS
330
5D5
102
}
330
5D5
100
AcDbXrecord
280
     1
102
RTVSPost2010Prop28
280
     0
102
RTVSPost2010PropOp28
 70
     1
102
RTVSPost2010Prop29
280
     1
102
RTVSPost2010PropOp29
 70
     1
102
RTVSPost2010Prop30
280
     1
102
RTVSPost2010PropOp30
 70
     1
102
RTVSPost2010Prop31
280
     0
102
RTVSPost2010PropOp31
 70
     1
102
RTVSPost2010Prop32
280
     0
102
RTVSPost2010PropOp32
 70
     1
102
RTVSPost2010Prop33
280
     0
102
RTVSPost2010PropOp33
 70
     1
102
RTVSPost2010Prop34
280
     0
102
RTVSPost2010PropOp34
 70
     1
102
RTVSPost2010Prop35
280
     0
102
RTVSPost2010PropOp35
 70
     1
102
RTVSPost2010Prop36
280
     0
102
RTVSPost2010PropOp36
 70
     1
102
RTVSPost2010Prop37
 90
       50
102
RTVSPost2010PropOp37
 70
     1
102
RTVSPost2010Prop38
140
0.0
102
RTVSPost2010PropOp38
 70
     1
102
RTVSPost2010Prop39
140
1.0
102
RTVSPost2010PropOp39
 70
     1
102
RTVSPost2010Prop40
 90
        0
102
RTVSPost2010PropOp40
 70
     1
102
RTVSPost2010Prop41ColorIndex
 90
       18
102
RTVSPost2010Prop41ColorRGB
 90
        0
102
RTVSPost2010PropOp41
 70
     1
102
RTVSPost2010Prop42
 90
       50
102
RTVSPost2010PropOp42
 70
     1
102
RTVSPost2010Prop43
 90
        3
102
RTVSPost2010PropOp43
 70
     1
102
RTVSPost2010Prop44ColorIndex
 90
        5
102
RTVSPost2010Prop44ColorRGB
 90
      255
102
RTVSPost2010PropOp44
 70
     1
102
RTVSPost2010Prop45
280
     0
102
RTVSPost2010PropOp45
 70
     1
102
RTVSPost2010Prop46
 90
       50
102
RTVSPost2010PropOp46
 70
     1
102
RTVSPost2010Prop47
 90
       50
102
RTVSPost2010PropOp47
 70
     1
102
RTVSPost2010Prop48
 90
       50
102
RTVSPost2010PropOp48
 70
     1
102
RTVSPost2010Prop49
280
     0
102
RTVSPost2010PropOp49
 70
     1
102
RTVSPost2010Prop50
 90
       50
102
RTVSPost2010PropOp50
 70
     1
102
RTVSPost2010Prop51ColorIndex
 90
      256
102
RTVSPost2010Prop51ColorRGB
 90
-16777216
102
RTVSPost2010PropOp51
 70
     0
102
RTVSPost2010Prop52
140
1.0
102
RTVSPost2010PropOp52
 70
     0
102
RTVSPost2010Prop53
 90
        2
102
RTVSPost2010PropOp53
 70
     1
102
RTVSPost2010Prop54
  1
strokes_ogs.tif
102
RTVSPost2010PropOp54
 70
     1
102
RTVSPost2010Prop55
280
     0
102
RTVSPost2010PropOp55
 70
     1
102
RTVSPost2010Prop56
140
1.0
102
RTVSPost2010PropOp56
 70
     1
102
RTVSPost2010Prop57
140
1.0
102
RTVSPost2010PropOp57
 70
     1
102
RTVSPropertyOp0
 70
     1
102
RTVSPropertyOp1
 70
     1
102
RTVSPropertyOp2
 70
     1
102
RTVSPropertyOp3
 70
     1
102
RTVSPropertyOp4
 70
     1
102
RTVSPropertyOp5
 70
     1
102
RTVSPropertyOp6
 70
     1
102
RTVSPropertyOp7
 70
     1
102
RTVSPropertyOp8
 70
     1
102
RTVSPropertyOp9
 70
     1
102
RTVSPropertyOp10
 70
     1
102
RTVSPropertyOp11
 70
     1
102
RTVSPropertyOp12
 70
     1
102
RTVSPropertyOp13
 70
     1
102
RTVSPropertyOp14
 70
     1
102
RTVSPropertyOp15
 70
     1
102
RTVSPropertyOp16
 70
     1
102
RTVSPropertyOp17
 70
     1
102
RTVSPropertyOp18
 70
     1
102
RTVSPropertyOp19
 70
     1
102
RTVSPropertyOp20
 70
     1
102
RTVSPropertyOp21
 70
     1
102
RTVSPropertyOp22
 70
     1
102
RTVSPropertyOp23
 70
     1
102
RTVSPropertyOp24
 70
     1
102
RTVSPropertyOp25
 70
     1
102
RTVSPropertyOp26
 70
     1
102
RTVSPropertyOp27
 70
     1
102
RTVSPropertyOp28
 70
     1
102
RTVSPropertyOp29
 70
     1
102
RTVSPropertyOp30
 70
     1
102
RTVSPropertyOp31
 70
     1
102
RTVSPropertyOp32
 70
     1
102
RTVSPropertyOp33
 70
     1
102
RTVSPropertyOp34
 70
     1
102
RTVSPropertyOp35
 70
     1
102
RTVSPropertyOp36
 70
     1
102
RTVSPropertyOp37
 70
     1
102
RTVSPropertyOp38
 70
     1
102
RTVSPropertyOp39
 70
     1
102
RTVSPropertyOp40
 70
     1
102
RTVSPropertyOp41
 70
     1
102
RTVSPropertyOp42
 70
     1
102
RTVSPropertyOp43
 70
     1
102
RTVSPropertyOp44
 70
     1
102
RTVSPropertyOp45
 70
     1
102
RTVSPropertyOp46
 70
     1
102
RTVSPropertyOp47
 70
     1
102
RTVSPropertyOp48
 70
     1
102
RTVSPropertyOp49
 70
     1
102
RTVSPropertyOp50
 70
     1
102
RTVSPropertyOp51
 70
     0
102
RTVSPropertyOp52
 70
     0
102
RTVSPropertyOp53
 70
     1
102
RTVSPropertyOp54
 70
     1
102
RTVSPropertyOp55
 70
     1
102
RTVSPropertyOp56
 70
     1
102
RTVSPropertyOp57
 70
     1
102
RTVSPropertyOp58
 70
     1
102
RTVSPropertyOp59
 70
     1
102
RTVSPropertyOp60
 70
     1
102
RTVSPropertyOp61
 70
     1
102
RTVSPropertyOp62
 70
     1
  0
XRECORD
  5
5D8
102
{ACAD_REACTORS
330
5D7
102
}
330
5D7
100
AcDbXrecord
280
     1
102
RTVSPost2010Prop28
280
     0
102
RTVSPost2010PropOp28
 70
     1
102
RTVSPost2010Prop29
280
     1
102
RTVSPost2010PropOp29
 70
     1
102
RTVSPost2010Prop30
280
     1
102
RTVSPost2010PropOp30
 70
     1
102
RTVSPost2010Prop31
280
     0
102
RTVSPost2010PropOp31
 70
     1
102
RTVSPost2010Prop32
280
     0
102
RTVSPost2010PropOp32
 70
     1
102
RTVSPost2010Prop33
280
     0
102
RTVSPost2010PropOp33
 70
     1
102
RTVSPost2010Prop34
280
     0
102
RTVSPost2010PropOp34
 70
     1
102
RTVSPost2010Prop35
280
     0
102
RTVSPost2010PropOp35
 70
     1
102
RTVSPost2010Prop36
280
     0
102
RTVSPost2010PropOp36
 70
     1
102
RTVSPost2010Prop37
 90
       50
102
RTVSPost2010PropOp37
 70
     1
102
RTVSPost2010Prop38
140
0.0
102
RTVSPost2010PropOp38
 70
     1
102
RTVSPost2010Prop39
140
1.0
102
RTVSPost2010PropOp39
 70
     1
102
RTVSPost2010Prop40
 90
        0
102
RTVSPost2010PropOp40
 70
     1
102
RTVSPost2010Prop41ColorIndex
 90
       18
102
RTVSPost2010Prop41ColorRGB
 90
        0
102
RTVSPost2010PropOp41
 70
     1
102
RTVSPost2010Prop42
 90
       50
102
RTVSPost2010PropOp42
 70
     1
102
RTVSPost2010Prop43
 90
        3
102
RTVSPost2010PropOp43
 70
     1
102
RTVSPost2010Prop44ColorIndex
 90
        5
102
RTVSPost2010Prop44ColorRGB
 90
      255
102
RTVSPost2010PropOp44
 70
     1
102
RTVSPost2010Prop45
280
     0
102
RTVSPost2010PropOp45
 70
     1
102
RTVSPost2010Prop46
 90
       50
102
RTVSPost2010PropOp46
 70
     1
102
RTVSPost2010Prop47
 90
       50
102
RTVSPost2010PropOp47
 70
     1
102
RTVSPost2010Prop48
 90
       50
102
RTVSPost2010PropOp48
 70
     1
102
RTVSPost2010Prop49
280
     0
102
RTVSPost2010PropOp49
 70
     1
102
RTVSPost2010Prop50
 90
       50
102
RTVSPost2010PropOp50
 70
     1
102
RTVSPost2010Prop51ColorIndex
 90
      256
102
RTVSPost2010Prop51ColorRGB
 90
-16777216
102
RTVSPost2010PropOp51
 70
     0
102
RTVSPost2010Prop52
140
1.0
102
RTVSPost2010PropOp52
 70
     0
102
RTVSPost2010Prop53
 90
        2
102
RTVSPost2010PropOp53
 70
     1
102
RTVSPost2010Prop54
  1
strokes_ogs.tif
102
RTVSPost2010PropOp54
 70
     1
102
RTVSPost2010Prop55
280
     0
102
RTVSPost2010PropOp55
 70
     1
102
RTVSPost2010Prop56
140
1.0
102
RTVSPost2010PropOp56
 70
     1
102
RTVSPost2010Prop57
140
1.0
102
RTVSPost2010PropOp57
 70
     1
102
RTVSPropertyOp0
 70
     1
102
RTVSPropertyOp1
 70
     1
102
RTVSPropertyOp2
 70
     1
102
RTVSPropertyOp3
 70
     1
102
RTVSPropertyOp4
 70
     1
102
RTVSPropertyOp5
 70
     1
102
RTVSPropertyOp6
 70
     1
102
RTVSPropertyOp7
 70
     1
102
RTVSPropertyOp8
 70
     1
102
RTVSPropertyOp9
 70
     1
102
RTVSPropertyOp10
 70
     1
102
RTVSPropertyOp11
 70
     1
102
RTVSPropertyOp12
 70
     1
102
RTVSPropertyOp13
 70
     1
102
RTVSPropertyOp14
 70
     1
102
RTVSPropertyOp15
 70
     1
102
RTVSPropertyOp16
 70
     1
102
RTVSPropertyOp17
 70
     1
102
RTVSPropertyOp18
 70
     1
102
RTVSPropertyOp19
 70
     1
102
RTVSPropertyOp20
 70
     1
102
RTVSPropertyOp21
 70
     1
102
RTVSPropertyOp22
 70
     1
102
RTVSPropertyOp23
 70
     1
102
RTVSPropertyOp24
 70
     1
102
RTVSPropertyOp25
 70
     1
102
RTVSPropertyOp26
 70
     1
102
RTVSPropertyOp27
 70
     1
102
RTVSPropertyOp28
 70
     1
102
RTVSPropertyOp29
 70
     1
102
RTVSPropertyOp30
 70
     1
102
RTVSPropertyOp31
 70
     1
102
RTVSPropertyOp32
 70
     1
102
RTVSPropertyOp33
 70
     1
102
RTVSPropertyOp34
 70
     1
102
RTVSPropertyOp35
 70
     1
102
RTVSPropertyOp36
 70
     1
102
RTVSPropertyOp37
 70
     1
102
RTVSPropertyOp38
 70
     1
102
RTVSPropertyOp39
 70
     1
102
RTVSPropertyOp40
 70
     1
102
RTVSPropertyOp41
 70
     1
102
RTVSPropertyOp42
 70
     1
102
RTVSPropertyOp43
 70
     1
102
RTVSPropertyOp44
 70
     1
102
RTVSPropertyOp45
 70
     1
102
RTVSPropertyOp46
 70
     1
102
RTVSPropertyOp47
 70
     1
102
RTVSPropertyOp48
 70
     1
102
RTVSPropertyOp49
 70
     1
102
RTVSPropertyOp50
 70
     1
102
RTVSPropertyOp51
 70
     0
102
RTVSPropertyOp52
 70
     0
102
RTVSPropertyOp53
 70
     1
102
RTVSPropertyOp54
 70
     1
102
RTVSPropertyOp55
 70
     1
102
RTVSPropertyOp56
 70
     1
102
RTVSPropertyOp57
 70
     1
102
RTVSPropertyOp58
 70
     1
102
RTVSPropertyOp59
 70
     1
102
RTVSPropertyOp60
 70
     1
102
RTVSPropertyOp61
 70
     1
102
RTVSPropertyOp62
 70
     1
  0
XRECORD
  5
5CE
102
{ACAD_REACTORS
330
5CD
102
}
330
5CD
100
AcDbXrecord
280
     1
102
RTVSPost2010Prop28
280
     0
102
RTVSPost2010PropOp28
 70
     1
102
RTVSPost2010Prop29
280
     1
102
RTVSPost2010PropOp29
 70
     1
102
RTVSPost2010Prop30
280
     1
102
RTVSPost2010PropOp30
 70
     1
102
RTVSPost2010Prop31
280
     0
102
RTVSPost2010PropOp31
 70
     1
102
RTVSPost2010Prop32
280
     0
102
RTVSPost2010PropOp32
 70
     1
102
RTVSPost2010Prop33
280
     0
102
RTVSPost2010PropOp33
 70
     1
102
RTVSPost2010Prop34
280
     0
102
RTVSPost2010PropOp34
 70
     1
102
RTVSPost2010Prop35
280
     0
102
RTVSPost2010PropOp35
 70
     1
102
RTVSPost2010Prop36
280
     0
102
RTVSPost2010PropOp36
 70
     1
102
RTVSPost2010Prop37
 90
       50
102
RTVSPost2010PropOp37
 70
     1
102
RTVSPost2010Prop38
140
0.0
102
RTVSPost2010PropOp38
 70
     1
102
RTVSPost2010Prop39
140
1.0
102
RTVSPost2010PropOp39
 70
     1
102
RTVSPost2010Prop40
 90
        0
102
RTVSPost2010PropOp40
 70
     1
102
RTVSPost2010Prop41ColorIndex
 90
       18
102
RTVSPost2010Prop41ColorRGB
 90
        0
102
RTVSPost2010PropOp41
 70
     1
102
RTVSPost2010Prop42
 90
       50
102
RTVSPost2010PropOp42
 70
     1
102
RTVSPost2010Prop43
 90
        3
102
RTVSPost2010PropOp43
 70
     1
102
RTVSPost2010Prop44ColorIndex
 90
        5
102
RTVSPost2010Prop44ColorRGB
 90
      255
102
RTVSPost2010PropOp44
 70
     1
102
RTVSPost2010Prop45
280
     0
102
RTVSPost2010PropOp45
 70
     1
102
RTVSPost2010Prop46
 90
       50
102
RTVSPost2010PropOp46
 70
     1
102
RTVSPost2010Prop47
 90
       50
102
RTVSPost2010PropOp47
 70
     1
102
RTVSPost2010Prop48
 90
       50
102
RTVSPost2010PropOp48
 70
     1
102
RTVSPost2010Prop49
280
     0
102
RTVSPost2010PropOp49
 70
     1
102
RTVSPost2010Prop50
 90
       50
102
RTVSPost2010PropOp50
 70
     1
102
RTVSPost2010Prop51ColorIndex
 90
      256
102
RTVSPost2010Prop51ColorRGB
 90
-16777216
102
RTVSPost2010PropOp51
 70
     0
102
RTVSPost2010Prop52
140
1.0
102
RTVSPost2010PropOp52
 70
     0
102
RTVSPost2010Prop53
 90
        2
102
RTVSPost2010PropOp53
 70
     1
102
RTVSPost2010Prop54
  1
strokes_ogs.tif
102
RTVSPost2010PropOp54
 70
     1
102
RTVSPost2010Prop55
280
     0
102
RTVSPost2010PropOp55
 70
     1
102
RTVSPost2010Prop56
140
1.0
102
RTVSPost2010PropOp56
 70
     1
102
RTVSPost2010Prop57
140
1.0
102
RTVSPost2010PropOp57
 70
     1
102
RTVSPropertyOp0
 70
     1
102
RTVSPropertyOp1
 70
     1
102
RTVSPropertyOp2
 70
     1
102
RTVSPropertyOp3
 70
     1
102
RTVSPropertyOp4
 70
     1
102
RTVSPropertyOp5
 70
     1
102
RTVSPropertyOp6
 70
     1
102
RTVSPropertyOp7
 70
     1
102
RTVSPropertyOp8
 70
     1
102
RTVSPropertyOp9
 70
     1
102
RTVSPropertyOp10
 70
     1
102
RTVSPropertyOp11
 70
     1
102
RTVSPropertyOp12
 70
     1
102
RTVSPropertyOp13
 70
     1
102
RTVSPropertyOp14
 70
     1
102
RTVSPropertyOp15
 70
     1
102
RTVSPropertyOp16
 70
     1
102
RTVSPropertyOp17
 70
     1
102
RTVSPropertyOp18
 70
     1
102
RTVSPropertyOp19
 70
     1
102
RTVSPropertyOp20
 70
     1
102
RTVSPropertyOp21
 70
     1
102
RTVSPropertyOp22
 70
     1
102
RTVSPropertyOp23
 70
     1
102
RTVSPropertyOp24
 70
     1
102
RTVSPropertyOp25
 70
     1
102
RTVSPropertyOp26
 70
     1
102
RTVSPropertyOp27
 70
     1
102
RTVSPropertyOp28
 70
     1
102
RTVSPropertyOp29
 70
     1
102
RTVSPropertyOp30
 70
     1
102
RTVSPropertyOp31
 70
     1
102
RTVSPropertyOp32
 70
     1
102
RTVSPropertyOp33
 70
     1
102
RTVSPropertyOp34
 70
     1
102
RTVSPropertyOp35
 70
     1
102
RTVSPropertyOp36
 70
     1
102
RTVSPropertyOp37
 70
     1
102
RTVSPropertyOp38
 70
     1
102
RTVSPropertyOp39
 70
     1
102
RTVSPropertyOp40
 70
     1
102
RTVSPropertyOp41
 70
     1
102
RTVSPropertyOp42
 70
     1
102
RTVSPropertyOp43
 70
     1
102
RTVSPropertyOp44
 70
     1
102
RTVSPropertyOp45
 70
     1
102
RTVSPropertyOp46
 70
     1
102
RTVSPropertyOp47
 70
     1
102
RTVSPropertyOp48
 70
     1
102
RTVSPropertyOp49
 70
     1
102
RTVSPropertyOp50
 70
     1
102
RTVSPropertyOp51
 70
     0
102
RTVSPropertyOp52
 70
     0
102
RTVSPropertyOp53
 70
     1
102
RTVSPropertyOp54
 70
     1
102
RTVSPropertyOp55
 70
     1
102
RTVSPropertyOp56
 70
     1
102
RTVSPropertyOp57
 70
     1
102
RTVSPropertyOp58
 70
     1
102
RTVSPropertyOp59
 70
     1
102
RTVSPropertyOp60
 70
     1
102
RTVSPropertyOp61
 70
     1
102
RTVSPropertyOp62
 70
     1
  0
XRECORD
  5
5C2
102
{ACAD_REACTORS
330
5C1
102
}
330
5C1
100
AcDbXrecord
280
     1
102
RTVSPost2010Prop28
280
     0
102
RTVSPost2010PropOp28
 70
     1
102
RTVSPost2010Prop29
280
     1
102
RTVSPost2010PropOp29
 70
     1
102
RTVSPost2010Prop30
280
     1
102
RTVSPost2010PropOp30
 70
     1
102
RTVSPost2010Prop31
280
     0
102
RTVSPost2010PropOp31
 70
     1
102
RTVSPost2010Prop32
280
     0
102
RTVSPost2010PropOp32
 70
     1
102
RTVSPost2010Prop33
280
     0
102
RTVSPost2010PropOp33
 70
     1
102
RTVSPost2010Prop34
280
     0
102
RTVSPost2010PropOp34
 70
     1
102
RTVSPost2010Prop35
280
     0
102
RTVSPost2010PropOp35
 70
     1
102
RTVSPost2010Prop36
280
     0
102
RTVSPost2010PropOp36
 70
     1
102
RTVSPost2010Prop37
 90
       50
102
RTVSPost2010PropOp37
 70
     1
102
RTVSPost2010Prop38
140
0.0
102
RTVSPost2010PropOp38
 70
     1
102
RTVSPost2010Prop39
140
1.0
102
RTVSPost2010PropOp39
 70
     1
102
RTVSPost2010Prop40
 90
        0
102
RTVSPost2010PropOp40
 70
     1
102
RTVSPost2010Prop41ColorIndex
 90
       18
102
RTVSPost2010Prop41ColorRGB
 90
        0
102
RTVSPost2010PropOp41
 70
     1
102
RTVSPost2010Prop42
 90
       50
102
RTVSPost2010PropOp42
 70
     1
102
RTVSPost2010Prop43
 90
        3
102
RTVSPost2010PropOp43
 70
     1
102
RTVSPost2010Prop44ColorIndex
 90
        5
102
RTVSPost2010Prop44ColorRGB
 90
      255
102
RTVSPost2010PropOp44
 70
     1
102
RTVSPost2010Prop45
280
     0
102
RTVSPost2010PropOp45
 70
     1
102
RTVSPost2010Prop46
 90
       50
102
RTVSPost2010PropOp46
 70
     1
102
RTVSPost2010Prop47
 90
       50
102
RTVSPost2010PropOp47
 70
     1
102
RTVSPost2010Prop48
 90
       50
102
RTVSPost2010PropOp48
 70
     1
102
RTVSPost2010Prop49
280
     0
102
RTVSPost2010PropOp49
 70
     1
102
RTVSPost2010Prop50
 90
       50
102
RTVSPost2010PropOp50
 70
     1
102
RTVSPost2010Prop51ColorIndex
 90
      256
102
RTVSPost2010Prop51ColorRGB
 90
-16777216
102
RTVSPost2010PropOp51
 70
     0
102
RTVSPost2010Prop52
140
1.0
102
RTVSPost2010PropOp52
 70
     0
102
RTVSPost2010Prop53
 90
        2
102
RTVSPost2010PropOp53
 70
     1
102
RTVSPost2010Prop54
  1
strokes_ogs.tif
102
RTVSPost2010PropOp54
 70
     1
102
RTVSPost2010Prop55
280
     0
102
RTVSPost2010PropOp55
 70
     1
102
RTVSPost2010Prop56
140
1.0
102
RTVSPost2010PropOp56
 70
     1
102
RTVSPost2010Prop57
140
1.0
102
RTVSPost2010PropOp57
 70
     1
102
RTVSPropertyOp0
 70
     1
102
RTVSPropertyOp1
 70
     1
102
RTVSPropertyOp2
 70
     1
102
RTVSPropertyOp3
 70
     1
102
RTVSPropertyOp4
 70
     1
102
RTVSPropertyOp5
 70
     1
102
RTVSPropertyOp6
 70
     1
102
RTVSPropertyOp7
 70
     1
102
RTVSPropertyOp8
 70
     1
102
RTVSPropertyOp9
 70
     1
102
RTVSPropertyOp10
 70
     1
102
RTVSPropertyOp11
 70
     1
102
RTVSPropertyOp12
 70
     1
102
RTVSPropertyOp13
 70
     1
102
RTVSPropertyOp14
 70
     1
102
RTVSPropertyOp15
 70
     1
102
RTVSPropertyOp16
 70
     1
102
RTVSPropertyOp17
 70
     1
102
RTVSPropertyOp18
 70
     1
102
RTVSPropertyOp19
 70
     1
102
RTVSPropertyOp20
 70
     1
102
RTVSPropertyOp21
 70
     1
102
RTVSPropertyOp22
 70
     1
102
RTVSPropertyOp23
 70
     1
102
RTVSPropertyOp24
 70
     1
102
RTVSPropertyOp25
 70
     1
102
RTVSPropertyOp26
 70
     1
102
RTVSPropertyOp27
 70
     1
102
RTVSPropertyOp28
 70
     1
102
RTVSPropertyOp29
 70
     1
102
RTVSPropertyOp30
 70
     1
102
RTVSPropertyOp31
 70
     1
102
RTVSPropertyOp32
 70
     1
102
RTVSPropertyOp33
 70
     1
102
RTVSPropertyOp34
 70
     1
102
RTVSPropertyOp35
 70
     1
102
RTVSPropertyOp36
 70
     1
102
RTVSPropertyOp37
 70
     1
102
RTVSPropertyOp38
 70
     1
102
RTVSPropertyOp39
 70
     1
102
RTVSPropertyOp40
 70
     1
102
RTVSPropertyOp41
 70
     1
102
RTVSPropertyOp42
 70
     1
102
RTVSPropertyOp43
 70
     1
102
RTVSPropertyOp44
 70
     1
102
RTVSPropertyOp45
 70
     1
102
RTVSPropertyOp46
 70
     1
102
RTVSPropertyOp47
 70
     1
102
RTVSPropertyOp48
 70
     1
102
RTVSPropertyOp49
 70
     1
102
RTVSPropertyOp50
 70
     1
102
RTVSPropertyOp51
 70
     0
102
RTVSPropertyOp52
 70
     0
102
RTVSPropertyOp53
 70
     1
102
RTVSPropertyOp54
 70
     1
102
RTVSPropertyOp55
 70
     1
102
RTVSPropertyOp56
 70
     1
102
RTVSPropertyOp57
 70
     1
102
RTVSPropertyOp58
 70
     1
102
RTVSPropertyOp59
 70
     1
102
RTVSPropertyOp60
 70
     1
102
RTVSPropertyOp61
 70
     1
102
RTVSPropertyOp62
 70
     1
  0
XRECORD
  5
5DA
102
{ACAD_REACTORS
330
5D9
102
}
330
5D9
100
AcDbXrecord
280
     1
102
RTVSPost2010Prop28
280
     0
102
RTVSPost2010PropOp28
 70
     1
102
RTVSPost2010Prop29
280
     1
102
RTVSPost2010PropOp29
 70
     1
102
RTVSPost2010Prop30
280
     1
102
RTVSPost2010PropOp30
 70
     1
102
RTVSPost2010Prop31
280
     0
102
RTVSPost2010PropOp31
 70
     1
102
RTVSPost2010Prop32
280
     0
102
RTVSPost2010PropOp32
 70
     1
102
RTVSPost2010Prop33
280
     0
102
RTVSPost2010PropOp33
 70
     1
102
RTVSPost2010Prop34
280
     0
102
RTVSPost2010PropOp34
 70
     1
102
RTVSPost2010Prop35
280
     0
102
RTVSPost2010PropOp35
 70
     1
102
RTVSPost2010Prop36
280
     0
102
RTVSPost2010PropOp36
 70
     1
102
RTVSPost2010Prop37
 90
       50
102
RTVSPost2010PropOp37
 70
     1
102
RTVSPost2010Prop38
140
0.0
102
RTVSPost2010PropOp38
 70
     1
102
RTVSPost2010Prop39
140
1.0
102
RTVSPost2010PropOp39
 70
     1
102
RTVSPost2010Prop40
 90
        0
102
RTVSPost2010PropOp40
 70
     1
102
RTVSPost2010Prop41ColorIndex
 90
       18
102
RTVSPost2010Prop41ColorRGB
 90
        0
102
RTVSPost2010PropOp41
 70
     1
102
RTVSPost2010Prop42
 90
       50
102
RTVSPost2010PropOp42
 70
     1
102
RTVSPost2010Prop43
 90
        3
102
RTVSPost2010PropOp43
 70
     1
102
RTVSPost2010Prop44ColorIndex
 90
        5
102
RTVSPost2010Prop44ColorRGB
 90
      255
102
RTVSPost2010PropOp44
 70
     1
102
RTVSPost2010Prop45
280
     0
102
RTVSPost2010PropOp45
 70
     1
102
RTVSPost2010Prop46
 90
       50
102
RTVSPost2010PropOp46
 70
     1
102
RTVSPost2010Prop47
 90
       50
102
RTVSPost2010PropOp47
 70
     1
102
RTVSPost2010Prop48
 90
       50
102
RTVSPost2010PropOp48
 70
     1
102
RTVSPost2010Prop49
280
     0
102
RTVSPost2010PropOp49
 70
     1
102
RTVSPost2010Prop50
 90
       50
102
RTVSPost2010PropOp50
 70
     1
102
RTVSPost2010Prop51ColorIndex
 90
      256
102
RTVSPost2010Prop51ColorRGB
 90
-16777216
102
RTVSPost2010PropOp51
 70
     0
102
RTVSPost2010Prop52
140
1.0
102
RTVSPost2010PropOp52
 70
     0
102
RTVSPost2010Prop53
 90
        2
102
RTVSPost2010PropOp53
 70
     1
102
RTVSPost2010Prop54
  1
strokes_ogs.tif
102
RTVSPost2010PropOp54
 70
     1
102
RTVSPost2010Prop55
280
     0
102
RTVSPost2010PropOp55
 70
     1
102
RTVSPost2010Prop56
140
1.0
102
RTVSPost2010PropOp56
 70
     1
102
RTVSPost2010Prop57
140
1.0
102
RTVSPost2010PropOp57
 70
     1
102
RTVSPropertyOp0
 70
     1
102
RTVSPropertyOp1
 70
     1
102
RTVSPropertyOp2
 70
     1
102
RTVSPropertyOp3
 70
     1
102
RTVSPropertyOp4
 70
     1
102
RTVSPropertyOp5
 70
     1
102
RTVSPropertyOp6
 70
     1
102
RTVSPropertyOp7
 70
     1
102
RTVSPropertyOp8
 70
     1
102
RTVSPropertyOp9
 70
     1
102
RTVSPropertyOp10
 70
     1
102
RTVSPropertyOp11
 70
     1
102
RTVSPropertyOp12
 70
     1
102
RTVSPropertyOp13
 70
     1
102
RTVSPropertyOp14
 70
     1
102
RTVSPropertyOp15
 70
     1
102
RTVSPropertyOp16
 70
     1
102
RTVSPropertyOp17
 70
     1
102
RTVSPropertyOp18
 70
     1
102
RTVSPropertyOp19
 70
     1
102
RTVSPropertyOp20
 70
     1
102
RTVSPropertyOp21
 70
     1
102
RTVSPropertyOp22
 70
     1
102
RTVSPropertyOp23
 70
     1
102
RTVSPropertyOp24
 70
     1
102
RTVSPropertyOp25
 70
     1
102
RTVSPropertyOp26
 70
     1
102
RTVSPropertyOp27
 70
     1
102
RTVSPropertyOp28
 70
     1
102
RTVSPropertyOp29
 70
     1
102
RTVSPropertyOp30
 70
     1
102
RTVSPropertyOp31
 70
     1
102
RTVSPropertyOp32
 70
     1
102
RTVSPropertyOp33
 70
     1
102
RTVSPropertyOp34
 70
     1
102
RTVSPropertyOp35
 70
     1
102
RTVSPropertyOp36
 70
     1
102
RTVSPropertyOp37
 70
     1
102
RTVSPropertyOp38
 70
     1
102
RTVSPropertyOp39
 70
     1
102
RTVSPropertyOp40
 70
     1
102
RTVSPropertyOp41
 70
     1
102
RTVSPropertyOp42
 70
     1
102
RTVSPropertyOp43
 70
     1
102
RTVSPropertyOp44
 70
     1
102
RTVSPropertyOp45
 70
     1
102
RTVSPropertyOp46
 70
     1
102
RTVSPropertyOp47
 70
     1
102
RTVSPropertyOp48
 70
     1
102
RTVSPropertyOp49
 70
     1
102
RTVSPropertyOp50
 70
     1
102
RTVSPropertyOp51
 70
     0
102
RTVSPropertyOp52
 70
     0
102
RTVSPropertyOp53
 70
     1
102
RTVSPropertyOp54
 70
     1
102
RTVSPropertyOp55
 70
     1
102
RTVSPropertyOp56
 70
     1
102
RTVSPropertyOp57
 70
     1
102
RTVSPropertyOp58
 70
     1
102
RTVSPropertyOp59
 70
     1
102
RTVSPropertyOp60
 70
     1
102
RTVSPropertyOp61
 70
     1
102
RTVSPropertyOp62
 70
     1
  0
ENDSEC
  0
EOF
