  0
SECTION
  2
HEADER
  9
$ACADVER
  1
AC1018
  9
$ACADMAINTVER
 70
   104
  9
$DWGCODEPAGE
  3
ANSI_932
  9
$INSBASE
 10
0.0
 20
0.0
 30
0.0
  9
$EXTMIN
 10
-1.3591985
 20
-0.96104944
 30
-1.00005034
  9
$EXTMAX
 10
29701.35975173
 20
21000.96144062
 30
0.10005036
  9
$LIMMIN
 10
0.0
 20
0.0
  9
$LIMMAX
 10
420.0
 20
297.0
  9
$ORTHOMODE
 70
     1
  9
$REGENMODE
 70
     1
  9
$FILLMODE
 70
     1
  9
$QTEXTMODE
 70
     0
  9
$MIRRTEXT
 70
     0
  9
$LTSCALE
 40
1.0
  9
$ATTMODE
 70
     1
  9
$TEXTSIZE
 40
3.5
  9
$TRACEWID
 40
1.0
  9
$TEXTSTYLE
  7
STANDARD
  9
$CLAYER
  8
0
  9
$CELTYPE
  6
BYLAYER
  9
$CECOLOR
 62
   256
  9
$CELTSCALE
 40
1.0
  9
$DISPSILH
 70
     1
  9
$DIMSCALE
 40
1.0
  9
$DIMASZ
 40
2.5
  9
$DIMEXO
 40
0.625
  9
$DIMDLI
 40
3.75
  9
$DIMRND
 40
0.0
  9
$DIMDLE
 40
0.0
  9
$DIMEXE
 40
1.25
  9
$DIMTP
 40
0.0
  9
$DIMTM
 40
0.0
  9
$DIMTXT
 40
2.5
  9
$DIMCEN
 40
2.5
  9
$DIMTSZ
 40
0.0
  9
$DIMTOL
 70
     0
  9
$DIMLIM
 70
     0
  9
$DIMTIH
 70
     1
  9
$DIMTOH
 70
     0
  9
$DIMSE1
 70
     0
  9
$DIMSE2
 70
     0
  9
$DIMTAD
 70
     1
  9
$DIMZIN
 70
     0
  9
$DIMBLK
  1

  9
$DIMASO
 70
     1
  9
$DIMSHO
 70
     1
  9
$DIMPOST
  1

  9
$DIMAPOST
  1

  9
$DIMALT
 70
     0
  9
$DIMALTD
 70
     2
  9
$DIMALTF
 40
0.0394
  9
$DIMLFAC
 40
1.0
  9
$DIMTOFL
 70
     1
  9
$DIMTVP
 40
1.0
  9
$DIMTIX
 70
     0
  9
$DIMSOXD
 70
     0
  9
$DIMSAH
 70
     0
  9
$DIMBLK1
  1

  9
$DIMBLK2
  1

  9
$DIMSTYLE
  2
STANDARD
  9
$DIMCLRD
 70
     0
  9
$DIMCLRE
 70
     0
  9
$DIMCLRT
 70
     0
  9
$DIMTFAC
 40
1.0
  9
$DIMGAP
 40
0.625
  9
$DIMJUST
 70
     0
  9
$DIMSD1
 70
     0
  9
$DIMSD2
 70
     0
  9
$DIMTOLJ
 70
     1
  9
$DIMTZIN
 70
     0
  9
$DIMALTZ
 70
     0
  9
$DIMALTTZ
 70
     0
  9
$DIMUPT
 70
     0
  9
$DIMDEC
 70
     4
  9
$DIMTDEC
 70
     4
  9
$DIMALTU
 70
     2
  9
$DIMALTTD
 70
     2
  9
$DIMTXSTY
  7
STANDARD
  9
$DIMAUNIT
 70
     0
  9
$DIMADEC
 70
     0
  9
$DIMALTRND
 40
0.0
  9
$DIMAZIN
 70
     0
  9
$DIMDSEP
 70
    46
  9
$DIMATFIT
 70
     3
  9
$DIMFRAC
 70
     0
  9
$DIMLDRBLK
  1

  9
$DIMLUNIT
 70
     2
  9
$DIMLWD
 70
    -2
  9
$DIMLWE
 70
    -2
  9
$DIMTMOVE
 70
     2
  9
$LUNITS
 70
     2
  9
$LUPREC
 70
     4
  9
$SKETCHINC
 40
1.0
  9
$FILLETRAD
 40
0.0
  9
$AUNITS
 70
     0
  9
$AUPREC
 70
     0
  9
$MENU
  1
c:\acadwin\support\acad
  9
$ELEVATION
 40
0.0
  9
$PELEVATION
 40
0.0
  9
$THICKNESS
 40
0.0
  9
$LIMCHECK
 70
     0
  9
$CHAMFERA
 40
10.0
  9
$CHAMFERB
 40
10.0
  9
$CHAMFERC
 40
0.0
  9
$CHAMFERD
 40
0.0
  9
$SKPOLY
 70
     0
  9
$TDCREATE
 40
2453082.616595231
  9
$TDUCREATE
 40
2453082.241595232
  9
$TDUPDATE
 40
2457185.494016620
  9
$TDUUPDATE
 40
2457185.119016620
  9
$TDINDWG
 40
0.0000795718
  9
$TDUSRTIMER
 40
0.0000795718
  9
$USRTIMER
 70
     1
  9
$ANGBASE
 50
0.0
  9
$ANGDIR
 70
     0
  9
$PDMODE
 70
     0
  9
$PDSIZE
 40
0.0
  9
$PLINEWID
 40
0.0
  9
$SPLFRAME
 70
     0
  9
$SPLINETYPE
 70
     6
  9
$SPLINESEGS
 70
     8
  9
$HANDSEED
  5
5FD
  9
$SURFTAB1
 70
     6
  9
$SURFTAB2
 70
     6
  9
$SURFTYPE
 70
     6
  9
$SURFU
 70
     6
  9
$SURFV
 70
     6
  9
$UCSBASE
  2

  9
$UCSNAME
  2

  9
$UCSORG
 10
0.0
 20
0.0
 30
0.0
  9
$UCSXDIR
 10
1.0
 20
0.0
 30
0.0
  9
$UCSYDIR
 10
0.0
 20
1.0
 30
0.0
  9
$UCSORTHOREF
  2

  9
$UCSORTHOVIEW
 70
     0
  9
$UCSORGTOP
 10
0.0
 20
0.0
 30
0.0
  9
$UCSORGBOTTOM
 10
0.0
 20
0.0
 30
0.0
  9
$UCSORGLEFT
 10
0.0
 20
0.0
 30
0.0
  9
$UCSORGRIGHT
 10
0.0
 20
0.0
 30
0.0
  9
$UCSORGFRONT
 10
0.0
 20
0.0
 30
0.0
  9
$UCSORGBACK
 10
0.0
 20
0.0
 30
0.0
  9
$PUCSBASE
  2

  9
$PUCSNAME
  2

  9
$PUCSORG
 10
0.0
 20
0.0
 30
0.0
  9
$PUCSXDIR
 10
1.0
 20
0.0
 30
0.0
  9
$PUCSYDIR
 10
0.0
 20
1.0
 30
0.0
  9
$PUCSORTHOREF
  2

  9
$PUCSORTHOVIEW
 70
     0
  9
$PUCSORGTOP
 10
0.0
 20
0.0
 30
0.0
  9
$PUCSORGBOTTOM
 10
0.0
 20
0.0
 30
0.0
  9
$PUCSORGLEFT
 10
0.0
 20
0.0
 30
0.0
  9
$PUCSORGRIGHT
 10
0.0
 20
0.0
 30
0.0
  9
$PUCSORGFRONT
 10
0.0
 20
0.0
 30
0.0
  9
$PUCSORGBACK
 10
0.0
 20
0.0
 30
0.0
  9
$USERI1
 70
     0
  9
$USERI2
 70
     0
  9
$USERI3
 70
     0
  9
$USERI4
 70
     0
  9
$USERI5
 70
     0
  9
$USERR1
 40
0.0
  9
$USERR2
 40
0.0
  9
$USERR3
 40
0.0
  9
$USERR4
 40
0.0
  9
$USERR5
 40
0.0
  9
$WORLDVIEW
 70
     1
  9
$SHADEDGE
 70
     3
  9
$SHADEDIF
 70
    70
  9
$TILEMODE
 70
     1
  9
$MAXACTVP
 70
    16
  9
$PINSBASE
 10
0.0
 20
0.0
 30
0.0
  9
$PLIMCHECK
 70
     0
  9
$PEXTMIN
 10
1.00000000E+20
 20
1.00000000E+20
 30
1.00000000E+20
  9
$PEXTMAX
 10
-1.00000000E+20
 20
-1.00000000E+20
 30
-1.00000000E+20
  9
$PLIMMIN
 10
0.0
 20
0.0
  9
$PLIMMAX
 10
420.0
 20
297.0
  9
$UNITMODE
 70
     0
  9
$VISRETAIN
 70
     0
  9
$PLINEGEN
 70
     0
  9
$PSLTSCALE
 70
     1
  9
$TREEDEPTH
 70
  3020
  9
$CMLSTYLE
  2
STANDARD
  9
$CMLJUST
 70
     0
  9
$CMLSCALE
 40
1.0
  9
$PROXYGRAPHICS
 70
     1
  9
$MEASUREMENT
 70
     1
  9
$CELWEIGHT
370
    -1
  9
$ENDCAPS
280
     0
  9
$JOINSTYLE
280
     0
  9
$LWDISPLAY
290
     0
  9
$INSUNITS
 70
     0
  9
$HYPERLINKBASE
  1

  9
$STYLESHEET
  1

  9
$XEDIT
290
     1
  9
$CEPSNTYPE
380
     0
  9
$PSTYLEMODE
290
     1
  9
$FINGERPRINTGUID
  2
{93B23934-0EDE-4EB5-AEB9-C7F257DFCAE7}
  9
$VERSIONGUID
  2
{6C7BF2CA-5C67-4AFC-A75C-A0AF33299E1A}
  9
$EXTNAMES
290
     1
  9
$PSVPSCALE
 40
0.0
  9
$OLESTARTUP
290
     0
  9
$SORTENTS
280
   127
  9
$INDEXCTL
280
     0
  9
$HIDETEXT
280
     0
  9
$XCLIPFRAME
290
     0
  9
$HALOGAP
280
     0
  9
$OBSCOLOR
 70
   257
  9
$OBSLTYPE
280
     0
  9
$INTERSECTIONDISPLAY
280
     0
  9
$INTERSECTIONCOLOR
 70
   257
  9
$DIMASSOC
280
     1
  9
$PROJECTNAME
  1

  0
ENDSEC
  0
SECTION
  2
CLASSES
  0
CLASS
  1
DICTIONARYVAR
  2
AcDbDictionaryVar
  3
ObjectDBX Classes
 90
        0
 91
        8
280
     0
281
     0
  0
CLASS
  1
ACDBDICTIONARYWDFLT
  2
AcDbDictionaryWithDefault
  3
ObjectDBX Classes
 90
        0
 91
        1
280
     0
281
     0
  0
CLASS
  1
MATERIAL
  2
AcDbMaterial
  3
ObjectDBX Classes
 90
     1153
 91
        3
280
     0
281
     0
  0
CLASS
  1
VISUALSTYLE
  2
AcDbVisualStyle
  3
ObjectDBX Classes
 90
     4095
 91
       24
280
     0
281
     0
  0
CLASS
  1
TABLESTYLE
  2
AcDbTableStyle
  3
ObjectDBX Classes
 90
     4095
 91
        1
280
     0
281
     0
  0
CLASS
  1
SCALE
  2
AcDbScale
  3
ObjectDBX Classes
 90
     1153
 91
       17
280
     0
281
     0
  0
CLASS
  1
MLEADERSTYLE
  2
AcDbMLeaderStyle
  3
ACDB_MLEADERSTYLE_CLASS
 90
     4095
 91
        1
280
     0
281
     0
  0
CLASS
  1
ACDBSECTIONVIEWSTYLE
  2
AcDbSectionViewStyle
  3
ObjectDBX Classes
 90
     1025
 91
        1
280
     0
281
     0
  0
CLASS
  1
ACDBDETAILVIEWSTYLE
  2
AcDbDetailViewStyle
  3
ObjectDBX Classes
 90
     1025
 91
        1
280
     0
281
     0
  0
CLASS
  1
CELLSTYLEMAP
  2
AcDbCellStyleMap
  3
ObjectDBX Classes
 90
     1152
 91
        2
280
     0
281
     0
  0
ENDSEC
  0
SECTION
  2
TABLES
  0
TABLE
  2
VPORT
  5
4F0
330
0
100
AcDbSymbolTable
 70
     1
  0
VPORT
  5
51A
330
4F0
100
AcDbSymbolTableRecord
100
AcDbViewportTableRecord
  2
*ACTIVE
 70
     0
 10
0.0
 20
0.0
 11
1.0
 21
1.0
 12
14850.00027662
 22
10500.00019559
 13
0.0
 23
0.0
 14
10.0
 24
10.0
 15
10.0
 25
10.0
 16
0.0
 26
0.0
 36
1.0
 17
0.0
 27
0.0
 37
0.0
 40
22268.63613917
 41
1.34178905
 42
50.0
 43
0.0
 44
0.0
 50
0.0
 51
0.0
 71
     0
 72
   100
 73
     1
 74
     0
 75
     0
 76
     0
 77
     0
 78
     0
281
     0
 65
     1
110
0.0
120
0.0
130
0.0
111
1.0
121
0.0
131
0.0
112
0.0
122
1.0
132
0.0
 79
     0
146
0.0
1001
ACAD_NAV_VCDISPLAY
1070
     1
  0
ENDTAB
  0
TABLE
  2
LTYPE
  5
4ED
330
0
100
AcDbSymbolTable
 70
     3
  0
LTYPE
  5
4F9
330
4ED
100
AcDbSymbolTableRecord
100
AcDbLinetypeTableRecord
  2
BYBLOCK
 70
     0
  3

 72
    65
 73
     0
 40
0.0
  0
LTYPE
  5
4FA
330
4ED
100
AcDbSymbolTableRecord
100
AcDbLinetypeTableRecord
  2
BYLAYER
 70
     0
  3

 72
    65
 73
     0
 40
0.0
  0
LTYPE
  5
4FB
330
4ED
100
AcDbSymbolTableRecord
100
AcDbLinetypeTableRecord
  2
CONTINUOUS
 70
     0
  3
Solid line
 72
    65
 73
     0
 40
0.0
  0
LTYPE
  5
508
330
4ED
100
AcDbSymbolTableRecord
100
AcDbLinetypeTableRecord
  2
CENTER
 70
     0
  3
____ _ ____ _ ____ _ ____ _ ____ _ ____ _ ____ 
 72
    65
 73
     4
 40
2.0
 49
1.25
 74
     0
 49
-0.25
 74
     0
 49
0.25
 74
     0
 49
-0.25
 74
     0
  0
LTYPE
  5
509
330
4ED
100
AcDbSymbolTableRecord
100
AcDbLinetypeTableRecord
  2
HIDDEN
 70
     0
  3
__ __ __ __ __ __ __ __ __ __ __ __ __ __ __ __
 72
    65
 73
     2
 40
0.375
 49
0.25
 74
     0
 49
-0.125
 74
     0
  0
ENDTAB
  0
TABLE
  2
LAYER
  5
4EA
330
0
100
AcDbSymbolTable
 70
     5
  0
LAYER
  5
4F6
330
4EA
100
AcDbSymbolTableRecord
100
AcDbLayerTableRecord
  2
0
 70
     0
 62
     7
  6
CONTINUOUS
370
    -3
390
51D
  0
LAYER
  5
50C
330
4EA
100
AcDbSymbolTableRecord
100
AcDbLayerTableRecord
  2
YKK_F1
 70
     0
 62
     7
  6
CONTINUOUS
370
    -3
390
51D
  0
LAYER
  5
50D
330
4EA
100
AcDbSymbolTableRecord
100
AcDbLayerTableRecord
  2
YKK_A1
 70
     0
 62
     4
  6
CONTINUOUS
370
    -3
390
51D
  0
LAYER
  5
50E
330
4EA
100
AcDbSymbolTableRecord
100
AcDbLayerTableRecord
  2
YKK_A2
 70
     0
 62
     3
  6
CONTINUOUS
370
    -3
390
51D
  0
LAYER
  5
50F
330
4EA
100
AcDbSymbolTableRecord
100
AcDbLayerTableRecord
  2
YKK_N1
 70
     0
 62
     2
  6
CONTINUOUS
370
    -3
390
51D
  0
ENDTAB
  0
TABLE
  2
STYLE
  5
4EB
330
0
100
AcDbSymbolTable
 70
     3
  0
STYLE
  5
4F7
330
4EB
100
AcDbSymbolTableRecord
100
AcDbTextStyleTableRecord
  2
STANDARD
 70
     0
 40
0.0
 41
1.0
 50
0.0
 71
     0
 42
3.5
  3
txt
  4

  0
STYLE
  5
506
330
4EB
100
AcDbSymbolTableRecord
100
AcDbTextStyleTableRecord
  2
EXTFONT
 70
     0
 40
0.0
 41
1.0
 50
0.0
 71
     0
 42
3.5
  3
txt.shx
  4
EXTFONT.SHX
  0
STYLE
  5
507
330
4EB
100
AcDbSymbolTableRecord
100
AcDbTextStyleTableRecord
  2
YKK_SGSTYLE1
 70
     0
 40
0.0
 41
0.8
 50
0.0
 71
     0
 42
60.0
  3
ROMANS.SHX
  4
EXTFONT.SHX
  0
ENDTAB
  0
TABLE
  2
VIEW
  5
4EE
330
0
100
AcDbSymbolTable
 70
     0
  0
ENDTAB
  0
TABLE
  2
UCS
  5
4EF
330
0
100
AcDbSymbolTable
 70
     0
  0
ENDTAB
  0
TABLE
  2
APPID
  5
4F1
330
0
100
AcDbSymbolTable
 70
     5
  0
APPID
  5
4F8
330
4F1
100
AcDbSymbolTableRecord
100
AcDbRegAppTableRecord
  2
ACAD
 70
     0
  0
APPID
  5
5A9
330
4F1
100
AcDbSymbolTableRecord
100
AcDbRegAppTableRecord
  2
ACAD_MLEADERVER
 70
     0
  0
APPID
  5
5BD
330
4F1
100
AcDbSymbolTableRecord
100
AcDbRegAppTableRecord
  2
ACAD_PSEXT
 70
     0
  0
APPID
  5
5BE
330
4F1
100
AcDbSymbolTableRecord
100
AcDbRegAppTableRecord
  2
ACAD_NAV_VCDISPLAY
 70
     0
  0
APPID
  5
5BF
330
4F1
100
AcDbSymbolTableRecord
100
AcDbRegAppTableRecord
  2
YKK_AP_LOCKLAYER
 70
     0
  0
ENDTAB
  0
TABLE
  2
DIMSTYLE
  5
4F2
330
0
100
AcDbSymbolTable
 70
     1
100
AcDbDimStyleTable
 71
     0
  0
DIMSTYLE
105
50B
330
4F2
100
AcDbSymbolTableRecord
100
AcDbDimStyleTableRecord
  2
STANDARD
 70
     0
279
     2
340
4F7
  0
ENDTAB
  0
TABLE
  2
BLOCK_RECORD
  5
4E9
330
0
100
AcDbSymbolTable
 70
     2
  0
BLOCK_RECORD
  5
4FF
330
4E9
100
AcDbSymbolTableRecord
100
AcDbBlockTableRecord
  2
*MODEL_SPACE
340
570
  0
BLOCK_RECORD
  5
4FC
330
4E9
100
AcDbSymbolTableRecord
100
AcDbBlockTableRecord
  2
*PAPER_SPACE
340
571
  0
BLOCK_RECORD
  5
504
330
4E9
100
AcDbSymbolTableRecord
100
AcDbBlockTableRecord
  2
SGOP
340
0
102
{BLKREFS
331
365
331
1AD
102
}
  0
BLOCK_RECORD
  5
505
330
4E9
100
AcDbSymbolTableRecord
100
AcDbBlockTableRecord
  2
SGHA31
340
0
102
{BLKREFS
331
278
331
360
102
}
  0
ENDTAB
  0
ENDSEC
  0
SECTION
  2
BLOCKS
  0
BLOCK
  5
512
330
4FF
100
AcDbEntity
  8
0
100
AcDbBlockBegin
  2
*MODEL_SPACE
 70
     0
 10
0.0
 20
0.0
 30
0.0
  3
*MODEL_SPACE
  1

  0
ENDBLK
  5
513
330
4FF
100
AcDbEntity
  8
0
100
AcDbBlockEnd
  0
BLOCK
  5
510
330
4FC
100
AcDbEntity
 67
     1
  8
0
100
AcDbBlockBegin
  2
*PAPER_SPACE
 70
     0
 10
0.0
 20
0.0
 30
0.0
  3
*PAPER_SPACE
  1

  0
ENDBLK
  5
511
330
4FC
100
AcDbEntity
 67
     1
  8
0
100
AcDbBlockEnd
  0
BLOCK
  5
1BC
330
504
100
AcDbEntity
  8
0
100
AcDbBlockBegin
  2
SGOP
 70
     0
 10
0.0
 20
0.0
 30
0.0
  3
SGOP
  1

  0
CIRCLE
  5
1B0
330
504
100
AcDbEntity
  8
0
  6
ByBlock
100
AcDbCircle
 10
0.0
 20
0.0
 30
0.1
 40
20.0
  0
LINE
  5
1B1
330
504
100
AcDbEntity
  8
0
  6
ByBlock
100
AcDbLine
 10
50.0
 20
50.0
 30
0.1
 11
-50.0
 21
50.0
 31
0.1
  0
LINE
  5
1B2
330
504
100
AcDbEntity
  8
0
  6
ByBlock
100
AcDbLine
 10
-50.0
 20
-150.0
 30
0.1
 11
50.0
 21
-150.0
 31
0.1
  0
LINE
  5
1B3
330
504
100
AcDbEntity
  8
0
  6
ByBlock
100
AcDbLine
 10
-50.0
 20
50.0
 30
0.1
 11
-50.0
 21
-150.0
 31
0.1
  0
LINE
  5
1B4
330
504
100
AcDbEntity
  8
0
  6
ByBlock
100
AcDbLine
 10
50.0
 20
-150.0
 30
0.1
 11
50.0
 21
50.0
 31
0.1
  0
3DFACE
  5
1B5
330
504
100
AcDbEntity
  8
0
  6
ByBlock
100
AcDbFace
 10
-50.0
 20
50.0
 30
0.1
 11
-50.0
 21
-150.0
 31
0.1
 12
50.0
 22
-150.0
 32
0.1
 13
50.0
 23
50.0
 33
0.1
 70
    15
  0
CIRCLE
  5
1B6
330
504
100
AcDbEntity
  8
0
  6
ByBlock
100
AcDbCircle
 10
0.0
 20
0.0
 30
-0.1
 40
20.0
  0
LINE
  5
1B7
330
504
100
AcDbEntity
  8
0
  6
ByBlock
100
AcDbLine
 10
50.0
 20
50.0
 30
-0.1
 11
-50.0
 21
50.0
 31
-0.1
  0
LINE
  5
1B8
330
504
100
AcDbEntity
  8
0
  6
ByBlock
100
AcDbLine
 10
-50.0
 20
-150.0
 30
-0.1
 11
50.0
 21
-150.0
 31
-0.1
  0
3DFACE
  5
1B9
330
504
100
AcDbEntity
  8
0
  6
ByBlock
100
AcDbFace
 10
-50.0
 20
50.0
 30
-0.1
 11
-50.0
 21
-150.0
 31
-0.1
 12
50.0
 22
-150.0
 32
-0.1
 13
50.0
 23
50.0
 33
-0.1
 70
    15
  0
LINE
  5
1BA
330
504
100
AcDbEntity
  8
0
  6
ByBlock
100
AcDbLine
 10
-50.0
 20
50.0
 30
-0.1
 11
-50.0
 21
-150.0
 31
-0.1
  0
LINE
  5
1BB
330
504
100
AcDbEntity
  8
0
  6
ByBlock
100
AcDbLine
 10
50.0
 20
-150.0
 30
-0.1
 11
50.0
 21
50.0
 31
-0.1
  0
ENDBLK
  5
1BD
330
504
100
AcDbEntity
  8
0
100
AcDbBlockEnd
  0
BLOCK
  5
29A
330
505
100
AcDbEntity
  8
0
100
AcDbBlockBegin
  2
SGHA31
 70
     0
 10
0.0
 20
0.0
 30
0.0
  3
SGHA31
  1

  0
LINE
  5
27A
330
505
100
AcDbEntity
  8
0
  6
ByBlock
 62
     0
370
    -2
100
AcDbLine
 10
-60.0
 20
10.0
 30
0.0
 11
60.0
 21
10.0
 31
0.0
  0
LINE
  5
27B
330
505
100
AcDbEntity
  8
0
  6
ByBlock
 62
     0
370
    -2
100
AcDbLine
 10
60.0
 20
0.0
 30
0.0
 11
-60.0
 21
0.0
 31
0.0
  0
3DFACE
  5
27C
330
505
100
AcDbEntity
  8
0
100
AcDbFace
 10
60.0
 20
0.0
 30
0.0
 11
-60.0
 21
0.0
 31
0.0
 12
-60.0
 22
10.0
 32
0.0
 13
60.0
 23
10.0
 33
0.0
 70
    15
  0
3DFACE
  5
27D
330
505
100
AcDbEntity
  8
0
100
AcDbFace
 10
60.0
 20
0.0
 30
-1.0
 11
-60.0
 21
0.0
 31
-1.0
 12
-60.0
 22
10.0
 32
-1.0
 13
60.0
 23
10.0
 33
-1.0
 70
    15
  0
LINE
  5
27E
330
505
100
AcDbEntity
  8
0
  6
ByBlock
 62
     0
370
    -2
100
AcDbLine
 10
-60.0
 20
10.0
 30
-1.0
 11
60.0
 21
10.0
 31
-1.0
  0
LINE
  5
27F
330
505
100
AcDbEntity
  8
0
  6
ByBlock
 62
     0
370
    -2
100
AcDbLine
 10
60.0
 20
0.0
 30
-1.0
 11
-60.0
 21
0.0
 31
-1.0
  0
LINE
  5
280
330
505
100
AcDbEntity
  8
0
  6
ByBlock
 62
     0
370
    -2
100
AcDbLine
 10
-60.0
 20
0.0
 30
0.0
 11
-60.0
 21
10.0
 31
0.0
  0
LINE
  5
281
330
505
100
AcDbEntity
  8
0
  6
ByBlock
 62
     0
370
    -2
100
AcDbLine
 10
-60.0
 20
0.0
 30
-1.0
 11
-60.0
 21
10.0
 31
-1.0
  0
LINE
  5
282
330
505
100
AcDbEntity
  8
0
  6
ByBlock
 62
     0
370
    -2
100
AcDbLine
 10
-16.5
 20
10.0
 30
0.0
 11
-4.44228634
 21
55.0
 31
0.0
  0
LINE
  5
283
330
505
100
AcDbEntity
  8
0
  6
ByBlock
 62
     0
370
    -2
100
AcDbLine
 10
13.55255888
 20
21.0
 30
0.0
 11
17.65059935
 21
36.29409523
 31
0.0
  0
3DFACE
  5
284
330
505
100
AcDbEntity
  8
0
100
AcDbFace
 10
13.55255888
 20
21.0
 30
0.0
 11
-13.55255888
 21
21.0
 31
0.0
 12
-4.44228634
 22
55.0
 32
0.0
 13
18.64359354
 23
40.0
 33
0.0
 70
    15
  0
3DFACE
  5
285
330
505
100
AcDbEntity
  8
0
100
AcDbFace
 10
13.55255888
 20
21.0
 30
-1.0
 11
-13.55255888
 21
21.0
 31
-1.0
 12
-4.44228634
 22
55.0
 32
-1.0
 13
18.64359354
 23
40.0
 33
-1.0
 70
    15
  0
LINE
  5
286
330
505
100
AcDbEntity
  8
0
  6
ByBlock
 62
     0
370
    -2
100
AcDbLine
 10
-16.5
 20
10.0
 30
-1.0
 11
-4.44228634
 21
55.0
 31
-1.0
  0
LINE
  5
287
330
505
100
AcDbEntity
  8
0
  6
ByBlock
 62
     0
370
    -2
100
AcDbLine
 10
13.55255888
 20
21.0
 30
-1.0
 11
17.65059935
 21
36.29409523
 31
-1.0
  0
LINE
  5
288
330
505
100
AcDbEntity
  8
0
  6
ByBlock
 62
     0
370
    -2
100
AcDbLine
 10
-13.55255888
 20
21.0
 30
0.0
 11
13.55255888
 21
21.0
 31
0.0
  0
3DFACE
  5
289
330
505
100
AcDbEntity
  8
0
100
AcDbFace
 10
16.5
 20
10.0
 30
0.0
 11
-16.5
 21
10.0
 31
0.0
 12
-13.55255888
 22
21.0
 32
0.0
 13
13.55255888
 23
21.0
 33
0.0
 70
    15
  0
3DFACE
  5
28A
330
505
100
AcDbEntity
  8
0
100
AcDbFace
 10
16.5
 20
10.0
 30
-1.0
 11
-16.5
 21
10.0
 31
-1.0
 12
-13.55255888
 22
21.0
 32
-1.0
 13
13.55255888
 23
21.0
 33
-1.0
 70
    15
  0
LINE
  5
28B
330
505
100
AcDbEntity
  8
0
  6
ByBlock
 62
     0
370
    -2
100
AcDbLine
 10
-13.55255888
 20
21.0
 30
-1.0
 11
13.55255888
 21
21.0
 31
-1.0
  0
LINE
  5
28C
330
505
100
AcDbEntity
  8
0
  6
ByBlock
 62
     0
370
    -2
100
AcDbLine
 10
16.5
 20
10.0
 30
-1.0
 11
13.55255888
 21
21.0
 31
-1.0
  0
LINE
  5
28D
330
505
100
AcDbEntity
  8
0
  6
ByBlock
 62
     0
370
    -2
100
AcDbLine
 10
16.5
 20
10.0
 30
0.0
 11
13.55255888
 21
21.0
 31
0.0
  0
LINE
  5
28E
330
505
100
AcDbEntity
  8
0
  6
ByBlock
 62
     0
370
    -2
100
AcDbLine
 10
60.0
 20
10.0
 30
0.0
 11
60.0
 21
0.0
 31
0.0
  0
LINE
  5
28F
330
505
100
AcDbEntity
  8
0
  6
ByBlock
 62
     0
370
    -2
100
AcDbLine
 10
60.0
 20
10.0
 30
-1.0
 11
60.0
 21
0.0
 31
-1.0
  0
LINE
  5
290
330
505
100
AcDbEntity
  8
0
  6
ByBlock
 62
     0
370
    -2
100
AcDbLine
 10
22.48022848
 20
40.0
 30
0.0
 11
130.0
 21
40.0
 31
0.0
  0
LINE
  5
291
330
505
100
AcDbEntity
  8
0
  6
ByBlock
 62
     0
370
    -2
100
AcDbLine
 10
-4.44228634
 20
55.0
 30
0.0
 11
130.0
 21
55.0
 31
0.0
  0
3DFACE
  5
292
330
505
100
AcDbEntity
  8
0
100
AcDbFace
 10
130.0
 20
40.0
 30
0.0
 11
18.64359354
 21
40.0
 31
0.0
 12
-4.44228634
 22
55.0
 32
0.0
 13
130.0
 23
55.0
 33
0.0
 70
    15
  0
3DFACE
  5
293
330
505
100
AcDbEntity
  8
0
100
AcDbFace
 10
130.0
 20
40.0
 30
-1.0
 11
18.64359354
 21
40.0
 31
-1.0
 12
-4.44228634
 22
55.0
 32
-1.0
 13
130.0
 23
55.0
 33
-1.0
 70
    15
  0
LINE
  5
294
330
505
100
AcDbEntity
  8
0
  6
ByBlock
 62
     0
370
    -2
100
AcDbLine
 10
22.48022848
 20
40.0
 30
-1.0
 11
130.0
 21
40.0
 31
-1.0
  0
LINE
  5
295
330
505
100
AcDbEntity
  8
0
  6
ByBlock
 62
     0
370
    -2
100
AcDbLine
 10
-4.44228634
 20
55.0
 30
-1.0
 11
130.0
 21
55.0
 31
-1.0
  0
ARC
  5
296
330
505
100
AcDbEntity
  8
0
  6
ByBlock
 62
     0
370
    -2
100
AcDbCircle
 10
22.48022848
 20
35.0
 30
0.0
 40
5.0
100
AcDbArc
 50
90.0
 51
165.0
  0
ARC
  5
297
330
505
100
AcDbEntity
  8
0
  6
ByBlock
 62
     0
370
    -2
100
AcDbCircle
 10
22.48022848
 20
35.0
 30
-1.0
 40
5.0
100
AcDbArc
 50
90.0
 51
165.0
  0
LINE
  5
298
330
505
100
AcDbEntity
  8
0
  6
ByBlock
 62
     0
370
    -2
100
AcDbLine
 10
130.0
 20
40.0
 30
0.0
 11
130.0
 21
55.0
 31
0.0
  0
LINE
  5
299
330
505
100
AcDbEntity
  8
0
  6
ByBlock
 62
     0
370
    -2
100
AcDbLine
 10
130.0
 20
40.0
 30
-1.0
 11
130.0
 21
55.0
 31
-1.0
  0
ENDBLK
  5
29B
330
505
100
AcDbEntity
  8
0
100
AcDbBlockEnd
  0
ENDSEC
  0
SECTION
  2
ENTITIES
  0
LINE
  5
1D
330
4FF
100
AcDbEntity
  8
YKK_F1
  6
Continuous
100
AcDbLine
 10
900.039
 20
8457.9363
 30
0.0
 11
28800.039
 21
8457.9363
 31
0.0
  0
LINE
  5
1F
330
4FF
100
AcDbEntity
  8
YKK_F1
  6
Continuous
100
AcDbLine
 10
5550.039
 20
8707.9363
 30
0.0
 11
28800.039
 21
8707.9363
 31
0.0
  0
LINE
  5
20
330
4FF
100
AcDbEntity
  8
YKK_F1
  6
Continuous
100
AcDbLine
 10
5550.039
 20
8957.9363
 30
0.0
 11
28800.039
 21
8957.9363
 31
0.0
  0
LINE
  5
21
330
4FF
100
AcDbEntity
  8
YKK_F1
  6
Continuous
100
AcDbLine
 10
900.039
 20
9207.9363
 30
0.0
 11
28800.039
 21
9207.9363
 31
0.0
  0
LINE
  5
22
330
4FF
100
AcDbEntity
  8
YKK_F1
  6
Continuous
100
AcDbLine
 10
900.039
 20
9457.9363
 30
0.0
 11
28800.039
 21
9457.9363
 31
0.0
  0
LINE
  5
23
330
4FF
100
AcDbEntity
  8
YKK_F1
  6
Continuous
100
AcDbLine
 10
900.039
 20
9707.9363
 30
0.0
 11
28800.039
 21
9707.9363
 31
0.0
  0
LINE
  5
24
330
4FF
100
AcDbEntity
  8
YKK_F1
  6
Continuous
100
AcDbLine
 10
900.039
 20
9957.9363
 30
0.0
 11
28800.039
 21
9957.9363
 31
0.0
  0
LINE
  5
25
330
4FF
100
AcDbEntity
  8
YKK_F1
  6
Continuous
100
AcDbLine
 10
900.039
 20
10207.9363
 30
0.0
 11
28800.039
 21
10207.9363
 31
0.0
  0
LINE
  5
26
330
4FF
100
AcDbEntity
  8
YKK_F1
  6
Continuous
100
AcDbLine
 10
900.039
 20
10457.9363
 30
0.0
 11
28800.039
 21
10457.9363
 31
0.0
  0
LINE
  5
27
330
4FF
100
AcDbEntity
  8
YKK_F1
  6
Continuous
100
AcDbLine
 10
900.039
 20
4502.9363
 30
0.0
 11
28800.039
 21
4502.9363
 31
0.0
  0
LINE
  5
28
330
4FF
100
AcDbEntity
  8
YKK_F1
  6
Continuous
100
AcDbLine
 10
900.039
 20
4252.9363
 30
0.0
 11
28800.039
 21
4252.9363
 31
0.0
  0
LINE
  5
29
330
4FF
100
AcDbEntity
  8
YKK_F1
  6
Continuous
100
AcDbLine
 10
900.039
 20
4002.9363
 30
0.0
 11
28800.039
 21
4002.9363
 31
0.0
  0
LINE
  5
2A
330
4FF
100
AcDbEntity
  8
YKK_F1
  6
Continuous
100
AcDbLine
 10
900.039
 20
3752.9363
 30
0.0
 11
28800.039
 21
3752.9363
 31
0.0
  0
LINE
  5
2B
330
4FF
100
AcDbEntity
  8
YKK_F1
  6
Continuous
100
AcDbLine
 10
900.039
 20
3502.9363
 30
0.0
 11
28800.039
 21
3502.9363
 31
0.0
  0
LINE
  5
2C
330
4FF
100
AcDbEntity
  8
YKK_F1
  6
Continuous
100
AcDbLine
 10
900.039
 20
3252.9363
 30
0.0
 11
28800.039
 21
3252.9363
 31
0.0
  0
LINE
  5
2D
330
4FF
100
AcDbEntity
  8
YKK_F1
  6
Continuous
100
AcDbLine
 10
5550.039
 20
3002.9363
 30
0.0
 11
28800.039
 21
3002.9363
 31
0.0
  0
LINE
  5
2E
330
4FF
100
AcDbEntity
  8
YKK_F1
  6
Continuous
100
AcDbLine
 10
5550.039
 20
2752.9363
 30
0.0
 11
28800.039
 21
2752.9363
 31
0.0
  0
LINE
  5
2F
330
4FF
100
AcDbEntity
  8
YKK_F1
  6
Continuous
100
AcDbLine
 10
900.039
 20
2502.9363
 30
0.0
 11
28800.039
 21
2502.9363
 31
0.0
  0
LINE
  5
30
330
4FF
100
AcDbEntity
  8
YKK_F1
  6
Continuous
100
AcDbLine
 10
900.039
 20
7457.9363
 30
0.0
 11
28800.039
 21
7457.9363
 31
0.0
  0
LINE
  5
31
330
4FF
100
AcDbEntity
  8
YKK_F1
  6
Continuous
100
AcDbLine
 10
900.039
 20
7707.9363
 30
0.0
 11
28800.039
 21
7707.9363
 31
0.0
  0
LINE
  5
32
330
4FF
100
AcDbEntity
  8
YKK_F1
  6
Continuous
100
AcDbLine
 10
900.039
 20
8207.9363
 30
0.0
 11
28800.039
 21
8207.9363
 31
0.0
  0
LINE
  5
33
330
4FF
100
AcDbEntity
  8
YKK_F1
  6
Continuous
100
AcDbLine
 10
900.039
 20
2252.9363
 30
0.0
 11
28800.039
 21
2252.9363
 31
0.0
  0
LINE
  5
34
330
4FF
100
AcDbEntity
  8
YKK_F1
  6
Continuous
100
AcDbLine
 10
659.77445
 20
1949.4363
 30
0.0
 11
29040.229
 21
1949.4363
 31
0.0
  0
LINE
  5
35
330
4FF
100
AcDbEntity
  8
YKK_F1
  6
Continuous
100
AcDbLine
 10
29027.821
 20
662.59406
 30
0.0
 11
672.18069
 21
662.59406
 31
0.0
  0
LINE
  5
36
330
4FF
100
AcDbEntity
  8
YKK_F1
  6
Continuous
100
AcDbLine
 10
29015.417
 20
675.00009
 30
0.0
 11
685.15046
 21
675.00009
 31
0.0
  0
LINE
  5
37
330
4FF
100
AcDbEntity
  8
YKK_F1
  6
Continuous
100
AcDbLine
 10
29002.445
 20
687.97002
 30
0.0
 11
697.5567
 21
687.97002
 31
0.0
  0
LINE
  5
38
330
4FF
100
AcDbEntity
  8
YKK_F1
  6
Continuous
100
AcDbLine
 10
28990.039
 20
700.94001
 30
0.0
 11
709.96201
 21
700.94001
 31
0.0
  0
LINE
  5
39
330
4FF
100
AcDbEntity
  8
YKK_F1
  6
Continuous
100
AcDbLine
 10
29040.229
 20
650.18799
 30
0.0
 11
659.77445
 21
650.18799
 31
0.0
  0
LINE
  5
3A
330
4FF
100
AcDbEntity
  8
YKK_F1
  6
Continuous
100
AcDbLine
 10
29190.79
 20
500.75202
 30
0.0
 11
509.77446
 21
500.75202
 31
0.0
  0
LINE
  5
3B
330
4FF
100
AcDbEntity
  8
YKK_F1
  6
Continuous
100
AcDbLine
 10
900.039
 20
14162.9363
 30
0.0
 11
28800.039
 21
14162.9363
 31
0.0
  0
LINE
  5
3C
330
4FF
100
AcDbEntity
  8
YKK_F1
  6
Continuous
100
AcDbLine
 10
900.039
 20
16412.9363
 30
0.0
 11
28800.039
 21
16412.9363
 31
0.0
  0
LINE
  5
3D
330
4FF
100
AcDbEntity
  8
YKK_F1
  6
Continuous
100
AcDbLine
 10
900.039
 20
16162.9363
 30
0.0
 11
28800.039
 21
16162.9363
 31
0.0
  0
LINE
  5
3E
330
4FF
100
AcDbEntity
  8
YKK_F1
  6
Continuous
100
AcDbLine
 10
900.039
 20
15912.9363
 30
0.0
 11
28800.039
 21
15912.9363
 31
0.0
  0
LINE
  5
3F
330
4FF
100
AcDbEntity
  8
YKK_F1
  6
Continuous
100
AcDbLine
 10
900.039
 20
15662.9363
 30
0.0
 11
28800.039
 21
15662.9363
 31
0.0
  0
LINE
  5
40
330
4FF
100
AcDbEntity
  8
YKK_F1
  6
Continuous
100
AcDbLine
 10
900.039
 20
15412.9363
 30
0.0
 11
28800.039
 21
15412.9363
 31
0.0
  0
LINE
  5
41
330
4FF
100
AcDbEntity
  8
YKK_F1
  6
Continuous
100
AcDbLine
 10
900.039
 20
15162.9363
 30
0.0
 11
28800.039
 21
15162.9363
 31
0.0
  0
LINE
  5
42
330
4FF
100
AcDbEntity
  8
YKK_F1
  6
Continuous
100
AcDbLine
 10
5550.039
 20
14912.9363
 30
0.0
 11
28800.039
 21
14912.9363
 31
0.0
  0
LINE
  5
43
330
4FF
100
AcDbEntity
  8
YKK_F1
  6
Continuous
100
AcDbLine
 10
5550.039
 20
14662.9363
 30
0.0
 11
28800.039
 21
14662.9363
 31
0.0
  0
LINE
  5
44
330
4FF
100
AcDbEntity
  8
YKK_F1
  6
Continuous
100
AcDbLine
 10
900.039
 20
14412.9363
 30
0.0
 11
28800.039
 21
14412.9363
 31
0.0
  0
LINE
  5
45
330
4FF
100
AcDbEntity
  8
YKK_F1
  6
Continuous
100
AcDbLine
 10
900.039
 20
19367.9363
 30
0.0
 11
28800.039
 21
19367.9363
 31
0.0
  0
LINE
  5
46
330
4FF
100
AcDbEntity
  8
YKK_F1
  6
Continuous
100
AcDbLine
 10
900.039
 20
19617.9363
 30
0.0
 11
28800.039
 21
19617.9363
 31
0.0
  0
LINE
  5
47
330
4FF
100
AcDbEntity
  8
YKK_F1
  6
Continuous
100
AcDbLine
 10
900.039
 20
13662.9363
 30
0.0
 11
28800.039
 21
13662.9363
 31
0.0
  0
LINE
  5
48
330
4FF
100
AcDbEntity
  8
YKK_F1
  6
Continuous
100
AcDbLine
 10
900.039
 20
13412.9363
 30
0.0
 11
28800.039
 21
13412.9363
 31
0.0
  0
LINE
  5
49
330
4FF
100
AcDbEntity
  8
YKK_F1
  6
Continuous
100
AcDbLine
 10
900.039
 20
20117.9363
 30
0.0
 11
28800.039
 21
20117.9363
 31
0.0
  0
LINE
  5
4A
330
4FF
100
AcDbEntity
  8
YKK_F1
  6
Continuous
100
AcDbLine
 10
709.96201
 20
20287.219
 30
0.0
 11
28990.039
 21
20287.219
 31
0.0
  0
LINE
  5
4B
330
4FF
100
AcDbEntity
  8
YKK_F1
  6
Continuous
100
AcDbLine
 10
509.77446
 20
20487.406
 30
0.0
 11
29190.79
 21
20487.406
 31
0.0
  0
LINE
  5
4C
330
4FF
100
AcDbEntity
  8
YKK_F1
  6
Continuous
100
AcDbLine
 10
697.5567
 20
20299.624
 30
0.0
 11
29002.445
 21
20299.624
 31
0.0
  0
LINE
  5
4D
330
4FF
100
AcDbEntity
  8
YKK_F1
  6
Continuous
100
AcDbLine
 10
685.15046
 20
20312.594
 30
0.0
 11
29015.417
 21
20312.594
 31
0.0
  0
LINE
  5
4E
330
4FF
100
AcDbEntity
  8
YKK_F1
  6
Continuous
100
AcDbLine
 10
672.18069
 20
20325.566
 30
0.0
 11
29027.821
 21
20325.566
 31
0.0
  0
LINE
  5
4F
330
4FF
100
AcDbEntity
  8
YKK_F1
  6
Continuous
100
AcDbLine
 10
659.77445
 20
20337.97
 30
0.0
 11
29040.229
 21
20337.97
 31
0.0
  0
LINE
  5
50
330
4FF
100
AcDbEntity
  8
YKK_F1
100
AcDbLine
 10
0.0
 20
21000.0
 30
0.0
 11
29700.0
 21
21000.0
 31
0.0
  0
LINE
  5
51
330
4FF
100
AcDbEntity
  8
YKK_F1
100
AcDbLine
 10
0.0
 20
0.0
 30
0.0
 11
29700.0
 21
0.0
 31
0.0
  0
LINE
  5
52
330
4FF
100
AcDbEntity
  8
YKK_F1
  6
Continuous
100
AcDbLine
 10
900.039
 20
2252.9363
 30
0.0
 11
900.039
 21
20117.9363
 31
0.0
  0
LINE
  5
53
330
4FF
100
AcDbEntity
  8
YKK_F1
  6
Continuous
100
AcDbLine
 10
709.96201
 20
700.94001
 30
0.0
 11
709.96201
 21
20287.219
 31
0.0
  0
LINE
  5
54
330
4FF
100
AcDbEntity
  8
YKK_F1
  6
Continuous
100
AcDbLine
 10
697.5567
 20
687.97002
 30
0.0
 11
697.5567
 21
20299.624
 31
0.0
  0
LINE
  5
55
330
4FF
100
AcDbEntity
  8
YKK_F1
  6
Continuous
100
AcDbLine
 10
685.15046
 20
675.00009
 30
0.0
 11
685.15046
 21
20312.594
 31
0.0
  0
LINE
  5
56
330
4FF
100
AcDbEntity
  8
YKK_F1
  6
Continuous
100
AcDbLine
 10
672.18069
 20
662.59406
 30
0.0
 11
672.18069
 21
20325.566
 31
0.0
  0
LINE
  5
57
330
4FF
100
AcDbEntity
  8
YKK_F1
  6
Continuous
100
AcDbLine
 10
659.77445
 20
650.18799
 30
0.0
 11
659.77445
 21
20337.97
 31
0.0
  0
LINE
  5
58
330
4FF
100
AcDbEntity
  8
YKK_F1
  6
Continuous
100
AcDbLine
 10
509.77446
 20
500.75202
 30
0.0
 11
509.77446
 21
20487.406
 31
0.0
  0
LINE
  5
59
330
4FF
100
AcDbEntity
  8
YKK_F1
  6
Continuous
100
AcDbLine
 10
5550.039
 20
2252.9363
 30
0.0
 11
5550.039
 21
20117.9363
 31
0.0
  0
LINE
  5
5A
330
4FF
100
AcDbEntity
  8
YKK_F1
  6
Continuous
100
AcDbLine
 10
10200.039
 20
2252.9363
 30
0.0
 11
10200.039
 21
20117.9363
 31
0.0
  0
LINE
  5
5B
330
4FF
100
AcDbEntity
  8
YKK_F1
100
AcDbLine
 10
0.0
 20
0.0
 30
0.0
 11
0.0
 21
21000.0
 31
0.0
  0
LINE
  5
5C
330
4FF
100
AcDbEntity
  8
YKK_F1
  6
Continuous
100
AcDbLine
 10
10604.323
 20
950.75203
 30
0.0
 11
659.77445
 21
950.75203
 31
0.0
  0
LINE
  5
5D
330
4FF
100
AcDbEntity
  8
YKK_F1
  6
Continuous
100
AcDbLine
 10
10604.323
 20
1200.5641
 30
0.0
 11
659.77445
 21
1200.5641
 31
0.0
  0
LINE
  5
5E
330
4FF
100
AcDbEntity
  8
YKK_F1
  6
Continuous
100
AcDbLine
 10
10604.323
 20
1450.376
 30
0.0
 11
659.77445
 21
1450.376
 31
0.0
  0
LINE
  5
5F
330
4FF
100
AcDbEntity
  8
YKK_F1
  6
Continuous
100
AcDbLine
 10
10604.323
 20
1701.3159
 30
0.0
 11
659.77445
 21
1701.3159
 31
0.0
  0
TEXT
  5
60
330
4FF
100
AcDbEntity
  8
YKK_F1
100
AcDbText
 10
2183.67067185
 20
3772.9363
 30
0.0
 40
200.0
  1
材　　　　　　　質
  7
EXTFONT
 72
     1
 11
3237.00400518
 21
3772.9363
 31
0.0
100
AcDbText
  0
TEXT
  5
62
330
4FF
100
AcDbEntity
  8
YKK_F1
100
AcDbText
 10
759.96201
 20
1776.3159
 30
0.0
 40
100.0
  1
付記：
  7
EXTFONT
100
AcDbText
  0
TEXT
  5
63
330
4FF
100
AcDbEntity
  8
YKK_F1
100
AcDbText
 10
1937.00400518
 20
2647.9363
 30
0.0
 40
200.0
  1
(付　　属　　金　　物)
  7
EXTFONT
 72
     1
 11
3237.00400518
 21
2647.9363
 31
0.0
100
AcDbText
  0
TEXT
  5
64
330
4FF
100
AcDbEntity
  8
YKK_F1
100
AcDbText
 10
2063.67067185
 20
2897.9363
 30
0.0
 40
200.0
  1
建　　具　　金　　物
  7
EXTFONT
 72
     1
 11
3237.00400518
 21
2897.9363
 31
0.0
100
AcDbText
  0
TEXT
  5
65
330
4FF
100
AcDbEntity
  8
YKK_F1
100
AcDbText
 10
1817.00400518
 20
3272.9363
 30
0.0
 40
200.0
  1
ガラス・種類・ガラス押え
  7
EXTFONT
 72
     1
 11
3237.00400518
 21
3272.9363
 31
0.0
100
AcDbText
  0
TEXT
  5
66
330
4FF
100
AcDbEntity
  8
YKK_F1
100
AcDbText
 10
2183.67067185
 20
2272.9363
 30
0.0
 40
200.0
  1
備　　　　　　　考
  7
EXTFONT
 72
     1
 11
3237.00400518
 21
2272.9363
 31
0.0
100
AcDbText
  0
TEXT
  5
67
330
4FF
100
AcDbEntity
  8
YKK_F1
100
AcDbText
 10
2183.67067185
 20
3522.9363
 30
0.0
 40
200.0
  1
仕　　　　　　　上
  7
EXTFONT
 72
     1
 11
3237.00400518
 21
3522.9363
 31
0.0
100
AcDbText
  0
TEXT
  5
68
330
4FF
100
AcDbEntity
  8
YKK_F1
100
AcDbText
 10
1259.96201
 20
949.6242
 30
0.0
 40
250.0
  1
*
  7
EXTFONT
100
AcDbText
  0
TEXT
  5
69
330
4FF
100
AcDbEntity
  8
YKK_F1
100
AcDbText
 10
1259.96201
 20
699.6242
 30
0.0
 40
250.0
  1
*
  7
EXTFONT
100
AcDbText
  0
TEXT
  5
6A
330
4FF
100
AcDbEntity
  8
YKK_F1
100
AcDbText
 10
1259.96201
 20
1200.376
 30
0.0
 40
250.0
  1
*
  7
EXTFONT
100
AcDbText
  0
TEXT
  5
6B
330
4FF
100
AcDbEntity
  8
YKK_F1
100
AcDbText
 10
1259.96201
 20
1701.3159
 30
0.0
 40
250.0
  1
*
  7
EXTFONT
100
AcDbText
  0
TEXT
  5
6C
330
4FF
100
AcDbEntity
  8
YKK_F1
100
AcDbText
 10
1259.96201
 20
1450.376
 30
0.0
 40
250.0
  1
*
  7
EXTFONT
100
AcDbText
  0
TEXT
  5
6D
330
4FF
100
AcDbEntity
  8
YKK_F1
100
AcDbText
 10
2190.33733852
 20
5900.4363
 30
0.0
 40
200.0
  1
姿　　　　　　　図
  7
EXTFONT
 72
     1
 11
3237.00400518
 21
5900.4363
 31
0.0
100
AcDbText
  0
TEXT
  5
6E
330
4FF
100
AcDbEntity
  8
YKK_F1
100
AcDbText
 10
1703.67067185
 20
4272.9363
 30
0.0
 40
200.0
  1
型式・防音・エアタイト仕様
  7
EXTFONT
 72
     1
 11
3237.00400518
 21
4272.9363
 31
0.0
100
AcDbText
  0
TEXT
  5
6F
330
4FF
100
AcDbEntity
  8
YKK_F1
100
AcDbText
 10
1283.67067185
 20
4022.9363
 30
0.0
 40
200.0
  1
寸法・見付・見込（枠見付・枠見込）
  7
EXTFONT
 72
     1
 11
3237.00400518
 21
4022.9363
 31
0.0
100
AcDbText
  0
TEXT
  5
70
330
4FF
100
AcDbEntity
  8
YKK_F1
100
AcDbText
 10
2183.67067185
 20
7832.9363
 30
0.0
 40
200.0
  1
符　号　・　数　量
  7
EXTFONT
 72
     1
 11
3237.00400518
 21
7832.9363
 31
0.0
100
AcDbText
  0
TEXT
  5
71
330
4FF
100
AcDbEntity
  8
YKK_F1
100
AcDbText
 10
2183.67067185
 20
7477.9363
 30
0.0
 40
200.0
  1
使用箇所・防火仕様
  7
EXTFONT
 72
     1
 11
3237.00400518
 21
7477.9363
 31
0.0
100
AcDbText
  0
TEXT
  5
72
330
4FF
100
AcDbEntity
  8
YKK_F1
100
AcDbText
 10
1703.67067185
 20
10227.9363
 30
0.0
 40
200.0
  1
型式・防音・エアタイト仕様
  7
EXTFONT
 72
     1
 11
3237.00400518
 21
10227.9363
 31
0.0
100
AcDbText
  0
TEXT
  5
73
330
4FF
100
AcDbEntity
  8
YKK_F1
100
AcDbText
 10
1937.00400518
 20
8602.9363
 30
0.0
 40
200.0
  1
(付　　属　　金　　物)
  7
EXTFONT
 72
     1
 11
3237.00400518
 21
8602.9363
 31
0.0
100
AcDbText
  0
TEXT
  5
74
330
4FF
100
AcDbEntity
  8
YKK_F1
100
AcDbText
 10
2063.67067185
 20
8852.9363
 30
0.0
 40
200.0
  1
建　　具　　金　　物
  7
EXTFONT
 72
     1
 11
3237.00400518
 21
8852.9363
 31
0.0
100
AcDbText
  0
TEXT
  5
75
330
4FF
100
AcDbEntity
  8
YKK_F1
100
AcDbText
 10
1817.00400518
 20
9227.9363
 30
0.0
 40
200.0
  1
ガラス・種類・ガラス押え
  7
EXTFONT
 72
     1
 11
3237.00400518
 21
9227.9363
 31
0.0
100
AcDbText
  0
TEXT
  5
76
330
4FF
100
AcDbEntity
  8
YKK_F1
100
AcDbText
 10
2183.67067185
 20
9727.9363
 30
0.0
 40
200.0
  1
材　　　　　　　質
  7
EXTFONT
 72
     1
 11
3237.00400518
 21
9727.9363
 31
0.0
100
AcDbText
  0
TEXT
  5
77
330
4FF
100
AcDbEntity
  8
YKK_F1
100
AcDbText
 10
2183.67067185
 20
8227.9363
 30
0.0
 40
200.0
  1
備　　　　　　　考
  7
EXTFONT
 72
     1
 11
3237.00400518
 21
8227.9363
 31
0.0
100
AcDbText
  0
TEXT
  5
78
330
4FF
100
AcDbEntity
  8
YKK_F1
100
AcDbText
 10
2183.67067185
 20
9477.9363
 30
0.0
 40
200.0
  1
仕　　　　　　　上
  7
EXTFONT
 72
     1
 11
3237.00400518
 21
9477.9363
 31
0.0
100
AcDbText
  0
TEXT
  5
79
330
4FF
100
AcDbEntity
  8
YKK_F1
100
AcDbText
 10
1283.67067185
 20
9977.9363
 30
0.0
 40
200.0
  1
寸法・見付・見込（枠見付・枠見込）
  7
EXTFONT
 72
     1
 11
3237.00400518
 21
9977.9363
 31
0.0
100
AcDbText
  0
TEXT
  5
7A
330
4FF
100
AcDbEntity
  8
0
100
AcDbText
 10
10300.039
 20
3777.9363
 30
0.0
 40
200.0
  1
アルミ製
  7
EXTFONT
100
AcDbText
  0
TEXT
  5
7B
330
4FF
100
AcDbEntity
  8
0
100
AcDbText
 10
5650.039
 20
3777.9363
 30
0.0
 40
200.0
  1
アルミ製
  7
EXTFONT
100
AcDbText
  0
TEXT
  5
7C
330
4FF
100
AcDbEntity
  8
0
100
AcDbText
 10
5650.039
 20
3027.9363
 30
0.0
 40
200.0
  1
結露排水弁・水切・アングル・膳板
  7
EXTFONT
100
AcDbText
  0
TEXT
  5
7D
330
4FF
100
AcDbEntity
  8
0
100
AcDbText
 10
5650.039
 20
2277.9363
 30
0.0
 40
200.0
  1
YKKAP　ＳＹＳＴＥＭＡ３１０同等品
  7
EXTFONT
100
AcDbText
  0
TEXT
  5
7E
330
4FF
100
AcDbEntity
  8
0
100
AcDbText
 10
5650.039
 20
3527.9363
 30
0.0
 40
200.0
  1
シルバー･ｶﾗｰ(ブロンズ､ステン､ブラック)
  7
EXTFONT
100
AcDbText
  0
TEXT
  5
7F
330
4FF
100
AcDbEntity
  8
0
100
AcDbText
 10
5650.039
 20
2527.9363
 30
0.0
 40
200.0
  1
＊
  7
EXTFONT
100
AcDbText
  0
TEXT
  5
80
330
4FF
100
AcDbEntity
  8
0
100
AcDbText
 10
5650.039
 20
2777.9363
 30
0.0
 40
200.0
  1
＊
  7
EXTFONT
100
AcDbText
  0
TEXT
  5
81
330
4FF
100
AcDbEntity
  8
0
100
AcDbText
 10
5650.039
 20
3277.9363
 30
0.0
 40
200.0
  1
FL・透明
  7
EXTFONT
100
AcDbText
  0
LINE
  5
82
330
4FF
100
AcDbEntity
  8
YKK_F1
  6
Continuous
100
AcDbLine
 10
12103.196
 20
1949.4363
 30
0.0
 11
12103.196
 21
650.18799
 31
0.0
  0
LINE
  5
83
330
4FF
100
AcDbEntity
  8
YKK_F1
  6
Continuous
100
AcDbLine
 10
10604.323
 20
1949.4363
 30
0.0
 11
10604.323
 21
650.18799
 31
0.0
  0
TEXT
  5
84
330
4FF
100
AcDbEntity
  8
0
100
AcDbText
 10
10300.039
 20
3027.9363
 30
0.0
 40
200.0
  1
結露排水弁・水切・アングル・膳板
  7
EXTFONT
100
AcDbText
  0
TEXT
  5
85
330
4FF
100
AcDbEntity
  8
0
100
AcDbText
 10
10300.039
 20
3527.9363
 30
0.0
 40
200.0
  1
シルバー･ｶﾗｰ(ブロンズ､ステン､ブラック)
  7
EXTFONT
100
AcDbText
  0
TEXT
  5
86
330
4FF
100
AcDbEntity
  8
0
100
AcDbText
 10
10300.039
 20
2277.9363
 30
0.0
 40
200.0
  1
YKKAP　ＳＹＳＴＥＭＡ３１０同等品
  7
EXTFONT
100
AcDbText
  0
LINE
  5
87
330
4FF
100
AcDbEntity
  8
YKK_F1
  6
Continuous
100
AcDbLine
 10
12103.196
 20
1117.6692
 30
0.0
 11
10604.323
 21
1117.6692
 31
0.0
  0
LINE
  5
88
330
4FF
100
AcDbEntity
  8
YKK_F1
  6
Continuous
100
AcDbLine
 10
12103.196
 20
1534.3986
 30
0.0
 11
10604.323
 21
1534.3986
 31
0.0
  0
TEXT
  5
89
330
4FF
100
AcDbEntity
  8
YKK_F1
  6
Continuous
100
AcDbText
 10
10820.301
 20
750.0
 30
0.0
 40
150.0
  1
**,**,**
100
AcDbText
  0
TEXT
  5
8A
330
4FF
100
AcDbEntity
  8
YKK_F1
  6
Continuous
100
AcDbText
 10
10820.301
 20
1166.7294
 30
0.0
 40
150.0
  1
**,**,**
100
AcDbText
  0
TEXT
  5
8B
330
4FF
100
AcDbEntity
  8
YKK_F1
  6
Continuous
100
AcDbText
 10
10820.301
 20
1583.4588
 30
0.0
 40
150.0
  1
**,**,**
100
AcDbText
  0
TEXT
  5
8C
330
4FF
100
AcDbEntity
  8
YKK_F1
100
AcDbText
 10
10654.323
 20
1401.2782
 30
0.0
 40
100.0
  1
設計　　年　　月　　日
  7
EXTFONT
100
AcDbText
  0
TEXT
  5
8D
330
4FF
100
AcDbEntity
  8
YKK_F1
100
AcDbText
 10
10654.323
 20
984.5488
 30
0.0
 40
100.0
  1
測量　　年　　月　　日
  7
EXTFONT
100
AcDbText
  0
TEXT
  5
8E
330
4FF
100
AcDbEntity
  8
YKK_F1
100
AcDbText
 10
10654.323
 20
1816.3159
 30
0.0
 40
100.0
  1
審査　　年　　月　　日
  7
EXTFONT
100
AcDbText
  0
TEXT
  5
8F
330
4FF
100
AcDbEntity
  8
0
100
AcDbText
 10
10300.039
 20
2527.9363
 30
0.0
 40
200.0
  1
＊
  7
EXTFONT
100
AcDbText
  0
TEXT
  5
90
330
4FF
100
AcDbEntity
  8
0
100
AcDbText
 10
10300.039
 20
2777.9363
 30
0.0
 40
200.0
  1
＊
  7
EXTFONT
100
AcDbText
  0
TEXT
  5
91
330
4FF
100
AcDbEntity
  8
0
100
AcDbText
 10
10300.039
 20
3277.9363
 30
0.0
 40
200.0
  1
FL・透明
  7
EXTFONT
100
AcDbText
  0
TEXT
  5
92
330
4FF
100
AcDbEntity
  8
YKK_N1
100
AcDbText
 10
7727.61042857
 20
4832.9363
 30
0.0
 40
60.0
  1
W=1000
 41
0.8
  7
YKK_SGSTYLE1
100
AcDbText
  0
LINE
  5
95
330
4FF
100
AcDbEntity
  8
YKK_N1
  6
ByBlock
100
AcDbLine
 10
7376.039
 20
4822.9363
 30
0.0
 11
8374.039
 21
4822.9363
 31
0.0
  0
LINE
  5
96
330
4FF
100
AcDbEntity
  8
YKK_A1
100
AcDbLine
 10
7360.039
 20
5222.9363
 30
0.0
 11
8390.039
 21
5222.9363
 31
0.0
  0
LINE
  5
98
330
4FF
100
AcDbEntity
  8
YKK_A1
100
AcDbLine
 10
7375.039
 20
5222.9363
 30
0.0
 11
8375.039
 21
5222.9363
 31
0.0
  0
LINE
  5
99
330
4FF
100
AcDbEntity
  8
YKK_A1
100
AcDbLine
 10
7375.039
 20
5222.9363
 30
0.0
 11
8375.039
 21
5222.9363
 31
0.0
  0
LINE
  5
9A
330
4FF
100
AcDbEntity
  8
YKK_A1
100
AcDbLine
 10
8390.039
 20
6737.9363
 30
0.0
 11
7360.039
 21
6737.9363
 31
0.0
  0
LINE
  5
9B
330
4FF
100
AcDbEntity
  8
YKK_A1
100
AcDbLine
 10
8375.039
 20
5922.9363
 30
0.0
 11
7375.039
 21
5922.9363
 31
0.0
  0
LINE
  5
9C
330
4FF
100
AcDbEntity
  8
YKK_A1
100
AcDbLine
 10
8375.039
 20
5922.9363
 30
0.0
 11
7375.039
 21
5922.9363
 31
0.0
  0
LINE
  5
9D
330
4FF
100
AcDbEntity
  8
YKK_A1
100
AcDbLine
 10
7375.039
 20
5922.9363
 30
0.0
 11
8375.039
 21
5922.9363
 31
0.0
  0
LINE
  5
9E
330
4FF
100
AcDbEntity
  8
YKK_A1
100
AcDbLine
 10
8375.039
 20
6022.9363
 30
0.0
 11
7375.039
 21
6022.9363
 31
0.0
  0
LINE
  5
9F
330
4FF
100
AcDbEntity
  8
YKK_A1
100
AcDbLine
 10
7375.039
 20
6022.9363
 30
0.0
 11
8375.039
 21
6022.9363
 31
0.0
  0
LINE
  5
A0
330
4FF
100
AcDbEntity
  8
YKK_A1
100
AcDbLine
 10
8375.039
 20
6722.9363
 30
0.0
 11
7375.039
 21
6722.9363
 31
0.0
  0
LINE
  5
A1
330
4FF
100
AcDbEntity
  8
YKK_A1
100
AcDbLine
 10
7393.039
 20
6054.9363
 30
0.0
 11
8357.039
 21
6054.9363
 31
0.0
  0
LINE
  5
A2
330
4FF
100
AcDbEntity
  8
YKK_A1
100
AcDbLine
 10
7393.039
 20
6034.9363
 30
0.0
 11
8357.039
 21
6034.9363
 31
0.0
  0
LINE
  5
A3
330
4FF
100
AcDbEntity
  8
YKK_A1
100
AcDbLine
 10
7393.039
 20
6104.9363
 30
0.0
 11
8357.039
 21
6104.9363
 31
0.0
  0
LINE
  5
A4
330
4FF
100
AcDbEntity
  8
YKK_A1
100
AcDbLine
 10
7393.039
 20
6084.9363
 30
0.0
 11
8357.039
 21
6084.9363
 31
0.0
  0
LINE
  5
A5
330
4FF
100
AcDbEntity
  8
YKK_A1
100
AcDbLine
 10
7393.039
 20
6154.9363
 30
0.0
 11
8357.039
 21
6154.9363
 31
0.0
  0
LINE
  5
A6
330
4FF
100
AcDbEntity
  8
YKK_A1
100
AcDbLine
 10
7393.039
 20
6134.9363
 30
0.0
 11
8357.039
 21
6134.9363
 31
0.0
  0
LINE
  5
A7
330
4FF
100
AcDbEntity
  8
YKK_A1
100
AcDbLine
 10
7393.039
 20
6204.9363
 30
0.0
 11
8357.039
 21
6204.9363
 31
0.0
  0
LINE
  5
A8
330
4FF
100
AcDbEntity
  8
YKK_A1
100
AcDbLine
 10
7393.039
 20
6184.9363
 30
0.0
 11
8357.039
 21
6184.9363
 31
0.0
  0
LINE
  5
A9
330
4FF
100
AcDbEntity
  8
YKK_A1
100
AcDbLine
 10
7393.039
 20
6254.9363
 30
0.0
 11
8357.039
 21
6254.9363
 31
0.0
  0
LINE
  5
AA
330
4FF
100
AcDbEntity
  8
YKK_A1
100
AcDbLine
 10
7393.039
 20
6234.9363
 30
0.0
 11
8357.039
 21
6234.9363
 31
0.0
  0
LINE
  5
AB
330
4FF
100
AcDbEntity
  8
YKK_A1
100
AcDbLine
 10
7393.039
 20
6304.9363
 30
0.0
 11
8357.039
 21
6304.9363
 31
0.0
  0
LINE
  5
AC
330
4FF
100
AcDbEntity
  8
YKK_A1
100
AcDbLine
 10
7393.039
 20
6284.9363
 30
0.0
 11
8357.039
 21
6284.9363
 31
0.0
  0
LINE
  5
AD
330
4FF
100
AcDbEntity
  8
YKK_A1
100
AcDbLine
 10
7393.039
 20
6354.9363
 30
0.0
 11
8357.039
 21
6354.9363
 31
0.0
  0
LINE
  5
AE
330
4FF
100
AcDbEntity
  8
YKK_A1
100
AcDbLine
 10
7393.039
 20
6334.9363
 30
0.0
 11
8357.039
 21
6334.9363
 31
0.0
  0
LINE
  5
AF
330
4FF
100
AcDbEntity
  8
YKK_A1
100
AcDbLine
 10
7393.039
 20
6404.9363
 30
0.0
 11
8357.039
 21
6404.9363
 31
0.0
  0
LINE
  5
B0
330
4FF
100
AcDbEntity
  8
YKK_A1
100
AcDbLine
 10
7393.039
 20
6384.9363
 30
0.0
 11
8357.039
 21
6384.9363
 31
0.0
  0
LINE
  5
B1
330
4FF
100
AcDbEntity
  8
YKK_A1
100
AcDbLine
 10
7393.039
 20
6454.9363
 30
0.0
 11
8357.039
 21
6454.9363
 31
0.0
  0
LINE
  5
B2
330
4FF
100
AcDbEntity
  8
YKK_A1
100
AcDbLine
 10
7393.039
 20
6434.9363
 30
0.0
 11
8357.039
 21
6434.9363
 31
0.0
  0
LINE
  5
B3
330
4FF
100
AcDbEntity
  8
YKK_A1
100
AcDbLine
 10
7393.039
 20
6504.9363
 30
0.0
 11
8357.039
 21
6504.9363
 31
0.0
  0
LINE
  5
B4
330
4FF
100
AcDbEntity
  8
YKK_A1
100
AcDbLine
 10
7393.039
 20
6484.9363
 30
0.0
 11
8357.039
 21
6484.9363
 31
0.0
  0
LINE
  5
B5
330
4FF
100
AcDbEntity
  8
YKK_A1
100
AcDbLine
 10
7393.039
 20
6554.9363
 30
0.0
 11
8357.039
 21
6554.9363
 31
0.0
  0
LINE
  5
B6
330
4FF
100
AcDbEntity
  8
YKK_A1
100
AcDbLine
 10
7393.039
 20
6534.9363
 30
0.0
 11
8357.039
 21
6534.9363
 31
0.0
  0
LINE
  5
B7
330
4FF
100
AcDbEntity
  8
YKK_A1
100
AcDbLine
 10
7393.039
 20
6604.9363
 30
0.0
 11
8357.039
 21
6604.9363
 31
0.0
  0
LINE
  5
B8
330
4FF
100
AcDbEntity
  8
YKK_A1
100
AcDbLine
 10
7393.039
 20
6584.9363
 30
0.0
 11
8357.039
 21
6584.9363
 31
0.0
  0
LINE
  5
B9
330
4FF
100
AcDbEntity
  8
YKK_A1
100
AcDbLine
 10
7393.039
 20
6654.9363
 30
0.0
 11
8357.039
 21
6654.9363
 31
0.0
  0
LINE
  5
BA
330
4FF
100
AcDbEntity
  8
YKK_A1
100
AcDbLine
 10
7393.039
 20
6634.9363
 30
0.0
 11
8357.039
 21
6634.9363
 31
0.0
  0
LINE
  5
BB
330
4FF
100
AcDbEntity
  8
YKK_A1
100
AcDbLine
 10
7393.039
 20
6704.9363
 30
0.0
 11
8357.039
 21
6704.9363
 31
0.0
  0
LINE
  5
BC
330
4FF
100
AcDbEntity
  8
YKK_A1
100
AcDbLine
 10
7393.039
 20
6684.9363
 30
0.0
 11
8357.039
 21
6684.9363
 31
0.0
  0
TEXT
  5
BD
330
4FF
100
AcDbEntity
  8
0
100
AcDbText
 10
5650.039
 20
4277.9363
 30
0.0
 40
180.0
  1
ガラリ（ブラインドタイプ）＋はめ殺し段窓
  7
EXTFONT
100
AcDbText
  0
TEXT
  5
BE
330
4FF
100
AcDbEntity
  8
0
100
AcDbText
 10
5650.039
 20
4027.9363
 30
0.0
 40
200.0
  1
W＝1,000　H＝1,500  見込70
  7
EXTFONT
100
AcDbText
  0
LINE
  5
BF
330
4FF
100
AcDbEntity
  8
YKK_A1
100
AcDbLine
 10
7375.039
 20
5922.9363
 30
0.0
 11
7375.039
 21
5222.9363
 31
0.0
  0
LINE
  5
C0
330
4FF
100
AcDbEntity
  8
YKK_A1
100
AcDbLine
 10
7375.039
 20
5922.9363
 30
0.0
 11
7375.039
 21
5222.9363
 31
0.0
  0
LINE
  5
C1
330
4FF
100
AcDbEntity
  8
YKK_A1
100
AcDbLine
 10
7360.039
 20
6737.9363
 30
0.0
 11
7360.039
 21
5222.9363
 31
0.0
  0
LINE
  5
C2
330
4FF
100
AcDbEntity
  8
YKK_N1
  6
ByBlock
100
AcDbLine
 10
7461.64154038
 20
4772.9363
 30
0.0
 11
7461.64154038
 21
4872.9363
 31
0.0
  0
LINE
  5
C3
330
4FF
100
AcDbEntity
  8
YKK_N1
  6
ByBlock
100
AcDbLine
 10
7461.64154038
 20
4872.9363
 30
0.0
 11
7375.039
 21
4822.9363
 31
0.0
  0
LINE
  5
C4
330
4FF
100
AcDbEntity
  8
YKK_N1
  6
ByBlock
100
AcDbLine
 10
7375.039
 20
4822.9363
 30
0.0
 11
7461.64154038
 21
4772.9363
 31
0.0
  0
LINE
  5
C5
330
4FF
100
AcDbEntity
  8
YKK_N1
  6
ByBlock
100
AcDbLine
 10
7375.039
 20
4822.9363
 30
0.0
 11
7475.039
 21
4822.9363
 31
0.0
  0
LINE
  5
C6
330
4FF
100
AcDbEntity
  8
YKK_N1
  6
ByBlock
100
AcDbLine
 10
7375.039
 20
5162.9363
 30
0.0
 11
7375.039
 21
4792.9363
 31
0.0
  0
LINE
  5
C7
330
4FF
100
AcDbEntity
  8
YKK_A1
100
AcDbLine
 10
7375.039
 20
6722.9363
 30
0.0
 11
7375.039
 21
6022.9363
 31
0.0
  0
LINE
  5
C8
330
4FF
100
AcDbEntity
  8
YKK_A1
100
AcDbLine
 10
7393.039
 20
6022.9363
 30
0.0
 11
7393.039
 21
6722.9363
 31
0.0
  0
LINE
  5
C9
330
4FF
100
AcDbEntity
  8
YKK_A1
100
AcDbLine
 10
7375.039
 20
6022.9363
 30
0.0
 11
7375.039
 21
5922.9363
 31
0.0
  0
LINE
  5
CA
330
4FF
100
AcDbEntity
  8
YKK_A1
100
AcDbLine
 10
8375.039
 20
5222.9363
 30
0.0
 11
8375.039
 21
5922.9363
 31
0.0
  0
LINE
  5
CB
330
4FF
100
AcDbEntity
  8
YKK_A1
100
AcDbLine
 10
8375.039
 20
5222.9363
 30
0.0
 11
8375.039
 21
5922.9363
 31
0.0
  0
LINE
  5
CC
330
4FF
100
AcDbEntity
  8
YKK_A1
100
AcDbLine
 10
8390.039
 20
5222.9363
 30
0.0
 11
8390.039
 21
6737.9363
 31
0.0
  0
LINE
  5
CD
330
4FF
100
AcDbEntity
  8
YKK_N1
  6
ByBlock
100
AcDbLine
 10
8775.039
 20
5223.9363
 30
0.0
 11
8775.039
 21
6721.9363
 31
0.0
  0
LINE
  5
CE
330
4FF
100
AcDbEntity
  8
YKK_N1
  6
ByBlock
100
AcDbLine
 10
8435.039
 20
5222.9363
 30
0.0
 11
8805.039
 21
5222.9363
 31
0.0
  0
LINE
  5
CF
330
4FF
100
AcDbEntity
  8
YKK_N1
  6
ByBlock
100
AcDbLine
 10
8288.43645962
 20
4772.9363
 30
0.0
 11
8375.039
 21
4822.9363
 31
0.0
  0
LINE
  5
D0
330
4FF
100
AcDbEntity
  8
YKK_N1
  6
ByBlock
100
AcDbLine
 10
8375.039
 20
4822.9363
 30
0.0
 11
8288.43645962
 21
4872.9363
 31
0.0
  0
LINE
  5
D1
330
4FF
100
AcDbEntity
  8
YKK_N1
  6
ByBlock
100
AcDbLine
 10
8375.039
 20
4822.9363
 30
0.0
 11
8275.039
 21
4822.9363
 31
0.0
  0
LINE
  5
D2
330
4FF
100
AcDbEntity
  8
YKK_N1
  6
ByBlock
100
AcDbLine
 10
8288.43645962
 20
4872.9363
 30
0.0
 11
8288.43645962
 21
4772.9363
 31
0.0
  0
POINT
  5
D3
330
4FF
100
AcDbEntity
  8
YKK_N1
  6
ByBlock
100
AcDbPoint
 10
8375.039
 20
4822.9363
 30
0.0
  0
LINE
  5
D4
330
4FF
100
AcDbEntity
  8
YKK_N1
  6
ByBlock
100
AcDbLine
 10
8375.039
 20
5162.9363
 30
0.0
 11
8375.039
 21
4792.9363
 31
0.0
  0
TEXT
  5
D5
330
4FF
100
AcDbEntity
  8
YKK_A1
100
AcDbText
 10
8306.18185714
 20
5252.9363
 30
0.0
 40
60.0
  1
F
 41
0.8
  7
YKK_SGSTYLE1
 72
     2
 11
8345.039
 21
5252.9363
 31
0.0
100
AcDbText
  0
LINE
  5
D6
330
4FF
100
AcDbEntity
  8
YKK_N1
  6
ByBlock
100
AcDbLine
 10
8825.039
 20
5309.53884038
 30
0.0
 11
8725.039
 21
5309.53884038
 31
0.0
  0
LINE
  5
D7
330
4FF
100
AcDbEntity
  8
YKK_N1
  6
ByBlock
100
AcDbLine
 10
8725.039
 20
5309.53884038
 30
0.0
 11
8775.039
 21
5222.9363
 31
0.0
  0
LINE
  5
D8
330
4FF
100
AcDbEntity
  8
YKK_N1
  6
ByBlock
100
AcDbLine
 10
8775.039
 20
5222.9363
 30
0.0
 11
8775.039
 21
5322.9363
 31
0.0
  0
LINE
  5
D9
330
4FF
100
AcDbEntity
  8
YKK_N1
  6
ByBlock
100
AcDbLine
 10
8775.039
 20
5222.9363
 30
0.0
 11
8825.039
 21
5309.53884038
 31
0.0
  0
LINE
  5
DA
330
4FF
100
AcDbEntity
  8
YKK_A1
100
AcDbLine
 10
8375.039
 20
6022.9363
 30
0.0
 11
8375.039
 21
6722.9363
 31
0.0
  0
LINE
  5
DB
330
4FF
100
AcDbEntity
  8
YKK_A1
100
AcDbLine
 10
8357.039
 20
6022.9363
 30
0.0
 11
8357.039
 21
6722.9363
 31
0.0
  0
LINE
  5
DC
330
4FF
100
AcDbEntity
  8
YKK_A1
100
AcDbLine
 10
8375.039
 20
5922.9363
 30
0.0
 11
8375.039
 21
6022.9363
 31
0.0
  0
TEXT
  5
DD
330
4FF
100
AcDbEntity
  8
YKK_N1
100
AcDbText
 10
8765.039
 20
5825.50772857
 30
0.0
 40
60.0
  1
H=1500
 50
90.0
 41
0.8
  7
YKK_SGSTYLE1
100
AcDbText
  0
LINE
  5
DE
330
4FF
100
AcDbEntity
  8
YKK_N1
  6
ByBlock
100
AcDbLine
 10
8435.039
 20
6722.9363
 30
0.0
 11
8805.039
 21
6722.9363
 31
0.0
  0
LINE
  5
DF
330
4FF
100
AcDbEntity
  8
YKK_N1
  6
ByBlock
100
AcDbLine
 10
8775.039
 20
6722.9363
 30
0.0
 11
8725.039
 21
6636.33375962
 31
0.0
  0
LINE
  5
E0
330
4FF
100
AcDbEntity
  8
YKK_N1
  6
ByBlock
100
AcDbLine
 10
8725.039
 20
6636.33375962
 30
0.0
 11
8825.039
 21
6636.33375962
 31
0.0
  0
POINT
  5
E1
330
4FF
100
AcDbEntity
  8
YKK_N1
  6
ByBlock
100
AcDbPoint
 10
8775.039
 20
6722.9363
 30
0.0
  0
LINE
  5
E2
330
4FF
100
AcDbEntity
  8
YKK_N1
  6
ByBlock
100
AcDbLine
 10
8825.039
 20
6636.33375962
 30
0.0
 11
8775.039
 21
6722.9363
 31
0.0
  0
LINE
  5
E3
330
4FF
100
AcDbEntity
  8
YKK_N1
  6
ByBlock
100
AcDbLine
 10
8775.039
 20
6722.9363
 30
0.0
 11
8775.039
 21
6622.9363
 31
0.0
  0
TEXT
  5
E4
330
4FF
100
AcDbEntity
  8
0
100
AcDbText
 10
5650.039
 20
8982.9363
 30
0.0
 40
200.0
  1
結露排水弁・水切・アングル・膳板
  7
EXTFONT
100
AcDbText
  0
TEXT
  5
E5
330
4FF
100
AcDbEntity
  8
0
100
AcDbText
 10
5650.039
 20
10232.9363
 30
0.0
 40
200.0
  1
はめ殺し窓＋はめ殺し段窓
  7
EXTFONT
100
AcDbText
  0
TEXT
  5
E6
330
4FF
100
AcDbEntity
  8
0
100
AcDbText
 10
5650.039
 20
9482.9363
 30
0.0
 40
200.0
  1
シルバー･ｶﾗｰ(ブロンズ､ステン､ブラック)
  7
EXTFONT
100
AcDbText
  0
TEXT
  5
E7
330
4FF
100
AcDbEntity
  8
0
100
AcDbText
 10
5650.039
 20
9982.9363
 30
0.0
 40
200.0
  1
W＝1,000　H＝1,500  見込70
  7
EXTFONT
100
AcDbText
  0
TEXT
  5
E8
330
4FF
100
AcDbEntity
  8
0
100
AcDbText
 10
5650.039
 20
8232.9363
 30
0.0
 40
200.0
  1
YKKAP　ＳＹＳＴＥＭＡ３１０同等品
  7
EXTFONT
100
AcDbText
  0
TEXT
  5
E9
330
4FF
100
AcDbEntity
  8
0
100
AcDbText
 10
5650.039
 20
8732.9363
 30
0.0
 40
200.0
  1
＊
  7
EXTFONT
100
AcDbText
  0
TEXT
  5
EA
330
4FF
100
AcDbEntity
  8
0
100
AcDbText
 10
5850.039
 20
7957.9363
 30
0.0
 40
200.0
  1
＊
  7
EXTFONT
100
AcDbText
  0
CIRCLE
  5
EB
330
4FF
100
AcDbEntity
  8
YKK_F1
100
AcDbCircle
 10
5950.039
 20
7957.9363
 30
0.0
 40
233.3333333333333
  0
LINE
  5
EC
330
4FF
100
AcDbEntity
  8
YKK_F1
  6
Continuous
100
AcDbLine
 10
5716.70566667
 20
7957.9363
 30
0.0
 11
6183.37233333
 21
7957.9363
 31
0.0
  0
TEXT
  5
ED
330
4FF
100
AcDbEntity
  8
0
100
AcDbText
 10
5650.039
 20
7482.9363
 30
0.0
 40
200.0
  1
＊
  7
EXTFONT
100
AcDbText
  0
TEXT
  5
EE
330
4FF
100
AcDbEntity
  8
YKK_F1
100
AcDbText
 10
5790.039
 20
7757.9363
 30
0.0
 40
160.0
  1
ＡＷ
  7
EXTFONT
100
AcDbText
  0
TEXT
  5
EF
330
4FF
100
AcDbEntity
  8
0
100
AcDbText
 10
5650.039
 20
8482.9363
 30
0.0
 40
200.0
  1
＊
  7
EXTFONT
100
AcDbText
  0
TEXT
  5
F0
330
4FF
100
AcDbEntity
  8
0
100
AcDbText
 10
5650.039
 20
9232.9363
 30
0.0
 40
200.0
  1
FL・透明
  7
EXTFONT
100
AcDbText
  0
TEXT
  5
F1
330
4FF
100
AcDbEntity
  8
0
100
AcDbText
 10
5650.039
 20
9732.9363
 30
0.0
 40
200.0
  1
アルミ製
  7
EXTFONT
100
AcDbText
  0
TEXT
  5
F2
330
4FF
100
AcDbEntity
  8
0
100
AcDbText
 10
8950.039
 20
7482.9363
 30
0.0
 40
200.0
  1
＊
  7
EXTFONT
100
AcDbText
  0
TEXT
  5
F3
330
4FF
100
AcDbEntity
  8
0
100
AcDbText
 10
9250.039
 20
7732.9363
 30
0.0
 40
200.0
  1
＊
  7
EXTFONT
100
AcDbText
  0
TEXT
  5
F4
330
4FF
100
AcDbEntity
  8
YKK_F1
100
AcDbText
 10
9670.039
 20
7732.9363
 30
0.0
 40
200.0
  1
箇所
  7
EXTFONT
100
AcDbText
  0
LINE
  5
F5
330
4FF
100
AcDbEntity
  8
YKK_A1
100
AcDbLine
 10
12043.039
 20
6660.9363
 30
0.0
 11
13007.039
 21
6660.9363
 31
0.0
  0
LINE
  5
F6
330
4FF
100
AcDbEntity
  8
YKK_A1
100
AcDbLine
 10
12043.039
 20
6648.9363
 30
0.0
 11
13007.039
 21
6648.9363
 31
0.0
  0
LINE
  5
F7
330
4FF
100
AcDbEntity
  8
YKK_A1
100
AcDbLine
 10
12043.039
 20
6710.9363
 30
0.0
 11
13007.039
 21
6710.9363
 31
0.0
  0
LINE
  5
F8
330
4FF
100
AcDbEntity
  8
YKK_A1
100
AcDbLine
 10
12043.039
 20
6698.9363
 30
0.0
 11
13007.039
 21
6698.9363
 31
0.0
  0
LINE
  5
F9
330
4FF
100
AcDbEntity
  8
YKK_A1
100
AcDbLine
 10
12043.039
 20
6060.9363
 30
0.0
 11
13007.039
 21
6060.9363
 31
0.0
  0
LINE
  5
FA
330
4FF
100
AcDbEntity
  8
YKK_A1
100
AcDbLine
 10
12043.039
 20
6048.9363
 30
0.0
 11
13007.039
 21
6048.9363
 31
0.0
  0
LINE
  5
FB
330
4FF
100
AcDbEntity
  8
YKK_A1
100
AcDbLine
 10
12043.039
 20
6110.9363
 30
0.0
 11
13007.039
 21
6110.9363
 31
0.0
  0
LINE
  5
FC
330
4FF
100
AcDbEntity
  8
YKK_A1
100
AcDbLine
 10
12043.039
 20
6098.9363
 30
0.0
 11
13007.039
 21
6098.9363
 31
0.0
  0
LINE
  5
FD
330
4FF
100
AcDbEntity
  8
YKK_A1
100
AcDbLine
 10
12043.039
 20
6160.9363
 30
0.0
 11
13007.039
 21
6160.9363
 31
0.0
  0
LINE
  5
FE
330
4FF
100
AcDbEntity
  8
YKK_A1
100
AcDbLine
 10
12043.039
 20
6148.9363
 30
0.0
 11
13007.039
 21
6148.9363
 31
0.0
  0
LINE
  5
FF
330
4FF
100
AcDbEntity
  8
YKK_A1
100
AcDbLine
 10
12043.039
 20
6210.9363
 30
0.0
 11
13007.039
 21
6210.9363
 31
0.0
  0
LINE
  5
100
330
4FF
100
AcDbEntity
  8
YKK_A1
100
AcDbLine
 10
12043.039
 20
6198.9363
 30
0.0
 11
13007.039
 21
6198.9363
 31
0.0
  0
LINE
  5
101
330
4FF
100
AcDbEntity
  8
YKK_A1
100
AcDbLine
 10
12043.039
 20
6260.9363
 30
0.0
 11
13007.039
 21
6260.9363
 31
0.0
  0
LINE
  5
102
330
4FF
100
AcDbEntity
  8
YKK_A1
100
AcDbLine
 10
12043.039
 20
6248.9363
 30
0.0
 11
13007.039
 21
6248.9363
 31
0.0
  0
LINE
  5
103
330
4FF
100
AcDbEntity
  8
YKK_A1
100
AcDbLine
 10
12043.039
 20
6310.9363
 30
0.0
 11
13007.039
 21
6310.9363
 31
0.0
  0
LINE
  5
104
330
4FF
100
AcDbEntity
  8
YKK_A1
100
AcDbLine
 10
12043.039
 20
6298.9363
 30
0.0
 11
13007.039
 21
6298.9363
 31
0.0
  0
LINE
  5
105
330
4FF
100
AcDbEntity
  8
YKK_A1
100
AcDbLine
 10
12043.039
 20
6360.9363
 30
0.0
 11
13007.039
 21
6360.9363
 31
0.0
  0
LINE
  5
106
330
4FF
100
AcDbEntity
  8
YKK_A1
100
AcDbLine
 10
12043.039
 20
6348.9363
 30
0.0
 11
13007.039
 21
6348.9363
 31
0.0
  0
LINE
  5
107
330
4FF
100
AcDbEntity
  8
YKK_A1
100
AcDbLine
 10
12043.039
 20
6410.9363
 30
0.0
 11
13007.039
 21
6410.9363
 31
0.0
  0
LINE
  5
108
330
4FF
100
AcDbEntity
  8
YKK_A1
100
AcDbLine
 10
12043.039
 20
6398.9363
 30
0.0
 11
13007.039
 21
6398.9363
 31
0.0
  0
LINE
  5
109
330
4FF
100
AcDbEntity
  8
YKK_A1
100
AcDbLine
 10
12043.039
 20
6460.9363
 30
0.0
 11
13007.039
 21
6460.9363
 31
0.0
  0
LINE
  5
10A
330
4FF
100
AcDbEntity
  8
YKK_A1
100
AcDbLine
 10
12043.039
 20
6448.9363
 30
0.0
 11
13007.039
 21
6448.9363
 31
0.0
  0
LINE
  5
10B
330
4FF
100
AcDbEntity
  8
YKK_A1
100
AcDbLine
 10
12043.039
 20
6510.9363
 30
0.0
 11
13007.039
 21
6510.9363
 31
0.0
  0
LINE
  5
10C
330
4FF
100
AcDbEntity
  8
YKK_A1
100
AcDbLine
 10
12043.039
 20
6498.9363
 30
0.0
 11
13007.039
 21
6498.9363
 31
0.0
  0
LINE
  5
10D
330
4FF
100
AcDbEntity
  8
YKK_A1
100
AcDbLine
 10
12043.039
 20
6560.9363
 30
0.0
 11
13007.039
 21
6560.9363
 31
0.0
  0
LINE
  5
10E
330
4FF
100
AcDbEntity
  8
YKK_A1
100
AcDbLine
 10
12043.039
 20
6548.9363
 30
0.0
 11
13007.039
 21
6548.9363
 31
0.0
  0
LINE
  5
10F
330
4FF
100
AcDbEntity
  8
YKK_A1
100
AcDbLine
 10
12043.039
 20
6610.9363
 30
0.0
 11
13007.039
 21
6610.9363
 31
0.0
  0
LINE
  5
110
330
4FF
100
AcDbEntity
  8
YKK_A1
100
AcDbLine
 10
12043.039
 20
6598.9363
 30
0.0
 11
13007.039
 21
6598.9363
 31
0.0
  0
LINE
  5
111
330
4FF
100
AcDbEntity
  8
YKK_A1
100
AcDbLine
 10
13040.039
 20
6737.9363
 30
0.0
 11
12010.039
 21
6737.9363
 31
0.0
  0
LINE
  5
112
330
4FF
100
AcDbEntity
  8
YKK_A1
100
AcDbLine
 10
13025.039
 20
5922.9363
 30
0.0
 11
12025.039
 21
5922.9363
 31
0.0
  0
LINE
  5
113
330
4FF
100
AcDbEntity
  8
YKK_A1
100
AcDbLine
 10
13025.039
 20
5922.9363
 30
0.0
 11
12025.039
 21
5922.9363
 31
0.0
  0
LINE
  5
114
330
4FF
100
AcDbEntity
  8
YKK_A1
100
AcDbLine
 10
12025.039
 20
5922.9363
 30
0.0
 11
13025.039
 21
5922.9363
 31
0.0
  0
LINE
  5
115
330
4FF
100
AcDbEntity
  8
YKK_A1
100
AcDbLine
 10
13025.039
 20
6022.9363
 30
0.0
 11
12025.039
 21
6022.9363
 31
0.0
  0
LINE
  5
116
330
4FF
100
AcDbEntity
  8
YKK_A1
100
AcDbLine
 10
12025.039
 20
6022.9363
 30
0.0
 11
13025.039
 21
6022.9363
 31
0.0
  0
LINE
  5
117
330
4FF
100
AcDbEntity
  8
YKK_A1
100
AcDbLine
 10
13025.039
 20
6722.9363
 30
0.0
 11
12025.039
 21
6722.9363
 31
0.0
  0
TEXT
  5
118
330
4FF
100
AcDbEntity
  8
YKK_N1
100
AcDbText
 10
12377.61042857
 20
4832.9363
 30
0.0
 40
60.0
  1
W=1000
 41
0.8
  7
YKK_SGSTYLE1
100
AcDbText
  0
LINE
  5
119
330
4FF
100
AcDbEntity
  8
YKK_N1
  6
ByBlock
100
AcDbLine
 10
12026.039
 20
4822.9363
 30
0.0
 11
13024.039
 21
4822.9363
 31
0.0
  0
LINE
  5
11A
330
4FF
100
AcDbEntity
  8
YKK_A1
100
AcDbLine
 10
12010.039
 20
5222.9363
 30
0.0
 11
13040.039
 21
5222.9363
 31
0.0
  0
LINE
  5
11B
330
4FF
100
AcDbEntity
  8
YKK_A1
100
AcDbLine
 10
12025.039
 20
5222.9363
 30
0.0
 11
13025.039
 21
5222.9363
 31
0.0
  0
LINE
  5
11C
330
4FF
100
AcDbEntity
  8
YKK_A1
100
AcDbLine
 10
12025.039
 20
5222.9363
 30
0.0
 11
13025.039
 21
5222.9363
 31
0.0
  0
TEXT
  5
11D
330
4FF
100
AcDbEntity
  8
0
100
AcDbText
 10
10300.039
 20
4027.9363
 30
0.0
 40
200.0
  1
W＝1,000　H＝1,500  見込70
  7
EXTFONT
100
AcDbText
  0
TEXT
  5
11E
330
4FF
100
AcDbEntity
  8
0
100
AcDbText
 10
10300.039
 20
4277.9363
 30
0.0
 40
180.0
  1
ガラリ（ルーバータイプ）＋はめ殺し段窓
  7
EXTFONT
100
AcDbText
  0
LINE
  5
11F
330
4FF
100
AcDbEntity
  8
YKK_A1
100
AcDbLine
 10
12025.039
 20
5922.9363
 30
0.0
 11
12025.039
 21
5222.9363
 31
0.0
  0
LINE
  5
120
330
4FF
100
AcDbEntity
  8
YKK_A1
100
AcDbLine
 10
12025.039
 20
5922.9363
 30
0.0
 11
12025.039
 21
5222.9363
 31
0.0
  0
LINE
  5
121
330
4FF
100
AcDbEntity
  8
YKK_A1
100
AcDbLine
 10
12010.039
 20
6737.9363
 30
0.0
 11
12010.039
 21
5222.9363
 31
0.0
  0
LINE
  5
122
330
4FF
100
AcDbEntity
  8
YKK_N1
  6
ByBlock
100
AcDbLine
 10
12111.64154038
 20
4872.9363
 30
0.0
 11
12025.039
 21
4822.9363
 31
0.0
  0
LINE
  5
123
330
4FF
100
AcDbEntity
  8
YKK_N1
  6
ByBlock
100
AcDbLine
 10
12025.039
 20
4822.9363
 30
0.0
 11
12111.64154038
 21
4772.9363
 31
0.0
  0
LINE
  5
124
330
4FF
100
AcDbEntity
  8
YKK_N1
  6
ByBlock
100
AcDbLine
 10
12025.039
 20
4822.9363
 30
0.0
 11
12125.039
 21
4822.9363
 31
0.0
  0
LINE
  5
125
330
4FF
100
AcDbEntity
  8
YKK_N1
  6
ByBlock
100
AcDbLine
 10
12111.64154038
 20
4772.9363
 30
0.0
 11
12111.64154038
 21
4872.9363
 31
0.0
  0
LINE
  5
126
330
4FF
100
AcDbEntity
  8
YKK_N1
  6
ByBlock
100
AcDbLine
 10
12025.039
 20
5162.9363
 30
0.0
 11
12025.039
 21
4792.9363
 31
0.0
  0
LINE
  5
127
330
4FF
100
AcDbEntity
  8
YKK_A1
100
AcDbLine
 10
12025.039
 20
6722.9363
 30
0.0
 11
12025.039
 21
6022.9363
 31
0.0
  0
LINE
  5
128
330
4FF
100
AcDbEntity
  8
YKK_A1
100
AcDbLine
 10
12043.039
 20
6022.9363
 30
0.0
 11
12043.039
 21
6722.9363
 31
0.0
  0
LINE
  5
129
330
4FF
100
AcDbEntity
  8
YKK_A1
100
AcDbLine
 10
12025.039
 20
6022.9363
 30
0.0
 11
12025.039
 21
5922.9363
 31
0.0
  0
LINE
  5
12A
330
4FF
100
AcDbEntity
  8
YKK_A1
100
AcDbLine
 10
13025.039
 20
5222.9363
 30
0.0
 11
13025.039
 21
5922.9363
 31
0.0
  0
LINE
  5
12B
330
4FF
100
AcDbEntity
  8
YKK_A1
100
AcDbLine
 10
13025.039
 20
5222.9363
 30
0.0
 11
13025.039
 21
5922.9363
 31
0.0
  0
LINE
  5
12C
330
4FF
100
AcDbEntity
  8
YKK_A1
100
AcDbLine
 10
13040.039
 20
5222.9363
 30
0.0
 11
13040.039
 21
6737.9363
 31
0.0
  0
LINE
  5
12D
330
4FF
100
AcDbEntity
  8
YKK_N1
  6
ByBlock
100
AcDbLine
 10
13425.039
 20
5223.9363
 30
0.0
 11
13425.039
 21
6721.9363
 31
0.0
  0
LINE
  5
12E
330
4FF
100
AcDbEntity
  8
YKK_N1
  6
ByBlock
100
AcDbLine
 10
13085.039
 20
5222.9363
 30
0.0
 11
13455.039
 21
5222.9363
 31
0.0
  0
POINT
  5
12F
330
4FF
100
AcDbEntity
  8
YKK_N1
  6
ByBlock
100
AcDbPoint
 10
13025.039
 20
4822.9363
 30
0.0
  0
LINE
  5
130
330
4FF
100
AcDbEntity
  8
YKK_N1
  6
ByBlock
100
AcDbLine
 10
13025.039
 20
5162.9363
 30
0.0
 11
13025.039
 21
4792.9363
 31
0.0
  0
LINE
  5
131
330
4FF
100
AcDbEntity
  8
YKK_N1
  6
ByBlock
100
AcDbLine
 10
12938.43645962
 20
4872.9363
 30
0.0
 11
12938.43645962
 21
4772.9363
 31
0.0
  0
LINE
  5
132
330
4FF
100
AcDbEntity
  8
YKK_N1
  6
ByBlock
100
AcDbLine
 10
12938.43645962
 20
4772.9363
 30
0.0
 11
13025.039
 21
4822.9363
 31
0.0
  0
LINE
  5
133
330
4FF
100
AcDbEntity
  8
YKK_N1
  6
ByBlock
100
AcDbLine
 10
13025.039
 20
4822.9363
 30
0.0
 11
12938.43645962
 21
4872.9363
 31
0.0
  0
LINE
  5
134
330
4FF
100
AcDbEntity
  8
YKK_N1
  6
ByBlock
100
AcDbLine
 10
13025.039
 20
4822.9363
 30
0.0
 11
12925.039
 21
4822.9363
 31
0.0
  0
TEXT
  5
135
330
4FF
100
AcDbEntity
  8
YKK_A1
100
AcDbText
 10
12956.18185714
 20
5252.9363
 30
0.0
 40
60.0
  1
F
 41
0.8
  7
YKK_SGSTYLE1
 72
     2
 11
12995.039
 21
5252.9363
 31
0.0
100
AcDbText
  0
LINE
  5
136
330
4FF
100
AcDbEntity
  8
YKK_N1
  6
ByBlock
100
AcDbLine
 10
13475.039
 20
5309.53884038
 30
0.0
 11
13375.039
 21
5309.53884038
 31
0.0
  0
LINE
  5
137
330
4FF
100
AcDbEntity
  8
YKK_N1
  6
ByBlock
100
AcDbLine
 10
13375.039
 20
5309.53884038
 30
0.0
 11
13425.039
 21
5222.9363
 31
0.0
  0
LINE
  5
138
330
4FF
100
AcDbEntity
  8
YKK_N1
  6
ByBlock
100
AcDbLine
 10
13425.039
 20
5222.9363
 30
0.0
 11
13425.039
 21
5322.9363
 31
0.0
  0
LINE
  5
139
330
4FF
100
AcDbEntity
  8
YKK_N1
  6
ByBlock
100
AcDbLine
 10
13425.039
 20
5222.9363
 30
0.0
 11
13475.039
 21
5309.53884038
 31
0.0
  0
LINE
  5
13A
330
4FF
100
AcDbEntity
  8
YKK_A1
100
AcDbLine
 10
13025.039
 20
6022.9363
 30
0.0
 11
13025.039
 21
6722.9363
 31
0.0
  0
LINE
  5
13B
330
4FF
100
AcDbEntity
  8
YKK_A1
100
AcDbLine
 10
13007.039
 20
6022.9363
 30
0.0
 11
13007.039
 21
6722.9363
 31
0.0
  0
LINE
  5
13C
330
4FF
100
AcDbEntity
  8
YKK_A1
100
AcDbLine
 10
13025.039
 20
5922.9363
 30
0.0
 11
13025.039
 21
6022.9363
 31
0.0
  0
TEXT
  5
13D
330
4FF
100
AcDbEntity
  8
YKK_N1
100
AcDbText
 10
13415.039
 20
5825.50772857
 30
0.0
 40
60.0
  1
H=1500
 50
90.0
 41
0.8
  7
YKK_SGSTYLE1
100
AcDbText
  0
LINE
  5
13E
330
4FF
100
AcDbEntity
  8
YKK_N1
  6
ByBlock
100
AcDbLine
 10
13085.039
 20
6722.9363
 30
0.0
 11
13455.039
 21
6722.9363
 31
0.0
  0
LINE
  5
13F
330
4FF
100
AcDbEntity
  8
YKK_N1
  6
ByBlock
100
AcDbLine
 10
13425.039
 20
6722.9363
 30
0.0
 11
13375.039
 21
6636.33375962
 31
0.0
  0
LINE
  5
140
330
4FF
100
AcDbEntity
  8
YKK_N1
  6
ByBlock
100
AcDbLine
 10
13375.039
 20
6636.33375962
 30
0.0
 11
13475.039
 21
6636.33375962
 31
0.0
  0
POINT
  5
141
330
4FF
100
AcDbEntity
  8
YKK_N1
  6
ByBlock
100
AcDbPoint
 10
13425.039
 20
6722.9363
 30
0.0
  0
LINE
  5
142
330
4FF
100
AcDbEntity
  8
YKK_N1
  6
ByBlock
100
AcDbLine
 10
13475.039
 20
6636.33375962
 30
0.0
 11
13425.039
 21
6722.9363
 31
0.0
  0
LINE
  5
143
330
4FF
100
AcDbEntity
  8
YKK_N1
  6
ByBlock
100
AcDbLine
 10
13425.039
 20
6722.9363
 30
0.0
 11
13425.039
 21
6622.9363
 31
0.0
  0
TEXT
  5
144
330
4FF
100
AcDbEntity
  8
0
100
AcDbText
 10
10300.039
 20
8982.9363
 30
0.0
 40
200.0
  1
結露排水弁・水切・アングル・膳板
  7
EXTFONT
100
AcDbText
  0
TEXT
  5
145
330
4FF
100
AcDbEntity
  8
0
100
AcDbText
 10
10300.039
 20
8732.9363
 30
0.0
 40
180.0
  1
丁番・障子コーナー保護キャップ
  7
EXTFONT
100
AcDbText
  0
TEXT
  5
146
330
4FF
100
AcDbEntity
  8
0
100
AcDbText
 10
10300.039
 20
8232.9363
 30
0.0
 40
200.0
  1
YKKAP　ＳＹＳＴＥＭＡ３１０同等品
  7
EXTFONT
100
AcDbText
  0
TEXT
  5
147
330
4FF
100
AcDbEntity
  8
0
100
AcDbText
 10
10300.039
 20
9482.9363
 30
0.0
 40
200.0
  1
シルバー･ｶﾗｰ(ブロンズ､ステン､ブラック)
  7
EXTFONT
100
AcDbText
  0
TEXT
  5
148
330
4FF
100
AcDbEntity
  8
0
100
AcDbText
 10
10300.039
 20
10232.9363
 30
0.0
 40
200.0
  1
外倒し窓＋はめ殺し段窓
  7
EXTFONT
100
AcDbText
  0
TEXT
  5
149
330
4FF
100
AcDbEntity
  8
0
100
AcDbText
 10
10300.039
 20
9982.9363
 30
0.0
 40
200.0
  1
W＝1,000　H＝1,500  見込70
  7
EXTFONT
100
AcDbText
  0
TEXT
  5
14A
330
4FF
100
AcDbEntity
  8
0
100
AcDbText
 10
10500.039
 20
7957.9363
 30
0.0
 40
200.0
  1
＊
  7
EXTFONT
100
AcDbText
  0
CIRCLE
  5
14B
330
4FF
100
AcDbEntity
  8
YKK_F1
100
AcDbCircle
 10
10600.039
 20
7957.9363
 30
0.0
 40
233.3333333333333
  0
LINE
  5
14C
330
4FF
100
AcDbEntity
  8
YKK_F1
  6
Continuous
100
AcDbLine
 10
10366.70566667
 20
7957.9363
 30
0.0
 11
10833.37233333
 21
7957.9363
 31
0.0
  0
TEXT
  5
14D
330
4FF
100
AcDbEntity
  8
0
100
AcDbText
 10
10300.039
 20
7482.9363
 30
0.0
 40
200.0
  1
＊
  7
EXTFONT
100
AcDbText
  0
TEXT
  5
14E
330
4FF
100
AcDbEntity
  8
YKK_F1
100
AcDbText
 10
10440.039
 20
7757.9363
 30
0.0
 40
160.0
  1
ＡＷ
  7
EXTFONT
100
AcDbText
  0
TEXT
  5
14F
330
4FF
100
AcDbEntity
  8
0
100
AcDbText
 10
10300.039
 20
8482.9363
 30
0.0
 40
200.0
  1
＊
  7
EXTFONT
100
AcDbText
  0
TEXT
  5
150
330
4FF
100
AcDbEntity
  8
0
100
AcDbText
 10
10300.039
 20
9232.9363
 30
0.0
 40
200.0
  1
FL・透明
  7
EXTFONT
100
AcDbText
  0
TEXT
  5
151
330
4FF
100
AcDbEntity
  8
0
100
AcDbText
 10
10300.039
 20
9732.9363
 30
0.0
 40
200.0
  1
アルミ製
  7
EXTFONT
100
AcDbText
  0
TEXT
  5
152
330
4FF
100
AcDbEntity
  8
0
100
AcDbText
 10
13600.039
 20
7482.9363
 30
0.0
 40
200.0
  1
＊
  7
EXTFONT
100
AcDbText
  0
TEXT
  5
153
330
4FF
100
AcDbEntity
  8
0
100
AcDbText
 10
13900.039
 20
7732.9363
 30
0.0
 40
200.0
  1
＊
  7
EXTFONT
100
AcDbText
  0
TEXT
  5
154
330
4FF
100
AcDbEntity
  8
YKK_F1
100
AcDbText
 10
14320.039
 20
7732.9363
 30
0.0
 40
200.0
  1
箇所
  7
EXTFONT
100
AcDbText
  0
TEXT
  5
155
330
4FF
100
AcDbEntity
  8
0
100
AcDbText
 10
1009.77446
 20
20612.406
 30
0.0
 40
250.0
  1
ＢＲＳ３ＰＪ５１　ＳＹＳＴＥＭＡ３１０　ＲＣ枠　はめ殺し窓
  7
EXTFONT
100
AcDbText
  0
TEXT
  5
156
330
4FF
100
AcDbEntity
  8
YKK_F1
100
AcDbText
 10
2190.33733852
 20
11855.4363
 30
0.0
 40
200.0
  1
姿　　　　　　　図
  7
EXTFONT
 72
     1
 11
3237.00400518
 21
11855.4363
 31
0.0
100
AcDbText
  0
TEXT
  5
157
330
4FF
100
AcDbEntity
  8
YKK_F1
100
AcDbText
 10
2183.67067185
 20
13432.9363
 30
0.0
 40
200.0
  1
使用箇所・防火仕様
  7
EXTFONT
 72
     1
 11
3237.00400518
 21
13432.9363
 31
0.0
100
AcDbText
  0
TEXT
  5
158
330
4FF
100
AcDbEntity
  8
YKK_F1
100
AcDbText
 10
2183.67067185
 20
13787.9363
 30
0.0
 40
200.0
  1
符　号　・　数　量
  7
EXTFONT
 72
     1
 11
3237.00400518
 21
13787.9363
 31
0.0
100
AcDbText
  0
TEXT
  5
159
330
4FF
100
AcDbEntity
  8
YKK_F1
100
AcDbText
 10
1703.67067185
 20
16182.9363
 30
0.0
 40
200.0
  1
型式・防音・エアタイト仕様
  7
EXTFONT
 72
     1
 11
3237.00400518
 21
16182.9363
 31
0.0
100
AcDbText
  0
TEXT
  5
15A
330
4FF
100
AcDbEntity
  8
YKK_F1
100
AcDbText
 10
1283.67067185
 20
15932.9363
 30
0.0
 40
200.0
  1
寸法・見付・見込（枠見付・枠見込）
  7
EXTFONT
 72
     1
 11
3237.00400518
 21
15932.9363
 31
0.0
100
AcDbText
  0
TEXT
  5
15B
330
4FF
100
AcDbEntity
  8
YKK_F1
100
AcDbText
 10
1937.00400518
 20
14557.9363
 30
0.0
 40
200.0
  1
(付　　属　　金　　物)
  7
EXTFONT
 72
     1
 11
3237.00400518
 21
14557.9363
 31
0.0
100
AcDbText
  0
TEXT
  5
15C
330
4FF
100
AcDbEntity
  8
YKK_F1
100
AcDbText
 10
2063.67067185
 20
14807.9363
 30
0.0
 40
200.0
  1
建　　具　　金　　物
  7
EXTFONT
 72
     1
 11
3237.00400518
 21
14807.9363
 31
0.0
100
AcDbText
  0
TEXT
  5
15D
330
4FF
100
AcDbEntity
  8
YKK_F1
100
AcDbText
 10
1817.00400518
 20
15182.9363
 30
0.0
 40
200.0
  1
ガラス・種類・ガラス押え
  7
EXTFONT
 72
     1
 11
3237.00400518
 21
15182.9363
 31
0.0
100
AcDbText
  0
TEXT
  5
15E
330
4FF
100
AcDbEntity
  8
YKK_F1
100
AcDbText
 10
2183.67067185
 20
15682.9363
 30
0.0
 40
200.0
  1
材　　　　　　　質
  7
EXTFONT
 72
     1
 11
3237.00400518
 21
15682.9363
 31
0.0
100
AcDbText
  0
TEXT
  5
15F
330
4FF
100
AcDbEntity
  8
YKK_F1
100
AcDbText
 10
2183.67067185
 20
14182.9363
 30
0.0
 40
200.0
  1
備　　　　　　　考
  7
EXTFONT
 72
     1
 11
3237.00400518
 21
14182.9363
 31
0.0
100
AcDbText
  0
TEXT
  5
160
330
4FF
100
AcDbEntity
  8
YKK_F1
100
AcDbText
 10
2183.67067185
 20
15432.9363
 30
0.0
 40
200.0
  1
仕　　　　　　　上
  7
EXTFONT
 72
     1
 11
3237.00400518
 21
15432.9363
 31
0.0
100
AcDbText
  0
TEXT
  5
161
330
4FF
100
AcDbEntity
  8
YKK_F1
100
AcDbText
 10
2190.33733852
 20
17810.4363
 30
0.0
 40
200.0
  1
姿　　　　　　　図
  7
EXTFONT
 72
     1
 11
3237.00400518
 21
17810.4363
 31
0.0
100
AcDbText
  0
TEXT
  5
162
330
4FF
100
AcDbEntity
  8
YKK_F1
100
AcDbText
 10
2183.67067185
 20
19742.9363
 30
0.0
 40
200.0
  1
符　号　・　数　量
  7
EXTFONT
 72
     1
 11
3237.00400518
 21
19742.9363
 31
0.0
100
AcDbText
  0
TEXT
  5
163
330
4FF
100
AcDbEntity
  8
YKK_F1
100
AcDbText
 10
2183.67067185
 20
19387.9363
 30
0.0
 40
200.0
  1
使用箇所・防火仕様
  7
EXTFONT
 72
     1
 11
3237.00400518
 21
19387.9363
 31
0.0
100
AcDbText
  0
TEXT
  5
164
330
4FF
100
AcDbEntity
  8
YKK_F1
100
AcDbText
 10
9670.039
 20
13687.9363
 30
0.0
 40
200.0
  1
箇所
  7
EXTFONT
100
AcDbText
  0
TEXT
  5
165
330
4FF
100
AcDbEntity
  8
0
100
AcDbText
 10
9250.039
 20
13687.9363
 30
0.0
 40
200.0
  1
＊
  7
EXTFONT
100
AcDbText
  0
CIRCLE
  5
166
330
4FF
100
AcDbEntity
  8
YKK_F1
100
AcDbCircle
 10
5950.039
 20
13912.9363
 30
0.0
 40
233.3333333333333
  0
TEXT
  5
167
330
4FF
100
AcDbEntity
  8
YKK_F1
100
AcDbText
 10
5790.039
 20
13712.9363
 30
0.0
 40
160.0
  1
ＡＷ
  7
EXTFONT
100
AcDbText
  0
TEXT
  5
168
330
4FF
100
AcDbEntity
  8
YKK_N1
100
AcDbText
 10
7727.61042857
 20
10787.9363
 30
0.0
 40
60.0
  1
W=1000
 41
0.8
  7
YKK_SGSTYLE1
100
AcDbText
  0
LINE
  5
169
330
4FF
100
AcDbEntity
  8
YKK_N1
  6
ByBlock
100
AcDbLine
 10
7376.039
 20
10777.9363
 30
0.0
 11
8374.039
 21
10777.9363
 31
0.0
  0
LINE
  5
16A
330
4FF
100
AcDbEntity
  8
YKK_A1
100
AcDbLine
 10
7360.039
 20
11177.9363
 30
0.0
 11
8390.039
 21
11177.9363
 31
0.0
  0
LINE
  5
16B
330
4FF
100
AcDbEntity
  8
YKK_A1
100
AcDbLine
 10
7375.039
 20
11177.9363
 30
0.0
 11
8375.039
 21
11177.9363
 31
0.0
  0
LINE
  5
16C
330
4FF
100
AcDbEntity
  8
YKK_A1
100
AcDbLine
 10
7375.039
 20
11177.9363
 30
0.0
 11
8375.039
 21
11177.9363
 31
0.0
  0
LINE
  5
16D
330
4FF
100
AcDbEntity
  8
YKK_A1
100
AcDbLine
 10
8390.039
 20
12692.9363
 30
0.0
 11
7360.039
 21
12692.9363
 31
0.0
  0
LINE
  5
16E
330
4FF
100
AcDbEntity
  8
YKK_A1
100
AcDbLine
 10
8375.039
 20
11877.9363
 30
0.0
 11
7375.039
 21
11877.9363
 31
0.0
  0
LINE
  5
16F
330
4FF
100
AcDbEntity
  8
YKK_A1
100
AcDbLine
 10
8375.039
 20
11877.9363
 30
0.0
 11
7375.039
 21
11877.9363
 31
0.0
  0
LINE
  5
170
330
4FF
100
AcDbEntity
  8
YKK_A1
100
AcDbLine
 10
7375.039
 20
11877.9363
 30
0.0
 11
8375.039
 21
11877.9363
 31
0.0
  0
LINE
  5
171
330
4FF
100
AcDbEntity
  8
YKK_A1
100
AcDbLine
 10
8375.039
 20
11977.9363
 30
0.0
 11
7375.039
 21
11977.9363
 31
0.0
  0
LINE
  5
172
330
4FF
100
AcDbEntity
  8
YKK_A1
100
AcDbLine
 10
7375.039
 20
11977.9363
 30
0.0
 11
8375.039
 21
11977.9363
 31
0.0
  0
LINE
  5
173
330
4FF
100
AcDbEntity
  8
YKK_A1
100
AcDbLine
 10
8375.039
 20
12677.9363
 30
0.0
 11
7375.039
 21
12677.9363
 31
0.0
  0
LINE
  5
174
330
4FF
100
AcDbEntity
  8
YKK_A1
100
AcDbLine
 10
7375.039
 20
11977.9363
 30
0.0
 11
8375.039
 21
11977.9363
 31
0.0
  0
LINE
  5
175
330
4FF
100
AcDbEntity
  8
YKK_A1
100
AcDbLine
 10
8375.039
 20
12677.9363
 30
0.0
 11
7375.039
 21
12677.9363
 31
0.0
  0
LINE
  5
176
330
4FF
100
AcDbEntity
  8
YKK_A1
100
AcDbLine
 10
7375.039
 20
12677.9363
 30
0.0
 11
7375.039
 21
11977.9363
 31
0.0
  0
LINE
  5
177
330
4FF
100
AcDbEntity
  8
YKK_A1
100
AcDbLine
 10
7375.039
 20
12677.9363
 30
0.0
 11
7375.039
 21
11977.9363
 31
0.0
  0
LINE
  5
178
330
4FF
100
AcDbEntity
  8
YKK_A1
100
AcDbLine
 10
7360.039
 20
12692.9363
 30
0.0
 11
7360.039
 21
11177.9363
 31
0.0
  0
LINE
  5
179
330
4FF
100
AcDbEntity
  8
YKK_A1
100
AcDbLine
 10
7375.039
 20
11877.9363
 30
0.0
 11
7375.039
 21
11177.9363
 31
0.0
  0
LINE
  5
17A
330
4FF
100
AcDbEntity
  8
YKK_A1
100
AcDbLine
 10
7375.039
 20
11877.9363
 30
0.0
 11
7375.039
 21
11177.9363
 31
0.0
  0
LINE
  5
17B
330
4FF
100
AcDbEntity
  8
YKK_N1
  6
ByBlock
100
AcDbLine
 10
7375.039
 20
11117.9363
 30
0.0
 11
7375.039
 21
10747.9363
 31
0.0
  0
LINE
  5
17C
330
4FF
100
AcDbEntity
  8
YKK_N1
  6
ByBlock
100
AcDbLine
 10
7461.64154038
 20
10727.9363
 30
0.0
 11
7461.64154038
 21
10827.9363
 31
0.0
  0
LINE
  5
17D
330
4FF
100
AcDbEntity
  8
YKK_N1
  6
ByBlock
100
AcDbLine
 10
7461.64154038
 20
10827.9363
 30
0.0
 11
7375.039
 21
10777.9363
 31
0.0
  0
LINE
  5
17E
330
4FF
100
AcDbEntity
  8
YKK_N1
  6
ByBlock
100
AcDbLine
 10
7375.039
 20
10777.9363
 30
0.0
 11
7461.64154038
 21
10727.9363
 31
0.0
  0
LINE
  5
17F
330
4FF
100
AcDbEntity
  8
YKK_N1
  6
ByBlock
100
AcDbLine
 10
7375.039
 20
10777.9363
 30
0.0
 11
7475.039
 21
10777.9363
 31
0.0
  0
LINE
  5
180
330
4FF
100
AcDbEntity
  8
YKK_A1
100
AcDbLine
 10
7375.039
 20
11977.9363
 30
0.0
 11
7375.039
 21
11877.9363
 31
0.0
  0
TEXT
  5
181
330
4FF
100
AcDbEntity
  8
0
100
AcDbText
 10
5650.039
 20
13437.9363
 30
0.0
 40
200.0
  1
＊
  7
EXTFONT
100
AcDbText
  0
LINE
  5
182
330
4FF
100
AcDbEntity
  8
YKK_A1
100
AcDbLine
 10
8375.039
 20
11977.9363
 30
0.0
 11
8375.039
 21
12677.9363
 31
0.0
  0
LINE
  5
183
330
4FF
100
AcDbEntity
  8
YKK_A1
100
AcDbLine
 10
8375.039
 20
11977.9363
 30
0.0
 11
8375.039
 21
12677.9363
 31
0.0
  0
LINE
  5
184
330
4FF
100
AcDbEntity
  8
YKK_A1
100
AcDbLine
 10
8390.039
 20
11177.9363
 30
0.0
 11
8390.039
 21
12692.9363
 31
0.0
  0
LINE
  5
185
330
4FF
100
AcDbEntity
  8
YKK_N1
  6
ByBlock
100
AcDbLine
 10
8775.039
 20
11178.9363
 30
0.0
 11
8775.039
 21
12676.9363
 31
0.0
  0
LINE
  5
186
330
4FF
100
AcDbEntity
  8
YKK_A1
100
AcDbLine
 10
8375.039
 20
11177.9363
 30
0.0
 11
8375.039
 21
11877.9363
 31
0.0
  0
LINE
  5
187
330
4FF
100
AcDbEntity
  8
YKK_A1
100
AcDbLine
 10
8375.039
 20
11177.9363
 30
0.0
 11
8375.039
 21
11877.9363
 31
0.0
  0
LINE
  5
188
330
4FF
100
AcDbEntity
  8
YKK_N1
  6
ByBlock
100
AcDbLine
 10
8435.039
 20
11177.9363
 30
0.0
 11
8805.039
 21
11177.9363
 31
0.0
  0
LINE
  5
189
330
4FF
100
AcDbEntity
  8
YKK_N1
  6
ByBlock
100
AcDbLine
 10
8375.039
 20
11117.9363
 30
0.0
 11
8375.039
 21
10747.9363
 31
0.0
  0
LINE
  5
18A
330
4FF
100
AcDbEntity
  8
YKK_N1
  6
ByBlock
100
AcDbLine
 10
8288.43645962
 20
10727.9363
 30
0.0
 11
8375.039
 21
10777.9363
 31
0.0
  0
LINE
  5
18B
330
4FF
100
AcDbEntity
  8
YKK_N1
  6
ByBlock
100
AcDbLine
 10
8375.039
 20
10777.9363
 30
0.0
 11
8288.43645962
 21
10827.9363
 31
0.0
  0
LINE
  5
18C
330
4FF
100
AcDbEntity
  8
YKK_N1
  6
ByBlock
100
AcDbLine
 10
8375.039
 20
10777.9363
 30
0.0
 11
8275.039
 21
10777.9363
 31
0.0
  0
LINE
  5
18D
330
4FF
100
AcDbEntity
  8
YKK_N1
  6
ByBlock
100
AcDbLine
 10
8288.43645962
 20
10827.9363
 30
0.0
 11
8288.43645962
 21
10727.9363
 31
0.0
  0
POINT
  5
18E
330
4FF
100
AcDbEntity
  8
YKK_N1
  6
ByBlock
100
AcDbPoint
 10
8375.039
 20
10777.9363
 30
0.0
  0
TEXT
  5
18F
330
4FF
100
AcDbEntity
  8
YKK_A1
100
AcDbText
 10
8306.18185714
 20
11207.9363
 30
0.0
 40
60.0
  1
F
 41
0.8
  7
YKK_SGSTYLE1
 72
     2
 11
8345.039
 21
11207.9363
 31
0.0
100
AcDbText
  0
LINE
  5
190
330
4FF
100
AcDbEntity
  8
YKK_N1
  6
ByBlock
100
AcDbLine
 10
8725.039
 20
11264.53884038
 30
0.0
 11
8775.039
 21
11177.9363
 31
0.0
  0
LINE
  5
191
330
4FF
100
AcDbEntity
  8
YKK_N1
  6
ByBlock
100
AcDbLine
 10
8825.039
 20
11264.53884038
 30
0.0
 11
8725.039
 21
11264.53884038
 31
0.0
  0
LINE
  5
192
330
4FF
100
AcDbEntity
  8
YKK_N1
  6
ByBlock
100
AcDbLine
 10
8775.039
 20
11177.9363
 30
0.0
 11
8775.039
 21
11277.9363
 31
0.0
  0
LINE
  5
193
330
4FF
100
AcDbEntity
  8
YKK_N1
  6
ByBlock
100
AcDbLine
 10
8775.039
 20
11177.9363
 30
0.0
 11
8825.039
 21
11264.53884038
 31
0.0
  0
TEXT
  5
194
330
4FF
100
AcDbEntity
  8
YKK_A1
100
AcDbText
 10
8306.18185714
 20
12007.9363
 30
0.0
 40
60.0
  1
F
 41
0.8
  7
YKK_SGSTYLE1
 72
     2
 11
8345.039
 21
12007.9363
 31
0.0
100
AcDbText
  0
LINE
  5
195
330
4FF
100
AcDbEntity
  8
YKK_A1
100
AcDbLine
 10
8375.039
 20
11877.9363
 30
0.0
 11
8375.039
 21
11977.9363
 31
0.0
  0
TEXT
  5
196
330
4FF
100
AcDbEntity
  8
YKK_N1
100
AcDbText
 10
8765.039
 20
11780.50772857
 30
0.0
 40
60.0
  1
H=1500
 50
90.0
 41
0.8
  7
YKK_SGSTYLE1
100
AcDbText
  0
TEXT
  5
197
330
4FF
100
AcDbEntity
  8
0
100
AcDbText
 10
8950.039
 20
13437.9363
 30
0.0
 40
200.0
  1
＊
  7
EXTFONT
100
AcDbText
  0
LINE
  5
198
330
4FF
100
AcDbEntity
  8
YKK_N1
  6
ByBlock
100
AcDbLine
 10
8435.039
 20
12677.9363
 30
0.0
 11
8805.039
 21
12677.9363
 31
0.0
  0
LINE
  5
199
330
4FF
100
AcDbEntity
  8
YKK_N1
  6
ByBlock
100
AcDbLine
 10
8725.039
 20
12591.33375962
 30
0.0
 11
8825.039
 21
12591.33375962
 31
0.0
  0
LINE
  5
19A
330
4FF
100
AcDbEntity
  8
YKK_N1
  6
ByBlock
100
AcDbLine
 10
8775.039
 20
12677.9363
 30
0.0
 11
8725.039
 21
12591.33375962
 31
0.0
  0
POINT
  5
19B
330
4FF
100
AcDbEntity
  8
YKK_N1
  6
ByBlock
100
AcDbPoint
 10
8775.039
 20
12677.9363
 30
0.0
  0
LINE
  5
19C
330
4FF
100
AcDbEntity
  8
YKK_N1
  6
ByBlock
100
AcDbLine
 10
8775.039
 20
12677.9363
 30
0.0
 11
8775.039
 21
12577.9363
 31
0.0
  0
LINE
  5
19D
330
4FF
100
AcDbEntity
  8
YKK_N1
  6
ByBlock
100
AcDbLine
 10
8825.039
 20
12591.33375962
 30
0.0
 11
8775.039
 21
12677.9363
 31
0.0
  0
TEXT
  5
19E
330
4FF
100
AcDbEntity
  8
0
100
AcDbText
 10
5650.039
 20
14937.9363
 30
0.0
 40
200.0
  1
結露排水弁・水切・アングル・膳板
  7
EXTFONT
100
AcDbText
  0
TEXT
  5
19F
330
4FF
100
AcDbEntity
  8
0
100
AcDbText
 10
5650.039
 20
15437.9363
 30
0.0
 40
200.0
  1
シルバー･ｶﾗｰ(ブロンズ､ステン､ブラック)
  7
EXTFONT
100
AcDbText
  0
TEXT
  5
1A0
330
4FF
100
AcDbEntity
  8
0
100
AcDbText
 10
5650.039
 20
15937.9363
 30
0.0
 40
200.0
  1
W＝1,000　H＝700  見込70
  7
EXTFONT
100
AcDbText
  0
TEXT
  5
1A1
330
4FF
100
AcDbEntity
  8
0
100
AcDbText
 10
5650.039
 20
14187.9363
 30
0.0
 40
200.0
  1
YKKAP　ＳＹＳＴＥＭＡ３１０同等品
  7
EXTFONT
100
AcDbText
  0
LINE
  5
1A2
330
4FF
100
AcDbEntity
  8
YKK_F1
  6
Continuous
100
AcDbLine
 10
5716.70566667
 20
13912.9363
 30
0.0
 11
6183.37233333
 21
13912.9363
 31
0.0
  0
TEXT
  5
1A3
330
4FF
100
AcDbEntity
  8
0
100
AcDbText
 10
5850.039
 20
13912.9363
 30
0.0
 40
200.0
  1
＊
  7
EXTFONT
100
AcDbText
  0
TEXT
  5
1A4
330
4FF
100
AcDbEntity
  8
0
100
AcDbText
 10
5650.039
 20
14437.9363
 30
0.0
 40
200.0
  1
＊
  7
EXTFONT
100
AcDbText
  0
TEXT
  5
1A5
330
4FF
100
AcDbEntity
  8
0
100
AcDbText
 10
5650.039
 20
15187.9363
 30
0.0
 40
200.0
  1
FL・透明
  7
EXTFONT
100
AcDbText
  0
TEXT
  5
1A6
330
4FF
100
AcDbEntity
  8
0
100
AcDbText
 10
5650.039
 20
14687.9363
 30
0.0
 40
200.0
  1
＊
  7
EXTFONT
100
AcDbText
  0
TEXT
  5
1A7
330
4FF
100
AcDbEntity
  8
0
100
AcDbText
 10
5650.039
 20
16187.9363
 30
0.0
 40
200.0
  1
はめ殺し窓
  7
EXTFONT
100
AcDbText
  0
TEXT
  5
1A8
330
4FF
100
AcDbEntity
  8
0
100
AcDbText
 10
5650.039
 20
15687.9363
 30
0.0
 40
200.0
  1
アルミ製
  7
EXTFONT
100
AcDbText
  0
TEXT
  5
1A9
330
4FF
100
AcDbEntity
  8
YKK_F1
100
AcDbText
 10
14320.039
 20
13687.9363
 30
0.0
 40
200.0
  1
箇所
  7
EXTFONT
100
AcDbText
  0
TEXT
  5
1AA
330
4FF
100
AcDbEntity
  8
0
100
AcDbText
 10
13900.039
 20
13687.9363
 30
0.0
 40
200.0
  1
＊
  7
EXTFONT
100
AcDbText
  0
CIRCLE
  5
1AB
330
4FF
100
AcDbEntity
  8
YKK_F1
100
AcDbCircle
 10
10600.039
 20
13912.9363
 30
0.0
 40
233.3333333333333
  0
TEXT
  5
1AC
330
4FF
100
AcDbEntity
  8
YKK_F1
100
AcDbText
 10
10440.039
 20
13712.9363
 30
0.0
 40
160.0
  1
ＡＷ
  7
EXTFONT
100
AcDbText
  0
INSERT
  5
1AD
330
4FF
100
AcDbEntity
  8
YKK_A2
100
AcDbBlockReference
  2
SGOP
 10
13125.039
 20
11677.9363
 30
0.0
  0
TEXT
  5
1BE
330
4FF
100
AcDbEntity
  8
YKK_A1
100
AcDbText
 10
12501.039
 20
12297.9363
 30
0.0
 40
60.0
  1
E
 41
0.8
  7
YKK_SGSTYLE1
 72
     1
 11
12525.039
 21
12327.9363
 31
0.0
100
AcDbText
 73
     2
  0
LINE
  5
1BF
330
4FF
100
AcDbEntity
  8
YKK_A1
100
AcDbLine
 10
13040.039
 20
12692.9363
 30
0.0
 11
12010.039
 21
12692.9363
 31
0.0
  0
LINE
  5
1C0
330
4FF
100
AcDbEntity
  8
YKK_A1
100
AcDbLine
 10
13025.039
 20
11877.9363
 30
0.0
 11
12025.039
 21
11877.9363
 31
0.0
  0
LINE
  5
1C1
330
4FF
100
AcDbEntity
  8
YKK_A1
100
AcDbLine
 10
13025.039
 20
11877.9363
 30
0.0
 11
12025.039
 21
11877.9363
 31
0.0
  0
LINE
  5
1C2
330
4FF
100
AcDbEntity
  8
YKK_A1
100
AcDbLine
 10
12025.039
 20
11877.9363
 30
0.0
 11
13025.039
 21
11877.9363
 31
0.0
  0
LINE
  5
1C3
330
4FF
100
AcDbEntity
  8
YKK_A1
100
AcDbLine
 10
13025.039
 20
11977.9363
 30
0.0
 11
12025.039
 21
11977.9363
 31
0.0
  0
LINE
  5
1C4
330
4FF
100
AcDbEntity
  8
YKK_A1
100
AcDbLine
 10
12025.039
 20
11977.9363
 30
0.0
 11
13025.039
 21
11977.9363
 31
0.0
  0
LINE
  5
1C5
330
4FF
100
AcDbEntity
  8
YKK_A1
100
AcDbLine
 10
13025.039
 20
12677.9363
 30
0.0
 11
12025.039
 21
12677.9363
 31
0.0
  0
LINE
  5
1C6
330
4FF
100
AcDbEntity
  8
YKK_A1
  6
CENTER
100
AcDbLine
 10
12525.039
 20
11977.9363
 30
0.0
 11
13025.039
 21
12677.9363
 31
0.0
  0
TEXT
  5
1C8
330
4FF
100
AcDbEntity
  8
YKK_N1
100
AcDbText
 10
12377.61042857
 20
10787.9363
 30
0.0
 40
60.0
  1
W=1000
 41
0.8
  7
YKK_SGSTYLE1
100
AcDbText
  0
LINE
  5
1C9
330
4FF
100
AcDbEntity
  8
YKK_N1
  6
ByBlock
100
AcDbLine
 10
12026.039
 20
10777.9363
 30
0.0
 11
13024.039
 21
10777.9363
 31
0.0
  0
LINE
  5
1CA
330
4FF
100
AcDbEntity
  8
YKK_A1
100
AcDbLine
 10
12010.039
 20
11177.9363
 30
0.0
 11
13040.039
 21
11177.9363
 31
0.0
  0
LINE
  5
1CB
330
4FF
100
AcDbEntity
  8
YKK_A1
100
AcDbLine
 10
12025.039
 20
11177.9363
 30
0.0
 11
13025.039
 21
11177.9363
 31
0.0
  0
LINE
  5
1CC
330
4FF
100
AcDbEntity
  8
YKK_A1
100
AcDbLine
 10
12025.039
 20
11177.9363
 30
0.0
 11
13025.039
 21
11177.9363
 31
0.0
  0
LINE
  5
1CD
330
4FF
100
AcDbEntity
  8
YKK_A1
  6
CENTER
100
AcDbLine
 10
12525.039
 20
11977.9363
 30
0.0
 11
12025.039
 21
12677.9363
 31
0.0
  0
LINE
  5
1CE
330
4FF
100
AcDbEntity
  8
YKK_A1
100
AcDbLine
 10
12025.039
 20
12677.9363
 30
0.0
 11
12025.039
 21
11977.9363
 31
0.0
  0
LINE
  5
1CF
330
4FF
100
AcDbEntity
  8
YKK_A1
100
AcDbLine
 10
12010.039
 20
12692.9363
 30
0.0
 11
12010.039
 21
11177.9363
 31
0.0
  0
LINE
  5
1D0
330
4FF
100
AcDbEntity
  8
YKK_A1
100
AcDbLine
 10
12025.039
 20
11877.9363
 30
0.0
 11
12025.039
 21
11177.9363
 31
0.0
  0
LINE
  5
1D1
330
4FF
100
AcDbEntity
  8
YKK_A1
100
AcDbLine
 10
12025.039
 20
11877.9363
 30
0.0
 11
12025.039
 21
11177.9363
 31
0.0
  0
LINE
  5
1D2
330
4FF
100
AcDbEntity
  8
YKK_N1
  6
ByBlock
100
AcDbLine
 10
12025.039
 20
11117.9363
 30
0.0
 11
12025.039
 21
10747.9363
 31
0.0
  0
LINE
  5
1D3
330
4FF
100
AcDbEntity
  8
YKK_N1
  6
ByBlock
100
AcDbLine
 10
12111.64154038
 20
10827.9363
 30
0.0
 11
12025.039
 21
10777.9363
 31
0.0
  0
LINE
  5
1D4
330
4FF
100
AcDbEntity
  8
YKK_N1
  6
ByBlock
100
AcDbLine
 10
12025.039
 20
10777.9363
 30
0.0
 11
12111.64154038
 21
10727.9363
 31
0.0
  0
LINE
  5
1D5
330
4FF
100
AcDbEntity
  8
YKK_N1
  6
ByBlock
100
AcDbLine
 10
12025.039
 20
10777.9363
 30
0.0
 11
12125.039
 21
10777.9363
 31
0.0
  0
LINE
  5
1D6
330
4FF
100
AcDbEntity
  8
YKK_N1
  6
ByBlock
100
AcDbLine
 10
12111.64154038
 20
10727.9363
 30
0.0
 11
12111.64154038
 21
10827.9363
 31
0.0
  0
LINE
  5
1D7
330
4FF
100
AcDbEntity
  8
YKK_A1
100
AcDbLine
 10
12025.039
 20
11977.9363
 30
0.0
 11
12025.039
 21
11877.9363
 31
0.0
  0
TEXT
  5
1D8
330
4FF
100
AcDbEntity
  8
0
100
AcDbText
 10
10300.039
 20
13437.9363
 30
0.0
 40
200.0
  1
＊
  7
EXTFONT
100
AcDbText
  0
LINE
  5
1D9
330
4FF
100
AcDbEntity
  8
YKK_A1
100
AcDbLine
 10
13025.039
 20
11977.9363
 30
0.0
 11
13025.039
 21
12677.9363
 31
0.0
  0
LINE
  5
1DA
330
4FF
100
AcDbEntity
  8
YKK_A1
100
AcDbLine
 10
13040.039
 20
11177.9363
 30
0.0
 11
13040.039
 21
12692.9363
 31
0.0
  0
LINE
  5
1DB
330
4FF
100
AcDbEntity
  8
YKK_A2
  6
HIDDEN
100
AcDbLine
 10
13125.039
 20
12657.9363
 30
0.0
 11
13125.039
 21
11727.9363
 31
0.0
  0
LINE
  5
1DD
330
4FF
100
AcDbEntity
  8
YKK_N1
  6
ByBlock
100
AcDbLine
 10
13425.039
 20
11178.9363
 30
0.0
 11
13425.039
 21
12676.9363
 31
0.0
  0
LINE
  5
1DE
330
4FF
100
AcDbEntity
  8
YKK_A1
100
AcDbLine
 10
13025.039
 20
11177.9363
 30
0.0
 11
13025.039
 21
11877.9363
 31
0.0
  0
LINE
  5
1DF
330
4FF
100
AcDbEntity
  8
YKK_A1
100
AcDbLine
 10
13025.039
 20
11177.9363
 30
0.0
 11
13025.039
 21
11877.9363
 31
0.0
  0
LINE
  5
1E0
330
4FF
100
AcDbEntity
  8
YKK_N1
  6
ByBlock
100
AcDbLine
 10
13085.039
 20
11177.9363
 30
0.0
 11
13455.039
 21
11177.9363
 31
0.0
  0
LINE
  5
1E1
330
4FF
100
AcDbEntity
  8
YKK_N1
  6
ByBlock
100
AcDbLine
 10
13025.039
 20
11117.9363
 30
0.0
 11
13025.039
 21
10747.9363
 31
0.0
  0
POINT
  5
1E2
330
4FF
100
AcDbEntity
  8
YKK_N1
  6
ByBlock
100
AcDbPoint
 10
13025.039
 20
10777.9363
 30
0.0
  0
LINE
  5
1E3
330
4FF
100
AcDbEntity
  8
YKK_N1
  6
ByBlock
100
AcDbLine
 10
12938.43645962
 20
10827.9363
 30
0.0
 11
12938.43645962
 21
10727.9363
 31
0.0
  0
LINE
  5
1E4
330
4FF
100
AcDbEntity
  8
YKK_N1
  6
ByBlock
100
AcDbLine
 10
12938.43645962
 20
10727.9363
 30
0.0
 11
13025.039
 21
10777.9363
 31
0.0
  0
LINE
  5
1E5
330
4FF
100
AcDbEntity
  8
YKK_N1
  6
ByBlock
100
AcDbLine
 10
13025.039
 20
10777.9363
 30
0.0
 11
12938.43645962
 21
10827.9363
 31
0.0
  0
LINE
  5
1E6
330
4FF
100
AcDbEntity
  8
YKK_N1
  6
ByBlock
100
AcDbLine
 10
13025.039
 20
10777.9363
 30
0.0
 11
12925.039
 21
10777.9363
 31
0.0
  0
TEXT
  5
1E7
330
4FF
100
AcDbEntity
  8
YKK_A1
100
AcDbText
 10
12956.18185714
 20
11207.9363
 30
0.0
 40
60.0
  1
F
 41
0.8
  7
YKK_SGSTYLE1
 72
     2
 11
12995.039
 21
11207.9363
 31
0.0
100
AcDbText
  0
LINE
  5
1E8
330
4FF
100
AcDbEntity
  8
YKK_N1
  6
ByBlock
100
AcDbLine
 10
13475.039
 20
11264.53884038
 30
0.0
 11
13375.039
 21
11264.53884038
 31
0.0
  0
LINE
  5
1E9
330
4FF
100
AcDbEntity
  8
YKK_N1
  6
ByBlock
100
AcDbLine
 10
13375.039
 20
11264.53884038
 30
0.0
 11
13425.039
 21
11177.9363
 31
0.0
  0
LINE
  5
1EA
330
4FF
100
AcDbEntity
  8
YKK_N1
  6
ByBlock
100
AcDbLine
 10
13425.039
 20
11177.9363
 30
0.0
 11
13425.039
 21
11277.9363
 31
0.0
  0
LINE
  5
1EB
330
4FF
100
AcDbEntity
  8
YKK_N1
  6
ByBlock
100
AcDbLine
 10
13425.039
 20
11177.9363
 30
0.0
 11
13475.039
 21
11264.53884038
 31
0.0
  0
LINE
  5
1EC
330
4FF
100
AcDbEntity
  8
YKK_A1
100
AcDbLine
 10
13025.039
 20
11877.9363
 30
0.0
 11
13025.039
 21
11977.9363
 31
0.0
  0
TEXT
  5
1ED
330
4FF
100
AcDbEntity
  8
YKK_N1
100
AcDbText
 10
13415.039
 20
11780.50772857
 30
0.0
 40
60.0
  1
H=1500
 50
90.0
 41
0.8
  7
YKK_SGSTYLE1
100
AcDbText
  0
TEXT
  5
1EE
330
4FF
100
AcDbEntity
  8
0
100
AcDbText
 10
13600.039
 20
13437.9363
 30
0.0
 40
200.0
  1
＊
  7
EXTFONT
100
AcDbText
  0
ARC
  5
1EF
330
4FF
100
AcDbEntity
  8
YKK_A2
  6
HIDDEN
100
AcDbCircle
 10
13105.039
 20
12657.9363
 30
0.0
 40
20.0
100
AcDbArc
 50
0.0
 51
90.0
  0
LINE
  5
1F0
330
4FF
100
AcDbEntity
  8
YKK_N1
  6
ByBlock
100
AcDbLine
 10
13085.039
 20
12677.9363
 30
0.0
 11
13455.039
 21
12677.9363
 31
0.0
  0
LINE
  5
1F1
330
4FF
100
AcDbEntity
  8
YKK_A2
  6
HIDDEN
100
AcDbLine
 10
13025.039
 20
12677.9363
 30
0.0
 11
13105.039
 21
12677.9363
 31
0.0
  0
LINE
  5
1F2
330
4FF
100
AcDbEntity
  8
YKK_N1
  6
ByBlock
100
AcDbLine
 10
13375.039
 20
12591.33375962
 30
0.0
 11
13475.039
 21
12591.33375962
 31
0.0
  0
LINE
  5
1F3
330
4FF
100
AcDbEntity
  8
YKK_N1
  6
ByBlock
100
AcDbLine
 10
13425.039
 20
12677.9363
 30
0.0
 11
13375.039
 21
12591.33375962
 31
0.0
  0
POINT
  5
1F4
330
4FF
100
AcDbEntity
  8
YKK_N1
  6
ByBlock
100
AcDbPoint
 10
13425.039
 20
12677.9363
 30
0.0
  0
LINE
  5
1F5
330
4FF
100
AcDbEntity
  8
YKK_N1
  6
ByBlock
100
AcDbLine
 10
13425.039
 20
12677.9363
 30
0.0
 11
13425.039
 21
12577.9363
 31
0.0
  0
LINE
  5
1F6
330
4FF
100
AcDbEntity
  8
YKK_N1
  6
ByBlock
100
AcDbLine
 10
13475.039
 20
12591.33375962
 30
0.0
 11
13425.039
 21
12677.9363
 31
0.0
  0
TEXT
  5
1F7
330
4FF
100
AcDbEntity
  8
0
100
AcDbText
 10
10300.039
 20
14937.9363
 30
0.0
 40
200.0
  1
結露排水弁・水切・アングル・膳板
  7
EXTFONT
100
AcDbText
  0
TEXT
  5
1F8
330
4FF
100
AcDbEntity
  8
0
100
AcDbText
 10
10300.039
 20
16187.9363
 30
0.0
 40
200.0
  1
はめ殺し窓、はめ殺し縦骨連窓
  7
EXTFONT
100
AcDbText
  0
TEXT
  5
1F9
330
4FF
100
AcDbEntity
  8
0
100
AcDbText
 10
10300.039
 20
15437.9363
 30
0.0
 40
200.0
  1
シルバー･ｶﾗｰ(ブロンズ､ステン､ブラック)
  7
EXTFONT
100
AcDbText
  0
TEXT
  5
1FA
330
4FF
100
AcDbEntity
  8
0
100
AcDbText
 10
10300.039
 20
15937.9363
 30
0.0
 40
200.0
  1
W＝2,085　H＝700  見込70
  7
EXTFONT
100
AcDbText
  0
TEXT
  5
1FB
330
4FF
100
AcDbEntity
  8
0
100
AcDbText
 10
10300.039
 20
14187.9363
 30
0.0
 40
200.0
  1
YKKAP　ＳＹＳＴＥＭＡ３１０同等品
  7
EXTFONT
100
AcDbText
  0
LINE
  5
1FC
330
4FF
100
AcDbEntity
  8
YKK_F1
  6
Continuous
100
AcDbLine
 10
10366.70566667
 20
13912.9363
 30
0.0
 11
10833.37233333
 21
13912.9363
 31
0.0
  0
TEXT
  5
1FD
330
4FF
100
AcDbEntity
  8
0
100
AcDbText
 10
10500.039
 20
13912.9363
 30
0.0
 40
200.0
  1
＊
  7
EXTFONT
100
AcDbText
  0
TEXT
  5
1FE
330
4FF
100
AcDbEntity
  8
0
100
AcDbText
 10
10300.039
 20
14437.9363
 30
0.0
 40
200.0
  1
＊
  7
EXTFONT
100
AcDbText
  0
TEXT
  5
1FF
330
4FF
100
AcDbEntity
  8
0
100
AcDbText
 10
10300.039
 20
15187.9363
 30
0.0
 40
200.0
  1
FL・透明
  7
EXTFONT
100
AcDbText
  0
TEXT
  5
200
330
4FF
100
AcDbEntity
  8
0
100
AcDbText
 10
10300.039
 20
14687.9363
 30
0.0
 40
200.0
  1
＊
  7
EXTFONT
100
AcDbText
  0
TEXT
  5
201
330
4FF
100
AcDbEntity
  8
0
100
AcDbText
 10
10300.039
 20
15687.9363
 30
0.0
 40
200.0
  1
アルミ製
  7
EXTFONT
100
AcDbText
  0
TEXT
  5
202
330
4FF
100
AcDbEntity
  8
YKK_N1
100
AcDbText
 10
7727.61042857
 20
17142.9363
 30
0.0
 40
60.0
  1
W=1000
 41
0.8
  7
YKK_SGSTYLE1
100
AcDbText
  0
LINE
  5
203
330
4FF
100
AcDbEntity
  8
YKK_N1
  6
ByBlock
100
AcDbLine
 10
7376.039
 20
17132.9363
 30
0.0
 11
8374.039
 21
17132.9363
 31
0.0
  0
LINE
  5
204
330
4FF
100
AcDbEntity
  8
YKK_A1
100
AcDbLine
 10
7360.039
 20
17532.9363
 30
0.0
 11
8390.039
 21
17532.9363
 31
0.0
  0
LINE
  5
205
330
4FF
100
AcDbEntity
  8
YKK_A1
100
AcDbLine
 10
8390.039
 20
18247.9363
 30
0.0
 11
7360.039
 21
18247.9363
 31
0.0
  0
LINE
  5
206
330
4FF
100
AcDbEntity
  8
YKK_A1
100
AcDbLine
 10
7375.039
 20
17532.9363
 30
0.0
 11
8375.039
 21
17532.9363
 31
0.0
  0
LINE
  5
207
330
4FF
100
AcDbEntity
  8
YKK_A1
100
AcDbLine
 10
8375.039
 20
18232.9363
 30
0.0
 11
7375.039
 21
18232.9363
 31
0.0
  0
LINE
  5
208
330
4FF
100
AcDbEntity
  8
YKK_A1
100
AcDbLine
 10
7375.039
 20
17532.9363
 30
0.0
 11
8375.039
 21
17532.9363
 31
0.0
  0
LINE
  5
209
330
4FF
100
AcDbEntity
  8
YKK_A1
100
AcDbLine
 10
8375.039
 20
18232.9363
 30
0.0
 11
7375.039
 21
18232.9363
 31
0.0
  0
LINE
  5
20A
330
4FF
100
AcDbEntity
  8
YKK_A1
100
AcDbLine
 10
7375.039
 20
18232.9363
 30
0.0
 11
7375.039
 21
17532.9363
 31
0.0
  0
LINE
  5
20B
330
4FF
100
AcDbEntity
  8
YKK_A1
100
AcDbLine
 10
7375.039
 20
18232.9363
 30
0.0
 11
7375.039
 21
17532.9363
 31
0.0
  0
LINE
  5
20C
330
4FF
100
AcDbEntity
  8
YKK_A1
100
AcDbLine
 10
7360.039
 20
18247.9363
 30
0.0
 11
7360.039
 21
17532.9363
 31
0.0
  0
LINE
  5
20D
330
4FF
100
AcDbEntity
  8
YKK_N1
  6
ByBlock
100
AcDbLine
 10
7375.039
 20
17472.9363
 30
0.0
 11
7375.039
 21
17102.9363
 31
0.0
  0
LINE
  5
20E
330
4FF
100
AcDbEntity
  8
YKK_N1
  6
ByBlock
100
AcDbLine
 10
7461.64154038
 20
17082.9363
 30
0.0
 11
7461.64154038
 21
17182.9363
 31
0.0
  0
LINE
  5
20F
330
4FF
100
AcDbEntity
  8
YKK_N1
  6
ByBlock
100
AcDbLine
 10
7461.64154038
 20
17182.9363
 30
0.0
 11
7375.039
 21
17132.9363
 31
0.0
  0
LINE
  5
210
330
4FF
100
AcDbEntity
  8
YKK_N1
  6
ByBlock
100
AcDbLine
 10
7375.039
 20
17132.9363
 30
0.0
 11
7461.64154038
 21
17082.9363
 31
0.0
  0
LINE
  5
211
330
4FF
100
AcDbEntity
  8
YKK_N1
  6
ByBlock
100
AcDbLine
 10
7375.039
 20
17132.9363
 30
0.0
 11
7475.039
 21
17132.9363
 31
0.0
  0
TEXT
  5
212
330
4FF
100
AcDbEntity
  8
0
100
AcDbText
 10
5650.039
 20
19392.9363
 30
0.0
 40
200.0
  1
＊
  7
EXTFONT
100
AcDbText
  0
CIRCLE
  5
213
330
4FF
100
AcDbEntity
  8
YKK_F1
100
AcDbCircle
 10
5950.039
 20
19867.9363
 30
0.0
 40
233.3333333333333
  0
LINE
  5
214
330
4FF
100
AcDbEntity
  8
YKK_F1
  6
Continuous
100
AcDbLine
 10
5716.70566667
 20
19867.9363
 30
0.0
 11
6183.37233333
 21
19867.9363
 31
0.0
  0
TEXT
  5
215
330
4FF
100
AcDbEntity
  8
0
100
AcDbText
 10
5850.039
 20
19867.9363
 30
0.0
 40
200.0
  1
＊
  7
EXTFONT
100
AcDbText
  0
TEXT
  5
216
330
4FF
100
AcDbEntity
  8
YKK_F1
100
AcDbText
 10
5790.039
 20
19667.9363
 30
0.0
 40
160.0
  1
ＡＷ
  7
EXTFONT
100
AcDbText
  0
LINE
  5
217
330
4FF
100
AcDbEntity
  8
YKK_A1
100
AcDbLine
 10
8375.039
 20
17532.9363
 30
0.0
 11
8375.039
 21
18232.9363
 31
0.0
  0
LINE
  5
218
330
4FF
100
AcDbEntity
  8
YKK_A1
100
AcDbLine
 10
8375.039
 20
17532.9363
 30
0.0
 11
8375.039
 21
18232.9363
 31
0.0
  0
TEXT
  5
219
330
4FF
100
AcDbEntity
  8
YKK_N1
100
AcDbText
 10
8765.039
 20
17758.36487143
 30
0.0
 40
60.0
  1
H=700
 50
90.0
 41
0.8
  7
YKK_SGSTYLE1
100
AcDbText
  0
LINE
  5
21A
330
4FF
100
AcDbEntity
  8
YKK_N1
  6
ByBlock
100
AcDbLine
 10
8775.039
 20
17533.9363
 30
0.0
 11
8775.039
 21
18231.9363
 31
0.0
  0
LINE
  5
21B
330
4FF
100
AcDbEntity
  8
YKK_A1
100
AcDbLine
 10
8390.039
 20
17532.9363
 30
0.0
 11
8390.039
 21
18247.9363
 31
0.0
  0
LINE
  5
21C
330
4FF
100
AcDbEntity
  8
YKK_N1
  6
ByBlock
100
AcDbLine
 10
8435.039
 20
17532.9363
 30
0.0
 11
8805.039
 21
17532.9363
 31
0.0
  0
LINE
  5
21D
330
4FF
100
AcDbEntity
  8
YKK_N1
  6
ByBlock
100
AcDbLine
 10
8375.039
 20
17472.9363
 30
0.0
 11
8375.039
 21
17102.9363
 31
0.0
  0
LINE
  5
21E
330
4FF
100
AcDbEntity
  8
YKK_N1
  6
ByBlock
100
AcDbLine
 10
8288.43645962
 20
17082.9363
 30
0.0
 11
8375.039
 21
17132.9363
 31
0.0
  0
LINE
  5
21F
330
4FF
100
AcDbEntity
  8
YKK_N1
  6
ByBlock
100
AcDbLine
 10
8375.039
 20
17132.9363
 30
0.0
 11
8288.43645962
 21
17182.9363
 31
0.0
  0
LINE
  5
220
330
4FF
100
AcDbEntity
  8
YKK_N1
  6
ByBlock
100
AcDbLine
 10
8375.039
 20
17132.9363
 30
0.0
 11
8275.039
 21
17132.9363
 31
0.0
  0
LINE
  5
221
330
4FF
100
AcDbEntity
  8
YKK_N1
  6
ByBlock
100
AcDbLine
 10
8288.43645962
 20
17182.9363
 30
0.0
 11
8288.43645962
 21
17082.9363
 31
0.0
  0
POINT
  5
222
330
4FF
100
AcDbEntity
  8
YKK_N1
  6
ByBlock
100
AcDbPoint
 10
8375.039
 20
17132.9363
 30
0.0
  0
TEXT
  5
223
330
4FF
100
AcDbEntity
  8
YKK_A1
100
AcDbText
 10
8306.18185714
 20
17562.9363
 30
0.0
 40
60.0
  1
F
 41
0.8
  7
YKK_SGSTYLE1
 72
     2
 11
8345.039
 21
17562.9363
 31
0.0
100
AcDbText
  0
LINE
  5
224
330
4FF
100
AcDbEntity
  8
YKK_N1
  6
ByBlock
100
AcDbLine
 10
8725.039
 20
17619.53884038
 30
0.0
 11
8775.039
 21
17532.9363
 31
0.0
  0
LINE
  5
225
330
4FF
100
AcDbEntity
  8
YKK_N1
  6
ByBlock
100
AcDbLine
 10
8825.039
 20
17619.53884038
 30
0.0
 11
8725.039
 21
17619.53884038
 31
0.0
  0
LINE
  5
226
330
4FF
100
AcDbEntity
  8
YKK_N1
  6
ByBlock
100
AcDbLine
 10
8775.039
 20
17532.9363
 30
0.0
 11
8825.039
 21
17619.53884038
 31
0.0
  0
LINE
  5
227
330
4FF
100
AcDbEntity
  8
YKK_N1
  6
ByBlock
100
AcDbLine
 10
8775.039
 20
17532.9363
 30
0.0
 11
8775.039
 21
17632.9363
 31
0.0
  0
LINE
  5
228
330
4FF
100
AcDbEntity
  8
YKK_N1
  6
ByBlock
100
AcDbLine
 10
8435.039
 20
18232.9363
 30
0.0
 11
8805.039
 21
18232.9363
 31
0.0
  0
LINE
  5
229
330
4FF
100
AcDbEntity
  8
YKK_N1
  6
ByBlock
100
AcDbLine
 10
8725.039
 20
18146.33375962
 30
0.0
 11
8825.039
 21
18146.33375962
 31
0.0
  0
LINE
  5
22A
330
4FF
100
AcDbEntity
  8
YKK_N1
  6
ByBlock
100
AcDbLine
 10
8775.039
 20
18232.9363
 30
0.0
 11
8725.039
 21
18146.33375962
 31
0.0
  0
LINE
  5
22B
330
4FF
100
AcDbEntity
  8
YKK_N1
  6
ByBlock
100
AcDbLine
 10
8825.039
 20
18146.33375962
 30
0.0
 11
8775.039
 21
18232.9363
 31
0.0
  0
LINE
  5
22C
330
4FF
100
AcDbEntity
  8
YKK_N1
  6
ByBlock
100
AcDbLine
 10
8775.039
 20
18232.9363
 30
0.0
 11
8775.039
 21
18132.9363
 31
0.0
  0
POINT
  5
22D
330
4FF
100
AcDbEntity
  8
YKK_N1
  6
ByBlock
100
AcDbPoint
 10
8775.039
 20
18232.9363
 30
0.0
  0
TEXT
  5
22E
330
4FF
100
AcDbEntity
  8
0
100
AcDbText
 10
8950.039
 20
19392.9363
 30
0.0
 40
200.0
  1
＊
  7
EXTFONT
100
AcDbText
  0
TEXT
  5
22F
330
4FF
100
AcDbEntity
  8
0
100
AcDbText
 10
9250.039
 20
19642.9363
 30
0.0
 40
200.0
  1
＊
  7
EXTFONT
100
AcDbText
  0
TEXT
  5
230
330
4FF
100
AcDbEntity
  8
YKK_F1
100
AcDbText
 10
9670.039
 20
19642.9363
 30
0.0
 40
200.0
  1
箇所
  7
EXTFONT
100
AcDbText
  0
LINE
  5
231
330
4FF
100
AcDbEntity
  8
YKK_A1
100
AcDbLine
 10
12567.539
 20
18232.9363
 30
0.0
 11
12482.539
 21
18232.9363
 31
0.0
  0
LINE
  5
232
330
4FF
100
AcDbEntity
  8
YKK_A1
100
AcDbLine
 10
12482.539
 20
17532.9363
 30
0.0
 11
12567.539
 21
17532.9363
 31
0.0
  0
TEXT
  5
233
330
4FF
100
AcDbEntity
  8
YKK_N1
100
AcDbText
 10
12377.61042857
 20
17142.9363
 30
0.0
 40
60.0
  1
W=2085
 41
0.8
  7
YKK_SGSTYLE1
100
AcDbText
  0
LINE
  5
234
330
4FF
100
AcDbEntity
  8
YKK_A1
100
AcDbLine
 10
11467.539
 20
17532.9363
 30
0.0
 11
13582.539
 21
17532.9363
 31
0.0
  0
LINE
  5
235
330
4FF
100
AcDbEntity
  8
YKK_A1
100
AcDbLine
 10
13582.539
 20
18247.9363
 30
0.0
 11
11467.539
 21
18247.9363
 31
0.0
  0
LINE
  5
236
330
4FF
100
AcDbEntity
  8
YKK_N1
  6
ByBlock
100
AcDbLine
 10
11483.539
 20
17132.9363
 30
0.0
 11
13566.539
 21
17132.9363
 31
0.0
  0
LINE
  5
237
330
4FF
100
AcDbEntity
  8
YKK_A1
100
AcDbLine
 10
12482.539
 20
17532.9363
 30
0.0
 11
12482.539
 21
18232.9363
 31
0.0
  0
LINE
  5
238
330
4FF
100
AcDbEntity
  8
YKK_A1
100
AcDbLine
 10
12482.539
 20
17532.9363
 30
0.0
 11
12482.539
 21
18232.9363
 31
0.0
  0
LINE
  5
239
330
4FF
100
AcDbEntity
  8
YKK_A1
100
AcDbLine
 10
12482.539
 20
18232.9363
 30
0.0
 11
12482.539
 21
17532.9363
 31
0.0
  0
LINE
  5
23A
330
4FF
100
AcDbEntity
  8
YKK_A1
100
AcDbLine
 10
11482.539
 20
18232.9363
 30
0.0
 11
11482.539
 21
17532.9363
 31
0.0
  0
LINE
  5
23B
330
4FF
100
AcDbEntity
  8
YKK_A1
100
AcDbLine
 10
11482.539
 20
18232.9363
 30
0.0
 11
11482.539
 21
17532.9363
 31
0.0
  0
LINE
  5
23C
330
4FF
100
AcDbEntity
  8
YKK_A1
100
AcDbLine
 10
11467.539
 20
18247.9363
 30
0.0
 11
11467.539
 21
17532.9363
 31
0.0
  0
LINE
  5
23D
330
4FF
100
AcDbEntity
  8
YKK_A1
100
AcDbLine
 10
11482.539
 20
17532.9363
 30
0.0
 11
12482.539
 21
17532.9363
 31
0.0
  0
LINE
  5
23E
330
4FF
100
AcDbEntity
  8
YKK_A1
100
AcDbLine
 10
11482.539
 20
17532.9363
 30
0.0
 11
12482.539
 21
17532.9363
 31
0.0
  0
LINE
  5
23F
330
4FF
100
AcDbEntity
  8
YKK_N1
  6
ByBlock
100
AcDbLine
 10
11482.539
 20
17472.9363
 30
0.0
 11
11482.539
 21
17102.9363
 31
0.0
  0
LINE
  5
240
330
4FF
100
AcDbEntity
  8
YKK_N1
  6
ByBlock
100
AcDbLine
 10
11569.14154038
 20
17082.9363
 30
0.0
 11
11569.14154038
 21
17182.9363
 31
0.0
  0
LINE
  5
241
330
4FF
100
AcDbEntity
  8
YKK_N1
  6
ByBlock
100
AcDbLine
 10
11482.539
 20
17132.9363
 30
0.0
 11
11582.539
 21
17132.9363
 31
0.0
  0
LINE
  5
242
330
4FF
100
AcDbEntity
  8
YKK_N1
  6
ByBlock
100
AcDbLine
 10
11482.539
 20
17132.9363
 30
0.0
 11
11569.14154038
 21
17082.9363
 31
0.0
  0
LINE
  5
243
330
4FF
100
AcDbEntity
  8
YKK_N1
  6
ByBlock
100
AcDbLine
 10
11569.14154038
 20
17182.9363
 30
0.0
 11
11482.539
 21
17132.9363
 31
0.0
  0
TEXT
  5
244
330
4FF
100
AcDbEntity
  8
YKK_A1
100
AcDbText
 10
12413.68185714
 20
17562.9363
 30
0.0
 40
60.0
  1
F
 41
0.8
  7
YKK_SGSTYLE1
 72
     2
 11
12452.539
 21
17562.9363
 31
0.0
100
AcDbText
  0
LINE
  5
245
330
4FF
100
AcDbEntity
  8
YKK_A1
100
AcDbLine
 10
12482.539
 20
18232.9363
 30
0.0
 11
11482.539
 21
18232.9363
 31
0.0
  0
LINE
  5
246
330
4FF
100
AcDbEntity
  8
YKK_A1
100
AcDbLine
 10
12482.539
 20
18232.9363
 30
0.0
 11
11482.539
 21
18232.9363
 31
0.0
  0
TEXT
  5
247
330
4FF
100
AcDbEntity
  8
0
100
AcDbText
 10
10300.039
 20
19392.9363
 30
0.0
 40
200.0
  1
＊
  7
EXTFONT
100
AcDbText
  0
LINE
  5
248
330
4FF
100
AcDbEntity
  8
YKK_F1
  6
Continuous
100
AcDbLine
 10
10366.70566667
 20
19867.9363
 30
0.0
 11
10833.37233333
 21
19867.9363
 31
0.0
  0
CIRCLE
  5
249
330
4FF
100
AcDbEntity
  8
YKK_F1
100
AcDbCircle
 10
10600.039
 20
19867.9363
 30
0.0
 40
233.3333333333333
  0
TEXT
  5
24A
330
4FF
100
AcDbEntity
  8
0
100
AcDbText
 10
10500.039
 20
19867.9363
 30
0.0
 40
200.0
  1
＊
  7
EXTFONT
100
AcDbText
  0
TEXT
  5
24B
330
4FF
100
AcDbEntity
  8
YKK_F1
100
AcDbText
 10
10440.039
 20
19667.9363
 30
0.0
 40
160.0
  1
ＡＷ
  7
EXTFONT
100
AcDbText
  0
LINE
  5
24C
330
4FF
100
AcDbEntity
  8
YKK_N1
  6
ByBlock
100
AcDbLine
 10
13627.539
 20
18232.9363
 30
0.0
 11
13997.539
 21
18232.9363
 31
0.0
  0
LINE
  5
24D
330
4FF
100
AcDbEntity
  8
YKK_N1
  6
ByBlock
100
AcDbLine
 10
13627.539
 20
17532.9363
 30
0.0
 11
13997.539
 21
17532.9363
 31
0.0
  0
LINE
  5
24E
330
4FF
100
AcDbEntity
  8
YKK_A1
100
AcDbLine
 10
13567.539
 20
17532.9363
 30
0.0
 11
13567.539
 21
18232.9363
 31
0.0
  0
LINE
  5
24F
330
4FF
100
AcDbEntity
  8
YKK_A1
100
AcDbLine
 10
13567.539
 20
17532.9363
 30
0.0
 11
13567.539
 21
18232.9363
 31
0.0
  0
LINE
  5
250
330
4FF
100
AcDbEntity
  8
YKK_A1
100
AcDbLine
 10
12567.539
 20
17532.9363
 30
0.0
 11
12567.539
 21
18232.9363
 31
0.0
  0
LINE
  5
251
330
4FF
100
AcDbEntity
  8
YKK_A1
100
AcDbLine
 10
12567.539
 20
18232.9363
 30
0.0
 11
12567.539
 21
17532.9363
 31
0.0
  0
LINE
  5
252
330
4FF
100
AcDbEntity
  8
YKK_A1
100
AcDbLine
 10
12567.539
 20
18232.9363
 30
0.0
 11
12567.539
 21
17532.9363
 31
0.0
  0
LINE
  5
253
330
4FF
100
AcDbEntity
  8
YKK_A1
100
AcDbLine
 10
13582.539
 20
17532.9363
 30
0.0
 11
13582.539
 21
18247.9363
 31
0.0
  0
LINE
  5
254
330
4FF
100
AcDbEntity
  8
YKK_A1
100
AcDbLine
 10
12567.539
 20
17532.9363
 30
0.0
 11
13567.539
 21
17532.9363
 31
0.0
  0
LINE
  5
255
330
4FF
100
AcDbEntity
  8
YKK_A1
100
AcDbLine
 10
12567.539
 20
17532.9363
 30
0.0
 11
13567.539
 21
17532.9363
 31
0.0
  0
LINE
  5
256
330
4FF
100
AcDbEntity
  8
YKK_N1
  6
ByBlock
100
AcDbLine
 10
13567.539
 20
17472.9363
 30
0.0
 11
13567.539
 21
17102.9363
 31
0.0
  0
POINT
  5
257
330
4FF
100
AcDbEntity
  8
YKK_N1
  6
ByBlock
100
AcDbPoint
 10
13567.539
 20
17132.9363
 30
0.0
  0
LINE
  5
258
330
4FF
100
AcDbEntity
  8
YKK_N1
  6
ByBlock
100
AcDbLine
 10
13567.539
 20
17132.9363
 30
0.0
 11
13467.539
 21
17132.9363
 31
0.0
  0
LINE
  5
259
330
4FF
100
AcDbEntity
  8
YKK_N1
  6
ByBlock
100
AcDbLine
 10
13567.539
 20
17132.9363
 30
0.0
 11
13480.93645962
 21
17182.9363
 31
0.0
  0
LINE
  5
25A
330
4FF
100
AcDbEntity
  8
YKK_N1
  6
ByBlock
100
AcDbLine
 10
13480.93645962
 20
17182.9363
 30
0.0
 11
13480.93645962
 21
17082.9363
 31
0.0
  0
LINE
  5
25B
330
4FF
100
AcDbEntity
  8
YKK_N1
  6
ByBlock
100
AcDbLine
 10
13480.93645962
 20
17082.9363
 30
0.0
 11
13567.539
 21
17132.9363
 31
0.0
  0
TEXT
  5
25C
330
4FF
100
AcDbEntity
  8
YKK_A1
100
AcDbText
 10
13498.68185714
 20
17562.9363
 30
0.0
 40
60.0
  1
F
 41
0.8
  7
YKK_SGSTYLE1
 72
     2
 11
13537.539
 21
17562.9363
 31
0.0
100
AcDbText
  0
LINE
  5
25D
330
4FF
100
AcDbEntity
  8
YKK_A1
100
AcDbLine
 10
13567.539
 20
18232.9363
 30
0.0
 11
12567.539
 21
18232.9363
 31
0.0
  0
LINE
  5
25E
330
4FF
100
AcDbEntity
  8
YKK_A1
100
AcDbLine
 10
13567.539
 20
18232.9363
 30
0.0
 11
12567.539
 21
18232.9363
 31
0.0
  0
TEXT
  5
25F
330
4FF
100
AcDbEntity
  8
YKK_N1
100
AcDbText
 10
13957.539
 20
17758.36487143
 30
0.0
 40
60.0
  1
H=700
 50
90.0
 41
0.8
  7
YKK_SGSTYLE1
100
AcDbText
  0
LINE
  5
260
330
4FF
100
AcDbEntity
  8
YKK_N1
  6
ByBlock
100
AcDbLine
 10
13967.539
 20
17533.9363
 30
0.0
 11
13967.539
 21
18231.9363
 31
0.0
  0
LINE
  5
261
330
4FF
100
AcDbEntity
  8
YKK_N1
  6
ByBlock
100
AcDbLine
 10
14017.539
 20
17619.53884038
 30
0.0
 11
13917.539
 21
17619.53884038
 31
0.0
  0
LINE
  5
262
330
4FF
100
AcDbEntity
  8
YKK_N1
  6
ByBlock
100
AcDbLine
 10
13967.539
 20
17532.9363
 30
0.0
 11
14017.539
 21
17619.53884038
 31
0.0
  0
LINE
  5
263
330
4FF
100
AcDbEntity
  8
YKK_N1
  6
ByBlock
100
AcDbLine
 10
13917.539
 20
17619.53884038
 30
0.0
 11
13967.539
 21
17532.9363
 31
0.0
  0
LINE
  5
264
330
4FF
100
AcDbEntity
  8
YKK_N1
  6
ByBlock
100
AcDbLine
 10
13967.539
 20
17532.9363
 30
0.0
 11
13967.539
 21
17632.9363
 31
0.0
  0
LINE
  5
265
330
4FF
100
AcDbEntity
  8
YKK_N1
  6
ByBlock
100
AcDbLine
 10
14017.539
 20
18146.33375962
 30
0.0
 11
13967.539
 21
18232.9363
 31
0.0
  0
LINE
  5
266
330
4FF
100
AcDbEntity
  8
YKK_N1
  6
ByBlock
100
AcDbLine
 10
13917.539
 20
18146.33375962
 30
0.0
 11
14017.539
 21
18146.33375962
 31
0.0
  0
LINE
  5
267
330
4FF
100
AcDbEntity
  8
YKK_N1
  6
ByBlock
100
AcDbLine
 10
13967.539
 20
18232.9363
 30
0.0
 11
13917.539
 21
18146.33375962
 31
0.0
  0
LINE
  5
268
330
4FF
100
AcDbEntity
  8
YKK_N1
  6
ByBlock
100
AcDbLine
 10
13967.539
 20
18232.9363
 30
0.0
 11
13967.539
 21
18132.9363
 31
0.0
  0
POINT
  5
269
330
4FF
100
AcDbEntity
  8
YKK_N1
  6
ByBlock
100
AcDbPoint
 10
13967.539
 20
18232.9363
 30
0.0
  0
TEXT
  5
26A
330
4FF
100
AcDbEntity
  8
0
100
AcDbText
 10
13600.039
 20
19392.9363
 30
0.0
 40
200.0
  1
＊
  7
EXTFONT
100
AcDbText
  0
TEXT
  5
26B
330
4FF
100
AcDbEntity
  8
0
100
AcDbText
 10
13900.039
 20
19642.9363
 30
0.0
 40
200.0
  1
＊
  7
EXTFONT
100
AcDbText
  0
TEXT
  5
26C
330
4FF
100
AcDbEntity
  8
YKK_F1
100
AcDbText
 10
14320.039
 20
19642.9363
 30
0.0
 40
200.0
  1
箇所
  7
EXTFONT
100
AcDbText
  0
LINE
  5
26D
330
4FF
100
AcDbEntity
  8
YKK_F1
  6
Continuous
100
AcDbLine
 10
28990.039
 20
700.94001
 30
0.0
 11
28990.039
 21
20287.219
 31
0.0
  0
LINE
  5
26E
330
4FF
100
AcDbEntity
  8
YKK_F1
  6
Continuous
100
AcDbLine
 10
29027.821
 20
662.59406
 30
0.0
 11
29027.821
 21
20325.566
 31
0.0
  0
LINE
  5
26F
330
4FF
100
AcDbEntity
  8
YKK_F1
  6
Continuous
100
AcDbLine
 10
29015.417
 20
675.00009
 30
0.0
 11
29015.417
 21
20312.594
 31
0.0
  0
LINE
  5
270
330
4FF
100
AcDbEntity
  8
YKK_F1
  6
Continuous
100
AcDbLine
 10
29002.445
 20
687.97002
 30
0.0
 11
29002.445
 21
20299.624
 31
0.0
  0
LINE
  5
271
330
4FF
100
AcDbEntity
  8
YKK_F1
  6
Continuous
100
AcDbLine
 10
29040.229
 20
650.18799
 30
0.0
 11
29040.229
 21
20337.97
 31
0.0
  0
LINE
  5
272
330
4FF
100
AcDbEntity
  8
YKK_F1
  6
Continuous
100
AcDbLine
 10
29190.79
 20
500.75202
 30
0.0
 11
29190.79
 21
20487.406
 31
0.0
  0
LINE
  5
273
330
4FF
100
AcDbEntity
  8
YKK_F1
  6
Continuous
100
AcDbLine
 10
28800.039
 20
2252.9363
 30
0.0
 11
28800.039
 21
20117.9363
 31
0.0
  0
LINE
  5
274
330
4FF
100
AcDbEntity
  8
YKK_F1
  6
Continuous
100
AcDbLine
 10
24150.039
 20
2252.9363
 30
0.0
 11
24150.039
 21
20117.9363
 31
0.0
  0
LINE
  5
275
330
4FF
100
AcDbEntity
  8
YKK_F1
  6
Continuous
100
AcDbLine
 10
19500.039
 20
2252.9363
 30
0.0
 11
19500.039
 21
20117.9363
 31
0.0
  0
LINE
  5
276
330
4FF
100
AcDbEntity
  8
YKK_F1
  6
Continuous
100
AcDbLine
 10
14850.039
 20
2252.9363
 30
0.0
 11
14850.039
 21
20117.9363
 31
0.0
  0
LINE
  5
277
330
4FF
100
AcDbEntity
  8
YKK_F1
100
AcDbLine
 10
29700.0
 20
0.0
 30
0.0
 11
29700.0
 21
21000.0
 31
0.0
  0
INSERT
  5
278
330
4FF
100
AcDbEntity
  8
YKK_A2
100
AcDbBlockReference
  2
SGHA31
 10
17175.039
 20
5222.9363
 30
0.0
  0
LINE
  5
29C
330
4FF
100
AcDbEntity
  8
YKK_F1
  6
Continuous
100
AcDbLine
 10
21494.55
 20
1450.376
 30
0.0
 11
27990.79
 21
1450.376
 31
0.0
  0
TEXT
  5
29D
330
4FF
100
AcDbEntity
  8
YKK_F1
100
AcDbText
 10
23686.75533333
 20
1600.376
 30
0.0
 40
200.0
  1
(仮称)○\U+00D7ビル新築工事
  7
EXTFONT
 72
     4
 11
24993.422
 21
1700.376
 31
0.0
100
AcDbText
  0
TEXT
  5
29E
330
4FF
100
AcDbEntity
  8
YKK_F1
100
AcDbText
 10
23900.08866667
 20
975.376
 30
0.0
 40
200.0
  1
建具表－（ＢＲＳ３ＰＪ５１）
  7
EXTFONT
 72
     4
 11
25493.422
 21
1075.376
 31
0.0
100
AcDbText
  0
TEXT
  5
29F
330
4FF
100
AcDbEntity
  8
0
100
AcDbText
 10
19600.039
 20
3777.9363
 30
0.0
 40
200.0
  1
アルミ製
  7
EXTFONT
100
AcDbText
  0
TEXT
  5
2A0
330
4FF
100
AcDbEntity
  8
0
100
AcDbText
 10
14950.039
 20
3777.9363
 30
0.0
 40
200.0
  1
アルミ製
  7
EXTFONT
100
AcDbText
  0
LINE
  5
2A1
330
4FF
100
AcDbEntity
  8
YKK_F1
  6
Continuous
100
AcDbLine
 10
21494.55
 20
1200.5641
 30
0.0
 11
18496.807
 21
1200.5641
 31
0.0
  0
LINE
  5
2A2
330
4FF
100
AcDbEntity
  8
YKK_F1
  6
Continuous
100
AcDbLine
 10
18496.807
 20
1949.4363
 30
0.0
 11
18496.807
 21
650.18799
 31
0.0
  0
TEXT
  5
2A3
330
4FF
100
AcDbEntity
  8
0
100
AcDbText
 10
14950.039
 20
2527.9363
 30
0.0
 40
180.0
  1
辷り出しアーム・障子コーナー保護キャップ
  7
EXTFONT
100
AcDbText
  0
TEXT
  5
2A4
330
4FF
100
AcDbEntity
  8
0
100
AcDbText
 10
14950.039
 20
2777.9363
 30
0.0
 40
200.0
  1
標準ハンドル・ハンドルスペーサー
  7
EXTFONT
100
AcDbText
  0
TEXT
  5
2A5
330
4FF
100
AcDbEntity
  8
0
100
AcDbText
 10
14950.039
 20
3027.9363
 30
0.0
 40
200.0
  1
結露排水弁・水切・アングル・膳板
  7
EXTFONT
100
AcDbText
  0
TEXT
  5
2A6
330
4FF
100
AcDbEntity
  8
0
100
AcDbText
 10
14950.039
 20
3527.9363
 30
0.0
 40
200.0
  1
シルバー･ｶﾗｰ(ブロンズ､ステン､ブラック)
  7
EXTFONT
100
AcDbText
  0
TEXT
  5
2A7
330
4FF
100
AcDbEntity
  8
0
100
AcDbText
 10
14950.039
 20
2277.9363
 30
0.0
 40
200.0
  1
YKKAP　ＳＹＳＴＥＭＡ３１０同等品
  7
EXTFONT
100
AcDbText
  0
TEXT
  5
2A8
330
4FF
100
AcDbEntity
  8
0
100
AcDbText
 10
14950.039
 20
3277.9363
 30
0.0
 40
200.0
  1
FL・透明
  7
EXTFONT
100
AcDbText
  0
TEXT
  5
2A9
330
4FF
100
AcDbEntity
  8
YKK_F1
100
AcDbText
 10
18546.807
 20
1067.4437
 30
0.0
 40
100.0
  1
担当者
  7
EXTFONT
100
AcDbText
  0
TEXT
  5
2AA
330
4FF
100
AcDbEntity
  8
YKK_F1
100
AcDbText
 10
18546.807
 20
1816.3159
 30
0.0
 40
100.0
  1
管理建築士
  7
EXTFONT
100
AcDbText
  0
LINE
  5
2AB
330
4FF
100
AcDbEntity
  8
YKK_F1
  6
Continuous
100
AcDbLine
 10
22993.422
 20
1949.4363
 30
0.0
 11
22993.422
 21
650.18799
 31
0.0
  0
LINE
  5
2AC
330
4FF
100
AcDbEntity
  8
YKK_F1
  6
Continuous
100
AcDbLine
 10
21494.55
 20
1949.4363
 30
0.0
 11
21494.55
 21
650.18799
 31
0.0
  0
TEXT
  5
2AD
330
4FF
100
AcDbEntity
  8
0
100
AcDbText
 10
19600.039
 20
2777.9363
 30
0.0
 40
200.0
  1
標準ハンドル・セーフティストッパー
  7
EXTFONT
100
AcDbText
  0
TEXT
  5
2AE
330
4FF
100
AcDbEntity
  8
0
100
AcDbText
 10
19600.039
 20
2527.9363
 30
0.0
 40
180.0
  1
縦辷り出しアーム・障子コーナー保護キャップ
  7
EXTFONT
100
AcDbText
  0
TEXT
  5
2AF
330
4FF
100
AcDbEntity
  8
0
100
AcDbText
 10
19600.039
 20
3027.9363
 30
0.0
 40
200.0
  1
結露排水弁・水切・アングル・膳板
  7
EXTFONT
100
AcDbText
  0
TEXT
  5
2B0
330
4FF
100
AcDbEntity
  8
0
100
AcDbText
 10
19600.039
 20
2277.9363
 30
0.0
 40
200.0
  1
YKKAP　ＳＹＳＴＥＭＡ３１０同等品
  7
EXTFONT
100
AcDbText
  0
TEXT
  5
2B1
330
4FF
100
AcDbEntity
  8
0
100
AcDbText
 10
19600.039
 20
3527.9363
 30
0.0
 40
200.0
  1
シルバー･ｶﾗｰ(ブロンズ､ステン､ブラック)
  7
EXTFONT
100
AcDbText
  0
TEXT
  5
2B2
330
4FF
100
AcDbEntity
  8
YKK_F1
100
AcDbText
 10
21544.55
 20
1816.3159
 30
0.0
 40
100.0
  1
設計No.
  7
EXTFONT
100
AcDbText
  0
TEXT
  5
2B3
330
4FF
100
AcDbEntity
  8
YKK_F1
100
AcDbText
 10
21544.55
 20
1317.2556
 30
0.0
 40
100.0
  1
縮尺
  7
EXTFONT
100
AcDbText
  0
TEXT
  5
2B4
330
4FF
100
AcDbEntity
  8
0
100
AcDbText
 10
19600.039
 20
3277.9363
 30
0.0
 40
200.0
  1
FL・透明
  7
EXTFONT
100
AcDbText
  0
LINE
  5
2B5
330
4FF
100
AcDbEntity
  8
YKK_F1
  6
Continuous
100
AcDbLine
 10
22594.174
 20
1351.128
 30
0.0
 11
21893.798
 21
800.75199
 31
0.0
  0
TEXT
  5
2B6
330
4FF
100
AcDbEntity
  8
YKK_F1
  6
Continuous
100
AcDbText
 10
21956.956
 20
1113.7219
 30
0.0
 40
150.0
  1
1
100
AcDbText
  0
TEXT
  5
2B7
330
4FF
100
AcDbEntity
  8
YKK_F1
  6
Continuous
100
AcDbText
 10
22493.83502704
 20
866.53895907
 30
0.0
 40
150.0
  1
50
100
AcDbText
  0
TEXT
  5
2B8
330
4FF
100
AcDbEntity
  8
YKK_F1
100
AcDbText
 10
23043.422
 20
1317.2556
 30
0.0
 40
100.0
  1
図面名
  7
EXTFONT
100
AcDbText
  0
TEXT
  5
2B9
330
4FF
100
AcDbEntity
  8
YKK_F1
100
AcDbText
 10
23043.422
 20
1816.3159
 30
0.0
 40
100.0
  1
名称
  7
EXTFONT
100
AcDbText
  0
LINE
  5
2BA
330
4FF
100
AcDbEntity
  8
YKK_A1
100
AcDbLine
 10
17690.039
 20
6737.9363
 30
0.0
 11
16660.039
 21
6737.9363
 31
0.0
  0
LINE
  5
2BB
330
4FF
100
AcDbEntity
  8
YKK_A1
100
AcDbLine
 10
17675.039
 20
6722.9363
 30
0.0
 11
16675.039
 21
6722.9363
 31
0.0
  0
LINE
  5
2BC
330
4FF
100
AcDbEntity
  8
YKK_A1
100
AcDbLine
 10
17675.039
 20
6722.9363
 30
0.0
 11
16675.039
 21
6722.9363
 31
0.0
  0
LINE
  5
2BD
330
4FF
100
AcDbEntity
  8
YKK_A1
100
AcDbLine
 10
17675.039
 20
5922.9363
 30
0.0
 11
16675.039
 21
5922.9363
 31
0.0
  0
LINE
  5
2BE
330
4FF
100
AcDbEntity
  8
YKK_A1
100
AcDbLine
 10
16675.039
 20
5922.9363
 30
0.0
 11
17675.039
 21
5922.9363
 31
0.0
  0
LINE
  5
2BF
330
4FF
100
AcDbEntity
  8
YKK_A1
100
AcDbLine
 10
17675.039
 20
6022.9363
 30
0.0
 11
16675.039
 21
6022.9363
 31
0.0
  0
LINE
  5
2C0
330
4FF
100
AcDbEntity
  8
YKK_A1
100
AcDbLine
 10
16675.039
 20
6022.9363
 30
0.0
 11
17675.039
 21
6022.9363
 31
0.0
  0
LINE
  5
2C1
330
4FF
100
AcDbEntity
  8
YKK_A1
100
AcDbLine
 10
16675.039
 20
6022.9363
 30
0.0
 11
17675.039
 21
6022.9363
 31
0.0
  0
LINE
  5
2C2
330
4FF
100
AcDbEntity
  8
YKK_A1
100
AcDbLine
 10
16660.039
 20
5222.9363
 30
0.0
 11
17690.039
 21
5222.9363
 31
0.0
  0
LINE
  5
2C3
330
4FF
100
AcDbEntity
  8
YKK_A1
100
AcDbLine
 10
16675.039
 20
5222.9363
 30
0.0
 11
17675.039
 21
5222.9363
 31
0.0
  0
LINE
  5
2C4
330
4FF
100
AcDbEntity
  8
YKK_N1
  6
ByBlock
100
AcDbLine
 10
16676.039
 20
4822.9363
 30
0.0
 11
17674.039
 21
4822.9363
 31
0.0
  0
TEXT
  5
2C5
330
4FF
100
AcDbEntity
  8
YKK_N1
100
AcDbText
 10
17027.61042857
 20
4832.9363
 30
0.0
 40
60.0
  1
W=1000
 41
0.8
  7
YKK_SGSTYLE1
100
AcDbText
  0
LINE
  5
2C6
330
4FF
100
AcDbEntity
  8
YKK_A1
  6
CENTER
100
AcDbLine
 10
16675.039
 20
5222.9363
 30
0.0
 11
17675.039
 21
5922.9363
 31
0.0
  0
TEXT
  5
2C7
330
4FF
100
AcDbEntity
  8
0
100
AcDbText
 10
14950.039
 20
4027.9363
 30
0.0
 40
200.0
  1
W＝1,000　H＝1,500  見込70
  7
EXTFONT
100
AcDbText
  0
TEXT
  5
2C8
330
4FF
100
AcDbEntity
  8
0
100
AcDbText
 10
14950.039
 20
4277.9363
 30
0.0
 40
200.0
  1
はめ殺し窓＋辷り出し段窓
  7
EXTFONT
100
AcDbText
  0
LINE
  5
2C9
330
4FF
100
AcDbEntity
  8
YKK_A1
100
AcDbLine
 10
16675.039
 20
5922.9363
 30
0.0
 11
16675.039
 21
5222.9363
 31
0.0
  0
LINE
  5
2CA
330
4FF
100
AcDbEntity
  8
YKK_A1
100
AcDbLine
 10
16660.039
 20
6737.9363
 30
0.0
 11
16660.039
 21
5222.9363
 31
0.0
  0
LINE
  5
2CB
330
4FF
100
AcDbEntity
  8
YKK_N1
  6
ByBlock
100
AcDbLine
 10
16761.64154038
 20
4872.9363
 30
0.0
 11
16675.039
 21
4822.9363
 31
0.0
  0
LINE
  5
2CC
330
4FF
100
AcDbEntity
  8
YKK_N1
  6
ByBlock
100
AcDbLine
 10
16761.64154038
 20
4772.9363
 30
0.0
 11
16761.64154038
 21
4872.9363
 31
0.0
  0
LINE
  5
2CD
330
4FF
100
AcDbEntity
  8
YKK_N1
  6
ByBlock
100
AcDbLine
 10
16675.039
 20
4822.9363
 30
0.0
 11
16761.64154038
 21
4772.9363
 31
0.0
  0
LINE
  5
2CE
330
4FF
100
AcDbEntity
  8
YKK_N1
  6
ByBlock
100
AcDbLine
 10
16675.039
 20
4822.9363
 30
0.0
 11
16775.039
 21
4822.9363
 31
0.0
  0
LINE
  5
2CF
330
4FF
100
AcDbEntity
  8
YKK_N1
  6
ByBlock
100
AcDbLine
 10
16675.039
 20
5162.9363
 30
0.0
 11
16675.039
 21
4792.9363
 31
0.0
  0
LINE
  5
2D0
330
4FF
100
AcDbEntity
  8
YKK_A1
100
AcDbLine
 10
16675.039
 20
6722.9363
 30
0.0
 11
16675.039
 21
6022.9363
 31
0.0
  0
LINE
  5
2D1
330
4FF
100
AcDbEntity
  8
YKK_A1
100
AcDbLine
 10
16675.039
 20
6722.9363
 30
0.0
 11
16675.039
 21
6022.9363
 31
0.0
  0
LINE
  5
2D2
330
4FF
100
AcDbEntity
  8
YKK_A1
100
AcDbLine
 10
16675.039
 20
6022.9363
 30
0.0
 11
16675.039
 21
5922.9363
 31
0.0
  0
LINE
  5
2D3
330
4FF
100
AcDbEntity
  8
YKK_N1
  6
ByBlock
100
AcDbLine
 10
18075.039
 20
5223.9363
 30
0.0
 11
18075.039
 21
6721.9363
 31
0.0
  0
LINE
  5
2D4
330
4FF
100
AcDbEntity
  8
YKK_A1
100
AcDbLine
 10
17675.039
 20
5222.9363
 30
0.0
 11
17675.039
 21
5922.9363
 31
0.0
  0
LINE
  5
2D5
330
4FF
100
AcDbEntity
  8
YKK_A1
100
AcDbLine
 10
17690.039
 20
5222.9363
 30
0.0
 11
17690.039
 21
6737.9363
 31
0.0
  0
LINE
  5
2D6
330
4FF
100
AcDbEntity
  8
YKK_N1
  6
ByBlock
100
AcDbLine
 10
17735.039
 20
5222.9363
 30
0.0
 11
18105.039
 21
5222.9363
 31
0.0
  0
LINE
  5
2D7
330
4FF
100
AcDbEntity
  8
YKK_N1
  6
ByBlock
100
AcDbLine
 10
17675.039
 20
4822.9363
 30
0.0
 11
17575.039
 21
4822.9363
 31
0.0
  0
LINE
  5
2D8
330
4FF
100
AcDbEntity
  8
YKK_N1
  6
ByBlock
100
AcDbLine
 10
17588.43645962
 20
4772.9363
 30
0.0
 11
17675.039
 21
4822.9363
 31
0.0
  0
LINE
  5
2D9
330
4FF
100
AcDbEntity
  8
YKK_N1
  6
ByBlock
100
AcDbLine
 10
17588.43645962
 20
4872.9363
 30
0.0
 11
17588.43645962
 21
4772.9363
 31
0.0
  0
LINE
  5
2DA
330
4FF
100
AcDbEntity
  8
YKK_N1
  6
ByBlock
100
AcDbLine
 10
17675.039
 20
4822.9363
 30
0.0
 11
17588.43645962
 21
4872.9363
 31
0.0
  0
POINT
  5
2DB
330
4FF
100
AcDbEntity
  8
YKK_N1
  6
ByBlock
100
AcDbPoint
 10
17675.039
 20
4822.9363
 30
0.0
  0
LINE
  5
2DC
330
4FF
100
AcDbEntity
  8
YKK_N1
  6
ByBlock
100
AcDbLine
 10
17675.039
 20
5162.9363
 30
0.0
 11
17675.039
 21
4792.9363
 31
0.0
  0
LINE
  5
2DD
330
4FF
100
AcDbEntity
  8
YKK_N1
  6
ByBlock
100
AcDbLine
 10
18025.039
 20
5309.53884038
 30
0.0
 11
18075.039
 21
5222.9363
 31
0.0
  0
LINE
  5
2DE
330
4FF
100
AcDbEntity
  8
YKK_N1
  6
ByBlock
100
AcDbLine
 10
18125.039
 20
5309.53884038
 30
0.0
 11
18025.039
 21
5309.53884038
 31
0.0
  0
LINE
  5
2DF
330
4FF
100
AcDbEntity
  8
YKK_N1
  6
ByBlock
100
AcDbLine
 10
18075.039
 20
5222.9363
 30
0.0
 11
18075.039
 21
5322.9363
 31
0.0
  0
LINE
  5
2E0
330
4FF
100
AcDbEntity
  8
YKK_N1
  6
ByBlock
100
AcDbLine
 10
18075.039
 20
5222.9363
 30
0.0
 11
18125.039
 21
5309.53884038
 31
0.0
  0
LINE
  5
2E1
330
4FF
100
AcDbEntity
  8
YKK_A1
100
AcDbLine
 10
17675.039
 20
6022.9363
 30
0.0
 11
17675.039
 21
6722.9363
 31
0.0
  0
LINE
  5
2E2
330
4FF
100
AcDbEntity
  8
YKK_A1
100
AcDbLine
 10
17675.039
 20
6022.9363
 30
0.0
 11
17675.039
 21
6722.9363
 31
0.0
  0
LINE
  5
2E3
330
4FF
100
AcDbEntity
  8
YKK_A1
100
AcDbLine
 10
17675.039
 20
5922.9363
 30
0.0
 11
17675.039
 21
6022.9363
 31
0.0
  0
TEXT
  5
2E4
330
4FF
100
AcDbEntity
  8
YKK_A1
100
AcDbText
 10
17606.18185714
 20
6052.9363
 30
0.0
 40
60.0
  1
F
 41
0.8
  7
YKK_SGSTYLE1
 72
     2
 11
17645.039
 21
6052.9363
 31
0.0
100
AcDbText
  0
TEXT
  5
2E5
330
4FF
100
AcDbEntity
  8
YKK_N1
100
AcDbText
 10
18065.039
 20
5825.50772857
 30
0.0
 40
60.0
  1
H=1500
 50
90.0
 41
0.8
  7
YKK_SGSTYLE1
100
AcDbText
  0
LINE
  5
2E6
330
4FF
100
AcDbEntity
  8
YKK_N1
  6
ByBlock
100
AcDbLine
 10
17735.039
 20
6722.9363
 30
0.0
 11
18105.039
 21
6722.9363
 31
0.0
  0
LINE
  5
2E7
330
4FF
100
AcDbEntity
  8
YKK_N1
  6
ByBlock
100
AcDbLine
 10
18075.039
 20
6722.9363
 30
0.0
 11
18025.039
 21
6636.33375962
 31
0.0
  0
LINE
  5
2E8
330
4FF
100
AcDbEntity
  8
YKK_N1
  6
ByBlock
100
AcDbLine
 10
18025.039
 20
6636.33375962
 30
0.0
 11
18125.039
 21
6636.33375962
 31
0.0
  0
POINT
  5
2E9
330
4FF
100
AcDbEntity
  8
YKK_N1
  6
ByBlock
100
AcDbPoint
 10
18075.039
 20
6722.9363
 30
0.0
  0
LINE
  5
2EA
330
4FF
100
AcDbEntity
  8
YKK_N1
  6
ByBlock
100
AcDbLine
 10
18125.039
 20
6636.33375962
 30
0.0
 11
18075.039
 21
6722.9363
 31
0.0
  0
LINE
  5
2EB
330
4FF
100
AcDbEntity
  8
YKK_N1
  6
ByBlock
100
AcDbLine
 10
18075.039
 20
6722.9363
 30
0.0
 11
18075.039
 21
6622.9363
 31
0.0
  0
TEXT
  5
2EC
330
4FF
100
AcDbEntity
  8
0
100
AcDbText
 10
14950.039
 20
8982.9363
 30
0.0
 40
200.0
  1
結露排水弁・水切・アングル・膳板
  7
EXTFONT
100
AcDbText
  0
TEXT
  5
2ED
330
4FF
100
AcDbEntity
  8
0
100
AcDbText
 10
14950.039
 20
9982.9363
 30
0.0
 40
200.0
  1
W＝1,000　H＝1,500  見込70
  7
EXTFONT
100
AcDbText
  0
TEXT
  5
2EE
330
4FF
100
AcDbEntity
  8
0
100
AcDbText
 10
14950.039
 20
9482.9363
 30
0.0
 40
200.0
  1
シルバー･ｶﾗｰ(ブロンズ､ステン､ブラック)
  7
EXTFONT
100
AcDbText
  0
TEXT
  5
2EF
330
4FF
100
AcDbEntity
  8
0
100
AcDbText
 10
14950.039
 20
8232.9363
 30
0.0
 40
200.0
  1
YKKAP　ＳＹＳＴＥＭＡ３１０同等品
  7
EXTFONT
100
AcDbText
  0
TEXT
  5
2F0
330
4FF
100
AcDbEntity
  8
0
100
AcDbText
 10
14950.039
 20
10232.9363
 30
0.0
 40
200.0
  1
突き出し窓＋はめ殺し段窓
  7
EXTFONT
100
AcDbText
  0
TEXT
  5
2F1
330
4FF
100
AcDbEntity
  8
0
100
AcDbText
 10
14950.039
 20
8732.9363
 30
0.0
 40
180.0
  1
丁番・障子コーナー保護キャップ
  7
EXTFONT
100
AcDbText
  0
TEXT
  5
2F2
330
4FF
100
AcDbEntity
  8
0
100
AcDbText
 10
15150.039
 20
7957.9363
 30
0.0
 40
200.0
  1
＊
  7
EXTFONT
100
AcDbText
  0
CIRCLE
  5
2F3
330
4FF
100
AcDbEntity
  8
YKK_F1
100
AcDbCircle
 10
15250.039
 20
7957.9363
 30
0.0
 40
233.3333333333333
  0
LINE
  5
2F4
330
4FF
100
AcDbEntity
  8
YKK_F1
  6
Continuous
100
AcDbLine
 10
15016.70566667
 20
7957.9363
 30
0.0
 11
15483.37233333
 21
7957.9363
 31
0.0
  0
TEXT
  5
2F5
330
4FF
100
AcDbEntity
  8
0
100
AcDbText
 10
14950.039
 20
7482.9363
 30
0.0
 40
200.0
  1
＊
  7
EXTFONT
100
AcDbText
  0
TEXT
  5
2F6
330
4FF
100
AcDbEntity
  8
YKK_F1
100
AcDbText
 10
15090.039
 20
7757.9363
 30
0.0
 40
160.0
  1
ＡＷ
  7
EXTFONT
100
AcDbText
  0
TEXT
  5
2F7
330
4FF
100
AcDbEntity
  8
0
100
AcDbText
 10
14950.039
 20
8482.9363
 30
0.0
 40
200.0
  1
＊
  7
EXTFONT
100
AcDbText
  0
TEXT
  5
2F8
330
4FF
100
AcDbEntity
  8
0
100
AcDbText
 10
14950.039
 20
9232.9363
 30
0.0
 40
200.0
  1
FL・透明
  7
EXTFONT
100
AcDbText
  0
TEXT
  5
2F9
330
4FF
100
AcDbEntity
  8
0
100
AcDbText
 10
14950.039
 20
9732.9363
 30
0.0
 40
200.0
  1
アルミ製
  7
EXTFONT
100
AcDbText
  0
TEXT
  5
2FA
330
4FF
100
AcDbEntity
  8
0
100
AcDbText
 10
18250.039
 20
7482.9363
 30
0.0
 40
200.0
  1
＊
  7
EXTFONT
100
AcDbText
  0
TEXT
  5
2FB
330
4FF
100
AcDbEntity
  8
0
100
AcDbText
 10
18550.039
 20
7732.9363
 30
0.0
 40
200.0
  1
＊
  7
EXTFONT
100
AcDbText
  0
TEXT
  5
2FC
330
4FF
100
AcDbEntity
  8
YKK_F1
100
AcDbText
 10
18970.039
 20
7732.9363
 30
0.0
 40
200.0
  1
箇所
  7
EXTFONT
100
AcDbText
  0
TEXT
  5
2FD
330
4FF
100
AcDbEntity
  8
YKK_N1
100
AcDbText
 10
21677.61042857
 20
4832.9363
 30
0.0
 40
60.0
  1
W=1000
 41
0.8
  7
YKK_SGSTYLE1
100
AcDbText
  0
LINE
  5
2FE
330
4FF
100
AcDbEntity
  8
YKK_A1
  6
CENTER
100
AcDbLine
 10
22325.039
 20
5922.9363
 30
0.0
 11
21325.039
 21
5222.9363
 31
0.0
  0
LINE
  5
2FF
330
4FF
100
AcDbEntity
  8
YKK_N1
  6
ByBlock
100
AcDbLine
 10
21326.039
 20
4822.9363
 30
0.0
 11
22324.039
 21
4822.9363
 31
0.0
  0
LINE
  5
300
330
4FF
100
AcDbEntity
  8
YKK_A1
100
AcDbLine
 10
21310.039
 20
5222.9363
 30
0.0
 11
22340.039
 21
5222.9363
 31
0.0
  0
LINE
  5
301
330
4FF
100
AcDbEntity
  8
YKK_A1
100
AcDbLine
 10
21325.039
 20
5222.9363
 30
0.0
 11
22325.039
 21
5222.9363
 31
0.0
  0
LINE
  5
302
330
4FF
100
AcDbEntity
  8
YKK_A1
100
AcDbLine
 10
22340.039
 20
6737.9363
 30
0.0
 11
21310.039
 21
6737.9363
 31
0.0
  0
LINE
  5
303
330
4FF
100
AcDbEntity
  8
YKK_A1
100
AcDbLine
 10
22325.039
 20
5922.9363
 30
0.0
 11
21325.039
 21
5922.9363
 31
0.0
  0
LINE
  5
304
330
4FF
100
AcDbEntity
  8
YKK_A1
100
AcDbLine
 10
21325.039
 20
5922.9363
 30
0.0
 11
22325.039
 21
5922.9363
 31
0.0
  0
LINE
  5
305
330
4FF
100
AcDbEntity
  8
YKK_A1
100
AcDbLine
 10
22325.039
 20
6022.9363
 30
0.0
 11
21325.039
 21
6022.9363
 31
0.0
  0
LINE
  5
306
330
4FF
100
AcDbEntity
  8
YKK_A1
100
AcDbLine
 10
21325.039
 20
6022.9363
 30
0.0
 11
22325.039
 21
6022.9363
 31
0.0
  0
LINE
  5
307
330
4FF
100
AcDbEntity
  8
YKK_A1
100
AcDbLine
 10
22325.039
 20
6722.9363
 30
0.0
 11
21325.039
 21
6722.9363
 31
0.0
  0
LINE
  5
308
330
4FF
100
AcDbEntity
  8
YKK_A1
100
AcDbLine
 10
21325.039
 20
6022.9363
 30
0.0
 11
22325.039
 21
6022.9363
 31
0.0
  0
LINE
  5
309
330
4FF
100
AcDbEntity
  8
YKK_A1
100
AcDbLine
 10
22325.039
 20
6722.9363
 30
0.0
 11
21325.039
 21
6722.9363
 31
0.0
  0
TEXT
  5
30A
330
4FF
100
AcDbEntity
  8
0
100
AcDbText
 10
19600.039
 20
4027.9363
 30
0.0
 40
200.0
  1
W＝1,000　H＝1,500  見込70
  7
EXTFONT
100
AcDbText
  0
TEXT
  5
30B
330
4FF
100
AcDbEntity
  8
0
100
AcDbText
 10
19600.039
 20
4277.9363
 30
0.0
 40
200.0
  1
はめ殺し窓＋縦辷り出し段窓
  7
EXTFONT
100
AcDbText
  0
LINE
  5
30C
330
4FF
100
AcDbEntity
  8
YKK_A1
100
AcDbLine
 10
21325.039
 20
5922.9363
 30
0.0
 11
21325.039
 21
5222.9363
 31
0.0
  0
LINE
  5
30D
330
4FF
100
AcDbEntity
  8
YKK_A1
100
AcDbLine
 10
21310.039
 20
6737.9363
 30
0.0
 11
21310.039
 21
5222.9363
 31
0.0
  0
LINE
  5
30E
330
4FF
100
AcDbEntity
  8
YKK_N1
  6
ByBlock
100
AcDbLine
 10
21411.64154038
 20
4772.9363
 30
0.0
 11
21411.64154038
 21
4872.9363
 31
0.0
  0
LINE
  5
30F
330
4FF
100
AcDbEntity
  8
YKK_N1
  6
ByBlock
100
AcDbLine
 10
21325.039
 20
5162.9363
 30
0.0
 11
21325.039
 21
4792.9363
 31
0.0
  0
LINE
  5
310
330
4FF
100
AcDbEntity
  8
YKK_N1
  6
ByBlock
100
AcDbLine
 10
21411.64154038
 20
4872.9363
 30
0.0
 11
21325.039
 21
4822.9363
 31
0.0
  0
LINE
  5
311
330
4FF
100
AcDbEntity
  8
YKK_N1
  6
ByBlock
100
AcDbLine
 10
21325.039
 20
4822.9363
 30
0.0
 11
21411.64154038
 21
4772.9363
 31
0.0
  0
LINE
  5
312
330
4FF
100
AcDbEntity
  8
YKK_N1
  6
ByBlock
100
AcDbLine
 10
21325.039
 20
4822.9363
 30
0.0
 11
21425.039
 21
4822.9363
 31
0.0
  0
LINE
  5
313
330
4FF
100
AcDbEntity
  8
YKK_A1
100
AcDbLine
 10
21325.039
 20
6722.9363
 30
0.0
 11
21325.039
 21
6022.9363
 31
0.0
  0
LINE
  5
314
330
4FF
100
AcDbEntity
  8
YKK_A1
100
AcDbLine
 10
21325.039
 20
6722.9363
 30
0.0
 11
21325.039
 21
6022.9363
 31
0.0
  0
LINE
  5
315
330
4FF
100
AcDbEntity
  8
YKK_A1
100
AcDbLine
 10
21325.039
 20
6022.9363
 30
0.0
 11
21325.039
 21
5922.9363
 31
0.0
  0
LINE
  5
316
330
4FF
100
AcDbEntity
  8
YKK_A1
100
AcDbLine
 10
22325.039
 20
5222.9363
 30
0.0
 11
22325.039
 21
5922.9363
 31
0.0
  0
LINE
  5
317
330
4FF
100
AcDbEntity
  8
YKK_A1
100
AcDbLine
 10
22340.039
 20
5222.9363
 30
0.0
 11
22340.039
 21
6737.9363
 31
0.0
  0
LINE
  5
318
330
4FF
100
AcDbEntity
  8
YKK_N1
  6
ByBlock
100
AcDbLine
 10
22725.039
 20
5223.9363
 30
0.0
 11
22725.039
 21
6721.9363
 31
0.0
  0
LINE
  5
319
330
4FF
100
AcDbEntity
  8
YKK_N1
  6
ByBlock
100
AcDbLine
 10
22385.039
 20
5222.9363
 30
0.0
 11
22755.039
 21
5222.9363
 31
0.0
  0
LINE
  5
31A
330
4FF
100
AcDbEntity
  8
YKK_N1
  6
ByBlock
100
AcDbLine
 10
22238.43645962
 20
4772.9363
 30
0.0
 11
22325.039
 21
4822.9363
 31
0.0
  0
LINE
  5
31B
330
4FF
100
AcDbEntity
  8
YKK_N1
  6
ByBlock
100
AcDbLine
 10
22325.039
 20
4822.9363
 30
0.0
 11
22238.43645962
 21
4872.9363
 31
0.0
  0
LINE
  5
31C
330
4FF
100
AcDbEntity
  8
YKK_N1
  6
ByBlock
100
AcDbLine
 10
22325.039
 20
4822.9363
 30
0.0
 11
22225.039
 21
4822.9363
 31
0.0
  0
LINE
  5
31D
330
4FF
100
AcDbEntity
  8
YKK_N1
  6
ByBlock
100
AcDbLine
 10
22238.43645962
 20
4872.9363
 30
0.0
 11
22238.43645962
 21
4772.9363
 31
0.0
  0
POINT
  5
31E
330
4FF
100
AcDbEntity
  8
YKK_N1
  6
ByBlock
100
AcDbPoint
 10
22325.039
 20
4822.9363
 30
0.0
  0
LINE
  5
31F
330
4FF
100
AcDbEntity
  8
YKK_N1
  6
ByBlock
100
AcDbLine
 10
22325.039
 20
5162.9363
 30
0.0
 11
22325.039
 21
4792.9363
 31
0.0
  0
LINE
  5
320
330
4FF
100
AcDbEntity
  8
YKK_A1
  6
CENTER
100
AcDbLine
 10
21825.039
 20
5572.9363
 30
0.0
 11
22325.039
 21
5222.9363
 31
0.0
  0
LINE
  5
321
330
4FF
100
AcDbEntity
  8
YKK_N1
  6
ByBlock
100
AcDbLine
 10
22775.039
 20
5309.53884038
 30
0.0
 11
22675.039
 21
5309.53884038
 31
0.0
  0
LINE
  5
322
330
4FF
100
AcDbEntity
  8
YKK_N1
  6
ByBlock
100
AcDbLine
 10
22675.039
 20
5309.53884038
 30
0.0
 11
22725.039
 21
5222.9363
 31
0.0
  0
LINE
  5
323
330
4FF
100
AcDbEntity
  8
YKK_N1
  6
ByBlock
100
AcDbLine
 10
22725.039
 20
5222.9363
 30
0.0
 11
22725.039
 21
5322.9363
 31
0.0
  0
LINE
  5
324
330
4FF
100
AcDbEntity
  8
YKK_N1
  6
ByBlock
100
AcDbLine
 10
22725.039
 20
5222.9363
 30
0.0
 11
22775.039
 21
5309.53884038
 31
0.0
  0
LINE
  5
325
330
4FF
100
AcDbEntity
  8
YKK_A1
100
AcDbLine
 10
22325.039
 20
6022.9363
 30
0.0
 11
22325.039
 21
6722.9363
 31
0.0
  0
LINE
  5
326
330
4FF
100
AcDbEntity
  8
YKK_A1
100
AcDbLine
 10
22325.039
 20
6022.9363
 30
0.0
 11
22325.039
 21
6722.9363
 31
0.0
  0
LINE
  5
327
330
4FF
100
AcDbEntity
  8
YKK_A1
100
AcDbLine
 10
22325.039
 20
5922.9363
 30
0.0
 11
22325.039
 21
6022.9363
 31
0.0
  0
TEXT
  5
328
330
4FF
100
AcDbEntity
  8
YKK_A1
100
AcDbText
 10
22256.18185714
 20
6052.9363
 30
0.0
 40
60.0
  1
F
 41
0.8
  7
YKK_SGSTYLE1
 72
     2
 11
22295.039
 21
6052.9363
 31
0.0
100
AcDbText
  0
TEXT
  5
329
330
4FF
100
AcDbEntity
  8
YKK_N1
100
AcDbText
 10
22715.039
 20
5825.50772857
 30
0.0
 40
60.0
  1
H=1500
 50
90.0
 41
0.8
  7
YKK_SGSTYLE1
100
AcDbText
  0
LINE
  5
32A
330
4FF
100
AcDbEntity
  8
YKK_N1
  6
ByBlock
100
AcDbLine
 10
22385.039
 20
6722.9363
 30
0.0
 11
22755.039
 21
6722.9363
 31
0.0
  0
LINE
  5
32B
330
4FF
100
AcDbEntity
  8
YKK_N1
  6
ByBlock
100
AcDbLine
 10
22725.039
 20
6722.9363
 30
0.0
 11
22675.039
 21
6636.33375962
 31
0.0
  0
LINE
  5
32C
330
4FF
100
AcDbEntity
  8
YKK_N1
  6
ByBlock
100
AcDbLine
 10
22675.039
 20
6636.33375962
 30
0.0
 11
22775.039
 21
6636.33375962
 31
0.0
  0
POINT
  5
32D
330
4FF
100
AcDbEntity
  8
YKK_N1
  6
ByBlock
100
AcDbPoint
 10
22725.039
 20
6722.9363
 30
0.0
  0
LINE
  5
32E
330
4FF
100
AcDbEntity
  8
YKK_N1
  6
ByBlock
100
AcDbLine
 10
22775.039
 20
6636.33375962
 30
0.0
 11
22725.039
 21
6722.9363
 31
0.0
  0
LINE
  5
32F
330
4FF
100
AcDbEntity
  8
YKK_N1
  6
ByBlock
100
AcDbLine
 10
22725.039
 20
6722.9363
 30
0.0
 11
22725.039
 21
6622.9363
 31
0.0
  0
TEXT
  5
330
330
4FF
100
AcDbEntity
  8
0
100
AcDbText
 10
19600.039
 20
8982.9363
 30
0.0
 40
200.0
  1
結露排水弁・水切・アングル・膳板
  7
EXTFONT
100
AcDbText
  0
TEXT
  5
331
330
4FF
100
AcDbEntity
  8
0
100
AcDbText
 10
19600.039
 20
8732.9363
 30
0.0
 40
200.0
  1
標準ハンドル・ハンドルスペーサー
  7
EXTFONT
100
AcDbText
  0
TEXT
  5
332
330
4FF
100
AcDbEntity
  8
0
100
AcDbText
 10
19600.039
 20
8482.9363
 30
0.0
 40
180.0
  1
辷り出しアーム・障子コーナー保護キャップ
  7
EXTFONT
100
AcDbText
  0
TEXT
  5
333
330
4FF
100
AcDbEntity
  8
0
100
AcDbText
 10
19600.039
 20
8232.9363
 30
0.0
 40
200.0
  1
YKKAP　ＳＹＳＴＥＭＡ３１０同等品
  7
EXTFONT
100
AcDbText
  0
TEXT
  5
334
330
4FF
100
AcDbEntity
  8
0
100
AcDbText
 10
19600.039
 20
9482.9363
 30
0.0
 40
200.0
  1
シルバー･ｶﾗｰ(ブロンズ､ステン､ブラック)
  7
EXTFONT
100
AcDbText
  0
TEXT
  5
335
330
4FF
100
AcDbEntity
  8
0
100
AcDbText
 10
19600.039
 20
9982.9363
 30
0.0
 40
200.0
  1
W＝1,000　H＝1,500  見込70
  7
EXTFONT
100
AcDbText
  0
TEXT
  5
336
330
4FF
100
AcDbEntity
  8
0
100
AcDbText
 10
19600.039
 20
10232.9363
 30
0.0
 40
200.0
  1
辷り出し窓＋はめ殺し段窓
  7
EXTFONT
100
AcDbText
  0
TEXT
  5
337
330
4FF
100
AcDbEntity
  8
0
100
AcDbText
 10
19800.039
 20
7957.9363
 30
0.0
 40
200.0
  1
＊
  7
EXTFONT
100
AcDbText
  0
CIRCLE
  5
338
330
4FF
100
AcDbEntity
  8
YKK_F1
100
AcDbCircle
 10
19900.039
 20
7957.9363
 30
0.0
 40
233.3333333333333
  0
LINE
  5
339
330
4FF
100
AcDbEntity
  8
YKK_F1
  6
Continuous
100
AcDbLine
 10
19666.70566667
 20
7957.9363
 30
0.0
 11
20133.37233333
 21
7957.9363
 31
0.0
  0
TEXT
  5
33A
330
4FF
100
AcDbEntity
  8
0
100
AcDbText
 10
19600.039
 20
7482.9363
 30
0.0
 40
200.0
  1
＊
  7
EXTFONT
100
AcDbText
  0
TEXT
  5
33B
330
4FF
100
AcDbEntity
  8
YKK_F1
100
AcDbText
 10
19740.039
 20
7757.9363
 30
0.0
 40
160.0
  1
ＡＷ
  7
EXTFONT
100
AcDbText
  0
TEXT
  5
33C
330
4FF
100
AcDbEntity
  8
0
100
AcDbText
 10
19600.039
 20
9232.9363
 30
0.0
 40
200.0
  1
FL・透明
  7
EXTFONT
100
AcDbText
  0
TEXT
  5
33D
330
4FF
100
AcDbEntity
  8
0
100
AcDbText
 10
19600.039
 20
9732.9363
 30
0.0
 40
200.0
  1
アルミ製
  7
EXTFONT
100
AcDbText
  0
TEXT
  5
33E
330
4FF
100
AcDbEntity
  8
0
100
AcDbText
 10
22900.039
 20
7482.9363
 30
0.0
 40
200.0
  1
＊
  7
EXTFONT
100
AcDbText
  0
TEXT
  5
33F
330
4FF
100
AcDbEntity
  8
0
100
AcDbText
 10
23200.039
 20
7732.9363
 30
0.0
 40
200.0
  1
＊
  7
EXTFONT
100
AcDbText
  0
TEXT
  5
340
330
4FF
100
AcDbEntity
  8
YKK_F1
100
AcDbText
 10
23620.039
 20
7732.9363
 30
0.0
 40
200.0
  1
箇所
  7
EXTFONT
100
AcDbText
  0
TEXT
  5
341
330
4FF
100
AcDbEntity
  8
0
100
AcDbText
 10
24250.039
 20
3777.9363
 30
0.0
 40
200.0
  1
＊
  7
EXTFONT
100
AcDbText
  0
LINE
  5
342
330
4FF
100
AcDbEntity
  8
YKK_F1
  6
Continuous
100
AcDbLine
 10
28890.228
 20
1651.1279
 30
0.0
 11
28090.604
 21
1001.504
 31
0.0
  0
TEXT
  5
343
330
4FF
100
AcDbEntity
  8
YKK_F1
100
AcDbText
 10
28617.37641269
 20
751.11699243
 30
0.0
 40
100.0
  1
枚の内
  7
EXTFONT
100
AcDbText
  0
LINE
  5
344
330
4FF
100
AcDbEntity
  8
YKK_F1
  6
Continuous
100
AcDbLine
 10
27990.79
 20
1949.4363
 30
0.0
 11
27990.79
 21
650.18799
 31
0.0
  0
TEXT
  5
345
330
4FF
100
AcDbEntity
  8
0
100
AcDbText
 10
24250.039
 20
3027.9363
 30
0.0
 40
200.0
  1
＊
  7
EXTFONT
100
AcDbText
  0
TEXT
  5
346
330
4FF
100
AcDbEntity
  8
0
100
AcDbText
 10
24250.039
 20
2277.9363
 30
0.0
 40
200.0
  1
＊
  7
EXTFONT
100
AcDbText
  0
TEXT
  5
347
330
4FF
100
AcDbEntity
  8
0
100
AcDbText
 10
24250.039
 20
2527.9363
 30
0.0
 40
200.0
  1
＊
  7
EXTFONT
100
AcDbText
  0
TEXT
  5
348
330
4FF
100
AcDbEntity
  8
0
100
AcDbText
 10
24250.039
 20
2777.9363
 30
0.0
 40
200.0
  1
＊
  7
EXTFONT
100
AcDbText
  0
TEXT
  5
349
330
4FF
100
AcDbEntity
  8
0
100
AcDbText
 10
24250.039
 20
3277.9363
 30
0.0
 40
200.0
  1
＊
  7
EXTFONT
100
AcDbText
  0
TEXT
  5
34A
330
4FF
100
AcDbEntity
  8
0
100
AcDbText
 10
24250.039
 20
3527.9363
 30
0.0
 40
200.0
  1
＊
  7
EXTFONT
100
AcDbText
  0
TEXT
  5
34B
330
4FF
100
AcDbEntity
  8
YKK_F1
100
AcDbText
 10
26990.79
 20
1625.376
 30
0.0
 40
150.0
  1
工事設計図
  7
EXTFONT
100
AcDbText
  0
TEXT
  5
34C
330
4FF
100
AcDbEntity
  8
YKK_F1
100
AcDbText
 10
28040.79
 20
1816.3159
 30
0.0
 40
100.0
  1
図面No.
  7
EXTFONT
100
AcDbText
  0
TEXT
  5
34D
330
4FF
100
AcDbEntity
  8
0
100
AcDbText
 10
24250.039
 20
4277.9363
 30
0.0
 40
200.0
  1
＊
  7
EXTFONT
100
AcDbText
  0
TEXT
  5
34E
330
4FF
100
AcDbEntity
  8
0
100
AcDbText
 10
24250.039
 20
4027.9363
 30
0.0
 40
200.0
  1
＊
  7
EXTFONT
100
AcDbText
  0
TEXT
  5
34F
330
4FF
100
AcDbEntity
  8
0
100
AcDbText
 10
24250.039
 20
8732.9363
 30
0.0
 40
200.0
  1
標準ハンドル・セーフティストッパー
  7
EXTFONT
100
AcDbText
  0
TEXT
  5
350
330
4FF
100
AcDbEntity
  8
0
100
AcDbText
 10
24250.039
 20
8982.9363
 30
0.0
 40
200.0
  1
結露排水弁・水切・アングル・膳板
  7
EXTFONT
100
AcDbText
  0
TEXT
  5
351
330
4FF
100
AcDbEntity
  8
0
100
AcDbText
 10
24250.039
 20
9982.9363
 30
0.0
 40
200.0
  1
W＝1,000　H＝1,500  見込70
  7
EXTFONT
100
AcDbText
  0
TEXT
  5
352
330
4FF
100
AcDbEntity
  8
0
100
AcDbText
 10
24250.039
 20
9482.9363
 30
0.0
 40
200.0
  1
シルバー･ｶﾗｰ(ブロンズ､ステン､ブラック)
  7
EXTFONT
100
AcDbText
  0
TEXT
  5
353
330
4FF
100
AcDbEntity
  8
0
100
AcDbText
 10
24250.039
 20
8232.9363
 30
0.0
 40
200.0
  1
YKKAP　ＳＹＳＴＥＭＡ３１０同等品
  7
EXTFONT
100
AcDbText
  0
TEXT
  5
354
330
4FF
100
AcDbEntity
  8
0
100
AcDbText
 10
24250.039
 20
8482.9363
 30
0.0
 40
180.0
  1
縦辷り出しアーム・障子コーナー保護キャップ
  7
EXTFONT
100
AcDbText
  0
TEXT
  5
355
330
4FF
100
AcDbEntity
  8
0
100
AcDbText
 10
24250.039
 20
10232.9363
 30
0.0
 40
200.0
  1
縦辷り出し窓＋はめ殺し段窓
  7
EXTFONT
100
AcDbText
  0
CIRCLE
  5
356
330
4FF
100
AcDbEntity
  8
YKK_F1
100
AcDbCircle
 10
24550.039
 20
7957.9363
 30
0.0
 40
233.3333333333333
  0
TEXT
  5
357
330
4FF
100
AcDbEntity
  8
0
100
AcDbText
 10
24450.039
 20
7957.9363
 30
0.0
 40
200.0
  1
＊
  7
EXTFONT
100
AcDbText
  0
LINE
  5
358
330
4FF
100
AcDbEntity
  8
YKK_F1
  6
Continuous
100
AcDbLine
 10
24316.70566667
 20
7957.9363
 30
0.0
 11
24783.37233333
 21
7957.9363
 31
0.0
  0
TEXT
  5
359
330
4FF
100
AcDbEntity
  8
YKK_F1
100
AcDbText
 10
24390.039
 20
7757.9363
 30
0.0
 40
160.0
  1
ＡＷ
  7
EXTFONT
100
AcDbText
  0
TEXT
  5
35A
330
4FF
100
AcDbEntity
  8
0
100
AcDbText
 10
24250.039
 20
7482.9363
 30
0.0
 40
200.0
  1
＊
  7
EXTFONT
100
AcDbText
  0
TEXT
  5
35B
330
4FF
100
AcDbEntity
  8
0
100
AcDbText
 10
24250.039
 20
9232.9363
 30
0.0
 40
200.0
  1
FL・透明
  7
EXTFONT
100
AcDbText
  0
TEXT
  5
35C
330
4FF
100
AcDbEntity
  8
0
100
AcDbText
 10
24250.039
 20
9732.9363
 30
0.0
 40
200.0
  1
アルミ製
  7
EXTFONT
100
AcDbText
  0
TEXT
  5
35D
330
4FF
100
AcDbEntity
  8
0
100
AcDbText
 10
27550.039
 20
7482.9363
 30
0.0
 40
200.0
  1
＊
  7
EXTFONT
100
AcDbText
  0
TEXT
  5
35E
330
4FF
100
AcDbEntity
  8
0
100
AcDbText
 10
27850.039
 20
7732.9363
 30
0.0
 40
200.0
  1
＊
  7
EXTFONT
100
AcDbText
  0
TEXT
  5
35F
330
4FF
100
AcDbEntity
  8
YKK_F1
100
AcDbText
 10
28270.039
 20
7732.9363
 30
0.0
 40
200.0
  1
箇所
  7
EXTFONT
100
AcDbText
  0
INSERT
  5
360
330
4FF
100
AcDbEntity
  8
YKK_A2
100
AcDbBlockReference
  2
SGHA31
 10
21825.039
 20
11977.9363
 30
0.0
  0
TEXT
  5
361
330
4FF
100
AcDbEntity
  8
0
100
AcDbText
 10
18550.039
 20
13687.9363
 30
0.0
 40
200.0
  1
＊
  7
EXTFONT
100
AcDbText
  0
CIRCLE
  5
362
330
4FF
100
AcDbEntity
  8
YKK_F1
100
AcDbCircle
 10
15250.039
 20
13912.9363
 30
0.0
 40
233.3333333333333
  0
TEXT
  5
363
330
4FF
100
AcDbEntity
  8
YKK_F1
100
AcDbText
 10
15090.039
 20
13712.9363
 30
0.0
 40
160.0
  1
ＡＷ
  7
EXTFONT
100
AcDbText
  0
TEXT
  5
364
330
4FF
100
AcDbEntity
  8
YKK_F1
100
AcDbText
 10
18970.039
 20
13687.9363
 30
0.0
 40
200.0
  1
箇所
  7
EXTFONT
100
AcDbText
  0
INSERT
  5
365
330
4FF
100
AcDbEntity
  8
YKK_A2
100
AcDbBlockReference
  2
SGOP
 10
17775.039
 20
11677.9363
 30
0.0
  0
LINE
  5
366
330
4FF
100
AcDbEntity
  8
YKK_A1
100
AcDbLine
 10
17690.039
 20
12692.9363
 30
0.0
 11
16660.039
 21
12692.9363
 31
0.0
  0
LINE
  5
367
330
4FF
100
AcDbEntity
  8
YKK_A1
100
AcDbLine
 10
17675.039
 20
12677.9363
 30
0.0
 11
16675.039
 21
12677.9363
 31
0.0
  0
LINE
  5
368
330
4FF
100
AcDbEntity
  8
YKK_A1
100
AcDbLine
 10
17675.039
 20
11877.9363
 30
0.0
 11
16675.039
 21
11877.9363
 31
0.0
  0
LINE
  5
369
330
4FF
100
AcDbEntity
  8
YKK_A1
100
AcDbLine
 10
17675.039
 20
11877.9363
 30
0.0
 11
16675.039
 21
11877.9363
 31
0.0
  0
LINE
  5
36A
330
4FF
100
AcDbEntity
  8
YKK_A1
100
AcDbLine
 10
16675.039
 20
11877.9363
 30
0.0
 11
17675.039
 21
11877.9363
 31
0.0
  0
LINE
  5
36B
330
4FF
100
AcDbEntity
  8
YKK_A1
100
AcDbLine
 10
17675.039
 20
11977.9363
 30
0.0
 11
16675.039
 21
11977.9363
 31
0.0
  0
LINE
  5
36C
330
4FF
100
AcDbEntity
  8
YKK_A1
100
AcDbLine
 10
16675.039
 20
11977.9363
 30
0.0
 11
17675.039
 21
11977.9363
 31
0.0
  0
LINE
  5
36D
330
4FF
100
AcDbEntity
  8
YKK_A1
  6
CENTER
100
AcDbLine
 10
16675.039
 20
11977.9363
 30
0.0
 11
17175.039
 21
12677.9363
 31
0.0
  0
LINE
  5
36E
330
4FF
100
AcDbEntity
  8
YKK_A1
100
AcDbLine
 10
16660.039
 20
11177.9363
 30
0.0
 11
17690.039
 21
11177.9363
 31
0.0
  0
LINE
  5
36F
330
4FF
100
AcDbEntity
  8
YKK_A1
100
AcDbLine
 10
16675.039
 20
11177.9363
 30
0.0
 11
17675.039
 21
11177.9363
 31
0.0
  0
LINE
  5
370
330
4FF
100
AcDbEntity
  8
YKK_A1
100
AcDbLine
 10
16675.039
 20
11177.9363
 30
0.0
 11
17675.039
 21
11177.9363
 31
0.0
  0
LINE
  5
371
330
4FF
100
AcDbEntity
  8
YKK_N1
  6
ByBlock
100
AcDbLine
 10
16676.039
 20
10777.9363
 30
0.0
 11
17674.039
 21
10777.9363
 31
0.0
  0
TEXT
  5
372
330
4FF
100
AcDbEntity
  8
YKK_N1
100
AcDbText
 10
17027.61042857
 20
10787.9363
 30
0.0
 40
60.0
  1
W=1000
 41
0.8
  7
YKK_SGSTYLE1
100
AcDbText
  0
LINE
  5
373
330
4FF
100
AcDbEntity
  8
YKK_A1
100
AcDbLine
 10
16675.039
 20
12677.9363
 30
0.0
 11
16675.039
 21
11977.9363
 31
0.0
  0
LINE
  5
374
330
4FF
100
AcDbEntity
  8
YKK_A1
100
AcDbLine
 10
16660.039
 20
12692.9363
 30
0.0
 11
16660.039
 21
11177.9363
 31
0.0
  0
LINE
  5
375
330
4FF
100
AcDbEntity
  8
YKK_A1
100
AcDbLine
 10
16675.039
 20
11877.9363
 30
0.0
 11
16675.039
 21
11177.9363
 31
0.0
  0
LINE
  5
376
330
4FF
100
AcDbEntity
  8
YKK_A1
100
AcDbLine
 10
16675.039
 20
11877.9363
 30
0.0
 11
16675.039
 21
11177.9363
 31
0.0
  0
LINE
  5
377
330
4FF
100
AcDbEntity
  8
YKK_N1
  6
ByBlock
100
AcDbLine
 10
16675.039
 20
11117.9363
 30
0.0
 11
16675.039
 21
10747.9363
 31
0.0
  0
LINE
  5
378
330
4FF
100
AcDbEntity
  8
YKK_N1
  6
ByBlock
100
AcDbLine
 10
16761.64154038
 20
10827.9363
 30
0.0
 11
16675.039
 21
10777.9363
 31
0.0
  0
LINE
  5
379
330
4FF
100
AcDbEntity
  8
YKK_N1
  6
ByBlock
100
AcDbLine
 10
16761.64154038
 20
10727.9363
 30
0.0
 11
16761.64154038
 21
10827.9363
 31
0.0
  0
LINE
  5
37A
330
4FF
100
AcDbEntity
  8
YKK_N1
  6
ByBlock
100
AcDbLine
 10
16675.039
 20
10777.9363
 30
0.0
 11
16761.64154038
 21
10727.9363
 31
0.0
  0
LINE
  5
37B
330
4FF
100
AcDbEntity
  8
YKK_N1
  6
ByBlock
100
AcDbLine
 10
16675.039
 20
10777.9363
 30
0.0
 11
16775.039
 21
10777.9363
 31
0.0
  0
LINE
  5
37C
330
4FF
100
AcDbEntity
  8
YKK_A1
100
AcDbLine
 10
16675.039
 20
11977.9363
 30
0.0
 11
16675.039
 21
11877.9363
 31
0.0
  0
TEXT
  5
37D
330
4FF
100
AcDbEntity
  8
0
100
AcDbText
 10
14950.039
 20
13437.9363
 30
0.0
 40
200.0
  1
＊
  7
EXTFONT
100
AcDbText
  0
LINE
  5
37E
330
4FF
100
AcDbEntity
  8
YKK_N1
  6
ByBlock
100
AcDbLine
 10
18075.039
 20
11178.9363
 30
0.0
 11
18075.039
 21
12676.9363
 31
0.0
  0
LINE
  5
37F
330
4FF
100
AcDbEntity
  8
YKK_A1
100
AcDbLine
 10
17675.039
 20
11977.9363
 30
0.0
 11
17675.039
 21
12677.9363
 31
0.0
  0
LINE
  5
380
330
4FF
100
AcDbEntity
  8
YKK_A1
  6
CENTER
100
AcDbLine
 10
17175.039
 20
12677.9363
 30
0.0
 11
17675.039
 21
11977.9363
 31
0.0
  0
LINE
  5
381
330
4FF
100
AcDbEntity
  8
YKK_A1
100
AcDbLine
 10
17690.039
 20
11177.9363
 30
0.0
 11
17690.039
 21
12692.9363
 31
0.0
  0
LINE
  5
382
330
4FF
100
AcDbEntity
  8
YKK_A1
100
AcDbLine
 10
17675.039
 20
11177.9363
 30
0.0
 11
17675.039
 21
11877.9363
 31
0.0
  0
LINE
  5
383
330
4FF
100
AcDbEntity
  8
YKK_A1
100
AcDbLine
 10
17675.039
 20
11177.9363
 30
0.0
 11
17675.039
 21
11877.9363
 31
0.0
  0
LINE
  5
384
330
4FF
100
AcDbEntity
  8
YKK_N1
  6
ByBlock
100
AcDbLine
 10
17735.039
 20
11177.9363
 30
0.0
 11
18105.039
 21
11177.9363
 31
0.0
  0
LINE
  5
385
330
4FF
100
AcDbEntity
  8
YKK_N1
  6
ByBlock
100
AcDbLine
 10
17675.039
 20
11117.9363
 30
0.0
 11
17675.039
 21
10747.9363
 31
0.0
  0
LINE
  5
386
330
4FF
100
AcDbEntity
  8
YKK_N1
  6
ByBlock
100
AcDbLine
 10
17675.039
 20
10777.9363
 30
0.0
 11
17575.039
 21
10777.9363
 31
0.0
  0
LINE
  5
387
330
4FF
100
AcDbEntity
  8
YKK_N1
  6
ByBlock
100
AcDbLine
 10
17588.43645962
 20
10727.9363
 30
0.0
 11
17675.039
 21
10777.9363
 31
0.0
  0
LINE
  5
388
330
4FF
100
AcDbEntity
  8
YKK_N1
  6
ByBlock
100
AcDbLine
 10
17588.43645962
 20
10827.9363
 30
0.0
 11
17588.43645962
 21
10727.9363
 31
0.0
  0
LINE
  5
389
330
4FF
100
AcDbEntity
  8
YKK_N1
  6
ByBlock
100
AcDbLine
 10
17675.039
 20
10777.9363
 30
0.0
 11
17588.43645962
 21
10827.9363
 31
0.0
  0
POINT
  5
38A
330
4FF
100
AcDbEntity
  8
YKK_N1
  6
ByBlock
100
AcDbPoint
 10
17675.039
 20
10777.9363
 30
0.0
  0
TEXT
  5
38B
330
4FF
100
AcDbEntity
  8
YKK_A1
100
AcDbText
 10
17606.18185714
 20
11207.9363
 30
0.0
 40
60.0
  1
F
 41
0.8
  7
YKK_SGSTYLE1
 72
     2
 11
17645.039
 21
11207.9363
 31
0.0
100
AcDbText
  0
LINE
  5
38C
330
4FF
100
AcDbEntity
  8
YKK_N1
  6
ByBlock
100
AcDbLine
 10
18025.039
 20
11264.53884038
 30
0.0
 11
18075.039
 21
11177.9363
 31
0.0
  0
LINE
  5
38D
330
4FF
100
AcDbEntity
  8
YKK_N1
  6
ByBlock
100
AcDbLine
 10
18125.039
 20
11264.53884038
 30
0.0
 11
18025.039
 21
11264.53884038
 31
0.0
  0
LINE
  5
38E
330
4FF
100
AcDbEntity
  8
YKK_N1
  6
ByBlock
100
AcDbLine
 10
18075.039
 20
11177.9363
 30
0.0
 11
18075.039
 21
11277.9363
 31
0.0
  0
LINE
  5
38F
330
4FF
100
AcDbEntity
  8
YKK_N1
  6
ByBlock
100
AcDbLine
 10
18075.039
 20
11177.9363
 30
0.0
 11
18125.039
 21
11264.53884038
 31
0.0
  0
LINE
  5
390
330
4FF
100
AcDbEntity
  8
YKK_A2
  6
HIDDEN
100
AcDbLine
 10
17675.039
 20
11977.9363
 30
0.0
 11
17755.039
 21
11977.9363
 31
0.0
  0
LINE
  5
391
330
4FF
100
AcDbEntity
  8
YKK_A1
100
AcDbLine
 10
17675.039
 20
11877.9363
 30
0.0
 11
17675.039
 21
11977.9363
 31
0.0
  0
LINE
  5
392
330
4FF
100
AcDbEntity
  8
YKK_A2
  6
HIDDEN
100
AcDbLine
 10
17775.039
 20
11957.9363
 30
0.0
 11
17775.039
 21
11727.9363
 31
0.0
  0
TEXT
  5
393
330
4FF
100
AcDbEntity
  8
YKK_N1
100
AcDbText
 10
18065.039
 20
11780.50772857
 30
0.0
 40
60.0
  1
H=1500
 50
90.0
 41
0.8
  7
YKK_SGSTYLE1
100
AcDbText
  0
ARC
  5
394
330
4FF
100
AcDbEntity
  8
YKK_A2
  6
HIDDEN
100
AcDbCircle
 10
17755.039
 20
11957.9363
 30
0.0
 40
20.0
100
AcDbArc
 50
0.0
 51
90.0
  0
TEXT
  5
395
330
4FF
100
AcDbEntity
  8
0
100
AcDbText
 10
18250.039
 20
13437.9363
 30
0.0
 40
200.0
  1
＊
  7
EXTFONT
100
AcDbText
  0
LINE
  5
396
330
4FF
100
AcDbEntity
  8
YKK_N1
  6
ByBlock
100
AcDbLine
 10
17735.039
 20
12677.9363
 30
0.0
 11
18105.039
 21
12677.9363
 31
0.0
  0
LINE
  5
397
330
4FF
100
AcDbEntity
  8
YKK_N1
  6
ByBlock
100
AcDbLine
 10
18025.039
 20
12591.33375962
 30
0.0
 11
18125.039
 21
12591.33375962
 31
0.0
  0
LINE
  5
398
330
4FF
100
AcDbEntity
  8
YKK_N1
  6
ByBlock
100
AcDbLine
 10
18075.039
 20
12677.9363
 30
0.0
 11
18025.039
 21
12591.33375962
 31
0.0
  0
POINT
  5
399
330
4FF
100
AcDbEntity
  8
YKK_N1
  6
ByBlock
100
AcDbPoint
 10
18075.039
 20
12677.9363
 30
0.0
  0
LINE
  5
39A
330
4FF
100
AcDbEntity
  8
YKK_N1
  6
ByBlock
100
AcDbLine
 10
18075.039
 20
12677.9363
 30
0.0
 11
18075.039
 21
12577.9363
 31
0.0
  0
LINE
  5
39B
330
4FF
100
AcDbEntity
  8
YKK_N1
  6
ByBlock
100
AcDbLine
 10
18125.039
 20
12591.33375962
 30
0.0
 11
18075.039
 21
12677.9363
 31
0.0
  0
TEXT
  5
39C
330
4FF
100
AcDbEntity
  8
0
100
AcDbText
 10
14950.039
 20
16187.9363
 30
0.0
 40
200.0
  1
開閉換気口付はめ殺し窓
  7
EXTFONT
100
AcDbText
  0
TEXT
  5
39D
330
4FF
100
AcDbEntity
  8
0
100
AcDbText
 10
14950.039
 20
14937.9363
 30
0.0
 40
200.0
  1
換気ブレス・防虫フィルタ・結露排水弁
  7
EXTFONT
100
AcDbText
  0
TEXT
  5
39E
330
4FF
100
AcDbEntity
  8
0
100
AcDbText
 10
14950.039
 20
14187.9363
 30
0.0
 40
200.0
  1
YKKAP　ＳＹＳＴＥＭＡ３１０同等品
  7
EXTFONT
100
AcDbText
  0
TEXT
  5
39F
330
4FF
100
AcDbEntity
  8
0
100
AcDbText
 10
14950.039
 20
14687.9363
 30
0.0
 40
200.0
  1
水切・アングル・膳板
  7
EXTFONT
100
AcDbText
  0
TEXT
  5
3A0
330
4FF
100
AcDbEntity
  8
0
100
AcDbText
 10
14950.039
 20
15937.9363
 30
0.0
 40
200.0
  1
W＝1,000　H＝700  見込70
  7
EXTFONT
100
AcDbText
  0
TEXT
  5
3A1
330
4FF
100
AcDbEntity
  8
0
100
AcDbText
 10
14950.039
 20
15437.9363
 30
0.0
 40
200.0
  1
シルバー･ｶﾗｰ(ブロンズ､ステン､ブラック)
  7
EXTFONT
100
AcDbText
  0
LINE
  5
3A2
330
4FF
100
AcDbEntity
  8
YKK_F1
  6
Continuous
100
AcDbLine
 10
15016.70566667
 20
13912.9363
 30
0.0
 11
15483.37233333
 21
13912.9363
 31
0.0
  0
TEXT
  5
3A3
330
4FF
100
AcDbEntity
  8
0
100
AcDbText
 10
15150.039
 20
13912.9363
 30
0.0
 40
200.0
  1
＊
  7
EXTFONT
100
AcDbText
  0
TEXT
  5
3A4
330
4FF
100
AcDbEntity
  8
0
100
AcDbText
 10
14950.039
 20
14437.9363
 30
0.0
 40
200.0
  1
＊
  7
EXTFONT
100
AcDbText
  0
TEXT
  5
3A5
330
4FF
100
AcDbEntity
  8
0
100
AcDbText
 10
14950.039
 20
15187.9363
 30
0.0
 40
200.0
  1
FL・透明
  7
EXTFONT
100
AcDbText
  0
TEXT
  5
3A6
330
4FF
100
AcDbEntity
  8
0
100
AcDbText
 10
14950.039
 20
15687.9363
 30
0.0
 40
200.0
  1
アルミ製
  7
EXTFONT
100
AcDbText
  0
TEXT
  5
3A7
330
4FF
100
AcDbEntity
  8
0
100
AcDbText
 10
23200.039
 20
13687.9363
 30
0.0
 40
200.0
  1
＊
  7
EXTFONT
100
AcDbText
  0
CIRCLE
  5
3A8
330
4FF
100
AcDbEntity
  8
YKK_F1
100
AcDbCircle
 10
19900.039
 20
13912.9363
 30
0.0
 40
233.3333333333333
  0
TEXT
  5
3A9
330
4FF
100
AcDbEntity
  8
YKK_F1
100
AcDbText
 10
19740.039
 20
13712.9363
 30
0.0
 40
160.0
  1
ＡＷ
  7
EXTFONT
100
AcDbText
  0
TEXT
  5
3AA
330
4FF
100
AcDbEntity
  8
YKK_F1
100
AcDbText
 10
23620.039
 20
13687.9363
 30
0.0
 40
200.0
  1
箇所
  7
EXTFONT
100
AcDbText
  0
TEXT
  5
3AB
330
4FF
100
AcDbEntity
  8
YKK_N1
100
AcDbText
 10
21677.61042857
 20
10787.9363
 30
0.0
 40
60.0
  1
W=1000
 41
0.8
  7
YKK_SGSTYLE1
100
AcDbText
  0
LINE
  5
3AC
330
4FF
100
AcDbEntity
  8
YKK_N1
  6
ByBlock
100
AcDbLine
 10
21326.039
 20
10777.9363
 30
0.0
 11
22324.039
 21
10777.9363
 31
0.0
  0
LINE
  5
3AD
330
4FF
100
AcDbEntity
  8
YKK_A1
100
AcDbLine
 10
21310.039
 20
11177.9363
 30
0.0
 11
22340.039
 21
11177.9363
 31
0.0
  0
LINE
  5
3AE
330
4FF
100
AcDbEntity
  8
YKK_A1
100
AcDbLine
 10
21325.039
 20
11177.9363
 30
0.0
 11
22325.039
 21
11177.9363
 31
0.0
  0
LINE
  5
3AF
330
4FF
100
AcDbEntity
  8
YKK_A1
100
AcDbLine
 10
21325.039
 20
11177.9363
 30
0.0
 11
22325.039
 21
11177.9363
 31
0.0
  0
LINE
  5
3B0
330
4FF
100
AcDbEntity
  8
YKK_A1
100
AcDbLine
 10
22340.039
 20
12692.9363
 30
0.0
 11
21310.039
 21
12692.9363
 31
0.0
  0
LINE
  5
3B1
330
4FF
100
AcDbEntity
  8
YKK_A1
100
AcDbLine
 10
22325.039
 20
11877.9363
 30
0.0
 11
21325.039
 21
11877.9363
 31
0.0
  0
LINE
  5
3B2
330
4FF
100
AcDbEntity
  8
YKK_A1
100
AcDbLine
 10
22325.039
 20
11877.9363
 30
0.0
 11
21325.039
 21
11877.9363
 31
0.0
  0
LINE
  5
3B3
330
4FF
100
AcDbEntity
  8
YKK_A1
100
AcDbLine
 10
21325.039
 20
11877.9363
 30
0.0
 11
22325.039
 21
11877.9363
 31
0.0
  0
LINE
  5
3B4
330
4FF
100
AcDbEntity
  8
YKK_A1
100
AcDbLine
 10
22325.039
 20
11977.9363
 30
0.0
 11
21325.039
 21
11977.9363
 31
0.0
  0
LINE
  5
3B5
330
4FF
100
AcDbEntity
  8
YKK_A1
100
AcDbLine
 10
21325.039
 20
11977.9363
 30
0.0
 11
22325.039
 21
11977.9363
 31
0.0
  0
LINE
  5
3B6
330
4FF
100
AcDbEntity
  8
YKK_A1
100
AcDbLine
 10
22325.039
 20
12677.9363
 30
0.0
 11
21325.039
 21
12677.9363
 31
0.0
  0
LINE
  5
3B7
330
4FF
100
AcDbEntity
  8
YKK_A1
  6
CENTER
100
AcDbLine
 10
21325.039
 20
11977.9363
 30
0.0
 11
22325.039
 21
12677.9363
 31
0.0
  0
LINE
  5
3B8
330
4FF
100
AcDbEntity
  8
YKK_A1
100
AcDbLine
 10
21325.039
 20
12677.9363
 30
0.0
 11
21325.039
 21
11977.9363
 31
0.0
  0
LINE
  5
3B9
330
4FF
100
AcDbEntity
  8
YKK_A1
100
AcDbLine
 10
21310.039
 20
12692.9363
 30
0.0
 11
21310.039
 21
11177.9363
 31
0.0
  0
LINE
  5
3BA
330
4FF
100
AcDbEntity
  8
YKK_A1
100
AcDbLine
 10
21325.039
 20
11877.9363
 30
0.0
 11
21325.039
 21
11177.9363
 31
0.0
  0
LINE
  5
3BB
330
4FF
100
AcDbEntity
  8
YKK_A1
100
AcDbLine
 10
21325.039
 20
11877.9363
 30
0.0
 11
21325.039
 21
11177.9363
 31
0.0
  0
LINE
  5
3BC
330
4FF
100
AcDbEntity
  8
YKK_N1
  6
ByBlock
100
AcDbLine
 10
21325.039
 20
11117.9363
 30
0.0
 11
21325.039
 21
10747.9363
 31
0.0
  0
LINE
  5
3BD
330
4FF
100
AcDbEntity
  8
YKK_N1
  6
ByBlock
100
AcDbLine
 10
21411.64154038
 20
10727.9363
 30
0.0
 11
21411.64154038
 21
10827.9363
 31
0.0
  0
LINE
  5
3BE
330
4FF
100
AcDbEntity
  8
YKK_N1
  6
ByBlock
100
AcDbLine
 10
21411.64154038
 20
10827.9363
 30
0.0
 11
21325.039
 21
10777.9363
 31
0.0
  0
LINE
  5
3BF
330
4FF
100
AcDbEntity
  8
YKK_N1
  6
ByBlock
100
AcDbLine
 10
21325.039
 20
10777.9363
 30
0.0
 11
21411.64154038
 21
10727.9363
 31
0.0
  0
LINE
  5
3C0
330
4FF
100
AcDbEntity
  8
YKK_N1
  6
ByBlock
100
AcDbLine
 10
21325.039
 20
10777.9363
 30
0.0
 11
21425.039
 21
10777.9363
 31
0.0
  0
LINE
  5
3C1
330
4FF
100
AcDbEntity
  8
YKK_A1
100
AcDbLine
 10
21325.039
 20
11977.9363
 30
0.0
 11
21325.039
 21
11877.9363
 31
0.0
  0
TEXT
  5
3C2
330
4FF
100
AcDbEntity
  8
0
100
AcDbText
 10
19600.039
 20
13437.9363
 30
0.0
 40
200.0
  1
＊
  7
EXTFONT
100
AcDbText
  0
LINE
  5
3C3
330
4FF
100
AcDbEntity
  8
YKK_A1
100
AcDbLine
 10
22325.039
 20
11977.9363
 30
0.0
 11
22325.039
 21
12677.9363
 31
0.0
  0
LINE
  5
3C4
330
4FF
100
AcDbEntity
  8
YKK_A1
100
AcDbLine
 10
22340.039
 20
11177.9363
 30
0.0
 11
22340.039
 21
12692.9363
 31
0.0
  0
LINE
  5
3C5
330
4FF
100
AcDbEntity
  8
YKK_N1
  6
ByBlock
100
AcDbLine
 10
22725.039
 20
11178.9363
 30
0.0
 11
22725.039
 21
12676.9363
 31
0.0
  0
LINE
  5
3C6
330
4FF
100
AcDbEntity
  8
YKK_A1
100
AcDbLine
 10
22325.039
 20
11177.9363
 30
0.0
 11
22325.039
 21
11877.9363
 31
0.0
  0
LINE
  5
3C7
330
4FF
100
AcDbEntity
  8
YKK_A1
100
AcDbLine
 10
22325.039
 20
11177.9363
 30
0.0
 11
22325.039
 21
11877.9363
 31
0.0
  0
LINE
  5
3C8
330
4FF
100
AcDbEntity
  8
YKK_N1
  6
ByBlock
100
AcDbLine
 10
22385.039
 20
11177.9363
 30
0.0
 11
22755.039
 21
11177.9363
 31
0.0
  0
LINE
  5
3C9
330
4FF
100
AcDbEntity
  8
YKK_N1
  6
ByBlock
100
AcDbLine
 10
22325.039
 20
11117.9363
 30
0.0
 11
22325.039
 21
10747.9363
 31
0.0
  0
LINE
  5
3CA
330
4FF
100
AcDbEntity
  8
YKK_N1
  6
ByBlock
100
AcDbLine
 10
22238.43645962
 20
10727.9363
 30
0.0
 11
22325.039
 21
10777.9363
 31
0.0
  0
LINE
  5
3CB
330
4FF
100
AcDbEntity
  8
YKK_N1
  6
ByBlock
100
AcDbLine
 10
22325.039
 20
10777.9363
 30
0.0
 11
22238.43645962
 21
10827.9363
 31
0.0
  0
LINE
  5
3CC
330
4FF
100
AcDbEntity
  8
YKK_N1
  6
ByBlock
100
AcDbLine
 10
22325.039
 20
10777.9363
 30
0.0
 11
22225.039
 21
10777.9363
 31
0.0
  0
LINE
  5
3CD
330
4FF
100
AcDbEntity
  8
YKK_N1
  6
ByBlock
100
AcDbLine
 10
22238.43645962
 20
10827.9363
 30
0.0
 11
22238.43645962
 21
10727.9363
 31
0.0
  0
POINT
  5
3CE
330
4FF
100
AcDbEntity
  8
YKK_N1
  6
ByBlock
100
AcDbPoint
 10
22325.039
 20
10777.9363
 30
0.0
  0
TEXT
  5
3CF
330
4FF
100
AcDbEntity
  8
YKK_A1
100
AcDbText
 10
22256.18185714
 20
11207.9363
 30
0.0
 40
60.0
  1
F
 41
0.8
  7
YKK_SGSTYLE1
 72
     2
 11
22295.039
 21
11207.9363
 31
0.0
100
AcDbText
  0
LINE
  5
3D0
330
4FF
100
AcDbEntity
  8
YKK_N1
  6
ByBlock
100
AcDbLine
 10
22775.039
 20
11264.53884038
 30
0.0
 11
22675.039
 21
11264.53884038
 31
0.0
  0
LINE
  5
3D1
330
4FF
100
AcDbEntity
  8
YKK_N1
  6
ByBlock
100
AcDbLine
 10
22675.039
 20
11264.53884038
 30
0.0
 11
22725.039
 21
11177.9363
 31
0.0
  0
LINE
  5
3D2
330
4FF
100
AcDbEntity
  8
YKK_N1
  6
ByBlock
100
AcDbLine
 10
22725.039
 20
11177.9363
 30
0.0
 11
22725.039
 21
11277.9363
 31
0.0
  0
LINE
  5
3D3
330
4FF
100
AcDbEntity
  8
YKK_N1
  6
ByBlock
100
AcDbLine
 10
22725.039
 20
11177.9363
 30
0.0
 11
22775.039
 21
11264.53884038
 31
0.0
  0
LINE
  5
3D4
330
4FF
100
AcDbEntity
  8
YKK_A1
100
AcDbLine
 10
22325.039
 20
11877.9363
 30
0.0
 11
22325.039
 21
11977.9363
 31
0.0
  0
TEXT
  5
3D5
330
4FF
100
AcDbEntity
  8
YKK_N1
100
AcDbText
 10
22715.039
 20
11780.50772857
 30
0.0
 40
60.0
  1
H=1500
 50
90.0
 41
0.8
  7
YKK_SGSTYLE1
100
AcDbText
  0
TEXT
  5
3D6
330
4FF
100
AcDbEntity
  8
0
100
AcDbText
 10
22900.039
 20
13437.9363
 30
0.0
 40
200.0
  1
＊
  7
EXTFONT
100
AcDbText
  0
LINE
  5
3D7
330
4FF
100
AcDbEntity
  8
YKK_N1
  6
ByBlock
100
AcDbLine
 10
22385.039
 20
12677.9363
 30
0.0
 11
22755.039
 21
12677.9363
 31
0.0
  0
LINE
  5
3D8
330
4FF
100
AcDbEntity
  8
YKK_N1
  6
ByBlock
100
AcDbLine
 10
22675.039
 20
12591.33375962
 30
0.0
 11
22775.039
 21
12591.33375962
 31
0.0
  0
LINE
  5
3D9
330
4FF
100
AcDbEntity
  8
YKK_N1
  6
ByBlock
100
AcDbLine
 10
22725.039
 20
12677.9363
 30
0.0
 11
22675.039
 21
12591.33375962
 31
0.0
  0
POINT
  5
3DA
330
4FF
100
AcDbEntity
  8
YKK_N1
  6
ByBlock
100
AcDbPoint
 10
22725.039
 20
12677.9363
 30
0.0
  0
LINE
  5
3DB
330
4FF
100
AcDbEntity
  8
YKK_N1
  6
ByBlock
100
AcDbLine
 10
22725.039
 20
12677.9363
 30
0.0
 11
22725.039
 21
12577.9363
 31
0.0
  0
LINE
  5
3DC
330
4FF
100
AcDbEntity
  8
YKK_N1
  6
ByBlock
100
AcDbLine
 10
22775.039
 20
12591.33375962
 30
0.0
 11
22725.039
 21
12677.9363
 31
0.0
  0
TEXT
  5
3DD
330
4FF
100
AcDbEntity
  8
0
100
AcDbText
 10
19600.039
 20
15937.9363
 30
0.0
 40
200.0
  1
W＝2,085　H＝700  見込70
  7
EXTFONT
100
AcDbText
  0
TEXT
  5
3DE
330
4FF
100
AcDbEntity
  8
0
100
AcDbText
 10
19600.039
 20
16187.9363
 30
0.0
 40
180.0
  1
開閉換気口付はめ殺し窓、はめ殺し縦骨連窓
  7
EXTFONT
100
AcDbText
  0
TEXT
  5
3DF
330
4FF
100
AcDbEntity
  8
0
100
AcDbText
 10
19600.039
 20
15437.9363
 30
0.0
 40
200.0
  1
シルバー･ｶﾗｰ(ブロンズ､ステン､ブラック)
  7
EXTFONT
100
AcDbText
  0
TEXT
  5
3E0
330
4FF
100
AcDbEntity
  8
0
100
AcDbText
 10
19600.039
 20
14687.9363
 30
0.0
 40
200.0
  1
水切・アングル・膳板
  7
EXTFONT
100
AcDbText
  0
TEXT
  5
3E1
330
4FF
100
AcDbEntity
  8
0
100
AcDbText
 10
19600.039
 20
14187.9363
 30
0.0
 40
200.0
  1
YKKAP　ＳＹＳＴＥＭＡ３１０同等品
  7
EXTFONT
100
AcDbText
  0
TEXT
  5
3E2
330
4FF
100
AcDbEntity
  8
0
100
AcDbText
 10
19600.039
 20
14937.9363
 30
0.0
 40
200.0
  1
換気ブレス・防虫フィルタ・結露排水弁
  7
EXTFONT
100
AcDbText
  0
TEXT
  5
3E3
330
4FF
100
AcDbEntity
  8
0
100
AcDbText
 10
19600.039
 20
15187.9363
 30
0.0
 40
200.0
  1
FL・透明
  7
EXTFONT
100
AcDbText
  0
LINE
  5
3E4
330
4FF
100
AcDbEntity
  8
YKK_F1
  6
Continuous
100
AcDbLine
 10
19666.70566667
 20
13912.9363
 30
0.0
 11
20133.37233333
 21
13912.9363
 31
0.0
  0
TEXT
  5
3E5
330
4FF
100
AcDbEntity
  8
0
100
AcDbText
 10
19800.039
 20
13912.9363
 30
0.0
 40
200.0
  1
＊
  7
EXTFONT
100
AcDbText
  0
TEXT
  5
3E6
330
4FF
100
AcDbEntity
  8
0
100
AcDbText
 10
19600.039
 20
14437.9363
 30
0.0
 40
200.0
  1
＊
  7
EXTFONT
100
AcDbText
  0
TEXT
  5
3E7
330
4FF
100
AcDbEntity
  8
0
100
AcDbText
 10
19600.039
 20
15687.9363
 30
0.0
 40
200.0
  1
アルミ製
  7
EXTFONT
100
AcDbText
  0
LINE
  5
3E8
330
4FF
100
AcDbEntity
  8
YKK_A1
100
AcDbLine
 10
17690.039
 20
18247.9363
 30
0.0
 11
16660.039
 21
18247.9363
 31
0.0
  0
LINE
  5
3E9
330
4FF
100
AcDbEntity
  8
YKK_A1
100
AcDbLine
 10
16660.039
 20
17532.9363
 30
0.0
 11
17690.039
 21
17532.9363
 31
0.0
  0
LINE
  5
3EA
330
4FF
100
AcDbEntity
  8
YKK_A1
100
AcDbLine
 10
16675.039
 20
17532.9363
 30
0.0
 11
17675.039
 21
17532.9363
 31
0.0
  0
LINE
  5
3EB
330
4FF
100
AcDbEntity
  8
YKK_A1
100
AcDbLine
 10
17675.039
 20
18232.9363
 30
0.0
 11
16675.039
 21
18232.9363
 31
0.0
  0
LINE
  5
3EC
330
4FF
100
AcDbEntity
  8
YKK_A1
100
AcDbLine
 10
16675.039
 20
17532.9363
 30
0.0
 11
17675.039
 21
17532.9363
 31
0.0
  0
LINE
  5
3ED
330
4FF
100
AcDbEntity
  8
YKK_A1
100
AcDbLine
 10
17675.039
 20
18232.9363
 30
0.0
 11
16675.039
 21
18232.9363
 31
0.0
  0
LINE
  5
3EE
330
4FF
100
AcDbEntity
  8
YKK_A1
100
AcDbLine
 10
17575.039
 20
17537.9363
 30
0.0
 11
16775.039
 21
17537.9363
 31
0.0
  0
LINE
  5
3EF
330
4FF
100
AcDbEntity
  8
YKK_N1
  6
ByBlock
100
AcDbLine
 10
16676.039
 20
17132.9363
 30
0.0
 11
17674.039
 21
17132.9363
 31
0.0
  0
TEXT
  5
3F0
330
4FF
100
AcDbEntity
  8
YKK_N1
100
AcDbText
 10
17027.61042857
 20
17142.9363
 30
0.0
 40
60.0
  1
W=1000
 41
0.8
  7
YKK_SGSTYLE1
100
AcDbText
  0
LINE
  5
3F1
330
4FF
100
AcDbEntity
  8
YKK_A1
100
AcDbLine
 10
16675.039
 20
18232.9363
 30
0.0
 11
16675.039
 21
17532.9363
 31
0.0
  0
LINE
  5
3F2
330
4FF
100
AcDbEntity
  8
YKK_A1
100
AcDbLine
 10
16675.039
 20
18232.9363
 30
0.0
 11
16675.039
 21
17532.9363
 31
0.0
  0
LINE
  5
3F3
330
4FF
100
AcDbEntity
  8
YKK_A1
100
AcDbLine
 10
16660.039
 20
18247.9363
 30
0.0
 11
16660.039
 21
17532.9363
 31
0.0
  0
LINE
  5
3F4
330
4FF
100
AcDbEntity
  8
YKK_N1
  6
ByBlock
100
AcDbLine
 10
16675.039
 20
17472.9363
 30
0.0
 11
16675.039
 21
17102.9363
 31
0.0
  0
LINE
  5
3F5
330
4FF
100
AcDbEntity
  8
YKK_N1
  6
ByBlock
100
AcDbLine
 10
16761.64154038
 20
17182.9363
 30
0.0
 11
16675.039
 21
17132.9363
 31
0.0
  0
LINE
  5
3F6
330
4FF
100
AcDbEntity
  8
YKK_N1
  6
ByBlock
100
AcDbLine
 10
16761.64154038
 20
17082.9363
 30
0.0
 11
16761.64154038
 21
17182.9363
 31
0.0
  0
LINE
  5
3F7
330
4FF
100
AcDbEntity
  8
YKK_N1
  6
ByBlock
100
AcDbLine
 10
16675.039
 20
17132.9363
 30
0.0
 11
16761.64154038
 21
17082.9363
 31
0.0
  0
LINE
  5
3F8
330
4FF
100
AcDbEntity
  8
YKK_N1
  6
ByBlock
100
AcDbLine
 10
16675.039
 20
17132.9363
 30
0.0
 11
16775.039
 21
17132.9363
 31
0.0
  0
LINE
  5
3F9
330
4FF
100
AcDbEntity
  8
YKK_A1
100
AcDbLine
 10
16775.039
 20
17537.9363
 30
0.0
 11
16775.039
 21
17532.9363
 31
0.0
  0
TEXT
  5
3FA
330
4FF
100
AcDbEntity
  8
0
100
AcDbText
 10
14950.039
 20
19392.9363
 30
0.0
 40
200.0
  1
＊
  7
EXTFONT
100
AcDbText
  0
LINE
  5
3FB
330
4FF
100
AcDbEntity
  8
YKK_F1
  6
Continuous
100
AcDbLine
 10
15016.70566667
 20
19867.9363
 30
0.0
 11
15483.37233333
 21
19867.9363
 31
0.0
  0
CIRCLE
  5
3FC
330
4FF
100
AcDbEntity
  8
YKK_F1
100
AcDbCircle
 10
15250.039
 20
19867.9363
 30
0.0
 40
233.3333333333333
  0
TEXT
  5
3FD
330
4FF
100
AcDbEntity
  8
0
100
AcDbText
 10
15150.039
 20
19867.9363
 30
0.0
 40
200.0
  1
＊
  7
EXTFONT
100
AcDbText
  0
TEXT
  5
3FE
330
4FF
100
AcDbEntity
  8
YKK_F1
100
AcDbText
 10
15090.039
 20
19667.9363
 30
0.0
 40
160.0
  1
ＡＷ
  7
EXTFONT
100
AcDbText
  0
TEXT
  5
3FF
330
4FF
100
AcDbEntity
  8
YKK_N1
100
AcDbText
 10
18065.039
 20
17758.36487143
 30
0.0
 40
60.0
  1
H=700
 50
90.0
 41
0.8
  7
YKK_SGSTYLE1
100
AcDbText
  0
LINE
  5
400
330
4FF
100
AcDbEntity
  8
YKK_N1
  6
ByBlock
100
AcDbLine
 10
18075.039
 20
17533.9363
 30
0.0
 11
18075.039
 21
18231.9363
 31
0.0
  0
LINE
  5
401
330
4FF
100
AcDbEntity
  8
YKK_A1
100
AcDbLine
 10
17675.039
 20
17532.9363
 30
0.0
 11
17675.039
 21
18232.9363
 31
0.0
  0
LINE
  5
402
330
4FF
100
AcDbEntity
  8
YKK_A1
100
AcDbLine
 10
17675.039
 20
17532.9363
 30
0.0
 11
17675.039
 21
18232.9363
 31
0.0
  0
LINE
  5
403
330
4FF
100
AcDbEntity
  8
YKK_A1
100
AcDbLine
 10
17690.039
 20
17532.9363
 30
0.0
 11
17690.039
 21
18247.9363
 31
0.0
  0
LINE
  5
404
330
4FF
100
AcDbEntity
  8
YKK_N1
  6
ByBlock
100
AcDbLine
 10
17735.039
 20
17532.9363
 30
0.0
 11
18105.039
 21
17532.9363
 31
0.0
  0
LINE
  5
405
330
4FF
100
AcDbEntity
  8
YKK_N1
  6
ByBlock
100
AcDbLine
 10
17675.039
 20
17472.9363
 30
0.0
 11
17675.039
 21
17102.9363
 31
0.0
  0
LINE
  5
406
330
4FF
100
AcDbEntity
  8
YKK_N1
  6
ByBlock
100
AcDbLine
 10
17675.039
 20
17132.9363
 30
0.0
 11
17575.039
 21
17132.9363
 31
0.0
  0
LINE
  5
407
330
4FF
100
AcDbEntity
  8
YKK_N1
  6
ByBlock
100
AcDbLine
 10
17588.43645962
 20
17082.9363
 30
0.0
 11
17675.039
 21
17132.9363
 31
0.0
  0
LINE
  5
408
330
4FF
100
AcDbEntity
  8
YKK_N1
  6
ByBlock
100
AcDbLine
 10
17588.43645962
 20
17182.9363
 30
0.0
 11
17588.43645962
 21
17082.9363
 31
0.0
  0
LINE
  5
409
330
4FF
100
AcDbEntity
  8
YKK_N1
  6
ByBlock
100
AcDbLine
 10
17675.039
 20
17132.9363
 30
0.0
 11
17588.43645962
 21
17182.9363
 31
0.0
  0
POINT
  5
40A
330
4FF
100
AcDbEntity
  8
YKK_N1
  6
ByBlock
100
AcDbPoint
 10
17675.039
 20
17132.9363
 30
0.0
  0
LINE
  5
40B
330
4FF
100
AcDbEntity
  8
YKK_A1
100
AcDbLine
 10
17575.039
 20
17532.9363
 30
0.0
 11
17575.039
 21
17537.9363
 31
0.0
  0
TEXT
  5
40C
330
4FF
100
AcDbEntity
  8
YKK_A1
100
AcDbText
 10
17606.18185714
 20
17562.9363
 30
0.0
 40
60.0
  1
F
 41
0.8
  7
YKK_SGSTYLE1
 72
     2
 11
17645.039
 21
17562.9363
 31
0.0
100
AcDbText
  0
LINE
  5
40D
330
4FF
100
AcDbEntity
  8
YKK_N1
  6
ByBlock
100
AcDbLine
 10
18025.039
 20
17619.53884038
 30
0.0
 11
18075.039
 21
17532.9363
 31
0.0
  0
LINE
  5
40E
330
4FF
100
AcDbEntity
  8
YKK_N1
  6
ByBlock
100
AcDbLine
 10
18125.039
 20
17619.53884038
 30
0.0
 11
18025.039
 21
17619.53884038
 31
0.0
  0
LINE
  5
40F
330
4FF
100
AcDbEntity
  8
YKK_N1
  6
ByBlock
100
AcDbLine
 10
18075.039
 20
17532.9363
 30
0.0
 11
18125.039
 21
17619.53884038
 31
0.0
  0
LINE
  5
410
330
4FF
100
AcDbEntity
  8
YKK_N1
  6
ByBlock
100
AcDbLine
 10
18075.039
 20
17532.9363
 30
0.0
 11
18075.039
 21
17632.9363
 31
0.0
  0
LINE
  5
411
330
4FF
100
AcDbEntity
  8
YKK_N1
  6
ByBlock
100
AcDbLine
 10
17735.039
 20
18232.9363
 30
0.0
 11
18105.039
 21
18232.9363
 31
0.0
  0
LINE
  5
412
330
4FF
100
AcDbEntity
  8
YKK_N1
  6
ByBlock
100
AcDbLine
 10
18025.039
 20
18146.33375962
 30
0.0
 11
18125.039
 21
18146.33375962
 31
0.0
  0
LINE
  5
413
330
4FF
100
AcDbEntity
  8
YKK_N1
  6
ByBlock
100
AcDbLine
 10
18075.039
 20
18232.9363
 30
0.0
 11
18025.039
 21
18146.33375962
 31
0.0
  0
LINE
  5
414
330
4FF
100
AcDbEntity
  8
YKK_N1
  6
ByBlock
100
AcDbLine
 10
18125.039
 20
18146.33375962
 30
0.0
 11
18075.039
 21
18232.9363
 31
0.0
  0
LINE
  5
415
330
4FF
100
AcDbEntity
  8
YKK_N1
  6
ByBlock
100
AcDbLine
 10
18075.039
 20
18232.9363
 30
0.0
 11
18075.039
 21
18132.9363
 31
0.0
  0
POINT
  5
416
330
4FF
100
AcDbEntity
  8
YKK_N1
  6
ByBlock
100
AcDbPoint
 10
18075.039
 20
18232.9363
 30
0.0
  0
TEXT
  5
417
330
4FF
100
AcDbEntity
  8
0
100
AcDbText
 10
18250.039
 20
19392.9363
 30
0.0
 40
200.0
  1
＊
  7
EXTFONT
100
AcDbText
  0
TEXT
  5
418
330
4FF
100
AcDbEntity
  8
0
100
AcDbText
 10
18550.039
 20
19642.9363
 30
0.0
 40
200.0
  1
＊
  7
EXTFONT
100
AcDbText
  0
TEXT
  5
419
330
4FF
100
AcDbEntity
  8
YKK_F1
100
AcDbText
 10
18970.039
 20
19642.9363
 30
0.0
 40
200.0
  1
箇所
  7
EXTFONT
100
AcDbText
  0
LINE
  5
41A
330
4FF
100
AcDbEntity
  8
YKK_A1
100
AcDbLine
 10
21867.539
 20
18232.9363
 30
0.0
 11
21782.539
 21
18232.9363
 31
0.0
  0
LINE
  5
41B
330
4FF
100
AcDbEntity
  8
YKK_A1
100
AcDbLine
 10
21782.539
 20
17532.9363
 30
0.0
 11
21867.539
 21
17532.9363
 31
0.0
  0
TEXT
  5
41C
330
4FF
100
AcDbEntity
  8
YKK_N1
100
AcDbText
 10
21677.61042857
 20
17142.9363
 30
0.0
 40
60.0
  1
W=2085
 41
0.8
  7
YKK_SGSTYLE1
100
AcDbText
  0
LINE
  5
41D
330
4FF
100
AcDbEntity
  8
YKK_A1
100
AcDbLine
 10
20767.539
 20
17532.9363
 30
0.0
 11
22882.539
 21
17532.9363
 31
0.0
  0
LINE
  5
41E
330
4FF
100
AcDbEntity
  8
YKK_A1
100
AcDbLine
 10
22882.539
 20
18247.9363
 30
0.0
 11
20767.539
 21
18247.9363
 31
0.0
  0
LINE
  5
41F
330
4FF
100
AcDbEntity
  8
YKK_N1
  6
ByBlock
100
AcDbLine
 10
20783.539
 20
17132.9363
 30
0.0
 11
22866.539
 21
17132.9363
 31
0.0
  0
LINE
  5
420
330
4FF
100
AcDbEntity
  8
YKK_A1
100
AcDbLine
 10
21782.539
 20
17532.9363
 30
0.0
 11
21782.539
 21
18232.9363
 31
0.0
  0
LINE
  5
421
330
4FF
100
AcDbEntity
  8
YKK_A1
100
AcDbLine
 10
21782.539
 20
17532.9363
 30
0.0
 11
21782.539
 21
18232.9363
 31
0.0
  0
LINE
  5
422
330
4FF
100
AcDbEntity
  8
YKK_A1
100
AcDbLine
 10
21782.539
 20
18232.9363
 30
0.0
 11
21782.539
 21
17532.9363
 31
0.0
  0
LINE
  5
423
330
4FF
100
AcDbEntity
  8
YKK_A1
100
AcDbLine
 10
20782.539
 20
18232.9363
 30
0.0
 11
20782.539
 21
17532.9363
 31
0.0
  0
LINE
  5
424
330
4FF
100
AcDbEntity
  8
YKK_A1
100
AcDbLine
 10
20782.539
 20
18232.9363
 30
0.0
 11
20782.539
 21
17532.9363
 31
0.0
  0
LINE
  5
425
330
4FF
100
AcDbEntity
  8
YKK_A1
100
AcDbLine
 10
20767.539
 20
18247.9363
 30
0.0
 11
20767.539
 21
17532.9363
 31
0.0
  0
LINE
  5
426
330
4FF
100
AcDbEntity
  8
YKK_A1
100
AcDbLine
 10
20782.539
 20
17532.9363
 30
0.0
 11
21782.539
 21
17532.9363
 31
0.0
  0
LINE
  5
427
330
4FF
100
AcDbEntity
  8
YKK_A1
100
AcDbLine
 10
20782.539
 20
17532.9363
 30
0.0
 11
21782.539
 21
17532.9363
 31
0.0
  0
LINE
  5
428
330
4FF
100
AcDbEntity
  8
YKK_A1
100
AcDbLine
 10
21682.539
 20
17537.9363
 30
0.0
 11
20882.539
 21
17537.9363
 31
0.0
  0
LINE
  5
429
330
4FF
100
AcDbEntity
  8
YKK_N1
  6
ByBlock
100
AcDbLine
 10
20782.539
 20
17472.9363
 30
0.0
 11
20782.539
 21
17102.9363
 31
0.0
  0
LINE
  5
42A
330
4FF
100
AcDbEntity
  8
YKK_N1
  6
ByBlock
100
AcDbLine
 10
20782.539
 20
17132.9363
 30
0.0
 11
20882.539
 21
17132.9363
 31
0.0
  0
LINE
  5
42B
330
4FF
100
AcDbEntity
  8
YKK_N1
  6
ByBlock
100
AcDbLine
 10
20782.539
 20
17132.9363
 30
0.0
 11
20869.14154038
 21
17082.9363
 31
0.0
  0
LINE
  5
42C
330
4FF
100
AcDbEntity
  8
YKK_N1
  6
ByBlock
100
AcDbLine
 10
20869.14154038
 20
17082.9363
 30
0.0
 11
20869.14154038
 21
17182.9363
 31
0.0
  0
LINE
  5
42D
330
4FF
100
AcDbEntity
  8
YKK_N1
  6
ByBlock
100
AcDbLine
 10
20869.14154038
 20
17182.9363
 30
0.0
 11
20782.539
 21
17132.9363
 31
0.0
  0
LINE
  5
42E
330
4FF
100
AcDbEntity
  8
YKK_A1
100
AcDbLine
 10
20882.539
 20
17537.9363
 30
0.0
 11
20882.539
 21
17532.9363
 31
0.0
  0
TEXT
  5
42F
330
4FF
100
AcDbEntity
  8
YKK_A1
100
AcDbText
 10
21713.68185714
 20
17562.9363
 30
0.0
 40
60.0
  1
F
 41
0.8
  7
YKK_SGSTYLE1
 72
     2
 11
21752.539
 21
17562.9363
 31
0.0
100
AcDbText
  0
LINE
  5
430
330
4FF
100
AcDbEntity
  8
YKK_A1
100
AcDbLine
 10
21682.539
 20
17532.9363
 30
0.0
 11
21682.539
 21
17537.9363
 31
0.0
  0
LINE
  5
431
330
4FF
100
AcDbEntity
  8
YKK_A1
100
AcDbLine
 10
21782.539
 20
18232.9363
 30
0.0
 11
20782.539
 21
18232.9363
 31
0.0
  0
LINE
  5
432
330
4FF
100
AcDbEntity
  8
YKK_A1
100
AcDbLine
 10
21782.539
 20
18232.9363
 30
0.0
 11
20782.539
 21
18232.9363
 31
0.0
  0
TEXT
  5
433
330
4FF
100
AcDbEntity
  8
0
100
AcDbText
 10
19600.039
 20
19392.9363
 30
0.0
 40
200.0
  1
＊
  7
EXTFONT
100
AcDbText
  0
LINE
  5
434
330
4FF
100
AcDbEntity
  8
YKK_F1
  6
Continuous
100
AcDbLine
 10
19666.70566667
 20
19867.9363
 30
0.0
 11
20133.37233333
 21
19867.9363
 31
0.0
  0
CIRCLE
  5
435
330
4FF
100
AcDbEntity
  8
YKK_F1
100
AcDbCircle
 10
19900.039
 20
19867.9363
 30
0.0
 40
233.3333333333333
  0
TEXT
  5
436
330
4FF
100
AcDbEntity
  8
0
100
AcDbText
 10
19800.039
 20
19867.9363
 30
0.0
 40
200.0
  1
＊
  7
EXTFONT
100
AcDbText
  0
TEXT
  5
437
330
4FF
100
AcDbEntity
  8
YKK_F1
100
AcDbText
 10
19740.039
 20
19667.9363
 30
0.0
 40
160.0
  1
ＡＷ
  7
EXTFONT
100
AcDbText
  0
LINE
  5
438
330
4FF
100
AcDbEntity
  8
YKK_N1
  6
ByBlock
100
AcDbLine
 10
22927.539
 20
17532.9363
 30
0.0
 11
23297.539
 21
17532.9363
 31
0.0
  0
LINE
  5
439
330
4FF
100
AcDbEntity
  8
YKK_N1
  6
ByBlock
100
AcDbLine
 10
22927.539
 20
18232.9363
 30
0.0
 11
23297.539
 21
18232.9363
 31
0.0
  0
LINE
  5
43A
330
4FF
100
AcDbEntity
  8
YKK_A1
100
AcDbLine
 10
22867.539
 20
17532.9363
 30
0.0
 11
22867.539
 21
18232.9363
 31
0.0
  0
LINE
  5
43B
330
4FF
100
AcDbEntity
  8
YKK_A1
100
AcDbLine
 10
22867.539
 20
17532.9363
 30
0.0
 11
22867.539
 21
18232.9363
 31
0.0
  0
LINE
  5
43C
330
4FF
100
AcDbEntity
  8
YKK_A1
100
AcDbLine
 10
21867.539
 20
17532.9363
 30
0.0
 11
21867.539
 21
18232.9363
 31
0.0
  0
LINE
  5
43D
330
4FF
100
AcDbEntity
  8
YKK_A1
100
AcDbLine
 10
21867.539
 20
18232.9363
 30
0.0
 11
21867.539
 21
17532.9363
 31
0.0
  0
LINE
  5
43E
330
4FF
100
AcDbEntity
  8
YKK_A1
100
AcDbLine
 10
21867.539
 20
18232.9363
 30
0.0
 11
21867.539
 21
17532.9363
 31
0.0
  0
LINE
  5
43F
330
4FF
100
AcDbEntity
  8
YKK_A1
100
AcDbLine
 10
22882.539
 20
17532.9363
 30
0.0
 11
22882.539
 21
18247.9363
 31
0.0
  0
LINE
  5
440
330
4FF
100
AcDbEntity
  8
YKK_A1
100
AcDbLine
 10
21867.539
 20
17532.9363
 30
0.0
 11
22867.539
 21
17532.9363
 31
0.0
  0
LINE
  5
441
330
4FF
100
AcDbEntity
  8
YKK_A1
100
AcDbLine
 10
21867.539
 20
17532.9363
 30
0.0
 11
22867.539
 21
17532.9363
 31
0.0
  0
LINE
  5
442
330
4FF
100
AcDbEntity
  8
YKK_A1
100
AcDbLine
 10
22767.539
 20
17537.9363
 30
0.0
 11
21967.539
 21
17537.9363
 31
0.0
  0
LINE
  5
443
330
4FF
100
AcDbEntity
  8
YKK_A1
100
AcDbLine
 10
21967.539
 20
17537.9363
 30
0.0
 11
21967.539
 21
17532.9363
 31
0.0
  0
LINE
  5
444
330
4FF
100
AcDbEntity
  8
YKK_N1
  6
ByBlock
100
AcDbLine
 10
22867.539
 20
17472.9363
 30
0.0
 11
22867.539
 21
17102.9363
 31
0.0
  0
POINT
  5
445
330
4FF
100
AcDbEntity
  8
YKK_N1
  6
ByBlock
100
AcDbPoint
 10
22867.539
 20
17132.9363
 30
0.0
  0
LINE
  5
446
330
4FF
100
AcDbEntity
  8
YKK_N1
  6
ByBlock
100
AcDbLine
 10
22780.93645962
 20
17182.9363
 30
0.0
 11
22780.93645962
 21
17082.9363
 31
0.0
  0
LINE
  5
447
330
4FF
100
AcDbEntity
  8
YKK_N1
  6
ByBlock
100
AcDbLine
 10
22867.539
 20
17132.9363
 30
0.0
 11
22767.539
 21
17132.9363
 31
0.0
  0
LINE
  5
448
330
4FF
100
AcDbEntity
  8
YKK_N1
  6
ByBlock
100
AcDbLine
 10
22867.539
 20
17132.9363
 30
0.0
 11
22780.93645962
 21
17182.9363
 31
0.0
  0
LINE
  5
449
330
4FF
100
AcDbEntity
  8
YKK_N1
  6
ByBlock
100
AcDbLine
 10
22780.93645962
 20
17082.9363
 30
0.0
 11
22867.539
 21
17132.9363
 31
0.0
  0
TEXT
  5
44A
330
4FF
100
AcDbEntity
  8
YKK_A1
100
AcDbText
 10
22798.68185714
 20
17562.9363
 30
0.0
 40
60.0
  1
F
 41
0.8
  7
YKK_SGSTYLE1
 72
     2
 11
22837.539
 21
17562.9363
 31
0.0
100
AcDbText
  0
LINE
  5
44B
330
4FF
100
AcDbEntity
  8
YKK_A1
100
AcDbLine
 10
22767.539
 20
17532.9363
 30
0.0
 11
22767.539
 21
17537.9363
 31
0.0
  0
LINE
  5
44C
330
4FF
100
AcDbEntity
  8
YKK_A1
100
AcDbLine
 10
22867.539
 20
18232.9363
 30
0.0
 11
21867.539
 21
18232.9363
 31
0.0
  0
LINE
  5
44D
330
4FF
100
AcDbEntity
  8
YKK_A1
100
AcDbLine
 10
22867.539
 20
18232.9363
 30
0.0
 11
21867.539
 21
18232.9363
 31
0.0
  0
TEXT
  5
44E
330
4FF
100
AcDbEntity
  8
YKK_N1
100
AcDbText
 10
23257.539
 20
17758.36487143
 30
0.0
 40
60.0
  1
H=700
 50
90.0
 41
0.8
  7
YKK_SGSTYLE1
100
AcDbText
  0
LINE
  5
44F
330
4FF
100
AcDbEntity
  8
YKK_N1
  6
ByBlock
100
AcDbLine
 10
23267.539
 20
17533.9363
 30
0.0
 11
23267.539
 21
18231.9363
 31
0.0
  0
LINE
  5
450
330
4FF
100
AcDbEntity
  8
YKK_N1
  6
ByBlock
100
AcDbLine
 10
23217.539
 20
17619.53884038
 30
0.0
 11
23267.539
 21
17532.9363
 31
0.0
  0
LINE
  5
451
330
4FF
100
AcDbEntity
  8
YKK_N1
  6
ByBlock
100
AcDbLine
 10
23317.539
 20
17619.53884038
 30
0.0
 11
23217.539
 21
17619.53884038
 31
0.0
  0
LINE
  5
452
330
4FF
100
AcDbEntity
  8
YKK_N1
  6
ByBlock
100
AcDbLine
 10
23267.539
 20
17532.9363
 30
0.0
 11
23317.539
 21
17619.53884038
 31
0.0
  0
LINE
  5
453
330
4FF
100
AcDbEntity
  8
YKK_N1
  6
ByBlock
100
AcDbLine
 10
23267.539
 20
17532.9363
 30
0.0
 11
23267.539
 21
17632.9363
 31
0.0
  0
LINE
  5
454
330
4FF
100
AcDbEntity
  8
YKK_N1
  6
ByBlock
100
AcDbLine
 10
23217.539
 20
18146.33375962
 30
0.0
 11
23317.539
 21
18146.33375962
 31
0.0
  0
LINE
  5
455
330
4FF
100
AcDbEntity
  8
YKK_N1
  6
ByBlock
100
AcDbLine
 10
23267.539
 20
18232.9363
 30
0.0
 11
23217.539
 21
18146.33375962
 31
0.0
  0
LINE
  5
456
330
4FF
100
AcDbEntity
  8
YKK_N1
  6
ByBlock
100
AcDbLine
 10
23317.539
 20
18146.33375962
 30
0.0
 11
23267.539
 21
18232.9363
 31
0.0
  0
LINE
  5
457
330
4FF
100
AcDbEntity
  8
YKK_N1
  6
ByBlock
100
AcDbLine
 10
23267.539
 20
18232.9363
 30
0.0
 11
23267.539
 21
18132.9363
 31
0.0
  0
POINT
  5
458
330
4FF
100
AcDbEntity
  8
YKK_N1
  6
ByBlock
100
AcDbPoint
 10
23267.539
 20
18232.9363
 30
0.0
  0
TEXT
  5
459
330
4FF
100
AcDbEntity
  8
0
100
AcDbText
 10
22900.039
 20
19392.9363
 30
0.0
 40
200.0
  1
＊
  7
EXTFONT
100
AcDbText
  0
TEXT
  5
45A
330
4FF
100
AcDbEntity
  8
0
100
AcDbText
 10
23200.039
 20
19642.9363
 30
0.0
 40
200.0
  1
＊
  7
EXTFONT
100
AcDbText
  0
TEXT
  5
45B
330
4FF
100
AcDbEntity
  8
YKK_F1
100
AcDbText
 10
23620.039
 20
19642.9363
 30
0.0
 40
200.0
  1
箇所
  7
EXTFONT
100
AcDbText
  0
TEXT
  5
45C
330
4FF
100
AcDbEntity
  8
YKK_F1
100
AcDbText
 10
28270.039
 20
13687.9363
 30
0.0
 40
200.0
  1
箇所
  7
EXTFONT
100
AcDbText
  0
TEXT
  5
45D
330
4FF
100
AcDbEntity
  8
YKK_F1
100
AcDbText
 10
24390.039
 20
13712.9363
 30
0.0
 40
160.0
  1
ＡＷ
  7
EXTFONT
100
AcDbText
  0
CIRCLE
  5
45E
330
4FF
100
AcDbEntity
  8
YKK_F1
100
AcDbCircle
 10
24550.039
 20
13912.9363
 30
0.0
 40
233.3333333333333
  0
TEXT
  5
45F
330
4FF
100
AcDbEntity
  8
0
100
AcDbText
 10
27850.039
 20
13687.9363
 30
0.0
 40
200.0
  1
＊
  7
EXTFONT
100
AcDbText
  0
LINE
  5
460
330
4FF
100
AcDbEntity
  8
YKK_A1
  6
CENTER
100
AcDbLine
 10
26975.039
 20
12677.9363
 30
0.0
 11
25975.039
 21
11977.9363
 31
0.0
  0
LINE
  5
461
330
4FF
100
AcDbEntity
  8
YKK_A1
100
AcDbLine
 10
26975.039
 20
11877.9363
 30
0.0
 11
25975.039
 21
11877.9363
 31
0.0
  0
LINE
  5
462
330
4FF
100
AcDbEntity
  8
YKK_A1
100
AcDbLine
 10
26975.039
 20
11877.9363
 30
0.0
 11
25975.039
 21
11877.9363
 31
0.0
  0
LINE
  5
463
330
4FF
100
AcDbEntity
  8
YKK_A1
100
AcDbLine
 10
25975.039
 20
11877.9363
 30
0.0
 11
26975.039
 21
11877.9363
 31
0.0
  0
LINE
  5
464
330
4FF
100
AcDbEntity
  8
YKK_A1
100
AcDbLine
 10
26975.039
 20
11977.9363
 30
0.0
 11
25975.039
 21
11977.9363
 31
0.0
  0
LINE
  5
465
330
4FF
100
AcDbEntity
  8
YKK_A1
100
AcDbLine
 10
25975.039
 20
11977.9363
 30
0.0
 11
26975.039
 21
11977.9363
 31
0.0
  0
LINE
  5
466
330
4FF
100
AcDbEntity
  8
YKK_A1
100
AcDbLine
 10
26990.039
 20
12692.9363
 30
0.0
 11
25960.039
 21
12692.9363
 31
0.0
  0
LINE
  5
467
330
4FF
100
AcDbEntity
  8
YKK_A1
100
AcDbLine
 10
26975.039
 20
12677.9363
 30
0.0
 11
25975.039
 21
12677.9363
 31
0.0
  0
TEXT
  5
468
330
4FF
100
AcDbEntity
  8
YKK_N1
100
AcDbText
 10
26327.61042857
 20
10787.9363
 30
0.0
 40
60.0
  1
W=1000
 41
0.8
  7
YKK_SGSTYLE1
100
AcDbText
  0
LINE
  5
469
330
4FF
100
AcDbEntity
  8
YKK_N1
  6
ByBlock
100
AcDbLine
 10
25976.039
 20
10777.9363
 30
0.0
 11
26974.039
 21
10777.9363
 31
0.0
  0
LINE
  5
46A
330
4FF
100
AcDbEntity
  8
YKK_A1
100
AcDbLine
 10
25960.039
 20
11177.9363
 30
0.0
 11
26990.039
 21
11177.9363
 31
0.0
  0
LINE
  5
46B
330
4FF
100
AcDbEntity
  8
YKK_A1
100
AcDbLine
 10
25975.039
 20
11177.9363
 30
0.0
 11
26975.039
 21
11177.9363
 31
0.0
  0
LINE
  5
46C
330
4FF
100
AcDbEntity
  8
YKK_A1
100
AcDbLine
 10
25975.039
 20
11177.9363
 30
0.0
 11
26975.039
 21
11177.9363
 31
0.0
  0
LINE
  5
46D
330
4FF
100
AcDbEntity
  8
YKK_A1
100
AcDbLine
 10
25975.039
 20
12677.9363
 30
0.0
 11
25975.039
 21
11977.9363
 31
0.0
  0
LINE
  5
46E
330
4FF
100
AcDbEntity
  8
YKK_A1
100
AcDbLine
 10
25960.039
 20
12692.9363
 30
0.0
 11
25960.039
 21
11177.9363
 31
0.0
  0
LINE
  5
46F
330
4FF
100
AcDbEntity
  8
YKK_A1
100
AcDbLine
 10
25975.039
 20
11877.9363
 30
0.0
 11
25975.039
 21
11177.9363
 31
0.0
  0
LINE
  5
470
330
4FF
100
AcDbEntity
  8
YKK_A1
100
AcDbLine
 10
25975.039
 20
11877.9363
 30
0.0
 11
25975.039
 21
11177.9363
 31
0.0
  0
LINE
  5
471
330
4FF
100
AcDbEntity
  8
YKK_N1
  6
ByBlock
100
AcDbLine
 10
25975.039
 20
11117.9363
 30
0.0
 11
25975.039
 21
10747.9363
 31
0.0
  0
LINE
  5
472
330
4FF
100
AcDbEntity
  8
YKK_N1
  6
ByBlock
100
AcDbLine
 10
26061.64154038
 20
10827.9363
 30
0.0
 11
25975.039
 21
10777.9363
 31
0.0
  0
LINE
  5
473
330
4FF
100
AcDbEntity
  8
YKK_N1
  6
ByBlock
100
AcDbLine
 10
25975.039
 20
10777.9363
 30
0.0
 11
26061.64154038
 21
10727.9363
 31
0.0
  0
LINE
  5
474
330
4FF
100
AcDbEntity
  8
YKK_N1
  6
ByBlock
100
AcDbLine
 10
25975.039
 20
10777.9363
 30
0.0
 11
26075.039
 21
10777.9363
 31
0.0
  0
LINE
  5
475
330
4FF
100
AcDbEntity
  8
YKK_N1
  6
ByBlock
100
AcDbLine
 10
26061.64154038
 20
10727.9363
 30
0.0
 11
26061.64154038
 21
10827.9363
 31
0.0
  0
LINE
  5
476
330
4FF
100
AcDbEntity
  8
YKK_A1
100
AcDbLine
 10
25975.039
 20
11977.9363
 30
0.0
 11
25975.039
 21
11877.9363
 31
0.0
  0
TEXT
  5
477
330
4FF
100
AcDbEntity
  8
0
100
AcDbText
 10
24250.039
 20
13437.9363
 30
0.0
 40
200.0
  1
＊
  7
EXTFONT
100
AcDbText
  0
LINE
  5
478
330
4FF
100
AcDbEntity
  8
YKK_N1
  6
ByBlock
100
AcDbLine
 10
27375.039
 20
11178.9363
 30
0.0
 11
27375.039
 21
12676.9363
 31
0.0
  0
LINE
  5
479
330
4FF
100
AcDbEntity
  8
YKK_A1
  6
CENTER
100
AcDbLine
 10
26475.039
 20
12327.9363
 30
0.0
 11
26975.039
 21
11977.9363
 31
0.0
  0
LINE
  5
47A
330
4FF
100
AcDbEntity
  8
YKK_A1
100
AcDbLine
 10
26975.039
 20
11977.9363
 30
0.0
 11
26975.039
 21
12677.9363
 31
0.0
  0
LINE
  5
47B
330
4FF
100
AcDbEntity
  8
YKK_A1
100
AcDbLine
 10
26990.039
 20
11177.9363
 30
0.0
 11
26990.039
 21
12692.9363
 31
0.0
  0
LINE
  5
47C
330
4FF
100
AcDbEntity
  8
YKK_A1
100
AcDbLine
 10
26975.039
 20
11177.9363
 30
0.0
 11
26975.039
 21
11877.9363
 31
0.0
  0
LINE
  5
47D
330
4FF
100
AcDbEntity
  8
YKK_A1
100
AcDbLine
 10
26975.039
 20
11177.9363
 30
0.0
 11
26975.039
 21
11877.9363
 31
0.0
  0
LINE
  5
47E
330
4FF
100
AcDbEntity
  8
YKK_N1
  6
ByBlock
100
AcDbLine
 10
26975.039
 20
11117.9363
 30
0.0
 11
26975.039
 21
10747.9363
 31
0.0
  0
LINE
  5
47F
330
4FF
100
AcDbEntity
  8
YKK_N1
  6
ByBlock
100
AcDbLine
 10
26888.43645962
 20
10727.9363
 30
0.0
 11
26975.039
 21
10777.9363
 31
0.0
  0
LINE
  5
480
330
4FF
100
AcDbEntity
  8
YKK_N1
  6
ByBlock
100
AcDbLine
 10
26888.43645962
 20
10827.9363
 30
0.0
 11
26888.43645962
 21
10727.9363
 31
0.0
  0
LINE
  5
481
330
4FF
100
AcDbEntity
  8
YKK_N1
  6
ByBlock
100
AcDbLine
 10
26975.039
 20
10777.9363
 30
0.0
 11
26888.43645962
 21
10827.9363
 31
0.0
  0
LINE
  5
482
330
4FF
100
AcDbEntity
  8
YKK_N1
  6
ByBlock
100
AcDbLine
 10
26975.039
 20
10777.9363
 30
0.0
 11
26875.039
 21
10777.9363
 31
0.0
  0
POINT
  5
483
330
4FF
100
AcDbEntity
  8
YKK_N1
  6
ByBlock
100
AcDbPoint
 10
26975.039
 20
10777.9363
 30
0.0
  0
TEXT
  5
484
330
4FF
100
AcDbEntity
  8
YKK_A1
100
AcDbText
 10
26906.18185714
 20
11207.9363
 30
0.0
 40
60.0
  1
F
 41
0.8
  7
YKK_SGSTYLE1
 72
     2
 11
26945.039
 21
11207.9363
 31
0.0
100
AcDbText
  0
LINE
  5
485
330
4FF
100
AcDbEntity
  8
YKK_N1
  6
ByBlock
100
AcDbLine
 10
27035.039
 20
11177.9363
 30
0.0
 11
27405.039
 21
11177.9363
 31
0.0
  0
LINE
  5
486
330
4FF
100
AcDbEntity
  8
YKK_N1
  6
ByBlock
100
AcDbLine
 10
27425.039
 20
11264.53884038
 30
0.0
 11
27325.039
 21
11264.53884038
 31
0.0
  0
LINE
  5
487
330
4FF
100
AcDbEntity
  8
YKK_N1
  6
ByBlock
100
AcDbLine
 10
27325.039
 20
11264.53884038
 30
0.0
 11
27375.039
 21
11177.9363
 31
0.0
  0
LINE
  5
488
330
4FF
100
AcDbEntity
  8
YKK_N1
  6
ByBlock
100
AcDbLine
 10
27375.039
 20
11177.9363
 30
0.0
 11
27375.039
 21
11277.9363
 31
0.0
  0
LINE
  5
489
330
4FF
100
AcDbEntity
  8
YKK_N1
  6
ByBlock
100
AcDbLine
 10
27375.039
 20
11177.9363
 30
0.0
 11
27425.039
 21
11264.53884038
 31
0.0
  0
LINE
  5
48A
330
4FF
100
AcDbEntity
  8
YKK_A1
100
AcDbLine
 10
26975.039
 20
11877.9363
 30
0.0
 11
26975.039
 21
11977.9363
 31
0.0
  0
TEXT
  5
48B
330
4FF
100
AcDbEntity
  8
YKK_N1
100
AcDbText
 10
27365.039
 20
11780.50772857
 30
0.0
 40
60.0
  1
H=1500
 50
90.0
 41
0.8
  7
YKK_SGSTYLE1
100
AcDbText
  0
TEXT
  5
48C
330
4FF
100
AcDbEntity
  8
0
100
AcDbText
 10
27550.039
 20
13437.9363
 30
0.0
 40
200.0
  1
＊
  7
EXTFONT
100
AcDbText
  0
LINE
  5
48D
330
4FF
100
AcDbEntity
  8
YKK_N1
  6
ByBlock
100
AcDbLine
 10
27035.039
 20
12677.9363
 30
0.0
 11
27405.039
 21
12677.9363
 31
0.0
  0
POINT
  5
48E
330
4FF
100
AcDbEntity
  8
YKK_N1
  6
ByBlock
100
AcDbPoint
 10
27375.039
 20
12677.9363
 30
0.0
  0
LINE
  5
48F
330
4FF
100
AcDbEntity
  8
YKK_N1
  6
ByBlock
100
AcDbLine
 10
27325.039
 20
12591.33375962
 30
0.0
 11
27425.039
 21
12591.33375962
 31
0.0
  0
LINE
  5
490
330
4FF
100
AcDbEntity
  8
YKK_N1
  6
ByBlock
100
AcDbLine
 10
27375.039
 20
12677.9363
 30
0.0
 11
27375.039
 21
12577.9363
 31
0.0
  0
LINE
  5
491
330
4FF
100
AcDbEntity
  8
YKK_N1
  6
ByBlock
100
AcDbLine
 10
27425.039
 20
12591.33375962
 30
0.0
 11
27375.039
 21
12677.9363
 31
0.0
  0
LINE
  5
492
330
4FF
100
AcDbEntity
  8
YKK_N1
  6
ByBlock
100
AcDbLine
 10
27375.039
 20
12677.9363
 30
0.0
 11
27325.039
 21
12591.33375962
 31
0.0
  0
LINE
  5
493
330
4FF
100
AcDbEntity
  8
YKK_F1
  6
Continuous
100
AcDbLine
 10
24316.70566667
 20
13912.9363
 30
0.0
 11
24783.37233333
 21
13912.9363
 31
0.0
  0
TEXT
  5
494
330
4FF
100
AcDbEntity
  8
0
100
AcDbText
 10
24450.039
 20
13912.9363
 30
0.0
 40
200.0
  1
＊
  7
EXTFONT
100
AcDbText
  0
TEXT
  5
495
330
4FF
100
AcDbEntity
  8
0
100
AcDbText
 10
24250.039
 20
14187.9363
 30
0.0
 40
200.0
  1
＊
  7
EXTFONT
100
AcDbText
  0
TEXT
  5
496
330
4FF
100
AcDbEntity
  8
0
100
AcDbText
 10
24250.039
 20
14437.9363
 30
0.0
 40
200.0
  1
＊
  7
EXTFONT
100
AcDbText
  0
TEXT
  5
497
330
4FF
100
AcDbEntity
  8
0
100
AcDbText
 10
24250.039
 20
14937.9363
 30
0.0
 40
200.0
  1
＊
  7
EXTFONT
100
AcDbText
  0
TEXT
  5
498
330
4FF
100
AcDbEntity
  8
0
100
AcDbText
 10
24250.039
 20
14687.9363
 30
0.0
 40
200.0
  1
＊
  7
EXTFONT
100
AcDbText
  0
TEXT
  5
499
330
4FF
100
AcDbEntity
  8
0
100
AcDbText
 10
24250.039
 20
15187.9363
 30
0.0
 40
200.0
  1
＊
  7
EXTFONT
100
AcDbText
  0
TEXT
  5
49A
330
4FF
100
AcDbEntity
  8
0
100
AcDbText
 10
24250.039
 20
16187.9363
 30
0.0
 40
200.0
  1
＊
  7
EXTFONT
100
AcDbText
  0
TEXT
  5
49B
330
4FF
100
AcDbEntity
  8
0
100
AcDbText
 10
24250.039
 20
15687.9363
 30
0.0
 40
200.0
  1
＊
  7
EXTFONT
100
AcDbText
  0
TEXT
  5
49C
330
4FF
100
AcDbEntity
  8
0
100
AcDbText
 10
24250.039
 20
15437.9363
 30
0.0
 40
200.0
  1
＊
  7
EXTFONT
100
AcDbText
  0
TEXT
  5
49D
330
4FF
100
AcDbEntity
  8
0
100
AcDbText
 10
24250.039
 20
15937.9363
 30
0.0
 40
200.0
  1
＊
  7
EXTFONT
100
AcDbText
  0
TEXT
  5
49E
330
4FF
100
AcDbEntity
  8
0
100
AcDbText
 10
24250.039
 20
19392.9363
 30
0.0
 40
200.0
  1
＊
  7
EXTFONT
100
AcDbText
  0
LINE
  5
49F
330
4FF
100
AcDbEntity
  8
YKK_F1
  6
Continuous
100
AcDbLine
 10
24316.70566667
 20
19867.9363
 30
0.0
 11
24783.37233333
 21
19867.9363
 31
0.0
  0
TEXT
  5
4A0
330
4FF
100
AcDbEntity
  8
YKK_F1
100
AcDbText
 10
24390.039
 20
19667.9363
 30
0.0
 40
160.0
  1
ＡＷ
  7
EXTFONT
100
AcDbText
  0
CIRCLE
  5
4A1
330
4FF
100
AcDbEntity
  8
YKK_F1
100
AcDbCircle
 10
24550.039
 20
19867.9363
 30
0.0
 40
233.3333333333333
  0
TEXT
  5
4A2
330
4FF
100
AcDbEntity
  8
0
100
AcDbText
 10
24450.039
 20
19867.9363
 30
0.0
 40
200.0
  1
＊
  7
EXTFONT
100
AcDbText
  0
TEXT
  5
4A3
330
4FF
100
AcDbEntity
  8
0
100
AcDbText
 10
27550.039
 20
19392.9363
 30
0.0
 40
200.0
  1
＊
  7
EXTFONT
100
AcDbText
  0
TEXT
  5
4A4
330
4FF
100
AcDbEntity
  8
0
100
AcDbText
 10
27850.039
 20
19642.9363
 30
0.0
 40
200.0
  1
＊
  7
EXTFONT
100
AcDbText
  0
TEXT
  5
4A5
330
4FF
100
AcDbEntity
  8
YKK_F1
100
AcDbText
 10
28270.039
 20
19642.9363
 30
0.0
 40
200.0
  1
箇所
  7
EXTFONT
100
AcDbText
  0
ENDSEC
  0
SECTION
  2
OBJECTS
  0
DICTIONARY
  5
4F4
330
0
100
AcDbDictionary
281
     1
  3
ACAD_CIP_PREVIOUS_PRODUCT_INFO
350
5BC
  3
ACAD_COLOR
350
550
  3
ACAD_DETAILVIEWSTYLE
350
569
  3
ACAD_GROUP
350
4F5
  3
ACAD_LAYOUT
350
56F
  3
ACAD_MATERIAL
350
51E
  3
ACAD_MLEADERSTYLE
350
565
  3
ACAD_MLINESTYLE
350
502
  3
ACAD_PLOTSETTINGS
350
56E
  3
ACAD_PLOTSTYLENAME
350
51C
  3
ACAD_SCALELIST
350
553
  3
ACAD_SECTIONVIEWSTYLE
350
567
  3
ACAD_TABLESTYLE
350
551
  3
ACAD_VISUALSTYLE
350
537
  3
ACDB_RECOMPOSE_DATA
350
5C2
  3
ACDBVARIABLEDICTIONARY
350
514
  0
XRECORD
  5
5BC
102
{ACAD_REACTORS
330
4F4
102
}
330
4F4
100
AcDbXrecord
280
     1
300
ACD
300
2014
300
86063ACD_2014_0F
  0
DICTIONARY
  5
550
102
{ACAD_REACTORS
330
4F4
102
}
330
4F4
100
AcDbDictionary
281
     1
  0
DICTIONARY
  5
569
102
{ACAD_REACTORS
330
4F4
102
}
330
4F4
100
AcDbDictionary
281
     1
  3
Imperial24
350
56A
  0
DICTIONARY
  5
4F5
102
{ACAD_REACTORS
330
4F4
102
}
330
4F4
100
AcDbDictionary
281
     1
  0
DICTIONARY
  5
56F
102
{ACAD_REACTORS
330
4F4
102
}
330
4F4
100
AcDbDictionary
281
     1
  3
Model
350
570
  3
レイアウト1
350
571
  0
DICTIONARY
  5
51E
102
{ACAD_REACTORS
330
4F4
102
}
330
4F4
100
AcDbDictionary
281
     1
  3
ByBlock
350
527
  3
ByLayer
350
51F
  3
Global
350
52F
  0
DICTIONARY
  5
565
102
{ACAD_REACTORS
330
4F4
102
}
330
4F4
100
AcDbDictionary
281
     1
  3
Standard
350
566
  0
DICTIONARY
  5
502
102
{ACAD_REACTORS
330
4F4
102
}
330
4F4
100
AcDbDictionary
281
     1
  3
STANDARD
350
503
  0
DICTIONARY
  5
56E
102
{ACAD_REACTORS
330
4F4
102
}
330
4F4
100
AcDbDictionary
281
     1
  0
ACDBDICTIONARYWDFLT
  5
51C
102
{ACAD_REACTORS
330
4F4
102
}
330
4F4
100
AcDbDictionary
281
     1
  3
Normal
350
51D
100
AcDbDictionaryWithDefault
340
51D
  0
DICTIONARY
  5
553
102
{ACAD_REACTORS
330
4F4
102
}
330
4F4
100
AcDbDictionary
281
     1
  3
A0
350
554
  3
A1
350
555
  3
A2
350
556
  3
A3
350
557
  3
A4
350
558
  3
A5
350
559
  3
A6
350
55A
  3
A7
350
55B
  3
A8
350
55C
  3
A9
350
55D
  3
B0
350
55E
  3
B1
350
55F
  3
B2
350
560
  3
B3
350
561
  3
B4
350
562
  3
B5
350
563
  3
B6
350
564
  0
DICTIONARY
  5
567
102
{ACAD_REACTORS
330
4F4
102
}
330
4F4
100
AcDbDictionary
281
     1
  3
Imperial24
350
568
  0
DICTIONARY
  5
551
102
{ACAD_REACTORS
330
4F4
102
}
330
4F4
100
AcDbDictionary
281
     1
  3
Standard
350
552
  0
DICTIONARY
  5
537
102
{ACAD_REACTORS
330
4F4
102
}
330
4F4
100
AcDbDictionary
281
     1
  3
2dWireframe
350
53D
  3
Basic
350
53C
  3
Brighten
350
543
  3
ColorChange
350
547
  3
Conceptual
350
540
  3
Dim
350
542
  3
EdgeColorOff
350
54F
  3
Facepattern
350
546
  3
Flat
350
538
  3
FlatWithEdges
350
539
  3
Gouraud
350
53A
  3
GouraudWithEdges
350
53B
  3
Hidden
350
53F
  3
JitterOff
350
54D
  3
Linepattern
350
545
  3
OverhangOff
350
54E
  3
Realistic
350
541
  3
Shaded
350
54C
  3
Shaded with edges
350
54B
  3
Shades of Gray
350
548
  3
Sketchy
350
549
  3
Thicken
350
544
  3
Wireframe
350
53E
  3
X-Ray
350
54A
  0
XRECORD
  5
5C2
102
{ACAD_REACTORS
330
4F4
102
}
330
4F4
100
AcDbXrecord
280
     1
 90
        1
330
552
  0
DICTIONARY
  5
514
102
{ACAD_REACTORS
330
4F4
102
}
330
4F4
100
AcDbDictionary
281
     1
  3
CANNOSCALE
350
5B4
  3
CMLEADERSTYLE
350
5B1
  3
CTABLESTYLE
350
5B0
  3
CVIEWDETAILSTYLE
350
5B2
  3
CVIEWSECTIONSTYLE
350
5B3
  3
DIMADEC
350
515
  3
XCLIPFRAME
350
5C0
  0
ACDBDETAILVIEWSTYLE
  5
56A
102
{ACAD_XDICTIONARY
360
5FB
102
}
102
{ACAD_REACTORS
330
569
102
}
330
569
100
AcDbModelDocViewStyle
 70
     0
  3
Imperial24
290
     0
100
AcDbDetailViewStyle
 70
     0
 71
     0
 90
        3
 71
     1
340
4F7
 62
   256
 40
0.24
340
0
 62
   256
 40
0.24
300

 40
0.36
280
     3
 71
     2
340
4FB
 90
       25
 62
   256
 71
     3
340
4F7
 62
   256
 40
0.24
 90
        1
 40
0.75
 90
        1
300
%<\AcVar ViewType \f "%tc1">% %<\AcVar ViewDetailId>%\PSCALE %<\AcVar ViewScale \f "%sn">%
 71
     4
340
4FB
 90
       25
 62
   256
340
4FB
 90
       25
 62
   256
280
     0
  0
LAYOUT
  5
570
102
{ACAD_REACTORS
330
56F
102
}
330
56F
100
AcDbPlotSettings
  1

  2
C:\ACAD-I\support\plotters\Default Windows System Printer.pc3
  4
A4
  6

 40
3.17499995
 41
3.17499995
 42
3.17500305
 43
3.17498779
 44
209.88865662
 45
297.05300903
 46
0.0
 47
0.0
 48
0.0
 49
0.0
140
0.0
141
0.0
142
1.0
143
3470.06764525
 70
 11952
 72
     0
 73
     1
 74
     0
  7
monochrome.ctb
 75
     0
147
0.00028818
 76
     0
 77
     2
 78
   300
148
96658.03274054
149
3044.65860447
100
AcDbLayout
  1
Model
 70
     1
 71
     0
 10
0.0
 20
0.0
 11
12.0
 21
9.0
 12
0.0
 22
0.0
 32
0.0
 14
0.0
 24
0.0
 34
0.0
 15
0.0
 25
0.0
 35
0.0
146
0.0
 13
0.0
 23
0.0
 33
0.0
 16
1.0
 26
0.0
 36
0.0
 17
0.0
 27
1.0
 37
0.0
 76
     0
330
4FF
1001
ACAD_PSEXT
1000
C:\ACAD-I\support\plotters\Default Windows System Printer.pc3
1000
Fiery PRO80 65-55C-KM PS3.0jp
1000
IP_10.230.204.212
1000

1070
     0
  0
LAYOUT
  5
571
102
{ACAD_REACTORS
330
56F
102
}
330
56F
100
AcDbPlotSettings
  1

  2
C:\ACAD-I\support\plotters\Default Windows System Printer.pc3
  4
A4
  6

 40
3.17499995
 41
3.17499995
 42
3.17500305
 43
3.17498779
 44
209.88865662
 45
297.05300903
 46
0.0
 47
0.0
 48
0.0
 49
0.0
140
0.0
141
0.0
142
1.0
143
1.0
 70
 15024
 72
     0
 73
     1
 74
     5
  7
monochrome.ctb
 75
    16
147
1.0
 76
     0
 77
     2
 78
   300
148
0.0
149
0.0
100
AcDbLayout
  1
レイアウト1
 70
     1
 71
     1
 10
0.0
 20
0.0
 11
420.0
 21
297.0
 12
0.0
 22
0.0
 32
0.0
 14
1.00000000E+20
 24
1.00000000E+20
 34
1.00000000E+20
 15
-1.00000000E+20
 25
-1.00000000E+20
 35
-1.00000000E+20
146
0.0
 13
0.0
 23
0.0
 33
0.0
 16
1.0
 26
0.0
 36
0.0
 17
0.0
 27
1.0
 37
0.0
 76
     0
330
4FC
1001
ACAD_PSEXT
1000
C:\ACAD-I\support\plotters\Default Windows System Printer.pc3
1000
Fiery PRO80 65-55C-KM PS3.0jp
1000
IP_10.230.204.212
1000

1070
     0
  0
MATERIAL
  5
527
102
{ACAD_XDICTIONARY
360
528
102
}
102
{ACAD_REACTORS
330
51E
102
}
330
51E
100
AcDbMaterial
  1
ByBlock
 72
     0
 43
0.02083333
 43
0.0
 43
0.0
 43
0.0
 43
0.0
 43
0.02083333
 43
0.0
 43
0.0
 43
0.0
 43
0.0
 43
1.0
 43
0.0
 43
0.0
 43
0.0
 43
0.0
 43
1.0
 77
     0
 47
0.02083333
 47
0.0
 47
0.0
 47
0.0
 47
0.0
 47
0.02083333
 47
0.0
 47
0.0
 47
0.0
 47
0.0
 47
1.0
 47
0.0
 47
0.0
 47
0.0
 47
0.0
 47
1.0
171
     0
 49
0.02083333
 49
0.0
 49
0.0
 49
0.0
 49
0.0
 49
0.02083333
 49
0.0
 49
0.0
 49
0.0
 49
0.0
 49
1.0
 49
0.0
 49
0.0
 49
0.0
 49
0.0
 49
1.0
175
     0
142
0.02083333
142
0.0
142
0.0
142
0.0
142
0.0
142
0.02083333
142
0.0
142
0.0
142
0.0
142
0.0
142
1.0
142
0.0
142
0.0
142
0.0
142
0.0
142
1.0
179
     0
144
0.02083333
144
0.0
144
0.0
144
0.0
144
0.0
144
0.02083333
144
0.0
144
0.0
144
0.0
144
0.0
144
1.0
144
0.0
144
0.0
144
0.0
144
0.0
144
1.0
147
0.02083333
147
0.0
147
0.0
147
0.0
147
0.0
147
0.02083333
147
0.0
147
0.0
147
0.0
147
0.0
147
1.0
147
0.0
147
0.0
147
0.0
147
0.0
147
1.0
  0
MATERIAL
  5
51F
102
{ACAD_XDICTIONARY
360
520
102
}
102
{ACAD_REACTORS
330
51E
102
}
330
51E
100
AcDbMaterial
  1
ByLayer
 72
     0
 43
0.02083333
 43
0.0
 43
0.0
 43
0.0
 43
0.0
 43
0.02083333
 43
0.0
 43
0.0
 43
0.0
 43
0.0
 43
1.0
 43
0.0
 43
0.0
 43
0.0
 43
0.0
 43
1.0
 77
     0
 47
0.02083333
 47
0.0
 47
0.0
 47
0.0
 47
0.0
 47
0.02083333
 47
0.0
 47
0.0
 47
0.0
 47
0.0
 47
1.0
 47
0.0
 47
0.0
 47
0.0
 47
0.0
 47
1.0
171
     0
 49
0.02083333
 49
0.0
 49
0.0
 49
0.0
 49
0.0
 49
0.02083333
 49
0.0
 49
0.0
 49
0.0
 49
0.0
 49
1.0
 49
0.0
 49
0.0
 49
0.0
 49
0.0
 49
1.0
175
     0
142
0.02083333
142
0.0
142
0.0
142
0.0
142
0.0
142
0.02083333
142
0.0
142
0.0
142
0.0
142
0.0
142
1.0
142
0.0
142
0.0
142
0.0
142
0.0
142
1.0
179
     0
144
0.02083333
144
0.0
144
0.0
144
0.0
144
0.0
144
0.02083333
144
0.0
144
0.0
144
0.0
144
0.0
144
1.0
144
0.0
144
0.0
144
0.0
144
0.0
144
1.0
147
0.02083333
147
0.0
147
0.0
147
0.0
147
0.0
147
0.02083333
147
0.0
147
0.0
147
0.0
147
0.0
147
1.0
147
0.0
147
0.0
147
0.0
147
0.0
147
1.0
  0
MATERIAL
  5
52F
102
{ACAD_XDICTIONARY
360
530
102
}
102
{ACAD_REACTORS
330
51E
102
}
330
51E
100
AcDbMaterial
  1
Global
 72
     0
 43
0.02083333
 43
0.0
 43
0.0
 43
0.0
 43
0.0
 43
0.02083333
 43
0.0
 43
0.0
 43
0.0
 43
0.0
 43
1.0
 43
0.0
 43
0.0
 43
0.0
 43
0.0
 43
1.0
 77
     0
 47
0.02083333
 47
0.0
 47
0.0
 47
0.0
 47
0.0
 47
0.02083333
 47
0.0
 47
0.0
 47
0.0
 47
0.0
 47
1.0
 47
0.0
 47
0.0
 47
0.0
 47
0.0
 47
1.0
171
     0
 49
0.02083333
 49
0.0
 49
0.0
 49
0.0
 49
0.0
 49
0.02083333
 49
0.0
 49
0.0
 49
0.0
 49
0.0
 49
1.0
 49
0.0
 49
0.0
 49
0.0
 49
0.0
 49
1.0
175
     0
142
0.02083333
142
0.0
142
0.0
142
0.0
142
0.0
142
0.02083333
142
0.0
142
0.0
142
0.0
142
0.0
142
1.0
142
0.0
142
0.0
142
0.0
142
0.0
142
1.0
179
     0
144
0.02083333
144
0.0
144
0.0
144
0.0
144
0.0
144
0.02083333
144
0.0
144
0.0
144
0.0
144
0.0
144
1.0
144
0.0
144
0.0
144
0.0
144
0.0
144
1.0
147
0.02083333
147
0.0
147
0.0
147
0.0
147
0.0
147
0.02083333
147
0.0
147
0.0
147
0.0
147
0.0
147
1.0
147
0.0
147
0.0
147
0.0
147
0.0
147
1.0
  0
MLEADERSTYLE
  5
566
102
{ACAD_XDICTIONARY
360
5F7
102
}
102
{ACAD_REACTORS
330
565
102
}
330
565
100
AcDbMLeaderStyle
170
     2
171
     1
172
     0
 90
        2
 40
0.0
 41
0.0
173
     1
 91
-1056964608
340
4F9
 92
       -2
290
     1
 42
0.09
291
     1
 43
0.36
  3
Standard
 44
0.18
300

342
4F7
174
     1
178
     6
175
     1
176
     0
 93
-1056964608
 45
0.18
292
     0
297
     0
 46
0.18
 94
-1056964608
 47
1.0
 49
1.0
140
1.0
293
     1
141
0.0
294
     1
177
     0
142
1.0
295
     0
296
     0
143
0.125
1001
ACAD_MLEADERVER
1070
     2
  0
MLINESTYLE
  5
503
102
{ACAD_REACTORS
330
502
102
}
330
502
100
AcDbMlineStyle
  2
STANDARD
 70
     0
  3

 62
   256
 51
90.0
 52
90.0
 71
     2
 49
0.5
 62
   256
  6
BYLAYER
 49
-0.5
 62
   256
  6
BYLAYER
  0
ACDBPLACEHOLDER
  5
51D
102
{ACAD_REACTORS
330
51C
102
}
330
51C
  0
SCALE
  5
554
102
{ACAD_REACTORS
330
553
102
}
330
553
100
AcDbScale
 70
     0
300
1:1
140
1.0
141
1.0
290
     1
  0
SCALE
  5
555
102
{ACAD_REACTORS
330
553
102
}
330
553
100
AcDbScale
 70
     0
300
1/128" = 1'-0"
140
0.0078125
141
12.0
290
     0
  0
SCALE
  5
556
102
{ACAD_REACTORS
330
553
102
}
330
553
100
AcDbScale
 70
     0
300
1/64" = 1'-0"
140
0.015625
141
12.0
290
     0
  0
SCALE
  5
557
102
{ACAD_REACTORS
330
553
102
}
330
553
100
AcDbScale
 70
     0
300
1/32" = 1'-0"
140
0.03125
141
12.0
290
     0
  0
SCALE
  5
558
102
{ACAD_REACTORS
330
553
102
}
330
553
100
AcDbScale
 70
     0
300
1/16" = 1'-0"
140
0.0625
141
12.0
290
     0
  0
SCALE
  5
559
102
{ACAD_REACTORS
330
553
102
}
330
553
100
AcDbScale
 70
     0
300
3/32" = 1'-0"
140
0.09375
141
12.0
290
     0
  0
SCALE
  5
55A
102
{ACAD_REACTORS
330
553
102
}
330
553
100
AcDbScale
 70
     0
300
1/8" = 1'-0"
140
0.125
141
12.0
290
     0
  0
SCALE
  5
55B
102
{ACAD_REACTORS
330
553
102
}
330
553
100
AcDbScale
 70
     0
300
3/16" = 1'-0"
140
0.1875
141
12.0
290
     0
  0
SCALE
  5
55C
102
{ACAD_REACTORS
330
553
102
}
330
553
100
AcDbScale
 70
     0
300
1/4" = 1'-0"
140
0.25
141
12.0
290
     0
  0
SCALE
  5
55D
102
{ACAD_REACTORS
330
553
102
}
330
553
100
AcDbScale
 70
     0
300
3/8" = 1'-0"
140
0.375
141
12.0
290
     0
  0
SCALE
  5
55E
102
{ACAD_REACTORS
330
553
102
}
330
553
100
AcDbScale
 70
     0
300
1/2" = 1'-0"
140
0.5
141
12.0
290
     0
  0
SCALE
  5
55F
102
{ACAD_REACTORS
330
553
102
}
330
553
100
AcDbScale
 70
     0
300
3/4" = 1'-0"
140
0.75
141
12.0
290
     0
  0
SCALE
  5
560
102
{ACAD_REACTORS
330
553
102
}
330
553
100
AcDbScale
 70
     0
300
1" = 1'-0"
140
1.0
141
12.0
290
     0
  0
SCALE
  5
561
102
{ACAD_REACTORS
330
553
102
}
330
553
100
AcDbScale
 70
     0
300
1-1/2" = 1'-0"
140
1.5
141
12.0
290
     0
  0
SCALE
  5
562
102
{ACAD_REACTORS
330
553
102
}
330
553
100
AcDbScale
 70
     0
300
3" = 1'-0"
140
3.0
141
12.0
290
     0
  0
SCALE
  5
563
102
{ACAD_REACTORS
330
553
102
}
330
553
100
AcDbScale
 70
     0
300
6" = 1'-0"
140
6.0
141
12.0
290
     0
  0
SCALE
  5
564
102
{ACAD_REACTORS
330
553
102
}
330
553
100
AcDbScale
 70
     0
300
1'-0" = 1'-0"
140
12.0
141
12.0
290
     0
  0
ACDBSECTIONVIEWSTYLE
  5
568
102
{ACAD_XDICTIONARY
360
5F9
102
}
102
{ACAD_REACTORS
330
567
102
}
330
567
100
AcDbModelDocViewStyle
 70
     0
  3
Imperial24
290
     0
100
AcDbSectionViewStyle
 70
     0
 71
     0
 90
      102
 71
     1
340
4F7
 62
   256
 40
5.0
340
0
340
0
 62
   256
 40
5.0
300
I, O, Q, S, X, Z
 40
10.0
 90
        0
 40
2.5
 90
        0
 71
     2
340
4FB
 90
       25
 62
   256
340
4FB
 90
       50
 62
   256
 40
5.0
 40
2.5
 40
5.0
 71
     3
340
4F7
 62
   256
 40
5.0
 90
        0
 40
15.0
 90
        1
300
%<\AcVar ViewSectionStartId>%-%<\AcVar ViewSectionEndId>% (%<\AcVar ViewScale \f "%sn">%)
 71
     4
 62
   256
 62
   257
300
ANSI31
 40
1.0
 90
        0
290
     0
290
     0
 90
        6
 40
0.0
 40
1.57079633
 40
0.26179939
 40
1.30899694
 40
-0.26179939
 40
1.83259571
  0
TABLESTYLE
  5
552
102
{ACAD_XDICTIONARY
360
572
102
}
102
{ACAD_REACTORS
330
551
102
}
330
551
100
AcDbTableStyle
  3
Standard
 70
     0
 71
     0
 40
0.06
 41
0.06
280
     0
281
     0
  7
STANDARD
140
0.18
170
     2
 62
     0
 63
     7
283
     0
274
    -2
284
     1
 64
     0
275
    -2
285
     1
 65
     0
276
    -2
286
     1
 66
     0
277
    -2
287
     1
 67
     0
278
    -2
288
     1
 68
     0
279
    -2
289
     1
 69
     0
  7
STANDARD
140
0.25
170
     5
 62
     0
 63
     7
283
     0
274
    -2
284
     1
 64
     0
275
    -2
285
     1
 65
     0
276
    -2
286
     1
 66
     0
277
    -2
287
     1
 67
     0
278
    -2
288
     1
 68
     0
279
    -2
289
     1
 69
     0
  7
STANDARD
140
0.18
170
     5
 62
     0
 63
     7
283
     0
274
    -2
284
     1
 64
     0
275
    -2
285
     1
 65
     0
276
    -2
286
     1
 66
     0
277
    -2
287
     1
 67
     0
278
    -2
288
     1
 68
     0
279
    -2
289
     1
 69
     0
  0
VISUALSTYLE
  5
53D
102
{ACAD_XDICTIONARY
360
5D0
102
}
102
{ACAD_REACTORS
330
537
102
}
330
537
100
AcDbVisualStyle
  2
2dWireframe
 70
     4
 71
     0
 72
     2
 73
     0
 90
        0
 40
-0.6
 41
-30.0
 62
     5
 63
     7
421
 16777215
 74
     1
 91
        4
 64
     7
 65
   257
 75
     1
175
     1
 42
1.0
 92
        0
 66
   257
 43
1.0
 76
     1
 77
     6
 78
     2
 67
     7
 79
     5
170
     0
171
     0
290
     0
174
     0
 93
        1
 44
0.0
173
     0
291
     0
 45
0.0
1001
ACAD
1000
AcDbSavedByObjectVersion
1070
     0
  0
VISUALSTYLE
  5
53C
102
{ACAD_XDICTIONARY
360
5CE
102
}
102
{ACAD_REACTORS
330
537
102
}
330
537
100
AcDbVisualStyle
  2
Basic
 70
     7
 71
     1
 72
     0
 73
     1
 90
        0
 40
-0.6
 41
-30.0
 62
     5
 63
     7
421
 16777215
 74
     0
 91
        4
 64
     7
 65
   257
 75
     1
175
     1
 42
1.0
 92
        8
 66
     7
 43
1.0
 76
     1
 77
     6
 78
     2
 67
     7
 79
     5
170
     0
171
     0
290
     0
174
     0
 93
        1
 44
0.0
173
     0
291
     1
 45
0.0
1001
ACAD
1000
AcDbSavedByObjectVersion
1070
     0
  0
VISUALSTYLE
  5
543
102
{ACAD_XDICTIONARY
360
5DC
102
}
102
{ACAD_REACTORS
330
537
102
}
330
537
100
AcDbVisualStyle
  2
Brighten
 70
    12
 71
     2
 72
     2
 73
     0
 90
        0
 40
-0.6
 41
-30.0
 62
     5
 63
     7
421
 16777215
 74
     1
 91
        4
 64
     7
 65
   257
 75
     1
175
     1
 42
1.0
 92
        8
 66
     7
 43
1.0
 76
     1
 77
     6
 78
     2
 67
     7
 79
     5
170
     0
171
     0
290
     0
174
     0
 93
        1
 44
50.0
173
     0
291
     1
 45
0.0
1001
ACAD
1000
AcDbSavedByObjectVersion
1070
     0
  0
VISUALSTYLE
  5
547
102
{ACAD_XDICTIONARY
360
5E4
102
}
102
{ACAD_REACTORS
330
537
102
}
330
537
100
AcDbVisualStyle
  2
ColorChange
 70
    16
 71
     2
 72
     2
 73
     3
 90
        0
 40
-0.6
 41
-30.0
 62
     5
 63
     8
421
  8421504
 74
     1
 91
        4
 64
     7
 65
   257
 75
     1
175
     1
 42
1.0
 92
        8
 66
     8
424
  8421504
 43
1.0
 76
     1
 77
     6
 78
     2
 67
     7
 79
     5
170
     0
171
     0
290
     0
174
     0
 93
        1
 44
0.0
173
     0
291
     1
 45
0.0
1001
ACAD
1000
AcDbSavedByObjectVersion
1070
     0
  0
VISUALSTYLE
  5
540
102
{ACAD_XDICTIONARY
360
5D6
102
}
102
{ACAD_REACTORS
330
537
102
}
330
537
100
AcDbVisualStyle
  2
Conceptual
 70
     9
 71
     3
 72
     2
 73
     0
 90
        0
 40
-0.6
 41
-30.0
 62
     5
 63
     7
421
 16777215
 74
     2
 91
        2
 64
     7
 65
   257
 75
     1
175
     1
 42
179.0
 92
        8
 66
     7
 43
1.0
 76
     1
 77
     6
 78
     2
 67
     7
 79
     3
170
     0
171
     0
290
     0
174
     0
 93
        1
 44
0.0
173
     0
291
     0
 45
0.0
1001
ACAD
1000
AcDbSavedByObjectVersion
1070
     0
  0
VISUALSTYLE
  5
542
102
{ACAD_XDICTIONARY
360
5DA
102
}
102
{ACAD_REACTORS
330
537
102
}
330
537
100
AcDbVisualStyle
  2
Dim
 70
    11
 71
     2
 72
     2
 73
     0
 90
        0
 40
-0.6
 41
-30.0
 62
     5
 63
     7
421
 16777215
 74
     1
 91
        4
 64
     7
 65
   257
 75
     1
175
     1
 42
1.0
 92
        8
 66
     7
 43
1.0
 76
     1
 77
     6
 78
     2
 67
     7
 79
     5
170
     0
171
     0
290
     0
174
     0
 93
        1
 44
-50.0
173
     0
291
     1
 45
0.0
1001
ACAD
1000
AcDbSavedByObjectVersion
1070
     0
  0
VISUALSTYLE
  5
54F
102
{ACAD_XDICTIONARY
360
5F4
102
}
102
{ACAD_REACTORS
330
537
102
}
330
537
100
AcDbVisualStyle
  2
EdgeColorOff
 70
    22
 71
     2
 72
     2
 73
     0
 90
        0
 40
-0.6
 41
-30.0
 62
     5
 63
     7
421
 16777215
 74
     1
 91
        4
 64
     7
 65
   257
 75
     1
175
     1
 42
1.0
 92
        8
 66
     7
 43
1.0
 76
     1
 77
     6
 78
     2
 67
     7
 79
     5
170
     0
171
     0
290
     0
174
     0
 93
        1
 44
0.0
173
     0
291
     1
 45
0.0
1001
ACAD
1000
AcDbSavedByObjectVersion
1070
     0
  0
VISUALSTYLE
  5
546
102
{ACAD_XDICTIONARY
360
5E2
102
}
102
{ACAD_REACTORS
330
537
102
}
330
537
100
AcDbVisualStyle
  2
Facepattern
 70
    15
 71
     2
 72
     2
 73
     0
 90
        0
 40
-0.6
 41
-30.0
 62
     5
 63
     7
421
 16777215
 74
     1
 91
        4
 64
     7
 65
   257
 75
     1
175
     1
 42
1.0
 92
        8
 66
     7
 43
1.0
 76
     1
 77
     6
 78
     2
 67
     7
 79
     5
170
     0
171
     0
290
     0
174
     0
 93
        1
 44
0.0
173
     0
291
     1
 45
0.0
1001
ACAD
1000
AcDbSavedByObjectVersion
1070
     0
  0
VISUALSTYLE
  5
538
102
{ACAD_XDICTIONARY
360
5C6
102
}
102
{ACAD_REACTORS
330
537
102
}
330
537
100
AcDbVisualStyle
  2
Flat
 70
     0
 71
     2
 72
     1
 73
     1
 90
        2
 40
-0.6
 41
30.0
 62
     5
 63
     7
421
 16777215
 74
     0
 91
        0
 64
     7
 65
   257
 75
     1
175
     1
 42
1.0
 92
        8
 66
     7
 43
1.0
 76
     1
 77
     6
 78
     2
 67
     7
 79
     5
170
     0
171
     0
290
     0
174
     0
 93
       13
 44
0.0
173
     0
291
     1
 45
0.0
1001
ACAD
1000
AcDbSavedByObjectVersion
1070
     0
  0
VISUALSTYLE
  5
539
102
{ACAD_XDICTIONARY
360
5C8
102
}
102
{ACAD_REACTORS
330
537
102
}
330
537
100
AcDbVisualStyle
  2
FlatWithEdges
 70
     1
 71
     2
 72
     1
 73
     1
 90
        2
 40
-0.6
 41
30.0
 62
     5
 63
     7
421
 16777215
 74
     1
 91
        0
 64
     7
 65
   257
 75
     1
175
     1
 42
1.0
 92
        0
 66
   257
 43
1.0
 76
     1
 77
     6
 78
     2
 67
     7
 79
     5
170
     0
171
     0
290
     0
174
     0
 93
       13
 44
0.0
173
     0
291
     1
 45
0.0
1001
ACAD
1000
AcDbSavedByObjectVersion
1070
     0
  0
VISUALSTYLE
  5
53A
102
{ACAD_XDICTIONARY
360
5CA
102
}
102
{ACAD_REACTORS
330
537
102
}
330
537
100
AcDbVisualStyle
  2
Gouraud
 70
     2
 71
     2
 72
     2
 73
     1
 90
        2
 40
-0.6
 41
30.0
 62
     5
 63
     7
421
 16777215
 74
     0
 91
        0
 64
     7
 65
   257
 75
     1
175
     1
 42
1.0
 92
        0
 66
     7
 43
1.0
 76
     1
 77
     6
 78
     2
 67
     7
 79
     5
170
     0
171
     0
290
     0
174
     0
 93
       13
 44
0.0
173
     0
291
     1
 45
0.0
1001
ACAD
1000
AcDbSavedByObjectVersion
1070
     0
  0
VISUALSTYLE
  5
53B
102
{ACAD_XDICTIONARY
360
5CC
102
}
102
{ACAD_REACTORS
330
537
102
}
330
537
100
AcDbVisualStyle
  2
GouraudWithEdges
 70
     3
 71
     2
 72
     2
 73
     1
 90
        2
 40
-0.6
 41
30.0
 62
     5
 63
     7
421
 16777215
 74
     1
 91
        0
 64
     7
 65
   257
 75
     1
175
     1
 42
1.0
 92
        0
 66
   257
 43
1.0
 76
     1
 77
     6
 78
     2
 67
     7
 79
     5
170
     0
171
     0
290
     0
174
     0
 93
       13
 44
0.0
173
     0
291
     1
 45
0.0
1001
ACAD
1000
AcDbSavedByObjectVersion
1070
     0
  0
VISUALSTYLE
  5
53F
102
{ACAD_XDICTIONARY
360
5D4
102
}
102
{ACAD_REACTORS
330
537
102
}
330
537
100
AcDbVisualStyle
  2
Hidden
 70
     6
 71
     1
 72
     2
 73
     2
 90
        0
 40
-0.6
 41
-30.0
 62
     5
 63
     7
421
 16777215
 74
     2
 91
        2
 64
     7
 65
   257
 75
     2
175
     1
 42
40.0
 92
        0
 66
   257
 43
1.0
 76
     1
 77
     6
 78
     2
 67
     7
 79
     3
170
     0
171
     0
290
     0
174
     0
 93
        1
 44
0.0
173
     0
291
     0
 45
0.0
1001
ACAD
1000
AcDbSavedByObjectVersion
1070
     0
  0
VISUALSTYLE
  5
54D
102
{ACAD_XDICTIONARY
360
5F0
102
}
102
{ACAD_REACTORS
330
537
102
}
330
537
100
AcDbVisualStyle
  2
JitterOff
 70
    20
 71
     2
 72
     2
 73
     0
 90
        0
 40
-0.6
 41
-30.0
 62
     5
 63
     7
421
 16777215
 74
     1
 91
        4
 64
     7
 65
   257
 75
     1
175
     1
 42
1.0
 92
       10
 66
     7
 43
1.0
 76
     1
 77
     6
 78
     2
 67
     7
 79
     5
170
     0
171
     0
290
     0
174
     0
 93
        1
 44
0.0
173
     0
291
     1
 45
0.0
1001
ACAD
1000
AcDbSavedByObjectVersion
1070
     0
  0
VISUALSTYLE
  5
545
102
{ACAD_XDICTIONARY
360
5E0
102
}
102
{ACAD_REACTORS
330
537
102
}
330
537
100
AcDbVisualStyle
  2
Linepattern
 70
    14
 71
     2
 72
     2
 73
     0
 90
        0
 40
-0.6
 41
-30.0
 62
     5
 63
     7
421
 16777215
 74
     1
 91
        4
 64
     7
 65
   257
 75
     7
175
     7
 42
1.0
 92
        8
 66
     7
 43
1.0
 76
     1
 77
     6
 78
     2
 67
     7
 79
     5
170
     0
171
     0
290
     0
174
     0
 93
        1
 44
0.0
173
     0
291
     1
 45
0.0
1001
ACAD
1000
AcDbSavedByObjectVersion
1070
     0
  0
VISUALSTYLE
  5
54E
102
{ACAD_XDICTIONARY
360
5F2
102
}
102
{ACAD_REACTORS
330
537
102
}
330
537
100
AcDbVisualStyle
  2
OverhangOff
 70
    21
 71
     2
 72
     2
 73
     0
 90
        0
 40
-0.6
 41
-30.0
 62
     5
 63
     7
421
 16777215
 74
     1
 91
        4
 64
     7
 65
   257
 75
     1
175
     1
 42
1.0
 92
        9
 66
     7
 43
1.0
 76
     1
 77
     6
 78
     2
 67
     7
 79
     5
170
     0
171
     0
290
     0
174
     0
 93
        1
 44
0.0
173
     0
291
     1
 45
0.0
1001
ACAD
1000
AcDbSavedByObjectVersion
1070
     0
  0
VISUALSTYLE
  5
541
102
{ACAD_XDICTIONARY
360
5D8
102
}
102
{ACAD_REACTORS
330
537
102
}
330
537
100
AcDbVisualStyle
  2
Realistic
 70
     8
 71
     2
 72
     2
 73
     0
 90
        2
 40
-0.6
 41
30.0
 62
     5
 63
     7
421
 16777215
 74
     0
 91
        0
 64
     7
 65
   257
 75
     1
175
     1
 42
1.0
 92
        8
 66
   257
 43
1.0
 76
     1
 77
     6
 78
     2
 67
     7
 79
     3
170
     0
171
     0
290
     0
174
     0
 93
       13
 44
0.0
173
     0
291
     0
 45
0.0
1001
ACAD
1000
AcDbSavedByObjectVersion
1070
     0
  0
VISUALSTYLE
  5
54C
102
{ACAD_XDICTIONARY
360
5EE
102
}
102
{ACAD_REACTORS
330
537
102
}
330
537
100
AcDbVisualStyle
  2
Shaded
 70
    27
 71
     2
 72
     2
 73
     1
 90
        2
 40
-0.6
 41
30.0
 62
     5
 63
     7
421
 16777215
 74
     0
 91
        4
 64
     7
 65
   257
 75
     1
175
     1
 42
1.0
 92
        8
 66
   257
 43
1.0
 76
     1
 77
     6
 78
     2
 67
     8
425
  7895160
 79
     3
170
     0
171
     0
290
     0
174
     0
 93
        5
 44
0.0
173
     0
291
     0
 45
0.0
1001
ACAD
1000
AcDbSavedByObjectVersion
1070
     0
  0
VISUALSTYLE
  5
54B
102
{ACAD_XDICTIONARY
360
5EC
102
}
102
{ACAD_REACTORS
330
537
102
}
330
537
100
AcDbVisualStyle
  2
Shaded with edges
 70
    26
 71
     2
 72
     2
 73
     1
 90
        2
 40
-0.6
 41
30.0
 62
     5
 63
     7
421
 16777215
 74
     1
 91
       10
 64
     7
 65
   257
 75
     2
175
     1
 42
1.0
 92
        8
 66
   257
 43
1.0
 76
     1
 77
     6
 78
     2
 67
     7
 79
     3
170
     0
171
     0
290
     0
174
     0
 93
        5
 44
0.0
173
     0
291
     0
 45
0.0
1001
ACAD
1000
AcDbSavedByObjectVersion
1070
     0
  0
VISUALSTYLE
  5
548
102
{ACAD_XDICTIONARY
360
5E6
102
}
102
{ACAD_REACTORS
330
537
102
}
330
537
100
AcDbVisualStyle
  2
Shades of Gray
 70
    23
 71
     2
 72
     2
 73
     3
 90
        0
 40
-0.6
 41
-30.0
 62
     5
 63
     7
421
 16777215
 74
     2
 91
        2
 64
     7
 65
     7
 75
     1
175
     1
 42
40.0
 92
        8
 66
     7
 43
1.0
 76
     1
 77
     6
 78
     2
 67
     7
 79
     3
170
     0
171
     0
290
     0
174
     0
 93
        1
 44
0.0
173
     0
291
     0
 45
0.0
1001
ACAD
1000
AcDbSavedByObjectVersion
1070
     0
  0
VISUALSTYLE
  5
549
102
{ACAD_XDICTIONARY
360
5E8
102
}
102
{ACAD_REACTORS
330
537
102
}
330
537
100
AcDbVisualStyle
  2
Sketchy
 70
    24
 71
     1
 72
     2
 73
     2
 90
        0
 40
-0.6
 41
-30.0
 62
     5
 63
     7
421
 16777215
 74
     2
 91
        2
 64
     7
 65
     7
 75
     1
175
     1
 42
40.0
 92
       11
 66
     7
 43
1.0
 76
     1
 77
     6
 78
     2
 67
     7
 79
     6
170
     0
171
     0
290
     0
174
     0
 93
        1
 44
0.0
173
     0
291
     0
 45
0.0
1001
ACAD
1000
AcDbSavedByObjectVersion
1070
     0
  0
VISUALSTYLE
  5
544
102
{ACAD_XDICTIONARY
360
5DE
102
}
102
{ACAD_REACTORS
330
537
102
}
330
537
100
AcDbVisualStyle
  2
Thicken
 70
    13
 71
     2
 72
     2
 73
     0
 90
        0
 40
-0.6
 41
-30.0
 62
     5
 63
     7
421
 16777215
 74
     1
 91
        4
 64
     7
 65
   257
 75
     1
175
     1
 42
1.0
 92
       12
 66
     7
 43
1.0
 76
     1
 77
     6
 78
     2
 67
     7
 79
     5
170
     0
171
     0
290
     0
174
     0
 93
        1
 44
0.0
173
     0
291
     1
 45
0.0
1001
ACAD
1000
AcDbSavedByObjectVersion
1070
     0
  0
VISUALSTYLE
  5
53E
102
{ACAD_XDICTIONARY
360
5D2
102
}
102
{ACAD_REACTORS
330
537
102
}
330
537
100
AcDbVisualStyle
  2
Wireframe
 70
     5
 71
     0
 72
     2
 73
     0
 90
        0
 40
-0.6
 41
-30.0
 62
     5
 63
     7
421
 16777215
 74
     1
 91
        4
 64
     7
 65
   257
 75
     1
175
     1
 42
1.0
 92
        0
 66
   257
 43
1.0
 76
     1
 77
     6
 78
     2
 67
     7
 79
     3
170
     0
171
     0
290
     0
174
     0
 93
        1
 44
0.0
173
     0
291
     0
 45
0.0
1001
ACAD
1000
AcDbSavedByObjectVersion
1070
     0
  0
VISUALSTYLE
  5
54A
102
{ACAD_XDICTIONARY
360
5EA
102
}
102
{ACAD_REACTORS
330
537
102
}
330
537
100
AcDbVisualStyle
  2
X-Ray
 70
    25
 71
     2
 72
     2
 73
     1
 90
        1
 40
0.5
 41
-30.0
 62
     5
 63
     7
421
 16777215
 74
     1
 91
        0
 64
     7
 65
   257
 75
     1
175
     1
 42
1.0
 92
        8
 66
     7
 43
1.0
 76
     1
 77
     6
 78
     2
 67
     7
 79
     3
170
     0
171
     0
290
     0
174
     0
 93
       13
 44
0.0
173
     0
291
     0
 45
0.0
1001
ACAD
1000
AcDbSavedByObjectVersion
1070
     0
  0
DICTIONARYVAR
  5
5B4
102
{ACAD_REACTORS
330
514
102
}
330
514
100
DictionaryVariables
280
     0
  1
1:1
  0
DICTIONARYVAR
  5
5B1
102
{ACAD_REACTORS
330
514
102
}
330
514
100
DictionaryVariables
280
     0
  1
STANDARD
  0
DICTIONARYVAR
  5
5B0
102
{ACAD_REACTORS
330
514
102
}
330
514
100
DictionaryVariables
280
     0
  1
STANDARD
  0
DICTIONARYVAR
  5
5B2
102
{ACAD_REACTORS
330
514
102
}
330
514
100
DictionaryVariables
280
     0
  1
Imperial24
  0
DICTIONARYVAR
  5
5B3
102
{ACAD_REACTORS
330
514
102
}
330
514
100
DictionaryVariables
280
     0
  1
Imperial24
  0
DICTIONARYVAR
  5
515
102
{ACAD_REACTORS
330
514
102
}
330
514
100
DictionaryVariables
280
     0
  1
0
  0
DICTIONARYVAR
  5
5C0
102
{ACAD_REACTORS
330
514
102
}
330
514
100
DictionaryVariables
280
     0
  1
2
  0
DICTIONARY
  5
5FB
330
56A
100
AcDbDictionary
280
     1
281
     1
  3
ACAD_XREC_ROUNDTRIP
360
5FC
  0
DICTIONARY
  5
528
330
527
100
AcDbDictionary
280
     1
281
     1
  3
ACAD_XREC_ROUNDTRIP
360
5C4
  3
BUMPTILE
360
52A
  3
DIFFUSETILE
360
529
  3
OPACITYTILE
360
52D
  3
REFLECTIONTILE
360
52C
  3
REFRACTIONTILE
360
52E
  3
SPECULARTILE
360
52B
  0
DICTIONARY
  5
520
330
51F
100
AcDbDictionary
280
     1
281
     1
  3
ACAD_XREC_ROUNDTRIP
360
5C3
  3
BUMPTILE
360
522
  3
DIFFUSETILE
360
521
  3
OPACITYTILE
360
525
  3
REFLECTIONTILE
360
524
  3
REFRACTIONTILE
360
526
  3
SPECULARTILE
360
523
  0
DICTIONARY
  5
530
330
52F
100
AcDbDictionary
280
     1
281
     1
  3
ACAD_XREC_ROUNDTRIP
360
5C5
  3
BUMPTILE
360
532
  3
DIFFUSETILE
360
531
  3
OPACITYTILE
360
535
  3
REFLECTIONTILE
360
534
  3
REFRACTIONTILE
360
536
  3
SPECULARTILE
360
533
  0
DICTIONARY
  5
5F7
330
566
100
AcDbDictionary
280
     1
281
     1
  3
ACAD_XREC_ROUNDTRIP
360
5F8
  0
DICTIONARY
  5
5F9
330
568
100
AcDbDictionary
280
     1
281
     1
  3
ACAD_XREC_ROUNDTRIP
360
5FA
  0
DICTIONARY
  5
572
330
552
100
AcDbDictionary
280
     1
281
     1
  3
ACAD_ROUNDTRIP_2008_TABLESTYLE_CELLSTYLEMAP
360
5C1
  3
ACAD_XREC_ROUNDTRIP
360
5F6
  0
DICTIONARY
  5
5D0
330
53D
100
AcDbDictionary
280
     1
281
     1
  3
ACAD_XREC_ROUNDTRIP
360
5D1
  0
DICTIONARY
  5
5CE
330
53C
100
AcDbDictionary
280
     1
281
     1
  3
ACAD_XREC_ROUNDTRIP
360
5CF
  0
DICTIONARY
  5
5DC
330
543
100
AcDbDictionary
280
     1
281
     1
  3
ACAD_XREC_ROUNDTRIP
360
5DD
  0
DICTIONARY
  5
5E4
330
547
100
AcDbDictionary
280
     1
281
     1
  3
ACAD_XREC_ROUNDTRIP
360
5E5
  0
DICTIONARY
  5
5D6
330
540
100
AcDbDictionary
280
     1
281
     1
  3
ACAD_XREC_ROUNDTRIP
360
5D7
  0
DICTIONARY
  5
5DA
330
542
100
AcDbDictionary
280
     1
281
     1
  3
ACAD_XREC_ROUNDTRIP
360
5DB
  0
DICTIONARY
  5
5F4
330
54F
100
AcDbDictionary
280
     1
281
     1
  3
ACAD_XREC_ROUNDTRIP
360
5F5
  0
DICTIONARY
  5
5E2
330
546
100
AcDbDictionary
280
     1
281
     1
  3
ACAD_XREC_ROUNDTRIP
360
5E3
  0
DICTIONARY
  5
5C6
330
538
100
AcDbDictionary
280
     1
281
     1
  3
ACAD_XREC_ROUNDTRIP
360
5C7
  0
DICTIONARY
  5
5C8
330
539
100
AcDbDictionary
280
     1
281
     1
  3
ACAD_XREC_ROUNDTRIP
360
5C9
  0
DICTIONARY
  5
5CA
330
53A
100
AcDbDictionary
280
     1
281
     1
  3
ACAD_XREC_ROUNDTRIP
360
5CB
  0
DICTIONARY
  5
5CC
330
53B
100
AcDbDictionary
280
     1
281
     1
  3
ACAD_XREC_ROUNDTRIP
360
5CD
  0
DICTIONARY
  5
5D4
330
53F
100
AcDbDictionary
280
     1
281
     1
  3
ACAD_XREC_ROUNDTRIP
360
5D5
  0
DICTIONARY
  5
5F0
330
54D
100
AcDbDictionary
280
     1
281
     1
  3
ACAD_XREC_ROUNDTRIP
360
5F1
  0
DICTIONARY
  5
5E0
330
545
100
AcDbDictionary
280
     1
281
     1
  3
ACAD_XREC_ROUNDTRIP
360
5E1
  0
DICTIONARY
  5
5F2
330
54E
100
AcDbDictionary
280
     1
281
     1
  3
ACAD_XREC_ROUNDTRIP
360
5F3
  0
DICTIONARY
  5
5D8
330
541
100
AcDbDictionary
280
     1
281
     1
  3
ACAD_XREC_ROUNDTRIP
360
5D9
  0
DICTIONARY
  5
5EE
330
54C
100
AcDbDictionary
280
     1
281
     1
  3
ACAD_XREC_ROUNDTRIP
360
5EF
  0
DICTIONARY
  5
5EC
330
54B
100
AcDbDictionary
280
     1
281
     1
  3
ACAD_XREC_ROUNDTRIP
360
5ED
  0
DICTIONARY
  5
5E6
330
548
100
AcDbDictionary
280
     1
281
     1
  3
ACAD_XREC_ROUNDTRIP
360
5E7
  0
DICTIONARY
  5
5E8
330
549
100
AcDbDictionary
280
     1
281
     1
  3
ACAD_XREC_ROUNDTRIP
360
5E9
  0
DICTIONARY
  5
5DE
330
544
100
AcDbDictionary
280
     1
281
     1
  3
ACAD_XREC_ROUNDTRIP
360
5DF
  0
DICTIONARY
  5
5D2
330
53E
100
AcDbDictionary
280
     1
281
     1
  3
ACAD_XREC_ROUNDTRIP
360
5D3
  0
DICTIONARY
  5
5EA
330
54A
100
AcDbDictionary
280
     1
281
     1
  3
ACAD_XREC_ROUNDTRIP
360
5EB
  0
XRECORD
  5
5FC
102
{ACAD_REACTORS
330
5FB
102
}
330
5FB
100
AcDbXrecord
280
     1
102
DISPLAYNAME
  1
Imperial24
102
FLAGS
 90
        0
  0
XRECORD
  5
5C4
102
{ACAD_REACTORS
330
528
102
}
330
528
100
AcDbXrecord
280
     1
102
MATERIAL
148
0.0
149
0.0
149
0.0
 93
        0
 94
      127
282
     0
 72
     0
 77
     0
171
     0
175
     0
179
     0
273
     0
  0
XRECORD
  5
52A
102
{ACAD_REACTORS
330
528
102
}
330
528
100
AcDbXrecord
280
     1
270
     1
271
     1
  0
XRECORD
  5
529
102
{ACAD_REACTORS
330
528
102
}
330
528
100
AcDbXrecord
280
     1
270
     1
271
     1
  0
XRECORD
  5
52D
102
{ACAD_REACTORS
330
528
102
}
330
528
100
AcDbXrecord
280
     1
270
     1
271
     1
  0
XRECORD
  5
52C
102
{ACAD_REACTORS
330
528
102
}
330
528
100
AcDbXrecord
280
     1
270
     1
271
     1
  0
XRECORD
  5
52E
102
{ACAD_REACTORS
330
528
102
}
330
528
100
AcDbXrecord
280
     1
270
     1
271
     1
  0
XRECORD
  5
52B
102
{ACAD_REACTORS
330
528
102
}
330
528
100
AcDbXrecord
280
     1
270
     1
271
     1
  0
XRECORD
  5
5C3
102
{ACAD_REACTORS
330
520
102
}
330
520
100
AcDbXrecord
280
     1
102
MATERIAL
148
0.0
149
0.0
149
0.0
 93
        0
 94
      127
282
     0
 72
     0
 77
     0
171
     0
175
     0
179
     0
273
     0
  0
XRECORD
  5
522
102
{ACAD_REACTORS
330
520
102
}
330
520
100
AcDbXrecord
280
     1
270
     1
271
     1
  0
XRECORD
  5
521
102
{ACAD_REACTORS
330
520
102
}
330
520
100
AcDbXrecord
280
     1
270
     1
271
     1
  0
XRECORD
  5
525
102
{ACAD_REACTORS
330
520
102
}
330
520
100
AcDbXrecord
280
     1
270
     1
271
     1
  0
XRECORD
  5
524
102
{ACAD_REACTORS
330
520
102
}
330
520
100
AcDbXrecord
280
     1
270
     1
271
     1
  0
XRECORD
  5
526
102
{ACAD_REACTORS
330
520
102
}
330
520
100
AcDbXrecord
280
     1
270
     1
271
     1
  0
XRECORD
  5
523
102
{ACAD_REACTORS
330
520
102
}
330
520
100
AcDbXrecord
280
     1
270
     1
271
     1
  0
XRECORD
  5
5C5
102
{ACAD_REACTORS
330
530
102
}
330
530
100
AcDbXrecord
280
     1
102
MATERIAL
148
0.0
149
0.0
149
0.0
 93
        0
 94
      127
282
     0
 72
     0
 77
     0
171
     0
175
     0
179
     0
273
     0
  0
XRECORD
  5
532
102
{ACAD_REACTORS
330
530
102
}
330
530
100
AcDbXrecord
280
     1
270
     1
271
     1
  0
XRECORD
  5
531
102
{ACAD_REACTORS
330
530
102
}
330
530
100
AcDbXrecord
280
     1
270
     1
271
     1
  0
XRECORD
  5
535
102
{ACAD_REACTORS
330
530
102
}
330
530
100
AcDbXrecord
280
     1
270
     1
271
     1
  0
XRECORD
  5
534
102
{ACAD_REACTORS
330
530
102
}
330
530
100
AcDbXrecord
280
     1
270
     1
271
     1
  0
XRECORD
  5
536
102
{ACAD_REACTORS
330
530
102
}
330
530
100
AcDbXrecord
280
     1
270
     1
271
     1
  0
XRECORD
  5
533
102
{ACAD_REACTORS
330
530
102
}
330
530
100
AcDbXrecord
280
     1
270
     1
271
     1
  0
XRECORD
  5
5F8
102
{ACAD_REACTORS
330
5F7
102
}
330
5F7
100
AcDbXrecord
280
     1
102
ACAD_ROUNDTRIP_2012_MLEADER_STYLE
298
     1
  0
XRECORD
  5
5FA
102
{ACAD_REACTORS
330
5F9
102
}
330
5F9
100
AcDbXrecord
280
     1
102
DISPLAYNAME
  1
Imperial24
102
FLAGS
 90
        0
  0
CELLSTYLEMAP
  5
5C1
102
{ACAD_REACTORS
330
572
102
}
330
572
100
AcDbCellStyleMap
 90
        3
300
CELLSTYLE
  1
TABLEFORMAT_BEGIN
 90
        5
170
     1
 91
        0
 92
    32768
 62
   257
 93
        1
300
CONTENTFORMAT
  1
CONTENTFORMAT_BEGIN
 90
        0
 91
        0
 92
      512
 93
        0
300

 40
0.0
140
1.0
 94
        5
 62
     0
340
4F7
144
0.25
309
CONTENTFORMAT_END
171
     0
 94
        0
309
TABLEFORMAT_END
  1
CELLSTYLE_BEGIN
 90
        1
 91
        1
300
_TITLE
309
CELLSTYLE_END
300
CELLSTYLE
  1
TABLEFORMAT_BEGIN
 90
        5
170
     1
 91
        0
 92
        0
 62
   257
 93
        1
300
CONTENTFORMAT
  1
CONTENTFORMAT_BEGIN
 90
        0
 91
        0
 92
      512
 93
        0
300

 40
0.0
140
1.0
 94
        5
 62
     0
340
4F7
144
0.18
309
CONTENTFORMAT_END
171
     0
 94
        0
309
TABLEFORMAT_END
  1
CELLSTYLE_BEGIN
 90
        2
 91
        1
300
_HEADER
309
CELLSTYLE_END
300
CELLSTYLE
  1
TABLEFORMAT_BEGIN
 90
        5
170
     1
 91
        0
 92
        0
 62
   257
 93
        1
300
CONTENTFORMAT
  1
CONTENTFORMAT_BEGIN
 90
        0
 91
        0
 92
      512
 93
        0
300

 40
0.0
140
1.0
 94
        2
 62
     0
340
4F7
144
0.18
309
CONTENTFORMAT_END
171
     0
 94
        0
309
TABLEFORMAT_END
  1
CELLSTYLE_BEGIN
 90
        3
 91
        2
300
_DATA
309
CELLSTYLE_END
  0
XRECORD
  5
5F6
102
{ACAD_REACTORS
330
572
102
}
330
572
100
AcDbXrecord
280
     1
102
ACAD_ROUNDTRIP_PRE2007_TABLESTYLE
 90
      512
 91
        0
  1

 92
      512
 93
        0
  2

 94
      512
 95
        0
  3

  0
XRECORD
  5
5D1
102
{ACAD_REACTORS
330
5D0
102
}
330
5D0
100
AcDbXrecord
280
     1
102
RTVSPost2010Prop28
280
     1
102
RTVSPost2010PropOp28
 70
     1
102
RTVSPost2010Prop29
280
     1
102
RTVSPost2010PropOp29
 70
     1
102
RTVSPost2010Prop30
280
     0
102
RTVSPost2010PropOp30
 70
     1
102
RTVSPost2010Prop31
280
     0
102
RTVSPost2010PropOp31
 70
     1
102
RTVSPost2010Prop32
280
     0
102
RTVSPost2010PropOp32
 70
     1
102
RTVSPost2010Prop33
280
     0
102
RTVSPost2010PropOp33
 70
     1
102
RTVSPost2010Prop34
280
     0
102
RTVSPost2010PropOp34
 70
     1
102
RTVSPost2010Prop35
280
     0
102
RTVSPost2010PropOp35
 70
     1
102
RTVSPost2010Prop36
280
     0
102
RTVSPost2010PropOp36
 70
     1
102
RTVSPost2010Prop37
 90
       50
102
RTVSPost2010PropOp37
 70
     1
102
RTVSPost2010Prop38
140
0.0
102
RTVSPost2010PropOp38
 70
     1
102
RTVSPost2010Prop39
140
1.0
102
RTVSPost2010PropOp39
 70
     1
102
RTVSPost2010Prop40
 90
        0
102
RTVSPost2010PropOp40
 70
     1
102
RTVSPost2010Prop41ColorIndex
 90
       18
102
RTVSPost2010Prop41ColorRGB
 90
        0
102
RTVSPost2010PropOp41
 70
     1
102
RTVSPost2010Prop42
 90
       50
102
RTVSPost2010PropOp42
 70
     1
102
RTVSPost2010Prop43
 90
        3
102
RTVSPost2010PropOp43
 70
     1
102
RTVSPost2010Prop44ColorIndex
 90
        5
102
RTVSPost2010Prop44ColorRGB
 90
      255
102
RTVSPost2010PropOp44
 70
     1
102
RTVSPost2010Prop45
280
     0
102
RTVSPost2010PropOp45
 70
     1
102
RTVSPost2010Prop46
 90
       50
102
RTVSPost2010PropOp46
 70
     1
102
RTVSPost2010Prop47
 90
       50
102
RTVSPost2010PropOp47
 70
     1
102
RTVSPost2010Prop48
 90
       50
102
RTVSPost2010PropOp48
 70
     1
102
RTVSPost2010Prop49
280
     0
102
RTVSPost2010PropOp49
 70
     1
102
RTVSPost2010Prop50
 90
       50
102
RTVSPost2010PropOp50
 70
     1
102
RTVSPost2010Prop51ColorIndex
 90
      256
102
RTVSPost2010Prop51ColorRGB
 90
-16777216
102
RTVSPost2010PropOp51
 70
     0
102
RTVSPost2010Prop52
140
1.0
102
RTVSPost2010PropOp52
 70
     0
102
RTVSPost2010Prop53
 90
        2
102
RTVSPost2010PropOp53
 70
     1
102
RTVSPost2010Prop54
  1
strokes_ogs.tif
102
RTVSPost2010PropOp54
 70
     1
102
RTVSPost2010Prop55
280
     0
102
RTVSPost2010PropOp55
 70
     1
102
RTVSPost2010Prop56
140
1.0
102
RTVSPost2010PropOp56
 70
     1
102
RTVSPost2010Prop57
140
1.0
102
RTVSPost2010PropOp57
 70
     1
102
RTVSPropertyOp0
 70
     1
102
RTVSPropertyOp1
 70
     1
102
RTVSPropertyOp2
 70
     1
102
RTVSPropertyOp3
 70
     1
102
RTVSPropertyOp4
 70
     1
102
RTVSPropertyOp5
 70
     1
102
RTVSPropertyOp6
 70
     1
102
RTVSPropertyOp7
 70
     1
102
RTVSPropertyOp8
 70
     1
102
RTVSPropertyOp9
 70
     1
102
RTVSPropertyOp10
 70
     1
102
RTVSPropertyOp11
 70
     1
102
RTVSPropertyOp12
 70
     1
102
RTVSPropertyOp13
 70
     1
102
RTVSPropertyOp14
 70
     1
102
RTVSPropertyOp15
 70
     1
102
RTVSPropertyOp16
 70
     1
102
RTVSPropertyOp17
 70
     1
102
RTVSPropertyOp18
 70
     1
102
RTVSPropertyOp19
 70
     1
102
RTVSPropertyOp20
 70
     1
102
RTVSPropertyOp21
 70
     1
102
RTVSPropertyOp22
 70
     1
102
RTVSPropertyOp23
 70
     1
102
RTVSPropertyOp24
 70
     1
102
RTVSPropertyOp25
 70
     1
102
RTVSPropertyOp26
 70
     1
102
RTVSPropertyOp27
 70
     1
102
RTVSPropertyOp28
 70
     1
102
RTVSPropertyOp29
 70
     1
102
RTVSPropertyOp30
 70
     1
102
RTVSPropertyOp31
 70
     1
102
RTVSPropertyOp32
 70
     1
102
RTVSPropertyOp33
 70
     1
102
RTVSPropertyOp34
 70
     1
102
RTVSPropertyOp35
 70
     1
102
RTVSPropertyOp36
 70
     1
102
RTVSPropertyOp37
 70
     1
102
RTVSPropertyOp38
 70
     1
102
RTVSPropertyOp39
 70
     1
102
RTVSPropertyOp40
 70
     1
102
RTVSPropertyOp41
 70
     1
102
RTVSPropertyOp42
 70
     1
102
RTVSPropertyOp43
 70
     1
102
RTVSPropertyOp44
 70
     1
102
RTVSPropertyOp45
 70
     1
102
RTVSPropertyOp46
 70
     1
102
RTVSPropertyOp47
 70
     1
102
RTVSPropertyOp48
 70
     1
102
RTVSPropertyOp49
 70
     1
102
RTVSPropertyOp50
 70
     1
102
RTVSPropertyOp51
 70
     0
102
RTVSPropertyOp52
 70
     0
102
RTVSPropertyOp53
 70
     1
102
RTVSPropertyOp54
 70
     1
102
RTVSPropertyOp55
 70
     1
102
RTVSPropertyOp56
 70
     1
102
RTVSPropertyOp57
 70
     1
102
RTVSPropertyOp58
 70
     1
102
RTVSPropertyOp59
 70
     1
102
RTVSPropertyOp60
 70
     1
102
RTVSPropertyOp61
 70
     1
102
RTVSPropertyOp62
 70
     1
  0
XRECORD
  5
5CF
102
{ACAD_REACTORS
330
5CE
102
}
330
5CE
100
AcDbXrecord
280
     1
102
RTVSPost2010Prop28
280
     0
102
RTVSPost2010PropOp28
 70
     1
102
RTVSPost2010Prop29
280
     1
102
RTVSPost2010PropOp29
 70
     1
102
RTVSPost2010Prop30
280
     1
102
RTVSPost2010PropOp30
 70
     1
102
RTVSPost2010Prop31
280
     0
102
RTVSPost2010PropOp31
 70
     1
102
RTVSPost2010Prop32
280
     0
102
RTVSPost2010PropOp32
 70
     1
102
RTVSPost2010Prop33
280
     0
102
RTVSPost2010PropOp33
 70
     1
102
RTVSPost2010Prop34
280
     0
102
RTVSPost2010PropOp34
 70
     1
102
RTVSPost2010Prop35
280
     0
102
RTVSPost2010PropOp35
 70
     1
102
RTVSPost2010Prop36
280
     0
102
RTVSPost2010PropOp36
 70
     1
102
RTVSPost2010Prop37
 90
       50
102
RTVSPost2010PropOp37
 70
     1
102
RTVSPost2010Prop38
140
0.0
102
RTVSPost2010PropOp38
 70
     1
102
RTVSPost2010Prop39
140
1.0
102
RTVSPost2010PropOp39
 70
     1
102
RTVSPost2010Prop40
 90
        0
102
RTVSPost2010PropOp40
 70
     1
102
RTVSPost2010Prop41ColorIndex
 90
       18
102
RTVSPost2010Prop41ColorRGB
 90
        0
102
RTVSPost2010PropOp41
 70
     1
102
RTVSPost2010Prop42
 90
       50
102
RTVSPost2010PropOp42
 70
     1
102
RTVSPost2010Prop43
 90
        3
102
RTVSPost2010PropOp43
 70
     1
102
RTVSPost2010Prop44ColorIndex
 90
        5
102
RTVSPost2010Prop44ColorRGB
 90
      255
102
RTVSPost2010PropOp44
 70
     1
102
RTVSPost2010Prop45
280
     0
102
RTVSPost2010PropOp45
 70
     1
102
RTVSPost2010Prop46
 90
       50
102
RTVSPost2010PropOp46
 70
     1
102
RTVSPost2010Prop47
 90
       50
102
RTVSPost2010PropOp47
 70
     1
102
RTVSPost2010Prop48
 90
       50
102
RTVSPost2010PropOp48
 70
     1
102
RTVSPost2010Prop49
280
     0
102
RTVSPost2010PropOp49
 70
     1
102
RTVSPost2010Prop50
 90
       50
102
RTVSPost2010PropOp50
 70
     1
102
RTVSPost2010Prop51ColorIndex
 90
      256
102
RTVSPost2010Prop51ColorRGB
 90
-16777216
102
RTVSPost2010PropOp51
 70
     0
102
RTVSPost2010Prop52
140
1.0
102
RTVSPost2010PropOp52
 70
     0
102
RTVSPost2010Prop53
 90
        2
102
RTVSPost2010PropOp53
 70
     1
102
RTVSPost2010Prop54
  1
strokes_ogs.tif
102
RTVSPost2010PropOp54
 70
     1
102
RTVSPost2010Prop55
280
     0
102
RTVSPost2010PropOp55
 70
     1
102
RTVSPost2010Prop56
140
1.0
102
RTVSPost2010PropOp56
 70
     1
102
RTVSPost2010Prop57
140
1.0
102
RTVSPost2010PropOp57
 70
     1
102
RTVSPropertyOp0
 70
     1
102
RTVSPropertyOp1
 70
     1
102
RTVSPropertyOp2
 70
     1
102
RTVSPropertyOp3
 70
     1
102
RTVSPropertyOp4
 70
     1
102
RTVSPropertyOp5
 70
     1
102
RTVSPropertyOp6
 70
     1
102
RTVSPropertyOp7
 70
     1
102
RTVSPropertyOp8
 70
     1
102
RTVSPropertyOp9
 70
     1
102
RTVSPropertyOp10
 70
     1
102
RTVSPropertyOp11
 70
     1
102
RTVSPropertyOp12
 70
     1
102
RTVSPropertyOp13
 70
     1
102
RTVSPropertyOp14
 70
     1
102
RTVSPropertyOp15
 70
     1
102
RTVSPropertyOp16
 70
     1
102
RTVSPropertyOp17
 70
     1
102
RTVSPropertyOp18
 70
     1
102
RTVSPropertyOp19
 70
     1
102
RTVSPropertyOp20
 70
     1
102
RTVSPropertyOp21
 70
     1
102
RTVSPropertyOp22
 70
     1
102
RTVSPropertyOp23
 70
     1
102
RTVSPropertyOp24
 70
     1
102
RTVSPropertyOp25
 70
     1
102
RTVSPropertyOp26
 70
     1
102
RTVSPropertyOp27
 70
     1
102
RTVSPropertyOp28
 70
     1
102
RTVSPropertyOp29
 70
     1
102
RTVSPropertyOp30
 70
     1
102
RTVSPropertyOp31
 70
     1
102
RTVSPropertyOp32
 70
     1
102
RTVSPropertyOp33
 70
     1
102
RTVSPropertyOp34
 70
     1
102
RTVSPropertyOp35
 70
     1
102
RTVSPropertyOp36
 70
     1
102
RTVSPropertyOp37
 70
     1
102
RTVSPropertyOp38
 70
     1
102
RTVSPropertyOp39
 70
     1
102
RTVSPropertyOp40
 70
     1
102
RTVSPropertyOp41
 70
     1
102
RTVSPropertyOp42
 70
     1
102
RTVSPropertyOp43
 70
     1
102
RTVSPropertyOp44
 70
     1
102
RTVSPropertyOp45
 70
     1
102
RTVSPropertyOp46
 70
     1
102
RTVSPropertyOp47
 70
     1
102
RTVSPropertyOp48
 70
     1
102
RTVSPropertyOp49
 70
     1
102
RTVSPropertyOp50
 70
     1
102
RTVSPropertyOp51
 70
     0
102
RTVSPropertyOp52
 70
     0
102
RTVSPropertyOp53
 70
     1
102
RTVSPropertyOp54
 70
     1
102
RTVSPropertyOp55
 70
     1
102
RTVSPropertyOp56
 70
     1
102
RTVSPropertyOp57
 70
     1
102
RTVSPropertyOp58
 70
     1
102
RTVSPropertyOp59
 70
     1
102
RTVSPropertyOp60
 70
     1
102
RTVSPropertyOp61
 70
     1
102
RTVSPropertyOp62
 70
     1
  0
XRECORD
  5
5DD
102
{ACAD_REACTORS
330
5DC
102
}
330
5DC
100
AcDbXrecord
280
     1
102
RTVSPost2010Prop28
280
     0
102
RTVSPost2010PropOp28
 70
     1
102
RTVSPost2010Prop29
280
     1
102
RTVSPost2010PropOp29
 70
     1
102
RTVSPost2010Prop30
280
     1
102
RTVSPost2010PropOp30
 70
     1
102
RTVSPost2010Prop31
280
     0
102
RTVSPost2010PropOp31
 70
     1
102
RTVSPost2010Prop32
280
     0
102
RTVSPost2010PropOp32
 70
     1
102
RTVSPost2010Prop33
280
     0
102
RTVSPost2010PropOp33
 70
     1
102
RTVSPost2010Prop34
280
     0
102
RTVSPost2010PropOp34
 70
     1
102
RTVSPost2010Prop35
280
     0
102
RTVSPost2010PropOp35
 70
     1
102
RTVSPost2010Prop36
280
     0
102
RTVSPost2010PropOp36
 70
     1
102
RTVSPost2010Prop37
 90
       50
102
RTVSPost2010PropOp37
 70
     1
102
RTVSPost2010Prop38
140
0.0
102
RTVSPost2010PropOp38
 70
     1
102
RTVSPost2010Prop39
140
1.0
102
RTVSPost2010PropOp39
 70
     1
102
RTVSPost2010Prop40
 90
        0
102
RTVSPost2010PropOp40
 70
     1
102
RTVSPost2010Prop41ColorIndex
 90
       18
102
RTVSPost2010Prop41ColorRGB
 90
        0
102
RTVSPost2010PropOp41
 70
     1
102
RTVSPost2010Prop42
 90
       50
102
RTVSPost2010PropOp42
 70
     1
102
RTVSPost2010Prop43
 90
        3
102
RTVSPost2010PropOp43
 70
     1
102
RTVSPost2010Prop44ColorIndex
 90
        5
102
RTVSPost2010Prop44ColorRGB
 90
      255
102
RTVSPost2010PropOp44
 70
     1
102
RTVSPost2010Prop45
280
     0
102
RTVSPost2010PropOp45
 70
     1
102
RTVSPost2010Prop46
 90
       50
102
RTVSPost2010PropOp46
 70
     1
102
RTVSPost2010Prop47
 90
       50
102
RTVSPost2010PropOp47
 70
     1
102
RTVSPost2010Prop48
 90
       50
102
RTVSPost2010PropOp48
 70
     1
102
RTVSPost2010Prop49
280
     0
102
RTVSPost2010PropOp49
 70
     1
102
RTVSPost2010Prop50
 90
       50
102
RTVSPost2010PropOp50
 70
     1
102
RTVSPost2010Prop51ColorIndex
 90
      256
102
RTVSPost2010Prop51ColorRGB
 90
-16777216
102
RTVSPost2010PropOp51
 70
     0
102
RTVSPost2010Prop52
140
1.0
102
RTVSPost2010PropOp52
 70
     0
102
RTVSPost2010Prop53
 90
        2
102
RTVSPost2010PropOp53
 70
     1
102
RTVSPost2010Prop54
  1
strokes_ogs.tif
102
RTVSPost2010PropOp54
 70
     1
102
RTVSPost2010Prop55
280
     0
102
RTVSPost2010PropOp55
 70
     1
102
RTVSPost2010Prop56
140
1.0
102
RTVSPost2010PropOp56
 70
     1
102
RTVSPost2010Prop57
140
1.0
102
RTVSPost2010PropOp57
 70
     1
102
RTVSPropertyOp0
 70
     1
102
RTVSPropertyOp1
 70
     1
102
RTVSPropertyOp2
 70
     1
102
RTVSPropertyOp3
 70
     1
102
RTVSPropertyOp4
 70
     1
102
RTVSPropertyOp5
 70
     1
102
RTVSPropertyOp6
 70
     1
102
RTVSPropertyOp7
 70
     1
102
RTVSPropertyOp8
 70
     1
102
RTVSPropertyOp9
 70
     1
102
RTVSPropertyOp10
 70
     1
102
RTVSPropertyOp11
 70
     1
102
RTVSPropertyOp12
 70
     1
102
RTVSPropertyOp13
 70
     1
102
RTVSPropertyOp14
 70
     1
102
RTVSPropertyOp15
 70
     1
102
RTVSPropertyOp16
 70
     1
102
RTVSPropertyOp17
 70
     1
102
RTVSPropertyOp18
 70
     1
102
RTVSPropertyOp19
 70
     1
102
RTVSPropertyOp20
 70
     1
102
RTVSPropertyOp21
 70
     1
102
RTVSPropertyOp22
 70
     1
102
RTVSPropertyOp23
 70
     1
102
RTVSPropertyOp24
 70
     1
102
RTVSPropertyOp25
 70
     1
102
RTVSPropertyOp26
 70
     1
102
RTVSPropertyOp27
 70
     1
102
RTVSPropertyOp28
 70
     1
102
RTVSPropertyOp29
 70
     1
102
RTVSPropertyOp30
 70
     1
102
RTVSPropertyOp31
 70
     1
102
RTVSPropertyOp32
 70
     1
102
RTVSPropertyOp33
 70
     1
102
RTVSPropertyOp34
 70
     1
102
RTVSPropertyOp35
 70
     1
102
RTVSPropertyOp36
 70
     1
102
RTVSPropertyOp37
 70
     1
102
RTVSPropertyOp38
 70
     1
102
RTVSPropertyOp39
 70
     1
102
RTVSPropertyOp40
 70
     1
102
RTVSPropertyOp41
 70
     1
102
RTVSPropertyOp42
 70
     1
102
RTVSPropertyOp43
 70
     1
102
RTVSPropertyOp44
 70
     1
102
RTVSPropertyOp45
 70
     1
102
RTVSPropertyOp46
 70
     1
102
RTVSPropertyOp47
 70
     1
102
RTVSPropertyOp48
 70
     1
102
RTVSPropertyOp49
 70
     1
102
RTVSPropertyOp50
 70
     1
102
RTVSPropertyOp51
 70
     0
102
RTVSPropertyOp52
 70
     0
102
RTVSPropertyOp53
 70
     1
102
RTVSPropertyOp54
 70
     1
102
RTVSPropertyOp55
 70
     1
102
RTVSPropertyOp56
 70
     1
102
RTVSPropertyOp57
 70
     1
102
RTVSPropertyOp58
 70
     1
102
RTVSPropertyOp59
 70
     1
102
RTVSPropertyOp60
 70
     1
102
RTVSPropertyOp61
 70
     1
102
RTVSPropertyOp62
 70
     1
  0
XRECORD
  5
5E5
102
{ACAD_REACTORS
330
5E4
102
}
330
5E4
100
AcDbXrecord
280
     1
102
RTVSPost2010Prop28
280
     0
102
RTVSPost2010PropOp28
 70
     1
102
RTVSPost2010Prop29
280
     1
102
RTVSPost2010PropOp29
 70
     1
102
RTVSPost2010Prop30
280
     1
102
RTVSPost2010PropOp30
 70
     1
102
RTVSPost2010Prop31
280
     0
102
RTVSPost2010PropOp31
 70
     1
102
RTVSPost2010Prop32
280
     0
102
RTVSPost2010PropOp32
 70
     1
102
RTVSPost2010Prop33
280
     0
102
RTVSPost2010PropOp33
 70
     1
102
RTVSPost2010Prop34
280
     0
102
RTVSPost2010PropOp34
 70
     1
102
RTVSPost2010Prop35
280
     0
102
RTVSPost2010PropOp35
 70
     1
102
RTVSPost2010Prop36
280
     0
102
RTVSPost2010PropOp36
 70
     1
102
RTVSPost2010Prop37
 90
       50
102
RTVSPost2010PropOp37
 70
     1
102
RTVSPost2010Prop38
140
0.0
102
RTVSPost2010PropOp38
 70
     1
102
RTVSPost2010Prop39
140
1.0
102
RTVSPost2010PropOp39
 70
     1
102
RTVSPost2010Prop40
 90
        0
102
RTVSPost2010PropOp40
 70
     1
102
RTVSPost2010Prop41ColorIndex
 90
       18
102
RTVSPost2010Prop41ColorRGB
 90
        0
102
RTVSPost2010PropOp41
 70
     1
102
RTVSPost2010Prop42
 90
       50
102
RTVSPost2010PropOp42
 70
     1
102
RTVSPost2010Prop43
 90
        3
102
RTVSPost2010PropOp43
 70
     1
102
RTVSPost2010Prop44ColorIndex
 90
        5
102
RTVSPost2010Prop44ColorRGB
 90
      255
102
RTVSPost2010PropOp44
 70
     1
102
RTVSPost2010Prop45
280
     0
102
RTVSPost2010PropOp45
 70
     1
102
RTVSPost2010Prop46
 90
       50
102
RTVSPost2010PropOp46
 70
     1
102
RTVSPost2010Prop47
 90
       50
102
RTVSPost2010PropOp47
 70
     1
102
RTVSPost2010Prop48
 90
       50
102
RTVSPost2010PropOp48
 70
     1
102
RTVSPost2010Prop49
280
     0
102
RTVSPost2010PropOp49
 70
     1
102
RTVSPost2010Prop50
 90
       50
102
RTVSPost2010PropOp50
 70
     1
102
RTVSPost2010Prop51ColorIndex
 90
      256
102
RTVSPost2010Prop51ColorRGB
 90
-16777216
102
RTVSPost2010PropOp51
 70
     0
102
RTVSPost2010Prop52
140
1.0
102
RTVSPost2010PropOp52
 70
     0
102
RTVSPost2010Prop53
 90
        2
102
RTVSPost2010PropOp53
 70
     1
102
RTVSPost2010Prop54
  1
strokes_ogs.tif
102
RTVSPost2010PropOp54
 70
     1
102
RTVSPost2010Prop55
280
     0
102
RTVSPost2010PropOp55
 70
     1
102
RTVSPost2010Prop56
140
1.0
102
RTVSPost2010PropOp56
 70
     1
102
RTVSPost2010Prop57
140
1.0
102
RTVSPost2010PropOp57
 70
     1
102
RTVSPropertyOp0
 70
     1
102
RTVSPropertyOp1
 70
     1
102
RTVSPropertyOp2
 70
     1
102
RTVSPropertyOp3
 70
     1
102
RTVSPropertyOp4
 70
     1
102
RTVSPropertyOp5
 70
     1
102
RTVSPropertyOp6
 70
     1
102
RTVSPropertyOp7
 70
     1
102
RTVSPropertyOp8
 70
     1
102
RTVSPropertyOp9
 70
     1
102
RTVSPropertyOp10
 70
     1
102
RTVSPropertyOp11
 70
     1
102
RTVSPropertyOp12
 70
     1
102
RTVSPropertyOp13
 70
     1
102
RTVSPropertyOp14
 70
     1
102
RTVSPropertyOp15
 70
     1
102
RTVSPropertyOp16
 70
     1
102
RTVSPropertyOp17
 70
     1
102
RTVSPropertyOp18
 70
     1
102
RTVSPropertyOp19
 70
     1
102
RTVSPropertyOp20
 70
     1
102
RTVSPropertyOp21
 70
     1
102
RTVSPropertyOp22
 70
     1
102
RTVSPropertyOp23
 70
     1
102
RTVSPropertyOp24
 70
     1
102
RTVSPropertyOp25
 70
     1
102
RTVSPropertyOp26
 70
     1
102
RTVSPropertyOp27
 70
     1
102
RTVSPropertyOp28
 70
     1
102
RTVSPropertyOp29
 70
     1
102
RTVSPropertyOp30
 70
     1
102
RTVSPropertyOp31
 70
     1
102
RTVSPropertyOp32
 70
     1
102
RTVSPropertyOp33
 70
     1
102
RTVSPropertyOp34
 70
     1
102
RTVSPropertyOp35
 70
     1
102
RTVSPropertyOp36
 70
     1
102
RTVSPropertyOp37
 70
     1
102
RTVSPropertyOp38
 70
     1
102
RTVSPropertyOp39
 70
     1
102
RTVSPropertyOp40
 70
     1
102
RTVSPropertyOp41
 70
     1
102
RTVSPropertyOp42
 70
     1
102
RTVSPropertyOp43
 70
     1
102
RTVSPropertyOp44
 70
     1
102
RTVSPropertyOp45
 70
     1
102
RTVSPropertyOp46
 70
     1
102
RTVSPropertyOp47
 70
     1
102
RTVSPropertyOp48
 70
     1
102
RTVSPropertyOp49
 70
     1
102
RTVSPropertyOp50
 70
     1
102
RTVSPropertyOp51
 70
     0
102
RTVSPropertyOp52
 70
     0
102
RTVSPropertyOp53
 70
     1
102
RTVSPropertyOp54
 70
     1
102
RTVSPropertyOp55
 70
     1
102
RTVSPropertyOp56
 70
     1
102
RTVSPropertyOp57
 70
     1
102
RTVSPropertyOp58
 70
     1
102
RTVSPropertyOp59
 70
     1
102
RTVSPropertyOp60
 70
     1
102
RTVSPropertyOp61
 70
     1
102
RTVSPropertyOp62
 70
     1
  0
XRECORD
  5
5D7
102
{ACAD_REACTORS
330
5D6
102
}
330
5D6
100
AcDbXrecord
280
     1
102
RTVSPost2010Prop28
280
     0
102
RTVSPost2010PropOp28
 70
     1
102
RTVSPost2010Prop29
280
     1
102
RTVSPost2010PropOp29
 70
     1
102
RTVSPost2010Prop30
280
     1
102
RTVSPost2010PropOp30
 70
     1
102
RTVSPost2010Prop31
280
     0
102
RTVSPost2010PropOp31
 70
     1
102
RTVSPost2010Prop32
280
     0
102
RTVSPost2010PropOp32
 70
     1
102
RTVSPost2010Prop33
280
     0
102
RTVSPost2010PropOp33
 70
     1
102
RTVSPost2010Prop34
280
     0
102
RTVSPost2010PropOp34
 70
     1
102
RTVSPost2010Prop35
280
     0
102
RTVSPost2010PropOp35
 70
     1
102
RTVSPost2010Prop36
280
     0
102
RTVSPost2010PropOp36
 70
     1
102
RTVSPost2010Prop37
 90
       50
102
RTVSPost2010PropOp37
 70
     1
102
RTVSPost2010Prop38
140
0.0
102
RTVSPost2010PropOp38
 70
     1
102
RTVSPost2010Prop39
140
1.0
102
RTVSPost2010PropOp39
 70
     1
102
RTVSPost2010Prop40
 90
        0
102
RTVSPost2010PropOp40
 70
     1
102
RTVSPost2010Prop41ColorIndex
 90
       18
102
RTVSPost2010Prop41ColorRGB
 90
        0
102
RTVSPost2010PropOp41
 70
     1
102
RTVSPost2010Prop42
 90
       50
102
RTVSPost2010PropOp42
 70
     1
102
RTVSPost2010Prop43
 90
        3
102
RTVSPost2010PropOp43
 70
     1
102
RTVSPost2010Prop44ColorIndex
 90
        5
102
RTVSPost2010Prop44ColorRGB
 90
      255
102
RTVSPost2010PropOp44
 70
     1
102
RTVSPost2010Prop45
280
     0
102
RTVSPost2010PropOp45
 70
     1
102
RTVSPost2010Prop46
 90
       50
102
RTVSPost2010PropOp46
 70
     1
102
RTVSPost2010Prop47
 90
       50
102
RTVSPost2010PropOp47
 70
     1
102
RTVSPost2010Prop48
 90
       50
102
RTVSPost2010PropOp48
 70
     1
102
RTVSPost2010Prop49
280
     0
102
RTVSPost2010PropOp49
 70
     1
102
RTVSPost2010Prop50
 90
       50
102
RTVSPost2010PropOp50
 70
     1
102
RTVSPost2010Prop51ColorIndex
 90
      256
102
RTVSPost2010Prop51ColorRGB
 90
-16777216
102
RTVSPost2010PropOp51
 70
     0
102
RTVSPost2010Prop52
140
1.0
102
RTVSPost2010PropOp52
 70
     0
102
RTVSPost2010Prop53
 90
        2
102
RTVSPost2010PropOp53
 70
     1
102
RTVSPost2010Prop54
  1
strokes_ogs.tif
102
RTVSPost2010PropOp54
 70
     1
102
RTVSPost2010Prop55
280
     0
102
RTVSPost2010PropOp55
 70
     1
102
RTVSPost2010Prop56
140
1.0
102
RTVSPost2010PropOp56
 70
     1
102
RTVSPost2010Prop57
140
1.0
102
RTVSPost2010PropOp57
 70
     1
102
RTVSPropertyOp0
 70
     1
102
RTVSPropertyOp1
 70
     1
102
RTVSPropertyOp2
 70
     1
102
RTVSPropertyOp3
 70
     1
102
RTVSPropertyOp4
 70
     1
102
RTVSPropertyOp5
 70
     1
102
RTVSPropertyOp6
 70
     1
102
RTVSPropertyOp7
 70
     1
102
RTVSPropertyOp8
 70
     1
102
RTVSPropertyOp9
 70
     1
102
RTVSPropertyOp10
 70
     1
102
RTVSPropertyOp11
 70
     1
102
RTVSPropertyOp12
 70
     1
102
RTVSPropertyOp13
 70
     1
102
RTVSPropertyOp14
 70
     1
102
RTVSPropertyOp15
 70
     1
102
RTVSPropertyOp16
 70
     1
102
RTVSPropertyOp17
 70
     1
102
RTVSPropertyOp18
 70
     1
102
RTVSPropertyOp19
 70
     1
102
RTVSPropertyOp20
 70
     1
102
RTVSPropertyOp21
 70
     1
102
RTVSPropertyOp22
 70
     1
102
RTVSPropertyOp23
 70
     1
102
RTVSPropertyOp24
 70
     1
102
RTVSPropertyOp25
 70
     1
102
RTVSPropertyOp26
 70
     1
102
RTVSPropertyOp27
 70
     1
102
RTVSPropertyOp28
 70
     1
102
RTVSPropertyOp29
 70
     1
102
RTVSPropertyOp30
 70
     1
102
RTVSPropertyOp31
 70
     1
102
RTVSPropertyOp32
 70
     1
102
RTVSPropertyOp33
 70
     1
102
RTVSPropertyOp34
 70
     1
102
RTVSPropertyOp35
 70
     1
102
RTVSPropertyOp36
 70
     1
102
RTVSPropertyOp37
 70
     1
102
RTVSPropertyOp38
 70
     1
102
RTVSPropertyOp39
 70
     1
102
RTVSPropertyOp40
 70
     1
102
RTVSPropertyOp41
 70
     1
102
RTVSPropertyOp42
 70
     1
102
RTVSPropertyOp43
 70
     1
102
RTVSPropertyOp44
 70
     1
102
RTVSPropertyOp45
 70
     1
102
RTVSPropertyOp46
 70
     1
102
RTVSPropertyOp47
 70
     1
102
RTVSPropertyOp48
 70
     1
102
RTVSPropertyOp49
 70
     1
102
RTVSPropertyOp50
 70
     1
102
RTVSPropertyOp51
 70
     0
102
RTVSPropertyOp52
 70
     0
102
RTVSPropertyOp53
 70
     1
102
RTVSPropertyOp54
 70
     1
102
RTVSPropertyOp55
 70
     1
102
RTVSPropertyOp56
 70
     1
102
RTVSPropertyOp57
 70
     1
102
RTVSPropertyOp58
 70
     1
102
RTVSPropertyOp59
 70
     1
102
RTVSPropertyOp60
 70
     1
102
RTVSPropertyOp61
 70
     1
102
RTVSPropertyOp62
 70
     1
  0
XRECORD
  5
5DB
102
{ACAD_REACTORS
330
5DA
102
}
330
5DA
100
AcDbXrecord
280
     1
102
RTVSPost2010Prop28
280
     0
102
RTVSPost2010PropOp28
 70
     1
102
RTVSPost2010Prop29
280
     1
102
RTVSPost2010PropOp29
 70
     1
102
RTVSPost2010Prop30
280
     1
102
RTVSPost2010PropOp30
 70
     1
102
RTVSPost2010Prop31
280
     0
102
RTVSPost2010PropOp31
 70
     1
102
RTVSPost2010Prop32
280
     0
102
RTVSPost2010PropOp32
 70
     1
102
RTVSPost2010Prop33
280
     0
102
RTVSPost2010PropOp33
 70
     1
102
RTVSPost2010Prop34
280
     0
102
RTVSPost2010PropOp34
 70
     1
102
RTVSPost2010Prop35
280
     0
102
RTVSPost2010PropOp35
 70
     1
102
RTVSPost2010Prop36
280
     0
102
RTVSPost2010PropOp36
 70
     1
102
RTVSPost2010Prop37
 90
       50
102
RTVSPost2010PropOp37
 70
     1
102
RTVSPost2010Prop38
140
0.0
102
RTVSPost2010PropOp38
 70
     1
102
RTVSPost2010Prop39
140
1.0
102
RTVSPost2010PropOp39
 70
     1
102
RTVSPost2010Prop40
 90
        0
102
RTVSPost2010PropOp40
 70
     1
102
RTVSPost2010Prop41ColorIndex
 90
       18
102
RTVSPost2010Prop41ColorRGB
 90
        0
102
RTVSPost2010PropOp41
 70
     1
102
RTVSPost2010Prop42
 90
       50
102
RTVSPost2010PropOp42
 70
     1
102
RTVSPost2010Prop43
 90
        3
102
RTVSPost2010PropOp43
 70
     1
102
RTVSPost2010Prop44ColorIndex
 90
        5
102
RTVSPost2010Prop44ColorRGB
 90
      255
102
RTVSPost2010PropOp44
 70
     1
102
RTVSPost2010Prop45
280
     0
102
RTVSPost2010PropOp45
 70
     1
102
RTVSPost2010Prop46
 90
       50
102
RTVSPost2010PropOp46
 70
     1
102
RTVSPost2010Prop47
 90
       50
102
RTVSPost2010PropOp47
 70
     1
102
RTVSPost2010Prop48
 90
       50
102
RTVSPost2010PropOp48
 70
     1
102
RTVSPost2010Prop49
280
     0
102
RTVSPost2010PropOp49
 70
     1
102
RTVSPost2010Prop50
 90
       50
102
RTVSPost2010PropOp50
 70
     1
102
RTVSPost2010Prop51ColorIndex
 90
      256
102
RTVSPost2010Prop51ColorRGB
 90
-16777216
102
RTVSPost2010PropOp51
 70
     0
102
RTVSPost2010Prop52
140
1.0
102
RTVSPost2010PropOp52
 70
     0
102
RTVSPost2010Prop53
 90
        2
102
RTVSPost2010PropOp53
 70
     1
102
RTVSPost2010Prop54
  1
strokes_ogs.tif
102
RTVSPost2010PropOp54
 70
     1
102
RTVSPost2010Prop55
280
     0
102
RTVSPost2010PropOp55
 70
     1
102
RTVSPost2010Prop56
140
1.0
102
RTVSPost2010PropOp56
 70
     1
102
RTVSPost2010Prop57
140
1.0
102
RTVSPost2010PropOp57
 70
     1
102
RTVSPropertyOp0
 70
     1
102
RTVSPropertyOp1
 70
     1
102
RTVSPropertyOp2
 70
     1
102
RTVSPropertyOp3
 70
     1
102
RTVSPropertyOp4
 70
     1
102
RTVSPropertyOp5
 70
     1
102
RTVSPropertyOp6
 70
     1
102
RTVSPropertyOp7
 70
     1
102
RTVSPropertyOp8
 70
     1
102
RTVSPropertyOp9
 70
     1
102
RTVSPropertyOp10
 70
     1
102
RTVSPropertyOp11
 70
     1
102
RTVSPropertyOp12
 70
     1
102
RTVSPropertyOp13
 70
     1
102
RTVSPropertyOp14
 70
     1
102
RTVSPropertyOp15
 70
     1
102
RTVSPropertyOp16
 70
     1
102
RTVSPropertyOp17
 70
     1
102
RTVSPropertyOp18
 70
     1
102
RTVSPropertyOp19
 70
     1
102
RTVSPropertyOp20
 70
     1
102
RTVSPropertyOp21
 70
     1
102
RTVSPropertyOp22
 70
     1
102
RTVSPropertyOp23
 70
     1
102
RTVSPropertyOp24
 70
     1
102
RTVSPropertyOp25
 70
     1
102
RTVSPropertyOp26
 70
     1
102
RTVSPropertyOp27
 70
     1
102
RTVSPropertyOp28
 70
     1
102
RTVSPropertyOp29
 70
     1
102
RTVSPropertyOp30
 70
     1
102
RTVSPropertyOp31
 70
     1
102
RTVSPropertyOp32
 70
     1
102
RTVSPropertyOp33
 70
     1
102
RTVSPropertyOp34
 70
     1
102
RTVSPropertyOp35
 70
     1
102
RTVSPropertyOp36
 70
     1
102
RTVSPropertyOp37
 70
     1
102
RTVSPropertyOp38
 70
     1
102
RTVSPropertyOp39
 70
     1
102
RTVSPropertyOp40
 70
     1
102
RTVSPropertyOp41
 70
     1
102
RTVSPropertyOp42
 70
     1
102
RTVSPropertyOp43
 70
     1
102
RTVSPropertyOp44
 70
     1
102
RTVSPropertyOp45
 70
     1
102
RTVSPropertyOp46
 70
     1
102
RTVSPropertyOp47
 70
     1
102
RTVSPropertyOp48
 70
     1
102
RTVSPropertyOp49
 70
     1
102
RTVSPropertyOp50
 70
     1
102
RTVSPropertyOp51
 70
     0
102
RTVSPropertyOp52
 70
     0
102
RTVSPropertyOp53
 70
     1
102
RTVSPropertyOp54
 70
     1
102
RTVSPropertyOp55
 70
     1
102
RTVSPropertyOp56
 70
     1
102
RTVSPropertyOp57
 70
     1
102
RTVSPropertyOp58
 70
     1
102
RTVSPropertyOp59
 70
     1
102
RTVSPropertyOp60
 70
     1
102
RTVSPropertyOp61
 70
     1
102
RTVSPropertyOp62
 70
     1
  0
XRECORD
  5
5F5
102
{ACAD_REACTORS
330
5F4
102
}
330
5F4
100
AcDbXrecord
280
     1
102
RTVSPost2010Prop28
280
     0
102
RTVSPost2010PropOp28
 70
     0
102
RTVSPost2010Prop29
280
     1
102
RTVSPost2010PropOp29
 70
     0
102
RTVSPost2010Prop30
280
     1
102
RTVSPost2010PropOp30
 70
     0
102
RTVSPost2010Prop31
280
     0
102
RTVSPost2010PropOp31
 70
     0
102
RTVSPost2010Prop32
280
     0
102
RTVSPost2010PropOp32
 70
     0
102
RTVSPost2010Prop33
280
     0
102
RTVSPost2010PropOp33
 70
     0
102
RTVSPost2010Prop34
280
     0
102
RTVSPost2010PropOp34
 70
     0
102
RTVSPost2010Prop35
280
     0
102
RTVSPost2010PropOp35
 70
     0
102
RTVSPost2010Prop36
280
     0
102
RTVSPost2010PropOp36
 70
     0
102
RTVSPost2010Prop37
 90
       50
102
RTVSPost2010PropOp37
 70
     0
102
RTVSPost2010Prop38
140
0.0
102
RTVSPost2010PropOp38
 70
     0
102
RTVSPost2010Prop39
140
1.0
102
RTVSPost2010PropOp39
 70
     0
102
RTVSPost2010Prop40
 90
        0
102
RTVSPost2010PropOp40
 70
     0
102
RTVSPost2010Prop41ColorIndex
 90
       18
102
RTVSPost2010Prop41ColorRGB
 90
        0
102
RTVSPost2010PropOp41
 70
     0
102
RTVSPost2010Prop42
 90
       50
102
RTVSPost2010PropOp42
 70
     0
102
RTVSPost2010Prop43
 90
        3
102
RTVSPost2010PropOp43
 70
     0
102
RTVSPost2010Prop44ColorIndex
 90
        5
102
RTVSPost2010Prop44ColorRGB
 90
      255
102
RTVSPost2010PropOp44
 70
     0
102
RTVSPost2010Prop45
280
     0
102
RTVSPost2010PropOp45
 70
     0
102
RTVSPost2010Prop46
 90
       50
102
RTVSPost2010PropOp46
 70
     0
102
RTVSPost2010Prop47
 90
       50
102
RTVSPost2010PropOp47
 70
     0
102
RTVSPost2010Prop48
 90
       50
102
RTVSPost2010PropOp48
 70
     0
102
RTVSPost2010Prop49
280
     0
102
RTVSPost2010PropOp49
 70
     0
102
RTVSPost2010Prop50
 90
       50
102
RTVSPost2010PropOp50
 70
     0
102
RTVSPost2010Prop51ColorIndex
 90
      256
102
RTVSPost2010Prop51ColorRGB
 90
-16777216
102
RTVSPost2010PropOp51
 70
     0
102
RTVSPost2010Prop52
140
1.0
102
RTVSPost2010PropOp52
 70
     0
102
RTVSPost2010Prop53
 90
        2
102
RTVSPost2010PropOp53
 70
     0
102
RTVSPost2010Prop54
  1
strokes_ogs.tif
102
RTVSPost2010PropOp54
 70
     0
102
RTVSPost2010Prop55
280
     0
102
RTVSPost2010PropOp55
 70
     0
102
RTVSPost2010Prop56
140
1.0
102
RTVSPost2010PropOp56
 70
     0
102
RTVSPost2010Prop57
140
1.0
102
RTVSPost2010PropOp57
 70
     0
102
RTVSPropertyOp0
 70
     0
102
RTVSPropertyOp1
 70
     0
102
RTVSPropertyOp2
 70
     0
102
RTVSPropertyOp3
 70
     0
102
RTVSPropertyOp4
 70
     0
102
RTVSPropertyOp5
 70
     0
102
RTVSPropertyOp6
 70
     0
102
RTVSPropertyOp7
 70
     0
102
RTVSPropertyOp8
 70
     0
102
RTVSPropertyOp9
 70
     0
102
RTVSPropertyOp10
 70
     0
102
RTVSPropertyOp11
 70
     0
102
RTVSPropertyOp12
 70
     0
102
RTVSPropertyOp13
 70
     0
102
RTVSPropertyOp14
 70
     2
102
RTVSPropertyOp15
 70
     0
102
RTVSPropertyOp16
 70
     0
102
RTVSPropertyOp17
 70
     0
102
RTVSPropertyOp18
 70
     0
102
RTVSPropertyOp19
 70
     0
102
RTVSPropertyOp20
 70
     0
102
RTVSPropertyOp21
 70
     0
102
RTVSPropertyOp22
 70
     0
102
RTVSPropertyOp23
 70
     0
102
RTVSPropertyOp24
 70
     0
102
RTVSPropertyOp25
 70
     0
102
RTVSPropertyOp26
 70
     0
102
RTVSPropertyOp27
 70
     0
102
RTVSPropertyOp28
 70
     0
102
RTVSPropertyOp29
 70
     0
102
RTVSPropertyOp30
 70
     0
102
RTVSPropertyOp31
 70
     0
102
RTVSPropertyOp32
 70
     0
102
RTVSPropertyOp33
 70
     0
102
RTVSPropertyOp34
 70
     0
102
RTVSPropertyOp35
 70
     0
102
RTVSPropertyOp36
 70
     0
102
RTVSPropertyOp37
 70
     0
102
RTVSPropertyOp38
 70
     0
102
RTVSPropertyOp39
 70
     0
102
RTVSPropertyOp40
 70
     0
102
RTVSPropertyOp41
 70
     0
102
RTVSPropertyOp42
 70
     0
102
RTVSPropertyOp43
 70
     0
102
RTVSPropertyOp44
 70
     0
102
RTVSPropertyOp45
 70
     0
102
RTVSPropertyOp46
 70
     0
102
RTVSPropertyOp47
 70
     0
102
RTVSPropertyOp48
 70
     0
102
RTVSPropertyOp49
 70
     0
102
RTVSPropertyOp50
 70
     0
102
RTVSPropertyOp51
 70
     0
102
RTVSPropertyOp52
 70
     0
102
RTVSPropertyOp53
 70
     0
102
RTVSPropertyOp54
 70
     0
102
RTVSPropertyOp55
 70
     0
102
RTVSPropertyOp56
 70
     0
102
RTVSPropertyOp57
 70
     0
102
RTVSPropertyOp58
 70
     0
102
RTVSPropertyOp59
 70
     0
102
RTVSPropertyOp60
 70
     0
102
RTVSPropertyOp61
 70
     0
102
RTVSPropertyOp62
 70
     0
  0
XRECORD
  5
5E3
102
{ACAD_REACTORS
330
5E2
102
}
330
5E2
100
AcDbXrecord
280
     1
102
RTVSPost2010Prop28
280
     0
102
RTVSPost2010PropOp28
 70
     1
102
RTVSPost2010Prop29
280
     1
102
RTVSPost2010PropOp29
 70
     1
102
RTVSPost2010Prop30
280
     1
102
RTVSPost2010PropOp30
 70
     1
102
RTVSPost2010Prop31
280
     0
102
RTVSPost2010PropOp31
 70
     1
102
RTVSPost2010Prop32
280
     0
102
RTVSPost2010PropOp32
 70
     1
102
RTVSPost2010Prop33
280
     0
102
RTVSPost2010PropOp33
 70
     1
102
RTVSPost2010Prop34
280
     0
102
RTVSPost2010PropOp34
 70
     1
102
RTVSPost2010Prop35
280
     0
102
RTVSPost2010PropOp35
 70
     1
102
RTVSPost2010Prop36
280
     0
102
RTVSPost2010PropOp36
 70
     1
102
RTVSPost2010Prop37
 90
       50
102
RTVSPost2010PropOp37
 70
     1
102
RTVSPost2010Prop38
140
0.0
102
RTVSPost2010PropOp38
 70
     1
102
RTVSPost2010Prop39
140
1.0
102
RTVSPost2010PropOp39
 70
     1
102
RTVSPost2010Prop40
 90
        0
102
RTVSPost2010PropOp40
 70
     1
102
RTVSPost2010Prop41ColorIndex
 90
       18
102
RTVSPost2010Prop41ColorRGB
 90
        0
102
RTVSPost2010PropOp41
 70
     1
102
RTVSPost2010Prop42
 90
       50
102
RTVSPost2010PropOp42
 70
     1
102
RTVSPost2010Prop43
 90
        3
102
RTVSPost2010PropOp43
 70
     1
102
RTVSPost2010Prop44ColorIndex
 90
        5
102
RTVSPost2010Prop44ColorRGB
 90
      255
102
RTVSPost2010PropOp44
 70
     1
102
RTVSPost2010Prop45
280
     0
102
RTVSPost2010PropOp45
 70
     1
102
RTVSPost2010Prop46
 90
       50
102
RTVSPost2010PropOp46
 70
     1
102
RTVSPost2010Prop47
 90
       50
102
RTVSPost2010PropOp47
 70
     1
102
RTVSPost2010Prop48
 90
       50
102
RTVSPost2010PropOp48
 70
     1
102
RTVSPost2010Prop49
280
     0
102
RTVSPost2010PropOp49
 70
     1
102
RTVSPost2010Prop50
 90
       50
102
RTVSPost2010PropOp50
 70
     1
102
RTVSPost2010Prop51ColorIndex
 90
      256
102
RTVSPost2010Prop51ColorRGB
 90
-16777216
102
RTVSPost2010PropOp51
 70
     0
102
RTVSPost2010Prop52
140
1.0
102
RTVSPost2010PropOp52
 70
     0
102
RTVSPost2010Prop53
 90
        2
102
RTVSPost2010PropOp53
 70
     1
102
RTVSPost2010Prop54
  1
strokes_ogs.tif
102
RTVSPost2010PropOp54
 70
     1
102
RTVSPost2010Prop55
280
     0
102
RTVSPost2010PropOp55
 70
     1
102
RTVSPost2010Prop56
140
1.0
102
RTVSPost2010PropOp56
 70
     1
102
RTVSPost2010Prop57
140
1.0
102
RTVSPost2010PropOp57
 70
     1
102
RTVSPropertyOp0
 70
     1
102
RTVSPropertyOp1
 70
     1
102
RTVSPropertyOp2
 70
     1
102
RTVSPropertyOp3
 70
     1
102
RTVSPropertyOp4
 70
     1
102
RTVSPropertyOp5
 70
     1
102
RTVSPropertyOp6
 70
     1
102
RTVSPropertyOp7
 70
     1
102
RTVSPropertyOp8
 70
     1
102
RTVSPropertyOp9
 70
     1
102
RTVSPropertyOp10
 70
     1
102
RTVSPropertyOp11
 70
     1
102
RTVSPropertyOp12
 70
     1
102
RTVSPropertyOp13
 70
     1
102
RTVSPropertyOp14
 70
     1
102
RTVSPropertyOp15
 70
     1
102
RTVSPropertyOp16
 70
     1
102
RTVSPropertyOp17
 70
     1
102
RTVSPropertyOp18
 70
     1
102
RTVSPropertyOp19
 70
     1
102
RTVSPropertyOp20
 70
     1
102
RTVSPropertyOp21
 70
     1
102
RTVSPropertyOp22
 70
     1
102
RTVSPropertyOp23
 70
     1
102
RTVSPropertyOp24
 70
     1
102
RTVSPropertyOp25
 70
     1
102
RTVSPropertyOp26
 70
     1
102
RTVSPropertyOp27
 70
     1
102
RTVSPropertyOp28
 70
     1
102
RTVSPropertyOp29
 70
     1
102
RTVSPropertyOp30
 70
     1
102
RTVSPropertyOp31
 70
     1
102
RTVSPropertyOp32
 70
     1
102
RTVSPropertyOp33
 70
     1
102
RTVSPropertyOp34
 70
     1
102
RTVSPropertyOp35
 70
     1
102
RTVSPropertyOp36
 70
     1
102
RTVSPropertyOp37
 70
     1
102
RTVSPropertyOp38
 70
     1
102
RTVSPropertyOp39
 70
     1
102
RTVSPropertyOp40
 70
     1
102
RTVSPropertyOp41
 70
     1
102
RTVSPropertyOp42
 70
     1
102
RTVSPropertyOp43
 70
     1
102
RTVSPropertyOp44
 70
     1
102
RTVSPropertyOp45
 70
     1
102
RTVSPropertyOp46
 70
     1
102
RTVSPropertyOp47
 70
     1
102
RTVSPropertyOp48
 70
     1
102
RTVSPropertyOp49
 70
     1
102
RTVSPropertyOp50
 70
     1
102
RTVSPropertyOp51
 70
     0
102
RTVSPropertyOp52
 70
     0
102
RTVSPropertyOp53
 70
     1
102
RTVSPropertyOp54
 70
     1
102
RTVSPropertyOp55
 70
     1
102
RTVSPropertyOp56
 70
     1
102
RTVSPropertyOp57
 70
     1
102
RTVSPropertyOp58
 70
     1
102
RTVSPropertyOp59
 70
     1
102
RTVSPropertyOp60
 70
     1
102
RTVSPropertyOp61
 70
     1
102
RTVSPropertyOp62
 70
     1
  0
XRECORD
  5
5C7
102
{ACAD_REACTORS
330
5C6
102
}
330
5C6
100
AcDbXrecord
280
     1
102
RTVSPost2010Prop28
280
     0
102
RTVSPost2010PropOp28
 70
     1
102
RTVSPost2010Prop29
280
     1
102
RTVSPost2010PropOp29
 70
     1
102
RTVSPost2010Prop30
280
     1
102
RTVSPost2010PropOp30
 70
     1
102
RTVSPost2010Prop31
280
     0
102
RTVSPost2010PropOp31
 70
     1
102
RTVSPost2010Prop32
280
     0
102
RTVSPost2010PropOp32
 70
     1
102
RTVSPost2010Prop33
280
     0
102
RTVSPost2010PropOp33
 70
     1
102
RTVSPost2010Prop34
280
     0
102
RTVSPost2010PropOp34
 70
     1
102
RTVSPost2010Prop35
280
     0
102
RTVSPost2010PropOp35
 70
     1
102
RTVSPost2010Prop36
280
     0
102
RTVSPost2010PropOp36
 70
     1
102
RTVSPost2010Prop37
 90
       50
102
RTVSPost2010PropOp37
 70
     1
102
RTVSPost2010Prop38
140
0.0
102
RTVSPost2010PropOp38
 70
     1
102
RTVSPost2010Prop39
140
1.0
102
RTVSPost2010PropOp39
 70
     1
102
RTVSPost2010Prop40
 90
        0
102
RTVSPost2010PropOp40
 70
     1
102
RTVSPost2010Prop41ColorIndex
 90
       18
102
RTVSPost2010Prop41ColorRGB
 90
        0
102
RTVSPost2010PropOp41
 70
     1
102
RTVSPost2010Prop42
 90
       50
102
RTVSPost2010PropOp42
 70
     1
102
RTVSPost2010Prop43
 90
        3
102
RTVSPost2010PropOp43
 70
     1
102
RTVSPost2010Prop44ColorIndex
 90
        5
102
RTVSPost2010Prop44ColorRGB
 90
      255
102
RTVSPost2010PropOp44
 70
     1
102
RTVSPost2010Prop45
280
     0
102
RTVSPost2010PropOp45
 70
     1
102
RTVSPost2010Prop46
 90
       50
102
RTVSPost2010PropOp46
 70
     1
102
RTVSPost2010Prop47
 90
       50
102
RTVSPost2010PropOp47
 70
     1
102
RTVSPost2010Prop48
 90
       50
102
RTVSPost2010PropOp48
 70
     1
102
RTVSPost2010Prop49
280
     0
102
RTVSPost2010PropOp49
 70
     1
102
RTVSPost2010Prop50
 90
       50
102
RTVSPost2010PropOp50
 70
     1
102
RTVSPost2010Prop51ColorIndex
 90
      256
102
RTVSPost2010Prop51ColorRGB
 90
-16777216
102
RTVSPost2010PropOp51
 70
     0
102
RTVSPost2010Prop52
140
1.0
102
RTVSPost2010PropOp52
 70
     0
102
RTVSPost2010Prop53
 90
        2
102
RTVSPost2010PropOp53
 70
     1
102
RTVSPost2010Prop54
  1
strokes_ogs.tif
102
RTVSPost2010PropOp54
 70
     1
102
RTVSPost2010Prop55
280
     0
102
RTVSPost2010PropOp55
 70
     1
102
RTVSPost2010Prop56
140
1.0
102
RTVSPost2010PropOp56
 70
     1
102
RTVSPost2010Prop57
140
1.0
102
RTVSPost2010PropOp57
 70
     1
102
RTVSPropertyOp0
 70
     1
102
RTVSPropertyOp1
 70
     1
102
RTVSPropertyOp2
 70
     1
102
RTVSPropertyOp3
 70
     1
102
RTVSPropertyOp4
 70
     1
102
RTVSPropertyOp5
 70
     1
102
RTVSPropertyOp6
 70
     1
102
RTVSPropertyOp7
 70
     1
102
RTVSPropertyOp8
 70
     1
102
RTVSPropertyOp9
 70
     1
102
RTVSPropertyOp10
 70
     1
102
RTVSPropertyOp11
 70
     1
102
RTVSPropertyOp12
 70
     1
102
RTVSPropertyOp13
 70
     1
102
RTVSPropertyOp14
 70
     1
102
RTVSPropertyOp15
 70
     1
102
RTVSPropertyOp16
 70
     1
102
RTVSPropertyOp17
 70
     1
102
RTVSPropertyOp18
 70
     1
102
RTVSPropertyOp19
 70
     1
102
RTVSPropertyOp20
 70
     1
102
RTVSPropertyOp21
 70
     1
102
RTVSPropertyOp22
 70
     1
102
RTVSPropertyOp23
 70
     1
102
RTVSPropertyOp24
 70
     1
102
RTVSPropertyOp25
 70
     1
102
RTVSPropertyOp26
 70
     1
102
RTVSPropertyOp27
 70
     1
102
RTVSPropertyOp28
 70
     1
102
RTVSPropertyOp29
 70
     1
102
RTVSPropertyOp30
 70
     1
102
RTVSPropertyOp31
 70
     1
102
RTVSPropertyOp32
 70
     1
102
RTVSPropertyOp33
 70
     1
102
RTVSPropertyOp34
 70
     1
102
RTVSPropertyOp35
 70
     1
102
RTVSPropertyOp36
 70
     1
102
RTVSPropertyOp37
 70
     1
102
RTVSPropertyOp38
 70
     1
102
RTVSPropertyOp39
 70
     1
102
RTVSPropertyOp40
 70
     1
102
RTVSPropertyOp41
 70
     1
102
RTVSPropertyOp42
 70
     1
102
RTVSPropertyOp43
 70
     1
102
RTVSPropertyOp44
 70
     1
102
RTVSPropertyOp45
 70
     1
102
RTVSPropertyOp46
 70
     1
102
RTVSPropertyOp47
 70
     1
102
RTVSPropertyOp48
 70
     1
102
RTVSPropertyOp49
 70
     1
102
RTVSPropertyOp50
 70
     1
102
RTVSPropertyOp51
 70
     0
102
RTVSPropertyOp52
 70
     0
102
RTVSPropertyOp53
 70
     1
102
RTVSPropertyOp54
 70
     1
102
RTVSPropertyOp55
 70
     1
102
RTVSPropertyOp56
 70
     1
102
RTVSPropertyOp57
 70
     1
102
RTVSPropertyOp58
 70
     1
102
RTVSPropertyOp59
 70
     1
102
RTVSPropertyOp60
 70
     1
102
RTVSPropertyOp61
 70
     1
102
RTVSPropertyOp62
 70
     1
  0
XRECORD
  5
5C9
102
{ACAD_REACTORS
330
5C8
102
}
330
5C8
100
AcDbXrecord
280
     1
102
RTVSPost2010Prop28
280
     0
102
RTVSPost2010PropOp28
 70
     1
102
RTVSPost2010Prop29
280
     1
102
RTVSPost2010PropOp29
 70
     1
102
RTVSPost2010Prop30
280
     1
102
RTVSPost2010PropOp30
 70
     1
102
RTVSPost2010Prop31
280
     0
102
RTVSPost2010PropOp31
 70
     1
102
RTVSPost2010Prop32
280
     0
102
RTVSPost2010PropOp32
 70
     1
102
RTVSPost2010Prop33
280
     0
102
RTVSPost2010PropOp33
 70
     1
102
RTVSPost2010Prop34
280
     0
102
RTVSPost2010PropOp34
 70
     1
102
RTVSPost2010Prop35
280
     0
102
RTVSPost2010PropOp35
 70
     1
102
RTVSPost2010Prop36
280
     0
102
RTVSPost2010PropOp36
 70
     1
102
RTVSPost2010Prop37
 90
       50
102
RTVSPost2010PropOp37
 70
     1
102
RTVSPost2010Prop38
140
0.0
102
RTVSPost2010PropOp38
 70
     1
102
RTVSPost2010Prop39
140
1.0
102
RTVSPost2010PropOp39
 70
     1
102
RTVSPost2010Prop40
 90
        0
102
RTVSPost2010PropOp40
 70
     1
102
RTVSPost2010Prop41ColorIndex
 90
       18
102
RTVSPost2010Prop41ColorRGB
 90
        0
102
RTVSPost2010PropOp41
 70
     1
102
RTVSPost2010Prop42
 90
       50
102
RTVSPost2010PropOp42
 70
     1
102
RTVSPost2010Prop43
 90
        3
102
RTVSPost2010PropOp43
 70
     1
102
RTVSPost2010Prop44ColorIndex
 90
        5
102
RTVSPost2010Prop44ColorRGB
 90
      255
102
RTVSPost2010PropOp44
 70
     1
102
RTVSPost2010Prop45
280
     0
102
RTVSPost2010PropOp45
 70
     1
102
RTVSPost2010Prop46
 90
       50
102
RTVSPost2010PropOp46
 70
     1
102
RTVSPost2010Prop47
 90
       50
102
RTVSPost2010PropOp47
 70
     1
102
RTVSPost2010Prop48
 90
       50
102
RTVSPost2010PropOp48
 70
     1
102
RTVSPost2010Prop49
280
     0
102
RTVSPost2010PropOp49
 70
     1
102
RTVSPost2010Prop50
 90
       50
102
RTVSPost2010PropOp50
 70
     1
102
RTVSPost2010Prop51ColorIndex
 90
      256
102
RTVSPost2010Prop51ColorRGB
 90
-16777216
102
RTVSPost2010PropOp51
 70
     0
102
RTVSPost2010Prop52
140
1.0
102
RTVSPost2010PropOp52
 70
     0
102
RTVSPost2010Prop53
 90
        2
102
RTVSPost2010PropOp53
 70
     1
102
RTVSPost2010Prop54
  1
strokes_ogs.tif
102
RTVSPost2010PropOp54
 70
     1
102
RTVSPost2010Prop55
280
     0
102
RTVSPost2010PropOp55
 70
     1
102
RTVSPost2010Prop56
140
1.0
102
RTVSPost2010PropOp56
 70
     1
102
RTVSPost2010Prop57
140
1.0
102
RTVSPost2010PropOp57
 70
     1
102
RTVSPropertyOp0
 70
     1
102
RTVSPropertyOp1
 70
     1
102
RTVSPropertyOp2
 70
     1
102
RTVSPropertyOp3
 70
     1
102
RTVSPropertyOp4
 70
     1
102
RTVSPropertyOp5
 70
     1
102
RTVSPropertyOp6
 70
     1
102
RTVSPropertyOp7
 70
     1
102
RTVSPropertyOp8
 70
     1
102
RTVSPropertyOp9
 70
     1
102
RTVSPropertyOp10
 70
     1
102
RTVSPropertyOp11
 70
     1
102
RTVSPropertyOp12
 70
     1
102
RTVSPropertyOp13
 70
     1
102
RTVSPropertyOp14
 70
     1
102
RTVSPropertyOp15
 70
     1
102
RTVSPropertyOp16
 70
     1
102
RTVSPropertyOp17
 70
     1
102
RTVSPropertyOp18
 70
     1
102
RTVSPropertyOp19
 70
     1
102
RTVSPropertyOp20
 70
     1
102
RTVSPropertyOp21
 70
     1
102
RTVSPropertyOp22
 70
     1
102
RTVSPropertyOp23
 70
     1
102
RTVSPropertyOp24
 70
     1
102
RTVSPropertyOp25
 70
     1
102
RTVSPropertyOp26
 70
     1
102
RTVSPropertyOp27
 70
     1
102
RTVSPropertyOp28
 70
     1
102
RTVSPropertyOp29
 70
     1
102
RTVSPropertyOp30
 70
     1
102
RTVSPropertyOp31
 70
     1
102
RTVSPropertyOp32
 70
     1
102
RTVSPropertyOp33
 70
     1
102
RTVSPropertyOp34
 70
     1
102
RTVSPropertyOp35
 70
     1
102
RTVSPropertyOp36
 70
     1
102
RTVSPropertyOp37
 70
     1
102
RTVSPropertyOp38
 70
     1
102
RTVSPropertyOp39
 70
     1
102
RTVSPropertyOp40
 70
     1
102
RTVSPropertyOp41
 70
     1
102
RTVSPropertyOp42
 70
     1
102
RTVSPropertyOp43
 70
     1
102
RTVSPropertyOp44
 70
     1
102
RTVSPropertyOp45
 70
     1
102
RTVSPropertyOp46
 70
     1
102
RTVSPropertyOp47
 70
     1
102
RTVSPropertyOp48
 70
     1
102
RTVSPropertyOp49
 70
     1
102
RTVSPropertyOp50
 70
     1
102
RTVSPropertyOp51
 70
     0
102
RTVSPropertyOp52
 70
     0
102
RTVSPropertyOp53
 70
     1
102
RTVSPropertyOp54
 70
     1
102
RTVSPropertyOp55
 70
     1
102
RTVSPropertyOp56
 70
     1
102
RTVSPropertyOp57
 70
     1
102
RTVSPropertyOp58
 70
     1
102
RTVSPropertyOp59
 70
     1
102
RTVSPropertyOp60
 70
     1
102
RTVSPropertyOp61
 70
     1
102
RTVSPropertyOp62
 70
     1
  0
XRECORD
  5
5CB
102
{ACAD_REACTORS
330
5CA
102
}
330
5CA
100
AcDbXrecord
280
     1
102
RTVSPost2010Prop28
280
     0
102
RTVSPost2010PropOp28
 70
     1
102
RTVSPost2010Prop29
280
     1
102
RTVSPost2010PropOp29
 70
     1
102
RTVSPost2010Prop30
280
     1
102
RTVSPost2010PropOp30
 70
     1
102
RTVSPost2010Prop31
280
     0
102
RTVSPost2010PropOp31
 70
     1
102
RTVSPost2010Prop32
280
     0
102
RTVSPost2010PropOp32
 70
     1
102
RTVSPost2010Prop33
280
     0
102
RTVSPost2010PropOp33
 70
     1
102
RTVSPost2010Prop34
280
     0
102
RTVSPost2010PropOp34
 70
     1
102
RTVSPost2010Prop35
280
     0
102
RTVSPost2010PropOp35
 70
     1
102
RTVSPost2010Prop36
280
     0
102
RTVSPost2010PropOp36
 70
     1
102
RTVSPost2010Prop37
 90
       50
102
RTVSPost2010PropOp37
 70
     1
102
RTVSPost2010Prop38
140
0.0
102
RTVSPost2010PropOp38
 70
     1
102
RTVSPost2010Prop39
140
1.0
102
RTVSPost2010PropOp39
 70
     1
102
RTVSPost2010Prop40
 90
        0
102
RTVSPost2010PropOp40
 70
     1
102
RTVSPost2010Prop41ColorIndex
 90
       18
102
RTVSPost2010Prop41ColorRGB
 90
        0
102
RTVSPost2010PropOp41
 70
     1
102
RTVSPost2010Prop42
 90
       50
102
RTVSPost2010PropOp42
 70
     1
102
RTVSPost2010Prop43
 90
        3
102
RTVSPost2010PropOp43
 70
     1
102
RTVSPost2010Prop44ColorIndex
 90
        5
102
RTVSPost2010Prop44ColorRGB
 90
      255
102
RTVSPost2010PropOp44
 70
     1
102
RTVSPost2010Prop45
280
     0
102
RTVSPost2010PropOp45
 70
     1
102
RTVSPost2010Prop46
 90
       50
102
RTVSPost2010PropOp46
 70
     1
102
RTVSPost2010Prop47
 90
       50
102
RTVSPost2010PropOp47
 70
     1
102
RTVSPost2010Prop48
 90
       50
102
RTVSPost2010PropOp48
 70
     1
102
RTVSPost2010Prop49
280
     0
102
RTVSPost2010PropOp49
 70
     1
102
RTVSPost2010Prop50
 90
       50
102
RTVSPost2010PropOp50
 70
     1
102
RTVSPost2010Prop51ColorIndex
 90
      256
102
RTVSPost2010Prop51ColorRGB
 90
-16777216
102
RTVSPost2010PropOp51
 70
     0
102
RTVSPost2010Prop52
140
1.0
102
RTVSPost2010PropOp52
 70
     0
102
RTVSPost2010Prop53
 90
        2
102
RTVSPost2010PropOp53
 70
     1
102
RTVSPost2010Prop54
  1
strokes_ogs.tif
102
RTVSPost2010PropOp54
 70
     1
102
RTVSPost2010Prop55
280
     0
102
RTVSPost2010PropOp55
 70
     1
102
RTVSPost2010Prop56
140
1.0
102
RTVSPost2010PropOp56
 70
     1
102
RTVSPost2010Prop57
140
1.0
102
RTVSPost2010PropOp57
 70
     1
102
RTVSPropertyOp0
 70
     1
102
RTVSPropertyOp1
 70
     1
102
RTVSPropertyOp2
 70
     1
102
RTVSPropertyOp3
 70
     1
102
RTVSPropertyOp4
 70
     1
102
RTVSPropertyOp5
 70
     1
102
RTVSPropertyOp6
 70
     1
102
RTVSPropertyOp7
 70
     1
102
RTVSPropertyOp8
 70
     1
102
RTVSPropertyOp9
 70
     1
102
RTVSPropertyOp10
 70
     1
102
RTVSPropertyOp11
 70
     1
102
RTVSPropertyOp12
 70
     1
102
RTVSPropertyOp13
 70
     1
102
RTVSPropertyOp14
 70
     1
102
RTVSPropertyOp15
 70
     1
102
RTVSPropertyOp16
 70
     1
102
RTVSPropertyOp17
 70
     1
102
RTVSPropertyOp18
 70
     1
102
RTVSPropertyOp19
 70
     1
102
RTVSPropertyOp20
 70
     1
102
RTVSPropertyOp21
 70
     1
102
RTVSPropertyOp22
 70
     1
102
RTVSPropertyOp23
 70
     1
102
RTVSPropertyOp24
 70
     1
102
RTVSPropertyOp25
 70
     1
102
RTVSPropertyOp26
 70
     1
102
RTVSPropertyOp27
 70
     1
102
RTVSPropertyOp28
 70
     1
102
RTVSPropertyOp29
 70
     1
102
RTVSPropertyOp30
 70
     1
102
RTVSPropertyOp31
 70
     1
102
RTVSPropertyOp32
 70
     1
102
RTVSPropertyOp33
 70
     1
102
RTVSPropertyOp34
 70
     1
102
RTVSPropertyOp35
 70
     1
102
RTVSPropertyOp36
 70
     1
102
RTVSPropertyOp37
 70
     1
102
RTVSPropertyOp38
 70
     1
102
RTVSPropertyOp39
 70
     1
102
RTVSPropertyOp40
 70
     1
102
RTVSPropertyOp41
 70
     1
102
RTVSPropertyOp42
 70
     1
102
RTVSPropertyOp43
 70
     1
102
RTVSPropertyOp44
 70
     1
102
RTVSPropertyOp45
 70
     1
102
RTVSPropertyOp46
 70
     1
102
RTVSPropertyOp47
 70
     1
102
RTVSPropertyOp48
 70
     1
102
RTVSPropertyOp49
 70
     1
102
RTVSPropertyOp50
 70
     1
102
RTVSPropertyOp51
 70
     0
102
RTVSPropertyOp52
 70
     0
102
RTVSPropertyOp53
 70
     1
102
RTVSPropertyOp54
 70
     1
102
RTVSPropertyOp55
 70
     1
102
RTVSPropertyOp56
 70
     1
102
RTVSPropertyOp57
 70
     1
102
RTVSPropertyOp58
 70
     1
102
RTVSPropertyOp59
 70
     1
102
RTVSPropertyOp60
 70
     1
102
RTVSPropertyOp61
 70
     1
102
RTVSPropertyOp62
 70
     1
  0
XRECORD
  5
5CD
102
{ACAD_REACTORS
330
5CC
102
}
330
5CC
100
AcDbXrecord
280
     1
102
RTVSPost2010Prop28
280
     0
102
RTVSPost2010PropOp28
 70
     1
102
RTVSPost2010Prop29
280
     1
102
RTVSPost2010PropOp29
 70
     1
102
RTVSPost2010Prop30
280
     1
102
RTVSPost2010PropOp30
 70
     1
102
RTVSPost2010Prop31
280
     0
102
RTVSPost2010PropOp31
 70
     1
102
RTVSPost2010Prop32
280
     0
102
RTVSPost2010PropOp32
 70
     1
102
RTVSPost2010Prop33
280
     0
102
RTVSPost2010PropOp33
 70
     1
102
RTVSPost2010Prop34
280
     0
102
RTVSPost2010PropOp34
 70
     1
102
RTVSPost2010Prop35
280
     0
102
RTVSPost2010PropOp35
 70
     1
102
RTVSPost2010Prop36
280
     0
102
RTVSPost2010PropOp36
 70
     1
102
RTVSPost2010Prop37
 90
       50
102
RTVSPost2010PropOp37
 70
     1
102
RTVSPost2010Prop38
140
0.0
102
RTVSPost2010PropOp38
 70
     1
102
RTVSPost2010Prop39
140
1.0
102
RTVSPost2010PropOp39
 70
     1
102
RTVSPost2010Prop40
 90
        0
102
RTVSPost2010PropOp40
 70
     1
102
RTVSPost2010Prop41ColorIndex
 90
       18
102
RTVSPost2010Prop41ColorRGB
 90
        0
102
RTVSPost2010PropOp41
 70
     1
102
RTVSPost2010Prop42
 90
       50
102
RTVSPost2010PropOp42
 70
     1
102
RTVSPost2010Prop43
 90
        3
102
RTVSPost2010PropOp43
 70
     1
102
RTVSPost2010Prop44ColorIndex
 90
        5
102
RTVSPost2010Prop44ColorRGB
 90
      255
102
RTVSPost2010PropOp44
 70
     1
102
RTVSPost2010Prop45
280
     0
102
RTVSPost2010PropOp45
 70
     1
102
RTVSPost2010Prop46
 90
       50
102
RTVSPost2010PropOp46
 70
     1
102
RTVSPost2010Prop47
 90
       50
102
RTVSPost2010PropOp47
 70
     1
102
RTVSPost2010Prop48
 90
       50
102
RTVSPost2010PropOp48
 70
     1
102
RTVSPost2010Prop49
280
     0
102
RTVSPost2010PropOp49
 70
     1
102
RTVSPost2010Prop50
 90
       50
102
RTVSPost2010PropOp50
 70
     1
102
RTVSPost2010Prop51ColorIndex
 90
      256
102
RTVSPost2010Prop51ColorRGB
 90
-16777216
102
RTVSPost2010PropOp51
 70
     0
102
RTVSPost2010Prop52
140
1.0
102
RTVSPost2010PropOp52
 70
     0
102
RTVSPost2010Prop53
 90
        2
102
RTVSPost2010PropOp53
 70
     1
102
RTVSPost2010Prop54
  1
strokes_ogs.tif
102
RTVSPost2010PropOp54
 70
     1
102
RTVSPost2010Prop55
280
     0
102
RTVSPost2010PropOp55
 70
     1
102
RTVSPost2010Prop56
140
1.0
102
RTVSPost2010PropOp56
 70
     1
102
RTVSPost2010Prop57
140
1.0
102
RTVSPost2010PropOp57
 70
     1
102
RTVSPropertyOp0
 70
     1
102
RTVSPropertyOp1
 70
     1
102
RTVSPropertyOp2
 70
     1
102
RTVSPropertyOp3
 70
     1
102
RTVSPropertyOp4
 70
     1
102
RTVSPropertyOp5
 70
     1
102
RTVSPropertyOp6
 70
     1
102
RTVSPropertyOp7
 70
     1
102
RTVSPropertyOp8
 70
     1
102
RTVSPropertyOp9
 70
     1
102
RTVSPropertyOp10
 70
     1
102
RTVSPropertyOp11
 70
     1
102
RTVSPropertyOp12
 70
     1
102
RTVSPropertyOp13
 70
     1
102
RTVSPropertyOp14
 70
     1
102
RTVSPropertyOp15
 70
     1
102
RTVSPropertyOp16
 70
     1
102
RTVSPropertyOp17
 70
     1
102
RTVSPropertyOp18
 70
     1
102
RTVSPropertyOp19
 70
     1
102
RTVSPropertyOp20
 70
     1
102
RTVSPropertyOp21
 70
     1
102
RTVSPropertyOp22
 70
     1
102
RTVSPropertyOp23
 70
     1
102
RTVSPropertyOp24
 70
     1
102
RTVSPropertyOp25
 70
     1
102
RTVSPropertyOp26
 70
     1
102
RTVSPropertyOp27
 70
     1
102
RTVSPropertyOp28
 70
     1
102
RTVSPropertyOp29
 70
     1
102
RTVSPropertyOp30
 70
     1
102
RTVSPropertyOp31
 70
     1
102
RTVSPropertyOp32
 70
     1
102
RTVSPropertyOp33
 70
     1
102
RTVSPropertyOp34
 70
     1
102
RTVSPropertyOp35
 70
     1
102
RTVSPropertyOp36
 70
     1
102
RTVSPropertyOp37
 70
     1
102
RTVSPropertyOp38
 70
     1
102
RTVSPropertyOp39
 70
     1
102
RTVSPropertyOp40
 70
     1
102
RTVSPropertyOp41
 70
     1
102
RTVSPropertyOp42
 70
     1
102
RTVSPropertyOp43
 70
     1
102
RTVSPropertyOp44
 70
     1
102
RTVSPropertyOp45
 70
     1
102
RTVSPropertyOp46
 70
     1
102
RTVSPropertyOp47
 70
     1
102
RTVSPropertyOp48
 70
     1
102
RTVSPropertyOp49
 70
     1
102
RTVSPropertyOp50
 70
     1
102
RTVSPropertyOp51
 70
     0
102
RTVSPropertyOp52
 70
     0
102
RTVSPropertyOp53
 70
     1
102
RTVSPropertyOp54
 70
     1
102
RTVSPropertyOp55
 70
     1
102
RTVSPropertyOp56
 70
     1
102
RTVSPropertyOp57
 70
     1
102
RTVSPropertyOp58
 70
     1
102
RTVSPropertyOp59
 70
     1
102
RTVSPropertyOp60
 70
     1
102
RTVSPropertyOp61
 70
     1
102
RTVSPropertyOp62
 70
     1
  0
XRECORD
  5
5D5
102
{ACAD_REACTORS
330
5D4
102
}
330
5D4
100
AcDbXrecord
280
     1
102
RTVSPost2010Prop28
280
     0
102
RTVSPost2010PropOp28
 70
     1
102
RTVSPost2010Prop29
280
     1
102
RTVSPost2010PropOp29
 70
     1
102
RTVSPost2010Prop30
280
     1
102
RTVSPost2010PropOp30
 70
     1
102
RTVSPost2010Prop31
280
     0
102
RTVSPost2010PropOp31
 70
     1
102
RTVSPost2010Prop32
280
     0
102
RTVSPost2010PropOp32
 70
     1
102
RTVSPost2010Prop33
280
     0
102
RTVSPost2010PropOp33
 70
     1
102
RTVSPost2010Prop34
280
     0
102
RTVSPost2010PropOp34
 70
     1
102
RTVSPost2010Prop35
280
     0
102
RTVSPost2010PropOp35
 70
     1
102
RTVSPost2010Prop36
280
     0
102
RTVSPost2010PropOp36
 70
     1
102
RTVSPost2010Prop37
 90
       50
102
RTVSPost2010PropOp37
 70
     1
102
RTVSPost2010Prop38
140
0.0
102
RTVSPost2010PropOp38
 70
     1
102
RTVSPost2010Prop39
140
1.0
102
RTVSPost2010PropOp39
 70
     1
102
RTVSPost2010Prop40
 90
        0
102
RTVSPost2010PropOp40
 70
     1
102
RTVSPost2010Prop41ColorIndex
 90
       18
102
RTVSPost2010Prop41ColorRGB
 90
        0
102
RTVSPost2010PropOp41
 70
     1
102
RTVSPost2010Prop42
 90
       50
102
RTVSPost2010PropOp42
 70
     1
102
RTVSPost2010Prop43
 90
        3
102
RTVSPost2010PropOp43
 70
     1
102
RTVSPost2010Prop44ColorIndex
 90
        5
102
RTVSPost2010Prop44ColorRGB
 90
      255
102
RTVSPost2010PropOp44
 70
     1
102
RTVSPost2010Prop45
280
     0
102
RTVSPost2010PropOp45
 70
     1
102
RTVSPost2010Prop46
 90
       50
102
RTVSPost2010PropOp46
 70
     1
102
RTVSPost2010Prop47
 90
       50
102
RTVSPost2010PropOp47
 70
     1
102
RTVSPost2010Prop48
 90
       50
102
RTVSPost2010PropOp48
 70
     1
102
RTVSPost2010Prop49
280
     0
102
RTVSPost2010PropOp49
 70
     1
102
RTVSPost2010Prop50
 90
       50
102
RTVSPost2010PropOp50
 70
     1
102
RTVSPost2010Prop51ColorIndex
 90
      256
102
RTVSPost2010Prop51ColorRGB
 90
-16777216
102
RTVSPost2010PropOp51
 70
     0
102
RTVSPost2010Prop52
140
1.0
102
RTVSPost2010PropOp52
 70
     0
102
RTVSPost2010Prop53
 90
        2
102
RTVSPost2010PropOp53
 70
     1
102
RTVSPost2010Prop54
  1
strokes_ogs.tif
102
RTVSPost2010PropOp54
 70
     1
102
RTVSPost2010Prop55
280
     0
102
RTVSPost2010PropOp55
 70
     1
102
RTVSPost2010Prop56
140
1.0
102
RTVSPost2010PropOp56
 70
     1
102
RTVSPost2010Prop57
140
1.0
102
RTVSPost2010PropOp57
 70
     1
102
RTVSPropertyOp0
 70
     1
102
RTVSPropertyOp1
 70
     1
102
RTVSPropertyOp2
 70
     1
102
RTVSPropertyOp3
 70
     1
102
RTVSPropertyOp4
 70
     1
102
RTVSPropertyOp5
 70
     1
102
RTVSPropertyOp6
 70
     1
102
RTVSPropertyOp7
 70
     1
102
RTVSPropertyOp8
 70
     1
102
RTVSPropertyOp9
 70
     1
102
RTVSPropertyOp10
 70
     1
102
RTVSPropertyOp11
 70
     1
102
RTVSPropertyOp12
 70
     1
102
RTVSPropertyOp13
 70
     1
102
RTVSPropertyOp14
 70
     1
102
RTVSPropertyOp15
 70
     1
102
RTVSPropertyOp16
 70
     1
102
RTVSPropertyOp17
 70
     1
102
RTVSPropertyOp18
 70
     1
102
RTVSPropertyOp19
 70
     1
102
RTVSPropertyOp20
 70
     1
102
RTVSPropertyOp21
 70
     1
102
RTVSPropertyOp22
 70
     1
102
RTVSPropertyOp23
 70
     1
102
RTVSPropertyOp24
 70
     1
102
RTVSPropertyOp25
 70
     1
102
RTVSPropertyOp26
 70
     1
102
RTVSPropertyOp27
 70
     1
102
RTVSPropertyOp28
 70
     1
102
RTVSPropertyOp29
 70
     1
102
RTVSPropertyOp30
 70
     1
102
RTVSPropertyOp31
 70
     1
102
RTVSPropertyOp32
 70
     1
102
RTVSPropertyOp33
 70
     1
102
RTVSPropertyOp34
 70
     1
102
RTVSPropertyOp35
 70
     1
102
RTVSPropertyOp36
 70
     1
102
RTVSPropertyOp37
 70
     1
102
RTVSPropertyOp38
 70
     1
102
RTVSPropertyOp39
 70
     1
102
RTVSPropertyOp40
 70
     1
102
RTVSPropertyOp41
 70
     1
102
RTVSPropertyOp42
 70
     1
102
RTVSPropertyOp43
 70
     1
102
RTVSPropertyOp44
 70
     1
102
RTVSPropertyOp45
 70
     1
102
RTVSPropertyOp46
 70
     1
102
RTVSPropertyOp47
 70
     1
102
RTVSPropertyOp48
 70
     1
102
RTVSPropertyOp49
 70
     1
102
RTVSPropertyOp50
 70
     1
102
RTVSPropertyOp51
 70
     0
102
RTVSPropertyOp52
 70
     0
102
RTVSPropertyOp53
 70
     1
102
RTVSPropertyOp54
 70
     1
102
RTVSPropertyOp55
 70
     1
102
RTVSPropertyOp56
 70
     1
102
RTVSPropertyOp57
 70
     1
102
RTVSPropertyOp58
 70
     1
102
RTVSPropertyOp59
 70
     1
102
RTVSPropertyOp60
 70
     1
102
RTVSPropertyOp61
 70
     1
102
RTVSPropertyOp62
 70
     1
  0
XRECORD
  5
5F1
102
{ACAD_REACTORS
330
5F0
102
}
330
5F0
100
AcDbXrecord
280
     1
102
RTVSPost2010Prop28
280
     0
102
RTVSPost2010PropOp28
 70
     0
102
RTVSPost2010Prop29
280
     1
102
RTVSPost2010PropOp29
 70
     0
102
RTVSPost2010Prop30
280
     1
102
RTVSPost2010PropOp30
 70
     0
102
RTVSPost2010Prop31
280
     0
102
RTVSPost2010PropOp31
 70
     0
102
RTVSPost2010Prop32
280
     0
102
RTVSPost2010PropOp32
 70
     0
102
RTVSPost2010Prop33
280
     0
102
RTVSPost2010PropOp33
 70
     0
102
RTVSPost2010Prop34
280
     0
102
RTVSPost2010PropOp34
 70
     0
102
RTVSPost2010Prop35
280
     0
102
RTVSPost2010PropOp35
 70
     0
102
RTVSPost2010Prop36
280
     0
102
RTVSPost2010PropOp36
 70
     0
102
RTVSPost2010Prop37
 90
       50
102
RTVSPost2010PropOp37
 70
     0
102
RTVSPost2010Prop38
140
0.0
102
RTVSPost2010PropOp38
 70
     0
102
RTVSPost2010Prop39
140
1.0
102
RTVSPost2010PropOp39
 70
     0
102
RTVSPost2010Prop40
 90
        0
102
RTVSPost2010PropOp40
 70
     0
102
RTVSPost2010Prop41ColorIndex
 90
       18
102
RTVSPost2010Prop41ColorRGB
 90
        0
102
RTVSPost2010PropOp41
 70
     0
102
RTVSPost2010Prop42
 90
       50
102
RTVSPost2010PropOp42
 70
     0
102
RTVSPost2010Prop43
 90
        3
102
RTVSPost2010PropOp43
 70
     0
102
RTVSPost2010Prop44ColorIndex
 90
        5
102
RTVSPost2010Prop44ColorRGB
 90
      255
102
RTVSPost2010PropOp44
 70
     0
102
RTVSPost2010Prop45
280
     0
102
RTVSPost2010PropOp45
 70
     0
102
RTVSPost2010Prop46
 90
       50
102
RTVSPost2010PropOp46
 70
     0
102
RTVSPost2010Prop47
 90
       50
102
RTVSPost2010PropOp47
 70
     0
102
RTVSPost2010Prop48
 90
       50
102
RTVSPost2010PropOp48
 70
     0
102
RTVSPost2010Prop49
280
     0
102
RTVSPost2010PropOp49
 70
     0
102
RTVSPost2010Prop50
 90
       50
102
RTVSPost2010PropOp50
 70
     0
102
RTVSPost2010Prop51ColorIndex
 90
      256
102
RTVSPost2010Prop51ColorRGB
 90
-16777216
102
RTVSPost2010PropOp51
 70
     0
102
RTVSPost2010Prop52
140
1.0
102
RTVSPost2010PropOp52
 70
     0
102
RTVSPost2010Prop53
 90
        2
102
RTVSPost2010PropOp53
 70
     0
102
RTVSPost2010Prop54
  1
strokes_ogs.tif
102
RTVSPost2010PropOp54
 70
     0
102
RTVSPost2010Prop55
280
     0
102
RTVSPost2010PropOp55
 70
     0
102
RTVSPost2010Prop56
140
1.0
102
RTVSPost2010PropOp56
 70
     0
102
RTVSPost2010Prop57
140
1.0
102
RTVSPost2010PropOp57
 70
     0
102
RTVSPropertyOp0
 70
     0
102
RTVSPropertyOp1
 70
     0
102
RTVSPropertyOp2
 70
     0
102
RTVSPropertyOp3
 70
     0
102
RTVSPropertyOp4
 70
     0
102
RTVSPropertyOp5
 70
     0
102
RTVSPropertyOp6
 70
     0
102
RTVSPropertyOp7
 70
     0
102
RTVSPropertyOp8
 70
     0
102
RTVSPropertyOp9
 70
     0
102
RTVSPropertyOp10
 70
     0
102
RTVSPropertyOp11
 70
     0
102
RTVSPropertyOp12
 70
     0
102
RTVSPropertyOp13
 70
     0
102
RTVSPropertyOp14
 70
     2
102
RTVSPropertyOp15
 70
     0
102
RTVSPropertyOp16
 70
     0
102
RTVSPropertyOp17
 70
     0
102
RTVSPropertyOp18
 70
     0
102
RTVSPropertyOp19
 70
     0
102
RTVSPropertyOp20
 70
     0
102
RTVSPropertyOp21
 70
     0
102
RTVSPropertyOp22
 70
     0
102
RTVSPropertyOp23
 70
     0
102
RTVSPropertyOp24
 70
     0
102
RTVSPropertyOp25
 70
     0
102
RTVSPropertyOp26
 70
     0
102
RTVSPropertyOp27
 70
     0
102
RTVSPropertyOp28
 70
     0
102
RTVSPropertyOp29
 70
     0
102
RTVSPropertyOp30
 70
     0
102
RTVSPropertyOp31
 70
     0
102
RTVSPropertyOp32
 70
     0
102
RTVSPropertyOp33
 70
     0
102
RTVSPropertyOp34
 70
     0
102
RTVSPropertyOp35
 70
     0
102
RTVSPropertyOp36
 70
     0
102
RTVSPropertyOp37
 70
     0
102
RTVSPropertyOp38
 70
     0
102
RTVSPropertyOp39
 70
     0
102
RTVSPropertyOp40
 70
     0
102
RTVSPropertyOp41
 70
     0
102
RTVSPropertyOp42
 70
     0
102
RTVSPropertyOp43
 70
     0
102
RTVSPropertyOp44
 70
     0
102
RTVSPropertyOp45
 70
     0
102
RTVSPropertyOp46
 70
     0
102
RTVSPropertyOp47
 70
     0
102
RTVSPropertyOp48
 70
     0
102
RTVSPropertyOp49
 70
     0
102
RTVSPropertyOp50
 70
     0
102
RTVSPropertyOp51
 70
     0
102
RTVSPropertyOp52
 70
     0
102
RTVSPropertyOp53
 70
     0
102
RTVSPropertyOp54
 70
     0
102
RTVSPropertyOp55
 70
     0
102
RTVSPropertyOp56
 70
     0
102
RTVSPropertyOp57
 70
     0
102
RTVSPropertyOp58
 70
     0
102
RTVSPropertyOp59
 70
     0
102
RTVSPropertyOp60
 70
     0
102
RTVSPropertyOp61
 70
     0
102
RTVSPropertyOp62
 70
     0
  0
XRECORD
  5
5E1
102
{ACAD_REACTORS
330
5E0
102
}
330
5E0
100
AcDbXrecord
280
     1
102
RTVSPost2010Prop28
280
     0
102
RTVSPost2010PropOp28
 70
     1
102
RTVSPost2010Prop29
280
     1
102
RTVSPost2010PropOp29
 70
     1
102
RTVSPost2010Prop30
280
     1
102
RTVSPost2010PropOp30
 70
     1
102
RTVSPost2010Prop31
280
     0
102
RTVSPost2010PropOp31
 70
     1
102
RTVSPost2010Prop32
280
     0
102
RTVSPost2010PropOp32
 70
     1
102
RTVSPost2010Prop33
280
     0
102
RTVSPost2010PropOp33
 70
     1
102
RTVSPost2010Prop34
280
     0
102
RTVSPost2010PropOp34
 70
     1
102
RTVSPost2010Prop35
280
     0
102
RTVSPost2010PropOp35
 70
     1
102
RTVSPost2010Prop36
280
     0
102
RTVSPost2010PropOp36
 70
     1
102
RTVSPost2010Prop37
 90
       50
102
RTVSPost2010PropOp37
 70
     1
102
RTVSPost2010Prop38
140
0.0
102
RTVSPost2010PropOp38
 70
     1
102
RTVSPost2010Prop39
140
1.0
102
RTVSPost2010PropOp39
 70
     1
102
RTVSPost2010Prop40
 90
        0
102
RTVSPost2010PropOp40
 70
     1
102
RTVSPost2010Prop41ColorIndex
 90
       18
102
RTVSPost2010Prop41ColorRGB
 90
        0
102
RTVSPost2010PropOp41
 70
     1
102
RTVSPost2010Prop42
 90
       50
102
RTVSPost2010PropOp42
 70
     1
102
RTVSPost2010Prop43
 90
        3
102
RTVSPost2010PropOp43
 70
     1
102
RTVSPost2010Prop44ColorIndex
 90
        5
102
RTVSPost2010Prop44ColorRGB
 90
      255
102
RTVSPost2010PropOp44
 70
     1
102
RTVSPost2010Prop45
280
     0
102
RTVSPost2010PropOp45
 70
     1
102
RTVSPost2010Prop46
 90
       50
102
RTVSPost2010PropOp46
 70
     1
102
RTVSPost2010Prop47
 90
       50
102
RTVSPost2010PropOp47
 70
     1
102
RTVSPost2010Prop48
 90
       50
102
RTVSPost2010PropOp48
 70
     1
102
RTVSPost2010Prop49
280
     0
102
RTVSPost2010PropOp49
 70
     1
102
RTVSPost2010Prop50
 90
       50
102
RTVSPost2010PropOp50
 70
     1
102
RTVSPost2010Prop51ColorIndex
 90
      256
102
RTVSPost2010Prop51ColorRGB
 90
-16777216
102
RTVSPost2010PropOp51
 70
     0
102
RTVSPost2010Prop52
140
1.0
102
RTVSPost2010PropOp52
 70
     0
102
RTVSPost2010Prop53
 90
        2
102
RTVSPost2010PropOp53
 70
     1
102
RTVSPost2010Prop54
  1
strokes_ogs.tif
102
RTVSPost2010PropOp54
 70
     1
102
RTVSPost2010Prop55
280
     0
102
RTVSPost2010PropOp55
 70
     1
102
RTVSPost2010Prop56
140
1.0
102
RTVSPost2010PropOp56
 70
     1
102
RTVSPost2010Prop57
140
1.0
102
RTVSPost2010PropOp57
 70
     1
102
RTVSPropertyOp0
 70
     1
102
RTVSPropertyOp1
 70
     1
102
RTVSPropertyOp2
 70
     1
102
RTVSPropertyOp3
 70
     1
102
RTVSPropertyOp4
 70
     1
102
RTVSPropertyOp5
 70
     1
102
RTVSPropertyOp6
 70
     1
102
RTVSPropertyOp7
 70
     1
102
RTVSPropertyOp8
 70
     1
102
RTVSPropertyOp9
 70
     1
102
RTVSPropertyOp10
 70
     1
102
RTVSPropertyOp11
 70
     1
102
RTVSPropertyOp12
 70
     1
102
RTVSPropertyOp13
 70
     1
102
RTVSPropertyOp14
 70
     1
102
RTVSPropertyOp15
 70
     1
102
RTVSPropertyOp16
 70
     1
102
RTVSPropertyOp17
 70
     1
102
RTVSPropertyOp18
 70
     1
102
RTVSPropertyOp19
 70
     1
102
RTVSPropertyOp20
 70
     1
102
RTVSPropertyOp21
 70
     1
102
RTVSPropertyOp22
 70
     1
102
RTVSPropertyOp23
 70
     1
102
RTVSPropertyOp24
 70
     1
102
RTVSPropertyOp25
 70
     1
102
RTVSPropertyOp26
 70
     1
102
RTVSPropertyOp27
 70
     1
102
RTVSPropertyOp28
 70
     1
102
RTVSPropertyOp29
 70
     1
102
RTVSPropertyOp30
 70
     1
102
RTVSPropertyOp31
 70
     1
102
RTVSPropertyOp32
 70
     1
102
RTVSPropertyOp33
 70
     1
102
RTVSPropertyOp34
 70
     1
102
RTVSPropertyOp35
 70
     1
102
RTVSPropertyOp36
 70
     1
102
RTVSPropertyOp37
 70
     1
102
RTVSPropertyOp38
 70
     1
102
RTVSPropertyOp39
 70
     1
102
RTVSPropertyOp40
 70
     1
102
RTVSPropertyOp41
 70
     1
102
RTVSPropertyOp42
 70
     1
102
RTVSPropertyOp43
 70
     1
102
RTVSPropertyOp44
 70
     1
102
RTVSPropertyOp45
 70
     1
102
RTVSPropertyOp46
 70
     1
102
RTVSPropertyOp47
 70
     1
102
RTVSPropertyOp48
 70
     1
102
RTVSPropertyOp49
 70
     1
102
RTVSPropertyOp50
 70
     1
102
RTVSPropertyOp51
 70
     0
102
RTVSPropertyOp52
 70
     0
102
RTVSPropertyOp53
 70
     1
102
RTVSPropertyOp54
 70
     1
102
RTVSPropertyOp55
 70
     1
102
RTVSPropertyOp56
 70
     1
102
RTVSPropertyOp57
 70
     1
102
RTVSPropertyOp58
 70
     1
102
RTVSPropertyOp59
 70
     1
102
RTVSPropertyOp60
 70
     1
102
RTVSPropertyOp61
 70
     1
102
RTVSPropertyOp62
 70
     1
  0
XRECORD
  5
5F3
102
{ACAD_REACTORS
330
5F2
102
}
330
5F2
100
AcDbXrecord
280
     1
102
RTVSPost2010Prop28
280
     0
102
RTVSPost2010PropOp28
 70
     0
102
RTVSPost2010Prop29
280
     1
102
RTVSPost2010PropOp29
 70
     0
102
RTVSPost2010Prop30
280
     1
102
RTVSPost2010PropOp30
 70
     0
102
RTVSPost2010Prop31
280
     0
102
RTVSPost2010PropOp31
 70
     0
102
RTVSPost2010Prop32
280
     0
102
RTVSPost2010PropOp32
 70
     0
102
RTVSPost2010Prop33
280
     0
102
RTVSPost2010PropOp33
 70
     0
102
RTVSPost2010Prop34
280
     0
102
RTVSPost2010PropOp34
 70
     0
102
RTVSPost2010Prop35
280
     0
102
RTVSPost2010PropOp35
 70
     0
102
RTVSPost2010Prop36
280
     0
102
RTVSPost2010PropOp36
 70
     0
102
RTVSPost2010Prop37
 90
       50
102
RTVSPost2010PropOp37
 70
     0
102
RTVSPost2010Prop38
140
0.0
102
RTVSPost2010PropOp38
 70
     0
102
RTVSPost2010Prop39
140
1.0
102
RTVSPost2010PropOp39
 70
     0
102
RTVSPost2010Prop40
 90
        0
102
RTVSPost2010PropOp40
 70
     0
102
RTVSPost2010Prop41ColorIndex
 90
       18
102
RTVSPost2010Prop41ColorRGB
 90
        0
102
RTVSPost2010PropOp41
 70
     0
102
RTVSPost2010Prop42
 90
       50
102
RTVSPost2010PropOp42
 70
     0
102
RTVSPost2010Prop43
 90
        3
102
RTVSPost2010PropOp43
 70
     0
102
RTVSPost2010Prop44ColorIndex
 90
        5
102
RTVSPost2010Prop44ColorRGB
 90
      255
102
RTVSPost2010PropOp44
 70
     0
102
RTVSPost2010Prop45
280
     0
102
RTVSPost2010PropOp45
 70
     0
102
RTVSPost2010Prop46
 90
       50
102
RTVSPost2010PropOp46
 70
     0
102
RTVSPost2010Prop47
 90
       50
102
RTVSPost2010PropOp47
 70
     0
102
RTVSPost2010Prop48
 90
       50
102
RTVSPost2010PropOp48
 70
     0
102
RTVSPost2010Prop49
280
     0
102
RTVSPost2010PropOp49
 70
     0
102
RTVSPost2010Prop50
 90
       50
102
RTVSPost2010PropOp50
 70
     0
102
RTVSPost2010Prop51ColorIndex
 90
      256
102
RTVSPost2010Prop51ColorRGB
 90
-16777216
102
RTVSPost2010PropOp51
 70
     0
102
RTVSPost2010Prop52
140
1.0
102
RTVSPost2010PropOp52
 70
     0
102
RTVSPost2010Prop53
 90
        2
102
RTVSPost2010PropOp53
 70
     0
102
RTVSPost2010Prop54
  1
strokes_ogs.tif
102
RTVSPost2010PropOp54
 70
     0
102
RTVSPost2010Prop55
280
     0
102
RTVSPost2010PropOp55
 70
     0
102
RTVSPost2010Prop56
140
1.0
102
RTVSPost2010PropOp56
 70
     0
102
RTVSPost2010Prop57
140
1.0
102
RTVSPost2010PropOp57
 70
     0
102
RTVSPropertyOp0
 70
     0
102
RTVSPropertyOp1
 70
     0
102
RTVSPropertyOp2
 70
     0
102
RTVSPropertyOp3
 70
     0
102
RTVSPropertyOp4
 70
     0
102
RTVSPropertyOp5
 70
     0
102
RTVSPropertyOp6
 70
     0
102
RTVSPropertyOp7
 70
     0
102
RTVSPropertyOp8
 70
     0
102
RTVSPropertyOp9
 70
     0
102
RTVSPropertyOp10
 70
     0
102
RTVSPropertyOp11
 70
     0
102
RTVSPropertyOp12
 70
     0
102
RTVSPropertyOp13
 70
     0
102
RTVSPropertyOp14
 70
     2
102
RTVSPropertyOp15
 70
     0
102
RTVSPropertyOp16
 70
     0
102
RTVSPropertyOp17
 70
     0
102
RTVSPropertyOp18
 70
     0
102
RTVSPropertyOp19
 70
     0
102
RTVSPropertyOp20
 70
     0
102
RTVSPropertyOp21
 70
     0
102
RTVSPropertyOp22
 70
     0
102
RTVSPropertyOp23
 70
     0
102
RTVSPropertyOp24
 70
     0
102
RTVSPropertyOp25
 70
     0
102
RTVSPropertyOp26
 70
     0
102
RTVSPropertyOp27
 70
     0
102
RTVSPropertyOp28
 70
     0
102
RTVSPropertyOp29
 70
     0
102
RTVSPropertyOp30
 70
     0
102
RTVSPropertyOp31
 70
     0
102
RTVSPropertyOp32
 70
     0
102
RTVSPropertyOp33
 70
     0
102
RTVSPropertyOp34
 70
     0
102
RTVSPropertyOp35
 70
     0
102
RTVSPropertyOp36
 70
     0
102
RTVSPropertyOp37
 70
     0
102
RTVSPropertyOp38
 70
     0
102
RTVSPropertyOp39
 70
     0
102
RTVSPropertyOp40
 70
     0
102
RTVSPropertyOp41
 70
     0
102
RTVSPropertyOp42
 70
     0
102
RTVSPropertyOp43
 70
     0
102
RTVSPropertyOp44
 70
     0
102
RTVSPropertyOp45
 70
     0
102
RTVSPropertyOp46
 70
     0
102
RTVSPropertyOp47
 70
     0
102
RTVSPropertyOp48
 70
     0
102
RTVSPropertyOp49
 70
     0
102
RTVSPropertyOp50
 70
     0
102
RTVSPropertyOp51
 70
     0
102
RTVSPropertyOp52
 70
     0
102
RTVSPropertyOp53
 70
     0
102
RTVSPropertyOp54
 70
     0
102
RTVSPropertyOp55
 70
     0
102
RTVSPropertyOp56
 70
     0
102
RTVSPropertyOp57
 70
     0
102
RTVSPropertyOp58
 70
     0
102
RTVSPropertyOp59
 70
     0
102
RTVSPropertyOp60
 70
     0
102
RTVSPropertyOp61
 70
     0
102
RTVSPropertyOp62
 70
     0
  0
XRECORD
  5
5D9
102
{ACAD_REACTORS
330
5D8
102
}
330
5D8
100
AcDbXrecord
280
     1
102
RTVSPost2010Prop28
280
     0
102
RTVSPost2010PropOp28
 70
     1
102
RTVSPost2010Prop29
280
     1
102
RTVSPost2010PropOp29
 70
     1
102
RTVSPost2010Prop30
280
     1
102
RTVSPost2010PropOp30
 70
     1
102
RTVSPost2010Prop31
280
     0
102
RTVSPost2010PropOp31
 70
     1
102
RTVSPost2010Prop32
280
     0
102
RTVSPost2010PropOp32
 70
     1
102
RTVSPost2010Prop33
280
     0
102
RTVSPost2010PropOp33
 70
     1
102
RTVSPost2010Prop34
280
     0
102
RTVSPost2010PropOp34
 70
     1
102
RTVSPost2010Prop35
280
     0
102
RTVSPost2010PropOp35
 70
     1
102
RTVSPost2010Prop36
280
     0
102
RTVSPost2010PropOp36
 70
     1
102
RTVSPost2010Prop37
 90
       50
102
RTVSPost2010PropOp37
 70
     1
102
RTVSPost2010Prop38
140
0.0
102
RTVSPost2010PropOp38
 70
     1
102
RTVSPost2010Prop39
140
1.0
102
RTVSPost2010PropOp39
 70
     1
102
RTVSPost2010Prop40
 90
        0
102
RTVSPost2010PropOp40
 70
     1
102
RTVSPost2010Prop41ColorIndex
 90
       18
102
RTVSPost2010Prop41ColorRGB
 90
        0
102
RTVSPost2010PropOp41
 70
     1
102
RTVSPost2010Prop42
 90
       50
102
RTVSPost2010PropOp42
 70
     1
102
RTVSPost2010Prop43
 90
        3
102
RTVSPost2010PropOp43
 70
     1
102
RTVSPost2010Prop44ColorIndex
 90
        5
102
RTVSPost2010Prop44ColorRGB
 90
      255
102
RTVSPost2010PropOp44
 70
     1
102
RTVSPost2010Prop45
280
     0
102
RTVSPost2010PropOp45
 70
     1
102
RTVSPost2010Prop46
 90
       50
102
RTVSPost2010PropOp46
 70
     1
102
RTVSPost2010Prop47
 90
       50
102
RTVSPost2010PropOp47
 70
     1
102
RTVSPost2010Prop48
 90
       50
102
RTVSPost2010PropOp48
 70
     1
102
RTVSPost2010Prop49
280
     0
102
RTVSPost2010PropOp49
 70
     1
102
RTVSPost2010Prop50
 90
       50
102
RTVSPost2010PropOp50
 70
     1
102
RTVSPost2010Prop51ColorIndex
 90
      256
102
RTVSPost2010Prop51ColorRGB
 90
-16777216
102
RTVSPost2010PropOp51
 70
     0
102
RTVSPost2010Prop52
140
1.0
102
RTVSPost2010PropOp52
 70
     0
102
RTVSPost2010Prop53
 90
        2
102
RTVSPost2010PropOp53
 70
     1
102
RTVSPost2010Prop54
  1
strokes_ogs.tif
102
RTVSPost2010PropOp54
 70
     1
102
RTVSPost2010Prop55
280
     0
102
RTVSPost2010PropOp55
 70
     1
102
RTVSPost2010Prop56
140
1.0
102
RTVSPost2010PropOp56
 70
     1
102
RTVSPost2010Prop57
140
1.0
102
RTVSPost2010PropOp57
 70
     1
102
RTVSPropertyOp0
 70
     1
102
RTVSPropertyOp1
 70
     1
102
RTVSPropertyOp2
 70
     1
102
RTVSPropertyOp3
 70
     1
102
RTVSPropertyOp4
 70
     1
102
RTVSPropertyOp5
 70
     1
102
RTVSPropertyOp6
 70
     1
102
RTVSPropertyOp7
 70
     1
102
RTVSPropertyOp8
 70
     1
102
RTVSPropertyOp9
 70
     1
102
RTVSPropertyOp10
 70
     1
102
RTVSPropertyOp11
 70
     1
102
RTVSPropertyOp12
 70
     1
102
RTVSPropertyOp13
 70
     1
102
RTVSPropertyOp14
 70
     1
102
RTVSPropertyOp15
 70
     1
102
RTVSPropertyOp16
 70
     1
102
RTVSPropertyOp17
 70
     1
102
RTVSPropertyOp18
 70
     1
102
RTVSPropertyOp19
 70
     1
102
RTVSPropertyOp20
 70
     1
102
RTVSPropertyOp21
 70
     1
102
RTVSPropertyOp22
 70
     1
102
RTVSPropertyOp23
 70
     1
102
RTVSPropertyOp24
 70
     1
102
RTVSPropertyOp25
 70
     1
102
RTVSPropertyOp26
 70
     1
102
RTVSPropertyOp27
 70
     1
102
RTVSPropertyOp28
 70
     1
102
RTVSPropertyOp29
 70
     1
102
RTVSPropertyOp30
 70
     1
102
RTVSPropertyOp31
 70
     1
102
RTVSPropertyOp32
 70
     1
102
RTVSPropertyOp33
 70
     1
102
RTVSPropertyOp34
 70
     1
102
RTVSPropertyOp35
 70
     1
102
RTVSPropertyOp36
 70
     1
102
RTVSPropertyOp37
 70
     1
102
RTVSPropertyOp38
 70
     1
102
RTVSPropertyOp39
 70
     1
102
RTVSPropertyOp40
 70
     1
102
RTVSPropertyOp41
 70
     1
102
RTVSPropertyOp42
 70
     1
102
RTVSPropertyOp43
 70
     1
102
RTVSPropertyOp44
 70
     1
102
RTVSPropertyOp45
 70
     1
102
RTVSPropertyOp46
 70
     1
102
RTVSPropertyOp47
 70
     1
102
RTVSPropertyOp48
 70
     1
102
RTVSPropertyOp49
 70
     1
102
RTVSPropertyOp50
 70
     1
102
RTVSPropertyOp51
 70
     0
102
RTVSPropertyOp52
 70
     0
102
RTVSPropertyOp53
 70
     1
102
RTVSPropertyOp54
 70
     1
102
RTVSPropertyOp55
 70
     1
102
RTVSPropertyOp56
 70
     1
102
RTVSPropertyOp57
 70
     1
102
RTVSPropertyOp58
 70
     1
102
RTVSPropertyOp59
 70
     1
102
RTVSPropertyOp60
 70
     1
102
RTVSPropertyOp61
 70
     1
102
RTVSPropertyOp62
 70
     1
  0
XRECORD
  5
5EF
102
{ACAD_REACTORS
330
5EE
102
}
330
5EE
100
AcDbXrecord
280
     1
102
RTVSPost2010Prop28
280
     0
102
RTVSPost2010PropOp28
 70
     1
102
RTVSPost2010Prop29
280
     1
102
RTVSPost2010PropOp29
 70
     1
102
RTVSPost2010Prop30
280
     1
102
RTVSPost2010PropOp30
 70
     1
102
RTVSPost2010Prop31
280
     0
102
RTVSPost2010PropOp31
 70
     1
102
RTVSPost2010Prop32
280
     0
102
RTVSPost2010PropOp32
 70
     1
102
RTVSPost2010Prop33
280
     0
102
RTVSPost2010PropOp33
 70
     1
102
RTVSPost2010Prop34
280
     0
102
RTVSPost2010PropOp34
 70
     1
102
RTVSPost2010Prop35
280
     0
102
RTVSPost2010PropOp35
 70
     1
102
RTVSPost2010Prop36
280
     0
102
RTVSPost2010PropOp36
 70
     1
102
RTVSPost2010Prop37
 90
       50
102
RTVSPost2010PropOp37
 70
     1
102
RTVSPost2010Prop38
140
0.0
102
RTVSPost2010PropOp38
 70
     1
102
RTVSPost2010Prop39
140
1.0
102
RTVSPost2010PropOp39
 70
     1
102
RTVSPost2010Prop40
 90
        0
102
RTVSPost2010PropOp40
 70
     1
102
RTVSPost2010Prop41ColorIndex
 90
       18
102
RTVSPost2010Prop41ColorRGB
 90
        0
102
RTVSPost2010PropOp41
 70
     1
102
RTVSPost2010Prop42
 90
       50
102
RTVSPost2010PropOp42
 70
     1
102
RTVSPost2010Prop43
 90
        3
102
RTVSPost2010PropOp43
 70
     1
102
RTVSPost2010Prop44ColorIndex
 90
        5
102
RTVSPost2010Prop44ColorRGB
 90
      255
102
RTVSPost2010PropOp44
 70
     1
102
RTVSPost2010Prop45
280
     0
102
RTVSPost2010PropOp45
 70
     1
102
RTVSPost2010Prop46
 90
       50
102
RTVSPost2010PropOp46
 70
     1
102
RTVSPost2010Prop47
 90
       50
102
RTVSPost2010PropOp47
 70
     1
102
RTVSPost2010Prop48
 90
       50
102
RTVSPost2010PropOp48
 70
     1
102
RTVSPost2010Prop49
280
     0
102
RTVSPost2010PropOp49
 70
     1
102
RTVSPost2010Prop50
 90
       50
102
RTVSPost2010PropOp50
 70
     1
102
RTVSPost2010Prop51ColorIndex
 90
      256
102
RTVSPost2010Prop51ColorRGB
 90
-16777216
102
RTVSPost2010PropOp51
 70
     0
102
RTVSPost2010Prop52
140
1.0
102
RTVSPost2010PropOp52
 70
     0
102
RTVSPost2010Prop53
 90
        2
102
RTVSPost2010PropOp53
 70
     1
102
RTVSPost2010Prop54
  1
strokes_ogs.tif
102
RTVSPost2010PropOp54
 70
     1
102
RTVSPost2010Prop55
280
     0
102
RTVSPost2010PropOp55
 70
     1
102
RTVSPost2010Prop56
140
1.0
102
RTVSPost2010PropOp56
 70
     1
102
RTVSPost2010Prop57
140
1.0
102
RTVSPost2010PropOp57
 70
     1
102
RTVSPropertyOp0
 70
     1
102
RTVSPropertyOp1
 70
     1
102
RTVSPropertyOp2
 70
     1
102
RTVSPropertyOp3
 70
     1
102
RTVSPropertyOp4
 70
     1
102
RTVSPropertyOp5
 70
     1
102
RTVSPropertyOp6
 70
     1
102
RTVSPropertyOp7
 70
     1
102
RTVSPropertyOp8
 70
     1
102
RTVSPropertyOp9
 70
     1
102
RTVSPropertyOp10
 70
     1
102
RTVSPropertyOp11
 70
     1
102
RTVSPropertyOp12
 70
     1
102
RTVSPropertyOp13
 70
     1
102
RTVSPropertyOp14
 70
     1
102
RTVSPropertyOp15
 70
     1
102
RTVSPropertyOp16
 70
     1
102
RTVSPropertyOp17
 70
     1
102
RTVSPropertyOp18
 70
     1
102
RTVSPropertyOp19
 70
     1
102
RTVSPropertyOp20
 70
     1
102
RTVSPropertyOp21
 70
     1
102
RTVSPropertyOp22
 70
     1
102
RTVSPropertyOp23
 70
     1
102
RTVSPropertyOp24
 70
     1
102
RTVSPropertyOp25
 70
     1
102
RTVSPropertyOp26
 70
     1
102
RTVSPropertyOp27
 70
     1
102
RTVSPropertyOp28
 70
     1
102
RTVSPropertyOp29
 70
     1
102
RTVSPropertyOp30
 70
     1
102
RTVSPropertyOp31
 70
     1
102
RTVSPropertyOp32
 70
     1
102
RTVSPropertyOp33
 70
     1
102
RTVSPropertyOp34
 70
     1
102
RTVSPropertyOp35
 70
     1
102
RTVSPropertyOp36
 70
     1
102
RTVSPropertyOp37
 70
     1
102
RTVSPropertyOp38
 70
     1
102
RTVSPropertyOp39
 70
     1
102
RTVSPropertyOp40
 70
     1
102
RTVSPropertyOp41
 70
     1
102
RTVSPropertyOp42
 70
     1
102
RTVSPropertyOp43
 70
     1
102
RTVSPropertyOp44
 70
     1
102
RTVSPropertyOp45
 70
     1
102
RTVSPropertyOp46
 70
     1
102
RTVSPropertyOp47
 70
     1
102
RTVSPropertyOp48
 70
     1
102
RTVSPropertyOp49
 70
     1
102
RTVSPropertyOp50
 70
     1
102
RTVSPropertyOp51
 70
     0
102
RTVSPropertyOp52
 70
     0
102
RTVSPropertyOp53
 70
     1
102
RTVSPropertyOp54
 70
     1
102
RTVSPropertyOp55
 70
     1
102
RTVSPropertyOp56
 70
     1
102
RTVSPropertyOp57
 70
     1
102
RTVSPropertyOp58
 70
     1
102
RTVSPropertyOp59
 70
     1
102
RTVSPropertyOp60
 70
     1
102
RTVSPropertyOp61
 70
     1
102
RTVSPropertyOp62
 70
     1
  0
XRECORD
  5
5ED
102
{ACAD_REACTORS
330
5EC
102
}
330
5EC
100
AcDbXrecord
280
     1
102
RTVSPost2010Prop28
280
     0
102
RTVSPost2010PropOp28
 70
     1
102
RTVSPost2010Prop29
280
     1
102
RTVSPost2010PropOp29
 70
     1
102
RTVSPost2010Prop30
280
     1
102
RTVSPost2010PropOp30
 70
     1
102
RTVSPost2010Prop31
280
     0
102
RTVSPost2010PropOp31
 70
     1
102
RTVSPost2010Prop32
280
     0
102
RTVSPost2010PropOp32
 70
     1
102
RTVSPost2010Prop33
280
     0
102
RTVSPost2010PropOp33
 70
     1
102
RTVSPost2010Prop34
280
     0
102
RTVSPost2010PropOp34
 70
     1
102
RTVSPost2010Prop35
280
     0
102
RTVSPost2010PropOp35
 70
     1
102
RTVSPost2010Prop36
280
     0
102
RTVSPost2010PropOp36
 70
     1
102
RTVSPost2010Prop37
 90
       50
102
RTVSPost2010PropOp37
 70
     1
102
RTVSPost2010Prop38
140
0.0
102
RTVSPost2010PropOp38
 70
     1
102
RTVSPost2010Prop39
140
1.0
102
RTVSPost2010PropOp39
 70
     1
102
RTVSPost2010Prop40
 90
        0
102
RTVSPost2010PropOp40
 70
     1
102
RTVSPost2010Prop41ColorIndex
 90
       18
102
RTVSPost2010Prop41ColorRGB
 90
        0
102
RTVSPost2010PropOp41
 70
     1
102
RTVSPost2010Prop42
 90
       50
102
RTVSPost2010PropOp42
 70
     1
102
RTVSPost2010Prop43
 90
        3
102
RTVSPost2010PropOp43
 70
     1
102
RTVSPost2010Prop44ColorIndex
 90
        5
102
RTVSPost2010Prop44ColorRGB
 90
      255
102
RTVSPost2010PropOp44
 70
     1
102
RTVSPost2010Prop45
280
     0
102
RTVSPost2010PropOp45
 70
     1
102
RTVSPost2010Prop46
 90
       50
102
RTVSPost2010PropOp46
 70
     1
102
RTVSPost2010Prop47
 90
       50
102
RTVSPost2010PropOp47
 70
     1
102
RTVSPost2010Prop48
 90
       50
102
RTVSPost2010PropOp48
 70
     1
102
RTVSPost2010Prop49
280
     0
102
RTVSPost2010PropOp49
 70
     1
102
RTVSPost2010Prop50
 90
       50
102
RTVSPost2010PropOp50
 70
     1
102
RTVSPost2010Prop51ColorIndex
 90
      256
102
RTVSPost2010Prop51ColorRGB
 90
-16777216
102
RTVSPost2010PropOp51
 70
     0
102
RTVSPost2010Prop52
140
1.0
102
RTVSPost2010PropOp52
 70
     0
102
RTVSPost2010Prop53
 90
        2
102
RTVSPost2010PropOp53
 70
     1
102
RTVSPost2010Prop54
  1
strokes_ogs.tif
102
RTVSPost2010PropOp54
 70
     1
102
RTVSPost2010Prop55
280
     0
102
RTVSPost2010PropOp55
 70
     1
102
RTVSPost2010Prop56
140
1.0
102
RTVSPost2010PropOp56
 70
     1
102
RTVSPost2010Prop57
140
1.0
102
RTVSPost2010PropOp57
 70
     1
102
RTVSPropertyOp0
 70
     1
102
RTVSPropertyOp1
 70
     1
102
RTVSPropertyOp2
 70
     1
102
RTVSPropertyOp3
 70
     1
102
RTVSPropertyOp4
 70
     1
102
RTVSPropertyOp5
 70
     1
102
RTVSPropertyOp6
 70
     1
102
RTVSPropertyOp7
 70
     1
102
RTVSPropertyOp8
 70
     1
102
RTVSPropertyOp9
 70
     1
102
RTVSPropertyOp10
 70
     1
102
RTVSPropertyOp11
 70
     1
102
RTVSPropertyOp12
 70
     1
102
RTVSPropertyOp13
 70
     1
102
RTVSPropertyOp14
 70
     1
102
RTVSPropertyOp15
 70
     1
102
RTVSPropertyOp16
 70
     1
102
RTVSPropertyOp17
 70
     1
102
RTVSPropertyOp18
 70
     1
102
RTVSPropertyOp19
 70
     1
102
RTVSPropertyOp20
 70
     1
102
RTVSPropertyOp21
 70
     1
102
RTVSPropertyOp22
 70
     1
102
RTVSPropertyOp23
 70
     1
102
RTVSPropertyOp24
 70
     1
102
RTVSPropertyOp25
 70
     1
102
RTVSPropertyOp26
 70
     1
102
RTVSPropertyOp27
 70
     1
102
RTVSPropertyOp28
 70
     1
102
RTVSPropertyOp29
 70
     1
102
RTVSPropertyOp30
 70
     1
102
RTVSPropertyOp31
 70
     1
102
RTVSPropertyOp32
 70
     1
102
RTVSPropertyOp33
 70
     1
102
RTVSPropertyOp34
 70
     1
102
RTVSPropertyOp35
 70
     1
102
RTVSPropertyOp36
 70
     1
102
RTVSPropertyOp37
 70
     1
102
RTVSPropertyOp38
 70
     1
102
RTVSPropertyOp39
 70
     1
102
RTVSPropertyOp40
 70
     1
102
RTVSPropertyOp41
 70
     1
102
RTVSPropertyOp42
 70
     1
102
RTVSPropertyOp43
 70
     1
102
RTVSPropertyOp44
 70
     1
102
RTVSPropertyOp45
 70
     1
102
RTVSPropertyOp46
 70
     1
102
RTVSPropertyOp47
 70
     1
102
RTVSPropertyOp48
 70
     1
102
RTVSPropertyOp49
 70
     1
102
RTVSPropertyOp50
 70
     1
102
RTVSPropertyOp51
 70
     0
102
RTVSPropertyOp52
 70
     0
102
RTVSPropertyOp53
 70
     1
102
RTVSPropertyOp54
 70
     1
102
RTVSPropertyOp55
 70
     1
102
RTVSPropertyOp56
 70
     1
102
RTVSPropertyOp57
 70
     1
102
RTVSPropertyOp58
 70
     1
102
RTVSPropertyOp59
 70
     1
102
RTVSPropertyOp60
 70
     1
102
RTVSPropertyOp61
 70
     1
102
RTVSPropertyOp62
 70
     1
  0
XRECORD
  5
5E7
102
{ACAD_REACTORS
330
5E6
102
}
330
5E6
100
AcDbXrecord
280
     1
102
RTVSPost2010Prop28
280
     0
102
RTVSPost2010PropOp28
 70
     1
102
RTVSPost2010Prop29
280
     1
102
RTVSPost2010PropOp29
 70
     1
102
RTVSPost2010Prop30
280
     1
102
RTVSPost2010PropOp30
 70
     1
102
RTVSPost2010Prop31
280
     0
102
RTVSPost2010PropOp31
 70
     1
102
RTVSPost2010Prop32
280
     0
102
RTVSPost2010PropOp32
 70
     1
102
RTVSPost2010Prop33
280
     0
102
RTVSPost2010PropOp33
 70
     1
102
RTVSPost2010Prop34
280
     0
102
RTVSPost2010PropOp34
 70
     1
102
RTVSPost2010Prop35
280
     0
102
RTVSPost2010PropOp35
 70
     1
102
RTVSPost2010Prop36
280
     0
102
RTVSPost2010PropOp36
 70
     1
102
RTVSPost2010Prop37
 90
       50
102
RTVSPost2010PropOp37
 70
     1
102
RTVSPost2010Prop38
140
0.0
102
RTVSPost2010PropOp38
 70
     1
102
RTVSPost2010Prop39
140
1.0
102
RTVSPost2010PropOp39
 70
     1
102
RTVSPost2010Prop40
 90
        0
102
RTVSPost2010PropOp40
 70
     1
102
RTVSPost2010Prop41ColorIndex
 90
       18
102
RTVSPost2010Prop41ColorRGB
 90
        0
102
RTVSPost2010PropOp41
 70
     1
102
RTVSPost2010Prop42
 90
       50
102
RTVSPost2010PropOp42
 70
     1
102
RTVSPost2010Prop43
 90
        3
102
RTVSPost2010PropOp43
 70
     1
102
RTVSPost2010Prop44ColorIndex
 90
        5
102
RTVSPost2010Prop44ColorRGB
 90
      255
102
RTVSPost2010PropOp44
 70
     1
102
RTVSPost2010Prop45
280
     0
102
RTVSPost2010PropOp45
 70
     1
102
RTVSPost2010Prop46
 90
       50
102
RTVSPost2010PropOp46
 70
     1
102
RTVSPost2010Prop47
 90
       50
102
RTVSPost2010PropOp47
 70
     1
102
RTVSPost2010Prop48
 90
       50
102
RTVSPost2010PropOp48
 70
     1
102
RTVSPost2010Prop49
280
     0
102
RTVSPost2010PropOp49
 70
     1
102
RTVSPost2010Prop50
 90
       50
102
RTVSPost2010PropOp50
 70
     1
102
RTVSPost2010Prop51ColorIndex
 90
      256
102
RTVSPost2010Prop51ColorRGB
 90
-16777216
102
RTVSPost2010PropOp51
 70
     0
102
RTVSPost2010Prop52
140
1.0
102
RTVSPost2010PropOp52
 70
     0
102
RTVSPost2010Prop53
 90
        2
102
RTVSPost2010PropOp53
 70
     1
102
RTVSPost2010Prop54
  1
strokes_ogs.tif
102
RTVSPost2010PropOp54
 70
     1
102
RTVSPost2010Prop55
280
     0
102
RTVSPost2010PropOp55
 70
     1
102
RTVSPost2010Prop56
140
1.0
102
RTVSPost2010PropOp56
 70
     1
102
RTVSPost2010Prop57
140
1.0
102
RTVSPost2010PropOp57
 70
     1
102
RTVSPropertyOp0
 70
     1
102
RTVSPropertyOp1
 70
     1
102
RTVSPropertyOp2
 70
     1
102
RTVSPropertyOp3
 70
     1
102
RTVSPropertyOp4
 70
     1
102
RTVSPropertyOp5
 70
     1
102
RTVSPropertyOp6
 70
     1
102
RTVSPropertyOp7
 70
     1
102
RTVSPropertyOp8
 70
     1
102
RTVSPropertyOp9
 70
     1
102
RTVSPropertyOp10
 70
     1
102
RTVSPropertyOp11
 70
     1
102
RTVSPropertyOp12
 70
     1
102
RTVSPropertyOp13
 70
     1
102
RTVSPropertyOp14
 70
     1
102
RTVSPropertyOp15
 70
     1
102
RTVSPropertyOp16
 70
     1
102
RTVSPropertyOp17
 70
     1
102
RTVSPropertyOp18
 70
     1
102
RTVSPropertyOp19
 70
     1
102
RTVSPropertyOp20
 70
     1
102
RTVSPropertyOp21
 70
     1
102
RTVSPropertyOp22
 70
     1
102
RTVSPropertyOp23
 70
     1
102
RTVSPropertyOp24
 70
     1
102
RTVSPropertyOp25
 70
     1
102
RTVSPropertyOp26
 70
     1
102
RTVSPropertyOp27
 70
     1
102
RTVSPropertyOp28
 70
     1
102
RTVSPropertyOp29
 70
     1
102
RTVSPropertyOp30
 70
     1
102
RTVSPropertyOp31
 70
     1
102
RTVSPropertyOp32
 70
     1
102
RTVSPropertyOp33
 70
     1
102
RTVSPropertyOp34
 70
     1
102
RTVSPropertyOp35
 70
     1
102
RTVSPropertyOp36
 70
     1
102
RTVSPropertyOp37
 70
     1
102
RTVSPropertyOp38
 70
     1
102
RTVSPropertyOp39
 70
     1
102
RTVSPropertyOp40
 70
     1
102
RTVSPropertyOp41
 70
     1
102
RTVSPropertyOp42
 70
     1
102
RTVSPropertyOp43
 70
     1
102
RTVSPropertyOp44
 70
     1
102
RTVSPropertyOp45
 70
     1
102
RTVSPropertyOp46
 70
     1
102
RTVSPropertyOp47
 70
     1
102
RTVSPropertyOp48
 70
     1
102
RTVSPropertyOp49
 70
     1
102
RTVSPropertyOp50
 70
     1
102
RTVSPropertyOp51
 70
     0
102
RTVSPropertyOp52
 70
     0
102
RTVSPropertyOp53
 70
     1
102
RTVSPropertyOp54
 70
     1
102
RTVSPropertyOp55
 70
     1
102
RTVSPropertyOp56
 70
     1
102
RTVSPropertyOp57
 70
     1
102
RTVSPropertyOp58
 70
     1
102
RTVSPropertyOp59
 70
     1
102
RTVSPropertyOp60
 70
     1
102
RTVSPropertyOp61
 70
     1
102
RTVSPropertyOp62
 70
     1
  0
XRECORD
  5
5E9
102
{ACAD_REACTORS
330
5E8
102
}
330
5E8
100
AcDbXrecord
280
     1
102
RTVSPost2010Prop28
280
     0
102
RTVSPost2010PropOp28
 70
     1
102
RTVSPost2010Prop29
280
     1
102
RTVSPost2010PropOp29
 70
     1
102
RTVSPost2010Prop30
280
     1
102
RTVSPost2010PropOp30
 70
     1
102
RTVSPost2010Prop31
280
     0
102
RTVSPost2010PropOp31
 70
     1
102
RTVSPost2010Prop32
280
     0
102
RTVSPost2010PropOp32
 70
     1
102
RTVSPost2010Prop33
280
     0
102
RTVSPost2010PropOp33
 70
     1
102
RTVSPost2010Prop34
280
     0
102
RTVSPost2010PropOp34
 70
     1
102
RTVSPost2010Prop35
280
     0
102
RTVSPost2010PropOp35
 70
     1
102
RTVSPost2010Prop36
280
     0
102
RTVSPost2010PropOp36
 70
     1
102
RTVSPost2010Prop37
 90
       50
102
RTVSPost2010PropOp37
 70
     1
102
RTVSPost2010Prop38
140
0.0
102
RTVSPost2010PropOp38
 70
     1
102
RTVSPost2010Prop39
140
1.0
102
RTVSPost2010PropOp39
 70
     1
102
RTVSPost2010Prop40
 90
        0
102
RTVSPost2010PropOp40
 70
     1
102
RTVSPost2010Prop41ColorIndex
 90
       18
102
RTVSPost2010Prop41ColorRGB
 90
        0
102
RTVSPost2010PropOp41
 70
     1
102
RTVSPost2010Prop42
 90
       50
102
RTVSPost2010PropOp42
 70
     1
102
RTVSPost2010Prop43
 90
        3
102
RTVSPost2010PropOp43
 70
     1
102
RTVSPost2010Prop44ColorIndex
 90
        5
102
RTVSPost2010Prop44ColorRGB
 90
      255
102
RTVSPost2010PropOp44
 70
     1
102
RTVSPost2010Prop45
280
     0
102
RTVSPost2010PropOp45
 70
     1
102
RTVSPost2010Prop46
 90
       50
102
RTVSPost2010PropOp46
 70
     1
102
RTVSPost2010Prop47
 90
       50
102
RTVSPost2010PropOp47
 70
     1
102
RTVSPost2010Prop48
 90
       50
102
RTVSPost2010PropOp48
 70
     1
102
RTVSPost2010Prop49
280
     0
102
RTVSPost2010PropOp49
 70
     1
102
RTVSPost2010Prop50
 90
       50
102
RTVSPost2010PropOp50
 70
     1
102
RTVSPost2010Prop51ColorIndex
 90
      256
102
RTVSPost2010Prop51ColorRGB
 90
-16777216
102
RTVSPost2010PropOp51
 70
     0
102
RTVSPost2010Prop52
140
1.0
102
RTVSPost2010PropOp52
 70
     0
102
RTVSPost2010Prop53
 90
        2
102
RTVSPost2010PropOp53
 70
     1
102
RTVSPost2010Prop54
  1
strokes_ogs.tif
102
RTVSPost2010PropOp54
 70
     1
102
RTVSPost2010Prop55
280
     0
102
RTVSPost2010PropOp55
 70
     1
102
RTVSPost2010Prop56
140
1.0
102
RTVSPost2010PropOp56
 70
     1
102
RTVSPost2010Prop57
140
1.0
102
RTVSPost2010PropOp57
 70
     1
102
RTVSPropertyOp0
 70
     1
102
RTVSPropertyOp1
 70
     1
102
RTVSPropertyOp2
 70
     1
102
RTVSPropertyOp3
 70
     1
102
RTVSPropertyOp4
 70
     1
102
RTVSPropertyOp5
 70
     1
102
RTVSPropertyOp6
 70
     1
102
RTVSPropertyOp7
 70
     1
102
RTVSPropertyOp8
 70
     1
102
RTVSPropertyOp9
 70
     1
102
RTVSPropertyOp10
 70
     1
102
RTVSPropertyOp11
 70
     1
102
RTVSPropertyOp12
 70
     1
102
RTVSPropertyOp13
 70
     1
102
RTVSPropertyOp14
 70
     1
102
RTVSPropertyOp15
 70
     1
102
RTVSPropertyOp16
 70
     1
102
RTVSPropertyOp17
 70
     1
102
RTVSPropertyOp18
 70
     1
102
RTVSPropertyOp19
 70
     1
102
RTVSPropertyOp20
 70
     1
102
RTVSPropertyOp21
 70
     1
102
RTVSPropertyOp22
 70
     1
102
RTVSPropertyOp23
 70
     1
102
RTVSPropertyOp24
 70
     1
102
RTVSPropertyOp25
 70
     1
102
RTVSPropertyOp26
 70
     1
102
RTVSPropertyOp27
 70
     1
102
RTVSPropertyOp28
 70
     1
102
RTVSPropertyOp29
 70
     1
102
RTVSPropertyOp30
 70
     1
102
RTVSPropertyOp31
 70
     1
102
RTVSPropertyOp32
 70
     1
102
RTVSPropertyOp33
 70
     1
102
RTVSPropertyOp34
 70
     1
102
RTVSPropertyOp35
 70
     1
102
RTVSPropertyOp36
 70
     1
102
RTVSPropertyOp37
 70
     1
102
RTVSPropertyOp38
 70
     1
102
RTVSPropertyOp39
 70
     1
102
RTVSPropertyOp40
 70
     1
102
RTVSPropertyOp41
 70
     1
102
RTVSPropertyOp42
 70
     1
102
RTVSPropertyOp43
 70
     1
102
RTVSPropertyOp44
 70
     1
102
RTVSPropertyOp45
 70
     1
102
RTVSPropertyOp46
 70
     1
102
RTVSPropertyOp47
 70
     1
102
RTVSPropertyOp48
 70
     1
102
RTVSPropertyOp49
 70
     1
102
RTVSPropertyOp50
 70
     1
102
RTVSPropertyOp51
 70
     0
102
RTVSPropertyOp52
 70
     0
102
RTVSPropertyOp53
 70
     1
102
RTVSPropertyOp54
 70
     1
102
RTVSPropertyOp55
 70
     1
102
RTVSPropertyOp56
 70
     1
102
RTVSPropertyOp57
 70
     1
102
RTVSPropertyOp58
 70
     1
102
RTVSPropertyOp59
 70
     1
102
RTVSPropertyOp60
 70
     1
102
RTVSPropertyOp61
 70
     1
102
RTVSPropertyOp62
 70
     1
  0
XRECORD
  5
5DF
102
{ACAD_REACTORS
330
5DE
102
}
330
5DE
100
AcDbXrecord
280
     1
102
RTVSPost2010Prop28
280
     0
102
RTVSPost2010PropOp28
 70
     1
102
RTVSPost2010Prop29
280
     1
102
RTVSPost2010PropOp29
 70
     1
102
RTVSPost2010Prop30
280
     1
102
RTVSPost2010PropOp30
 70
     1
102
RTVSPost2010Prop31
280
     0
102
RTVSPost2010PropOp31
 70
     1
102
RTVSPost2010Prop32
280
     0
102
RTVSPost2010PropOp32
 70
     1
102
RTVSPost2010Prop33
280
     0
102
RTVSPost2010PropOp33
 70
     1
102
RTVSPost2010Prop34
280
     0
102
RTVSPost2010PropOp34
 70
     1
102
RTVSPost2010Prop35
280
     0
102
RTVSPost2010PropOp35
 70
     1
102
RTVSPost2010Prop36
280
     0
102
RTVSPost2010PropOp36
 70
     1
102
RTVSPost2010Prop37
 90
       50
102
RTVSPost2010PropOp37
 70
     1
102
RTVSPost2010Prop38
140
0.0
102
RTVSPost2010PropOp38
 70
     1
102
RTVSPost2010Prop39
140
1.0
102
RTVSPost2010PropOp39
 70
     1
102
RTVSPost2010Prop40
 90
        0
102
RTVSPost2010PropOp40
 70
     1
102
RTVSPost2010Prop41ColorIndex
 90
       18
102
RTVSPost2010Prop41ColorRGB
 90
        0
102
RTVSPost2010PropOp41
 70
     1
102
RTVSPost2010Prop42
 90
       50
102
RTVSPost2010PropOp42
 70
     1
102
RTVSPost2010Prop43
 90
        3
102
RTVSPost2010PropOp43
 70
     1
102
RTVSPost2010Prop44ColorIndex
 90
        5
102
RTVSPost2010Prop44ColorRGB
 90
      255
102
RTVSPost2010PropOp44
 70
     1
102
RTVSPost2010Prop45
280
     0
102
RTVSPost2010PropOp45
 70
     1
102
RTVSPost2010Prop46
 90
       50
102
RTVSPost2010PropOp46
 70
     1
102
RTVSPost2010Prop47
 90
       50
102
RTVSPost2010PropOp47
 70
     1
102
RTVSPost2010Prop48
 90
       50
102
RTVSPost2010PropOp48
 70
     1
102
RTVSPost2010Prop49
280
     0
102
RTVSPost2010PropOp49
 70
     1
102
RTVSPost2010Prop50
 90
       50
102
RTVSPost2010PropOp50
 70
     1
102
RTVSPost2010Prop51ColorIndex
 90
      256
102
RTVSPost2010Prop51ColorRGB
 90
-16777216
102
RTVSPost2010PropOp51
 70
     0
102
RTVSPost2010Prop52
140
1.0
102
RTVSPost2010PropOp52
 70
     0
102
RTVSPost2010Prop53
 90
        2
102
RTVSPost2010PropOp53
 70
     1
102
RTVSPost2010Prop54
  1
strokes_ogs.tif
102
RTVSPost2010PropOp54
 70
     1
102
RTVSPost2010Prop55
280
     0
102
RTVSPost2010PropOp55
 70
     1
102
RTVSPost2010Prop56
140
1.0
102
RTVSPost2010PropOp56
 70
     1
102
RTVSPost2010Prop57
140
1.0
102
RTVSPost2010PropOp57
 70
     1
102
RTVSPropertyOp0
 70
     1
102
RTVSPropertyOp1
 70
     1
102
RTVSPropertyOp2
 70
     1
102
RTVSPropertyOp3
 70
     1
102
RTVSPropertyOp4
 70
     1
102
RTVSPropertyOp5
 70
     1
102
RTVSPropertyOp6
 70
     1
102
RTVSPropertyOp7
 70
     1
102
RTVSPropertyOp8
 70
     1
102
RTVSPropertyOp9
 70
     1
102
RTVSPropertyOp10
 70
     1
102
RTVSPropertyOp11
 70
     1
102
RTVSPropertyOp12
 70
     1
102
RTVSPropertyOp13
 70
     1
102
RTVSPropertyOp14
 70
     1
102
RTVSPropertyOp15
 70
     1
102
RTVSPropertyOp16
 70
     1
102
RTVSPropertyOp17
 70
     1
102
RTVSPropertyOp18
 70
     1
102
RTVSPropertyOp19
 70
     1
102
RTVSPropertyOp20
 70
     1
102
RTVSPropertyOp21
 70
     1
102
RTVSPropertyOp22
 70
     1
102
RTVSPropertyOp23
 70
     1
102
RTVSPropertyOp24
 70
     1
102
RTVSPropertyOp25
 70
     1
102
RTVSPropertyOp26
 70
     1
102
RTVSPropertyOp27
 70
     1
102
RTVSPropertyOp28
 70
     1
102
RTVSPropertyOp29
 70
     1
102
RTVSPropertyOp30
 70
     1
102
RTVSPropertyOp31
 70
     1
102
RTVSPropertyOp32
 70
     1
102
RTVSPropertyOp33
 70
     1
102
RTVSPropertyOp34
 70
     1
102
RTVSPropertyOp35
 70
     1
102
RTVSPropertyOp36
 70
     1
102
RTVSPropertyOp37
 70
     1
102
RTVSPropertyOp38
 70
     1
102
RTVSPropertyOp39
 70
     1
102
RTVSPropertyOp40
 70
     1
102
RTVSPropertyOp41
 70
     1
102
RTVSPropertyOp42
 70
     1
102
RTVSPropertyOp43
 70
     1
102
RTVSPropertyOp44
 70
     1
102
RTVSPropertyOp45
 70
     1
102
RTVSPropertyOp46
 70
     1
102
RTVSPropertyOp47
 70
     1
102
RTVSPropertyOp48
 70
     1
102
RTVSPropertyOp49
 70
     1
102
RTVSPropertyOp50
 70
     1
102
RTVSPropertyOp51
 70
     0
102
RTVSPropertyOp52
 70
     0
102
RTVSPropertyOp53
 70
     1
102
RTVSPropertyOp54
 70
     1
102
RTVSPropertyOp55
 70
     1
102
RTVSPropertyOp56
 70
     1
102
RTVSPropertyOp57
 70
     1
102
RTVSPropertyOp58
 70
     1
102
RTVSPropertyOp59
 70
     1
102
RTVSPropertyOp60
 70
     1
102
RTVSPropertyOp61
 70
     1
102
RTVSPropertyOp62
 70
     1
  0
XRECORD
  5
5D3
102
{ACAD_REACTORS
330
5D2
102
}
330
5D2
100
AcDbXrecord
280
     1
102
RTVSPost2010Prop28
280
     0
102
RTVSPost2010PropOp28
 70
     1
102
RTVSPost2010Prop29
280
     1
102
RTVSPost2010PropOp29
 70
     1
102
RTVSPost2010Prop30
280
     1
102
RTVSPost2010PropOp30
 70
     1
102
RTVSPost2010Prop31
280
     0
102
RTVSPost2010PropOp31
 70
     1
102
RTVSPost2010Prop32
280
     0
102
RTVSPost2010PropOp32
 70
     1
102
RTVSPost2010Prop33
280
     0
102
RTVSPost2010PropOp33
 70
     1
102
RTVSPost2010Prop34
280
     0
102
RTVSPost2010PropOp34
 70
     1
102
RTVSPost2010Prop35
280
     0
102
RTVSPost2010PropOp35
 70
     1
102
RTVSPost2010Prop36
280
     0
102
RTVSPost2010PropOp36
 70
     1
102
RTVSPost2010Prop37
 90
       50
102
RTVSPost2010PropOp37
 70
     1
102
RTVSPost2010Prop38
140
0.0
102
RTVSPost2010PropOp38
 70
     1
102
RTVSPost2010Prop39
140
1.0
102
RTVSPost2010PropOp39
 70
     1
102
RTVSPost2010Prop40
 90
        0
102
RTVSPost2010PropOp40
 70
     1
102
RTVSPost2010Prop41ColorIndex
 90
       18
102
RTVSPost2010Prop41ColorRGB
 90
        0
102
RTVSPost2010PropOp41
 70
     1
102
RTVSPost2010Prop42
 90
       50
102
RTVSPost2010PropOp42
 70
     1
102
RTVSPost2010Prop43
 90
        3
102
RTVSPost2010PropOp43
 70
     1
102
RTVSPost2010Prop44ColorIndex
 90
        5
102
RTVSPost2010Prop44ColorRGB
 90
      255
102
RTVSPost2010PropOp44
 70
     1
102
RTVSPost2010Prop45
280
     0
102
RTVSPost2010PropOp45
 70
     1
102
RTVSPost2010Prop46
 90
       50
102
RTVSPost2010PropOp46
 70
     1
102
RTVSPost2010Prop47
 90
       50
102
RTVSPost2010PropOp47
 70
     1
102
RTVSPost2010Prop48
 90
       50
102
RTVSPost2010PropOp48
 70
     1
102
RTVSPost2010Prop49
280
     0
102
RTVSPost2010PropOp49
 70
     1
102
RTVSPost2010Prop50
 90
       50
102
RTVSPost2010PropOp50
 70
     1
102
RTVSPost2010Prop51ColorIndex
 90
      256
102
RTVSPost2010Prop51ColorRGB
 90
-16777216
102
RTVSPost2010PropOp51
 70
     0
102
RTVSPost2010Prop52
140
1.0
102
RTVSPost2010PropOp52
 70
     0
102
RTVSPost2010Prop53
 90
        2
102
RTVSPost2010PropOp53
 70
     1
102
RTVSPost2010Prop54
  1
strokes_ogs.tif
102
RTVSPost2010PropOp54
 70
     1
102
RTVSPost2010Prop55
280
     0
102
RTVSPost2010PropOp55
 70
     1
102
RTVSPost2010Prop56
140
1.0
102
RTVSPost2010PropOp56
 70
     1
102
RTVSPost2010Prop57
140
1.0
102
RTVSPost2010PropOp57
 70
     1
102
RTVSPropertyOp0
 70
     1
102
RTVSPropertyOp1
 70
     1
102
RTVSPropertyOp2
 70
     1
102
RTVSPropertyOp3
 70
     1
102
RTVSPropertyOp4
 70
     1
102
RTVSPropertyOp5
 70
     1
102
RTVSPropertyOp6
 70
     1
102
RTVSPropertyOp7
 70
     1
102
RTVSPropertyOp8
 70
     1
102
RTVSPropertyOp9
 70
     1
102
RTVSPropertyOp10
 70
     1
102
RTVSPropertyOp11
 70
     1
102
RTVSPropertyOp12
 70
     1
102
RTVSPropertyOp13
 70
     1
102
RTVSPropertyOp14
 70
     1
102
RTVSPropertyOp15
 70
     1
102
RTVSPropertyOp16
 70
     1
102
RTVSPropertyOp17
 70
     1
102
RTVSPropertyOp18
 70
     1
102
RTVSPropertyOp19
 70
     1
102
RTVSPropertyOp20
 70
     1
102
RTVSPropertyOp21
 70
     1
102
RTVSPropertyOp22
 70
     1
102
RTVSPropertyOp23
 70
     1
102
RTVSPropertyOp24
 70
     1
102
RTVSPropertyOp25
 70
     1
102
RTVSPropertyOp26
 70
     1
102
RTVSPropertyOp27
 70
     1
102
RTVSPropertyOp28
 70
     1
102
RTVSPropertyOp29
 70
     1
102
RTVSPropertyOp30
 70
     1
102
RTVSPropertyOp31
 70
     1
102
RTVSPropertyOp32
 70
     1
102
RTVSPropertyOp33
 70
     1
102
RTVSPropertyOp34
 70
     1
102
RTVSPropertyOp35
 70
     1
102
RTVSPropertyOp36
 70
     1
102
RTVSPropertyOp37
 70
     1
102
RTVSPropertyOp38
 70
     1
102
RTVSPropertyOp39
 70
     1
102
RTVSPropertyOp40
 70
     1
102
RTVSPropertyOp41
 70
     1
102
RTVSPropertyOp42
 70
     1
102
RTVSPropertyOp43
 70
     1
102
RTVSPropertyOp44
 70
     1
102
RTVSPropertyOp45
 70
     1
102
RTVSPropertyOp46
 70
     1
102
RTVSPropertyOp47
 70
     1
102
RTVSPropertyOp48
 70
     1
102
RTVSPropertyOp49
 70
     1
102
RTVSPropertyOp50
 70
     1
102
RTVSPropertyOp51
 70
     0
102
RTVSPropertyOp52
 70
     0
102
RTVSPropertyOp53
 70
     1
102
RTVSPropertyOp54
 70
     1
102
RTVSPropertyOp55
 70
     1
102
RTVSPropertyOp56
 70
     1
102
RTVSPropertyOp57
 70
     1
102
RTVSPropertyOp58
 70
     1
102
RTVSPropertyOp59
 70
     1
102
RTVSPropertyOp60
 70
     1
102
RTVSPropertyOp61
 70
     1
102
RTVSPropertyOp62
 70
     1
  0
XRECORD
  5
5EB
102
{ACAD_REACTORS
330
5EA
102
}
330
5EA
100
AcDbXrecord
280
     1
102
RTVSPost2010Prop28
280
     0
102
RTVSPost2010PropOp28
 70
     1
102
RTVSPost2010Prop29
280
     1
102
RTVSPost2010PropOp29
 70
     1
102
RTVSPost2010Prop30
280
     1
102
RTVSPost2010PropOp30
 70
     1
102
RTVSPost2010Prop31
280
     0
102
RTVSPost2010PropOp31
 70
     1
102
RTVSPost2010Prop32
280
     0
102
RTVSPost2010PropOp32
 70
     1
102
RTVSPost2010Prop33
280
     0
102
RTVSPost2010PropOp33
 70
     1
102
RTVSPost2010Prop34
280
     0
102
RTVSPost2010PropOp34
 70
     1
102
RTVSPost2010Prop35
280
     0
102
RTVSPost2010PropOp35
 70
     1
102
RTVSPost2010Prop36
280
     0
102
RTVSPost2010PropOp36
 70
     1
102
RTVSPost2010Prop37
 90
       50
102
RTVSPost2010PropOp37
 70
     1
102
RTVSPost2010Prop38
140
0.0
102
RTVSPost2010PropOp38
 70
     1
102
RTVSPost2010Prop39
140
1.0
102
RTVSPost2010PropOp39
 70
     1
102
RTVSPost2010Prop40
 90
        0
102
RTVSPost2010PropOp40
 70
     1
102
RTVSPost2010Prop41ColorIndex
 90
       18
102
RTVSPost2010Prop41ColorRGB
 90
        0
102
RTVSPost2010PropOp41
 70
     1
102
RTVSPost2010Prop42
 90
       50
102
RTVSPost2010PropOp42
 70
     1
102
RTVSPost2010Prop43
 90
        3
102
RTVSPost2010PropOp43
 70
     1
102
RTVSPost2010Prop44ColorIndex
 90
        5
102
RTVSPost2010Prop44ColorRGB
 90
      255
102
RTVSPost2010PropOp44
 70
     1
102
RTVSPost2010Prop45
280
     0
102
RTVSPost2010PropOp45
 70
     1
102
RTVSPost2010Prop46
 90
       50
102
RTVSPost2010PropOp46
 70
     1
102
RTVSPost2010Prop47
 90
       50
102
RTVSPost2010PropOp47
 70
     1
102
RTVSPost2010Prop48
 90
       50
102
RTVSPost2010PropOp48
 70
     1
102
RTVSPost2010Prop49
280
     0
102
RTVSPost2010PropOp49
 70
     1
102
RTVSPost2010Prop50
 90
       50
102
RTVSPost2010PropOp50
 70
     1
102
RTVSPost2010Prop51ColorIndex
 90
      256
102
RTVSPost2010Prop51ColorRGB
 90
-16777216
102
RTVSPost2010PropOp51
 70
     0
102
RTVSPost2010Prop52
140
1.0
102
RTVSPost2010PropOp52
 70
     0
102
RTVSPost2010Prop53
 90
        2
102
RTVSPost2010PropOp53
 70
     1
102
RTVSPost2010Prop54
  1
strokes_ogs.tif
102
RTVSPost2010PropOp54
 70
     1
102
RTVSPost2010Prop55
280
     0
102
RTVSPost2010PropOp55
 70
     1
102
RTVSPost2010Prop56
140
1.0
102
RTVSPost2010PropOp56
 70
     1
102
RTVSPost2010Prop57
140
1.0
102
RTVSPost2010PropOp57
 70
     1
102
RTVSPropertyOp0
 70
     1
102
RTVSPropertyOp1
 70
     1
102
RTVSPropertyOp2
 70
     1
102
RTVSPropertyOp3
 70
     1
102
RTVSPropertyOp4
 70
     1
102
RTVSPropertyOp5
 70
     1
102
RTVSPropertyOp6
 70
     1
102
RTVSPropertyOp7
 70
     1
102
RTVSPropertyOp8
 70
     1
102
RTVSPropertyOp9
 70
     1
102
RTVSPropertyOp10
 70
     1
102
RTVSPropertyOp11
 70
     1
102
RTVSPropertyOp12
 70
     1
102
RTVSPropertyOp13
 70
     1
102
RTVSPropertyOp14
 70
     1
102
RTVSPropertyOp15
 70
     1
102
RTVSPropertyOp16
 70
     1
102
RTVSPropertyOp17
 70
     1
102
RTVSPropertyOp18
 70
     1
102
RTVSPropertyOp19
 70
     1
102
RTVSPropertyOp20
 70
     1
102
RTVSPropertyOp21
 70
     1
102
RTVSPropertyOp22
 70
     1
102
RTVSPropertyOp23
 70
     1
102
RTVSPropertyOp24
 70
     1
102
RTVSPropertyOp25
 70
     1
102
RTVSPropertyOp26
 70
     1
102
RTVSPropertyOp27
 70
     1
102
RTVSPropertyOp28
 70
     1
102
RTVSPropertyOp29
 70
     1
102
RTVSPropertyOp30
 70
     1
102
RTVSPropertyOp31
 70
     1
102
RTVSPropertyOp32
 70
     1
102
RTVSPropertyOp33
 70
     1
102
RTVSPropertyOp34
 70
     1
102
RTVSPropertyOp35
 70
     1
102
RTVSPropertyOp36
 70
     1
102
RTVSPropertyOp37
 70
     1
102
RTVSPropertyOp38
 70
     1
102
RTVSPropertyOp39
 70
     1
102
RTVSPropertyOp40
 70
     1
102
RTVSPropertyOp41
 70
     1
102
RTVSPropertyOp42
 70
     1
102
RTVSPropertyOp43
 70
     1
102
RTVSPropertyOp44
 70
     1
102
RTVSPropertyOp45
 70
     1
102
RTVSPropertyOp46
 70
     1
102
RTVSPropertyOp47
 70
     1
102
RTVSPropertyOp48
 70
     1
102
RTVSPropertyOp49
 70
     1
102
RTVSPropertyOp50
 70
     1
102
RTVSPropertyOp51
 70
     0
102
RTVSPropertyOp52
 70
     0
102
RTVSPropertyOp53
 70
     1
102
RTVSPropertyOp54
 70
     1
102
RTVSPropertyOp55
 70
     1
102
RTVSPropertyOp56
 70
     1
102
RTVSPropertyOp57
 70
     1
102
RTVSPropertyOp58
 70
     1
102
RTVSPropertyOp59
 70
     1
102
RTVSPropertyOp60
 70
     1
102
RTVSPropertyOp61
 70
     1
102
RTVSPropertyOp62
 70
     1
  0
ENDSEC
  0
EOF
