  0
SECTION
  2
HEADER
  9
$ACADVER
  1
AC1018
  9
$ACADMAINTVER
 70
   104
  9
$DWGCODEPAGE
  3
ANSI_932
  9
$INSBASE
 10
0.0
 20
0.0
 30
0.0
  9
$EXTMIN
 10
-1.75047013
 20
-1.22064724
 30
-1.00006103
  9
$EXTMAX
 10
28682.76623725
 20
20001.22083351
 30
0.00006104
  9
$LIMMIN
 10
0.0
 20
0.0
  9
$LIMMAX
 10
420.0
 20
330.0
  9
$ORTHOMODE
 70
     1
  9
$REGENMODE
 70
     1
  9
$FILLMODE
 70
     1
  9
$QTEXTMODE
 70
     0
  9
$MIRRTEXT
 70
     0
  9
$LTSCALE
 40
1.0
  9
$ATTMODE
 70
     1
  9
$TEXTSIZE
 40
0.2
  9
$TRACEWID
 40
0.05
  9
$TEXTSTYLE
  7
STANDARD
  9
$CLAYER
  8
0
  9
$CELTYPE
  6
BYLAYER
  9
$CECOLOR
 62
   256
  9
$CELTSCALE
 40
1.0
  9
$DISPSILH
 70
     1
  9
$DIMSCALE
 40
1.0
  9
$DIMASZ
 40
0.18
  9
$DIMEXO
 40
0.0625
  9
$DIMDLI
 40
0.38
  9
$DIMRND
 40
0.0
  9
$DIMDLE
 40
0.0
  9
$DIMEXE
 40
0.18
  9
$DIMTP
 40
0.0
  9
$DIMTM
 40
0.0
  9
$DIMTXT
 40
0.18
  9
$DIMCEN
 40
0.09
  9
$DIMTSZ
 40
0.0
  9
$DIMTOL
 70
     0
  9
$DIMLIM
 70
     0
  9
$DIMTIH
 70
     1
  9
$DIMTOH
 70
     1
  9
$DIMSE1
 70
     0
  9
$DIMSE2
 70
     0
  9
$DIMTAD
 70
     0
  9
$DIMZIN
 70
     0
  9
$DIMBLK
  1

  9
$DIMASO
 70
     1
  9
$DIMSHO
 70
     0
  9
$DIMPOST
  1

  9
$DIMAPOST
  1

  9
$DIMALT
 70
     0
  9
$DIMALTD
 70
     2
  9
$DIMALTF
 40
25.4
  9
$DIMLFAC
 40
1.0
  9
$DIMTOFL
 70
     0
  9
$DIMTVP
 40
0.0
  9
$DIMTIX
 70
     0
  9
$DIMSOXD
 70
     0
  9
$DIMSAH
 70
     0
  9
$DIMBLK1
  1

  9
$DIMBLK2
  1

  9
$DIMSTYLE
  2
STANDARD
  9
$DIMCLRD
 70
     0
  9
$DIMCLRE
 70
     0
  9
$DIMCLRT
 70
     0
  9
$DIMTFAC
 40
1.0
  9
$DIMGAP
 40
0.09
  9
$DIMJUST
 70
     0
  9
$DIMSD1
 70
     0
  9
$DIMSD2
 70
     0
  9
$DIMTOLJ
 70
     1
  9
$DIMTZIN
 70
     0
  9
$DIMALTZ
 70
     0
  9
$DIMALTTZ
 70
     0
  9
$DIMUPT
 70
     0
  9
$DIMDEC
 70
     4
  9
$DIMTDEC
 70
     4
  9
$DIMALTU
 70
     2
  9
$DIMALTTD
 70
     2
  9
$DIMTXSTY
  7
STANDARD
  9
$DIMAUNIT
 70
     0
  9
$DIMADEC
 70
     0
  9
$DIMALTRND
 40
0.0
  9
$DIMAZIN
 70
     0
  9
$DIMDSEP
 70
    46
  9
$DIMATFIT
 70
     3
  9
$DIMFRAC
 70
     0
  9
$DIMLDRBLK
  1

  9
$DIMLUNIT
 70
     2
  9
$DIMLWD
 70
    -2
  9
$DIMLWE
 70
    -2
  9
$DIMTMOVE
 70
     2
  9
$LUNITS
 70
     2
  9
$LUPREC
 70
     4
  9
$SKETCHINC
 40
0.1
  9
$FILLETRAD
 40
1.0
  9
$AUNITS
 70
     0
  9
$AUPREC
 70
     0
  9
$MENU
  1
c:\acadwin\support\acad
  9
$ELEVATION
 40
0.0
  9
$PELEVATION
 40
0.0
  9
$THICKNESS
 40
0.0
  9
$LIMCHECK
 70
     0
  9
$CHAMFERA
 40
0.0
  9
$CHAMFERB
 40
0.0
  9
$CHAMFERC
 40
0.0
  9
$CHAMFERD
 40
0.0
  9
$SKPOLY
 70
     0
  9
$TDCREATE
 40
2453068.802175383
  9
$TDUCREATE
 40
2453068.427175382
  9
$TDUPDATE
 40
2457185.494959595
  9
$TDUUPDATE
 40
2457185.119959595
  9
$TDINDWG
 40
0.0000919213
  9
$TDUSRTIMER
 40
0.0000919213
  9
$USRTIMER
 70
     1
  9
$ANGBASE
 50
0.0
  9
$ANGDIR
 70
     0
  9
$PDMODE
 70
     0
  9
$PDSIZE
 40
0.0
  9
$PLINEWID
 40
0.0
  9
$SPLFRAME
 70
     0
  9
$SPLINETYPE
 70
     6
  9
$SPLINESEGS
 70
     8
  9
$HANDSEED
  5
59C
  9
$SURFTAB1
 70
     6
  9
$SURFTAB2
 70
     6
  9
$SURFTYPE
 70
     6
  9
$SURFU
 70
     6
  9
$SURFV
 70
     6
  9
$UCSBASE
  2

  9
$UCSNAME
  2

  9
$UCSORG
 10
0.0
 20
0.0
 30
0.0
  9
$UCSXDIR
 10
1.0
 20
0.0
 30
0.0
  9
$UCSYDIR
 10
0.0
 20
1.0
 30
0.0
  9
$UCSORTHOREF
  2

  9
$UCSORTHOVIEW
 70
     0
  9
$UCSORGTOP
 10
0.0
 20
0.0
 30
0.0
  9
$UCSORGBOTTOM
 10
0.0
 20
0.0
 30
0.0
  9
$UCSORGLEFT
 10
0.0
 20
0.0
 30
0.0
  9
$UCSORGRIGHT
 10
0.0
 20
0.0
 30
0.0
  9
$UCSORGFRONT
 10
0.0
 20
0.0
 30
0.0
  9
$UCSORGBACK
 10
0.0
 20
0.0
 30
0.0
  9
$PUCSBASE
  2

  9
$PUCSNAME
  2

  9
$PUCSORG
 10
0.0
 20
0.0
 30
0.0
  9
$PUCSXDIR
 10
1.0
 20
0.0
 30
0.0
  9
$PUCSYDIR
 10
0.0
 20
1.0
 30
0.0
  9
$PUCSORTHOREF
  2

  9
$PUCSORTHOVIEW
 70
     0
  9
$PUCSORGTOP
 10
0.0
 20
0.0
 30
0.0
  9
$PUCSORGBOTTOM
 10
0.0
 20
0.0
 30
0.0
  9
$PUCSORGLEFT
 10
0.0
 20
0.0
 30
0.0
  9
$PUCSORGRIGHT
 10
0.0
 20
0.0
 30
0.0
  9
$PUCSORGFRONT
 10
0.0
 20
0.0
 30
0.0
  9
$PUCSORGBACK
 10
0.0
 20
0.0
 30
0.0
  9
$USERI1
 70
     0
  9
$USERI2
 70
     0
  9
$USERI3
 70
     0
  9
$USERI4
 70
     0
  9
$USERI5
 70
     0
  9
$USERR1
 40
0.0
  9
$USERR2
 40
0.0
  9
$USERR3
 40
0.0
  9
$USERR4
 40
0.0
  9
$USERR5
 40
0.0
  9
$WORLDVIEW
 70
     1
  9
$SHADEDGE
 70
     3
  9
$SHADEDIF
 70
    70
  9
$TILEMODE
 70
     1
  9
$MAXACTVP
 70
    16
  9
$PINSBASE
 10
0.0
 20
0.0
 30
0.0
  9
$PLIMCHECK
 70
     0
  9
$PEXTMIN
 10
1.00000000E+20
 20
1.00000000E+20
 30
1.00000000E+20
  9
$PEXTMAX
 10
-1.00000000E+20
 20
-1.00000000E+20
 30
-1.00000000E+20
  9
$PLIMMIN
 10
0.0
 20
0.0
  9
$PLIMMAX
 10
12.0
 20
9.0
  9
$UNITMODE
 70
     0
  9
$VISRETAIN
 70
     0
  9
$PLINEGEN
 70
     0
  9
$PSLTSCALE
 70
     0
  9
$TREEDEPTH
 70
  3020
  9
$CMLSTYLE
  2
STANDARD
  9
$CMLJUST
 70
     0
  9
$CMLSCALE
 40
1.0
  9
$PROXYGRAPHICS
 70
     1
  9
$MEASUREMENT
 70
     1
  9
$CELWEIGHT
370
    -1
  9
$ENDCAPS
280
     0
  9
$JOINSTYLE
280
     0
  9
$LWDISPLAY
290
     0
  9
$INSUNITS
 70
     0
  9
$HYPERLINKBASE
  1

  9
$STYLESHEET
  1

  9
$XEDIT
290
     1
  9
$CEPSNTYPE
380
     0
  9
$PSTYLEMODE
290
     1
  9
$FINGERPRINTGUID
  2
{EC436A7A-66AB-470D-9CE0-8CD69A184EF9}
  9
$VERSIONGUID
  2
{2CC1F619-AA4B-40CB-8A1D-FDBBC91CE527}
  9
$EXTNAMES
290
     1
  9
$PSVPSCALE
 40
0.0
  9
$OLESTARTUP
290
     0
  9
$SORTENTS
280
   127
  9
$INDEXCTL
280
     0
  9
$HIDETEXT
280
     0
  9
$XCLIPFRAME
290
     0
  9
$HALOGAP
280
     0
  9
$OBSCOLOR
 70
   257
  9
$OBSLTYPE
280
     0
  9
$INTERSECTIONDISPLAY
280
     0
  9
$INTERSECTIONCOLOR
 70
   257
  9
$DIMASSOC
280
     1
  9
$PROJECTNAME
  1

  0
ENDSEC
  0
SECTION
  2
CLASSES
  0
CLASS
  1
DICTIONARYVAR
  2
AcDbDictionaryVar
  3
ObjectDBX Classes
 90
        0
 91
        8
280
     0
281
     0
  0
CLASS
  1
ACDBDICTIONARYWDFLT
  2
AcDbDictionaryWithDefault
  3
ObjectDBX Classes
 90
        0
 91
        1
280
     0
281
     0
  0
CLASS
  1
MATERIAL
  2
AcDbMaterial
  3
ObjectDBX Classes
 90
     1153
 91
        3
280
     0
281
     0
  0
CLASS
  1
VISUALSTYLE
  2
AcDbVisualStyle
  3
ObjectDBX Classes
 90
     4095
 91
       24
280
     0
281
     0
  0
CLASS
  1
TABLESTYLE
  2
AcDbTableStyle
  3
ObjectDBX Classes
 90
     4095
 91
        1
280
     0
281
     0
  0
CLASS
  1
SCALE
  2
AcDbScale
  3
ObjectDBX Classes
 90
     1153
 91
       17
280
     0
281
     0
  0
CLASS
  1
MLEADERSTYLE
  2
AcDbMLeaderStyle
  3
ACDB_MLEADERSTYLE_CLASS
 90
     4095
 91
        1
280
     0
281
     0
  0
CLASS
  1
ACDBSECTIONVIEWSTYLE
  2
AcDbSectionViewStyle
  3
ObjectDBX Classes
 90
     1025
 91
        1
280
     0
281
     0
  0
CLASS
  1
ACDBDETAILVIEWSTYLE
  2
AcDbDetailViewStyle
  3
ObjectDBX Classes
 90
     1025
 91
        1
280
     0
281
     0
  0
CLASS
  1
CELLSTYLEMAP
  2
AcDbCellStyleMap
  3
ObjectDBX Classes
 90
     1152
 91
        2
280
     0
281
     0
  0
ENDSEC
  0
SECTION
  2
TABLES
  0
TABLE
  2
VPORT
  5
489
330
0
100
AcDbSymbolTable
 70
     1
  0
VPORT
  5
4B9
330
489
100
AcDbSymbolTableRecord
100
AcDbViewportTableRecord
  2
*ACTIVE
 70
     0
 10
0.0
 20
0.0
 11
1.0
 21
1.0
 12
14340.50788356
 22
10000.00009314
 13
0.0
 23
0.0
 14
1.0
 24
1.0
 15
10.0
 25
10.0
 16
0.0
 26
0.0
 36
1.0
 17
0.0
 27
0.0
 37
0.0
 40
21505.27251241
 41
1.34178905
 42
50.0
 43
0.0
 44
0.0
 50
0.0
 51
0.0
 71
     0
 72
   100
 73
     1
 74
     0
 75
     0
 76
     0
 77
     0
 78
     0
281
     0
 65
     1
110
0.0
120
0.0
130
0.0
111
1.0
121
0.0
131
0.0
112
0.0
122
1.0
132
0.0
 79
     0
146
0.0
1001
ACAD_NAV_VCDISPLAY
1070
     1
  0
ENDTAB
  0
TABLE
  2
LTYPE
  5
486
330
0
100
AcDbSymbolTable
 70
     3
  0
LTYPE
  5
492
330
486
100
AcDbSymbolTableRecord
100
AcDbLinetypeTableRecord
  2
BYBLOCK
 70
     0
  3

 72
    65
 73
     0
 40
0.0
  0
LTYPE
  5
493
330
486
100
AcDbSymbolTableRecord
100
AcDbLinetypeTableRecord
  2
BYLAYER
 70
     0
  3

 72
    65
 73
     0
 40
0.0
  0
LTYPE
  5
494
330
486
100
AcDbSymbolTableRecord
100
AcDbLinetypeTableRecord
  2
CONTINUOUS
 70
     0
  3
Solid line
 72
    65
 73
     0
 40
0.0
  0
LTYPE
  5
4A0
330
486
100
AcDbSymbolTableRecord
100
AcDbLinetypeTableRecord
  2
CENTER
 70
     0
  3
____ _ ____ _ ____ _ ____ _ ____ _ ____ _ ____ 
 72
    65
 73
     4
 40
2.0
 49
1.25
 74
     0
 49
-0.25
 74
     0
 49
0.25
 74
     0
 49
-0.25
 74
     0
  0
LTYPE
  5
4A1
330
486
100
AcDbSymbolTableRecord
100
AcDbLinetypeTableRecord
  2
PHANTOM
 70
     0
  3
______  __  __  ______  __  __  ______  __  __ 
 72
    65
 73
     6
 40
2.5
 49
1.25
 74
     0
 49
-0.25
 74
     0
 49
0.25
 74
     0
 49
-0.25
 74
     0
 49
0.25
 74
     0
 49
-0.25
 74
     0
  0
ENDTAB
  0
TABLE
  2
LAYER
  5
483
330
0
100
AcDbSymbolTable
 70
    11
  0
LAYER
  5
48F
330
483
100
AcDbSymbolTableRecord
100
AcDbLayerTableRecord
  2
0
 70
     0
 62
     7
  6
CONTINUOUS
370
    -3
390
4BC
  0
LAYER
  5
4A5
330
483
100
AcDbSymbolTableRecord
100
AcDbLayerTableRecord
  2
YKK_IN
 70
     0
 62
     1
  6
CONTINUOUS
370
    -3
390
4BC
  0
LAYER
  5
4A6
330
483
100
AcDbSymbolTableRecord
100
AcDbLayerTableRecord
  2
YKK_F1
 70
     0
 62
     7
  6
CONTINUOUS
370
    -3
390
4BC
  0
LAYER
  5
4A7
330
483
100
AcDbSymbolTableRecord
100
AcDbLayerTableRecord
  2
YKK_N1
 70
     0
 62
     2
  6
CONTINUOUS
370
    -3
390
4BC
  0
LAYER
  5
4A8
330
483
100
AcDbSymbolTableRecord
100
AcDbLayerTableRecord
  2
YKK_Z1
 70
     0
 62
     7
  6
CONTINUOUS
370
    -3
390
4BC
  0
LAYER
  5
4A9
330
483
100
AcDbSymbolTableRecord
100
AcDbLayerTableRecord
  2
YKK_A1
 70
     0
 62
     4
  6
CONTINUOUS
370
    -3
390
4BC
  0
LAYER
  5
4AA
330
483
100
AcDbSymbolTableRecord
100
AcDbLayerTableRecord
  2
YKK_A2
 70
     0
 62
     3
  6
CONTINUOUS
370
    -3
390
4BC
  0
LAYER
  5
4AB
330
483
100
AcDbSymbolTableRecord
100
AcDbLayerTableRecord
  2
YKK_B1
 70
     0
 62
     4
  6
CONTINUOUS
370
    -3
390
4BC
  0
LAYER
  5
4AC
330
483
100
AcDbSymbolTableRecord
100
AcDbLayerTableRecord
  2
YKK_C1
 70
     0
 62
     4
  6
CONTINUOUS
370
    -3
390
4BC
  0
LAYER
  5
4AD
330
483
100
AcDbSymbolTableRecord
100
AcDbLayerTableRecord
  2
YKK_B2
 70
     0
 62
     5
  6
CONTINUOUS
370
    -3
390
4BC
  0
LAYER
  5
4AE
330
483
100
AcDbSymbolTableRecord
100
AcDbLayerTableRecord
  2
YKK_C2
 70
     0
 62
     5
  6
CONTINUOUS
370
    -3
390
4BC
  0
ENDTAB
  0
TABLE
  2
STYLE
  5
484
330
0
100
AcDbSymbolTable
 70
     3
  0
STYLE
  5
490
330
484
100
AcDbSymbolTableRecord
100
AcDbTextStyleTableRecord
  2
STANDARD
 70
     0
 40
0.0
 41
1.0
 50
0.0
 71
     0
 42
0.2
  3
txt
  4

  0
STYLE
  5
49E
330
484
100
AcDbSymbolTableRecord
100
AcDbTextStyleTableRecord
  2
EXTFONT
 70
     0
 40
60.0
 41
1.0
 50
0.0
 71
     0
 42
60.0
  3
txt.shx
  4
EXTFONT
  0
STYLE
  5
49F
330
484
100
AcDbSymbolTableRecord
100
AcDbTextStyleTableRecord
  2
YKK_SGSTYLE1
 70
     0
 40
0.0
 41
0.8
 50
0.0
 71
     0
 42
60.0
  3
ROMANS.SHX
  4
EXTFONT.SHX
  0
ENDTAB
  0
TABLE
  2
VIEW
  5
487
330
0
100
AcDbSymbolTable
 70
     0
  0
ENDTAB
  0
TABLE
  2
UCS
  5
488
330
0
100
AcDbSymbolTable
 70
     0
  0
ENDTAB
  0
TABLE
  2
APPID
  5
48A
330
0
100
AcDbSymbolTable
 70
     5
  0
APPID
  5
491
330
48A
100
AcDbSymbolTableRecord
100
AcDbRegAppTableRecord
  2
ACAD
 70
     0
  0
APPID
  5
548
330
48A
100
AcDbSymbolTableRecord
100
AcDbRegAppTableRecord
  2
ACAD_MLEADERVER
 70
     0
  0
APPID
  5
55C
330
48A
100
AcDbSymbolTableRecord
100
AcDbRegAppTableRecord
  2
ACAD_PSEXT
 70
     0
  0
APPID
  5
55D
330
48A
100
AcDbSymbolTableRecord
100
AcDbRegAppTableRecord
  2
ACAD_NAV_VCDISPLAY
 70
     0
  0
APPID
  5
55E
330
48A
100
AcDbSymbolTableRecord
100
AcDbRegAppTableRecord
  2
YKK_AP_LOCKLAYER
 70
     0
  0
ENDTAB
  0
TABLE
  2
DIMSTYLE
  5
48B
330
0
100
AcDbSymbolTable
 70
     1
100
AcDbDimStyleTable
 71
     0
  0
DIMSTYLE
105
4A4
330
48B
100
AcDbSymbolTableRecord
100
AcDbDimStyleTableRecord
  2
STANDARD
 70
     0
279
     2
340
490
  0
ENDTAB
  0
TABLE
  2
BLOCK_RECORD
  5
482
330
0
100
AcDbSymbolTable
 70
     1
  0
BLOCK_RECORD
  5
498
330
482
100
AcDbSymbolTableRecord
100
AcDbBlockTableRecord
  2
*MODEL_SPACE
340
50F
  0
BLOCK_RECORD
  5
495
330
482
100
AcDbSymbolTableRecord
100
AcDbBlockTableRecord
  2
*PAPER_SPACE
340
510
  0
BLOCK_RECORD
  5
49D
330
482
100
AcDbSymbolTableRecord
100
AcDbBlockTableRecord
  2
SGHA31
340
0
102
{BLKREFS
331
3F
331
63
102
}
  0
ENDTAB
  0
ENDSEC
  0
SECTION
  2
BLOCKS
  0
BLOCK
  5
4B1
330
498
100
AcDbEntity
  8
0
100
AcDbBlockBegin
  2
*MODEL_SPACE
 70
     0
 10
0.0
 20
0.0
 30
0.0
  3
*MODEL_SPACE
  1

  0
ENDBLK
  5
4B2
330
498
100
AcDbEntity
  8
0
100
AcDbBlockEnd
  0
BLOCK
  5
4AF
330
495
100
AcDbEntity
 67
     1
  8
0
100
AcDbBlockBegin
  2
*PAPER_SPACE
 70
     0
 10
0.0
 20
0.0
 30
0.0
  3
*PAPER_SPACE
  1

  0
ENDBLK
  5
4B0
330
495
100
AcDbEntity
 67
     1
  8
0
100
AcDbBlockEnd
  0
BLOCK
  5
61
330
49D
100
AcDbEntity
  8
0
100
AcDbBlockBegin
  2
SGHA31
 70
     0
 10
0.0
 20
0.0
 30
0.0
  3
SGHA31
  1

  0
LINE
  5
41
330
49D
100
AcDbEntity
  8
0
  6
ByBlock
 62
     0
370
    -2
100
AcDbLine
 10
-60.0
 20
10.0
 30
0.0
 11
60.0
 21
10.0
 31
0.0
  0
LINE
  5
42
330
49D
100
AcDbEntity
  8
0
  6
ByBlock
 62
     0
370
    -2
100
AcDbLine
 10
60.0
 20
0.0
 30
0.0
 11
-60.0
 21
0.0
 31
0.0
  0
3DFACE
  5
43
330
49D
100
AcDbEntity
  8
0
100
AcDbFace
 10
60.0
 20
0.0
 30
0.0
 11
-60.0
 21
0.0
 31
0.0
 12
-60.0
 22
10.0
 32
0.0
 13
60.0
 23
10.0
 33
0.0
 70
    15
  0
3DFACE
  5
44
330
49D
100
AcDbEntity
  8
0
100
AcDbFace
 10
60.0
 20
0.0
 30
-1.0
 11
-60.0
 21
0.0
 31
-1.0
 12
-60.0
 22
10.0
 32
-1.0
 13
60.0
 23
10.0
 33
-1.0
 70
    15
  0
LINE
  5
45
330
49D
100
AcDbEntity
  8
0
  6
ByBlock
 62
     0
370
    -2
100
AcDbLine
 10
-60.0
 20
10.0
 30
-1.0
 11
60.0
 21
10.0
 31
-1.0
  0
LINE
  5
46
330
49D
100
AcDbEntity
  8
0
  6
ByBlock
 62
     0
370
    -2
100
AcDbLine
 10
60.0
 20
0.0
 30
-1.0
 11
-60.0
 21
0.0
 31
-1.0
  0
LINE
  5
47
330
49D
100
AcDbEntity
  8
0
  6
ByBlock
 62
     0
370
    -2
100
AcDbLine
 10
-60.0
 20
0.0
 30
0.0
 11
-60.0
 21
10.0
 31
0.0
  0
LINE
  5
48
330
49D
100
AcDbEntity
  8
0
  6
ByBlock
 62
     0
370
    -2
100
AcDbLine
 10
-60.0
 20
0.0
 30
-1.0
 11
-60.0
 21
10.0
 31
-1.0
  0
LINE
  5
49
330
49D
100
AcDbEntity
  8
0
  6
ByBlock
 62
     0
370
    -2
100
AcDbLine
 10
-16.5
 20
10.0
 30
0.0
 11
-4.44228634
 21
55.0
 31
0.0
  0
LINE
  5
4A
330
49D
100
AcDbEntity
  8
0
  6
ByBlock
 62
     0
370
    -2
100
AcDbLine
 10
13.55255888
 20
21.0
 30
0.0
 11
17.65059935
 21
36.29409523
 31
0.0
  0
3DFACE
  5
4B
330
49D
100
AcDbEntity
  8
0
100
AcDbFace
 10
13.55255888
 20
21.0
 30
0.0
 11
-13.55255888
 21
21.0
 31
0.0
 12
-4.44228634
 22
55.0
 32
0.0
 13
18.64359354
 23
40.0
 33
0.0
 70
    15
  0
3DFACE
  5
4C
330
49D
100
AcDbEntity
  8
0
100
AcDbFace
 10
13.55255888
 20
21.0
 30
-1.0
 11
-13.55255888
 21
21.0
 31
-1.0
 12
-4.44228634
 22
55.0
 32
-1.0
 13
18.64359354
 23
40.0
 33
-1.0
 70
    15
  0
LINE
  5
4D
330
49D
100
AcDbEntity
  8
0
  6
ByBlock
 62
     0
370
    -2
100
AcDbLine
 10
-16.5
 20
10.0
 30
-1.0
 11
-4.44228634
 21
55.0
 31
-1.0
  0
LINE
  5
4E
330
49D
100
AcDbEntity
  8
0
  6
ByBlock
 62
     0
370
    -2
100
AcDbLine
 10
13.55255888
 20
21.0
 30
-1.0
 11
17.65059935
 21
36.29409523
 31
-1.0
  0
LINE
  5
4F
330
49D
100
AcDbEntity
  8
0
  6
ByBlock
 62
     0
370
    -2
100
AcDbLine
 10
-13.55255888
 20
21.0
 30
0.0
 11
13.55255888
 21
21.0
 31
0.0
  0
3DFACE
  5
50
330
49D
100
AcDbEntity
  8
0
100
AcDbFace
 10
16.5
 20
10.0
 30
0.0
 11
-16.5
 21
10.0
 31
0.0
 12
-13.55255888
 22
21.0
 32
0.0
 13
13.55255888
 23
21.0
 33
0.0
 70
    15
  0
3DFACE
  5
51
330
49D
100
AcDbEntity
  8
0
100
AcDbFace
 10
16.5
 20
10.0
 30
-1.0
 11
-16.5
 21
10.0
 31
-1.0
 12
-13.55255888
 22
21.0
 32
-1.0
 13
13.55255888
 23
21.0
 33
-1.0
 70
    15
  0
LINE
  5
52
330
49D
100
AcDbEntity
  8
0
  6
ByBlock
 62
     0
370
    -2
100
AcDbLine
 10
-13.55255888
 20
21.0
 30
-1.0
 11
13.55255888
 21
21.0
 31
-1.0
  0
LINE
  5
53
330
49D
100
AcDbEntity
  8
0
  6
ByBlock
 62
     0
370
    -2
100
AcDbLine
 10
16.5
 20
10.0
 30
-1.0
 11
13.55255888
 21
21.0
 31
-1.0
  0
LINE
  5
54
330
49D
100
AcDbEntity
  8
0
  6
ByBlock
 62
     0
370
    -2
100
AcDbLine
 10
16.5
 20
10.0
 30
0.0
 11
13.55255888
 21
21.0
 31
0.0
  0
LINE
  5
55
330
49D
100
AcDbEntity
  8
0
  6
ByBlock
 62
     0
370
    -2
100
AcDbLine
 10
60.0
 20
10.0
 30
0.0
 11
60.0
 21
0.0
 31
0.0
  0
LINE
  5
56
330
49D
100
AcDbEntity
  8
0
  6
ByBlock
 62
     0
370
    -2
100
AcDbLine
 10
60.0
 20
10.0
 30
-1.0
 11
60.0
 21
0.0
 31
-1.0
  0
LINE
  5
57
330
49D
100
AcDbEntity
  8
0
  6
ByBlock
 62
     0
370
    -2
100
AcDbLine
 10
22.48022848
 20
40.0
 30
0.0
 11
130.0
 21
40.0
 31
0.0
  0
LINE
  5
58
330
49D
100
AcDbEntity
  8
0
  6
ByBlock
 62
     0
370
    -2
100
AcDbLine
 10
-4.44228634
 20
55.0
 30
0.0
 11
130.0
 21
55.0
 31
0.0
  0
3DFACE
  5
59
330
49D
100
AcDbEntity
  8
0
100
AcDbFace
 10
130.0
 20
40.0
 30
0.0
 11
18.64359354
 21
40.0
 31
0.0
 12
-4.44228634
 22
55.0
 32
0.0
 13
130.0
 23
55.0
 33
0.0
 70
    15
  0
3DFACE
  5
5A
330
49D
100
AcDbEntity
  8
0
100
AcDbFace
 10
130.0
 20
40.0
 30
-1.0
 11
18.64359354
 21
40.0
 31
-1.0
 12
-4.44228634
 22
55.0
 32
-1.0
 13
130.0
 23
55.0
 33
-1.0
 70
    15
  0
LINE
  5
5B
330
49D
100
AcDbEntity
  8
0
  6
ByBlock
 62
     0
370
    -2
100
AcDbLine
 10
22.48022848
 20
40.0
 30
-1.0
 11
130.0
 21
40.0
 31
-1.0
  0
LINE
  5
5C
330
49D
100
AcDbEntity
  8
0
  6
ByBlock
 62
     0
370
    -2
100
AcDbLine
 10
-4.44228634
 20
55.0
 30
-1.0
 11
130.0
 21
55.0
 31
-1.0
  0
ARC
  5
5D
330
49D
100
AcDbEntity
  8
0
  6
ByBlock
 62
     0
370
    -2
100
AcDbCircle
 10
22.48022848
 20
35.0
 30
0.0
 40
5.0
100
AcDbArc
 50
90.0
 51
165.0
  0
ARC
  5
5E
330
49D
100
AcDbEntity
  8
0
  6
ByBlock
 62
     0
370
    -2
100
AcDbCircle
 10
22.48022848
 20
35.0
 30
-1.0
 40
5.0
100
AcDbArc
 50
90.0
 51
165.0
  0
LINE
  5
5F
330
49D
100
AcDbEntity
  8
0
  6
ByBlock
 62
     0
370
    -2
100
AcDbLine
 10
130.0
 20
40.0
 30
0.0
 11
130.0
 21
55.0
 31
0.0
  0
LINE
  5
60
330
49D
100
AcDbEntity
  8
0
  6
ByBlock
 62
     0
370
    -2
100
AcDbLine
 10
130.0
 20
40.0
 30
-1.0
 11
130.0
 21
55.0
 31
-1.0
  0
ENDBLK
  5
62
330
49D
100
AcDbEntity
  8
0
100
AcDbBlockEnd
  0
ENDSEC
  0
SECTION
  2
ENTITIES
  0
LINE
  5
1D
330
498
100
AcDbEntity
  8
YKK_F1
100
AcDbLine
 10
0.0
 20
5600.0
 30
0.0
 11
28500.0
 21
5600.0
 31
0.0
  0
LINE
  5
1F
330
498
100
AcDbEntity
  8
YKK_F1
100
AcDbLine
 10
0.0
 20
6050.0
 30
0.0
 11
28500.0
 21
6050.0
 31
0.0
  0
LINE
  5
20
330
498
100
AcDbEntity
  8
YKK_F1
100
AcDbLine
 10
0.0
 20
12100.0
 30
0.0
 11
28500.0
 21
12100.0
 31
0.0
  0
LINE
  5
21
330
498
100
AcDbEntity
  8
YKK_F1
100
AcDbLine
 10
0.0
 20
12550.0
 30
0.0
 11
28500.0
 21
12550.0
 31
0.0
  0
LINE
  5
22
330
498
100
AcDbEntity
  8
YKK_F1
100
AcDbLine
 10
0.0
 20
6500.0
 30
0.0
 11
28500.0
 21
6500.0
 31
0.0
  0
LINE
  5
23
330
498
100
AcDbEntity
  8
YKK_F1
100
AcDbLine
 10
0.0
 20
13000.0
 30
0.0
 11
28500.0
 21
13000.0
 31
0.0
  0
LINE
  5
24
330
498
100
AcDbEntity
  8
YKK_F1
100
AcDbLine
 10
0.0
 20
18600.0
 30
0.0
 11
28500.0
 21
18600.0
 31
0.0
  0
LINE
  5
25
330
498
100
AcDbEntity
  8
YKK_F1
100
AcDbLine
 10
0.0
 20
19050.0
 30
0.0
 11
28500.0
 21
19050.0
 31
0.0
  0
LINE
  5
26
330
498
100
AcDbEntity
  8
YKK_F1
100
AcDbLine
 10
0.0
 20
0.0
 30
0.0
 11
28681.0155
 21
0.0
 31
0.0
  0
LINE
  5
27
330
498
100
AcDbEntity
  8
YKK_F1
100
AcDbLine
 10
0.0
 20
20000.0
 30
0.0
 11
28681.0155
 21
20000.0
 31
0.0
  0
LINE
  5
28
330
498
100
AcDbEntity
  8
YKK_F1
100
AcDbLine
 10
0.0
 20
19500.0
 30
0.0
 11
28500.0
 21
19500.0
 31
0.0
  0
LINE
  5
29
330
498
100
AcDbEntity
  8
YKK_F1
100
AcDbLine
 10
5700.0
 20
0.0
 30
0.0
 11
5700.0
 21
19500.0
 31
0.0
  0
LINE
  5
2A
330
498
100
AcDbEntity
  8
YKK_F1
100
AcDbLine
 10
11400.0
 20
0.0
 30
0.0
 11
11400.0
 21
19500.0
 31
0.0
  0
LINE
  5
2B
330
498
100
AcDbEntity
  8
YKK_F1
100
AcDbLine
 10
0.0
 20
0.0
 30
0.0
 11
0.0
 21
20000.0
 31
0.0
  0
POINT
  5
2C
330
498
100
AcDbEntity
  8
YKK_IN
100
AcDbPoint
 10
0.0
 20
0.0
 30
0.0
  0
POINT
  5
2E
330
498
100
AcDbEntity
  8
YKK_F1
100
AcDbPoint
 10
0.0
 20
0.0
 30
0.0
  0
POINT
  5
2F
330
498
100
AcDbEntity
  8
YKK_N1
100
AcDbPoint
 10
0.0
 20
0.0
 30
0.0
  0
POINT
  5
31
330
498
100
AcDbEntity
  8
YKK_Z1
100
AcDbPoint
 10
0.0
 20
0.0
 30
0.0
  0
POINT
  5
33
330
498
100
AcDbEntity
  8
YKK_A1
100
AcDbPoint
 10
0.0
 20
0.0
 30
0.0
  0
POINT
  5
35
330
498
100
AcDbEntity
  8
YKK_A2
100
AcDbPoint
 10
0.0
 20
0.0
 30
0.0
  0
POINT
  5
37
330
498
100
AcDbEntity
  8
YKK_B1
100
AcDbPoint
 10
0.0
 20
0.0
 30
0.0
  0
POINT
  5
39
330
498
100
AcDbEntity
  8
YKK_C1
100
AcDbPoint
 10
0.0
 20
0.0
 30
0.0
  0
POINT
  5
3B
330
498
100
AcDbEntity
  8
YKK_B2
100
AcDbPoint
 10
0.0
 20
0.0
 30
0.0
  0
POINT
  5
3D
330
498
100
AcDbEntity
  8
YKK_C2
100
AcDbPoint
 10
0.0
 20
0.0
 30
0.0
  0
INSERT
  5
3F
330
498
100
AcDbEntity
  8
YKK_A2
100
AcDbBlockReference
  2
SGHA31
 10
7052.5
 20
16315.6907475
 30
0.0
  0
INSERT
  5
63
330
498
100
AcDbEntity
  8
YKK_A2
100
AcDbBlockReference
  2
SGHA31
 10
1895.0
 20
16315.6907475
 30
0.0
  0
TEXT
  5
64
330
498
100
AcDbEntity
  8
0
100
AcDbText
 10
500.0
 20
19625.0
 30
0.0
 40
250.0
  1
ＢＳＳ７ＰＪ０４　ＳＹＳＴＥＭＡ７１０　セットバック枠　辷り出し窓
  7
EXTFONT
100
AcDbText
  0
LINE
  5
66
330
498
100
AcDbEntity
  8
YKK_N1
  6
ByBlock
100
AcDbLine
 10
2395.0
 20
16255.6907475
 30
0.0
 11
2395.0
 21
15885.6907475
 31
0.0
  0
LINE
  5
67
330
498
100
AcDbEntity
  8
YKK_N1
  6
ByBlock
100
AcDbLine
 10
1395.0
 20
16255.6907475
 30
0.0
 11
1395.0
 21
15885.6907475
 31
0.0
  0
TEXT
  5
68
330
498
100
AcDbEntity
  8
YKK_N1
100
AcDbText
 10
1747.57142857
 20
13634.5
 30
0.0
 40
60.0
  1
W=1000
 41
0.8
  7
YKK_SGSTYLE1
100
AcDbText
  0
LINE
  5
6A
330
498
100
AcDbEntity
  8
YKK_N1
  6
ByBlock
100
AcDbLine
 10
1396.0
 20
13624.5
 30
0.0
 11
2394.0
 21
13624.5
 31
0.0
  0
LINE
  5
6B
330
498
100
AcDbEntity
  8
YKK_B1
100
AcDbLine
 10
1387.0
 20
14084.5
 30
0.0
 11
2403.0
 21
14084.5
 31
0.0
  0
LINE
  5
6C
330
498
100
AcDbEntity
  8
YKK_B1
100
AcDbLine
 10
1415.0
 20
14024.5
 30
0.0
 11
2375.0
 21
14024.5
 31
0.0
  0
LINE
  5
6D
330
498
100
AcDbEntity
  8
YKK_B1
100
AcDbLine
 10
1415.0
 20
14149.5
 30
0.0
 11
2375.0
 21
14149.5
 31
0.0
  0
LINE
  5
6E
330
498
100
AcDbEntity
  8
YKK_Z1
  6
Continuous
100
AcDbLine
 10
1365.0
 20
13884.5
 30
0.0
 11
1895.0
 21
13884.5
 31
0.0
  0
LINE
  5
6F
330
498
100
AcDbEntity
  8
YKK_N1
100
AcDbLine
 10
1681.0
 20
13887.5
 30
0.0
 11
1681.0
 21
13907.5
 31
0.0
  0
TEXT
  5
70
330
498
100
AcDbEntity
  8
YKK_N1
100
AcDbText
 10
1671.0
 20
13884.0
 30
0.0
 40
60.0
  1
137
 50
90.0
 41
0.8
  7
YKK_SGSTYLE1
100
AcDbText
  0
LINE
  5
71
330
498
100
AcDbEntity
  8
YKK_N1
  6
ByBlock
100
AcDbLine
 10
1395.0
 20
13964.5
 30
0.0
 11
1395.0
 21
13594.5
 31
0.0
  0
LINE
  5
72
330
498
100
AcDbEntity
  8
YKK_Z1
  6
Continuous
100
AcDbLine
 10
1365.0
 20
13907.0
 30
0.0
 11
1365.0
 21
13894.5
 31
0.0
  0
LINE
  5
73
330
498
100
AcDbEntity
  8
YKK_Z1
100
AcDbLine
 10
1390.0
 20
14024.5
 30
0.0
 11
1390.0
 21
13887.5
 31
0.0
  0
LINE
  5
74
330
498
100
AcDbEntity
  8
YKK_Z1
  6
Continuous
100
AcDbLine
 10
1365.0
 20
13894.5
 30
0.0
 11
995.0
 21
13894.5
 31
0.0
  0
LINE
  5
75
330
498
100
AcDbEntity
  8
YKK_N1
  6
ByBlock
100
AcDbLine
 10
1450.0
 20
13887.5
 30
0.0
 11
1711.0
 21
13887.5
 31
0.0
  0
LINE
  5
76
330
498
100
AcDbEntity
  8
YKK_N1
  6
ByBlock
100
AcDbLine
 10
1481.60254038
 20
13674.5
 30
0.0
 11
1395.0
 21
13624.5
 31
0.0
  0
LINE
  5
77
330
498
100
AcDbEntity
  8
YKK_N1
  6
ByBlock
100
AcDbLine
 10
1481.60254038
 20
13574.5
 30
0.0
 11
1481.60254038
 21
13674.5
 31
0.0
  0
LINE
  5
78
330
498
100
AcDbEntity
  8
YKK_N1
  6
ByBlock
100
AcDbLine
 10
1395.0
 20
13624.5
 30
0.0
 11
1481.60254038
 21
13574.5
 31
0.0
  0
LINE
  5
79
330
498
100
AcDbEntity
  8
YKK_N1
  6
ByBlock
100
AcDbLine
 10
1395.0
 20
13624.5
 30
0.0
 11
1495.0
 21
13624.5
 31
0.0
  0
POINT
  5
7A
330
498
100
AcDbEntity
  8
YKK_N1
  6
ByBlock
100
AcDbPoint
 10
1390.0
 20
13887.5
 30
0.0
  0
LINE
  5
7B
330
498
100
AcDbEntity
  8
YKK_Z1
  6
Continuous
100
AcDbLine
 10
1365.0
 20
13887.5
 30
0.0
 11
1365.0
 21
13884.5
 31
0.0
  0
LINE
  5
7C
330
498
100
AcDbEntity
  8
YKK_Z1
100
AcDbLine
 10
1390.0
 20
13887.5
 30
0.0
 11
1365.0
 21
13887.5
 31
0.0
  0
LINE
  5
7D
330
498
100
AcDbEntity
  8
YKK_Z1
100
AcDbLine
 10
1365.0
 20
13887.5
 30
0.0
 11
1365.0
 21
13897.5
 31
0.0
  0
CIRCLE
  5
7E
330
498
100
AcDbEntity
  8
YKK_N1
100
AcDbCircle
 10
1681.0
 20
13887.5
 30
0.0
 40
6.5
  0
CIRCLE
  5
7F
330
498
100
AcDbEntity
  8
YKK_N1
100
AcDbCircle
 10
1681.0
 20
13887.5
 30
0.0
 40
10.0
  0
POINT
  5
80
330
498
100
AcDbEntity
  8
YKK_N1
  6
ByBlock
100
AcDbPoint
 10
1681.0
 20
13887.5
 30
0.0
  0
LINE
  5
81
330
498
100
AcDbEntity
  8
YKK_Z1
  6
Continuous
100
AcDbLine
 10
1212.49998268
 20
13922.5
 30
0.0
 11
1192.49997922
 21
13942.5
 31
0.0
  0
LINE
  5
82
330
498
100
AcDbEntity
  8
YKK_Z1
  6
Continuous
100
AcDbLine
 10
1212.50005196
 20
13942.5
 30
0.0
 11
1192.50006235
 21
13922.5
 31
0.0
  0
LINE
  5
83
330
498
100
AcDbEntity
  8
YKK_Z1
  6
Continuous
100
AcDbLine
 10
1203.28416547
 20
14122.5
 30
0.0
 11
1023.284259
 21
13942.5
 31
0.0
  0
LINE
  5
84
330
498
100
AcDbEntity
  8
YKK_Z1
  6
Continuous
100
AcDbLine
 10
995.0
 20
13942.5
 30
0.0
 11
1312.5
 21
13942.5
 31
0.0
  0
LINE
  5
85
330
498
100
AcDbEntity
  8
YKK_Z1
  6
Continuous
100
AcDbLine
 10
1327.5
 20
14122.5
 30
0.0
 11
995.0
 21
14122.5
 31
0.0
  0
LINE
  5
86
330
498
100
AcDbEntity
  8
YKK_Z1
  6
CENTER
100
AcDbLine
 10
1329.25
 20
14032.5
 30
0.0
 11
995.0
 21
14032.5
 31
0.0
  0
LINE
  5
88
330
498
100
AcDbEntity
  8
YKK_Z1
  6
Continuous
100
AcDbLine
 10
1312.5
 20
13922.5
 30
0.0
 11
995.0
 21
13922.5
 31
0.0
  0
LINE
  5
89
330
498
100
AcDbEntity
  8
YKK_Z1
  6
Continuous
100
AcDbLine
 10
1326.0
 20
14134.5
 30
0.0
 11
995.0
 21
14134.5
 31
0.0
  0
LINE
  5
8A
330
498
100
AcDbEntity
  8
YKK_Z1
  6
Continuous
100
AcDbLine
 10
1326.0
 20
14126.5
 30
0.0
 11
995.0
 21
14126.5
 31
0.0
  0
LINE
  5
8B
330
498
100
AcDbEntity
  8
YKK_Z1
  6
Continuous
100
AcDbLine
 10
995.0
 20
13907.0
 30
0.0
 11
1365.0
 21
13907.0
 31
0.0
  0
LINE
  5
8C
330
498
100
AcDbEntity
  8
YKK_Z1
  6
Continuous
100
AcDbLine
 10
1116.0
 20
14134.5
 30
0.0
 11
1116.0
 21
14126.5
 31
0.0
  0
LINE
  5
8D
330
498
100
AcDbEntity
  8
YKK_Z1
  6
Continuous
100
AcDbLine
 10
1106.0
 20
14134.5
 30
0.0
 11
1106.0
 21
14126.5
 31
0.0
  0
LINE
  5
8E
330
498
100
AcDbEntity
  8
YKK_Z1
  6
Continuous
100
AcDbLine
 10
1006.0
 20
14134.5
 30
0.0
 11
1006.0
 21
14126.5
 31
0.0
  0
LINE
  5
8F
330
498
100
AcDbEntity
  8
YKK_Z1
  6
Continuous
100
AcDbLine
 10
996.0
 20
14134.5
 30
0.0
 11
996.0
 21
14126.5
 31
0.0
  0
LINE
  5
90
330
498
100
AcDbEntity
  8
YKK_Z1
  6
Continuous
100
AcDbLine
 10
1192.49997922
 20
13922.5
 30
0.0
 11
1172.49997575
 21
13942.5
 31
0.0
  0
LINE
  5
91
330
498
100
AcDbEntity
  8
YKK_Z1
  6
Continuous
100
AcDbLine
 10
1172.49997575
 20
13922.5
 30
0.0
 11
1152.49997229
 21
13942.5
 31
0.0
  0
LINE
  5
92
330
498
100
AcDbEntity
  8
YKK_Z1
  6
Continuous
100
AcDbLine
 10
1192.50006235
 20
13942.5
 30
0.0
 11
1172.50007275
 21
13922.5
 31
0.0
  0
LINE
  5
93
330
498
100
AcDbEntity
  8
YKK_Z1
  6
Continuous
100
AcDbLine
 10
1172.50007275
 20
13942.5
 30
0.0
 11
1152.50008314
 21
13922.5
 31
0.0
  0
LINE
  5
94
330
498
100
AcDbEntity
  8
YKK_Z1
  6
Continuous
100
AcDbLine
 10
1132.49996882
 20
13922.5
 30
0.0
 11
1112.49996536
 21
13942.5
 31
0.0
  0
LINE
  5
95
330
498
100
AcDbEntity
  8
YKK_Z1
  6
Continuous
100
AcDbLine
 10
1112.49996536
 20
13922.5
 30
0.0
 11
1092.49996189
 21
13942.5
 31
0.0
  0
LINE
  5
96
330
498
100
AcDbEntity
  8
YKK_Z1
  6
Continuous
100
AcDbLine
 10
1092.49996189
 20
13922.5
 30
0.0
 11
1072.49995843
 21
13942.5
 31
0.0
  0
LINE
  5
97
330
498
100
AcDbEntity
  8
YKK_Z1
  6
Continuous
100
AcDbLine
 10
1072.49995843
 20
13922.5
 30
0.0
 11
1052.49995497
 21
13942.5
 31
0.0
  0
LINE
  5
98
330
498
100
AcDbEntity
  8
YKK_Z1
  6
Continuous
100
AcDbLine
 10
1052.49995497
 20
13922.5
 30
0.0
 11
1032.4999515
 21
13942.5
 31
0.0
  0
LINE
  5
99
330
498
100
AcDbEntity
  8
YKK_Z1
  6
Continuous
100
AcDbLine
 10
1132.50009353
 20
13942.5
 30
0.0
 11
1112.50010392
 21
13922.5
 31
0.0
  0
LINE
  5
9A
330
498
100
AcDbEntity
  8
YKK_Z1
  6
Continuous
100
AcDbLine
 10
1112.50010392
 20
13942.5
 30
0.0
 11
1092.50011432
 21
13922.5
 31
0.0
  0
LINE
  5
9B
330
498
100
AcDbEntity
  8
YKK_Z1
  6
Continuous
100
AcDbLine
 10
1092.50011432
 20
13942.5
 30
0.0
 11
1072.50012471
 21
13922.5
 31
0.0
  0
LINE
  5
9C
330
498
100
AcDbEntity
  8
YKK_Z1
  6
Continuous
100
AcDbLine
 10
1072.50012471
 20
13942.5
 30
0.0
 11
1052.5001351
 21
13922.5
 31
0.0
  0
LINE
  5
9D
330
498
100
AcDbEntity
  8
YKK_Z1
  6
Continuous
100
AcDbLine
 10
1052.5001351
 20
13942.5
 30
0.0
 11
1032.50014549
 21
13922.5
 31
0.0
  0
LINE
  5
9E
330
498
100
AcDbEntity
  8
YKK_Z1
  6
Continuous
100
AcDbLine
 10
1152.49997229
 20
13922.5
 30
0.0
 11
1132.49996882
 21
13942.5
 31
0.0
  0
LINE
  5
9F
330
498
100
AcDbEntity
  8
YKK_Z1
  6
Continuous
100
AcDbLine
 10
1152.50008314
 20
13942.5
 30
0.0
 11
1132.50009353
 21
13922.5
 31
0.0
  0
LINE
  5
A0
330
498
100
AcDbEntity
  8
YKK_Z1
  6
Continuous
100
AcDbLine
 10
1012.49994804
 20
13922.5
 30
0.0
 11
995.0
 21
13939.99994501
 31
0.0
  0
LINE
  5
A1
330
498
100
AcDbEntity
  8
YKK_Z1
  6
Continuous
100
AcDbLine
 10
1012.50015588
 20
13942.5
 30
0.0
 11
995.0
 21
13924.99983502
 31
0.0
  0
LINE
  5
A2
330
498
100
AcDbEntity
  8
YKK_Z1
  6
Continuous
100
AcDbLine
 10
1032.4999515
 20
13922.5
 30
0.0
 11
1012.49994804
 21
13942.5
 31
0.0
  0
LINE
  5
A3
330
498
100
AcDbEntity
  8
YKK_Z1
  6
Continuous
100
AcDbLine
 10
1032.50014549
 20
13942.5
 30
0.0
 11
1012.50015588
 21
13922.5
 31
0.0
  0
LINE
  5
A4
330
498
100
AcDbEntity
  8
YKK_Z1
  6
Continuous
100
AcDbLine
 10
1174.99990647
 20
14122.5
 30
0.0
 11
995.0
 21
13942.5
 31
0.0
  0
LINE
  5
A5
330
498
100
AcDbEntity
  8
YKK_Z1
  6
Continuous
100
AcDbLine
 10
1183.48518417
 20
14122.5
 30
0.0
 11
1003.4852777
 21
13942.5
 31
0.0
  0
POINT
  5
A6
330
498
100
AcDbEntity
  8
YKK_N1
  6
ByBlock
100
AcDbPoint
 10
1395.0
 20
14024.5
 30
0.0
  0
LINE
  5
A7
330
498
100
AcDbEntity
  8
YKK_B1
100
AcDbLine
 10
1395.0
 20
14064.5
 30
0.0
 11
1395.0
 21
14074.5
 31
0.0
  0
LINE
  5
A8
330
498
100
AcDbEntity
  8
YKK_B1
100
AcDbLine
 10
1346.0
 20
14094.5
 30
0.0
 11
1346.0
 21
14087.5
 31
0.0
  0
LINE
  5
A9
330
498
100
AcDbEntity
  8
YKK_B1
100
AcDbLine
 10
1355.0
 20
14094.5
 30
0.0
 11
1355.0
 21
14149.5
 31
0.0
  0
LINE
  5
AA
330
498
100
AcDbEntity
  8
YKK_B1
100
AcDbLine
 10
1355.0
 20
14149.5
 30
0.0
 11
1350.0
 21
14149.5
 31
0.0
  0
LINE
  5
AB
330
498
100
AcDbEntity
  8
YKK_B1
100
AcDbLine
 10
1350.0
 20
14149.5
 30
0.0
 11
1347.5
 21
14094.5
 31
0.0
  0
LINE
  5
AC
330
498
100
AcDbEntity
  8
YKK_B1
100
AcDbLine
 10
1355.0
 20
14094.5
 30
0.0
 11
1342.5
 21
14094.5
 31
0.0
  0
LINE
  5
AD
330
498
100
AcDbEntity
  8
YKK_B1
100
AcDbLine
 10
1370.0
 20
14064.5
 30
0.0
 11
1370.0
 21
14094.5
 31
0.0
  0
LINE
  5
AE
330
498
100
AcDbEntity
  8
YKK_B1
100
AcDbLine
 10
1395.0
 20
14064.5
 30
0.0
 11
1370.0
 21
14064.5
 31
0.0
  0
LINE
  5
AF
330
498
100
AcDbEntity
  8
YKK_B1
100
AcDbLine
 10
1395.0
 20
14094.5
 30
0.0
 11
1361.0
 21
14094.5
 31
0.0
  0
LINE
  5
B0
330
498
100
AcDbEntity
  8
YKK_B1
100
AcDbLine
 10
1395.0
 20
14030.5
 30
0.0
 11
1378.0
 21
14030.5
 31
0.0
  0
LINE
  5
B1
330
498
100
AcDbEntity
  8
YKK_B1
100
AcDbLine
 10
1355.0
 20
14024.5
 30
0.0
 11
1346.0
 21
14024.5
 31
0.0
  0
LINE
  5
B2
330
498
100
AcDbEntity
  8
YKK_B1
100
AcDbLine
 10
1346.0
 20
14024.5
 30
0.0
 11
1346.0
 21
14031.5
 31
0.0
  0
LINE
  5
B3
330
498
100
AcDbEntity
  8
YKK_B1
100
AcDbLine
 10
1395.0
 20
14024.5
 30
0.0
 11
1355.0
 21
14024.5
 31
0.0
  0
LINE
  5
B4
330
498
100
AcDbEntity
  8
YKK_B1
100
AcDbLine
 10
1355.0
 20
14024.5
 30
0.0
 11
1355.0
 21
14094.5
 31
0.0
  0
LINE
  5
B5
330
498
100
AcDbEntity
  8
YKK_B1
100
AcDbLine
 10
1395.0
 20
14030.5
 30
0.0
 11
1395.0
 21
14064.5
 31
0.0
  0
LINE
  5
B6
330
498
100
AcDbEntity
  8
YKK_B1
100
AcDbLine
 10
1386.5
 20
14030.5
 30
0.0
 11
1386.5
 21
14064.5
 31
0.0
  0
LINE
  5
B7
330
498
100
AcDbEntity
  8
YKK_Z1
  6
Continuous
100
AcDbLine
 10
1312.5
 20
14067.5
 30
0.0
 11
1327.5
 21
14077.5
 31
0.0
  0
LINE
  5
B8
330
498
100
AcDbEntity
  8
YKK_Z1
  6
Continuous
100
AcDbLine
 10
1327.5
 20
14077.5
 30
0.0
 11
1327.5
 21
14122.5
 31
0.0
  0
LINE
  5
B9
330
498
100
AcDbEntity
  8
YKK_Z1
  6
Continuous
100
AcDbLine
 10
1341.0
 20
14134.5
 30
0.0
 11
1326.0
 21
14134.5
 31
0.0
  0
LINE
  5
BA
330
498
100
AcDbEntity
  8
YKK_Z1
  6
Continuous
100
AcDbLine
 10
1326.0
 20
14134.5
 30
0.0
 11
1326.0
 21
14126.5
 31
0.0
  0
LINE
  5
BB
330
498
100
AcDbEntity
  8
YKK_Z1
  6
Continuous
100
AcDbLine
 10
1312.5
 20
13963.01529116
 30
0.0
 11
1291.9847195
 21
13942.5
 31
0.0
  0
LINE
  5
BC
330
498
100
AcDbEntity
  8
YKK_Z1
  6
Continuous
100
AcDbLine
 10
1312.5
 20
13954.53000905
 30
0.0
 11
1300.4699972
 21
13942.5
 31
0.0
  0
LINE
  5
BD
330
498
100
AcDbEntity
  8
YKK_Z1
  6
Continuous
100
AcDbLine
 10
1312.5
 20
13942.5
 30
0.0
 11
1312.5
 21
13922.5
 31
0.0
  0
LINE
  5
BF
330
498
100
AcDbEntity
  8
YKK_Z1
  6
Continuous
100
AcDbLine
 10
1312.5
 20
13922.5
 30
0.0
 11
1292.49999654
 21
13942.5
 31
0.0
  0
LINE
  5
C0
330
498
100
AcDbEntity
  8
YKK_Z1
  6
Continuous
100
AcDbLine
 10
1292.49999654
 20
13922.5
 30
0.0
 11
1272.49999307
 21
13942.5
 31
0.0
  0
LINE
  5
C1
330
498
100
AcDbEntity
  8
YKK_Z1
  6
Continuous
100
AcDbLine
 10
1312.5
 20
13942.5
 30
0.0
 11
1292.50001039
 21
13922.5
 31
0.0
  0
LINE
  5
C2
330
498
100
AcDbEntity
  8
YKK_Z1
  6
Continuous
100
AcDbLine
 10
1292.50001039
 20
13942.5
 30
0.0
 11
1272.50002078
 21
13922.5
 31
0.0
  0
LINE
  5
C3
330
498
100
AcDbEntity
  8
YKK_Z1
  6
Continuous
100
AcDbLine
 10
1312.5
 20
13942.5
 30
0.0
 11
1312.5
 21
14067.5
 31
0.0
  0
LINE
  5
C4
330
498
100
AcDbEntity
  8
YKK_Z1
  6
Continuous
100
AcDbLine
 10
1226.0
 20
14134.5
 30
0.0
 11
1226.0
 21
14126.5
 31
0.0
  0
LINE
  5
C5
330
498
100
AcDbEntity
  8
YKK_Z1
  6
Continuous
100
AcDbLine
 10
1216.0
 20
14134.5
 30
0.0
 11
1216.0
 21
14126.5
 31
0.0
  0
LINE
  5
C6
330
498
100
AcDbEntity
  8
YKK_Z1
  6
Continuous
100
AcDbLine
 10
1252.49998961
 20
13922.5
 30
0.0
 11
1232.49998614
 21
13942.5
 31
0.0
  0
LINE
  5
C7
330
498
100
AcDbEntity
  8
YKK_Z1
  6
Continuous
100
AcDbLine
 10
1232.49998614
 20
13922.5
 30
0.0
 11
1212.49998268
 21
13942.5
 31
0.0
  0
LINE
  5
C8
330
498
100
AcDbEntity
  8
YKK_Z1
  6
Continuous
100
AcDbLine
 10
1252.50003118
 20
13942.5
 30
0.0
 11
1232.50004157
 21
13922.5
 31
0.0
  0
LINE
  5
C9
330
498
100
AcDbEntity
  8
YKK_Z1
  6
Continuous
100
AcDbLine
 10
1232.50004157
 20
13942.5
 30
0.0
 11
1212.50005196
 21
13922.5
 31
0.0
  0
LINE
  5
CA
330
498
100
AcDbEntity
  8
YKK_Z1
  6
Continuous
100
AcDbLine
 10
1272.49999307
 20
13922.5
 30
0.0
 11
1252.49998961
 21
13942.5
 31
0.0
  0
LINE
  5
CB
330
498
100
AcDbEntity
  8
YKK_Z1
  6
Continuous
100
AcDbLine
 10
1272.50002078
 20
13942.5
 30
0.0
 11
1252.50003118
 21
13922.5
 31
0.0
  0
LINE
  5
CC
330
498
100
AcDbEntity
  8
YKK_N1
100
AcDbLine
 10
1681.0
 20
14024.5
 30
0.0
 11
1681.0
 21
14004.5
 31
0.0
  0
CIRCLE
  5
CD
330
498
100
AcDbEntity
  8
YKK_N1
100
AcDbCircle
 10
1681.0
 20
14024.5
 30
0.0
 40
6.5
  0
CIRCLE
  5
CE
330
498
100
AcDbEntity
  8
YKK_N1
100
AcDbCircle
 10
1681.0
 20
14024.5
 30
0.0
 40
10.0
  0
TEXT
  5
CF
330
498
100
AcDbEntity
  8
YKK_N1
100
AcDbText
 10
1636.0
 20
14015.0
 30
0.0
 40
60.0
  1
125
 50
90.0
 41
0.8
  7
YKK_SGSTYLE1
100
AcDbText
  0
LINE
  5
D0
330
498
100
AcDbEntity
  8
YKK_N1
100
AcDbLine
 10
1681.0
 20
14024.5
 30
0.0
 11
1681.0
 21
14044.5
 31
0.0
  0
CIRCLE
  5
D1
330
498
100
AcDbEntity
  8
YKK_N1
100
AcDbCircle
 10
1681.0
 20
14024.5
 30
0.0
 40
6.5
  0
CIRCLE
  5
D2
330
498
100
AcDbEntity
  8
YKK_N1
100
AcDbCircle
 10
1681.0
 20
14024.5
 30
0.0
 40
10.0
  0
LINE
  5
D3
330
498
100
AcDbEntity
  8
YKK_N1
100
AcDbLine
 10
1681.0
 20
14149.5
 30
0.0
 11
1681.0
 21
14129.5
 31
0.0
  0
CIRCLE
  5
D4
330
498
100
AcDbEntity
  8
YKK_N1
100
AcDbCircle
 10
1681.0
 20
14149.5
 30
0.0
 40
6.5
  0
CIRCLE
  5
D5
330
498
100
AcDbEntity
  8
YKK_N1
100
AcDbCircle
 10
1681.0
 20
14149.5
 30
0.0
 40
10.0
  0
POINT
  5
D6
330
498
100
AcDbEntity
  8
YKK_N1
  6
ByBlock
100
AcDbPoint
 10
1681.0
 20
14149.5
 30
0.0
  0
POINT
  5
D7
330
498
100
AcDbEntity
  8
YKK_N1
  6
ByBlock
100
AcDbPoint
 10
1691.0
 20
14149.5
 30
0.0
  0
POINT
  5
D8
330
498
100
AcDbEntity
  8
YKK_N1
  6
ByBlock
100
AcDbPoint
 10
1691.0
 20
14024.5
 30
0.0
  0
LINE
  5
D9
330
498
100
AcDbEntity
  8
YKK_N1
  6
ByBlock
100
AcDbLine
 10
1681.0
 20
14044.5
 30
0.0
 11
1681.0
 21
14129.5
 31
0.0
  0
LINE
  5
DA
330
498
100
AcDbEntity
  8
YKK_N1
  6
ByBlock
100
AcDbLine
 10
1631.0
 20
14149.5
 30
0.0
 11
1651.0
 21
14149.5
 31
0.0
  0
LINE
  5
DB
330
498
100
AcDbEntity
  8
YKK_N1
  6
ByBlock
100
AcDbLine
 10
1631.0
 20
14024.5
 30
0.0
 11
1651.0
 21
14024.5
 31
0.0
  0
POINT
  5
DC
330
498
100
AcDbEntity
  8
YKK_N1
  6
ByBlock
100
AcDbPoint
 10
1681.0
 20
14024.5
 30
0.0
  0
LINE
  5
DD
330
498
100
AcDbEntity
  8
YKK_N1
  6
ByBlock
100
AcDbLine
 10
1681.0
 20
14004.5
 30
0.0
 11
1681.0
 21
13907.5
 31
0.0
  0
LINE
  5
DE
330
498
100
AcDbEntity
  8
YKK_N1
  6
ByBlock
100
AcDbLine
 10
1621.0
 20
14024.5
 30
0.0
 11
1651.0
 21
14024.5
 31
0.0
  0
LINE
  5
DF
330
498
100
AcDbEntity
  8
YKK_N1
  6
ByBlock
100
AcDbLine
 10
2395.0
 20
13964.5
 30
0.0
 11
2395.0
 21
13594.5
 31
0.0
  0
LINE
  5
E0
330
498
100
AcDbEntity
  8
YKK_Z1
  6
Continuous
100
AcDbLine
 10
2425.0
 20
13907.0
 30
0.0
 11
2425.0
 21
13894.5
 31
0.0
  0
LINE
  5
E1
330
498
100
AcDbEntity
  8
YKK_Z1
100
AcDbLine
 10
2400.0
 20
14024.5
 30
0.0
 11
2400.0
 21
13887.5
 31
0.0
  0
LINE
  5
E2
330
498
100
AcDbEntity
  8
YKK_Z1
  6
Continuous
100
AcDbLine
 10
2425.0
 20
13894.5
 30
0.0
 11
2795.0
 21
13894.5
 31
0.0
  0
LINE
  5
E3
330
498
100
AcDbEntity
  8
YKK_Z1
  6
Continuous
100
AcDbLine
 10
2425.0
 20
13884.5
 30
0.0
 11
1895.0
 21
13884.5
 31
0.0
  0
LINE
  5
E4
330
498
100
AcDbEntity
  8
YKK_N1
  6
ByBlock
100
AcDbLine
 10
2308.39745962
 20
13574.5
 30
0.0
 11
2395.0
 21
13624.5
 31
0.0
  0
LINE
  5
E5
330
498
100
AcDbEntity
  8
YKK_N1
  6
ByBlock
100
AcDbLine
 10
2308.39745962
 20
13674.5
 30
0.0
 11
2308.39745962
 21
13574.5
 31
0.0
  0
LINE
  5
E6
330
498
100
AcDbEntity
  8
YKK_N1
  6
ByBlock
100
AcDbLine
 10
2395.0
 20
13624.5
 30
0.0
 11
2308.39745962
 21
13674.5
 31
0.0
  0
LINE
  5
E7
330
498
100
AcDbEntity
  8
YKK_N1
  6
ByBlock
100
AcDbLine
 10
2395.0
 20
13624.5
 30
0.0
 11
2295.0
 21
13624.5
 31
0.0
  0
POINT
  5
E8
330
498
100
AcDbEntity
  8
YKK_N1
  6
ByBlock
100
AcDbPoint
 10
2395.0
 20
13624.5
 30
0.0
  0
LINE
  5
E9
330
498
100
AcDbEntity
  8
YKK_Z1
  6
Continuous
100
AcDbLine
 10
2425.0
 20
13887.5
 30
0.0
 11
2425.0
 21
13884.5
 31
0.0
  0
LINE
  5
EA
330
498
100
AcDbEntity
  8
YKK_Z1
100
AcDbLine
 10
2425.0
 20
13887.5
 30
0.0
 11
2425.0
 21
13897.5
 31
0.0
  0
LINE
  5
EB
330
498
100
AcDbEntity
  8
YKK_Z1
100
AcDbLine
 10
2400.0
 20
13887.5
 30
0.0
 11
2425.0
 21
13887.5
 31
0.0
  0
LINE
  5
EC
330
498
100
AcDbEntity
  8
YKK_Z1
  6
Continuous
100
AcDbLine
 10
2577.50001732
 20
13922.5
 30
0.0
 11
2597.50002078
 21
13942.5
 31
0.0
  0
LINE
  5
ED
330
498
100
AcDbEntity
  8
YKK_Z1
  6
Continuous
100
AcDbLine
 10
2577.49994804
 20
13942.5
 30
0.0
 11
2597.49993765
 21
13922.5
 31
0.0
  0
LINE
  5
EE
330
498
100
AcDbEntity
  8
YKK_Z1
  6
Continuous
100
AcDbLine
 10
2795.0
 20
13942.5
 30
0.0
 11
2477.5
 21
13942.5
 31
0.0
  0
LINE
  5
EF
330
498
100
AcDbEntity
  8
YKK_Z1
  6
Continuous
100
AcDbLine
 10
2462.5
 20
14122.5
 30
0.0
 11
2795.0
 21
14122.5
 31
0.0
  0
LINE
  5
F0
330
498
100
AcDbEntity
  8
YKK_Z1
  6
Continuous
100
AcDbLine
 10
2498.01507474
 20
13942.5
 30
0.0
 11
2678.01510592
 21
14122.5
 31
0.0
  0
LINE
  5
F1
330
498
100
AcDbEntity
  8
YKK_Z1
  6
Continuous
100
AcDbLine
 10
2506.50035832
 20
13942.5
 30
0.0
 11
2686.5003895
 21
14122.5
 31
0.0
  0
LINE
  5
F2
330
498
100
AcDbEntity
  8
YKK_Z1
  6
Continuous
100
AcDbLine
 10
2526.29935334
 20
13942.5
 30
0.0
 11
2706.29938452
 21
14122.5
 31
0.0
  0
LINE
  5
F3
330
498
100
AcDbEntity
  8
YKK_Z1
  6
CENTER
100
AcDbLine
 10
2460.75
 20
14032.5
 30
0.0
 11
2795.0
 21
14032.5
 31
0.0
  0
LINE
  5
F4
330
498
100
AcDbEntity
  8
YKK_Z1
  6
Continuous
100
AcDbLine
 10
2477.5
 20
13922.5
 30
0.0
 11
2795.0
 21
13922.5
 31
0.0
  0
LINE
  5
F5
330
498
100
AcDbEntity
  8
YKK_Z1
  6
Continuous
100
AcDbLine
 10
2457.5
 20
14134.5
 30
0.0
 11
2795.0
 21
14134.5
 31
0.0
  0
LINE
  5
F6
330
498
100
AcDbEntity
  8
YKK_Z1
  6
Continuous
100
AcDbLine
 10
2457.5
 20
14126.5
 30
0.0
 11
2795.0
 21
14126.5
 31
0.0
  0
LINE
  5
F7
330
498
100
AcDbEntity
  8
YKK_Z1
  6
Continuous
100
AcDbLine
 10
2795.0
 20
13907.0
 30
0.0
 11
2425.0
 21
13907.0
 31
0.0
  0
POINT
  5
F8
330
498
100
AcDbEntity
  8
YKK_N1
  6
ByBlock
100
AcDbPoint
 10
2395.0
 20
14024.5
 30
0.0
  0
LINE
  5
F9
330
498
100
AcDbEntity
  8
YKK_B1
100
AcDbLine
 10
2444.0
 20
14094.5
 30
0.0
 11
2444.0
 21
14087.5
 31
0.0
  0
LINE
  5
FA
330
498
100
AcDbEntity
  8
YKK_B1
100
AcDbLine
 10
2435.0
 20
14094.5
 30
0.0
 11
2435.0
 21
14149.5
 31
0.0
  0
LINE
  5
FB
330
498
100
AcDbEntity
  8
YKK_B1
100
AcDbLine
 10
2435.0
 20
14149.5
 30
0.0
 11
2440.0
 21
14149.5
 31
0.0
  0
LINE
  5
FC
330
498
100
AcDbEntity
  8
YKK_B1
100
AcDbLine
 10
2440.0
 20
14149.5
 30
0.0
 11
2442.5
 21
14094.5
 31
0.0
  0
LINE
  5
FD
330
498
100
AcDbEntity
  8
YKK_B1
100
AcDbLine
 10
2435.0
 20
14094.5
 30
0.0
 11
2447.5
 21
14094.5
 31
0.0
  0
LINE
  5
FE
330
498
100
AcDbEntity
  8
YKK_B1
100
AcDbLine
 10
2420.0
 20
14064.5
 30
0.0
 11
2420.0
 21
14094.5
 31
0.0
  0
LINE
  5
FF
330
498
100
AcDbEntity
  8
YKK_B1
100
AcDbLine
 10
2395.0
 20
14064.5
 30
0.0
 11
2395.0
 21
14074.5
 31
0.0
  0
LINE
  5
100
330
498
100
AcDbEntity
  8
YKK_B1
100
AcDbLine
 10
2395.0
 20
14064.5
 30
0.0
 11
2420.0
 21
14064.5
 31
0.0
  0
LINE
  5
101
330
498
100
AcDbEntity
  8
YKK_B1
100
AcDbLine
 10
2395.0
 20
14094.5
 30
0.0
 11
2429.0
 21
14094.5
 31
0.0
  0
LINE
  5
102
330
498
100
AcDbEntity
  8
YKK_B1
100
AcDbLine
 10
2435.0
 20
14024.5
 30
0.0
 11
2444.0
 21
14024.5
 31
0.0
  0
LINE
  5
103
330
498
100
AcDbEntity
  8
YKK_B1
100
AcDbLine
 10
2444.0
 20
14024.5
 30
0.0
 11
2444.0
 21
14031.5
 31
0.0
  0
LINE
  5
104
330
498
100
AcDbEntity
  8
YKK_B1
100
AcDbLine
 10
2395.0
 20
14024.5
 30
0.0
 11
2435.0
 21
14024.5
 31
0.0
  0
LINE
  5
105
330
498
100
AcDbEntity
  8
YKK_B1
100
AcDbLine
 10
2395.0
 20
14030.5
 30
0.0
 11
2412.0
 21
14030.5
 31
0.0
  0
LINE
  5
106
330
498
100
AcDbEntity
  8
YKK_B1
100
AcDbLine
 10
2435.0
 20
14024.5
 30
0.0
 11
2435.0
 21
14094.5
 31
0.0
  0
LINE
  5
107
330
498
100
AcDbEntity
  8
YKK_B1
100
AcDbLine
 10
2395.0
 20
14030.5
 30
0.0
 11
2395.0
 21
14064.5
 31
0.0
  0
LINE
  5
108
330
498
100
AcDbEntity
  8
YKK_B1
100
AcDbLine
 10
2403.5
 20
14030.5
 30
0.0
 11
2403.5
 21
14064.5
 31
0.0
  0
LINE
  5
109
330
498
100
AcDbEntity
  8
YKK_Z1
  6
Continuous
100
AcDbLine
 10
2557.5
 20
14134.5
 30
0.0
 11
2557.5
 21
14126.5
 31
0.0
  0
LINE
  5
10A
330
498
100
AcDbEntity
  8
YKK_Z1
  6
Continuous
100
AcDbLine
 10
2567.5
 20
14134.5
 30
0.0
 11
2567.5
 21
14126.5
 31
0.0
  0
LINE
  5
10B
330
498
100
AcDbEntity
  8
YKK_Z1
  6
Continuous
100
AcDbLine
 10
2477.5
 20
14067.5
 30
0.0
 11
2462.5
 21
14077.5
 31
0.0
  0
LINE
  5
10C
330
498
100
AcDbEntity
  8
YKK_Z1
  6
Continuous
100
AcDbLine
 10
2462.5
 20
14077.5
 30
0.0
 11
2462.5
 21
14122.5
 31
0.0
  0
LINE
  5
10D
330
498
100
AcDbEntity
  8
YKK_Z1
  6
Continuous
100
AcDbLine
 10
2449.0
 20
14134.5
 30
0.0
 11
2457.5
 21
14134.5
 31
0.0
  0
LINE
  5
10E
330
498
100
AcDbEntity
  8
YKK_Z1
  6
Continuous
100
AcDbLine
 10
2457.5
 20
14134.5
 30
0.0
 11
2457.5
 21
14126.5
 31
0.0
  0
LINE
  5
10F
330
498
100
AcDbEntity
  8
YKK_Z1
  6
Continuous
100
AcDbLine
 10
2517.50000693
 20
13922.5
 30
0.0
 11
2537.50001039
 21
13942.5
 31
0.0
  0
LINE
  5
110
330
498
100
AcDbEntity
  8
YKK_Z1
  6
Continuous
100
AcDbLine
 10
2537.50001039
 20
13922.5
 30
0.0
 11
2557.50001386
 21
13942.5
 31
0.0
  0
LINE
  5
111
330
498
100
AcDbEntity
  8
YKK_Z1
  6
Continuous
100
AcDbLine
 10
2557.50001386
 20
13922.5
 30
0.0
 11
2577.50001732
 21
13942.5
 31
0.0
  0
LINE
  5
112
330
498
100
AcDbEntity
  8
YKK_Z1
  6
Continuous
100
AcDbLine
 10
2517.49997922
 20
13942.5
 30
0.0
 11
2537.49996882
 21
13922.5
 31
0.0
  0
LINE
  5
113
330
498
100
AcDbEntity
  8
YKK_Z1
  6
Continuous
100
AcDbLine
 10
2537.49996882
 20
13942.5
 30
0.0
 11
2557.49995843
 21
13922.5
 31
0.0
  0
LINE
  5
114
330
498
100
AcDbEntity
  8
YKK_Z1
  6
Continuous
100
AcDbLine
 10
2557.49995843
 20
13942.5
 30
0.0
 11
2577.49994804
 21
13922.5
 31
0.0
  0
LINE
  5
115
330
498
100
AcDbEntity
  8
YKK_Z1
  6
Continuous
100
AcDbLine
 10
2477.5
 20
13942.5
 30
0.0
 11
2477.5
 21
13922.5
 31
0.0
  0
LINE
  5
117
330
498
100
AcDbEntity
  8
YKK_Z1
  6
Continuous
100
AcDbLine
 10
2477.5
 20
13922.5
 30
0.0
 11
2497.50000346
 21
13942.5
 31
0.0
  0
LINE
  5
118
330
498
100
AcDbEntity
  8
YKK_Z1
  6
Continuous
100
AcDbLine
 10
2477.5
 20
13942.5
 30
0.0
 11
2497.49998961
 21
13922.5
 31
0.0
  0
LINE
  5
119
330
498
100
AcDbEntity
  8
YKK_Z1
  6
Continuous
100
AcDbLine
 10
2497.50000346
 20
13922.5
 30
0.0
 11
2517.50000693
 21
13942.5
 31
0.0
  0
LINE
  5
11A
330
498
100
AcDbEntity
  8
YKK_Z1
  6
Continuous
100
AcDbLine
 10
2497.49998961
 20
13942.5
 30
0.0
 11
2517.49997922
 21
13922.5
 31
0.0
  0
LINE
  5
11B
330
498
100
AcDbEntity
  8
YKK_Z1
  6
Continuous
100
AcDbLine
 10
2477.5
 20
13942.5
 30
0.0
 11
2477.5
 21
14067.5
 31
0.0
  0
LINE
  5
11C
330
498
100
AcDbEntity
  8
YKK_Z1
  6
Continuous
100
AcDbLine
 10
2777.5
 20
14134.5
 30
0.0
 11
2777.5
 21
14126.5
 31
0.0
  0
LINE
  5
11D
330
498
100
AcDbEntity
  8
YKK_Z1
  6
Continuous
100
AcDbLine
 10
2787.5
 20
14134.5
 30
0.0
 11
2787.5
 21
14126.5
 31
0.0
  0
LINE
  5
11E
330
498
100
AcDbEntity
  8
YKK_Z1
  6
Continuous
100
AcDbLine
 10
2667.5
 20
14134.5
 30
0.0
 11
2667.5
 21
14126.5
 31
0.0
  0
LINE
  5
11F
330
498
100
AcDbEntity
  8
YKK_Z1
  6
Continuous
100
AcDbLine
 10
2677.5
 20
14134.5
 30
0.0
 11
2677.5
 21
14126.5
 31
0.0
  0
LINE
  5
121
330
498
100
AcDbEntity
  8
YKK_Z1
  6
Continuous
100
AcDbLine
 10
2757.5000485
 20
13922.5
 30
0.0
 11
2777.50005196
 21
13942.5
 31
0.0
  0
LINE
  5
122
330
498
100
AcDbEntity
  8
YKK_Z1
  6
Continuous
100
AcDbLine
 10
2777.50005196
 20
13922.5
 30
0.0
 11
2795.0
 21
13939.99994501
 31
0.0
  0
LINE
  5
123
330
498
100
AcDbEntity
  8
YKK_Z1
  6
Continuous
100
AcDbLine
 10
2757.49985451
 20
13942.5
 30
0.0
 11
2777.49984412
 21
13922.5
 31
0.0
  0
LINE
  5
124
330
498
100
AcDbEntity
  8
YKK_Z1
  6
Continuous
100
AcDbLine
 10
2777.49984412
 20
13942.5
 30
0.0
 11
2795.0
 21
13924.99983502
 31
0.0
  0
LINE
  5
125
330
498
100
AcDbEntity
  8
YKK_Z1
  6
Continuous
100
AcDbLine
 10
2637.50002771
 20
13922.5
 30
0.0
 11
2657.50003118
 21
13942.5
 31
0.0
  0
LINE
  5
126
330
498
100
AcDbEntity
  8
YKK_Z1
  6
Continuous
100
AcDbLine
 10
2657.50003118
 20
13922.5
 30
0.0
 11
2677.50003464
 21
13942.5
 31
0.0
  0
LINE
  5
127
330
498
100
AcDbEntity
  8
YKK_Z1
  6
Continuous
100
AcDbLine
 10
2677.50003464
 20
13922.5
 30
0.0
 11
2697.50003811
 21
13942.5
 31
0.0
  0
LINE
  5
128
330
498
100
AcDbEntity
  8
YKK_Z1
  6
Continuous
100
AcDbLine
 10
2697.50003811
 20
13922.5
 30
0.0
 11
2717.50004157
 21
13942.5
 31
0.0
  0
LINE
  5
129
330
498
100
AcDbEntity
  8
YKK_Z1
  6
Continuous
100
AcDbLine
 10
2717.50004157
 20
13922.5
 30
0.0
 11
2737.50004503
 21
13942.5
 31
0.0
  0
LINE
  5
12A
330
498
100
AcDbEntity
  8
YKK_Z1
  6
Continuous
100
AcDbLine
 10
2637.49991686
 20
13942.5
 30
0.0
 11
2657.49990647
 21
13922.5
 31
0.0
  0
LINE
  5
12B
330
498
100
AcDbEntity
  8
YKK_Z1
  6
Continuous
100
AcDbLine
 10
2657.49990647
 20
13942.5
 30
0.0
 11
2677.49989608
 21
13922.5
 31
0.0
  0
LINE
  5
12C
330
498
100
AcDbEntity
  8
YKK_Z1
  6
Continuous
100
AcDbLine
 10
2677.49989608
 20
13942.5
 30
0.0
 11
2697.49988568
 21
13922.5
 31
0.0
  0
LINE
  5
12D
330
498
100
AcDbEntity
  8
YKK_Z1
  6
Continuous
100
AcDbLine
 10
2697.49988568
 20
13942.5
 30
0.0
 11
2717.49987529
 21
13922.5
 31
0.0
  0
LINE
  5
12E
330
498
100
AcDbEntity
  8
YKK_Z1
  6
Continuous
100
AcDbLine
 10
2717.49987529
 20
13942.5
 30
0.0
 11
2737.4998649
 21
13922.5
 31
0.0
  0
LINE
  5
12F
330
498
100
AcDbEntity
  8
YKK_Z1
  6
Continuous
100
AcDbLine
 10
2737.50004503
 20
13922.5
 30
0.0
 11
2757.5000485
 21
13942.5
 31
0.0
  0
LINE
  5
130
330
498
100
AcDbEntity
  8
YKK_Z1
  6
Continuous
100
AcDbLine
 10
2737.4998649
 20
13942.5
 30
0.0
 11
2757.49985451
 21
13922.5
 31
0.0
  0
LINE
  5
131
330
498
100
AcDbEntity
  8
YKK_Z1
  6
Continuous
100
AcDbLine
 10
2597.50002078
 20
13922.5
 30
0.0
 11
2617.50002425
 21
13942.5
 31
0.0
  0
LINE
  5
132
330
498
100
AcDbEntity
  8
YKK_Z1
  6
Continuous
100
AcDbLine
 10
2597.49993765
 20
13942.5
 30
0.0
 11
2617.49992725
 21
13922.5
 31
0.0
  0
LINE
  5
133
330
498
100
AcDbEntity
  8
YKK_Z1
  6
Continuous
100
AcDbLine
 10
2617.50002425
 20
13922.5
 30
0.0
 11
2637.50002771
 21
13942.5
 31
0.0
  0
LINE
  5
134
330
498
100
AcDbEntity
  8
YKK_Z1
  6
Continuous
100
AcDbLine
 10
2617.49992725
 20
13942.5
 30
0.0
 11
2637.49991686
 21
13922.5
 31
0.0
  0
TEXT
  5
135
330
498
100
AcDbEntity
  8
YKK_N1
100
AcDbText
 10
1747.57142857
 20
15925.6907475
 30
0.0
 40
60.0
  1
W=1000
 41
0.8
  7
YKK_SGSTYLE1
100
AcDbText
  0
LINE
  5
136
330
498
100
AcDbEntity
  8
YKK_N1
  6
ByBlock
100
AcDbLine
 10
1396.0
 20
15915.6907475
 30
0.0
 11
2394.0
 21
15915.6907475
 31
0.0
  0
LINE
  5
137
330
498
100
AcDbEntity
  8
YKK_N1
  6
ByBlock
100
AcDbLine
 10
1481.60254038
 20
15965.6907475
 30
0.0
 11
1395.0
 21
15915.6907475
 31
0.0
  0
LINE
  5
138
330
498
100
AcDbEntity
  8
YKK_N1
  6
ByBlock
100
AcDbLine
 10
1481.60254038
 20
15865.6907475
 30
0.0
 11
1481.60254038
 21
15965.6907475
 31
0.0
  0
LINE
  5
139
330
498
100
AcDbEntity
  8
YKK_N1
  6
ByBlock
100
AcDbLine
 10
1395.0
 20
15915.6907475
 30
0.0
 11
1481.60254038
 21
15865.6907475
 31
0.0
  0
LINE
  5
13A
330
498
100
AcDbEntity
  8
YKK_N1
  6
ByBlock
100
AcDbLine
 10
1395.0
 20
15915.6907475
 30
0.0
 11
1495.0
 21
15915.6907475
 31
0.0
  0
LINE
  5
13B
330
498
100
AcDbEntity
  8
YKK_N1
  6
ByBlock
100
AcDbLine
 10
2308.39745962
 20
15865.6907475
 30
0.0
 11
2395.0
 21
15915.6907475
 31
0.0
  0
LINE
  5
13C
330
498
100
AcDbEntity
  8
YKK_N1
  6
ByBlock
100
AcDbLine
 10
2308.39745962
 20
15965.6907475
 30
0.0
 11
2308.39745962
 21
15865.6907475
 31
0.0
  0
LINE
  5
13D
330
498
100
AcDbEntity
  8
YKK_N1
  6
ByBlock
100
AcDbLine
 10
2395.0
 20
15915.6907475
 30
0.0
 11
2308.39745962
 21
15965.6907475
 31
0.0
  0
LINE
  5
13E
330
498
100
AcDbEntity
  8
YKK_N1
  6
ByBlock
100
AcDbLine
 10
2395.0
 20
15915.6907475
 30
0.0
 11
2295.0
 21
15915.6907475
 31
0.0
  0
POINT
  5
13F
330
498
100
AcDbEntity
  8
YKK_N1
  6
ByBlock
100
AcDbPoint
 10
2395.0
 20
15915.6907475
 30
0.0
  0
TEXT
  5
140
330
498
100
AcDbEntity
  8
0
100
AcDbText
 10
100.0
 20
19187.5
 30
0.0
 40
200.0
  1
辷り出し窓
  7
EXTFONT
100
AcDbText
  0
TEXT
  5
141
330
498
100
AcDbEntity
  8
0
100
AcDbText
 10
100.0
 20
18737.5
 30
0.0
 40
200.0
  1
W＝1,000　H＝700
  7
EXTFONT
100
AcDbText
  0
LINE
  5
142
330
498
100
AcDbEntity
  8
YKK_A1
100
AcDbLine
 10
1380.0
 20
16315.6907475
 30
0.0
 11
2410.0
 21
16315.6907475
 31
0.0
  0
LINE
  5
143
330
498
100
AcDbEntity
  8
YKK_A1
100
AcDbLine
 10
2410.0
 20
17030.6907475
 30
0.0
 11
1380.0
 21
17030.6907475
 31
0.0
  0
LINE
  5
144
330
498
100
AcDbEntity
  8
YKK_A1
100
AcDbLine
 10
1395.0
 20
16315.6907475
 30
0.0
 11
2395.0
 21
16315.6907475
 31
0.0
  0
LINE
  5
145
330
498
100
AcDbEntity
  8
YKK_A1
100
AcDbLine
 10
2395.0
 20
17015.6907475
 30
0.0
 11
1395.0
 21
17015.6907475
 31
0.0
  0
LINE
  5
146
330
498
100
AcDbEntity
  8
YKK_A1
  6
CENTER
100
AcDbLine
 10
1395.0
 20
16315.6907475
 30
0.0
 11
2395.0
 21
17015.6907475
 31
0.0
  0
LINE
  5
147
330
498
100
AcDbEntity
  8
YKK_A1
100
AcDbLine
 10
1380.0
 20
17030.6907475
 30
0.0
 11
1380.0
 21
16315.6907475
 31
0.0
  0
LINE
  5
148
330
498
100
AcDbEntity
  8
YKK_A1
100
AcDbLine
 10
1395.0
 20
17015.6907475
 30
0.0
 11
1395.0
 21
16315.6907475
 31
0.0
  0
POINT
  5
149
330
498
100
AcDbEntity
  8
YKK_N1
  6
ByBlock
100
AcDbPoint
 10
1395.0
 20
16315.6907475
 30
0.0
  0
LINE
  5
14A
330
498
100
AcDbEntity
  8
YKK_N1
  6
ByBlock
100
AcDbLine
 10
2455.0
 20
17015.6907475
 30
0.0
 11
2825.0
 21
17015.6907475
 31
0.0
  0
LINE
  5
14B
330
498
100
AcDbEntity
  8
YKK_N1
  6
ByBlock
100
AcDbLine
 10
2455.0
 20
16315.6907475
 30
0.0
 11
2825.0
 21
16315.6907475
 31
0.0
  0
LINE
  5
14C
330
498
100
AcDbEntity
  8
YKK_A1
100
AcDbLine
 10
2410.0
 20
16315.6907475
 30
0.0
 11
2410.0
 21
17030.6907475
 31
0.0
  0
LINE
  5
14D
330
498
100
AcDbEntity
  8
YKK_A1
100
AcDbLine
 10
2395.0
 20
16315.6907475
 30
0.0
 11
2395.0
 21
17015.6907475
 31
0.0
  0
POINT
  5
14E
330
498
100
AcDbEntity
  8
YKK_N1
  6
ByBlock
100
AcDbPoint
 10
2395.0
 20
16315.6907475
 30
0.0
  0
POINT
  5
14F
330
498
100
AcDbEntity
  8
YKK_N1
  6
ByBlock
100
AcDbPoint
 10
2395.0
 20
16315.6907475
 30
0.0
  0
POINT
  5
150
330
498
100
AcDbEntity
  8
YKK_N1
  6
ByBlock
100
AcDbPoint
 10
2395.0
 20
17015.6907475
 30
0.0
  0
TEXT
  5
151
330
498
100
AcDbEntity
  8
YKK_N1
100
AcDbText
 10
2785.0
 20
16541.11931893
 30
0.0
 40
60.0
  1
H=700
 50
90.0
 41
0.8
  7
YKK_SGSTYLE1
100
AcDbText
  0
LINE
  5
152
330
498
100
AcDbEntity
  8
YKK_N1
  6
ByBlock
100
AcDbLine
 10
2795.0
 20
16316.6907475
 30
0.0
 11
2795.0
 21
17014.6907475
 31
0.0
  0
LINE
  5
153
330
498
100
AcDbEntity
  8
YKK_N1
  6
ByBlock
100
AcDbLine
 10
2745.0
 20
16402.29328788
 30
0.0
 11
2795.0
 21
16315.6907475
 31
0.0
  0
LINE
  5
154
330
498
100
AcDbEntity
  8
YKK_N1
  6
ByBlock
100
AcDbLine
 10
2845.0
 20
16402.29328788
 30
0.0
 11
2745.0
 21
16402.29328788
 31
0.0
  0
LINE
  5
155
330
498
100
AcDbEntity
  8
YKK_N1
  6
ByBlock
100
AcDbLine
 10
2795.0
 20
16315.6907475
 30
0.0
 11
2845.0
 21
16402.29328788
 31
0.0
  0
LINE
  5
156
330
498
100
AcDbEntity
  8
YKK_N1
  6
ByBlock
100
AcDbLine
 10
2795.0
 20
16315.6907475
 30
0.0
 11
2795.0
 21
16415.6907475
 31
0.0
  0
LINE
  5
157
330
498
100
AcDbEntity
  8
YKK_N1
  6
ByBlock
100
AcDbLine
 10
2845.0
 20
16929.08820713
 30
0.0
 11
2795.0
 21
17015.6907475
 31
0.0
  0
LINE
  5
158
330
498
100
AcDbEntity
  8
YKK_N1
  6
ByBlock
100
AcDbLine
 10
2745.0
 20
16929.08820713
 30
0.0
 11
2845.0
 21
16929.08820713
 31
0.0
  0
LINE
  5
159
330
498
100
AcDbEntity
  8
YKK_N1
  6
ByBlock
100
AcDbLine
 10
2795.0
 20
17015.6907475
 30
0.0
 11
2745.0
 21
16929.08820713
 31
0.0
  0
LINE
  5
15A
330
498
100
AcDbEntity
  8
YKK_N1
  6
ByBlock
100
AcDbLine
 10
2795.0
 20
17015.6907475
 30
0.0
 11
2795.0
 21
16915.6907475
 31
0.0
  0
POINT
  5
15B
330
498
100
AcDbEntity
  8
YKK_N1
  6
ByBlock
100
AcDbPoint
 10
2795.0
 20
17015.6907475
 30
0.0
  0
LINE
  5
15C
330
498
100
AcDbEntity
  8
YKK_N1
  6
ByBlock
100
AcDbLine
 10
4320.0
 20
16295.6907475
 30
0.0
 11
4320.0
 21
15635.6907475
 31
0.0
  0
LINE
  5
15D
330
498
100
AcDbEntity
  8
YKK_N1
  6
ByBlock
100
AcDbLine
 10
10562.5
 20
16295.6907475
 30
0.0
 11
10562.5
 21
15635.6907475
 31
0.0
  0
LINE
  5
15E
330
498
100
AcDbEntity
  8
YKK_N1
  6
ByBlock
100
AcDbLine
 10
8637.5
 20
16255.6907475
 30
0.0
 11
8637.5
 21
15685.6907475
 31
0.0
  0
LINE
  5
15F
330
498
100
AcDbEntity
  8
YKK_N1
  6
ByBlock
100
AcDbLine
 10
6552.5
 20
16255.6907475
 30
0.0
 11
6552.5
 21
15685.6907475
 31
0.0
  0
LINE
  5
160
330
498
100
AcDbEntity
  8
YKK_N1
  6
ByBlock
100
AcDbLine
 10
7552.5
 20
16255.6907475
 30
0.0
 11
7552.5
 21
15885.6907475
 31
0.0
  0
LINE
  5
161
330
498
100
AcDbEntity
  8
YKK_N1
  6
ByBlock
100
AcDbLine
 10
6552.5
 20
16255.6907475
 30
0.0
 11
6552.5
 21
15885.6907475
 31
0.0
  0
LINE
  5
162
330
498
100
AcDbEntity
  8
YKK_N1
  6
ByBlock
100
AcDbLine
 10
8637.5
 20
16255.6907475
 30
0.0
 11
8637.5
 21
15885.6907475
 31
0.0
  0
LINE
  5
163
330
498
100
AcDbEntity
  8
YKK_N1
  6
ByBlock
100
AcDbLine
 10
7637.5
 20
16255.6907475
 30
0.0
 11
7637.5
 21
15885.6907475
 31
0.0
  0
LINE
  5
164
330
498
100
AcDbEntity
  8
YKK_N1
  6
ByBlock
100
AcDbLine
 10
7637.5
 20
16255.6907475
 30
0.0
 11
7637.5
 21
15885.6907475
 31
0.0
  0
LINE
  5
165
330
498
100
AcDbEntity
  8
YKK_N1
  6
ByBlock
100
AcDbLine
 10
7552.5
 20
16255.6907475
 30
0.0
 11
7552.5
 21
15885.6907475
 31
0.0
  0
LINE
  5
166
330
498
100
AcDbEntity
  8
YKK_C1
100
AcDbLine
 10
10092.5
 20
16265.6907475
 30
0.0
 11
10092.5
 21
16248.1907475
 31
0.0
  0
LINE
  5
167
330
498
100
AcDbEntity
  8
YKK_C1
100
AcDbLine
 10
3850.0
 20
16265.6907475
 30
0.0
 11
3850.0
 21
16248.1907475
 31
0.0
  0
LINE
  5
168
330
498
100
AcDbEntity
  8
YKK_Z1
  6
Continuous
100
AcDbLine
 10
10292.5
 20
16295.6907475
 30
0.0
 11
10292.5
 21
15915.6907475
 31
0.0
  0
LINE
  5
169
330
498
100
AcDbEntity
  8
YKK_Z1
  6
Continuous
100
AcDbLine
 10
10280.0
 20
15915.6907475
 30
0.0
 11
10280.0
 21
16295.6907475
 31
0.0
  0
LINE
  5
16A
330
498
100
AcDbEntity
  8
YKK_Z1
  6
Continuous
100
AcDbLine
 10
10052.5
 20
16253.1907475
 30
0.0
 11
10052.5
 21
16238.1907475
 31
0.0
  0
LINE
  5
16B
330
498
100
AcDbEntity
  8
YKK_Z1
  6
Continuous
100
AcDbLine
 10
4050.0
 20
16295.6907475
 30
0.0
 11
4050.0
 21
15915.6907475
 31
0.0
  0
LINE
  5
16C
330
498
100
AcDbEntity
  8
YKK_Z1
  6
Continuous
100
AcDbLine
 10
4037.5
 20
15915.6907475
 30
0.0
 11
4037.5
 21
16295.6907475
 31
0.0
  0
LINE
  5
16D
330
498
100
AcDbEntity
  8
YKK_Z1
  6
Continuous
100
AcDbLine
 10
3810.0
 20
16253.1907475
 30
0.0
 11
3810.0
 21
16238.1907475
 31
0.0
  0
LINE
  5
16E
330
498
100
AcDbEntity
  8
YKK_Z1
  6
Continuous
100
AcDbLine
 10
8705.0
 20
14122.5
 30
0.0
 11
9037.5
 21
14122.5
 31
0.0
  0
LINE
  5
16F
330
498
100
AcDbEntity
  8
YKK_Z1
  6
Continuous
100
AcDbLine
 10
8700.0
 20
14134.5
 30
0.0
 11
9037.5
 21
14134.5
 31
0.0
  0
LINE
  5
170
330
498
100
AcDbEntity
  8
YKK_Z1
  6
Continuous
100
AcDbLine
 10
8700.0
 20
14126.5
 30
0.0
 11
9037.5
 21
14126.5
 31
0.0
  0
LINE
  5
171
330
498
100
AcDbEntity
  8
YKK_Z1
  6
Continuous
100
AcDbLine
 10
8780.00001039
 20
13922.5
 30
0.0
 11
8800.00001386
 21
13942.5
 31
0.0
  0
LINE
  5
172
330
498
100
AcDbEntity
  8
YKK_Z1
  6
Continuous
100
AcDbLine
 10
8779.99996882
 20
13942.5
 30
0.0
 11
8799.99995843
 21
13922.5
 31
0.0
  0
LINE
  5
173
330
498
100
AcDbEntity
  8
YKK_Z1
  6
Continuous
100
AcDbLine
 10
9037.5
 20
13942.5
 30
0.0
 11
8720.0
 21
13942.5
 31
0.0
  0
LINE
  5
174
330
498
100
AcDbEntity
  8
YKK_Z1
  6
CENTER
100
AcDbLine
 10
8703.25
 20
14032.5
 30
0.0
 11
9037.5
 21
14032.5
 31
0.0
  0
LINE
  5
175
330
498
100
AcDbEntity
  8
YKK_Z1
  6
Continuous
100
AcDbLine
 10
8720.0
 20
13922.5
 30
0.0
 11
9037.5
 21
13922.5
 31
0.0
  0
LINE
  5
176
330
498
100
AcDbEntity
  8
YKK_Z1
  6
Continuous
100
AcDbLine
 10
8740.51507474
 20
13942.5
 30
0.0
 11
8920.51510592
 21
14122.5
 31
0.0
  0
LINE
  5
177
330
498
100
AcDbEntity
  8
YKK_Z1
  6
Continuous
100
AcDbLine
 10
8749.00035832
 20
13942.5
 30
0.0
 11
8929.0003895
 21
14122.5
 31
0.0
  0
LINE
  5
178
330
498
100
AcDbEntity
  8
YKK_Z1
  6
Continuous
100
AcDbLine
 10
8768.79935334
 20
13942.5
 30
0.0
 11
8948.79938452
 21
14122.5
 31
0.0
  0
LINE
  5
179
330
498
100
AcDbEntity
  8
YKK_Z1
  6
Continuous
100
AcDbLine
 10
8667.5
 20
13894.5
 30
0.0
 11
9037.5
 21
13894.5
 31
0.0
  0
LINE
  5
17A
330
498
100
AcDbEntity
  8
YKK_Z1
  6
Continuous
100
AcDbLine
 10
9037.5
 20
13907.0
 30
0.0
 11
8667.5
 21
13907.0
 31
0.0
  0
TEXT
  5
17B
330
498
100
AcDbEntity
  8
YKK_Z1
100
AcDbText
 10
4642.28571429
 20
15625.6907475
 30
0.0
 40
60.0
  1
FL
 41
0.8
  7
YKK_SGSTYLE1
 72
     2
 11
4720.0
 21
15625.6907475
 31
0.0
100
AcDbText
  0
LINE
  5
17C
330
498
100
AcDbEntity
  8
YKK_Z1
  6
CENTER
100
AcDbLine
 10
4220.0
 20
15615.6907475
 30
0.0
 11
4720.0
 21
15615.6907475
 31
0.0
  0
LINE
  5
17D
330
498
100
AcDbEntity
  8
YKK_Z1
  6
Continuous
100
AcDbLine
 10
4002.0
 20
16248.1907475
 30
0.0
 11
3942.0
 21
16248.1907475
 31
0.0
  0
LINE
  5
17E
330
498
100
AcDbEntity
  8
YKK_Z1
  6
Continuous
100
AcDbLine
 10
4002.0
 20
16212.67567276
 30
0.0
 11
3822.0
 21
16032.67564158
 31
0.0
  0
LINE
  5
17F
330
498
100
AcDbEntity
  8
YKK_Z1
  6
Continuous
100
AcDbLine
 10
4002.0
 20
16204.19038918
 30
0.0
 11
3822.0
 21
16024.19035801
 31
0.0
  0
LINE
  5
180
330
498
100
AcDbEntity
  8
YKK_Z1
  6
Continuous
100
AcDbLine
 10
4002.0
 20
16184.39139417
 30
0.0
 11
3822.0
 21
16004.39136299
 31
0.0
  0
LINE
  5
181
330
498
100
AcDbEntity
  8
YKK_Z1
  6
Continuous
100
AcDbLine
 10
3942.0
 20
16248.1907475
 30
0.0
 11
3932.0
 21
16233.1907475
 31
0.0
  0
LINE
  5
182
330
498
100
AcDbEntity
  8
YKK_Z1
  6
Continuous
100
AcDbLine
 10
3810.0
 20
16238.1907475
 30
0.0
 11
3818.0
 21
16238.1907475
 31
0.0
  0
LINE
  5
183
330
498
100
AcDbEntity
  8
YKK_Z1
  6
Continuous
100
AcDbLine
 10
3932.0
 20
16233.1907475
 30
0.0
 11
3822.0
 21
16233.1907475
 31
0.0
  0
LINE
  5
184
330
498
100
AcDbEntity
  8
YKK_Z1
  6
Continuous
100
AcDbLine
 10
3810.0
 20
16138.1907475
 30
0.0
 11
3818.0
 21
16138.1907475
 31
0.0
  0
LINE
  5
185
330
498
100
AcDbEntity
  8
YKK_Z1
  6
Continuous
100
AcDbLine
 10
3810.0
 20
16128.1907475
 30
0.0
 11
3818.0
 21
16128.1907475
 31
0.0
  0
LINE
  5
186
330
498
100
AcDbEntity
  8
YKK_Z1
  6
Continuous
100
AcDbLine
 10
3810.0
 20
16028.1907475
 30
0.0
 11
3818.0
 21
16028.1907475
 31
0.0
  0
LINE
  5
187
330
498
100
AcDbEntity
  8
YKK_Z1
  6
Continuous
100
AcDbLine
 10
3810.0
 20
16018.1907475
 30
0.0
 11
3818.0
 21
16018.1907475
 31
0.0
  0
LINE
  5
188
330
498
100
AcDbEntity
  8
YKK_Z1
  6
Continuous
100
AcDbLine
 10
3810.0
 20
15918.1907475
 30
0.0
 11
3818.0
 21
15918.1907475
 31
0.0
  0
LINE
  5
189
330
498
100
AcDbEntity
  8
YKK_Z1
  6
Continuous
100
AcDbLine
 10
3810.0
 20
15908.1907475
 30
0.0
 11
3818.0
 21
15908.1907475
 31
0.0
  0
LINE
  5
18A
330
498
100
AcDbEntity
  8
YKK_Z1
  6
Continuous
100
AcDbLine
 10
3822.0
 20
16233.1907475
 30
0.0
 11
3822.0
 21
15915.6907475
 31
0.0
  0
LINE
  5
18B
330
498
100
AcDbEntity
  8
YKK_Z1
  6
CENTER
100
AcDbLine
 10
3912.0
 20
16243.1907475
 30
0.0
 11
3912.0
 21
15915.6907475
 31
0.0
  0
LINE
  5
18C
330
498
100
AcDbEntity
  8
YKK_Z1
  6
Continuous
100
AcDbLine
 10
3810.0
 20
16238.1907475
 30
0.0
 11
3810.0
 21
15915.6907475
 31
0.0
  0
LINE
  5
18D
330
498
100
AcDbEntity
  8
YKK_Z1
  6
Continuous
100
AcDbLine
 10
3818.0
 20
16238.1907475
 30
0.0
 11
3818.0
 21
15915.6907475
 31
0.0
  0
LINE
  5
18E
330
498
100
AcDbEntity
  8
YKK_N1
100
AcDbLine
 10
4320.0
 20
15615.6907475
 30
0.0
 11
4320.0
 21
15635.6907475
 31
0.0
  0
CIRCLE
  5
18F
330
498
100
AcDbEntity
  8
YKK_N1
100
AcDbCircle
 10
4320.0
 20
15615.6907475
 30
0.0
 40
6.5
  0
CIRCLE
  5
190
330
498
100
AcDbEntity
  8
YKK_N1
100
AcDbCircle
 10
4320.0
 20
15615.6907475
 30
0.0
 40
10.0
  0
POINT
  5
191
330
498
100
AcDbEntity
  8
YKK_N1
  6
ByBlock
100
AcDbPoint
 10
4320.0
 20
15615.6907475
 30
0.0
  0
POINT
  5
192
330
498
100
AcDbEntity
  8
YKK_N1
  6
ByBlock
100
AcDbPoint
 10
4320.0
 20
15615.6907475
 30
0.0
  0
LINE
  5
193
330
498
100
AcDbEntity
  8
YKK_Z1
  6
ByBlock
 62
     0
100
AcDbLine
 10
4636.92673029
 20
15675.6907475
 30
0.0
 11
4602.28571429
 21
15615.6907475
 31
0.0
  0
LINE
  5
194
330
498
100
AcDbEntity
  8
YKK_Z1
  6
ByBlock
 62
     0
100
AcDbLine
 10
4567.64469829
 20
15675.6907475
 30
0.0
 11
4636.92673029
 21
15675.6907475
 31
0.0
  0
LINE
  5
195
330
498
100
AcDbEntity
  8
YKK_Z1
  6
ByBlock
 62
     0
100
AcDbLine
 10
4602.28571429
 20
15615.6907475
 30
0.0
 11
4567.64469829
 21
15675.6907475
 31
0.0
  0
TEXT
  5
196
330
498
100
AcDbEntity
  8
YKK_N1
100
AcDbText
 10
4310.0
 20
15897.11931893
 30
0.0
 40
60.0
  1
700
 50
90.0
 41
0.8
  7
YKK_SGSTYLE1
100
AcDbText
  0
LINE
  5
197
330
498
100
AcDbEntity
  8
YKK_Z1
  6
Continuous
100
AcDbLine
 10
4002.0
 20
16248.1907475
 30
0.0
 11
4022.0
 21
16248.1907475
 31
0.0
  0
LINE
  5
199
330
498
100
AcDbEntity
  8
YKK_Z1
  6
Continuous
100
AcDbLine
 10
4022.0
 20
16248.1907475
 30
0.0
 11
4002.0
 21
16228.19074404
 31
0.0
  0
LINE
  5
19A
330
498
100
AcDbEntity
  8
YKK_Z1
  6
Continuous
100
AcDbLine
 10
4002.0
 20
16248.1907475
 30
0.0
 11
4022.0
 21
16228.1907579
 31
0.0
  0
LINE
  5
19B
330
498
100
AcDbEntity
  8
YKK_Z1
  6
Continuous
100
AcDbLine
 10
4022.0
 20
16208.19074058
 30
0.0
 11
4002.0
 21
16188.19073711
 31
0.0
  0
LINE
  5
19C
330
498
100
AcDbEntity
  8
YKK_Z1
  6
Continuous
100
AcDbLine
 10
4022.0
 20
16188.19073711
 30
0.0
 11
4002.0
 21
16168.19073365
 31
0.0
  0
LINE
  5
19D
330
498
100
AcDbEntity
  8
YKK_Z1
  6
Continuous
100
AcDbLine
 10
4022.0
 20
16168.19073365
 30
0.0
 11
4002.0
 21
16148.19073018
 31
0.0
  0
LINE
  5
19E
330
498
100
AcDbEntity
  8
YKK_Z1
  6
Continuous
100
AcDbLine
 10
4022.0
 20
16148.19073018
 30
0.0
 11
4002.0
 21
16128.19072672
 31
0.0
  0
LINE
  5
19F
330
498
100
AcDbEntity
  8
YKK_Z1
  6
Continuous
100
AcDbLine
 10
4022.0
 20
16128.19072672
 30
0.0
 11
4002.0
 21
16108.19072326
 31
0.0
  0
LINE
  5
1A0
330
498
100
AcDbEntity
  8
YKK_Z1
  6
Continuous
100
AcDbLine
 10
4022.0
 20
16108.19072326
 30
0.0
 11
4002.0
 21
16088.19071979
 31
0.0
  0
LINE
  5
1A1
330
498
100
AcDbEntity
  8
YKK_Z1
  6
Continuous
100
AcDbLine
 10
4022.0
 20
16088.19071979
 30
0.0
 11
4002.0
 21
16068.19071633
 31
0.0
  0
LINE
  5
1A2
330
498
100
AcDbEntity
  8
YKK_Z1
  6
Continuous
100
AcDbLine
 10
4022.0
 20
16068.19071633
 30
0.0
 11
4002.0
 21
16048.19071286
 31
0.0
  0
LINE
  5
1A3
330
498
100
AcDbEntity
  8
YKK_Z1
  6
Continuous
100
AcDbLine
 10
4002.0
 20
16208.19076829
 30
0.0
 11
4022.0
 21
16188.19077868
 31
0.0
  0
LINE
  5
1A4
330
498
100
AcDbEntity
  8
YKK_Z1
  6
Continuous
100
AcDbLine
 10
4002.0
 20
16188.19077868
 30
0.0
 11
4022.0
 21
16168.19078907
 31
0.0
  0
LINE
  5
1A5
330
498
100
AcDbEntity
  8
YKK_Z1
  6
Continuous
100
AcDbLine
 10
4002.0
 20
16168.19078907
 30
0.0
 11
4022.0
 21
16148.19079947
 31
0.0
  0
LINE
  5
1A6
330
498
100
AcDbEntity
  8
YKK_Z1
  6
Continuous
100
AcDbLine
 10
4002.0
 20
16148.19079947
 30
0.0
 11
4022.0
 21
16128.19080986
 31
0.0
  0
LINE
  5
1A7
330
498
100
AcDbEntity
  8
YKK_Z1
  6
Continuous
100
AcDbLine
 10
4002.0
 20
16128.19080986
 30
0.0
 11
4022.0
 21
16108.19082025
 31
0.0
  0
LINE
  5
1A8
330
498
100
AcDbEntity
  8
YKK_Z1
  6
Continuous
100
AcDbLine
 10
4002.0
 20
16108.19082025
 30
0.0
 11
4022.0
 21
16088.19083064
 31
0.0
  0
LINE
  5
1A9
330
498
100
AcDbEntity
  8
YKK_Z1
  6
Continuous
100
AcDbLine
 10
4002.0
 20
16088.19083064
 30
0.0
 11
4022.0
 21
16068.19084103
 31
0.0
  0
LINE
  5
1AA
330
498
100
AcDbEntity
  8
YKK_Z1
  6
Continuous
100
AcDbLine
 10
4002.0
 20
16068.19084103
 30
0.0
 11
4022.0
 21
16048.19085143
 31
0.0
  0
LINE
  5
1AC
330
498
100
AcDbEntity
  8
YKK_Z1
  6
Continuous
100
AcDbLine
 10
4022.0
 20
16028.1907094
 30
0.0
 11
4002.0
 21
16008.19070593
 31
0.0
  0
LINE
  5
1AD
330
498
100
AcDbEntity
  8
YKK_Z1
  6
Continuous
100
AcDbLine
 10
4022.0
 20
16008.19070593
 30
0.0
 11
4002.0
 21
15988.19070247
 31
0.0
  0
LINE
  5
1AE
330
498
100
AcDbEntity
  8
YKK_Z1
  6
Continuous
100
AcDbLine
 10
4022.0
 20
15988.19070247
 30
0.0
 11
4002.0
 21
15968.19069901
 31
0.0
  0
LINE
  5
1AF
330
498
100
AcDbEntity
  8
YKK_Z1
  6
Continuous
100
AcDbLine
 10
4022.0
 20
15968.19069901
 30
0.0
 11
4002.0
 21
15948.19069554
 31
0.0
  0
LINE
  5
1B0
330
498
100
AcDbEntity
  8
YKK_Z1
  6
Continuous
100
AcDbLine
 10
4022.0
 20
15948.19069554
 30
0.0
 11
4002.0
 21
15928.19069208
 31
0.0
  0
LINE
  5
1B1
330
498
100
AcDbEntity
  8
YKK_Z1
  6
Continuous
100
AcDbLine
 10
4022.0
 20
15928.19069208
 30
0.0
 11
4009.50005759
 21
15915.6907475
 31
0.0
  0
LINE
  5
1B2
330
498
100
AcDbEntity
  8
YKK_Z1
  6
Continuous
100
AcDbLine
 10
4002.0
 20
16028.19086182
 30
0.0
 11
4022.0
 21
16008.19087221
 31
0.0
  0
LINE
  5
1B3
330
498
100
AcDbEntity
  8
YKK_Z1
  6
Continuous
100
AcDbLine
 10
4002.0
 20
16008.19087221
 30
0.0
 11
4022.0
 21
15988.1908826
 31
0.0
  0
LINE
  5
1B4
330
498
100
AcDbEntity
  8
YKK_Z1
  6
Continuous
100
AcDbLine
 10
4002.0
 20
15988.1908826
 30
0.0
 11
4022.0
 21
15968.190893
 31
0.0
  0
LINE
  5
1B5
330
498
100
AcDbEntity
  8
YKK_Z1
  6
Continuous
100
AcDbLine
 10
4002.0
 20
15968.190893
 30
0.0
 11
4022.0
 21
15948.19090339
 31
0.0
  0
LINE
  5
1B6
330
498
100
AcDbEntity
  8
YKK_Z1
  6
Continuous
100
AcDbLine
 10
4002.0
 20
15948.19090339
 30
0.0
 11
4022.0
 21
15928.19091378
 31
0.0
  0
LINE
  5
1B7
330
498
100
AcDbEntity
  8
YKK_Z1
  6
Continuous
100
AcDbLine
 10
4002.0
 20
15928.19091378
 30
0.0
 11
4014.50017277
 21
15915.6907475
 31
0.0
  0
LINE
  5
1B8
330
498
100
AcDbEntity
  8
YKK_Z1
  6
Continuous
100
AcDbLine
 10
4022.0
 20
16048.19071286
 30
0.0
 11
4002.0
 21
16028.1907094
 31
0.0
  0
LINE
  5
1B9
330
498
100
AcDbEntity
  8
YKK_Z1
  6
Continuous
100
AcDbLine
 10
4002.0
 20
16048.19085143
 30
0.0
 11
4022.0
 21
16028.19086182
 31
0.0
  0
LINE
  5
1BA
330
498
100
AcDbEntity
  8
YKK_Z1
  6
Continuous
100
AcDbLine
 10
4002.0
 20
15915.6907475
 30
0.0
 11
4002.0
 21
16248.1907475
 31
0.0
  0
LINE
  5
1BB
330
498
100
AcDbEntity
  8
YKK_Z1
  6
Continuous
100
AcDbLine
 10
4022.0
 20
16248.1907475
 30
0.0
 11
4022.0
 21
15915.6907475
 31
0.0
  0
LINE
  5
1BC
330
498
100
AcDbEntity
  8
YKK_Z1
  6
Continuous
100
AcDbLine
 10
4022.0
 20
16228.19074404
 30
0.0
 11
4002.0
 21
16208.19074058
 31
0.0
  0
LINE
  5
1BD
330
498
100
AcDbEntity
  8
YKK_Z1
  6
Continuous
100
AcDbLine
 10
4002.0
 20
16228.1907579
 30
0.0
 11
4022.0
 21
16208.19076829
 31
0.0
  0
LINE
  5
1BE
330
498
100
AcDbEntity
  8
YKK_N1
  6
ByBlock
100
AcDbLine
 10
6553.5
 20
13624.5
 30
0.0
 11
8636.5
 21
13624.5
 31
0.0
  0
LINE
  5
1BF
330
498
100
AcDbEntity
  8
YKK_B1
100
AcDbLine
 10
6544.5
 20
14084.5
 30
0.0
 11
7560.5
 21
14084.5
 31
0.0
  0
LINE
  5
1C0
330
498
100
AcDbEntity
  8
YKK_B1
100
AcDbLine
 10
6572.5
 20
14024.5
 30
0.0
 11
7532.5
 21
14024.5
 31
0.0
  0
LINE
  5
1C1
330
498
100
AcDbEntity
  8
YKK_B1
100
AcDbLine
 10
6572.5
 20
14149.5
 30
0.0
 11
7532.5
 21
14149.5
 31
0.0
  0
LINE
  5
1C2
330
498
100
AcDbEntity
  8
YKK_Z1
  6
Continuous
100
AcDbLine
 10
6522.5
 20
13884.5
 30
0.0
 11
7595.0
 21
13884.5
 31
0.0
  0
LINE
  5
1C3
330
498
100
AcDbEntity
  8
YKK_N1
100
AcDbLine
 10
6838.5
 20
13887.5
 30
0.0
 11
6838.5
 21
13907.5
 31
0.0
  0
TEXT
  5
1C4
330
498
100
AcDbEntity
  8
YKK_N1
100
AcDbText
 10
6828.5
 20
13884.0
 30
0.0
 40
60.0
  1
137
 50
90.0
 41
0.8
  7
YKK_SGSTYLE1
100
AcDbText
  0
LINE
  5
1C5
330
498
100
AcDbEntity
  8
YKK_N1
  6
ByBlock
100
AcDbLine
 10
6552.5
 20
13964.5
 30
0.0
 11
6552.5
 21
13594.5
 31
0.0
  0
LINE
  5
1C6
330
498
100
AcDbEntity
  8
YKK_Z1
  6
Continuous
100
AcDbLine
 10
6522.5
 20
13907.0
 30
0.0
 11
6522.5
 21
13894.5
 31
0.0
  0
LINE
  5
1C7
330
498
100
AcDbEntity
  8
YKK_Z1
100
AcDbLine
 10
6547.5
 20
14024.5
 30
0.0
 11
6547.5
 21
13887.5
 31
0.0
  0
LINE
  5
1C8
330
498
100
AcDbEntity
  8
YKK_N1
  6
ByBlock
100
AcDbLine
 10
6607.5
 20
13887.5
 30
0.0
 11
6868.5
 21
13887.5
 31
0.0
  0
LINE
  5
1C9
330
498
100
AcDbEntity
  8
YKK_Z1
  6
Continuous
100
AcDbLine
 10
6522.5
 20
13894.5
 30
0.0
 11
6152.5
 21
13894.5
 31
0.0
  0
LINE
  5
1CA
330
498
100
AcDbEntity
  8
YKK_N1
  6
ByBlock
100
AcDbLine
 10
6639.10254038
 20
13674.5
 30
0.0
 11
6552.5
 21
13624.5
 31
0.0
  0
LINE
  5
1CB
330
498
100
AcDbEntity
  8
YKK_N1
  6
ByBlock
100
AcDbLine
 10
6639.10254038
 20
13574.5
 30
0.0
 11
6639.10254038
 21
13674.5
 31
0.0
  0
LINE
  5
1CC
330
498
100
AcDbEntity
  8
YKK_N1
  6
ByBlock
100
AcDbLine
 10
6552.5
 20
13624.5
 30
0.0
 11
6639.10254038
 21
13574.5
 31
0.0
  0
LINE
  5
1CD
330
498
100
AcDbEntity
  8
YKK_N1
  6
ByBlock
100
AcDbLine
 10
6552.5
 20
13624.5
 30
0.0
 11
6652.5
 21
13624.5
 31
0.0
  0
POINT
  5
1CE
330
498
100
AcDbEntity
  8
YKK_N1
  6
ByBlock
100
AcDbPoint
 10
6547.5
 20
13887.5
 30
0.0
  0
LINE
  5
1CF
330
498
100
AcDbEntity
  8
YKK_Z1
  6
Continuous
100
AcDbLine
 10
6522.5
 20
13887.5
 30
0.0
 11
6522.5
 21
13884.5
 31
0.0
  0
LINE
  5
1D0
330
498
100
AcDbEntity
  8
YKK_Z1
100
AcDbLine
 10
6547.5
 20
13887.5
 30
0.0
 11
6522.5
 21
13887.5
 31
0.0
  0
LINE
  5
1D1
330
498
100
AcDbEntity
  8
YKK_Z1
100
AcDbLine
 10
6522.5
 20
13887.5
 30
0.0
 11
6522.5
 21
13897.5
 31
0.0
  0
CIRCLE
  5
1D2
330
498
100
AcDbEntity
  8
YKK_N1
100
AcDbCircle
 10
6838.5
 20
13887.5
 30
0.0
 40
6.5
  0
CIRCLE
  5
1D3
330
498
100
AcDbEntity
  8
YKK_N1
100
AcDbCircle
 10
6838.5
 20
13887.5
 30
0.0
 40
10.0
  0
POINT
  5
1D4
330
498
100
AcDbEntity
  8
YKK_N1
  6
ByBlock
100
AcDbPoint
 10
6838.5
 20
13887.5
 30
0.0
  0
LINE
  5
1D5
330
498
100
AcDbEntity
  8
YKK_Z1
  6
Continuous
100
AcDbLine
 10
6389.99998614
 20
13922.5
 30
0.0
 11
6369.99998268
 21
13942.5
 31
0.0
  0
LINE
  5
1D6
330
498
100
AcDbEntity
  8
YKK_Z1
  6
Continuous
100
AcDbLine
 10
6390.00004157
 20
13942.5
 30
0.0
 11
6370.00005196
 21
13922.5
 31
0.0
  0
LINE
  5
1D7
330
498
100
AcDbEntity
  8
YKK_Z1
  6
Continuous
100
AcDbLine
 10
6152.5
 20
13942.5
 30
0.0
 11
6470.0
 21
13942.5
 31
0.0
  0
LINE
  5
1D8
330
498
100
AcDbEntity
  8
YKK_Z1
  6
Continuous
100
AcDbLine
 10
6485.0
 20
14122.5
 30
0.0
 11
6152.5
 21
14122.5
 31
0.0
  0
LINE
  5
1D9
330
498
100
AcDbEntity
  8
YKK_Z1
  6
CENTER
100
AcDbLine
 10
6486.75
 20
14032.5
 30
0.0
 11
6152.5
 21
14032.5
 31
0.0
  0
LINE
  5
1DA
330
498
100
AcDbEntity
  8
YKK_Z1
  6
Continuous
100
AcDbLine
 10
6470.0
 20
13922.5
 30
0.0
 11
6152.5
 21
13922.5
 31
0.0
  0
LINE
  5
1DB
330
498
100
AcDbEntity
  8
YKK_Z1
  6
Continuous
100
AcDbLine
 10
6483.5
 20
14134.5
 30
0.0
 11
6152.5
 21
14134.5
 31
0.0
  0
LINE
  5
1DC
330
498
100
AcDbEntity
  8
YKK_Z1
  6
Continuous
100
AcDbLine
 10
6483.5
 20
14126.5
 30
0.0
 11
6152.5
 21
14126.5
 31
0.0
  0
LINE
  5
1DD
330
498
100
AcDbEntity
  8
YKK_Z1
  6
Continuous
100
AcDbLine
 10
6152.5
 20
13907.0
 30
0.0
 11
6522.5
 21
13907.0
 31
0.0
  0
LINE
  5
1DE
330
498
100
AcDbEntity
  8
YKK_Z1
  6
Continuous
100
AcDbLine
 10
6373.5
 20
14134.5
 30
0.0
 11
6373.5
 21
14126.5
 31
0.0
  0
LINE
  5
1DF
330
498
100
AcDbEntity
  8
YKK_Z1
  6
Continuous
100
AcDbLine
 10
6273.5
 20
14134.5
 30
0.0
 11
6273.5
 21
14126.5
 31
0.0
  0
LINE
  5
1E0
330
498
100
AcDbEntity
  8
YKK_Z1
  6
Continuous
100
AcDbLine
 10
6263.5
 20
14134.5
 30
0.0
 11
6263.5
 21
14126.5
 31
0.0
  0
LINE
  5
1E1
330
498
100
AcDbEntity
  8
YKK_Z1
  6
Continuous
100
AcDbLine
 10
6163.5
 20
14134.5
 30
0.0
 11
6163.5
 21
14126.5
 31
0.0
  0
LINE
  5
1E2
330
498
100
AcDbEntity
  8
YKK_Z1
  6
Continuous
100
AcDbLine
 10
6153.5
 20
14134.5
 30
0.0
 11
6153.5
 21
14126.5
 31
0.0
  0
LINE
  5
1E3
330
498
100
AcDbEntity
  8
YKK_Z1
  6
Continuous
100
AcDbLine
 10
6369.99998268
 20
13922.5
 30
0.0
 11
6349.99997922
 21
13942.5
 31
0.0
  0
LINE
  5
1E4
330
498
100
AcDbEntity
  8
YKK_Z1
  6
Continuous
100
AcDbLine
 10
6349.99997922
 20
13922.5
 30
0.0
 11
6329.99997575
 21
13942.5
 31
0.0
  0
LINE
  5
1E5
330
498
100
AcDbEntity
  8
YKK_Z1
  6
Continuous
100
AcDbLine
 10
6329.99997575
 20
13922.5
 30
0.0
 11
6309.99997229
 21
13942.5
 31
0.0
  0
LINE
  5
1E6
330
498
100
AcDbEntity
  8
YKK_Z1
  6
Continuous
100
AcDbLine
 10
6370.00005196
 20
13942.5
 30
0.0
 11
6350.00006235
 21
13922.5
 31
0.0
  0
LINE
  5
1E7
330
498
100
AcDbEntity
  8
YKK_Z1
  6
Continuous
100
AcDbLine
 10
6350.00006235
 20
13942.5
 30
0.0
 11
6330.00007275
 21
13922.5
 31
0.0
  0
LINE
  5
1E8
330
498
100
AcDbEntity
  8
YKK_Z1
  6
Continuous
100
AcDbLine
 10
6330.00007275
 20
13942.5
 30
0.0
 11
6310.00008314
 21
13922.5
 31
0.0
  0
LINE
  5
1E9
330
498
100
AcDbEntity
  8
YKK_Z1
  6
Continuous
100
AcDbLine
 10
6289.99996882
 20
13922.5
 30
0.0
 11
6269.99996536
 21
13942.5
 31
0.0
  0
LINE
  5
1EA
330
498
100
AcDbEntity
  8
YKK_Z1
  6
Continuous
100
AcDbLine
 10
6269.99996536
 20
13922.5
 30
0.0
 11
6249.99996189
 21
13942.5
 31
0.0
  0
LINE
  5
1EB
330
498
100
AcDbEntity
  8
YKK_Z1
  6
Continuous
100
AcDbLine
 10
6249.99996189
 20
13922.5
 30
0.0
 11
6229.99995843
 21
13942.5
 31
0.0
  0
LINE
  5
1EC
330
498
100
AcDbEntity
  8
YKK_Z1
  6
Continuous
100
AcDbLine
 10
6229.99995843
 20
13922.5
 30
0.0
 11
6209.99995497
 21
13942.5
 31
0.0
  0
LINE
  5
1ED
330
498
100
AcDbEntity
  8
YKK_Z1
  6
Continuous
100
AcDbLine
 10
6209.99995497
 20
13922.5
 30
0.0
 11
6189.9999515
 21
13942.5
 31
0.0
  0
LINE
  5
1EE
330
498
100
AcDbEntity
  8
YKK_Z1
  6
Continuous
100
AcDbLine
 10
6290.00009353
 20
13942.5
 30
0.0
 11
6270.00010392
 21
13922.5
 31
0.0
  0
LINE
  5
1EF
330
498
100
AcDbEntity
  8
YKK_Z1
  6
Continuous
100
AcDbLine
 10
6270.00010392
 20
13942.5
 30
0.0
 11
6250.00011432
 21
13922.5
 31
0.0
  0
LINE
  5
1F0
330
498
100
AcDbEntity
  8
YKK_Z1
  6
Continuous
100
AcDbLine
 10
6250.00011432
 20
13942.5
 30
0.0
 11
6230.00012471
 21
13922.5
 31
0.0
  0
LINE
  5
1F1
330
498
100
AcDbEntity
  8
YKK_Z1
  6
Continuous
100
AcDbLine
 10
6230.00012471
 20
13942.5
 30
0.0
 11
6210.0001351
 21
13922.5
 31
0.0
  0
LINE
  5
1F2
330
498
100
AcDbEntity
  8
YKK_Z1
  6
Continuous
100
AcDbLine
 10
6210.0001351
 20
13942.5
 30
0.0
 11
6190.00014549
 21
13922.5
 31
0.0
  0
LINE
  5
1F3
330
498
100
AcDbEntity
  8
YKK_Z1
  6
Continuous
100
AcDbLine
 10
6309.99997229
 20
13922.5
 30
0.0
 11
6289.99996882
 21
13942.5
 31
0.0
  0
LINE
  5
1F4
330
498
100
AcDbEntity
  8
YKK_Z1
  6
Continuous
100
AcDbLine
 10
6310.00008314
 20
13942.5
 30
0.0
 11
6290.00009353
 21
13922.5
 31
0.0
  0
LINE
  5
1F5
330
498
100
AcDbEntity
  8
YKK_Z1
  6
Continuous
100
AcDbLine
 10
6169.99994804
 20
13922.5
 30
0.0
 11
6152.5
 21
13939.99994501
 31
0.0
  0
LINE
  5
1F6
330
498
100
AcDbEntity
  8
YKK_Z1
  6
Continuous
100
AcDbLine
 10
6170.00015588
 20
13942.5
 30
0.0
 11
6152.5
 21
13924.99983502
 31
0.0
  0
LINE
  5
1F7
330
498
100
AcDbEntity
  8
YKK_Z1
  6
Continuous
100
AcDbLine
 10
6189.9999515
 20
13922.5
 30
0.0
 11
6169.99994804
 21
13942.5
 31
0.0
  0
LINE
  5
1F8
330
498
100
AcDbEntity
  8
YKK_Z1
  6
Continuous
100
AcDbLine
 10
6190.00014549
 20
13942.5
 30
0.0
 11
6170.00015588
 21
13922.5
 31
0.0
  0
LINE
  5
1F9
330
498
100
AcDbEntity
  8
YKK_Z1
  6
Continuous
100
AcDbLine
 10
6332.49990647
 20
14122.5
 30
0.0
 11
6152.5
 21
13942.5
 31
0.0
  0
LINE
  5
1FA
330
498
100
AcDbEntity
  8
YKK_Z1
  6
Continuous
100
AcDbLine
 10
6340.98518417
 20
14122.5
 30
0.0
 11
6160.9852777
 21
13942.5
 31
0.0
  0
LINE
  5
1FB
330
498
100
AcDbEntity
  8
YKK_Z1
  6
Continuous
100
AcDbLine
 10
6360.78416547
 20
14122.5
 30
0.0
 11
6180.784259
 21
13942.5
 31
0.0
  0
POINT
  5
1FC
330
498
100
AcDbEntity
  8
YKK_N1
  6
ByBlock
100
AcDbPoint
 10
6552.5
 20
14024.5
 30
0.0
  0
LINE
  5
1FD
330
498
100
AcDbEntity
  8
YKK_B1
100
AcDbLine
 10
6552.5
 20
14064.5
 30
0.0
 11
6527.5
 21
14064.5
 31
0.0
  0
LINE
  5
1FE
330
498
100
AcDbEntity
  8
YKK_B1
100
AcDbLine
 10
6552.5
 20
14064.5
 30
0.0
 11
6552.5
 21
14074.5
 31
0.0
  0
LINE
  5
1FF
330
498
100
AcDbEntity
  8
YKK_B1
100
AcDbLine
 10
6527.5
 20
14064.5
 30
0.0
 11
6527.5
 21
14094.5
 31
0.0
  0
LINE
  5
200
330
498
100
AcDbEntity
  8
YKK_B1
100
AcDbLine
 10
6503.5
 20
14094.5
 30
0.0
 11
6503.5
 21
14087.5
 31
0.0
  0
LINE
  5
201
330
498
100
AcDbEntity
  8
YKK_B1
100
AcDbLine
 10
6512.5
 20
14094.5
 30
0.0
 11
6512.5
 21
14149.5
 31
0.0
  0
LINE
  5
202
330
498
100
AcDbEntity
  8
YKK_B1
100
AcDbLine
 10
6512.5
 20
14149.5
 30
0.0
 11
6507.5
 21
14149.5
 31
0.0
  0
LINE
  5
203
330
498
100
AcDbEntity
  8
YKK_B1
100
AcDbLine
 10
6507.5
 20
14149.5
 30
0.0
 11
6505.0
 21
14094.5
 31
0.0
  0
LINE
  5
204
330
498
100
AcDbEntity
  8
YKK_B1
100
AcDbLine
 10
6512.5
 20
14094.5
 30
0.0
 11
6500.0
 21
14094.5
 31
0.0
  0
LINE
  5
205
330
498
100
AcDbEntity
  8
YKK_B1
100
AcDbLine
 10
6552.5
 20
14094.5
 30
0.0
 11
6518.5
 21
14094.5
 31
0.0
  0
LINE
  5
206
330
498
100
AcDbEntity
  8
YKK_B1
100
AcDbLine
 10
6552.5
 20
14030.5
 30
0.0
 11
6535.5
 21
14030.5
 31
0.0
  0
LINE
  5
207
330
498
100
AcDbEntity
  8
YKK_B1
100
AcDbLine
 10
6512.5
 20
14024.5
 30
0.0
 11
6503.5
 21
14024.5
 31
0.0
  0
LINE
  5
208
330
498
100
AcDbEntity
  8
YKK_B1
100
AcDbLine
 10
6503.5
 20
14024.5
 30
0.0
 11
6503.5
 21
14031.5
 31
0.0
  0
LINE
  5
209
330
498
100
AcDbEntity
  8
YKK_B1
100
AcDbLine
 10
6552.5
 20
14024.5
 30
0.0
 11
6512.5
 21
14024.5
 31
0.0
  0
LINE
  5
20A
330
498
100
AcDbEntity
  8
YKK_B1
100
AcDbLine
 10
6512.5
 20
14024.5
 30
0.0
 11
6512.5
 21
14094.5
 31
0.0
  0
LINE
  5
20B
330
498
100
AcDbEntity
  8
YKK_B1
100
AcDbLine
 10
6552.5
 20
14030.5
 30
0.0
 11
6552.5
 21
14064.5
 31
0.0
  0
LINE
  5
20C
330
498
100
AcDbEntity
  8
YKK_B1
100
AcDbLine
 10
6544.0
 20
14030.5
 30
0.0
 11
6544.0
 21
14064.5
 31
0.0
  0
LINE
  5
20D
330
498
100
AcDbEntity
  8
YKK_Z1
  6
Continuous
100
AcDbLine
 10
6470.0
 20
14067.5
 30
0.0
 11
6485.0
 21
14077.5
 31
0.0
  0
LINE
  5
20E
330
498
100
AcDbEntity
  8
YKK_Z1
  6
Continuous
100
AcDbLine
 10
6485.0
 20
14077.5
 30
0.0
 11
6485.0
 21
14122.5
 31
0.0
  0
LINE
  5
20F
330
498
100
AcDbEntity
  8
YKK_Z1
  6
Continuous
100
AcDbLine
 10
6498.5
 20
14134.5
 30
0.0
 11
6483.5
 21
14134.5
 31
0.0
  0
LINE
  5
210
330
498
100
AcDbEntity
  8
YKK_Z1
  6
Continuous
100
AcDbLine
 10
6483.5
 20
14134.5
 30
0.0
 11
6483.5
 21
14126.5
 31
0.0
  0
LINE
  5
211
330
498
100
AcDbEntity
  8
YKK_Z1
  6
Continuous
100
AcDbLine
 10
6470.0
 20
13963.01529116
 30
0.0
 11
6449.4847195
 21
13942.5
 31
0.0
  0
LINE
  5
212
330
498
100
AcDbEntity
  8
YKK_Z1
  6
Continuous
100
AcDbLine
 10
6470.0
 20
13954.53000905
 30
0.0
 11
6457.9699972
 21
13942.5
 31
0.0
  0
LINE
  5
213
330
498
100
AcDbEntity
  8
YKK_Z1
  6
Continuous
100
AcDbLine
 10
6470.0
 20
13942.5
 30
0.0
 11
6470.0
 21
13922.5
 31
0.0
  0
LINE
  5
215
330
498
100
AcDbEntity
  8
YKK_Z1
  6
Continuous
100
AcDbLine
 10
6470.0
 20
13922.5
 30
0.0
 11
6449.99999654
 21
13942.5
 31
0.0
  0
LINE
  5
216
330
498
100
AcDbEntity
  8
YKK_Z1
  6
Continuous
100
AcDbLine
 10
6449.99999654
 20
13922.5
 30
0.0
 11
6429.99999307
 21
13942.5
 31
0.0
  0
LINE
  5
217
330
498
100
AcDbEntity
  8
YKK_Z1
  6
Continuous
100
AcDbLine
 10
6429.99999307
 20
13922.5
 30
0.0
 11
6409.99998961
 21
13942.5
 31
0.0
  0
LINE
  5
218
330
498
100
AcDbEntity
  8
YKK_Z1
  6
Continuous
100
AcDbLine
 10
6470.0
 20
13942.5
 30
0.0
 11
6450.00001039
 21
13922.5
 31
0.0
  0
LINE
  5
219
330
498
100
AcDbEntity
  8
YKK_Z1
  6
Continuous
100
AcDbLine
 10
6450.00001039
 20
13942.5
 30
0.0
 11
6430.00002078
 21
13922.5
 31
0.0
  0
LINE
  5
21A
330
498
100
AcDbEntity
  8
YKK_Z1
  6
Continuous
100
AcDbLine
 10
6430.00002078
 20
13942.5
 30
0.0
 11
6410.00003118
 21
13922.5
 31
0.0
  0
LINE
  5
21B
330
498
100
AcDbEntity
  8
YKK_Z1
  6
Continuous
100
AcDbLine
 10
6470.0
 20
13942.5
 30
0.0
 11
6470.0
 21
14067.5
 31
0.0
  0
LINE
  5
21C
330
498
100
AcDbEntity
  8
YKK_Z1
  6
Continuous
100
AcDbLine
 10
6383.5
 20
14134.5
 30
0.0
 11
6383.5
 21
14126.5
 31
0.0
  0
LINE
  5
21D
330
498
100
AcDbEntity
  8
YKK_Z1
  6
Continuous
100
AcDbLine
 10
6409.99998961
 20
13922.5
 30
0.0
 11
6389.99998614
 21
13942.5
 31
0.0
  0
LINE
  5
21E
330
498
100
AcDbEntity
  8
YKK_Z1
  6
Continuous
100
AcDbLine
 10
6410.00003118
 20
13942.5
 30
0.0
 11
6390.00004157
 21
13922.5
 31
0.0
  0
LINE
  5
21F
330
498
100
AcDbEntity
  8
YKK_N1
100
AcDbLine
 10
6838.5
 20
14024.5
 30
0.0
 11
6838.5
 21
14004.5
 31
0.0
  0
CIRCLE
  5
220
330
498
100
AcDbEntity
  8
YKK_N1
100
AcDbCircle
 10
6838.5
 20
14024.5
 30
0.0
 40
6.5
  0
CIRCLE
  5
221
330
498
100
AcDbEntity
  8
YKK_N1
100
AcDbCircle
 10
6838.5
 20
14024.5
 30
0.0
 40
10.0
  0
TEXT
  5
222
330
498
100
AcDbEntity
  8
YKK_N1
100
AcDbText
 10
6793.5
 20
14015.0
 30
0.0
 40
60.0
  1
125
 50
90.0
 41
0.8
  7
YKK_SGSTYLE1
100
AcDbText
  0
LINE
  5
223
330
498
100
AcDbEntity
  8
YKK_N1
100
AcDbLine
 10
6838.5
 20
14024.5
 30
0.0
 11
6838.5
 21
14044.5
 31
0.0
  0
CIRCLE
  5
224
330
498
100
AcDbEntity
  8
YKK_N1
100
AcDbCircle
 10
6838.5
 20
14024.5
 30
0.0
 40
6.5
  0
CIRCLE
  5
225
330
498
100
AcDbEntity
  8
YKK_N1
100
AcDbCircle
 10
6838.5
 20
14024.5
 30
0.0
 40
10.0
  0
LINE
  5
226
330
498
100
AcDbEntity
  8
YKK_N1
100
AcDbLine
 10
6838.5
 20
14149.5
 30
0.0
 11
6838.5
 21
14129.5
 31
0.0
  0
CIRCLE
  5
227
330
498
100
AcDbEntity
  8
YKK_N1
100
AcDbCircle
 10
6838.5
 20
14149.5
 30
0.0
 40
6.5
  0
CIRCLE
  5
228
330
498
100
AcDbEntity
  8
YKK_N1
100
AcDbCircle
 10
6838.5
 20
14149.5
 30
0.0
 40
10.0
  0
POINT
  5
229
330
498
100
AcDbEntity
  8
YKK_N1
  6
ByBlock
100
AcDbPoint
 10
6838.5
 20
14149.5
 30
0.0
  0
POINT
  5
22A
330
498
100
AcDbEntity
  8
YKK_N1
  6
ByBlock
100
AcDbPoint
 10
6848.5
 20
14149.5
 30
0.0
  0
POINT
  5
22B
330
498
100
AcDbEntity
  8
YKK_N1
  6
ByBlock
100
AcDbPoint
 10
6848.5
 20
14024.5
 30
0.0
  0
LINE
  5
22C
330
498
100
AcDbEntity
  8
YKK_N1
  6
ByBlock
100
AcDbLine
 10
6838.5
 20
14044.5
 30
0.0
 11
6838.5
 21
14129.5
 31
0.0
  0
LINE
  5
22D
330
498
100
AcDbEntity
  8
YKK_N1
  6
ByBlock
100
AcDbLine
 10
6788.5
 20
14149.5
 30
0.0
 11
6808.5
 21
14149.5
 31
0.0
  0
LINE
  5
22E
330
498
100
AcDbEntity
  8
YKK_N1
  6
ByBlock
100
AcDbLine
 10
6788.5
 20
14024.5
 30
0.0
 11
6808.5
 21
14024.5
 31
0.0
  0
POINT
  5
22F
330
498
100
AcDbEntity
  8
YKK_N1
  6
ByBlock
100
AcDbPoint
 10
6838.5
 20
14024.5
 30
0.0
  0
LINE
  5
230
330
498
100
AcDbEntity
  8
YKK_N1
  6
ByBlock
100
AcDbLine
 10
6838.5
 20
14004.5
 30
0.0
 11
6838.5
 21
13907.5
 31
0.0
  0
LINE
  5
231
330
498
100
AcDbEntity
  8
YKK_N1
  6
ByBlock
100
AcDbLine
 10
6778.5
 20
14024.5
 30
0.0
 11
6808.5
 21
14024.5
 31
0.0
  0
LINE
  5
232
330
498
100
AcDbEntity
  8
YKK_N1
  6
ByBlock
100
AcDbLine
 10
8637.5
 20
13964.5
 30
0.0
 11
8637.5
 21
13594.5
 31
0.0
  0
LINE
  5
233
330
498
100
AcDbEntity
  8
YKK_Z1
  6
Continuous
100
AcDbLine
 10
8667.5
 20
13907.0
 30
0.0
 11
8667.5
 21
13894.5
 31
0.0
  0
LINE
  5
234
330
498
100
AcDbEntity
  8
YKK_Z1
100
AcDbLine
 10
8642.5
 20
14024.5
 30
0.0
 11
8642.5
 21
13887.5
 31
0.0
  0
LINE
  5
235
330
498
100
AcDbEntity
  8
YKK_Z1
  6
Continuous
100
AcDbLine
 10
8667.5
 20
13884.5
 30
0.0
 11
7595.0
 21
13884.5
 31
0.0
  0
TEXT
  5
236
330
498
100
AcDbEntity
  8
YKK_N1
100
AcDbText
 10
7447.57142857
 20
13634.5
 30
0.0
 40
60.0
  1
W=2085
 41
0.8
  7
YKK_SGSTYLE1
100
AcDbText
  0
LINE
  5
237
330
498
100
AcDbEntity
  8
YKK_N1
  6
ByBlock
100
AcDbLine
 10
8550.89745962
 20
13574.5
 30
0.0
 11
8637.5
 21
13624.5
 31
0.0
  0
LINE
  5
238
330
498
100
AcDbEntity
  8
YKK_N1
  6
ByBlock
100
AcDbLine
 10
8550.89745962
 20
13674.5
 30
0.0
 11
8550.89745962
 21
13574.5
 31
0.0
  0
LINE
  5
239
330
498
100
AcDbEntity
  8
YKK_N1
  6
ByBlock
100
AcDbLine
 10
8637.5
 20
13624.5
 30
0.0
 11
8550.89745962
 21
13674.5
 31
0.0
  0
LINE
  5
23A
330
498
100
AcDbEntity
  8
YKK_N1
  6
ByBlock
100
AcDbLine
 10
8637.5
 20
13624.5
 30
0.0
 11
8537.5
 21
13624.5
 31
0.0
  0
POINT
  5
23B
330
498
100
AcDbEntity
  8
YKK_N1
  6
ByBlock
100
AcDbPoint
 10
8637.5
 20
13624.5
 30
0.0
  0
LINE
  5
23C
330
498
100
AcDbEntity
  8
YKK_Z1
  6
Continuous
100
AcDbLine
 10
8667.5
 20
13887.5
 30
0.0
 11
8667.5
 21
13884.5
 31
0.0
  0
LINE
  5
23D
330
498
100
AcDbEntity
  8
YKK_Z1
100
AcDbLine
 10
8642.5
 20
13887.5
 30
0.0
 11
8667.5
 21
13887.5
 31
0.0
  0
LINE
  5
23E
330
498
100
AcDbEntity
  8
YKK_Z1
100
AcDbLine
 10
8667.5
 20
13887.5
 30
0.0
 11
8667.5
 21
13897.5
 31
0.0
  0
LINE
  5
23F
330
498
100
AcDbEntity
  8
YKK_B1
100
AcDbLine
 10
7617.5
 20
14084.5
 30
0.0
 11
8657.5
 21
14084.5
 31
0.0
  0
LINE
  5
240
330
498
100
AcDbEntity
  8
YKK_B1
100
AcDbLine
 10
7657.5
 20
14024.5
 30
0.0
 11
8617.5
 21
14024.5
 31
0.0
  0
LINE
  5
241
330
498
100
AcDbEntity
  8
YKK_B1
100
AcDbLine
 10
7617.5
 20
14149.5
 30
0.0
 11
8657.5
 21
14149.5
 31
0.0
  0
LINE
  5
242
330
498
100
AcDbEntity
  8
YKK_B1
100
AcDbLine
 10
7552.5
 20
14064.5
 30
0.0
 11
7577.5
 21
14064.5
 31
0.0
  0
LINE
  5
243
330
498
100
AcDbEntity
  8
YKK_B1
100
AcDbLine
 10
7552.5
 20
14094.5
 30
0.0
 11
7586.5
 21
14094.5
 31
0.0
  0
LINE
  5
244
330
498
100
AcDbEntity
  8
YKK_B1
100
AcDbLine
 10
7552.5
 20
14064.5
 30
0.0
 11
7552.5
 21
14074.5
 31
0.0
  0
LINE
  5
245
330
498
100
AcDbEntity
  8
YKK_B1
100
AcDbLine
 10
7577.5
 20
14064.5
 30
0.0
 11
7577.5
 21
14094.5
 31
0.0
  0
LINE
  5
246
330
498
100
AcDbEntity
  8
YKK_B1
100
AcDbLine
 10
7637.5
 20
14064.5
 30
0.0
 11
7597.5
 21
14064.5
 31
0.0
  0
LINE
  5
247
330
498
100
AcDbEntity
  8
YKK_B1
100
AcDbLine
 10
7637.5
 20
14094.5
 30
0.0
 11
7597.5
 21
14094.5
 31
0.0
  0
LINE
  5
248
330
498
100
AcDbEntity
  8
YKK_B1
100
AcDbLine
 10
7592.5
 20
14094.5
 30
0.0
 11
7597.5
 21
14094.5
 31
0.0
  0
LINE
  5
249
330
498
100
AcDbEntity
  8
YKK_B1
100
AcDbLine
 10
7592.5
 20
14094.5
 30
0.0
 11
7592.5
 21
14079.5
 31
0.0
  0
LINE
  5
24A
330
498
100
AcDbEntity
  8
YKK_B1
100
AcDbLine
 10
7532.5
 20
14149.5
 30
0.0
 11
7657.5
 21
14149.5
 31
0.0
  0
LINE
  5
24B
330
498
100
AcDbEntity
  8
YKK_B1
100
AcDbLine
 10
7552.5
 20
14030.5
 30
0.0
 11
7569.5
 21
14030.5
 31
0.0
  0
LINE
  5
24C
330
498
100
AcDbEntity
  8
YKK_B1
100
AcDbLine
 10
7552.5
 20
14026.5
 30
0.0
 11
7592.5
 21
14026.5
 31
0.0
  0
LINE
  5
24D
330
498
100
AcDbEntity
  8
YKK_B1
100
AcDbLine
 10
7592.5
 20
14026.5
 30
0.0
 11
7637.5
 21
14026.5
 31
0.0
  0
LINE
  5
24E
330
498
100
AcDbEntity
  8
YKK_B1
100
AcDbLine
 10
7637.5
 20
14026.5
 30
0.0
 11
7637.5
 21
14029.0
 31
0.0
  0
LINE
  5
24F
330
498
100
AcDbEntity
  8
YKK_B1
100
AcDbLine
 10
7532.5
 20
14024.5
 30
0.0
 11
7657.5
 21
14024.5
 31
0.0
  0
LINE
  5
250
330
498
100
AcDbEntity
  8
YKK_B1
100
AcDbLine
 10
7552.5
 20
14030.5
 30
0.0
 11
7552.5
 21
14064.5
 31
0.0
  0
LINE
  5
251
330
498
100
AcDbEntity
  8
YKK_B1
100
AcDbLine
 10
7561.0
 20
14030.5
 30
0.0
 11
7561.0
 21
14064.5
 31
0.0
  0
LINE
  5
252
330
498
100
AcDbEntity
  8
YKK_B1
100
AcDbLine
 10
7592.5
 20
14026.5
 30
0.0
 11
7592.5
 21
14079.5
 31
0.0
  0
LINE
  5
253
330
498
100
AcDbEntity
  8
YKK_B1
100
AcDbLine
 10
7637.5
 20
14029.0
 30
0.0
 11
7637.5
 21
14074.5
 31
0.0
  0
LINE
  5
254
330
498
100
AcDbEntity
  8
YKK_B1
100
AcDbLine
 10
7597.5
 20
14029.0
 30
0.0
 11
7597.5
 21
14094.5
 31
0.0
  0
POINT
  5
255
330
498
100
AcDbEntity
  8
YKK_N1
  6
ByBlock
100
AcDbPoint
 10
8637.5
 20
14024.5
 30
0.0
  0
LINE
  5
256
330
498
100
AcDbEntity
  8
YKK_B1
100
AcDbLine
 10
8637.5
 20
14064.5
 30
0.0
 11
8677.5
 21
14064.5
 31
0.0
  0
LINE
  5
257
330
498
100
AcDbEntity
  8
YKK_B1
100
AcDbLine
 10
8637.5
 20
14094.5
 30
0.0
 11
8677.5
 21
14094.5
 31
0.0
  0
LINE
  5
258
330
498
100
AcDbEntity
  8
YKK_B1
100
AcDbLine
 10
8677.5
 20
14094.5
 30
0.0
 11
8690.0
 21
14094.5
 31
0.0
  0
LINE
  5
259
330
498
100
AcDbEntity
  8
YKK_B1
100
AcDbLine
 10
8686.5
 20
14094.5
 30
0.0
 11
8686.5
 21
14087.5
 31
0.0
  0
LINE
  5
25A
330
498
100
AcDbEntity
  8
YKK_B1
100
AcDbLine
 10
8677.5
 20
14094.5
 30
0.0
 11
8677.5
 21
14149.5
 31
0.0
  0
LINE
  5
25B
330
498
100
AcDbEntity
  8
YKK_B1
100
AcDbLine
 10
8677.5
 20
14149.5
 30
0.0
 11
8682.5
 21
14149.5
 31
0.0
  0
LINE
  5
25C
330
498
100
AcDbEntity
  8
YKK_B1
100
AcDbLine
 10
8682.5
 20
14149.5
 30
0.0
 11
8685.0
 21
14094.5
 31
0.0
  0
LINE
  5
25D
330
498
100
AcDbEntity
  8
YKK_B1
100
AcDbLine
 10
8637.5
 20
14024.5
 30
0.0
 11
8677.5
 21
14024.5
 31
0.0
  0
LINE
  5
25E
330
498
100
AcDbEntity
  8
YKK_B1
100
AcDbLine
 10
8677.5
 20
14024.5
 30
0.0
 11
8686.5
 21
14024.5
 31
0.0
  0
LINE
  5
25F
330
498
100
AcDbEntity
  8
YKK_B1
100
AcDbLine
 10
8686.5
 20
14024.5
 30
0.0
 11
8686.5
 21
14031.5
 31
0.0
  0
LINE
  5
260
330
498
100
AcDbEntity
  8
YKK_B1
100
AcDbLine
 10
8637.5
 20
14024.5
 30
0.0
 11
8637.5
 21
14074.5
 31
0.0
  0
LINE
  5
261
330
498
100
AcDbEntity
  8
YKK_B1
100
AcDbLine
 10
8677.5
 20
14024.5
 30
0.0
 11
8677.5
 21
14094.5
 31
0.0
  0
LINE
  5
262
330
498
100
AcDbEntity
  8
YKK_Z1
  6
Continuous
100
AcDbLine
 10
8720.0
 20
14067.5
 30
0.0
 11
8705.0
 21
14077.5
 31
0.0
  0
LINE
  5
263
330
498
100
AcDbEntity
  8
YKK_Z1
  6
Continuous
100
AcDbLine
 10
8705.0
 20
14077.5
 30
0.0
 11
8705.0
 21
14122.5
 31
0.0
  0
LINE
  5
264
330
498
100
AcDbEntity
  8
YKK_Z1
  6
Continuous
100
AcDbLine
 10
8700.0
 20
14134.5
 30
0.0
 11
8700.0
 21
14126.5
 31
0.0
  0
LINE
  5
265
330
498
100
AcDbEntity
  8
YKK_Z1
  6
Continuous
100
AcDbLine
 10
8720.0
 20
13942.5
 30
0.0
 11
8720.0
 21
13922.5
 31
0.0
  0
LINE
  5
267
330
498
100
AcDbEntity
  8
YKK_Z1
  6
Continuous
100
AcDbLine
 10
8720.0
 20
13922.5
 30
0.0
 11
8740.00000346
 21
13942.5
 31
0.0
  0
LINE
  5
268
330
498
100
AcDbEntity
  8
YKK_Z1
  6
Continuous
100
AcDbLine
 10
8740.00000346
 20
13922.5
 30
0.0
 11
8760.00000693
 21
13942.5
 31
0.0
  0
LINE
  5
269
330
498
100
AcDbEntity
  8
YKK_Z1
  6
Continuous
100
AcDbLine
 10
8760.00000693
 20
13922.5
 30
0.0
 11
8780.00001039
 21
13942.5
 31
0.0
  0
LINE
  5
26A
330
498
100
AcDbEntity
  8
YKK_Z1
  6
Continuous
100
AcDbLine
 10
8720.0
 20
13942.5
 30
0.0
 11
8739.99998961
 21
13922.5
 31
0.0
  0
LINE
  5
26B
330
498
100
AcDbEntity
  8
YKK_Z1
  6
Continuous
100
AcDbLine
 10
8739.99998961
 20
13942.5
 30
0.0
 11
8759.99997922
 21
13922.5
 31
0.0
  0
LINE
  5
26C
330
498
100
AcDbEntity
  8
YKK_Z1
  6
Continuous
100
AcDbLine
 10
8759.99997922
 20
13942.5
 30
0.0
 11
8779.99996882
 21
13922.5
 31
0.0
  0
LINE
  5
26D
330
498
100
AcDbEntity
  8
YKK_Z1
  6
Continuous
100
AcDbLine
 10
8720.0
 20
13942.5
 30
0.0
 11
8720.0
 21
14067.5
 31
0.0
  0
LINE
  5
26E
330
498
100
AcDbEntity
  8
YKK_Z1
  6
Continuous
100
AcDbLine
 10
8691.5
 20
14134.5
 30
0.0
 11
8700.0
 21
14134.5
 31
0.0
  0
LINE
  5
26F
330
498
100
AcDbEntity
  8
YKK_N1
  6
ByBlock
100
AcDbLine
 10
6553.5
 20
15715.6907475
 30
0.0
 11
8636.5
 21
15715.6907475
 31
0.0
  0
LINE
  5
270
330
498
100
AcDbEntity
  8
YKK_N1
  6
ByBlock
100
AcDbLine
 10
6572.5
 20
15915.6907475
 30
0.0
 11
7532.5
 21
15915.6907475
 31
0.0
  0
LINE
  5
271
330
498
100
AcDbEntity
  8
YKK_N1
  6
ByBlock
100
AcDbLine
 10
6639.10254038
 20
15765.6907475
 30
0.0
 11
6552.5
 21
15715.6907475
 31
0.0
  0
LINE
  5
272
330
498
100
AcDbEntity
  8
YKK_N1
  6
ByBlock
100
AcDbLine
 10
6639.10254038
 20
15665.6907475
 30
0.0
 11
6639.10254038
 21
15765.6907475
 31
0.0
  0
LINE
  5
273
330
498
100
AcDbEntity
  8
YKK_N1
  6
ByBlock
100
AcDbLine
 10
6552.5
 20
15715.6907475
 30
0.0
 11
6639.10254038
 21
15665.6907475
 31
0.0
  0
LINE
  5
274
330
498
100
AcDbEntity
  8
YKK_N1
  6
ByBlock
100
AcDbLine
 10
6552.5
 20
15715.6907475
 30
0.0
 11
6652.5
 21
15715.6907475
 31
0.0
  0
LINE
  5
275
330
498
100
AcDbEntity
  8
YKK_N1
100
AcDbLine
 10
6552.5
 20
15915.6907475
 30
0.0
 11
6572.5
 21
15915.6907475
 31
0.0
  0
CIRCLE
  5
276
330
498
100
AcDbEntity
  8
YKK_N1
100
AcDbCircle
 10
6552.5
 20
15915.6907475
 30
0.0
 40
6.5
  0
CIRCLE
  5
277
330
498
100
AcDbEntity
  8
YKK_N1
100
AcDbCircle
 10
6552.5
 20
15915.6907475
 30
0.0
 40
10.0
  0
TEXT
  5
278
330
498
100
AcDbEntity
  8
YKK_N1
100
AcDbText
 10
6957.64285714
 20
15925.6907475
 30
0.0
 40
60.0
  1
1000
 41
0.8
  7
YKK_SGSTYLE1
100
AcDbText
  0
TEXT
  5
279
330
498
100
AcDbEntity
  8
YKK_N1
100
AcDbText
 10
8042.64285714
 20
15925.6907475
 30
0.0
 40
60.0
  1
1000
 41
0.8
  7
YKK_SGSTYLE1
100
AcDbText
  0
LINE
  5
27A
330
498
100
AcDbEntity
  8
YKK_N1
  6
ByBlock
100
AcDbLine
 10
7657.5
 20
15915.6907475
 30
0.0
 11
8617.5
 21
15915.6907475
 31
0.0
  0
TEXT
  5
27B
330
498
100
AcDbEntity
  8
YKK_N1
100
AcDbText
 10
7549.28571429
 20
15818.1907475
 30
0.0
 40
60.0
  1
85
 41
0.8
  7
YKK_SGSTYLE1
100
AcDbText
  0
TEXT
  5
27C
330
498
100
AcDbEntity
  8
YKK_N1
100
AcDbText
 10
7447.57142857
 20
15725.6907475
 30
0.0
 40
60.0
  1
W=2085
 41
0.8
  7
YKK_SGSTYLE1
100
AcDbText
  0
LINE
  5
27D
330
498
100
AcDbEntity
  8
YKK_N1
100
AcDbLine
 10
7552.5
 20
15915.6907475
 30
0.0
 11
7572.5
 21
15915.6907475
 31
0.0
  0
CIRCLE
  5
27E
330
498
100
AcDbEntity
  8
YKK_N1
100
AcDbCircle
 10
7552.5
 20
15915.6907475
 30
0.0
 40
6.5
  0
CIRCLE
  5
27F
330
498
100
AcDbEntity
  8
YKK_N1
100
AcDbCircle
 10
7552.5
 20
15915.6907475
 30
0.0
 40
10.0
  0
LINE
  5
280
330
498
100
AcDbEntity
  8
YKK_N1
100
AcDbLine
 10
7637.5
 20
15915.6907475
 30
0.0
 11
7617.5
 21
15915.6907475
 31
0.0
  0
CIRCLE
  5
281
330
498
100
AcDbEntity
  8
YKK_N1
100
AcDbCircle
 10
7637.5
 20
15915.6907475
 30
0.0
 40
6.5
  0
CIRCLE
  5
282
330
498
100
AcDbEntity
  8
YKK_N1
100
AcDbCircle
 10
7637.5
 20
15915.6907475
 30
0.0
 40
10.0
  0
LINE
  5
283
330
498
100
AcDbEntity
  8
YKK_N1
100
AcDbLine
 10
7637.5
 20
15915.6907475
 30
0.0
 11
7657.5
 21
15915.6907475
 31
0.0
  0
CIRCLE
  5
284
330
498
100
AcDbEntity
  8
YKK_N1
100
AcDbCircle
 10
7637.5
 20
15915.6907475
 30
0.0
 40
6.5
  0
CIRCLE
  5
285
330
498
100
AcDbEntity
  8
YKK_N1
100
AcDbCircle
 10
7637.5
 20
15915.6907475
 30
0.0
 40
10.0
  0
LINE
  5
286
330
498
100
AcDbEntity
  8
YKK_N1
100
AcDbLine
 10
7552.5
 20
15915.6907475
 30
0.0
 11
7532.5
 21
15915.6907475
 31
0.0
  0
CIRCLE
  5
287
330
498
100
AcDbEntity
  8
YKK_N1
100
AcDbCircle
 10
7552.5
 20
15915.6907475
 30
0.0
 40
6.5
  0
CIRCLE
  5
288
330
498
100
AcDbEntity
  8
YKK_N1
100
AcDbCircle
 10
7552.5
 20
15915.6907475
 30
0.0
 40
10.0
  0
POINT
  5
289
330
498
100
AcDbEntity
  8
YKK_N1
  6
ByBlock
100
AcDbPoint
 10
7552.5
 20
15915.6907475
 30
0.0
  0
POINT
  5
28A
330
498
100
AcDbEntity
  8
YKK_N1
  6
ByBlock
100
AcDbPoint
 10
7637.5
 20
15915.6907475
 30
0.0
  0
LINE
  5
28B
330
498
100
AcDbEntity
  8
YKK_N1
  6
ByBlock
100
AcDbLine
 10
7572.5
 20
15915.6907475
 30
0.0
 11
7617.5
 21
15915.6907475
 31
0.0
  0
LINE
  5
28C
330
498
100
AcDbEntity
  8
YKK_N1
  6
ByBlock
100
AcDbLine
 10
8550.89745962
 20
15665.6907475
 30
0.0
 11
8637.5
 21
15715.6907475
 31
0.0
  0
LINE
  5
28D
330
498
100
AcDbEntity
  8
YKK_N1
  6
ByBlock
100
AcDbLine
 10
8550.89745962
 20
15765.6907475
 30
0.0
 11
8550.89745962
 21
15665.6907475
 31
0.0
  0
LINE
  5
28E
330
498
100
AcDbEntity
  8
YKK_N1
  6
ByBlock
100
AcDbLine
 10
8637.5
 20
15715.6907475
 30
0.0
 11
8550.89745962
 21
15765.6907475
 31
0.0
  0
LINE
  5
28F
330
498
100
AcDbEntity
  8
YKK_N1
  6
ByBlock
100
AcDbLine
 10
8637.5
 20
15715.6907475
 30
0.0
 11
8537.5
 21
15715.6907475
 31
0.0
  0
POINT
  5
290
330
498
100
AcDbEntity
  8
YKK_N1
  6
ByBlock
100
AcDbPoint
 10
8637.5
 20
15715.6907475
 30
0.0
  0
LINE
  5
291
330
498
100
AcDbEntity
  8
YKK_N1
100
AcDbLine
 10
8637.5
 20
15915.6907475
 30
0.0
 11
8617.5
 21
15915.6907475
 31
0.0
  0
CIRCLE
  5
292
330
498
100
AcDbEntity
  8
YKK_N1
100
AcDbCircle
 10
8637.5
 20
15915.6907475
 30
0.0
 40
6.5
  0
CIRCLE
  5
293
330
498
100
AcDbEntity
  8
YKK_N1
100
AcDbCircle
 10
8637.5
 20
15915.6907475
 30
0.0
 40
10.0
  0
POINT
  5
294
330
498
100
AcDbEntity
  8
YKK_N1
  6
ByBlock
100
AcDbPoint
 10
8637.5
 20
15915.6907475
 30
0.0
  0
LINE
  5
295
330
498
100
AcDbEntity
  8
YKK_Z1
  6
Continuous
100
AcDbLine
 10
9020.0
 20
14134.5
 30
0.0
 11
9020.0
 21
14126.5
 31
0.0
  0
LINE
  5
296
330
498
100
AcDbEntity
  8
YKK_Z1
  6
Continuous
100
AcDbLine
 10
9030.0
 20
14134.5
 30
0.0
 11
9030.0
 21
14126.5
 31
0.0
  0
LINE
  5
297
330
498
100
AcDbEntity
  8
YKK_Z1
  6
Continuous
100
AcDbLine
 10
8810.0
 20
14134.5
 30
0.0
 11
8810.0
 21
14126.5
 31
0.0
  0
LINE
  5
298
330
498
100
AcDbEntity
  8
YKK_Z1
  6
Continuous
100
AcDbLine
 10
8910.0
 20
14134.5
 30
0.0
 11
8910.0
 21
14126.5
 31
0.0
  0
LINE
  5
299
330
498
100
AcDbEntity
  8
YKK_Z1
  6
Continuous
100
AcDbLine
 10
8920.0
 20
14134.5
 30
0.0
 11
8920.0
 21
14126.5
 31
0.0
  0
LINE
  5
29A
330
498
100
AcDbEntity
  8
YKK_Z1
  6
Continuous
100
AcDbLine
 10
8800.0
 20
14134.5
 30
0.0
 11
8800.0
 21
14126.5
 31
0.0
  0
LINE
  5
29C
330
498
100
AcDbEntity
  8
YKK_Z1
  6
Continuous
100
AcDbLine
 10
8940.00003811
 20
13922.5
 30
0.0
 11
8960.00004157
 21
13942.5
 31
0.0
  0
LINE
  5
29D
330
498
100
AcDbEntity
  8
YKK_Z1
  6
Continuous
100
AcDbLine
 10
8960.00004157
 20
13922.5
 30
0.0
 11
8980.00004503
 21
13942.5
 31
0.0
  0
LINE
  5
29E
330
498
100
AcDbEntity
  8
YKK_Z1
  6
Continuous
100
AcDbLine
 10
8980.00004503
 20
13922.5
 30
0.0
 11
9000.0000485
 21
13942.5
 31
0.0
  0
LINE
  5
29F
330
498
100
AcDbEntity
  8
YKK_Z1
  6
Continuous
100
AcDbLine
 10
9000.0000485
 20
13922.5
 30
0.0
 11
9020.00005196
 21
13942.5
 31
0.0
  0
LINE
  5
2A0
330
498
100
AcDbEntity
  8
YKK_Z1
  6
Continuous
100
AcDbLine
 10
9020.00005196
 20
13922.5
 30
0.0
 11
9037.5
 21
13939.99994501
 31
0.0
  0
LINE
  5
2A1
330
498
100
AcDbEntity
  8
YKK_Z1
  6
Continuous
100
AcDbLine
 10
8939.99988568
 20
13942.5
 30
0.0
 11
8959.99987529
 21
13922.5
 31
0.0
  0
LINE
  5
2A2
330
498
100
AcDbEntity
  8
YKK_Z1
  6
Continuous
100
AcDbLine
 10
8959.99987529
 20
13942.5
 30
0.0
 11
8979.9998649
 21
13922.5
 31
0.0
  0
LINE
  5
2A3
330
498
100
AcDbEntity
  8
YKK_Z1
  6
Continuous
100
AcDbLine
 10
8979.9998649
 20
13942.5
 30
0.0
 11
8999.99985451
 21
13922.5
 31
0.0
  0
LINE
  5
2A4
330
498
100
AcDbEntity
  8
YKK_Z1
  6
Continuous
100
AcDbLine
 10
8999.99985451
 20
13942.5
 30
0.0
 11
9019.99984412
 21
13922.5
 31
0.0
  0
LINE
  5
2A5
330
498
100
AcDbEntity
  8
YKK_Z1
  6
Continuous
100
AcDbLine
 10
9019.99984412
 20
13942.5
 30
0.0
 11
9037.5
 21
13924.99983502
 31
0.0
  0
LINE
  5
2A6
330
498
100
AcDbEntity
  8
YKK_Z1
  6
Continuous
100
AcDbLine
 10
8820.00001732
 20
13922.5
 30
0.0
 11
8840.00002078
 21
13942.5
 31
0.0
  0
LINE
  5
2A7
330
498
100
AcDbEntity
  8
YKK_Z1
  6
Continuous
100
AcDbLine
 10
8840.00002078
 20
13922.5
 30
0.0
 11
8860.00002425
 21
13942.5
 31
0.0
  0
LINE
  5
2A8
330
498
100
AcDbEntity
  8
YKK_Z1
  6
Continuous
100
AcDbLine
 10
8860.00002425
 20
13922.5
 30
0.0
 11
8880.00002771
 21
13942.5
 31
0.0
  0
LINE
  5
2A9
330
498
100
AcDbEntity
  8
YKK_Z1
  6
Continuous
100
AcDbLine
 10
8880.00002771
 20
13922.5
 30
0.0
 11
8900.00003118
 21
13942.5
 31
0.0
  0
LINE
  5
2AA
330
498
100
AcDbEntity
  8
YKK_Z1
  6
Continuous
100
AcDbLine
 10
8900.00003118
 20
13922.5
 30
0.0
 11
8920.00003464
 21
13942.5
 31
0.0
  0
LINE
  5
2AB
330
498
100
AcDbEntity
  8
YKK_Z1
  6
Continuous
100
AcDbLine
 10
8819.99994804
 20
13942.5
 30
0.0
 11
8839.99993765
 21
13922.5
 31
0.0
  0
LINE
  5
2AC
330
498
100
AcDbEntity
  8
YKK_Z1
  6
Continuous
100
AcDbLine
 10
8839.99993765
 20
13942.5
 30
0.0
 11
8859.99992725
 21
13922.5
 31
0.0
  0
LINE
  5
2AD
330
498
100
AcDbEntity
  8
YKK_Z1
  6
Continuous
100
AcDbLine
 10
8859.99992725
 20
13942.5
 30
0.0
 11
8879.99991686
 21
13922.5
 31
0.0
  0
LINE
  5
2AE
330
498
100
AcDbEntity
  8
YKK_Z1
  6
Continuous
100
AcDbLine
 10
8879.99991686
 20
13942.5
 30
0.0
 11
8899.99990647
 21
13922.5
 31
0.0
  0
LINE
  5
2AF
330
498
100
AcDbEntity
  8
YKK_Z1
  6
Continuous
100
AcDbLine
 10
8899.99990647
 20
13942.5
 30
0.0
 11
8919.99989608
 21
13922.5
 31
0.0
  0
LINE
  5
2B0
330
498
100
AcDbEntity
  8
YKK_Z1
  6
Continuous
100
AcDbLine
 10
8800.00001386
 20
13922.5
 30
0.0
 11
8820.00001732
 21
13942.5
 31
0.0
  0
LINE
  5
2B1
330
498
100
AcDbEntity
  8
YKK_Z1
  6
Continuous
100
AcDbLine
 10
8799.99995843
 20
13942.5
 30
0.0
 11
8819.99994804
 21
13922.5
 31
0.0
  0
LINE
  5
2B2
330
498
100
AcDbEntity
  8
YKK_Z1
  6
Continuous
100
AcDbLine
 10
8920.00003464
 20
13922.5
 30
0.0
 11
8940.00003811
 21
13942.5
 31
0.0
  0
LINE
  5
2B3
330
498
100
AcDbEntity
  8
YKK_Z1
  6
Continuous
100
AcDbLine
 10
8919.99989608
 20
13942.5
 30
0.0
 11
8939.99988568
 21
13922.5
 31
0.0
  0
LINE
  5
2B4
330
498
100
AcDbEntity
  8
YKK_Z1
  6
Continuous
100
AcDbLine
 10
10184.5
 20
16248.1907475
 30
0.0
 11
10174.5
 21
16233.1907475
 31
0.0
  0
LINE
  5
2B5
330
498
100
AcDbEntity
  8
YKK_Z1
  6
Continuous
100
AcDbLine
 10
10244.5
 20
16212.67567276
 30
0.0
 11
10064.5
 21
16032.67564158
 31
0.0
  0
LINE
  5
2B6
330
498
100
AcDbEntity
  8
YKK_Z1
  6
Continuous
100
AcDbLine
 10
10244.5
 20
16204.19038918
 30
0.0
 11
10064.5
 21
16024.19035801
 31
0.0
  0
LINE
  5
2B7
330
498
100
AcDbEntity
  8
YKK_Z1
  6
Continuous
100
AcDbLine
 10
10244.5
 20
16184.39139417
 30
0.0
 11
10064.5
 21
16004.39136299
 31
0.0
  0
LINE
  5
2B8
330
498
100
AcDbEntity
  8
YKK_Z1
  6
CENTER
100
AcDbLine
 10
10154.5
 20
16243.1907475
 30
0.0
 11
10154.5
 21
15915.6907475
 31
0.0
  0
LINE
  5
2B9
330
498
100
AcDbEntity
  8
YKK_Z1
  6
Continuous
100
AcDbLine
 10
10052.5
 20
16238.1907475
 30
0.0
 11
10060.5
 21
16238.1907475
 31
0.0
  0
LINE
  5
2BA
330
498
100
AcDbEntity
  8
YKK_Z1
  6
Continuous
100
AcDbLine
 10
10052.5
 20
16138.1907475
 30
0.0
 11
10060.5
 21
16138.1907475
 31
0.0
  0
LINE
  5
2BB
330
498
100
AcDbEntity
  8
YKK_Z1
  6
Continuous
100
AcDbLine
 10
10052.5
 20
16128.1907475
 30
0.0
 11
10060.5
 21
16128.1907475
 31
0.0
  0
LINE
  5
2BC
330
498
100
AcDbEntity
  8
YKK_Z1
  6
Continuous
100
AcDbLine
 10
10052.5
 20
16028.1907475
 30
0.0
 11
10060.5
 21
16028.1907475
 31
0.0
  0
LINE
  5
2BD
330
498
100
AcDbEntity
  8
YKK_Z1
  6
Continuous
100
AcDbLine
 10
10052.5
 20
16018.1907475
 30
0.0
 11
10060.5
 21
16018.1907475
 31
0.0
  0
LINE
  5
2BE
330
498
100
AcDbEntity
  8
YKK_Z1
  6
Continuous
100
AcDbLine
 10
10052.5
 20
15918.1907475
 30
0.0
 11
10060.5
 21
15918.1907475
 31
0.0
  0
LINE
  5
2BF
330
498
100
AcDbEntity
  8
YKK_Z1
  6
Continuous
100
AcDbLine
 10
10052.5
 20
15908.1907475
 30
0.0
 11
10060.5
 21
15908.1907475
 31
0.0
  0
LINE
  5
2C0
330
498
100
AcDbEntity
  8
YKK_Z1
  6
Continuous
100
AcDbLine
 10
10064.5
 20
16233.1907475
 30
0.0
 11
10064.5
 21
15915.6907475
 31
0.0
  0
LINE
  5
2C1
330
498
100
AcDbEntity
  8
YKK_Z1
  6
Continuous
100
AcDbLine
 10
10052.5
 20
16238.1907475
 30
0.0
 11
10052.5
 21
15915.6907475
 31
0.0
  0
LINE
  5
2C2
330
498
100
AcDbEntity
  8
YKK_Z1
  6
Continuous
100
AcDbLine
 10
10060.5
 20
16238.1907475
 30
0.0
 11
10060.5
 21
15915.6907475
 31
0.0
  0
LINE
  5
2C3
330
498
100
AcDbEntity
  8
YKK_Z1
  6
Continuous
100
AcDbLine
 10
10174.5
 20
16233.1907475
 30
0.0
 11
10064.5
 21
16233.1907475
 31
0.0
  0
LINE
  5
2C4
330
498
100
AcDbEntity
  8
YKK_Z1
  6
ByBlock
 62
     0
100
AcDbLine
 10
10879.42673029
 20
15675.6907475
 30
0.0
 11
10844.78571429
 21
15615.6907475
 31
0.0
  0
LINE
  5
2C5
330
498
100
AcDbEntity
  8
YKK_Z1
  6
ByBlock
 62
     0
100
AcDbLine
 10
10810.14469829
 20
15675.6907475
 30
0.0
 11
10879.42673029
 21
15675.6907475
 31
0.0
  0
LINE
  5
2C6
330
498
100
AcDbEntity
  8
YKK_Z1
  6
CENTER
100
AcDbLine
 10
10462.5
 20
15615.6907475
 30
0.0
 11
10962.5
 21
15615.6907475
 31
0.0
  0
LINE
  5
2C7
330
498
100
AcDbEntity
  8
YKK_N1
100
AcDbLine
 10
10562.5
 20
15615.6907475
 30
0.0
 11
10562.5
 21
15635.6907475
 31
0.0
  0
CIRCLE
  5
2C8
330
498
100
AcDbEntity
  8
YKK_N1
100
AcDbCircle
 10
10562.5
 20
15615.6907475
 30
0.0
 40
6.5
  0
CIRCLE
  5
2C9
330
498
100
AcDbEntity
  8
YKK_N1
100
AcDbCircle
 10
10562.5
 20
15615.6907475
 30
0.0
 40
10.0
  0
POINT
  5
2CA
330
498
100
AcDbEntity
  8
YKK_N1
  6
ByBlock
100
AcDbPoint
 10
10562.5
 20
15615.6907475
 30
0.0
  0
POINT
  5
2CB
330
498
100
AcDbEntity
  8
YKK_N1
  6
ByBlock
100
AcDbPoint
 10
10562.5
 20
15615.6907475
 30
0.0
  0
LINE
  5
2CC
330
498
100
AcDbEntity
  8
YKK_Z1
  6
ByBlock
 62
     0
100
AcDbLine
 10
10844.78571429
 20
15615.6907475
 30
0.0
 11
10810.14469829
 21
15675.6907475
 31
0.0
  0
TEXT
  5
2CD
330
498
100
AcDbEntity
  8
YKK_N1
100
AcDbText
 10
10552.5
 20
15897.11931893
 30
0.0
 40
60.0
  1
700
 50
90.0
 41
0.8
  7
YKK_SGSTYLE1
100
AcDbText
  0
LINE
  5
2CE
330
498
100
AcDbEntity
  8
YKK_Z1
  6
Continuous
100
AcDbLine
 10
10244.5
 20
16248.1907475
 30
0.0
 11
10184.5
 21
16248.1907475
 31
0.0
  0
LINE
  5
2CF
330
498
100
AcDbEntity
  8
YKK_Z1
  6
Continuous
100
AcDbLine
 10
10244.5
 20
16248.1907475
 30
0.0
 11
10264.5
 21
16248.1907475
 31
0.0
  0
LINE
  5
2D1
330
498
100
AcDbEntity
  8
YKK_Z1
  6
Continuous
100
AcDbLine
 10
10264.5
 20
16248.1907475
 30
0.0
 11
10244.5
 21
16228.19074404
 31
0.0
  0
LINE
  5
2D2
330
498
100
AcDbEntity
  8
YKK_Z1
  6
Continuous
100
AcDbLine
 10
10244.5
 20
16248.1907475
 30
0.0
 11
10264.5
 21
16228.1907579
 31
0.0
  0
LINE
  5
2D3
330
498
100
AcDbEntity
  8
YKK_Z1
  6
Continuous
100
AcDbLine
 10
10264.5
 20
16208.19074058
 30
0.0
 11
10244.5
 21
16188.19073711
 31
0.0
  0
LINE
  5
2D4
330
498
100
AcDbEntity
  8
YKK_Z1
  6
Continuous
100
AcDbLine
 10
10264.5
 20
16188.19073711
 30
0.0
 11
10244.5
 21
16168.19073365
 31
0.0
  0
LINE
  5
2D5
330
498
100
AcDbEntity
  8
YKK_Z1
  6
Continuous
100
AcDbLine
 10
10264.5
 20
16168.19073365
 30
0.0
 11
10244.5
 21
16148.19073018
 31
0.0
  0
LINE
  5
2D6
330
498
100
AcDbEntity
  8
YKK_Z1
  6
Continuous
100
AcDbLine
 10
10264.5
 20
16148.19073018
 30
0.0
 11
10244.5
 21
16128.19072672
 31
0.0
  0
LINE
  5
2D7
330
498
100
AcDbEntity
  8
YKK_Z1
  6
Continuous
100
AcDbLine
 10
10264.5
 20
16128.19072672
 30
0.0
 11
10244.5
 21
16108.19072326
 31
0.0
  0
LINE
  5
2D8
330
498
100
AcDbEntity
  8
YKK_Z1
  6
Continuous
100
AcDbLine
 10
10264.5
 20
16108.19072326
 30
0.0
 11
10244.5
 21
16088.19071979
 31
0.0
  0
LINE
  5
2D9
330
498
100
AcDbEntity
  8
YKK_Z1
  6
Continuous
100
AcDbLine
 10
10264.5
 20
16088.19071979
 30
0.0
 11
10244.5
 21
16068.19071633
 31
0.0
  0
LINE
  5
2DA
330
498
100
AcDbEntity
  8
YKK_Z1
  6
Continuous
100
AcDbLine
 10
10264.5
 20
16068.19071633
 30
0.0
 11
10244.5
 21
16048.19071286
 31
0.0
  0
LINE
  5
2DB
330
498
100
AcDbEntity
  8
YKK_Z1
  6
Continuous
100
AcDbLine
 10
10244.5
 20
16208.19076829
 30
0.0
 11
10264.5
 21
16188.19077868
 31
0.0
  0
LINE
  5
2DC
330
498
100
AcDbEntity
  8
YKK_Z1
  6
Continuous
100
AcDbLine
 10
10244.5
 20
16188.19077868
 30
0.0
 11
10264.5
 21
16168.19078907
 31
0.0
  0
LINE
  5
2DD
330
498
100
AcDbEntity
  8
YKK_Z1
  6
Continuous
100
AcDbLine
 10
10244.5
 20
16168.19078907
 30
0.0
 11
10264.5
 21
16148.19079947
 31
0.0
  0
LINE
  5
2DE
330
498
100
AcDbEntity
  8
YKK_Z1
  6
Continuous
100
AcDbLine
 10
10244.5
 20
16148.19079947
 30
0.0
 11
10264.5
 21
16128.19080986
 31
0.0
  0
LINE
  5
2DF
330
498
100
AcDbEntity
  8
YKK_Z1
  6
Continuous
100
AcDbLine
 10
10244.5
 20
16128.19080986
 30
0.0
 11
10264.5
 21
16108.19082025
 31
0.0
  0
LINE
  5
2E0
330
498
100
AcDbEntity
  8
YKK_Z1
  6
Continuous
100
AcDbLine
 10
10244.5
 20
16108.19082025
 30
0.0
 11
10264.5
 21
16088.19083064
 31
0.0
  0
LINE
  5
2E1
330
498
100
AcDbEntity
  8
YKK_Z1
  6
Continuous
100
AcDbLine
 10
10244.5
 20
16088.19083064
 30
0.0
 11
10264.5
 21
16068.19084103
 31
0.0
  0
LINE
  5
2E2
330
498
100
AcDbEntity
  8
YKK_Z1
  6
Continuous
100
AcDbLine
 10
10244.5
 20
16068.19084103
 30
0.0
 11
10264.5
 21
16048.19085143
 31
0.0
  0
LINE
  5
2E4
330
498
100
AcDbEntity
  8
YKK_Z1
  6
Continuous
100
AcDbLine
 10
10264.5
 20
16028.1907094
 30
0.0
 11
10244.5
 21
16008.19070593
 31
0.0
  0
LINE
  5
2E5
330
498
100
AcDbEntity
  8
YKK_Z1
  6
Continuous
100
AcDbLine
 10
10264.5
 20
16008.19070593
 30
0.0
 11
10244.5
 21
15988.19070247
 31
0.0
  0
LINE
  5
2E6
330
498
100
AcDbEntity
  8
YKK_Z1
  6
Continuous
100
AcDbLine
 10
10264.5
 20
15988.19070247
 30
0.0
 11
10244.5
 21
15968.19069901
 31
0.0
  0
LINE
  5
2E7
330
498
100
AcDbEntity
  8
YKK_Z1
  6
Continuous
100
AcDbLine
 10
10264.5
 20
15968.19069901
 30
0.0
 11
10244.5
 21
15948.19069554
 31
0.0
  0
LINE
  5
2E8
330
498
100
AcDbEntity
  8
YKK_Z1
  6
Continuous
100
AcDbLine
 10
10264.5
 20
15948.19069554
 30
0.0
 11
10244.5
 21
15928.19069208
 31
0.0
  0
LINE
  5
2E9
330
498
100
AcDbEntity
  8
YKK_Z1
  6
Continuous
100
AcDbLine
 10
10264.5
 20
15928.19069208
 30
0.0
 11
10252.00005759
 21
15915.6907475
 31
0.0
  0
LINE
  5
2EA
330
498
100
AcDbEntity
  8
YKK_Z1
  6
Continuous
100
AcDbLine
 10
10244.5
 20
16028.19086182
 30
0.0
 11
10264.5
 21
16008.19087221
 31
0.0
  0
LINE
  5
2EB
330
498
100
AcDbEntity
  8
YKK_Z1
  6
Continuous
100
AcDbLine
 10
10244.5
 20
16008.19087221
 30
0.0
 11
10264.5
 21
15988.1908826
 31
0.0
  0
LINE
  5
2EC
330
498
100
AcDbEntity
  8
YKK_Z1
  6
Continuous
100
AcDbLine
 10
10244.5
 20
15988.1908826
 30
0.0
 11
10264.5
 21
15968.190893
 31
0.0
  0
LINE
  5
2ED
330
498
100
AcDbEntity
  8
YKK_Z1
  6
Continuous
100
AcDbLine
 10
10244.5
 20
15968.190893
 30
0.0
 11
10264.5
 21
15948.19090339
 31
0.0
  0
LINE
  5
2EE
330
498
100
AcDbEntity
  8
YKK_Z1
  6
Continuous
100
AcDbLine
 10
10244.5
 20
15948.19090339
 30
0.0
 11
10264.5
 21
15928.19091378
 31
0.0
  0
LINE
  5
2EF
330
498
100
AcDbEntity
  8
YKK_Z1
  6
Continuous
100
AcDbLine
 10
10244.5
 20
15928.19091378
 30
0.0
 11
10257.00017277
 21
15915.6907475
 31
0.0
  0
LINE
  5
2F0
330
498
100
AcDbEntity
  8
YKK_Z1
  6
Continuous
100
AcDbLine
 10
10264.5
 20
16048.19071286
 30
0.0
 11
10244.5
 21
16028.1907094
 31
0.0
  0
LINE
  5
2F1
330
498
100
AcDbEntity
  8
YKK_Z1
  6
Continuous
100
AcDbLine
 10
10244.5
 20
16048.19085143
 30
0.0
 11
10264.5
 21
16028.19086182
 31
0.0
  0
LINE
  5
2F2
330
498
100
AcDbEntity
  8
YKK_Z1
  6
Continuous
100
AcDbLine
 10
10244.5
 20
15915.6907475
 30
0.0
 11
10244.5
 21
16248.1907475
 31
0.0
  0
LINE
  5
2F3
330
498
100
AcDbEntity
  8
YKK_Z1
  6
Continuous
100
AcDbLine
 10
10264.5
 20
16248.1907475
 30
0.0
 11
10264.5
 21
15915.6907475
 31
0.0
  0
LINE
  5
2F4
330
498
100
AcDbEntity
  8
YKK_Z1
  6
Continuous
100
AcDbLine
 10
10264.5
 20
16228.19074404
 30
0.0
 11
10244.5
 21
16208.19074058
 31
0.0
  0
LINE
  5
2F5
330
498
100
AcDbEntity
  8
YKK_Z1
  6
Continuous
100
AcDbLine
 10
10244.5
 20
16228.1907579
 30
0.0
 11
10264.5
 21
16208.19076829
 31
0.0
  0
TEXT
  5
2F6
330
498
100
AcDbEntity
  8
YKK_Z1
100
AcDbText
 10
10884.78571429
 20
15625.6907475
 30
0.0
 40
60.0
  1
FL
 41
0.8
  7
YKK_SGSTYLE1
 72
     2
 11
10962.5
 21
15625.6907475
 31
0.0
100
AcDbText
  0
LINE
  5
2F7
330
498
100
AcDbEntity
  8
YKK_N1
  6
ByBlock
100
AcDbLine
 10
8697.5
 20
17015.6907475
 30
0.0
 11
9067.5
 21
17015.6907475
 31
0.0
  0
LINE
  5
2F8
330
498
100
AcDbEntity
  8
YKK_N1
  6
ByBlock
100
AcDbLine
 10
8697.5
 20
16315.6907475
 30
0.0
 11
9067.5
 21
16315.6907475
 31
0.0
  0
TEXT
  5
2F9
330
498
100
AcDbEntity
  8
0
100
AcDbText
 10
5800.0
 20
19187.5
 30
0.0
 40
200.0
  1
辷り出し窓、はめ殺し縦骨連窓
  7
EXTFONT
100
AcDbText
  0
TEXT
  5
2FA
330
498
100
AcDbEntity
  8
0
100
AcDbText
 10
5800.0
 20
18737.5
 30
0.0
 40
200.0
  1
W＝2,085　H＝700
  7
EXTFONT
100
AcDbText
  0
LINE
  5
2FB
330
498
100
AcDbEntity
  8
YKK_C1
100
AcDbLine
 10
3920.0
 20
17015.6907475
 30
0.0
 11
3920.0
 21
17055.6907475
 31
0.0
  0
LINE
  5
2FC
330
498
100
AcDbEntity
  8
YKK_C1
100
AcDbLine
 10
3914.0
 20
17015.6907475
 30
0.0
 11
3914.0
 21
17032.6907475
 31
0.0
  0
LINE
  5
2FD
330
498
100
AcDbEntity
  8
YKK_C1
100
AcDbLine
 10
3880.0
 20
17015.6907475
 30
0.0
 11
3880.0
 21
17040.6907475
 31
0.0
  0
LINE
  5
2FE
330
498
100
AcDbEntity
  8
YKK_C1
100
AcDbLine
 10
3850.0
 20
17015.6907475
 30
0.0
 11
3850.0
 21
17049.6907475
 31
0.0
  0
LINE
  5
2FF
330
498
100
AcDbEntity
  8
YKK_C1
100
AcDbLine
 10
3795.0
 20
16285.6907475
 30
0.0
 11
3795.0
 21
17035.6907475
 31
0.0
  0
LINE
  5
300
330
498
100
AcDbEntity
  8
YKK_Z1
100
AcDbLine
 10
4060.0
 20
17020.6907475
 30
0.0
 11
4060.0
 21
17045.6907475
 31
0.0
  0
TEXT
  5
301
330
498
100
AcDbEntity
  8
YKK_N1
100
AcDbText
 10
3918.0
 20
16825.6907475
 30
0.0
 40
60.0
  1
140
 41
0.8
  7
YKK_SGSTYLE1
100
AcDbText
  0
LINE
  5
302
330
498
100
AcDbEntity
  8
YKK_N1
  6
ByBlock
100
AcDbLine
 10
3940.0
 20
16815.6907475
 30
0.0
 11
4040.0
 21
16815.6907475
 31
0.0
  0
LINE
  5
303
330
498
100
AcDbEntity
  8
YKK_Z1
100
AcDbLine
 10
3920.0
 20
17020.6907475
 30
0.0
 11
4060.0
 21
17020.6907475
 31
0.0
  0
LINE
  5
304
330
498
100
AcDbEntity
  8
YKK_Z1
100
AcDbLine
 10
3920.0
 20
16310.6907475
 30
0.0
 11
4060.0
 21
16310.6907475
 31
0.0
  0
LINE
  5
305
330
498
100
AcDbEntity
  8
YKK_C1
100
AcDbLine
 10
3860.0
 20
16307.6907475
 30
0.0
 11
3860.0
 21
17023.6907475
 31
0.0
  0
LINE
  5
306
330
498
100
AcDbEntity
  8
YKK_C1
100
AcDbLine
 10
3920.0
 20
16335.6907475
 30
0.0
 11
3920.0
 21
16995.6907475
 31
0.0
  0
LINE
  5
307
330
498
100
AcDbEntity
  8
YKK_C1
  6
PHANTOM
100
AcDbLine
 10
3850.0
 20
17019.80185862
 30
0.0
 11
3587.33290296
 21
16298.11634141
 31
0.0
  0
SOLID
  5
309
330
498
100
AcDbEntity
  8
YKK_N1
  6
ByBlock
100
AcDbTrace
 10
3654.34282672
 20
16364.60746849
 30
0.0
 11
3658.41458805
 21
16377.30386709
 31
0.0
 12
3618.28951158
 22
16383.17095179
 32
0.0
 13
3618.28951158
 23
16383.17095179
 33
0.0
  0
ARC
  5
30A
330
498
100
AcDbEntity
  8
YKK_C1
  6
PHANTOM
100
AcDbCircle
 10
3765.89001
 20
17045.07106529
 30
0.0
 40
768.0000000000003
100
AcDbArc
 50
256.55591989
 51
276.2875436
  0
POINT
  5
30B
330
498
100
AcDbEntity
  8
YKK_N1
  6
ByBlock
100
AcDbPoint
 10
3618.28951158
 20
16383.17095179
 30
0.0
  0
TEXT
  5
30C
330
498
100
AcDbEntity
  8
YKK_N1
100
AcDbText
 10
3614.63146002
 20
16294.61164321
 30
0.0
 40
60.0
  1
20ﾟ
 50
350.00021945
 41
0.8
  7
YKK_SGSTYLE1
100
AcDbText
  0
POINT
  5
30D
330
498
100
AcDbEntity
  8
YKK_N1
  6
ByBlock
100
AcDbPoint
 10
3675.84847184
 20
16365.93933064
 30
0.0
  0
POINT
  5
30E
330
498
100
AcDbEntity
  8
YKK_N1
  6
ByBlock
100
AcDbPoint
 10
3795.0
 20
16352.01282277
 30
0.0
  0
SOLID
  5
30F
330
498
100
AcDbEntity
  8
YKK_N1
  6
ByBlock
100
AcDbTrace
 10
3755.28803769
 20
16360.22284678
 30
0.0
 11
3754.77191976
 21
16346.89950635
 31
0.0
 12
3795.0
 22
16352.01282277
 32
0.0
 13
3795.0
 23
16352.01282277
 33
0.0
  0
ARC
  5
310
330
498
100
AcDbEntity
  8
YKK_N1
  6
ByBlock
100
AcDbCircle
 10
3795.0
 20
16868.69060055
 30
0.0
 40
516.6777777777802
100
AcDbArc
 50
254.43725426
 51
265.56318463
  0
POINT
  5
311
330
498
100
AcDbEntity
  8
YKK_N1
  6
ByBlock
100
AcDbPoint
 10
3920.0
 20
16315.6907475
 30
0.0
  0
LINE
  5
312
330
498
100
AcDbEntity
  8
YKK_C1
100
AcDbLine
 10
3920.0
 20
16315.6907475
 30
0.0
 11
3920.0
 21
16275.6907475
 31
0.0
  0
LINE
  5
313
330
498
100
AcDbEntity
  8
YKK_C1
100
AcDbLine
 10
3920.0
 20
16275.6907475
 30
0.0
 11
3920.0
 21
16253.1907475
 31
0.0
  0
LINE
  5
314
330
498
100
AcDbEntity
  8
YKK_C1
100
AcDbLine
 10
3920.0
 20
16253.1907475
 30
0.0
 11
3913.0
 21
16253.1907475
 31
0.0
  0
LINE
  5
315
330
498
100
AcDbEntity
  8
YKK_C1
100
AcDbLine
 10
3914.0
 20
16315.6907475
 30
0.0
 11
3914.0
 21
16298.6907475
 31
0.0
  0
LINE
  5
316
330
498
100
AcDbEntity
  8
YKK_C1
100
AcDbLine
 10
3880.0
 20
16275.6907475
 30
0.0
 11
3880.0
 21
16265.6907475
 31
0.0
  0
LINE
  5
317
330
498
100
AcDbEntity
  8
YKK_C1
100
AcDbLine
 10
3850.0
 20
16265.6907475
 30
0.0
 11
3795.0
 21
16258.1907475
 31
0.0
  0
LINE
  5
318
330
498
100
AcDbEntity
  8
YKK_C1
100
AcDbLine
 10
3795.0
 20
16258.1907475
 30
0.0
 11
3795.0
 21
16253.1907475
 31
0.0
  0
LINE
  5
319
330
498
100
AcDbEntity
  8
YKK_C1
100
AcDbLine
 10
3795.0
 20
16253.1907475
 30
0.0
 11
3857.0
 21
16253.1907475
 31
0.0
  0
LINE
  5
31A
330
498
100
AcDbEntity
  8
YKK_C1
100
AcDbLine
 10
3880.0
 20
16315.6907475
 30
0.0
 11
3880.0
 21
16290.6907475
 31
0.0
  0
LINE
  5
31B
330
498
100
AcDbEntity
  8
YKK_C1
100
AcDbLine
 10
3850.0
 20
16315.6907475
 30
0.0
 11
3850.0
 21
16281.6907475
 31
0.0
  0
LINE
  5
31C
330
498
100
AcDbEntity
  8
YKK_C1
100
AcDbLine
 10
3880.0
 20
16290.6907475
 30
0.0
 11
3850.0
 21
16290.6907475
 31
0.0
  0
LINE
  5
31D
330
498
100
AcDbEntity
  8
YKK_C1
100
AcDbLine
 10
3920.0
 20
16275.6907475
 30
0.0
 11
3880.0
 21
16275.6907475
 31
0.0
  0
LINE
  5
31E
330
498
100
AcDbEntity
  8
YKK_C1
100
AcDbLine
 10
3850.0
 20
16265.6907475
 30
0.0
 11
3920.0
 21
16265.6907475
 31
0.0
  0
LINE
  5
31F
330
498
100
AcDbEntity
  8
YKK_C1
100
AcDbLine
 10
3914.0
 20
16315.6907475
 30
0.0
 11
3870.0
 21
16315.6907475
 31
0.0
  0
LINE
  5
320
330
498
100
AcDbEntity
  8
YKK_C1
100
AcDbLine
 10
3914.0
 20
16307.1907475
 30
0.0
 11
3880.0
 21
16307.1907475
 31
0.0
  0
LINE
  5
321
330
498
100
AcDbEntity
  8
YKK_N1
100
AcDbLine
 10
3920.0
 20
16815.6907475
 30
0.0
 11
3940.0
 21
16815.6907475
 31
0.0
  0
CIRCLE
  5
322
330
498
100
AcDbEntity
  8
YKK_N1
100
AcDbCircle
 10
3920.0
 20
16815.6907475
 30
0.0
 40
6.5
  0
CIRCLE
  5
323
330
498
100
AcDbEntity
  8
YKK_N1
100
AcDbCircle
 10
3920.0
 20
16815.6907475
 30
0.0
 40
10.0
  0
TEXT
  5
324
330
498
100
AcDbEntity
  8
YKK_N1
100
AcDbText
 10
3785.5
 20
16860.6907475
 30
0.0
 40
60.0
  1
125
 41
0.8
  7
YKK_SGSTYLE1
100
AcDbText
  0
LINE
  5
325
330
498
100
AcDbEntity
  8
YKK_N1
100
AcDbLine
 10
3920.0
 20
16815.6907475
 30
0.0
 11
3900.0
 21
16815.6907475
 31
0.0
  0
CIRCLE
  5
326
330
498
100
AcDbEntity
  8
YKK_N1
100
AcDbCircle
 10
3920.0
 20
16815.6907475
 30
0.0
 40
6.5
  0
CIRCLE
  5
327
330
498
100
AcDbEntity
  8
YKK_N1
100
AcDbCircle
 10
3920.0
 20
16815.6907475
 30
0.0
 40
10.0
  0
LINE
  5
328
330
498
100
AcDbEntity
  8
YKK_N1
100
AcDbLine
 10
3795.0
 20
16815.6907475
 30
0.0
 11
3815.0
 21
16815.6907475
 31
0.0
  0
CIRCLE
  5
329
330
498
100
AcDbEntity
  8
YKK_N1
100
AcDbCircle
 10
3795.0
 20
16815.6907475
 30
0.0
 40
6.5
  0
CIRCLE
  5
32A
330
498
100
AcDbEntity
  8
YKK_N1
100
AcDbCircle
 10
3795.0
 20
16815.6907475
 30
0.0
 40
10.0
  0
POINT
  5
32B
330
498
100
AcDbEntity
  8
YKK_N1
  6
ByBlock
100
AcDbPoint
 10
3795.0
 20
16815.6907475
 30
0.0
  0
POINT
  5
32C
330
498
100
AcDbEntity
  8
YKK_N1
  6
ByBlock
100
AcDbPoint
 10
3795.0
 20
16805.6907475
 30
0.0
  0
POINT
  5
32D
330
498
100
AcDbEntity
  8
YKK_N1
  6
ByBlock
100
AcDbPoint
 10
3920.0
 20
16805.6907475
 30
0.0
  0
LINE
  5
32E
330
498
100
AcDbEntity
  8
YKK_N1
  6
ByBlock
100
AcDbLine
 10
3900.0
 20
16815.6907475
 30
0.0
 11
3815.0
 21
16815.6907475
 31
0.0
  0
LINE
  5
32F
330
498
100
AcDbEntity
  8
YKK_N1
  6
ByBlock
100
AcDbLine
 10
3795.0
 20
16865.6907475
 30
0.0
 11
3795.0
 21
16845.6907475
 31
0.0
  0
LINE
  5
330
330
498
100
AcDbEntity
  8
YKK_N1
  6
ByBlock
100
AcDbLine
 10
3920.0
 20
16865.6907475
 30
0.0
 11
3920.0
 21
16845.6907475
 31
0.0
  0
POINT
  5
331
330
498
100
AcDbEntity
  8
YKK_N1
  6
ByBlock
100
AcDbPoint
 10
3795.0
 20
16868.69060055
 30
0.0
  0
POINT
  5
332
330
498
100
AcDbEntity
  8
YKK_N1
  6
ByBlock
100
AcDbPoint
 10
3920.0
 20
16815.6907475
 30
0.0
  0
LINE
  5
333
330
498
100
AcDbEntity
  8
YKK_N1
  6
ByBlock
100
AcDbLine
 10
3920.0
 20
16875.6907475
 30
0.0
 11
3920.0
 21
16845.6907475
 31
0.0
  0
POINT
  5
334
330
498
100
AcDbEntity
  8
YKK_N1
  6
ByBlock
100
AcDbPoint
 10
3920.0
 20
17015.6907475
 30
0.0
  0
LINE
  5
335
330
498
100
AcDbEntity
  8
YKK_C1
100
AcDbLine
 10
3914.0
 20
17015.6907475
 30
0.0
 11
3870.0
 21
17015.6907475
 31
0.0
  0
LINE
  5
336
330
498
100
AcDbEntity
  8
YKK_C1
100
AcDbLine
 10
3914.0
 20
17024.1907475
 30
0.0
 11
3880.0
 21
17024.1907475
 31
0.0
  0
TEXT
  5
337
330
498
100
AcDbEntity
  8
YKK_N1
100
AcDbText
 10
4310.0
 20
16541.11931893
 30
0.0
 40
60.0
  1
H=700
 50
90.0
 41
0.8
  7
YKK_SGSTYLE1
100
AcDbText
  0
LINE
  5
338
330
498
100
AcDbEntity
  8
YKK_N1
  6
ByBlock
100
AcDbLine
 10
4320.0
 20
16316.6907475
 30
0.0
 11
4320.0
 21
17014.6907475
 31
0.0
  0
LINE
  5
339
330
498
100
AcDbEntity
  8
YKK_Z1
  6
Continuous
100
AcDbLine
 10
4057.0
 20
16310.6907475
 30
0.0
 11
4057.0
 21
16665.6907475
 31
0.0
  0
LINE
  5
33A
330
498
100
AcDbEntity
  8
YKK_N1
  6
ByBlock
100
AcDbLine
 10
4270.0
 20
16402.29328788
 30
0.0
 11
4320.0
 21
16315.6907475
 31
0.0
  0
LINE
  5
33B
330
498
100
AcDbEntity
  8
YKK_N1
  6
ByBlock
100
AcDbLine
 10
4370.0
 20
16402.29328788
 30
0.0
 11
4270.0
 21
16402.29328788
 31
0.0
  0
LINE
  5
33C
330
498
100
AcDbEntity
  8
YKK_N1
  6
ByBlock
100
AcDbLine
 10
3980.0
 20
16315.6907475
 30
0.0
 11
4350.0
 21
16315.6907475
 31
0.0
  0
LINE
  5
33D
330
498
100
AcDbEntity
  8
YKK_Z1
  6
Continuous
100
AcDbLine
 10
4037.5
 20
16295.6907475
 30
0.0
 11
4050.0
 21
16295.6907475
 31
0.0
  0
LINE
  5
33E
330
498
100
AcDbEntity
  8
YKK_Z1
100
AcDbLine
 10
4060.0
 20
16285.6907475
 30
0.0
 11
4050.0
 21
16285.6907475
 31
0.0
  0
LINE
  5
33F
330
498
100
AcDbEntity
  8
YKK_Z1
100
AcDbLine
 10
4060.0
 20
16310.6907475
 30
0.0
 11
4060.0
 21
16285.6907475
 31
0.0
  0
LINE
  5
340
330
498
100
AcDbEntity
  8
YKK_N1
  6
ByBlock
100
AcDbLine
 10
4320.0
 20
16315.6907475
 30
0.0
 11
4320.0
 21
16295.6907475
 31
0.0
  0
LINE
  5
341
330
498
100
AcDbEntity
  8
YKK_N1
  6
ByBlock
100
AcDbLine
 10
4320.0
 20
16315.6907475
 30
0.0
 11
4370.0
 21
16402.29328788
 31
0.0
  0
LINE
  5
342
330
498
100
AcDbEntity
  8
YKK_N1
  6
ByBlock
100
AcDbLine
 10
4320.0
 20
16315.6907475
 30
0.0
 11
4320.0
 21
16415.6907475
 31
0.0
  0
POINT
  5
343
330
498
100
AcDbEntity
  8
YKK_N1
  6
ByBlock
100
AcDbPoint
 10
4320.0
 20
16315.6907475
 30
0.0
  0
LINE
  5
344
330
498
100
AcDbEntity
  8
YKK_N1
  6
ByBlock
100
AcDbLine
 10
4270.0
 20
16929.08820713
 30
0.0
 11
4370.0
 21
16929.08820713
 31
0.0
  0
LINE
  5
345
330
498
100
AcDbEntity
  8
YKK_N1
  6
ByBlock
100
AcDbLine
 10
4320.0
 20
17015.6907475
 30
0.0
 11
4270.0
 21
16929.08820713
 31
0.0
  0
LINE
  5
346
330
498
100
AcDbEntity
  8
YKK_N1
  6
ByBlock
100
AcDbLine
 10
3980.0
 20
17015.6907475
 30
0.0
 11
4350.0
 21
17015.6907475
 31
0.0
  0
LINE
  5
347
330
498
100
AcDbEntity
  8
YKK_N1
100
AcDbLine
 10
4060.0
 20
16815.6907475
 30
0.0
 11
4040.0
 21
16815.6907475
 31
0.0
  0
CIRCLE
  5
348
330
498
100
AcDbEntity
  8
YKK_N1
100
AcDbCircle
 10
4060.0
 20
16815.6907475
 30
0.0
 40
6.5
  0
CIRCLE
  5
349
330
498
100
AcDbEntity
  8
YKK_N1
100
AcDbCircle
 10
4060.0
 20
16815.6907475
 30
0.0
 40
10.0
  0
POINT
  5
34A
330
498
100
AcDbEntity
  8
YKK_N1
  6
ByBlock
100
AcDbPoint
 10
4060.0
 20
16815.6907475
 30
0.0
  0
POINT
  5
34B
330
498
100
AcDbEntity
  8
YKK_N1
  6
ByBlock
100
AcDbPoint
 10
4060.0
 20
17020.6907475
 30
0.0
  0
LINE
  5
34C
330
498
100
AcDbEntity
  8
YKK_N1
  6
ByBlock
100
AcDbLine
 10
4060.0
 20
16960.6907475
 30
0.0
 11
4060.0
 21
16785.6907475
 31
0.0
  0
LINE
  5
34D
330
498
100
AcDbEntity
  8
YKK_Z1
  6
Continuous
100
AcDbLine
 10
4057.0
 20
17020.6907475
 30
0.0
 11
4057.0
 21
16665.6907475
 31
0.0
  0
LINE
  5
34E
330
498
100
AcDbEntity
  8
YKK_N1
  6
ByBlock
100
AcDbLine
 10
4370.0
 20
16929.08820713
 30
0.0
 11
4320.0
 21
17015.6907475
 31
0.0
  0
LINE
  5
34F
330
498
100
AcDbEntity
  8
YKK_N1
  6
ByBlock
100
AcDbLine
 10
4320.0
 20
17015.6907475
 30
0.0
 11
4320.0
 21
16915.6907475
 31
0.0
  0
POINT
  5
350
330
498
100
AcDbEntity
  8
YKK_N1
  6
ByBlock
100
AcDbPoint
 10
4320.0
 20
17015.6907475
 30
0.0
  0
LINE
  5
351
330
498
100
AcDbEntity
  8
YKK_Z1
  6
Continuous
100
AcDbLine
 10
4002.0
 20
17098.1907475
 30
0.0
 11
3877.0
 21
17098.1907475
 31
0.0
  0
LINE
  5
352
330
498
100
AcDbEntity
  8
YKK_Z1
  6
Continuous
100
AcDbLine
 10
3822.0
 20
17235.69084103
 30
0.0
 11
4002.0
 21
17415.6907475
 31
0.0
  0
LINE
  5
353
330
498
100
AcDbEntity
  8
YKK_Z1
  6
Continuous
100
AcDbLine
 10
3822.0
 20
17227.20556333
 30
0.0
 11
4002.0
 21
17407.2054698
 31
0.0
  0
LINE
  5
354
330
498
100
AcDbEntity
  8
YKK_Z1
  6
Continuous
100
AcDbLine
 10
3822.0
 20
17207.40658203
 30
0.0
 11
4002.0
 21
17387.4064885
 31
0.0
  0
LINE
  5
355
330
498
100
AcDbEntity
  8
YKK_C1
100
AcDbLine
 10
3920.0
 20
17055.6907475
 30
0.0
 11
3920.0
 21
17068.6907475
 31
0.0
  0
LINE
  5
356
330
498
100
AcDbEntity
  8
YKK_C1
100
AcDbLine
 10
3920.0
 20
17068.6907475
 30
0.0
 11
3913.0
 21
17068.6907475
 31
0.0
  0
LINE
  5
357
330
498
100
AcDbEntity
  8
YKK_C1
100
AcDbLine
 10
3850.0
 20
17068.6907475
 30
0.0
 11
3857.0
 21
17068.6907475
 31
0.0
  0
LINE
  5
358
330
498
100
AcDbEntity
  8
YKK_C1
100
AcDbLine
 10
3850.0
 20
17055.6907475
 30
0.0
 11
3850.0
 21
17070.6907475
 31
0.0
  0
LINE
  5
359
330
498
100
AcDbEntity
  8
YKK_C1
100
AcDbLine
 10
3850.0
 20
17065.6907475
 30
0.0
 11
3795.0
 21
17060.6907475
 31
0.0
  0
LINE
  5
35A
330
498
100
AcDbEntity
  8
YKK_C1
100
AcDbLine
 10
3795.0
 20
17060.6907475
 30
0.0
 11
3795.0
 21
17055.6907475
 31
0.0
  0
LINE
  5
35B
330
498
100
AcDbEntity
  8
YKK_C1
100
AcDbLine
 10
3795.0
 20
17055.6907475
 30
0.0
 11
3850.0
 21
17055.6907475
 31
0.0
  0
LINE
  5
35C
330
498
100
AcDbEntity
  8
YKK_C1
100
AcDbLine
 10
3880.0
 20
17040.6907475
 30
0.0
 11
3850.0
 21
17040.6907475
 31
0.0
  0
LINE
  5
35D
330
498
100
AcDbEntity
  8
YKK_C1
100
AcDbLine
 10
3920.0
 20
17055.6907475
 30
0.0
 11
3850.0
 21
17055.6907475
 31
0.0
  0
LINE
  5
35E
330
498
100
AcDbEntity
  8
YKK_Z1
  6
Continuous
100
AcDbLine
 10
3810.0
 20
17397.0907475
 30
0.0
 11
3818.0
 21
17397.0907475
 31
0.0
  0
LINE
  5
35F
330
498
100
AcDbEntity
  8
YKK_Z1
  6
Continuous
100
AcDbLine
 10
3810.0
 20
17407.0907475
 30
0.0
 11
3818.0
 21
17407.0907475
 31
0.0
  0
LINE
  5
360
330
498
100
AcDbEntity
  8
YKK_Z1
  6
Continuous
100
AcDbLine
 10
3810.0
 20
17177.0907475
 30
0.0
 11
3818.0
 21
17177.0907475
 31
0.0
  0
LINE
  5
361
330
498
100
AcDbEntity
  8
YKK_Z1
  6
Continuous
100
AcDbLine
 10
3810.0
 20
17187.0907475
 30
0.0
 11
3818.0
 21
17187.0907475
 31
0.0
  0
LINE
  5
362
330
498
100
AcDbEntity
  8
YKK_Z1
  6
Continuous
100
AcDbLine
 10
3810.0
 20
17287.0907475
 30
0.0
 11
3818.0
 21
17287.0907475
 31
0.0
  0
LINE
  5
363
330
498
100
AcDbEntity
  8
YKK_Z1
  6
Continuous
100
AcDbLine
 10
3810.0
 20
17297.0907475
 30
0.0
 11
3818.0
 21
17297.0907475
 31
0.0
  0
LINE
  5
364
330
498
100
AcDbEntity
  8
YKK_Z1
  6
Continuous
100
AcDbLine
 10
3877.0
 20
17098.1907475
 30
0.0
 11
3867.0
 21
17083.1907475
 31
0.0
  0
LINE
  5
365
330
498
100
AcDbEntity
  8
YKK_Z1
  6
Continuous
100
AcDbLine
 10
3867.0
 20
17083.1907475
 30
0.0
 11
3822.0
 21
17083.1907475
 31
0.0
  0
LINE
  5
366
330
498
100
AcDbEntity
  8
YKK_Z1
  6
Continuous
100
AcDbLine
 10
3810.0
 20
17060.6907475
 30
0.0
 11
3810.0
 21
17077.0907475
 31
0.0
  0
LINE
  5
367
330
498
100
AcDbEntity
  8
YKK_Z1
  6
Continuous
100
AcDbLine
 10
3810.0
 20
17077.0907475
 30
0.0
 11
3818.0
 21
17077.0907475
 31
0.0
  0
LINE
  5
368
330
498
100
AcDbEntity
  8
YKK_Z1
  6
Continuous
100
AcDbLine
 10
3822.0
 20
17083.1907475
 30
0.0
 11
3822.0
 21
17415.6907475
 31
0.0
  0
LINE
  5
369
330
498
100
AcDbEntity
  8
YKK_Z1
  6
CENTER
100
AcDbLine
 10
3912.0
 20
17083.4407475
 30
0.0
 11
3912.0
 21
17415.6907475
 31
0.0
  0
LINE
  5
36A
330
498
100
AcDbEntity
  8
YKK_Z1
  6
Continuous
100
AcDbLine
 10
3810.0
 20
17077.0907475
 30
0.0
 11
3810.0
 21
17415.6907475
 31
0.0
  0
LINE
  5
36B
330
498
100
AcDbEntity
  8
YKK_Z1
  6
Continuous
100
AcDbLine
 10
3818.0
 20
17077.0907475
 30
0.0
 11
3818.0
 21
17415.6907475
 31
0.0
  0
LINE
  5
36C
330
498
100
AcDbEntity
  8
YKK_Z1
  6
Continuous
100
AcDbLine
 10
4050.0
 20
17045.6907475
 30
0.0
 11
4320.0
 21
17045.6907475
 31
0.0
  0
LINE
  5
36D
330
498
100
AcDbEntity
  8
YKK_Z1
  6
Continuous
100
AcDbLine
 10
4320.0
 20
17058.1907475
 30
0.0
 11
4050.0
 21
17058.1907475
 31
0.0
  0
LINE
  5
36E
330
498
100
AcDbEntity
  8
YKK_Z1
  6
Continuous
100
AcDbLine
 10
4022.0
 20
17338.19078907
 30
0.0
 11
4002.0
 21
17358.19079254
 31
0.0
  0
LINE
  5
36F
330
498
100
AcDbEntity
  8
YKK_Z1
  6
Continuous
100
AcDbLine
 10
4022.0
 20
17358.19079254
 30
0.0
 11
4002.0
 21
17378.190796
 31
0.0
  0
LINE
  5
370
330
498
100
AcDbEntity
  8
YKK_Z1
  6
Continuous
100
AcDbLine
 10
4022.0
 20
17378.190796
 30
0.0
 11
4002.0
 21
17398.19079947
 31
0.0
  0
LINE
  5
371
330
498
100
AcDbEntity
  8
YKK_Z1
  6
Continuous
100
AcDbLine
 10
4022.0
 20
17398.19079947
 30
0.0
 11
4004.50005499
 21
17415.6907475
 31
0.0
  0
LINE
  5
372
330
498
100
AcDbEntity
  8
YKK_Z1
  6
Continuous
100
AcDbLine
 10
4002.0
 20
17338.1906228
 30
0.0
 11
4022.0
 21
17358.1906124
 31
0.0
  0
LINE
  5
373
330
498
100
AcDbEntity
  8
YKK_Z1
  6
Continuous
100
AcDbLine
 10
4002.0
 20
17358.1906124
 30
0.0
 11
4022.0
 21
17378.19060201
 31
0.0
  0
LINE
  5
374
330
498
100
AcDbEntity
  8
YKK_Z1
  6
Continuous
100
AcDbLine
 10
4002.0
 20
17378.19060201
 30
0.0
 11
4022.0
 21
17398.19059162
 31
0.0
  0
LINE
  5
375
330
498
100
AcDbEntity
  8
YKK_Z1
  6
Continuous
100
AcDbLine
 10
4002.0
 20
17398.19059162
 30
0.0
 11
4019.50016498
 21
17415.6907475
 31
0.0
  0
LINE
  5
376
330
498
100
AcDbEntity
  8
YKK_Z1
  6
Continuous
100
AcDbLine
 10
4022.0
 20
17178.19076136
 30
0.0
 11
4002.0
 21
17198.19076482
 31
0.0
  0
LINE
  5
377
330
498
100
AcDbEntity
  8
YKK_Z1
  6
Continuous
100
AcDbLine
 10
4022.0
 20
17198.19076482
 30
0.0
 11
4002.0
 21
17218.19076829
 31
0.0
  0
LINE
  5
378
330
498
100
AcDbEntity
  8
YKK_Z1
  6
Continuous
100
AcDbLine
 10
4022.0
 20
17218.19076829
 30
0.0
 11
4002.0
 21
17238.19077175
 31
0.0
  0
LINE
  5
379
330
498
100
AcDbEntity
  8
YKK_Z1
  6
Continuous
100
AcDbLine
 10
4022.0
 20
17238.19077175
 30
0.0
 11
4002.0
 21
17258.19077522
 31
0.0
  0
LINE
  5
37A
330
498
100
AcDbEntity
  8
YKK_Z1
  6
Continuous
100
AcDbLine
 10
4022.0
 20
17258.19077522
 30
0.0
 11
4002.0
 21
17278.19077868
 31
0.0
  0
LINE
  5
37B
330
498
100
AcDbEntity
  8
YKK_Z1
  6
Continuous
100
AcDbLine
 10
4022.0
 20
17278.19077868
 30
0.0
 11
4002.0
 21
17298.19078215
 31
0.0
  0
LINE
  5
37C
330
498
100
AcDbEntity
  8
YKK_Z1
  6
Continuous
100
AcDbLine
 10
4022.0
 20
17298.19078215
 30
0.0
 11
4002.0
 21
17318.19078561
 31
0.0
  0
LINE
  5
37D
330
498
100
AcDbEntity
  8
YKK_Z1
  6
Continuous
100
AcDbLine
 10
4002.0
 20
17178.19070593
 30
0.0
 11
4022.0
 21
17198.19069554
 31
0.0
  0
LINE
  5
37E
330
498
100
AcDbEntity
  8
YKK_Z1
  6
Continuous
100
AcDbLine
 10
4002.0
 20
17198.19069554
 30
0.0
 11
4022.0
 21
17218.19068515
 31
0.0
  0
LINE
  5
37F
330
498
100
AcDbEntity
  8
YKK_Z1
  6
Continuous
100
AcDbLine
 10
4002.0
 20
17218.19068515
 30
0.0
 11
4022.0
 21
17238.19067476
 31
0.0
  0
LINE
  5
380
330
498
100
AcDbEntity
  8
YKK_Z1
  6
Continuous
100
AcDbLine
 10
4002.0
 20
17238.19067476
 30
0.0
 11
4022.0
 21
17258.19066437
 31
0.0
  0
LINE
  5
381
330
498
100
AcDbEntity
  8
YKK_Z1
  6
Continuous
100
AcDbLine
 10
4002.0
 20
17258.19066437
 30
0.0
 11
4022.0
 21
17278.19065397
 31
0.0
  0
LINE
  5
382
330
498
100
AcDbEntity
  8
YKK_Z1
  6
Continuous
100
AcDbLine
 10
4002.0
 20
17278.19065397
 30
0.0
 11
4022.0
 21
17298.19064358
 31
0.0
  0
LINE
  5
383
330
498
100
AcDbEntity
  8
YKK_Z1
  6
Continuous
100
AcDbLine
 10
4002.0
 20
17298.19064358
 30
0.0
 11
4022.0
 21
17318.19063319
 31
0.0
  0
LINE
  5
384
330
498
100
AcDbEntity
  8
YKK_Z1
  6
Continuous
100
AcDbLine
 10
4022.0
 20
17318.19078561
 30
0.0
 11
4002.0
 21
17338.19078907
 31
0.0
  0
LINE
  5
385
330
498
100
AcDbEntity
  8
YKK_Z1
  6
Continuous
100
AcDbLine
 10
4002.0
 20
17318.19063319
 30
0.0
 11
4022.0
 21
17338.1906228
 31
0.0
  0
LINE
  5
386
330
498
100
AcDbEntity
  8
YKK_Z1
  6
Continuous
100
AcDbLine
 10
4002.0
 20
17098.1907475
 30
0.0
 11
4022.0
 21
17098.1907475
 31
0.0
  0
LINE
  5
388
330
498
100
AcDbEntity
  8
YKK_Z1
  6
Continuous
100
AcDbLine
 10
4022.0
 20
17098.1907475
 30
0.0
 11
4002.0
 21
17118.19075097
 31
0.0
  0
LINE
  5
389
330
498
100
AcDbEntity
  8
YKK_Z1
  6
Continuous
100
AcDbLine
 10
4022.0
 20
17118.19075097
 30
0.0
 11
4002.0
 21
17138.19075443
 31
0.0
  0
LINE
  5
38A
330
498
100
AcDbEntity
  8
YKK_Z1
  6
Continuous
100
AcDbLine
 10
4022.0
 20
17138.19075443
 30
0.0
 11
4002.0
 21
17158.1907579
 31
0.0
  0
LINE
  5
38B
330
498
100
AcDbEntity
  8
YKK_Z1
  6
Continuous
100
AcDbLine
 10
4002.0
 20
17098.1907475
 30
0.0
 11
4022.0
 21
17118.19073711
 31
0.0
  0
LINE
  5
38C
330
498
100
AcDbEntity
  8
YKK_Z1
  6
Continuous
100
AcDbLine
 10
4002.0
 20
17118.19073711
 30
0.0
 11
4022.0
 21
17138.19072672
 31
0.0
  0
LINE
  5
38D
330
498
100
AcDbEntity
  8
YKK_Z1
  6
Continuous
100
AcDbLine
 10
4002.0
 20
17138.19072672
 30
0.0
 11
4022.0
 21
17158.19071633
 31
0.0
  0
LINE
  5
38E
330
498
100
AcDbEntity
  8
YKK_Z1
  6
Continuous
100
AcDbLine
 10
4050.0
 20
17058.1907475
 30
0.0
 11
4050.0
 21
17045.6907475
 31
0.0
  0
LINE
  5
38F
330
498
100
AcDbEntity
  8
YKK_Z1
  6
Continuous
100
AcDbLine
 10
4002.0
 20
17415.6907475
 30
0.0
 11
4002.0
 21
17098.1907475
 31
0.0
  0
LINE
  5
390
330
498
100
AcDbEntity
  8
YKK_Z1
  6
Continuous
100
AcDbLine
 10
4022.0
 20
17098.1907475
 30
0.0
 11
4022.0
 21
17415.6907475
 31
0.0
  0
LINE
  5
391
330
498
100
AcDbEntity
  8
YKK_Z1
  6
Continuous
100
AcDbLine
 10
4022.0
 20
17158.1907579
 30
0.0
 11
4002.0
 21
17178.19076136
 31
0.0
  0
LINE
  5
392
330
498
100
AcDbEntity
  8
YKK_Z1
  6
Continuous
100
AcDbLine
 10
4002.0
 20
17158.19071633
 30
0.0
 11
4022.0
 21
17178.19070593
 31
0.0
  0
LINE
  5
393
330
498
100
AcDbEntity
  8
YKK_Z1
  6
Continuous
100
AcDbLine
 10
3981.48470884
 20
17098.1907475
 30
0.0
 11
4002.0
 21
17118.706028
 31
0.0
  0
LINE
  5
394
330
498
100
AcDbEntity
  8
YKK_Z1
  6
Continuous
100
AcDbLine
 10
3989.96999095
 20
17098.1907475
 30
0.0
 11
4002.0
 21
17110.2207503
 31
0.0
  0
LINE
  5
395
330
498
100
AcDbEntity
  8
YKK_Z1
100
AcDbLine
 10
4060.0
 20
17045.6907475
 30
0.0
 11
4050.0
 21
17045.6907475
 31
0.0
  0
LINE
  5
396
330
498
100
AcDbEntity
  8
YKK_A1
100
AcDbLine
 10
6537.5
 20
16315.6907475
 30
0.0
 11
8652.5
 21
16315.6907475
 31
0.0
  0
LINE
  5
397
330
498
100
AcDbEntity
  8
YKK_A1
100
AcDbLine
 10
8652.5
 20
17030.6907475
 30
0.0
 11
6537.5
 21
17030.6907475
 31
0.0
  0
LINE
  5
398
330
498
100
AcDbEntity
  8
YKK_A1
100
AcDbLine
 10
6552.5
 20
16315.6907475
 30
0.0
 11
7552.5
 21
16315.6907475
 31
0.0
  0
LINE
  5
399
330
498
100
AcDbEntity
  8
YKK_A1
100
AcDbLine
 10
7552.5
 20
17015.6907475
 30
0.0
 11
6552.5
 21
17015.6907475
 31
0.0
  0
LINE
  5
39A
330
498
100
AcDbEntity
  8
YKK_A1
  6
CENTER
100
AcDbLine
 10
6552.5
 20
16315.6907475
 30
0.0
 11
7552.5
 21
17015.6907475
 31
0.0
  0
LINE
  5
39B
330
498
100
AcDbEntity
  8
YKK_A1
100
AcDbLine
 10
6537.5
 20
17030.6907475
 30
0.0
 11
6537.5
 21
16315.6907475
 31
0.0
  0
LINE
  5
39C
330
498
100
AcDbEntity
  8
YKK_A1
100
AcDbLine
 10
6552.5
 20
17015.6907475
 30
0.0
 11
6552.5
 21
16315.6907475
 31
0.0
  0
POINT
  5
39D
330
498
100
AcDbEntity
  8
YKK_N1
  6
ByBlock
100
AcDbPoint
 10
6552.5
 20
16315.6907475
 30
0.0
  0
POINT
  5
39E
330
498
100
AcDbEntity
  8
YKK_N1
  6
ByBlock
100
AcDbPoint
 10
6552.5
 20
16315.6907475
 30
0.0
  0
LINE
  5
39F
330
498
100
AcDbEntity
  8
YKK_A1
100
AcDbLine
 10
8637.5
 20
17015.6907475
 30
0.0
 11
7637.5
 21
17015.6907475
 31
0.0
  0
LINE
  5
3A0
330
498
100
AcDbEntity
  8
YKK_A1
100
AcDbLine
 10
8637.5
 20
17015.6907475
 30
0.0
 11
7637.5
 21
17015.6907475
 31
0.0
  0
LINE
  5
3A1
330
498
100
AcDbEntity
  8
YKK_A1
100
AcDbLine
 10
7637.5
 20
16315.6907475
 30
0.0
 11
8637.5
 21
16315.6907475
 31
0.0
  0
LINE
  5
3A2
330
498
100
AcDbEntity
  8
YKK_A1
100
AcDbLine
 10
7637.5
 20
16315.6907475
 30
0.0
 11
8637.5
 21
16315.6907475
 31
0.0
  0
LINE
  5
3A3
330
498
100
AcDbEntity
  8
YKK_A1
100
AcDbLine
 10
7552.5
 20
16315.6907475
 30
0.0
 11
7552.5
 21
17015.6907475
 31
0.0
  0
LINE
  5
3A4
330
498
100
AcDbEntity
  8
YKK_A1
100
AcDbLine
 10
7637.5
 20
16315.6907475
 30
0.0
 11
7637.5
 21
17015.6907475
 31
0.0
  0
LINE
  5
3A5
330
498
100
AcDbEntity
  8
YKK_A1
100
AcDbLine
 10
7552.5
 20
17015.6907475
 30
0.0
 11
7552.5
 21
16315.6907475
 31
0.0
  0
LINE
  5
3A6
330
498
100
AcDbEntity
  8
YKK_A1
100
AcDbLine
 10
7637.5
 20
17015.6907475
 30
0.0
 11
7637.5
 21
16315.6907475
 31
0.0
  0
LINE
  5
3A7
330
498
100
AcDbEntity
  8
YKK_A1
100
AcDbLine
 10
7637.5
 20
17015.6907475
 30
0.0
 11
7637.5
 21
16315.6907475
 31
0.0
  0
POINT
  5
3A8
330
498
100
AcDbEntity
  8
YKK_N1
  6
ByBlock
100
AcDbPoint
 10
7552.5
 20
16315.6907475
 30
0.0
  0
POINT
  5
3A9
330
498
100
AcDbEntity
  8
YKK_N1
  6
ByBlock
100
AcDbPoint
 10
7637.5
 20
16315.6907475
 30
0.0
  0
POINT
  5
3AA
330
498
100
AcDbEntity
  8
YKK_N1
  6
ByBlock
100
AcDbPoint
 10
7637.5
 20
16315.6907475
 30
0.0
  0
POINT
  5
3AB
330
498
100
AcDbEntity
  8
YKK_N1
  6
ByBlock
100
AcDbPoint
 10
7552.5
 20
16315.6907475
 30
0.0
  0
LINE
  5
3AC
330
498
100
AcDbEntity
  8
YKK_A1
100
AcDbLine
 10
7552.5
 20
16315.6907475
 30
0.0
 11
7637.5
 21
16315.6907475
 31
0.0
  0
LINE
  5
3AD
330
498
100
AcDbEntity
  8
YKK_A1
100
AcDbLine
 10
7637.5
 20
17015.6907475
 30
0.0
 11
7552.5
 21
17015.6907475
 31
0.0
  0
LINE
  5
3AE
330
498
100
AcDbEntity
  8
YKK_A1
100
AcDbLine
 10
8652.5
 20
16315.6907475
 30
0.0
 11
8652.5
 21
17030.6907475
 31
0.0
  0
LINE
  5
3AF
330
498
100
AcDbEntity
  8
YKK_A1
100
AcDbLine
 10
8637.5
 20
16315.6907475
 30
0.0
 11
8637.5
 21
17015.6907475
 31
0.0
  0
LINE
  5
3B0
330
498
100
AcDbEntity
  8
YKK_A1
100
AcDbLine
 10
8637.5
 20
16315.6907475
 30
0.0
 11
8637.5
 21
17015.6907475
 31
0.0
  0
POINT
  5
3B1
330
498
100
AcDbEntity
  8
YKK_N1
  6
ByBlock
100
AcDbPoint
 10
8637.5
 20
16315.6907475
 30
0.0
  0
POINT
  5
3B2
330
498
100
AcDbEntity
  8
YKK_N1
  6
ByBlock
100
AcDbPoint
 10
8637.5
 20
16315.6907475
 30
0.0
  0
POINT
  5
3B3
330
498
100
AcDbEntity
  8
YKK_N1
  6
ByBlock
100
AcDbPoint
 10
8637.5
 20
16315.6907475
 30
0.0
  0
TEXT
  5
3B4
330
498
100
AcDbEntity
  8
YKK_A1
100
AcDbText
 10
8568.64285714
 20
16345.6907475
 30
0.0
 40
60.0
  1
F
 41
0.8
  7
YKK_SGSTYLE1
 72
     2
 11
8607.5
 21
16345.6907475
 31
0.0
100
AcDbText
  0
POINT
  5
3B5
330
498
100
AcDbEntity
  8
YKK_N1
  6
ByBlock
100
AcDbPoint
 10
8637.5
 20
17015.6907475
 30
0.0
  0
LINE
  5
3B6
330
498
100
AcDbEntity
  8
YKK_N1
100
AcDbLine
 10
10162.5
 20
16815.6907475
 30
0.0
 11
10182.5
 21
16815.6907475
 31
0.0
  0
TEXT
  5
3B7
330
498
100
AcDbEntity
  8
YKK_N1
100
AcDbText
 10
10160.5
 20
16825.6907475
 30
0.0
 40
60.0
  1
140
 41
0.8
  7
YKK_SGSTYLE1
100
AcDbText
  0
LINE
  5
3B8
330
498
100
AcDbEntity
  8
YKK_Z1
  6
Continuous
100
AcDbLine
 10
10064.5
 20
17235.69084103
 30
0.0
 11
10244.5
 21
17415.6907475
 31
0.0
  0
LINE
  5
3B9
330
498
100
AcDbEntity
  8
YKK_Z1
  6
Continuous
100
AcDbLine
 10
10064.5
 20
17227.20556333
 30
0.0
 11
10244.5
 21
17407.2054698
 31
0.0
  0
LINE
  5
3BA
330
498
100
AcDbEntity
  8
YKK_Z1
  6
Continuous
100
AcDbLine
 10
10064.5
 20
17207.40658203
 30
0.0
 11
10244.5
 21
17387.4064885
 31
0.0
  0
LINE
  5
3BB
330
498
100
AcDbEntity
  8
YKK_Z1
  6
Continuous
100
AcDbLine
 10
10244.5
 20
17098.1907475
 30
0.0
 11
10119.5
 21
17098.1907475
 31
0.0
  0
LINE
  5
3BC
330
498
100
AcDbEntity
  8
YKK_Z1
100
AcDbLine
 10
10162.5
 20
17020.6907475
 30
0.0
 11
10302.5
 21
17020.6907475
 31
0.0
  0
LINE
  5
3BD
330
498
100
AcDbEntity
  8
YKK_Z1
100
AcDbLine
 10
10162.5
 20
16310.6907475
 30
0.0
 11
10302.5
 21
16310.6907475
 31
0.0
  0
LINE
  5
3BE
330
498
100
AcDbEntity
  8
YKK_C1
100
AcDbLine
 10
10162.5
 20
17015.6907475
 30
0.0
 11
10162.5
 21
17055.6907475
 31
0.0
  0
LINE
  5
3BF
330
498
100
AcDbEntity
  8
YKK_C1
100
AcDbLine
 10
10156.5
 20
17015.6907475
 30
0.0
 11
10156.5
 21
17032.6907475
 31
0.0
  0
LINE
  5
3C0
330
498
100
AcDbEntity
  8
YKK_C1
100
AcDbLine
 10
10122.5
 20
17015.6907475
 30
0.0
 11
10122.5
 21
17040.6907475
 31
0.0
  0
LINE
  5
3C1
330
498
100
AcDbEntity
  8
YKK_C1
100
AcDbLine
 10
10092.5
 20
17015.6907475
 30
0.0
 11
10092.5
 21
17049.6907475
 31
0.0
  0
LINE
  5
3C2
330
498
100
AcDbEntity
  8
YKK_C1
100
AcDbLine
 10
10037.5
 20
16285.6907475
 30
0.0
 11
10037.5
 21
17035.6907475
 31
0.0
  0
TEXT
  5
3C3
330
498
100
AcDbEntity
  8
YKK_N1
100
AcDbText
 10
9027.5
 20
16541.11931893
 30
0.0
 40
60.0
  1
H=700
 50
90.0
 41
0.8
  7
YKK_SGSTYLE1
100
AcDbText
  0
LINE
  5
3C4
330
498
100
AcDbEntity
  8
YKK_N1
  6
ByBlock
100
AcDbLine
 10
9037.5
 20
16316.6907475
 30
0.0
 11
9037.5
 21
17014.6907475
 31
0.0
  0
LINE
  5
3C5
330
498
100
AcDbEntity
  8
YKK_N1
  6
ByBlock
100
AcDbLine
 10
8987.5
 20
16402.29328788
 30
0.0
 11
9037.5
 21
16315.6907475
 31
0.0
  0
LINE
  5
3C6
330
498
100
AcDbEntity
  8
YKK_N1
  6
ByBlock
100
AcDbLine
 10
9087.5
 20
16402.29328788
 30
0.0
 11
8987.5
 21
16402.29328788
 31
0.0
  0
LINE
  5
3C7
330
498
100
AcDbEntity
  8
YKK_N1
  6
ByBlock
100
AcDbLine
 10
9037.5
 20
16315.6907475
 30
0.0
 11
9087.5
 21
16402.29328788
 31
0.0
  0
LINE
  5
3C8
330
498
100
AcDbEntity
  8
YKK_N1
  6
ByBlock
100
AcDbLine
 10
9037.5
 20
16315.6907475
 30
0.0
 11
9037.5
 21
16415.6907475
 31
0.0
  0
LINE
  5
3C9
330
498
100
AcDbEntity
  8
YKK_N1
  6
ByBlock
100
AcDbLine
 10
9087.5
 20
16929.08820713
 30
0.0
 11
9037.5
 21
17015.6907475
 31
0.0
  0
LINE
  5
3CA
330
498
100
AcDbEntity
  8
YKK_N1
  6
ByBlock
100
AcDbLine
 10
8987.5
 20
16929.08820713
 30
0.0
 11
9087.5
 21
16929.08820713
 31
0.0
  0
LINE
  5
3CB
330
498
100
AcDbEntity
  8
YKK_N1
  6
ByBlock
100
AcDbLine
 10
9037.5
 20
17015.6907475
 30
0.0
 11
8987.5
 21
16929.08820713
 31
0.0
  0
LINE
  5
3CC
330
498
100
AcDbEntity
  8
YKK_N1
  6
ByBlock
100
AcDbLine
 10
9037.5
 20
17015.6907475
 30
0.0
 11
9037.5
 21
16915.6907475
 31
0.0
  0
POINT
  5
3CD
330
498
100
AcDbEntity
  8
YKK_N1
  6
ByBlock
100
AcDbPoint
 10
9037.5
 20
17015.6907475
 30
0.0
  0
LINE
  5
3CE
330
498
100
AcDbEntity
  8
YKK_C1
100
AcDbLine
 10
10102.5
 20
16307.6907475
 30
0.0
 11
10102.5
 21
17023.6907475
 31
0.0
  0
LINE
  5
3CF
330
498
100
AcDbEntity
  8
YKK_C1
100
AcDbLine
 10
10162.5
 20
16335.6907475
 30
0.0
 11
10162.5
 21
16995.6907475
 31
0.0
  0
LINE
  5
3D0
330
498
100
AcDbEntity
  8
YKK_C1
  6
PHANTOM
100
AcDbLine
 10
10092.5
 20
17019.80185862
 30
0.0
 11
9829.83290296
 21
16298.11634141
 31
0.0
  0
ARC
  5
3D1
330
498
100
AcDbEntity
  8
YKK_C1
  6
PHANTOM
100
AcDbCircle
 10
10008.39001
 20
17045.07106529
 30
0.0
 40
768.0000000000005
100
AcDbArc
 50
256.55591989
 51
276.2875436
  0
TEXT
  5
3D2
330
498
100
AcDbEntity
  8
YKK_N1
100
AcDbText
 10
9857.13146002
 20
16294.61164321
 30
0.0
 40
60.0
  1
20ﾟ
 50
350.00021945
 41
0.8
  7
YKK_SGSTYLE1
100
AcDbText
  0
POINT
  5
3D3
330
498
100
AcDbEntity
  8
YKK_N1
  6
ByBlock
100
AcDbPoint
 10
9918.34847184
 20
16365.93933064
 30
0.0
  0
POINT
  5
3D4
330
498
100
AcDbEntity
  8
YKK_N1
  6
ByBlock
100
AcDbPoint
 10
10037.5
 20
16352.01282277
 30
0.0
  0
POINT
  5
3D5
330
498
100
AcDbEntity
  8
YKK_N1
  6
ByBlock
100
AcDbPoint
 10
9860.78951158
 20
16383.17095179
 30
0.0
  0
SOLID
  5
3D6
330
498
100
AcDbEntity
  8
YKK_N1
  6
ByBlock
100
AcDbTrace
 10
9997.78803769
 20
16360.22284678
 30
0.0
 11
9997.27191976
 21
16346.89950635
 31
0.0
 12
10037.5
 22
16352.01282277
 32
0.0
 13
10037.5
 23
16352.01282277
 33
0.0
  0
SOLID
  5
3D7
330
498
100
AcDbEntity
  8
YKK_N1
  6
ByBlock
100
AcDbTrace
 10
9896.84282672
 20
16364.60746849
 30
0.0
 11
9900.91458805
 21
16377.30386709
 31
0.0
 12
9860.78951158
 22
16383.17095179
 32
0.0
 13
9860.78951158
 23
16383.17095179
 33
0.0
  0
ARC
  5
3D8
330
498
100
AcDbEntity
  8
YKK_N1
  6
ByBlock
100
AcDbCircle
 10
10037.5
 20
16868.69060055
 30
0.0
 40
516.6777777777838
100
AcDbArc
 50
254.43725426
 51
265.56318463
  0
POINT
  5
3D9
330
498
100
AcDbEntity
  8
YKK_N1
  6
ByBlock
100
AcDbPoint
 10
10162.5
 20
16315.6907475
 30
0.0
  0
LINE
  5
3DA
330
498
100
AcDbEntity
  8
YKK_C1
100
AcDbLine
 10
10162.5
 20
16315.6907475
 30
0.0
 11
10162.5
 21
16275.6907475
 31
0.0
  0
LINE
  5
3DB
330
498
100
AcDbEntity
  8
YKK_C1
100
AcDbLine
 10
10162.5
 20
16275.6907475
 30
0.0
 11
10122.5
 21
16275.6907475
 31
0.0
  0
LINE
  5
3DC
330
498
100
AcDbEntity
  8
YKK_C1
100
AcDbLine
 10
10122.5
 20
16275.6907475
 30
0.0
 11
10122.5
 21
16265.6907475
 31
0.0
  0
LINE
  5
3DD
330
498
100
AcDbEntity
  8
YKK_C1
100
AcDbLine
 10
10092.5
 20
16265.6907475
 30
0.0
 11
10162.5
 21
16265.6907475
 31
0.0
  0
LINE
  5
3DE
330
498
100
AcDbEntity
  8
YKK_C1
100
AcDbLine
 10
10162.5
 20
16275.6907475
 30
0.0
 11
10162.5
 21
16253.1907475
 31
0.0
  0
LINE
  5
3DF
330
498
100
AcDbEntity
  8
YKK_C1
100
AcDbLine
 10
10162.5
 20
16253.1907475
 30
0.0
 11
10155.5
 21
16253.1907475
 31
0.0
  0
LINE
  5
3E0
330
498
100
AcDbEntity
  8
YKK_C1
100
AcDbLine
 10
10156.5
 20
16315.6907475
 30
0.0
 11
10156.5
 21
16298.6907475
 31
0.0
  0
LINE
  5
3E1
330
498
100
AcDbEntity
  8
YKK_C1
100
AcDbLine
 10
10122.5
 20
16315.6907475
 30
0.0
 11
10122.5
 21
16290.6907475
 31
0.0
  0
LINE
  5
3E2
330
498
100
AcDbEntity
  8
YKK_C1
100
AcDbLine
 10
10092.5
 20
16315.6907475
 30
0.0
 11
10092.5
 21
16281.6907475
 31
0.0
  0
LINE
  5
3E3
330
498
100
AcDbEntity
  8
YKK_C1
100
AcDbLine
 10
10156.5
 20
16315.6907475
 30
0.0
 11
10112.5
 21
16315.6907475
 31
0.0
  0
LINE
  5
3E4
330
498
100
AcDbEntity
  8
YKK_C1
100
AcDbLine
 10
10156.5
 20
16307.1907475
 30
0.0
 11
10122.5
 21
16307.1907475
 31
0.0
  0
LINE
  5
3E5
330
498
100
AcDbEntity
  8
YKK_C1
100
AcDbLine
 10
10122.5
 20
16290.6907475
 30
0.0
 11
10092.5
 21
16290.6907475
 31
0.0
  0
LINE
  5
3E6
330
498
100
AcDbEntity
  8
YKK_C1
100
AcDbLine
 10
10037.5
 20
16258.1907475
 30
0.0
 11
10037.5
 21
16253.1907475
 31
0.0
  0
LINE
  5
3E7
330
498
100
AcDbEntity
  8
YKK_C1
100
AcDbLine
 10
10092.5
 20
16265.6907475
 30
0.0
 11
10037.5
 21
16258.1907475
 31
0.0
  0
LINE
  5
3E8
330
498
100
AcDbEntity
  8
YKK_C1
100
AcDbLine
 10
10037.5
 20
16253.1907475
 30
0.0
 11
10099.5
 21
16253.1907475
 31
0.0
  0
TEXT
  5
3E9
330
498
100
AcDbEntity
  8
YKK_N1
100
AcDbText
 10
10028.0
 20
16860.6907475
 30
0.0
 40
60.0
  1
125
 41
0.8
  7
YKK_SGSTYLE1
100
AcDbText
  0
LINE
  5
3EA
330
498
100
AcDbEntity
  8
YKK_N1
100
AcDbLine
 10
10162.5
 20
16815.6907475
 30
0.0
 11
10142.5
 21
16815.6907475
 31
0.0
  0
CIRCLE
  5
3EB
330
498
100
AcDbEntity
  8
YKK_N1
100
AcDbCircle
 10
10162.5
 20
16815.6907475
 30
0.0
 40
6.5
  0
CIRCLE
  5
3EC
330
498
100
AcDbEntity
  8
YKK_N1
100
AcDbCircle
 10
10162.5
 20
16815.6907475
 30
0.0
 40
10.0
  0
LINE
  5
3ED
330
498
100
AcDbEntity
  8
YKK_N1
100
AcDbLine
 10
10037.5
 20
16815.6907475
 30
0.0
 11
10057.5
 21
16815.6907475
 31
0.0
  0
CIRCLE
  5
3EE
330
498
100
AcDbEntity
  8
YKK_N1
100
AcDbCircle
 10
10037.5
 20
16815.6907475
 30
0.0
 40
6.5
  0
CIRCLE
  5
3EF
330
498
100
AcDbEntity
  8
YKK_N1
100
AcDbCircle
 10
10037.5
 20
16815.6907475
 30
0.0
 40
10.0
  0
CIRCLE
  5
3F0
330
498
100
AcDbEntity
  8
YKK_N1
100
AcDbCircle
 10
10162.5
 20
16815.6907475
 30
0.0
 40
6.5
  0
CIRCLE
  5
3F1
330
498
100
AcDbEntity
  8
YKK_N1
100
AcDbCircle
 10
10162.5
 20
16815.6907475
 30
0.0
 40
10.0
  0
POINT
  5
3F2
330
498
100
AcDbEntity
  8
YKK_N1
  6
ByBlock
100
AcDbPoint
 10
10037.5
 20
16815.6907475
 30
0.0
  0
POINT
  5
3F3
330
498
100
AcDbEntity
  8
YKK_N1
  6
ByBlock
100
AcDbPoint
 10
10037.5
 20
16805.6907475
 30
0.0
  0
POINT
  5
3F4
330
498
100
AcDbEntity
  8
YKK_N1
  6
ByBlock
100
AcDbPoint
 10
10162.5
 20
16805.6907475
 30
0.0
  0
LINE
  5
3F5
330
498
100
AcDbEntity
  8
YKK_N1
  6
ByBlock
100
AcDbLine
 10
10142.5
 20
16815.6907475
 30
0.0
 11
10057.5
 21
16815.6907475
 31
0.0
  0
LINE
  5
3F6
330
498
100
AcDbEntity
  8
YKK_N1
  6
ByBlock
100
AcDbLine
 10
10037.5
 20
16865.6907475
 30
0.0
 11
10037.5
 21
16845.6907475
 31
0.0
  0
LINE
  5
3F7
330
498
100
AcDbEntity
  8
YKK_N1
  6
ByBlock
100
AcDbLine
 10
10162.5
 20
16865.6907475
 30
0.0
 11
10162.5
 21
16845.6907475
 31
0.0
  0
POINT
  5
3F8
330
498
100
AcDbEntity
  8
YKK_N1
  6
ByBlock
100
AcDbPoint
 10
10037.5
 20
16868.69060055
 30
0.0
  0
POINT
  5
3F9
330
498
100
AcDbEntity
  8
YKK_N1
  6
ByBlock
100
AcDbPoint
 10
10162.5
 20
16815.6907475
 30
0.0
  0
LINE
  5
3FA
330
498
100
AcDbEntity
  8
YKK_N1
  6
ByBlock
100
AcDbLine
 10
10162.5
 20
16875.6907475
 30
0.0
 11
10162.5
 21
16845.6907475
 31
0.0
  0
POINT
  5
3FB
330
498
100
AcDbEntity
  8
YKK_N1
  6
ByBlock
100
AcDbPoint
 10
10162.5
 20
17015.6907475
 30
0.0
  0
LINE
  5
3FC
330
498
100
AcDbEntity
  8
YKK_C1
100
AcDbLine
 10
10156.5
 20
17015.6907475
 30
0.0
 11
10112.5
 21
17015.6907475
 31
0.0
  0
LINE
  5
3FD
330
498
100
AcDbEntity
  8
YKK_C1
100
AcDbLine
 10
10156.5
 20
17024.1907475
 30
0.0
 11
10122.5
 21
17024.1907475
 31
0.0
  0
LINE
  5
3FE
330
498
100
AcDbEntity
  8
YKK_C1
100
AcDbLine
 10
10162.5
 20
17055.6907475
 30
0.0
 11
10092.5
 21
17055.6907475
 31
0.0
  0
LINE
  5
3FF
330
498
100
AcDbEntity
  8
YKK_C1
100
AcDbLine
 10
10162.5
 20
17055.6907475
 30
0.0
 11
10162.5
 21
17068.6907475
 31
0.0
  0
LINE
  5
400
330
498
100
AcDbEntity
  8
YKK_C1
100
AcDbLine
 10
10162.5
 20
17068.6907475
 30
0.0
 11
10155.5
 21
17068.6907475
 31
0.0
  0
LINE
  5
401
330
498
100
AcDbEntity
  8
YKK_C1
100
AcDbLine
 10
10092.5
 20
17068.6907475
 30
0.0
 11
10099.5
 21
17068.6907475
 31
0.0
  0
LINE
  5
402
330
498
100
AcDbEntity
  8
YKK_C1
100
AcDbLine
 10
10092.5
 20
17055.6907475
 30
0.0
 11
10092.5
 21
17070.6907475
 31
0.0
  0
LINE
  5
403
330
498
100
AcDbEntity
  8
YKK_C1
100
AcDbLine
 10
10122.5
 20
17040.6907475
 30
0.0
 11
10092.5
 21
17040.6907475
 31
0.0
  0
LINE
  5
404
330
498
100
AcDbEntity
  8
YKK_C1
100
AcDbLine
 10
10037.5
 20
17060.6907475
 30
0.0
 11
10037.5
 21
17055.6907475
 31
0.0
  0
LINE
  5
405
330
498
100
AcDbEntity
  8
YKK_C1
100
AcDbLine
 10
10092.5
 20
17065.6907475
 30
0.0
 11
10037.5
 21
17060.6907475
 31
0.0
  0
LINE
  5
406
330
498
100
AcDbEntity
  8
YKK_C1
100
AcDbLine
 10
10037.5
 20
17055.6907475
 30
0.0
 11
10092.5
 21
17055.6907475
 31
0.0
  0
LINE
  5
407
330
498
100
AcDbEntity
  8
YKK_Z1
  6
Continuous
100
AcDbLine
 10
10052.5
 20
17397.0907475
 30
0.0
 11
10060.5
 21
17397.0907475
 31
0.0
  0
LINE
  5
408
330
498
100
AcDbEntity
  8
YKK_Z1
  6
Continuous
100
AcDbLine
 10
10052.5
 20
17407.0907475
 30
0.0
 11
10060.5
 21
17407.0907475
 31
0.0
  0
LINE
  5
409
330
498
100
AcDbEntity
  8
YKK_Z1
  6
Continuous
100
AcDbLine
 10
10052.5
 20
17177.0907475
 30
0.0
 11
10060.5
 21
17177.0907475
 31
0.0
  0
LINE
  5
40A
330
498
100
AcDbEntity
  8
YKK_Z1
  6
Continuous
100
AcDbLine
 10
10052.5
 20
17187.0907475
 30
0.0
 11
10060.5
 21
17187.0907475
 31
0.0
  0
LINE
  5
40B
330
498
100
AcDbEntity
  8
YKK_Z1
  6
Continuous
100
AcDbLine
 10
10052.5
 20
17287.0907475
 30
0.0
 11
10060.5
 21
17287.0907475
 31
0.0
  0
LINE
  5
40C
330
498
100
AcDbEntity
  8
YKK_Z1
  6
Continuous
100
AcDbLine
 10
10052.5
 20
17297.0907475
 30
0.0
 11
10060.5
 21
17297.0907475
 31
0.0
  0
LINE
  5
40D
330
498
100
AcDbEntity
  8
YKK_Z1
  6
Continuous
100
AcDbLine
 10
10119.5
 20
17098.1907475
 30
0.0
 11
10109.5
 21
17083.1907475
 31
0.0
  0
LINE
  5
40E
330
498
100
AcDbEntity
  8
YKK_Z1
  6
Continuous
100
AcDbLine
 10
10052.5
 20
17060.6907475
 30
0.0
 11
10052.5
 21
17077.0907475
 31
0.0
  0
LINE
  5
40F
330
498
100
AcDbEntity
  8
YKK_Z1
  6
Continuous
100
AcDbLine
 10
10052.5
 20
17077.0907475
 30
0.0
 11
10060.5
 21
17077.0907475
 31
0.0
  0
LINE
  5
410
330
498
100
AcDbEntity
  8
YKK_Z1
  6
Continuous
100
AcDbLine
 10
10109.5
 20
17083.1907475
 30
0.0
 11
10064.5
 21
17083.1907475
 31
0.0
  0
LINE
  5
411
330
498
100
AcDbEntity
  8
YKK_Z1
  6
Continuous
100
AcDbLine
 10
10064.5
 20
17083.1907475
 30
0.0
 11
10064.5
 21
17415.6907475
 31
0.0
  0
LINE
  5
412
330
498
100
AcDbEntity
  8
YKK_Z1
  6
CENTER
100
AcDbLine
 10
10154.5
 20
17083.4407475
 30
0.0
 11
10154.5
 21
17415.6907475
 31
0.0
  0
LINE
  5
413
330
498
100
AcDbEntity
  8
YKK_Z1
  6
Continuous
100
AcDbLine
 10
10052.5
 20
17077.0907475
 30
0.0
 11
10052.5
 21
17415.6907475
 31
0.0
  0
LINE
  5
414
330
498
100
AcDbEntity
  8
YKK_Z1
  6
Continuous
100
AcDbLine
 10
10060.5
 20
17077.0907475
 30
0.0
 11
10060.5
 21
17415.6907475
 31
0.0
  0
LINE
  5
415
330
498
100
AcDbEntity
  8
YKK_Z1
100
AcDbLine
 10
10302.5
 20
17020.6907475
 30
0.0
 11
10302.5
 21
17045.6907475
 31
0.0
  0
TEXT
  5
416
330
498
100
AcDbEntity
  8
YKK_N1
100
AcDbText
 10
10552.5
 20
16541.11931893
 30
0.0
 40
60.0
  1
H=700
 50
90.0
 41
0.8
  7
YKK_SGSTYLE1
100
AcDbText
  0
LINE
  5
417
330
498
100
AcDbEntity
  8
YKK_N1
  6
ByBlock
100
AcDbLine
 10
10562.5
 20
16316.6907475
 30
0.0
 11
10562.5
 21
17014.6907475
 31
0.0
  0
LINE
  5
418
330
498
100
AcDbEntity
  8
YKK_Z1
  6
Continuous
100
AcDbLine
 10
10299.5
 20
16310.6907475
 30
0.0
 11
10299.5
 21
16665.6907475
 31
0.0
  0
LINE
  5
419
330
498
100
AcDbEntity
  8
YKK_N1
  6
ByBlock
100
AcDbLine
 10
10512.5
 20
16402.29328788
 30
0.0
 11
10562.5
 21
16315.6907475
 31
0.0
  0
LINE
  5
41A
330
498
100
AcDbEntity
  8
YKK_N1
  6
ByBlock
100
AcDbLine
 10
10612.5
 20
16402.29328788
 30
0.0
 11
10512.5
 21
16402.29328788
 31
0.0
  0
LINE
  5
41B
330
498
100
AcDbEntity
  8
YKK_N1
  6
ByBlock
100
AcDbLine
 10
10222.5
 20
16315.6907475
 30
0.0
 11
10592.5
 21
16315.6907475
 31
0.0
  0
LINE
  5
41C
330
498
100
AcDbEntity
  8
YKK_Z1
  6
Continuous
100
AcDbLine
 10
10280.0
 20
16295.6907475
 30
0.0
 11
10292.5
 21
16295.6907475
 31
0.0
  0
LINE
  5
41D
330
498
100
AcDbEntity
  8
YKK_Z1
100
AcDbLine
 10
10302.5
 20
16310.6907475
 30
0.0
 11
10302.5
 21
16285.6907475
 31
0.0
  0
LINE
  5
41E
330
498
100
AcDbEntity
  8
YKK_Z1
100
AcDbLine
 10
10302.5
 20
16285.6907475
 30
0.0
 11
10292.5
 21
16285.6907475
 31
0.0
  0
LINE
  5
41F
330
498
100
AcDbEntity
  8
YKK_N1
  6
ByBlock
100
AcDbLine
 10
10562.5
 20
16315.6907475
 30
0.0
 11
10562.5
 21
16295.6907475
 31
0.0
  0
LINE
  5
420
330
498
100
AcDbEntity
  8
YKK_N1
  6
ByBlock
100
AcDbLine
 10
10562.5
 20
16315.6907475
 30
0.0
 11
10612.5
 21
16402.29328788
 31
0.0
  0
LINE
  5
421
330
498
100
AcDbEntity
  8
YKK_N1
  6
ByBlock
100
AcDbLine
 10
10562.5
 20
16315.6907475
 30
0.0
 11
10562.5
 21
16415.6907475
 31
0.0
  0
POINT
  5
422
330
498
100
AcDbEntity
  8
YKK_N1
  6
ByBlock
100
AcDbPoint
 10
10562.5
 20
16315.6907475
 30
0.0
  0
LINE
  5
423
330
498
100
AcDbEntity
  8
YKK_N1
  6
ByBlock
100
AcDbLine
 10
10512.5
 20
16929.08820713
 30
0.0
 11
10612.5
 21
16929.08820713
 31
0.0
  0
LINE
  5
424
330
498
100
AcDbEntity
  8
YKK_N1
  6
ByBlock
100
AcDbLine
 10
10562.5
 20
17015.6907475
 30
0.0
 11
10512.5
 21
16929.08820713
 31
0.0
  0
LINE
  5
425
330
498
100
AcDbEntity
  8
YKK_N1
  6
ByBlock
100
AcDbLine
 10
10222.5
 20
17015.6907475
 30
0.0
 11
10592.5
 21
17015.6907475
 31
0.0
  0
LINE
  5
426
330
498
100
AcDbEntity
  8
YKK_N1
100
AcDbLine
 10
10302.5
 20
16815.6907475
 30
0.0
 11
10282.5
 21
16815.6907475
 31
0.0
  0
CIRCLE
  5
427
330
498
100
AcDbEntity
  8
YKK_N1
100
AcDbCircle
 10
10302.5
 20
16815.6907475
 30
0.0
 40
6.5
  0
CIRCLE
  5
428
330
498
100
AcDbEntity
  8
YKK_N1
100
AcDbCircle
 10
10302.5
 20
16815.6907475
 30
0.0
 40
10.0
  0
POINT
  5
429
330
498
100
AcDbEntity
  8
YKK_N1
  6
ByBlock
100
AcDbPoint
 10
10302.5
 20
16815.6907475
 30
0.0
  0
POINT
  5
42A
330
498
100
AcDbEntity
  8
YKK_N1
  6
ByBlock
100
AcDbPoint
 10
10302.5
 20
17020.6907475
 30
0.0
  0
LINE
  5
42B
330
498
100
AcDbEntity
  8
YKK_N1
  6
ByBlock
100
AcDbLine
 10
10182.5
 20
16815.6907475
 30
0.0
 11
10282.5
 21
16815.6907475
 31
0.0
  0
LINE
  5
42C
330
498
100
AcDbEntity
  8
YKK_N1
  6
ByBlock
100
AcDbLine
 10
10302.5
 20
16960.6907475
 30
0.0
 11
10302.5
 21
16785.6907475
 31
0.0
  0
LINE
  5
42D
330
498
100
AcDbEntity
  8
YKK_Z1
  6
Continuous
100
AcDbLine
 10
10299.5
 20
17020.6907475
 30
0.0
 11
10299.5
 21
16665.6907475
 31
0.0
  0
LINE
  5
42E
330
498
100
AcDbEntity
  8
YKK_N1
  6
ByBlock
100
AcDbLine
 10
10612.5
 20
16929.08820713
 30
0.0
 11
10562.5
 21
17015.6907475
 31
0.0
  0
LINE
  5
42F
330
498
100
AcDbEntity
  8
YKK_N1
  6
ByBlock
100
AcDbLine
 10
10562.5
 20
17015.6907475
 30
0.0
 11
10562.5
 21
16915.6907475
 31
0.0
  0
POINT
  5
430
330
498
100
AcDbEntity
  8
YKK_N1
  6
ByBlock
100
AcDbPoint
 10
10562.5
 20
17015.6907475
 30
0.0
  0
LINE
  5
431
330
498
100
AcDbEntity
  8
YKK_Z1
  6
Continuous
100
AcDbLine
 10
10292.5
 20
17045.6907475
 30
0.0
 11
10562.5
 21
17045.6907475
 31
0.0
  0
LINE
  5
432
330
498
100
AcDbEntity
  8
YKK_Z1
  6
Continuous
100
AcDbLine
 10
10562.5
 20
17058.1907475
 30
0.0
 11
10292.5
 21
17058.1907475
 31
0.0
  0
LINE
  5
433
330
498
100
AcDbEntity
  8
YKK_Z1
  6
Continuous
100
AcDbLine
 10
10264.5
 20
17338.19078907
 30
0.0
 11
10244.5
 21
17358.19079254
 31
0.0
  0
LINE
  5
434
330
498
100
AcDbEntity
  8
YKK_Z1
  6
Continuous
100
AcDbLine
 10
10264.5
 20
17358.19079254
 30
0.0
 11
10244.5
 21
17378.190796
 31
0.0
  0
LINE
  5
435
330
498
100
AcDbEntity
  8
YKK_Z1
  6
Continuous
100
AcDbLine
 10
10264.5
 20
17378.190796
 30
0.0
 11
10244.5
 21
17398.19079947
 31
0.0
  0
LINE
  5
436
330
498
100
AcDbEntity
  8
YKK_Z1
  6
Continuous
100
AcDbLine
 10
10264.5
 20
17398.19079947
 30
0.0
 11
10247.00005499
 21
17415.6907475
 31
0.0
  0
LINE
  5
437
330
498
100
AcDbEntity
  8
YKK_Z1
  6
Continuous
100
AcDbLine
 10
10244.5
 20
17338.1906228
 30
0.0
 11
10264.5
 21
17358.1906124
 31
0.0
  0
LINE
  5
438
330
498
100
AcDbEntity
  8
YKK_Z1
  6
Continuous
100
AcDbLine
 10
10244.5
 20
17358.1906124
 30
0.0
 11
10264.5
 21
17378.19060201
 31
0.0
  0
LINE
  5
439
330
498
100
AcDbEntity
  8
YKK_Z1
  6
Continuous
100
AcDbLine
 10
10244.5
 20
17378.19060201
 30
0.0
 11
10264.5
 21
17398.19059162
 31
0.0
  0
LINE
  5
43A
330
498
100
AcDbEntity
  8
YKK_Z1
  6
Continuous
100
AcDbLine
 10
10244.5
 20
17398.19059162
 30
0.0
 11
10262.00016498
 21
17415.6907475
 31
0.0
  0
LINE
  5
43B
330
498
100
AcDbEntity
  8
YKK_Z1
  6
Continuous
100
AcDbLine
 10
10264.5
 20
17178.19076136
 30
0.0
 11
10244.5
 21
17198.19076482
 31
0.0
  0
LINE
  5
43C
330
498
100
AcDbEntity
  8
YKK_Z1
  6
Continuous
100
AcDbLine
 10
10264.5
 20
17198.19076482
 30
0.0
 11
10244.5
 21
17218.19076829
 31
0.0
  0
LINE
  5
43D
330
498
100
AcDbEntity
  8
YKK_Z1
  6
Continuous
100
AcDbLine
 10
10264.5
 20
17218.19076829
 30
0.0
 11
10244.5
 21
17238.19077175
 31
0.0
  0
LINE
  5
43E
330
498
100
AcDbEntity
  8
YKK_Z1
  6
Continuous
100
AcDbLine
 10
10264.5
 20
17238.19077175
 30
0.0
 11
10244.5
 21
17258.19077522
 31
0.0
  0
LINE
  5
43F
330
498
100
AcDbEntity
  8
YKK_Z1
  6
Continuous
100
AcDbLine
 10
10264.5
 20
17258.19077522
 30
0.0
 11
10244.5
 21
17278.19077868
 31
0.0
  0
LINE
  5
440
330
498
100
AcDbEntity
  8
YKK_Z1
  6
Continuous
100
AcDbLine
 10
10264.5
 20
17278.19077868
 30
0.0
 11
10244.5
 21
17298.19078215
 31
0.0
  0
LINE
  5
441
330
498
100
AcDbEntity
  8
YKK_Z1
  6
Continuous
100
AcDbLine
 10
10264.5
 20
17298.19078215
 30
0.0
 11
10244.5
 21
17318.19078561
 31
0.0
  0
LINE
  5
442
330
498
100
AcDbEntity
  8
YKK_Z1
  6
Continuous
100
AcDbLine
 10
10244.5
 20
17178.19070593
 30
0.0
 11
10264.5
 21
17198.19069554
 31
0.0
  0
LINE
  5
443
330
498
100
AcDbEntity
  8
YKK_Z1
  6
Continuous
100
AcDbLine
 10
10244.5
 20
17198.19069554
 30
0.0
 11
10264.5
 21
17218.19068515
 31
0.0
  0
LINE
  5
444
330
498
100
AcDbEntity
  8
YKK_Z1
  6
Continuous
100
AcDbLine
 10
10244.5
 20
17218.19068515
 30
0.0
 11
10264.5
 21
17238.19067476
 31
0.0
  0
LINE
  5
445
330
498
100
AcDbEntity
  8
YKK_Z1
  6
Continuous
100
AcDbLine
 10
10244.5
 20
17238.19067476
 30
0.0
 11
10264.5
 21
17258.19066437
 31
0.0
  0
LINE
  5
446
330
498
100
AcDbEntity
  8
YKK_Z1
  6
Continuous
100
AcDbLine
 10
10244.5
 20
17258.19066437
 30
0.0
 11
10264.5
 21
17278.19065397
 31
0.0
  0
LINE
  5
447
330
498
100
AcDbEntity
  8
YKK_Z1
  6
Continuous
100
AcDbLine
 10
10244.5
 20
17278.19065397
 30
0.0
 11
10264.5
 21
17298.19064358
 31
0.0
  0
LINE
  5
448
330
498
100
AcDbEntity
  8
YKK_Z1
  6
Continuous
100
AcDbLine
 10
10244.5
 20
17298.19064358
 30
0.0
 11
10264.5
 21
17318.19063319
 31
0.0
  0
LINE
  5
449
330
498
100
AcDbEntity
  8
YKK_Z1
  6
Continuous
100
AcDbLine
 10
10264.5
 20
17318.19078561
 30
0.0
 11
10244.5
 21
17338.19078907
 31
0.0
  0
LINE
  5
44A
330
498
100
AcDbEntity
  8
YKK_Z1
  6
Continuous
100
AcDbLine
 10
10244.5
 20
17318.19063319
 30
0.0
 11
10264.5
 21
17338.1906228
 31
0.0
  0
LINE
  5
44B
330
498
100
AcDbEntity
  8
YKK_Z1
  6
Continuous
100
AcDbLine
 10
10223.98470884
 20
17098.1907475
 30
0.0
 11
10244.5
 21
17118.706028
 31
0.0
  0
LINE
  5
44C
330
498
100
AcDbEntity
  8
YKK_Z1
  6
Continuous
100
AcDbLine
 10
10232.46999095
 20
17098.1907475
 30
0.0
 11
10244.5
 21
17110.2207503
 31
0.0
  0
LINE
  5
44D
330
498
100
AcDbEntity
  8
YKK_Z1
  6
Continuous
100
AcDbLine
 10
10244.5
 20
17098.1907475
 30
0.0
 11
10264.5
 21
17098.1907475
 31
0.0
  0
LINE
  5
44F
330
498
100
AcDbEntity
  8
YKK_Z1
  6
Continuous
100
AcDbLine
 10
10264.5
 20
17098.1907475
 30
0.0
 11
10244.5
 21
17118.19075097
 31
0.0
  0
LINE
  5
450
330
498
100
AcDbEntity
  8
YKK_Z1
  6
Continuous
100
AcDbLine
 10
10264.5
 20
17118.19075097
 30
0.0
 11
10244.5
 21
17138.19075443
 31
0.0
  0
LINE
  5
451
330
498
100
AcDbEntity
  8
YKK_Z1
  6
Continuous
100
AcDbLine
 10
10264.5
 20
17138.19075443
 30
0.0
 11
10244.5
 21
17158.1907579
 31
0.0
  0
LINE
  5
452
330
498
100
AcDbEntity
  8
YKK_Z1
  6
Continuous
100
AcDbLine
 10
10244.5
 20
17098.1907475
 30
0.0
 11
10264.5
 21
17118.19073711
 31
0.0
  0
LINE
  5
453
330
498
100
AcDbEntity
  8
YKK_Z1
  6
Continuous
100
AcDbLine
 10
10244.5
 20
17118.19073711
 30
0.0
 11
10264.5
 21
17138.19072672
 31
0.0
  0
LINE
  5
454
330
498
100
AcDbEntity
  8
YKK_Z1
  6
Continuous
100
AcDbLine
 10
10244.5
 20
17138.19072672
 30
0.0
 11
10264.5
 21
17158.19071633
 31
0.0
  0
LINE
  5
455
330
498
100
AcDbEntity
  8
YKK_Z1
  6
Continuous
100
AcDbLine
 10
10292.5
 20
17058.1907475
 30
0.0
 11
10292.5
 21
17045.6907475
 31
0.0
  0
LINE
  5
456
330
498
100
AcDbEntity
  8
YKK_Z1
  6
Continuous
100
AcDbLine
 10
10244.5
 20
17415.6907475
 30
0.0
 11
10244.5
 21
17098.1907475
 31
0.0
  0
LINE
  5
457
330
498
100
AcDbEntity
  8
YKK_Z1
  6
Continuous
100
AcDbLine
 10
10264.5
 20
17098.1907475
 30
0.0
 11
10264.5
 21
17415.6907475
 31
0.0
  0
LINE
  5
458
330
498
100
AcDbEntity
  8
YKK_Z1
  6
Continuous
100
AcDbLine
 10
10264.5
 20
17158.1907579
 30
0.0
 11
10244.5
 21
17178.19076136
 31
0.0
  0
LINE
  5
459
330
498
100
AcDbEntity
  8
YKK_Z1
  6
Continuous
100
AcDbLine
 10
10244.5
 20
17158.19071633
 30
0.0
 11
10264.5
 21
17178.19070593
 31
0.0
  0
LINE
  5
45A
330
498
100
AcDbEntity
  8
YKK_Z1
100
AcDbLine
 10
10302.5
 20
17045.6907475
 30
0.0
 11
10292.5
 21
17045.6907475
 31
0.0
  0
LINE
  5
45B
330
498
100
AcDbEntity
  8
YKK_F1
100
AcDbLine
 10
17100.0
 20
0.0
 30
0.0
 11
17100.0
 21
19500.0
 31
0.0
  0
LINE
  5
45C
330
498
100
AcDbEntity
  8
YKK_F1
100
AcDbLine
 10
22800.0
 20
0.0
 30
0.0
 11
22800.0
 21
19500.0
 31
0.0
  0
LINE
  5
45D
330
498
100
AcDbEntity
  8
YKK_F1
100
AcDbLine
 10
28500.0
 20
0.0
 30
0.0
 11
28500.0
 21
20000.0
 31
0.0
  0
LINE
  5
45E
330
498
100
AcDbEntity
  8
YKK_F1
100
AcDbLine
 10
28681.0155
 20
0.0
 30
0.0
 11
28681.0155
 21
20000.0
 31
0.0
  0
TEXT
  5
45F
330
498
100
AcDbEntity
  8
0
100
AcDbText
 10
22915.0
 20
833.6935745
 30
0.0
 40
200.0
  1
ただし、窓種・サイズにより適応値が異なります。
  7
EXTFONT
100
AcDbText
  0
TEXT
  5
460
330
498
100
AcDbEntity
  8
0
100
AcDbText
 10
24211.05
 20
1472.1935745
 30
0.0
 40
200.0
  1
防火設備（防火戸）認定商品
  7
EXTFONT
100
AcDbText
  0
TEXT
  5
461
330
498
100
AcDbEntity
  8
0
100
AcDbText
 10
24211.05
 20
2723.80050247
 30
0.0
 40
200.0
  1
ガラス厚８mm以上の場合
  7
EXTFONT
100
AcDbText
  0
TEXT
  5
462
330
498
100
AcDbEntity
  8
0
100
AcDbText
 10
24211.05
 20
4951.7247
 30
0.0
 40
200.0
  1
Ｓ－５（２４００Ｐａ）
  7
EXTFONT
100
AcDbText
  0
TEXT
  5
463
330
498
100
AcDbEntity
  8
0
100
AcDbText
 10
24211.05
 20
2106.81301726
 30
0.0
 40
200.0
  1
Ｈ－１（複層ガラスを使用した場合）
  7
EXTFONT
100
AcDbText
  0
TEXT
  5
464
330
498
100
AcDbEntity
  8
0
100
AcDbText
 10
24211.05
 20
3830.81301726
 30
0.0
 40
200.0
  1
Ｗ－５（５００Ｐａ）
  7
EXTFONT
100
AcDbText
  0
TEXT
  5
465
330
498
100
AcDbEntity
  8
0
100
AcDbText
 10
24211.05
 20
4405.81301726
 30
0.0
 40
200.0
  1
Ａ－４（２等級線）
  7
EXTFONT
100
AcDbText
  0
TEXT
  5
466
330
498
100
AcDbEntity
  8
0
100
AcDbText
 10
24211.05
 20
2964.81301726
 30
0.0
 40
200.0
  1
Ｔ－２（３０等級線）
  7
EXTFONT
100
AcDbText
  0
TEXT
  5
467
330
498
100
AcDbEntity
  8
0
100
AcDbText
 10
24211.05
 20
3248.81301726
 30
0.0
 40
200.0
  1
Ｔ－１（２５等級線）
  7
EXTFONT
100
AcDbText
  0
TEXT
  5
468
330
498
100
AcDbEntity
  8
0
100
AcDbText
 10
22915.0
 20
5712.6247
 30
0.0
 40
200.0
  1
ＳＹＳＴＥＭＡ７１０　性能等級
  7
EXTFONT
100
AcDbText
  0
TEXT
  5
469
330
498
100
AcDbEntity
  8
0
100
AcDbText
 10
22915.0
 20
2123.81301726
 30
0.0
 40
200.0
  1
断熱性
  7
EXTFONT
100
AcDbText
  0
TEXT
  5
46A
330
498
100
AcDbEntity
  8
0
100
AcDbText
 10
22915.0
 20
1489.1935745
 30
0.0
 40
200.0
  1
防火性
  7
EXTFONT
100
AcDbText
  0
TEXT
  5
46B
330
498
100
AcDbEntity
  8
0
100
AcDbText
 10
22915.0
 20
3255.81301726
 30
0.0
 40
200.0
  1
遮音性
  7
EXTFONT
100
AcDbText
  0
TEXT
  5
46C
330
498
100
AcDbEntity
  8
0
100
AcDbText
 10
22915.0
 20
4405.81301726
 30
0.0
 40
200.0
  1
気密性
  7
EXTFONT
100
AcDbText
  0
TEXT
  5
46D
330
498
100
AcDbEntity
  8
0
100
AcDbText
 10
22915.0
 20
3830.81301726
 30
0.0
 40
200.0
  1
水密性
  7
EXTFONT
100
AcDbText
  0
TEXT
  5
46E
330
498
100
AcDbEntity
  8
0
100
AcDbText
 10
22915.0
 20
4959.2247
 30
0.0
 40
200.0
  1
耐風圧性
  7
EXTFONT
100
AcDbText
  0
LINE
  5
47A
330
498
100
AcDbEntity
  8
YKK_B1
  6
ByBlock
100
AcDbLine
 10
1895.0
 20
14269.5
 30
0.0
 11
1895.0
 21
13899.5
 31
0.0
  0
LINE
  5
47B
330
498
100
AcDbEntity
  8
YKK_B1
  6
ByBlock
100
AcDbLine
 10
7595.0
 20
14269.5
 30
0.0
 11
7595.0
 21
13899.5
 31
0.0
  0
ENDSEC
  0
SECTION
  2
OBJECTS
  0
DICTIONARY
  5
48D
330
0
100
AcDbDictionary
281
     1
  3
ACAD_CIP_PREVIOUS_PRODUCT_INFO
350
55B
  3
ACAD_COLOR
350
4EF
  3
ACAD_DETAILVIEWSTYLE
350
508
  3
ACAD_GROUP
350
48E
  3
ACAD_LAYOUT
350
50E
  3
ACAD_MATERIAL
350
4BD
  3
ACAD_MLEADERSTYLE
350
504
  3
ACAD_MLINESTYLE
350
49B
  3
ACAD_PLOTSETTINGS
350
50D
  3
ACAD_PLOTSTYLENAME
350
4BB
  3
ACAD_SCALELIST
350
4F2
  3
ACAD_SECTIONVIEWSTYLE
350
506
  3
ACAD_TABLESTYLE
350
4F0
  3
ACAD_VISUALSTYLE
350
4D6
  3
ACDB_RECOMPOSE_DATA
350
561
  3
ACDBVARIABLEDICTIONARY
350
4B3
  0
XRECORD
  5
55B
102
{ACAD_REACTORS
330
48D
102
}
330
48D
100
AcDbXrecord
280
     1
300
ACD
300
2014
300
86063ACD_2014_0F
  0
DICTIONARY
  5
4EF
102
{ACAD_REACTORS
330
48D
102
}
330
48D
100
AcDbDictionary
281
     1
  0
DICTIONARY
  5
508
102
{ACAD_REACTORS
330
48D
102
}
330
48D
100
AcDbDictionary
281
     1
  3
Imperial24
350
509
  0
DICTIONARY
  5
48E
102
{ACAD_REACTORS
330
48D
102
}
330
48D
100
AcDbDictionary
281
     1
  0
DICTIONARY
  5
50E
102
{ACAD_REACTORS
330
48D
102
}
330
48D
100
AcDbDictionary
281
     1
  3
Model
350
50F
  3
レイアウト1
350
510
  0
DICTIONARY
  5
4BD
102
{ACAD_REACTORS
330
48D
102
}
330
48D
100
AcDbDictionary
281
     1
  3
ByBlock
350
4C6
  3
ByLayer
350
4BE
  3
Global
350
4CE
  0
DICTIONARY
  5
504
102
{ACAD_REACTORS
330
48D
102
}
330
48D
100
AcDbDictionary
281
     1
  3
Standard
350
505
  0
DICTIONARY
  5
49B
102
{ACAD_REACTORS
330
48D
102
}
330
48D
100
AcDbDictionary
281
     1
  3
STANDARD
350
49C
  0
DICTIONARY
  5
50D
102
{ACAD_REACTORS
330
48D
102
}
330
48D
100
AcDbDictionary
281
     1
  0
ACDBDICTIONARYWDFLT
  5
4BB
102
{ACAD_REACTORS
330
48D
102
}
330
48D
100
AcDbDictionary
281
     1
  3
Normal
350
4BC
100
AcDbDictionaryWithDefault
340
4BC
  0
DICTIONARY
  5
4F2
102
{ACAD_REACTORS
330
48D
102
}
330
48D
100
AcDbDictionary
281
     1
  3
A0
350
4F3
  3
A1
350
4F4
  3
A2
350
4F5
  3
A3
350
4F6
  3
A4
350
4F7
  3
A5
350
4F8
  3
A6
350
4F9
  3
A7
350
4FA
  3
A8
350
4FB
  3
A9
350
4FC
  3
B0
350
4FD
  3
B1
350
4FE
  3
B2
350
4FF
  3
B3
350
500
  3
B4
350
501
  3
B5
350
502
  3
B6
350
503
  0
DICTIONARY
  5
506
102
{ACAD_REACTORS
330
48D
102
}
330
48D
100
AcDbDictionary
281
     1
  3
Imperial24
350
507
  0
DICTIONARY
  5
4F0
102
{ACAD_REACTORS
330
48D
102
}
330
48D
100
AcDbDictionary
281
     1
  3
Standard
350
4F1
  0
DICTIONARY
  5
4D6
102
{ACAD_REACTORS
330
48D
102
}
330
48D
100
AcDbDictionary
281
     1
  3
2dWireframe
350
4DC
  3
Basic
350
4DB
  3
Brighten
350
4E2
  3
ColorChange
350
4E6
  3
Conceptual
350
4DF
  3
Dim
350
4E1
  3
EdgeColorOff
350
4EE
  3
Facepattern
350
4E5
  3
Flat
350
4D7
  3
FlatWithEdges
350
4D8
  3
Gouraud
350
4D9
  3
GouraudWithEdges
350
4DA
  3
Hidden
350
4DE
  3
JitterOff
350
4EC
  3
Linepattern
350
4E4
  3
OverhangOff
350
4ED
  3
Realistic
350
4E0
  3
Shaded
350
4EB
  3
Shaded with edges
350
4EA
  3
Shades of Gray
350
4E7
  3
Sketchy
350
4E8
  3
Thicken
350
4E3
  3
Wireframe
350
4DD
  3
X-Ray
350
4E9
  0
XRECORD
  5
561
102
{ACAD_REACTORS
330
48D
102
}
330
48D
100
AcDbXrecord
280
     1
 90
        1
330
4F1
  0
DICTIONARY
  5
4B3
102
{ACAD_REACTORS
330
48D
102
}
330
48D
100
AcDbDictionary
281
     1
  3
CANNOSCALE
350
553
  3
CMLEADERSTYLE
350
550
  3
CTABLESTYLE
350
54F
  3
CVIEWDETAILSTYLE
350
551
  3
CVIEWSECTIONSTYLE
350
552
  3
DIMADEC
350
4B4
  3
XCLIPFRAME
350
55F
  0
ACDBDETAILVIEWSTYLE
  5
509
102
{ACAD_XDICTIONARY
360
59A
102
}
102
{ACAD_REACTORS
330
508
102
}
330
508
100
AcDbModelDocViewStyle
 70
     0
  3
Imperial24
290
     0
100
AcDbDetailViewStyle
 70
     0
 71
     0
 90
        3
 71
     1
340
490
 62
   256
 40
0.24
340
0
 62
   256
 40
0.24
300

 40
0.36
280
     3
 71
     2
340
494
 90
       25
 62
   256
 71
     3
340
490
 62
   256
 40
0.24
 90
        1
 40
0.75
 90
        1
300
%<\AcVar ViewType \f "%tc1">% %<\AcVar ViewDetailId>%\PSCALE %<\AcVar ViewScale \f "%sn">%
 71
     4
340
494
 90
       25
 62
   256
340
494
 90
       25
 62
   256
280
     0
  0
LAYOUT
  5
50F
102
{ACAD_REACTORS
330
50E
102
}
330
50E
100
AcDbPlotSettings
  1

  2
C:\ACAD-I\support\plotters\Default Windows System Printer.pc3
  4
A4
  6

 40
3.17499995
 41
3.17499995
 42
3.17500305
 43
3.17498779
 44
209.88865662
 45
297.05300903
 46
0.0
 47
0.0
 48
0.0
 49
0.0
140
0.0
141
0.0
142
1.0
143
3304.92720565
 70
 11952
 72
     0
 73
     1
 74
     0
  7
monochrome.ctb
 75
     0
147
0.00030258
 76
     0
 77
     2
 78
   300
148
87048.72221002
149
2907.51885808
100
AcDbLayout
  1
Model
 70
     1
 71
     0
 10
0.0
 20
0.0
 11
12.0
 21
9.0
 12
0.0
 22
0.0
 32
0.0
 14
0.0
 24
0.0
 34
0.0
 15
0.0
 25
0.0
 35
0.0
146
0.0
 13
0.0
 23
0.0
 33
0.0
 16
1.0
 26
0.0
 36
0.0
 17
0.0
 27
1.0
 37
0.0
 76
     0
330
498
1001
ACAD_PSEXT
1000
C:\ACAD-I\support\plotters\Default Windows System Printer.pc3
1000
Fiery PRO80 65-55C-KM PS3.0jp
1000
IP_10.230.204.212
1000

1070
     0
  0
LAYOUT
  5
510
102
{ACAD_REACTORS
330
50E
102
}
330
50E
100
AcDbPlotSettings
  1

  2
C:\ACAD-I\support\plotters\Default Windows System Printer.pc3
  4
A4
  6

 40
3.17499995
 41
3.17499995
 42
3.17500305
 43
3.17498779
 44
209.88865662
 45
297.05300903
 46
0.0
 47
0.0
 48
0.0
 49
0.0
140
0.0
141
0.0
142
1.0
143
1.0
 70
 15024
 72
     0
 73
     1
 74
     5
  7
monochrome.ctb
 75
    16
147
1.0
 76
     0
 77
     2
 78
   300
148
0.0
149
0.0
100
AcDbLayout
  1
レイアウト1
 70
     0
 71
     1
 10
0.0
 20
0.0
 11
12.0
 21
9.0
 12
0.0
 22
0.0
 32
0.0
 14
1.00000000E+20
 24
1.00000000E+20
 34
1.00000000E+20
 15
-1.00000000E+20
 25
-1.00000000E+20
 35
-1.00000000E+20
146
0.0
 13
0.0
 23
0.0
 33
0.0
 16
1.0
 26
0.0
 36
0.0
 17
0.0
 27
1.0
 37
0.0
 76
     0
330
495
1001
ACAD_PSEXT
1000
C:\ACAD-I\support\plotters\Default Windows System Printer.pc3
1000
Fiery PRO80 65-55C-KM PS3.0jp
1000
IP_10.230.204.212
1000

1070
     0
  0
MATERIAL
  5
4C6
102
{ACAD_XDICTIONARY
360
4C7
102
}
102
{ACAD_REACTORS
330
4BD
102
}
330
4BD
100
AcDbMaterial
  1
ByBlock
 72
     0
 43
0.02083333
 43
0.0
 43
0.0
 43
0.0
 43
0.0
 43
0.02083333
 43
0.0
 43
0.0
 43
0.0
 43
0.0
 43
1.0
 43
0.0
 43
0.0
 43
0.0
 43
0.0
 43
1.0
 77
     0
 47
0.02083333
 47
0.0
 47
0.0
 47
0.0
 47
0.0
 47
0.02083333
 47
0.0
 47
0.0
 47
0.0
 47
0.0
 47
1.0
 47
0.0
 47
0.0
 47
0.0
 47
0.0
 47
1.0
171
     0
 49
0.02083333
 49
0.0
 49
0.0
 49
0.0
 49
0.0
 49
0.02083333
 49
0.0
 49
0.0
 49
0.0
 49
0.0
 49
1.0
 49
0.0
 49
0.0
 49
0.0
 49
0.0
 49
1.0
175
     0
142
0.02083333
142
0.0
142
0.0
142
0.0
142
0.0
142
0.02083333
142
0.0
142
0.0
142
0.0
142
0.0
142
1.0
142
0.0
142
0.0
142
0.0
142
0.0
142
1.0
179
     0
144
0.02083333
144
0.0
144
0.0
144
0.0
144
0.0
144
0.02083333
144
0.0
144
0.0
144
0.0
144
0.0
144
1.0
144
0.0
144
0.0
144
0.0
144
0.0
144
1.0
147
0.02083333
147
0.0
147
0.0
147
0.0
147
0.0
147
0.02083333
147
0.0
147
0.0
147
0.0
147
0.0
147
1.0
147
0.0
147
0.0
147
0.0
147
0.0
147
1.0
  0
MATERIAL
  5
4BE
102
{ACAD_XDICTIONARY
360
4BF
102
}
102
{ACAD_REACTORS
330
4BD
102
}
330
4BD
100
AcDbMaterial
  1
ByLayer
 72
     0
 43
0.02083333
 43
0.0
 43
0.0
 43
0.0
 43
0.0
 43
0.02083333
 43
0.0
 43
0.0
 43
0.0
 43
0.0
 43
1.0
 43
0.0
 43
0.0
 43
0.0
 43
0.0
 43
1.0
 77
     0
 47
0.02083333
 47
0.0
 47
0.0
 47
0.0
 47
0.0
 47
0.02083333
 47
0.0
 47
0.0
 47
0.0
 47
0.0
 47
1.0
 47
0.0
 47
0.0
 47
0.0
 47
0.0
 47
1.0
171
     0
 49
0.02083333
 49
0.0
 49
0.0
 49
0.0
 49
0.0
 49
0.02083333
 49
0.0
 49
0.0
 49
0.0
 49
0.0
 49
1.0
 49
0.0
 49
0.0
 49
0.0
 49
0.0
 49
1.0
175
     0
142
0.02083333
142
0.0
142
0.0
142
0.0
142
0.0
142
0.02083333
142
0.0
142
0.0
142
0.0
142
0.0
142
1.0
142
0.0
142
0.0
142
0.0
142
0.0
142
1.0
179
     0
144
0.02083333
144
0.0
144
0.0
144
0.0
144
0.0
144
0.02083333
144
0.0
144
0.0
144
0.0
144
0.0
144
1.0
144
0.0
144
0.0
144
0.0
144
0.0
144
1.0
147
0.02083333
147
0.0
147
0.0
147
0.0
147
0.0
147
0.02083333
147
0.0
147
0.0
147
0.0
147
0.0
147
1.0
147
0.0
147
0.0
147
0.0
147
0.0
147
1.0
  0
MATERIAL
  5
4CE
102
{ACAD_XDICTIONARY
360
4CF
102
}
102
{ACAD_REACTORS
330
4BD
102
}
330
4BD
100
AcDbMaterial
  1
Global
 72
     0
 43
0.02083333
 43
0.0
 43
0.0
 43
0.0
 43
0.0
 43
0.02083333
 43
0.0
 43
0.0
 43
0.0
 43
0.0
 43
1.0
 43
0.0
 43
0.0
 43
0.0
 43
0.0
 43
1.0
 77
     0
 47
0.02083333
 47
0.0
 47
0.0
 47
0.0
 47
0.0
 47
0.02083333
 47
0.0
 47
0.0
 47
0.0
 47
0.0
 47
1.0
 47
0.0
 47
0.0
 47
0.0
 47
0.0
 47
1.0
171
     0
 49
0.02083333
 49
0.0
 49
0.0
 49
0.0
 49
0.0
 49
0.02083333
 49
0.0
 49
0.0
 49
0.0
 49
0.0
 49
1.0
 49
0.0
 49
0.0
 49
0.0
 49
0.0
 49
1.0
175
     0
142
0.02083333
142
0.0
142
0.0
142
0.0
142
0.0
142
0.02083333
142
0.0
142
0.0
142
0.0
142
0.0
142
1.0
142
0.0
142
0.0
142
0.0
142
0.0
142
1.0
179
     0
144
0.02083333
144
0.0
144
0.0
144
0.0
144
0.0
144
0.02083333
144
0.0
144
0.0
144
0.0
144
0.0
144
1.0
144
0.0
144
0.0
144
0.0
144
0.0
144
1.0
147
0.02083333
147
0.0
147
0.0
147
0.0
147
0.0
147
0.02083333
147
0.0
147
0.0
147
0.0
147
0.0
147
1.0
147
0.0
147
0.0
147
0.0
147
0.0
147
1.0
  0
MLEADERSTYLE
  5
505
102
{ACAD_XDICTIONARY
360
596
102
}
102
{ACAD_REACTORS
330
504
102
}
330
504
100
AcDbMLeaderStyle
170
     2
171
     1
172
     0
 90
        2
 40
0.0
 41
0.0
173
     1
 91
-1056964608
340
492
 92
       -2
290
     1
 42
0.09
291
     1
 43
0.36
  3
Standard
 44
0.18
300

342
490
174
     1
178
     6
175
     1
176
     0
 93
-1056964608
 45
0.18
292
     0
297
     0
 46
0.18
 94
-1056964608
 47
1.0
 49
1.0
140
1.0
293
     1
141
0.0
294
     1
177
     0
142
1.0
295
     0
296
     0
143
0.125
1001
ACAD_MLEADERVER
1070
     2
  0
MLINESTYLE
  5
49C
102
{ACAD_REACTORS
330
49B
102
}
330
49B
100
AcDbMlineStyle
  2
STANDARD
 70
     0
  3

 62
   256
 51
90.0
 52
90.0
 71
     2
 49
0.5
 62
   256
  6
BYLAYER
 49
-0.5
 62
   256
  6
BYLAYER
  0
ACDBPLACEHOLDER
  5
4BC
102
{ACAD_REACTORS
330
4BB
102
}
330
4BB
  0
SCALE
  5
4F3
102
{ACAD_REACTORS
330
4F2
102
}
330
4F2
100
AcDbScale
 70
     0
300
1:1
140
1.0
141
1.0
290
     1
  0
SCALE
  5
4F4
102
{ACAD_REACTORS
330
4F2
102
}
330
4F2
100
AcDbScale
 70
     0
300
1/128" = 1'-0"
140
0.0078125
141
12.0
290
     0
  0
SCALE
  5
4F5
102
{ACAD_REACTORS
330
4F2
102
}
330
4F2
100
AcDbScale
 70
     0
300
1/64" = 1'-0"
140
0.015625
141
12.0
290
     0
  0
SCALE
  5
4F6
102
{ACAD_REACTORS
330
4F2
102
}
330
4F2
100
AcDbScale
 70
     0
300
1/32" = 1'-0"
140
0.03125
141
12.0
290
     0
  0
SCALE
  5
4F7
102
{ACAD_REACTORS
330
4F2
102
}
330
4F2
100
AcDbScale
 70
     0
300
1/16" = 1'-0"
140
0.0625
141
12.0
290
     0
  0
SCALE
  5
4F8
102
{ACAD_REACTORS
330
4F2
102
}
330
4F2
100
AcDbScale
 70
     0
300
3/32" = 1'-0"
140
0.09375
141
12.0
290
     0
  0
SCALE
  5
4F9
102
{ACAD_REACTORS
330
4F2
102
}
330
4F2
100
AcDbScale
 70
     0
300
1/8" = 1'-0"
140
0.125
141
12.0
290
     0
  0
SCALE
  5
4FA
102
{ACAD_REACTORS
330
4F2
102
}
330
4F2
100
AcDbScale
 70
     0
300
3/16" = 1'-0"
140
0.1875
141
12.0
290
     0
  0
SCALE
  5
4FB
102
{ACAD_REACTORS
330
4F2
102
}
330
4F2
100
AcDbScale
 70
     0
300
1/4" = 1'-0"
140
0.25
141
12.0
290
     0
  0
SCALE
  5
4FC
102
{ACAD_REACTORS
330
4F2
102
}
330
4F2
100
AcDbScale
 70
     0
300
3/8" = 1'-0"
140
0.375
141
12.0
290
     0
  0
SCALE
  5
4FD
102
{ACAD_REACTORS
330
4F2
102
}
330
4F2
100
AcDbScale
 70
     0
300
1/2" = 1'-0"
140
0.5
141
12.0
290
     0
  0
SCALE
  5
4FE
102
{ACAD_REACTORS
330
4F2
102
}
330
4F2
100
AcDbScale
 70
     0
300
3/4" = 1'-0"
140
0.75
141
12.0
290
     0
  0
SCALE
  5
4FF
102
{ACAD_REACTORS
330
4F2
102
}
330
4F2
100
AcDbScale
 70
     0
300
1" = 1'-0"
140
1.0
141
12.0
290
     0
  0
SCALE
  5
500
102
{ACAD_REACTORS
330
4F2
102
}
330
4F2
100
AcDbScale
 70
     0
300
1-1/2" = 1'-0"
140
1.5
141
12.0
290
     0
  0
SCALE
  5
501
102
{ACAD_REACTORS
330
4F2
102
}
330
4F2
100
AcDbScale
 70
     0
300
3" = 1'-0"
140
3.0
141
12.0
290
     0
  0
SCALE
  5
502
102
{ACAD_REACTORS
330
4F2
102
}
330
4F2
100
AcDbScale
 70
     0
300
6" = 1'-0"
140
6.0
141
12.0
290
     0
  0
SCALE
  5
503
102
{ACAD_REACTORS
330
4F2
102
}
330
4F2
100
AcDbScale
 70
     0
300
1'-0" = 1'-0"
140
12.0
141
12.0
290
     0
  0
ACDBSECTIONVIEWSTYLE
  5
507
102
{ACAD_XDICTIONARY
360
598
102
}
102
{ACAD_REACTORS
330
506
102
}
330
506
100
AcDbModelDocViewStyle
 70
     0
  3
Imperial24
290
     0
100
AcDbSectionViewStyle
 70
     0
 71
     0
 90
      102
 71
     1
340
490
 62
   256
 40
5.0
340
0
340
0
 62
   256
 40
5.0
300
I, O, Q, S, X, Z
 40
10.0
 90
        0
 40
2.5
 90
        0
 71
     2
340
494
 90
       25
 62
   256
340
494
 90
       50
 62
   256
 40
5.0
 40
2.5
 40
5.0
 71
     3
340
490
 62
   256
 40
5.0
 90
        0
 40
15.0
 90
        1
300
%<\AcVar ViewSectionStartId>%-%<\AcVar ViewSectionEndId>% (%<\AcVar ViewScale \f "%sn">%)
 71
     4
 62
   256
 62
   257
300
ANSI31
 40
1.0
 90
        0
290
     0
290
     0
 90
        6
 40
0.0
 40
1.57079633
 40
0.26179939
 40
1.30899694
 40
-0.26179939
 40
1.83259571
  0
TABLESTYLE
  5
4F1
102
{ACAD_XDICTIONARY
360
511
102
}
102
{ACAD_REACTORS
330
4F0
102
}
330
4F0
100
AcDbTableStyle
  3
Standard
 70
     0
 71
     0
 40
0.06
 41
0.06
280
     0
281
     0
  7
STANDARD
140
0.18
170
     2
 62
     0
 63
     7
283
     0
274
    -2
284
     1
 64
     0
275
    -2
285
     1
 65
     0
276
    -2
286
     1
 66
     0
277
    -2
287
     1
 67
     0
278
    -2
288
     1
 68
     0
279
    -2
289
     1
 69
     0
  7
STANDARD
140
0.25
170
     5
 62
     0
 63
     7
283
     0
274
    -2
284
     1
 64
     0
275
    -2
285
     1
 65
     0
276
    -2
286
     1
 66
     0
277
    -2
287
     1
 67
     0
278
    -2
288
     1
 68
     0
279
    -2
289
     1
 69
     0
  7
STANDARD
140
0.18
170
     5
 62
     0
 63
     7
283
     0
274
    -2
284
     1
 64
     0
275
    -2
285
     1
 65
     0
276
    -2
286
     1
 66
     0
277
    -2
287
     1
 67
     0
278
    -2
288
     1
 68
     0
279
    -2
289
     1
 69
     0
  0
VISUALSTYLE
  5
4DC
102
{ACAD_XDICTIONARY
360
56F
102
}
102
{ACAD_REACTORS
330
4D6
102
}
330
4D6
100
AcDbVisualStyle
  2
2dWireframe
 70
     4
 71
     0
 72
     2
 73
     0
 90
        0
 40
-0.6
 41
-30.0
 62
     5
 63
     7
421
 16777215
 74
     1
 91
        4
 64
     7
 65
   257
 75
     1
175
     1
 42
1.0
 92
        0
 66
   257
 43
1.0
 76
     1
 77
     6
 78
     2
 67
     7
 79
     5
170
     0
171
     0
290
     0
174
     0
 93
        1
 44
0.0
173
     0
291
     0
 45
0.0
1001
ACAD
1000
AcDbSavedByObjectVersion
1070
     0
  0
VISUALSTYLE
  5
4DB
102
{ACAD_XDICTIONARY
360
56D
102
}
102
{ACAD_REACTORS
330
4D6
102
}
330
4D6
100
AcDbVisualStyle
  2
Basic
 70
     7
 71
     1
 72
     0
 73
     1
 90
        0
 40
-0.6
 41
-30.0
 62
     5
 63
     7
421
 16777215
 74
     0
 91
        4
 64
     7
 65
   257
 75
     1
175
     1
 42
1.0
 92
        8
 66
     7
 43
1.0
 76
     1
 77
     6
 78
     2
 67
     7
 79
     5
170
     0
171
     0
290
     0
174
     0
 93
        1
 44
0.0
173
     0
291
     1
 45
0.0
1001
ACAD
1000
AcDbSavedByObjectVersion
1070
     0
  0
VISUALSTYLE
  5
4E2
102
{ACAD_XDICTIONARY
360
57B
102
}
102
{ACAD_REACTORS
330
4D6
102
}
330
4D6
100
AcDbVisualStyle
  2
Brighten
 70
    12
 71
     2
 72
     2
 73
     0
 90
        0
 40
-0.6
 41
-30.0
 62
     5
 63
     7
421
 16777215
 74
     1
 91
        4
 64
     7
 65
   257
 75
     1
175
     1
 42
1.0
 92
        8
 66
     7
 43
1.0
 76
     1
 77
     6
 78
     2
 67
     7
 79
     5
170
     0
171
     0
290
     0
174
     0
 93
        1
 44
50.0
173
     0
291
     1
 45
0.0
1001
ACAD
1000
AcDbSavedByObjectVersion
1070
     0
  0
VISUALSTYLE
  5
4E6
102
{ACAD_XDICTIONARY
360
583
102
}
102
{ACAD_REACTORS
330
4D6
102
}
330
4D6
100
AcDbVisualStyle
  2
ColorChange
 70
    16
 71
     2
 72
     2
 73
     3
 90
        0
 40
-0.6
 41
-30.0
 62
     5
 63
     8
421
  8421504
 74
     1
 91
        4
 64
     7
 65
   257
 75
     1
175
     1
 42
1.0
 92
        8
 66
     8
424
  8421504
 43
1.0
 76
     1
 77
     6
 78
     2
 67
     7
 79
     5
170
     0
171
     0
290
     0
174
     0
 93
        1
 44
0.0
173
     0
291
     1
 45
0.0
1001
ACAD
1000
AcDbSavedByObjectVersion
1070
     0
  0
VISUALSTYLE
  5
4DF
102
{ACAD_XDICTIONARY
360
575
102
}
102
{ACAD_REACTORS
330
4D6
102
}
330
4D6
100
AcDbVisualStyle
  2
Conceptual
 70
     9
 71
     3
 72
     2
 73
     0
 90
        0
 40
-0.6
 41
-30.0
 62
     5
 63
     7
421
 16777215
 74
     2
 91
        2
 64
     7
 65
   257
 75
     1
175
     1
 42
179.0
 92
        8
 66
     7
 43
1.0
 76
     1
 77
     6
 78
     2
 67
     7
 79
     3
170
     0
171
     0
290
     0
174
     0
 93
        1
 44
0.0
173
     0
291
     0
 45
0.0
1001
ACAD
1000
AcDbSavedByObjectVersion
1070
     0
  0
VISUALSTYLE
  5
4E1
102
{ACAD_XDICTIONARY
360
579
102
}
102
{ACAD_REACTORS
330
4D6
102
}
330
4D6
100
AcDbVisualStyle
  2
Dim
 70
    11
 71
     2
 72
     2
 73
     0
 90
        0
 40
-0.6
 41
-30.0
 62
     5
 63
     7
421
 16777215
 74
     1
 91
        4
 64
     7
 65
   257
 75
     1
175
     1
 42
1.0
 92
        8
 66
     7
 43
1.0
 76
     1
 77
     6
 78
     2
 67
     7
 79
     5
170
     0
171
     0
290
     0
174
     0
 93
        1
 44
-50.0
173
     0
291
     1
 45
0.0
1001
ACAD
1000
AcDbSavedByObjectVersion
1070
     0
  0
VISUALSTYLE
  5
4EE
102
{ACAD_XDICTIONARY
360
593
102
}
102
{ACAD_REACTORS
330
4D6
102
}
330
4D6
100
AcDbVisualStyle
  2
EdgeColorOff
 70
    22
 71
     2
 72
     2
 73
     0
 90
        0
 40
-0.6
 41
-30.0
 62
     5
 63
     7
421
 16777215
 74
     1
 91
        4
 64
     7
 65
   257
 75
     1
175
     1
 42
1.0
 92
        8
 66
     7
 43
1.0
 76
     1
 77
     6
 78
     2
 67
     7
 79
     5
170
     0
171
     0
290
     0
174
     0
 93
        1
 44
0.0
173
     0
291
     1
 45
0.0
1001
ACAD
1000
AcDbSavedByObjectVersion
1070
     0
  0
VISUALSTYLE
  5
4E5
102
{ACAD_XDICTIONARY
360
581
102
}
102
{ACAD_REACTORS
330
4D6
102
}
330
4D6
100
AcDbVisualStyle
  2
Facepattern
 70
    15
 71
     2
 72
     2
 73
     0
 90
        0
 40
-0.6
 41
-30.0
 62
     5
 63
     7
421
 16777215
 74
     1
 91
        4
 64
     7
 65
   257
 75
     1
175
     1
 42
1.0
 92
        8
 66
     7
 43
1.0
 76
     1
 77
     6
 78
     2
 67
     7
 79
     5
170
     0
171
     0
290
     0
174
     0
 93
        1
 44
0.0
173
     0
291
     1
 45
0.0
1001
ACAD
1000
AcDbSavedByObjectVersion
1070
     0
  0
VISUALSTYLE
  5
4D7
102
{ACAD_XDICTIONARY
360
565
102
}
102
{ACAD_REACTORS
330
4D6
102
}
330
4D6
100
AcDbVisualStyle
  2
Flat
 70
     0
 71
     2
 72
     1
 73
     1
 90
        2
 40
-0.6
 41
30.0
 62
     5
 63
     7
421
 16777215
 74
     0
 91
        0
 64
     7
 65
   257
 75
     1
175
     1
 42
1.0
 92
        8
 66
     7
 43
1.0
 76
     1
 77
     6
 78
     2
 67
     7
 79
     5
170
     0
171
     0
290
     0
174
     0
 93
       13
 44
0.0
173
     0
291
     1
 45
0.0
1001
ACAD
1000
AcDbSavedByObjectVersion
1070
     0
  0
VISUALSTYLE
  5
4D8
102
{ACAD_XDICTIONARY
360
567
102
}
102
{ACAD_REACTORS
330
4D6
102
}
330
4D6
100
AcDbVisualStyle
  2
FlatWithEdges
 70
     1
 71
     2
 72
     1
 73
     1
 90
        2
 40
-0.6
 41
30.0
 62
     5
 63
     7
421
 16777215
 74
     1
 91
        0
 64
     7
 65
   257
 75
     1
175
     1
 42
1.0
 92
        0
 66
   257
 43
1.0
 76
     1
 77
     6
 78
     2
 67
     7
 79
     5
170
     0
171
     0
290
     0
174
     0
 93
       13
 44
0.0
173
     0
291
     1
 45
0.0
1001
ACAD
1000
AcDbSavedByObjectVersion
1070
     0
  0
VISUALSTYLE
  5
4D9
102
{ACAD_XDICTIONARY
360
569
102
}
102
{ACAD_REACTORS
330
4D6
102
}
330
4D6
100
AcDbVisualStyle
  2
Gouraud
 70
     2
 71
     2
 72
     2
 73
     1
 90
        2
 40
-0.6
 41
30.0
 62
     5
 63
     7
421
 16777215
 74
     0
 91
        0
 64
     7
 65
   257
 75
     1
175
     1
 42
1.0
 92
        0
 66
     7
 43
1.0
 76
     1
 77
     6
 78
     2
 67
     7
 79
     5
170
     0
171
     0
290
     0
174
     0
 93
       13
 44
0.0
173
     0
291
     1
 45
0.0
1001
ACAD
1000
AcDbSavedByObjectVersion
1070
     0
  0
VISUALSTYLE
  5
4DA
102
{ACAD_XDICTIONARY
360
56B
102
}
102
{ACAD_REACTORS
330
4D6
102
}
330
4D6
100
AcDbVisualStyle
  2
GouraudWithEdges
 70
     3
 71
     2
 72
     2
 73
     1
 90
        2
 40
-0.6
 41
30.0
 62
     5
 63
     7
421
 16777215
 74
     1
 91
        0
 64
     7
 65
   257
 75
     1
175
     1
 42
1.0
 92
        0
 66
   257
 43
1.0
 76
     1
 77
     6
 78
     2
 67
     7
 79
     5
170
     0
171
     0
290
     0
174
     0
 93
       13
 44
0.0
173
     0
291
     1
 45
0.0
1001
ACAD
1000
AcDbSavedByObjectVersion
1070
     0
  0
VISUALSTYLE
  5
4DE
102
{ACAD_XDICTIONARY
360
573
102
}
102
{ACAD_REACTORS
330
4D6
102
}
330
4D6
100
AcDbVisualStyle
  2
Hidden
 70
     6
 71
     1
 72
     2
 73
     2
 90
        0
 40
-0.6
 41
-30.0
 62
     5
 63
     7
421
 16777215
 74
     2
 91
        2
 64
     7
 65
   257
 75
     2
175
     1
 42
40.0
 92
        0
 66
   257
 43
1.0
 76
     1
 77
     6
 78
     2
 67
     7
 79
     3
170
     0
171
     0
290
     0
174
     0
 93
        1
 44
0.0
173
     0
291
     0
 45
0.0
1001
ACAD
1000
AcDbSavedByObjectVersion
1070
     0
  0
VISUALSTYLE
  5
4EC
102
{ACAD_XDICTIONARY
360
58F
102
}
102
{ACAD_REACTORS
330
4D6
102
}
330
4D6
100
AcDbVisualStyle
  2
JitterOff
 70
    20
 71
     2
 72
     2
 73
     0
 90
        0
 40
-0.6
 41
-30.0
 62
     5
 63
     7
421
 16777215
 74
     1
 91
        4
 64
     7
 65
   257
 75
     1
175
     1
 42
1.0
 92
       10
 66
     7
 43
1.0
 76
     1
 77
     6
 78
     2
 67
     7
 79
     5
170
     0
171
     0
290
     0
174
     0
 93
        1
 44
0.0
173
     0
291
     1
 45
0.0
1001
ACAD
1000
AcDbSavedByObjectVersion
1070
     0
  0
VISUALSTYLE
  5
4E4
102
{ACAD_XDICTIONARY
360
57F
102
}
102
{ACAD_REACTORS
330
4D6
102
}
330
4D6
100
AcDbVisualStyle
  2
Linepattern
 70
    14
 71
     2
 72
     2
 73
     0
 90
        0
 40
-0.6
 41
-30.0
 62
     5
 63
     7
421
 16777215
 74
     1
 91
        4
 64
     7
 65
   257
 75
     7
175
     7
 42
1.0
 92
        8
 66
     7
 43
1.0
 76
     1
 77
     6
 78
     2
 67
     7
 79
     5
170
     0
171
     0
290
     0
174
     0
 93
        1
 44
0.0
173
     0
291
     1
 45
0.0
1001
ACAD
1000
AcDbSavedByObjectVersion
1070
     0
  0
VISUALSTYLE
  5
4ED
102
{ACAD_XDICTIONARY
360
591
102
}
102
{ACAD_REACTORS
330
4D6
102
}
330
4D6
100
AcDbVisualStyle
  2
OverhangOff
 70
    21
 71
     2
 72
     2
 73
     0
 90
        0
 40
-0.6
 41
-30.0
 62
     5
 63
     7
421
 16777215
 74
     1
 91
        4
 64
     7
 65
   257
 75
     1
175
     1
 42
1.0
 92
        9
 66
     7
 43
1.0
 76
     1
 77
     6
 78
     2
 67
     7
 79
     5
170
     0
171
     0
290
     0
174
     0
 93
        1
 44
0.0
173
     0
291
     1
 45
0.0
1001
ACAD
1000
AcDbSavedByObjectVersion
1070
     0
  0
VISUALSTYLE
  5
4E0
102
{ACAD_XDICTIONARY
360
577
102
}
102
{ACAD_REACTORS
330
4D6
102
}
330
4D6
100
AcDbVisualStyle
  2
Realistic
 70
     8
 71
     2
 72
     2
 73
     0
 90
        2
 40
-0.6
 41
30.0
 62
     5
 63
     7
421
 16777215
 74
     0
 91
        0
 64
     7
 65
   257
 75
     1
175
     1
 42
1.0
 92
        8
 66
   257
 43
1.0
 76
     1
 77
     6
 78
     2
 67
     7
 79
     3
170
     0
171
     0
290
     0
174
     0
 93
       13
 44
0.0
173
     0
291
     0
 45
0.0
1001
ACAD
1000
AcDbSavedByObjectVersion
1070
     0
  0
VISUALSTYLE
  5
4EB
102
{ACAD_XDICTIONARY
360
58D
102
}
102
{ACAD_REACTORS
330
4D6
102
}
330
4D6
100
AcDbVisualStyle
  2
Shaded
 70
    27
 71
     2
 72
     2
 73
     1
 90
        2
 40
-0.6
 41
30.0
 62
     5
 63
     7
421
 16777215
 74
     0
 91
        4
 64
     7
 65
   257
 75
     1
175
     1
 42
1.0
 92
        8
 66
   257
 43
1.0
 76
     1
 77
     6
 78
     2
 67
     8
425
  7895160
 79
     3
170
     0
171
     0
290
     0
174
     0
 93
        5
 44
0.0
173
     0
291
     0
 45
0.0
1001
ACAD
1000
AcDbSavedByObjectVersion
1070
     0
  0
VISUALSTYLE
  5
4EA
102
{ACAD_XDICTIONARY
360
58B
102
}
102
{ACAD_REACTORS
330
4D6
102
}
330
4D6
100
AcDbVisualStyle
  2
Shaded with edges
 70
    26
 71
     2
 72
     2
 73
     1
 90
        2
 40
-0.6
 41
30.0
 62
     5
 63
     7
421
 16777215
 74
     1
 91
       10
 64
     7
 65
   257
 75
     2
175
     1
 42
1.0
 92
        8
 66
   257
 43
1.0
 76
     1
 77
     6
 78
     2
 67
     7
 79
     3
170
     0
171
     0
290
     0
174
     0
 93
        5
 44
0.0
173
     0
291
     0
 45
0.0
1001
ACAD
1000
AcDbSavedByObjectVersion
1070
     0
  0
VISUALSTYLE
  5
4E7
102
{ACAD_XDICTIONARY
360
585
102
}
102
{ACAD_REACTORS
330
4D6
102
}
330
4D6
100
AcDbVisualStyle
  2
Shades of Gray
 70
    23
 71
     2
 72
     2
 73
     3
 90
        0
 40
-0.6
 41
-30.0
 62
     5
 63
     7
421
 16777215
 74
     2
 91
        2
 64
     7
 65
     7
 75
     1
175
     1
 42
40.0
 92
        8
 66
     7
 43
1.0
 76
     1
 77
     6
 78
     2
 67
     7
 79
     3
170
     0
171
     0
290
     0
174
     0
 93
        1
 44
0.0
173
     0
291
     0
 45
0.0
1001
ACAD
1000
AcDbSavedByObjectVersion
1070
     0
  0
VISUALSTYLE
  5
4E8
102
{ACAD_XDICTIONARY
360
587
102
}
102
{ACAD_REACTORS
330
4D6
102
}
330
4D6
100
AcDbVisualStyle
  2
Sketchy
 70
    24
 71
     1
 72
     2
 73
     2
 90
        0
 40
-0.6
 41
-30.0
 62
     5
 63
     7
421
 16777215
 74
     2
 91
        2
 64
     7
 65
     7
 75
     1
175
     1
 42
40.0
 92
       11
 66
     7
 43
1.0
 76
     1
 77
     6
 78
     2
 67
     7
 79
     6
170
     0
171
     0
290
     0
174
     0
 93
        1
 44
0.0
173
     0
291
     0
 45
0.0
1001
ACAD
1000
AcDbSavedByObjectVersion
1070
     0
  0
VISUALSTYLE
  5
4E3
102
{ACAD_XDICTIONARY
360
57D
102
}
102
{ACAD_REACTORS
330
4D6
102
}
330
4D6
100
AcDbVisualStyle
  2
Thicken
 70
    13
 71
     2
 72
     2
 73
     0
 90
        0
 40
-0.6
 41
-30.0
 62
     5
 63
     7
421
 16777215
 74
     1
 91
        4
 64
     7
 65
   257
 75
     1
175
     1
 42
1.0
 92
       12
 66
     7
 43
1.0
 76
     1
 77
     6
 78
     2
 67
     7
 79
     5
170
     0
171
     0
290
     0
174
     0
 93
        1
 44
0.0
173
     0
291
     1
 45
0.0
1001
ACAD
1000
AcDbSavedByObjectVersion
1070
     0
  0
VISUALSTYLE
  5
4DD
102
{ACAD_XDICTIONARY
360
571
102
}
102
{ACAD_REACTORS
330
4D6
102
}
330
4D6
100
AcDbVisualStyle
  2
Wireframe
 70
     5
 71
     0
 72
     2
 73
     0
 90
        0
 40
-0.6
 41
-30.0
 62
     5
 63
     7
421
 16777215
 74
     1
 91
        4
 64
     7
 65
   257
 75
     1
175
     1
 42
1.0
 92
        0
 66
   257
 43
1.0
 76
     1
 77
     6
 78
     2
 67
     7
 79
     3
170
     0
171
     0
290
     0
174
     0
 93
        1
 44
0.0
173
     0
291
     0
 45
0.0
1001
ACAD
1000
AcDbSavedByObjectVersion
1070
     0
  0
VISUALSTYLE
  5
4E9
102
{ACAD_XDICTIONARY
360
589
102
}
102
{ACAD_REACTORS
330
4D6
102
}
330
4D6
100
AcDbVisualStyle
  2
X-Ray
 70
    25
 71
     2
 72
     2
 73
     1
 90
        1
 40
0.5
 41
-30.0
 62
     5
 63
     7
421
 16777215
 74
     1
 91
        0
 64
     7
 65
   257
 75
     1
175
     1
 42
1.0
 92
        8
 66
     7
 43
1.0
 76
     1
 77
     6
 78
     2
 67
     7
 79
     3
170
     0
171
     0
290
     0
174
     0
 93
       13
 44
0.0
173
     0
291
     0
 45
0.0
1001
ACAD
1000
AcDbSavedByObjectVersion
1070
     0
  0
DICTIONARYVAR
  5
553
102
{ACAD_REACTORS
330
4B3
102
}
330
4B3
100
DictionaryVariables
280
     0
  1
1:1
  0
DICTIONARYVAR
  5
550
102
{ACAD_REACTORS
330
4B3
102
}
330
4B3
100
DictionaryVariables
280
     0
  1
STANDARD
  0
DICTIONARYVAR
  5
54F
102
{ACAD_REACTORS
330
4B3
102
}
330
4B3
100
DictionaryVariables
280
     0
  1
STANDARD
  0
DICTIONARYVAR
  5
551
102
{ACAD_REACTORS
330
4B3
102
}
330
4B3
100
DictionaryVariables
280
     0
  1
Imperial24
  0
DICTIONARYVAR
  5
552
102
{ACAD_REACTORS
330
4B3
102
}
330
4B3
100
DictionaryVariables
280
     0
  1
Imperial24
  0
DICTIONARYVAR
  5
4B4
102
{ACAD_REACTORS
330
4B3
102
}
330
4B3
100
DictionaryVariables
280
     0
  1
0
  0
DICTIONARYVAR
  5
55F
102
{ACAD_REACTORS
330
4B3
102
}
330
4B3
100
DictionaryVariables
280
     0
  1
2
  0
DICTIONARY
  5
59A
330
509
100
AcDbDictionary
280
     1
281
     1
  3
ACAD_XREC_ROUNDTRIP
360
59B
  0
DICTIONARY
  5
4C7
330
4C6
100
AcDbDictionary
280
     1
281
     1
  3
ACAD_XREC_ROUNDTRIP
360
563
  3
BUMPTILE
360
4C9
  3
DIFFUSETILE
360
4C8
  3
OPACITYTILE
360
4CC
  3
REFLECTIONTILE
360
4CB
  3
REFRACTIONTILE
360
4CD
  3
SPECULARTILE
360
4CA
  0
DICTIONARY
  5
4BF
330
4BE
100
AcDbDictionary
280
     1
281
     1
  3
ACAD_XREC_ROUNDTRIP
360
562
  3
BUMPTILE
360
4C1
  3
DIFFUSETILE
360
4C0
  3
OPACITYTILE
360
4C4
  3
REFLECTIONTILE
360
4C3
  3
REFRACTIONTILE
360
4C5
  3
SPECULARTILE
360
4C2
  0
DICTIONARY
  5
4CF
330
4CE
100
AcDbDictionary
280
     1
281
     1
  3
ACAD_XREC_ROUNDTRIP
360
564
  3
BUMPTILE
360
4D1
  3
DIFFUSETILE
360
4D0
  3
OPACITYTILE
360
4D4
  3
REFLECTIONTILE
360
4D3
  3
REFRACTIONTILE
360
4D5
  3
SPECULARTILE
360
4D2
  0
DICTIONARY
  5
596
330
505
100
AcDbDictionary
280
     1
281
     1
  3
ACAD_XREC_ROUNDTRIP
360
597
  0
DICTIONARY
  5
598
330
507
100
AcDbDictionary
280
     1
281
     1
  3
ACAD_XREC_ROUNDTRIP
360
599
  0
DICTIONARY
  5
511
330
4F1
100
AcDbDictionary
280
     1
281
     1
  3
ACAD_ROUNDTRIP_2008_TABLESTYLE_CELLSTYLEMAP
360
560
  3
ACAD_XREC_ROUNDTRIP
360
595
  0
DICTIONARY
  5
56F
330
4DC
100
AcDbDictionary
280
     1
281
     1
  3
ACAD_XREC_ROUNDTRIP
360
570
  0
DICTIONARY
  5
56D
330
4DB
100
AcDbDictionary
280
     1
281
     1
  3
ACAD_XREC_ROUNDTRIP
360
56E
  0
DICTIONARY
  5
57B
330
4E2
100
AcDbDictionary
280
     1
281
     1
  3
ACAD_XREC_ROUNDTRIP
360
57C
  0
DICTIONARY
  5
583
330
4E6
100
AcDbDictionary
280
     1
281
     1
  3
ACAD_XREC_ROUNDTRIP
360
584
  0
DICTIONARY
  5
575
330
4DF
100
AcDbDictionary
280
     1
281
     1
  3
ACAD_XREC_ROUNDTRIP
360
576
  0
DICTIONARY
  5
579
330
4E1
100
AcDbDictionary
280
     1
281
     1
  3
ACAD_XREC_ROUNDTRIP
360
57A
  0
DICTIONARY
  5
593
330
4EE
100
AcDbDictionary
280
     1
281
     1
  3
ACAD_XREC_ROUNDTRIP
360
594
  0
DICTIONARY
  5
581
330
4E5
100
AcDbDictionary
280
     1
281
     1
  3
ACAD_XREC_ROUNDTRIP
360
582
  0
DICTIONARY
  5
565
330
4D7
100
AcDbDictionary
280
     1
281
     1
  3
ACAD_XREC_ROUNDTRIP
360
566
  0
DICTIONARY
  5
567
330
4D8
100
AcDbDictionary
280
     1
281
     1
  3
ACAD_XREC_ROUNDTRIP
360
568
  0
DICTIONARY
  5
569
330
4D9
100
AcDbDictionary
280
     1
281
     1
  3
ACAD_XREC_ROUNDTRIP
360
56A
  0
DICTIONARY
  5
56B
330
4DA
100
AcDbDictionary
280
     1
281
     1
  3
ACAD_XREC_ROUNDTRIP
360
56C
  0
DICTIONARY
  5
573
330
4DE
100
AcDbDictionary
280
     1
281
     1
  3
ACAD_XREC_ROUNDTRIP
360
574
  0
DICTIONARY
  5
58F
330
4EC
100
AcDbDictionary
280
     1
281
     1
  3
ACAD_XREC_ROUNDTRIP
360
590
  0
DICTIONARY
  5
57F
330
4E4
100
AcDbDictionary
280
     1
281
     1
  3
ACAD_XREC_ROUNDTRIP
360
580
  0
DICTIONARY
  5
591
330
4ED
100
AcDbDictionary
280
     1
281
     1
  3
ACAD_XREC_ROUNDTRIP
360
592
  0
DICTIONARY
  5
577
330
4E0
100
AcDbDictionary
280
     1
281
     1
  3
ACAD_XREC_ROUNDTRIP
360
578
  0
DICTIONARY
  5
58D
330
4EB
100
AcDbDictionary
280
     1
281
     1
  3
ACAD_XREC_ROUNDTRIP
360
58E
  0
DICTIONARY
  5
58B
330
4EA
100
AcDbDictionary
280
     1
281
     1
  3
ACAD_XREC_ROUNDTRIP
360
58C
  0
DICTIONARY
  5
585
330
4E7
100
AcDbDictionary
280
     1
281
     1
  3
ACAD_XREC_ROUNDTRIP
360
586
  0
DICTIONARY
  5
587
330
4E8
100
AcDbDictionary
280
     1
281
     1
  3
ACAD_XREC_ROUNDTRIP
360
588
  0
DICTIONARY
  5
57D
330
4E3
100
AcDbDictionary
280
     1
281
     1
  3
ACAD_XREC_ROUNDTRIP
360
57E
  0
DICTIONARY
  5
571
330
4DD
100
AcDbDictionary
280
     1
281
     1
  3
ACAD_XREC_ROUNDTRIP
360
572
  0
DICTIONARY
  5
589
330
4E9
100
AcDbDictionary
280
     1
281
     1
  3
ACAD_XREC_ROUNDTRIP
360
58A
  0
XRECORD
  5
59B
102
{ACAD_REACTORS
330
59A
102
}
330
59A
100
AcDbXrecord
280
     1
102
DISPLAYNAME
  1
Imperial24
102
FLAGS
 90
        0
  0
XRECORD
  5
563
102
{ACAD_REACTORS
330
4C7
102
}
330
4C7
100
AcDbXrecord
280
     1
102
MATERIAL
148
0.0
149
0.0
149
0.0
 93
        0
 94
      127
282
     0
 72
     0
 77
     0
171
     0
175
     0
179
     0
273
     0
  0
XRECORD
  5
4C9
102
{ACAD_REACTORS
330
4C7
102
}
330
4C7
100
AcDbXrecord
280
     1
270
     1
271
     1
  0
XRECORD
  5
4C8
102
{ACAD_REACTORS
330
4C7
102
}
330
4C7
100
AcDbXrecord
280
     1
270
     1
271
     1
  0
XRECORD
  5
4CC
102
{ACAD_REACTORS
330
4C7
102
}
330
4C7
100
AcDbXrecord
280
     1
270
     1
271
     1
  0
XRECORD
  5
4CB
102
{ACAD_REACTORS
330
4C7
102
}
330
4C7
100
AcDbXrecord
280
     1
270
     1
271
     1
  0
XRECORD
  5
4CD
102
{ACAD_REACTORS
330
4C7
102
}
330
4C7
100
AcDbXrecord
280
     1
270
     1
271
     1
  0
XRECORD
  5
4CA
102
{ACAD_REACTORS
330
4C7
102
}
330
4C7
100
AcDbXrecord
280
     1
270
     1
271
     1
  0
XRECORD
  5
562
102
{ACAD_REACTORS
330
4BF
102
}
330
4BF
100
AcDbXrecord
280
     1
102
MATERIAL
148
0.0
149
0.0
149
0.0
 93
        0
 94
      127
282
     0
 72
     0
 77
     0
171
     0
175
     0
179
     0
273
     0
  0
XRECORD
  5
4C1
102
{ACAD_REACTORS
330
4BF
102
}
330
4BF
100
AcDbXrecord
280
     1
270
     1
271
     1
  0
XRECORD
  5
4C0
102
{ACAD_REACTORS
330
4BF
102
}
330
4BF
100
AcDbXrecord
280
     1
270
     1
271
     1
  0
XRECORD
  5
4C4
102
{ACAD_REACTORS
330
4BF
102
}
330
4BF
100
AcDbXrecord
280
     1
270
     1
271
     1
  0
XRECORD
  5
4C3
102
{ACAD_REACTORS
330
4BF
102
}
330
4BF
100
AcDbXrecord
280
     1
270
     1
271
     1
  0
XRECORD
  5
4C5
102
{ACAD_REACTORS
330
4BF
102
}
330
4BF
100
AcDbXrecord
280
     1
270
     1
271
     1
  0
XRECORD
  5
4C2
102
{ACAD_REACTORS
330
4BF
102
}
330
4BF
100
AcDbXrecord
280
     1
270
     1
271
     1
  0
XRECORD
  5
564
102
{ACAD_REACTORS
330
4CF
102
}
330
4CF
100
AcDbXrecord
280
     1
102
MATERIAL
148
0.0
149
0.0
149
0.0
 93
        0
 94
      127
282
     0
 72
     0
 77
     0
171
     0
175
     0
179
     0
273
     0
  0
XRECORD
  5
4D1
102
{ACAD_REACTORS
330
4CF
102
}
330
4CF
100
AcDbXrecord
280
     1
270
     1
271
     1
  0
XRECORD
  5
4D0
102
{ACAD_REACTORS
330
4CF
102
}
330
4CF
100
AcDbXrecord
280
     1
270
     1
271
     1
  0
XRECORD
  5
4D4
102
{ACAD_REACTORS
330
4CF
102
}
330
4CF
100
AcDbXrecord
280
     1
270
     1
271
     1
  0
XRECORD
  5
4D3
102
{ACAD_REACTORS
330
4CF
102
}
330
4CF
100
AcDbXrecord
280
     1
270
     1
271
     1
  0
XRECORD
  5
4D5
102
{ACAD_REACTORS
330
4CF
102
}
330
4CF
100
AcDbXrecord
280
     1
270
     1
271
     1
  0
XRECORD
  5
4D2
102
{ACAD_REACTORS
330
4CF
102
}
330
4CF
100
AcDbXrecord
280
     1
270
     1
271
     1
  0
XRECORD
  5
597
102
{ACAD_REACTORS
330
596
102
}
330
596
100
AcDbXrecord
280
     1
102
ACAD_ROUNDTRIP_2012_MLEADER_STYLE
298
     1
  0
XRECORD
  5
599
102
{ACAD_REACTORS
330
598
102
}
330
598
100
AcDbXrecord
280
     1
102
DISPLAYNAME
  1
Imperial24
102
FLAGS
 90
        0
  0
CELLSTYLEMAP
  5
560
102
{ACAD_REACTORS
330
511
102
}
330
511
100
AcDbCellStyleMap
 90
        3
300
CELLSTYLE
  1
TABLEFORMAT_BEGIN
 90
        5
170
     1
 91
        0
 92
    32768
 62
   257
 93
        1
300
CONTENTFORMAT
  1
CONTENTFORMAT_BEGIN
 90
        0
 91
        0
 92
      512
 93
        0
300

 40
0.0
140
1.0
 94
        5
 62
     0
340
490
144
0.25
309
CONTENTFORMAT_END
171
     0
 94
        0
309
TABLEFORMAT_END
  1
CELLSTYLE_BEGIN
 90
        1
 91
        1
300
_TITLE
309
CELLSTYLE_END
300
CELLSTYLE
  1
TABLEFORMAT_BEGIN
 90
        5
170
     1
 91
        0
 92
        0
 62
   257
 93
        1
300
CONTENTFORMAT
  1
CONTENTFORMAT_BEGIN
 90
        0
 91
        0
 92
      512
 93
        0
300

 40
0.0
140
1.0
 94
        5
 62
     0
340
490
144
0.18
309
CONTENTFORMAT_END
171
     0
 94
        0
309
TABLEFORMAT_END
  1
CELLSTYLE_BEGIN
 90
        2
 91
        1
300
_HEADER
309
CELLSTYLE_END
300
CELLSTYLE
  1
TABLEFORMAT_BEGIN
 90
        5
170
     1
 91
        0
 92
        0
 62
   257
 93
        1
300
CONTENTFORMAT
  1
CONTENTFORMAT_BEGIN
 90
        0
 91
        0
 92
      512
 93
        0
300

 40
0.0
140
1.0
 94
        2
 62
     0
340
490
144
0.18
309
CONTENTFORMAT_END
171
     0
 94
        0
309
TABLEFORMAT_END
  1
CELLSTYLE_BEGIN
 90
        3
 91
        2
300
_DATA
309
CELLSTYLE_END
  0
XRECORD
  5
595
102
{ACAD_REACTORS
330
511
102
}
330
511
100
AcDbXrecord
280
     1
102
ACAD_ROUNDTRIP_PRE2007_TABLESTYLE
 90
      512
 91
        0
  1

 92
      512
 93
        0
  2

 94
      512
 95
        0
  3

  0
XRECORD
  5
570
102
{ACAD_REACTORS
330
56F
102
}
330
56F
100
AcDbXrecord
280
     1
102
RTVSPost2010Prop28
280
     1
102
RTVSPost2010PropOp28
 70
     1
102
RTVSPost2010Prop29
280
     1
102
RTVSPost2010PropOp29
 70
     1
102
RTVSPost2010Prop30
280
     0
102
RTVSPost2010PropOp30
 70
     1
102
RTVSPost2010Prop31
280
     0
102
RTVSPost2010PropOp31
 70
     1
102
RTVSPost2010Prop32
280
     0
102
RTVSPost2010PropOp32
 70
     1
102
RTVSPost2010Prop33
280
     0
102
RTVSPost2010PropOp33
 70
     1
102
RTVSPost2010Prop34
280
     0
102
RTVSPost2010PropOp34
 70
     1
102
RTVSPost2010Prop35
280
     0
102
RTVSPost2010PropOp35
 70
     1
102
RTVSPost2010Prop36
280
     0
102
RTVSPost2010PropOp36
 70
     1
102
RTVSPost2010Prop37
 90
       50
102
RTVSPost2010PropOp37
 70
     1
102
RTVSPost2010Prop38
140
0.0
102
RTVSPost2010PropOp38
 70
     1
102
RTVSPost2010Prop39
140
1.0
102
RTVSPost2010PropOp39
 70
     1
102
RTVSPost2010Prop40
 90
        0
102
RTVSPost2010PropOp40
 70
     1
102
RTVSPost2010Prop41ColorIndex
 90
       18
102
RTVSPost2010Prop41ColorRGB
 90
        0
102
RTVSPost2010PropOp41
 70
     1
102
RTVSPost2010Prop42
 90
       50
102
RTVSPost2010PropOp42
 70
     1
102
RTVSPost2010Prop43
 90
        3
102
RTVSPost2010PropOp43
 70
     1
102
RTVSPost2010Prop44ColorIndex
 90
        5
102
RTVSPost2010Prop44ColorRGB
 90
      255
102
RTVSPost2010PropOp44
 70
     1
102
RTVSPost2010Prop45
280
     0
102
RTVSPost2010PropOp45
 70
     1
102
RTVSPost2010Prop46
 90
       50
102
RTVSPost2010PropOp46
 70
     1
102
RTVSPost2010Prop47
 90
       50
102
RTVSPost2010PropOp47
 70
     1
102
RTVSPost2010Prop48
 90
       50
102
RTVSPost2010PropOp48
 70
     1
102
RTVSPost2010Prop49
280
     0
102
RTVSPost2010PropOp49
 70
     1
102
RTVSPost2010Prop50
 90
       50
102
RTVSPost2010PropOp50
 70
     1
102
RTVSPost2010Prop51ColorIndex
 90
      256
102
RTVSPost2010Prop51ColorRGB
 90
-16777216
102
RTVSPost2010PropOp51
 70
     0
102
RTVSPost2010Prop52
140
1.0
102
RTVSPost2010PropOp52
 70
     0
102
RTVSPost2010Prop53
 90
        2
102
RTVSPost2010PropOp53
 70
     1
102
RTVSPost2010Prop54
  1
strokes_ogs.tif
102
RTVSPost2010PropOp54
 70
     1
102
RTVSPost2010Prop55
280
     0
102
RTVSPost2010PropOp55
 70
     1
102
RTVSPost2010Prop56
140
1.0
102
RTVSPost2010PropOp56
 70
     1
102
RTVSPost2010Prop57
140
1.0
102
RTVSPost2010PropOp57
 70
     1
102
RTVSPropertyOp0
 70
     1
102
RTVSPropertyOp1
 70
     1
102
RTVSPropertyOp2
 70
     1
102
RTVSPropertyOp3
 70
     1
102
RTVSPropertyOp4
 70
     1
102
RTVSPropertyOp5
 70
     1
102
RTVSPropertyOp6
 70
     1
102
RTVSPropertyOp7
 70
     1
102
RTVSPropertyOp8
 70
     1
102
RTVSPropertyOp9
 70
     1
102
RTVSPropertyOp10
 70
     1
102
RTVSPropertyOp11
 70
     1
102
RTVSPropertyOp12
 70
     1
102
RTVSPropertyOp13
 70
     1
102
RTVSPropertyOp14
 70
     1
102
RTVSPropertyOp15
 70
     1
102
RTVSPropertyOp16
 70
     1
102
RTVSPropertyOp17
 70
     1
102
RTVSPropertyOp18
 70
     1
102
RTVSPropertyOp19
 70
     1
102
RTVSPropertyOp20
 70
     1
102
RTVSPropertyOp21
 70
     1
102
RTVSPropertyOp22
 70
     1
102
RTVSPropertyOp23
 70
     1
102
RTVSPropertyOp24
 70
     1
102
RTVSPropertyOp25
 70
     1
102
RTVSPropertyOp26
 70
     1
102
RTVSPropertyOp27
 70
     1
102
RTVSPropertyOp28
 70
     1
102
RTVSPropertyOp29
 70
     1
102
RTVSPropertyOp30
 70
     1
102
RTVSPropertyOp31
 70
     1
102
RTVSPropertyOp32
 70
     1
102
RTVSPropertyOp33
 70
     1
102
RTVSPropertyOp34
 70
     1
102
RTVSPropertyOp35
 70
     1
102
RTVSPropertyOp36
 70
     1
102
RTVSPropertyOp37
 70
     1
102
RTVSPropertyOp38
 70
     1
102
RTVSPropertyOp39
 70
     1
102
RTVSPropertyOp40
 70
     1
102
RTVSPropertyOp41
 70
     1
102
RTVSPropertyOp42
 70
     1
102
RTVSPropertyOp43
 70
     1
102
RTVSPropertyOp44
 70
     1
102
RTVSPropertyOp45
 70
     1
102
RTVSPropertyOp46
 70
     1
102
RTVSPropertyOp47
 70
     1
102
RTVSPropertyOp48
 70
     1
102
RTVSPropertyOp49
 70
     1
102
RTVSPropertyOp50
 70
     1
102
RTVSPropertyOp51
 70
     0
102
RTVSPropertyOp52
 70
     0
102
RTVSPropertyOp53
 70
     1
102
RTVSPropertyOp54
 70
     1
102
RTVSPropertyOp55
 70
     1
102
RTVSPropertyOp56
 70
     1
102
RTVSPropertyOp57
 70
     1
102
RTVSPropertyOp58
 70
     1
102
RTVSPropertyOp59
 70
     1
102
RTVSPropertyOp60
 70
     1
102
RTVSPropertyOp61
 70
     1
102
RTVSPropertyOp62
 70
     1
  0
XRECORD
  5
56E
102
{ACAD_REACTORS
330
56D
102
}
330
56D
100
AcDbXrecord
280
     1
102
RTVSPost2010Prop28
280
     0
102
RTVSPost2010PropOp28
 70
     1
102
RTVSPost2010Prop29
280
     1
102
RTVSPost2010PropOp29
 70
     1
102
RTVSPost2010Prop30
280
     1
102
RTVSPost2010PropOp30
 70
     1
102
RTVSPost2010Prop31
280
     0
102
RTVSPost2010PropOp31
 70
     1
102
RTVSPost2010Prop32
280
     0
102
RTVSPost2010PropOp32
 70
     1
102
RTVSPost2010Prop33
280
     0
102
RTVSPost2010PropOp33
 70
     1
102
RTVSPost2010Prop34
280
     0
102
RTVSPost2010PropOp34
 70
     1
102
RTVSPost2010Prop35
280
     0
102
RTVSPost2010PropOp35
 70
     1
102
RTVSPost2010Prop36
280
     0
102
RTVSPost2010PropOp36
 70
     1
102
RTVSPost2010Prop37
 90
       50
102
RTVSPost2010PropOp37
 70
     1
102
RTVSPost2010Prop38
140
0.0
102
RTVSPost2010PropOp38
 70
     1
102
RTVSPost2010Prop39
140
1.0
102
RTVSPost2010PropOp39
 70
     1
102
RTVSPost2010Prop40
 90
        0
102
RTVSPost2010PropOp40
 70
     1
102
RTVSPost2010Prop41ColorIndex
 90
       18
102
RTVSPost2010Prop41ColorRGB
 90
        0
102
RTVSPost2010PropOp41
 70
     1
102
RTVSPost2010Prop42
 90
       50
102
RTVSPost2010PropOp42
 70
     1
102
RTVSPost2010Prop43
 90
        3
102
RTVSPost2010PropOp43
 70
     1
102
RTVSPost2010Prop44ColorIndex
 90
        5
102
RTVSPost2010Prop44ColorRGB
 90
      255
102
RTVSPost2010PropOp44
 70
     1
102
RTVSPost2010Prop45
280
     0
102
RTVSPost2010PropOp45
 70
     1
102
RTVSPost2010Prop46
 90
       50
102
RTVSPost2010PropOp46
 70
     1
102
RTVSPost2010Prop47
 90
       50
102
RTVSPost2010PropOp47
 70
     1
102
RTVSPost2010Prop48
 90
       50
102
RTVSPost2010PropOp48
 70
     1
102
RTVSPost2010Prop49
280
     0
102
RTVSPost2010PropOp49
 70
     1
102
RTVSPost2010Prop50
 90
       50
102
RTVSPost2010PropOp50
 70
     1
102
RTVSPost2010Prop51ColorIndex
 90
      256
102
RTVSPost2010Prop51ColorRGB
 90
-16777216
102
RTVSPost2010PropOp51
 70
     0
102
RTVSPost2010Prop52
140
1.0
102
RTVSPost2010PropOp52
 70
     0
102
RTVSPost2010Prop53
 90
        2
102
RTVSPost2010PropOp53
 70
     1
102
RTVSPost2010Prop54
  1
strokes_ogs.tif
102
RTVSPost2010PropOp54
 70
     1
102
RTVSPost2010Prop55
280
     0
102
RTVSPost2010PropOp55
 70
     1
102
RTVSPost2010Prop56
140
1.0
102
RTVSPost2010PropOp56
 70
     1
102
RTVSPost2010Prop57
140
1.0
102
RTVSPost2010PropOp57
 70
     1
102
RTVSPropertyOp0
 70
     1
102
RTVSPropertyOp1
 70
     1
102
RTVSPropertyOp2
 70
     1
102
RTVSPropertyOp3
 70
     1
102
RTVSPropertyOp4
 70
     1
102
RTVSPropertyOp5
 70
     1
102
RTVSPropertyOp6
 70
     1
102
RTVSPropertyOp7
 70
     1
102
RTVSPropertyOp8
 70
     1
102
RTVSPropertyOp9
 70
     1
102
RTVSPropertyOp10
 70
     1
102
RTVSPropertyOp11
 70
     1
102
RTVSPropertyOp12
 70
     1
102
RTVSPropertyOp13
 70
     1
102
RTVSPropertyOp14
 70
     1
102
RTVSPropertyOp15
 70
     1
102
RTVSPropertyOp16
 70
     1
102
RTVSPropertyOp17
 70
     1
102
RTVSPropertyOp18
 70
     1
102
RTVSPropertyOp19
 70
     1
102
RTVSPropertyOp20
 70
     1
102
RTVSPropertyOp21
 70
     1
102
RTVSPropertyOp22
 70
     1
102
RTVSPropertyOp23
 70
     1
102
RTVSPropertyOp24
 70
     1
102
RTVSPropertyOp25
 70
     1
102
RTVSPropertyOp26
 70
     1
102
RTVSPropertyOp27
 70
     1
102
RTVSPropertyOp28
 70
     1
102
RTVSPropertyOp29
 70
     1
102
RTVSPropertyOp30
 70
     1
102
RTVSPropertyOp31
 70
     1
102
RTVSPropertyOp32
 70
     1
102
RTVSPropertyOp33
 70
     1
102
RTVSPropertyOp34
 70
     1
102
RTVSPropertyOp35
 70
     1
102
RTVSPropertyOp36
 70
     1
102
RTVSPropertyOp37
 70
     1
102
RTVSPropertyOp38
 70
     1
102
RTVSPropertyOp39
 70
     1
102
RTVSPropertyOp40
 70
     1
102
RTVSPropertyOp41
 70
     1
102
RTVSPropertyOp42
 70
     1
102
RTVSPropertyOp43
 70
     1
102
RTVSPropertyOp44
 70
     1
102
RTVSPropertyOp45
 70
     1
102
RTVSPropertyOp46
 70
     1
102
RTVSPropertyOp47
 70
     1
102
RTVSPropertyOp48
 70
     1
102
RTVSPropertyOp49
 70
     1
102
RTVSPropertyOp50
 70
     1
102
RTVSPropertyOp51
 70
     0
102
RTVSPropertyOp52
 70
     0
102
RTVSPropertyOp53
 70
     1
102
RTVSPropertyOp54
 70
     1
102
RTVSPropertyOp55
 70
     1
102
RTVSPropertyOp56
 70
     1
102
RTVSPropertyOp57
 70
     1
102
RTVSPropertyOp58
 70
     1
102
RTVSPropertyOp59
 70
     1
102
RTVSPropertyOp60
 70
     1
102
RTVSPropertyOp61
 70
     1
102
RTVSPropertyOp62
 70
     1
  0
XRECORD
  5
57C
102
{ACAD_REACTORS
330
57B
102
}
330
57B
100
AcDbXrecord
280
     1
102
RTVSPost2010Prop28
280
     0
102
RTVSPost2010PropOp28
 70
     1
102
RTVSPost2010Prop29
280
     1
102
RTVSPost2010PropOp29
 70
     1
102
RTVSPost2010Prop30
280
     1
102
RTVSPost2010PropOp30
 70
     1
102
RTVSPost2010Prop31
280
     0
102
RTVSPost2010PropOp31
 70
     1
102
RTVSPost2010Prop32
280
     0
102
RTVSPost2010PropOp32
 70
     1
102
RTVSPost2010Prop33
280
     0
102
RTVSPost2010PropOp33
 70
     1
102
RTVSPost2010Prop34
280
     0
102
RTVSPost2010PropOp34
 70
     1
102
RTVSPost2010Prop35
280
     0
102
RTVSPost2010PropOp35
 70
     1
102
RTVSPost2010Prop36
280
     0
102
RTVSPost2010PropOp36
 70
     1
102
RTVSPost2010Prop37
 90
       50
102
RTVSPost2010PropOp37
 70
     1
102
RTVSPost2010Prop38
140
0.0
102
RTVSPost2010PropOp38
 70
     1
102
RTVSPost2010Prop39
140
1.0
102
RTVSPost2010PropOp39
 70
     1
102
RTVSPost2010Prop40
 90
        0
102
RTVSPost2010PropOp40
 70
     1
102
RTVSPost2010Prop41ColorIndex
 90
       18
102
RTVSPost2010Prop41ColorRGB
 90
        0
102
RTVSPost2010PropOp41
 70
     1
102
RTVSPost2010Prop42
 90
       50
102
RTVSPost2010PropOp42
 70
     1
102
RTVSPost2010Prop43
 90
        3
102
RTVSPost2010PropOp43
 70
     1
102
RTVSPost2010Prop44ColorIndex
 90
        5
102
RTVSPost2010Prop44ColorRGB
 90
      255
102
RTVSPost2010PropOp44
 70
     1
102
RTVSPost2010Prop45
280
     0
102
RTVSPost2010PropOp45
 70
     1
102
RTVSPost2010Prop46
 90
       50
102
RTVSPost2010PropOp46
 70
     1
102
RTVSPost2010Prop47
 90
       50
102
RTVSPost2010PropOp47
 70
     1
102
RTVSPost2010Prop48
 90
       50
102
RTVSPost2010PropOp48
 70
     1
102
RTVSPost2010Prop49
280
     0
102
RTVSPost2010PropOp49
 70
     1
102
RTVSPost2010Prop50
 90
       50
102
RTVSPost2010PropOp50
 70
     1
102
RTVSPost2010Prop51ColorIndex
 90
      256
102
RTVSPost2010Prop51ColorRGB
 90
-16777216
102
RTVSPost2010PropOp51
 70
     0
102
RTVSPost2010Prop52
140
1.0
102
RTVSPost2010PropOp52
 70
     0
102
RTVSPost2010Prop53
 90
        2
102
RTVSPost2010PropOp53
 70
     1
102
RTVSPost2010Prop54
  1
strokes_ogs.tif
102
RTVSPost2010PropOp54
 70
     1
102
RTVSPost2010Prop55
280
     0
102
RTVSPost2010PropOp55
 70
     1
102
RTVSPost2010Prop56
140
1.0
102
RTVSPost2010PropOp56
 70
     1
102
RTVSPost2010Prop57
140
1.0
102
RTVSPost2010PropOp57
 70
     1
102
RTVSPropertyOp0
 70
     1
102
RTVSPropertyOp1
 70
     1
102
RTVSPropertyOp2
 70
     1
102
RTVSPropertyOp3
 70
     1
102
RTVSPropertyOp4
 70
     1
102
RTVSPropertyOp5
 70
     1
102
RTVSPropertyOp6
 70
     1
102
RTVSPropertyOp7
 70
     1
102
RTVSPropertyOp8
 70
     1
102
RTVSPropertyOp9
 70
     1
102
RTVSPropertyOp10
 70
     1
102
RTVSPropertyOp11
 70
     1
102
RTVSPropertyOp12
 70
     1
102
RTVSPropertyOp13
 70
     1
102
RTVSPropertyOp14
 70
     1
102
RTVSPropertyOp15
 70
     1
102
RTVSPropertyOp16
 70
     1
102
RTVSPropertyOp17
 70
     1
102
RTVSPropertyOp18
 70
     1
102
RTVSPropertyOp19
 70
     1
102
RTVSPropertyOp20
 70
     1
102
RTVSPropertyOp21
 70
     1
102
RTVSPropertyOp22
 70
     1
102
RTVSPropertyOp23
 70
     1
102
RTVSPropertyOp24
 70
     1
102
RTVSPropertyOp25
 70
     1
102
RTVSPropertyOp26
 70
     1
102
RTVSPropertyOp27
 70
     1
102
RTVSPropertyOp28
 70
     1
102
RTVSPropertyOp29
 70
     1
102
RTVSPropertyOp30
 70
     1
102
RTVSPropertyOp31
 70
     1
102
RTVSPropertyOp32
 70
     1
102
RTVSPropertyOp33
 70
     1
102
RTVSPropertyOp34
 70
     1
102
RTVSPropertyOp35
 70
     1
102
RTVSPropertyOp36
 70
     1
102
RTVSPropertyOp37
 70
     1
102
RTVSPropertyOp38
 70
     1
102
RTVSPropertyOp39
 70
     1
102
RTVSPropertyOp40
 70
     1
102
RTVSPropertyOp41
 70
     1
102
RTVSPropertyOp42
 70
     1
102
RTVSPropertyOp43
 70
     1
102
RTVSPropertyOp44
 70
     1
102
RTVSPropertyOp45
 70
     1
102
RTVSPropertyOp46
 70
     1
102
RTVSPropertyOp47
 70
     1
102
RTVSPropertyOp48
 70
     1
102
RTVSPropertyOp49
 70
     1
102
RTVSPropertyOp50
 70
     1
102
RTVSPropertyOp51
 70
     0
102
RTVSPropertyOp52
 70
     0
102
RTVSPropertyOp53
 70
     1
102
RTVSPropertyOp54
 70
     1
102
RTVSPropertyOp55
 70
     1
102
RTVSPropertyOp56
 70
     1
102
RTVSPropertyOp57
 70
     1
102
RTVSPropertyOp58
 70
     1
102
RTVSPropertyOp59
 70
     1
102
RTVSPropertyOp60
 70
     1
102
RTVSPropertyOp61
 70
     1
102
RTVSPropertyOp62
 70
     1
  0
XRECORD
  5
584
102
{ACAD_REACTORS
330
583
102
}
330
583
100
AcDbXrecord
280
     1
102
RTVSPost2010Prop28
280
     0
102
RTVSPost2010PropOp28
 70
     1
102
RTVSPost2010Prop29
280
     1
102
RTVSPost2010PropOp29
 70
     1
102
RTVSPost2010Prop30
280
     1
102
RTVSPost2010PropOp30
 70
     1
102
RTVSPost2010Prop31
280
     0
102
RTVSPost2010PropOp31
 70
     1
102
RTVSPost2010Prop32
280
     0
102
RTVSPost2010PropOp32
 70
     1
102
RTVSPost2010Prop33
280
     0
102
RTVSPost2010PropOp33
 70
     1
102
RTVSPost2010Prop34
280
     0
102
RTVSPost2010PropOp34
 70
     1
102
RTVSPost2010Prop35
280
     0
102
RTVSPost2010PropOp35
 70
     1
102
RTVSPost2010Prop36
280
     0
102
RTVSPost2010PropOp36
 70
     1
102
RTVSPost2010Prop37
 90
       50
102
RTVSPost2010PropOp37
 70
     1
102
RTVSPost2010Prop38
140
0.0
102
RTVSPost2010PropOp38
 70
     1
102
RTVSPost2010Prop39
140
1.0
102
RTVSPost2010PropOp39
 70
     1
102
RTVSPost2010Prop40
 90
        0
102
RTVSPost2010PropOp40
 70
     1
102
RTVSPost2010Prop41ColorIndex
 90
       18
102
RTVSPost2010Prop41ColorRGB
 90
        0
102
RTVSPost2010PropOp41
 70
     1
102
RTVSPost2010Prop42
 90
       50
102
RTVSPost2010PropOp42
 70
     1
102
RTVSPost2010Prop43
 90
        3
102
RTVSPost2010PropOp43
 70
     1
102
RTVSPost2010Prop44ColorIndex
 90
        5
102
RTVSPost2010Prop44ColorRGB
 90
      255
102
RTVSPost2010PropOp44
 70
     1
102
RTVSPost2010Prop45
280
     0
102
RTVSPost2010PropOp45
 70
     1
102
RTVSPost2010Prop46
 90
       50
102
RTVSPost2010PropOp46
 70
     1
102
RTVSPost2010Prop47
 90
       50
102
RTVSPost2010PropOp47
 70
     1
102
RTVSPost2010Prop48
 90
       50
102
RTVSPost2010PropOp48
 70
     1
102
RTVSPost2010Prop49
280
     0
102
RTVSPost2010PropOp49
 70
     1
102
RTVSPost2010Prop50
 90
       50
102
RTVSPost2010PropOp50
 70
     1
102
RTVSPost2010Prop51ColorIndex
 90
      256
102
RTVSPost2010Prop51ColorRGB
 90
-16777216
102
RTVSPost2010PropOp51
 70
     0
102
RTVSPost2010Prop52
140
1.0
102
RTVSPost2010PropOp52
 70
     0
102
RTVSPost2010Prop53
 90
        2
102
RTVSPost2010PropOp53
 70
     1
102
RTVSPost2010Prop54
  1
strokes_ogs.tif
102
RTVSPost2010PropOp54
 70
     1
102
RTVSPost2010Prop55
280
     0
102
RTVSPost2010PropOp55
 70
     1
102
RTVSPost2010Prop56
140
1.0
102
RTVSPost2010PropOp56
 70
     1
102
RTVSPost2010Prop57
140
1.0
102
RTVSPost2010PropOp57
 70
     1
102
RTVSPropertyOp0
 70
     1
102
RTVSPropertyOp1
 70
     1
102
RTVSPropertyOp2
 70
     1
102
RTVSPropertyOp3
 70
     1
102
RTVSPropertyOp4
 70
     1
102
RTVSPropertyOp5
 70
     1
102
RTVSPropertyOp6
 70
     1
102
RTVSPropertyOp7
 70
     1
102
RTVSPropertyOp8
 70
     1
102
RTVSPropertyOp9
 70
     1
102
RTVSPropertyOp10
 70
     1
102
RTVSPropertyOp11
 70
     1
102
RTVSPropertyOp12
 70
     1
102
RTVSPropertyOp13
 70
     1
102
RTVSPropertyOp14
 70
     1
102
RTVSPropertyOp15
 70
     1
102
RTVSPropertyOp16
 70
     1
102
RTVSPropertyOp17
 70
     1
102
RTVSPropertyOp18
 70
     1
102
RTVSPropertyOp19
 70
     1
102
RTVSPropertyOp20
 70
     1
102
RTVSPropertyOp21
 70
     1
102
RTVSPropertyOp22
 70
     1
102
RTVSPropertyOp23
 70
     1
102
RTVSPropertyOp24
 70
     1
102
RTVSPropertyOp25
 70
     1
102
RTVSPropertyOp26
 70
     1
102
RTVSPropertyOp27
 70
     1
102
RTVSPropertyOp28
 70
     1
102
RTVSPropertyOp29
 70
     1
102
RTVSPropertyOp30
 70
     1
102
RTVSPropertyOp31
 70
     1
102
RTVSPropertyOp32
 70
     1
102
RTVSPropertyOp33
 70
     1
102
RTVSPropertyOp34
 70
     1
102
RTVSPropertyOp35
 70
     1
102
RTVSPropertyOp36
 70
     1
102
RTVSPropertyOp37
 70
     1
102
RTVSPropertyOp38
 70
     1
102
RTVSPropertyOp39
 70
     1
102
RTVSPropertyOp40
 70
     1
102
RTVSPropertyOp41
 70
     1
102
RTVSPropertyOp42
 70
     1
102
RTVSPropertyOp43
 70
     1
102
RTVSPropertyOp44
 70
     1
102
RTVSPropertyOp45
 70
     1
102
RTVSPropertyOp46
 70
     1
102
RTVSPropertyOp47
 70
     1
102
RTVSPropertyOp48
 70
     1
102
RTVSPropertyOp49
 70
     1
102
RTVSPropertyOp50
 70
     1
102
RTVSPropertyOp51
 70
     0
102
RTVSPropertyOp52
 70
     0
102
RTVSPropertyOp53
 70
     1
102
RTVSPropertyOp54
 70
     1
102
RTVSPropertyOp55
 70
     1
102
RTVSPropertyOp56
 70
     1
102
RTVSPropertyOp57
 70
     1
102
RTVSPropertyOp58
 70
     1
102
RTVSPropertyOp59
 70
     1
102
RTVSPropertyOp60
 70
     1
102
RTVSPropertyOp61
 70
     1
102
RTVSPropertyOp62
 70
     1
  0
XRECORD
  5
576
102
{ACAD_REACTORS
330
575
102
}
330
575
100
AcDbXrecord
280
     1
102
RTVSPost2010Prop28
280
     0
102
RTVSPost2010PropOp28
 70
     1
102
RTVSPost2010Prop29
280
     1
102
RTVSPost2010PropOp29
 70
     1
102
RTVSPost2010Prop30
280
     1
102
RTVSPost2010PropOp30
 70
     1
102
RTVSPost2010Prop31
280
     0
102
RTVSPost2010PropOp31
 70
     1
102
RTVSPost2010Prop32
280
     0
102
RTVSPost2010PropOp32
 70
     1
102
RTVSPost2010Prop33
280
     0
102
RTVSPost2010PropOp33
 70
     1
102
RTVSPost2010Prop34
280
     0
102
RTVSPost2010PropOp34
 70
     1
102
RTVSPost2010Prop35
280
     0
102
RTVSPost2010PropOp35
 70
     1
102
RTVSPost2010Prop36
280
     0
102
RTVSPost2010PropOp36
 70
     1
102
RTVSPost2010Prop37
 90
       50
102
RTVSPost2010PropOp37
 70
     1
102
RTVSPost2010Prop38
140
0.0
102
RTVSPost2010PropOp38
 70
     1
102
RTVSPost2010Prop39
140
1.0
102
RTVSPost2010PropOp39
 70
     1
102
RTVSPost2010Prop40
 90
        0
102
RTVSPost2010PropOp40
 70
     1
102
RTVSPost2010Prop41ColorIndex
 90
       18
102
RTVSPost2010Prop41ColorRGB
 90
        0
102
RTVSPost2010PropOp41
 70
     1
102
RTVSPost2010Prop42
 90
       50
102
RTVSPost2010PropOp42
 70
     1
102
RTVSPost2010Prop43
 90
        3
102
RTVSPost2010PropOp43
 70
     1
102
RTVSPost2010Prop44ColorIndex
 90
        5
102
RTVSPost2010Prop44ColorRGB
 90
      255
102
RTVSPost2010PropOp44
 70
     1
102
RTVSPost2010Prop45
280
     0
102
RTVSPost2010PropOp45
 70
     1
102
RTVSPost2010Prop46
 90
       50
102
RTVSPost2010PropOp46
 70
     1
102
RTVSPost2010Prop47
 90
       50
102
RTVSPost2010PropOp47
 70
     1
102
RTVSPost2010Prop48
 90
       50
102
RTVSPost2010PropOp48
 70
     1
102
RTVSPost2010Prop49
280
     0
102
RTVSPost2010PropOp49
 70
     1
102
RTVSPost2010Prop50
 90
       50
102
RTVSPost2010PropOp50
 70
     1
102
RTVSPost2010Prop51ColorIndex
 90
      256
102
RTVSPost2010Prop51ColorRGB
 90
-16777216
102
RTVSPost2010PropOp51
 70
     0
102
RTVSPost2010Prop52
140
1.0
102
RTVSPost2010PropOp52
 70
     0
102
RTVSPost2010Prop53
 90
        2
102
RTVSPost2010PropOp53
 70
     1
102
RTVSPost2010Prop54
  1
strokes_ogs.tif
102
RTVSPost2010PropOp54
 70
     1
102
RTVSPost2010Prop55
280
     0
102
RTVSPost2010PropOp55
 70
     1
102
RTVSPost2010Prop56
140
1.0
102
RTVSPost2010PropOp56
 70
     1
102
RTVSPost2010Prop57
140
1.0
102
RTVSPost2010PropOp57
 70
     1
102
RTVSPropertyOp0
 70
     1
102
RTVSPropertyOp1
 70
     1
102
RTVSPropertyOp2
 70
     1
102
RTVSPropertyOp3
 70
     1
102
RTVSPropertyOp4
 70
     1
102
RTVSPropertyOp5
 70
     1
102
RTVSPropertyOp6
 70
     1
102
RTVSPropertyOp7
 70
     1
102
RTVSPropertyOp8
 70
     1
102
RTVSPropertyOp9
 70
     1
102
RTVSPropertyOp10
 70
     1
102
RTVSPropertyOp11
 70
     1
102
RTVSPropertyOp12
 70
     1
102
RTVSPropertyOp13
 70
     1
102
RTVSPropertyOp14
 70
     1
102
RTVSPropertyOp15
 70
     1
102
RTVSPropertyOp16
 70
     1
102
RTVSPropertyOp17
 70
     1
102
RTVSPropertyOp18
 70
     1
102
RTVSPropertyOp19
 70
     1
102
RTVSPropertyOp20
 70
     1
102
RTVSPropertyOp21
 70
     1
102
RTVSPropertyOp22
 70
     1
102
RTVSPropertyOp23
 70
     1
102
RTVSPropertyOp24
 70
     1
102
RTVSPropertyOp25
 70
     1
102
RTVSPropertyOp26
 70
     1
102
RTVSPropertyOp27
 70
     1
102
RTVSPropertyOp28
 70
     1
102
RTVSPropertyOp29
 70
     1
102
RTVSPropertyOp30
 70
     1
102
RTVSPropertyOp31
 70
     1
102
RTVSPropertyOp32
 70
     1
102
RTVSPropertyOp33
 70
     1
102
RTVSPropertyOp34
 70
     1
102
RTVSPropertyOp35
 70
     1
102
RTVSPropertyOp36
 70
     1
102
RTVSPropertyOp37
 70
     1
102
RTVSPropertyOp38
 70
     1
102
RTVSPropertyOp39
 70
     1
102
RTVSPropertyOp40
 70
     1
102
RTVSPropertyOp41
 70
     1
102
RTVSPropertyOp42
 70
     1
102
RTVSPropertyOp43
 70
     1
102
RTVSPropertyOp44
 70
     1
102
RTVSPropertyOp45
 70
     1
102
RTVSPropertyOp46
 70
     1
102
RTVSPropertyOp47
 70
     1
102
RTVSPropertyOp48
 70
     1
102
RTVSPropertyOp49
 70
     1
102
RTVSPropertyOp50
 70
     1
102
RTVSPropertyOp51
 70
     0
102
RTVSPropertyOp52
 70
     0
102
RTVSPropertyOp53
 70
     1
102
RTVSPropertyOp54
 70
     1
102
RTVSPropertyOp55
 70
     1
102
RTVSPropertyOp56
 70
     1
102
RTVSPropertyOp57
 70
     1
102
RTVSPropertyOp58
 70
     1
102
RTVSPropertyOp59
 70
     1
102
RTVSPropertyOp60
 70
     1
102
RTVSPropertyOp61
 70
     1
102
RTVSPropertyOp62
 70
     1
  0
XRECORD
  5
57A
102
{ACAD_REACTORS
330
579
102
}
330
579
100
AcDbXrecord
280
     1
102
RTVSPost2010Prop28
280
     0
102
RTVSPost2010PropOp28
 70
     1
102
RTVSPost2010Prop29
280
     1
102
RTVSPost2010PropOp29
 70
     1
102
RTVSPost2010Prop30
280
     1
102
RTVSPost2010PropOp30
 70
     1
102
RTVSPost2010Prop31
280
     0
102
RTVSPost2010PropOp31
 70
     1
102
RTVSPost2010Prop32
280
     0
102
RTVSPost2010PropOp32
 70
     1
102
RTVSPost2010Prop33
280
     0
102
RTVSPost2010PropOp33
 70
     1
102
RTVSPost2010Prop34
280
     0
102
RTVSPost2010PropOp34
 70
     1
102
RTVSPost2010Prop35
280
     0
102
RTVSPost2010PropOp35
 70
     1
102
RTVSPost2010Prop36
280
     0
102
RTVSPost2010PropOp36
 70
     1
102
RTVSPost2010Prop37
 90
       50
102
RTVSPost2010PropOp37
 70
     1
102
RTVSPost2010Prop38
140
0.0
102
RTVSPost2010PropOp38
 70
     1
102
RTVSPost2010Prop39
140
1.0
102
RTVSPost2010PropOp39
 70
     1
102
RTVSPost2010Prop40
 90
        0
102
RTVSPost2010PropOp40
 70
     1
102
RTVSPost2010Prop41ColorIndex
 90
       18
102
RTVSPost2010Prop41ColorRGB
 90
        0
102
RTVSPost2010PropOp41
 70
     1
102
RTVSPost2010Prop42
 90
       50
102
RTVSPost2010PropOp42
 70
     1
102
RTVSPost2010Prop43
 90
        3
102
RTVSPost2010PropOp43
 70
     1
102
RTVSPost2010Prop44ColorIndex
 90
        5
102
RTVSPost2010Prop44ColorRGB
 90
      255
102
RTVSPost2010PropOp44
 70
     1
102
RTVSPost2010Prop45
280
     0
102
RTVSPost2010PropOp45
 70
     1
102
RTVSPost2010Prop46
 90
       50
102
RTVSPost2010PropOp46
 70
     1
102
RTVSPost2010Prop47
 90
       50
102
RTVSPost2010PropOp47
 70
     1
102
RTVSPost2010Prop48
 90
       50
102
RTVSPost2010PropOp48
 70
     1
102
RTVSPost2010Prop49
280
     0
102
RTVSPost2010PropOp49
 70
     1
102
RTVSPost2010Prop50
 90
       50
102
RTVSPost2010PropOp50
 70
     1
102
RTVSPost2010Prop51ColorIndex
 90
      256
102
RTVSPost2010Prop51ColorRGB
 90
-16777216
102
RTVSPost2010PropOp51
 70
     0
102
RTVSPost2010Prop52
140
1.0
102
RTVSPost2010PropOp52
 70
     0
102
RTVSPost2010Prop53
 90
        2
102
RTVSPost2010PropOp53
 70
     1
102
RTVSPost2010Prop54
  1
strokes_ogs.tif
102
RTVSPost2010PropOp54
 70
     1
102
RTVSPost2010Prop55
280
     0
102
RTVSPost2010PropOp55
 70
     1
102
RTVSPost2010Prop56
140
1.0
102
RTVSPost2010PropOp56
 70
     1
102
RTVSPost2010Prop57
140
1.0
102
RTVSPost2010PropOp57
 70
     1
102
RTVSPropertyOp0
 70
     1
102
RTVSPropertyOp1
 70
     1
102
RTVSPropertyOp2
 70
     1
102
RTVSPropertyOp3
 70
     1
102
RTVSPropertyOp4
 70
     1
102
RTVSPropertyOp5
 70
     1
102
RTVSPropertyOp6
 70
     1
102
RTVSPropertyOp7
 70
     1
102
RTVSPropertyOp8
 70
     1
102
RTVSPropertyOp9
 70
     1
102
RTVSPropertyOp10
 70
     1
102
RTVSPropertyOp11
 70
     1
102
RTVSPropertyOp12
 70
     1
102
RTVSPropertyOp13
 70
     1
102
RTVSPropertyOp14
 70
     1
102
RTVSPropertyOp15
 70
     1
102
RTVSPropertyOp16
 70
     1
102
RTVSPropertyOp17
 70
     1
102
RTVSPropertyOp18
 70
     1
102
RTVSPropertyOp19
 70
     1
102
RTVSPropertyOp20
 70
     1
102
RTVSPropertyOp21
 70
     1
102
RTVSPropertyOp22
 70
     1
102
RTVSPropertyOp23
 70
     1
102
RTVSPropertyOp24
 70
     1
102
RTVSPropertyOp25
 70
     1
102
RTVSPropertyOp26
 70
     1
102
RTVSPropertyOp27
 70
     1
102
RTVSPropertyOp28
 70
     1
102
RTVSPropertyOp29
 70
     1
102
RTVSPropertyOp30
 70
     1
102
RTVSPropertyOp31
 70
     1
102
RTVSPropertyOp32
 70
     1
102
RTVSPropertyOp33
 70
     1
102
RTVSPropertyOp34
 70
     1
102
RTVSPropertyOp35
 70
     1
102
RTVSPropertyOp36
 70
     1
102
RTVSPropertyOp37
 70
     1
102
RTVSPropertyOp38
 70
     1
102
RTVSPropertyOp39
 70
     1
102
RTVSPropertyOp40
 70
     1
102
RTVSPropertyOp41
 70
     1
102
RTVSPropertyOp42
 70
     1
102
RTVSPropertyOp43
 70
     1
102
RTVSPropertyOp44
 70
     1
102
RTVSPropertyOp45
 70
     1
102
RTVSPropertyOp46
 70
     1
102
RTVSPropertyOp47
 70
     1
102
RTVSPropertyOp48
 70
     1
102
RTVSPropertyOp49
 70
     1
102
RTVSPropertyOp50
 70
     1
102
RTVSPropertyOp51
 70
     0
102
RTVSPropertyOp52
 70
     0
102
RTVSPropertyOp53
 70
     1
102
RTVSPropertyOp54
 70
     1
102
RTVSPropertyOp55
 70
     1
102
RTVSPropertyOp56
 70
     1
102
RTVSPropertyOp57
 70
     1
102
RTVSPropertyOp58
 70
     1
102
RTVSPropertyOp59
 70
     1
102
RTVSPropertyOp60
 70
     1
102
RTVSPropertyOp61
 70
     1
102
RTVSPropertyOp62
 70
     1
  0
XRECORD
  5
594
102
{ACAD_REACTORS
330
593
102
}
330
593
100
AcDbXrecord
280
     1
102
RTVSPost2010Prop28
280
     0
102
RTVSPost2010PropOp28
 70
     0
102
RTVSPost2010Prop29
280
     1
102
RTVSPost2010PropOp29
 70
     0
102
RTVSPost2010Prop30
280
     1
102
RTVSPost2010PropOp30
 70
     0
102
RTVSPost2010Prop31
280
     0
102
RTVSPost2010PropOp31
 70
     0
102
RTVSPost2010Prop32
280
     0
102
RTVSPost2010PropOp32
 70
     0
102
RTVSPost2010Prop33
280
     0
102
RTVSPost2010PropOp33
 70
     0
102
RTVSPost2010Prop34
280
     0
102
RTVSPost2010PropOp34
 70
     0
102
RTVSPost2010Prop35
280
     0
102
RTVSPost2010PropOp35
 70
     0
102
RTVSPost2010Prop36
280
     0
102
RTVSPost2010PropOp36
 70
     0
102
RTVSPost2010Prop37
 90
       50
102
RTVSPost2010PropOp37
 70
     0
102
RTVSPost2010Prop38
140
0.0
102
RTVSPost2010PropOp38
 70
     0
102
RTVSPost2010Prop39
140
1.0
102
RTVSPost2010PropOp39
 70
     0
102
RTVSPost2010Prop40
 90
        0
102
RTVSPost2010PropOp40
 70
     0
102
RTVSPost2010Prop41ColorIndex
 90
       18
102
RTVSPost2010Prop41ColorRGB
 90
        0
102
RTVSPost2010PropOp41
 70
     0
102
RTVSPost2010Prop42
 90
       50
102
RTVSPost2010PropOp42
 70
     0
102
RTVSPost2010Prop43
 90
        3
102
RTVSPost2010PropOp43
 70
     0
102
RTVSPost2010Prop44ColorIndex
 90
        5
102
RTVSPost2010Prop44ColorRGB
 90
      255
102
RTVSPost2010PropOp44
 70
     0
102
RTVSPost2010Prop45
280
     0
102
RTVSPost2010PropOp45
 70
     0
102
RTVSPost2010Prop46
 90
       50
102
RTVSPost2010PropOp46
 70
     0
102
RTVSPost2010Prop47
 90
       50
102
RTVSPost2010PropOp47
 70
     0
102
RTVSPost2010Prop48
 90
       50
102
RTVSPost2010PropOp48
 70
     0
102
RTVSPost2010Prop49
280
     0
102
RTVSPost2010PropOp49
 70
     0
102
RTVSPost2010Prop50
 90
       50
102
RTVSPost2010PropOp50
 70
     0
102
RTVSPost2010Prop51ColorIndex
 90
      256
102
RTVSPost2010Prop51ColorRGB
 90
-16777216
102
RTVSPost2010PropOp51
 70
     0
102
RTVSPost2010Prop52
140
1.0
102
RTVSPost2010PropOp52
 70
     0
102
RTVSPost2010Prop53
 90
        2
102
RTVSPost2010PropOp53
 70
     0
102
RTVSPost2010Prop54
  1
strokes_ogs.tif
102
RTVSPost2010PropOp54
 70
     0
102
RTVSPost2010Prop55
280
     0
102
RTVSPost2010PropOp55
 70
     0
102
RTVSPost2010Prop56
140
1.0
102
RTVSPost2010PropOp56
 70
     0
102
RTVSPost2010Prop57
140
1.0
102
RTVSPost2010PropOp57
 70
     0
102
RTVSPropertyOp0
 70
     0
102
RTVSPropertyOp1
 70
     0
102
RTVSPropertyOp2
 70
     0
102
RTVSPropertyOp3
 70
     0
102
RTVSPropertyOp4
 70
     0
102
RTVSPropertyOp5
 70
     0
102
RTVSPropertyOp6
 70
     0
102
RTVSPropertyOp7
 70
     0
102
RTVSPropertyOp8
 70
     0
102
RTVSPropertyOp9
 70
     0
102
RTVSPropertyOp10
 70
     0
102
RTVSPropertyOp11
 70
     0
102
RTVSPropertyOp12
 70
     0
102
RTVSPropertyOp13
 70
     0
102
RTVSPropertyOp14
 70
     2
102
RTVSPropertyOp15
 70
     0
102
RTVSPropertyOp16
 70
     0
102
RTVSPropertyOp17
 70
     0
102
RTVSPropertyOp18
 70
     0
102
RTVSPropertyOp19
 70
     0
102
RTVSPropertyOp20
 70
     0
102
RTVSPropertyOp21
 70
     0
102
RTVSPropertyOp22
 70
     0
102
RTVSPropertyOp23
 70
     0
102
RTVSPropertyOp24
 70
     0
102
RTVSPropertyOp25
 70
     0
102
RTVSPropertyOp26
 70
     0
102
RTVSPropertyOp27
 70
     0
102
RTVSPropertyOp28
 70
     0
102
RTVSPropertyOp29
 70
     0
102
RTVSPropertyOp30
 70
     0
102
RTVSPropertyOp31
 70
     0
102
RTVSPropertyOp32
 70
     0
102
RTVSPropertyOp33
 70
     0
102
RTVSPropertyOp34
 70
     0
102
RTVSPropertyOp35
 70
     0
102
RTVSPropertyOp36
 70
     0
102
RTVSPropertyOp37
 70
     0
102
RTVSPropertyOp38
 70
     0
102
RTVSPropertyOp39
 70
     0
102
RTVSPropertyOp40
 70
     0
102
RTVSPropertyOp41
 70
     0
102
RTVSPropertyOp42
 70
     0
102
RTVSPropertyOp43
 70
     0
102
RTVSPropertyOp44
 70
     0
102
RTVSPropertyOp45
 70
     0
102
RTVSPropertyOp46
 70
     0
102
RTVSPropertyOp47
 70
     0
102
RTVSPropertyOp48
 70
     0
102
RTVSPropertyOp49
 70
     0
102
RTVSPropertyOp50
 70
     0
102
RTVSPropertyOp51
 70
     0
102
RTVSPropertyOp52
 70
     0
102
RTVSPropertyOp53
 70
     0
102
RTVSPropertyOp54
 70
     0
102
RTVSPropertyOp55
 70
     0
102
RTVSPropertyOp56
 70
     0
102
RTVSPropertyOp57
 70
     0
102
RTVSPropertyOp58
 70
     0
102
RTVSPropertyOp59
 70
     0
102
RTVSPropertyOp60
 70
     0
102
RTVSPropertyOp61
 70
     0
102
RTVSPropertyOp62
 70
     0
  0
XRECORD
  5
582
102
{ACAD_REACTORS
330
581
102
}
330
581
100
AcDbXrecord
280
     1
102
RTVSPost2010Prop28
280
     0
102
RTVSPost2010PropOp28
 70
     1
102
RTVSPost2010Prop29
280
     1
102
RTVSPost2010PropOp29
 70
     1
102
RTVSPost2010Prop30
280
     1
102
RTVSPost2010PropOp30
 70
     1
102
RTVSPost2010Prop31
280
     0
102
RTVSPost2010PropOp31
 70
     1
102
RTVSPost2010Prop32
280
     0
102
RTVSPost2010PropOp32
 70
     1
102
RTVSPost2010Prop33
280
     0
102
RTVSPost2010PropOp33
 70
     1
102
RTVSPost2010Prop34
280
     0
102
RTVSPost2010PropOp34
 70
     1
102
RTVSPost2010Prop35
280
     0
102
RTVSPost2010PropOp35
 70
     1
102
RTVSPost2010Prop36
280
     0
102
RTVSPost2010PropOp36
 70
     1
102
RTVSPost2010Prop37
 90
       50
102
RTVSPost2010PropOp37
 70
     1
102
RTVSPost2010Prop38
140
0.0
102
RTVSPost2010PropOp38
 70
     1
102
RTVSPost2010Prop39
140
1.0
102
RTVSPost2010PropOp39
 70
     1
102
RTVSPost2010Prop40
 90
        0
102
RTVSPost2010PropOp40
 70
     1
102
RTVSPost2010Prop41ColorIndex
 90
       18
102
RTVSPost2010Prop41ColorRGB
 90
        0
102
RTVSPost2010PropOp41
 70
     1
102
RTVSPost2010Prop42
 90
       50
102
RTVSPost2010PropOp42
 70
     1
102
RTVSPost2010Prop43
 90
        3
102
RTVSPost2010PropOp43
 70
     1
102
RTVSPost2010Prop44ColorIndex
 90
        5
102
RTVSPost2010Prop44ColorRGB
 90
      255
102
RTVSPost2010PropOp44
 70
     1
102
RTVSPost2010Prop45
280
     0
102
RTVSPost2010PropOp45
 70
     1
102
RTVSPost2010Prop46
 90
       50
102
RTVSPost2010PropOp46
 70
     1
102
RTVSPost2010Prop47
 90
       50
102
RTVSPost2010PropOp47
 70
     1
102
RTVSPost2010Prop48
 90
       50
102
RTVSPost2010PropOp48
 70
     1
102
RTVSPost2010Prop49
280
     0
102
RTVSPost2010PropOp49
 70
     1
102
RTVSPost2010Prop50
 90
       50
102
RTVSPost2010PropOp50
 70
     1
102
RTVSPost2010Prop51ColorIndex
 90
      256
102
RTVSPost2010Prop51ColorRGB
 90
-16777216
102
RTVSPost2010PropOp51
 70
     0
102
RTVSPost2010Prop52
140
1.0
102
RTVSPost2010PropOp52
 70
     0
102
RTVSPost2010Prop53
 90
        2
102
RTVSPost2010PropOp53
 70
     1
102
RTVSPost2010Prop54
  1
strokes_ogs.tif
102
RTVSPost2010PropOp54
 70
     1
102
RTVSPost2010Prop55
280
     0
102
RTVSPost2010PropOp55
 70
     1
102
RTVSPost2010Prop56
140
1.0
102
RTVSPost2010PropOp56
 70
     1
102
RTVSPost2010Prop57
140
1.0
102
RTVSPost2010PropOp57
 70
     1
102
RTVSPropertyOp0
 70
     1
102
RTVSPropertyOp1
 70
     1
102
RTVSPropertyOp2
 70
     1
102
RTVSPropertyOp3
 70
     1
102
RTVSPropertyOp4
 70
     1
102
RTVSPropertyOp5
 70
     1
102
RTVSPropertyOp6
 70
     1
102
RTVSPropertyOp7
 70
     1
102
RTVSPropertyOp8
 70
     1
102
RTVSPropertyOp9
 70
     1
102
RTVSPropertyOp10
 70
     1
102
RTVSPropertyOp11
 70
     1
102
RTVSPropertyOp12
 70
     1
102
RTVSPropertyOp13
 70
     1
102
RTVSPropertyOp14
 70
     1
102
RTVSPropertyOp15
 70
     1
102
RTVSPropertyOp16
 70
     1
102
RTVSPropertyOp17
 70
     1
102
RTVSPropertyOp18
 70
     1
102
RTVSPropertyOp19
 70
     1
102
RTVSPropertyOp20
 70
     1
102
RTVSPropertyOp21
 70
     1
102
RTVSPropertyOp22
 70
     1
102
RTVSPropertyOp23
 70
     1
102
RTVSPropertyOp24
 70
     1
102
RTVSPropertyOp25
 70
     1
102
RTVSPropertyOp26
 70
     1
102
RTVSPropertyOp27
 70
     1
102
RTVSPropertyOp28
 70
     1
102
RTVSPropertyOp29
 70
     1
102
RTVSPropertyOp30
 70
     1
102
RTVSPropertyOp31
 70
     1
102
RTVSPropertyOp32
 70
     1
102
RTVSPropertyOp33
 70
     1
102
RTVSPropertyOp34
 70
     1
102
RTVSPropertyOp35
 70
     1
102
RTVSPropertyOp36
 70
     1
102
RTVSPropertyOp37
 70
     1
102
RTVSPropertyOp38
 70
     1
102
RTVSPropertyOp39
 70
     1
102
RTVSPropertyOp40
 70
     1
102
RTVSPropertyOp41
 70
     1
102
RTVSPropertyOp42
 70
     1
102
RTVSPropertyOp43
 70
     1
102
RTVSPropertyOp44
 70
     1
102
RTVSPropertyOp45
 70
     1
102
RTVSPropertyOp46
 70
     1
102
RTVSPropertyOp47
 70
     1
102
RTVSPropertyOp48
 70
     1
102
RTVSPropertyOp49
 70
     1
102
RTVSPropertyOp50
 70
     1
102
RTVSPropertyOp51
 70
     0
102
RTVSPropertyOp52
 70
     0
102
RTVSPropertyOp53
 70
     1
102
RTVSPropertyOp54
 70
     1
102
RTVSPropertyOp55
 70
     1
102
RTVSPropertyOp56
 70
     1
102
RTVSPropertyOp57
 70
     1
102
RTVSPropertyOp58
 70
     1
102
RTVSPropertyOp59
 70
     1
102
RTVSPropertyOp60
 70
     1
102
RTVSPropertyOp61
 70
     1
102
RTVSPropertyOp62
 70
     1
  0
XRECORD
  5
566
102
{ACAD_REACTORS
330
565
102
}
330
565
100
AcDbXrecord
280
     1
102
RTVSPost2010Prop28
280
     0
102
RTVSPost2010PropOp28
 70
     1
102
RTVSPost2010Prop29
280
     1
102
RTVSPost2010PropOp29
 70
     1
102
RTVSPost2010Prop30
280
     1
102
RTVSPost2010PropOp30
 70
     1
102
RTVSPost2010Prop31
280
     0
102
RTVSPost2010PropOp31
 70
     1
102
RTVSPost2010Prop32
280
     0
102
RTVSPost2010PropOp32
 70
     1
102
RTVSPost2010Prop33
280
     0
102
RTVSPost2010PropOp33
 70
     1
102
RTVSPost2010Prop34
280
     0
102
RTVSPost2010PropOp34
 70
     1
102
RTVSPost2010Prop35
280
     0
102
RTVSPost2010PropOp35
 70
     1
102
RTVSPost2010Prop36
280
     0
102
RTVSPost2010PropOp36
 70
     1
102
RTVSPost2010Prop37
 90
       50
102
RTVSPost2010PropOp37
 70
     1
102
RTVSPost2010Prop38
140
0.0
102
RTVSPost2010PropOp38
 70
     1
102
RTVSPost2010Prop39
140
1.0
102
RTVSPost2010PropOp39
 70
     1
102
RTVSPost2010Prop40
 90
        0
102
RTVSPost2010PropOp40
 70
     1
102
RTVSPost2010Prop41ColorIndex
 90
       18
102
RTVSPost2010Prop41ColorRGB
 90
        0
102
RTVSPost2010PropOp41
 70
     1
102
RTVSPost2010Prop42
 90
       50
102
RTVSPost2010PropOp42
 70
     1
102
RTVSPost2010Prop43
 90
        3
102
RTVSPost2010PropOp43
 70
     1
102
RTVSPost2010Prop44ColorIndex
 90
        5
102
RTVSPost2010Prop44ColorRGB
 90
      255
102
RTVSPost2010PropOp44
 70
     1
102
RTVSPost2010Prop45
280
     0
102
RTVSPost2010PropOp45
 70
     1
102
RTVSPost2010Prop46
 90
       50
102
RTVSPost2010PropOp46
 70
     1
102
RTVSPost2010Prop47
 90
       50
102
RTVSPost2010PropOp47
 70
     1
102
RTVSPost2010Prop48
 90
       50
102
RTVSPost2010PropOp48
 70
     1
102
RTVSPost2010Prop49
280
     0
102
RTVSPost2010PropOp49
 70
     1
102
RTVSPost2010Prop50
 90
       50
102
RTVSPost2010PropOp50
 70
     1
102
RTVSPost2010Prop51ColorIndex
 90
      256
102
RTVSPost2010Prop51ColorRGB
 90
-16777216
102
RTVSPost2010PropOp51
 70
     0
102
RTVSPost2010Prop52
140
1.0
102
RTVSPost2010PropOp52
 70
     0
102
RTVSPost2010Prop53
 90
        2
102
RTVSPost2010PropOp53
 70
     1
102
RTVSPost2010Prop54
  1
strokes_ogs.tif
102
RTVSPost2010PropOp54
 70
     1
102
RTVSPost2010Prop55
280
     0
102
RTVSPost2010PropOp55
 70
     1
102
RTVSPost2010Prop56
140
1.0
102
RTVSPost2010PropOp56
 70
     1
102
RTVSPost2010Prop57
140
1.0
102
RTVSPost2010PropOp57
 70
     1
102
RTVSPropertyOp0
 70
     1
102
RTVSPropertyOp1
 70
     1
102
RTVSPropertyOp2
 70
     1
102
RTVSPropertyOp3
 70
     1
102
RTVSPropertyOp4
 70
     1
102
RTVSPropertyOp5
 70
     1
102
RTVSPropertyOp6
 70
     1
102
RTVSPropertyOp7
 70
     1
102
RTVSPropertyOp8
 70
     1
102
RTVSPropertyOp9
 70
     1
102
RTVSPropertyOp10
 70
     1
102
RTVSPropertyOp11
 70
     1
102
RTVSPropertyOp12
 70
     1
102
RTVSPropertyOp13
 70
     1
102
RTVSPropertyOp14
 70
     1
102
RTVSPropertyOp15
 70
     1
102
RTVSPropertyOp16
 70
     1
102
RTVSPropertyOp17
 70
     1
102
RTVSPropertyOp18
 70
     1
102
RTVSPropertyOp19
 70
     1
102
RTVSPropertyOp20
 70
     1
102
RTVSPropertyOp21
 70
     1
102
RTVSPropertyOp22
 70
     1
102
RTVSPropertyOp23
 70
     1
102
RTVSPropertyOp24
 70
     1
102
RTVSPropertyOp25
 70
     1
102
RTVSPropertyOp26
 70
     1
102
RTVSPropertyOp27
 70
     1
102
RTVSPropertyOp28
 70
     1
102
RTVSPropertyOp29
 70
     1
102
RTVSPropertyOp30
 70
     1
102
RTVSPropertyOp31
 70
     1
102
RTVSPropertyOp32
 70
     1
102
RTVSPropertyOp33
 70
     1
102
RTVSPropertyOp34
 70
     1
102
RTVSPropertyOp35
 70
     1
102
RTVSPropertyOp36
 70
     1
102
RTVSPropertyOp37
 70
     1
102
RTVSPropertyOp38
 70
     1
102
RTVSPropertyOp39
 70
     1
102
RTVSPropertyOp40
 70
     1
102
RTVSPropertyOp41
 70
     1
102
RTVSPropertyOp42
 70
     1
102
RTVSPropertyOp43
 70
     1
102
RTVSPropertyOp44
 70
     1
102
RTVSPropertyOp45
 70
     1
102
RTVSPropertyOp46
 70
     1
102
RTVSPropertyOp47
 70
     1
102
RTVSPropertyOp48
 70
     1
102
RTVSPropertyOp49
 70
     1
102
RTVSPropertyOp50
 70
     1
102
RTVSPropertyOp51
 70
     0
102
RTVSPropertyOp52
 70
     0
102
RTVSPropertyOp53
 70
     1
102
RTVSPropertyOp54
 70
     1
102
RTVSPropertyOp55
 70
     1
102
RTVSPropertyOp56
 70
     1
102
RTVSPropertyOp57
 70
     1
102
RTVSPropertyOp58
 70
     1
102
RTVSPropertyOp59
 70
     1
102
RTVSPropertyOp60
 70
     1
102
RTVSPropertyOp61
 70
     1
102
RTVSPropertyOp62
 70
     1
  0
XRECORD
  5
568
102
{ACAD_REACTORS
330
567
102
}
330
567
100
AcDbXrecord
280
     1
102
RTVSPost2010Prop28
280
     0
102
RTVSPost2010PropOp28
 70
     1
102
RTVSPost2010Prop29
280
     1
102
RTVSPost2010PropOp29
 70
     1
102
RTVSPost2010Prop30
280
     1
102
RTVSPost2010PropOp30
 70
     1
102
RTVSPost2010Prop31
280
     0
102
RTVSPost2010PropOp31
 70
     1
102
RTVSPost2010Prop32
280
     0
102
RTVSPost2010PropOp32
 70
     1
102
RTVSPost2010Prop33
280
     0
102
RTVSPost2010PropOp33
 70
     1
102
RTVSPost2010Prop34
280
     0
102
RTVSPost2010PropOp34
 70
     1
102
RTVSPost2010Prop35
280
     0
102
RTVSPost2010PropOp35
 70
     1
102
RTVSPost2010Prop36
280
     0
102
RTVSPost2010PropOp36
 70
     1
102
RTVSPost2010Prop37
 90
       50
102
RTVSPost2010PropOp37
 70
     1
102
RTVSPost2010Prop38
140
0.0
102
RTVSPost2010PropOp38
 70
     1
102
RTVSPost2010Prop39
140
1.0
102
RTVSPost2010PropOp39
 70
     1
102
RTVSPost2010Prop40
 90
        0
102
RTVSPost2010PropOp40
 70
     1
102
RTVSPost2010Prop41ColorIndex
 90
       18
102
RTVSPost2010Prop41ColorRGB
 90
        0
102
RTVSPost2010PropOp41
 70
     1
102
RTVSPost2010Prop42
 90
       50
102
RTVSPost2010PropOp42
 70
     1
102
RTVSPost2010Prop43
 90
        3
102
RTVSPost2010PropOp43
 70
     1
102
RTVSPost2010Prop44ColorIndex
 90
        5
102
RTVSPost2010Prop44ColorRGB
 90
      255
102
RTVSPost2010PropOp44
 70
     1
102
RTVSPost2010Prop45
280
     0
102
RTVSPost2010PropOp45
 70
     1
102
RTVSPost2010Prop46
 90
       50
102
RTVSPost2010PropOp46
 70
     1
102
RTVSPost2010Prop47
 90
       50
102
RTVSPost2010PropOp47
 70
     1
102
RTVSPost2010Prop48
 90
       50
102
RTVSPost2010PropOp48
 70
     1
102
RTVSPost2010Prop49
280
     0
102
RTVSPost2010PropOp49
 70
     1
102
RTVSPost2010Prop50
 90
       50
102
RTVSPost2010PropOp50
 70
     1
102
RTVSPost2010Prop51ColorIndex
 90
      256
102
RTVSPost2010Prop51ColorRGB
 90
-16777216
102
RTVSPost2010PropOp51
 70
     0
102
RTVSPost2010Prop52
140
1.0
102
RTVSPost2010PropOp52
 70
     0
102
RTVSPost2010Prop53
 90
        2
102
RTVSPost2010PropOp53
 70
     1
102
RTVSPost2010Prop54
  1
strokes_ogs.tif
102
RTVSPost2010PropOp54
 70
     1
102
RTVSPost2010Prop55
280
     0
102
RTVSPost2010PropOp55
 70
     1
102
RTVSPost2010Prop56
140
1.0
102
RTVSPost2010PropOp56
 70
     1
102
RTVSPost2010Prop57
140
1.0
102
RTVSPost2010PropOp57
 70
     1
102
RTVSPropertyOp0
 70
     1
102
RTVSPropertyOp1
 70
     1
102
RTVSPropertyOp2
 70
     1
102
RTVSPropertyOp3
 70
     1
102
RTVSPropertyOp4
 70
     1
102
RTVSPropertyOp5
 70
     1
102
RTVSPropertyOp6
 70
     1
102
RTVSPropertyOp7
 70
     1
102
RTVSPropertyOp8
 70
     1
102
RTVSPropertyOp9
 70
     1
102
RTVSPropertyOp10
 70
     1
102
RTVSPropertyOp11
 70
     1
102
RTVSPropertyOp12
 70
     1
102
RTVSPropertyOp13
 70
     1
102
RTVSPropertyOp14
 70
     1
102
RTVSPropertyOp15
 70
     1
102
RTVSPropertyOp16
 70
     1
102
RTVSPropertyOp17
 70
     1
102
RTVSPropertyOp18
 70
     1
102
RTVSPropertyOp19
 70
     1
102
RTVSPropertyOp20
 70
     1
102
RTVSPropertyOp21
 70
     1
102
RTVSPropertyOp22
 70
     1
102
RTVSPropertyOp23
 70
     1
102
RTVSPropertyOp24
 70
     1
102
RTVSPropertyOp25
 70
     1
102
RTVSPropertyOp26
 70
     1
102
RTVSPropertyOp27
 70
     1
102
RTVSPropertyOp28
 70
     1
102
RTVSPropertyOp29
 70
     1
102
RTVSPropertyOp30
 70
     1
102
RTVSPropertyOp31
 70
     1
102
RTVSPropertyOp32
 70
     1
102
RTVSPropertyOp33
 70
     1
102
RTVSPropertyOp34
 70
     1
102
RTVSPropertyOp35
 70
     1
102
RTVSPropertyOp36
 70
     1
102
RTVSPropertyOp37
 70
     1
102
RTVSPropertyOp38
 70
     1
102
RTVSPropertyOp39
 70
     1
102
RTVSPropertyOp40
 70
     1
102
RTVSPropertyOp41
 70
     1
102
RTVSPropertyOp42
 70
     1
102
RTVSPropertyOp43
 70
     1
102
RTVSPropertyOp44
 70
     1
102
RTVSPropertyOp45
 70
     1
102
RTVSPropertyOp46
 70
     1
102
RTVSPropertyOp47
 70
     1
102
RTVSPropertyOp48
 70
     1
102
RTVSPropertyOp49
 70
     1
102
RTVSPropertyOp50
 70
     1
102
RTVSPropertyOp51
 70
     0
102
RTVSPropertyOp52
 70
     0
102
RTVSPropertyOp53
 70
     1
102
RTVSPropertyOp54
 70
     1
102
RTVSPropertyOp55
 70
     1
102
RTVSPropertyOp56
 70
     1
102
RTVSPropertyOp57
 70
     1
102
RTVSPropertyOp58
 70
     1
102
RTVSPropertyOp59
 70
     1
102
RTVSPropertyOp60
 70
     1
102
RTVSPropertyOp61
 70
     1
102
RTVSPropertyOp62
 70
     1
  0
XRECORD
  5
56A
102
{ACAD_REACTORS
330
569
102
}
330
569
100
AcDbXrecord
280
     1
102
RTVSPost2010Prop28
280
     0
102
RTVSPost2010PropOp28
 70
     1
102
RTVSPost2010Prop29
280
     1
102
RTVSPost2010PropOp29
 70
     1
102
RTVSPost2010Prop30
280
     1
102
RTVSPost2010PropOp30
 70
     1
102
RTVSPost2010Prop31
280
     0
102
RTVSPost2010PropOp31
 70
     1
102
RTVSPost2010Prop32
280
     0
102
RTVSPost2010PropOp32
 70
     1
102
RTVSPost2010Prop33
280
     0
102
RTVSPost2010PropOp33
 70
     1
102
RTVSPost2010Prop34
280
     0
102
RTVSPost2010PropOp34
 70
     1
102
RTVSPost2010Prop35
280
     0
102
RTVSPost2010PropOp35
 70
     1
102
RTVSPost2010Prop36
280
     0
102
RTVSPost2010PropOp36
 70
     1
102
RTVSPost2010Prop37
 90
       50
102
RTVSPost2010PropOp37
 70
     1
102
RTVSPost2010Prop38
140
0.0
102
RTVSPost2010PropOp38
 70
     1
102
RTVSPost2010Prop39
140
1.0
102
RTVSPost2010PropOp39
 70
     1
102
RTVSPost2010Prop40
 90
        0
102
RTVSPost2010PropOp40
 70
     1
102
RTVSPost2010Prop41ColorIndex
 90
       18
102
RTVSPost2010Prop41ColorRGB
 90
        0
102
RTVSPost2010PropOp41
 70
     1
102
RTVSPost2010Prop42
 90
       50
102
RTVSPost2010PropOp42
 70
     1
102
RTVSPost2010Prop43
 90
        3
102
RTVSPost2010PropOp43
 70
     1
102
RTVSPost2010Prop44ColorIndex
 90
        5
102
RTVSPost2010Prop44ColorRGB
 90
      255
102
RTVSPost2010PropOp44
 70
     1
102
RTVSPost2010Prop45
280
     0
102
RTVSPost2010PropOp45
 70
     1
102
RTVSPost2010Prop46
 90
       50
102
RTVSPost2010PropOp46
 70
     1
102
RTVSPost2010Prop47
 90
       50
102
RTVSPost2010PropOp47
 70
     1
102
RTVSPost2010Prop48
 90
       50
102
RTVSPost2010PropOp48
 70
     1
102
RTVSPost2010Prop49
280
     0
102
RTVSPost2010PropOp49
 70
     1
102
RTVSPost2010Prop50
 90
       50
102
RTVSPost2010PropOp50
 70
     1
102
RTVSPost2010Prop51ColorIndex
 90
      256
102
RTVSPost2010Prop51ColorRGB
 90
-16777216
102
RTVSPost2010PropOp51
 70
     0
102
RTVSPost2010Prop52
140
1.0
102
RTVSPost2010PropOp52
 70
     0
102
RTVSPost2010Prop53
 90
        2
102
RTVSPost2010PropOp53
 70
     1
102
RTVSPost2010Prop54
  1
strokes_ogs.tif
102
RTVSPost2010PropOp54
 70
     1
102
RTVSPost2010Prop55
280
     0
102
RTVSPost2010PropOp55
 70
     1
102
RTVSPost2010Prop56
140
1.0
102
RTVSPost2010PropOp56
 70
     1
102
RTVSPost2010Prop57
140
1.0
102
RTVSPost2010PropOp57
 70
     1
102
RTVSPropertyOp0
 70
     1
102
RTVSPropertyOp1
 70
     1
102
RTVSPropertyOp2
 70
     1
102
RTVSPropertyOp3
 70
     1
102
RTVSPropertyOp4
 70
     1
102
RTVSPropertyOp5
 70
     1
102
RTVSPropertyOp6
 70
     1
102
RTVSPropertyOp7
 70
     1
102
RTVSPropertyOp8
 70
     1
102
RTVSPropertyOp9
 70
     1
102
RTVSPropertyOp10
 70
     1
102
RTVSPropertyOp11
 70
     1
102
RTVSPropertyOp12
 70
     1
102
RTVSPropertyOp13
 70
     1
102
RTVSPropertyOp14
 70
     1
102
RTVSPropertyOp15
 70
     1
102
RTVSPropertyOp16
 70
     1
102
RTVSPropertyOp17
 70
     1
102
RTVSPropertyOp18
 70
     1
102
RTVSPropertyOp19
 70
     1
102
RTVSPropertyOp20
 70
     1
102
RTVSPropertyOp21
 70
     1
102
RTVSPropertyOp22
 70
     1
102
RTVSPropertyOp23
 70
     1
102
RTVSPropertyOp24
 70
     1
102
RTVSPropertyOp25
 70
     1
102
RTVSPropertyOp26
 70
     1
102
RTVSPropertyOp27
 70
     1
102
RTVSPropertyOp28
 70
     1
102
RTVSPropertyOp29
 70
     1
102
RTVSPropertyOp30
 70
     1
102
RTVSPropertyOp31
 70
     1
102
RTVSPropertyOp32
 70
     1
102
RTVSPropertyOp33
 70
     1
102
RTVSPropertyOp34
 70
     1
102
RTVSPropertyOp35
 70
     1
102
RTVSPropertyOp36
 70
     1
102
RTVSPropertyOp37
 70
     1
102
RTVSPropertyOp38
 70
     1
102
RTVSPropertyOp39
 70
     1
102
RTVSPropertyOp40
 70
     1
102
RTVSPropertyOp41
 70
     1
102
RTVSPropertyOp42
 70
     1
102
RTVSPropertyOp43
 70
     1
102
RTVSPropertyOp44
 70
     1
102
RTVSPropertyOp45
 70
     1
102
RTVSPropertyOp46
 70
     1
102
RTVSPropertyOp47
 70
     1
102
RTVSPropertyOp48
 70
     1
102
RTVSPropertyOp49
 70
     1
102
RTVSPropertyOp50
 70
     1
102
RTVSPropertyOp51
 70
     0
102
RTVSPropertyOp52
 70
     0
102
RTVSPropertyOp53
 70
     1
102
RTVSPropertyOp54
 70
     1
102
RTVSPropertyOp55
 70
     1
102
RTVSPropertyOp56
 70
     1
102
RTVSPropertyOp57
 70
     1
102
RTVSPropertyOp58
 70
     1
102
RTVSPropertyOp59
 70
     1
102
RTVSPropertyOp60
 70
     1
102
RTVSPropertyOp61
 70
     1
102
RTVSPropertyOp62
 70
     1
  0
XRECORD
  5
56C
102
{ACAD_REACTORS
330
56B
102
}
330
56B
100
AcDbXrecord
280
     1
102
RTVSPost2010Prop28
280
     0
102
RTVSPost2010PropOp28
 70
     1
102
RTVSPost2010Prop29
280
     1
102
RTVSPost2010PropOp29
 70
     1
102
RTVSPost2010Prop30
280
     1
102
RTVSPost2010PropOp30
 70
     1
102
RTVSPost2010Prop31
280
     0
102
RTVSPost2010PropOp31
 70
     1
102
RTVSPost2010Prop32
280
     0
102
RTVSPost2010PropOp32
 70
     1
102
RTVSPost2010Prop33
280
     0
102
RTVSPost2010PropOp33
 70
     1
102
RTVSPost2010Prop34
280
     0
102
RTVSPost2010PropOp34
 70
     1
102
RTVSPost2010Prop35
280
     0
102
RTVSPost2010PropOp35
 70
     1
102
RTVSPost2010Prop36
280
     0
102
RTVSPost2010PropOp36
 70
     1
102
RTVSPost2010Prop37
 90
       50
102
RTVSPost2010PropOp37
 70
     1
102
RTVSPost2010Prop38
140
0.0
102
RTVSPost2010PropOp38
 70
     1
102
RTVSPost2010Prop39
140
1.0
102
RTVSPost2010PropOp39
 70
     1
102
RTVSPost2010Prop40
 90
        0
102
RTVSPost2010PropOp40
 70
     1
102
RTVSPost2010Prop41ColorIndex
 90
       18
102
RTVSPost2010Prop41ColorRGB
 90
        0
102
RTVSPost2010PropOp41
 70
     1
102
RTVSPost2010Prop42
 90
       50
102
RTVSPost2010PropOp42
 70
     1
102
RTVSPost2010Prop43
 90
        3
102
RTVSPost2010PropOp43
 70
     1
102
RTVSPost2010Prop44ColorIndex
 90
        5
102
RTVSPost2010Prop44ColorRGB
 90
      255
102
RTVSPost2010PropOp44
 70
     1
102
RTVSPost2010Prop45
280
     0
102
RTVSPost2010PropOp45
 70
     1
102
RTVSPost2010Prop46
 90
       50
102
RTVSPost2010PropOp46
 70
     1
102
RTVSPost2010Prop47
 90
       50
102
RTVSPost2010PropOp47
 70
     1
102
RTVSPost2010Prop48
 90
       50
102
RTVSPost2010PropOp48
 70
     1
102
RTVSPost2010Prop49
280
     0
102
RTVSPost2010PropOp49
 70
     1
102
RTVSPost2010Prop50
 90
       50
102
RTVSPost2010PropOp50
 70
     1
102
RTVSPost2010Prop51ColorIndex
 90
      256
102
RTVSPost2010Prop51ColorRGB
 90
-16777216
102
RTVSPost2010PropOp51
 70
     0
102
RTVSPost2010Prop52
140
1.0
102
RTVSPost2010PropOp52
 70
     0
102
RTVSPost2010Prop53
 90
        2
102
RTVSPost2010PropOp53
 70
     1
102
RTVSPost2010Prop54
  1
strokes_ogs.tif
102
RTVSPost2010PropOp54
 70
     1
102
RTVSPost2010Prop55
280
     0
102
RTVSPost2010PropOp55
 70
     1
102
RTVSPost2010Prop56
140
1.0
102
RTVSPost2010PropOp56
 70
     1
102
RTVSPost2010Prop57
140
1.0
102
RTVSPost2010PropOp57
 70
     1
102
RTVSPropertyOp0
 70
     1
102
RTVSPropertyOp1
 70
     1
102
RTVSPropertyOp2
 70
     1
102
RTVSPropertyOp3
 70
     1
102
RTVSPropertyOp4
 70
     1
102
RTVSPropertyOp5
 70
     1
102
RTVSPropertyOp6
 70
     1
102
RTVSPropertyOp7
 70
     1
102
RTVSPropertyOp8
 70
     1
102
RTVSPropertyOp9
 70
     1
102
RTVSPropertyOp10
 70
     1
102
RTVSPropertyOp11
 70
     1
102
RTVSPropertyOp12
 70
     1
102
RTVSPropertyOp13
 70
     1
102
RTVSPropertyOp14
 70
     1
102
RTVSPropertyOp15
 70
     1
102
RTVSPropertyOp16
 70
     1
102
RTVSPropertyOp17
 70
     1
102
RTVSPropertyOp18
 70
     1
102
RTVSPropertyOp19
 70
     1
102
RTVSPropertyOp20
 70
     1
102
RTVSPropertyOp21
 70
     1
102
RTVSPropertyOp22
 70
     1
102
RTVSPropertyOp23
 70
     1
102
RTVSPropertyOp24
 70
     1
102
RTVSPropertyOp25
 70
     1
102
RTVSPropertyOp26
 70
     1
102
RTVSPropertyOp27
 70
     1
102
RTVSPropertyOp28
 70
     1
102
RTVSPropertyOp29
 70
     1
102
RTVSPropertyOp30
 70
     1
102
RTVSPropertyOp31
 70
     1
102
RTVSPropertyOp32
 70
     1
102
RTVSPropertyOp33
 70
     1
102
RTVSPropertyOp34
 70
     1
102
RTVSPropertyOp35
 70
     1
102
RTVSPropertyOp36
 70
     1
102
RTVSPropertyOp37
 70
     1
102
RTVSPropertyOp38
 70
     1
102
RTVSPropertyOp39
 70
     1
102
RTVSPropertyOp40
 70
     1
102
RTVSPropertyOp41
 70
     1
102
RTVSPropertyOp42
 70
     1
102
RTVSPropertyOp43
 70
     1
102
RTVSPropertyOp44
 70
     1
102
RTVSPropertyOp45
 70
     1
102
RTVSPropertyOp46
 70
     1
102
RTVSPropertyOp47
 70
     1
102
RTVSPropertyOp48
 70
     1
102
RTVSPropertyOp49
 70
     1
102
RTVSPropertyOp50
 70
     1
102
RTVSPropertyOp51
 70
     0
102
RTVSPropertyOp52
 70
     0
102
RTVSPropertyOp53
 70
     1
102
RTVSPropertyOp54
 70
     1
102
RTVSPropertyOp55
 70
     1
102
RTVSPropertyOp56
 70
     1
102
RTVSPropertyOp57
 70
     1
102
RTVSPropertyOp58
 70
     1
102
RTVSPropertyOp59
 70
     1
102
RTVSPropertyOp60
 70
     1
102
RTVSPropertyOp61
 70
     1
102
RTVSPropertyOp62
 70
     1
  0
XRECORD
  5
574
102
{ACAD_REACTORS
330
573
102
}
330
573
100
AcDbXrecord
280
     1
102
RTVSPost2010Prop28
280
     0
102
RTVSPost2010PropOp28
 70
     1
102
RTVSPost2010Prop29
280
     1
102
RTVSPost2010PropOp29
 70
     1
102
RTVSPost2010Prop30
280
     1
102
RTVSPost2010PropOp30
 70
     1
102
RTVSPost2010Prop31
280
     0
102
RTVSPost2010PropOp31
 70
     1
102
RTVSPost2010Prop32
280
     0
102
RTVSPost2010PropOp32
 70
     1
102
RTVSPost2010Prop33
280
     0
102
RTVSPost2010PropOp33
 70
     1
102
RTVSPost2010Prop34
280
     0
102
RTVSPost2010PropOp34
 70
     1
102
RTVSPost2010Prop35
280
     0
102
RTVSPost2010PropOp35
 70
     1
102
RTVSPost2010Prop36
280
     0
102
RTVSPost2010PropOp36
 70
     1
102
RTVSPost2010Prop37
 90
       50
102
RTVSPost2010PropOp37
 70
     1
102
RTVSPost2010Prop38
140
0.0
102
RTVSPost2010PropOp38
 70
     1
102
RTVSPost2010Prop39
140
1.0
102
RTVSPost2010PropOp39
 70
     1
102
RTVSPost2010Prop40
 90
        0
102
RTVSPost2010PropOp40
 70
     1
102
RTVSPost2010Prop41ColorIndex
 90
       18
102
RTVSPost2010Prop41ColorRGB
 90
        0
102
RTVSPost2010PropOp41
 70
     1
102
RTVSPost2010Prop42
 90
       50
102
RTVSPost2010PropOp42
 70
     1
102
RTVSPost2010Prop43
 90
        3
102
RTVSPost2010PropOp43
 70
     1
102
RTVSPost2010Prop44ColorIndex
 90
        5
102
RTVSPost2010Prop44ColorRGB
 90
      255
102
RTVSPost2010PropOp44
 70
     1
102
RTVSPost2010Prop45
280
     0
102
RTVSPost2010PropOp45
 70
     1
102
RTVSPost2010Prop46
 90
       50
102
RTVSPost2010PropOp46
 70
     1
102
RTVSPost2010Prop47
 90
       50
102
RTVSPost2010PropOp47
 70
     1
102
RTVSPost2010Prop48
 90
       50
102
RTVSPost2010PropOp48
 70
     1
102
RTVSPost2010Prop49
280
     0
102
RTVSPost2010PropOp49
 70
     1
102
RTVSPost2010Prop50
 90
       50
102
RTVSPost2010PropOp50
 70
     1
102
RTVSPost2010Prop51ColorIndex
 90
      256
102
RTVSPost2010Prop51ColorRGB
 90
-16777216
102
RTVSPost2010PropOp51
 70
     0
102
RTVSPost2010Prop52
140
1.0
102
RTVSPost2010PropOp52
 70
     0
102
RTVSPost2010Prop53
 90
        2
102
RTVSPost2010PropOp53
 70
     1
102
RTVSPost2010Prop54
  1
strokes_ogs.tif
102
RTVSPost2010PropOp54
 70
     1
102
RTVSPost2010Prop55
280
     0
102
RTVSPost2010PropOp55
 70
     1
102
RTVSPost2010Prop56
140
1.0
102
RTVSPost2010PropOp56
 70
     1
102
RTVSPost2010Prop57
140
1.0
102
RTVSPost2010PropOp57
 70
     1
102
RTVSPropertyOp0
 70
     1
102
RTVSPropertyOp1
 70
     1
102
RTVSPropertyOp2
 70
     1
102
RTVSPropertyOp3
 70
     1
102
RTVSPropertyOp4
 70
     1
102
RTVSPropertyOp5
 70
     1
102
RTVSPropertyOp6
 70
     1
102
RTVSPropertyOp7
 70
     1
102
RTVSPropertyOp8
 70
     1
102
RTVSPropertyOp9
 70
     1
102
RTVSPropertyOp10
 70
     1
102
RTVSPropertyOp11
 70
     1
102
RTVSPropertyOp12
 70
     1
102
RTVSPropertyOp13
 70
     1
102
RTVSPropertyOp14
 70
     1
102
RTVSPropertyOp15
 70
     1
102
RTVSPropertyOp16
 70
     1
102
RTVSPropertyOp17
 70
     1
102
RTVSPropertyOp18
 70
     1
102
RTVSPropertyOp19
 70
     1
102
RTVSPropertyOp20
 70
     1
102
RTVSPropertyOp21
 70
     1
102
RTVSPropertyOp22
 70
     1
102
RTVSPropertyOp23
 70
     1
102
RTVSPropertyOp24
 70
     1
102
RTVSPropertyOp25
 70
     1
102
RTVSPropertyOp26
 70
     1
102
RTVSPropertyOp27
 70
     1
102
RTVSPropertyOp28
 70
     1
102
RTVSPropertyOp29
 70
     1
102
RTVSPropertyOp30
 70
     1
102
RTVSPropertyOp31
 70
     1
102
RTVSPropertyOp32
 70
     1
102
RTVSPropertyOp33
 70
     1
102
RTVSPropertyOp34
 70
     1
102
RTVSPropertyOp35
 70
     1
102
RTVSPropertyOp36
 70
     1
102
RTVSPropertyOp37
 70
     1
102
RTVSPropertyOp38
 70
     1
102
RTVSPropertyOp39
 70
     1
102
RTVSPropertyOp40
 70
     1
102
RTVSPropertyOp41
 70
     1
102
RTVSPropertyOp42
 70
     1
102
RTVSPropertyOp43
 70
     1
102
RTVSPropertyOp44
 70
     1
102
RTVSPropertyOp45
 70
     1
102
RTVSPropertyOp46
 70
     1
102
RTVSPropertyOp47
 70
     1
102
RTVSPropertyOp48
 70
     1
102
RTVSPropertyOp49
 70
     1
102
RTVSPropertyOp50
 70
     1
102
RTVSPropertyOp51
 70
     0
102
RTVSPropertyOp52
 70
     0
102
RTVSPropertyOp53
 70
     1
102
RTVSPropertyOp54
 70
     1
102
RTVSPropertyOp55
 70
     1
102
RTVSPropertyOp56
 70
     1
102
RTVSPropertyOp57
 70
     1
102
RTVSPropertyOp58
 70
     1
102
RTVSPropertyOp59
 70
     1
102
RTVSPropertyOp60
 70
     1
102
RTVSPropertyOp61
 70
     1
102
RTVSPropertyOp62
 70
     1
  0
XRECORD
  5
590
102
{ACAD_REACTORS
330
58F
102
}
330
58F
100
AcDbXrecord
280
     1
102
RTVSPost2010Prop28
280
     0
102
RTVSPost2010PropOp28
 70
     0
102
RTVSPost2010Prop29
280
     1
102
RTVSPost2010PropOp29
 70
     0
102
RTVSPost2010Prop30
280
     1
102
RTVSPost2010PropOp30
 70
     0
102
RTVSPost2010Prop31
280
     0
102
RTVSPost2010PropOp31
 70
     0
102
RTVSPost2010Prop32
280
     0
102
RTVSPost2010PropOp32
 70
     0
102
RTVSPost2010Prop33
280
     0
102
RTVSPost2010PropOp33
 70
     0
102
RTVSPost2010Prop34
280
     0
102
RTVSPost2010PropOp34
 70
     0
102
RTVSPost2010Prop35
280
     0
102
RTVSPost2010PropOp35
 70
     0
102
RTVSPost2010Prop36
280
     0
102
RTVSPost2010PropOp36
 70
     0
102
RTVSPost2010Prop37
 90
       50
102
RTVSPost2010PropOp37
 70
     0
102
RTVSPost2010Prop38
140
0.0
102
RTVSPost2010PropOp38
 70
     0
102
RTVSPost2010Prop39
140
1.0
102
RTVSPost2010PropOp39
 70
     0
102
RTVSPost2010Prop40
 90
        0
102
RTVSPost2010PropOp40
 70
     0
102
RTVSPost2010Prop41ColorIndex
 90
       18
102
RTVSPost2010Prop41ColorRGB
 90
        0
102
RTVSPost2010PropOp41
 70
     0
102
RTVSPost2010Prop42
 90
       50
102
RTVSPost2010PropOp42
 70
     0
102
RTVSPost2010Prop43
 90
        3
102
RTVSPost2010PropOp43
 70
     0
102
RTVSPost2010Prop44ColorIndex
 90
        5
102
RTVSPost2010Prop44ColorRGB
 90
      255
102
RTVSPost2010PropOp44
 70
     0
102
RTVSPost2010Prop45
280
     0
102
RTVSPost2010PropOp45
 70
     0
102
RTVSPost2010Prop46
 90
       50
102
RTVSPost2010PropOp46
 70
     0
102
RTVSPost2010Prop47
 90
       50
102
RTVSPost2010PropOp47
 70
     0
102
RTVSPost2010Prop48
 90
       50
102
RTVSPost2010PropOp48
 70
     0
102
RTVSPost2010Prop49
280
     0
102
RTVSPost2010PropOp49
 70
     0
102
RTVSPost2010Prop50
 90
       50
102
RTVSPost2010PropOp50
 70
     0
102
RTVSPost2010Prop51ColorIndex
 90
      256
102
RTVSPost2010Prop51ColorRGB
 90
-16777216
102
RTVSPost2010PropOp51
 70
     0
102
RTVSPost2010Prop52
140
1.0
102
RTVSPost2010PropOp52
 70
     0
102
RTVSPost2010Prop53
 90
        2
102
RTVSPost2010PropOp53
 70
     0
102
RTVSPost2010Prop54
  1
strokes_ogs.tif
102
RTVSPost2010PropOp54
 70
     0
102
RTVSPost2010Prop55
280
     0
102
RTVSPost2010PropOp55
 70
     0
102
RTVSPost2010Prop56
140
1.0
102
RTVSPost2010PropOp56
 70
     0
102
RTVSPost2010Prop57
140
1.0
102
RTVSPost2010PropOp57
 70
     0
102
RTVSPropertyOp0
 70
     0
102
RTVSPropertyOp1
 70
     0
102
RTVSPropertyOp2
 70
     0
102
RTVSPropertyOp3
 70
     0
102
RTVSPropertyOp4
 70
     0
102
RTVSPropertyOp5
 70
     0
102
RTVSPropertyOp6
 70
     0
102
RTVSPropertyOp7
 70
     0
102
RTVSPropertyOp8
 70
     0
102
RTVSPropertyOp9
 70
     0
102
RTVSPropertyOp10
 70
     0
102
RTVSPropertyOp11
 70
     0
102
RTVSPropertyOp12
 70
     0
102
RTVSPropertyOp13
 70
     0
102
RTVSPropertyOp14
 70
     2
102
RTVSPropertyOp15
 70
     0
102
RTVSPropertyOp16
 70
     0
102
RTVSPropertyOp17
 70
     0
102
RTVSPropertyOp18
 70
     0
102
RTVSPropertyOp19
 70
     0
102
RTVSPropertyOp20
 70
     0
102
RTVSPropertyOp21
 70
     0
102
RTVSPropertyOp22
 70
     0
102
RTVSPropertyOp23
 70
     0
102
RTVSPropertyOp24
 70
     0
102
RTVSPropertyOp25
 70
     0
102
RTVSPropertyOp26
 70
     0
102
RTVSPropertyOp27
 70
     0
102
RTVSPropertyOp28
 70
     0
102
RTVSPropertyOp29
 70
     0
102
RTVSPropertyOp30
 70
     0
102
RTVSPropertyOp31
 70
     0
102
RTVSPropertyOp32
 70
     0
102
RTVSPropertyOp33
 70
     0
102
RTVSPropertyOp34
 70
     0
102
RTVSPropertyOp35
 70
     0
102
RTVSPropertyOp36
 70
     0
102
RTVSPropertyOp37
 70
     0
102
RTVSPropertyOp38
 70
     0
102
RTVSPropertyOp39
 70
     0
102
RTVSPropertyOp40
 70
     0
102
RTVSPropertyOp41
 70
     0
102
RTVSPropertyOp42
 70
     0
102
RTVSPropertyOp43
 70
     0
102
RTVSPropertyOp44
 70
     0
102
RTVSPropertyOp45
 70
     0
102
RTVSPropertyOp46
 70
     0
102
RTVSPropertyOp47
 70
     0
102
RTVSPropertyOp48
 70
     0
102
RTVSPropertyOp49
 70
     0
102
RTVSPropertyOp50
 70
     0
102
RTVSPropertyOp51
 70
     0
102
RTVSPropertyOp52
 70
     0
102
RTVSPropertyOp53
 70
     0
102
RTVSPropertyOp54
 70
     0
102
RTVSPropertyOp55
 70
     0
102
RTVSPropertyOp56
 70
     0
102
RTVSPropertyOp57
 70
     0
102
RTVSPropertyOp58
 70
     0
102
RTVSPropertyOp59
 70
     0
102
RTVSPropertyOp60
 70
     0
102
RTVSPropertyOp61
 70
     0
102
RTVSPropertyOp62
 70
     0
  0
XRECORD
  5
580
102
{ACAD_REACTORS
330
57F
102
}
330
57F
100
AcDbXrecord
280
     1
102
RTVSPost2010Prop28
280
     0
102
RTVSPost2010PropOp28
 70
     1
102
RTVSPost2010Prop29
280
     1
102
RTVSPost2010PropOp29
 70
     1
102
RTVSPost2010Prop30
280
     1
102
RTVSPost2010PropOp30
 70
     1
102
RTVSPost2010Prop31
280
     0
102
RTVSPost2010PropOp31
 70
     1
102
RTVSPost2010Prop32
280
     0
102
RTVSPost2010PropOp32
 70
     1
102
RTVSPost2010Prop33
280
     0
102
RTVSPost2010PropOp33
 70
     1
102
RTVSPost2010Prop34
280
     0
102
RTVSPost2010PropOp34
 70
     1
102
RTVSPost2010Prop35
280
     0
102
RTVSPost2010PropOp35
 70
     1
102
RTVSPost2010Prop36
280
     0
102
RTVSPost2010PropOp36
 70
     1
102
RTVSPost2010Prop37
 90
       50
102
RTVSPost2010PropOp37
 70
     1
102
RTVSPost2010Prop38
140
0.0
102
RTVSPost2010PropOp38
 70
     1
102
RTVSPost2010Prop39
140
1.0
102
RTVSPost2010PropOp39
 70
     1
102
RTVSPost2010Prop40
 90
        0
102
RTVSPost2010PropOp40
 70
     1
102
RTVSPost2010Prop41ColorIndex
 90
       18
102
RTVSPost2010Prop41ColorRGB
 90
        0
102
RTVSPost2010PropOp41
 70
     1
102
RTVSPost2010Prop42
 90
       50
102
RTVSPost2010PropOp42
 70
     1
102
RTVSPost2010Prop43
 90
        3
102
RTVSPost2010PropOp43
 70
     1
102
RTVSPost2010Prop44ColorIndex
 90
        5
102
RTVSPost2010Prop44ColorRGB
 90
      255
102
RTVSPost2010PropOp44
 70
     1
102
RTVSPost2010Prop45
280
     0
102
RTVSPost2010PropOp45
 70
     1
102
RTVSPost2010Prop46
 90
       50
102
RTVSPost2010PropOp46
 70
     1
102
RTVSPost2010Prop47
 90
       50
102
RTVSPost2010PropOp47
 70
     1
102
RTVSPost2010Prop48
 90
       50
102
RTVSPost2010PropOp48
 70
     1
102
RTVSPost2010Prop49
280
     0
102
RTVSPost2010PropOp49
 70
     1
102
RTVSPost2010Prop50
 90
       50
102
RTVSPost2010PropOp50
 70
     1
102
RTVSPost2010Prop51ColorIndex
 90
      256
102
RTVSPost2010Prop51ColorRGB
 90
-16777216
102
RTVSPost2010PropOp51
 70
     0
102
RTVSPost2010Prop52
140
1.0
102
RTVSPost2010PropOp52
 70
     0
102
RTVSPost2010Prop53
 90
        2
102
RTVSPost2010PropOp53
 70
     1
102
RTVSPost2010Prop54
  1
strokes_ogs.tif
102
RTVSPost2010PropOp54
 70
     1
102
RTVSPost2010Prop55
280
     0
102
RTVSPost2010PropOp55
 70
     1
102
RTVSPost2010Prop56
140
1.0
102
RTVSPost2010PropOp56
 70
     1
102
RTVSPost2010Prop57
140
1.0
102
RTVSPost2010PropOp57
 70
     1
102
RTVSPropertyOp0
 70
     1
102
RTVSPropertyOp1
 70
     1
102
RTVSPropertyOp2
 70
     1
102
RTVSPropertyOp3
 70
     1
102
RTVSPropertyOp4
 70
     1
102
RTVSPropertyOp5
 70
     1
102
RTVSPropertyOp6
 70
     1
102
RTVSPropertyOp7
 70
     1
102
RTVSPropertyOp8
 70
     1
102
RTVSPropertyOp9
 70
     1
102
RTVSPropertyOp10
 70
     1
102
RTVSPropertyOp11
 70
     1
102
RTVSPropertyOp12
 70
     1
102
RTVSPropertyOp13
 70
     1
102
RTVSPropertyOp14
 70
     1
102
RTVSPropertyOp15
 70
     1
102
RTVSPropertyOp16
 70
     1
102
RTVSPropertyOp17
 70
     1
102
RTVSPropertyOp18
 70
     1
102
RTVSPropertyOp19
 70
     1
102
RTVSPropertyOp20
 70
     1
102
RTVSPropertyOp21
 70
     1
102
RTVSPropertyOp22
 70
     1
102
RTVSPropertyOp23
 70
     1
102
RTVSPropertyOp24
 70
     1
102
RTVSPropertyOp25
 70
     1
102
RTVSPropertyOp26
 70
     1
102
RTVSPropertyOp27
 70
     1
102
RTVSPropertyOp28
 70
     1
102
RTVSPropertyOp29
 70
     1
102
RTVSPropertyOp30
 70
     1
102
RTVSPropertyOp31
 70
     1
102
RTVSPropertyOp32
 70
     1
102
RTVSPropertyOp33
 70
     1
102
RTVSPropertyOp34
 70
     1
102
RTVSPropertyOp35
 70
     1
102
RTVSPropertyOp36
 70
     1
102
RTVSPropertyOp37
 70
     1
102
RTVSPropertyOp38
 70
     1
102
RTVSPropertyOp39
 70
     1
102
RTVSPropertyOp40
 70
     1
102
RTVSPropertyOp41
 70
     1
102
RTVSPropertyOp42
 70
     1
102
RTVSPropertyOp43
 70
     1
102
RTVSPropertyOp44
 70
     1
102
RTVSPropertyOp45
 70
     1
102
RTVSPropertyOp46
 70
     1
102
RTVSPropertyOp47
 70
     1
102
RTVSPropertyOp48
 70
     1
102
RTVSPropertyOp49
 70
     1
102
RTVSPropertyOp50
 70
     1
102
RTVSPropertyOp51
 70
     0
102
RTVSPropertyOp52
 70
     0
102
RTVSPropertyOp53
 70
     1
102
RTVSPropertyOp54
 70
     1
102
RTVSPropertyOp55
 70
     1
102
RTVSPropertyOp56
 70
     1
102
RTVSPropertyOp57
 70
     1
102
RTVSPropertyOp58
 70
     1
102
RTVSPropertyOp59
 70
     1
102
RTVSPropertyOp60
 70
     1
102
RTVSPropertyOp61
 70
     1
102
RTVSPropertyOp62
 70
     1
  0
XRECORD
  5
592
102
{ACAD_REACTORS
330
591
102
}
330
591
100
AcDbXrecord
280
     1
102
RTVSPost2010Prop28
280
     0
102
RTVSPost2010PropOp28
 70
     0
102
RTVSPost2010Prop29
280
     1
102
RTVSPost2010PropOp29
 70
     0
102
RTVSPost2010Prop30
280
     1
102
RTVSPost2010PropOp30
 70
     0
102
RTVSPost2010Prop31
280
     0
102
RTVSPost2010PropOp31
 70
     0
102
RTVSPost2010Prop32
280
     0
102
RTVSPost2010PropOp32
 70
     0
102
RTVSPost2010Prop33
280
     0
102
RTVSPost2010PropOp33
 70
     0
102
RTVSPost2010Prop34
280
     0
102
RTVSPost2010PropOp34
 70
     0
102
RTVSPost2010Prop35
280
     0
102
RTVSPost2010PropOp35
 70
     0
102
RTVSPost2010Prop36
280
     0
102
RTVSPost2010PropOp36
 70
     0
102
RTVSPost2010Prop37
 90
       50
102
RTVSPost2010PropOp37
 70
     0
102
RTVSPost2010Prop38
140
0.0
102
RTVSPost2010PropOp38
 70
     0
102
RTVSPost2010Prop39
140
1.0
102
RTVSPost2010PropOp39
 70
     0
102
RTVSPost2010Prop40
 90
        0
102
RTVSPost2010PropOp40
 70
     0
102
RTVSPost2010Prop41ColorIndex
 90
       18
102
RTVSPost2010Prop41ColorRGB
 90
        0
102
RTVSPost2010PropOp41
 70
     0
102
RTVSPost2010Prop42
 90
       50
102
RTVSPost2010PropOp42
 70
     0
102
RTVSPost2010Prop43
 90
        3
102
RTVSPost2010PropOp43
 70
     0
102
RTVSPost2010Prop44ColorIndex
 90
        5
102
RTVSPost2010Prop44ColorRGB
 90
      255
102
RTVSPost2010PropOp44
 70
     0
102
RTVSPost2010Prop45
280
     0
102
RTVSPost2010PropOp45
 70
     0
102
RTVSPost2010Prop46
 90
       50
102
RTVSPost2010PropOp46
 70
     0
102
RTVSPost2010Prop47
 90
       50
102
RTVSPost2010PropOp47
 70
     0
102
RTVSPost2010Prop48
 90
       50
102
RTVSPost2010PropOp48
 70
     0
102
RTVSPost2010Prop49
280
     0
102
RTVSPost2010PropOp49
 70
     0
102
RTVSPost2010Prop50
 90
       50
102
RTVSPost2010PropOp50
 70
     0
102
RTVSPost2010Prop51ColorIndex
 90
      256
102
RTVSPost2010Prop51ColorRGB
 90
-16777216
102
RTVSPost2010PropOp51
 70
     0
102
RTVSPost2010Prop52
140
1.0
102
RTVSPost2010PropOp52
 70
     0
102
RTVSPost2010Prop53
 90
        2
102
RTVSPost2010PropOp53
 70
     0
102
RTVSPost2010Prop54
  1
strokes_ogs.tif
102
RTVSPost2010PropOp54
 70
     0
102
RTVSPost2010Prop55
280
     0
102
RTVSPost2010PropOp55
 70
     0
102
RTVSPost2010Prop56
140
1.0
102
RTVSPost2010PropOp56
 70
     0
102
RTVSPost2010Prop57
140
1.0
102
RTVSPost2010PropOp57
 70
     0
102
RTVSPropertyOp0
 70
     0
102
RTVSPropertyOp1
 70
     0
102
RTVSPropertyOp2
 70
     0
102
RTVSPropertyOp3
 70
     0
102
RTVSPropertyOp4
 70
     0
102
RTVSPropertyOp5
 70
     0
102
RTVSPropertyOp6
 70
     0
102
RTVSPropertyOp7
 70
     0
102
RTVSPropertyOp8
 70
     0
102
RTVSPropertyOp9
 70
     0
102
RTVSPropertyOp10
 70
     0
102
RTVSPropertyOp11
 70
     0
102
RTVSPropertyOp12
 70
     0
102
RTVSPropertyOp13
 70
     0
102
RTVSPropertyOp14
 70
     2
102
RTVSPropertyOp15
 70
     0
102
RTVSPropertyOp16
 70
     0
102
RTVSPropertyOp17
 70
     0
102
RTVSPropertyOp18
 70
     0
102
RTVSPropertyOp19
 70
     0
102
RTVSPropertyOp20
 70
     0
102
RTVSPropertyOp21
 70
     0
102
RTVSPropertyOp22
 70
     0
102
RTVSPropertyOp23
 70
     0
102
RTVSPropertyOp24
 70
     0
102
RTVSPropertyOp25
 70
     0
102
RTVSPropertyOp26
 70
     0
102
RTVSPropertyOp27
 70
     0
102
RTVSPropertyOp28
 70
     0
102
RTVSPropertyOp29
 70
     0
102
RTVSPropertyOp30
 70
     0
102
RTVSPropertyOp31
 70
     0
102
RTVSPropertyOp32
 70
     0
102
RTVSPropertyOp33
 70
     0
102
RTVSPropertyOp34
 70
     0
102
RTVSPropertyOp35
 70
     0
102
RTVSPropertyOp36
 70
     0
102
RTVSPropertyOp37
 70
     0
102
RTVSPropertyOp38
 70
     0
102
RTVSPropertyOp39
 70
     0
102
RTVSPropertyOp40
 70
     0
102
RTVSPropertyOp41
 70
     0
102
RTVSPropertyOp42
 70
     0
102
RTVSPropertyOp43
 70
     0
102
RTVSPropertyOp44
 70
     0
102
RTVSPropertyOp45
 70
     0
102
RTVSPropertyOp46
 70
     0
102
RTVSPropertyOp47
 70
     0
102
RTVSPropertyOp48
 70
     0
102
RTVSPropertyOp49
 70
     0
102
RTVSPropertyOp50
 70
     0
102
RTVSPropertyOp51
 70
     0
102
RTVSPropertyOp52
 70
     0
102
RTVSPropertyOp53
 70
     0
102
RTVSPropertyOp54
 70
     0
102
RTVSPropertyOp55
 70
     0
102
RTVSPropertyOp56
 70
     0
102
RTVSPropertyOp57
 70
     0
102
RTVSPropertyOp58
 70
     0
102
RTVSPropertyOp59
 70
     0
102
RTVSPropertyOp60
 70
     0
102
RTVSPropertyOp61
 70
     0
102
RTVSPropertyOp62
 70
     0
  0
XRECORD
  5
578
102
{ACAD_REACTORS
330
577
102
}
330
577
100
AcDbXrecord
280
     1
102
RTVSPost2010Prop28
280
     0
102
RTVSPost2010PropOp28
 70
     1
102
RTVSPost2010Prop29
280
     1
102
RTVSPost2010PropOp29
 70
     1
102
RTVSPost2010Prop30
280
     1
102
RTVSPost2010PropOp30
 70
     1
102
RTVSPost2010Prop31
280
     0
102
RTVSPost2010PropOp31
 70
     1
102
RTVSPost2010Prop32
280
     0
102
RTVSPost2010PropOp32
 70
     1
102
RTVSPost2010Prop33
280
     0
102
RTVSPost2010PropOp33
 70
     1
102
RTVSPost2010Prop34
280
     0
102
RTVSPost2010PropOp34
 70
     1
102
RTVSPost2010Prop35
280
     0
102
RTVSPost2010PropOp35
 70
     1
102
RTVSPost2010Prop36
280
     0
102
RTVSPost2010PropOp36
 70
     1
102
RTVSPost2010Prop37
 90
       50
102
RTVSPost2010PropOp37
 70
     1
102
RTVSPost2010Prop38
140
0.0
102
RTVSPost2010PropOp38
 70
     1
102
RTVSPost2010Prop39
140
1.0
102
RTVSPost2010PropOp39
 70
     1
102
RTVSPost2010Prop40
 90
        0
102
RTVSPost2010PropOp40
 70
     1
102
RTVSPost2010Prop41ColorIndex
 90
       18
102
RTVSPost2010Prop41ColorRGB
 90
        0
102
RTVSPost2010PropOp41
 70
     1
102
RTVSPost2010Prop42
 90
       50
102
RTVSPost2010PropOp42
 70
     1
102
RTVSPost2010Prop43
 90
        3
102
RTVSPost2010PropOp43
 70
     1
102
RTVSPost2010Prop44ColorIndex
 90
        5
102
RTVSPost2010Prop44ColorRGB
 90
      255
102
RTVSPost2010PropOp44
 70
     1
102
RTVSPost2010Prop45
280
     0
102
RTVSPost2010PropOp45
 70
     1
102
RTVSPost2010Prop46
 90
       50
102
RTVSPost2010PropOp46
 70
     1
102
RTVSPost2010Prop47
 90
       50
102
RTVSPost2010PropOp47
 70
     1
102
RTVSPost2010Prop48
 90
       50
102
RTVSPost2010PropOp48
 70
     1
102
RTVSPost2010Prop49
280
     0
102
RTVSPost2010PropOp49
 70
     1
102
RTVSPost2010Prop50
 90
       50
102
RTVSPost2010PropOp50
 70
     1
102
RTVSPost2010Prop51ColorIndex
 90
      256
102
RTVSPost2010Prop51ColorRGB
 90
-16777216
102
RTVSPost2010PropOp51
 70
     0
102
RTVSPost2010Prop52
140
1.0
102
RTVSPost2010PropOp52
 70
     0
102
RTVSPost2010Prop53
 90
        2
102
RTVSPost2010PropOp53
 70
     1
102
RTVSPost2010Prop54
  1
strokes_ogs.tif
102
RTVSPost2010PropOp54
 70
     1
102
RTVSPost2010Prop55
280
     0
102
RTVSPost2010PropOp55
 70
     1
102
RTVSPost2010Prop56
140
1.0
102
RTVSPost2010PropOp56
 70
     1
102
RTVSPost2010Prop57
140
1.0
102
RTVSPost2010PropOp57
 70
     1
102
RTVSPropertyOp0
 70
     1
102
RTVSPropertyOp1
 70
     1
102
RTVSPropertyOp2
 70
     1
102
RTVSPropertyOp3
 70
     1
102
RTVSPropertyOp4
 70
     1
102
RTVSPropertyOp5
 70
     1
102
RTVSPropertyOp6
 70
     1
102
RTVSPropertyOp7
 70
     1
102
RTVSPropertyOp8
 70
     1
102
RTVSPropertyOp9
 70
     1
102
RTVSPropertyOp10
 70
     1
102
RTVSPropertyOp11
 70
     1
102
RTVSPropertyOp12
 70
     1
102
RTVSPropertyOp13
 70
     1
102
RTVSPropertyOp14
 70
     1
102
RTVSPropertyOp15
 70
     1
102
RTVSPropertyOp16
 70
     1
102
RTVSPropertyOp17
 70
     1
102
RTVSPropertyOp18
 70
     1
102
RTVSPropertyOp19
 70
     1
102
RTVSPropertyOp20
 70
     1
102
RTVSPropertyOp21
 70
     1
102
RTVSPropertyOp22
 70
     1
102
RTVSPropertyOp23
 70
     1
102
RTVSPropertyOp24
 70
     1
102
RTVSPropertyOp25
 70
     1
102
RTVSPropertyOp26
 70
     1
102
RTVSPropertyOp27
 70
     1
102
RTVSPropertyOp28
 70
     1
102
RTVSPropertyOp29
 70
     1
102
RTVSPropertyOp30
 70
     1
102
RTVSPropertyOp31
 70
     1
102
RTVSPropertyOp32
 70
     1
102
RTVSPropertyOp33
 70
     1
102
RTVSPropertyOp34
 70
     1
102
RTVSPropertyOp35
 70
     1
102
RTVSPropertyOp36
 70
     1
102
RTVSPropertyOp37
 70
     1
102
RTVSPropertyOp38
 70
     1
102
RTVSPropertyOp39
 70
     1
102
RTVSPropertyOp40
 70
     1
102
RTVSPropertyOp41
 70
     1
102
RTVSPropertyOp42
 70
     1
102
RTVSPropertyOp43
 70
     1
102
RTVSPropertyOp44
 70
     1
102
RTVSPropertyOp45
 70
     1
102
RTVSPropertyOp46
 70
     1
102
RTVSPropertyOp47
 70
     1
102
RTVSPropertyOp48
 70
     1
102
RTVSPropertyOp49
 70
     1
102
RTVSPropertyOp50
 70
     1
102
RTVSPropertyOp51
 70
     0
102
RTVSPropertyOp52
 70
     0
102
RTVSPropertyOp53
 70
     1
102
RTVSPropertyOp54
 70
     1
102
RTVSPropertyOp55
 70
     1
102
RTVSPropertyOp56
 70
     1
102
RTVSPropertyOp57
 70
     1
102
RTVSPropertyOp58
 70
     1
102
RTVSPropertyOp59
 70
     1
102
RTVSPropertyOp60
 70
     1
102
RTVSPropertyOp61
 70
     1
102
RTVSPropertyOp62
 70
     1
  0
XRECORD
  5
58E
102
{ACAD_REACTORS
330
58D
102
}
330
58D
100
AcDbXrecord
280
     1
102
RTVSPost2010Prop28
280
     0
102
RTVSPost2010PropOp28
 70
     1
102
RTVSPost2010Prop29
280
     1
102
RTVSPost2010PropOp29
 70
     1
102
RTVSPost2010Prop30
280
     1
102
RTVSPost2010PropOp30
 70
     1
102
RTVSPost2010Prop31
280
     0
102
RTVSPost2010PropOp31
 70
     1
102
RTVSPost2010Prop32
280
     0
102
RTVSPost2010PropOp32
 70
     1
102
RTVSPost2010Prop33
280
     0
102
RTVSPost2010PropOp33
 70
     1
102
RTVSPost2010Prop34
280
     0
102
RTVSPost2010PropOp34
 70
     1
102
RTVSPost2010Prop35
280
     0
102
RTVSPost2010PropOp35
 70
     1
102
RTVSPost2010Prop36
280
     0
102
RTVSPost2010PropOp36
 70
     1
102
RTVSPost2010Prop37
 90
       50
102
RTVSPost2010PropOp37
 70
     1
102
RTVSPost2010Prop38
140
0.0
102
RTVSPost2010PropOp38
 70
     1
102
RTVSPost2010Prop39
140
1.0
102
RTVSPost2010PropOp39
 70
     1
102
RTVSPost2010Prop40
 90
        0
102
RTVSPost2010PropOp40
 70
     1
102
RTVSPost2010Prop41ColorIndex
 90
       18
102
RTVSPost2010Prop41ColorRGB
 90
        0
102
RTVSPost2010PropOp41
 70
     1
102
RTVSPost2010Prop42
 90
       50
102
RTVSPost2010PropOp42
 70
     1
102
RTVSPost2010Prop43
 90
        3
102
RTVSPost2010PropOp43
 70
     1
102
RTVSPost2010Prop44ColorIndex
 90
        5
102
RTVSPost2010Prop44ColorRGB
 90
      255
102
RTVSPost2010PropOp44
 70
     1
102
RTVSPost2010Prop45
280
     0
102
RTVSPost2010PropOp45
 70
     1
102
RTVSPost2010Prop46
 90
       50
102
RTVSPost2010PropOp46
 70
     1
102
RTVSPost2010Prop47
 90
       50
102
RTVSPost2010PropOp47
 70
     1
102
RTVSPost2010Prop48
 90
       50
102
RTVSPost2010PropOp48
 70
     1
102
RTVSPost2010Prop49
280
     0
102
RTVSPost2010PropOp49
 70
     1
102
RTVSPost2010Prop50
 90
       50
102
RTVSPost2010PropOp50
 70
     1
102
RTVSPost2010Prop51ColorIndex
 90
      256
102
RTVSPost2010Prop51ColorRGB
 90
-16777216
102
RTVSPost2010PropOp51
 70
     0
102
RTVSPost2010Prop52
140
1.0
102
RTVSPost2010PropOp52
 70
     0
102
RTVSPost2010Prop53
 90
        2
102
RTVSPost2010PropOp53
 70
     1
102
RTVSPost2010Prop54
  1
strokes_ogs.tif
102
RTVSPost2010PropOp54
 70
     1
102
RTVSPost2010Prop55
280
     0
102
RTVSPost2010PropOp55
 70
     1
102
RTVSPost2010Prop56
140
1.0
102
RTVSPost2010PropOp56
 70
     1
102
RTVSPost2010Prop57
140
1.0
102
RTVSPost2010PropOp57
 70
     1
102
RTVSPropertyOp0
 70
     1
102
RTVSPropertyOp1
 70
     1
102
RTVSPropertyOp2
 70
     1
102
RTVSPropertyOp3
 70
     1
102
RTVSPropertyOp4
 70
     1
102
RTVSPropertyOp5
 70
     1
102
RTVSPropertyOp6
 70
     1
102
RTVSPropertyOp7
 70
     1
102
RTVSPropertyOp8
 70
     1
102
RTVSPropertyOp9
 70
     1
102
RTVSPropertyOp10
 70
     1
102
RTVSPropertyOp11
 70
     1
102
RTVSPropertyOp12
 70
     1
102
RTVSPropertyOp13
 70
     1
102
RTVSPropertyOp14
 70
     1
102
RTVSPropertyOp15
 70
     1
102
RTVSPropertyOp16
 70
     1
102
RTVSPropertyOp17
 70
     1
102
RTVSPropertyOp18
 70
     1
102
RTVSPropertyOp19
 70
     1
102
RTVSPropertyOp20
 70
     1
102
RTVSPropertyOp21
 70
     1
102
RTVSPropertyOp22
 70
     1
102
RTVSPropertyOp23
 70
     1
102
RTVSPropertyOp24
 70
     1
102
RTVSPropertyOp25
 70
     1
102
RTVSPropertyOp26
 70
     1
102
RTVSPropertyOp27
 70
     1
102
RTVSPropertyOp28
 70
     1
102
RTVSPropertyOp29
 70
     1
102
RTVSPropertyOp30
 70
     1
102
RTVSPropertyOp31
 70
     1
102
RTVSPropertyOp32
 70
     1
102
RTVSPropertyOp33
 70
     1
102
RTVSPropertyOp34
 70
     1
102
RTVSPropertyOp35
 70
     1
102
RTVSPropertyOp36
 70
     1
102
RTVSPropertyOp37
 70
     1
102
RTVSPropertyOp38
 70
     1
102
RTVSPropertyOp39
 70
     1
102
RTVSPropertyOp40
 70
     1
102
RTVSPropertyOp41
 70
     1
102
RTVSPropertyOp42
 70
     1
102
RTVSPropertyOp43
 70
     1
102
RTVSPropertyOp44
 70
     1
102
RTVSPropertyOp45
 70
     1
102
RTVSPropertyOp46
 70
     1
102
RTVSPropertyOp47
 70
     1
102
RTVSPropertyOp48
 70
     1
102
RTVSPropertyOp49
 70
     1
102
RTVSPropertyOp50
 70
     1
102
RTVSPropertyOp51
 70
     0
102
RTVSPropertyOp52
 70
     0
102
RTVSPropertyOp53
 70
     1
102
RTVSPropertyOp54
 70
     1
102
RTVSPropertyOp55
 70
     1
102
RTVSPropertyOp56
 70
     1
102
RTVSPropertyOp57
 70
     1
102
RTVSPropertyOp58
 70
     1
102
RTVSPropertyOp59
 70
     1
102
RTVSPropertyOp60
 70
     1
102
RTVSPropertyOp61
 70
     1
102
RTVSPropertyOp62
 70
     1
  0
XRECORD
  5
58C
102
{ACAD_REACTORS
330
58B
102
}
330
58B
100
AcDbXrecord
280
     1
102
RTVSPost2010Prop28
280
     0
102
RTVSPost2010PropOp28
 70
     1
102
RTVSPost2010Prop29
280
     1
102
RTVSPost2010PropOp29
 70
     1
102
RTVSPost2010Prop30
280
     1
102
RTVSPost2010PropOp30
 70
     1
102
RTVSPost2010Prop31
280
     0
102
RTVSPost2010PropOp31
 70
     1
102
RTVSPost2010Prop32
280
     0
102
RTVSPost2010PropOp32
 70
     1
102
RTVSPost2010Prop33
280
     0
102
RTVSPost2010PropOp33
 70
     1
102
RTVSPost2010Prop34
280
     0
102
RTVSPost2010PropOp34
 70
     1
102
RTVSPost2010Prop35
280
     0
102
RTVSPost2010PropOp35
 70
     1
102
RTVSPost2010Prop36
280
     0
102
RTVSPost2010PropOp36
 70
     1
102
RTVSPost2010Prop37
 90
       50
102
RTVSPost2010PropOp37
 70
     1
102
RTVSPost2010Prop38
140
0.0
102
RTVSPost2010PropOp38
 70
     1
102
RTVSPost2010Prop39
140
1.0
102
RTVSPost2010PropOp39
 70
     1
102
RTVSPost2010Prop40
 90
        0
102
RTVSPost2010PropOp40
 70
     1
102
RTVSPost2010Prop41ColorIndex
 90
       18
102
RTVSPost2010Prop41ColorRGB
 90
        0
102
RTVSPost2010PropOp41
 70
     1
102
RTVSPost2010Prop42
 90
       50
102
RTVSPost2010PropOp42
 70
     1
102
RTVSPost2010Prop43
 90
        3
102
RTVSPost2010PropOp43
 70
     1
102
RTVSPost2010Prop44ColorIndex
 90
        5
102
RTVSPost2010Prop44ColorRGB
 90
      255
102
RTVSPost2010PropOp44
 70
     1
102
RTVSPost2010Prop45
280
     0
102
RTVSPost2010PropOp45
 70
     1
102
RTVSPost2010Prop46
 90
       50
102
RTVSPost2010PropOp46
 70
     1
102
RTVSPost2010Prop47
 90
       50
102
RTVSPost2010PropOp47
 70
     1
102
RTVSPost2010Prop48
 90
       50
102
RTVSPost2010PropOp48
 70
     1
102
RTVSPost2010Prop49
280
     0
102
RTVSPost2010PropOp49
 70
     1
102
RTVSPost2010Prop50
 90
       50
102
RTVSPost2010PropOp50
 70
     1
102
RTVSPost2010Prop51ColorIndex
 90
      256
102
RTVSPost2010Prop51ColorRGB
 90
-16777216
102
RTVSPost2010PropOp51
 70
     0
102
RTVSPost2010Prop52
140
1.0
102
RTVSPost2010PropOp52
 70
     0
102
RTVSPost2010Prop53
 90
        2
102
RTVSPost2010PropOp53
 70
     1
102
RTVSPost2010Prop54
  1
strokes_ogs.tif
102
RTVSPost2010PropOp54
 70
     1
102
RTVSPost2010Prop55
280
     0
102
RTVSPost2010PropOp55
 70
     1
102
RTVSPost2010Prop56
140
1.0
102
RTVSPost2010PropOp56
 70
     1
102
RTVSPost2010Prop57
140
1.0
102
RTVSPost2010PropOp57
 70
     1
102
RTVSPropertyOp0
 70
     1
102
RTVSPropertyOp1
 70
     1
102
RTVSPropertyOp2
 70
     1
102
RTVSPropertyOp3
 70
     1
102
RTVSPropertyOp4
 70
     1
102
RTVSPropertyOp5
 70
     1
102
RTVSPropertyOp6
 70
     1
102
RTVSPropertyOp7
 70
     1
102
RTVSPropertyOp8
 70
     1
102
RTVSPropertyOp9
 70
     1
102
RTVSPropertyOp10
 70
     1
102
RTVSPropertyOp11
 70
     1
102
RTVSPropertyOp12
 70
     1
102
RTVSPropertyOp13
 70
     1
102
RTVSPropertyOp14
 70
     1
102
RTVSPropertyOp15
 70
     1
102
RTVSPropertyOp16
 70
     1
102
RTVSPropertyOp17
 70
     1
102
RTVSPropertyOp18
 70
     1
102
RTVSPropertyOp19
 70
     1
102
RTVSPropertyOp20
 70
     1
102
RTVSPropertyOp21
 70
     1
102
RTVSPropertyOp22
 70
     1
102
RTVSPropertyOp23
 70
     1
102
RTVSPropertyOp24
 70
     1
102
RTVSPropertyOp25
 70
     1
102
RTVSPropertyOp26
 70
     1
102
RTVSPropertyOp27
 70
     1
102
RTVSPropertyOp28
 70
     1
102
RTVSPropertyOp29
 70
     1
102
RTVSPropertyOp30
 70
     1
102
RTVSPropertyOp31
 70
     1
102
RTVSPropertyOp32
 70
     1
102
RTVSPropertyOp33
 70
     1
102
RTVSPropertyOp34
 70
     1
102
RTVSPropertyOp35
 70
     1
102
RTVSPropertyOp36
 70
     1
102
RTVSPropertyOp37
 70
     1
102
RTVSPropertyOp38
 70
     1
102
RTVSPropertyOp39
 70
     1
102
RTVSPropertyOp40
 70
     1
102
RTVSPropertyOp41
 70
     1
102
RTVSPropertyOp42
 70
     1
102
RTVSPropertyOp43
 70
     1
102
RTVSPropertyOp44
 70
     1
102
RTVSPropertyOp45
 70
     1
102
RTVSPropertyOp46
 70
     1
102
RTVSPropertyOp47
 70
     1
102
RTVSPropertyOp48
 70
     1
102
RTVSPropertyOp49
 70
     1
102
RTVSPropertyOp50
 70
     1
102
RTVSPropertyOp51
 70
     0
102
RTVSPropertyOp52
 70
     0
102
RTVSPropertyOp53
 70
     1
102
RTVSPropertyOp54
 70
     1
102
RTVSPropertyOp55
 70
     1
102
RTVSPropertyOp56
 70
     1
102
RTVSPropertyOp57
 70
     1
102
RTVSPropertyOp58
 70
     1
102
RTVSPropertyOp59
 70
     1
102
RTVSPropertyOp60
 70
     1
102
RTVSPropertyOp61
 70
     1
102
RTVSPropertyOp62
 70
     1
  0
XRECORD
  5
586
102
{ACAD_REACTORS
330
585
102
}
330
585
100
AcDbXrecord
280
     1
102
RTVSPost2010Prop28
280
     0
102
RTVSPost2010PropOp28
 70
     1
102
RTVSPost2010Prop29
280
     1
102
RTVSPost2010PropOp29
 70
     1
102
RTVSPost2010Prop30
280
     1
102
RTVSPost2010PropOp30
 70
     1
102
RTVSPost2010Prop31
280
     0
102
RTVSPost2010PropOp31
 70
     1
102
RTVSPost2010Prop32
280
     0
102
RTVSPost2010PropOp32
 70
     1
102
RTVSPost2010Prop33
280
     0
102
RTVSPost2010PropOp33
 70
     1
102
RTVSPost2010Prop34
280
     0
102
RTVSPost2010PropOp34
 70
     1
102
RTVSPost2010Prop35
280
     0
102
RTVSPost2010PropOp35
 70
     1
102
RTVSPost2010Prop36
280
     0
102
RTVSPost2010PropOp36
 70
     1
102
RTVSPost2010Prop37
 90
       50
102
RTVSPost2010PropOp37
 70
     1
102
RTVSPost2010Prop38
140
0.0
102
RTVSPost2010PropOp38
 70
     1
102
RTVSPost2010Prop39
140
1.0
102
RTVSPost2010PropOp39
 70
     1
102
RTVSPost2010Prop40
 90
        0
102
RTVSPost2010PropOp40
 70
     1
102
RTVSPost2010Prop41ColorIndex
 90
       18
102
RTVSPost2010Prop41ColorRGB
 90
        0
102
RTVSPost2010PropOp41
 70
     1
102
RTVSPost2010Prop42
 90
       50
102
RTVSPost2010PropOp42
 70
     1
102
RTVSPost2010Prop43
 90
        3
102
RTVSPost2010PropOp43
 70
     1
102
RTVSPost2010Prop44ColorIndex
 90
        5
102
RTVSPost2010Prop44ColorRGB
 90
      255
102
RTVSPost2010PropOp44
 70
     1
102
RTVSPost2010Prop45
280
     0
102
RTVSPost2010PropOp45
 70
     1
102
RTVSPost2010Prop46
 90
       50
102
RTVSPost2010PropOp46
 70
     1
102
RTVSPost2010Prop47
 90
       50
102
RTVSPost2010PropOp47
 70
     1
102
RTVSPost2010Prop48
 90
       50
102
RTVSPost2010PropOp48
 70
     1
102
RTVSPost2010Prop49
280
     0
102
RTVSPost2010PropOp49
 70
     1
102
RTVSPost2010Prop50
 90
       50
102
RTVSPost2010PropOp50
 70
     1
102
RTVSPost2010Prop51ColorIndex
 90
      256
102
RTVSPost2010Prop51ColorRGB
 90
-16777216
102
RTVSPost2010PropOp51
 70
     0
102
RTVSPost2010Prop52
140
1.0
102
RTVSPost2010PropOp52
 70
     0
102
RTVSPost2010Prop53
 90
        2
102
RTVSPost2010PropOp53
 70
     1
102
RTVSPost2010Prop54
  1
strokes_ogs.tif
102
RTVSPost2010PropOp54
 70
     1
102
RTVSPost2010Prop55
280
     0
102
RTVSPost2010PropOp55
 70
     1
102
RTVSPost2010Prop56
140
1.0
102
RTVSPost2010PropOp56
 70
     1
102
RTVSPost2010Prop57
140
1.0
102
RTVSPost2010PropOp57
 70
     1
102
RTVSPropertyOp0
 70
     1
102
RTVSPropertyOp1
 70
     1
102
RTVSPropertyOp2
 70
     1
102
RTVSPropertyOp3
 70
     1
102
RTVSPropertyOp4
 70
     1
102
RTVSPropertyOp5
 70
     1
102
RTVSPropertyOp6
 70
     1
102
RTVSPropertyOp7
 70
     1
102
RTVSPropertyOp8
 70
     1
102
RTVSPropertyOp9
 70
     1
102
RTVSPropertyOp10
 70
     1
102
RTVSPropertyOp11
 70
     1
102
RTVSPropertyOp12
 70
     1
102
RTVSPropertyOp13
 70
     1
102
RTVSPropertyOp14
 70
     1
102
RTVSPropertyOp15
 70
     1
102
RTVSPropertyOp16
 70
     1
102
RTVSPropertyOp17
 70
     1
102
RTVSPropertyOp18
 70
     1
102
RTVSPropertyOp19
 70
     1
102
RTVSPropertyOp20
 70
     1
102
RTVSPropertyOp21
 70
     1
102
RTVSPropertyOp22
 70
     1
102
RTVSPropertyOp23
 70
     1
102
RTVSPropertyOp24
 70
     1
102
RTVSPropertyOp25
 70
     1
102
RTVSPropertyOp26
 70
     1
102
RTVSPropertyOp27
 70
     1
102
RTVSPropertyOp28
 70
     1
102
RTVSPropertyOp29
 70
     1
102
RTVSPropertyOp30
 70
     1
102
RTVSPropertyOp31
 70
     1
102
RTVSPropertyOp32
 70
     1
102
RTVSPropertyOp33
 70
     1
102
RTVSPropertyOp34
 70
     1
102
RTVSPropertyOp35
 70
     1
102
RTVSPropertyOp36
 70
     1
102
RTVSPropertyOp37
 70
     1
102
RTVSPropertyOp38
 70
     1
102
RTVSPropertyOp39
 70
     1
102
RTVSPropertyOp40
 70
     1
102
RTVSPropertyOp41
 70
     1
102
RTVSPropertyOp42
 70
     1
102
RTVSPropertyOp43
 70
     1
102
RTVSPropertyOp44
 70
     1
102
RTVSPropertyOp45
 70
     1
102
RTVSPropertyOp46
 70
     1
102
RTVSPropertyOp47
 70
     1
102
RTVSPropertyOp48
 70
     1
102
RTVSPropertyOp49
 70
     1
102
RTVSPropertyOp50
 70
     1
102
RTVSPropertyOp51
 70
     0
102
RTVSPropertyOp52
 70
     0
102
RTVSPropertyOp53
 70
     1
102
RTVSPropertyOp54
 70
     1
102
RTVSPropertyOp55
 70
     1
102
RTVSPropertyOp56
 70
     1
102
RTVSPropertyOp57
 70
     1
102
RTVSPropertyOp58
 70
     1
102
RTVSPropertyOp59
 70
     1
102
RTVSPropertyOp60
 70
     1
102
RTVSPropertyOp61
 70
     1
102
RTVSPropertyOp62
 70
     1
  0
XRECORD
  5
588
102
{ACAD_REACTORS
330
587
102
}
330
587
100
AcDbXrecord
280
     1
102
RTVSPost2010Prop28
280
     0
102
RTVSPost2010PropOp28
 70
     1
102
RTVSPost2010Prop29
280
     1
102
RTVSPost2010PropOp29
 70
     1
102
RTVSPost2010Prop30
280
     1
102
RTVSPost2010PropOp30
 70
     1
102
RTVSPost2010Prop31
280
     0
102
RTVSPost2010PropOp31
 70
     1
102
RTVSPost2010Prop32
280
     0
102
RTVSPost2010PropOp32
 70
     1
102
RTVSPost2010Prop33
280
     0
102
RTVSPost2010PropOp33
 70
     1
102
RTVSPost2010Prop34
280
     0
102
RTVSPost2010PropOp34
 70
     1
102
RTVSPost2010Prop35
280
     0
102
RTVSPost2010PropOp35
 70
     1
102
RTVSPost2010Prop36
280
     0
102
RTVSPost2010PropOp36
 70
     1
102
RTVSPost2010Prop37
 90
       50
102
RTVSPost2010PropOp37
 70
     1
102
RTVSPost2010Prop38
140
0.0
102
RTVSPost2010PropOp38
 70
     1
102
RTVSPost2010Prop39
140
1.0
102
RTVSPost2010PropOp39
 70
     1
102
RTVSPost2010Prop40
 90
        0
102
RTVSPost2010PropOp40
 70
     1
102
RTVSPost2010Prop41ColorIndex
 90
       18
102
RTVSPost2010Prop41ColorRGB
 90
        0
102
RTVSPost2010PropOp41
 70
     1
102
RTVSPost2010Prop42
 90
       50
102
RTVSPost2010PropOp42
 70
     1
102
RTVSPost2010Prop43
 90
        3
102
RTVSPost2010PropOp43
 70
     1
102
RTVSPost2010Prop44ColorIndex
 90
        5
102
RTVSPost2010Prop44ColorRGB
 90
      255
102
RTVSPost2010PropOp44
 70
     1
102
RTVSPost2010Prop45
280
     0
102
RTVSPost2010PropOp45
 70
     1
102
RTVSPost2010Prop46
 90
       50
102
RTVSPost2010PropOp46
 70
     1
102
RTVSPost2010Prop47
 90
       50
102
RTVSPost2010PropOp47
 70
     1
102
RTVSPost2010Prop48
 90
       50
102
RTVSPost2010PropOp48
 70
     1
102
RTVSPost2010Prop49
280
     0
102
RTVSPost2010PropOp49
 70
     1
102
RTVSPost2010Prop50
 90
       50
102
RTVSPost2010PropOp50
 70
     1
102
RTVSPost2010Prop51ColorIndex
 90
      256
102
RTVSPost2010Prop51ColorRGB
 90
-16777216
102
RTVSPost2010PropOp51
 70
     0
102
RTVSPost2010Prop52
140
1.0
102
RTVSPost2010PropOp52
 70
     0
102
RTVSPost2010Prop53
 90
        2
102
RTVSPost2010PropOp53
 70
     1
102
RTVSPost2010Prop54
  1
strokes_ogs.tif
102
RTVSPost2010PropOp54
 70
     1
102
RTVSPost2010Prop55
280
     0
102
RTVSPost2010PropOp55
 70
     1
102
RTVSPost2010Prop56
140
1.0
102
RTVSPost2010PropOp56
 70
     1
102
RTVSPost2010Prop57
140
1.0
102
RTVSPost2010PropOp57
 70
     1
102
RTVSPropertyOp0
 70
     1
102
RTVSPropertyOp1
 70
     1
102
RTVSPropertyOp2
 70
     1
102
RTVSPropertyOp3
 70
     1
102
RTVSPropertyOp4
 70
     1
102
RTVSPropertyOp5
 70
     1
102
RTVSPropertyOp6
 70
     1
102
RTVSPropertyOp7
 70
     1
102
RTVSPropertyOp8
 70
     1
102
RTVSPropertyOp9
 70
     1
102
RTVSPropertyOp10
 70
     1
102
RTVSPropertyOp11
 70
     1
102
RTVSPropertyOp12
 70
     1
102
RTVSPropertyOp13
 70
     1
102
RTVSPropertyOp14
 70
     1
102
RTVSPropertyOp15
 70
     1
102
RTVSPropertyOp16
 70
     1
102
RTVSPropertyOp17
 70
     1
102
RTVSPropertyOp18
 70
     1
102
RTVSPropertyOp19
 70
     1
102
RTVSPropertyOp20
 70
     1
102
RTVSPropertyOp21
 70
     1
102
RTVSPropertyOp22
 70
     1
102
RTVSPropertyOp23
 70
     1
102
RTVSPropertyOp24
 70
     1
102
RTVSPropertyOp25
 70
     1
102
RTVSPropertyOp26
 70
     1
102
RTVSPropertyOp27
 70
     1
102
RTVSPropertyOp28
 70
     1
102
RTVSPropertyOp29
 70
     1
102
RTVSPropertyOp30
 70
     1
102
RTVSPropertyOp31
 70
     1
102
RTVSPropertyOp32
 70
     1
102
RTVSPropertyOp33
 70
     1
102
RTVSPropertyOp34
 70
     1
102
RTVSPropertyOp35
 70
     1
102
RTVSPropertyOp36
 70
     1
102
RTVSPropertyOp37
 70
     1
102
RTVSPropertyOp38
 70
     1
102
RTVSPropertyOp39
 70
     1
102
RTVSPropertyOp40
 70
     1
102
RTVSPropertyOp41
 70
     1
102
RTVSPropertyOp42
 70
     1
102
RTVSPropertyOp43
 70
     1
102
RTVSPropertyOp44
 70
     1
102
RTVSPropertyOp45
 70
     1
102
RTVSPropertyOp46
 70
     1
102
RTVSPropertyOp47
 70
     1
102
RTVSPropertyOp48
 70
     1
102
RTVSPropertyOp49
 70
     1
102
RTVSPropertyOp50
 70
     1
102
RTVSPropertyOp51
 70
     0
102
RTVSPropertyOp52
 70
     0
102
RTVSPropertyOp53
 70
     1
102
RTVSPropertyOp54
 70
     1
102
RTVSPropertyOp55
 70
     1
102
RTVSPropertyOp56
 70
     1
102
RTVSPropertyOp57
 70
     1
102
RTVSPropertyOp58
 70
     1
102
RTVSPropertyOp59
 70
     1
102
RTVSPropertyOp60
 70
     1
102
RTVSPropertyOp61
 70
     1
102
RTVSPropertyOp62
 70
     1
  0
XRECORD
  5
57E
102
{ACAD_REACTORS
330
57D
102
}
330
57D
100
AcDbXrecord
280
     1
102
RTVSPost2010Prop28
280
     0
102
RTVSPost2010PropOp28
 70
     1
102
RTVSPost2010Prop29
280
     1
102
RTVSPost2010PropOp29
 70
     1
102
RTVSPost2010Prop30
280
     1
102
RTVSPost2010PropOp30
 70
     1
102
RTVSPost2010Prop31
280
     0
102
RTVSPost2010PropOp31
 70
     1
102
RTVSPost2010Prop32
280
     0
102
RTVSPost2010PropOp32
 70
     1
102
RTVSPost2010Prop33
280
     0
102
RTVSPost2010PropOp33
 70
     1
102
RTVSPost2010Prop34
280
     0
102
RTVSPost2010PropOp34
 70
     1
102
RTVSPost2010Prop35
280
     0
102
RTVSPost2010PropOp35
 70
     1
102
RTVSPost2010Prop36
280
     0
102
RTVSPost2010PropOp36
 70
     1
102
RTVSPost2010Prop37
 90
       50
102
RTVSPost2010PropOp37
 70
     1
102
RTVSPost2010Prop38
140
0.0
102
RTVSPost2010PropOp38
 70
     1
102
RTVSPost2010Prop39
140
1.0
102
RTVSPost2010PropOp39
 70
     1
102
RTVSPost2010Prop40
 90
        0
102
RTVSPost2010PropOp40
 70
     1
102
RTVSPost2010Prop41ColorIndex
 90
       18
102
RTVSPost2010Prop41ColorRGB
 90
        0
102
RTVSPost2010PropOp41
 70
     1
102
RTVSPost2010Prop42
 90
       50
102
RTVSPost2010PropOp42
 70
     1
102
RTVSPost2010Prop43
 90
        3
102
RTVSPost2010PropOp43
 70
     1
102
RTVSPost2010Prop44ColorIndex
 90
        5
102
RTVSPost2010Prop44ColorRGB
 90
      255
102
RTVSPost2010PropOp44
 70
     1
102
RTVSPost2010Prop45
280
     0
102
RTVSPost2010PropOp45
 70
     1
102
RTVSPost2010Prop46
 90
       50
102
RTVSPost2010PropOp46
 70
     1
102
RTVSPost2010Prop47
 90
       50
102
RTVSPost2010PropOp47
 70
     1
102
RTVSPost2010Prop48
 90
       50
102
RTVSPost2010PropOp48
 70
     1
102
RTVSPost2010Prop49
280
     0
102
RTVSPost2010PropOp49
 70
     1
102
RTVSPost2010Prop50
 90
       50
102
RTVSPost2010PropOp50
 70
     1
102
RTVSPost2010Prop51ColorIndex
 90
      256
102
RTVSPost2010Prop51ColorRGB
 90
-16777216
102
RTVSPost2010PropOp51
 70
     0
102
RTVSPost2010Prop52
140
1.0
102
RTVSPost2010PropOp52
 70
     0
102
RTVSPost2010Prop53
 90
        2
102
RTVSPost2010PropOp53
 70
     1
102
RTVSPost2010Prop54
  1
strokes_ogs.tif
102
RTVSPost2010PropOp54
 70
     1
102
RTVSPost2010Prop55
280
     0
102
RTVSPost2010PropOp55
 70
     1
102
RTVSPost2010Prop56
140
1.0
102
RTVSPost2010PropOp56
 70
     1
102
RTVSPost2010Prop57
140
1.0
102
RTVSPost2010PropOp57
 70
     1
102
RTVSPropertyOp0
 70
     1
102
RTVSPropertyOp1
 70
     1
102
RTVSPropertyOp2
 70
     1
102
RTVSPropertyOp3
 70
     1
102
RTVSPropertyOp4
 70
     1
102
RTVSPropertyOp5
 70
     1
102
RTVSPropertyOp6
 70
     1
102
RTVSPropertyOp7
 70
     1
102
RTVSPropertyOp8
 70
     1
102
RTVSPropertyOp9
 70
     1
102
RTVSPropertyOp10
 70
     1
102
RTVSPropertyOp11
 70
     1
102
RTVSPropertyOp12
 70
     1
102
RTVSPropertyOp13
 70
     1
102
RTVSPropertyOp14
 70
     1
102
RTVSPropertyOp15
 70
     1
102
RTVSPropertyOp16
 70
     1
102
RTVSPropertyOp17
 70
     1
102
RTVSPropertyOp18
 70
     1
102
RTVSPropertyOp19
 70
     1
102
RTVSPropertyOp20
 70
     1
102
RTVSPropertyOp21
 70
     1
102
RTVSPropertyOp22
 70
     1
102
RTVSPropertyOp23
 70
     1
102
RTVSPropertyOp24
 70
     1
102
RTVSPropertyOp25
 70
     1
102
RTVSPropertyOp26
 70
     1
102
RTVSPropertyOp27
 70
     1
102
RTVSPropertyOp28
 70
     1
102
RTVSPropertyOp29
 70
     1
102
RTVSPropertyOp30
 70
     1
102
RTVSPropertyOp31
 70
     1
102
RTVSPropertyOp32
 70
     1
102
RTVSPropertyOp33
 70
     1
102
RTVSPropertyOp34
 70
     1
102
RTVSPropertyOp35
 70
     1
102
RTVSPropertyOp36
 70
     1
102
RTVSPropertyOp37
 70
     1
102
RTVSPropertyOp38
 70
     1
102
RTVSPropertyOp39
 70
     1
102
RTVSPropertyOp40
 70
     1
102
RTVSPropertyOp41
 70
     1
102
RTVSPropertyOp42
 70
     1
102
RTVSPropertyOp43
 70
     1
102
RTVSPropertyOp44
 70
     1
102
RTVSPropertyOp45
 70
     1
102
RTVSPropertyOp46
 70
     1
102
RTVSPropertyOp47
 70
     1
102
RTVSPropertyOp48
 70
     1
102
RTVSPropertyOp49
 70
     1
102
RTVSPropertyOp50
 70
     1
102
RTVSPropertyOp51
 70
     0
102
RTVSPropertyOp52
 70
     0
102
RTVSPropertyOp53
 70
     1
102
RTVSPropertyOp54
 70
     1
102
RTVSPropertyOp55
 70
     1
102
RTVSPropertyOp56
 70
     1
102
RTVSPropertyOp57
 70
     1
102
RTVSPropertyOp58
 70
     1
102
RTVSPropertyOp59
 70
     1
102
RTVSPropertyOp60
 70
     1
102
RTVSPropertyOp61
 70
     1
102
RTVSPropertyOp62
 70
     1
  0
XRECORD
  5
572
102
{ACAD_REACTORS
330
571
102
}
330
571
100
AcDbXrecord
280
     1
102
RTVSPost2010Prop28
280
     0
102
RTVSPost2010PropOp28
 70
     1
102
RTVSPost2010Prop29
280
     1
102
RTVSPost2010PropOp29
 70
     1
102
RTVSPost2010Prop30
280
     1
102
RTVSPost2010PropOp30
 70
     1
102
RTVSPost2010Prop31
280
     0
102
RTVSPost2010PropOp31
 70
     1
102
RTVSPost2010Prop32
280
     0
102
RTVSPost2010PropOp32
 70
     1
102
RTVSPost2010Prop33
280
     0
102
RTVSPost2010PropOp33
 70
     1
102
RTVSPost2010Prop34
280
     0
102
RTVSPost2010PropOp34
 70
     1
102
RTVSPost2010Prop35
280
     0
102
RTVSPost2010PropOp35
 70
     1
102
RTVSPost2010Prop36
280
     0
102
RTVSPost2010PropOp36
 70
     1
102
RTVSPost2010Prop37
 90
       50
102
RTVSPost2010PropOp37
 70
     1
102
RTVSPost2010Prop38
140
0.0
102
RTVSPost2010PropOp38
 70
     1
102
RTVSPost2010Prop39
140
1.0
102
RTVSPost2010PropOp39
 70
     1
102
RTVSPost2010Prop40
 90
        0
102
RTVSPost2010PropOp40
 70
     1
102
RTVSPost2010Prop41ColorIndex
 90
       18
102
RTVSPost2010Prop41ColorRGB
 90
        0
102
RTVSPost2010PropOp41
 70
     1
102
RTVSPost2010Prop42
 90
       50
102
RTVSPost2010PropOp42
 70
     1
102
RTVSPost2010Prop43
 90
        3
102
RTVSPost2010PropOp43
 70
     1
102
RTVSPost2010Prop44ColorIndex
 90
        5
102
RTVSPost2010Prop44ColorRGB
 90
      255
102
RTVSPost2010PropOp44
 70
     1
102
RTVSPost2010Prop45
280
     0
102
RTVSPost2010PropOp45
 70
     1
102
RTVSPost2010Prop46
 90
       50
102
RTVSPost2010PropOp46
 70
     1
102
RTVSPost2010Prop47
 90
       50
102
RTVSPost2010PropOp47
 70
     1
102
RTVSPost2010Prop48
 90
       50
102
RTVSPost2010PropOp48
 70
     1
102
RTVSPost2010Prop49
280
     0
102
RTVSPost2010PropOp49
 70
     1
102
RTVSPost2010Prop50
 90
       50
102
RTVSPost2010PropOp50
 70
     1
102
RTVSPost2010Prop51ColorIndex
 90
      256
102
RTVSPost2010Prop51ColorRGB
 90
-16777216
102
RTVSPost2010PropOp51
 70
     0
102
RTVSPost2010Prop52
140
1.0
102
RTVSPost2010PropOp52
 70
     0
102
RTVSPost2010Prop53
 90
        2
102
RTVSPost2010PropOp53
 70
     1
102
RTVSPost2010Prop54
  1
strokes_ogs.tif
102
RTVSPost2010PropOp54
 70
     1
102
RTVSPost2010Prop55
280
     0
102
RTVSPost2010PropOp55
 70
     1
102
RTVSPost2010Prop56
140
1.0
102
RTVSPost2010PropOp56
 70
     1
102
RTVSPost2010Prop57
140
1.0
102
RTVSPost2010PropOp57
 70
     1
102
RTVSPropertyOp0
 70
     1
102
RTVSPropertyOp1
 70
     1
102
RTVSPropertyOp2
 70
     1
102
RTVSPropertyOp3
 70
     1
102
RTVSPropertyOp4
 70
     1
102
RTVSPropertyOp5
 70
     1
102
RTVSPropertyOp6
 70
     1
102
RTVSPropertyOp7
 70
     1
102
RTVSPropertyOp8
 70
     1
102
RTVSPropertyOp9
 70
     1
102
RTVSPropertyOp10
 70
     1
102
RTVSPropertyOp11
 70
     1
102
RTVSPropertyOp12
 70
     1
102
RTVSPropertyOp13
 70
     1
102
RTVSPropertyOp14
 70
     1
102
RTVSPropertyOp15
 70
     1
102
RTVSPropertyOp16
 70
     1
102
RTVSPropertyOp17
 70
     1
102
RTVSPropertyOp18
 70
     1
102
RTVSPropertyOp19
 70
     1
102
RTVSPropertyOp20
 70
     1
102
RTVSPropertyOp21
 70
     1
102
RTVSPropertyOp22
 70
     1
102
RTVSPropertyOp23
 70
     1
102
RTVSPropertyOp24
 70
     1
102
RTVSPropertyOp25
 70
     1
102
RTVSPropertyOp26
 70
     1
102
RTVSPropertyOp27
 70
     1
102
RTVSPropertyOp28
 70
     1
102
RTVSPropertyOp29
 70
     1
102
RTVSPropertyOp30
 70
     1
102
RTVSPropertyOp31
 70
     1
102
RTVSPropertyOp32
 70
     1
102
RTVSPropertyOp33
 70
     1
102
RTVSPropertyOp34
 70
     1
102
RTVSPropertyOp35
 70
     1
102
RTVSPropertyOp36
 70
     1
102
RTVSPropertyOp37
 70
     1
102
RTVSPropertyOp38
 70
     1
102
RTVSPropertyOp39
 70
     1
102
RTVSPropertyOp40
 70
     1
102
RTVSPropertyOp41
 70
     1
102
RTVSPropertyOp42
 70
     1
102
RTVSPropertyOp43
 70
     1
102
RTVSPropertyOp44
 70
     1
102
RTVSPropertyOp45
 70
     1
102
RTVSPropertyOp46
 70
     1
102
RTVSPropertyOp47
 70
     1
102
RTVSPropertyOp48
 70
     1
102
RTVSPropertyOp49
 70
     1
102
RTVSPropertyOp50
 70
     1
102
RTVSPropertyOp51
 70
     0
102
RTVSPropertyOp52
 70
     0
102
RTVSPropertyOp53
 70
     1
102
RTVSPropertyOp54
 70
     1
102
RTVSPropertyOp55
 70
     1
102
RTVSPropertyOp56
 70
     1
102
RTVSPropertyOp57
 70
     1
102
RTVSPropertyOp58
 70
     1
102
RTVSPropertyOp59
 70
     1
102
RTVSPropertyOp60
 70
     1
102
RTVSPropertyOp61
 70
     1
102
RTVSPropertyOp62
 70
     1
  0
XRECORD
  5
58A
102
{ACAD_REACTORS
330
589
102
}
330
589
100
AcDbXrecord
280
     1
102
RTVSPost2010Prop28
280
     0
102
RTVSPost2010PropOp28
 70
     1
102
RTVSPost2010Prop29
280
     1
102
RTVSPost2010PropOp29
 70
     1
102
RTVSPost2010Prop30
280
     1
102
RTVSPost2010PropOp30
 70
     1
102
RTVSPost2010Prop31
280
     0
102
RTVSPost2010PropOp31
 70
     1
102
RTVSPost2010Prop32
280
     0
102
RTVSPost2010PropOp32
 70
     1
102
RTVSPost2010Prop33
280
     0
102
RTVSPost2010PropOp33
 70
     1
102
RTVSPost2010Prop34
280
     0
102
RTVSPost2010PropOp34
 70
     1
102
RTVSPost2010Prop35
280
     0
102
RTVSPost2010PropOp35
 70
     1
102
RTVSPost2010Prop36
280
     0
102
RTVSPost2010PropOp36
 70
     1
102
RTVSPost2010Prop37
 90
       50
102
RTVSPost2010PropOp37
 70
     1
102
RTVSPost2010Prop38
140
0.0
102
RTVSPost2010PropOp38
 70
     1
102
RTVSPost2010Prop39
140
1.0
102
RTVSPost2010PropOp39
 70
     1
102
RTVSPost2010Prop40
 90
        0
102
RTVSPost2010PropOp40
 70
     1
102
RTVSPost2010Prop41ColorIndex
 90
       18
102
RTVSPost2010Prop41ColorRGB
 90
        0
102
RTVSPost2010PropOp41
 70
     1
102
RTVSPost2010Prop42
 90
       50
102
RTVSPost2010PropOp42
 70
     1
102
RTVSPost2010Prop43
 90
        3
102
RTVSPost2010PropOp43
 70
     1
102
RTVSPost2010Prop44ColorIndex
 90
        5
102
RTVSPost2010Prop44ColorRGB
 90
      255
102
RTVSPost2010PropOp44
 70
     1
102
RTVSPost2010Prop45
280
     0
102
RTVSPost2010PropOp45
 70
     1
102
RTVSPost2010Prop46
 90
       50
102
RTVSPost2010PropOp46
 70
     1
102
RTVSPost2010Prop47
 90
       50
102
RTVSPost2010PropOp47
 70
     1
102
RTVSPost2010Prop48
 90
       50
102
RTVSPost2010PropOp48
 70
     1
102
RTVSPost2010Prop49
280
     0
102
RTVSPost2010PropOp49
 70
     1
102
RTVSPost2010Prop50
 90
       50
102
RTVSPost2010PropOp50
 70
     1
102
RTVSPost2010Prop51ColorIndex
 90
      256
102
RTVSPost2010Prop51ColorRGB
 90
-16777216
102
RTVSPost2010PropOp51
 70
     0
102
RTVSPost2010Prop52
140
1.0
102
RTVSPost2010PropOp52
 70
     0
102
RTVSPost2010Prop53
 90
        2
102
RTVSPost2010PropOp53
 70
     1
102
RTVSPost2010Prop54
  1
strokes_ogs.tif
102
RTVSPost2010PropOp54
 70
     1
102
RTVSPost2010Prop55
280
     0
102
RTVSPost2010PropOp55
 70
     1
102
RTVSPost2010Prop56
140
1.0
102
RTVSPost2010PropOp56
 70
     1
102
RTVSPost2010Prop57
140
1.0
102
RTVSPost2010PropOp57
 70
     1
102
RTVSPropertyOp0
 70
     1
102
RTVSPropertyOp1
 70
     1
102
RTVSPropertyOp2
 70
     1
102
RTVSPropertyOp3
 70
     1
102
RTVSPropertyOp4
 70
     1
102
RTVSPropertyOp5
 70
     1
102
RTVSPropertyOp6
 70
     1
102
RTVSPropertyOp7
 70
     1
102
RTVSPropertyOp8
 70
     1
102
RTVSPropertyOp9
 70
     1
102
RTVSPropertyOp10
 70
     1
102
RTVSPropertyOp11
 70
     1
102
RTVSPropertyOp12
 70
     1
102
RTVSPropertyOp13
 70
     1
102
RTVSPropertyOp14
 70
     1
102
RTVSPropertyOp15
 70
     1
102
RTVSPropertyOp16
 70
     1
102
RTVSPropertyOp17
 70
     1
102
RTVSPropertyOp18
 70
     1
102
RTVSPropertyOp19
 70
     1
102
RTVSPropertyOp20
 70
     1
102
RTVSPropertyOp21
 70
     1
102
RTVSPropertyOp22
 70
     1
102
RTVSPropertyOp23
 70
     1
102
RTVSPropertyOp24
 70
     1
102
RTVSPropertyOp25
 70
     1
102
RTVSPropertyOp26
 70
     1
102
RTVSPropertyOp27
 70
     1
102
RTVSPropertyOp28
 70
     1
102
RTVSPropertyOp29
 70
     1
102
RTVSPropertyOp30
 70
     1
102
RTVSPropertyOp31
 70
     1
102
RTVSPropertyOp32
 70
     1
102
RTVSPropertyOp33
 70
     1
102
RTVSPropertyOp34
 70
     1
102
RTVSPropertyOp35
 70
     1
102
RTVSPropertyOp36
 70
     1
102
RTVSPropertyOp37
 70
     1
102
RTVSPropertyOp38
 70
     1
102
RTVSPropertyOp39
 70
     1
102
RTVSPropertyOp40
 70
     1
102
RTVSPropertyOp41
 70
     1
102
RTVSPropertyOp42
 70
     1
102
RTVSPropertyOp43
 70
     1
102
RTVSPropertyOp44
 70
     1
102
RTVSPropertyOp45
 70
     1
102
RTVSPropertyOp46
 70
     1
102
RTVSPropertyOp47
 70
     1
102
RTVSPropertyOp48
 70
     1
102
RTVSPropertyOp49
 70
     1
102
RTVSPropertyOp50
 70
     1
102
RTVSPropertyOp51
 70
     0
102
RTVSPropertyOp52
 70
     0
102
RTVSPropertyOp53
 70
     1
102
RTVSPropertyOp54
 70
     1
102
RTVSPropertyOp55
 70
     1
102
RTVSPropertyOp56
 70
     1
102
RTVSPropertyOp57
 70
     1
102
RTVSPropertyOp58
 70
     1
102
RTVSPropertyOp59
 70
     1
102
RTVSPropertyOp60
 70
     1
102
RTVSPropertyOp61
 70
     1
102
RTVSPropertyOp62
 70
     1
  0
ENDSEC
  0
EOF
