  0
SECTION
  2
HEADER
  9
$ACADVER
  1
AC1018
  9
$ACADMAINTVER
 70
   104
  9
$DWGCODEPAGE
  3
ANSI_932
  9
$INSBASE
 10
0.0
 20
0.0
 30
0.0
  9
$EXTMIN
 10
-0.45286792
 20
-0.32020964
 30
-0.10000305
  9
$EXTMAX
 10
29700.45328285
 20
21000.32050303
 30
0.10000305
  9
$LIMMIN
 10
0.0
 20
0.0
  9
$LIMMAX
 10
420.0
 20
297.0
  9
$ORTHOMODE
 70
     1
  9
$REGENMODE
 70
     1
  9
$FILLMODE
 70
     1
  9
$QTEXTMODE
 70
     0
  9
$MIRRTEXT
 70
     0
  9
$LTSCALE
 40
1.0
  9
$ATTMODE
 70
     1
  9
$TEXTSIZE
 40
3.5
  9
$TRACEWID
 40
1.0
  9
$TEXTSTYLE
  7
STANDARD
  9
$CLAYER
  8
0
  9
$CELTYPE
  6
BYLAYER
  9
$CECOLOR
 62
   256
  9
$CELTSCALE
 40
1.0
  9
$DISPSILH
 70
     1
  9
$DIMSCALE
 40
1.0
  9
$DIMASZ
 40
2.5
  9
$DIMEXO
 40
0.625
  9
$DIMDLI
 40
3.75
  9
$DIMRND
 40
0.0
  9
$DIMDLE
 40
0.0
  9
$DIMEXE
 40
1.25
  9
$DIMTP
 40
0.0
  9
$DIMTM
 40
0.0
  9
$DIMTXT
 40
2.5
  9
$DIMCEN
 40
2.5
  9
$DIMTSZ
 40
0.0
  9
$DIMTOL
 70
     0
  9
$DIMLIM
 70
     0
  9
$DIMTIH
 70
     1
  9
$DIMTOH
 70
     0
  9
$DIMSE1
 70
     0
  9
$DIMSE2
 70
     0
  9
$DIMTAD
 70
     1
  9
$DIMZIN
 70
     0
  9
$DIMBLK
  1

  9
$DIMASO
 70
     1
  9
$DIMSHO
 70
     1
  9
$DIMPOST
  1

  9
$DIMAPOST
  1

  9
$DIMALT
 70
     0
  9
$DIMALTD
 70
     2
  9
$DIMALTF
 40
0.0394
  9
$DIMLFAC
 40
1.0
  9
$DIMTOFL
 70
     1
  9
$DIMTVP
 40
1.0
  9
$DIMTIX
 70
     0
  9
$DIMSOXD
 70
     0
  9
$DIMSAH
 70
     0
  9
$DIMBLK1
  1

  9
$DIMBLK2
  1

  9
$DIMSTYLE
  2
STANDARD
  9
$DIMCLRD
 70
     0
  9
$DIMCLRE
 70
     0
  9
$DIMCLRT
 70
     0
  9
$DIMTFAC
 40
1.0
  9
$DIMGAP
 40
0.625
  9
$DIMJUST
 70
     0
  9
$DIMSD1
 70
     0
  9
$DIMSD2
 70
     0
  9
$DIMTOLJ
 70
     1
  9
$DIMTZIN
 70
     0
  9
$DIMALTZ
 70
     0
  9
$DIMALTTZ
 70
     0
  9
$DIMUPT
 70
     0
  9
$DIMDEC
 70
     4
  9
$DIMTDEC
 70
     4
  9
$DIMALTU
 70
     2
  9
$DIMALTTD
 70
     2
  9
$DIMTXSTY
  7
STANDARD
  9
$DIMAUNIT
 70
     0
  9
$DIMADEC
 70
     0
  9
$DIMALTRND
 40
0.0
  9
$DIMAZIN
 70
     0
  9
$DIMDSEP
 70
    46
  9
$DIMATFIT
 70
     3
  9
$DIMFRAC
 70
     0
  9
$DIMLDRBLK
  1

  9
$DIMLUNIT
 70
     2
  9
$DIMLWD
 70
    -2
  9
$DIMLWE
 70
    -2
  9
$DIMTMOVE
 70
     2
  9
$LUNITS
 70
     2
  9
$LUPREC
 70
     4
  9
$SKETCHINC
 40
1.0
  9
$FILLETRAD
 40
0.0
  9
$AUNITS
 70
     0
  9
$AUPREC
 70
     0
  9
$MENU
  1
acad
  9
$ELEVATION
 40
0.0
  9
$PELEVATION
 40
0.0
  9
$THICKNESS
 40
0.0
  9
$LIMCHECK
 70
     0
  9
$CHAMFERA
 40
10.0
  9
$CHAMFERB
 40
10.0
  9
$CHAMFERC
 40
0.0
  9
$CHAMFERD
 40
0.0
  9
$SKPOLY
 70
     0
  9
$TDCREATE
 40
2453046.711942454
  9
$TDUCREATE
 40
2453046.336942454
  9
$TDUPDATE
 40
2457185.495250335
  9
$TDUUPDATE
 40
2457185.120250336
  9
$TDINDWG
 40
0.0448832755
  9
$TDUSRTIMER
 40
0.0448832755
  9
$USRTIMER
 70
     1
  9
$ANGBASE
 50
0.0
  9
$ANGDIR
 70
     0
  9
$PDMODE
 70
     0
  9
$PDSIZE
 40
0.0
  9
$PLINEWID
 40
0.0
  9
$SPLFRAME
 70
     0
  9
$SPLINETYPE
 70
     6
  9
$SPLINESEGS
 70
     8
  9
$HANDSEED
  5
4D2
  9
$SURFTAB1
 70
     6
  9
$SURFTAB2
 70
     6
  9
$SURFTYPE
 70
     6
  9
$SURFU
 70
     6
  9
$SURFV
 70
     6
  9
$UCSBASE
  2

  9
$UCSNAME
  2

  9
$UCSORG
 10
0.0
 20
0.0
 30
0.0
  9
$UCSXDIR
 10
1.0
 20
0.0
 30
0.0
  9
$UCSYDIR
 10
0.0
 20
1.0
 30
0.0
  9
$UCSORTHOREF
  2

  9
$UCSORTHOVIEW
 70
     0
  9
$UCSORGTOP
 10
0.0
 20
0.0
 30
0.0
  9
$UCSORGBOTTOM
 10
0.0
 20
0.0
 30
0.0
  9
$UCSORGLEFT
 10
0.0
 20
0.0
 30
0.0
  9
$UCSORGRIGHT
 10
0.0
 20
0.0
 30
0.0
  9
$UCSORGFRONT
 10
0.0
 20
0.0
 30
0.0
  9
$UCSORGBACK
 10
0.0
 20
0.0
 30
0.0
  9
$PUCSBASE
  2

  9
$PUCSNAME
  2

  9
$PUCSORG
 10
0.0
 20
0.0
 30
0.0
  9
$PUCSXDIR
 10
1.0
 20
0.0
 30
0.0
  9
$PUCSYDIR
 10
0.0
 20
1.0
 30
0.0
  9
$PUCSORTHOREF
  2

  9
$PUCSORTHOVIEW
 70
     0
  9
$PUCSORGTOP
 10
0.0
 20
0.0
 30
0.0
  9
$PUCSORGBOTTOM
 10
0.0
 20
0.0
 30
0.0
  9
$PUCSORGLEFT
 10
0.0
 20
0.0
 30
0.0
  9
$PUCSORGRIGHT
 10
0.0
 20
0.0
 30
0.0
  9
$PUCSORGFRONT
 10
0.0
 20
0.0
 30
0.0
  9
$PUCSORGBACK
 10
0.0
 20
0.0
 30
0.0
  9
$USERI1
 70
     0
  9
$USERI2
 70
     0
  9
$USERI3
 70
     0
  9
$USERI4
 70
     0
  9
$USERI5
 70
     0
  9
$USERR1
 40
0.0
  9
$USERR2
 40
0.0
  9
$USERR3
 40
0.0
  9
$USERR4
 40
0.0
  9
$USERR5
 40
0.0
  9
$WORLDVIEW
 70
     1
  9
$SHADEDGE
 70
     3
  9
$SHADEDIF
 70
    70
  9
$TILEMODE
 70
     1
  9
$MAXACTVP
 70
    16
  9
$PINSBASE
 10
0.0
 20
0.0
 30
0.0
  9
$PLIMCHECK
 70
     0
  9
$PEXTMIN
 10
1.00000000E+20
 20
1.00000000E+20
 30
1.00000000E+20
  9
$PEXTMAX
 10
-1.00000000E+20
 20
-1.00000000E+20
 30
-1.00000000E+20
  9
$PLIMMIN
 10
0.0
 20
0.0
  9
$PLIMMAX
 10
420.0
 20
297.0
  9
$UNITMODE
 70
     0
  9
$VISRETAIN
 70
     0
  9
$PLINEGEN
 70
     0
  9
$PSLTSCALE
 70
     1
  9
$TREEDEPTH
 70
  3020
  9
$CMLSTYLE
  2
STANDARD
  9
$CMLJUST
 70
     0
  9
$CMLSCALE
 40
1.0
  9
$PROXYGRAPHICS
 70
     1
  9
$MEASUREMENT
 70
     1
  9
$CELWEIGHT
370
    -1
  9
$ENDCAPS
280
     0
  9
$JOINSTYLE
280
     0
  9
$LWDISPLAY
290
     0
  9
$INSUNITS
 70
     0
  9
$HYPERLINKBASE
  1

  9
$STYLESHEET
  1

  9
$XEDIT
290
     1
  9
$CEPSNTYPE
380
     0
  9
$PSTYLEMODE
290
     1
  9
$FINGERPRINTGUID
  2
{81386D9C-CC2F-4442-BC4D-3BA9FF01F23C}
  9
$VERSIONGUID
  2
{09AE0674-A420-4389-97E2-56F9F3D9BD28}
  9
$EXTNAMES
290
     1
  9
$PSVPSCALE
 40
0.0
  9
$OLESTARTUP
290
     0
  9
$SORTENTS
280
   127
  9
$INDEXCTL
280
     0
  9
$HIDETEXT
280
     0
  9
$XCLIPFRAME
290
     0
  9
$HALOGAP
280
     0
  9
$OBSCOLOR
 70
   257
  9
$OBSLTYPE
280
     0
  9
$INTERSECTIONDISPLAY
280
     0
  9
$INTERSECTIONCOLOR
 70
   257
  9
$DIMASSOC
280
     1
  9
$PROJECTNAME
  1

  0
ENDSEC
  0
SECTION
  2
CLASSES
  0
CLASS
  1
DICTIONARYVAR
  2
AcDbDictionaryVar
  3
ObjectDBX Classes
 90
        0
 91
        7
280
     0
281
     0
  0
CLASS
  1
ACDBDICTIONARYWDFLT
  2
AcDbDictionaryWithDefault
  3
ObjectDBX Classes
 90
        0
 91
        1
280
     0
281
     0
  0
CLASS
  1
MATERIAL
  2
AcDbMaterial
  3
ObjectDBX Classes
 90
     1153
 91
        3
280
     0
281
     0
  0
CLASS
  1
VISUALSTYLE
  2
AcDbVisualStyle
  3
ObjectDBX Classes
 90
     4095
 91
       24
280
     0
281
     0
  0
CLASS
  1
TABLESTYLE
  2
AcDbTableStyle
  3
ObjectDBX Classes
 90
     4095
 91
        1
280
     0
281
     0
  0
CLASS
  1
SCALE
  2
AcDbScale
  3
ObjectDBX Classes
 90
     1153
 91
       17
280
     0
281
     0
  0
CLASS
  1
MLEADERSTYLE
  2
AcDbMLeaderStyle
  3
ACDB_MLEADERSTYLE_CLASS
 90
     4095
 91
        1
280
     0
281
     0
  0
CLASS
  1
ACDBSECTIONVIEWSTYLE
  2
AcDbSectionViewStyle
  3
ObjectDBX Classes
 90
     1025
 91
        1
280
     0
281
     0
  0
CLASS
  1
ACDBDETAILVIEWSTYLE
  2
AcDbDetailViewStyle
  3
ObjectDBX Classes
 90
     1025
 91
        1
280
     0
281
     0
  0
CLASS
  1
CELLSTYLEMAP
  2
AcDbCellStyleMap
  3
ObjectDBX Classes
 90
     1152
 91
        2
280
     0
281
     0
  0
ENDSEC
  0
SECTION
  2
TABLES
  0
TABLE
  2
VPORT
  5
12
330
0
100
AcDbSymbolTable
 70
     1
  0
VPORT
  5
3EE
330
12
100
AcDbSymbolTableRecord
100
AcDbViewportTableRecord
  2
*ACTIVE
 70
     0
 10
0.0
 20
0.0
 11
1.0
 21
1.0
 12
14850.00020746
 22
10500.00014669
 13
0.0
 23
0.0
 14
10.0
 24
10.0
 15
10.0
 25
10.0
 16
0.0
 26
0.0
 36
1.0
 17
0.0
 27
0.0
 37
0.0
 40
22267.27705243
 41
1.34178905
 42
50.0
 43
0.0
 44
0.0
 50
0.0
 51
0.0
 71
     0
 72
   100
 73
     1
 74
     0
 75
     0
 76
     0
 77
     0
 78
     0
281
     0
 65
     1
110
0.0
120
0.0
130
0.0
111
1.0
121
0.0
131
0.0
112
0.0
122
1.0
132
0.0
 79
     0
146
0.0
1001
ACAD_NAV_VCDISPLAY
1070
     1
  0
ENDTAB
  0
TABLE
  2
LTYPE
  5
D
330
0
100
AcDbSymbolTable
 70
     2
  0
LTYPE
  5
E
330
D
100
AcDbSymbolTableRecord
100
AcDbLinetypeTableRecord
  2
BYBLOCK
 70
     0
  3

 72
    65
 73
     0
 40
0.0
  0
LTYPE
  5
F
330
D
100
AcDbSymbolTableRecord
100
AcDbLinetypeTableRecord
  2
BYLAYER
 70
     0
  3

 72
    65
 73
     0
 40
0.0
  0
LTYPE
  5
5
330
D
100
AcDbSymbolTableRecord
100
AcDbLinetypeTableRecord
  2
CONTINUOUS
 70
     0
  3
Solid line
 72
    65
 73
     0
 40
0.0
  0
LTYPE
  5
C9
330
D
100
AcDbSymbolTableRecord
100
AcDbLinetypeTableRecord
  2
YDIVIDE_1
 70
     0
  3
2点鎖線尺度1-- - - -- - - ---
 72
    65
 73
     6
 40
15.0
 49
10.0
 74
     0
 49
-1.0
 74
     0
 49
1.0
 74
     0
 49
-1.0
 74
     0
 49
1.0
 74
     0
 49
-1.0
 74
     0
  0
ENDTAB
  0
TABLE
  2
LAYER
  5
A
330
0
100
AcDbSymbolTable
 70
     3
  0
LAYER
  5
4
330
A
100
AcDbSymbolTableRecord
100
AcDbLayerTableRecord
  2
0
 70
     0
 62
     7
  6
CONTINUOUS
370
    -3
390
3F1
  0
LAYER
  5
1E
330
A
100
AcDbSymbolTableRecord
100
AcDbLayerTableRecord
  2
YKK_F1
 70
     0
 62
     7
  6
CONTINUOUS
370
    -3
390
3F1
  0
LAYER
  5
C8
330
A
100
AcDbSymbolTableRecord
100
AcDbLayerTableRecord
  2
YKK_A1
 70
     0
 62
     4
  6
CONTINUOUS
370
    -3
390
3F1
  0
ENDTAB
  0
TABLE
  2
STYLE
  5
B
330
0
100
AcDbSymbolTable
 70
     3
  0
STYLE
  5
C
330
B
100
AcDbSymbolTableRecord
100
AcDbTextStyleTableRecord
  2
STANDARD
 70
     0
 40
0.0
 41
1.0
 50
0.0
 71
     0
 42
3.5
  3
txt
  4

  0
STYLE
  5
61
330
B
100
AcDbSymbolTableRecord
100
AcDbTextStyleTableRecord
  2
EXTFONT
 70
     0
 40
0.0
 41
1.0
 50
0.0
 71
     0
 42
3.5
  3
txt.shx
  4
EXTFONT.SHX
  0
STYLE
  5
10D
330
B
100
AcDbSymbolTableRecord
100
AcDbTextStyleTableRecord
  2
YKK_SGSTYLE1
 70
     0
 40
0.0
 41
0.8
 50
0.0
 71
     0
 42
60.0
  3
ROMANS.SHX
  4
EXTFONT.SHX
  0
ENDTAB
  0
TABLE
  2
VIEW
  5
10
330
0
100
AcDbSymbolTable
 70
     0
  0
ENDTAB
  0
TABLE
  2
UCS
  5
11
330
0
100
AcDbSymbolTable
 70
     0
  0
ENDTAB
  0
TABLE
  2
APPID
  5
14
330
0
100
AcDbSymbolTable
 70
     6
  0
APPID
  5
15
330
14
100
AcDbSymbolTableRecord
100
AcDbRegAppTableRecord
  2
ACAD
 70
     0
  0
APPID
  5
CA
330
14
100
AcDbSymbolTableRecord
100
AcDbRegAppTableRecord
  2
ACDBBLOCKREPETAG
 70
     0
  0
APPID
  5
47D
330
14
100
AcDbSymbolTableRecord
100
AcDbRegAppTableRecord
  2
ACAD_MLEADERVER
 70
     0
  0
APPID
  5
492
330
14
100
AcDbSymbolTableRecord
100
AcDbRegAppTableRecord
  2
ACAD_PSEXT
 70
     0
  0
APPID
  5
493
330
14
100
AcDbSymbolTableRecord
100
AcDbRegAppTableRecord
  2
ACAD_NAV_VCDISPLAY
 70
     0
  0
APPID
  5
494
330
14
100
AcDbSymbolTableRecord
100
AcDbRegAppTableRecord
  2
YKK_AP_LOCKLAYER
 70
     0
  0
ENDTAB
  0
TABLE
  2
DIMSTYLE
  5
16
330
0
100
AcDbSymbolTable
 70
     1
100
AcDbDimStyleTable
 71
     0
  0
DIMSTYLE
105
1C
330
16
100
AcDbSymbolTableRecord
100
AcDbDimStyleTableRecord
  2
STANDARD
 70
     0
279
     2
340
C
  0
ENDTAB
  0
TABLE
  2
BLOCK_RECORD
  5
1
330
0
100
AcDbSymbolTable
 70
     0
  0
BLOCK_RECORD
  5
2
330
1
100
AcDbSymbolTableRecord
100
AcDbBlockTableRecord
  2
*MODEL_SPACE
340
444
  0
BLOCK_RECORD
  5
7
330
1
100
AcDbSymbolTableRecord
100
AcDbBlockTableRecord
  2
*PAPER_SPACE
340
445
  0
ENDTAB
  0
ENDSEC
  0
SECTION
  2
BLOCKS
  0
BLOCK
  5
3
330
2
100
AcDbEntity
  8
0
100
AcDbBlockBegin
  2
*MODEL_SPACE
 70
     0
 10
0.0
 20
0.0
 30
0.0
  3
*MODEL_SPACE
  1

  0
ENDBLK
  5
6
330
2
100
AcDbEntity
  8
0
100
AcDbBlockEnd
  0
BLOCK
  5
8
330
7
100
AcDbEntity
 67
     1
  8
0
100
AcDbBlockBegin
  2
*PAPER_SPACE
 70
     0
 10
0.0
 20
0.0
 30
0.0
  3
*PAPER_SPACE
  1

  0
ENDBLK
  5
9
330
7
100
AcDbEntity
 67
     1
  8
0
100
AcDbBlockEnd
  0
ENDSEC
  0
SECTION
  2
ENTITIES
  0
LINE
  5
1D
330
2
100
AcDbEntity
  8
YKK_F1
  6
Continuous
100
AcDbLine
 10
900.039
 20
10207.9363
 30
0.0
 11
28800.039
 21
10207.9363
 31
0.0
  0
LINE
  5
1F
330
2
100
AcDbEntity
  8
YKK_F1
100
AcDbLine
 10
0.0
 20
0.0
 30
0.0
 11
29700.0
 21
0.0
 31
0.0
  0
LINE
  5
20
330
2
100
AcDbEntity
  8
YKK_F1
100
AcDbLine
 10
0.0
 20
21000.0
 30
0.0
 11
29700.0
 21
21000.0
 31
0.0
  0
LINE
  5
21
330
2
100
AcDbEntity
  8
YKK_F1
  6
Continuous
100
AcDbLine
 10
659.77445
 20
20337.97
 30
0.0
 11
29040.229
 21
20337.97
 31
0.0
  0
LINE
  5
22
330
2
100
AcDbEntity
  8
YKK_F1
  6
Continuous
100
AcDbLine
 10
672.18069
 20
20325.566
 30
0.0
 11
29027.821
 21
20325.566
 31
0.0
  0
LINE
  5
23
330
2
100
AcDbEntity
  8
YKK_F1
  6
Continuous
100
AcDbLine
 10
685.15046
 20
20312.594
 30
0.0
 11
29015.417
 21
20312.594
 31
0.0
  0
LINE
  5
24
330
2
100
AcDbEntity
  8
YKK_F1
  6
Continuous
100
AcDbLine
 10
697.5567
 20
20299.624
 30
0.0
 11
29002.445
 21
20299.624
 31
0.0
  0
LINE
  5
25
330
2
100
AcDbEntity
  8
YKK_F1
  6
Continuous
100
AcDbLine
 10
509.77446
 20
20487.406
 30
0.0
 11
29190.79
 21
20487.406
 31
0.0
  0
LINE
  5
26
330
2
100
AcDbEntity
  8
YKK_F1
  6
Continuous
100
AcDbLine
 10
709.96201
 20
20287.219
 30
0.0
 11
28990.039
 21
20287.219
 31
0.0
  0
LINE
  5
27
330
2
100
AcDbEntity
  8
YKK_F1
  6
Continuous
100
AcDbLine
 10
900.039
 20
20117.9363
 30
0.0
 11
28800.039
 21
20117.9363
 31
0.0
  0
LINE
  5
28
330
2
100
AcDbEntity
  8
YKK_F1
  6
Continuous
100
AcDbLine
 10
900.039
 20
13412.9363
 30
0.0
 11
28800.039
 21
13412.9363
 31
0.0
  0
LINE
  5
29
330
2
100
AcDbEntity
  8
YKK_F1
  6
Continuous
100
AcDbLine
 10
900.039
 20
13662.9363
 30
0.0
 11
28800.039
 21
13662.9363
 31
0.0
  0
LINE
  5
2A
330
2
100
AcDbEntity
  8
YKK_F1
  6
Continuous
100
AcDbLine
 10
900.039
 20
19617.9363
 30
0.0
 11
28800.039
 21
19617.9363
 31
0.0
  0
LINE
  5
2B
330
2
100
AcDbEntity
  8
YKK_F1
  6
Continuous
100
AcDbLine
 10
900.039
 20
19367.9363
 30
0.0
 11
28800.039
 21
19367.9363
 31
0.0
  0
LINE
  5
2C
330
2
100
AcDbEntity
  8
YKK_F1
  6
Continuous
100
AcDbLine
 10
900.039
 20
14412.9363
 30
0.0
 11
28800.039
 21
14412.9363
 31
0.0
  0
LINE
  5
2D
330
2
100
AcDbEntity
  8
YKK_F1
  6
Continuous
100
AcDbLine
 10
5550.039
 20
14662.9363
 30
0.0
 11
28800.039
 21
14662.9363
 31
0.0
  0
LINE
  5
2E
330
2
100
AcDbEntity
  8
YKK_F1
  6
Continuous
100
AcDbLine
 10
5550.039
 20
14912.9363
 30
0.0
 11
28800.039
 21
14912.9363
 31
0.0
  0
LINE
  5
2F
330
2
100
AcDbEntity
  8
YKK_F1
  6
Continuous
100
AcDbLine
 10
900.039
 20
15162.9363
 30
0.0
 11
28800.039
 21
15162.9363
 31
0.0
  0
LINE
  5
30
330
2
100
AcDbEntity
  8
YKK_F1
  6
Continuous
100
AcDbLine
 10
900.039
 20
15412.9363
 30
0.0
 11
28800.039
 21
15412.9363
 31
0.0
  0
LINE
  5
31
330
2
100
AcDbEntity
  8
YKK_F1
  6
Continuous
100
AcDbLine
 10
900.039
 20
15662.9363
 30
0.0
 11
28800.039
 21
15662.9363
 31
0.0
  0
LINE
  5
32
330
2
100
AcDbEntity
  8
YKK_F1
  6
Continuous
100
AcDbLine
 10
900.039
 20
15912.9363
 30
0.0
 11
28800.039
 21
15912.9363
 31
0.0
  0
LINE
  5
33
330
2
100
AcDbEntity
  8
YKK_F1
  6
Continuous
100
AcDbLine
 10
900.039
 20
16162.9363
 30
0.0
 11
28800.039
 21
16162.9363
 31
0.0
  0
LINE
  5
34
330
2
100
AcDbEntity
  8
YKK_F1
  6
Continuous
100
AcDbLine
 10
900.039
 20
16412.9363
 30
0.0
 11
28800.039
 21
16412.9363
 31
0.0
  0
LINE
  5
35
330
2
100
AcDbEntity
  8
YKK_F1
  6
Continuous
100
AcDbLine
 10
900.039
 20
14162.9363
 30
0.0
 11
28800.039
 21
14162.9363
 31
0.0
  0
LINE
  5
36
330
2
100
AcDbEntity
  8
YKK_F1
  6
Continuous
100
AcDbLine
 10
29190.79
 20
500.75202
 30
0.0
 11
509.77446
 21
500.75202
 31
0.0
  0
LINE
  5
37
330
2
100
AcDbEntity
  8
YKK_F1
  6
Continuous
100
AcDbLine
 10
29040.229
 20
650.18799
 30
0.0
 11
659.77445
 21
650.18799
 31
0.0
  0
LINE
  5
38
330
2
100
AcDbEntity
  8
YKK_F1
  6
Continuous
100
AcDbLine
 10
28990.039
 20
700.94001
 30
0.0
 11
709.96201
 21
700.94001
 31
0.0
  0
LINE
  5
39
330
2
100
AcDbEntity
  8
YKK_F1
  6
Continuous
100
AcDbLine
 10
29002.445
 20
687.97002
 30
0.0
 11
697.5567
 21
687.97002
 31
0.0
  0
LINE
  5
3A
330
2
100
AcDbEntity
  8
YKK_F1
  6
Continuous
100
AcDbLine
 10
29015.417
 20
675.00009
 30
0.0
 11
685.15046
 21
675.00009
 31
0.0
  0
LINE
  5
3B
330
2
100
AcDbEntity
  8
YKK_F1
  6
Continuous
100
AcDbLine
 10
29027.821
 20
662.59406
 30
0.0
 11
672.18069
 21
662.59406
 31
0.0
  0
LINE
  5
3C
330
2
100
AcDbEntity
  8
YKK_F1
  6
Continuous
100
AcDbLine
 10
659.77445
 20
1949.4363
 30
0.0
 11
29040.229
 21
1949.4363
 31
0.0
  0
LINE
  5
3D
330
2
100
AcDbEntity
  8
YKK_F1
  6
Continuous
100
AcDbLine
 10
900.039
 20
2252.9363
 30
0.0
 11
28800.039
 21
2252.9363
 31
0.0
  0
LINE
  5
3E
330
2
100
AcDbEntity
  8
YKK_F1
  6
Continuous
100
AcDbLine
 10
900.039
 20
8207.9363
 30
0.0
 11
28800.039
 21
8207.9363
 31
0.0
  0
LINE
  5
3F
330
2
100
AcDbEntity
  8
YKK_F1
  6
Continuous
100
AcDbLine
 10
900.039
 20
7707.9363
 30
0.0
 11
28800.039
 21
7707.9363
 31
0.0
  0
LINE
  5
40
330
2
100
AcDbEntity
  8
YKK_F1
  6
Continuous
100
AcDbLine
 10
900.039
 20
7457.9363
 30
0.0
 11
28800.039
 21
7457.9363
 31
0.0
  0
LINE
  5
41
330
2
100
AcDbEntity
  8
YKK_F1
  6
Continuous
100
AcDbLine
 10
900.039
 20
2502.9363
 30
0.0
 11
28800.039
 21
2502.9363
 31
0.0
  0
LINE
  5
42
330
2
100
AcDbEntity
  8
YKK_F1
  6
Continuous
100
AcDbLine
 10
5550.039
 20
2752.9363
 30
0.0
 11
28800.039
 21
2752.9363
 31
0.0
  0
LINE
  5
43
330
2
100
AcDbEntity
  8
YKK_F1
  6
Continuous
100
AcDbLine
 10
5550.039
 20
3002.9363
 30
0.0
 11
28800.039
 21
3002.9363
 31
0.0
  0
LINE
  5
44
330
2
100
AcDbEntity
  8
YKK_F1
  6
Continuous
100
AcDbLine
 10
900.039
 20
3252.9363
 30
0.0
 11
28800.039
 21
3252.9363
 31
0.0
  0
LINE
  5
45
330
2
100
AcDbEntity
  8
YKK_F1
  6
Continuous
100
AcDbLine
 10
900.039
 20
3502.9363
 30
0.0
 11
28800.039
 21
3502.9363
 31
0.0
  0
LINE
  5
46
330
2
100
AcDbEntity
  8
YKK_F1
  6
Continuous
100
AcDbLine
 10
900.039
 20
3752.9363
 30
0.0
 11
28800.039
 21
3752.9363
 31
0.0
  0
LINE
  5
47
330
2
100
AcDbEntity
  8
YKK_F1
  6
Continuous
100
AcDbLine
 10
900.039
 20
4002.9363
 30
0.0
 11
28800.039
 21
4002.9363
 31
0.0
  0
LINE
  5
48
330
2
100
AcDbEntity
  8
YKK_F1
  6
Continuous
100
AcDbLine
 10
900.039
 20
4252.9363
 30
0.0
 11
28800.039
 21
4252.9363
 31
0.0
  0
LINE
  5
49
330
2
100
AcDbEntity
  8
YKK_F1
  6
Continuous
100
AcDbLine
 10
900.039
 20
4502.9363
 30
0.0
 11
28800.039
 21
4502.9363
 31
0.0
  0
LINE
  5
4A
330
2
100
AcDbEntity
  8
YKK_F1
  6
Continuous
100
AcDbLine
 10
900.039
 20
10457.9363
 30
0.0
 11
28800.039
 21
10457.9363
 31
0.0
  0
LINE
  5
4B
330
2
100
AcDbEntity
  8
YKK_F1
  6
Continuous
100
AcDbLine
 10
900.039
 20
9957.9363
 30
0.0
 11
28800.039
 21
9957.9363
 31
0.0
  0
LINE
  5
4C
330
2
100
AcDbEntity
  8
YKK_F1
  6
Continuous
100
AcDbLine
 10
900.039
 20
9707.9363
 30
0.0
 11
28800.039
 21
9707.9363
 31
0.0
  0
LINE
  5
4D
330
2
100
AcDbEntity
  8
YKK_F1
  6
Continuous
100
AcDbLine
 10
900.039
 20
9457.9363
 30
0.0
 11
28800.039
 21
9457.9363
 31
0.0
  0
LINE
  5
4E
330
2
100
AcDbEntity
  8
YKK_F1
  6
Continuous
100
AcDbLine
 10
900.039
 20
9207.9363
 30
0.0
 11
28800.039
 21
9207.9363
 31
0.0
  0
LINE
  5
4F
330
2
100
AcDbEntity
  8
YKK_F1
  6
Continuous
100
AcDbLine
 10
5550.039
 20
8957.9363
 30
0.0
 11
28800.039
 21
8957.9363
 31
0.0
  0
LINE
  5
50
330
2
100
AcDbEntity
  8
YKK_F1
  6
Continuous
100
AcDbLine
 10
5550.039
 20
8707.9363
 30
0.0
 11
28800.039
 21
8707.9363
 31
0.0
  0
LINE
  5
51
330
2
100
AcDbEntity
  8
YKK_F1
  6
Continuous
100
AcDbLine
 10
900.039
 20
8457.9363
 30
0.0
 11
28800.039
 21
8457.9363
 31
0.0
  0
LINE
  5
52
330
2
100
AcDbEntity
  8
YKK_F1
100
AcDbLine
 10
0.0
 20
0.0
 30
0.0
 11
0.0
 21
21000.0
 31
0.0
  0
LINE
  5
53
330
2
100
AcDbEntity
  8
YKK_F1
  6
Continuous
100
AcDbLine
 10
10200.039
 20
2252.9363
 30
0.0
 11
10200.039
 21
20117.9363
 31
0.0
  0
LINE
  5
54
330
2
100
AcDbEntity
  8
YKK_F1
  6
Continuous
100
AcDbLine
 10
5550.039
 20
2252.9363
 30
0.0
 11
5550.039
 21
20117.9363
 31
0.0
  0
LINE
  5
55
330
2
100
AcDbEntity
  8
YKK_F1
  6
Continuous
100
AcDbLine
 10
509.77446
 20
500.75202
 30
0.0
 11
509.77446
 21
20487.406
 31
0.0
  0
LINE
  5
56
330
2
100
AcDbEntity
  8
YKK_F1
  6
Continuous
100
AcDbLine
 10
659.77445
 20
650.18799
 30
0.0
 11
659.77445
 21
20337.97
 31
0.0
  0
LINE
  5
57
330
2
100
AcDbEntity
  8
YKK_F1
  6
Continuous
100
AcDbLine
 10
672.18069
 20
662.59406
 30
0.0
 11
672.18069
 21
20325.566
 31
0.0
  0
LINE
  5
58
330
2
100
AcDbEntity
  8
YKK_F1
  6
Continuous
100
AcDbLine
 10
685.15046
 20
675.00009
 30
0.0
 11
685.15046
 21
20312.594
 31
0.0
  0
LINE
  5
59
330
2
100
AcDbEntity
  8
YKK_F1
  6
Continuous
100
AcDbLine
 10
697.5567
 20
687.97002
 30
0.0
 11
697.5567
 21
20299.624
 31
0.0
  0
LINE
  5
5A
330
2
100
AcDbEntity
  8
YKK_F1
  6
Continuous
100
AcDbLine
 10
709.96201
 20
700.94001
 30
0.0
 11
709.96201
 21
20287.219
 31
0.0
  0
LINE
  5
5B
330
2
100
AcDbEntity
  8
YKK_F1
  6
Continuous
100
AcDbLine
 10
900.039
 20
2252.9363
 30
0.0
 11
900.039
 21
20117.9363
 31
0.0
  0
LINE
  5
5C
330
2
100
AcDbEntity
  8
YKK_F1
  6
Continuous
100
AcDbLine
 10
10604.323
 20
1701.3159
 30
0.0
 11
659.77445
 21
1701.3159
 31
0.0
  0
LINE
  5
5D
330
2
100
AcDbEntity
  8
YKK_F1
  6
Continuous
100
AcDbLine
 10
10604.323
 20
1450.376
 30
0.0
 11
659.77445
 21
1450.376
 31
0.0
  0
LINE
  5
5E
330
2
100
AcDbEntity
  8
YKK_F1
  6
Continuous
100
AcDbLine
 10
10604.323
 20
1200.5641
 30
0.0
 11
659.77445
 21
1200.5641
 31
0.0
  0
LINE
  5
5F
330
2
100
AcDbEntity
  8
YKK_F1
  6
Continuous
100
AcDbLine
 10
10604.323
 20
950.75203
 30
0.0
 11
659.77445
 21
950.75203
 31
0.0
  0
TEXT
  5
60
330
2
100
AcDbEntity
  8
YKK_F1
100
AcDbText
 10
2183.67067185
 20
3772.9363
 30
0.0
 40
200.0
  1
材　　　　　　　質
  7
EXTFONT
 72
     1
 11
3237.00400518
 21
3772.9363
 31
0.0
100
AcDbText
  0
TEXT
  5
62
330
2
100
AcDbEntity
  8
YKK_F1
100
AcDbText
 10
759.96201
 20
1776.3159
 30
0.0
 40
100.0
  1
付記：
  7
EXTFONT
100
AcDbText
  0
TEXT
  5
63
330
2
100
AcDbEntity
  8
YKK_F1
100
AcDbText
 10
2183.67067185
 20
3522.9363
 30
0.0
 40
200.0
  1
仕　　　　　　　上
  7
EXTFONT
 72
     1
 11
3237.00400518
 21
3522.9363
 31
0.0
100
AcDbText
  0
TEXT
  5
64
330
2
100
AcDbEntity
  8
YKK_F1
100
AcDbText
 10
2183.67067185
 20
2272.9363
 30
0.0
 40
200.0
  1
備　　　　　　　考
  7
EXTFONT
 72
     1
 11
3237.00400518
 21
2272.9363
 31
0.0
100
AcDbText
  0
TEXT
  5
65
330
2
100
AcDbEntity
  8
YKK_F1
100
AcDbText
 10
1817.00400518
 20
3272.9363
 30
0.0
 40
200.0
  1
ガラス・種類・ガラス押え
  7
EXTFONT
 72
     1
 11
3237.00400518
 21
3272.9363
 31
0.0
100
AcDbText
  0
TEXT
  5
66
330
2
100
AcDbEntity
  8
YKK_F1
100
AcDbText
 10
2063.67067185
 20
2897.9363
 30
0.0
 40
200.0
  1
建　　具　　金　　物
  7
EXTFONT
 72
     1
 11
3237.00400518
 21
2897.9363
 31
0.0
100
AcDbText
  0
TEXT
  5
67
330
2
100
AcDbEntity
  8
YKK_F1
100
AcDbText
 10
1937.00400518
 20
2647.9363
 30
0.0
 40
200.0
  1
(付　　属　　金　　物)
  7
EXTFONT
 72
     1
 11
3237.00400518
 21
2647.9363
 31
0.0
100
AcDbText
  0
TEXT
  5
68
330
2
100
AcDbEntity
  8
YKK_F1
100
AcDbText
 10
1259.96201
 20
949.6242
 30
0.0
 40
250.0
  1
*
  7
EXTFONT
100
AcDbText
  0
TEXT
  5
69
330
2
100
AcDbEntity
  8
YKK_F1
100
AcDbText
 10
1259.96201
 20
699.6242
 30
0.0
 40
250.0
  1
*
  7
EXTFONT
100
AcDbText
  0
TEXT
  5
6A
330
2
100
AcDbEntity
  8
YKK_F1
100
AcDbText
 10
1259.96201
 20
1200.376
 30
0.0
 40
250.0
  1
*
  7
EXTFONT
100
AcDbText
  0
TEXT
  5
6B
330
2
100
AcDbEntity
  8
YKK_F1
100
AcDbText
 10
1259.96201
 20
1701.3159
 30
0.0
 40
250.0
  1
*
  7
EXTFONT
100
AcDbText
  0
TEXT
  5
6C
330
2
100
AcDbEntity
  8
YKK_F1
100
AcDbText
 10
1259.96201
 20
1450.376
 30
0.0
 40
250.0
  1
*
  7
EXTFONT
100
AcDbText
  0
TEXT
  5
6D
330
2
100
AcDbEntity
  8
YKK_F1
100
AcDbText
 10
1283.67067185
 20
4022.9363
 30
0.0
 40
200.0
  1
寸法・見付・見込（枠見付・枠見込）
  7
EXTFONT
 72
     1
 11
3237.00400518
 21
4022.9363
 31
0.0
100
AcDbText
  0
TEXT
  5
6E
330
2
100
AcDbEntity
  8
YKK_F1
100
AcDbText
 10
1703.67067185
 20
4272.9363
 30
0.0
 40
200.0
  1
型式・防音・エアタイト仕様
  7
EXTFONT
 72
     1
 11
3237.00400518
 21
4272.9363
 31
0.0
100
AcDbText
  0
TEXT
  5
6F
330
2
100
AcDbEntity
  8
YKK_F1
100
AcDbText
 10
2190.33733852
 20
5900.4363
 30
0.0
 40
200.0
  1
姿　　　　　　　図
  7
EXTFONT
 72
     1
 11
3237.00400518
 21
5900.4363
 31
0.0
100
AcDbText
  0
TEXT
  5
70
330
2
100
AcDbEntity
  8
YKK_F1
100
AcDbText
 10
1283.67067185
 20
9977.9363
 30
0.0
 40
200.0
  1
寸法・見付・見込（枠見付・枠見込）
  7
EXTFONT
 72
     1
 11
3237.00400518
 21
9977.9363
 31
0.0
100
AcDbText
  0
TEXT
  5
71
330
2
100
AcDbEntity
  8
YKK_F1
100
AcDbText
 10
2183.67067185
 20
9477.9363
 30
0.0
 40
200.0
  1
仕　　　　　　　上
  7
EXTFONT
 72
     1
 11
3237.00400518
 21
9477.9363
 31
0.0
100
AcDbText
  0
TEXT
  5
72
330
2
100
AcDbEntity
  8
YKK_F1
100
AcDbText
 10
2183.67067185
 20
8227.9363
 30
0.0
 40
200.0
  1
備　　　　　　　考
  7
EXTFONT
 72
     1
 11
3237.00400518
 21
8227.9363
 31
0.0
100
AcDbText
  0
TEXT
  5
73
330
2
100
AcDbEntity
  8
YKK_F1
100
AcDbText
 10
2183.67067185
 20
9727.9363
 30
0.0
 40
200.0
  1
材　　　　　　　質
  7
EXTFONT
 72
     1
 11
3237.00400518
 21
9727.9363
 31
0.0
100
AcDbText
  0
TEXT
  5
74
330
2
100
AcDbEntity
  8
YKK_F1
100
AcDbText
 10
1817.00400518
 20
9227.9363
 30
0.0
 40
200.0
  1
ガラス・種類・ガラス押え
  7
EXTFONT
 72
     1
 11
3237.00400518
 21
9227.9363
 31
0.0
100
AcDbText
  0
TEXT
  5
75
330
2
100
AcDbEntity
  8
YKK_F1
100
AcDbText
 10
2063.67067185
 20
8852.9363
 30
0.0
 40
200.0
  1
建　　具　　金　　物
  7
EXTFONT
 72
     1
 11
3237.00400518
 21
8852.9363
 31
0.0
100
AcDbText
  0
TEXT
  5
76
330
2
100
AcDbEntity
  8
YKK_F1
100
AcDbText
 10
1937.00400518
 20
8602.9363
 30
0.0
 40
200.0
  1
(付　　属　　金　　物)
  7
EXTFONT
 72
     1
 11
3237.00400518
 21
8602.9363
 31
0.0
100
AcDbText
  0
TEXT
  5
77
330
2
100
AcDbEntity
  8
YKK_F1
100
AcDbText
 10
1703.67067185
 20
10227.9363
 30
0.0
 40
200.0
  1
型式・防音・エアタイト仕様
  7
EXTFONT
 72
     1
 11
3237.00400518
 21
10227.9363
 31
0.0
100
AcDbText
  0
TEXT
  5
78
330
2
100
AcDbEntity
  8
YKK_F1
100
AcDbText
 10
2183.67067185
 20
7477.9363
 30
0.0
 40
200.0
  1
使用箇所・防火仕様
  7
EXTFONT
 72
     1
 11
3237.00400518
 21
7477.9363
 31
0.0
100
AcDbText
  0
TEXT
  5
79
330
2
100
AcDbEntity
  8
YKK_F1
100
AcDbText
 10
2183.67067185
 20
7832.9363
 30
0.0
 40
200.0
  1
符　号　・　数　量
  7
EXTFONT
 72
     1
 11
3237.00400518
 21
7832.9363
 31
0.0
100
AcDbText
  0
TEXT
  5
7A
330
2
100
AcDbEntity
  8
0
100
AcDbText
 10
5650.039
 20
3777.9363
 30
0.0
 40
200.0
  1
＊
  7
EXTFONT
100
AcDbText
  0
TEXT
  5
7B
330
2
100
AcDbEntity
  8
0
100
AcDbText
 10
10300.039
 20
3777.9363
 30
0.0
 40
200.0
  1
＊
  7
EXTFONT
100
AcDbText
  0
TEXT
  5
7C
330
2
100
AcDbEntity
  8
0
100
AcDbText
 10
5650.039
 20
3027.9363
 30
0.0
 40
200.0
  1
＊
  7
EXTFONT
100
AcDbText
  0
TEXT
  5
7D
330
2
100
AcDbEntity
  8
0
100
AcDbText
 10
5650.039
 20
2277.9363
 30
0.0
 40
200.0
  1
＊
  7
EXTFONT
100
AcDbText
  0
TEXT
  5
7E
330
2
100
AcDbEntity
  8
0
100
AcDbText
 10
5650.039
 20
2527.9363
 30
0.0
 40
200.0
  1
＊
  7
EXTFONT
100
AcDbText
  0
TEXT
  5
7F
330
2
100
AcDbEntity
  8
0
100
AcDbText
 10
5650.039
 20
2777.9363
 30
0.0
 40
200.0
  1
＊
  7
EXTFONT
100
AcDbText
  0
TEXT
  5
80
330
2
100
AcDbEntity
  8
0
100
AcDbText
 10
5650.039
 20
3277.9363
 30
0.0
 40
200.0
  1
＊
  7
EXTFONT
100
AcDbText
  0
TEXT
  5
81
330
2
100
AcDbEntity
  8
0
100
AcDbText
 10
5650.039
 20
3527.9363
 30
0.0
 40
200.0
  1
＊
  7
EXTFONT
100
AcDbText
  0
LINE
  5
82
330
2
100
AcDbEntity
  8
YKK_F1
  6
Continuous
100
AcDbLine
 10
10604.323
 20
1949.4363
 30
0.0
 11
10604.323
 21
650.18799
 31
0.0
  0
LINE
  5
83
330
2
100
AcDbEntity
  8
YKK_F1
  6
Continuous
100
AcDbLine
 10
12103.196
 20
1949.4363
 30
0.0
 11
12103.196
 21
650.18799
 31
0.0
  0
TEXT
  5
84
330
2
100
AcDbEntity
  8
YKK_F1
100
AcDbText
 10
10654.323
 20
1816.3159
 30
0.0
 40
100.0
  1
審査　　年　　月　　日
  7
EXTFONT
100
AcDbText
  0
TEXT
  5
85
330
2
100
AcDbEntity
  8
YKK_F1
100
AcDbText
 10
10654.323
 20
984.5488
 30
0.0
 40
100.0
  1
測量　　年　　月　　日
  7
EXTFONT
100
AcDbText
  0
TEXT
  5
86
330
2
100
AcDbEntity
  8
YKK_F1
100
AcDbText
 10
10654.323
 20
1401.2782
 30
0.0
 40
100.0
  1
設計　　年　　月　　日
  7
EXTFONT
100
AcDbText
  0
TEXT
  5
87
330
2
100
AcDbEntity
  8
YKK_F1
  6
Continuous
100
AcDbText
 10
10820.301
 20
1583.4588
 30
0.0
 40
150.0
  1
**,**,**
100
AcDbText
  0
TEXT
  5
88
330
2
100
AcDbEntity
  8
YKK_F1
  6
Continuous
100
AcDbText
 10
10820.301
 20
1166.7294
 30
0.0
 40
150.0
  1
**,**,**
100
AcDbText
  0
TEXT
  5
89
330
2
100
AcDbEntity
  8
YKK_F1
  6
Continuous
100
AcDbText
 10
10820.301
 20
750.0
 30
0.0
 40
150.0
  1
**,**,**
100
AcDbText
  0
LINE
  5
8A
330
2
100
AcDbEntity
  8
YKK_F1
  6
Continuous
100
AcDbLine
 10
12103.196
 20
1534.3986
 30
0.0
 11
10604.323
 21
1534.3986
 31
0.0
  0
LINE
  5
8B
330
2
100
AcDbEntity
  8
YKK_F1
  6
Continuous
100
AcDbLine
 10
12103.196
 20
1117.6692
 30
0.0
 11
10604.323
 21
1117.6692
 31
0.0
  0
TEXT
  5
8C
330
2
100
AcDbEntity
  8
0
100
AcDbText
 10
10300.039
 20
3027.9363
 30
0.0
 40
200.0
  1
＊
  7
EXTFONT
100
AcDbText
  0
TEXT
  5
8D
330
2
100
AcDbEntity
  8
0
100
AcDbText
 10
10300.039
 20
2277.9363
 30
0.0
 40
200.0
  1
＊
  7
EXTFONT
100
AcDbText
  0
TEXT
  5
8E
330
2
100
AcDbEntity
  8
0
100
AcDbText
 10
10300.039
 20
2527.9363
 30
0.0
 40
200.0
  1
＊
  7
EXTFONT
100
AcDbText
  0
TEXT
  5
8F
330
2
100
AcDbEntity
  8
0
100
AcDbText
 10
10300.039
 20
2777.9363
 30
0.0
 40
200.0
  1
＊
  7
EXTFONT
100
AcDbText
  0
TEXT
  5
90
330
2
100
AcDbEntity
  8
0
100
AcDbText
 10
10300.039
 20
3277.9363
 30
0.0
 40
200.0
  1
＊
  7
EXTFONT
100
AcDbText
  0
TEXT
  5
91
330
2
100
AcDbEntity
  8
0
100
AcDbText
 10
10300.039
 20
3527.9363
 30
0.0
 40
200.0
  1
＊
  7
EXTFONT
100
AcDbText
  0
TEXT
  5
92
330
2
100
AcDbEntity
  8
0
100
AcDbText
 10
5650.039
 20
4277.9363
 30
0.0
 40
200.0
  1
＊
  7
EXTFONT
100
AcDbText
  0
TEXT
  5
93
330
2
100
AcDbEntity
  8
0
100
AcDbText
 10
5650.039
 20
4027.9363
 30
0.0
 40
200.0
  1
＊
  7
EXTFONT
100
AcDbText
  0
TEXT
  5
94
330
2
100
AcDbEntity
  8
0
100
AcDbText
 10
5650.039
 20
9482.9363
 30
0.0
 40
200.0
  1
シルバー･ｶﾗｰ(ブロンズ､ステン､ブラック)
  7
EXTFONT
100
AcDbText
  0
TEXT
  5
95
330
2
100
AcDbEntity
  8
0
100
AcDbText
 10
5650.039
 20
8232.9363
 30
0.0
 40
200.0
  1
YKKAP　EXIMA51e同等品
  7
EXTFONT
100
AcDbText
  0
TEXT
  5
96
330
2
100
AcDbEntity
  8
0
100
AcDbText
 10
5650.039
 20
10232.9363
 30
0.0
 40
170.0
  1
自由開きドア【フロアヒンジドア】(FIX段窓)
  7
EXTFONT
100
AcDbText
  0
TEXT
  5
97
330
2
100
AcDbEntity
  8
0
100
AcDbText
 10
5650.039
 20
9982.9363
 30
0.0
 40
200.0
  1
W=900  H=2,500  見込100
  7
EXTFONT
100
AcDbText
  0
TEXT
  5
98
330
2
100
AcDbEntity
  8
0
100
AcDbText
 10
5650.039
 20
8982.9363
 30
0.0
 40
200.0
  1
小口キャップ・フランス落し・本締り錠
  7
EXTFONT
100
AcDbText
  0
TEXT
  5
99
330
2
100
AcDbEntity
  8
0
100
AcDbText
 10
5650.039
 20
8732.9363
 30
0.0
 40
200.0
  1
＊
  7
EXTFONT
100
AcDbText
  0
CIRCLE
  5
9A
330
2
100
AcDbEntity
  8
YKK_F1
100
AcDbCircle
 10
5950.039
 20
7957.9363
 30
0.0
 40
233.3333333333333
  0
TEXT
  5
9B
330
2
100
AcDbEntity
  8
0
100
AcDbText
 10
5850.039
 20
7957.9363
 30
0.0
 40
200.0
  1
＊
  7
EXTFONT
100
AcDbText
  0
LINE
  5
9C
330
2
100
AcDbEntity
  8
YKK_F1
  6
Continuous
100
AcDbLine
 10
5716.70566667
 20
7957.9363
 30
0.0
 11
6183.37233333
 21
7957.9363
 31
0.0
  0
TEXT
  5
9D
330
2
100
AcDbEntity
  8
0
100
AcDbText
 10
5650.039
 20
7482.9363
 30
0.0
 40
200.0
  1
＊
  7
EXTFONT
100
AcDbText
  0
TEXT
  5
9E
330
2
100
AcDbEntity
  8
YKK_F1
100
AcDbText
 10
5790.039
 20
7757.9363
 30
0.0
 40
160.0
  1
ＡＷ
  7
EXTFONT
100
AcDbText
  0
TEXT
  5
9F
330
2
100
AcDbEntity
  8
0
100
AcDbText
 10
5650.039
 20
8482.9363
 30
0.0
 40
200.0
  1
＊
  7
EXTFONT
100
AcDbText
  0
TEXT
  5
A0
330
2
100
AcDbEntity
  8
0
100
AcDbText
 10
5650.039
 20
9232.9363
 30
0.0
 40
200.0
  1
FL・透明
  7
EXTFONT
100
AcDbText
  0
TEXT
  5
A1
330
2
100
AcDbEntity
  8
0
100
AcDbText
 10
5650.039
 20
9732.9363
 30
0.0
 40
200.0
  1
アルミ製
  7
EXTFONT
100
AcDbText
  0
TEXT
  5
A2
330
2
100
AcDbEntity
  8
0
100
AcDbText
 10
8950.039
 20
7482.9363
 30
0.0
 40
200.0
  1
＊
  7
EXTFONT
100
AcDbText
  0
TEXT
  5
A3
330
2
100
AcDbEntity
  8
0
100
AcDbText
 10
9250.039
 20
7732.9363
 30
0.0
 40
200.0
  1
＊
  7
EXTFONT
100
AcDbText
  0
TEXT
  5
A4
330
2
100
AcDbEntity
  8
YKK_F1
100
AcDbText
 10
9670.039
 20
7732.9363
 30
0.0
 40
200.0
  1
箇所
  7
EXTFONT
100
AcDbText
  0
TEXT
  5
A5
330
2
100
AcDbEntity
  8
0
100
AcDbText
 10
10300.039
 20
4277.9363
 30
0.0
 40
200.0
  1
＊
  7
EXTFONT
100
AcDbText
  0
TEXT
  5
A6
330
2
100
AcDbEntity
  8
0
100
AcDbText
 10
10300.039
 20
4027.9363
 30
0.0
 40
200.0
  1
＊
  7
EXTFONT
100
AcDbText
  0
TEXT
  5
A7
330
2
100
AcDbEntity
  8
0
100
AcDbText
 10
10300.039
 20
8232.9363
 30
0.0
 40
200.0
  1
YKKAP　EXIMA51e同等品
  7
EXTFONT
100
AcDbText
  0
TEXT
  5
A8
330
2
100
AcDbEntity
  8
0
100
AcDbText
 10
10300.039
 20
9482.9363
 30
0.0
 40
200.0
  1
シルバー･ｶﾗｰ(ブロンズ､ステン､ブラック)
  7
EXTFONT
100
AcDbText
  0
TEXT
  5
A9
330
2
100
AcDbEntity
  8
0
100
AcDbText
 10
10300.039
 20
9982.9363
 30
0.0
 40
200.0
  1
W=1,800  H=2,500  見込100
  7
EXTFONT
100
AcDbText
  0
TEXT
  5
AA
330
2
100
AcDbEntity
  8
0
100
AcDbText
 10
10300.039
 20
10232.9363
 30
0.0
 40
170.0
  1
自由開きドア【フロアヒンジドア】(FIX段窓)
  7
EXTFONT
100
AcDbText
  0
TEXT
  5
AB
330
2
100
AcDbEntity
  8
0
100
AcDbText
 10
10300.039
 20
8982.9363
 30
0.0
 40
200.0
  1
小口キャップ・フランス落し・本締り錠
  7
EXTFONT
100
AcDbText
  0
TEXT
  5
AC
330
2
100
AcDbEntity
  8
0
100
AcDbText
 10
10300.039
 20
8732.9363
 30
0.0
 40
200.0
  1
＊
  7
EXTFONT
100
AcDbText
  0
CIRCLE
  5
AD
330
2
100
AcDbEntity
  8
YKK_F1
100
AcDbCircle
 10
10600.039
 20
7957.9363
 30
0.0
 40
233.3333333333333
  0
TEXT
  5
AE
330
2
100
AcDbEntity
  8
0
100
AcDbText
 10
10500.039
 20
7957.9363
 30
0.0
 40
200.0
  1
＊
  7
EXTFONT
100
AcDbText
  0
LINE
  5
AF
330
2
100
AcDbEntity
  8
YKK_F1
  6
Continuous
100
AcDbLine
 10
10366.70566667
 20
7957.9363
 30
0.0
 11
10833.37233333
 21
7957.9363
 31
0.0
  0
TEXT
  5
B0
330
2
100
AcDbEntity
  8
0
100
AcDbText
 10
10300.039
 20
7482.9363
 30
0.0
 40
200.0
  1
＊
  7
EXTFONT
100
AcDbText
  0
TEXT
  5
B1
330
2
100
AcDbEntity
  8
YKK_F1
100
AcDbText
 10
10440.039
 20
7757.9363
 30
0.0
 40
160.0
  1
ＡＷ
  7
EXTFONT
100
AcDbText
  0
TEXT
  5
B2
330
2
100
AcDbEntity
  8
0
100
AcDbText
 10
10300.039
 20
8482.9363
 30
0.0
 40
200.0
  1
＊
  7
EXTFONT
100
AcDbText
  0
TEXT
  5
B3
330
2
100
AcDbEntity
  8
0
100
AcDbText
 10
10300.039
 20
9232.9363
 30
0.0
 40
200.0
  1
FL・透明
  7
EXTFONT
100
AcDbText
  0
TEXT
  5
B4
330
2
100
AcDbEntity
  8
0
100
AcDbText
 10
10300.039
 20
9732.9363
 30
0.0
 40
200.0
  1
アルミ製
  7
EXTFONT
100
AcDbText
  0
TEXT
  5
B5
330
2
100
AcDbEntity
  8
0
100
AcDbText
 10
13600.039
 20
7482.9363
 30
0.0
 40
200.0
  1
＊
  7
EXTFONT
100
AcDbText
  0
TEXT
  5
B6
330
2
100
AcDbEntity
  8
0
100
AcDbText
 10
13900.039
 20
7732.9363
 30
0.0
 40
200.0
  1
＊
  7
EXTFONT
100
AcDbText
  0
TEXT
  5
B7
330
2
100
AcDbEntity
  8
YKK_F1
100
AcDbText
 10
14320.039
 20
7732.9363
 30
0.0
 40
200.0
  1
箇所
  7
EXTFONT
100
AcDbText
  0
TEXT
  5
B8
330
2
100
AcDbEntity
  8
0
100
AcDbText
 10
1009.77446
 20
20612.406
 30
0.0
 40
250.0
  1
ＦＡＥ５ＤＲ５１　ＥＸＩＭＡ５１ｅ　ＡＬＣ枠　自由開きドア 【フロアヒンジドア】
  7
EXTFONT
100
AcDbText
  0
TEXT
  5
B9
330
2
100
AcDbEntity
  8
YKK_F1
100
AcDbText
 10
2183.67067185
 20
13432.9363
 30
0.0
 40
200.0
  1
使用箇所・防火仕様
  7
EXTFONT
 72
     1
 11
3237.00400518
 21
13432.9363
 31
0.0
100
AcDbText
  0
TEXT
  5
BA
330
2
100
AcDbEntity
  8
YKK_F1
100
AcDbText
 10
2190.33733852
 20
11855.4363
 30
0.0
 40
200.0
  1
姿　　　　　　　図
  7
EXTFONT
 72
     1
 11
3237.00400518
 21
11855.4363
 31
0.0
100
AcDbText
  0
TEXT
  5
BB
330
2
100
AcDbEntity
  8
YKK_F1
100
AcDbText
 10
2183.67067185
 20
15432.9363
 30
0.0
 40
200.0
  1
仕　　　　　　　上
  7
EXTFONT
 72
     1
 11
3237.00400518
 21
15432.9363
 31
0.0
100
AcDbText
  0
TEXT
  5
BC
330
2
100
AcDbEntity
  8
YKK_F1
100
AcDbText
 10
2183.67067185
 20
14182.9363
 30
0.0
 40
200.0
  1
備　　　　　　　考
  7
EXTFONT
 72
     1
 11
3237.00400518
 21
14182.9363
 31
0.0
100
AcDbText
  0
TEXT
  5
BD
330
2
100
AcDbEntity
  8
YKK_F1
100
AcDbText
 10
2183.67067185
 20
15682.9363
 30
0.0
 40
200.0
  1
材　　　　　　　質
  7
EXTFONT
 72
     1
 11
3237.00400518
 21
15682.9363
 31
0.0
100
AcDbText
  0
TEXT
  5
BE
330
2
100
AcDbEntity
  8
YKK_F1
100
AcDbText
 10
1817.00400518
 20
15182.9363
 30
0.0
 40
200.0
  1
ガラス・種類・ガラス押え
  7
EXTFONT
 72
     1
 11
3237.00400518
 21
15182.9363
 31
0.0
100
AcDbText
  0
TEXT
  5
BF
330
2
100
AcDbEntity
  8
YKK_F1
100
AcDbText
 10
2063.67067185
 20
14807.9363
 30
0.0
 40
200.0
  1
建　　具　　金　　物
  7
EXTFONT
 72
     1
 11
3237.00400518
 21
14807.9363
 31
0.0
100
AcDbText
  0
TEXT
  5
C0
330
2
100
AcDbEntity
  8
YKK_F1
100
AcDbText
 10
1937.00400518
 20
14557.9363
 30
0.0
 40
200.0
  1
(付　　属　　金　　物)
  7
EXTFONT
 72
     1
 11
3237.00400518
 21
14557.9363
 31
0.0
100
AcDbText
  0
TEXT
  5
C1
330
2
100
AcDbEntity
  8
YKK_F1
100
AcDbText
 10
1283.67067185
 20
15932.9363
 30
0.0
 40
200.0
  1
寸法・見付・見込（枠見付・枠見込）
  7
EXTFONT
 72
     1
 11
3237.00400518
 21
15932.9363
 31
0.0
100
AcDbText
  0
TEXT
  5
C2
330
2
100
AcDbEntity
  8
YKK_F1
100
AcDbText
 10
1703.67067185
 20
16182.9363
 30
0.0
 40
200.0
  1
型式・防音・エアタイト仕様
  7
EXTFONT
 72
     1
 11
3237.00400518
 21
16182.9363
 31
0.0
100
AcDbText
  0
TEXT
  5
C3
330
2
100
AcDbEntity
  8
YKK_F1
100
AcDbText
 10
2183.67067185
 20
13787.9363
 30
0.0
 40
200.0
  1
符　号　・　数　量
  7
EXTFONT
 72
     1
 11
3237.00400518
 21
13787.9363
 31
0.0
100
AcDbText
  0
TEXT
  5
C4
330
2
100
AcDbEntity
  8
YKK_F1
100
AcDbText
 10
2183.67067185
 20
19387.9363
 30
0.0
 40
200.0
  1
使用箇所・防火仕様
  7
EXTFONT
 72
     1
 11
3237.00400518
 21
19387.9363
 31
0.0
100
AcDbText
  0
TEXT
  5
C5
330
2
100
AcDbEntity
  8
YKK_F1
100
AcDbText
 10
2183.67067185
 20
19742.9363
 30
0.0
 40
200.0
  1
符　号　・　数　量
  7
EXTFONT
 72
     1
 11
3237.00400518
 21
19742.9363
 31
0.0
100
AcDbText
  0
TEXT
  5
C6
330
2
100
AcDbEntity
  8
YKK_F1
100
AcDbText
 10
2190.33733852
 20
17810.4363
 30
0.0
 40
200.0
  1
姿　　　　　　　図
  7
EXTFONT
 72
     1
 11
3237.00400518
 21
17810.4363
 31
0.0
100
AcDbText
  0
TEXT
  5
E7
330
2
100
AcDbEntity
  8
YKK_F1
100
AcDbText
 10
5790.039
 20
13712.9363
 30
0.0
 40
160.0
  1
ＡＷ
  7
EXTFONT
100
AcDbText
  0
CIRCLE
  5
E8
330
2
100
AcDbEntity
  8
YKK_F1
100
AcDbCircle
 10
5950.039
 20
13912.9363
 30
0.0
 40
233.3333333333333
  0
TEXT
  5
E9
330
2
100
AcDbEntity
  8
0
100
AcDbText
 10
9250.039
 20
13687.9363
 30
0.0
 40
200.0
  1
＊
  7
EXTFONT
100
AcDbText
  0
TEXT
  5
EA
330
2
100
AcDbEntity
  8
YKK_F1
100
AcDbText
 10
9670.039
 20
13687.9363
 30
0.0
 40
200.0
  1
箇所
  7
EXTFONT
100
AcDbText
  0
TEXT
  5
FE
330
2
100
AcDbEntity
  8
0
100
AcDbText
 10
5650.039
 20
13437.9363
 30
0.0
 40
200.0
  1
＊
  7
EXTFONT
100
AcDbText
  0
TEXT
  5
10B
330
2
100
AcDbEntity
  8
0
100
AcDbText
 10
8950.039
 20
13437.9363
 30
0.0
 40
200.0
  1
＊
  7
EXTFONT
100
AcDbText
  0
TEXT
  5
115
330
2
100
AcDbEntity
  8
0
100
AcDbText
 10
5650.039
 20
15937.9363
 30
0.0
 40
200.0
  1
W=900  H=2,000  見込100
  7
EXTFONT
100
AcDbText
  0
TEXT
  5
116
330
2
100
AcDbEntity
  8
0
100
AcDbText
 10
5650.039
 20
14187.9363
 30
0.0
 40
200.0
  1
YKKAP　EXIMA51e同等品
  7
EXTFONT
100
AcDbText
  0
TEXT
  5
117
330
2
100
AcDbEntity
  8
0
100
AcDbText
 10
5650.039
 20
15437.9363
 30
0.0
 40
200.0
  1
シルバー･ｶﾗｰ(ブロンズ､ステン､ブラック)
  7
EXTFONT
100
AcDbText
  0
TEXT
  5
118
330
2
100
AcDbEntity
  8
0
100
AcDbText
 10
5650.039
 20
16187.9363
 30
0.0
 40
200.0
  1
自由開きドア【フロアヒンジドア】
  7
EXTFONT
100
AcDbText
  0
TEXT
  5
119
330
2
100
AcDbEntity
  8
0
100
AcDbText
 10
5650.039
 20
14937.9363
 30
0.0
 40
200.0
  1
小口キャップ・フランス落し・本締り錠
  7
EXTFONT
100
AcDbText
  0
LINE
  5
11A
330
2
100
AcDbEntity
  8
YKK_F1
  6
Continuous
100
AcDbLine
 10
5716.70566667
 20
13912.9363
 30
0.0
 11
6183.37233333
 21
13912.9363
 31
0.0
  0
TEXT
  5
11B
330
2
100
AcDbEntity
  8
0
100
AcDbText
 10
5850.039
 20
13912.9363
 30
0.0
 40
200.0
  1
＊
  7
EXTFONT
100
AcDbText
  0
TEXT
  5
11C
330
2
100
AcDbEntity
  8
0
100
AcDbText
 10
5650.039
 20
14437.9363
 30
0.0
 40
200.0
  1
＊
  7
EXTFONT
100
AcDbText
  0
TEXT
  5
11D
330
2
100
AcDbEntity
  8
0
100
AcDbText
 10
5650.039
 20
15187.9363
 30
0.0
 40
200.0
  1
FL・透明
  7
EXTFONT
100
AcDbText
  0
TEXT
  5
11E
330
2
100
AcDbEntity
  8
0
100
AcDbText
 10
5650.039
 20
14687.9363
 30
0.0
 40
200.0
  1
＊
  7
EXTFONT
100
AcDbText
  0
TEXT
  5
11F
330
2
100
AcDbEntity
  8
0
100
AcDbText
 10
5650.039
 20
15687.9363
 30
0.0
 40
200.0
  1
アルミ製
  7
EXTFONT
100
AcDbText
  0
TEXT
  5
124
330
2
100
AcDbEntity
  8
YKK_F1
100
AcDbText
 10
10440.039
 20
13712.9363
 30
0.0
 40
160.0
  1
ＡＷ
  7
EXTFONT
100
AcDbText
  0
CIRCLE
  5
125
330
2
100
AcDbEntity
  8
YKK_F1
100
AcDbCircle
 10
10600.039
 20
13912.9363
 30
0.0
 40
233.3333333333333
  0
TEXT
  5
126
330
2
100
AcDbEntity
  8
0
100
AcDbText
 10
13900.039
 20
13687.9363
 30
0.0
 40
200.0
  1
＊
  7
EXTFONT
100
AcDbText
  0
TEXT
  5
127
330
2
100
AcDbEntity
  8
YKK_F1
100
AcDbText
 10
14320.039
 20
13687.9363
 30
0.0
 40
200.0
  1
箇所
  7
EXTFONT
100
AcDbText
  0
TEXT
  5
144
330
2
100
AcDbEntity
  8
0
100
AcDbText
 10
10300.039
 20
13437.9363
 30
0.0
 40
200.0
  1
＊
  7
EXTFONT
100
AcDbText
  0
TEXT
  5
159
330
2
100
AcDbEntity
  8
0
100
AcDbText
 10
13600.039
 20
13437.9363
 30
0.0
 40
200.0
  1
＊
  7
EXTFONT
100
AcDbText
  0
TEXT
  5
163
330
2
100
AcDbEntity
  8
0
100
AcDbText
 10
10300.039
 20
15937.9363
 30
0.0
 40
200.0
  1
W=1,800  H=2,000  見込100
  7
EXTFONT
100
AcDbText
  0
TEXT
  5
164
330
2
100
AcDbEntity
  8
0
100
AcDbText
 10
10300.039
 20
15437.9363
 30
0.0
 40
200.0
  1
シルバー･ｶﾗｰ(ブロンズ､ステン､ブラック)
  7
EXTFONT
100
AcDbText
  0
TEXT
  5
165
330
2
100
AcDbEntity
  8
0
100
AcDbText
 10
10300.039
 20
14187.9363
 30
0.0
 40
200.0
  1
YKKAP　EXIMA51e同等品
  7
EXTFONT
100
AcDbText
  0
TEXT
  5
166
330
2
100
AcDbEntity
  8
0
100
AcDbText
 10
10300.039
 20
16187.9363
 30
0.0
 40
200.0
  1
自由開きドア【フロアヒンジドア】
  7
EXTFONT
100
AcDbText
  0
TEXT
  5
167
330
2
100
AcDbEntity
  8
0
100
AcDbText
 10
10300.039
 20
14937.9363
 30
0.0
 40
200.0
  1
小口キャップ・フランス落し・本締り錠
  7
EXTFONT
100
AcDbText
  0
LINE
  5
168
330
2
100
AcDbEntity
  8
YKK_F1
  6
Continuous
100
AcDbLine
 10
10366.70566667
 20
13912.9363
 30
0.0
 11
10833.37233333
 21
13912.9363
 31
0.0
  0
TEXT
  5
169
330
2
100
AcDbEntity
  8
0
100
AcDbText
 10
10500.039
 20
13912.9363
 30
0.0
 40
200.0
  1
＊
  7
EXTFONT
100
AcDbText
  0
TEXT
  5
16A
330
2
100
AcDbEntity
  8
0
100
AcDbText
 10
10300.039
 20
14437.9363
 30
0.0
 40
200.0
  1
＊
  7
EXTFONT
100
AcDbText
  0
TEXT
  5
16B
330
2
100
AcDbEntity
  8
0
100
AcDbText
 10
10300.039
 20
15187.9363
 30
0.0
 40
200.0
  1
FL・透明
  7
EXTFONT
100
AcDbText
  0
TEXT
  5
16C
330
2
100
AcDbEntity
  8
0
100
AcDbText
 10
10300.039
 20
14687.9363
 30
0.0
 40
200.0
  1
＊
  7
EXTFONT
100
AcDbText
  0
TEXT
  5
16D
330
2
100
AcDbEntity
  8
0
100
AcDbText
 10
10300.039
 20
15687.9363
 30
0.0
 40
200.0
  1
アルミ製
  7
EXTFONT
100
AcDbText
  0
TEXT
  5
17F
330
2
100
AcDbEntity
  8
0
100
AcDbText
 10
5650.039
 20
19392.9363
 30
0.0
 40
200.0
  1
＊
  7
EXTFONT
100
AcDbText
  0
LINE
  5
180
330
2
100
AcDbEntity
  8
YKK_F1
  6
Continuous
100
AcDbLine
 10
5716.70566667
 20
19867.9363
 30
0.0
 11
6183.37233333
 21
19867.9363
 31
0.0
  0
CIRCLE
  5
181
330
2
100
AcDbEntity
  8
YKK_F1
100
AcDbCircle
 10
5950.039
 20
19867.9363
 30
0.0
 40
233.3333333333333
  0
TEXT
  5
182
330
2
100
AcDbEntity
  8
0
100
AcDbText
 10
5850.039
 20
19867.9363
 30
0.0
 40
200.0
  1
＊
  7
EXTFONT
100
AcDbText
  0
TEXT
  5
183
330
2
100
AcDbEntity
  8
YKK_F1
100
AcDbText
 10
5790.039
 20
19667.9363
 30
0.0
 40
160.0
  1
ＡＷ
  7
EXTFONT
100
AcDbText
  0
TEXT
  5
188
330
2
100
AcDbEntity
  8
0
100
AcDbText
 10
8950.039
 20
19392.9363
 30
0.0
 40
200.0
  1
＊
  7
EXTFONT
100
AcDbText
  0
TEXT
  5
18C
330
2
100
AcDbEntity
  8
0
100
AcDbText
 10
9250.039
 20
19642.9363
 30
0.0
 40
200.0
  1
＊
  7
EXTFONT
100
AcDbText
  0
TEXT
  5
18D
330
2
100
AcDbEntity
  8
YKK_F1
100
AcDbText
 10
9670.039
 20
19642.9363
 30
0.0
 40
200.0
  1
箇所
  7
EXTFONT
100
AcDbText
  0
TEXT
  5
195
330
2
100
AcDbEntity
  8
0
100
AcDbText
 10
10300.039
 20
19392.9363
 30
0.0
 40
200.0
  1
＊
  7
EXTFONT
100
AcDbText
  0
CIRCLE
  5
196
330
2
100
AcDbEntity
  8
YKK_F1
100
AcDbCircle
 10
10600.039
 20
19867.9363
 30
0.0
 40
233.3333333333333
  0
LINE
  5
197
330
2
100
AcDbEntity
  8
YKK_F1
  6
Continuous
100
AcDbLine
 10
10366.70566667
 20
19867.9363
 30
0.0
 11
10833.37233333
 21
19867.9363
 31
0.0
  0
TEXT
  5
198
330
2
100
AcDbEntity
  8
0
100
AcDbText
 10
10500.039
 20
19867.9363
 30
0.0
 40
200.0
  1
＊
  7
EXTFONT
100
AcDbText
  0
TEXT
  5
199
330
2
100
AcDbEntity
  8
YKK_F1
100
AcDbText
 10
10440.039
 20
19667.9363
 30
0.0
 40
160.0
  1
ＡＷ
  7
EXTFONT
100
AcDbText
  0
TEXT
  5
1A1
330
2
100
AcDbEntity
  8
0
100
AcDbText
 10
13600.039
 20
19392.9363
 30
0.0
 40
200.0
  1
＊
  7
EXTFONT
100
AcDbText
  0
TEXT
  5
1A7
330
2
100
AcDbEntity
  8
0
100
AcDbText
 10
13900.039
 20
19642.9363
 30
0.0
 40
200.0
  1
＊
  7
EXTFONT
100
AcDbText
  0
TEXT
  5
1A8
330
2
100
AcDbEntity
  8
YKK_F1
100
AcDbText
 10
14320.039
 20
19642.9363
 30
0.0
 40
200.0
  1
箇所
  7
EXTFONT
100
AcDbText
  0
LINE
  5
1A9
330
2
100
AcDbEntity
  8
YKK_F1
100
AcDbLine
 10
29700.0
 20
0.0
 30
0.0
 11
29700.0
 21
21000.0
 31
0.0
  0
LINE
  5
1AA
330
2
100
AcDbEntity
  8
YKK_F1
  6
Continuous
100
AcDbLine
 10
14850.039
 20
2252.9363
 30
0.0
 11
14850.039
 21
20117.9363
 31
0.0
  0
LINE
  5
1AB
330
2
100
AcDbEntity
  8
YKK_F1
  6
Continuous
100
AcDbLine
 10
19500.039
 20
2252.9363
 30
0.0
 11
19500.039
 21
20117.9363
 31
0.0
  0
LINE
  5
1AC
330
2
100
AcDbEntity
  8
YKK_F1
  6
Continuous
100
AcDbLine
 10
24150.039
 20
2252.9363
 30
0.0
 11
24150.039
 21
20117.9363
 31
0.0
  0
LINE
  5
1AD
330
2
100
AcDbEntity
  8
YKK_F1
  6
Continuous
100
AcDbLine
 10
28800.039
 20
2252.9363
 30
0.0
 11
28800.039
 21
20117.9363
 31
0.0
  0
LINE
  5
1AE
330
2
100
AcDbEntity
  8
YKK_F1
  6
Continuous
100
AcDbLine
 10
29190.79
 20
500.75202
 30
0.0
 11
29190.79
 21
20487.406
 31
0.0
  0
LINE
  5
1AF
330
2
100
AcDbEntity
  8
YKK_F1
  6
Continuous
100
AcDbLine
 10
29040.229
 20
650.18799
 30
0.0
 11
29040.229
 21
20337.97
 31
0.0
  0
LINE
  5
1B0
330
2
100
AcDbEntity
  8
YKK_F1
  6
Continuous
100
AcDbLine
 10
29002.445
 20
687.97002
 30
0.0
 11
29002.445
 21
20299.624
 31
0.0
  0
LINE
  5
1B1
330
2
100
AcDbEntity
  8
YKK_F1
  6
Continuous
100
AcDbLine
 10
29015.417
 20
675.00009
 30
0.0
 11
29015.417
 21
20312.594
 31
0.0
  0
LINE
  5
1B2
330
2
100
AcDbEntity
  8
YKK_F1
  6
Continuous
100
AcDbLine
 10
29027.821
 20
662.59406
 30
0.0
 11
29027.821
 21
20325.566
 31
0.0
  0
LINE
  5
1B3
330
2
100
AcDbEntity
  8
YKK_F1
  6
Continuous
100
AcDbLine
 10
28990.039
 20
700.94001
 30
0.0
 11
28990.039
 21
20287.219
 31
0.0
  0
TEXT
  5
1B4
330
2
100
AcDbEntity
  8
YKK_F1
100
AcDbText
 10
23900.08866667
 20
975.376
 30
0.0
 40
200.0
  1
建具表－（ＦＡＥ５ＤＲ５１）
  7
EXTFONT
 72
     4
 11
25493.422
 21
1075.376
 31
0.0
100
AcDbText
  0
TEXT
  5
1B5
330
2
100
AcDbEntity
  8
YKK_F1
100
AcDbText
 10
23686.75533333
 20
1600.376
 30
0.0
 40
200.0
  1
(仮称)○\U+00D7ビル新築工事
  7
EXTFONT
 72
     4
 11
24993.422
 21
1700.376
 31
0.0
100
AcDbText
  0
LINE
  5
1B6
330
2
100
AcDbEntity
  8
YKK_F1
  6
Continuous
100
AcDbLine
 10
21494.55
 20
1450.376
 30
0.0
 11
27990.79
 21
1450.376
 31
0.0
  0
TEXT
  5
1B7
330
2
100
AcDbEntity
  8
0
100
AcDbText
 10
14950.039
 20
3777.9363
 30
0.0
 40
200.0
  1
＊
  7
EXTFONT
100
AcDbText
  0
TEXT
  5
1B8
330
2
100
AcDbEntity
  8
0
100
AcDbText
 10
19600.039
 20
3777.9363
 30
0.0
 40
200.0
  1
＊
  7
EXTFONT
100
AcDbText
  0
LINE
  5
1B9
330
2
100
AcDbEntity
  8
YKK_F1
  6
Continuous
100
AcDbLine
 10
21494.55
 20
1200.5641
 30
0.0
 11
18496.807
 21
1200.5641
 31
0.0
  0
LINE
  5
1BA
330
2
100
AcDbEntity
  8
YKK_F1
  6
Continuous
100
AcDbLine
 10
18496.807
 20
1949.4363
 30
0.0
 11
18496.807
 21
650.18799
 31
0.0
  0
TEXT
  5
1BB
330
2
100
AcDbEntity
  8
0
100
AcDbText
 10
14950.039
 20
3027.9363
 30
0.0
 40
200.0
  1
＊
  7
EXTFONT
100
AcDbText
  0
TEXT
  5
1BC
330
2
100
AcDbEntity
  8
0
100
AcDbText
 10
14950.039
 20
2277.9363
 30
0.0
 40
200.0
  1
＊
  7
EXTFONT
100
AcDbText
  0
TEXT
  5
1BD
330
2
100
AcDbEntity
  8
0
100
AcDbText
 10
14950.039
 20
2527.9363
 30
0.0
 40
200.0
  1
＊
  7
EXTFONT
100
AcDbText
  0
TEXT
  5
1BE
330
2
100
AcDbEntity
  8
0
100
AcDbText
 10
14950.039
 20
2777.9363
 30
0.0
 40
200.0
  1
＊
  7
EXTFONT
100
AcDbText
  0
TEXT
  5
1BF
330
2
100
AcDbEntity
  8
0
100
AcDbText
 10
14950.039
 20
3277.9363
 30
0.0
 40
200.0
  1
＊
  7
EXTFONT
100
AcDbText
  0
TEXT
  5
1C0
330
2
100
AcDbEntity
  8
0
100
AcDbText
 10
14950.039
 20
3527.9363
 30
0.0
 40
200.0
  1
＊
  7
EXTFONT
100
AcDbText
  0
TEXT
  5
1C1
330
2
100
AcDbEntity
  8
YKK_F1
100
AcDbText
 10
18546.807
 20
1067.4437
 30
0.0
 40
100.0
  1
担当者
  7
EXTFONT
100
AcDbText
  0
TEXT
  5
1C2
330
2
100
AcDbEntity
  8
YKK_F1
100
AcDbText
 10
18546.807
 20
1816.3159
 30
0.0
 40
100.0
  1
管理建築士
  7
EXTFONT
100
AcDbText
  0
LINE
  5
1C3
330
2
100
AcDbEntity
  8
YKK_F1
  6
Continuous
100
AcDbLine
 10
21494.55
 20
1949.4363
 30
0.0
 11
21494.55
 21
650.18799
 31
0.0
  0
LINE
  5
1C4
330
2
100
AcDbEntity
  8
YKK_F1
  6
Continuous
100
AcDbLine
 10
22993.422
 20
1949.4363
 30
0.0
 11
22993.422
 21
650.18799
 31
0.0
  0
TEXT
  5
1C5
330
2
100
AcDbEntity
  8
YKK_F1
100
AcDbText
 10
21544.55
 20
1816.3159
 30
0.0
 40
100.0
  1
設計No.
  7
EXTFONT
100
AcDbText
  0
TEXT
  5
1C6
330
2
100
AcDbEntity
  8
YKK_F1
100
AcDbText
 10
21544.55
 20
1317.2556
 30
0.0
 40
100.0
  1
縮尺
  7
EXTFONT
100
AcDbText
  0
TEXT
  5
1C7
330
2
100
AcDbEntity
  8
0
100
AcDbText
 10
19600.039
 20
3027.9363
 30
0.0
 40
200.0
  1
＊
  7
EXTFONT
100
AcDbText
  0
TEXT
  5
1C8
330
2
100
AcDbEntity
  8
0
100
AcDbText
 10
19600.039
 20
2277.9363
 30
0.0
 40
200.0
  1
＊
  7
EXTFONT
100
AcDbText
  0
TEXT
  5
1C9
330
2
100
AcDbEntity
  8
0
100
AcDbText
 10
19600.039
 20
2527.9363
 30
0.0
 40
200.0
  1
＊
  7
EXTFONT
100
AcDbText
  0
TEXT
  5
1CA
330
2
100
AcDbEntity
  8
0
100
AcDbText
 10
19600.039
 20
2777.9363
 30
0.0
 40
200.0
  1
＊
  7
EXTFONT
100
AcDbText
  0
TEXT
  5
1CB
330
2
100
AcDbEntity
  8
0
100
AcDbText
 10
19600.039
 20
3277.9363
 30
0.0
 40
200.0
  1
＊
  7
EXTFONT
100
AcDbText
  0
TEXT
  5
1CC
330
2
100
AcDbEntity
  8
0
100
AcDbText
 10
19600.039
 20
3527.9363
 30
0.0
 40
200.0
  1
＊
  7
EXTFONT
100
AcDbText
  0
LINE
  5
1CD
330
2
100
AcDbEntity
  8
YKK_F1
  6
Continuous
100
AcDbLine
 10
22594.174
 20
1351.128
 30
0.0
 11
21893.798
 21
800.75199
 31
0.0
  0
TEXT
  5
1CE
330
2
100
AcDbEntity
  8
YKK_F1
  6
Continuous
100
AcDbText
 10
21956.956
 20
1113.7219
 30
0.0
 40
150.0
  1
1
100
AcDbText
  0
TEXT
  5
1CF
330
2
100
AcDbEntity
  8
YKK_F1
  6
Continuous
100
AcDbText
 10
22493.83502704
 20
866.53895907
 30
0.0
 40
150.0
  1
50
100
AcDbText
  0
TEXT
  5
1D0
330
2
100
AcDbEntity
  8
YKK_F1
100
AcDbText
 10
23043.422
 20
1317.2556
 30
0.0
 40
100.0
  1
図面名
  7
EXTFONT
100
AcDbText
  0
TEXT
  5
1D1
330
2
100
AcDbEntity
  8
YKK_F1
100
AcDbText
 10
23043.422
 20
1816.3159
 30
0.0
 40
100.0
  1
名称
  7
EXTFONT
100
AcDbText
  0
TEXT
  5
1D2
330
2
100
AcDbEntity
  8
0
100
AcDbText
 10
14950.039
 20
4277.9363
 30
0.0
 40
200.0
  1
＊
  7
EXTFONT
100
AcDbText
  0
TEXT
  5
1D3
330
2
100
AcDbEntity
  8
0
100
AcDbText
 10
14950.039
 20
4027.9363
 30
0.0
 40
200.0
  1
＊
  7
EXTFONT
100
AcDbText
  0
TEXT
  5
1D4
330
2
100
AcDbEntity
  8
0
100
AcDbText
 10
14950.039
 20
8732.9363
 30
0.0
 40
200.0
  1
＊
  7
EXTFONT
100
AcDbText
  0
CIRCLE
  5
1D5
330
2
100
AcDbEntity
  8
YKK_F1
100
AcDbCircle
 10
15250.039
 20
7957.9363
 30
0.0
 40
233.3333333333333
  0
TEXT
  5
1D6
330
2
100
AcDbEntity
  8
0
100
AcDbText
 10
15150.039
 20
7957.9363
 30
0.0
 40
200.0
  1
＊
  7
EXTFONT
100
AcDbText
  0
LINE
  5
1D7
330
2
100
AcDbEntity
  8
YKK_F1
  6
Continuous
100
AcDbLine
 10
15016.70566667
 20
7957.9363
 30
0.0
 11
15483.37233333
 21
7957.9363
 31
0.0
  0
TEXT
  5
1D8
330
2
100
AcDbEntity
  8
0
100
AcDbText
 10
14950.039
 20
7482.9363
 30
0.0
 40
200.0
  1
＊
  7
EXTFONT
100
AcDbText
  0
TEXT
  5
1D9
330
2
100
AcDbEntity
  8
YKK_F1
100
AcDbText
 10
15090.039
 20
7757.9363
 30
0.0
 40
160.0
  1
ＡＷ
  7
EXTFONT
100
AcDbText
  0
TEXT
  5
1DA
330
2
100
AcDbEntity
  8
0
100
AcDbText
 10
14950.039
 20
8232.9363
 30
0.0
 40
200.0
  1
＊
  7
EXTFONT
100
AcDbText
  0
TEXT
  5
1DB
330
2
100
AcDbEntity
  8
0
100
AcDbText
 10
14950.039
 20
8482.9363
 30
0.0
 40
200.0
  1
＊
  7
EXTFONT
100
AcDbText
  0
TEXT
  5
1DC
330
2
100
AcDbEntity
  8
0
100
AcDbText
 10
14950.039
 20
8982.9363
 30
0.0
 40
200.0
  1
＊
  7
EXTFONT
100
AcDbText
  0
TEXT
  5
1DD
330
2
100
AcDbEntity
  8
0
100
AcDbText
 10
14950.039
 20
9232.9363
 30
0.0
 40
200.0
  1
＊
  7
EXTFONT
100
AcDbText
  0
TEXT
  5
1DE
330
2
100
AcDbEntity
  8
0
100
AcDbText
 10
14950.039
 20
9482.9363
 30
0.0
 40
200.0
  1
＊
  7
EXTFONT
100
AcDbText
  0
TEXT
  5
1DF
330
2
100
AcDbEntity
  8
0
100
AcDbText
 10
14950.039
 20
9982.9363
 30
0.0
 40
200.0
  1
＊
  7
EXTFONT
100
AcDbText
  0
TEXT
  5
1E0
330
2
100
AcDbEntity
  8
0
100
AcDbText
 10
14950.039
 20
9732.9363
 30
0.0
 40
200.0
  1
＊
  7
EXTFONT
100
AcDbText
  0
TEXT
  5
1E1
330
2
100
AcDbEntity
  8
0
100
AcDbText
 10
14950.039
 20
10232.9363
 30
0.0
 40
200.0
  1
＊
  7
EXTFONT
100
AcDbText
  0
TEXT
  5
1E2
330
2
100
AcDbEntity
  8
0
100
AcDbText
 10
18250.039
 20
7482.9363
 30
0.0
 40
200.0
  1
＊
  7
EXTFONT
100
AcDbText
  0
TEXT
  5
1E3
330
2
100
AcDbEntity
  8
0
100
AcDbText
 10
18550.039
 20
7732.9363
 30
0.0
 40
200.0
  1
＊
  7
EXTFONT
100
AcDbText
  0
TEXT
  5
1E4
330
2
100
AcDbEntity
  8
YKK_F1
100
AcDbText
 10
18970.039
 20
7732.9363
 30
0.0
 40
200.0
  1
箇所
  7
EXTFONT
100
AcDbText
  0
TEXT
  5
1E5
330
2
100
AcDbEntity
  8
0
100
AcDbText
 10
19600.039
 20
4277.9363
 30
0.0
 40
200.0
  1
＊
  7
EXTFONT
100
AcDbText
  0
TEXT
  5
1E6
330
2
100
AcDbEntity
  8
0
100
AcDbText
 10
19600.039
 20
4027.9363
 30
0.0
 40
200.0
  1
＊
  7
EXTFONT
100
AcDbText
  0
TEXT
  5
1E7
330
2
100
AcDbEntity
  8
0
100
AcDbText
 10
19600.039
 20
8732.9363
 30
0.0
 40
200.0
  1
＊
  7
EXTFONT
100
AcDbText
  0
CIRCLE
  5
1E8
330
2
100
AcDbEntity
  8
YKK_F1
100
AcDbCircle
 10
19900.039
 20
7957.9363
 30
0.0
 40
233.3333333333333
  0
TEXT
  5
1E9
330
2
100
AcDbEntity
  8
0
100
AcDbText
 10
19800.039
 20
7957.9363
 30
0.0
 40
200.0
  1
＊
  7
EXTFONT
100
AcDbText
  0
LINE
  5
1EA
330
2
100
AcDbEntity
  8
YKK_F1
  6
Continuous
100
AcDbLine
 10
19666.70566667
 20
7957.9363
 30
0.0
 11
20133.37233333
 21
7957.9363
 31
0.0
  0
TEXT
  5
1EB
330
2
100
AcDbEntity
  8
0
100
AcDbText
 10
19600.039
 20
7482.9363
 30
0.0
 40
200.0
  1
＊
  7
EXTFONT
100
AcDbText
  0
TEXT
  5
1EC
330
2
100
AcDbEntity
  8
YKK_F1
100
AcDbText
 10
19740.039
 20
7757.9363
 30
0.0
 40
160.0
  1
ＡＷ
  7
EXTFONT
100
AcDbText
  0
TEXT
  5
1ED
330
2
100
AcDbEntity
  8
0
100
AcDbText
 10
19600.039
 20
8232.9363
 30
0.0
 40
200.0
  1
＊
  7
EXTFONT
100
AcDbText
  0
TEXT
  5
1EE
330
2
100
AcDbEntity
  8
0
100
AcDbText
 10
19600.039
 20
8482.9363
 30
0.0
 40
200.0
  1
＊
  7
EXTFONT
100
AcDbText
  0
TEXT
  5
1EF
330
2
100
AcDbEntity
  8
0
100
AcDbText
 10
19600.039
 20
8982.9363
 30
0.0
 40
200.0
  1
＊
  7
EXTFONT
100
AcDbText
  0
TEXT
  5
1F0
330
2
100
AcDbEntity
  8
0
100
AcDbText
 10
19600.039
 20
9232.9363
 30
0.0
 40
200.0
  1
＊
  7
EXTFONT
100
AcDbText
  0
TEXT
  5
1F1
330
2
100
AcDbEntity
  8
0
100
AcDbText
 10
19600.039
 20
9482.9363
 30
0.0
 40
200.0
  1
＊
  7
EXTFONT
100
AcDbText
  0
TEXT
  5
1F2
330
2
100
AcDbEntity
  8
0
100
AcDbText
 10
19600.039
 20
9982.9363
 30
0.0
 40
200.0
  1
＊
  7
EXTFONT
100
AcDbText
  0
TEXT
  5
1F3
330
2
100
AcDbEntity
  8
0
100
AcDbText
 10
19600.039
 20
9732.9363
 30
0.0
 40
200.0
  1
＊
  7
EXTFONT
100
AcDbText
  0
TEXT
  5
1F4
330
2
100
AcDbEntity
  8
0
100
AcDbText
 10
19600.039
 20
10232.9363
 30
0.0
 40
200.0
  1
＊
  7
EXTFONT
100
AcDbText
  0
TEXT
  5
1F5
330
2
100
AcDbEntity
  8
0
100
AcDbText
 10
22900.039
 20
7482.9363
 30
0.0
 40
200.0
  1
＊
  7
EXTFONT
100
AcDbText
  0
TEXT
  5
1F6
330
2
100
AcDbEntity
  8
0
100
AcDbText
 10
23200.039
 20
7732.9363
 30
0.0
 40
200.0
  1
＊
  7
EXTFONT
100
AcDbText
  0
TEXT
  5
1F7
330
2
100
AcDbEntity
  8
YKK_F1
100
AcDbText
 10
23620.039
 20
7732.9363
 30
0.0
 40
200.0
  1
箇所
  7
EXTFONT
100
AcDbText
  0
TEXT
  5
1F8
330
2
100
AcDbEntity
  8
0
100
AcDbText
 10
24250.039
 20
3777.9363
 30
0.0
 40
200.0
  1
＊
  7
EXTFONT
100
AcDbText
  0
TEXT
  5
1F9
330
2
100
AcDbEntity
  8
YKK_F1
100
AcDbText
 10
28617.37641269
 20
751.11699243
 30
0.0
 40
100.0
  1
枚の内
  7
EXTFONT
100
AcDbText
  0
LINE
  5
1FA
330
2
100
AcDbEntity
  8
YKK_F1
  6
Continuous
100
AcDbLine
 10
28890.228
 20
1651.1279
 30
0.0
 11
28090.604
 21
1001.504
 31
0.0
  0
LINE
  5
1FB
330
2
100
AcDbEntity
  8
YKK_F1
  6
Continuous
100
AcDbLine
 10
27990.79
 20
1949.4363
 30
0.0
 11
27990.79
 21
650.18799
 31
0.0
  0
TEXT
  5
1FC
330
2
100
AcDbEntity
  8
0
100
AcDbText
 10
24250.039
 20
3027.9363
 30
0.0
 40
200.0
  1
＊
  7
EXTFONT
100
AcDbText
  0
TEXT
  5
1FD
330
2
100
AcDbEntity
  8
0
100
AcDbText
 10
24250.039
 20
2527.9363
 30
0.0
 40
200.0
  1
＊
  7
EXTFONT
100
AcDbText
  0
TEXT
  5
1FE
330
2
100
AcDbEntity
  8
0
100
AcDbText
 10
24250.039
 20
2277.9363
 30
0.0
 40
200.0
  1
＊
  7
EXTFONT
100
AcDbText
  0
TEXT
  5
1FF
330
2
100
AcDbEntity
  8
0
100
AcDbText
 10
24250.039
 20
2777.9363
 30
0.0
 40
200.0
  1
＊
  7
EXTFONT
100
AcDbText
  0
TEXT
  5
200
330
2
100
AcDbEntity
  8
0
100
AcDbText
 10
24250.039
 20
3277.9363
 30
0.0
 40
200.0
  1
＊
  7
EXTFONT
100
AcDbText
  0
TEXT
  5
201
330
2
100
AcDbEntity
  8
0
100
AcDbText
 10
24250.039
 20
3527.9363
 30
0.0
 40
200.0
  1
＊
  7
EXTFONT
100
AcDbText
  0
TEXT
  5
202
330
2
100
AcDbEntity
  8
YKK_F1
100
AcDbText
 10
26990.79
 20
1625.376
 30
0.0
 40
150.0
  1
工事設計図
  7
EXTFONT
100
AcDbText
  0
TEXT
  5
203
330
2
100
AcDbEntity
  8
YKK_F1
100
AcDbText
 10
28040.79
 20
1816.3159
 30
0.0
 40
100.0
  1
図面No.
  7
EXTFONT
100
AcDbText
  0
TEXT
  5
204
330
2
100
AcDbEntity
  8
0
100
AcDbText
 10
24250.039
 20
4277.9363
 30
0.0
 40
200.0
  1
＊
  7
EXTFONT
100
AcDbText
  0
TEXT
  5
205
330
2
100
AcDbEntity
  8
0
100
AcDbText
 10
24250.039
 20
4027.9363
 30
0.0
 40
200.0
  1
＊
  7
EXTFONT
100
AcDbText
  0
TEXT
  5
206
330
2
100
AcDbEntity
  8
0
100
AcDbText
 10
24250.039
 20
8732.9363
 30
0.0
 40
200.0
  1
＊
  7
EXTFONT
100
AcDbText
  0
TEXT
  5
207
330
2
100
AcDbEntity
  8
0
100
AcDbText
 10
24450.039
 20
7957.9363
 30
0.0
 40
200.0
  1
＊
  7
EXTFONT
100
AcDbText
  0
CIRCLE
  5
208
330
2
100
AcDbEntity
  8
YKK_F1
100
AcDbCircle
 10
24550.039
 20
7957.9363
 30
0.0
 40
233.3333333333333
  0
TEXT
  5
209
330
2
100
AcDbEntity
  8
YKK_F1
100
AcDbText
 10
24390.039
 20
7757.9363
 30
0.0
 40
160.0
  1
ＡＷ
  7
EXTFONT
100
AcDbText
  0
LINE
  5
20A
330
2
100
AcDbEntity
  8
YKK_F1
  6
Continuous
100
AcDbLine
 10
24316.70566667
 20
7957.9363
 30
0.0
 11
24783.37233333
 21
7957.9363
 31
0.0
  0
TEXT
  5
20B
330
2
100
AcDbEntity
  8
0
100
AcDbText
 10
24250.039
 20
7482.9363
 30
0.0
 40
200.0
  1
＊
  7
EXTFONT
100
AcDbText
  0
TEXT
  5
20C
330
2
100
AcDbEntity
  8
0
100
AcDbText
 10
24250.039
 20
8232.9363
 30
0.0
 40
200.0
  1
＊
  7
EXTFONT
100
AcDbText
  0
TEXT
  5
20D
330
2
100
AcDbEntity
  8
0
100
AcDbText
 10
24250.039
 20
8482.9363
 30
0.0
 40
200.0
  1
＊
  7
EXTFONT
100
AcDbText
  0
TEXT
  5
20E
330
2
100
AcDbEntity
  8
0
100
AcDbText
 10
24250.039
 20
8982.9363
 30
0.0
 40
200.0
  1
＊
  7
EXTFONT
100
AcDbText
  0
TEXT
  5
20F
330
2
100
AcDbEntity
  8
0
100
AcDbText
 10
24250.039
 20
9482.9363
 30
0.0
 40
200.0
  1
＊
  7
EXTFONT
100
AcDbText
  0
TEXT
  5
210
330
2
100
AcDbEntity
  8
0
100
AcDbText
 10
24250.039
 20
9232.9363
 30
0.0
 40
200.0
  1
＊
  7
EXTFONT
100
AcDbText
  0
TEXT
  5
211
330
2
100
AcDbEntity
  8
0
100
AcDbText
 10
24250.039
 20
9982.9363
 30
0.0
 40
200.0
  1
＊
  7
EXTFONT
100
AcDbText
  0
TEXT
  5
212
330
2
100
AcDbEntity
  8
0
100
AcDbText
 10
24250.039
 20
9732.9363
 30
0.0
 40
200.0
  1
＊
  7
EXTFONT
100
AcDbText
  0
TEXT
  5
213
330
2
100
AcDbEntity
  8
0
100
AcDbText
 10
24250.039
 20
10232.9363
 30
0.0
 40
200.0
  1
＊
  7
EXTFONT
100
AcDbText
  0
TEXT
  5
214
330
2
100
AcDbEntity
  8
0
100
AcDbText
 10
27550.039
 20
7482.9363
 30
0.0
 40
200.0
  1
＊
  7
EXTFONT
100
AcDbText
  0
TEXT
  5
215
330
2
100
AcDbEntity
  8
0
100
AcDbText
 10
27850.039
 20
7732.9363
 30
0.0
 40
200.0
  1
＊
  7
EXTFONT
100
AcDbText
  0
TEXT
  5
216
330
2
100
AcDbEntity
  8
YKK_F1
100
AcDbText
 10
28270.039
 20
7732.9363
 30
0.0
 40
200.0
  1
箇所
  7
EXTFONT
100
AcDbText
  0
TEXT
  5
217
330
2
100
AcDbEntity
  8
YKK_F1
100
AcDbText
 10
18970.039
 20
13687.9363
 30
0.0
 40
200.0
  1
箇所
  7
EXTFONT
100
AcDbText
  0
TEXT
  5
218
330
2
100
AcDbEntity
  8
YKK_F1
100
AcDbText
 10
15090.039
 20
13712.9363
 30
0.0
 40
160.0
  1
ＡＷ
  7
EXTFONT
100
AcDbText
  0
CIRCLE
  5
219
330
2
100
AcDbEntity
  8
YKK_F1
100
AcDbCircle
 10
15250.039
 20
13912.9363
 30
0.0
 40
233.3333333333333
  0
TEXT
  5
21A
330
2
100
AcDbEntity
  8
0
100
AcDbText
 10
18550.039
 20
13687.9363
 30
0.0
 40
200.0
  1
＊
  7
EXTFONT
100
AcDbText
  0
TEXT
  5
21B
330
2
100
AcDbEntity
  8
0
100
AcDbText
 10
14950.039
 20
13437.9363
 30
0.0
 40
200.0
  1
＊
  7
EXTFONT
100
AcDbText
  0
TEXT
  5
21C
330
2
100
AcDbEntity
  8
0
100
AcDbText
 10
18250.039
 20
13437.9363
 30
0.0
 40
200.0
  1
＊
  7
EXTFONT
100
AcDbText
  0
LINE
  5
21D
330
2
100
AcDbEntity
  8
YKK_F1
  6
Continuous
100
AcDbLine
 10
15016.70566667
 20
13912.9363
 30
0.0
 11
15483.37233333
 21
13912.9363
 31
0.0
  0
LINE
  5
21E
330
2
100
AcDbEntity
  8
YKK_F1
  6
Continuous
100
AcDbLine
 10
15016.70566667
 20
13912.9363
 30
0.0
 11
15483.37233333
 21
13912.9363
 31
0.0
  0
TEXT
  5
21F
330
2
100
AcDbEntity
  8
0
100
AcDbText
 10
15150.039
 20
13912.9363
 30
0.0
 40
200.0
  1
＊
  7
EXTFONT
100
AcDbText
  0
TEXT
  5
220
330
2
100
AcDbEntity
  8
0
100
AcDbText
 10
15150.039
 20
13912.9363
 30
0.0
 40
200.0
  1
＊
  7
EXTFONT
100
AcDbText
  0
TEXT
  5
221
330
2
100
AcDbEntity
  8
0
100
AcDbText
 10
14950.039
 20
14437.9363
 30
0.0
 40
200.0
  1
＊
  7
EXTFONT
100
AcDbText
  0
TEXT
  5
222
330
2
100
AcDbEntity
  8
0
100
AcDbText
 10
14950.039
 20
14187.9363
 30
0.0
 40
200.0
  1
＊
  7
EXTFONT
100
AcDbText
  0
TEXT
  5
223
330
2
100
AcDbEntity
  8
0
100
AcDbText
 10
14950.039
 20
14937.9363
 30
0.0
 40
200.0
  1
＊
  7
EXTFONT
100
AcDbText
  0
TEXT
  5
224
330
2
100
AcDbEntity
  8
0
100
AcDbText
 10
14950.039
 20
14687.9363
 30
0.0
 40
200.0
  1
＊
  7
EXTFONT
100
AcDbText
  0
TEXT
  5
225
330
2
100
AcDbEntity
  8
0
100
AcDbText
 10
14950.039
 20
15187.9363
 30
0.0
 40
200.0
  1
＊
  7
EXTFONT
100
AcDbText
  0
TEXT
  5
226
330
2
100
AcDbEntity
  8
0
100
AcDbText
 10
14950.039
 20
16187.9363
 30
0.0
 40
200.0
  1
＊
  7
EXTFONT
100
AcDbText
  0
TEXT
  5
227
330
2
100
AcDbEntity
  8
0
100
AcDbText
 10
14950.039
 20
15687.9363
 30
0.0
 40
200.0
  1
＊
  7
EXTFONT
100
AcDbText
  0
TEXT
  5
228
330
2
100
AcDbEntity
  8
0
100
AcDbText
 10
14950.039
 20
15437.9363
 30
0.0
 40
200.0
  1
＊
  7
EXTFONT
100
AcDbText
  0
TEXT
  5
229
330
2
100
AcDbEntity
  8
0
100
AcDbText
 10
14950.039
 20
15937.9363
 30
0.0
 40
200.0
  1
＊
  7
EXTFONT
100
AcDbText
  0
TEXT
  5
22A
330
2
100
AcDbEntity
  8
YKK_F1
100
AcDbText
 10
23620.039
 20
13687.9363
 30
0.0
 40
200.0
  1
箇所
  7
EXTFONT
100
AcDbText
  0
TEXT
  5
22B
330
2
100
AcDbEntity
  8
YKK_F1
100
AcDbText
 10
19740.039
 20
13712.9363
 30
0.0
 40
160.0
  1
ＡＷ
  7
EXTFONT
100
AcDbText
  0
CIRCLE
  5
22C
330
2
100
AcDbEntity
  8
YKK_F1
100
AcDbCircle
 10
19900.039
 20
13912.9363
 30
0.0
 40
233.3333333333333
  0
TEXT
  5
22D
330
2
100
AcDbEntity
  8
0
100
AcDbText
 10
23200.039
 20
13687.9363
 30
0.0
 40
200.0
  1
＊
  7
EXTFONT
100
AcDbText
  0
TEXT
  5
22E
330
2
100
AcDbEntity
  8
0
100
AcDbText
 10
19600.039
 20
13437.9363
 30
0.0
 40
200.0
  1
＊
  7
EXTFONT
100
AcDbText
  0
TEXT
  5
22F
330
2
100
AcDbEntity
  8
0
100
AcDbText
 10
22900.039
 20
13437.9363
 30
0.0
 40
200.0
  1
＊
  7
EXTFONT
100
AcDbText
  0
LINE
  5
230
330
2
100
AcDbEntity
  8
YKK_F1
  6
Continuous
100
AcDbLine
 10
19666.70566667
 20
13912.9363
 30
0.0
 11
20133.37233333
 21
13912.9363
 31
0.0
  0
TEXT
  5
231
330
2
100
AcDbEntity
  8
0
100
AcDbText
 10
19800.039
 20
13912.9363
 30
0.0
 40
200.0
  1
＊
  7
EXTFONT
100
AcDbText
  0
TEXT
  5
232
330
2
100
AcDbEntity
  8
0
100
AcDbText
 10
19600.039
 20
14437.9363
 30
0.0
 40
200.0
  1
＊
  7
EXTFONT
100
AcDbText
  0
TEXT
  5
233
330
2
100
AcDbEntity
  8
0
100
AcDbText
 10
19600.039
 20
14187.9363
 30
0.0
 40
200.0
  1
＊
  7
EXTFONT
100
AcDbText
  0
TEXT
  5
234
330
2
100
AcDbEntity
  8
0
100
AcDbText
 10
19600.039
 20
14937.9363
 30
0.0
 40
200.0
  1
＊
  7
EXTFONT
100
AcDbText
  0
TEXT
  5
235
330
2
100
AcDbEntity
  8
0
100
AcDbText
 10
19600.039
 20
14687.9363
 30
0.0
 40
200.0
  1
＊
  7
EXTFONT
100
AcDbText
  0
TEXT
  5
236
330
2
100
AcDbEntity
  8
0
100
AcDbText
 10
19600.039
 20
15187.9363
 30
0.0
 40
200.0
  1
＊
  7
EXTFONT
100
AcDbText
  0
TEXT
  5
237
330
2
100
AcDbEntity
  8
0
100
AcDbText
 10
19600.039
 20
16187.9363
 30
0.0
 40
200.0
  1
＊
  7
EXTFONT
100
AcDbText
  0
TEXT
  5
238
330
2
100
AcDbEntity
  8
0
100
AcDbText
 10
19600.039
 20
15687.9363
 30
0.0
 40
200.0
  1
＊
  7
EXTFONT
100
AcDbText
  0
TEXT
  5
239
330
2
100
AcDbEntity
  8
0
100
AcDbText
 10
19600.039
 20
15437.9363
 30
0.0
 40
200.0
  1
＊
  7
EXTFONT
100
AcDbText
  0
TEXT
  5
23A
330
2
100
AcDbEntity
  8
0
100
AcDbText
 10
19600.039
 20
15937.9363
 30
0.0
 40
200.0
  1
＊
  7
EXTFONT
100
AcDbText
  0
TEXT
  5
23B
330
2
100
AcDbEntity
  8
0
100
AcDbText
 10
14950.039
 20
19392.9363
 30
0.0
 40
200.0
  1
＊
  7
EXTFONT
100
AcDbText
  0
CIRCLE
  5
23C
330
2
100
AcDbEntity
  8
YKK_F1
100
AcDbCircle
 10
15250.039
 20
19867.9363
 30
0.0
 40
233.3333333333333
  0
LINE
  5
23D
330
2
100
AcDbEntity
  8
YKK_F1
  6
Continuous
100
AcDbLine
 10
15016.70566667
 20
19867.9363
 30
0.0
 11
15483.37233333
 21
19867.9363
 31
0.0
  0
TEXT
  5
23E
330
2
100
AcDbEntity
  8
0
100
AcDbText
 10
15150.039
 20
19867.9363
 30
0.0
 40
200.0
  1
＊
  7
EXTFONT
100
AcDbText
  0
TEXT
  5
23F
330
2
100
AcDbEntity
  8
YKK_F1
100
AcDbText
 10
15090.039
 20
19667.9363
 30
0.0
 40
160.0
  1
ＡＷ
  7
EXTFONT
100
AcDbText
  0
TEXT
  5
240
330
2
100
AcDbEntity
  8
0
100
AcDbText
 10
18550.039
 20
19642.9363
 30
0.0
 40
200.0
  1
＊
  7
EXTFONT
100
AcDbText
  0
TEXT
  5
241
330
2
100
AcDbEntity
  8
YKK_F1
100
AcDbText
 10
18970.039
 20
19642.9363
 30
0.0
 40
200.0
  1
箇所
  7
EXTFONT
100
AcDbText
  0
TEXT
  5
242
330
2
100
AcDbEntity
  8
0
100
AcDbText
 10
19600.039
 20
19392.9363
 30
0.0
 40
200.0
  1
＊
  7
EXTFONT
100
AcDbText
  0
CIRCLE
  5
243
330
2
100
AcDbEntity
  8
YKK_F1
100
AcDbCircle
 10
19900.039
 20
19867.9363
 30
0.0
 40
233.3333333333333
  0
LINE
  5
244
330
2
100
AcDbEntity
  8
YKK_F1
  6
Continuous
100
AcDbLine
 10
19666.70566667
 20
19867.9363
 30
0.0
 11
20133.37233333
 21
19867.9363
 31
0.0
  0
TEXT
  5
245
330
2
100
AcDbEntity
  8
0
100
AcDbText
 10
19800.039
 20
19867.9363
 30
0.0
 40
200.0
  1
＊
  7
EXTFONT
100
AcDbText
  0
TEXT
  5
246
330
2
100
AcDbEntity
  8
YKK_F1
100
AcDbText
 10
19740.039
 20
19667.9363
 30
0.0
 40
160.0
  1
ＡＷ
  7
EXTFONT
100
AcDbText
  0
TEXT
  5
247
330
2
100
AcDbEntity
  8
0
100
AcDbText
 10
22900.039
 20
19392.9363
 30
0.0
 40
200.0
  1
＊
  7
EXTFONT
100
AcDbText
  0
TEXT
  5
248
330
2
100
AcDbEntity
  8
0
100
AcDbText
 10
23200.039
 20
19642.9363
 30
0.0
 40
200.0
  1
＊
  7
EXTFONT
100
AcDbText
  0
TEXT
  5
249
330
2
100
AcDbEntity
  8
YKK_F1
100
AcDbText
 10
23620.039
 20
19642.9363
 30
0.0
 40
200.0
  1
箇所
  7
EXTFONT
100
AcDbText
  0
TEXT
  5
24A
330
2
100
AcDbEntity
  8
0
100
AcDbText
 10
27850.039
 20
13687.9363
 30
0.0
 40
200.0
  1
＊
  7
EXTFONT
100
AcDbText
  0
CIRCLE
  5
24B
330
2
100
AcDbEntity
  8
YKK_F1
100
AcDbCircle
 10
24550.039
 20
13912.9363
 30
0.0
 40
233.3333333333333
  0
TEXT
  5
24C
330
2
100
AcDbEntity
  8
YKK_F1
100
AcDbText
 10
24390.039
 20
13712.9363
 30
0.0
 40
160.0
  1
ＡＷ
  7
EXTFONT
100
AcDbText
  0
TEXT
  5
24D
330
2
100
AcDbEntity
  8
YKK_F1
100
AcDbText
 10
28270.039
 20
13687.9363
 30
0.0
 40
200.0
  1
箇所
  7
EXTFONT
100
AcDbText
  0
TEXT
  5
24E
330
2
100
AcDbEntity
  8
0
100
AcDbText
 10
24250.039
 20
13437.9363
 30
0.0
 40
200.0
  1
＊
  7
EXTFONT
100
AcDbText
  0
TEXT
  5
24F
330
2
100
AcDbEntity
  8
0
100
AcDbText
 10
27550.039
 20
13437.9363
 30
0.0
 40
200.0
  1
＊
  7
EXTFONT
100
AcDbText
  0
LINE
  5
250
330
2
100
AcDbEntity
  8
YKK_F1
  6
Continuous
100
AcDbLine
 10
24316.70566667
 20
13912.9363
 30
0.0
 11
24783.37233333
 21
13912.9363
 31
0.0
  0
TEXT
  5
251
330
2
100
AcDbEntity
  8
0
100
AcDbText
 10
24450.039
 20
13912.9363
 30
0.0
 40
200.0
  1
＊
  7
EXTFONT
100
AcDbText
  0
TEXT
  5
252
330
2
100
AcDbEntity
  8
0
100
AcDbText
 10
24250.039
 20
14187.9363
 30
0.0
 40
200.0
  1
＊
  7
EXTFONT
100
AcDbText
  0
TEXT
  5
253
330
2
100
AcDbEntity
  8
0
100
AcDbText
 10
24250.039
 20
14437.9363
 30
0.0
 40
200.0
  1
＊
  7
EXTFONT
100
AcDbText
  0
TEXT
  5
254
330
2
100
AcDbEntity
  8
0
100
AcDbText
 10
24250.039
 20
14937.9363
 30
0.0
 40
200.0
  1
＊
  7
EXTFONT
100
AcDbText
  0
TEXT
  5
255
330
2
100
AcDbEntity
  8
0
100
AcDbText
 10
24250.039
 20
14687.9363
 30
0.0
 40
200.0
  1
＊
  7
EXTFONT
100
AcDbText
  0
TEXT
  5
256
330
2
100
AcDbEntity
  8
0
100
AcDbText
 10
24250.039
 20
15187.9363
 30
0.0
 40
200.0
  1
＊
  7
EXTFONT
100
AcDbText
  0
TEXT
  5
257
330
2
100
AcDbEntity
  8
0
100
AcDbText
 10
24250.039
 20
16187.9363
 30
0.0
 40
200.0
  1
＊
  7
EXTFONT
100
AcDbText
  0
TEXT
  5
258
330
2
100
AcDbEntity
  8
0
100
AcDbText
 10
24250.039
 20
15687.9363
 30
0.0
 40
200.0
  1
＊
  7
EXTFONT
100
AcDbText
  0
TEXT
  5
259
330
2
100
AcDbEntity
  8
0
100
AcDbText
 10
24250.039
 20
15437.9363
 30
0.0
 40
200.0
  1
＊
  7
EXTFONT
100
AcDbText
  0
TEXT
  5
25A
330
2
100
AcDbEntity
  8
0
100
AcDbText
 10
24250.039
 20
15937.9363
 30
0.0
 40
200.0
  1
＊
  7
EXTFONT
100
AcDbText
  0
TEXT
  5
25B
330
2
100
AcDbEntity
  8
0
100
AcDbText
 10
24250.039
 20
19392.9363
 30
0.0
 40
200.0
  1
＊
  7
EXTFONT
100
AcDbText
  0
CIRCLE
  5
25C
330
2
100
AcDbEntity
  8
YKK_F1
100
AcDbCircle
 10
24550.039
 20
19867.9363
 30
0.0
 40
233.3333333333333
  0
TEXT
  5
25D
330
2
100
AcDbEntity
  8
YKK_F1
100
AcDbText
 10
24390.039
 20
19667.9363
 30
0.0
 40
160.0
  1
ＡＷ
  7
EXTFONT
100
AcDbText
  0
LINE
  5
25E
330
2
100
AcDbEntity
  8
YKK_F1
  6
Continuous
100
AcDbLine
 10
24316.70566667
 20
19867.9363
 30
0.0
 11
24783.37233333
 21
19867.9363
 31
0.0
  0
TEXT
  5
25F
330
2
100
AcDbEntity
  8
0
100
AcDbText
 10
24450.039
 20
19867.9363
 30
0.0
 40
200.0
  1
＊
  7
EXTFONT
100
AcDbText
  0
TEXT
  5
260
330
2
100
AcDbEntity
  8
0
100
AcDbText
 10
27550.039
 20
19392.9363
 30
0.0
 40
200.0
  1
＊
  7
EXTFONT
100
AcDbText
  0
TEXT
  5
261
330
2
100
AcDbEntity
  8
0
100
AcDbText
 10
27850.039
 20
19642.9363
 30
0.0
 40
200.0
  1
＊
  7
EXTFONT
100
AcDbText
  0
TEXT
  5
262
330
2
100
AcDbEntity
  8
YKK_F1
100
AcDbText
 10
28270.039
 20
19642.9363
 30
0.0
 40
200.0
  1
箇所
  7
EXTFONT
100
AcDbText
  0
LINE
  5
328
330
2
100
AcDbEntity
  8
YKK_A1
100
AcDbLine
 10
8325.0390005
 20
18882.9363
 30
0.0
 11
7425.0390005
 21
18882.9363
 31
0.0
1001
ACDBBLOCKREPETAG
1070
     1
1071
       36
1005
0
  0
LINE
  5
329
330
2
100
AcDbEntity
  8
YKK_A1
100
AcDbLine
 10
7425.0390005
 20
18897.9363
 30
0.0
 11
8325.0390005
 21
18897.9363
 31
0.0
1001
ACDBBLOCKREPETAG
1070
     1
1071
       36
1005
0
  0
LINE
  5
32A
330
2
100
AcDbEntity
  8
YKK_A1
100
AcDbLine
 10
7410.04031168
 20
18897.9363
 30
0.0
 11
8340.03768882
 21
18897.9363
 31
0.0
1001
ACDBBLOCKREPETAG
1070
     1
1071
       38
1005
0
  0
LINE
  5
32B
330
2
100
AcDbEntity
  8
YKK_A1
100
AcDbLine
 10
7516.0390005
 20
18769.9363
 30
0.0
 11
8234.0390005
 21
18769.9363
 31
0.0
1001
ACDBBLOCKREPETAG
1070
     1
1071
       28
1005
0
  0
LINE
  5
32C
330
2
100
AcDbEntity
  8
YKK_A1
100
AcDbLine
 10
8234.0390005
 20
18879.9363
 30
0.0
 11
7516.0390005
 21
18879.9363
 31
0.0
1001
ACDBBLOCKREPETAG
1070
     1
1071
       28
1005
0
  0
LINE
  5
32D
330
2
100
AcDbEntity
  8
YKK_A1
  6
YDIVIDE_1
100
AcDbLine
 10
8322.0390005
 20
18879.9363
 30
0.0
 11
7428.0390005
 21
17886.4363
 31
0.0
1001
ACDBBLOCKREPETAG
1070
     1
1071
       35
1005
0
  0
LINE
  5
32E
330
2
100
AcDbEntity
  8
YKK_A1
100
AcDbLine
 10
7410.04031168
 20
16882.9363
 30
0.0
 11
8340.03768882
 21
16882.9363
 31
0.0
  0
LINE
  5
32F
330
2
100
AcDbEntity
  8
YKK_A1
100
AcDbLine
 10
7516.0390005
 20
16892.9363
 30
0.0
 11
8234.0390005
 21
16892.9363
 31
0.0
1001
ACDBBLOCKREPETAG
1070
     1
1071
       29
1005
0
  0
LINE
  5
330
330
2
100
AcDbEntity
  8
YKK_A1
100
AcDbLine
 10
8234.0390005
 20
17002.9363
 30
0.0
 11
7516.0390005
 21
17002.9363
 31
0.0
1001
ACDBBLOCKREPETAG
1070
     1
1071
       29
1005
0
  0
LINE
  5
331
330
2
100
AcDbEntity
  8
YKK_A1
  6
YDIVIDE_1
100
AcDbLine
 10
7428.0390005
 20
17886.4363
 30
0.0
 11
8322.0390005
 21
16892.9363
 31
0.0
1001
ACDBBLOCKREPETAG
1070
     1
1071
       35
1005
0
  0
LINE
  5
332
330
2
100
AcDbEntity
  8
YKK_A1
100
AcDbLine
 10
7428.0390005
 20
18879.9363
 30
0.0
 11
7428.0390005
 21
16892.9363
 31
0.0
1001
ACDBBLOCKREPETAG
1070
     1
1071
       31
1005
0
  0
LINE
  5
333
330
2
100
AcDbEntity
  8
YKK_A1
100
AcDbLine
 10
7425.0390005
 20
16882.9363
 30
0.0
 11
7425.0390005
 21
18897.93163042
 31
0.0
1001
ACDBBLOCKREPETAG
1070
     1
1071
       25
1005
0
  0
LINE
  5
334
330
2
100
AcDbEntity
  8
YKK_A1
100
AcDbLine
 10
7410.04031168
 20
18897.9363
 30
0.0
 11
7410.04031168
 21
16882.9363
 31
0.0
1001
ACDBBLOCKREPETAG
1070
     1
1071
       25
1005
0
  0
LINE
  5
335
330
2
100
AcDbEntity
  8
YKK_A1
100
AcDbLine
 10
7528.0390005
 20
18769.9363
 30
0.0
 11
7528.0390005
 21
17002.9363
 31
0.0
1001
ACDBBLOCKREPETAG
1070
     1
1071
       32
1005
0
  0
LINE
  5
336
330
2
100
AcDbEntity
  8
YKK_A1
100
AcDbLine
 10
7516.0390005
 20
16892.9363
 30
0.0
 11
7516.0390005
 21
18879.9363
 31
0.0
1001
ACDBBLOCKREPETAG
1070
     1
1071
       31
1005
0
  0
LINE
  5
337
330
2
100
AcDbEntity
  8
YKK_A1
100
AcDbLine
 10
7428.0390005
 20
16892.9363
 30
0.0
 11
7516.0390005
 21
16892.9363
 31
0.0
1001
ACDBBLOCKREPETAG
1070
     1
1071
       31
1005
0
  0
LINE
  5
338
330
2
100
AcDbEntity
  8
YKK_A1
100
AcDbLine
 10
7516.0390005
 20
17002.9363
 30
0.0
 11
7516.0390005
 21
16892.9363
 31
0.0
1001
ACDBBLOCKREPETAG
1070
     1
1071
       29
1005
0
  0
LINE
  5
339
330
2
100
AcDbEntity
  8
YKK_A1
100
AcDbLine
 10
7516.0390005
 20
18879.9363
 30
0.0
 11
7428.0390005
 21
18879.9363
 31
0.0
1001
ACDBBLOCKREPETAG
1070
     1
1071
       31
1005
0
  0
LINE
  5
33A
330
2
100
AcDbEntity
  8
YKK_A1
100
AcDbLine
 10
7425.0390005
 20
18882.9363
 30
0.0
 11
7425.0390005
 21
18897.93163042
 31
0.0
1001
ACDBBLOCKREPETAG
1070
     1
1071
       36
1005
0
  0
LINE
  5
33B
330
2
100
AcDbEntity
  8
YKK_A1
100
AcDbLine
 10
7516.0390005
 20
18879.9363
 30
0.0
 11
7516.0390005
 21
18769.9363
 31
0.0
1001
ACDBBLOCKREPETAG
1070
     1
1071
       28
1005
0
  0
LINE
  5
33C
330
2
100
AcDbEntity
  8
YKK_A1
100
AcDbLine
 10
8322.0390005
 20
16892.9363
 30
0.0
 11
8322.0390005
 21
18879.9363
 31
0.0
1001
ACDBBLOCKREPETAG
1070
     1
1071
       30
1005
0
  0
LINE
  5
33D
330
2
100
AcDbEntity
  8
YKK_A1
100
AcDbLine
 10
8325.0390005
 20
18897.93163042
 30
0.0
 11
8325.0390005
 21
16882.9363
 31
0.0
1001
ACDBBLOCKREPETAG
1070
     1
1071
       26
1005
0
  0
LINE
  5
33E
330
2
100
AcDbEntity
  8
YKK_A1
100
AcDbLine
 10
8340.03768882
 20
16882.9363
 30
0.0
 11
8340.03768882
 21
18897.9363
 31
0.0
1001
ACDBBLOCKREPETAG
1070
     1
1071
       26
1005
0
  0
LINE
  5
33F
330
2
100
AcDbEntity
  8
YKK_A1
100
AcDbLine
 10
8222.0390005
 20
18769.9363
 30
0.0
 11
8222.0390005
 21
17002.9363
 31
0.0
1001
ACDBBLOCKREPETAG
1070
     1
1071
       33
1005
0
  0
LINE
  5
340
330
2
100
AcDbEntity
  8
YKK_A1
100
AcDbLine
 10
8234.0390005
 20
18879.9363
 30
0.0
 11
8234.0390005
 21
16892.9363
 31
0.0
1001
ACDBBLOCKREPETAG
1070
     1
1071
       30
1005
0
  0
LINE
  5
341
330
2
100
AcDbEntity
  8
YKK_A1
100
AcDbLine
 10
8234.0390005
 20
16892.9363
 30
0.0
 11
8234.0390005
 21
17002.9363
 31
0.0
1001
ACDBBLOCKREPETAG
1070
     1
1071
       29
1005
0
  0
LINE
  5
342
330
2
100
AcDbEntity
  8
YKK_A1
100
AcDbLine
 10
8234.0390005
 20
16892.9363
 30
0.0
 11
8322.0390005
 21
16892.9363
 31
0.0
1001
ACDBBLOCKREPETAG
1070
     1
1071
       30
1005
0
  0
CIRCLE
  5
343
330
2
100
AcDbEntity
  8
YKK_A1
  6
ByBlock
100
AcDbCircle
 10
8275.60108288
 20
17482.9363
 30
-0.1
 40
17.5
  0
LINE
  5
344
330
2
100
AcDbEntity
  8
YKK_A1
100
AcDbLine
 10
8325.0390005
 20
18897.93163042
 30
0.0
 11
8325.0390005
 21
18882.9363
 31
0.0
1001
ACDBBLOCKREPETAG
1070
     1
1071
       36
1005
0
  0
LINE
  5
345
330
2
100
AcDbEntity
  8
YKK_A1
100
AcDbLine
 10
8234.0390005
 20
18769.9363
 30
0.0
 11
8234.0390005
 21
18879.9363
 31
0.0
1001
ACDBBLOCKREPETAG
1070
     1
1071
       28
1005
0
  0
LINE
  5
346
330
2
100
AcDbEntity
  8
YKK_A1
100
AcDbLine
 10
8322.0390005
 20
18879.9363
 30
0.0
 11
8234.0390005
 21
18879.9363
 31
0.0
1001
ACDBBLOCKREPETAG
1070
     1
1071
       30
1005
0
  0
3DFACE
  5
347
330
2
100
AcDbEntity
  8
YKK_A1
100
AcDbFace
 10
8298.60108288
 20
17882.9363
 30
0.1
 11
8298.60108288
 21
17682.9363
 31
0.1
 12
8098.60108288
 22
17682.9363
 32
0.1
 13
8098.60108288
 23
17882.9363
 33
0.1
  0
CIRCLE
  5
348
330
2
100
AcDbEntity
  8
YKK_A1
  6
ByBlock
100
AcDbCircle
 10
8275.60108288
 20
17482.9363
 30
0.1
 40
17.5
  0
LINE
  5
349
330
2
100
AcDbEntity
  8
YKK_A1
  6
YDIVIDE_1
100
AcDbLine
 10
11628.039
 20
17886.4363
 30
0.0
 11
12523.039
 21
16892.9363
 31
0.0
1001
ACDBBLOCKREPETAG
1070
     1
1071
       35
1005
0
  0
LINE
  5
34A
330
2
100
AcDbEntity
  8
YKK_A1
100
AcDbLine
 10
12435.039
 20
18879.9363
 30
0.0
 11
12435.039
 21
16892.9363
 31
0.0
1001
ACDBBLOCKREPETAG
1070
     1
1071
       30
1005
0
  0
LINE
  5
34B
330
2
100
AcDbEntity
  8
YKK_A1
100
AcDbLine
 10
12423.039
 20
18769.9363
 30
0.0
 11
12423.039
 21
17002.9363
 31
0.0
1001
ACDBBLOCKREPETAG
1070
     1
1071
       33
1005
0
  0
LINE
  5
34C
330
2
100
AcDbEntity
  8
YKK_A1
100
AcDbLine
 10
11628.039
 20
18879.9363
 30
0.0
 11
11628.039
 21
16892.9363
 31
0.0
1001
ACDBBLOCKREPETAG
1070
     1
1071
       31
1005
0
  0
LINE
  5
34D
330
2
100
AcDbEntity
  8
YKK_A1
100
AcDbLine
 10
11625.039
 20
16882.9363
 30
0.0
 11
11625.039
 21
18897.93163042
 31
0.0
1001
ACDBBLOCKREPETAG
1070
     1
1071
       25
1005
0
  0
LINE
  5
34E
330
2
100
AcDbEntity
  8
YKK_A1
100
AcDbLine
 10
11610.04031118
 20
18897.9363
 30
0.0
 11
11610.04031118
 21
16882.9363
 31
0.0
1001
ACDBBLOCKREPETAG
1070
     1
1071
       25
1005
0
  0
LINE
  5
34F
330
2
100
AcDbEntity
  8
YKK_A1
100
AcDbLine
 10
11716.039
 20
16892.9363
 30
0.0
 11
11716.039
 21
18879.9363
 31
0.0
1001
ACDBBLOCKREPETAG
1070
     1
1071
       31
1005
0
  0
LINE
  5
350
330
2
100
AcDbEntity
  8
YKK_A1
100
AcDbLine
 10
11728.039
 20
18769.9363
 30
0.0
 11
11728.039
 21
17002.9363
 31
0.0
1001
ACDBBLOCKREPETAG
1070
     1
1071
       32
1005
0
  0
LINE
  5
351
330
2
100
AcDbEntity
  8
YKK_A1
  6
YDIVIDE_1
100
AcDbLine
 10
13422.0389995
 20
17886.4363
 30
0.0
 11
12527.0389995
 21
16892.9363
 31
0.0
1001
ACDBBLOCKREPETAG
1070
     1
1071
       35
1005
0
  0
LINE
  5
352
330
2
100
AcDbEntity
  8
YKK_A1
100
AcDbLine
 10
12523.039
 20
16892.9363
 30
0.0
 11
12523.039
 21
18879.9363
 31
0.0
1001
ACDBBLOCKREPETAG
1070
     1
1071
       30
1005
0
  0
LINE
  5
353
330
2
100
AcDbEntity
  8
YKK_A1
100
AcDbLine
 10
12527.0389995
 20
16892.9363
 30
0.0
 11
12527.0389995
 21
18879.9363
 31
0.0
1001
ACDBBLOCKREPETAG
1070
     1
1071
       30
1005
0
  0
LINE
  5
354
330
2
100
AcDbEntity
  8
YKK_A1
100
AcDbLine
 10
13422.0389995
 20
18879.9363
 30
0.0
 11
13422.0389995
 21
16892.9363
 31
0.0
1001
ACDBBLOCKREPETAG
1070
     1
1071
       31
1005
0
  0
LINE
  5
355
330
2
100
AcDbEntity
  8
YKK_A1
100
AcDbLine
 10
13425.039
 20
18897.93163042
 30
0.0
 11
13425.039
 21
16882.9363
 31
0.0
1001
ACDBBLOCKREPETAG
1070
     1
1071
       26
1005
0
  0
LINE
  5
356
330
2
100
AcDbEntity
  8
YKK_A1
100
AcDbLine
 10
13440.03768832
 20
16882.9363
 30
0.0
 11
13440.03768832
 21
18897.9363
 31
0.0
1001
ACDBBLOCKREPETAG
1070
     1
1071
       26
1005
0
  0
LINE
  5
357
330
2
100
AcDbEntity
  8
YKK_A1
100
AcDbLine
 10
12627.0389995
 20
18769.9363
 30
0.0
 11
12627.0389995
 21
17002.9363
 31
0.0
1001
ACDBBLOCKREPETAG
1070
     1
1071
       33
1005
0
  0
LINE
  5
358
330
2
100
AcDbEntity
  8
YKK_A1
100
AcDbLine
 10
12615.0389995
 20
18879.9363
 30
0.0
 11
12615.0389995
 21
16892.9363
 31
0.0
1001
ACDBBLOCKREPETAG
1070
     1
1071
       30
1005
0
  0
LINE
  5
359
330
2
100
AcDbEntity
  8
YKK_A1
100
AcDbLine
 10
13334.0389995
 20
16892.9363
 30
0.0
 11
13334.0389995
 21
18879.9363
 31
0.0
1001
ACDBBLOCKREPETAG
1070
     1
1071
       31
1005
0
  0
LINE
  5
35A
330
2
100
AcDbEntity
  8
YKK_A1
100
AcDbLine
 10
13322.0389995
 20
18769.9363
 30
0.0
 11
13322.0389995
 21
17002.9363
 31
0.0
1001
ACDBBLOCKREPETAG
1070
     1
1071
       32
1005
0
  0
LINE
  5
35B
330
2
100
AcDbEntity
  8
YKK_A1
100
AcDbLine
 10
11716.039
 20
16892.9363
 30
0.0
 11
12435.039
 21
16892.9363
 31
0.0
1001
ACDBBLOCKREPETAG
1070
     1
1071
       29
1005
0
  0
LINE
  5
35C
330
2
100
AcDbEntity
  8
YKK_A1
100
AcDbLine
 10
12435.039
 20
17002.9363
 30
0.0
 11
11716.039
 21
17002.9363
 31
0.0
1001
ACDBBLOCKREPETAG
1070
     1
1071
       29
1005
0
  0
LINE
  5
35D
330
2
100
AcDbEntity
  8
YKK_A1
100
AcDbLine
 10
11610.04031118
 20
16882.9363
 30
0.0
 11
13440.03768832
 21
16882.9363
 31
0.0
  0
LINE
  5
35E
330
2
100
AcDbEntity
  8
YKK_A1
100
AcDbLine
 10
11716.039
 20
17002.9363
 30
0.0
 11
11716.039
 21
16892.9363
 31
0.0
1001
ACDBBLOCKREPETAG
1070
     1
1071
       29
1005
0
  0
LINE
  5
35F
330
2
100
AcDbEntity
  8
YKK_A1
100
AcDbLine
 10
11628.039
 20
16892.9363
 30
0.0
 11
11716.039
 21
16892.9363
 31
0.0
1001
ACDBBLOCKREPETAG
1070
     1
1071
       31
1005
0
  0
LINE
  5
360
330
2
100
AcDbEntity
  8
YKK_A1
100
AcDbLine
 10
12615.0389995
 20
17002.9363
 30
0.0
 11
13334.0389995
 21
17002.9363
 31
0.0
1001
ACDBBLOCKREPETAG
1070
     1
1071
       29
1005
0
  0
LINE
  5
361
330
2
100
AcDbEntity
  8
YKK_A1
100
AcDbLine
 10
13334.0389995
 20
16892.9363
 30
0.0
 11
12615.0389995
 21
16892.9363
 31
0.0
1001
ACDBBLOCKREPETAG
1070
     1
1071
       29
1005
0
  0
LINE
  5
362
330
2
100
AcDbEntity
  8
YKK_A1
100
AcDbLine
 10
12615.0389995
 20
16892.9363
 30
0.0
 11
12527.0389995
 21
16892.9363
 31
0.0
1001
ACDBBLOCKREPETAG
1070
     1
1071
       30
1005
0
  0
LINE
  5
363
330
2
100
AcDbEntity
  8
YKK_A1
100
AcDbLine
 10
12435.039
 20
16892.9363
 30
0.0
 11
12523.039
 21
16892.9363
 31
0.0
1001
ACDBBLOCKREPETAG
1070
     1
1071
       30
1005
0
  0
LINE
  5
364
330
2
100
AcDbEntity
  8
YKK_A1
100
AcDbLine
 10
12435.039
 20
16892.9363
 30
0.0
 11
12435.039
 21
17002.9363
 31
0.0
1001
ACDBBLOCKREPETAG
1070
     1
1071
       29
1005
0
  0
LINE
  5
365
330
2
100
AcDbEntity
  8
YKK_A1
100
AcDbLine
 10
12615.0389995
 20
16892.9363
 30
0.0
 11
12615.0389995
 21
17002.9363
 31
0.0
1001
ACDBBLOCKREPETAG
1070
     1
1071
       29
1005
0
  0
LINE
  5
366
330
2
100
AcDbEntity
  8
YKK_A1
100
AcDbLine
 10
13334.0389995
 20
17002.9363
 30
0.0
 11
13334.0389995
 21
16892.9363
 31
0.0
1001
ACDBBLOCKREPETAG
1070
     1
1071
       29
1005
0
  0
LINE
  5
367
330
2
100
AcDbEntity
  8
YKK_A1
100
AcDbLine
 10
13422.0389995
 20
16892.9363
 30
0.0
 11
13334.0389995
 21
16892.9363
 31
0.0
1001
ACDBBLOCKREPETAG
1070
     1
1071
       31
1005
0
  0
CIRCLE
  5
368
330
2
100
AcDbEntity
  8
YKK_A1
  6
ByBlock
100
AcDbCircle
 10
12476.60108238
 20
17482.9363
 30
-0.1
 40
17.5
  0
LINE
  5
369
330
2
100
AcDbEntity
  8
YKK_A1
100
AcDbLine
 10
11716.039
 20
18769.9363
 30
0.0
 11
12435.039
 21
18769.9363
 31
0.0
1001
ACDBBLOCKREPETAG
1070
     1
1071
       28
1005
0
  0
LINE
  5
36A
330
2
100
AcDbEntity
  8
YKK_A1
100
AcDbLine
 10
12435.039
 20
18879.9363
 30
0.0
 11
11716.039
 21
18879.9363
 31
0.0
1001
ACDBBLOCKREPETAG
1070
     1
1071
       28
1005
0
  0
LINE
  5
36B
330
2
100
AcDbEntity
  8
YKK_A1
  6
YDIVIDE_1
100
AcDbLine
 10
12523.039
 20
18879.9363
 30
0.0
 11
11628.039
 21
17886.4363
 31
0.0
1001
ACDBBLOCKREPETAG
1070
     1
1071
       35
1005
0
  0
LINE
  5
36C
330
2
100
AcDbEntity
  8
YKK_A1
100
AcDbLine
 10
13425.039
 20
18882.9363
 30
0.0
 11
11625.039
 21
18882.9363
 31
0.0
1001
ACDBBLOCKREPETAG
1070
     1
1071
       36
1005
0
  0
LINE
  5
36D
330
2
100
AcDbEntity
  8
YKK_A1
100
AcDbLine
 10
11625.039
 20
18897.9363
 30
0.0
 11
13425.039
 21
18897.9363
 31
0.0
1001
ACDBBLOCKREPETAG
1070
     1
1071
       36
1005
0
  0
LINE
  5
36E
330
2
100
AcDbEntity
  8
YKK_A1
100
AcDbLine
 10
11610.04031118
 20
18897.9363
 30
0.0
 11
13440.03768832
 21
18897.9363
 31
0.0
1001
ACDBBLOCKREPETAG
1070
     1
1071
       38
1005
0
  0
LINE
  5
36F
330
2
100
AcDbEntity
  8
YKK_A1
100
AcDbLine
 10
11716.039
 20
18879.9363
 30
0.0
 11
11716.039
 21
18769.9363
 31
0.0
1001
ACDBBLOCKREPETAG
1070
     1
1071
       28
1005
0
  0
LINE
  5
370
330
2
100
AcDbEntity
  8
YKK_A1
100
AcDbLine
 10
11625.039
 20
18882.9363
 30
0.0
 11
11625.039
 21
18897.93163042
 31
0.0
1001
ACDBBLOCKREPETAG
1070
     1
1071
       36
1005
0
  0
LINE
  5
371
330
2
100
AcDbEntity
  8
YKK_A1
100
AcDbLine
 10
11716.039
 20
18879.9363
 30
0.0
 11
11628.039
 21
18879.9363
 31
0.0
1001
ACDBBLOCKREPETAG
1070
     1
1071
       31
1005
0
  0
LINE
  5
372
330
2
100
AcDbEntity
  8
YKK_A1
  6
YDIVIDE_1
100
AcDbLine
 10
12527.0389995
 20
18879.9363
 30
0.0
 11
13422.0389995
 21
17886.4363
 31
0.0
1001
ACDBBLOCKREPETAG
1070
     1
1071
       35
1005
0
  0
LINE
  5
373
330
2
100
AcDbEntity
  8
YKK_A1
100
AcDbLine
 10
12615.0389995
 20
18879.9363
 30
0.0
 11
13334.0389995
 21
18879.9363
 31
0.0
1001
ACDBBLOCKREPETAG
1070
     1
1071
       28
1005
0
  0
LINE
  5
374
330
2
100
AcDbEntity
  8
YKK_A1
100
AcDbLine
 10
13334.0389995
 20
18769.9363
 30
0.0
 11
12615.0389995
 21
18769.9363
 31
0.0
1001
ACDBBLOCKREPETAG
1070
     1
1071
       28
1005
0
  0
LINE
  5
375
330
2
100
AcDbEntity
  8
YKK_A1
100
AcDbLine
 10
12527.0389995
 20
18879.9363
 30
0.0
 11
12615.0389995
 21
18879.9363
 31
0.0
1001
ACDBBLOCKREPETAG
1070
     1
1071
       30
1005
0
  0
LINE
  5
376
330
2
100
AcDbEntity
  8
YKK_A1
100
AcDbLine
 10
12523.039
 20
18879.9363
 30
0.0
 11
12435.039
 21
18879.9363
 31
0.0
1001
ACDBBLOCKREPETAG
1070
     1
1071
       30
1005
0
  0
LINE
  5
377
330
2
100
AcDbEntity
  8
YKK_A1
100
AcDbLine
 10
12435.039
 20
18769.9363
 30
0.0
 11
12435.039
 21
18879.9363
 31
0.0
1001
ACDBBLOCKREPETAG
1070
     1
1071
       28
1005
0
  0
LINE
  5
378
330
2
100
AcDbEntity
  8
YKK_A1
100
AcDbLine
 10
12615.0389995
 20
18769.9363
 30
0.0
 11
12615.0389995
 21
18879.9363
 31
0.0
1001
ACDBBLOCKREPETAG
1070
     1
1071
       28
1005
0
  0
LINE
  5
379
330
2
100
AcDbEntity
  8
YKK_A1
100
AcDbLine
 10
13334.0389995
 20
18879.9363
 30
0.0
 11
13334.0389995
 21
18769.9363
 31
0.0
1001
ACDBBLOCKREPETAG
1070
     1
1071
       28
1005
0
  0
LINE
  5
37A
330
2
100
AcDbEntity
  8
YKK_A1
100
AcDbLine
 10
13334.0389995
 20
18879.9363
 30
0.0
 11
13422.0389995
 21
18879.9363
 31
0.0
1001
ACDBBLOCKREPETAG
1070
     1
1071
       31
1005
0
  0
3DFACE
  5
37B
330
2
100
AcDbEntity
  8
YKK_A1
100
AcDbFace
 10
12550.47691762
 20
17882.9363
 30
0.1
 11
12550.47691762
 21
17682.9363
 31
0.1
 12
12750.47691762
 22
17682.9363
 32
0.1
 13
12750.47691762
 23
17882.9363
 33
0.1
  0
3DFACE
  5
37C
330
2
100
AcDbEntity
  8
YKK_A1
100
AcDbFace
 10
12499.60108238
 20
17882.9363
 30
0.1
 11
12499.60108238
 21
17682.9363
 31
0.1
 12
12299.60108238
 22
17682.9363
 32
0.1
 13
12299.60108238
 23
17882.9363
 33
0.1
  0
CIRCLE
  5
37D
330
2
100
AcDbEntity
  8
YKK_A1
  6
ByBlock
100
AcDbCircle
 10
12476.60108238
 20
17482.9363
 30
0.1
 40
17.5
  0
LINE
  5
37E
330
2
100
AcDbEntity
  8
YKK_A1
  6
YDIVIDE_1
100
AcDbLine
 10
7428.0390005
 20
11681.4363
 30
0.0
 11
8322.0390005
 21
10687.9363
 31
0.0
1001
ACDBBLOCKREPETAG
1070
     1
1071
       35
1005
0
  0
LINE
  5
37F
330
2
100
AcDbEntity
  8
YKK_A1
100
AcDbLine
 10
8234.0390005
 20
12674.9363
 30
0.0
 11
8234.0390005
 21
10687.9363
 31
0.0
1001
ACDBBLOCKREPETAG
1070
     1
1071
       30
1005
0
  0
LINE
  5
380
330
2
100
AcDbEntity
  8
YKK_A1
100
AcDbLine
 10
8222.0390005
 20
12564.9363
 30
0.0
 11
8222.0390005
 21
10797.9363
 31
0.0
1001
ACDBBLOCKREPETAG
1070
     1
1071
       33
1005
0
  0
LINE
  5
381
330
2
100
AcDbEntity
  8
YKK_A1
100
AcDbLine
 10
7516.0390005
 20
10687.9363
 30
0.0
 11
7516.0390005
 21
12674.9363
 31
0.0
1001
ACDBBLOCKREPETAG
1070
     1
1071
       31
1005
0
  0
LINE
  5
382
330
2
100
AcDbEntity
  8
YKK_A1
100
AcDbLine
 10
7528.0390005
 20
12564.9363
 30
0.0
 11
7528.0390005
 21
10797.9363
 31
0.0
1001
ACDBBLOCKREPETAG
1070
     1
1071
       32
1005
0
  0
LINE
  5
383
330
2
100
AcDbEntity
  8
YKK_A1
100
AcDbLine
 10
8325.0390005
 20
13192.93163042
 30
0.0
 11
8325.0390005
 21
10677.9363
 31
0.0
1001
ACDBBLOCKREPETAG
1070
     1
1071
       26
1005
0
  0
LINE
  5
384
330
2
100
AcDbEntity
  8
YKK_A1
100
AcDbLine
 10
8340.03768882
 20
10677.9363
 30
0.0
 11
8340.03768882
 21
13192.9363
 31
0.0
1001
ACDBBLOCKREPETAG
1070
     1
1071
       26
1005
0
  0
LINE
  5
385
330
2
100
AcDbEntity
  8
YKK_A1
100
AcDbLine
 10
7410.04031168
 20
13192.9363
 30
0.0
 11
7410.04031168
 21
10677.9363
 31
0.0
1001
ACDBBLOCKREPETAG
1070
     1
1071
       25
1005
0
  0
LINE
  5
386
330
2
100
AcDbEntity
  8
YKK_A1
100
AcDbLine
 10
7425.0390005
 20
10677.9363
 30
0.0
 11
7425.0390005
 21
13192.93163042
 31
0.0
1001
ACDBBLOCKREPETAG
1070
     1
1071
       25
1005
0
  0
LINE
  5
387
330
2
100
AcDbEntity
  8
YKK_A1
100
AcDbLine
 10
7428.0390005
 20
12674.9363
 30
0.0
 11
7428.0390005
 21
10687.9363
 31
0.0
1001
ACDBBLOCKREPETAG
1070
     1
1071
       31
1005
0
  0
LINE
  5
388
330
2
100
AcDbEntity
  8
YKK_A1
100
AcDbLine
 10
8322.0390005
 20
10687.9363
 30
0.0
 11
8322.0390005
 21
12674.9363
 31
0.0
1001
ACDBBLOCKREPETAG
1070
     1
1071
       30
1005
0
  0
LINE
  5
389
330
2
100
AcDbEntity
  8
YKK_A1
100
AcDbLine
 10
8234.0390005
 20
10797.9363
 30
0.0
 11
7516.0390005
 21
10797.9363
 31
0.0
1001
ACDBBLOCKREPETAG
1070
     1
1071
       29
1005
0
  0
LINE
  5
38A
330
2
100
AcDbEntity
  8
YKK_A1
100
AcDbLine
 10
7516.0390005
 20
10687.9363
 30
0.0
 11
8234.0390005
 21
10687.9363
 31
0.0
1001
ACDBBLOCKREPETAG
1070
     1
1071
       29
1005
0
  0
LINE
  5
38B
330
2
100
AcDbEntity
  8
YKK_A1
100
AcDbLine
 10
7410.04031168
 20
10677.9363
 30
0.0
 11
8340.03768882
 21
10677.9363
 31
0.0
  0
LINE
  5
38C
330
2
100
AcDbEntity
  8
YKK_A1
100
AcDbLine
 10
7428.0390005
 20
10687.9363
 30
0.0
 11
7516.0390005
 21
10687.9363
 31
0.0
1001
ACDBBLOCKREPETAG
1070
     1
1071
       31
1005
0
  0
LINE
  5
38D
330
2
100
AcDbEntity
  8
YKK_A1
100
AcDbLine
 10
7516.0390005
 20
10797.9363
 30
0.0
 11
7516.0390005
 21
10687.9363
 31
0.0
1001
ACDBBLOCKREPETAG
1070
     1
1071
       29
1005
0
  0
CIRCLE
  5
38E
330
2
100
AcDbEntity
  8
YKK_A1
  6
ByBlock
100
AcDbCircle
 10
8275.60108288
 20
11277.9363
 30
-0.1
 40
17.5
  0
LINE
  5
38F
330
2
100
AcDbEntity
  8
YKK_A1
100
AcDbLine
 10
8234.0390005
 20
10687.9363
 30
0.0
 11
8234.0390005
 21
10797.9363
 31
0.0
1001
ACDBBLOCKREPETAG
1070
     1
1071
       29
1005
0
  0
LINE
  5
390
330
2
100
AcDbEntity
  8
YKK_A1
100
AcDbLine
 10
8234.0390005
 20
10687.9363
 30
0.0
 11
8322.0390005
 21
10687.9363
 31
0.0
1001
ACDBBLOCKREPETAG
1070
     1
1071
       30
1005
0
  0
CIRCLE
  5
391
330
2
100
AcDbEntity
  8
YKK_A1
  6
ByBlock
100
AcDbCircle
 10
8275.60108288
 20
11277.9363
 30
0.1
 40
17.5
  0
LINE
  5
392
330
2
100
AcDbEntity
  8
YKK_A1
100
AcDbLine
 10
8325.0390005
 20
13177.9363
 30
0.0
 11
7425.0390005
 21
13177.9363
 31
0.0
1001
ACDBBLOCKREPETAG
1070
     1
1071
       36
1005
0
  0
LINE
  5
393
330
2
100
AcDbEntity
  8
YKK_A1
100
AcDbLine
 10
7425.0390005
 20
13192.9363
 30
0.0
 11
8325.0390005
 21
13192.9363
 31
0.0
1001
ACDBBLOCKREPETAG
1070
     1
1071
       36
1005
0
  0
LINE
  5
394
330
2
100
AcDbEntity
  8
YKK_A1
100
AcDbLine
 10
7410.04031168
 20
13192.9363
 30
0.0
 11
8340.03768882
 21
13192.9363
 31
0.0
1001
ACDBBLOCKREPETAG
1070
     1
1071
       38
1005
0
  0
LINE
  5
395
330
2
100
AcDbEntity
  8
YKK_A1
  6
YDIVIDE_1
100
AcDbLine
 10
8322.0390005
 20
12674.9363
 30
0.0
 11
7428.0390005
 21
11681.4363
 31
0.0
1001
ACDBBLOCKREPETAG
1070
     1
1071
       35
1005
0
  0
LINE
  5
396
330
2
100
AcDbEntity
  8
YKK_A1
100
AcDbLine
 10
7516.0390005
 20
12564.9363
 30
0.0
 11
8234.0390005
 21
12564.9363
 31
0.0
1001
ACDBBLOCKREPETAG
1070
     1
1071
       28
1005
0
  0
LINE
  5
397
330
2
100
AcDbEntity
  8
YKK_A1
100
AcDbLine
 10
8234.0390005
 20
12674.9363
 30
0.0
 11
7516.0390005
 21
12674.9363
 31
0.0
1001
ACDBBLOCKREPETAG
1070
     1
1071
       28
1005
0
  0
LINE
  5
398
330
2
100
AcDbEntity
  8
YKK_A1
100
AcDbLine
 10
7425.0390005
 20
12727.9363
 30
0.0
 11
8325.0390005
 21
12727.9363
 31
0.0
1001
ACDBBLOCKREPETAG
1070
     1
1071
       27
1005
0
  0
LINE
  5
399
330
2
100
AcDbEntity
  8
YKK_A1
100
AcDbLine
 10
8325.0390005
 20
12677.9363
 30
0.0
 11
7425.0390005
 21
12677.9363
 31
0.0
1001
ACDBBLOCKREPETAG
1070
     1
1071
       27
1005
0
  0
LINE
  5
39A
330
2
100
AcDbEntity
  8
YKK_A1
100
AcDbLine
 10
7516.0390005
 20
12674.9363
 30
0.0
 11
7428.0390005
 21
12674.9363
 31
0.0
1001
ACDBBLOCKREPETAG
1070
     1
1071
       31
1005
0
  0
LINE
  5
39B
330
2
100
AcDbEntity
  8
YKK_A1
100
AcDbLine
 10
7425.0390005
 20
12677.9363
 30
0.0
 11
7425.0390005
 21
12727.9363
 31
0.0
1001
ACDBBLOCKREPETAG
1070
     1
1071
       27
1005
0
  0
LINE
  5
39C
330
2
100
AcDbEntity
  8
YKK_A1
100
AcDbLine
 10
7516.0390005
 20
12674.9363
 30
0.0
 11
7516.0390005
 21
12564.9363
 31
0.0
1001
ACDBBLOCKREPETAG
1070
     1
1071
       28
1005
0
  0
LINE
  5
39D
330
2
100
AcDbEntity
  8
YKK_A1
100
AcDbLine
 10
7425.0390005
 20
13177.9363
 30
0.0
 11
7425.0390005
 21
13192.93163042
 31
0.0
1001
ACDBBLOCKREPETAG
1070
     1
1071
       36
1005
0
  0
LINE
  5
39E
330
2
100
AcDbEntity
  8
YKK_A1
100
AcDbLine
 10
8325.0390005
 20
12727.9363
 30
0.0
 11
8325.0390005
 21
12677.9363
 31
0.0
1001
ACDBBLOCKREPETAG
1070
     1
1071
       27
1005
0
  0
LINE
  5
39F
330
2
100
AcDbEntity
  8
YKK_A1
100
AcDbLine
 10
8234.0390005
 20
12564.9363
 30
0.0
 11
8234.0390005
 21
12674.9363
 31
0.0
1001
ACDBBLOCKREPETAG
1070
     1
1071
       28
1005
0
  0
TEXT
  5
3A0
330
2
100
AcDbEntity
  8
YKK_A1
100
AcDbText
 10
8197.19682104
 20
12808.47279353
 30
0.0
 40
60.0
  1
F
 41
0.8
  7
YKK_SGSTYLE1
 72
     2
 11
8236.05396389
 21
12808.47279353
 31
0.0
100
AcDbText
  0
LINE
  5
3A1
330
2
100
AcDbEntity
  8
YKK_A1
100
AcDbLine
 10
8322.0390005
 20
12674.9363
 30
0.0
 11
8234.0390005
 21
12674.9363
 31
0.0
1001
ACDBBLOCKREPETAG
1070
     1
1071
       30
1005
0
  0
LINE
  5
3A2
330
2
100
AcDbEntity
  8
YKK_A1
100
AcDbLine
 10
8325.0390005
 20
13192.93163042
 30
0.0
 11
8325.0390005
 21
13177.9363
 31
0.0
1001
ACDBBLOCKREPETAG
1070
     1
1071
       36
1005
0
  0
3DFACE
  5
3A3
330
2
100
AcDbEntity
  8
YKK_A1
100
AcDbFace
 10
8298.60108288
 20
11677.9363
 30
0.1
 11
8298.60108288
 21
11477.9363
 31
0.1
 12
8098.60108288
 22
11477.9363
 32
0.1
 13
8098.60108288
 23
11677.9363
 33
0.1
  0
LINE
  5
3A4
330
2
100
AcDbEntity
  8
YKK_A1
  6
YDIVIDE_1
100
AcDbLine
 10
13422.0389995
 20
11681.4363
 30
0.0
 11
12527.0389995
 21
10687.9363
 31
0.0
1001
ACDBBLOCKREPETAG
1070
     1
1071
       35
1005
0
  0
LINE
  5
3A5
330
2
100
AcDbEntity
  8
YKK_A1
100
AcDbLine
 10
13334.0389995
 20
10687.9363
 30
0.0
 11
13334.0389995
 21
12674.9363
 31
0.0
1001
ACDBBLOCKREPETAG
1070
     1
1071
       31
1005
0
  0
LINE
  5
3A6
330
2
100
AcDbEntity
  8
YKK_A1
100
AcDbLine
 10
13322.0389995
 20
12564.9363
 30
0.0
 11
13322.0389995
 21
10797.9363
 31
0.0
1001
ACDBBLOCKREPETAG
1070
     1
1071
       32
1005
0
  0
LINE
  5
3A7
330
2
100
AcDbEntity
  8
YKK_A1
100
AcDbLine
 10
12627.0389995
 20
12564.9363
 30
0.0
 11
12627.0389995
 21
10797.9363
 31
0.0
1001
ACDBBLOCKREPETAG
1070
     1
1071
       33
1005
0
  0
LINE
  5
3A8
330
2
100
AcDbEntity
  8
YKK_A1
100
AcDbLine
 10
12615.0389995
 20
12674.9363
 30
0.0
 11
12615.0389995
 21
10687.9363
 31
0.0
1001
ACDBBLOCKREPETAG
1070
     1
1071
       30
1005
0
  0
LINE
  5
3A9
330
2
100
AcDbEntity
  8
YKK_A1
100
AcDbLine
 10
13422.0389995
 20
12674.9363
 30
0.0
 11
13422.0389995
 21
10687.9363
 31
0.0
1001
ACDBBLOCKREPETAG
1070
     1
1071
       31
1005
0
  0
LINE
  5
3AA
330
2
100
AcDbEntity
  8
YKK_A1
100
AcDbLine
 10
13440.03768832
 20
10677.9363
 30
0.0
 11
13440.03768832
 21
13192.9363
 31
0.0
1001
ACDBBLOCKREPETAG
1070
     1
1071
       26
1005
0
  0
LINE
  5
3AB
330
2
100
AcDbEntity
  8
YKK_A1
100
AcDbLine
 10
13425.039
 20
13192.93163042
 30
0.0
 11
13425.039
 21
10677.9363
 31
0.0
1001
ACDBBLOCKREPETAG
1070
     1
1071
       26
1005
0
  0
LINE
  5
3AC
330
2
100
AcDbEntity
  8
YKK_A1
100
AcDbLine
 10
12523.039
 20
10687.9363
 30
0.0
 11
12523.039
 21
12674.9363
 31
0.0
1001
ACDBBLOCKREPETAG
1070
     1
1071
       30
1005
0
  0
LINE
  5
3AD
330
2
100
AcDbEntity
  8
YKK_A1
100
AcDbLine
 10
12527.0389995
 20
10687.9363
 30
0.0
 11
12527.0389995
 21
12674.9363
 31
0.0
1001
ACDBBLOCKREPETAG
1070
     1
1071
       30
1005
0
  0
LINE
  5
3AE
330
2
100
AcDbEntity
  8
YKK_A1
100
AcDbLine
 10
12435.039
 20
12674.9363
 30
0.0
 11
12435.039
 21
10687.9363
 31
0.0
1001
ACDBBLOCKREPETAG
1070
     1
1071
       30
1005
0
  0
LINE
  5
3AF
330
2
100
AcDbEntity
  8
YKK_A1
100
AcDbLine
 10
12423.039
 20
12564.9363
 30
0.0
 11
12423.039
 21
10797.9363
 31
0.0
1001
ACDBBLOCKREPETAG
1070
     1
1071
       33
1005
0
  0
LINE
  5
3B0
330
2
100
AcDbEntity
  8
YKK_A1
100
AcDbLine
 10
11728.039
 20
12564.9363
 30
0.0
 11
11728.039
 21
10797.9363
 31
0.0
1001
ACDBBLOCKREPETAG
1070
     1
1071
       32
1005
0
  0
LINE
  5
3B1
330
2
100
AcDbEntity
  8
YKK_A1
100
AcDbLine
 10
11716.039
 20
10687.9363
 30
0.0
 11
11716.039
 21
12674.9363
 31
0.0
1001
ACDBBLOCKREPETAG
1070
     1
1071
       31
1005
0
  0
LINE
  5
3B2
330
2
100
AcDbEntity
  8
YKK_A1
100
AcDbLine
 10
11628.039
 20
12674.9363
 30
0.0
 11
11628.039
 21
10687.9363
 31
0.0
1001
ACDBBLOCKREPETAG
1070
     1
1071
       31
1005
0
  0
LINE
  5
3B3
330
2
100
AcDbEntity
  8
YKK_A1
100
AcDbLine
 10
11610.04031118
 20
13192.9363
 30
0.0
 11
11610.04031118
 21
10677.9363
 31
0.0
1001
ACDBBLOCKREPETAG
1070
     1
1071
       25
1005
0
  0
LINE
  5
3B4
330
2
100
AcDbEntity
  8
YKK_A1
100
AcDbLine
 10
11625.039
 20
10677.9363
 30
0.0
 11
11625.039
 21
13192.93163042
 31
0.0
1001
ACDBBLOCKREPETAG
1070
     1
1071
       25
1005
0
  0
LINE
  5
3B5
330
2
100
AcDbEntity
  8
YKK_A1
  6
YDIVIDE_1
100
AcDbLine
 10
11628.039
 20
11681.4363
 30
0.0
 11
12523.039
 21
10687.9363
 31
0.0
1001
ACDBBLOCKREPETAG
1070
     1
1071
       35
1005
0
  0
CIRCLE
  5
3B6
330
2
100
AcDbEntity
  8
YKK_A1
  6
ByBlock
100
AcDbCircle
 10
12476.60108238
 20
11277.9363
 30
-0.1
 40
17.5
  0
LINE
  5
3B7
330
2
100
AcDbEntity
  8
YKK_A1
100
AcDbLine
 10
11716.039
 20
10687.9363
 30
0.0
 11
12435.039
 21
10687.9363
 31
0.0
1001
ACDBBLOCKREPETAG
1070
     1
1071
       29
1005
0
  0
LINE
  5
3B8
330
2
100
AcDbEntity
  8
YKK_A1
100
AcDbLine
 10
12435.039
 20
10797.9363
 30
0.0
 11
11716.039
 21
10797.9363
 31
0.0
1001
ACDBBLOCKREPETAG
1070
     1
1071
       29
1005
0
  0
LINE
  5
3B9
330
2
100
AcDbEntity
  8
YKK_A1
100
AcDbLine
 10
11610.04031118
 20
10677.9363
 30
0.0
 11
13440.03768832
 21
10677.9363
 31
0.0
  0
LINE
  5
3BA
330
2
100
AcDbEntity
  8
YKK_A1
100
AcDbLine
 10
11716.039
 20
10797.9363
 30
0.0
 11
11716.039
 21
10687.9363
 31
0.0
1001
ACDBBLOCKREPETAG
1070
     1
1071
       29
1005
0
  0
LINE
  5
3BB
330
2
100
AcDbEntity
  8
YKK_A1
100
AcDbLine
 10
11628.039
 20
10687.9363
 30
0.0
 11
11716.039
 21
10687.9363
 31
0.0
1001
ACDBBLOCKREPETAG
1070
     1
1071
       31
1005
0
  0
LINE
  5
3BC
330
2
100
AcDbEntity
  8
YKK_A1
100
AcDbLine
 10
12615.0389995
 20
10797.9363
 30
0.0
 11
13334.0389995
 21
10797.9363
 31
0.0
1001
ACDBBLOCKREPETAG
1070
     1
1071
       29
1005
0
  0
LINE
  5
3BD
330
2
100
AcDbEntity
  8
YKK_A1
100
AcDbLine
 10
13334.0389995
 20
10687.9363
 30
0.0
 11
12615.0389995
 21
10687.9363
 31
0.0
1001
ACDBBLOCKREPETAG
1070
     1
1071
       29
1005
0
  0
LINE
  5
3BE
330
2
100
AcDbEntity
  8
YKK_A1
100
AcDbLine
 10
12615.0389995
 20
10687.9363
 30
0.0
 11
12527.0389995
 21
10687.9363
 31
0.0
1001
ACDBBLOCKREPETAG
1070
     1
1071
       30
1005
0
  0
LINE
  5
3BF
330
2
100
AcDbEntity
  8
YKK_A1
100
AcDbLine
 10
12435.039
 20
10687.9363
 30
0.0
 11
12523.039
 21
10687.9363
 31
0.0
1001
ACDBBLOCKREPETAG
1070
     1
1071
       30
1005
0
  0
LINE
  5
3C0
330
2
100
AcDbEntity
  8
YKK_A1
100
AcDbLine
 10
12435.039
 20
10687.9363
 30
0.0
 11
12435.039
 21
10797.9363
 31
0.0
1001
ACDBBLOCKREPETAG
1070
     1
1071
       29
1005
0
  0
LINE
  5
3C1
330
2
100
AcDbEntity
  8
YKK_A1
100
AcDbLine
 10
12615.0389995
 20
10687.9363
 30
0.0
 11
12615.0389995
 21
10797.9363
 31
0.0
1001
ACDBBLOCKREPETAG
1070
     1
1071
       29
1005
0
  0
LINE
  5
3C2
330
2
100
AcDbEntity
  8
YKK_A1
100
AcDbLine
 10
13334.0389995
 20
10797.9363
 30
0.0
 11
13334.0389995
 21
10687.9363
 31
0.0
1001
ACDBBLOCKREPETAG
1070
     1
1071
       29
1005
0
  0
LINE
  5
3C3
330
2
100
AcDbEntity
  8
YKK_A1
100
AcDbLine
 10
13422.0389995
 20
10687.9363
 30
0.0
 11
13334.0389995
 21
10687.9363
 31
0.0
1001
ACDBBLOCKREPETAG
1070
     1
1071
       31
1005
0
  0
CIRCLE
  5
3C4
330
2
100
AcDbEntity
  8
YKK_A1
  6
ByBlock
100
AcDbCircle
 10
12476.60108238
 20
11277.9363
 30
0.1
 40
17.5
  0
LINE
  5
3C5
330
2
100
AcDbEntity
  8
YKK_A1
100
AcDbLine
 10
11716.039
 20
12564.9363
 30
0.0
 11
12435.039
 21
12564.9363
 31
0.0
1001
ACDBBLOCKREPETAG
1070
     1
1071
       28
1005
0
  0
LINE
  5
3C6
330
2
100
AcDbEntity
  8
YKK_A1
100
AcDbLine
 10
12435.039
 20
12674.9363
 30
0.0
 11
11716.039
 21
12674.9363
 31
0.0
1001
ACDBBLOCKREPETAG
1070
     1
1071
       28
1005
0
  0
LINE
  5
3C7
330
2
100
AcDbEntity
  8
YKK_A1
  6
YDIVIDE_1
100
AcDbLine
 10
12523.039
 20
12674.9363
 30
0.0
 11
11628.039
 21
11681.4363
 31
0.0
1001
ACDBBLOCKREPETAG
1070
     1
1071
       35
1005
0
  0
LINE
  5
3C8
330
2
100
AcDbEntity
  8
YKK_A1
100
AcDbLine
 10
13425.039
 20
13177.9363
 30
0.0
 11
11625.039
 21
13177.9363
 31
0.0
1001
ACDBBLOCKREPETAG
1070
     1
1071
       36
1005
0
  0
LINE
  5
3C9
330
2
100
AcDbEntity
  8
YKK_A1
100
AcDbLine
 10
11625.039
 20
13192.9363
 30
0.0
 11
13425.039
 21
13192.9363
 31
0.0
1001
ACDBBLOCKREPETAG
1070
     1
1071
       36
1005
0
  0
LINE
  5
3CA
330
2
100
AcDbEntity
  8
YKK_A1
100
AcDbLine
 10
11610.04031118
 20
13192.9363
 30
0.0
 11
13440.03768832
 21
13192.9363
 31
0.0
1001
ACDBBLOCKREPETAG
1070
     1
1071
       38
1005
0
  0
LINE
  5
3CB
330
2
100
AcDbEntity
  8
YKK_A1
100
AcDbLine
 10
13425.039
 20
12677.9363
 30
0.0
 11
11625.039
 21
12677.9363
 31
0.0
1001
ACDBBLOCKREPETAG
1070
     1
1071
       27
1005
0
  0
LINE
  5
3CC
330
2
100
AcDbEntity
  8
YKK_A1
100
AcDbLine
 10
11625.039
 20
12727.9363
 30
0.0
 11
13425.039
 21
12727.9363
 31
0.0
1001
ACDBBLOCKREPETAG
1070
     1
1071
       27
1005
0
  0
LINE
  5
3CD
330
2
100
AcDbEntity
  8
YKK_A1
100
AcDbLine
 10
11716.039
 20
12674.9363
 30
0.0
 11
11716.039
 21
12564.9363
 31
0.0
1001
ACDBBLOCKREPETAG
1070
     1
1071
       28
1005
0
  0
LINE
  5
3CE
330
2
100
AcDbEntity
  8
YKK_A1
100
AcDbLine
 10
11625.039
 20
12677.9363
 30
0.0
 11
11625.039
 21
12727.9363
 31
0.0
1001
ACDBBLOCKREPETAG
1070
     1
1071
       27
1005
0
  0
LINE
  5
3CF
330
2
100
AcDbEntity
  8
YKK_A1
100
AcDbLine
 10
11716.039
 20
12674.9363
 30
0.0
 11
11628.039
 21
12674.9363
 31
0.0
1001
ACDBBLOCKREPETAG
1070
     1
1071
       31
1005
0
  0
LINE
  5
3D0
330
2
100
AcDbEntity
  8
YKK_A1
100
AcDbLine
 10
11625.039
 20
13177.9363
 30
0.0
 11
11625.039
 21
13192.93163042
 31
0.0
1001
ACDBBLOCKREPETAG
1070
     1
1071
       36
1005
0
  0
LINE
  5
3D1
330
2
100
AcDbEntity
  8
YKK_A1
100
AcDbLine
 10
12615.0389995
 20
12674.9363
 30
0.0
 11
13334.0389995
 21
12674.9363
 31
0.0
1001
ACDBBLOCKREPETAG
1070
     1
1071
       28
1005
0
  0
LINE
  5
3D2
330
2
100
AcDbEntity
  8
YKK_A1
100
AcDbLine
 10
13334.0389995
 20
12564.9363
 30
0.0
 11
12615.0389995
 21
12564.9363
 31
0.0
1001
ACDBBLOCKREPETAG
1070
     1
1071
       28
1005
0
  0
LINE
  5
3D3
330
2
100
AcDbEntity
  8
YKK_A1
  6
YDIVIDE_1
100
AcDbLine
 10
12527.0389995
 20
12674.9363
 30
0.0
 11
13422.0389995
 21
11681.4363
 31
0.0
1001
ACDBBLOCKREPETAG
1070
     1
1071
       35
1005
0
  0
LINE
  5
3D4
330
2
100
AcDbEntity
  8
YKK_A1
100
AcDbLine
 10
12527.0389995
 20
12674.9363
 30
0.0
 11
12615.0389995
 21
12674.9363
 31
0.0
1001
ACDBBLOCKREPETAG
1070
     1
1071
       30
1005
0
  0
LINE
  5
3D5
330
2
100
AcDbEntity
  8
YKK_A1
100
AcDbLine
 10
12523.039
 20
12674.9363
 30
0.0
 11
12435.039
 21
12674.9363
 31
0.0
1001
ACDBBLOCKREPETAG
1070
     1
1071
       30
1005
0
  0
LINE
  5
3D6
330
2
100
AcDbEntity
  8
YKK_A1
100
AcDbLine
 10
12435.039
 20
12564.9363
 30
0.0
 11
12435.039
 21
12674.9363
 31
0.0
1001
ACDBBLOCKREPETAG
1070
     1
1071
       28
1005
0
  0
LINE
  5
3D7
330
2
100
AcDbEntity
  8
YKK_A1
100
AcDbLine
 10
12615.0389995
 20
12564.9363
 30
0.0
 11
12615.0389995
 21
12674.9363
 31
0.0
1001
ACDBBLOCKREPETAG
1070
     1
1071
       28
1005
0
  0
LINE
  5
3D8
330
2
100
AcDbEntity
  8
YKK_A1
100
AcDbLine
 10
13425.0389995
 20
12677.9363
 30
0.0
 11
13425.0389995
 21
12727.9363
 31
0.0
1001
ACDBBLOCKREPETAG
1070
     1
1071
       27
1005
0
  0
LINE
  5
3D9
330
2
100
AcDbEntity
  8
YKK_A1
100
AcDbLine
 10
13334.0389995
 20
12674.9363
 30
0.0
 11
13334.0389995
 21
12564.9363
 31
0.0
1001
ACDBBLOCKREPETAG
1070
     1
1071
       28
1005
0
  0
TEXT
  5
3DA
330
2
100
AcDbEntity
  8
YKK_A1
100
AcDbText
 10
13297.19682053
 20
12808.47279353
 30
0.0
 40
60.0
  1
F
 41
0.8
  7
YKK_SGSTYLE1
 72
     2
 11
13336.05396339
 21
12808.47279353
 31
0.0
100
AcDbText
  0
LINE
  5
3DB
330
2
100
AcDbEntity
  8
YKK_A1
100
AcDbLine
 10
13334.0389995
 20
12674.9363
 30
0.0
 11
13422.0389995
 21
12674.9363
 31
0.0
1001
ACDBBLOCKREPETAG
1070
     1
1071
       31
1005
0
  0
3DFACE
  5
3DC
330
2
100
AcDbEntity
  8
YKK_A1
100
AcDbFace
 10
12550.47691762
 20
11677.9363
 30
0.1
 11
12550.47691762
 21
11477.9363
 31
0.1
 12
12750.47691762
 22
11477.9363
 32
0.1
 13
12750.47691762
 23
11677.9363
 33
0.1
  0
3DFACE
  5
3DD
330
2
100
AcDbEntity
  8
YKK_A1
100
AcDbFace
 10
12499.60108238
 20
11677.9363
 30
0.1
 11
12499.60108238
 21
11477.9363
 31
0.1
 12
12299.60108238
 22
11477.9363
 32
0.1
 13
12299.60108238
 23
11677.9363
 33
0.1
  0
ENDSEC
  0
SECTION
  2
OBJECTS
  0
DICTIONARY
  5
1A
330
0
100
AcDbDictionary
281
     1
  3
ACAD_CIP_PREVIOUS_PRODUCT_INFO
350
491
  3
ACAD_COLOR
350
424
  3
ACAD_DETAILVIEWSTYLE
350
43D
  3
ACAD_GROUP
350
18
  3
ACAD_LAYOUT
350
443
  3
ACAD_MATERIAL
350
3F2
  3
ACAD_MLEADERSTYLE
350
439
  3
ACAD_MLINESTYLE
350
19
  3
ACAD_PLOTSETTINGS
350
442
  3
ACAD_PLOTSTYLENAME
350
3F0
  3
ACAD_SCALELIST
350
427
  3
ACAD_SECTIONVIEWSTYLE
350
43B
  3
ACAD_TABLESTYLE
350
425
  3
ACAD_VISUALSTYLE
350
40B
  3
ACDB_RECOMPOSE_DATA
350
497
  3
AcDbVariableDictionary
350
484
  0
XRECORD
  5
491
102
{ACAD_REACTORS
330
1A
102
}
330
1A
100
AcDbXrecord
280
     1
300
ACD
300
2014
300
86063ACD_2014_0F
  0
DICTIONARY
  5
424
102
{ACAD_REACTORS
330
1A
102
}
330
1A
100
AcDbDictionary
281
     1
  0
DICTIONARY
  5
43D
102
{ACAD_REACTORS
330
1A
102
}
330
1A
100
AcDbDictionary
281
     1
  3
Imperial24
350
43E
  0
DICTIONARY
  5
18
102
{ACAD_REACTORS
330
1A
102
}
330
1A
100
AcDbDictionary
281
     1
  0
DICTIONARY
  5
443
102
{ACAD_REACTORS
330
1A
102
}
330
1A
100
AcDbDictionary
281
     1
  3
Model
350
444
  3
レイアウト1
350
445
  0
DICTIONARY
  5
3F2
102
{ACAD_REACTORS
330
1A
102
}
330
1A
100
AcDbDictionary
281
     1
  3
ByBlock
350
3FB
  3
ByLayer
350
3F3
  3
Global
350
403
  0
DICTIONARY
  5
439
102
{ACAD_REACTORS
330
1A
102
}
330
1A
100
AcDbDictionary
281
     1
  3
Standard
350
43A
  0
DICTIONARY
  5
19
102
{ACAD_REACTORS
330
1A
102
}
330
1A
100
AcDbDictionary
281
     1
  3
STANDARD
350
1B
  0
DICTIONARY
  5
442
102
{ACAD_REACTORS
330
1A
102
}
330
1A
100
AcDbDictionary
281
     1
  0
ACDBDICTIONARYWDFLT
  5
3F0
102
{ACAD_REACTORS
330
1A
102
}
330
1A
100
AcDbDictionary
281
     1
  3
Normal
350
3F1
100
AcDbDictionaryWithDefault
340
3F1
  0
DICTIONARY
  5
427
102
{ACAD_REACTORS
330
1A
102
}
330
1A
100
AcDbDictionary
281
     1
  3
A0
350
428
  3
A1
350
429
  3
A2
350
42A
  3
A3
350
42B
  3
A4
350
42C
  3
A5
350
42D
  3
A6
350
42E
  3
A7
350
42F
  3
A8
350
430
  3
A9
350
431
  3
B0
350
432
  3
B1
350
433
  3
B2
350
434
  3
B3
350
435
  3
B4
350
436
  3
B5
350
437
  3
B6
350
438
  0
DICTIONARY
  5
43B
102
{ACAD_REACTORS
330
1A
102
}
330
1A
100
AcDbDictionary
281
     1
  3
Imperial24
350
43C
  0
DICTIONARY
  5
425
102
{ACAD_REACTORS
330
1A
102
}
330
1A
100
AcDbDictionary
281
     1
  3
Standard
350
426
  0
DICTIONARY
  5
40B
102
{ACAD_REACTORS
330
1A
102
}
330
1A
100
AcDbDictionary
281
     1
  3
2dWireframe
350
411
  3
Basic
350
410
  3
Brighten
350
417
  3
ColorChange
350
41B
  3
Conceptual
350
414
  3
Dim
350
416
  3
EdgeColorOff
350
423
  3
Facepattern
350
41A
  3
Flat
350
40C
  3
FlatWithEdges
350
40D
  3
Gouraud
350
40E
  3
GouraudWithEdges
350
40F
  3
Hidden
350
413
  3
JitterOff
350
421
  3
Linepattern
350
419
  3
OverhangOff
350
422
  3
Realistic
350
415
  3
Shaded
350
420
  3
Shaded with edges
350
41F
  3
Shades of Gray
350
41C
  3
Sketchy
350
41D
  3
Thicken
350
418
  3
Wireframe
350
412
  3
X-Ray
350
41E
  0
XRECORD
  5
497
102
{ACAD_REACTORS
330
1A
102
}
330
1A
100
AcDbXrecord
280
     1
 90
        1
330
426
  0
DICTIONARY
  5
484
102
{ACAD_REACTORS
330
1A
102
}
330
1A
100
AcDbDictionary
281
     1
  3
CANNOSCALE
350
489
  3
CMLEADERSTYLE
350
486
  3
CTABLESTYLE
350
485
  3
CVIEWDETAILSTYLE
350
487
  3
CVIEWSECTIONSTYLE
350
488
  3
XCLIPFRAME
350
495
  0
ACDBDETAILVIEWSTYLE
  5
43E
102
{ACAD_XDICTIONARY
360
4D0
102
}
102
{ACAD_REACTORS
330
43D
102
}
330
43D
100
AcDbModelDocViewStyle
 70
     0
  3
Imperial24
290
     0
100
AcDbDetailViewStyle
 70
     0
 71
     0
 90
        3
 71
     1
340
C
 62
   256
 40
0.24
340
0
 62
   256
 40
0.24
300

 40
0.36
280
     3
 71
     2
340
5
 90
       25
 62
   256
 71
     3
340
C
 62
   256
 40
0.24
 90
        1
 40
0.75
 90
        1
300
%<\AcVar ViewType \f "%tc1">% %<\AcVar ViewDetailId>%\PSCALE %<\AcVar ViewScale \f "%sn">%
 71
     4
340
5
 90
       25
 62
   256
340
5
 90
       25
 62
   256
280
     0
  0
LAYOUT
  5
444
102
{ACAD_REACTORS
330
443
102
}
330
443
100
AcDbPlotSettings
  1

  2
C:\ACAD-I\support\plotters\Default Windows System Printer.pc3
  4
A4
  6

 40
3.17499995
 41
3.17499995
 42
3.17500305
 43
3.17498779
 44
209.88865662
 45
297.05300903
 46
0.0
 47
0.0
 48
0.0
 49
0.0
140
0.0
141
0.0
142
1.0
143
3183.34816899
 70
 11952
 72
     0
 73
     1
 74
     0
  7
monochrome.ctb
 75
     0
147
0.00031413
 76
     0
 77
     2
 78
   300
148
57505.63887505
149
2221.87797647
100
AcDbLayout
  1
Model
 70
     1
 71
     0
 10
0.0
 20
0.0
 11
12.0
 21
9.0
 12
0.0
 22
0.0
 32
0.0
 14
0.0
 24
0.0
 34
0.0
 15
0.0
 25
0.0
 35
0.0
146
0.0
 13
0.0
 23
0.0
 33
0.0
 16
1.0
 26
0.0
 36
0.0
 17
0.0
 27
1.0
 37
0.0
 76
     0
330
2
1001
ACAD_PSEXT
1000
C:\ACAD-I\support\plotters\Default Windows System Printer.pc3
1000
Fiery PRO80 65-55C-KM PS3.0jp
1000
IP_10.230.204.212
1000

1070
     0
  0
LAYOUT
  5
445
102
{ACAD_REACTORS
330
443
102
}
330
443
100
AcDbPlotSettings
  1

  2
C:\ACAD-I\support\plotters\Default Windows System Printer.pc3
  4
A4
  6

 40
3.17499995
 41
3.17499995
 42
3.17500305
 43
3.17498779
 44
209.88865662
 45
297.05300903
 46
0.0
 47
0.0
 48
0.0
 49
0.0
140
0.0
141
0.0
142
1.0
143
1.0
 70
 15024
 72
     0
 73
     1
 74
     5
  7
monochrome.ctb
 75
    16
147
1.0
 76
     0
 77
     2
 78
   300
148
0.0
149
0.0
100
AcDbLayout
  1
レイアウト1
 70
     1
 71
     1
 10
0.0
 20
0.0
 11
420.0
 21
297.0
 12
0.0
 22
0.0
 32
0.0
 14
1.00000000E+20
 24
1.00000000E+20
 34
1.00000000E+20
 15
-1.00000000E+20
 25
-1.00000000E+20
 35
-1.00000000E+20
146
0.0
 13
0.0
 23
0.0
 33
0.0
 16
1.0
 26
0.0
 36
0.0
 17
0.0
 27
1.0
 37
0.0
 76
     0
330
7
1001
ACAD_PSEXT
1000
C:\ACAD-I\support\plotters\Default Windows System Printer.pc3
1000
Fiery PRO80 65-55C-KM PS3.0jp
1000
IP_10.230.204.212
1000

1070
     0
  0
MATERIAL
  5
3FB
102
{ACAD_XDICTIONARY
360
3FC
102
}
102
{ACAD_REACTORS
330
3F2
102
}
330
3F2
100
AcDbMaterial
  1
ByBlock
 72
     0
 43
0.02083333
 43
0.0
 43
0.0
 43
0.0
 43
0.0
 43
0.02083333
 43
0.0
 43
0.0
 43
0.0
 43
0.0
 43
1.0
 43
0.0
 43
0.0
 43
0.0
 43
0.0
 43
1.0
 77
     0
 47
0.02083333
 47
0.0
 47
0.0
 47
0.0
 47
0.0
 47
0.02083333
 47
0.0
 47
0.0
 47
0.0
 47
0.0
 47
1.0
 47
0.0
 47
0.0
 47
0.0
 47
0.0
 47
1.0
171
     0
 49
0.02083333
 49
0.0
 49
0.0
 49
0.0
 49
0.0
 49
0.02083333
 49
0.0
 49
0.0
 49
0.0
 49
0.0
 49
1.0
 49
0.0
 49
0.0
 49
0.0
 49
0.0
 49
1.0
175
     0
142
0.02083333
142
0.0
142
0.0
142
0.0
142
0.0
142
0.02083333
142
0.0
142
0.0
142
0.0
142
0.0
142
1.0
142
0.0
142
0.0
142
0.0
142
0.0
142
1.0
179
     0
144
0.02083333
144
0.0
144
0.0
144
0.0
144
0.0
144
0.02083333
144
0.0
144
0.0
144
0.0
144
0.0
144
1.0
144
0.0
144
0.0
144
0.0
144
0.0
144
1.0
147
0.02083333
147
0.0
147
0.0
147
0.0
147
0.0
147
0.02083333
147
0.0
147
0.0
147
0.0
147
0.0
147
1.0
147
0.0
147
0.0
147
0.0
147
0.0
147
1.0
  0
MATERIAL
  5
3F3
102
{ACAD_XDICTIONARY
360
3F4
102
}
102
{ACAD_REACTORS
330
3F2
102
}
330
3F2
100
AcDbMaterial
  1
ByLayer
 72
     0
 43
0.02083333
 43
0.0
 43
0.0
 43
0.0
 43
0.0
 43
0.02083333
 43
0.0
 43
0.0
 43
0.0
 43
0.0
 43
1.0
 43
0.0
 43
0.0
 43
0.0
 43
0.0
 43
1.0
 77
     0
 47
0.02083333
 47
0.0
 47
0.0
 47
0.0
 47
0.0
 47
0.02083333
 47
0.0
 47
0.0
 47
0.0
 47
0.0
 47
1.0
 47
0.0
 47
0.0
 47
0.0
 47
0.0
 47
1.0
171
     0
 49
0.02083333
 49
0.0
 49
0.0
 49
0.0
 49
0.0
 49
0.02083333
 49
0.0
 49
0.0
 49
0.0
 49
0.0
 49
1.0
 49
0.0
 49
0.0
 49
0.0
 49
0.0
 49
1.0
175
     0
142
0.02083333
142
0.0
142
0.0
142
0.0
142
0.0
142
0.02083333
142
0.0
142
0.0
142
0.0
142
0.0
142
1.0
142
0.0
142
0.0
142
0.0
142
0.0
142
1.0
179
     0
144
0.02083333
144
0.0
144
0.0
144
0.0
144
0.0
144
0.02083333
144
0.0
144
0.0
144
0.0
144
0.0
144
1.0
144
0.0
144
0.0
144
0.0
144
0.0
144
1.0
147
0.02083333
147
0.0
147
0.0
147
0.0
147
0.0
147
0.02083333
147
0.0
147
0.0
147
0.0
147
0.0
147
1.0
147
0.0
147
0.0
147
0.0
147
0.0
147
1.0
  0
MATERIAL
  5
403
102
{ACAD_XDICTIONARY
360
404
102
}
102
{ACAD_REACTORS
330
3F2
102
}
330
3F2
100
AcDbMaterial
  1
Global
 72
     0
 43
0.02083333
 43
0.0
 43
0.0
 43
0.0
 43
0.0
 43
0.02083333
 43
0.0
 43
0.0
 43
0.0
 43
0.0
 43
1.0
 43
0.0
 43
0.0
 43
0.0
 43
0.0
 43
1.0
 77
     0
 47
0.02083333
 47
0.0
 47
0.0
 47
0.0
 47
0.0
 47
0.02083333
 47
0.0
 47
0.0
 47
0.0
 47
0.0
 47
1.0
 47
0.0
 47
0.0
 47
0.0
 47
0.0
 47
1.0
171
     0
 49
0.02083333
 49
0.0
 49
0.0
 49
0.0
 49
0.0
 49
0.02083333
 49
0.0
 49
0.0
 49
0.0
 49
0.0
 49
1.0
 49
0.0
 49
0.0
 49
0.0
 49
0.0
 49
1.0
175
     0
142
0.02083333
142
0.0
142
0.0
142
0.0
142
0.0
142
0.02083333
142
0.0
142
0.0
142
0.0
142
0.0
142
1.0
142
0.0
142
0.0
142
0.0
142
0.0
142
1.0
179
     0
144
0.02083333
144
0.0
144
0.0
144
0.0
144
0.0
144
0.02083333
144
0.0
144
0.0
144
0.0
144
0.0
144
1.0
144
0.0
144
0.0
144
0.0
144
0.0
144
1.0
147
0.02083333
147
0.0
147
0.0
147
0.0
147
0.0
147
0.02083333
147
0.0
147
0.0
147
0.0
147
0.0
147
1.0
147
0.0
147
0.0
147
0.0
147
0.0
147
1.0
  0
MLEADERSTYLE
  5
43A
102
{ACAD_XDICTIONARY
360
4CC
102
}
102
{ACAD_REACTORS
330
439
102
}
330
439
100
AcDbMLeaderStyle
170
     2
171
     1
172
     0
 90
        2
 40
0.0
 41
0.0
173
     1
 91
-1056964608
340
E
 92
       -2
290
     1
 42
0.09
291
     1
 43
0.36
  3
Standard
 44
0.18
300

342
C
174
     1
178
     6
175
     1
176
     0
 93
-1056964608
 45
0.18
292
     0
297
     0
 46
0.18
 94
-1056964608
 47
1.0
 49
1.0
140
1.0
293
     1
141
0.0
294
     1
177
     0
142
1.0
295
     0
296
     0
143
0.125
1001
ACAD_MLEADERVER
1070
     2
  0
MLINESTYLE
  5
1B
102
{ACAD_REACTORS
330
19
102
}
330
19
100
AcDbMlineStyle
  2
STANDARD
 70
     0
  3

 62
   256
 51
90.0
 52
90.0
 71
     2
 49
0.5
 62
   256
  6
BYLAYER
 49
-0.5
 62
   256
  6
BYLAYER
  0
ACDBPLACEHOLDER
  5
3F1
102
{ACAD_REACTORS
330
3F0
102
}
330
3F0
  0
SCALE
  5
428
102
{ACAD_REACTORS
330
427
102
}
330
427
100
AcDbScale
 70
     0
300
1:1
140
1.0
141
1.0
290
     1
  0
SCALE
  5
429
102
{ACAD_REACTORS
330
427
102
}
330
427
100
AcDbScale
 70
     0
300
1/128" = 1'-0"
140
0.0078125
141
12.0
290
     0
  0
SCALE
  5
42A
102
{ACAD_REACTORS
330
427
102
}
330
427
100
AcDbScale
 70
     0
300
1/64" = 1'-0"
140
0.015625
141
12.0
290
     0
  0
SCALE
  5
42B
102
{ACAD_REACTORS
330
427
102
}
330
427
100
AcDbScale
 70
     0
300
1/32" = 1'-0"
140
0.03125
141
12.0
290
     0
  0
SCALE
  5
42C
102
{ACAD_REACTORS
330
427
102
}
330
427
100
AcDbScale
 70
     0
300
1/16" = 1'-0"
140
0.0625
141
12.0
290
     0
  0
SCALE
  5
42D
102
{ACAD_REACTORS
330
427
102
}
330
427
100
AcDbScale
 70
     0
300
3/32" = 1'-0"
140
0.09375
141
12.0
290
     0
  0
SCALE
  5
42E
102
{ACAD_REACTORS
330
427
102
}
330
427
100
AcDbScale
 70
     0
300
1/8" = 1'-0"
140
0.125
141
12.0
290
     0
  0
SCALE
  5
42F
102
{ACAD_REACTORS
330
427
102
}
330
427
100
AcDbScale
 70
     0
300
3/16" = 1'-0"
140
0.1875
141
12.0
290
     0
  0
SCALE
  5
430
102
{ACAD_REACTORS
330
427
102
}
330
427
100
AcDbScale
 70
     0
300
1/4" = 1'-0"
140
0.25
141
12.0
290
     0
  0
SCALE
  5
431
102
{ACAD_REACTORS
330
427
102
}
330
427
100
AcDbScale
 70
     0
300
3/8" = 1'-0"
140
0.375
141
12.0
290
     0
  0
SCALE
  5
432
102
{ACAD_REACTORS
330
427
102
}
330
427
100
AcDbScale
 70
     0
300
1/2" = 1'-0"
140
0.5
141
12.0
290
     0
  0
SCALE
  5
433
102
{ACAD_REACTORS
330
427
102
}
330
427
100
AcDbScale
 70
     0
300
3/4" = 1'-0"
140
0.75
141
12.0
290
     0
  0
SCALE
  5
434
102
{ACAD_REACTORS
330
427
102
}
330
427
100
AcDbScale
 70
     0
300
1" = 1'-0"
140
1.0
141
12.0
290
     0
  0
SCALE
  5
435
102
{ACAD_REACTORS
330
427
102
}
330
427
100
AcDbScale
 70
     0
300
1-1/2" = 1'-0"
140
1.5
141
12.0
290
     0
  0
SCALE
  5
436
102
{ACAD_REACTORS
330
427
102
}
330
427
100
AcDbScale
 70
     0
300
3" = 1'-0"
140
3.0
141
12.0
290
     0
  0
SCALE
  5
437
102
{ACAD_REACTORS
330
427
102
}
330
427
100
AcDbScale
 70
     0
300
6" = 1'-0"
140
6.0
141
12.0
290
     0
  0
SCALE
  5
438
102
{ACAD_REACTORS
330
427
102
}
330
427
100
AcDbScale
 70
     0
300
1'-0" = 1'-0"
140
12.0
141
12.0
290
     0
  0
ACDBSECTIONVIEWSTYLE
  5
43C
102
{ACAD_XDICTIONARY
360
4CE
102
}
102
{ACAD_REACTORS
330
43B
102
}
330
43B
100
AcDbModelDocViewStyle
 70
     0
  3
Imperial24
290
     0
100
AcDbSectionViewStyle
 70
     0
 71
     0
 90
      102
 71
     1
340
C
 62
   256
 40
5.0
340
0
340
0
 62
   256
 40
5.0
300
I, O, Q, S, X, Z
 40
10.0
 90
        0
 40
2.5
 90
        0
 71
     2
340
5
 90
       25
 62
   256
340
5
 90
       50
 62
   256
 40
5.0
 40
2.5
 40
5.0
 71
     3
340
C
 62
   256
 40
5.0
 90
        0
 40
15.0
 90
        1
300
%<\AcVar ViewSectionStartId>%-%<\AcVar ViewSectionEndId>% (%<\AcVar ViewScale \f "%sn">%)
 71
     4
 62
   256
 62
   257
300
ANSI31
 40
1.0
 90
        0
290
     0
290
     0
 90
        6
 40
0.0
 40
1.57079633
 40
0.26179939
 40
1.30899694
 40
-0.26179939
 40
1.83259571
  0
TABLESTYLE
  5
426
102
{ACAD_XDICTIONARY
360
446
102
}
102
{ACAD_REACTORS
330
425
102
}
330
425
100
AcDbTableStyle
  3
Standard
 70
     0
 71
     0
 40
0.06
 41
0.06
280
     0
281
     0
  7
STANDARD
140
0.18
170
     2
 62
     0
 63
     7
283
     0
274
    -2
284
     1
 64
     0
275
    -2
285
     1
 65
     0
276
    -2
286
     1
 66
     0
277
    -2
287
     1
 67
     0
278
    -2
288
     1
 68
     0
279
    -2
289
     1
 69
     0
  7
STANDARD
140
0.25
170
     5
 62
     0
 63
     7
283
     0
274
    -2
284
     1
 64
     0
275
    -2
285
     1
 65
     0
276
    -2
286
     1
 66
     0
277
    -2
287
     1
 67
     0
278
    -2
288
     1
 68
     0
279
    -2
289
     1
 69
     0
  7
STANDARD
140
0.18
170
     5
 62
     0
 63
     7
283
     0
274
    -2
284
     1
 64
     0
275
    -2
285
     1
 65
     0
276
    -2
286
     1
 66
     0
277
    -2
287
     1
 67
     0
278
    -2
288
     1
 68
     0
279
    -2
289
     1
 69
     0
  0
VISUALSTYLE
  5
411
102
{ACAD_XDICTIONARY
360
4A5
102
}
102
{ACAD_REACTORS
330
40B
102
}
330
40B
100
AcDbVisualStyle
  2
2dWireframe
 70
     4
 71
     0
 72
     2
 73
     0
 90
        0
 40
-0.6
 41
-30.0
 62
     5
 63
     7
421
 16777215
 74
     1
 91
        4
 64
     7
 65
   257
 75
     1
175
     1
 42
1.0
 92
        0
 66
   257
 43
1.0
 76
     1
 77
     6
 78
     2
 67
     7
 79
     5
170
     0
171
     0
290
     0
174
     0
 93
        1
 44
0.0
173
     0
291
     0
 45
0.0
1001
ACAD
1000
AcDbSavedByObjectVersion
1070
     0
  0
VISUALSTYLE
  5
410
102
{ACAD_XDICTIONARY
360
4A3
102
}
102
{ACAD_REACTORS
330
40B
102
}
330
40B
100
AcDbVisualStyle
  2
Basic
 70
     7
 71
     1
 72
     0
 73
     1
 90
        0
 40
-0.6
 41
-30.0
 62
     5
 63
     7
421
 16777215
 74
     0
 91
        4
 64
     7
 65
   257
 75
     1
175
     1
 42
1.0
 92
        8
 66
     7
 43
1.0
 76
     1
 77
     6
 78
     2
 67
     7
 79
     5
170
     0
171
     0
290
     0
174
     0
 93
        1
 44
0.0
173
     0
291
     1
 45
0.0
1001
ACAD
1000
AcDbSavedByObjectVersion
1070
     0
  0
VISUALSTYLE
  5
417
102
{ACAD_XDICTIONARY
360
4B1
102
}
102
{ACAD_REACTORS
330
40B
102
}
330
40B
100
AcDbVisualStyle
  2
Brighten
 70
    12
 71
     2
 72
     2
 73
     0
 90
        0
 40
-0.6
 41
-30.0
 62
     5
 63
     7
421
 16777215
 74
     1
 91
        4
 64
     7
 65
   257
 75
     1
175
     1
 42
1.0
 92
        8
 66
     7
 43
1.0
 76
     1
 77
     6
 78
     2
 67
     7
 79
     5
170
     0
171
     0
290
     0
174
     0
 93
        1
 44
50.0
173
     0
291
     1
 45
0.0
1001
ACAD
1000
AcDbSavedByObjectVersion
1070
     0
  0
VISUALSTYLE
  5
41B
102
{ACAD_XDICTIONARY
360
4B9
102
}
102
{ACAD_REACTORS
330
40B
102
}
330
40B
100
AcDbVisualStyle
  2
ColorChange
 70
    16
 71
     2
 72
     2
 73
     3
 90
        0
 40
-0.6
 41
-30.0
 62
     5
 63
     8
421
  8421504
 74
     1
 91
        4
 64
     7
 65
   257
 75
     1
175
     1
 42
1.0
 92
        8
 66
     8
424
  8421504
 43
1.0
 76
     1
 77
     6
 78
     2
 67
     7
 79
     5
170
     0
171
     0
290
     0
174
     0
 93
        1
 44
0.0
173
     0
291
     1
 45
0.0
1001
ACAD
1000
AcDbSavedByObjectVersion
1070
     0
  0
VISUALSTYLE
  5
414
102
{ACAD_XDICTIONARY
360
4AB
102
}
102
{ACAD_REACTORS
330
40B
102
}
330
40B
100
AcDbVisualStyle
  2
Conceptual
 70
     9
 71
     3
 72
     2
 73
     0
 90
        0
 40
-0.6
 41
-30.0
 62
     5
 63
     7
421
 16777215
 74
     2
 91
        2
 64
     7
 65
   257
 75
     1
175
     1
 42
179.0
 92
        8
 66
     7
 43
1.0
 76
     1
 77
     6
 78
     2
 67
     7
 79
     3
170
     0
171
     0
290
     0
174
     0
 93
        1
 44
0.0
173
     0
291
     0
 45
0.0
1001
ACAD
1000
AcDbSavedByObjectVersion
1070
     0
  0
VISUALSTYLE
  5
416
102
{ACAD_XDICTIONARY
360
4AF
102
}
102
{ACAD_REACTORS
330
40B
102
}
330
40B
100
AcDbVisualStyle
  2
Dim
 70
    11
 71
     2
 72
     2
 73
     0
 90
        0
 40
-0.6
 41
-30.0
 62
     5
 63
     7
421
 16777215
 74
     1
 91
        4
 64
     7
 65
   257
 75
     1
175
     1
 42
1.0
 92
        8
 66
     7
 43
1.0
 76
     1
 77
     6
 78
     2
 67
     7
 79
     5
170
     0
171
     0
290
     0
174
     0
 93
        1
 44
-50.0
173
     0
291
     1
 45
0.0
1001
ACAD
1000
AcDbSavedByObjectVersion
1070
     0
  0
VISUALSTYLE
  5
423
102
{ACAD_XDICTIONARY
360
4C9
102
}
102
{ACAD_REACTORS
330
40B
102
}
330
40B
100
AcDbVisualStyle
  2
EdgeColorOff
 70
    22
 71
     2
 72
     2
 73
     0
 90
        0
 40
-0.6
 41
-30.0
 62
     5
 63
     7
421
 16777215
 74
     1
 91
        4
 64
     7
 65
   257
 75
     1
175
     1
 42
1.0
 92
        8
 66
     7
 43
1.0
 76
     1
 77
     6
 78
     2
 67
     7
 79
     5
170
     0
171
     0
290
     0
174
     0
 93
        1
 44
0.0
173
     0
291
     1
 45
0.0
1001
ACAD
1000
AcDbSavedByObjectVersion
1070
     0
  0
VISUALSTYLE
  5
41A
102
{ACAD_XDICTIONARY
360
4B7
102
}
102
{ACAD_REACTORS
330
40B
102
}
330
40B
100
AcDbVisualStyle
  2
Facepattern
 70
    15
 71
     2
 72
     2
 73
     0
 90
        0
 40
-0.6
 41
-30.0
 62
     5
 63
     7
421
 16777215
 74
     1
 91
        4
 64
     7
 65
   257
 75
     1
175
     1
 42
1.0
 92
        8
 66
     7
 43
1.0
 76
     1
 77
     6
 78
     2
 67
     7
 79
     5
170
     0
171
     0
290
     0
174
     0
 93
        1
 44
0.0
173
     0
291
     1
 45
0.0
1001
ACAD
1000
AcDbSavedByObjectVersion
1070
     0
  0
VISUALSTYLE
  5
40C
102
{ACAD_XDICTIONARY
360
49B
102
}
102
{ACAD_REACTORS
330
40B
102
}
330
40B
100
AcDbVisualStyle
  2
Flat
 70
     0
 71
     2
 72
     1
 73
     1
 90
        2
 40
-0.6
 41
30.0
 62
     5
 63
     7
421
 16777215
 74
     0
 91
        0
 64
     7
 65
   257
 75
     1
175
     1
 42
1.0
 92
        8
 66
     7
 43
1.0
 76
     1
 77
     6
 78
     2
 67
     7
 79
     5
170
     0
171
     0
290
     0
174
     0
 93
       13
 44
0.0
173
     0
291
     1
 45
0.0
1001
ACAD
1000
AcDbSavedByObjectVersion
1070
     0
  0
VISUALSTYLE
  5
40D
102
{ACAD_XDICTIONARY
360
49D
102
}
102
{ACAD_REACTORS
330
40B
102
}
330
40B
100
AcDbVisualStyle
  2
FlatWithEdges
 70
     1
 71
     2
 72
     1
 73
     1
 90
        2
 40
-0.6
 41
30.0
 62
     5
 63
     7
421
 16777215
 74
     1
 91
        0
 64
     7
 65
   257
 75
     1
175
     1
 42
1.0
 92
        0
 66
   257
 43
1.0
 76
     1
 77
     6
 78
     2
 67
     7
 79
     5
170
     0
171
     0
290
     0
174
     0
 93
       13
 44
0.0
173
     0
291
     1
 45
0.0
1001
ACAD
1000
AcDbSavedByObjectVersion
1070
     0
  0
VISUALSTYLE
  5
40E
102
{ACAD_XDICTIONARY
360
49F
102
}
102
{ACAD_REACTORS
330
40B
102
}
330
40B
100
AcDbVisualStyle
  2
Gouraud
 70
     2
 71
     2
 72
     2
 73
     1
 90
        2
 40
-0.6
 41
30.0
 62
     5
 63
     7
421
 16777215
 74
     0
 91
        0
 64
     7
 65
   257
 75
     1
175
     1
 42
1.0
 92
        0
 66
     7
 43
1.0
 76
     1
 77
     6
 78
     2
 67
     7
 79
     5
170
     0
171
     0
290
     0
174
     0
 93
       13
 44
0.0
173
     0
291
     1
 45
0.0
1001
ACAD
1000
AcDbSavedByObjectVersion
1070
     0
  0
VISUALSTYLE
  5
40F
102
{ACAD_XDICTIONARY
360
4A1
102
}
102
{ACAD_REACTORS
330
40B
102
}
330
40B
100
AcDbVisualStyle
  2
GouraudWithEdges
 70
     3
 71
     2
 72
     2
 73
     1
 90
        2
 40
-0.6
 41
30.0
 62
     5
 63
     7
421
 16777215
 74
     1
 91
        0
 64
     7
 65
   257
 75
     1
175
     1
 42
1.0
 92
        0
 66
   257
 43
1.0
 76
     1
 77
     6
 78
     2
 67
     7
 79
     5
170
     0
171
     0
290
     0
174
     0
 93
       13
 44
0.0
173
     0
291
     1
 45
0.0
1001
ACAD
1000
AcDbSavedByObjectVersion
1070
     0
  0
VISUALSTYLE
  5
413
102
{ACAD_XDICTIONARY
360
4A9
102
}
102
{ACAD_REACTORS
330
40B
102
}
330
40B
100
AcDbVisualStyle
  2
Hidden
 70
     6
 71
     1
 72
     2
 73
     2
 90
        0
 40
-0.6
 41
-30.0
 62
     5
 63
     7
421
 16777215
 74
     2
 91
        2
 64
     7
 65
   257
 75
     2
175
     1
 42
40.0
 92
        0
 66
   257
 43
1.0
 76
     1
 77
     6
 78
     2
 67
     7
 79
     3
170
     0
171
     0
290
     0
174
     0
 93
        1
 44
0.0
173
     0
291
     0
 45
0.0
1001
ACAD
1000
AcDbSavedByObjectVersion
1070
     0
  0
VISUALSTYLE
  5
421
102
{ACAD_XDICTIONARY
360
4C5
102
}
102
{ACAD_REACTORS
330
40B
102
}
330
40B
100
AcDbVisualStyle
  2
JitterOff
 70
    20
 71
     2
 72
     2
 73
     0
 90
        0
 40
-0.6
 41
-30.0
 62
     5
 63
     7
421
 16777215
 74
     1
 91
        4
 64
     7
 65
   257
 75
     1
175
     1
 42
1.0
 92
       10
 66
     7
 43
1.0
 76
     1
 77
     6
 78
     2
 67
     7
 79
     5
170
     0
171
     0
290
     0
174
     0
 93
        1
 44
0.0
173
     0
291
     1
 45
0.0
1001
ACAD
1000
AcDbSavedByObjectVersion
1070
     0
  0
VISUALSTYLE
  5
419
102
{ACAD_XDICTIONARY
360
4B5
102
}
102
{ACAD_REACTORS
330
40B
102
}
330
40B
100
AcDbVisualStyle
  2
Linepattern
 70
    14
 71
     2
 72
     2
 73
     0
 90
        0
 40
-0.6
 41
-30.0
 62
     5
 63
     7
421
 16777215
 74
     1
 91
        4
 64
     7
 65
   257
 75
     7
175
     7
 42
1.0
 92
        8
 66
     7
 43
1.0
 76
     1
 77
     6
 78
     2
 67
     7
 79
     5
170
     0
171
     0
290
     0
174
     0
 93
        1
 44
0.0
173
     0
291
     1
 45
0.0
1001
ACAD
1000
AcDbSavedByObjectVersion
1070
     0
  0
VISUALSTYLE
  5
422
102
{ACAD_XDICTIONARY
360
4C7
102
}
102
{ACAD_REACTORS
330
40B
102
}
330
40B
100
AcDbVisualStyle
  2
OverhangOff
 70
    21
 71
     2
 72
     2
 73
     0
 90
        0
 40
-0.6
 41
-30.0
 62
     5
 63
     7
421
 16777215
 74
     1
 91
        4
 64
     7
 65
   257
 75
     1
175
     1
 42
1.0
 92
        9
 66
     7
 43
1.0
 76
     1
 77
     6
 78
     2
 67
     7
 79
     5
170
     0
171
     0
290
     0
174
     0
 93
        1
 44
0.0
173
     0
291
     1
 45
0.0
1001
ACAD
1000
AcDbSavedByObjectVersion
1070
     0
  0
VISUALSTYLE
  5
415
102
{ACAD_XDICTIONARY
360
4AD
102
}
102
{ACAD_REACTORS
330
40B
102
}
330
40B
100
AcDbVisualStyle
  2
Realistic
 70
     8
 71
     2
 72
     2
 73
     0
 90
        2
 40
-0.6
 41
30.0
 62
     5
 63
     7
421
 16777215
 74
     0
 91
        0
 64
     7
 65
   257
 75
     1
175
     1
 42
1.0
 92
        8
 66
   257
 43
1.0
 76
     1
 77
     6
 78
     2
 67
     7
 79
     3
170
     0
171
     0
290
     0
174
     0
 93
       13
 44
0.0
173
     0
291
     0
 45
0.0
1001
ACAD
1000
AcDbSavedByObjectVersion
1070
     0
  0
VISUALSTYLE
  5
420
102
{ACAD_XDICTIONARY
360
4C3
102
}
102
{ACAD_REACTORS
330
40B
102
}
330
40B
100
AcDbVisualStyle
  2
Shaded
 70
    27
 71
     2
 72
     2
 73
     1
 90
        2
 40
-0.6
 41
30.0
 62
     5
 63
     7
421
 16777215
 74
     0
 91
        4
 64
     7
 65
   257
 75
     1
175
     1
 42
1.0
 92
        8
 66
   257
 43
1.0
 76
     1
 77
     6
 78
     2
 67
     8
425
  7895160
 79
     3
170
     0
171
     0
290
     0
174
     0
 93
        5
 44
0.0
173
     0
291
     0
 45
0.0
1001
ACAD
1000
AcDbSavedByObjectVersion
1070
     0
  0
VISUALSTYLE
  5
41F
102
{ACAD_XDICTIONARY
360
4C1
102
}
102
{ACAD_REACTORS
330
40B
102
}
330
40B
100
AcDbVisualStyle
  2
Shaded with edges
 70
    26
 71
     2
 72
     2
 73
     1
 90
        2
 40
-0.6
 41
30.0
 62
     5
 63
     7
421
 16777215
 74
     1
 91
       10
 64
     7
 65
   257
 75
     2
175
     1
 42
1.0
 92
        8
 66
   257
 43
1.0
 76
     1
 77
     6
 78
     2
 67
     7
 79
     3
170
     0
171
     0
290
     0
174
     0
 93
        5
 44
0.0
173
     0
291
     0
 45
0.0
1001
ACAD
1000
AcDbSavedByObjectVersion
1070
     0
  0
VISUALSTYLE
  5
41C
102
{ACAD_XDICTIONARY
360
4BB
102
}
102
{ACAD_REACTORS
330
40B
102
}
330
40B
100
AcDbVisualStyle
  2
Shades of Gray
 70
    23
 71
     2
 72
     2
 73
     3
 90
        0
 40
-0.6
 41
-30.0
 62
     5
 63
     7
421
 16777215
 74
     2
 91
        2
 64
     7
 65
     7
 75
     1
175
     1
 42
40.0
 92
        8
 66
     7
 43
1.0
 76
     1
 77
     6
 78
     2
 67
     7
 79
     3
170
     0
171
     0
290
     0
174
     0
 93
        1
 44
0.0
173
     0
291
     0
 45
0.0
1001
ACAD
1000
AcDbSavedByObjectVersion
1070
     0
  0
VISUALSTYLE
  5
41D
102
{ACAD_XDICTIONARY
360
4BD
102
}
102
{ACAD_REACTORS
330
40B
102
}
330
40B
100
AcDbVisualStyle
  2
Sketchy
 70
    24
 71
     1
 72
     2
 73
     2
 90
        0
 40
-0.6
 41
-30.0
 62
     5
 63
     7
421
 16777215
 74
     2
 91
        2
 64
     7
 65
     7
 75
     1
175
     1
 42
40.0
 92
       11
 66
     7
 43
1.0
 76
     1
 77
     6
 78
     2
 67
     7
 79
     6
170
     0
171
     0
290
     0
174
     0
 93
        1
 44
0.0
173
     0
291
     0
 45
0.0
1001
ACAD
1000
AcDbSavedByObjectVersion
1070
     0
  0
VISUALSTYLE
  5
418
102
{ACAD_XDICTIONARY
360
4B3
102
}
102
{ACAD_REACTORS
330
40B
102
}
330
40B
100
AcDbVisualStyle
  2
Thicken
 70
    13
 71
     2
 72
     2
 73
     0
 90
        0
 40
-0.6
 41
-30.0
 62
     5
 63
     7
421
 16777215
 74
     1
 91
        4
 64
     7
 65
   257
 75
     1
175
     1
 42
1.0
 92
       12
 66
     7
 43
1.0
 76
     1
 77
     6
 78
     2
 67
     7
 79
     5
170
     0
171
     0
290
     0
174
     0
 93
        1
 44
0.0
173
     0
291
     1
 45
0.0
1001
ACAD
1000
AcDbSavedByObjectVersion
1070
     0
  0
VISUALSTYLE
  5
412
102
{ACAD_XDICTIONARY
360
4A7
102
}
102
{ACAD_REACTORS
330
40B
102
}
330
40B
100
AcDbVisualStyle
  2
Wireframe
 70
     5
 71
     0
 72
     2
 73
     0
 90
        0
 40
-0.6
 41
-30.0
 62
     5
 63
     7
421
 16777215
 74
     1
 91
        4
 64
     7
 65
   257
 75
     1
175
     1
 42
1.0
 92
        0
 66
   257
 43
1.0
 76
     1
 77
     6
 78
     2
 67
     7
 79
     3
170
     0
171
     0
290
     0
174
     0
 93
        1
 44
0.0
173
     0
291
     0
 45
0.0
1001
ACAD
1000
AcDbSavedByObjectVersion
1070
     0
  0
VISUALSTYLE
  5
41E
102
{ACAD_XDICTIONARY
360
4BF
102
}
102
{ACAD_REACTORS
330
40B
102
}
330
40B
100
AcDbVisualStyle
  2
X-Ray
 70
    25
 71
     2
 72
     2
 73
     1
 90
        1
 40
0.5
 41
-30.0
 62
     5
 63
     7
421
 16777215
 74
     1
 91
        0
 64
     7
 65
   257
 75
     1
175
     1
 42
1.0
 92
        8
 66
     7
 43
1.0
 76
     1
 77
     6
 78
     2
 67
     7
 79
     3
170
     0
171
     0
290
     0
174
     0
 93
       13
 44
0.0
173
     0
291
     0
 45
0.0
1001
ACAD
1000
AcDbSavedByObjectVersion
1070
     0
  0
DICTIONARYVAR
  5
489
102
{ACAD_REACTORS
330
484
102
}
330
484
100
DictionaryVariables
280
     0
  1
1:1
  0
DICTIONARYVAR
  5
486
102
{ACAD_REACTORS
330
484
102
}
330
484
100
DictionaryVariables
280
     0
  1
STANDARD
  0
DICTIONARYVAR
  5
485
102
{ACAD_REACTORS
330
484
102
}
330
484
100
DictionaryVariables
280
     0
  1
STANDARD
  0
DICTIONARYVAR
  5
487
102
{ACAD_REACTORS
330
484
102
}
330
484
100
DictionaryVariables
280
     0
  1
Imperial24
  0
DICTIONARYVAR
  5
488
102
{ACAD_REACTORS
330
484
102
}
330
484
100
DictionaryVariables
280
     0
  1
Imperial24
  0
DICTIONARYVAR
  5
495
102
{ACAD_REACTORS
330
484
102
}
330
484
100
DictionaryVariables
280
     0
  1
2
  0
DICTIONARY
  5
4D0
330
43E
100
AcDbDictionary
280
     1
281
     1
  3
ACAD_XREC_ROUNDTRIP
360
4D1
  0
DICTIONARY
  5
3FC
330
3FB
100
AcDbDictionary
280
     1
281
     1
  3
ACAD_XREC_ROUNDTRIP
360
499
  3
BUMPTILE
360
3FE
  3
DIFFUSETILE
360
3FD
  3
OPACITYTILE
360
401
  3
REFLECTIONTILE
360
400
  3
REFRACTIONTILE
360
402
  3
SPECULARTILE
360
3FF
  0
DICTIONARY
  5
3F4
330
3F3
100
AcDbDictionary
280
     1
281
     1
  3
ACAD_XREC_ROUNDTRIP
360
498
  3
BUMPTILE
360
3F6
  3
DIFFUSETILE
360
3F5
  3
OPACITYTILE
360
3F9
  3
REFLECTIONTILE
360
3F8
  3
REFRACTIONTILE
360
3FA
  3
SPECULARTILE
360
3F7
  0
DICTIONARY
  5
404
330
403
100
AcDbDictionary
280
     1
281
     1
  3
ACAD_XREC_ROUNDTRIP
360
49A
  3
BUMPTILE
360
406
  3
DIFFUSETILE
360
405
  3
OPACITYTILE
360
409
  3
REFLECTIONTILE
360
408
  3
REFRACTIONTILE
360
40A
  3
SPECULARTILE
360
407
  0
DICTIONARY
  5
4CC
330
43A
100
AcDbDictionary
280
     1
281
     1
  3
ACAD_XREC_ROUNDTRIP
360
4CD
  0
DICTIONARY
  5
4CE
330
43C
100
AcDbDictionary
280
     1
281
     1
  3
ACAD_XREC_ROUNDTRIP
360
4CF
  0
DICTIONARY
  5
446
330
426
100
AcDbDictionary
280
     1
281
     1
  3
ACAD_ROUNDTRIP_2008_TABLESTYLE_CELLSTYLEMAP
360
496
  3
ACAD_XREC_ROUNDTRIP
360
4CB
  0
DICTIONARY
  5
4A5
330
411
100
AcDbDictionary
280
     1
281
     1
  3
ACAD_XREC_ROUNDTRIP
360
4A6
  0
DICTIONARY
  5
4A3
330
410
100
AcDbDictionary
280
     1
281
     1
  3
ACAD_XREC_ROUNDTRIP
360
4A4
  0
DICTIONARY
  5
4B1
330
417
100
AcDbDictionary
280
     1
281
     1
  3
ACAD_XREC_ROUNDTRIP
360
4B2
  0
DICTIONARY
  5
4B9
330
41B
100
AcDbDictionary
280
     1
281
     1
  3
ACAD_XREC_ROUNDTRIP
360
4BA
  0
DICTIONARY
  5
4AB
330
414
100
AcDbDictionary
280
     1
281
     1
  3
ACAD_XREC_ROUNDTRIP
360
4AC
  0
DICTIONARY
  5
4AF
330
416
100
AcDbDictionary
280
     1
281
     1
  3
ACAD_XREC_ROUNDTRIP
360
4B0
  0
DICTIONARY
  5
4C9
330
423
100
AcDbDictionary
280
     1
281
     1
  3
ACAD_XREC_ROUNDTRIP
360
4CA
  0
DICTIONARY
  5
4B7
330
41A
100
AcDbDictionary
280
     1
281
     1
  3
ACAD_XREC_ROUNDTRIP
360
4B8
  0
DICTIONARY
  5
49B
330
40C
100
AcDbDictionary
280
     1
281
     1
  3
ACAD_XREC_ROUNDTRIP
360
49C
  0
DICTIONARY
  5
49D
330
40D
100
AcDbDictionary
280
     1
281
     1
  3
ACAD_XREC_ROUNDTRIP
360
49E
  0
DICTIONARY
  5
49F
330
40E
100
AcDbDictionary
280
     1
281
     1
  3
ACAD_XREC_ROUNDTRIP
360
4A0
  0
DICTIONARY
  5
4A1
330
40F
100
AcDbDictionary
280
     1
281
     1
  3
ACAD_XREC_ROUNDTRIP
360
4A2
  0
DICTIONARY
  5
4A9
330
413
100
AcDbDictionary
280
     1
281
     1
  3
ACAD_XREC_ROUNDTRIP
360
4AA
  0
DICTIONARY
  5
4C5
330
421
100
AcDbDictionary
280
     1
281
     1
  3
ACAD_XREC_ROUNDTRIP
360
4C6
  0
DICTIONARY
  5
4B5
330
419
100
AcDbDictionary
280
     1
281
     1
  3
ACAD_XREC_ROUNDTRIP
360
4B6
  0
DICTIONARY
  5
4C7
330
422
100
AcDbDictionary
280
     1
281
     1
  3
ACAD_XREC_ROUNDTRIP
360
4C8
  0
DICTIONARY
  5
4AD
330
415
100
AcDbDictionary
280
     1
281
     1
  3
ACAD_XREC_ROUNDTRIP
360
4AE
  0
DICTIONARY
  5
4C3
330
420
100
AcDbDictionary
280
     1
281
     1
  3
ACAD_XREC_ROUNDTRIP
360
4C4
  0
DICTIONARY
  5
4C1
330
41F
100
AcDbDictionary
280
     1
281
     1
  3
ACAD_XREC_ROUNDTRIP
360
4C2
  0
DICTIONARY
  5
4BB
330
41C
100
AcDbDictionary
280
     1
281
     1
  3
ACAD_XREC_ROUNDTRIP
360
4BC
  0
DICTIONARY
  5
4BD
330
41D
100
AcDbDictionary
280
     1
281
     1
  3
ACAD_XREC_ROUNDTRIP
360
4BE
  0
DICTIONARY
  5
4B3
330
418
100
AcDbDictionary
280
     1
281
     1
  3
ACAD_XREC_ROUNDTRIP
360
4B4
  0
DICTIONARY
  5
4A7
330
412
100
AcDbDictionary
280
     1
281
     1
  3
ACAD_XREC_ROUNDTRIP
360
4A8
  0
DICTIONARY
  5
4BF
330
41E
100
AcDbDictionary
280
     1
281
     1
  3
ACAD_XREC_ROUNDTRIP
360
4C0
  0
XRECORD
  5
4D1
102
{ACAD_REACTORS
330
4D0
102
}
330
4D0
100
AcDbXrecord
280
     1
102
DISPLAYNAME
  1
Imperial24
102
FLAGS
 90
        0
  0
XRECORD
  5
499
102
{ACAD_REACTORS
330
3FC
102
}
330
3FC
100
AcDbXrecord
280
     1
102
MATERIAL
148
0.0
149
0.0
149
0.0
 93
        0
 94
      127
282
     0
 72
     0
 77
     0
171
     0
175
     0
179
     0
273
     0
  0
XRECORD
  5
3FE
102
{ACAD_REACTORS
330
3FC
102
}
330
3FC
100
AcDbXrecord
280
     1
270
     1
271
     1
  0
XRECORD
  5
3FD
102
{ACAD_REACTORS
330
3FC
102
}
330
3FC
100
AcDbXrecord
280
     1
270
     1
271
     1
  0
XRECORD
  5
401
102
{ACAD_REACTORS
330
3FC
102
}
330
3FC
100
AcDbXrecord
280
     1
270
     1
271
     1
  0
XRECORD
  5
400
102
{ACAD_REACTORS
330
3FC
102
}
330
3FC
100
AcDbXrecord
280
     1
270
     1
271
     1
  0
XRECORD
  5
402
102
{ACAD_REACTORS
330
3FC
102
}
330
3FC
100
AcDbXrecord
280
     1
270
     1
271
     1
  0
XRECORD
  5
3FF
102
{ACAD_REACTORS
330
3FC
102
}
330
3FC
100
AcDbXrecord
280
     1
270
     1
271
     1
  0
XRECORD
  5
498
102
{ACAD_REACTORS
330
3F4
102
}
330
3F4
100
AcDbXrecord
280
     1
102
MATERIAL
148
0.0
149
0.0
149
0.0
 93
        0
 94
      127
282
     0
 72
     0
 77
     0
171
     0
175
     0
179
     0
273
     0
  0
XRECORD
  5
3F6
102
{ACAD_REACTORS
330
3F4
102
}
330
3F4
100
AcDbXrecord
280
     1
270
     1
271
     1
  0
XRECORD
  5
3F5
102
{ACAD_REACTORS
330
3F4
102
}
330
3F4
100
AcDbXrecord
280
     1
270
     1
271
     1
  0
XRECORD
  5
3F9
102
{ACAD_REACTORS
330
3F4
102
}
330
3F4
100
AcDbXrecord
280
     1
270
     1
271
     1
  0
XRECORD
  5
3F8
102
{ACAD_REACTORS
330
3F4
102
}
330
3F4
100
AcDbXrecord
280
     1
270
     1
271
     1
  0
XRECORD
  5
3FA
102
{ACAD_REACTORS
330
3F4
102
}
330
3F4
100
AcDbXrecord
280
     1
270
     1
271
     1
  0
XRECORD
  5
3F7
102
{ACAD_REACTORS
330
3F4
102
}
330
3F4
100
AcDbXrecord
280
     1
270
     1
271
     1
  0
XRECORD
  5
49A
102
{ACAD_REACTORS
330
404
102
}
330
404
100
AcDbXrecord
280
     1
102
MATERIAL
148
0.0
149
0.0
149
0.0
 93
        0
 94
      127
282
     0
 72
     0
 77
     0
171
     0
175
     0
179
     0
273
     0
  0
XRECORD
  5
406
102
{ACAD_REACTORS
330
404
102
}
330
404
100
AcDbXrecord
280
     1
270
     1
271
     1
  0
XRECORD
  5
405
102
{ACAD_REACTORS
330
404
102
}
330
404
100
AcDbXrecord
280
     1
270
     1
271
     1
  0
XRECORD
  5
409
102
{ACAD_REACTORS
330
404
102
}
330
404
100
AcDbXrecord
280
     1
270
     1
271
     1
  0
XRECORD
  5
408
102
{ACAD_REACTORS
330
404
102
}
330
404
100
AcDbXrecord
280
     1
270
     1
271
     1
  0
XRECORD
  5
40A
102
{ACAD_REACTORS
330
404
102
}
330
404
100
AcDbXrecord
280
     1
270
     1
271
     1
  0
XRECORD
  5
407
102
{ACAD_REACTORS
330
404
102
}
330
404
100
AcDbXrecord
280
     1
270
     1
271
     1
  0
XRECORD
  5
4CD
102
{ACAD_REACTORS
330
4CC
102
}
330
4CC
100
AcDbXrecord
280
     1
102
ACAD_ROUNDTRIP_2012_MLEADER_STYLE
298
     1
  0
XRECORD
  5
4CF
102
{ACAD_REACTORS
330
4CE
102
}
330
4CE
100
AcDbXrecord
280
     1
102
DISPLAYNAME
  1
Imperial24
102
FLAGS
 90
        0
  0
CELLSTYLEMAP
  5
496
102
{ACAD_REACTORS
330
446
102
}
330
446
100
AcDbCellStyleMap
 90
        3
300
CELLSTYLE
  1
TABLEFORMAT_BEGIN
 90
        5
170
     1
 91
        0
 92
    32768
 62
   257
 93
        1
300
CONTENTFORMAT
  1
CONTENTFORMAT_BEGIN
 90
        0
 91
        0
 92
      512
 93
        0
300

 40
0.0
140
1.0
 94
        5
 62
     0
340
C
144
0.25
309
CONTENTFORMAT_END
171
     0
 94
        0
309
TABLEFORMAT_END
  1
CELLSTYLE_BEGIN
 90
        1
 91
        1
300
_TITLE
309
CELLSTYLE_END
300
CELLSTYLE
  1
TABLEFORMAT_BEGIN
 90
        5
170
     1
 91
        0
 92
        0
 62
   257
 93
        1
300
CONTENTFORMAT
  1
CONTENTFORMAT_BEGIN
 90
        0
 91
        0
 92
      512
 93
        0
300

 40
0.0
140
1.0
 94
        5
 62
     0
340
C
144
0.18
309
CONTENTFORMAT_END
171
     0
 94
        0
309
TABLEFORMAT_END
  1
CELLSTYLE_BEGIN
 90
        2
 91
        1
300
_HEADER
309
CELLSTYLE_END
300
CELLSTYLE
  1
TABLEFORMAT_BEGIN
 90
        5
170
     1
 91
        0
 92
        0
 62
   257
 93
        1
300
CONTENTFORMAT
  1
CONTENTFORMAT_BEGIN
 90
        0
 91
        0
 92
      512
 93
        0
300

 40
0.0
140
1.0
 94
        2
 62
     0
340
C
144
0.18
309
CONTENTFORMAT_END
171
     0
 94
        0
309
TABLEFORMAT_END
  1
CELLSTYLE_BEGIN
 90
        3
 91
        2
300
_DATA
309
CELLSTYLE_END
  0
XRECORD
  5
4CB
102
{ACAD_REACTORS
330
446
102
}
330
446
100
AcDbXrecord
280
     1
102
ACAD_ROUNDTRIP_PRE2007_TABLESTYLE
 90
      512
 91
        0
  1

 92
      512
 93
        0
  2

 94
      512
 95
        0
  3

  0
XRECORD
  5
4A6
102
{ACAD_REACTORS
330
4A5
102
}
330
4A5
100
AcDbXrecord
280
     1
102
RTVSPost2010Prop28
280
     1
102
RTVSPost2010PropOp28
 70
     1
102
RTVSPost2010Prop29
280
     1
102
RTVSPost2010PropOp29
 70
     1
102
RTVSPost2010Prop30
280
     0
102
RTVSPost2010PropOp30
 70
     1
102
RTVSPost2010Prop31
280
     0
102
RTVSPost2010PropOp31
 70
     1
102
RTVSPost2010Prop32
280
     0
102
RTVSPost2010PropOp32
 70
     1
102
RTVSPost2010Prop33
280
     0
102
RTVSPost2010PropOp33
 70
     1
102
RTVSPost2010Prop34
280
     0
102
RTVSPost2010PropOp34
 70
     1
102
RTVSPost2010Prop35
280
     0
102
RTVSPost2010PropOp35
 70
     1
102
RTVSPost2010Prop36
280
     0
102
RTVSPost2010PropOp36
 70
     1
102
RTVSPost2010Prop37
 90
       50
102
RTVSPost2010PropOp37
 70
     1
102
RTVSPost2010Prop38
140
0.0
102
RTVSPost2010PropOp38
 70
     1
102
RTVSPost2010Prop39
140
1.0
102
RTVSPost2010PropOp39
 70
     1
102
RTVSPost2010Prop40
 90
        0
102
RTVSPost2010PropOp40
 70
     1
102
RTVSPost2010Prop41ColorIndex
 90
       18
102
RTVSPost2010Prop41ColorRGB
 90
        0
102
RTVSPost2010PropOp41
 70
     1
102
RTVSPost2010Prop42
 90
       50
102
RTVSPost2010PropOp42
 70
     1
102
RTVSPost2010Prop43
 90
        3
102
RTVSPost2010PropOp43
 70
     1
102
RTVSPost2010Prop44ColorIndex
 90
        5
102
RTVSPost2010Prop44ColorRGB
 90
      255
102
RTVSPost2010PropOp44
 70
     1
102
RTVSPost2010Prop45
280
     0
102
RTVSPost2010PropOp45
 70
     1
102
RTVSPost2010Prop46
 90
       50
102
RTVSPost2010PropOp46
 70
     1
102
RTVSPost2010Prop47
 90
       50
102
RTVSPost2010PropOp47
 70
     1
102
RTVSPost2010Prop48
 90
       50
102
RTVSPost2010PropOp48
 70
     1
102
RTVSPost2010Prop49
280
     0
102
RTVSPost2010PropOp49
 70
     1
102
RTVSPost2010Prop50
 90
       50
102
RTVSPost2010PropOp50
 70
     1
102
RTVSPost2010Prop51ColorIndex
 90
      256
102
RTVSPost2010Prop51ColorRGB
 90
-16777216
102
RTVSPost2010PropOp51
 70
     0
102
RTVSPost2010Prop52
140
1.0
102
RTVSPost2010PropOp52
 70
     0
102
RTVSPost2010Prop53
 90
        2
102
RTVSPost2010PropOp53
 70
     1
102
RTVSPost2010Prop54
  1
strokes_ogs.tif
102
RTVSPost2010PropOp54
 70
     1
102
RTVSPost2010Prop55
280
     0
102
RTVSPost2010PropOp55
 70
     1
102
RTVSPost2010Prop56
140
1.0
102
RTVSPost2010PropOp56
 70
     1
102
RTVSPost2010Prop57
140
1.0
102
RTVSPost2010PropOp57
 70
     1
102
RTVSPropertyOp0
 70
     1
102
RTVSPropertyOp1
 70
     1
102
RTVSPropertyOp2
 70
     1
102
RTVSPropertyOp3
 70
     1
102
RTVSPropertyOp4
 70
     1
102
RTVSPropertyOp5
 70
     1
102
RTVSPropertyOp6
 70
     1
102
RTVSPropertyOp7
 70
     1
102
RTVSPropertyOp8
 70
     1
102
RTVSPropertyOp9
 70
     1
102
RTVSPropertyOp10
 70
     1
102
RTVSPropertyOp11
 70
     1
102
RTVSPropertyOp12
 70
     1
102
RTVSPropertyOp13
 70
     1
102
RTVSPropertyOp14
 70
     1
102
RTVSPropertyOp15
 70
     1
102
RTVSPropertyOp16
 70
     1
102
RTVSPropertyOp17
 70
     1
102
RTVSPropertyOp18
 70
     1
102
RTVSPropertyOp19
 70
     1
102
RTVSPropertyOp20
 70
     1
102
RTVSPropertyOp21
 70
     1
102
RTVSPropertyOp22
 70
     1
102
RTVSPropertyOp23
 70
     1
102
RTVSPropertyOp24
 70
     1
102
RTVSPropertyOp25
 70
     1
102
RTVSPropertyOp26
 70
     1
102
RTVSPropertyOp27
 70
     1
102
RTVSPropertyOp28
 70
     1
102
RTVSPropertyOp29
 70
     1
102
RTVSPropertyOp30
 70
     1
102
RTVSPropertyOp31
 70
     1
102
RTVSPropertyOp32
 70
     1
102
RTVSPropertyOp33
 70
     1
102
RTVSPropertyOp34
 70
     1
102
RTVSPropertyOp35
 70
     1
102
RTVSPropertyOp36
 70
     1
102
RTVSPropertyOp37
 70
     1
102
RTVSPropertyOp38
 70
     1
102
RTVSPropertyOp39
 70
     1
102
RTVSPropertyOp40
 70
     1
102
RTVSPropertyOp41
 70
     1
102
RTVSPropertyOp42
 70
     1
102
RTVSPropertyOp43
 70
     1
102
RTVSPropertyOp44
 70
     1
102
RTVSPropertyOp45
 70
     1
102
RTVSPropertyOp46
 70
     1
102
RTVSPropertyOp47
 70
     1
102
RTVSPropertyOp48
 70
     1
102
RTVSPropertyOp49
 70
     1
102
RTVSPropertyOp50
 70
     1
102
RTVSPropertyOp51
 70
     0
102
RTVSPropertyOp52
 70
     0
102
RTVSPropertyOp53
 70
     1
102
RTVSPropertyOp54
 70
     1
102
RTVSPropertyOp55
 70
     1
102
RTVSPropertyOp56
 70
     1
102
RTVSPropertyOp57
 70
     1
102
RTVSPropertyOp58
 70
     1
102
RTVSPropertyOp59
 70
     1
102
RTVSPropertyOp60
 70
     1
102
RTVSPropertyOp61
 70
     1
102
RTVSPropertyOp62
 70
     1
  0
XRECORD
  5
4A4
102
{ACAD_REACTORS
330
4A3
102
}
330
4A3
100
AcDbXrecord
280
     1
102
RTVSPost2010Prop28
280
     0
102
RTVSPost2010PropOp28
 70
     1
102
RTVSPost2010Prop29
280
     1
102
RTVSPost2010PropOp29
 70
     1
102
RTVSPost2010Prop30
280
     1
102
RTVSPost2010PropOp30
 70
     1
102
RTVSPost2010Prop31
280
     0
102
RTVSPost2010PropOp31
 70
     1
102
RTVSPost2010Prop32
280
     0
102
RTVSPost2010PropOp32
 70
     1
102
RTVSPost2010Prop33
280
     0
102
RTVSPost2010PropOp33
 70
     1
102
RTVSPost2010Prop34
280
     0
102
RTVSPost2010PropOp34
 70
     1
102
RTVSPost2010Prop35
280
     0
102
RTVSPost2010PropOp35
 70
     1
102
RTVSPost2010Prop36
280
     0
102
RTVSPost2010PropOp36
 70
     1
102
RTVSPost2010Prop37
 90
       50
102
RTVSPost2010PropOp37
 70
     1
102
RTVSPost2010Prop38
140
0.0
102
RTVSPost2010PropOp38
 70
     1
102
RTVSPost2010Prop39
140
1.0
102
RTVSPost2010PropOp39
 70
     1
102
RTVSPost2010Prop40
 90
        0
102
RTVSPost2010PropOp40
 70
     1
102
RTVSPost2010Prop41ColorIndex
 90
       18
102
RTVSPost2010Prop41ColorRGB
 90
        0
102
RTVSPost2010PropOp41
 70
     1
102
RTVSPost2010Prop42
 90
       50
102
RTVSPost2010PropOp42
 70
     1
102
RTVSPost2010Prop43
 90
        3
102
RTVSPost2010PropOp43
 70
     1
102
RTVSPost2010Prop44ColorIndex
 90
        5
102
RTVSPost2010Prop44ColorRGB
 90
      255
102
RTVSPost2010PropOp44
 70
     1
102
RTVSPost2010Prop45
280
     0
102
RTVSPost2010PropOp45
 70
     1
102
RTVSPost2010Prop46
 90
       50
102
RTVSPost2010PropOp46
 70
     1
102
RTVSPost2010Prop47
 90
       50
102
RTVSPost2010PropOp47
 70
     1
102
RTVSPost2010Prop48
 90
       50
102
RTVSPost2010PropOp48
 70
     1
102
RTVSPost2010Prop49
280
     0
102
RTVSPost2010PropOp49
 70
     1
102
RTVSPost2010Prop50
 90
       50
102
RTVSPost2010PropOp50
 70
     1
102
RTVSPost2010Prop51ColorIndex
 90
      256
102
RTVSPost2010Prop51ColorRGB
 90
-16777216
102
RTVSPost2010PropOp51
 70
     0
102
RTVSPost2010Prop52
140
1.0
102
RTVSPost2010PropOp52
 70
     0
102
RTVSPost2010Prop53
 90
        2
102
RTVSPost2010PropOp53
 70
     1
102
RTVSPost2010Prop54
  1
strokes_ogs.tif
102
RTVSPost2010PropOp54
 70
     1
102
RTVSPost2010Prop55
280
     0
102
RTVSPost2010PropOp55
 70
     1
102
RTVSPost2010Prop56
140
1.0
102
RTVSPost2010PropOp56
 70
     1
102
RTVSPost2010Prop57
140
1.0
102
RTVSPost2010PropOp57
 70
     1
102
RTVSPropertyOp0
 70
     1
102
RTVSPropertyOp1
 70
     1
102
RTVSPropertyOp2
 70
     1
102
RTVSPropertyOp3
 70
     1
102
RTVSPropertyOp4
 70
     1
102
RTVSPropertyOp5
 70
     1
102
RTVSPropertyOp6
 70
     1
102
RTVSPropertyOp7
 70
     1
102
RTVSPropertyOp8
 70
     1
102
RTVSPropertyOp9
 70
     1
102
RTVSPropertyOp10
 70
     1
102
RTVSPropertyOp11
 70
     1
102
RTVSPropertyOp12
 70
     1
102
RTVSPropertyOp13
 70
     1
102
RTVSPropertyOp14
 70
     1
102
RTVSPropertyOp15
 70
     1
102
RTVSPropertyOp16
 70
     1
102
RTVSPropertyOp17
 70
     1
102
RTVSPropertyOp18
 70
     1
102
RTVSPropertyOp19
 70
     1
102
RTVSPropertyOp20
 70
     1
102
RTVSPropertyOp21
 70
     1
102
RTVSPropertyOp22
 70
     1
102
RTVSPropertyOp23
 70
     1
102
RTVSPropertyOp24
 70
     1
102
RTVSPropertyOp25
 70
     1
102
RTVSPropertyOp26
 70
     1
102
RTVSPropertyOp27
 70
     1
102
RTVSPropertyOp28
 70
     1
102
RTVSPropertyOp29
 70
     1
102
RTVSPropertyOp30
 70
     1
102
RTVSPropertyOp31
 70
     1
102
RTVSPropertyOp32
 70
     1
102
RTVSPropertyOp33
 70
     1
102
RTVSPropertyOp34
 70
     1
102
RTVSPropertyOp35
 70
     1
102
RTVSPropertyOp36
 70
     1
102
RTVSPropertyOp37
 70
     1
102
RTVSPropertyOp38
 70
     1
102
RTVSPropertyOp39
 70
     1
102
RTVSPropertyOp40
 70
     1
102
RTVSPropertyOp41
 70
     1
102
RTVSPropertyOp42
 70
     1
102
RTVSPropertyOp43
 70
     1
102
RTVSPropertyOp44
 70
     1
102
RTVSPropertyOp45
 70
     1
102
RTVSPropertyOp46
 70
     1
102
RTVSPropertyOp47
 70
     1
102
RTVSPropertyOp48
 70
     1
102
RTVSPropertyOp49
 70
     1
102
RTVSPropertyOp50
 70
     1
102
RTVSPropertyOp51
 70
     0
102
RTVSPropertyOp52
 70
     0
102
RTVSPropertyOp53
 70
     1
102
RTVSPropertyOp54
 70
     1
102
RTVSPropertyOp55
 70
     1
102
RTVSPropertyOp56
 70
     1
102
RTVSPropertyOp57
 70
     1
102
RTVSPropertyOp58
 70
     1
102
RTVSPropertyOp59
 70
     1
102
RTVSPropertyOp60
 70
     1
102
RTVSPropertyOp61
 70
     1
102
RTVSPropertyOp62
 70
     1
  0
XRECORD
  5
4B2
102
{ACAD_REACTORS
330
4B1
102
}
330
4B1
100
AcDbXrecord
280
     1
102
RTVSPost2010Prop28
280
     0
102
RTVSPost2010PropOp28
 70
     1
102
RTVSPost2010Prop29
280
     1
102
RTVSPost2010PropOp29
 70
     1
102
RTVSPost2010Prop30
280
     1
102
RTVSPost2010PropOp30
 70
     1
102
RTVSPost2010Prop31
280
     0
102
RTVSPost2010PropOp31
 70
     1
102
RTVSPost2010Prop32
280
     0
102
RTVSPost2010PropOp32
 70
     1
102
RTVSPost2010Prop33
280
     0
102
RTVSPost2010PropOp33
 70
     1
102
RTVSPost2010Prop34
280
     0
102
RTVSPost2010PropOp34
 70
     1
102
RTVSPost2010Prop35
280
     0
102
RTVSPost2010PropOp35
 70
     1
102
RTVSPost2010Prop36
280
     0
102
RTVSPost2010PropOp36
 70
     1
102
RTVSPost2010Prop37
 90
       50
102
RTVSPost2010PropOp37
 70
     1
102
RTVSPost2010Prop38
140
0.0
102
RTVSPost2010PropOp38
 70
     1
102
RTVSPost2010Prop39
140
1.0
102
RTVSPost2010PropOp39
 70
     1
102
RTVSPost2010Prop40
 90
        0
102
RTVSPost2010PropOp40
 70
     1
102
RTVSPost2010Prop41ColorIndex
 90
       18
102
RTVSPost2010Prop41ColorRGB
 90
        0
102
RTVSPost2010PropOp41
 70
     1
102
RTVSPost2010Prop42
 90
       50
102
RTVSPost2010PropOp42
 70
     1
102
RTVSPost2010Prop43
 90
        3
102
RTVSPost2010PropOp43
 70
     1
102
RTVSPost2010Prop44ColorIndex
 90
        5
102
RTVSPost2010Prop44ColorRGB
 90
      255
102
RTVSPost2010PropOp44
 70
     1
102
RTVSPost2010Prop45
280
     0
102
RTVSPost2010PropOp45
 70
     1
102
RTVSPost2010Prop46
 90
       50
102
RTVSPost2010PropOp46
 70
     1
102
RTVSPost2010Prop47
 90
       50
102
RTVSPost2010PropOp47
 70
     1
102
RTVSPost2010Prop48
 90
       50
102
RTVSPost2010PropOp48
 70
     1
102
RTVSPost2010Prop49
280
     0
102
RTVSPost2010PropOp49
 70
     1
102
RTVSPost2010Prop50
 90
       50
102
RTVSPost2010PropOp50
 70
     1
102
RTVSPost2010Prop51ColorIndex
 90
      256
102
RTVSPost2010Prop51ColorRGB
 90
-16777216
102
RTVSPost2010PropOp51
 70
     0
102
RTVSPost2010Prop52
140
1.0
102
RTVSPost2010PropOp52
 70
     0
102
RTVSPost2010Prop53
 90
        2
102
RTVSPost2010PropOp53
 70
     1
102
RTVSPost2010Prop54
  1
strokes_ogs.tif
102
RTVSPost2010PropOp54
 70
     1
102
RTVSPost2010Prop55
280
     0
102
RTVSPost2010PropOp55
 70
     1
102
RTVSPost2010Prop56
140
1.0
102
RTVSPost2010PropOp56
 70
     1
102
RTVSPost2010Prop57
140
1.0
102
RTVSPost2010PropOp57
 70
     1
102
RTVSPropertyOp0
 70
     1
102
RTVSPropertyOp1
 70
     1
102
RTVSPropertyOp2
 70
     1
102
RTVSPropertyOp3
 70
     1
102
RTVSPropertyOp4
 70
     1
102
RTVSPropertyOp5
 70
     1
102
RTVSPropertyOp6
 70
     1
102
RTVSPropertyOp7
 70
     1
102
RTVSPropertyOp8
 70
     1
102
RTVSPropertyOp9
 70
     1
102
RTVSPropertyOp10
 70
     1
102
RTVSPropertyOp11
 70
     1
102
RTVSPropertyOp12
 70
     1
102
RTVSPropertyOp13
 70
     1
102
RTVSPropertyOp14
 70
     1
102
RTVSPropertyOp15
 70
     1
102
RTVSPropertyOp16
 70
     1
102
RTVSPropertyOp17
 70
     1
102
RTVSPropertyOp18
 70
     1
102
RTVSPropertyOp19
 70
     1
102
RTVSPropertyOp20
 70
     1
102
RTVSPropertyOp21
 70
     1
102
RTVSPropertyOp22
 70
     1
102
RTVSPropertyOp23
 70
     1
102
RTVSPropertyOp24
 70
     1
102
RTVSPropertyOp25
 70
     1
102
RTVSPropertyOp26
 70
     1
102
RTVSPropertyOp27
 70
     1
102
RTVSPropertyOp28
 70
     1
102
RTVSPropertyOp29
 70
     1
102
RTVSPropertyOp30
 70
     1
102
RTVSPropertyOp31
 70
     1
102
RTVSPropertyOp32
 70
     1
102
RTVSPropertyOp33
 70
     1
102
RTVSPropertyOp34
 70
     1
102
RTVSPropertyOp35
 70
     1
102
RTVSPropertyOp36
 70
     1
102
RTVSPropertyOp37
 70
     1
102
RTVSPropertyOp38
 70
     1
102
RTVSPropertyOp39
 70
     1
102
RTVSPropertyOp40
 70
     1
102
RTVSPropertyOp41
 70
     1
102
RTVSPropertyOp42
 70
     1
102
RTVSPropertyOp43
 70
     1
102
RTVSPropertyOp44
 70
     1
102
RTVSPropertyOp45
 70
     1
102
RTVSPropertyOp46
 70
     1
102
RTVSPropertyOp47
 70
     1
102
RTVSPropertyOp48
 70
     1
102
RTVSPropertyOp49
 70
     1
102
RTVSPropertyOp50
 70
     1
102
RTVSPropertyOp51
 70
     0
102
RTVSPropertyOp52
 70
     0
102
RTVSPropertyOp53
 70
     1
102
RTVSPropertyOp54
 70
     1
102
RTVSPropertyOp55
 70
     1
102
RTVSPropertyOp56
 70
     1
102
RTVSPropertyOp57
 70
     1
102
RTVSPropertyOp58
 70
     1
102
RTVSPropertyOp59
 70
     1
102
RTVSPropertyOp60
 70
     1
102
RTVSPropertyOp61
 70
     1
102
RTVSPropertyOp62
 70
     1
  0
XRECORD
  5
4BA
102
{ACAD_REACTORS
330
4B9
102
}
330
4B9
100
AcDbXrecord
280
     1
102
RTVSPost2010Prop28
280
     0
102
RTVSPost2010PropOp28
 70
     1
102
RTVSPost2010Prop29
280
     1
102
RTVSPost2010PropOp29
 70
     1
102
RTVSPost2010Prop30
280
     1
102
RTVSPost2010PropOp30
 70
     1
102
RTVSPost2010Prop31
280
     0
102
RTVSPost2010PropOp31
 70
     1
102
RTVSPost2010Prop32
280
     0
102
RTVSPost2010PropOp32
 70
     1
102
RTVSPost2010Prop33
280
     0
102
RTVSPost2010PropOp33
 70
     1
102
RTVSPost2010Prop34
280
     0
102
RTVSPost2010PropOp34
 70
     1
102
RTVSPost2010Prop35
280
     0
102
RTVSPost2010PropOp35
 70
     1
102
RTVSPost2010Prop36
280
     0
102
RTVSPost2010PropOp36
 70
     1
102
RTVSPost2010Prop37
 90
       50
102
RTVSPost2010PropOp37
 70
     1
102
RTVSPost2010Prop38
140
0.0
102
RTVSPost2010PropOp38
 70
     1
102
RTVSPost2010Prop39
140
1.0
102
RTVSPost2010PropOp39
 70
     1
102
RTVSPost2010Prop40
 90
        0
102
RTVSPost2010PropOp40
 70
     1
102
RTVSPost2010Prop41ColorIndex
 90
       18
102
RTVSPost2010Prop41ColorRGB
 90
        0
102
RTVSPost2010PropOp41
 70
     1
102
RTVSPost2010Prop42
 90
       50
102
RTVSPost2010PropOp42
 70
     1
102
RTVSPost2010Prop43
 90
        3
102
RTVSPost2010PropOp43
 70
     1
102
RTVSPost2010Prop44ColorIndex
 90
        5
102
RTVSPost2010Prop44ColorRGB
 90
      255
102
RTVSPost2010PropOp44
 70
     1
102
RTVSPost2010Prop45
280
     0
102
RTVSPost2010PropOp45
 70
     1
102
RTVSPost2010Prop46
 90
       50
102
RTVSPost2010PropOp46
 70
     1
102
RTVSPost2010Prop47
 90
       50
102
RTVSPost2010PropOp47
 70
     1
102
RTVSPost2010Prop48
 90
       50
102
RTVSPost2010PropOp48
 70
     1
102
RTVSPost2010Prop49
280
     0
102
RTVSPost2010PropOp49
 70
     1
102
RTVSPost2010Prop50
 90
       50
102
RTVSPost2010PropOp50
 70
     1
102
RTVSPost2010Prop51ColorIndex
 90
      256
102
RTVSPost2010Prop51ColorRGB
 90
-16777216
102
RTVSPost2010PropOp51
 70
     0
102
RTVSPost2010Prop52
140
1.0
102
RTVSPost2010PropOp52
 70
     0
102
RTVSPost2010Prop53
 90
        2
102
RTVSPost2010PropOp53
 70
     1
102
RTVSPost2010Prop54
  1
strokes_ogs.tif
102
RTVSPost2010PropOp54
 70
     1
102
RTVSPost2010Prop55
280
     0
102
RTVSPost2010PropOp55
 70
     1
102
RTVSPost2010Prop56
140
1.0
102
RTVSPost2010PropOp56
 70
     1
102
RTVSPost2010Prop57
140
1.0
102
RTVSPost2010PropOp57
 70
     1
102
RTVSPropertyOp0
 70
     1
102
RTVSPropertyOp1
 70
     1
102
RTVSPropertyOp2
 70
     1
102
RTVSPropertyOp3
 70
     1
102
RTVSPropertyOp4
 70
     1
102
RTVSPropertyOp5
 70
     1
102
RTVSPropertyOp6
 70
     1
102
RTVSPropertyOp7
 70
     1
102
RTVSPropertyOp8
 70
     1
102
RTVSPropertyOp9
 70
     1
102
RTVSPropertyOp10
 70
     1
102
RTVSPropertyOp11
 70
     1
102
RTVSPropertyOp12
 70
     1
102
RTVSPropertyOp13
 70
     1
102
RTVSPropertyOp14
 70
     1
102
RTVSPropertyOp15
 70
     1
102
RTVSPropertyOp16
 70
     1
102
RTVSPropertyOp17
 70
     1
102
RTVSPropertyOp18
 70
     1
102
RTVSPropertyOp19
 70
     1
102
RTVSPropertyOp20
 70
     1
102
RTVSPropertyOp21
 70
     1
102
RTVSPropertyOp22
 70
     1
102
RTVSPropertyOp23
 70
     1
102
RTVSPropertyOp24
 70
     1
102
RTVSPropertyOp25
 70
     1
102
RTVSPropertyOp26
 70
     1
102
RTVSPropertyOp27
 70
     1
102
RTVSPropertyOp28
 70
     1
102
RTVSPropertyOp29
 70
     1
102
RTVSPropertyOp30
 70
     1
102
RTVSPropertyOp31
 70
     1
102
RTVSPropertyOp32
 70
     1
102
RTVSPropertyOp33
 70
     1
102
RTVSPropertyOp34
 70
     1
102
RTVSPropertyOp35
 70
     1
102
RTVSPropertyOp36
 70
     1
102
RTVSPropertyOp37
 70
     1
102
RTVSPropertyOp38
 70
     1
102
RTVSPropertyOp39
 70
     1
102
RTVSPropertyOp40
 70
     1
102
RTVSPropertyOp41
 70
     1
102
RTVSPropertyOp42
 70
     1
102
RTVSPropertyOp43
 70
     1
102
RTVSPropertyOp44
 70
     1
102
RTVSPropertyOp45
 70
     1
102
RTVSPropertyOp46
 70
     1
102
RTVSPropertyOp47
 70
     1
102
RTVSPropertyOp48
 70
     1
102
RTVSPropertyOp49
 70
     1
102
RTVSPropertyOp50
 70
     1
102
RTVSPropertyOp51
 70
     0
102
RTVSPropertyOp52
 70
     0
102
RTVSPropertyOp53
 70
     1
102
RTVSPropertyOp54
 70
     1
102
RTVSPropertyOp55
 70
     1
102
RTVSPropertyOp56
 70
     1
102
RTVSPropertyOp57
 70
     1
102
RTVSPropertyOp58
 70
     1
102
RTVSPropertyOp59
 70
     1
102
RTVSPropertyOp60
 70
     1
102
RTVSPropertyOp61
 70
     1
102
RTVSPropertyOp62
 70
     1
  0
XRECORD
  5
4AC
102
{ACAD_REACTORS
330
4AB
102
}
330
4AB
100
AcDbXrecord
280
     1
102
RTVSPost2010Prop28
280
     0
102
RTVSPost2010PropOp28
 70
     1
102
RTVSPost2010Prop29
280
     1
102
RTVSPost2010PropOp29
 70
     1
102
RTVSPost2010Prop30
280
     1
102
RTVSPost2010PropOp30
 70
     1
102
RTVSPost2010Prop31
280
     0
102
RTVSPost2010PropOp31
 70
     1
102
RTVSPost2010Prop32
280
     0
102
RTVSPost2010PropOp32
 70
     1
102
RTVSPost2010Prop33
280
     0
102
RTVSPost2010PropOp33
 70
     1
102
RTVSPost2010Prop34
280
     0
102
RTVSPost2010PropOp34
 70
     1
102
RTVSPost2010Prop35
280
     0
102
RTVSPost2010PropOp35
 70
     1
102
RTVSPost2010Prop36
280
     0
102
RTVSPost2010PropOp36
 70
     1
102
RTVSPost2010Prop37
 90
       50
102
RTVSPost2010PropOp37
 70
     1
102
RTVSPost2010Prop38
140
0.0
102
RTVSPost2010PropOp38
 70
     1
102
RTVSPost2010Prop39
140
1.0
102
RTVSPost2010PropOp39
 70
     1
102
RTVSPost2010Prop40
 90
        0
102
RTVSPost2010PropOp40
 70
     1
102
RTVSPost2010Prop41ColorIndex
 90
       18
102
RTVSPost2010Prop41ColorRGB
 90
        0
102
RTVSPost2010PropOp41
 70
     1
102
RTVSPost2010Prop42
 90
       50
102
RTVSPost2010PropOp42
 70
     1
102
RTVSPost2010Prop43
 90
        3
102
RTVSPost2010PropOp43
 70
     1
102
RTVSPost2010Prop44ColorIndex
 90
        5
102
RTVSPost2010Prop44ColorRGB
 90
      255
102
RTVSPost2010PropOp44
 70
     1
102
RTVSPost2010Prop45
280
     0
102
RTVSPost2010PropOp45
 70
     1
102
RTVSPost2010Prop46
 90
       50
102
RTVSPost2010PropOp46
 70
     1
102
RTVSPost2010Prop47
 90
       50
102
RTVSPost2010PropOp47
 70
     1
102
RTVSPost2010Prop48
 90
       50
102
RTVSPost2010PropOp48
 70
     1
102
RTVSPost2010Prop49
280
     0
102
RTVSPost2010PropOp49
 70
     1
102
RTVSPost2010Prop50
 90
       50
102
RTVSPost2010PropOp50
 70
     1
102
RTVSPost2010Prop51ColorIndex
 90
      256
102
RTVSPost2010Prop51ColorRGB
 90
-16777216
102
RTVSPost2010PropOp51
 70
     0
102
RTVSPost2010Prop52
140
1.0
102
RTVSPost2010PropOp52
 70
     0
102
RTVSPost2010Prop53
 90
        2
102
RTVSPost2010PropOp53
 70
     1
102
RTVSPost2010Prop54
  1
strokes_ogs.tif
102
RTVSPost2010PropOp54
 70
     1
102
RTVSPost2010Prop55
280
     0
102
RTVSPost2010PropOp55
 70
     1
102
RTVSPost2010Prop56
140
1.0
102
RTVSPost2010PropOp56
 70
     1
102
RTVSPost2010Prop57
140
1.0
102
RTVSPost2010PropOp57
 70
     1
102
RTVSPropertyOp0
 70
     1
102
RTVSPropertyOp1
 70
     1
102
RTVSPropertyOp2
 70
     1
102
RTVSPropertyOp3
 70
     1
102
RTVSPropertyOp4
 70
     1
102
RTVSPropertyOp5
 70
     1
102
RTVSPropertyOp6
 70
     1
102
RTVSPropertyOp7
 70
     1
102
RTVSPropertyOp8
 70
     1
102
RTVSPropertyOp9
 70
     1
102
RTVSPropertyOp10
 70
     1
102
RTVSPropertyOp11
 70
     1
102
RTVSPropertyOp12
 70
     1
102
RTVSPropertyOp13
 70
     1
102
RTVSPropertyOp14
 70
     1
102
RTVSPropertyOp15
 70
     1
102
RTVSPropertyOp16
 70
     1
102
RTVSPropertyOp17
 70
     1
102
RTVSPropertyOp18
 70
     1
102
RTVSPropertyOp19
 70
     1
102
RTVSPropertyOp20
 70
     1
102
RTVSPropertyOp21
 70
     1
102
RTVSPropertyOp22
 70
     1
102
RTVSPropertyOp23
 70
     1
102
RTVSPropertyOp24
 70
     1
102
RTVSPropertyOp25
 70
     1
102
RTVSPropertyOp26
 70
     1
102
RTVSPropertyOp27
 70
     1
102
RTVSPropertyOp28
 70
     1
102
RTVSPropertyOp29
 70
     1
102
RTVSPropertyOp30
 70
     1
102
RTVSPropertyOp31
 70
     1
102
RTVSPropertyOp32
 70
     1
102
RTVSPropertyOp33
 70
     1
102
RTVSPropertyOp34
 70
     1
102
RTVSPropertyOp35
 70
     1
102
RTVSPropertyOp36
 70
     1
102
RTVSPropertyOp37
 70
     1
102
RTVSPropertyOp38
 70
     1
102
RTVSPropertyOp39
 70
     1
102
RTVSPropertyOp40
 70
     1
102
RTVSPropertyOp41
 70
     1
102
RTVSPropertyOp42
 70
     1
102
RTVSPropertyOp43
 70
     1
102
RTVSPropertyOp44
 70
     1
102
RTVSPropertyOp45
 70
     1
102
RTVSPropertyOp46
 70
     1
102
RTVSPropertyOp47
 70
     1
102
RTVSPropertyOp48
 70
     1
102
RTVSPropertyOp49
 70
     1
102
RTVSPropertyOp50
 70
     1
102
RTVSPropertyOp51
 70
     0
102
RTVSPropertyOp52
 70
     0
102
RTVSPropertyOp53
 70
     1
102
RTVSPropertyOp54
 70
     1
102
RTVSPropertyOp55
 70
     1
102
RTVSPropertyOp56
 70
     1
102
RTVSPropertyOp57
 70
     1
102
RTVSPropertyOp58
 70
     1
102
RTVSPropertyOp59
 70
     1
102
RTVSPropertyOp60
 70
     1
102
RTVSPropertyOp61
 70
     1
102
RTVSPropertyOp62
 70
     1
  0
XRECORD
  5
4B0
102
{ACAD_REACTORS
330
4AF
102
}
330
4AF
100
AcDbXrecord
280
     1
102
RTVSPost2010Prop28
280
     0
102
RTVSPost2010PropOp28
 70
     1
102
RTVSPost2010Prop29
280
     1
102
RTVSPost2010PropOp29
 70
     1
102
RTVSPost2010Prop30
280
     1
102
RTVSPost2010PropOp30
 70
     1
102
RTVSPost2010Prop31
280
     0
102
RTVSPost2010PropOp31
 70
     1
102
RTVSPost2010Prop32
280
     0
102
RTVSPost2010PropOp32
 70
     1
102
RTVSPost2010Prop33
280
     0
102
RTVSPost2010PropOp33
 70
     1
102
RTVSPost2010Prop34
280
     0
102
RTVSPost2010PropOp34
 70
     1
102
RTVSPost2010Prop35
280
     0
102
RTVSPost2010PropOp35
 70
     1
102
RTVSPost2010Prop36
280
     0
102
RTVSPost2010PropOp36
 70
     1
102
RTVSPost2010Prop37
 90
       50
102
RTVSPost2010PropOp37
 70
     1
102
RTVSPost2010Prop38
140
0.0
102
RTVSPost2010PropOp38
 70
     1
102
RTVSPost2010Prop39
140
1.0
102
RTVSPost2010PropOp39
 70
     1
102
RTVSPost2010Prop40
 90
        0
102
RTVSPost2010PropOp40
 70
     1
102
RTVSPost2010Prop41ColorIndex
 90
       18
102
RTVSPost2010Prop41ColorRGB
 90
        0
102
RTVSPost2010PropOp41
 70
     1
102
RTVSPost2010Prop42
 90
       50
102
RTVSPost2010PropOp42
 70
     1
102
RTVSPost2010Prop43
 90
        3
102
RTVSPost2010PropOp43
 70
     1
102
RTVSPost2010Prop44ColorIndex
 90
        5
102
RTVSPost2010Prop44ColorRGB
 90
      255
102
RTVSPost2010PropOp44
 70
     1
102
RTVSPost2010Prop45
280
     0
102
RTVSPost2010PropOp45
 70
     1
102
RTVSPost2010Prop46
 90
       50
102
RTVSPost2010PropOp46
 70
     1
102
RTVSPost2010Prop47
 90
       50
102
RTVSPost2010PropOp47
 70
     1
102
RTVSPost2010Prop48
 90
       50
102
RTVSPost2010PropOp48
 70
     1
102
RTVSPost2010Prop49
280
     0
102
RTVSPost2010PropOp49
 70
     1
102
RTVSPost2010Prop50
 90
       50
102
RTVSPost2010PropOp50
 70
     1
102
RTVSPost2010Prop51ColorIndex
 90
      256
102
RTVSPost2010Prop51ColorRGB
 90
-16777216
102
RTVSPost2010PropOp51
 70
     0
102
RTVSPost2010Prop52
140
1.0
102
RTVSPost2010PropOp52
 70
     0
102
RTVSPost2010Prop53
 90
        2
102
RTVSPost2010PropOp53
 70
     1
102
RTVSPost2010Prop54
  1
strokes_ogs.tif
102
RTVSPost2010PropOp54
 70
     1
102
RTVSPost2010Prop55
280
     0
102
RTVSPost2010PropOp55
 70
     1
102
RTVSPost2010Prop56
140
1.0
102
RTVSPost2010PropOp56
 70
     1
102
RTVSPost2010Prop57
140
1.0
102
RTVSPost2010PropOp57
 70
     1
102
RTVSPropertyOp0
 70
     1
102
RTVSPropertyOp1
 70
     1
102
RTVSPropertyOp2
 70
     1
102
RTVSPropertyOp3
 70
     1
102
RTVSPropertyOp4
 70
     1
102
RTVSPropertyOp5
 70
     1
102
RTVSPropertyOp6
 70
     1
102
RTVSPropertyOp7
 70
     1
102
RTVSPropertyOp8
 70
     1
102
RTVSPropertyOp9
 70
     1
102
RTVSPropertyOp10
 70
     1
102
RTVSPropertyOp11
 70
     1
102
RTVSPropertyOp12
 70
     1
102
RTVSPropertyOp13
 70
     1
102
RTVSPropertyOp14
 70
     1
102
RTVSPropertyOp15
 70
     1
102
RTVSPropertyOp16
 70
     1
102
RTVSPropertyOp17
 70
     1
102
RTVSPropertyOp18
 70
     1
102
RTVSPropertyOp19
 70
     1
102
RTVSPropertyOp20
 70
     1
102
RTVSPropertyOp21
 70
     1
102
RTVSPropertyOp22
 70
     1
102
RTVSPropertyOp23
 70
     1
102
RTVSPropertyOp24
 70
     1
102
RTVSPropertyOp25
 70
     1
102
RTVSPropertyOp26
 70
     1
102
RTVSPropertyOp27
 70
     1
102
RTVSPropertyOp28
 70
     1
102
RTVSPropertyOp29
 70
     1
102
RTVSPropertyOp30
 70
     1
102
RTVSPropertyOp31
 70
     1
102
RTVSPropertyOp32
 70
     1
102
RTVSPropertyOp33
 70
     1
102
RTVSPropertyOp34
 70
     1
102
RTVSPropertyOp35
 70
     1
102
RTVSPropertyOp36
 70
     1
102
RTVSPropertyOp37
 70
     1
102
RTVSPropertyOp38
 70
     1
102
RTVSPropertyOp39
 70
     1
102
RTVSPropertyOp40
 70
     1
102
RTVSPropertyOp41
 70
     1
102
RTVSPropertyOp42
 70
     1
102
RTVSPropertyOp43
 70
     1
102
RTVSPropertyOp44
 70
     1
102
RTVSPropertyOp45
 70
     1
102
RTVSPropertyOp46
 70
     1
102
RTVSPropertyOp47
 70
     1
102
RTVSPropertyOp48
 70
     1
102
RTVSPropertyOp49
 70
     1
102
RTVSPropertyOp50
 70
     1
102
RTVSPropertyOp51
 70
     0
102
RTVSPropertyOp52
 70
     0
102
RTVSPropertyOp53
 70
     1
102
RTVSPropertyOp54
 70
     1
102
RTVSPropertyOp55
 70
     1
102
RTVSPropertyOp56
 70
     1
102
RTVSPropertyOp57
 70
     1
102
RTVSPropertyOp58
 70
     1
102
RTVSPropertyOp59
 70
     1
102
RTVSPropertyOp60
 70
     1
102
RTVSPropertyOp61
 70
     1
102
RTVSPropertyOp62
 70
     1
  0
XRECORD
  5
4CA
102
{ACAD_REACTORS
330
4C9
102
}
330
4C9
100
AcDbXrecord
280
     1
102
RTVSPost2010Prop28
280
     0
102
RTVSPost2010PropOp28
 70
     0
102
RTVSPost2010Prop29
280
     1
102
RTVSPost2010PropOp29
 70
     0
102
RTVSPost2010Prop30
280
     1
102
RTVSPost2010PropOp30
 70
     0
102
RTVSPost2010Prop31
280
     0
102
RTVSPost2010PropOp31
 70
     0
102
RTVSPost2010Prop32
280
     0
102
RTVSPost2010PropOp32
 70
     0
102
RTVSPost2010Prop33
280
     0
102
RTVSPost2010PropOp33
 70
     0
102
RTVSPost2010Prop34
280
     0
102
RTVSPost2010PropOp34
 70
     0
102
RTVSPost2010Prop35
280
     0
102
RTVSPost2010PropOp35
 70
     0
102
RTVSPost2010Prop36
280
     0
102
RTVSPost2010PropOp36
 70
     0
102
RTVSPost2010Prop37
 90
       50
102
RTVSPost2010PropOp37
 70
     0
102
RTVSPost2010Prop38
140
0.0
102
RTVSPost2010PropOp38
 70
     0
102
RTVSPost2010Prop39
140
1.0
102
RTVSPost2010PropOp39
 70
     0
102
RTVSPost2010Prop40
 90
        0
102
RTVSPost2010PropOp40
 70
     0
102
RTVSPost2010Prop41ColorIndex
 90
       18
102
RTVSPost2010Prop41ColorRGB
 90
        0
102
RTVSPost2010PropOp41
 70
     0
102
RTVSPost2010Prop42
 90
       50
102
RTVSPost2010PropOp42
 70
     0
102
RTVSPost2010Prop43
 90
        3
102
RTVSPost2010PropOp43
 70
     0
102
RTVSPost2010Prop44ColorIndex
 90
        5
102
RTVSPost2010Prop44ColorRGB
 90
      255
102
RTVSPost2010PropOp44
 70
     0
102
RTVSPost2010Prop45
280
     0
102
RTVSPost2010PropOp45
 70
     0
102
RTVSPost2010Prop46
 90
       50
102
RTVSPost2010PropOp46
 70
     0
102
RTVSPost2010Prop47
 90
       50
102
RTVSPost2010PropOp47
 70
     0
102
RTVSPost2010Prop48
 90
       50
102
RTVSPost2010PropOp48
 70
     0
102
RTVSPost2010Prop49
280
     0
102
RTVSPost2010PropOp49
 70
     0
102
RTVSPost2010Prop50
 90
       50
102
RTVSPost2010PropOp50
 70
     0
102
RTVSPost2010Prop51ColorIndex
 90
      256
102
RTVSPost2010Prop51ColorRGB
 90
-16777216
102
RTVSPost2010PropOp51
 70
     0
102
RTVSPost2010Prop52
140
1.0
102
RTVSPost2010PropOp52
 70
     0
102
RTVSPost2010Prop53
 90
        2
102
RTVSPost2010PropOp53
 70
     0
102
RTVSPost2010Prop54
  1
strokes_ogs.tif
102
RTVSPost2010PropOp54
 70
     0
102
RTVSPost2010Prop55
280
     0
102
RTVSPost2010PropOp55
 70
     0
102
RTVSPost2010Prop56
140
1.0
102
RTVSPost2010PropOp56
 70
     0
102
RTVSPost2010Prop57
140
1.0
102
RTVSPost2010PropOp57
 70
     0
102
RTVSPropertyOp0
 70
     0
102
RTVSPropertyOp1
 70
     0
102
RTVSPropertyOp2
 70
     0
102
RTVSPropertyOp3
 70
     0
102
RTVSPropertyOp4
 70
     0
102
RTVSPropertyOp5
 70
     0
102
RTVSPropertyOp6
 70
     0
102
RTVSPropertyOp7
 70
     0
102
RTVSPropertyOp8
 70
     0
102
RTVSPropertyOp9
 70
     0
102
RTVSPropertyOp10
 70
     0
102
RTVSPropertyOp11
 70
     0
102
RTVSPropertyOp12
 70
     0
102
RTVSPropertyOp13
 70
     0
102
RTVSPropertyOp14
 70
     2
102
RTVSPropertyOp15
 70
     0
102
RTVSPropertyOp16
 70
     0
102
RTVSPropertyOp17
 70
     0
102
RTVSPropertyOp18
 70
     0
102
RTVSPropertyOp19
 70
     0
102
RTVSPropertyOp20
 70
     0
102
RTVSPropertyOp21
 70
     0
102
RTVSPropertyOp22
 70
     0
102
RTVSPropertyOp23
 70
     0
102
RTVSPropertyOp24
 70
     0
102
RTVSPropertyOp25
 70
     0
102
RTVSPropertyOp26
 70
     0
102
RTVSPropertyOp27
 70
     0
102
RTVSPropertyOp28
 70
     0
102
RTVSPropertyOp29
 70
     0
102
RTVSPropertyOp30
 70
     0
102
RTVSPropertyOp31
 70
     0
102
RTVSPropertyOp32
 70
     0
102
RTVSPropertyOp33
 70
     0
102
RTVSPropertyOp34
 70
     0
102
RTVSPropertyOp35
 70
     0
102
RTVSPropertyOp36
 70
     0
102
RTVSPropertyOp37
 70
     0
102
RTVSPropertyOp38
 70
     0
102
RTVSPropertyOp39
 70
     0
102
RTVSPropertyOp40
 70
     0
102
RTVSPropertyOp41
 70
     0
102
RTVSPropertyOp42
 70
     0
102
RTVSPropertyOp43
 70
     0
102
RTVSPropertyOp44
 70
     0
102
RTVSPropertyOp45
 70
     0
102
RTVSPropertyOp46
 70
     0
102
RTVSPropertyOp47
 70
     0
102
RTVSPropertyOp48
 70
     0
102
RTVSPropertyOp49
 70
     0
102
RTVSPropertyOp50
 70
     0
102
RTVSPropertyOp51
 70
     0
102
RTVSPropertyOp52
 70
     0
102
RTVSPropertyOp53
 70
     0
102
RTVSPropertyOp54
 70
     0
102
RTVSPropertyOp55
 70
     0
102
RTVSPropertyOp56
 70
     0
102
RTVSPropertyOp57
 70
     0
102
RTVSPropertyOp58
 70
     0
102
RTVSPropertyOp59
 70
     0
102
RTVSPropertyOp60
 70
     0
102
RTVSPropertyOp61
 70
     0
102
RTVSPropertyOp62
 70
     0
  0
XRECORD
  5
4B8
102
{ACAD_REACTORS
330
4B7
102
}
330
4B7
100
AcDbXrecord
280
     1
102
RTVSPost2010Prop28
280
     0
102
RTVSPost2010PropOp28
 70
     1
102
RTVSPost2010Prop29
280
     1
102
RTVSPost2010PropOp29
 70
     1
102
RTVSPost2010Prop30
280
     1
102
RTVSPost2010PropOp30
 70
     1
102
RTVSPost2010Prop31
280
     0
102
RTVSPost2010PropOp31
 70
     1
102
RTVSPost2010Prop32
280
     0
102
RTVSPost2010PropOp32
 70
     1
102
RTVSPost2010Prop33
280
     0
102
RTVSPost2010PropOp33
 70
     1
102
RTVSPost2010Prop34
280
     0
102
RTVSPost2010PropOp34
 70
     1
102
RTVSPost2010Prop35
280
     0
102
RTVSPost2010PropOp35
 70
     1
102
RTVSPost2010Prop36
280
     0
102
RTVSPost2010PropOp36
 70
     1
102
RTVSPost2010Prop37
 90
       50
102
RTVSPost2010PropOp37
 70
     1
102
RTVSPost2010Prop38
140
0.0
102
RTVSPost2010PropOp38
 70
     1
102
RTVSPost2010Prop39
140
1.0
102
RTVSPost2010PropOp39
 70
     1
102
RTVSPost2010Prop40
 90
        0
102
RTVSPost2010PropOp40
 70
     1
102
RTVSPost2010Prop41ColorIndex
 90
       18
102
RTVSPost2010Prop41ColorRGB
 90
        0
102
RTVSPost2010PropOp41
 70
     1
102
RTVSPost2010Prop42
 90
       50
102
RTVSPost2010PropOp42
 70
     1
102
RTVSPost2010Prop43
 90
        3
102
RTVSPost2010PropOp43
 70
     1
102
RTVSPost2010Prop44ColorIndex
 90
        5
102
RTVSPost2010Prop44ColorRGB
 90
      255
102
RTVSPost2010PropOp44
 70
     1
102
RTVSPost2010Prop45
280
     0
102
RTVSPost2010PropOp45
 70
     1
102
RTVSPost2010Prop46
 90
       50
102
RTVSPost2010PropOp46
 70
     1
102
RTVSPost2010Prop47
 90
       50
102
RTVSPost2010PropOp47
 70
     1
102
RTVSPost2010Prop48
 90
       50
102
RTVSPost2010PropOp48
 70
     1
102
RTVSPost2010Prop49
280
     0
102
RTVSPost2010PropOp49
 70
     1
102
RTVSPost2010Prop50
 90
       50
102
RTVSPost2010PropOp50
 70
     1
102
RTVSPost2010Prop51ColorIndex
 90
      256
102
RTVSPost2010Prop51ColorRGB
 90
-16777216
102
RTVSPost2010PropOp51
 70
     0
102
RTVSPost2010Prop52
140
1.0
102
RTVSPost2010PropOp52
 70
     0
102
RTVSPost2010Prop53
 90
        2
102
RTVSPost2010PropOp53
 70
     1
102
RTVSPost2010Prop54
  1
strokes_ogs.tif
102
RTVSPost2010PropOp54
 70
     1
102
RTVSPost2010Prop55
280
     0
102
RTVSPost2010PropOp55
 70
     1
102
RTVSPost2010Prop56
140
1.0
102
RTVSPost2010PropOp56
 70
     1
102
RTVSPost2010Prop57
140
1.0
102
RTVSPost2010PropOp57
 70
     1
102
RTVSPropertyOp0
 70
     1
102
RTVSPropertyOp1
 70
     1
102
RTVSPropertyOp2
 70
     1
102
RTVSPropertyOp3
 70
     1
102
RTVSPropertyOp4
 70
     1
102
RTVSPropertyOp5
 70
     1
102
RTVSPropertyOp6
 70
     1
102
RTVSPropertyOp7
 70
     1
102
RTVSPropertyOp8
 70
     1
102
RTVSPropertyOp9
 70
     1
102
RTVSPropertyOp10
 70
     1
102
RTVSPropertyOp11
 70
     1
102
RTVSPropertyOp12
 70
     1
102
RTVSPropertyOp13
 70
     1
102
RTVSPropertyOp14
 70
     1
102
RTVSPropertyOp15
 70
     1
102
RTVSPropertyOp16
 70
     1
102
RTVSPropertyOp17
 70
     1
102
RTVSPropertyOp18
 70
     1
102
RTVSPropertyOp19
 70
     1
102
RTVSPropertyOp20
 70
     1
102
RTVSPropertyOp21
 70
     1
102
RTVSPropertyOp22
 70
     1
102
RTVSPropertyOp23
 70
     1
102
RTVSPropertyOp24
 70
     1
102
RTVSPropertyOp25
 70
     1
102
RTVSPropertyOp26
 70
     1
102
RTVSPropertyOp27
 70
     1
102
RTVSPropertyOp28
 70
     1
102
RTVSPropertyOp29
 70
     1
102
RTVSPropertyOp30
 70
     1
102
RTVSPropertyOp31
 70
     1
102
RTVSPropertyOp32
 70
     1
102
RTVSPropertyOp33
 70
     1
102
RTVSPropertyOp34
 70
     1
102
RTVSPropertyOp35
 70
     1
102
RTVSPropertyOp36
 70
     1
102
RTVSPropertyOp37
 70
     1
102
RTVSPropertyOp38
 70
     1
102
RTVSPropertyOp39
 70
     1
102
RTVSPropertyOp40
 70
     1
102
RTVSPropertyOp41
 70
     1
102
RTVSPropertyOp42
 70
     1
102
RTVSPropertyOp43
 70
     1
102
RTVSPropertyOp44
 70
     1
102
RTVSPropertyOp45
 70
     1
102
RTVSPropertyOp46
 70
     1
102
RTVSPropertyOp47
 70
     1
102
RTVSPropertyOp48
 70
     1
102
RTVSPropertyOp49
 70
     1
102
RTVSPropertyOp50
 70
     1
102
RTVSPropertyOp51
 70
     0
102
RTVSPropertyOp52
 70
     0
102
RTVSPropertyOp53
 70
     1
102
RTVSPropertyOp54
 70
     1
102
RTVSPropertyOp55
 70
     1
102
RTVSPropertyOp56
 70
     1
102
RTVSPropertyOp57
 70
     1
102
RTVSPropertyOp58
 70
     1
102
RTVSPropertyOp59
 70
     1
102
RTVSPropertyOp60
 70
     1
102
RTVSPropertyOp61
 70
     1
102
RTVSPropertyOp62
 70
     1
  0
XRECORD
  5
49C
102
{ACAD_REACTORS
330
49B
102
}
330
49B
100
AcDbXrecord
280
     1
102
RTVSPost2010Prop28
280
     0
102
RTVSPost2010PropOp28
 70
     1
102
RTVSPost2010Prop29
280
     1
102
RTVSPost2010PropOp29
 70
     1
102
RTVSPost2010Prop30
280
     1
102
RTVSPost2010PropOp30
 70
     1
102
RTVSPost2010Prop31
280
     0
102
RTVSPost2010PropOp31
 70
     1
102
RTVSPost2010Prop32
280
     0
102
RTVSPost2010PropOp32
 70
     1
102
RTVSPost2010Prop33
280
     0
102
RTVSPost2010PropOp33
 70
     1
102
RTVSPost2010Prop34
280
     0
102
RTVSPost2010PropOp34
 70
     1
102
RTVSPost2010Prop35
280
     0
102
RTVSPost2010PropOp35
 70
     1
102
RTVSPost2010Prop36
280
     0
102
RTVSPost2010PropOp36
 70
     1
102
RTVSPost2010Prop37
 90
       50
102
RTVSPost2010PropOp37
 70
     1
102
RTVSPost2010Prop38
140
0.0
102
RTVSPost2010PropOp38
 70
     1
102
RTVSPost2010Prop39
140
1.0
102
RTVSPost2010PropOp39
 70
     1
102
RTVSPost2010Prop40
 90
        0
102
RTVSPost2010PropOp40
 70
     1
102
RTVSPost2010Prop41ColorIndex
 90
       18
102
RTVSPost2010Prop41ColorRGB
 90
        0
102
RTVSPost2010PropOp41
 70
     1
102
RTVSPost2010Prop42
 90
       50
102
RTVSPost2010PropOp42
 70
     1
102
RTVSPost2010Prop43
 90
        3
102
RTVSPost2010PropOp43
 70
     1
102
RTVSPost2010Prop44ColorIndex
 90
        5
102
RTVSPost2010Prop44ColorRGB
 90
      255
102
RTVSPost2010PropOp44
 70
     1
102
RTVSPost2010Prop45
280
     0
102
RTVSPost2010PropOp45
 70
     1
102
RTVSPost2010Prop46
 90
       50
102
RTVSPost2010PropOp46
 70
     1
102
RTVSPost2010Prop47
 90
       50
102
RTVSPost2010PropOp47
 70
     1
102
RTVSPost2010Prop48
 90
       50
102
RTVSPost2010PropOp48
 70
     1
102
RTVSPost2010Prop49
280
     0
102
RTVSPost2010PropOp49
 70
     1
102
RTVSPost2010Prop50
 90
       50
102
RTVSPost2010PropOp50
 70
     1
102
RTVSPost2010Prop51ColorIndex
 90
      256
102
RTVSPost2010Prop51ColorRGB
 90
-16777216
102
RTVSPost2010PropOp51
 70
     0
102
RTVSPost2010Prop52
140
1.0
102
RTVSPost2010PropOp52
 70
     0
102
RTVSPost2010Prop53
 90
        2
102
RTVSPost2010PropOp53
 70
     1
102
RTVSPost2010Prop54
  1
strokes_ogs.tif
102
RTVSPost2010PropOp54
 70
     1
102
RTVSPost2010Prop55
280
     0
102
RTVSPost2010PropOp55
 70
     1
102
RTVSPost2010Prop56
140
1.0
102
RTVSPost2010PropOp56
 70
     1
102
RTVSPost2010Prop57
140
1.0
102
RTVSPost2010PropOp57
 70
     1
102
RTVSPropertyOp0
 70
     1
102
RTVSPropertyOp1
 70
     1
102
RTVSPropertyOp2
 70
     1
102
RTVSPropertyOp3
 70
     1
102
RTVSPropertyOp4
 70
     1
102
RTVSPropertyOp5
 70
     1
102
RTVSPropertyOp6
 70
     1
102
RTVSPropertyOp7
 70
     1
102
RTVSPropertyOp8
 70
     1
102
RTVSPropertyOp9
 70
     1
102
RTVSPropertyOp10
 70
     1
102
RTVSPropertyOp11
 70
     1
102
RTVSPropertyOp12
 70
     1
102
RTVSPropertyOp13
 70
     1
102
RTVSPropertyOp14
 70
     1
102
RTVSPropertyOp15
 70
     1
102
RTVSPropertyOp16
 70
     1
102
RTVSPropertyOp17
 70
     1
102
RTVSPropertyOp18
 70
     1
102
RTVSPropertyOp19
 70
     1
102
RTVSPropertyOp20
 70
     1
102
RTVSPropertyOp21
 70
     1
102
RTVSPropertyOp22
 70
     1
102
RTVSPropertyOp23
 70
     1
102
RTVSPropertyOp24
 70
     1
102
RTVSPropertyOp25
 70
     1
102
RTVSPropertyOp26
 70
     1
102
RTVSPropertyOp27
 70
     1
102
RTVSPropertyOp28
 70
     1
102
RTVSPropertyOp29
 70
     1
102
RTVSPropertyOp30
 70
     1
102
RTVSPropertyOp31
 70
     1
102
RTVSPropertyOp32
 70
     1
102
RTVSPropertyOp33
 70
     1
102
RTVSPropertyOp34
 70
     1
102
RTVSPropertyOp35
 70
     1
102
RTVSPropertyOp36
 70
     1
102
RTVSPropertyOp37
 70
     1
102
RTVSPropertyOp38
 70
     1
102
RTVSPropertyOp39
 70
     1
102
RTVSPropertyOp40
 70
     1
102
RTVSPropertyOp41
 70
     1
102
RTVSPropertyOp42
 70
     1
102
RTVSPropertyOp43
 70
     1
102
RTVSPropertyOp44
 70
     1
102
RTVSPropertyOp45
 70
     1
102
RTVSPropertyOp46
 70
     1
102
RTVSPropertyOp47
 70
     1
102
RTVSPropertyOp48
 70
     1
102
RTVSPropertyOp49
 70
     1
102
RTVSPropertyOp50
 70
     1
102
RTVSPropertyOp51
 70
     0
102
RTVSPropertyOp52
 70
     0
102
RTVSPropertyOp53
 70
     1
102
RTVSPropertyOp54
 70
     1
102
RTVSPropertyOp55
 70
     1
102
RTVSPropertyOp56
 70
     1
102
RTVSPropertyOp57
 70
     1
102
RTVSPropertyOp58
 70
     1
102
RTVSPropertyOp59
 70
     1
102
RTVSPropertyOp60
 70
     1
102
RTVSPropertyOp61
 70
     1
102
RTVSPropertyOp62
 70
     1
  0
XRECORD
  5
49E
102
{ACAD_REACTORS
330
49D
102
}
330
49D
100
AcDbXrecord
280
     1
102
RTVSPost2010Prop28
280
     0
102
RTVSPost2010PropOp28
 70
     1
102
RTVSPost2010Prop29
280
     1
102
RTVSPost2010PropOp29
 70
     1
102
RTVSPost2010Prop30
280
     1
102
RTVSPost2010PropOp30
 70
     1
102
RTVSPost2010Prop31
280
     0
102
RTVSPost2010PropOp31
 70
     1
102
RTVSPost2010Prop32
280
     0
102
RTVSPost2010PropOp32
 70
     1
102
RTVSPost2010Prop33
280
     0
102
RTVSPost2010PropOp33
 70
     1
102
RTVSPost2010Prop34
280
     0
102
RTVSPost2010PropOp34
 70
     1
102
RTVSPost2010Prop35
280
     0
102
RTVSPost2010PropOp35
 70
     1
102
RTVSPost2010Prop36
280
     0
102
RTVSPost2010PropOp36
 70
     1
102
RTVSPost2010Prop37
 90
       50
102
RTVSPost2010PropOp37
 70
     1
102
RTVSPost2010Prop38
140
0.0
102
RTVSPost2010PropOp38
 70
     1
102
RTVSPost2010Prop39
140
1.0
102
RTVSPost2010PropOp39
 70
     1
102
RTVSPost2010Prop40
 90
        0
102
RTVSPost2010PropOp40
 70
     1
102
RTVSPost2010Prop41ColorIndex
 90
       18
102
RTVSPost2010Prop41ColorRGB
 90
        0
102
RTVSPost2010PropOp41
 70
     1
102
RTVSPost2010Prop42
 90
       50
102
RTVSPost2010PropOp42
 70
     1
102
RTVSPost2010Prop43
 90
        3
102
RTVSPost2010PropOp43
 70
     1
102
RTVSPost2010Prop44ColorIndex
 90
        5
102
RTVSPost2010Prop44ColorRGB
 90
      255
102
RTVSPost2010PropOp44
 70
     1
102
RTVSPost2010Prop45
280
     0
102
RTVSPost2010PropOp45
 70
     1
102
RTVSPost2010Prop46
 90
       50
102
RTVSPost2010PropOp46
 70
     1
102
RTVSPost2010Prop47
 90
       50
102
RTVSPost2010PropOp47
 70
     1
102
RTVSPost2010Prop48
 90
       50
102
RTVSPost2010PropOp48
 70
     1
102
RTVSPost2010Prop49
280
     0
102
RTVSPost2010PropOp49
 70
     1
102
RTVSPost2010Prop50
 90
       50
102
RTVSPost2010PropOp50
 70
     1
102
RTVSPost2010Prop51ColorIndex
 90
      256
102
RTVSPost2010Prop51ColorRGB
 90
-16777216
102
RTVSPost2010PropOp51
 70
     0
102
RTVSPost2010Prop52
140
1.0
102
RTVSPost2010PropOp52
 70
     0
102
RTVSPost2010Prop53
 90
        2
102
RTVSPost2010PropOp53
 70
     1
102
RTVSPost2010Prop54
  1
strokes_ogs.tif
102
RTVSPost2010PropOp54
 70
     1
102
RTVSPost2010Prop55
280
     0
102
RTVSPost2010PropOp55
 70
     1
102
RTVSPost2010Prop56
140
1.0
102
RTVSPost2010PropOp56
 70
     1
102
RTVSPost2010Prop57
140
1.0
102
RTVSPost2010PropOp57
 70
     1
102
RTVSPropertyOp0
 70
     1
102
RTVSPropertyOp1
 70
     1
102
RTVSPropertyOp2
 70
     1
102
RTVSPropertyOp3
 70
     1
102
RTVSPropertyOp4
 70
     1
102
RTVSPropertyOp5
 70
     1
102
RTVSPropertyOp6
 70
     1
102
RTVSPropertyOp7
 70
     1
102
RTVSPropertyOp8
 70
     1
102
RTVSPropertyOp9
 70
     1
102
RTVSPropertyOp10
 70
     1
102
RTVSPropertyOp11
 70
     1
102
RTVSPropertyOp12
 70
     1
102
RTVSPropertyOp13
 70
     1
102
RTVSPropertyOp14
 70
     1
102
RTVSPropertyOp15
 70
     1
102
RTVSPropertyOp16
 70
     1
102
RTVSPropertyOp17
 70
     1
102
RTVSPropertyOp18
 70
     1
102
RTVSPropertyOp19
 70
     1
102
RTVSPropertyOp20
 70
     1
102
RTVSPropertyOp21
 70
     1
102
RTVSPropertyOp22
 70
     1
102
RTVSPropertyOp23
 70
     1
102
RTVSPropertyOp24
 70
     1
102
RTVSPropertyOp25
 70
     1
102
RTVSPropertyOp26
 70
     1
102
RTVSPropertyOp27
 70
     1
102
RTVSPropertyOp28
 70
     1
102
RTVSPropertyOp29
 70
     1
102
RTVSPropertyOp30
 70
     1
102
RTVSPropertyOp31
 70
     1
102
RTVSPropertyOp32
 70
     1
102
RTVSPropertyOp33
 70
     1
102
RTVSPropertyOp34
 70
     1
102
RTVSPropertyOp35
 70
     1
102
RTVSPropertyOp36
 70
     1
102
RTVSPropertyOp37
 70
     1
102
RTVSPropertyOp38
 70
     1
102
RTVSPropertyOp39
 70
     1
102
RTVSPropertyOp40
 70
     1
102
RTVSPropertyOp41
 70
     1
102
RTVSPropertyOp42
 70
     1
102
RTVSPropertyOp43
 70
     1
102
RTVSPropertyOp44
 70
     1
102
RTVSPropertyOp45
 70
     1
102
RTVSPropertyOp46
 70
     1
102
RTVSPropertyOp47
 70
     1
102
RTVSPropertyOp48
 70
     1
102
RTVSPropertyOp49
 70
     1
102
RTVSPropertyOp50
 70
     1
102
RTVSPropertyOp51
 70
     0
102
RTVSPropertyOp52
 70
     0
102
RTVSPropertyOp53
 70
     1
102
RTVSPropertyOp54
 70
     1
102
RTVSPropertyOp55
 70
     1
102
RTVSPropertyOp56
 70
     1
102
RTVSPropertyOp57
 70
     1
102
RTVSPropertyOp58
 70
     1
102
RTVSPropertyOp59
 70
     1
102
RTVSPropertyOp60
 70
     1
102
RTVSPropertyOp61
 70
     1
102
RTVSPropertyOp62
 70
     1
  0
XRECORD
  5
4A0
102
{ACAD_REACTORS
330
49F
102
}
330
49F
100
AcDbXrecord
280
     1
102
RTVSPost2010Prop28
280
     0
102
RTVSPost2010PropOp28
 70
     1
102
RTVSPost2010Prop29
280
     1
102
RTVSPost2010PropOp29
 70
     1
102
RTVSPost2010Prop30
280
     1
102
RTVSPost2010PropOp30
 70
     1
102
RTVSPost2010Prop31
280
     0
102
RTVSPost2010PropOp31
 70
     1
102
RTVSPost2010Prop32
280
     0
102
RTVSPost2010PropOp32
 70
     1
102
RTVSPost2010Prop33
280
     0
102
RTVSPost2010PropOp33
 70
     1
102
RTVSPost2010Prop34
280
     0
102
RTVSPost2010PropOp34
 70
     1
102
RTVSPost2010Prop35
280
     0
102
RTVSPost2010PropOp35
 70
     1
102
RTVSPost2010Prop36
280
     0
102
RTVSPost2010PropOp36
 70
     1
102
RTVSPost2010Prop37
 90
       50
102
RTVSPost2010PropOp37
 70
     1
102
RTVSPost2010Prop38
140
0.0
102
RTVSPost2010PropOp38
 70
     1
102
RTVSPost2010Prop39
140
1.0
102
RTVSPost2010PropOp39
 70
     1
102
RTVSPost2010Prop40
 90
        0
102
RTVSPost2010PropOp40
 70
     1
102
RTVSPost2010Prop41ColorIndex
 90
       18
102
RTVSPost2010Prop41ColorRGB
 90
        0
102
RTVSPost2010PropOp41
 70
     1
102
RTVSPost2010Prop42
 90
       50
102
RTVSPost2010PropOp42
 70
     1
102
RTVSPost2010Prop43
 90
        3
102
RTVSPost2010PropOp43
 70
     1
102
RTVSPost2010Prop44ColorIndex
 90
        5
102
RTVSPost2010Prop44ColorRGB
 90
      255
102
RTVSPost2010PropOp44
 70
     1
102
RTVSPost2010Prop45
280
     0
102
RTVSPost2010PropOp45
 70
     1
102
RTVSPost2010Prop46
 90
       50
102
RTVSPost2010PropOp46
 70
     1
102
RTVSPost2010Prop47
 90
       50
102
RTVSPost2010PropOp47
 70
     1
102
RTVSPost2010Prop48
 90
       50
102
RTVSPost2010PropOp48
 70
     1
102
RTVSPost2010Prop49
280
     0
102
RTVSPost2010PropOp49
 70
     1
102
RTVSPost2010Prop50
 90
       50
102
RTVSPost2010PropOp50
 70
     1
102
RTVSPost2010Prop51ColorIndex
 90
      256
102
RTVSPost2010Prop51ColorRGB
 90
-16777216
102
RTVSPost2010PropOp51
 70
     0
102
RTVSPost2010Prop52
140
1.0
102
RTVSPost2010PropOp52
 70
     0
102
RTVSPost2010Prop53
 90
        2
102
RTVSPost2010PropOp53
 70
     1
102
RTVSPost2010Prop54
  1
strokes_ogs.tif
102
RTVSPost2010PropOp54
 70
     1
102
RTVSPost2010Prop55
280
     0
102
RTVSPost2010PropOp55
 70
     1
102
RTVSPost2010Prop56
140
1.0
102
RTVSPost2010PropOp56
 70
     1
102
RTVSPost2010Prop57
140
1.0
102
RTVSPost2010PropOp57
 70
     1
102
RTVSPropertyOp0
 70
     1
102
RTVSPropertyOp1
 70
     1
102
RTVSPropertyOp2
 70
     1
102
RTVSPropertyOp3
 70
     1
102
RTVSPropertyOp4
 70
     1
102
RTVSPropertyOp5
 70
     1
102
RTVSPropertyOp6
 70
     1
102
RTVSPropertyOp7
 70
     1
102
RTVSPropertyOp8
 70
     1
102
RTVSPropertyOp9
 70
     1
102
RTVSPropertyOp10
 70
     1
102
RTVSPropertyOp11
 70
     1
102
RTVSPropertyOp12
 70
     1
102
RTVSPropertyOp13
 70
     1
102
RTVSPropertyOp14
 70
     1
102
RTVSPropertyOp15
 70
     1
102
RTVSPropertyOp16
 70
     1
102
RTVSPropertyOp17
 70
     1
102
RTVSPropertyOp18
 70
     1
102
RTVSPropertyOp19
 70
     1
102
RTVSPropertyOp20
 70
     1
102
RTVSPropertyOp21
 70
     1
102
RTVSPropertyOp22
 70
     1
102
RTVSPropertyOp23
 70
     1
102
RTVSPropertyOp24
 70
     1
102
RTVSPropertyOp25
 70
     1
102
RTVSPropertyOp26
 70
     1
102
RTVSPropertyOp27
 70
     1
102
RTVSPropertyOp28
 70
     1
102
RTVSPropertyOp29
 70
     1
102
RTVSPropertyOp30
 70
     1
102
RTVSPropertyOp31
 70
     1
102
RTVSPropertyOp32
 70
     1
102
RTVSPropertyOp33
 70
     1
102
RTVSPropertyOp34
 70
     1
102
RTVSPropertyOp35
 70
     1
102
RTVSPropertyOp36
 70
     1
102
RTVSPropertyOp37
 70
     1
102
RTVSPropertyOp38
 70
     1
102
RTVSPropertyOp39
 70
     1
102
RTVSPropertyOp40
 70
     1
102
RTVSPropertyOp41
 70
     1
102
RTVSPropertyOp42
 70
     1
102
RTVSPropertyOp43
 70
     1
102
RTVSPropertyOp44
 70
     1
102
RTVSPropertyOp45
 70
     1
102
RTVSPropertyOp46
 70
     1
102
RTVSPropertyOp47
 70
     1
102
RTVSPropertyOp48
 70
     1
102
RTVSPropertyOp49
 70
     1
102
RTVSPropertyOp50
 70
     1
102
RTVSPropertyOp51
 70
     0
102
RTVSPropertyOp52
 70
     0
102
RTVSPropertyOp53
 70
     1
102
RTVSPropertyOp54
 70
     1
102
RTVSPropertyOp55
 70
     1
102
RTVSPropertyOp56
 70
     1
102
RTVSPropertyOp57
 70
     1
102
RTVSPropertyOp58
 70
     1
102
RTVSPropertyOp59
 70
     1
102
RTVSPropertyOp60
 70
     1
102
RTVSPropertyOp61
 70
     1
102
RTVSPropertyOp62
 70
     1
  0
XRECORD
  5
4A2
102
{ACAD_REACTORS
330
4A1
102
}
330
4A1
100
AcDbXrecord
280
     1
102
RTVSPost2010Prop28
280
     0
102
RTVSPost2010PropOp28
 70
     1
102
RTVSPost2010Prop29
280
     1
102
RTVSPost2010PropOp29
 70
     1
102
RTVSPost2010Prop30
280
     1
102
RTVSPost2010PropOp30
 70
     1
102
RTVSPost2010Prop31
280
     0
102
RTVSPost2010PropOp31
 70
     1
102
RTVSPost2010Prop32
280
     0
102
RTVSPost2010PropOp32
 70
     1
102
RTVSPost2010Prop33
280
     0
102
RTVSPost2010PropOp33
 70
     1
102
RTVSPost2010Prop34
280
     0
102
RTVSPost2010PropOp34
 70
     1
102
RTVSPost2010Prop35
280
     0
102
RTVSPost2010PropOp35
 70
     1
102
RTVSPost2010Prop36
280
     0
102
RTVSPost2010PropOp36
 70
     1
102
RTVSPost2010Prop37
 90
       50
102
RTVSPost2010PropOp37
 70
     1
102
RTVSPost2010Prop38
140
0.0
102
RTVSPost2010PropOp38
 70
     1
102
RTVSPost2010Prop39
140
1.0
102
RTVSPost2010PropOp39
 70
     1
102
RTVSPost2010Prop40
 90
        0
102
RTVSPost2010PropOp40
 70
     1
102
RTVSPost2010Prop41ColorIndex
 90
       18
102
RTVSPost2010Prop41ColorRGB
 90
        0
102
RTVSPost2010PropOp41
 70
     1
102
RTVSPost2010Prop42
 90
       50
102
RTVSPost2010PropOp42
 70
     1
102
RTVSPost2010Prop43
 90
        3
102
RTVSPost2010PropOp43
 70
     1
102
RTVSPost2010Prop44ColorIndex
 90
        5
102
RTVSPost2010Prop44ColorRGB
 90
      255
102
RTVSPost2010PropOp44
 70
     1
102
RTVSPost2010Prop45
280
     0
102
RTVSPost2010PropOp45
 70
     1
102
RTVSPost2010Prop46
 90
       50
102
RTVSPost2010PropOp46
 70
     1
102
RTVSPost2010Prop47
 90
       50
102
RTVSPost2010PropOp47
 70
     1
102
RTVSPost2010Prop48
 90
       50
102
RTVSPost2010PropOp48
 70
     1
102
RTVSPost2010Prop49
280
     0
102
RTVSPost2010PropOp49
 70
     1
102
RTVSPost2010Prop50
 90
       50
102
RTVSPost2010PropOp50
 70
     1
102
RTVSPost2010Prop51ColorIndex
 90
      256
102
RTVSPost2010Prop51ColorRGB
 90
-16777216
102
RTVSPost2010PropOp51
 70
     0
102
RTVSPost2010Prop52
140
1.0
102
RTVSPost2010PropOp52
 70
     0
102
RTVSPost2010Prop53
 90
        2
102
RTVSPost2010PropOp53
 70
     1
102
RTVSPost2010Prop54
  1
strokes_ogs.tif
102
RTVSPost2010PropOp54
 70
     1
102
RTVSPost2010Prop55
280
     0
102
RTVSPost2010PropOp55
 70
     1
102
RTVSPost2010Prop56
140
1.0
102
RTVSPost2010PropOp56
 70
     1
102
RTVSPost2010Prop57
140
1.0
102
RTVSPost2010PropOp57
 70
     1
102
RTVSPropertyOp0
 70
     1
102
RTVSPropertyOp1
 70
     1
102
RTVSPropertyOp2
 70
     1
102
RTVSPropertyOp3
 70
     1
102
RTVSPropertyOp4
 70
     1
102
RTVSPropertyOp5
 70
     1
102
RTVSPropertyOp6
 70
     1
102
RTVSPropertyOp7
 70
     1
102
RTVSPropertyOp8
 70
     1
102
RTVSPropertyOp9
 70
     1
102
RTVSPropertyOp10
 70
     1
102
RTVSPropertyOp11
 70
     1
102
RTVSPropertyOp12
 70
     1
102
RTVSPropertyOp13
 70
     1
102
RTVSPropertyOp14
 70
     1
102
RTVSPropertyOp15
 70
     1
102
RTVSPropertyOp16
 70
     1
102
RTVSPropertyOp17
 70
     1
102
RTVSPropertyOp18
 70
     1
102
RTVSPropertyOp19
 70
     1
102
RTVSPropertyOp20
 70
     1
102
RTVSPropertyOp21
 70
     1
102
RTVSPropertyOp22
 70
     1
102
RTVSPropertyOp23
 70
     1
102
RTVSPropertyOp24
 70
     1
102
RTVSPropertyOp25
 70
     1
102
RTVSPropertyOp26
 70
     1
102
RTVSPropertyOp27
 70
     1
102
RTVSPropertyOp28
 70
     1
102
RTVSPropertyOp29
 70
     1
102
RTVSPropertyOp30
 70
     1
102
RTVSPropertyOp31
 70
     1
102
RTVSPropertyOp32
 70
     1
102
RTVSPropertyOp33
 70
     1
102
RTVSPropertyOp34
 70
     1
102
RTVSPropertyOp35
 70
     1
102
RTVSPropertyOp36
 70
     1
102
RTVSPropertyOp37
 70
     1
102
RTVSPropertyOp38
 70
     1
102
RTVSPropertyOp39
 70
     1
102
RTVSPropertyOp40
 70
     1
102
RTVSPropertyOp41
 70
     1
102
RTVSPropertyOp42
 70
     1
102
RTVSPropertyOp43
 70
     1
102
RTVSPropertyOp44
 70
     1
102
RTVSPropertyOp45
 70
     1
102
RTVSPropertyOp46
 70
     1
102
RTVSPropertyOp47
 70
     1
102
RTVSPropertyOp48
 70
     1
102
RTVSPropertyOp49
 70
     1
102
RTVSPropertyOp50
 70
     1
102
RTVSPropertyOp51
 70
     0
102
RTVSPropertyOp52
 70
     0
102
RTVSPropertyOp53
 70
     1
102
RTVSPropertyOp54
 70
     1
102
RTVSPropertyOp55
 70
     1
102
RTVSPropertyOp56
 70
     1
102
RTVSPropertyOp57
 70
     1
102
RTVSPropertyOp58
 70
     1
102
RTVSPropertyOp59
 70
     1
102
RTVSPropertyOp60
 70
     1
102
RTVSPropertyOp61
 70
     1
102
RTVSPropertyOp62
 70
     1
  0
XRECORD
  5
4AA
102
{ACAD_REACTORS
330
4A9
102
}
330
4A9
100
AcDbXrecord
280
     1
102
RTVSPost2010Prop28
280
     0
102
RTVSPost2010PropOp28
 70
     1
102
RTVSPost2010Prop29
280
     1
102
RTVSPost2010PropOp29
 70
     1
102
RTVSPost2010Prop30
280
     1
102
RTVSPost2010PropOp30
 70
     1
102
RTVSPost2010Prop31
280
     0
102
RTVSPost2010PropOp31
 70
     1
102
RTVSPost2010Prop32
280
     0
102
RTVSPost2010PropOp32
 70
     1
102
RTVSPost2010Prop33
280
     0
102
RTVSPost2010PropOp33
 70
     1
102
RTVSPost2010Prop34
280
     0
102
RTVSPost2010PropOp34
 70
     1
102
RTVSPost2010Prop35
280
     0
102
RTVSPost2010PropOp35
 70
     1
102
RTVSPost2010Prop36
280
     0
102
RTVSPost2010PropOp36
 70
     1
102
RTVSPost2010Prop37
 90
       50
102
RTVSPost2010PropOp37
 70
     1
102
RTVSPost2010Prop38
140
0.0
102
RTVSPost2010PropOp38
 70
     1
102
RTVSPost2010Prop39
140
1.0
102
RTVSPost2010PropOp39
 70
     1
102
RTVSPost2010Prop40
 90
        0
102
RTVSPost2010PropOp40
 70
     1
102
RTVSPost2010Prop41ColorIndex
 90
       18
102
RTVSPost2010Prop41ColorRGB
 90
        0
102
RTVSPost2010PropOp41
 70
     1
102
RTVSPost2010Prop42
 90
       50
102
RTVSPost2010PropOp42
 70
     1
102
RTVSPost2010Prop43
 90
        3
102
RTVSPost2010PropOp43
 70
     1
102
RTVSPost2010Prop44ColorIndex
 90
        5
102
RTVSPost2010Prop44ColorRGB
 90
      255
102
RTVSPost2010PropOp44
 70
     1
102
RTVSPost2010Prop45
280
     0
102
RTVSPost2010PropOp45
 70
     1
102
RTVSPost2010Prop46
 90
       50
102
RTVSPost2010PropOp46
 70
     1
102
RTVSPost2010Prop47
 90
       50
102
RTVSPost2010PropOp47
 70
     1
102
RTVSPost2010Prop48
 90
       50
102
RTVSPost2010PropOp48
 70
     1
102
RTVSPost2010Prop49
280
     0
102
RTVSPost2010PropOp49
 70
     1
102
RTVSPost2010Prop50
 90
       50
102
RTVSPost2010PropOp50
 70
     1
102
RTVSPost2010Prop51ColorIndex
 90
      256
102
RTVSPost2010Prop51ColorRGB
 90
-16777216
102
RTVSPost2010PropOp51
 70
     0
102
RTVSPost2010Prop52
140
1.0
102
RTVSPost2010PropOp52
 70
     0
102
RTVSPost2010Prop53
 90
        2
102
RTVSPost2010PropOp53
 70
     1
102
RTVSPost2010Prop54
  1
strokes_ogs.tif
102
RTVSPost2010PropOp54
 70
     1
102
RTVSPost2010Prop55
280
     0
102
RTVSPost2010PropOp55
 70
     1
102
RTVSPost2010Prop56
140
1.0
102
RTVSPost2010PropOp56
 70
     1
102
RTVSPost2010Prop57
140
1.0
102
RTVSPost2010PropOp57
 70
     1
102
RTVSPropertyOp0
 70
     1
102
RTVSPropertyOp1
 70
     1
102
RTVSPropertyOp2
 70
     1
102
RTVSPropertyOp3
 70
     1
102
RTVSPropertyOp4
 70
     1
102
RTVSPropertyOp5
 70
     1
102
RTVSPropertyOp6
 70
     1
102
RTVSPropertyOp7
 70
     1
102
RTVSPropertyOp8
 70
     1
102
RTVSPropertyOp9
 70
     1
102
RTVSPropertyOp10
 70
     1
102
RTVSPropertyOp11
 70
     1
102
RTVSPropertyOp12
 70
     1
102
RTVSPropertyOp13
 70
     1
102
RTVSPropertyOp14
 70
     1
102
RTVSPropertyOp15
 70
     1
102
RTVSPropertyOp16
 70
     1
102
RTVSPropertyOp17
 70
     1
102
RTVSPropertyOp18
 70
     1
102
RTVSPropertyOp19
 70
     1
102
RTVSPropertyOp20
 70
     1
102
RTVSPropertyOp21
 70
     1
102
RTVSPropertyOp22
 70
     1
102
RTVSPropertyOp23
 70
     1
102
RTVSPropertyOp24
 70
     1
102
RTVSPropertyOp25
 70
     1
102
RTVSPropertyOp26
 70
     1
102
RTVSPropertyOp27
 70
     1
102
RTVSPropertyOp28
 70
     1
102
RTVSPropertyOp29
 70
     1
102
RTVSPropertyOp30
 70
     1
102
RTVSPropertyOp31
 70
     1
102
RTVSPropertyOp32
 70
     1
102
RTVSPropertyOp33
 70
     1
102
RTVSPropertyOp34
 70
     1
102
RTVSPropertyOp35
 70
     1
102
RTVSPropertyOp36
 70
     1
102
RTVSPropertyOp37
 70
     1
102
RTVSPropertyOp38
 70
     1
102
RTVSPropertyOp39
 70
     1
102
RTVSPropertyOp40
 70
     1
102
RTVSPropertyOp41
 70
     1
102
RTVSPropertyOp42
 70
     1
102
RTVSPropertyOp43
 70
     1
102
RTVSPropertyOp44
 70
     1
102
RTVSPropertyOp45
 70
     1
102
RTVSPropertyOp46
 70
     1
102
RTVSPropertyOp47
 70
     1
102
RTVSPropertyOp48
 70
     1
102
RTVSPropertyOp49
 70
     1
102
RTVSPropertyOp50
 70
     1
102
RTVSPropertyOp51
 70
     0
102
RTVSPropertyOp52
 70
     0
102
RTVSPropertyOp53
 70
     1
102
RTVSPropertyOp54
 70
     1
102
RTVSPropertyOp55
 70
     1
102
RTVSPropertyOp56
 70
     1
102
RTVSPropertyOp57
 70
     1
102
RTVSPropertyOp58
 70
     1
102
RTVSPropertyOp59
 70
     1
102
RTVSPropertyOp60
 70
     1
102
RTVSPropertyOp61
 70
     1
102
RTVSPropertyOp62
 70
     1
  0
XRECORD
  5
4C6
102
{ACAD_REACTORS
330
4C5
102
}
330
4C5
100
AcDbXrecord
280
     1
102
RTVSPost2010Prop28
280
     0
102
RTVSPost2010PropOp28
 70
     0
102
RTVSPost2010Prop29
280
     1
102
RTVSPost2010PropOp29
 70
     0
102
RTVSPost2010Prop30
280
     1
102
RTVSPost2010PropOp30
 70
     0
102
RTVSPost2010Prop31
280
     0
102
RTVSPost2010PropOp31
 70
     0
102
RTVSPost2010Prop32
280
     0
102
RTVSPost2010PropOp32
 70
     0
102
RTVSPost2010Prop33
280
     0
102
RTVSPost2010PropOp33
 70
     0
102
RTVSPost2010Prop34
280
     0
102
RTVSPost2010PropOp34
 70
     0
102
RTVSPost2010Prop35
280
     0
102
RTVSPost2010PropOp35
 70
     0
102
RTVSPost2010Prop36
280
     0
102
RTVSPost2010PropOp36
 70
     0
102
RTVSPost2010Prop37
 90
       50
102
RTVSPost2010PropOp37
 70
     0
102
RTVSPost2010Prop38
140
0.0
102
RTVSPost2010PropOp38
 70
     0
102
RTVSPost2010Prop39
140
1.0
102
RTVSPost2010PropOp39
 70
     0
102
RTVSPost2010Prop40
 90
        0
102
RTVSPost2010PropOp40
 70
     0
102
RTVSPost2010Prop41ColorIndex
 90
       18
102
RTVSPost2010Prop41ColorRGB
 90
        0
102
RTVSPost2010PropOp41
 70
     0
102
RTVSPost2010Prop42
 90
       50
102
RTVSPost2010PropOp42
 70
     0
102
RTVSPost2010Prop43
 90
        3
102
RTVSPost2010PropOp43
 70
     0
102
RTVSPost2010Prop44ColorIndex
 90
        5
102
RTVSPost2010Prop44ColorRGB
 90
      255
102
RTVSPost2010PropOp44
 70
     0
102
RTVSPost2010Prop45
280
     0
102
RTVSPost2010PropOp45
 70
     0
102
RTVSPost2010Prop46
 90
       50
102
RTVSPost2010PropOp46
 70
     0
102
RTVSPost2010Prop47
 90
       50
102
RTVSPost2010PropOp47
 70
     0
102
RTVSPost2010Prop48
 90
       50
102
RTVSPost2010PropOp48
 70
     0
102
RTVSPost2010Prop49
280
     0
102
RTVSPost2010PropOp49
 70
     0
102
RTVSPost2010Prop50
 90
       50
102
RTVSPost2010PropOp50
 70
     0
102
RTVSPost2010Prop51ColorIndex
 90
      256
102
RTVSPost2010Prop51ColorRGB
 90
-16777216
102
RTVSPost2010PropOp51
 70
     0
102
RTVSPost2010Prop52
140
1.0
102
RTVSPost2010PropOp52
 70
     0
102
RTVSPost2010Prop53
 90
        2
102
RTVSPost2010PropOp53
 70
     0
102
RTVSPost2010Prop54
  1
strokes_ogs.tif
102
RTVSPost2010PropOp54
 70
     0
102
RTVSPost2010Prop55
280
     0
102
RTVSPost2010PropOp55
 70
     0
102
RTVSPost2010Prop56
140
1.0
102
RTVSPost2010PropOp56
 70
     0
102
RTVSPost2010Prop57
140
1.0
102
RTVSPost2010PropOp57
 70
     0
102
RTVSPropertyOp0
 70
     0
102
RTVSPropertyOp1
 70
     0
102
RTVSPropertyOp2
 70
     0
102
RTVSPropertyOp3
 70
     0
102
RTVSPropertyOp4
 70
     0
102
RTVSPropertyOp5
 70
     0
102
RTVSPropertyOp6
 70
     0
102
RTVSPropertyOp7
 70
     0
102
RTVSPropertyOp8
 70
     0
102
RTVSPropertyOp9
 70
     0
102
RTVSPropertyOp10
 70
     0
102
RTVSPropertyOp11
 70
     0
102
RTVSPropertyOp12
 70
     0
102
RTVSPropertyOp13
 70
     0
102
RTVSPropertyOp14
 70
     2
102
RTVSPropertyOp15
 70
     0
102
RTVSPropertyOp16
 70
     0
102
RTVSPropertyOp17
 70
     0
102
RTVSPropertyOp18
 70
     0
102
RTVSPropertyOp19
 70
     0
102
RTVSPropertyOp20
 70
     0
102
RTVSPropertyOp21
 70
     0
102
RTVSPropertyOp22
 70
     0
102
RTVSPropertyOp23
 70
     0
102
RTVSPropertyOp24
 70
     0
102
RTVSPropertyOp25
 70
     0
102
RTVSPropertyOp26
 70
     0
102
RTVSPropertyOp27
 70
     0
102
RTVSPropertyOp28
 70
     0
102
RTVSPropertyOp29
 70
     0
102
RTVSPropertyOp30
 70
     0
102
RTVSPropertyOp31
 70
     0
102
RTVSPropertyOp32
 70
     0
102
RTVSPropertyOp33
 70
     0
102
RTVSPropertyOp34
 70
     0
102
RTVSPropertyOp35
 70
     0
102
RTVSPropertyOp36
 70
     0
102
RTVSPropertyOp37
 70
     0
102
RTVSPropertyOp38
 70
     0
102
RTVSPropertyOp39
 70
     0
102
RTVSPropertyOp40
 70
     0
102
RTVSPropertyOp41
 70
     0
102
RTVSPropertyOp42
 70
     0
102
RTVSPropertyOp43
 70
     0
102
RTVSPropertyOp44
 70
     0
102
RTVSPropertyOp45
 70
     0
102
RTVSPropertyOp46
 70
     0
102
RTVSPropertyOp47
 70
     0
102
RTVSPropertyOp48
 70
     0
102
RTVSPropertyOp49
 70
     0
102
RTVSPropertyOp50
 70
     0
102
RTVSPropertyOp51
 70
     0
102
RTVSPropertyOp52
 70
     0
102
RTVSPropertyOp53
 70
     0
102
RTVSPropertyOp54
 70
     0
102
RTVSPropertyOp55
 70
     0
102
RTVSPropertyOp56
 70
     0
102
RTVSPropertyOp57
 70
     0
102
RTVSPropertyOp58
 70
     0
102
RTVSPropertyOp59
 70
     0
102
RTVSPropertyOp60
 70
     0
102
RTVSPropertyOp61
 70
     0
102
RTVSPropertyOp62
 70
     0
  0
XRECORD
  5
4B6
102
{ACAD_REACTORS
330
4B5
102
}
330
4B5
100
AcDbXrecord
280
     1
102
RTVSPost2010Prop28
280
     0
102
RTVSPost2010PropOp28
 70
     1
102
RTVSPost2010Prop29
280
     1
102
RTVSPost2010PropOp29
 70
     1
102
RTVSPost2010Prop30
280
     1
102
RTVSPost2010PropOp30
 70
     1
102
RTVSPost2010Prop31
280
     0
102
RTVSPost2010PropOp31
 70
     1
102
RTVSPost2010Prop32
280
     0
102
RTVSPost2010PropOp32
 70
     1
102
RTVSPost2010Prop33
280
     0
102
RTVSPost2010PropOp33
 70
     1
102
RTVSPost2010Prop34
280
     0
102
RTVSPost2010PropOp34
 70
     1
102
RTVSPost2010Prop35
280
     0
102
RTVSPost2010PropOp35
 70
     1
102
RTVSPost2010Prop36
280
     0
102
RTVSPost2010PropOp36
 70
     1
102
RTVSPost2010Prop37
 90
       50
102
RTVSPost2010PropOp37
 70
     1
102
RTVSPost2010Prop38
140
0.0
102
RTVSPost2010PropOp38
 70
     1
102
RTVSPost2010Prop39
140
1.0
102
RTVSPost2010PropOp39
 70
     1
102
RTVSPost2010Prop40
 90
        0
102
RTVSPost2010PropOp40
 70
     1
102
RTVSPost2010Prop41ColorIndex
 90
       18
102
RTVSPost2010Prop41ColorRGB
 90
        0
102
RTVSPost2010PropOp41
 70
     1
102
RTVSPost2010Prop42
 90
       50
102
RTVSPost2010PropOp42
 70
     1
102
RTVSPost2010Prop43
 90
        3
102
RTVSPost2010PropOp43
 70
     1
102
RTVSPost2010Prop44ColorIndex
 90
        5
102
RTVSPost2010Prop44ColorRGB
 90
      255
102
RTVSPost2010PropOp44
 70
     1
102
RTVSPost2010Prop45
280
     0
102
RTVSPost2010PropOp45
 70
     1
102
RTVSPost2010Prop46
 90
       50
102
RTVSPost2010PropOp46
 70
     1
102
RTVSPost2010Prop47
 90
       50
102
RTVSPost2010PropOp47
 70
     1
102
RTVSPost2010Prop48
 90
       50
102
RTVSPost2010PropOp48
 70
     1
102
RTVSPost2010Prop49
280
     0
102
RTVSPost2010PropOp49
 70
     1
102
RTVSPost2010Prop50
 90
       50
102
RTVSPost2010PropOp50
 70
     1
102
RTVSPost2010Prop51ColorIndex
 90
      256
102
RTVSPost2010Prop51ColorRGB
 90
-16777216
102
RTVSPost2010PropOp51
 70
     0
102
RTVSPost2010Prop52
140
1.0
102
RTVSPost2010PropOp52
 70
     0
102
RTVSPost2010Prop53
 90
        2
102
RTVSPost2010PropOp53
 70
     1
102
RTVSPost2010Prop54
  1
strokes_ogs.tif
102
RTVSPost2010PropOp54
 70
     1
102
RTVSPost2010Prop55
280
     0
102
RTVSPost2010PropOp55
 70
     1
102
RTVSPost2010Prop56
140
1.0
102
RTVSPost2010PropOp56
 70
     1
102
RTVSPost2010Prop57
140
1.0
102
RTVSPost2010PropOp57
 70
     1
102
RTVSPropertyOp0
 70
     1
102
RTVSPropertyOp1
 70
     1
102
RTVSPropertyOp2
 70
     1
102
RTVSPropertyOp3
 70
     1
102
RTVSPropertyOp4
 70
     1
102
RTVSPropertyOp5
 70
     1
102
RTVSPropertyOp6
 70
     1
102
RTVSPropertyOp7
 70
     1
102
RTVSPropertyOp8
 70
     1
102
RTVSPropertyOp9
 70
     1
102
RTVSPropertyOp10
 70
     1
102
RTVSPropertyOp11
 70
     1
102
RTVSPropertyOp12
 70
     1
102
RTVSPropertyOp13
 70
     1
102
RTVSPropertyOp14
 70
     1
102
RTVSPropertyOp15
 70
     1
102
RTVSPropertyOp16
 70
     1
102
RTVSPropertyOp17
 70
     1
102
RTVSPropertyOp18
 70
     1
102
RTVSPropertyOp19
 70
     1
102
RTVSPropertyOp20
 70
     1
102
RTVSPropertyOp21
 70
     1
102
RTVSPropertyOp22
 70
     1
102
RTVSPropertyOp23
 70
     1
102
RTVSPropertyOp24
 70
     1
102
RTVSPropertyOp25
 70
     1
102
RTVSPropertyOp26
 70
     1
102
RTVSPropertyOp27
 70
     1
102
RTVSPropertyOp28
 70
     1
102
RTVSPropertyOp29
 70
     1
102
RTVSPropertyOp30
 70
     1
102
RTVSPropertyOp31
 70
     1
102
RTVSPropertyOp32
 70
     1
102
RTVSPropertyOp33
 70
     1
102
RTVSPropertyOp34
 70
     1
102
RTVSPropertyOp35
 70
     1
102
RTVSPropertyOp36
 70
     1
102
RTVSPropertyOp37
 70
     1
102
RTVSPropertyOp38
 70
     1
102
RTVSPropertyOp39
 70
     1
102
RTVSPropertyOp40
 70
     1
102
RTVSPropertyOp41
 70
     1
102
RTVSPropertyOp42
 70
     1
102
RTVSPropertyOp43
 70
     1
102
RTVSPropertyOp44
 70
     1
102
RTVSPropertyOp45
 70
     1
102
RTVSPropertyOp46
 70
     1
102
RTVSPropertyOp47
 70
     1
102
RTVSPropertyOp48
 70
     1
102
RTVSPropertyOp49
 70
     1
102
RTVSPropertyOp50
 70
     1
102
RTVSPropertyOp51
 70
     0
102
RTVSPropertyOp52
 70
     0
102
RTVSPropertyOp53
 70
     1
102
RTVSPropertyOp54
 70
     1
102
RTVSPropertyOp55
 70
     1
102
RTVSPropertyOp56
 70
     1
102
RTVSPropertyOp57
 70
     1
102
RTVSPropertyOp58
 70
     1
102
RTVSPropertyOp59
 70
     1
102
RTVSPropertyOp60
 70
     1
102
RTVSPropertyOp61
 70
     1
102
RTVSPropertyOp62
 70
     1
  0
XRECORD
  5
4C8
102
{ACAD_REACTORS
330
4C7
102
}
330
4C7
100
AcDbXrecord
280
     1
102
RTVSPost2010Prop28
280
     0
102
RTVSPost2010PropOp28
 70
     0
102
RTVSPost2010Prop29
280
     1
102
RTVSPost2010PropOp29
 70
     0
102
RTVSPost2010Prop30
280
     1
102
RTVSPost2010PropOp30
 70
     0
102
RTVSPost2010Prop31
280
     0
102
RTVSPost2010PropOp31
 70
     0
102
RTVSPost2010Prop32
280
     0
102
RTVSPost2010PropOp32
 70
     0
102
RTVSPost2010Prop33
280
     0
102
RTVSPost2010PropOp33
 70
     0
102
RTVSPost2010Prop34
280
     0
102
RTVSPost2010PropOp34
 70
     0
102
RTVSPost2010Prop35
280
     0
102
RTVSPost2010PropOp35
 70
     0
102
RTVSPost2010Prop36
280
     0
102
RTVSPost2010PropOp36
 70
     0
102
RTVSPost2010Prop37
 90
       50
102
RTVSPost2010PropOp37
 70
     0
102
RTVSPost2010Prop38
140
0.0
102
RTVSPost2010PropOp38
 70
     0
102
RTVSPost2010Prop39
140
1.0
102
RTVSPost2010PropOp39
 70
     0
102
RTVSPost2010Prop40
 90
        0
102
RTVSPost2010PropOp40
 70
     0
102
RTVSPost2010Prop41ColorIndex
 90
       18
102
RTVSPost2010Prop41ColorRGB
 90
        0
102
RTVSPost2010PropOp41
 70
     0
102
RTVSPost2010Prop42
 90
       50
102
RTVSPost2010PropOp42
 70
     0
102
RTVSPost2010Prop43
 90
        3
102
RTVSPost2010PropOp43
 70
     0
102
RTVSPost2010Prop44ColorIndex
 90
        5
102
RTVSPost2010Prop44ColorRGB
 90
      255
102
RTVSPost2010PropOp44
 70
     0
102
RTVSPost2010Prop45
280
     0
102
RTVSPost2010PropOp45
 70
     0
102
RTVSPost2010Prop46
 90
       50
102
RTVSPost2010PropOp46
 70
     0
102
RTVSPost2010Prop47
 90
       50
102
RTVSPost2010PropOp47
 70
     0
102
RTVSPost2010Prop48
 90
       50
102
RTVSPost2010PropOp48
 70
     0
102
RTVSPost2010Prop49
280
     0
102
RTVSPost2010PropOp49
 70
     0
102
RTVSPost2010Prop50
 90
       50
102
RTVSPost2010PropOp50
 70
     0
102
RTVSPost2010Prop51ColorIndex
 90
      256
102
RTVSPost2010Prop51ColorRGB
 90
-16777216
102
RTVSPost2010PropOp51
 70
     0
102
RTVSPost2010Prop52
140
1.0
102
RTVSPost2010PropOp52
 70
     0
102
RTVSPost2010Prop53
 90
        2
102
RTVSPost2010PropOp53
 70
     0
102
RTVSPost2010Prop54
  1
strokes_ogs.tif
102
RTVSPost2010PropOp54
 70
     0
102
RTVSPost2010Prop55
280
     0
102
RTVSPost2010PropOp55
 70
     0
102
RTVSPost2010Prop56
140
1.0
102
RTVSPost2010PropOp56
 70
     0
102
RTVSPost2010Prop57
140
1.0
102
RTVSPost2010PropOp57
 70
     0
102
RTVSPropertyOp0
 70
     0
102
RTVSPropertyOp1
 70
     0
102
RTVSPropertyOp2
 70
     0
102
RTVSPropertyOp3
 70
     0
102
RTVSPropertyOp4
 70
     0
102
RTVSPropertyOp5
 70
     0
102
RTVSPropertyOp6
 70
     0
102
RTVSPropertyOp7
 70
     0
102
RTVSPropertyOp8
 70
     0
102
RTVSPropertyOp9
 70
     0
102
RTVSPropertyOp10
 70
     0
102
RTVSPropertyOp11
 70
     0
102
RTVSPropertyOp12
 70
     0
102
RTVSPropertyOp13
 70
     0
102
RTVSPropertyOp14
 70
     2
102
RTVSPropertyOp15
 70
     0
102
RTVSPropertyOp16
 70
     0
102
RTVSPropertyOp17
 70
     0
102
RTVSPropertyOp18
 70
     0
102
RTVSPropertyOp19
 70
     0
102
RTVSPropertyOp20
 70
     0
102
RTVSPropertyOp21
 70
     0
102
RTVSPropertyOp22
 70
     0
102
RTVSPropertyOp23
 70
     0
102
RTVSPropertyOp24
 70
     0
102
RTVSPropertyOp25
 70
     0
102
RTVSPropertyOp26
 70
     0
102
RTVSPropertyOp27
 70
     0
102
RTVSPropertyOp28
 70
     0
102
RTVSPropertyOp29
 70
     0
102
RTVSPropertyOp30
 70
     0
102
RTVSPropertyOp31
 70
     0
102
RTVSPropertyOp32
 70
     0
102
RTVSPropertyOp33
 70
     0
102
RTVSPropertyOp34
 70
     0
102
RTVSPropertyOp35
 70
     0
102
RTVSPropertyOp36
 70
     0
102
RTVSPropertyOp37
 70
     0
102
RTVSPropertyOp38
 70
     0
102
RTVSPropertyOp39
 70
     0
102
RTVSPropertyOp40
 70
     0
102
RTVSPropertyOp41
 70
     0
102
RTVSPropertyOp42
 70
     0
102
RTVSPropertyOp43
 70
     0
102
RTVSPropertyOp44
 70
     0
102
RTVSPropertyOp45
 70
     0
102
RTVSPropertyOp46
 70
     0
102
RTVSPropertyOp47
 70
     0
102
RTVSPropertyOp48
 70
     0
102
RTVSPropertyOp49
 70
     0
102
RTVSPropertyOp50
 70
     0
102
RTVSPropertyOp51
 70
     0
102
RTVSPropertyOp52
 70
     0
102
RTVSPropertyOp53
 70
     0
102
RTVSPropertyOp54
 70
     0
102
RTVSPropertyOp55
 70
     0
102
RTVSPropertyOp56
 70
     0
102
RTVSPropertyOp57
 70
     0
102
RTVSPropertyOp58
 70
     0
102
RTVSPropertyOp59
 70
     0
102
RTVSPropertyOp60
 70
     0
102
RTVSPropertyOp61
 70
     0
102
RTVSPropertyOp62
 70
     0
  0
XRECORD
  5
4AE
102
{ACAD_REACTORS
330
4AD
102
}
330
4AD
100
AcDbXrecord
280
     1
102
RTVSPost2010Prop28
280
     0
102
RTVSPost2010PropOp28
 70
     1
102
RTVSPost2010Prop29
280
     1
102
RTVSPost2010PropOp29
 70
     1
102
RTVSPost2010Prop30
280
     1
102
RTVSPost2010PropOp30
 70
     1
102
RTVSPost2010Prop31
280
     0
102
RTVSPost2010PropOp31
 70
     1
102
RTVSPost2010Prop32
280
     0
102
RTVSPost2010PropOp32
 70
     1
102
RTVSPost2010Prop33
280
     0
102
RTVSPost2010PropOp33
 70
     1
102
RTVSPost2010Prop34
280
     0
102
RTVSPost2010PropOp34
 70
     1
102
RTVSPost2010Prop35
280
     0
102
RTVSPost2010PropOp35
 70
     1
102
RTVSPost2010Prop36
280
     0
102
RTVSPost2010PropOp36
 70
     1
102
RTVSPost2010Prop37
 90
       50
102
RTVSPost2010PropOp37
 70
     1
102
RTVSPost2010Prop38
140
0.0
102
RTVSPost2010PropOp38
 70
     1
102
RTVSPost2010Prop39
140
1.0
102
RTVSPost2010PropOp39
 70
     1
102
RTVSPost2010Prop40
 90
        0
102
RTVSPost2010PropOp40
 70
     1
102
RTVSPost2010Prop41ColorIndex
 90
       18
102
RTVSPost2010Prop41ColorRGB
 90
        0
102
RTVSPost2010PropOp41
 70
     1
102
RTVSPost2010Prop42
 90
       50
102
RTVSPost2010PropOp42
 70
     1
102
RTVSPost2010Prop43
 90
        3
102
RTVSPost2010PropOp43
 70
     1
102
RTVSPost2010Prop44ColorIndex
 90
        5
102
RTVSPost2010Prop44ColorRGB
 90
      255
102
RTVSPost2010PropOp44
 70
     1
102
RTVSPost2010Prop45
280
     0
102
RTVSPost2010PropOp45
 70
     1
102
RTVSPost2010Prop46
 90
       50
102
RTVSPost2010PropOp46
 70
     1
102
RTVSPost2010Prop47
 90
       50
102
RTVSPost2010PropOp47
 70
     1
102
RTVSPost2010Prop48
 90
       50
102
RTVSPost2010PropOp48
 70
     1
102
RTVSPost2010Prop49
280
     0
102
RTVSPost2010PropOp49
 70
     1
102
RTVSPost2010Prop50
 90
       50
102
RTVSPost2010PropOp50
 70
     1
102
RTVSPost2010Prop51ColorIndex
 90
      256
102
RTVSPost2010Prop51ColorRGB
 90
-16777216
102
RTVSPost2010PropOp51
 70
     0
102
RTVSPost2010Prop52
140
1.0
102
RTVSPost2010PropOp52
 70
     0
102
RTVSPost2010Prop53
 90
        2
102
RTVSPost2010PropOp53
 70
     1
102
RTVSPost2010Prop54
  1
strokes_ogs.tif
102
RTVSPost2010PropOp54
 70
     1
102
RTVSPost2010Prop55
280
     0
102
RTVSPost2010PropOp55
 70
     1
102
RTVSPost2010Prop56
140
1.0
102
RTVSPost2010PropOp56
 70
     1
102
RTVSPost2010Prop57
140
1.0
102
RTVSPost2010PropOp57
 70
     1
102
RTVSPropertyOp0
 70
     1
102
RTVSPropertyOp1
 70
     1
102
RTVSPropertyOp2
 70
     1
102
RTVSPropertyOp3
 70
     1
102
RTVSPropertyOp4
 70
     1
102
RTVSPropertyOp5
 70
     1
102
RTVSPropertyOp6
 70
     1
102
RTVSPropertyOp7
 70
     1
102
RTVSPropertyOp8
 70
     1
102
RTVSPropertyOp9
 70
     1
102
RTVSPropertyOp10
 70
     1
102
RTVSPropertyOp11
 70
     1
102
RTVSPropertyOp12
 70
     1
102
RTVSPropertyOp13
 70
     1
102
RTVSPropertyOp14
 70
     1
102
RTVSPropertyOp15
 70
     1
102
RTVSPropertyOp16
 70
     1
102
RTVSPropertyOp17
 70
     1
102
RTVSPropertyOp18
 70
     1
102
RTVSPropertyOp19
 70
     1
102
RTVSPropertyOp20
 70
     1
102
RTVSPropertyOp21
 70
     1
102
RTVSPropertyOp22
 70
     1
102
RTVSPropertyOp23
 70
     1
102
RTVSPropertyOp24
 70
     1
102
RTVSPropertyOp25
 70
     1
102
RTVSPropertyOp26
 70
     1
102
RTVSPropertyOp27
 70
     1
102
RTVSPropertyOp28
 70
     1
102
RTVSPropertyOp29
 70
     1
102
RTVSPropertyOp30
 70
     1
102
RTVSPropertyOp31
 70
     1
102
RTVSPropertyOp32
 70
     1
102
RTVSPropertyOp33
 70
     1
102
RTVSPropertyOp34
 70
     1
102
RTVSPropertyOp35
 70
     1
102
RTVSPropertyOp36
 70
     1
102
RTVSPropertyOp37
 70
     1
102
RTVSPropertyOp38
 70
     1
102
RTVSPropertyOp39
 70
     1
102
RTVSPropertyOp40
 70
     1
102
RTVSPropertyOp41
 70
     1
102
RTVSPropertyOp42
 70
     1
102
RTVSPropertyOp43
 70
     1
102
RTVSPropertyOp44
 70
     1
102
RTVSPropertyOp45
 70
     1
102
RTVSPropertyOp46
 70
     1
102
RTVSPropertyOp47
 70
     1
102
RTVSPropertyOp48
 70
     1
102
RTVSPropertyOp49
 70
     1
102
RTVSPropertyOp50
 70
     1
102
RTVSPropertyOp51
 70
     0
102
RTVSPropertyOp52
 70
     0
102
RTVSPropertyOp53
 70
     1
102
RTVSPropertyOp54
 70
     1
102
RTVSPropertyOp55
 70
     1
102
RTVSPropertyOp56
 70
     1
102
RTVSPropertyOp57
 70
     1
102
RTVSPropertyOp58
 70
     1
102
RTVSPropertyOp59
 70
     1
102
RTVSPropertyOp60
 70
     1
102
RTVSPropertyOp61
 70
     1
102
RTVSPropertyOp62
 70
     1
  0
XRECORD
  5
4C4
102
{ACAD_REACTORS
330
4C3
102
}
330
4C3
100
AcDbXrecord
280
     1
102
RTVSPost2010Prop28
280
     0
102
RTVSPost2010PropOp28
 70
     1
102
RTVSPost2010Prop29
280
     1
102
RTVSPost2010PropOp29
 70
     1
102
RTVSPost2010Prop30
280
     1
102
RTVSPost2010PropOp30
 70
     1
102
RTVSPost2010Prop31
280
     0
102
RTVSPost2010PropOp31
 70
     1
102
RTVSPost2010Prop32
280
     0
102
RTVSPost2010PropOp32
 70
     1
102
RTVSPost2010Prop33
280
     0
102
RTVSPost2010PropOp33
 70
     1
102
RTVSPost2010Prop34
280
     0
102
RTVSPost2010PropOp34
 70
     1
102
RTVSPost2010Prop35
280
     0
102
RTVSPost2010PropOp35
 70
     1
102
RTVSPost2010Prop36
280
     0
102
RTVSPost2010PropOp36
 70
     1
102
RTVSPost2010Prop37
 90
       50
102
RTVSPost2010PropOp37
 70
     1
102
RTVSPost2010Prop38
140
0.0
102
RTVSPost2010PropOp38
 70
     1
102
RTVSPost2010Prop39
140
1.0
102
RTVSPost2010PropOp39
 70
     1
102
RTVSPost2010Prop40
 90
        0
102
RTVSPost2010PropOp40
 70
     1
102
RTVSPost2010Prop41ColorIndex
 90
       18
102
RTVSPost2010Prop41ColorRGB
 90
        0
102
RTVSPost2010PropOp41
 70
     1
102
RTVSPost2010Prop42
 90
       50
102
RTVSPost2010PropOp42
 70
     1
102
RTVSPost2010Prop43
 90
        3
102
RTVSPost2010PropOp43
 70
     1
102
RTVSPost2010Prop44ColorIndex
 90
        5
102
RTVSPost2010Prop44ColorRGB
 90
      255
102
RTVSPost2010PropOp44
 70
     1
102
RTVSPost2010Prop45
280
     0
102
RTVSPost2010PropOp45
 70
     1
102
RTVSPost2010Prop46
 90
       50
102
RTVSPost2010PropOp46
 70
     1
102
RTVSPost2010Prop47
 90
       50
102
RTVSPost2010PropOp47
 70
     1
102
RTVSPost2010Prop48
 90
       50
102
RTVSPost2010PropOp48
 70
     1
102
RTVSPost2010Prop49
280
     0
102
RTVSPost2010PropOp49
 70
     1
102
RTVSPost2010Prop50
 90
       50
102
RTVSPost2010PropOp50
 70
     1
102
RTVSPost2010Prop51ColorIndex
 90
      256
102
RTVSPost2010Prop51ColorRGB
 90
-16777216
102
RTVSPost2010PropOp51
 70
     0
102
RTVSPost2010Prop52
140
1.0
102
RTVSPost2010PropOp52
 70
     0
102
RTVSPost2010Prop53
 90
        2
102
RTVSPost2010PropOp53
 70
     1
102
RTVSPost2010Prop54
  1
strokes_ogs.tif
102
RTVSPost2010PropOp54
 70
     1
102
RTVSPost2010Prop55
280
     0
102
RTVSPost2010PropOp55
 70
     1
102
RTVSPost2010Prop56
140
1.0
102
RTVSPost2010PropOp56
 70
     1
102
RTVSPost2010Prop57
140
1.0
102
RTVSPost2010PropOp57
 70
     1
102
RTVSPropertyOp0
 70
     1
102
RTVSPropertyOp1
 70
     1
102
RTVSPropertyOp2
 70
     1
102
RTVSPropertyOp3
 70
     1
102
RTVSPropertyOp4
 70
     1
102
RTVSPropertyOp5
 70
     1
102
RTVSPropertyOp6
 70
     1
102
RTVSPropertyOp7
 70
     1
102
RTVSPropertyOp8
 70
     1
102
RTVSPropertyOp9
 70
     1
102
RTVSPropertyOp10
 70
     1
102
RTVSPropertyOp11
 70
     1
102
RTVSPropertyOp12
 70
     1
102
RTVSPropertyOp13
 70
     1
102
RTVSPropertyOp14
 70
     1
102
RTVSPropertyOp15
 70
     1
102
RTVSPropertyOp16
 70
     1
102
RTVSPropertyOp17
 70
     1
102
RTVSPropertyOp18
 70
     1
102
RTVSPropertyOp19
 70
     1
102
RTVSPropertyOp20
 70
     1
102
RTVSPropertyOp21
 70
     1
102
RTVSPropertyOp22
 70
     1
102
RTVSPropertyOp23
 70
     1
102
RTVSPropertyOp24
 70
     1
102
RTVSPropertyOp25
 70
     1
102
RTVSPropertyOp26
 70
     1
102
RTVSPropertyOp27
 70
     1
102
RTVSPropertyOp28
 70
     1
102
RTVSPropertyOp29
 70
     1
102
RTVSPropertyOp30
 70
     1
102
RTVSPropertyOp31
 70
     1
102
RTVSPropertyOp32
 70
     1
102
RTVSPropertyOp33
 70
     1
102
RTVSPropertyOp34
 70
     1
102
RTVSPropertyOp35
 70
     1
102
RTVSPropertyOp36
 70
     1
102
RTVSPropertyOp37
 70
     1
102
RTVSPropertyOp38
 70
     1
102
RTVSPropertyOp39
 70
     1
102
RTVSPropertyOp40
 70
     1
102
RTVSPropertyOp41
 70
     1
102
RTVSPropertyOp42
 70
     1
102
RTVSPropertyOp43
 70
     1
102
RTVSPropertyOp44
 70
     1
102
RTVSPropertyOp45
 70
     1
102
RTVSPropertyOp46
 70
     1
102
RTVSPropertyOp47
 70
     1
102
RTVSPropertyOp48
 70
     1
102
RTVSPropertyOp49
 70
     1
102
RTVSPropertyOp50
 70
     1
102
RTVSPropertyOp51
 70
     0
102
RTVSPropertyOp52
 70
     0
102
RTVSPropertyOp53
 70
     1
102
RTVSPropertyOp54
 70
     1
102
RTVSPropertyOp55
 70
     1
102
RTVSPropertyOp56
 70
     1
102
RTVSPropertyOp57
 70
     1
102
RTVSPropertyOp58
 70
     1
102
RTVSPropertyOp59
 70
     1
102
RTVSPropertyOp60
 70
     1
102
RTVSPropertyOp61
 70
     1
102
RTVSPropertyOp62
 70
     1
  0
XRECORD
  5
4C2
102
{ACAD_REACTORS
330
4C1
102
}
330
4C1
100
AcDbXrecord
280
     1
102
RTVSPost2010Prop28
280
     0
102
RTVSPost2010PropOp28
 70
     1
102
RTVSPost2010Prop29
280
     1
102
RTVSPost2010PropOp29
 70
     1
102
RTVSPost2010Prop30
280
     1
102
RTVSPost2010PropOp30
 70
     1
102
RTVSPost2010Prop31
280
     0
102
RTVSPost2010PropOp31
 70
     1
102
RTVSPost2010Prop32
280
     0
102
RTVSPost2010PropOp32
 70
     1
102
RTVSPost2010Prop33
280
     0
102
RTVSPost2010PropOp33
 70
     1
102
RTVSPost2010Prop34
280
     0
102
RTVSPost2010PropOp34
 70
     1
102
RTVSPost2010Prop35
280
     0
102
RTVSPost2010PropOp35
 70
     1
102
RTVSPost2010Prop36
280
     0
102
RTVSPost2010PropOp36
 70
     1
102
RTVSPost2010Prop37
 90
       50
102
RTVSPost2010PropOp37
 70
     1
102
RTVSPost2010Prop38
140
0.0
102
RTVSPost2010PropOp38
 70
     1
102
RTVSPost2010Prop39
140
1.0
102
RTVSPost2010PropOp39
 70
     1
102
RTVSPost2010Prop40
 90
        0
102
RTVSPost2010PropOp40
 70
     1
102
RTVSPost2010Prop41ColorIndex
 90
       18
102
RTVSPost2010Prop41ColorRGB
 90
        0
102
RTVSPost2010PropOp41
 70
     1
102
RTVSPost2010Prop42
 90
       50
102
RTVSPost2010PropOp42
 70
     1
102
RTVSPost2010Prop43
 90
        3
102
RTVSPost2010PropOp43
 70
     1
102
RTVSPost2010Prop44ColorIndex
 90
        5
102
RTVSPost2010Prop44ColorRGB
 90
      255
102
RTVSPost2010PropOp44
 70
     1
102
RTVSPost2010Prop45
280
     0
102
RTVSPost2010PropOp45
 70
     1
102
RTVSPost2010Prop46
 90
       50
102
RTVSPost2010PropOp46
 70
     1
102
RTVSPost2010Prop47
 90
       50
102
RTVSPost2010PropOp47
 70
     1
102
RTVSPost2010Prop48
 90
       50
102
RTVSPost2010PropOp48
 70
     1
102
RTVSPost2010Prop49
280
     0
102
RTVSPost2010PropOp49
 70
     1
102
RTVSPost2010Prop50
 90
       50
102
RTVSPost2010PropOp50
 70
     1
102
RTVSPost2010Prop51ColorIndex
 90
      256
102
RTVSPost2010Prop51ColorRGB
 90
-16777216
102
RTVSPost2010PropOp51
 70
     0
102
RTVSPost2010Prop52
140
1.0
102
RTVSPost2010PropOp52
 70
     0
102
RTVSPost2010Prop53
 90
        2
102
RTVSPost2010PropOp53
 70
     1
102
RTVSPost2010Prop54
  1
strokes_ogs.tif
102
RTVSPost2010PropOp54
 70
     1
102
RTVSPost2010Prop55
280
     0
102
RTVSPost2010PropOp55
 70
     1
102
RTVSPost2010Prop56
140
1.0
102
RTVSPost2010PropOp56
 70
     1
102
RTVSPost2010Prop57
140
1.0
102
RTVSPost2010PropOp57
 70
     1
102
RTVSPropertyOp0
 70
     1
102
RTVSPropertyOp1
 70
     1
102
RTVSPropertyOp2
 70
     1
102
RTVSPropertyOp3
 70
     1
102
RTVSPropertyOp4
 70
     1
102
RTVSPropertyOp5
 70
     1
102
RTVSPropertyOp6
 70
     1
102
RTVSPropertyOp7
 70
     1
102
RTVSPropertyOp8
 70
     1
102
RTVSPropertyOp9
 70
     1
102
RTVSPropertyOp10
 70
     1
102
RTVSPropertyOp11
 70
     1
102
RTVSPropertyOp12
 70
     1
102
RTVSPropertyOp13
 70
     1
102
RTVSPropertyOp14
 70
     1
102
RTVSPropertyOp15
 70
     1
102
RTVSPropertyOp16
 70
     1
102
RTVSPropertyOp17
 70
     1
102
RTVSPropertyOp18
 70
     1
102
RTVSPropertyOp19
 70
     1
102
RTVSPropertyOp20
 70
     1
102
RTVSPropertyOp21
 70
     1
102
RTVSPropertyOp22
 70
     1
102
RTVSPropertyOp23
 70
     1
102
RTVSPropertyOp24
 70
     1
102
RTVSPropertyOp25
 70
     1
102
RTVSPropertyOp26
 70
     1
102
RTVSPropertyOp27
 70
     1
102
RTVSPropertyOp28
 70
     1
102
RTVSPropertyOp29
 70
     1
102
RTVSPropertyOp30
 70
     1
102
RTVSPropertyOp31
 70
     1
102
RTVSPropertyOp32
 70
     1
102
RTVSPropertyOp33
 70
     1
102
RTVSPropertyOp34
 70
     1
102
RTVSPropertyOp35
 70
     1
102
RTVSPropertyOp36
 70
     1
102
RTVSPropertyOp37
 70
     1
102
RTVSPropertyOp38
 70
     1
102
RTVSPropertyOp39
 70
     1
102
RTVSPropertyOp40
 70
     1
102
RTVSPropertyOp41
 70
     1
102
RTVSPropertyOp42
 70
     1
102
RTVSPropertyOp43
 70
     1
102
RTVSPropertyOp44
 70
     1
102
RTVSPropertyOp45
 70
     1
102
RTVSPropertyOp46
 70
     1
102
RTVSPropertyOp47
 70
     1
102
RTVSPropertyOp48
 70
     1
102
RTVSPropertyOp49
 70
     1
102
RTVSPropertyOp50
 70
     1
102
RTVSPropertyOp51
 70
     0
102
RTVSPropertyOp52
 70
     0
102
RTVSPropertyOp53
 70
     1
102
RTVSPropertyOp54
 70
     1
102
RTVSPropertyOp55
 70
     1
102
RTVSPropertyOp56
 70
     1
102
RTVSPropertyOp57
 70
     1
102
RTVSPropertyOp58
 70
     1
102
RTVSPropertyOp59
 70
     1
102
RTVSPropertyOp60
 70
     1
102
RTVSPropertyOp61
 70
     1
102
RTVSPropertyOp62
 70
     1
  0
XRECORD
  5
4BC
102
{ACAD_REACTORS
330
4BB
102
}
330
4BB
100
AcDbXrecord
280
     1
102
RTVSPost2010Prop28
280
     0
102
RTVSPost2010PropOp28
 70
     1
102
RTVSPost2010Prop29
280
     1
102
RTVSPost2010PropOp29
 70
     1
102
RTVSPost2010Prop30
280
     1
102
RTVSPost2010PropOp30
 70
     1
102
RTVSPost2010Prop31
280
     0
102
RTVSPost2010PropOp31
 70
     1
102
RTVSPost2010Prop32
280
     0
102
RTVSPost2010PropOp32
 70
     1
102
RTVSPost2010Prop33
280
     0
102
RTVSPost2010PropOp33
 70
     1
102
RTVSPost2010Prop34
280
     0
102
RTVSPost2010PropOp34
 70
     1
102
RTVSPost2010Prop35
280
     0
102
RTVSPost2010PropOp35
 70
     1
102
RTVSPost2010Prop36
280
     0
102
RTVSPost2010PropOp36
 70
     1
102
RTVSPost2010Prop37
 90
       50
102
RTVSPost2010PropOp37
 70
     1
102
RTVSPost2010Prop38
140
0.0
102
RTVSPost2010PropOp38
 70
     1
102
RTVSPost2010Prop39
140
1.0
102
RTVSPost2010PropOp39
 70
     1
102
RTVSPost2010Prop40
 90
        0
102
RTVSPost2010PropOp40
 70
     1
102
RTVSPost2010Prop41ColorIndex
 90
       18
102
RTVSPost2010Prop41ColorRGB
 90
        0
102
RTVSPost2010PropOp41
 70
     1
102
RTVSPost2010Prop42
 90
       50
102
RTVSPost2010PropOp42
 70
     1
102
RTVSPost2010Prop43
 90
        3
102
RTVSPost2010PropOp43
 70
     1
102
RTVSPost2010Prop44ColorIndex
 90
        5
102
RTVSPost2010Prop44ColorRGB
 90
      255
102
RTVSPost2010PropOp44
 70
     1
102
RTVSPost2010Prop45
280
     0
102
RTVSPost2010PropOp45
 70
     1
102
RTVSPost2010Prop46
 90
       50
102
RTVSPost2010PropOp46
 70
     1
102
RTVSPost2010Prop47
 90
       50
102
RTVSPost2010PropOp47
 70
     1
102
RTVSPost2010Prop48
 90
       50
102
RTVSPost2010PropOp48
 70
     1
102
RTVSPost2010Prop49
280
     0
102
RTVSPost2010PropOp49
 70
     1
102
RTVSPost2010Prop50
 90
       50
102
RTVSPost2010PropOp50
 70
     1
102
RTVSPost2010Prop51ColorIndex
 90
      256
102
RTVSPost2010Prop51ColorRGB
 90
-16777216
102
RTVSPost2010PropOp51
 70
     0
102
RTVSPost2010Prop52
140
1.0
102
RTVSPost2010PropOp52
 70
     0
102
RTVSPost2010Prop53
 90
        2
102
RTVSPost2010PropOp53
 70
     1
102
RTVSPost2010Prop54
  1
strokes_ogs.tif
102
RTVSPost2010PropOp54
 70
     1
102
RTVSPost2010Prop55
280
     0
102
RTVSPost2010PropOp55
 70
     1
102
RTVSPost2010Prop56
140
1.0
102
RTVSPost2010PropOp56
 70
     1
102
RTVSPost2010Prop57
140
1.0
102
RTVSPost2010PropOp57
 70
     1
102
RTVSPropertyOp0
 70
     1
102
RTVSPropertyOp1
 70
     1
102
RTVSPropertyOp2
 70
     1
102
RTVSPropertyOp3
 70
     1
102
RTVSPropertyOp4
 70
     1
102
RTVSPropertyOp5
 70
     1
102
RTVSPropertyOp6
 70
     1
102
RTVSPropertyOp7
 70
     1
102
RTVSPropertyOp8
 70
     1
102
RTVSPropertyOp9
 70
     1
102
RTVSPropertyOp10
 70
     1
102
RTVSPropertyOp11
 70
     1
102
RTVSPropertyOp12
 70
     1
102
RTVSPropertyOp13
 70
     1
102
RTVSPropertyOp14
 70
     1
102
RTVSPropertyOp15
 70
     1
102
RTVSPropertyOp16
 70
     1
102
RTVSPropertyOp17
 70
     1
102
RTVSPropertyOp18
 70
     1
102
RTVSPropertyOp19
 70
     1
102
RTVSPropertyOp20
 70
     1
102
RTVSPropertyOp21
 70
     1
102
RTVSPropertyOp22
 70
     1
102
RTVSPropertyOp23
 70
     1
102
RTVSPropertyOp24
 70
     1
102
RTVSPropertyOp25
 70
     1
102
RTVSPropertyOp26
 70
     1
102
RTVSPropertyOp27
 70
     1
102
RTVSPropertyOp28
 70
     1
102
RTVSPropertyOp29
 70
     1
102
RTVSPropertyOp30
 70
     1
102
RTVSPropertyOp31
 70
     1
102
RTVSPropertyOp32
 70
     1
102
RTVSPropertyOp33
 70
     1
102
RTVSPropertyOp34
 70
     1
102
RTVSPropertyOp35
 70
     1
102
RTVSPropertyOp36
 70
     1
102
RTVSPropertyOp37
 70
     1
102
RTVSPropertyOp38
 70
     1
102
RTVSPropertyOp39
 70
     1
102
RTVSPropertyOp40
 70
     1
102
RTVSPropertyOp41
 70
     1
102
RTVSPropertyOp42
 70
     1
102
RTVSPropertyOp43
 70
     1
102
RTVSPropertyOp44
 70
     1
102
RTVSPropertyOp45
 70
     1
102
RTVSPropertyOp46
 70
     1
102
RTVSPropertyOp47
 70
     1
102
RTVSPropertyOp48
 70
     1
102
RTVSPropertyOp49
 70
     1
102
RTVSPropertyOp50
 70
     1
102
RTVSPropertyOp51
 70
     0
102
RTVSPropertyOp52
 70
     0
102
RTVSPropertyOp53
 70
     1
102
RTVSPropertyOp54
 70
     1
102
RTVSPropertyOp55
 70
     1
102
RTVSPropertyOp56
 70
     1
102
RTVSPropertyOp57
 70
     1
102
RTVSPropertyOp58
 70
     1
102
RTVSPropertyOp59
 70
     1
102
RTVSPropertyOp60
 70
     1
102
RTVSPropertyOp61
 70
     1
102
RTVSPropertyOp62
 70
     1
  0
XRECORD
  5
4BE
102
{ACAD_REACTORS
330
4BD
102
}
330
4BD
100
AcDbXrecord
280
     1
102
RTVSPost2010Prop28
280
     0
102
RTVSPost2010PropOp28
 70
     1
102
RTVSPost2010Prop29
280
     1
102
RTVSPost2010PropOp29
 70
     1
102
RTVSPost2010Prop30
280
     1
102
RTVSPost2010PropOp30
 70
     1
102
RTVSPost2010Prop31
280
     0
102
RTVSPost2010PropOp31
 70
     1
102
RTVSPost2010Prop32
280
     0
102
RTVSPost2010PropOp32
 70
     1
102
RTVSPost2010Prop33
280
     0
102
RTVSPost2010PropOp33
 70
     1
102
RTVSPost2010Prop34
280
     0
102
RTVSPost2010PropOp34
 70
     1
102
RTVSPost2010Prop35
280
     0
102
RTVSPost2010PropOp35
 70
     1
102
RTVSPost2010Prop36
280
     0
102
RTVSPost2010PropOp36
 70
     1
102
RTVSPost2010Prop37
 90
       50
102
RTVSPost2010PropOp37
 70
     1
102
RTVSPost2010Prop38
140
0.0
102
RTVSPost2010PropOp38
 70
     1
102
RTVSPost2010Prop39
140
1.0
102
RTVSPost2010PropOp39
 70
     1
102
RTVSPost2010Prop40
 90
        0
102
RTVSPost2010PropOp40
 70
     1
102
RTVSPost2010Prop41ColorIndex
 90
       18
102
RTVSPost2010Prop41ColorRGB
 90
        0
102
RTVSPost2010PropOp41
 70
     1
102
RTVSPost2010Prop42
 90
       50
102
RTVSPost2010PropOp42
 70
     1
102
RTVSPost2010Prop43
 90
        3
102
RTVSPost2010PropOp43
 70
     1
102
RTVSPost2010Prop44ColorIndex
 90
        5
102
RTVSPost2010Prop44ColorRGB
 90
      255
102
RTVSPost2010PropOp44
 70
     1
102
RTVSPost2010Prop45
280
     0
102
RTVSPost2010PropOp45
 70
     1
102
RTVSPost2010Prop46
 90
       50
102
RTVSPost2010PropOp46
 70
     1
102
RTVSPost2010Prop47
 90
       50
102
RTVSPost2010PropOp47
 70
     1
102
RTVSPost2010Prop48
 90
       50
102
RTVSPost2010PropOp48
 70
     1
102
RTVSPost2010Prop49
280
     0
102
RTVSPost2010PropOp49
 70
     1
102
RTVSPost2010Prop50
 90
       50
102
RTVSPost2010PropOp50
 70
     1
102
RTVSPost2010Prop51ColorIndex
 90
      256
102
RTVSPost2010Prop51ColorRGB
 90
-16777216
102
RTVSPost2010PropOp51
 70
     0
102
RTVSPost2010Prop52
140
1.0
102
RTVSPost2010PropOp52
 70
     0
102
RTVSPost2010Prop53
 90
        2
102
RTVSPost2010PropOp53
 70
     1
102
RTVSPost2010Prop54
  1
strokes_ogs.tif
102
RTVSPost2010PropOp54
 70
     1
102
RTVSPost2010Prop55
280
     0
102
RTVSPost2010PropOp55
 70
     1
102
RTVSPost2010Prop56
140
1.0
102
RTVSPost2010PropOp56
 70
     1
102
RTVSPost2010Prop57
140
1.0
102
RTVSPost2010PropOp57
 70
     1
102
RTVSPropertyOp0
 70
     1
102
RTVSPropertyOp1
 70
     1
102
RTVSPropertyOp2
 70
     1
102
RTVSPropertyOp3
 70
     1
102
RTVSPropertyOp4
 70
     1
102
RTVSPropertyOp5
 70
     1
102
RTVSPropertyOp6
 70
     1
102
RTVSPropertyOp7
 70
     1
102
RTVSPropertyOp8
 70
     1
102
RTVSPropertyOp9
 70
     1
102
RTVSPropertyOp10
 70
     1
102
RTVSPropertyOp11
 70
     1
102
RTVSPropertyOp12
 70
     1
102
RTVSPropertyOp13
 70
     1
102
RTVSPropertyOp14
 70
     1
102
RTVSPropertyOp15
 70
     1
102
RTVSPropertyOp16
 70
     1
102
RTVSPropertyOp17
 70
     1
102
RTVSPropertyOp18
 70
     1
102
RTVSPropertyOp19
 70
     1
102
RTVSPropertyOp20
 70
     1
102
RTVSPropertyOp21
 70
     1
102
RTVSPropertyOp22
 70
     1
102
RTVSPropertyOp23
 70
     1
102
RTVSPropertyOp24
 70
     1
102
RTVSPropertyOp25
 70
     1
102
RTVSPropertyOp26
 70
     1
102
RTVSPropertyOp27
 70
     1
102
RTVSPropertyOp28
 70
     1
102
RTVSPropertyOp29
 70
     1
102
RTVSPropertyOp30
 70
     1
102
RTVSPropertyOp31
 70
     1
102
RTVSPropertyOp32
 70
     1
102
RTVSPropertyOp33
 70
     1
102
RTVSPropertyOp34
 70
     1
102
RTVSPropertyOp35
 70
     1
102
RTVSPropertyOp36
 70
     1
102
RTVSPropertyOp37
 70
     1
102
RTVSPropertyOp38
 70
     1
102
RTVSPropertyOp39
 70
     1
102
RTVSPropertyOp40
 70
     1
102
RTVSPropertyOp41
 70
     1
102
RTVSPropertyOp42
 70
     1
102
RTVSPropertyOp43
 70
     1
102
RTVSPropertyOp44
 70
     1
102
RTVSPropertyOp45
 70
     1
102
RTVSPropertyOp46
 70
     1
102
RTVSPropertyOp47
 70
     1
102
RTVSPropertyOp48
 70
     1
102
RTVSPropertyOp49
 70
     1
102
RTVSPropertyOp50
 70
     1
102
RTVSPropertyOp51
 70
     0
102
RTVSPropertyOp52
 70
     0
102
RTVSPropertyOp53
 70
     1
102
RTVSPropertyOp54
 70
     1
102
RTVSPropertyOp55
 70
     1
102
RTVSPropertyOp56
 70
     1
102
RTVSPropertyOp57
 70
     1
102
RTVSPropertyOp58
 70
     1
102
RTVSPropertyOp59
 70
     1
102
RTVSPropertyOp60
 70
     1
102
RTVSPropertyOp61
 70
     1
102
RTVSPropertyOp62
 70
     1
  0
XRECORD
  5
4B4
102
{ACAD_REACTORS
330
4B3
102
}
330
4B3
100
AcDbXrecord
280
     1
102
RTVSPost2010Prop28
280
     0
102
RTVSPost2010PropOp28
 70
     1
102
RTVSPost2010Prop29
280
     1
102
RTVSPost2010PropOp29
 70
     1
102
RTVSPost2010Prop30
280
     1
102
RTVSPost2010PropOp30
 70
     1
102
RTVSPost2010Prop31
280
     0
102
RTVSPost2010PropOp31
 70
     1
102
RTVSPost2010Prop32
280
     0
102
RTVSPost2010PropOp32
 70
     1
102
RTVSPost2010Prop33
280
     0
102
RTVSPost2010PropOp33
 70
     1
102
RTVSPost2010Prop34
280
     0
102
RTVSPost2010PropOp34
 70
     1
102
RTVSPost2010Prop35
280
     0
102
RTVSPost2010PropOp35
 70
     1
102
RTVSPost2010Prop36
280
     0
102
RTVSPost2010PropOp36
 70
     1
102
RTVSPost2010Prop37
 90
       50
102
RTVSPost2010PropOp37
 70
     1
102
RTVSPost2010Prop38
140
0.0
102
RTVSPost2010PropOp38
 70
     1
102
RTVSPost2010Prop39
140
1.0
102
RTVSPost2010PropOp39
 70
     1
102
RTVSPost2010Prop40
 90
        0
102
RTVSPost2010PropOp40
 70
     1
102
RTVSPost2010Prop41ColorIndex
 90
       18
102
RTVSPost2010Prop41ColorRGB
 90
        0
102
RTVSPost2010PropOp41
 70
     1
102
RTVSPost2010Prop42
 90
       50
102
RTVSPost2010PropOp42
 70
     1
102
RTVSPost2010Prop43
 90
        3
102
RTVSPost2010PropOp43
 70
     1
102
RTVSPost2010Prop44ColorIndex
 90
        5
102
RTVSPost2010Prop44ColorRGB
 90
      255
102
RTVSPost2010PropOp44
 70
     1
102
RTVSPost2010Prop45
280
     0
102
RTVSPost2010PropOp45
 70
     1
102
RTVSPost2010Prop46
 90
       50
102
RTVSPost2010PropOp46
 70
     1
102
RTVSPost2010Prop47
 90
       50
102
RTVSPost2010PropOp47
 70
     1
102
RTVSPost2010Prop48
 90
       50
102
RTVSPost2010PropOp48
 70
     1
102
RTVSPost2010Prop49
280
     0
102
RTVSPost2010PropOp49
 70
     1
102
RTVSPost2010Prop50
 90
       50
102
RTVSPost2010PropOp50
 70
     1
102
RTVSPost2010Prop51ColorIndex
 90
      256
102
RTVSPost2010Prop51ColorRGB
 90
-16777216
102
RTVSPost2010PropOp51
 70
     0
102
RTVSPost2010Prop52
140
1.0
102
RTVSPost2010PropOp52
 70
     0
102
RTVSPost2010Prop53
 90
        2
102
RTVSPost2010PropOp53
 70
     1
102
RTVSPost2010Prop54
  1
strokes_ogs.tif
102
RTVSPost2010PropOp54
 70
     1
102
RTVSPost2010Prop55
280
     0
102
RTVSPost2010PropOp55
 70
     1
102
RTVSPost2010Prop56
140
1.0
102
RTVSPost2010PropOp56
 70
     1
102
RTVSPost2010Prop57
140
1.0
102
RTVSPost2010PropOp57
 70
     1
102
RTVSPropertyOp0
 70
     1
102
RTVSPropertyOp1
 70
     1
102
RTVSPropertyOp2
 70
     1
102
RTVSPropertyOp3
 70
     1
102
RTVSPropertyOp4
 70
     1
102
RTVSPropertyOp5
 70
     1
102
RTVSPropertyOp6
 70
     1
102
RTVSPropertyOp7
 70
     1
102
RTVSPropertyOp8
 70
     1
102
RTVSPropertyOp9
 70
     1
102
RTVSPropertyOp10
 70
     1
102
RTVSPropertyOp11
 70
     1
102
RTVSPropertyOp12
 70
     1
102
RTVSPropertyOp13
 70
     1
102
RTVSPropertyOp14
 70
     1
102
RTVSPropertyOp15
 70
     1
102
RTVSPropertyOp16
 70
     1
102
RTVSPropertyOp17
 70
     1
102
RTVSPropertyOp18
 70
     1
102
RTVSPropertyOp19
 70
     1
102
RTVSPropertyOp20
 70
     1
102
RTVSPropertyOp21
 70
     1
102
RTVSPropertyOp22
 70
     1
102
RTVSPropertyOp23
 70
     1
102
RTVSPropertyOp24
 70
     1
102
RTVSPropertyOp25
 70
     1
102
RTVSPropertyOp26
 70
     1
102
RTVSPropertyOp27
 70
     1
102
RTVSPropertyOp28
 70
     1
102
RTVSPropertyOp29
 70
     1
102
RTVSPropertyOp30
 70
     1
102
RTVSPropertyOp31
 70
     1
102
RTVSPropertyOp32
 70
     1
102
RTVSPropertyOp33
 70
     1
102
RTVSPropertyOp34
 70
     1
102
RTVSPropertyOp35
 70
     1
102
RTVSPropertyOp36
 70
     1
102
RTVSPropertyOp37
 70
     1
102
RTVSPropertyOp38
 70
     1
102
RTVSPropertyOp39
 70
     1
102
RTVSPropertyOp40
 70
     1
102
RTVSPropertyOp41
 70
     1
102
RTVSPropertyOp42
 70
     1
102
RTVSPropertyOp43
 70
     1
102
RTVSPropertyOp44
 70
     1
102
RTVSPropertyOp45
 70
     1
102
RTVSPropertyOp46
 70
     1
102
RTVSPropertyOp47
 70
     1
102
RTVSPropertyOp48
 70
     1
102
RTVSPropertyOp49
 70
     1
102
RTVSPropertyOp50
 70
     1
102
RTVSPropertyOp51
 70
     0
102
RTVSPropertyOp52
 70
     0
102
RTVSPropertyOp53
 70
     1
102
RTVSPropertyOp54
 70
     1
102
RTVSPropertyOp55
 70
     1
102
RTVSPropertyOp56
 70
     1
102
RTVSPropertyOp57
 70
     1
102
RTVSPropertyOp58
 70
     1
102
RTVSPropertyOp59
 70
     1
102
RTVSPropertyOp60
 70
     1
102
RTVSPropertyOp61
 70
     1
102
RTVSPropertyOp62
 70
     1
  0
XRECORD
  5
4A8
102
{ACAD_REACTORS
330
4A7
102
}
330
4A7
100
AcDbXrecord
280
     1
102
RTVSPost2010Prop28
280
     0
102
RTVSPost2010PropOp28
 70
     1
102
RTVSPost2010Prop29
280
     1
102
RTVSPost2010PropOp29
 70
     1
102
RTVSPost2010Prop30
280
     1
102
RTVSPost2010PropOp30
 70
     1
102
RTVSPost2010Prop31
280
     0
102
RTVSPost2010PropOp31
 70
     1
102
RTVSPost2010Prop32
280
     0
102
RTVSPost2010PropOp32
 70
     1
102
RTVSPost2010Prop33
280
     0
102
RTVSPost2010PropOp33
 70
     1
102
RTVSPost2010Prop34
280
     0
102
RTVSPost2010PropOp34
 70
     1
102
RTVSPost2010Prop35
280
     0
102
RTVSPost2010PropOp35
 70
     1
102
RTVSPost2010Prop36
280
     0
102
RTVSPost2010PropOp36
 70
     1
102
RTVSPost2010Prop37
 90
       50
102
RTVSPost2010PropOp37
 70
     1
102
RTVSPost2010Prop38
140
0.0
102
RTVSPost2010PropOp38
 70
     1
102
RTVSPost2010Prop39
140
1.0
102
RTVSPost2010PropOp39
 70
     1
102
RTVSPost2010Prop40
 90
        0
102
RTVSPost2010PropOp40
 70
     1
102
RTVSPost2010Prop41ColorIndex
 90
       18
102
RTVSPost2010Prop41ColorRGB
 90
        0
102
RTVSPost2010PropOp41
 70
     1
102
RTVSPost2010Prop42
 90
       50
102
RTVSPost2010PropOp42
 70
     1
102
RTVSPost2010Prop43
 90
        3
102
RTVSPost2010PropOp43
 70
     1
102
RTVSPost2010Prop44ColorIndex
 90
        5
102
RTVSPost2010Prop44ColorRGB
 90
      255
102
RTVSPost2010PropOp44
 70
     1
102
RTVSPost2010Prop45
280
     0
102
RTVSPost2010PropOp45
 70
     1
102
RTVSPost2010Prop46
 90
       50
102
RTVSPost2010PropOp46
 70
     1
102
RTVSPost2010Prop47
 90
       50
102
RTVSPost2010PropOp47
 70
     1
102
RTVSPost2010Prop48
 90
       50
102
RTVSPost2010PropOp48
 70
     1
102
RTVSPost2010Prop49
280
     0
102
RTVSPost2010PropOp49
 70
     1
102
RTVSPost2010Prop50
 90
       50
102
RTVSPost2010PropOp50
 70
     1
102
RTVSPost2010Prop51ColorIndex
 90
      256
102
RTVSPost2010Prop51ColorRGB
 90
-16777216
102
RTVSPost2010PropOp51
 70
     0
102
RTVSPost2010Prop52
140
1.0
102
RTVSPost2010PropOp52
 70
     0
102
RTVSPost2010Prop53
 90
        2
102
RTVSPost2010PropOp53
 70
     1
102
RTVSPost2010Prop54
  1
strokes_ogs.tif
102
RTVSPost2010PropOp54
 70
     1
102
RTVSPost2010Prop55
280
     0
102
RTVSPost2010PropOp55
 70
     1
102
RTVSPost2010Prop56
140
1.0
102
RTVSPost2010PropOp56
 70
     1
102
RTVSPost2010Prop57
140
1.0
102
RTVSPost2010PropOp57
 70
     1
102
RTVSPropertyOp0
 70
     1
102
RTVSPropertyOp1
 70
     1
102
RTVSPropertyOp2
 70
     1
102
RTVSPropertyOp3
 70
     1
102
RTVSPropertyOp4
 70
     1
102
RTVSPropertyOp5
 70
     1
102
RTVSPropertyOp6
 70
     1
102
RTVSPropertyOp7
 70
     1
102
RTVSPropertyOp8
 70
     1
102
RTVSPropertyOp9
 70
     1
102
RTVSPropertyOp10
 70
     1
102
RTVSPropertyOp11
 70
     1
102
RTVSPropertyOp12
 70
     1
102
RTVSPropertyOp13
 70
     1
102
RTVSPropertyOp14
 70
     1
102
RTVSPropertyOp15
 70
     1
102
RTVSPropertyOp16
 70
     1
102
RTVSPropertyOp17
 70
     1
102
RTVSPropertyOp18
 70
     1
102
RTVSPropertyOp19
 70
     1
102
RTVSPropertyOp20
 70
     1
102
RTVSPropertyOp21
 70
     1
102
RTVSPropertyOp22
 70
     1
102
RTVSPropertyOp23
 70
     1
102
RTVSPropertyOp24
 70
     1
102
RTVSPropertyOp25
 70
     1
102
RTVSPropertyOp26
 70
     1
102
RTVSPropertyOp27
 70
     1
102
RTVSPropertyOp28
 70
     1
102
RTVSPropertyOp29
 70
     1
102
RTVSPropertyOp30
 70
     1
102
RTVSPropertyOp31
 70
     1
102
RTVSPropertyOp32
 70
     1
102
RTVSPropertyOp33
 70
     1
102
RTVSPropertyOp34
 70
     1
102
RTVSPropertyOp35
 70
     1
102
RTVSPropertyOp36
 70
     1
102
RTVSPropertyOp37
 70
     1
102
RTVSPropertyOp38
 70
     1
102
RTVSPropertyOp39
 70
     1
102
RTVSPropertyOp40
 70
     1
102
RTVSPropertyOp41
 70
     1
102
RTVSPropertyOp42
 70
     1
102
RTVSPropertyOp43
 70
     1
102
RTVSPropertyOp44
 70
     1
102
RTVSPropertyOp45
 70
     1
102
RTVSPropertyOp46
 70
     1
102
RTVSPropertyOp47
 70
     1
102
RTVSPropertyOp48
 70
     1
102
RTVSPropertyOp49
 70
     1
102
RTVSPropertyOp50
 70
     1
102
RTVSPropertyOp51
 70
     0
102
RTVSPropertyOp52
 70
     0
102
RTVSPropertyOp53
 70
     1
102
RTVSPropertyOp54
 70
     1
102
RTVSPropertyOp55
 70
     1
102
RTVSPropertyOp56
 70
     1
102
RTVSPropertyOp57
 70
     1
102
RTVSPropertyOp58
 70
     1
102
RTVSPropertyOp59
 70
     1
102
RTVSPropertyOp60
 70
     1
102
RTVSPropertyOp61
 70
     1
102
RTVSPropertyOp62
 70
     1
  0
XRECORD
  5
4C0
102
{ACAD_REACTORS
330
4BF
102
}
330
4BF
100
AcDbXrecord
280
     1
102
RTVSPost2010Prop28
280
     0
102
RTVSPost2010PropOp28
 70
     1
102
RTVSPost2010Prop29
280
     1
102
RTVSPost2010PropOp29
 70
     1
102
RTVSPost2010Prop30
280
     1
102
RTVSPost2010PropOp30
 70
     1
102
RTVSPost2010Prop31
280
     0
102
RTVSPost2010PropOp31
 70
     1
102
RTVSPost2010Prop32
280
     0
102
RTVSPost2010PropOp32
 70
     1
102
RTVSPost2010Prop33
280
     0
102
RTVSPost2010PropOp33
 70
     1
102
RTVSPost2010Prop34
280
     0
102
RTVSPost2010PropOp34
 70
     1
102
RTVSPost2010Prop35
280
     0
102
RTVSPost2010PropOp35
 70
     1
102
RTVSPost2010Prop36
280
     0
102
RTVSPost2010PropOp36
 70
     1
102
RTVSPost2010Prop37
 90
       50
102
RTVSPost2010PropOp37
 70
     1
102
RTVSPost2010Prop38
140
0.0
102
RTVSPost2010PropOp38
 70
     1
102
RTVSPost2010Prop39
140
1.0
102
RTVSPost2010PropOp39
 70
     1
102
RTVSPost2010Prop40
 90
        0
102
RTVSPost2010PropOp40
 70
     1
102
RTVSPost2010Prop41ColorIndex
 90
       18
102
RTVSPost2010Prop41ColorRGB
 90
        0
102
RTVSPost2010PropOp41
 70
     1
102
RTVSPost2010Prop42
 90
       50
102
RTVSPost2010PropOp42
 70
     1
102
RTVSPost2010Prop43
 90
        3
102
RTVSPost2010PropOp43
 70
     1
102
RTVSPost2010Prop44ColorIndex
 90
        5
102
RTVSPost2010Prop44ColorRGB
 90
      255
102
RTVSPost2010PropOp44
 70
     1
102
RTVSPost2010Prop45
280
     0
102
RTVSPost2010PropOp45
 70
     1
102
RTVSPost2010Prop46
 90
       50
102
RTVSPost2010PropOp46
 70
     1
102
RTVSPost2010Prop47
 90
       50
102
RTVSPost2010PropOp47
 70
     1
102
RTVSPost2010Prop48
 90
       50
102
RTVSPost2010PropOp48
 70
     1
102
RTVSPost2010Prop49
280
     0
102
RTVSPost2010PropOp49
 70
     1
102
RTVSPost2010Prop50
 90
       50
102
RTVSPost2010PropOp50
 70
     1
102
RTVSPost2010Prop51ColorIndex
 90
      256
102
RTVSPost2010Prop51ColorRGB
 90
-16777216
102
RTVSPost2010PropOp51
 70
     0
102
RTVSPost2010Prop52
140
1.0
102
RTVSPost2010PropOp52
 70
     0
102
RTVSPost2010Prop53
 90
        2
102
RTVSPost2010PropOp53
 70
     1
102
RTVSPost2010Prop54
  1
strokes_ogs.tif
102
RTVSPost2010PropOp54
 70
     1
102
RTVSPost2010Prop55
280
     0
102
RTVSPost2010PropOp55
 70
     1
102
RTVSPost2010Prop56
140
1.0
102
RTVSPost2010PropOp56
 70
     1
102
RTVSPost2010Prop57
140
1.0
102
RTVSPost2010PropOp57
 70
     1
102
RTVSPropertyOp0
 70
     1
102
RTVSPropertyOp1
 70
     1
102
RTVSPropertyOp2
 70
     1
102
RTVSPropertyOp3
 70
     1
102
RTVSPropertyOp4
 70
     1
102
RTVSPropertyOp5
 70
     1
102
RTVSPropertyOp6
 70
     1
102
RTVSPropertyOp7
 70
     1
102
RTVSPropertyOp8
 70
     1
102
RTVSPropertyOp9
 70
     1
102
RTVSPropertyOp10
 70
     1
102
RTVSPropertyOp11
 70
     1
102
RTVSPropertyOp12
 70
     1
102
RTVSPropertyOp13
 70
     1
102
RTVSPropertyOp14
 70
     1
102
RTVSPropertyOp15
 70
     1
102
RTVSPropertyOp16
 70
     1
102
RTVSPropertyOp17
 70
     1
102
RTVSPropertyOp18
 70
     1
102
RTVSPropertyOp19
 70
     1
102
RTVSPropertyOp20
 70
     1
102
RTVSPropertyOp21
 70
     1
102
RTVSPropertyOp22
 70
     1
102
RTVSPropertyOp23
 70
     1
102
RTVSPropertyOp24
 70
     1
102
RTVSPropertyOp25
 70
     1
102
RTVSPropertyOp26
 70
     1
102
RTVSPropertyOp27
 70
     1
102
RTVSPropertyOp28
 70
     1
102
RTVSPropertyOp29
 70
     1
102
RTVSPropertyOp30
 70
     1
102
RTVSPropertyOp31
 70
     1
102
RTVSPropertyOp32
 70
     1
102
RTVSPropertyOp33
 70
     1
102
RTVSPropertyOp34
 70
     1
102
RTVSPropertyOp35
 70
     1
102
RTVSPropertyOp36
 70
     1
102
RTVSPropertyOp37
 70
     1
102
RTVSPropertyOp38
 70
     1
102
RTVSPropertyOp39
 70
     1
102
RTVSPropertyOp40
 70
     1
102
RTVSPropertyOp41
 70
     1
102
RTVSPropertyOp42
 70
     1
102
RTVSPropertyOp43
 70
     1
102
RTVSPropertyOp44
 70
     1
102
RTVSPropertyOp45
 70
     1
102
RTVSPropertyOp46
 70
     1
102
RTVSPropertyOp47
 70
     1
102
RTVSPropertyOp48
 70
     1
102
RTVSPropertyOp49
 70
     1
102
RTVSPropertyOp50
 70
     1
102
RTVSPropertyOp51
 70
     0
102
RTVSPropertyOp52
 70
     0
102
RTVSPropertyOp53
 70
     1
102
RTVSPropertyOp54
 70
     1
102
RTVSPropertyOp55
 70
     1
102
RTVSPropertyOp56
 70
     1
102
RTVSPropertyOp57
 70
     1
102
RTVSPropertyOp58
 70
     1
102
RTVSPropertyOp59
 70
     1
102
RTVSPropertyOp60
 70
     1
102
RTVSPropertyOp61
 70
     1
102
RTVSPropertyOp62
 70
     1
  0
ENDSEC
  0
EOF
