  0
SECTION
  2
HEADER
  9
$ACADVER
  1
AC1018
  9
$ACADMAINTVER
 70
   104
  9
$DWGCODEPAGE
  3
ANSI_932
  9
$INSBASE
 10
0.0
 20
0.0
 30
0.0
  9
$EXTMIN
 10
-0.43733037
 20
-0.30496157
 30
0.0
  9
$EXTMAX
 10
28681.45323106
 20
20000.30524098
 30
0.0
  9
$LIMMIN
 10
0.0
 20
0.0
  9
$LIMMAX
 10
420.0
 20
330.0
  9
$ORTHOMODE
 70
     0
  9
$REGENMODE
 70
     1
  9
$FILLMODE
 70
     1
  9
$QTEXTMODE
 70
     0
  9
$MIRRTEXT
 70
     0
  9
$LTSCALE
 40
1.0
  9
$ATTMODE
 70
     1
  9
$TEXTSIZE
 40
0.2
  9
$TRACEWID
 40
0.05
  9
$TEXTSTYLE
  7
STANDARD
  9
$CLAYER
  8
0
  9
$CELTYPE
  6
ByLayer
  9
$CECOLOR
 62
   256
  9
$CELTSCALE
 40
1.0
  9
$DISPSILH
 70
     1
  9
$DIMSCALE
 40
1.0
  9
$DIMASZ
 40
0.18
  9
$DIMEXO
 40
0.0625
  9
$DIMDLI
 40
0.38
  9
$DIMRND
 40
0.0
  9
$DIMDLE
 40
0.0
  9
$DIMEXE
 40
0.18
  9
$DIMTP
 40
0.0
  9
$DIMTM
 40
0.0
  9
$DIMTXT
 40
0.18
  9
$DIMCEN
 40
0.09
  9
$DIMTSZ
 40
0.0
  9
$DIMTOL
 70
     0
  9
$DIMLIM
 70
     0
  9
$DIMTIH
 70
     1
  9
$DIMTOH
 70
     1
  9
$DIMSE1
 70
     0
  9
$DIMSE2
 70
     0
  9
$DIMTAD
 70
     0
  9
$DIMZIN
 70
     0
  9
$DIMBLK
  1

  9
$DIMASO
 70
     1
  9
$DIMSHO
 70
     0
  9
$DIMPOST
  1

  9
$DIMAPOST
  1

  9
$DIMALT
 70
     0
  9
$DIMALTD
 70
     2
  9
$DIMALTF
 40
25.4
  9
$DIMLFAC
 40
1.0
  9
$DIMTOFL
 70
     0
  9
$DIMTVP
 40
0.0
  9
$DIMTIX
 70
     0
  9
$DIMSOXD
 70
     0
  9
$DIMSAH
 70
     0
  9
$DIMBLK1
  1

  9
$DIMBLK2
  1

  9
$DIMSTYLE
  2
STANDARD
  9
$DIMCLRD
 70
     0
  9
$DIMCLRE
 70
     0
  9
$DIMCLRT
 70
     0
  9
$DIMTFAC
 40
1.0
  9
$DIMGAP
 40
0.09
  9
$DIMJUST
 70
     0
  9
$DIMSD1
 70
     0
  9
$DIMSD2
 70
     0
  9
$DIMTOLJ
 70
     1
  9
$DIMTZIN
 70
     0
  9
$DIMALTZ
 70
     0
  9
$DIMALTTZ
 70
     0
  9
$DIMUPT
 70
     0
  9
$DIMDEC
 70
     4
  9
$DIMTDEC
 70
     4
  9
$DIMALTU
 70
     2
  9
$DIMALTTD
 70
     2
  9
$DIMTXSTY
  7
STANDARD
  9
$DIMAUNIT
 70
     0
  9
$DIMADEC
 70
     0
  9
$DIMALTRND
 40
0.0
  9
$DIMAZIN
 70
     0
  9
$DIMDSEP
 70
    46
  9
$DIMATFIT
 70
     3
  9
$DIMFRAC
 70
     0
  9
$DIMLDRBLK
  1

  9
$DIMLUNIT
 70
     2
  9
$DIMLWD
 70
    -2
  9
$DIMLWE
 70
    -2
  9
$DIMTMOVE
 70
     2
  9
$LUNITS
 70
     2
  9
$LUPREC
 70
     4
  9
$SKETCHINC
 40
0.1
  9
$FILLETRAD
 40
1.0
  9
$AUNITS
 70
     0
  9
$AUPREC
 70
     0
  9
$MENU
  1
c:\acadwin\support\acad
  9
$ELEVATION
 40
0.0
  9
$PELEVATION
 40
0.0
  9
$THICKNESS
 40
0.0
  9
$LIMCHECK
 70
     0
  9
$CHAMFERA
 40
0.0
  9
$CHAMFERB
 40
0.0
  9
$CHAMFERC
 40
0.0
  9
$CHAMFERD
 40
0.0
  9
$SKPOLY
 70
     0
  9
$TDCREATE
 40
2453068.802225289
  9
$TDUCREATE
 40
2453068.427225289
  9
$TDUPDATE
 40
2457185.495475104
  9
$TDUUPDATE
 40
2457185.120475104
  9
$TDINDWG
 40
0.0108892940
  9
$TDUSRTIMER
 40
0.0108892940
  9
$USRTIMER
 70
     1
  9
$ANGBASE
 50
0.0
  9
$ANGDIR
 70
     0
  9
$PDMODE
 70
     0
  9
$PDSIZE
 40
0.0
  9
$PLINEWID
 40
0.0
  9
$SPLFRAME
 70
     0
  9
$SPLINETYPE
 70
     6
  9
$SPLINESEGS
 70
     8
  9
$HANDSEED
  5
428
  9
$SURFTAB1
 70
     6
  9
$SURFTAB2
 70
     6
  9
$SURFTYPE
 70
     6
  9
$SURFU
 70
     6
  9
$SURFV
 70
     6
  9
$UCSBASE
  2

  9
$UCSNAME
  2

  9
$UCSORG
 10
0.0
 20
0.0
 30
0.0
  9
$UCSXDIR
 10
1.0
 20
0.0
 30
0.0
  9
$UCSYDIR
 10
0.0
 20
1.0
 30
0.0
  9
$UCSORTHOREF
  2

  9
$UCSORTHOVIEW
 70
     0
  9
$UCSORGTOP
 10
0.0
 20
0.0
 30
0.0
  9
$UCSORGBOTTOM
 10
0.0
 20
0.0
 30
0.0
  9
$UCSORGLEFT
 10
0.0
 20
0.0
 30
0.0
  9
$UCSORGRIGHT
 10
0.0
 20
0.0
 30
0.0
  9
$UCSORGFRONT
 10
0.0
 20
0.0
 30
0.0
  9
$UCSORGBACK
 10
0.0
 20
0.0
 30
0.0
  9
$PUCSBASE
  2

  9
$PUCSNAME
  2

  9
$PUCSORG
 10
0.0
 20
0.0
 30
0.0
  9
$PUCSXDIR
 10
1.0
 20
0.0
 30
0.0
  9
$PUCSYDIR
 10
0.0
 20
1.0
 30
0.0
  9
$PUCSORTHOREF
  2

  9
$PUCSORTHOVIEW
 70
     0
  9
$PUCSORGTOP
 10
0.0
 20
0.0
 30
0.0
  9
$PUCSORGBOTTOM
 10
0.0
 20
0.0
 30
0.0
  9
$PUCSORGLEFT
 10
0.0
 20
0.0
 30
0.0
  9
$PUCSORGRIGHT
 10
0.0
 20
0.0
 30
0.0
  9
$PUCSORGFRONT
 10
0.0
 20
0.0
 30
0.0
  9
$PUCSORGBACK
 10
0.0
 20
0.0
 30
0.0
  9
$USERI1
 70
     0
  9
$USERI2
 70
     0
  9
$USERI3
 70
     0
  9
$USERI4
 70
     0
  9
$USERI5
 70
     0
  9
$USERR1
 40
0.0
  9
$USERR2
 40
0.0
  9
$USERR3
 40
0.0
  9
$USERR4
 40
0.0
  9
$USERR5
 40
0.0
  9
$WORLDVIEW
 70
     1
  9
$SHADEDGE
 70
     3
  9
$SHADEDIF
 70
    70
  9
$TILEMODE
 70
     1
  9
$MAXACTVP
 70
    16
  9
$PINSBASE
 10
0.0
 20
0.0
 30
0.0
  9
$PLIMCHECK
 70
     0
  9
$PEXTMIN
 10
1.00000000E+20
 20
1.00000000E+20
 30
1.00000000E+20
  9
$PEXTMAX
 10
-1.00000000E+20
 20
-1.00000000E+20
 30
-1.00000000E+20
  9
$PLIMMIN
 10
0.0
 20
0.0
  9
$PLIMMAX
 10
12.0
 20
9.0
  9
$UNITMODE
 70
     0
  9
$VISRETAIN
 70
     0
  9
$PLINEGEN
 70
     0
  9
$PSLTSCALE
 70
     0
  9
$TREEDEPTH
 70
  3020
  9
$CMLSTYLE
  2
Standard
  9
$CMLJUST
 70
     0
  9
$CMLSCALE
 40
1.0
  9
$PROXYGRAPHICS
 70
     1
  9
$MEASUREMENT
 70
     1
  9
$CELWEIGHT
370
    -1
  9
$ENDCAPS
280
     0
  9
$JOINSTYLE
280
     0
  9
$LWDISPLAY
290
     0
  9
$INSUNITS
 70
     0
  9
$HYPERLINKBASE
  1

  9
$STYLESHEET
  1

  9
$XEDIT
290
     1
  9
$CEPSNTYPE
380
     0
  9
$PSTYLEMODE
290
     1
  9
$FINGERPRINTGUID
  2
{D957E16B-F337-4B73-9AC3-7FA29A862B1B}
  9
$VERSIONGUID
  2
{6C44211A-2DD5-4D9F-9B0D-648D0BADACE3}
  9
$EXTNAMES
290
     1
  9
$PSVPSCALE
 40
0.0
  9
$OLESTARTUP
290
     0
  9
$SORTENTS
280
   127
  9
$INDEXCTL
280
     0
  9
$HIDETEXT
280
     0
  9
$XCLIPFRAME
290
     0
  9
$HALOGAP
280
     0
  9
$OBSCOLOR
 70
   257
  9
$OBSLTYPE
280
     0
  9
$INTERSECTIONDISPLAY
280
     0
  9
$INTERSECTIONCOLOR
 70
   257
  9
$DIMASSOC
280
     1
  9
$PROJECTNAME
  1

  0
ENDSEC
  0
SECTION
  2
CLASSES
  0
CLASS
  1
ACDBDICTIONARYWDFLT
  2
AcDbDictionaryWithDefault
  3
ObjectDBX Classes
 90
        0
 91
        1
280
     0
281
     0
  0
CLASS
  1
MATERIAL
  2
AcDbMaterial
  3
ObjectDBX Classes
 90
     1153
 91
        3
280
     0
281
     0
  0
CLASS
  1
VISUALSTYLE
  2
AcDbVisualStyle
  3
ObjectDBX Classes
 90
     4095
 91
       24
280
     0
281
     0
  0
CLASS
  1
TABLESTYLE
  2
AcDbTableStyle
  3
ObjectDBX Classes
 90
     4095
 91
        1
280
     0
281
     0
  0
CLASS
  1
SCALE
  2
AcDbScale
  3
ObjectDBX Classes
 90
     1153
 91
       17
280
     0
281
     0
  0
CLASS
  1
MLEADERSTYLE
  2
AcDbMLeaderStyle
  3
ACDB_MLEADERSTYLE_CLASS
 90
     4095
 91
        1
280
     0
281
     0
  0
CLASS
  1
ACDBSECTIONVIEWSTYLE
  2
AcDbSectionViewStyle
  3
ObjectDBX Classes
 90
     1025
 91
        1
280
     0
281
     0
  0
CLASS
  1
ACDBDETAILVIEWSTYLE
  2
AcDbDetailViewStyle
  3
ObjectDBX Classes
 90
     1025
 91
        1
280
     0
281
     0
  0
CLASS
  1
CELLSTYLEMAP
  2
AcDbCellStyleMap
  3
ObjectDBX Classes
 90
     1152
 91
        2
280
     0
281
     0
  0
CLASS
  1
DICTIONARYVAR
  2
AcDbDictionaryVar
  3
ObjectDBX Classes
 90
        0
 91
        7
280
     0
281
     0
  0
ENDSEC
  0
SECTION
  2
TABLES
  0
TABLE
  2
VPORT
  5
2E0
330
0
100
AcDbSymbolTable
 70
     1
  0
VPORT
  5
34A
330
2E0
100
AcDbSymbolTableRecord
100
AcDbViewportTableRecord
  2
*ACTIVE
 70
     0
 10
0.0
 20
0.0
 11
1.0
 21
1.0
 12
14340.50795035
 22
10000.00013971
 13
0.0
 23
0.0
 14
1.0
 24
1.0
 15
10.0
 25
10.0
 16
0.0
 26
0.0
 36
1.0
 17
0.0
 27
0.0
 37
0.0
 40
21503.30364591
 41
1.34178905
 42
50.0
 43
0.0
 44
0.0
 50
0.0
 51
0.0
 71
     0
 72
   100
 73
     1
 74
     0
 75
     0
 76
     0
 77
     0
 78
     0
281
     0
 65
     1
110
0.0
120
0.0
130
0.0
111
1.0
121
0.0
131
0.0
112
0.0
122
1.0
132
0.0
 79
     0
146
0.0
1001
ACAD_NAV_VCDISPLAY
1070
     1
  0
ENDTAB
  0
TABLE
  2
LTYPE
  5
2DD
330
0
100
AcDbSymbolTable
 70
     2
  0
LTYPE
  5
2EB
330
2DD
100
AcDbSymbolTableRecord
100
AcDbLinetypeTableRecord
  2
ByBlock
 70
     0
  3

 72
    65
 73
     0
 40
0.0
  0
LTYPE
  5
2EC
330
2DD
100
AcDbSymbolTableRecord
100
AcDbLinetypeTableRecord
  2
ByLayer
 70
     0
  3

 72
    65
 73
     0
 40
0.0
  0
LTYPE
  5
2ED
330
2DD
100
AcDbSymbolTableRecord
100
AcDbLinetypeTableRecord
  2
CONTINUOUS
 70
     0
  3
Solid line
 72
    65
 73
     0
 40
0.0
  0
LTYPE
  5
2FC
330
2DD
100
AcDbSymbolTableRecord
100
AcDbLinetypeTableRecord
  2
CENTER
 70
     0
  3
____ _ ____ _ ____ _ ____ _ ____ _ ____ _ ____ 
 72
    65
 73
     4
 40
2.0
 49
1.25
 74
     0
 49
-0.25
 74
     0
 49
0.25
 74
     0
 49
-0.25
 74
     0
  0
ENDTAB
  0
TABLE
  2
LAYER
  5
2DA
330
0
100
AcDbSymbolTable
 70
    11
  0
LAYER
  5
2E8
330
2DA
100
AcDbSymbolTableRecord
100
AcDbLayerTableRecord
  2
0
 70
     0
 62
     7
  6
CONTINUOUS
370
    -3
390
2E7
  0
LAYER
  5
2FF
330
2DA
100
AcDbSymbolTableRecord
100
AcDbLayerTableRecord
  2
YKK_IN
 70
     0
 62
     1
  6
CONTINUOUS
370
    -3
390
2E7
  0
LAYER
  5
300
330
2DA
100
AcDbSymbolTableRecord
100
AcDbLayerTableRecord
  2
YKK_F1
 70
     0
 62
     7
  6
CONTINUOUS
370
    -3
390
2E7
  0
LAYER
  5
301
330
2DA
100
AcDbSymbolTableRecord
100
AcDbLayerTableRecord
  2
YKK_N1
 70
     0
 62
     2
  6
CONTINUOUS
370
    -3
390
2E7
  0
LAYER
  5
302
330
2DA
100
AcDbSymbolTableRecord
100
AcDbLayerTableRecord
  2
YKK_Z1
 70
     0
 62
     7
  6
CONTINUOUS
370
    -3
390
2E7
  0
LAYER
  5
303
330
2DA
100
AcDbSymbolTableRecord
100
AcDbLayerTableRecord
  2
YKK_A1
 70
     0
 62
     4
  6
CONTINUOUS
370
    -3
390
2E7
  0
LAYER
  5
304
330
2DA
100
AcDbSymbolTableRecord
100
AcDbLayerTableRecord
  2
YKK_A2
 70
     0
 62
     3
  6
CONTINUOUS
370
    -3
390
2E7
  0
LAYER
  5
305
330
2DA
100
AcDbSymbolTableRecord
100
AcDbLayerTableRecord
  2
YKK_B1
 70
     0
 62
     4
  6
CONTINUOUS
370
    -3
390
2E7
  0
LAYER
  5
306
330
2DA
100
AcDbSymbolTableRecord
100
AcDbLayerTableRecord
  2
YKK_C1
 70
     0
 62
     4
  6
CONTINUOUS
370
    -3
390
2E7
  0
LAYER
  5
307
330
2DA
100
AcDbSymbolTableRecord
100
AcDbLayerTableRecord
  2
YKK_B2
 70
     0
 62
     5
  6
CONTINUOUS
370
    -3
390
2E7
  0
LAYER
  5
308
330
2DA
100
AcDbSymbolTableRecord
100
AcDbLayerTableRecord
  2
YKK_C2
 70
     0
 62
     5
  6
CONTINUOUS
370
    -3
390
2E7
  0
ENDTAB
  0
TABLE
  2
STYLE
  5
2DB
330
0
100
AcDbSymbolTable
 70
     3
  0
STYLE
  5
2E9
330
2DB
100
AcDbSymbolTableRecord
100
AcDbTextStyleTableRecord
  2
STANDARD
 70
     0
 40
0.0
 41
1.0
 50
0.0
 71
     0
 42
0.2
  3
txt
  4

  0
STYLE
  5
2FA
330
2DB
100
AcDbSymbolTableRecord
100
AcDbTextStyleTableRecord
  2
EXTFONT
 70
     0
 40
60.0
 41
1.0
 50
0.0
 71
     0
 42
60.0
  3
txt.shx
  4
EXTFONT
  0
STYLE
  5
2FB
330
2DB
100
AcDbSymbolTableRecord
100
AcDbTextStyleTableRecord
  2
YKK_SGSTYLE1
 70
     0
 40
0.0
 41
0.8
 50
0.0
 71
     0
 42
60.0
  3
ROMANS.SHX
  4
EXTFONT.SHX
  0
ENDTAB
  0
TABLE
  2
VIEW
  5
2DE
330
0
100
AcDbSymbolTable
 70
     0
  0
ENDTAB
  0
TABLE
  2
UCS
  5
2DF
330
0
100
AcDbSymbolTable
 70
     0
  0
ENDTAB
  0
TABLE
  2
APPID
  5
2E1
330
0
100
AcDbSymbolTable
 70
     5
  0
APPID
  5
2EA
330
2E1
100
AcDbSymbolTableRecord
100
AcDbRegAppTableRecord
  2
ACAD
 70
     0
  0
APPID
  5
3D3
330
2E1
100
AcDbSymbolTableRecord
100
AcDbRegAppTableRecord
  2
ACAD_MLEADERVER
 70
     0
  0
APPID
  5
3E8
330
2E1
100
AcDbSymbolTableRecord
100
AcDbRegAppTableRecord
  2
ACAD_PSEXT
 70
     0
  0
APPID
  5
3E9
330
2E1
100
AcDbSymbolTableRecord
100
AcDbRegAppTableRecord
  2
ACAD_NAV_VCDISPLAY
 70
     0
  0
APPID
  5
3EA
330
2E1
100
AcDbSymbolTableRecord
100
AcDbRegAppTableRecord
  2
YKK_AP_LOCKLAYER
 70
     0
  0
ENDTAB
  0
TABLE
  2
DIMSTYLE
  5
2E2
330
0
100
AcDbSymbolTable
 70
     1
100
AcDbDimStyleTable
 71
     0
  0
DIMSTYLE
105
2FE
330
2E2
100
AcDbSymbolTableRecord
100
AcDbDimStyleTableRecord
  2
STANDARD
 70
     0
279
     2
340
2E9
  0
ENDTAB
  0
TABLE
  2
BLOCK_RECORD
  5
2D9
330
0
100
AcDbSymbolTable
 70
     0
  0
BLOCK_RECORD
  5
2F6
102
{ACAD_XDICTIONARY
360
312
102
}
330
2D9
100
AcDbSymbolTableRecord
100
AcDbBlockTableRecord
  2
*Model_Space
340
2F9
  0
BLOCK_RECORD
  5
2F2
102
{ACAD_XDICTIONARY
360
314
102
}
330
2D9
100
AcDbSymbolTableRecord
100
AcDbBlockTableRecord
  2
*Paper_Space
340
2F5
  0
ENDTAB
  0
ENDSEC
  0
SECTION
  2
BLOCKS
  0
BLOCK
  5
30B
330
2F6
100
AcDbEntity
  8
0
100
AcDbBlockBegin
  2
*Model_Space
 70
     0
 10
0.0
 20
0.0
 30
0.0
  3
*Model_Space
  1

  0
ENDBLK
  5
30C
330
2F6
100
AcDbEntity
  8
0
100
AcDbBlockEnd
  0
BLOCK
  5
309
330
2F2
100
AcDbEntity
 67
     1
  8
0
100
AcDbBlockBegin
  2
*Paper_Space
 70
     0
 10
0.0
 20
0.0
 30
0.0
  3
*Paper_Space
  1

  0
ENDBLK
  5
30A
330
2F2
100
AcDbEntity
 67
     1
  8
0
100
AcDbBlockEnd
  0
ENDSEC
  0
SECTION
  2
ENTITIES
  0
LINE
  5
1D
330
2F6
100
AcDbEntity
  8
YKK_F1
100
AcDbLine
 10
0.0
 20
19500.0
 30
0.0
 11
28500.0
 21
19500.0
 31
0.0
  0
LINE
  5
1F
330
2F6
100
AcDbEntity
  8
YKK_F1
100
AcDbLine
 10
0.0
 20
20000.0
 30
0.0
 11
28681.0155
 21
20000.0
 31
0.0
  0
LINE
  5
20
330
2F6
100
AcDbEntity
  8
YKK_F1
100
AcDbLine
 10
0.0
 20
0.0
 30
0.0
 11
28681.0155
 21
0.0
 31
0.0
  0
LINE
  5
21
330
2F6
100
AcDbEntity
  8
YKK_F1
100
AcDbLine
 10
0.0
 20
19050.0
 30
0.0
 11
28500.0
 21
19050.0
 31
0.0
  0
LINE
  5
22
330
2F6
100
AcDbEntity
  8
YKK_F1
100
AcDbLine
 10
0.0
 20
18600.0
 30
0.0
 11
28500.0
 21
18600.0
 31
0.0
  0
LINE
  5
23
330
2F6
100
AcDbEntity
  8
YKK_F1
100
AcDbLine
 10
0.0
 20
13000.0
 30
0.0
 11
28500.0
 21
13000.0
 31
0.0
  0
LINE
  5
24
330
2F6
100
AcDbEntity
  8
YKK_F1
100
AcDbLine
 10
0.0
 20
6500.0
 30
0.0
 11
28500.0
 21
6500.0
 31
0.0
  0
LINE
  5
25
330
2F6
100
AcDbEntity
  8
YKK_F1
100
AcDbLine
 10
0.0
 20
12550.0
 30
0.0
 11
28500.0
 21
12550.0
 31
0.0
  0
LINE
  5
26
330
2F6
100
AcDbEntity
  8
YKK_F1
100
AcDbLine
 10
0.0
 20
12100.0
 30
0.0
 11
28500.0
 21
12100.0
 31
0.0
  0
LINE
  5
27
330
2F6
100
AcDbEntity
  8
YKK_F1
100
AcDbLine
 10
0.0
 20
6050.0
 30
0.0
 11
28500.0
 21
6050.0
 31
0.0
  0
LINE
  5
28
330
2F6
100
AcDbEntity
  8
YKK_F1
100
AcDbLine
 10
0.0
 20
5600.0
 30
0.0
 11
28500.0
 21
5600.0
 31
0.0
  0
LINE
  5
29
330
2F6
100
AcDbEntity
  8
YKK_F1
100
AcDbLine
 10
0.0
 20
0.0
 30
0.0
 11
0.0
 21
20000.0
 31
0.0
  0
LINE
  5
2A
330
2F6
100
AcDbEntity
  8
YKK_F1
100
AcDbLine
 10
11400.0
 20
0.0
 30
0.0
 11
11400.0
 21
19500.0
 31
0.0
  0
LINE
  5
2B
330
2F6
100
AcDbEntity
  8
YKK_F1
100
AcDbLine
 10
5700.0
 20
0.0
 30
0.0
 11
5700.0
 21
19500.0
 31
0.0
  0
POINT
  5
2C
330
2F6
100
AcDbEntity
  8
YKK_C2
100
AcDbPoint
 10
0.0
 20
0.0
 30
0.0
  0
POINT
  5
2E
330
2F6
100
AcDbEntity
  8
YKK_B2
100
AcDbPoint
 10
0.0
 20
0.0
 30
0.0
  0
POINT
  5
30
330
2F6
100
AcDbEntity
  8
YKK_C1
100
AcDbPoint
 10
0.0
 20
0.0
 30
0.0
  0
POINT
  5
32
330
2F6
100
AcDbEntity
  8
YKK_B1
100
AcDbPoint
 10
0.0
 20
0.0
 30
0.0
  0
POINT
  5
34
330
2F6
100
AcDbEntity
  8
YKK_A2
100
AcDbPoint
 10
0.0
 20
0.0
 30
0.0
  0
POINT
  5
36
330
2F6
100
AcDbEntity
  8
YKK_A1
100
AcDbPoint
 10
0.0
 20
0.0
 30
0.0
  0
POINT
  5
38
330
2F6
100
AcDbEntity
  8
YKK_Z1
100
AcDbPoint
 10
0.0
 20
0.0
 30
0.0
  0
POINT
  5
3A
330
2F6
100
AcDbEntity
  8
YKK_N1
100
AcDbPoint
 10
0.0
 20
0.0
 30
0.0
  0
POINT
  5
3C
330
2F6
100
AcDbEntity
  8
YKK_F1
100
AcDbPoint
 10
0.0
 20
0.0
 30
0.0
  0
POINT
  5
3D
330
2F6
100
AcDbEntity
  8
YKK_IN
100
AcDbPoint
 10
0.0
 20
0.0
 30
0.0
  0
TEXT
  5
3F
330
2F6
100
AcDbEntity
  8
0
100
AcDbText
 10
500.0
 20
19625.0
 30
0.0
 40
250.0
  1
ＦＦＳ５ＦＸ２１　ＳＹＳＴＥＭＡ５２０ｅ　つらいち枠　ＦＩＸ窓
  7
EXTFONT
100
AcDbText
  0
LINE
  5
41
330
2F6
100
AcDbEntity
  8
YKK_N1
  6
Continuous
100
AcDbLine
 10
4512.49993581
 20
16025.6907475
 30
0.0
 11
4512.49993581
 21
17175.6907475
 31
0.0
  0
LINE
  5
42
330
2F6
100
AcDbEntity
  8
YKK_C1
100
AcDbLine
 10
3877.49993556
 20
17165.69074486
 30
0.0
 11
3877.49993581
 21
16035.69074704
 31
0.0
  0
LINE
  5
43
330
2F6
100
AcDbEntity
  8
YKK_C1
100
AcDbLine
 10
3977.49993581
 20
16035.69074704
 30
0.0
 11
3977.49993581
 21
17165.69074486
 31
0.0
  0
LINE
  5
44
330
2F6
100
AcDbEntity
  8
YKK_C1
100
AcDbLine
 10
3898.49996633
 20
16010.69066439
 30
0.0
 11
3898.49996633
 21
17190.69074486
 31
0.0
  0
LINE
  5
45
330
2F6
100
AcDbEntity
  8
YKK_C1
100
AcDbLine
 10
3922.49996633
 20
17190.69074486
 30
0.0
 11
3922.49996633
 21
16010.69082968
 31
0.0
  0
LINE
  5
46
330
2F6
100
AcDbEntity
  8
YKK_N1
  6
Continuous
100
AcDbLine
 10
3212.49993581
 20
16025.6907475
 30
0.0
 11
3212.49993581
 21
17675.6907475
 31
0.0
  0
LINE
  5
47
330
2F6
100
AcDbEntity
  8
YKK_Z1
  6
Continuous
100
AcDbLine
 10
4132.49993581
 20
17685.69069976
 30
0.0
 11
4132.49993581
 21
16020.69074704
 31
0.0
  0
LINE
  5
48
330
2F6
100
AcDbEntity
  8
YKK_N1
  6
Continuous
100
AcDbLine
 10
4712.49993581
 20
16025.6907475
 30
0.0
 11
4712.49993581
 21
17675.6907475
 31
0.0
  0
LINE
  5
49
330
2F6
100
AcDbEntity
  8
YKK_N1
  6
Continuous
100
AcDbLine
 10
3012.49993581
 20
16025.6907475
 30
0.0
 11
3012.49993581
 21
17175.6907475
 31
0.0
  0
LINE
  5
4A
330
2F6
100
AcDbEntity
  8
YKK_A1
100
AcDbLine
 10
1834.99983915
 20
17680.6907475
 30
0.0
 11
1834.99983915
 21
16025.6907475
 31
0.0
  0
LINE
  5
4B
330
2F6
100
AcDbEntity
  8
YKK_A1
100
AcDbLine
 10
1779.99984243
 20
17680.6907475
 30
0.0
 11
1779.99984243
 21
16025.69081436
 31
0.0
  0
LINE
  5
4C
330
2F6
100
AcDbEntity
  8
YKK_A1
100
AcDbLine
 10
1007.49990204
 20
17680.6907475
 30
0.0
 11
1007.49990204
 21
16025.69081436
 31
0.0
  0
LINE
  5
4D
330
2F6
100
AcDbEntity
  8
YKK_A1
100
AcDbLine
 10
1002.50006007
 20
17680.6907475
 30
0.0
 11
1002.50006007
 21
16025.6907475
 31
0.0
  0
LINE
  5
4E
330
2F6
100
AcDbEntity
  8
YKK_A1
100
AcDbLine
 10
2607.49977955
 20
16025.6907475
 30
0.0
 11
2607.49977955
 21
17680.6907475
 31
0.0
  0
LINE
  5
4F
330
2F6
100
AcDbEntity
  8
YKK_A1
100
AcDbLine
 10
2612.49993993
 20
17680.6907475
 30
0.0
 11
2612.49993993
 21
16025.6907475
 31
0.0
  0
LINE
  5
50
330
2F6
100
AcDbEntity
  8
YKK_Z1
  6
Continuous
100
AcDbLine
 10
897.50004968
 20
14355.6907475
 30
0.0
 11
877.50004621
 21
14375.6907475
 31
0.0
  0
LINE
  5
51
330
2F6
100
AcDbEntity
  8
YKK_Z1
  6
Continuous
100
AcDbLine
 10
897.50009125
 20
14375.6907475
 30
0.0
 11
877.50010164
 21
14355.6907475
 31
0.0
  0
LINE
  5
52
330
2F6
100
AcDbEntity
  8
YKK_Z1
  6
Continuous
100
AcDbLine
 10
987.50006007
 20
14335.6907475
 30
0.0
 11
607.50006007
 21
14335.6907475
 31
0.0
  0
LINE
  5
53
330
2F6
100
AcDbEntity
  8
YKK_Z1
  6
Continuous
100
AcDbLine
 10
607.50006007
 20
14375.6907475
 30
0.0
 11
957.50006007
 21
14375.6907475
 31
0.0
  0
LINE
  5
54
330
2F6
100
AcDbEntity
  8
YKK_Z1
  6
Continuous
100
AcDbLine
 10
957.50006007
 20
14355.6907475
 30
0.0
 11
607.50006007
 21
14355.6907475
 31
0.0
  0
LINE
  5
55
330
2F6
100
AcDbEntity
  8
YKK_Z1
  6
Continuous
100
AcDbLine
 10
607.50006007
 20
14348.1907475
 30
0.0
 11
987.50006007
 21
14348.1907475
 31
0.0
  0
LINE
  5
56
330
2F6
100
AcDbEntity
  8
YKK_Z1
  6
CENTER
100
AcDbLine
 10
970.00006007
 20
14465.6907475
 30
0.0
 11
607.50006007
 21
14465.6907475
 31
0.0
  0
LINE
  5
58
330
2F6
100
AcDbEntity
  8
YKK_Z1
  6
Continuous
100
AcDbLine
 10
957.50006007
 20
14555.6907475
 30
0.0
 11
607.50006007
 21
14555.6907475
 31
0.0
  0
LINE
  5
59
330
2F6
100
AcDbEntity
  8
YKK_Z1
  6
Continuous
100
AcDbLine
 10
957.50006007
 20
14570.6907475
 30
0.0
 11
607.50006007
 21
14570.6907475
 31
0.0
  0
LINE
  5
5A
330
2F6
100
AcDbEntity
  8
YKK_Z1
  6
Continuous
100
AcDbLine
 10
957.50006007
 20
14562.6907475
 30
0.0
 11
607.50006007
 21
14562.6907475
 31
0.0
  0
TEXT
  5
5B
330
2F6
100
AcDbEntity
  8
YKK_N1
  6
Continuous
100
AcDbText
 10
743.68855702
 20
13737.6907475
 30
0.0
 40
60.0
  1
21.5
100
AcDbText
  0
LINE
  5
5C
330
2F6
100
AcDbEntity
  8
YKK_Z1
  6
Continuous
100
AcDbLine
 10
617.50000118
 20
14355.6907475
 30
0.0
 11
607.50006007
 21
14365.69068688
 31
0.0
  0
LINE
  5
5D
330
2F6
100
AcDbEntity
  8
YKK_Z1
  6
Continuous
100
AcDbLine
 10
617.50023674
 20
14375.6907475
 30
0.0
 11
607.50006007
 21
14365.69056564
 31
0.0
  0
LINE
  5
5E
330
2F6
100
AcDbEntity
  8
YKK_Z1
  6
Continuous
100
AcDbLine
 10
787.49996654
 20
14555.6907475
 30
0.0
 11
607.50006007
 21
14375.6907475
 31
0.0
  0
LINE
  5
5F
330
2F6
100
AcDbEntity
  8
YKK_Z1
  6
Continuous
100
AcDbLine
 10
795.98524424
 20
14555.6907475
 30
0.0
 11
615.98533777
 21
14375.6907475
 31
0.0
  0
LINE
  5
60
330
2F6
100
AcDbEntity
  8
YKK_Z1
  6
Continuous
100
AcDbLine
 10
847.50006007
 20
14570.6907475
 30
0.0
 11
847.50006007
 21
14562.6907475
 31
0.0
  0
LINE
  5
61
330
2F6
100
AcDbEntity
  8
YKK_Z1
  6
Continuous
100
AcDbLine
 10
857.50006007
 20
14570.6907475
 30
0.0
 11
857.50006007
 21
14562.6907475
 31
0.0
  0
LINE
  5
62
330
2F6
100
AcDbEntity
  8
YKK_Z1
  6
Continuous
100
AcDbLine
 10
747.50006007
 20
14570.6907475
 30
0.0
 11
747.50006007
 21
14562.6907475
 31
0.0
  0
LINE
  5
63
330
2F6
100
AcDbEntity
  8
YKK_Z1
  6
Continuous
100
AcDbLine
 10
737.50006007
 20
14570.6907475
 30
0.0
 11
737.50006007
 21
14562.6907475
 31
0.0
  0
LINE
  5
64
330
2F6
100
AcDbEntity
  8
YKK_Z1
  6
Continuous
100
AcDbLine
 10
637.50006007
 20
14570.6907475
 30
0.0
 11
637.50006007
 21
14562.6907475
 31
0.0
  0
LINE
  5
65
330
2F6
100
AcDbEntity
  8
YKK_Z1
  6
Continuous
100
AcDbLine
 10
627.50006007
 20
14570.6907475
 30
0.0
 11
627.50006007
 21
14562.6907475
 31
0.0
  0
LINE
  5
66
330
2F6
100
AcDbEntity
  8
YKK_Z1
  6
Continuous
100
AcDbLine
 10
857.50004275
 20
14355.6907475
 30
0.0
 11
837.50003929
 21
14375.6907475
 31
0.0
  0
LINE
  5
67
330
2F6
100
AcDbEntity
  8
YKK_Z1
  6
Continuous
100
AcDbLine
 10
857.50011203
 20
14375.6907475
 30
0.0
 11
837.50012242
 21
14355.6907475
 31
0.0
  0
LINE
  5
68
330
2F6
100
AcDbEntity
  8
YKK_Z1
  6
Continuous
100
AcDbLine
 10
837.50003929
 20
14355.6907475
 30
0.0
 11
817.50003582
 21
14375.6907475
 31
0.0
  0
LINE
  5
69
330
2F6
100
AcDbEntity
  8
YKK_Z1
  6
Continuous
100
AcDbLine
 10
837.50012242
 20
14375.6907475
 30
0.0
 11
817.50013282
 21
14355.6907475
 31
0.0
  0
LINE
  5
6A
330
2F6
100
AcDbEntity
  8
YKK_Z1
  6
Continuous
100
AcDbLine
 10
797.50003236
 20
14355.6907475
 30
0.0
 11
777.50002889
 21
14375.6907475
 31
0.0
  0
LINE
  5
6B
330
2F6
100
AcDbEntity
  8
YKK_Z1
  6
Continuous
100
AcDbLine
 10
777.50002889
 20
14355.6907475
 30
0.0
 11
757.50002543
 21
14375.6907475
 31
0.0
  0
LINE
  5
6C
330
2F6
100
AcDbEntity
  8
YKK_Z1
  6
Continuous
100
AcDbLine
 10
797.50014321
 20
14375.6907475
 30
0.0
 11
777.5001536
 21
14355.6907475
 31
0.0
  0
LINE
  5
6D
330
2F6
100
AcDbEntity
  8
YKK_Z1
  6
Continuous
100
AcDbLine
 10
777.5001536
 20
14375.6907475
 30
0.0
 11
757.50016399
 21
14355.6907475
 31
0.0
  0
LINE
  5
6E
330
2F6
100
AcDbEntity
  8
YKK_Z1
  6
Continuous
100
AcDbLine
 10
817.50003582
 20
14355.6907475
 30
0.0
 11
797.50003236
 21
14375.6907475
 31
0.0
  0
LINE
  5
6F
330
2F6
100
AcDbEntity
  8
YKK_Z1
  6
Continuous
100
AcDbLine
 10
817.50013282
 20
14375.6907475
 30
0.0
 11
797.50014321
 21
14355.6907475
 31
0.0
  0
LINE
  5
70
330
2F6
100
AcDbEntity
  8
YKK_Z1
  6
Continuous
100
AcDbLine
 10
717.5000185
 20
14355.6907475
 30
0.0
 11
697.50001504
 21
14375.6907475
 31
0.0
  0
LINE
  5
71
330
2F6
100
AcDbEntity
  8
YKK_Z1
  6
Continuous
100
AcDbLine
 10
717.50018478
 20
14375.6907475
 30
0.0
 11
697.50019517
 21
14355.6907475
 31
0.0
  0
LINE
  5
72
330
2F6
100
AcDbEntity
  8
YKK_Z1
  6
Continuous
100
AcDbLine
 10
737.50002197
 20
14355.6907475
 30
0.0
 11
717.5000185
 21
14375.6907475
 31
0.0
  0
LINE
  5
73
330
2F6
100
AcDbEntity
  8
YKK_Z1
  6
Continuous
100
AcDbLine
 10
737.50017439
 20
14375.6907475
 30
0.0
 11
717.50018478
 21
14355.6907475
 31
0.0
  0
LINE
  5
74
330
2F6
100
AcDbEntity
  8
YKK_Z1
  6
Continuous
100
AcDbLine
 10
697.50001504
 20
14355.6907475
 30
0.0
 11
677.50001157
 21
14375.6907475
 31
0.0
  0
LINE
  5
75
330
2F6
100
AcDbEntity
  8
YKK_Z1
  6
Continuous
100
AcDbLine
 10
697.50019517
 20
14375.6907475
 30
0.0
 11
677.50020556
 21
14355.6907475
 31
0.0
  0
LINE
  5
76
330
2F6
100
AcDbEntity
  8
YKK_Z1
  6
Continuous
100
AcDbLine
 10
757.50002543
 20
14355.6907475
 30
0.0
 11
737.50002197
 21
14375.6907475
 31
0.0
  0
LINE
  5
77
330
2F6
100
AcDbEntity
  8
YKK_Z1
  6
Continuous
100
AcDbLine
 10
757.50016399
 20
14375.6907475
 30
0.0
 11
737.50017439
 21
14355.6907475
 31
0.0
  0
LINE
  5
78
330
2F6
100
AcDbEntity
  8
YKK_Z1
  6
Continuous
100
AcDbLine
 10
877.50004621
 20
14355.6907475
 30
0.0
 11
857.50004275
 21
14375.6907475
 31
0.0
  0
LINE
  5
79
330
2F6
100
AcDbEntity
  8
YKK_Z1
  6
Continuous
100
AcDbLine
 10
877.50010164
 20
14375.6907475
 30
0.0
 11
857.50011203
 21
14355.6907475
 31
0.0
  0
LINE
  5
7A
330
2F6
100
AcDbEntity
  8
YKK_Z1
  6
Continuous
100
AcDbLine
 10
657.50000811
 20
14355.6907475
 30
0.0
 11
637.50000465
 21
14375.6907475
 31
0.0
  0
LINE
  5
7B
330
2F6
100
AcDbEntity
  8
YKK_Z1
  6
Continuous
100
AcDbLine
 10
657.50021596
 20
14375.6907475
 30
0.0
 11
637.50022635
 21
14355.6907475
 31
0.0
  0
LINE
  5
7C
330
2F6
100
AcDbEntity
  8
YKK_Z1
  6
Continuous
100
AcDbLine
 10
637.50000465
 20
14355.6907475
 30
0.0
 11
617.50000118
 21
14375.6907475
 31
0.0
  0
LINE
  5
7D
330
2F6
100
AcDbEntity
  8
YKK_Z1
  6
Continuous
100
AcDbLine
 10
637.50022635
 20
14375.6907475
 30
0.0
 11
617.50023674
 21
14355.6907475
 31
0.0
  0
LINE
  5
7E
330
2F6
100
AcDbEntity
  8
YKK_Z1
  6
Continuous
100
AcDbLine
 10
677.50001157
 20
14355.6907475
 30
0.0
 11
657.50000811
 21
14375.6907475
 31
0.0
  0
LINE
  5
7F
330
2F6
100
AcDbEntity
  8
YKK_Z1
  6
Continuous
100
AcDbLine
 10
677.50020556
 20
14375.6907475
 30
0.0
 11
657.50021596
 21
14355.6907475
 31
0.0
  0
LINE
  5
80
330
2F6
100
AcDbEntity
  8
YKK_Z1
  6
Continuous
100
AcDbLine
 10
815.78422554
 20
14555.6907475
 30
0.0
 11
635.78431907
 21
14375.6907475
 31
0.0
  0
LINE
  5
81
330
2F6
100
AcDbEntity
  8
YKK_N1
  6
Continuous
100
AcDbLine
 10
2692.49993581
 20
16025.6907475
 30
0.0
 11
3212.49993581
 21
16025.6907475
 31
0.0
  0
LINE
  5
82
330
2F6
100
AcDbEntity
  8
YKK_Z1
  6
CENTER
100
AcDbLine
 10
3112.49993581
 20
15325.6907475
 30
0.0
 11
3612.49993581
 21
15325.6907475
 31
0.0
  0
TEXT
  5
83
330
2F6
100
AcDbEntity
  8
YKK_N1
  6
Continuous
100
AcDbText
 10
2182.40024024
 20
14605.69073214
 30
0.0
 40
60.0
  1
100
 50
90.0
100
AcDbText
  0
LINE
  5
84
330
2F6
100
AcDbEntity
  8
YKK_B1
100
AcDbLine
 10
1845.0
 20
14580.69073214
 30
0.0
 11
2597.49993993
 21
14580.69073214
 31
0.0
  0
LINE
  5
85
330
2F6
100
AcDbEntity
  8
YKK_B1
100
AcDbLine
 10
2597.49993993
 20
14480.6907475
 30
0.0
 11
1845.0
 21
14480.6907475
 31
0.0
  0
LINE
  5
86
330
2F6
100
AcDbEntity
  8
YKK_B1
100
AcDbLine
 10
1820.0
 20
14559.6907475
 30
0.0
 11
2622.49981287
 21
14559.6907475
 31
0.0
  0
LINE
  5
87
330
2F6
100
AcDbEntity
  8
YKK_B1
100
AcDbLine
 10
2622.49965764
 20
14535.6907475
 30
0.0
 11
1820.0
 21
14535.6907475
 31
0.0
  0
LINE
  5
88
330
2F6
100
AcDbEntity
  8
YKK_N1
  6
Continuous
100
AcDbLine
 10
1835.00006128
 20
13925.6907475
 30
0.0
 11
2607.50006128
 21
13925.6907475
 31
0.0
  0
LINE
  5
89
330
2F6
100
AcDbEntity
  8
YKK_N1
  6
Continuous
100
AcDbLine
 10
1007.50006128
 20
13725.6907475
 30
0.0
 11
2607.50006128
 21
13725.6907475
 31
0.0
  0
LINE
  5
8A
330
2F6
100
AcDbEntity
  8
YKK_Z1
  6
Continuous
100
AcDbLine
 10
2612.49993993
 20
14325.6907475
 30
0.0
 11
1807.49993993
 21
14325.6907475
 31
0.0
  0
TEXT
  5
8B
330
2F6
100
AcDbEntity
  8
YKK_N1
  6
Continuous
100
AcDbText
 10
1749.67204355
 20
13850.90595057
 30
0.0
 40
60.0
  1
55
100
AcDbText
  0
LINE
  5
8C
330
2F6
100
AcDbEntity
  8
YKK_N1
  6
Continuous
100
AcDbLine
 10
1007.50006128
 20
14265.6907475
 30
0.0
 11
1007.50006128
 21
13725.6907475
 31
0.0
  0
LINE
  5
8D
330
2F6
100
AcDbEntity
  8
YKK_N1
  6
Continuous
100
AcDbLine
 10
982.50006128
 20
14265.6907475
 30
0.0
 11
982.50006128
 21
13725.6907475
 31
0.0
  0
LINE
  5
8E
330
2F6
100
AcDbEntity
  8
YKK_N1
  6
Continuous
100
AcDbLine
 10
961.00006128
 20
14265.6907475
 30
0.0
 11
961.00006128
 21
13725.6907475
 31
0.0
  0
CIRCLE
  5
8F
330
2F6
100
AcDbEntity
  8
YKK_N1
100
AcDbCircle
 10
982.50006128
 20
13725.6907475
 30
0.0
 40
6.5
  0
CIRCLE
  5
90
330
2F6
100
AcDbEntity
  8
YKK_N1
100
AcDbCircle
 10
982.50006128
 20
13725.6907475
 30
0.0
 40
10.0
  0
CIRCLE
  5
91
330
2F6
100
AcDbEntity
  8
YKK_N1
100
AcDbCircle
 10
961.00006128
 20
13725.6907475
 30
0.0
 40
6.5
  0
CIRCLE
  5
92
330
2F6
100
AcDbEntity
  8
YKK_N1
100
AcDbCircle
 10
961.00006128
 20
13725.6907475
 30
0.0
 40
10.0
  0
LINE
  5
93
330
2F6
100
AcDbEntity
  8
YKK_N1
  6
Continuous
100
AcDbLine
 10
982.50006128
 20
13725.6907475
 30
0.0
 11
1007.50006128
 21
13725.6907475
 31
0.0
  0
LINE
  5
94
330
2F6
100
AcDbEntity
  8
YKK_N1
  6
Continuous
100
AcDbLine
 10
1094.10260166
 20
13775.6907475
 30
0.0
 11
1007.50006128
 21
13725.6907475
 31
0.0
  0
LINE
  5
95
330
2F6
100
AcDbEntity
  8
YKK_N1
  6
Continuous
100
AcDbLine
 10
1094.10260166
 20
13775.6907475
 30
0.0
 11
1094.10260166
 21
13675.6907475
 31
0.0
  0
LINE
  5
96
330
2F6
100
AcDbEntity
  8
YKK_N1
  6
Continuous
100
AcDbLine
 10
1007.50006128
 20
13725.6907475
 30
0.0
 11
1094.10260166
 21
13675.6907475
 31
0.0
  0
LINE
  5
97
330
2F6
100
AcDbEntity
  8
YKK_N1
100
AcDbLine
 10
982.50006128
 20
13725.6907475
 30
0.0
 11
961.00006128
 21
13725.6907475
 31
0.0
  0
TEXT
  5
98
330
2F6
100
AcDbEntity
  8
YKK_N1
  6
Continuous
100
AcDbText
 10
931.5921985
 20
13622.9917338
 30
0.0
 40
60.0
  1
25
100
AcDbText
  0
TEXT
  5
99
330
2F6
100
AcDbEntity
  8
YKK_N1
  6
Continuous
100
AcDbText
 10
1601.30267677
 20
13737.6907475
 30
0.0
 40
60.0
  1
W=1600
100
AcDbText
  0
LINE
  5
9A
330
2F6
100
AcDbEntity
  8
YKK_B1
100
AcDbLine
 10
1017.50006007
 20
14580.69073214
 30
0.0
 11
1770.0
 21
14580.69073214
 31
0.0
  0
LINE
  5
9B
330
2F6
100
AcDbEntity
  8
YKK_B1
100
AcDbLine
 10
1770.0
 20
14480.6907475
 30
0.0
 11
1017.50006007
 21
14480.6907475
 31
0.0
  0
LINE
  5
9C
330
2F6
100
AcDbEntity
  8
YKK_B1
100
AcDbLine
 10
992.50019537
 20
14559.6907475
 30
0.0
 11
1795.0
 21
14559.6907475
 31
0.0
  0
LINE
  5
9D
330
2F6
100
AcDbEntity
  8
YKK_B1
100
AcDbLine
 10
1795.0
 20
14535.6907475
 30
0.0
 11
992.50036066
 21
14535.6907475
 31
0.0
  0
LINE
  5
9E
330
2F6
100
AcDbEntity
  8
YKK_Z1
  6
Continuous
100
AcDbLine
 10
1002.50006007
 20
14325.6907475
 30
0.0
 11
1807.50006007
 21
14325.6907475
 31
0.0
  0
TEXT
  5
9F
330
2F6
100
AcDbEntity
  8
YKK_N1
  6
Continuous
100
AcDbText
 10
1253.4630236
 20
13937.6907475
 30
0.0
 40
60.0
  1
772.5
100
AcDbText
  0
LINE
  5
A0
330
2F6
100
AcDbEntity
  8
YKK_N1
  6
Continuous
100
AcDbLine
 10
1007.50006128
 20
13925.6907475
 30
0.0
 11
1780.00006128
 21
13925.6907475
 31
0.0
  0
CIRCLE
  5
A1
330
2F6
100
AcDbEntity
  8
YKK_N1
100
AcDbCircle
 10
1007.50006128
 20
13925.6907475
 30
0.0
 40
6.5
  0
CIRCLE
  5
A2
330
2F6
100
AcDbEntity
  8
YKK_N1
100
AcDbCircle
 10
1007.50006128
 20
13925.6907475
 30
0.0
 40
10.0
  0
LINE
  5
A3
330
2F6
100
AcDbEntity
  8
YKK_B1
100
AcDbLine
 10
1007.50006007
 20
14580.6907475
 30
0.0
 11
1007.50006007
 21
14566.6907475
 31
0.0
  0
LINE
  5
A4
330
2F6
100
AcDbEntity
  8
YKK_B1
100
AcDbLine
 10
972.50006007
 20
14568.6907475
 30
0.0
 11
972.50006007
 21
14580.6907475
 31
0.0
  0
LINE
  5
A5
330
2F6
100
AcDbEntity
  8
YKK_B1
100
AcDbLine
 10
982.50006007
 20
14516.6907475
 30
0.0
 11
982.50006007
 21
14528.6907475
 31
0.0
  0
LINE
  5
A6
330
2F6
100
AcDbEntity
  8
YKK_B1
100
AcDbLine
 10
1007.50006007
 20
14480.6907475
 30
0.0
 11
982.50006007
 21
14480.6907475
 31
0.0
  0
LINE
  5
A7
330
2F6
100
AcDbEntity
  8
YKK_B1
100
AcDbLine
 10
1007.50006007
 20
14528.6907475
 30
0.0
 11
1007.50006007
 21
14480.6907475
 31
0.0
  0
LINE
  5
A8
330
2F6
100
AcDbEntity
  8
YKK_B1
100
AcDbLine
 10
982.50006007
 20
14480.6907475
 30
0.0
 11
982.50006007
 21
14490.6907475
 31
0.0
  0
LINE
  5
A9
330
2F6
100
AcDbEntity
  8
YKK_B1
100
AcDbLine
 10
961.00006007
 20
14525.6907475
 30
0.0
 11
971.00006007
 21
14525.6907475
 31
0.0
  0
LINE
  5
AA
330
2F6
100
AcDbEntity
  8
YKK_B1
100
AcDbLine
 10
971.00006007
 20
14525.6907475
 30
0.0
 11
971.00006007
 21
14567.1907475
 31
0.0
  0
LINE
  5
AB
330
2F6
100
AcDbEntity
  8
YKK_B1
100
AcDbLine
 10
971.00006007
 20
14567.1907475
 30
0.0
 11
972.50006007
 21
14568.6907475
 31
0.0
  0
LINE
  5
AC
330
2F6
100
AcDbEntity
  8
YKK_Z1
  6
Continuous
100
AcDbLine
 10
972.50006007
 20
14570.6907475
 30
0.0
 11
957.50006007
 21
14570.6907475
 31
0.0
  0
LINE
  5
AD
330
2F6
100
AcDbEntity
  8
YKK_Z1
  6
Continuous
100
AcDbLine
 10
957.50006007
 20
14570.6907475
 30
0.0
 11
957.50006007
 21
14562.6907475
 31
0.0
  0
LINE
  5
AE
330
2F6
100
AcDbEntity
  8
YKK_B1
100
AcDbLine
 10
1007.50006007
 20
14566.6907475
 30
0.0
 11
971.00006007
 21
14566.6907475
 31
0.0
  0
LINE
  5
AF
330
2F6
100
AcDbEntity
  8
YKK_B1
100
AcDbLine
 10
971.00006007
 20
14528.6907475
 30
0.0
 11
1007.50006007
 21
14528.6907475
 31
0.0
  0
LINE
  5
B0
330
2F6
100
AcDbEntity
  8
YKK_B1
100
AcDbLine
 10
972.50006007
 20
14580.6907475
 30
0.0
 11
1007.50006007
 21
14580.6907475
 31
0.0
  0
LINE
  5
B1
330
2F6
100
AcDbEntity
  8
YKK_Z1
  6
Continuous
100
AcDbLine
 10
987.50006007
 20
14348.1907475
 30
0.0
 11
987.50006007
 21
14335.6907475
 31
0.0
  0
LINE
  5
B2
330
2F6
100
AcDbEntity
  8
YKK_Z1
100
AcDbLine
 10
977.50006007
 20
14325.6907475
 30
0.0
 11
977.50006007
 21
14335.6907475
 31
0.0
  0
LINE
  5
B3
330
2F6
100
AcDbEntity
  8
YKK_Z1
100
AcDbLine
 10
1002.50006007
 20
14325.6907475
 30
0.0
 11
977.50006007
 21
14325.6907475
 31
0.0
  0
LINE
  5
B4
330
2F6
100
AcDbEntity
  8
YKK_Z1
  6
Continuous
100
AcDbLine
 10
957.50006007
 20
14375.6907475
 30
0.0
 11
957.50006007
 21
14355.6907475
 31
0.0
  0
LINE
  5
B6
330
2F6
100
AcDbEntity
  8
YKK_Z1
  6
Continuous
100
AcDbLine
 10
917.50005314
 20
14355.6907475
 30
0.0
 11
897.50004968
 21
14375.6907475
 31
0.0
  0
LINE
  5
B7
330
2F6
100
AcDbEntity
  8
YKK_Z1
  6
Continuous
100
AcDbLine
 10
917.50008086
 20
14375.6907475
 30
0.0
 11
897.50009125
 21
14355.6907475
 31
0.0
  0
LINE
  5
B8
330
2F6
100
AcDbEntity
  8
YKK_Z1
  6
Continuous
100
AcDbLine
 10
937.50005661
 20
14355.6907475
 30
0.0
 11
917.50005314
 21
14375.6907475
 31
0.0
  0
LINE
  5
B9
330
2F6
100
AcDbEntity
  8
YKK_Z1
  6
Continuous
100
AcDbLine
 10
937.50007046
 20
14375.6907475
 30
0.0
 11
917.50008086
 21
14355.6907475
 31
0.0
  0
LINE
  5
BA
330
2F6
100
AcDbEntity
  8
YKK_Z1
  6
Continuous
100
AcDbLine
 10
957.50006007
 20
14355.6907475
 30
0.0
 11
937.50005661
 21
14375.6907475
 31
0.0
  0
LINE
  5
BB
330
2F6
100
AcDbEntity
  8
YKK_Z1
  6
Continuous
100
AcDbLine
 10
957.50006007
 20
14375.6907475
 30
0.0
 11
937.50007046
 21
14355.6907475
 31
0.0
  0
LINE
  5
BC
330
2F6
100
AcDbEntity
  8
YKK_Z1
100
AcDbLine
 10
1002.50006007
 20
14480.6907475
 30
0.0
 11
1002.50006007
 21
14325.6907475
 31
0.0
  0
LINE
  5
BD
330
2F6
100
AcDbEntity
  8
YKK_Z1
  6
Continuous
100
AcDbLine
 10
957.50006007
 20
14375.6907475
 30
0.0
 11
957.50006007
 21
14555.6907475
 31
0.0
  0
LINE
  5
BE
330
2F6
100
AcDbEntity
  8
YKK_Z1
  6
Continuous
100
AcDbLine
 10
957.50006007
 20
14400.42178185
 30
0.0
 11
932.76903857
 21
14375.6907475
 31
0.0
  0
LINE
  5
BF
330
2F6
100
AcDbEntity
  8
YKK_Z1
  6
Continuous
100
AcDbLine
 10
957.50006007
 20
14428.70605555
 30
0.0
 11
904.48477957
 21
14375.6907475
 31
0.0
  0
LINE
  5
C0
330
2F6
100
AcDbEntity
  8
YKK_Z1
  6
Continuous
100
AcDbLine
 10
957.50006007
 20
14420.22077344
 30
0.0
 11
912.97005727
 21
14375.6907475
 31
0.0
  0
CIRCLE
  5
C1
330
2F6
100
AcDbEntity
  8
YKK_N1
100
AcDbCircle
 10
1835.00006128
 20
13925.6907475
 30
0.0
 40
6.5
  0
CIRCLE
  5
C2
330
2F6
100
AcDbEntity
  8
YKK_N1
100
AcDbCircle
 10
1835.00006128
 20
13925.6907475
 30
0.0
 40
10.0
  0
CIRCLE
  5
C3
330
2F6
100
AcDbEntity
  8
YKK_N1
100
AcDbCircle
 10
1780.00006128
 20
13925.6907475
 30
0.0
 40
6.5
  0
CIRCLE
  5
C4
330
2F6
100
AcDbEntity
  8
YKK_N1
100
AcDbCircle
 10
1780.00006128
 20
13925.6907475
 30
0.0
 40
10.0
  0
LINE
  5
C5
330
2F6
100
AcDbEntity
  8
YKK_N1
100
AcDbLine
 10
1835.00006128
 20
13925.6907475
 30
0.0
 11
1780.00006128
 21
13925.6907475
 31
0.0
  0
LINE
  5
C6
330
2F6
100
AcDbEntity
  8
YKK_N1
  6
Continuous
100
AcDbLine
 10
1835.00006128
 20
14265.6907475
 30
0.0
 11
1835.00006128
 21
13925.6907475
 31
0.0
  0
LINE
  5
C7
330
2F6
100
AcDbEntity
  8
YKK_N1
  6
Continuous
100
AcDbLine
 10
1780.00006128
 20
14265.6907475
 30
0.0
 11
1780.00006128
 21
13925.6907475
 31
0.0
  0
LINE
  5
C8
330
2F6
100
AcDbEntity
  8
YKK_B1
100
AcDbLine
 10
1835.0
 20
14566.6907475
 30
0.0
 11
1835.0
 21
14580.6907475
 31
0.0
  0
LINE
  5
C9
330
2F6
100
AcDbEntity
  8
YKK_B1
100
AcDbLine
 10
1780.0
 20
14580.6907475
 30
0.0
 11
1780.0
 21
14566.6907475
 31
0.0
  0
LINE
  5
CA
330
2F6
100
AcDbEntity
  8
YKK_B1
100
AcDbLine
 10
1835.0
 20
14528.6907475
 30
0.0
 11
1818.0
 21
14528.6907475
 31
0.0
  0
LINE
  5
CB
330
2F6
100
AcDbEntity
  8
YKK_B1
100
AcDbLine
 10
1818.0
 20
14528.6907475
 30
0.0
 11
1818.0
 21
14566.6907475
 31
0.0
  0
LINE
  5
CC
330
2F6
100
AcDbEntity
  8
YKK_B1
100
AcDbLine
 10
1818.0
 20
14566.6907475
 30
0.0
 11
1835.0
 21
14566.6907475
 31
0.0
  0
LINE
  5
CD
330
2F6
100
AcDbEntity
  8
YKK_B1
100
AcDbLine
 10
1811.5
 20
14566.6907475
 30
0.0
 11
1811.5
 21
14557.9907475
 31
0.0
  0
LINE
  5
CE
330
2F6
100
AcDbEntity
  8
YKK_B1
100
AcDbLine
 10
1811.5
 20
14557.9907475
 30
0.0
 11
1814.0
 21
14557.9907475
 31
0.0
  0
LINE
  5
CF
330
2F6
100
AcDbEntity
  8
YKK_B1
100
AcDbLine
 10
1814.0
 20
14557.9907475
 30
0.0
 11
1814.0
 21
14528.6907475
 31
0.0
  0
LINE
  5
D0
330
2F6
100
AcDbEntity
  8
YKK_B1
100
AcDbLine
 10
1835.0
 20
14480.6907475
 30
0.0
 11
1835.0
 21
14528.6907475
 31
0.0
  0
LINE
  5
D1
330
2F6
100
AcDbEntity
  8
YKK_B1
100
AcDbLine
 10
1780.0
 20
14528.6907475
 30
0.0
 11
1780.0
 21
14480.6907475
 31
0.0
  0
LINE
  5
D2
330
2F6
100
AcDbEntity
  8
YKK_B1
100
AcDbLine
 10
1814.0
 20
14528.6907475
 30
0.0
 11
1780.0
 21
14528.6907475
 31
0.0
  0
LINE
  5
D3
330
2F6
100
AcDbEntity
  8
YKK_B1
100
AcDbLine
 10
1780.0
 20
14480.6907475
 30
0.0
 11
1835.0
 21
14480.6907475
 31
0.0
  0
LINE
  5
D4
330
2F6
100
AcDbEntity
  8
YKK_B1
100
AcDbLine
 10
1780.0
 20
14566.6907475
 30
0.0
 11
1811.5
 21
14566.6907475
 31
0.0
  0
LINE
  5
D5
330
2F6
100
AcDbEntity
  8
YKK_B1
100
AcDbLine
 10
1835.0
 20
14580.6907475
 30
0.0
 11
1780.0
 21
14580.6907475
 31
0.0
  0
LINE
  5
D6
330
2F6
100
AcDbEntity
  8
YKK_N1
  6
Continuous
100
AcDbLine
 10
2632.50006128
 20
14265.6907475
 30
0.0
 11
2632.50006128
 21
13725.6907475
 31
0.0
  0
LINE
  5
D7
330
2F6
100
AcDbEntity
  8
YKK_N1
  6
Continuous
100
AcDbLine
 10
2654.00006128
 20
14265.6907475
 30
0.0
 11
2654.00006128
 21
13725.6907475
 31
0.0
  0
LINE
  5
D8
330
2F6
100
AcDbEntity
  8
YKK_N1
  6
Continuous
100
AcDbLine
 10
2607.50006128
 20
14265.6907475
 30
0.0
 11
2607.50006128
 21
13725.6907475
 31
0.0
  0
LINE
  5
D9
330
2F6
100
AcDbEntity
  8
YKK_N1
  6
Continuous
100
AcDbLine
 10
2520.8975209
 20
13775.6907475
 30
0.0
 11
2607.50006128
 21
13725.6907475
 31
0.0
  0
LINE
  5
DA
330
2F6
100
AcDbEntity
  8
YKK_N1
  6
Continuous
100
AcDbLine
 10
2607.50006128
 20
13725.6907475
 30
0.0
 11
2520.8975209
 21
13675.6907475
 31
0.0
  0
TEXT
  5
DB
330
2F6
100
AcDbEntity
  8
YKK_N1
  6
Continuous
100
AcDbText
 10
2556.96554935
 20
13622.9917338
 30
0.0
 40
60.0
  1
25
100
AcDbText
  0
LINE
  5
DC
330
2F6
100
AcDbEntity
  8
YKK_N1
  6
Continuous
100
AcDbLine
 10
2520.8975209
 20
13775.6907475
 30
0.0
 11
2520.8975209
 21
13675.6907475
 31
0.0
  0
TEXT
  5
DD
330
2F6
100
AcDbEntity
  8
YKK_N1
  6
Continuous
100
AcDbText
 10
2675.60556455
 20
13737.6907475
 30
0.0
 40
60.0
  1
21.5
100
AcDbText
  0
CIRCLE
  5
DE
330
2F6
100
AcDbEntity
  8
YKK_N1
100
AcDbCircle
 10
2654.00006128
 20
13725.6907475
 30
0.0
 40
6.5
  0
CIRCLE
  5
DF
330
2F6
100
AcDbEntity
  8
YKK_N1
100
AcDbCircle
 10
2654.00006128
 20
13725.6907475
 30
0.0
 40
10.0
  0
CIRCLE
  5
E0
330
2F6
100
AcDbEntity
  8
YKK_N1
100
AcDbCircle
 10
2632.50006128
 20
13725.6907475
 30
0.0
 40
6.5
  0
LINE
  5
E1
330
2F6
100
AcDbEntity
  8
YKK_N1
100
AcDbLine
 10
2632.50006128
 20
13725.6907475
 30
0.0
 11
2654.00006128
 21
13725.6907475
 31
0.0
  0
CIRCLE
  5
E2
330
2F6
100
AcDbEntity
  8
YKK_N1
100
AcDbCircle
 10
2632.50006128
 20
13725.6907475
 30
0.0
 40
10.0
  0
LINE
  5
E3
330
2F6
100
AcDbEntity
  8
YKK_N1
  6
Continuous
100
AcDbLine
 10
2607.50006128
 20
13725.6907475
 30
0.0
 11
2632.50006128
 21
13725.6907475
 31
0.0
  0
TEXT
  5
E4
330
2F6
100
AcDbEntity
  8
YKK_N1
  6
Continuous
100
AcDbText
 10
2085.08185396
 20
13937.6907475
 30
0.0
 40
60.0
  1
772.5
100
AcDbText
  0
CIRCLE
  5
E5
330
2F6
100
AcDbEntity
  8
YKK_N1
100
AcDbCircle
 10
2194.40024024
 20
14580.69073214
 30
0.0
 40
10.0
  0
CIRCLE
  5
E6
330
2F6
100
AcDbEntity
  8
YKK_N1
100
AcDbCircle
 10
2194.40024024
 20
14580.69073214
 30
0.0
 40
6.5
  0
LINE
  5
E7
330
2F6
100
AcDbEntity
  8
YKK_N1
  6
Continuous
100
AcDbLine
 10
2194.40024024
 20
14480.68825897
 30
0.0
 11
2194.40024024
 21
14580.69073214
 31
0.0
  0
CIRCLE
  5
E8
330
2F6
100
AcDbEntity
  8
YKK_N1
100
AcDbCircle
 10
2194.40024024
 20
14480.68825897
 30
0.0
 40
10.0
  0
CIRCLE
  5
E9
330
2F6
100
AcDbEntity
  8
YKK_N1
100
AcDbCircle
 10
2194.40024024
 20
14480.68825897
 30
0.0
 40
6.5
  0
LINE
  5
EA
330
2F6
100
AcDbEntity
  8
YKK_N1
  6
Continuous
100
AcDbLine
 10
2194.40024024
 20
14480.69073214
 30
0.0
 11
2069.40024024
 21
14480.69073214
 31
0.0
  0
CIRCLE
  5
EB
330
2F6
100
AcDbEntity
  8
YKK_N1
100
AcDbCircle
 10
2607.50006128
 20
13925.6907475
 30
0.0
 40
6.5
  0
CIRCLE
  5
EC
330
2F6
100
AcDbEntity
  8
YKK_N1
100
AcDbCircle
 10
2607.50006128
 20
13925.6907475
 30
0.0
 40
10.0
  0
LINE
  5
ED
330
2F6
100
AcDbEntity
  8
YKK_Z1
  6
Continuous
100
AcDbLine
 10
2657.49993993
 20
14555.6907475
 30
0.0
 11
3007.49993993
 21
14555.6907475
 31
0.0
  0
LINE
  5
EE
330
2F6
100
AcDbEntity
  8
YKK_Z1
  6
CENTER
100
AcDbLine
 10
2644.99993993
 20
14465.6907475
 30
0.0
 11
3007.49993993
 21
14465.6907475
 31
0.0
  0
LINE
  5
EF
330
2F6
100
AcDbEntity
  8
YKK_Z1
  6
Continuous
100
AcDbLine
 10
2657.49993993
 20
14570.6907475
 30
0.0
 11
3007.49993993
 21
14570.6907475
 31
0.0
  0
LINE
  5
F0
330
2F6
100
AcDbEntity
  8
YKK_Z1
  6
Continuous
100
AcDbLine
 10
2657.49993993
 20
14562.6907475
 30
0.0
 11
3007.49993993
 21
14562.6907475
 31
0.0
  0
LINE
  5
F1
330
2F6
100
AcDbEntity
  8
YKK_Z1
  6
Continuous
100
AcDbLine
 10
2837.49997111
 20
14355.6907475
 30
0.0
 11
2857.49997457
 21
14375.6907475
 31
0.0
  0
LINE
  5
F2
330
2F6
100
AcDbEntity
  8
YKK_Z1
  6
Continuous
100
AcDbLine
 10
2837.4998464
 20
14375.6907475
 30
0.0
 11
2857.49983601
 21
14355.6907475
 31
0.0
  0
LINE
  5
F3
330
2F6
100
AcDbEntity
  8
YKK_Z1
  6
Continuous
100
AcDbLine
 10
2627.49993993
 20
14335.6907475
 30
0.0
 11
3007.49993993
 21
14335.6907475
 31
0.0
  0
LINE
  5
F4
330
2F6
100
AcDbEntity
  8
YKK_Z1
  6
Continuous
100
AcDbLine
 10
3007.49993993
 20
14375.6907475
 30
0.0
 11
2657.49993993
 21
14375.6907475
 31
0.0
  0
LINE
  5
F5
330
2F6
100
AcDbEntity
  8
YKK_Z1
  6
Continuous
100
AcDbLine
 10
2657.49993993
 20
14355.6907475
 30
0.0
 11
3007.49993993
 21
14355.6907475
 31
0.0
  0
LINE
  5
F6
330
2F6
100
AcDbEntity
  8
YKK_Z1
  6
Continuous
100
AcDbLine
 10
3007.49993993
 20
14348.1907475
 30
0.0
 11
2627.49993993
 21
14348.1907475
 31
0.0
  0
LINE
  5
F7
330
2F6
100
AcDbEntity
  8
YKK_Z1
  6
Continuous
100
AcDbLine
 10
2710.51501467
 20
14375.6907475
 30
0.0
 11
2890.51504585
 21
14555.6907475
 31
0.0
  0
LINE
  5
F8
330
2F6
100
AcDbEntity
  8
YKK_Z1
  6
Continuous
100
AcDbLine
 10
2719.00029825
 20
14375.6907475
 30
0.0
 11
2899.00032943
 21
14555.6907475
 31
0.0
  0
LINE
  5
F9
330
2F6
100
AcDbEntity
  8
YKK_Z1
  6
Continuous
100
AcDbLine
 10
2738.79929327
 20
14375.6907475
 30
0.0
 11
2918.79932444
 21
14555.6907475
 31
0.0
  0
LINE
  5
FA
330
2F6
100
AcDbEntity
  8
YKK_B1
100
AcDbLine
 10
2642.49993993
 20
14568.6907475
 30
0.0
 11
2642.49993993
 21
14580.6907475
 31
0.0
  0
LINE
  5
FB
330
2F6
100
AcDbEntity
  8
YKK_B1
100
AcDbLine
 10
2607.49993993
 20
14580.6907475
 30
0.0
 11
2607.49993993
 21
14566.6907475
 31
0.0
  0
LINE
  5
FC
330
2F6
100
AcDbEntity
  8
YKK_Z1
  6
Continuous
100
AcDbLine
 10
2757.49993993
 20
14570.6907475
 30
0.0
 11
2757.49993993
 21
14562.6907475
 31
0.0
  0
LINE
  5
FD
330
2F6
100
AcDbEntity
  8
YKK_Z1
  6
Continuous
100
AcDbLine
 10
2767.49993993
 20
14570.6907475
 30
0.0
 11
2767.49993993
 21
14562.6907475
 31
0.0
  0
LINE
  5
FE
330
2F6
100
AcDbEntity
  8
YKK_B1
100
AcDbLine
 10
2643.99993993
 20
14525.6907475
 30
0.0
 11
2643.99993993
 21
14567.1907475
 31
0.0
  0
LINE
  5
FF
330
2F6
100
AcDbEntity
  8
YKK_B1
100
AcDbLine
 10
2632.49993993
 20
14516.6907475
 30
0.0
 11
2632.49993993
 21
14528.6907475
 31
0.0
  0
LINE
  5
100
330
2F6
100
AcDbEntity
  8
YKK_B1
100
AcDbLine
 10
2653.99993993
 20
14525.6907475
 30
0.0
 11
2643.99993993
 21
14525.6907475
 31
0.0
  0
LINE
  5
101
330
2F6
100
AcDbEntity
  8
YKK_B1
100
AcDbLine
 10
2643.99993993
 20
14567.1907475
 30
0.0
 11
2642.49993993
 21
14568.6907475
 31
0.0
  0
LINE
  5
102
330
2F6
100
AcDbEntity
  8
YKK_Z1
  6
Continuous
100
AcDbLine
 10
2657.49993993
 20
14570.6907475
 30
0.0
 11
2657.49993993
 21
14562.6907475
 31
0.0
  0
LINE
  5
103
330
2F6
100
AcDbEntity
  8
YKK_Z1
  6
Continuous
100
AcDbLine
 10
2642.49993993
 20
14570.6907475
 30
0.0
 11
2657.49993993
 21
14570.6907475
 31
0.0
  0
LINE
  5
104
330
2F6
100
AcDbEntity
  8
YKK_B1
100
AcDbLine
 10
2632.49993993
 20
14480.6907475
 30
0.0
 11
2632.49993993
 21
14490.6907475
 31
0.0
  0
LINE
  5
105
330
2F6
100
AcDbEntity
  8
YKK_B1
100
AcDbLine
 10
2607.49993993
 20
14528.6907475
 30
0.0
 11
2607.49993993
 21
14480.6907475
 31
0.0
  0
LINE
  5
106
330
2F6
100
AcDbEntity
  8
YKK_B1
100
AcDbLine
 10
2607.49993993
 20
14480.6907475
 30
0.0
 11
2632.49993993
 21
14480.6907475
 31
0.0
  0
LINE
  5
107
330
2F6
100
AcDbEntity
  8
YKK_B1
100
AcDbLine
 10
2643.99993993
 20
14528.6907475
 30
0.0
 11
2607.49993993
 21
14528.6907475
 31
0.0
  0
LINE
  5
108
330
2F6
100
AcDbEntity
  8
YKK_B1
100
AcDbLine
 10
2607.49993993
 20
14566.6907475
 30
0.0
 11
2643.99993993
 21
14566.6907475
 31
0.0
  0
LINE
  5
109
330
2F6
100
AcDbEntity
  8
YKK_B1
100
AcDbLine
 10
2642.49993993
 20
14580.6907475
 30
0.0
 11
2607.49993993
 21
14580.6907475
 31
0.0
  0
LINE
  5
10A
330
2F6
100
AcDbEntity
  8
YKK_Z1
  6
Continuous
100
AcDbLine
 10
2627.49993993
 20
14348.1907475
 30
0.0
 11
2627.49993993
 21
14335.6907475
 31
0.0
  0
LINE
  5
10B
330
2F6
100
AcDbEntity
  8
YKK_Z1
100
AcDbLine
 10
2637.49993993
 20
14325.6907475
 30
0.0
 11
2637.49993993
 21
14335.6907475
 31
0.0
  0
LINE
  5
10C
330
2F6
100
AcDbEntity
  8
YKK_Z1
  6
Continuous
100
AcDbLine
 10
2817.49996764
 20
14355.6907475
 30
0.0
 11
2837.49997111
 21
14375.6907475
 31
0.0
  0
LINE
  5
10D
330
2F6
100
AcDbEntity
  8
YKK_Z1
  6
Continuous
100
AcDbLine
 10
2817.49985679
 20
14375.6907475
 30
0.0
 11
2837.4998464
 21
14355.6907475
 31
0.0
  0
LINE
  5
10E
330
2F6
100
AcDbEntity
  8
YKK_Z1
  6
Continuous
100
AcDbLine
 10
2757.49995725
 20
14355.6907475
 30
0.0
 11
2777.49996071
 21
14375.6907475
 31
0.0
  0
LINE
  5
10F
330
2F6
100
AcDbEntity
  8
YKK_Z1
  6
Continuous
100
AcDbLine
 10
2757.49988797
 20
14375.6907475
 30
0.0
 11
2777.49987758
 21
14355.6907475
 31
0.0
  0
LINE
  5
110
330
2F6
100
AcDbEntity
  8
YKK_Z1
  6
Continuous
100
AcDbLine
 10
2777.49996071
 20
14355.6907475
 30
0.0
 11
2797.49996418
 21
14375.6907475
 31
0.0
  0
LINE
  5
111
330
2F6
100
AcDbEntity
  8
YKK_Z1
  6
Continuous
100
AcDbLine
 10
2777.49987758
 20
14375.6907475
 30
0.0
 11
2797.49986718
 21
14355.6907475
 31
0.0
  0
LINE
  5
112
330
2F6
100
AcDbEntity
  8
YKK_Z1
  6
Continuous
100
AcDbLine
 10
2797.49996418
 20
14355.6907475
 30
0.0
 11
2817.49996764
 21
14375.6907475
 31
0.0
  0
LINE
  5
113
330
2F6
100
AcDbEntity
  8
YKK_Z1
  6
Continuous
100
AcDbLine
 10
2797.49986718
 20
14375.6907475
 30
0.0
 11
2817.49985679
 21
14355.6907475
 31
0.0
  0
LINE
  5
114
330
2F6
100
AcDbEntity
  8
YKK_Z1
  6
Continuous
100
AcDbLine
 10
2697.49994686
 20
14355.6907475
 30
0.0
 11
2717.49995032
 21
14375.6907475
 31
0.0
  0
LINE
  5
115
330
2F6
100
AcDbEntity
  8
YKK_Z1
  6
Continuous
100
AcDbLine
 10
2717.49995032
 20
14355.6907475
 30
0.0
 11
2737.49995379
 21
14375.6907475
 31
0.0
  0
LINE
  5
116
330
2F6
100
AcDbEntity
  8
YKK_Z1
  6
Continuous
100
AcDbLine
 10
2697.49991914
 20
14375.6907475
 30
0.0
 11
2717.49990875
 21
14355.6907475
 31
0.0
  0
LINE
  5
117
330
2F6
100
AcDbEntity
  8
YKK_Z1
  6
Continuous
100
AcDbLine
 10
2717.49990875
 20
14375.6907475
 30
0.0
 11
2737.49989836
 21
14355.6907475
 31
0.0
  0
LINE
  5
118
330
2F6
100
AcDbEntity
  8
YKK_Z1
  6
Continuous
100
AcDbLine
 10
2657.49993993
 20
14375.6907475
 30
0.0
 11
2657.49993993
 21
14355.6907475
 31
0.0
  0
LINE
  5
119
330
2F6
100
AcDbEntity
  8
YKK_Z1
  6
Continuous
100
AcDbLine
 10
2657.49993993
 20
14355.6907475
 30
0.0
 11
2677.49994339
 21
14375.6907475
 31
0.0
  0
LINE
  5
11A
330
2F6
100
AcDbEntity
  8
YKK_Z1
  6
Continuous
100
AcDbLine
 10
2657.49993993
 20
14375.6907475
 30
0.0
 11
2677.49992954
 21
14355.6907475
 31
0.0
  0
LINE
  5
11C
330
2F6
100
AcDbEntity
  8
YKK_Z1
  6
Continuous
100
AcDbLine
 10
2677.49994339
 20
14355.6907475
 30
0.0
 11
2697.49994686
 21
14375.6907475
 31
0.0
  0
LINE
  5
11D
330
2F6
100
AcDbEntity
  8
YKK_Z1
  6
Continuous
100
AcDbLine
 10
2677.49992954
 20
14375.6907475
 30
0.0
 11
2697.49991914
 21
14355.6907475
 31
0.0
  0
LINE
  5
11E
330
2F6
100
AcDbEntity
  8
YKK_Z1
  6
Continuous
100
AcDbLine
 10
2737.49995379
 20
14355.6907475
 30
0.0
 11
2757.49995725
 21
14375.6907475
 31
0.0
  0
LINE
  5
11F
330
2F6
100
AcDbEntity
  8
YKK_Z1
  6
Continuous
100
AcDbLine
 10
2737.49989836
 20
14375.6907475
 30
0.0
 11
2757.49988797
 21
14355.6907475
 31
0.0
  0
LINE
  5
120
330
2F6
100
AcDbEntity
  8
YKK_Z1
100
AcDbLine
 10
2612.49993993
 20
14325.6907475
 30
0.0
 11
2637.49993993
 21
14325.6907475
 31
0.0
  0
LINE
  5
121
330
2F6
100
AcDbEntity
  8
YKK_Z1
  6
Continuous
100
AcDbLine
 10
2657.49993993
 20
14375.6907475
 30
0.0
 11
2657.49993993
 21
14555.6907475
 31
0.0
  0
LINE
  5
122
330
2F6
100
AcDbEntity
  8
YKK_Z1
100
AcDbLine
 10
2612.49993993
 20
14480.6907475
 30
0.0
 11
2612.49993993
 21
14325.6907475
 31
0.0
  0
LINE
  5
123
330
2F6
100
AcDbEntity
  8
YKK_Z1
  6
Continuous
100
AcDbLine
 10
2987.49993993
 20
14570.6907475
 30
0.0
 11
2987.49993993
 21
14562.6907475
 31
0.0
  0
LINE
  5
124
330
2F6
100
AcDbEntity
  8
YKK_Z1
  6
Continuous
100
AcDbLine
 10
2977.49993993
 20
14570.6907475
 30
0.0
 11
2977.49993993
 21
14562.6907475
 31
0.0
  0
LINE
  5
125
330
2F6
100
AcDbEntity
  8
YKK_Z1
  6
Continuous
100
AcDbLine
 10
2877.49993993
 20
14570.6907475
 30
0.0
 11
2877.49993993
 21
14562.6907475
 31
0.0
  0
LINE
  5
126
330
2F6
100
AcDbEntity
  8
YKK_Z1
  6
Continuous
100
AcDbLine
 10
2867.49993993
 20
14570.6907475
 30
0.0
 11
2867.49993993
 21
14562.6907475
 31
0.0
  0
LINE
  5
127
330
2F6
100
AcDbEntity
  8
YKK_Z1
  6
Continuous
100
AcDbLine
 10
2997.49999882
 20
14355.6907475
 30
0.0
 11
3007.49993993
 21
14365.69068688
 31
0.0
  0
LINE
  5
128
330
2F6
100
AcDbEntity
  8
YKK_Z1
  6
Continuous
100
AcDbLine
 10
2977.49999535
 20
14355.6907475
 30
0.0
 11
2997.49999882
 21
14375.6907475
 31
0.0
  0
LINE
  5
129
330
2F6
100
AcDbEntity
  8
YKK_Z1
  6
Continuous
100
AcDbLine
 10
2977.49977365
 20
14375.6907475
 30
0.0
 11
2997.49976326
 21
14355.6907475
 31
0.0
  0
LINE
  5
12B
330
2F6
100
AcDbEntity
  8
YKK_Z1
  6
Continuous
100
AcDbLine
 10
2997.49976326
 20
14375.6907475
 30
0.0
 11
3007.49993993
 21
14365.69056564
 31
0.0
  0
LINE
  5
12C
330
2F6
100
AcDbEntity
  8
YKK_Z1
  6
Continuous
100
AcDbLine
 10
2917.49998496
 20
14355.6907475
 30
0.0
 11
2937.49998843
 21
14375.6907475
 31
0.0
  0
LINE
  5
12D
330
2F6
100
AcDbEntity
  8
YKK_Z1
  6
Continuous
100
AcDbLine
 10
2917.49980483
 20
14375.6907475
 30
0.0
 11
2937.49979444
 21
14355.6907475
 31
0.0
  0
LINE
  5
12E
330
2F6
100
AcDbEntity
  8
YKK_Z1
  6
Continuous
100
AcDbLine
 10
2937.49998843
 20
14355.6907475
 30
0.0
 11
2957.49999189
 21
14375.6907475
 31
0.0
  0
LINE
  5
12F
330
2F6
100
AcDbEntity
  8
YKK_Z1
  6
Continuous
100
AcDbLine
 10
2937.49979444
 20
14375.6907475
 30
0.0
 11
2957.49978404
 21
14355.6907475
 31
0.0
  0
LINE
  5
130
330
2F6
100
AcDbEntity
  8
YKK_Z1
  6
Continuous
100
AcDbLine
 10
2957.49999189
 20
14355.6907475
 30
0.0
 11
2977.49999535
 21
14375.6907475
 31
0.0
  0
LINE
  5
131
330
2F6
100
AcDbEntity
  8
YKK_Z1
  6
Continuous
100
AcDbLine
 10
2957.49978404
 20
14375.6907475
 30
0.0
 11
2977.49977365
 21
14355.6907475
 31
0.0
  0
LINE
  5
132
330
2F6
100
AcDbEntity
  8
YKK_Z1
  6
Continuous
100
AcDbLine
 10
2877.49997803
 20
14355.6907475
 30
0.0
 11
2897.4999815
 21
14375.6907475
 31
0.0
  0
LINE
  5
133
330
2F6
100
AcDbEntity
  8
YKK_Z1
  6
Continuous
100
AcDbLine
 10
2877.49982561
 20
14375.6907475
 30
0.0
 11
2897.49981522
 21
14355.6907475
 31
0.0
  0
LINE
  5
134
330
2F6
100
AcDbEntity
  8
YKK_Z1
  6
Continuous
100
AcDbLine
 10
2857.49997457
 20
14355.6907475
 30
0.0
 11
2877.49997803
 21
14375.6907475
 31
0.0
  0
LINE
  5
135
330
2F6
100
AcDbEntity
  8
YKK_Z1
  6
Continuous
100
AcDbLine
 10
2857.49983601
 20
14375.6907475
 30
0.0
 11
2877.49982561
 21
14355.6907475
 31
0.0
  0
LINE
  5
136
330
2F6
100
AcDbEntity
  8
YKK_Z1
  6
Continuous
100
AcDbLine
 10
2897.4999815
 20
14355.6907475
 30
0.0
 11
2917.49998496
 21
14375.6907475
 31
0.0
  0
LINE
  5
137
330
2F6
100
AcDbEntity
  8
YKK_Z1
  6
Continuous
100
AcDbLine
 10
2897.49981522
 20
14375.6907475
 30
0.0
 11
2917.49980483
 21
14355.6907475
 31
0.0
  0
LINE
  5
138
330
2F6
100
AcDbEntity
  8
YKK_A1
100
AcDbLine
 10
1002.50006007
 20
16025.69081436
 30
0.0
 11
2612.49993993
 21
16025.69081436
 31
0.0
  0
LINE
  5
139
330
2F6
100
AcDbEntity
  8
YKK_N1
  6
Continuous
100
AcDbLine
 10
1007.50006128
 20
15425.6907475
 30
0.0
 11
2607.50006128
 21
15425.6907475
 31
0.0
  0
LINE
  5
13A
330
2F6
100
AcDbEntity
  8
YKK_N1
  6
Continuous
100
AcDbLine
 10
1835.00006128
 20
15625.6907475
 30
0.0
 11
2607.50006128
 21
15625.6907475
 31
0.0
  0
TEXT
  5
13B
330
2F6
100
AcDbEntity
  8
YKK_N1
  6
Continuous
100
AcDbText
 10
1601.30267677
 20
15437.6907475
 30
0.0
 40
60.0
  1
W=1600
100
AcDbText
  0
LINE
  5
13C
330
2F6
100
AcDbEntity
  8
YKK_N1
  6
Continuous
100
AcDbLine
 10
1094.10260166
 20
15475.6907475
 30
0.0
 11
1094.10260166
 21
15375.6907475
 31
0.0
  0
LINE
  5
13D
330
2F6
100
AcDbEntity
  8
YKK_N1
  6
Continuous
100
AcDbLine
 10
1094.10260166
 20
15475.6907475
 30
0.0
 11
1007.50006128
 21
15425.6907475
 31
0.0
  0
LINE
  5
13E
330
2F6
100
AcDbEntity
  8
YKK_N1
  6
Continuous
100
AcDbLine
 10
1007.50006128
 20
15965.6907475
 30
0.0
 11
1007.50006128
 21
15425.6907475
 31
0.0
  0
LINE
  5
13F
330
2F6
100
AcDbEntity
  8
YKK_N1
  6
Continuous
100
AcDbLine
 10
1007.50006128
 20
15425.6907475
 30
0.0
 11
1094.10260166
 21
15375.6907475
 31
0.0
  0
LINE
  5
140
330
2F6
100
AcDbEntity
  8
YKK_N1
  6
Continuous
100
AcDbLine
 10
1007.50006128
 20
15625.6907475
 30
0.0
 11
1780.00006128
 21
15625.6907475
 31
0.0
  0
TEXT
  5
141
330
2F6
100
AcDbEntity
  8
YKK_N1
  6
Continuous
100
AcDbText
 10
1259.22712704
 20
15637.6907475
 30
0.0
 40
60.0
  1
772.5
100
AcDbText
  0
CIRCLE
  5
142
330
2F6
100
AcDbEntity
  8
YKK_N1
100
AcDbCircle
 10
1007.50006128
 20
15625.6907475
 30
0.0
 40
10.0
  0
CIRCLE
  5
143
330
2F6
100
AcDbEntity
  8
YKK_N1
100
AcDbCircle
 10
1007.50006128
 20
15625.6907475
 30
0.0
 40
6.5
  0
LINE
  5
144
330
2F6
100
AcDbEntity
  8
YKK_N1
  6
Continuous
100
AcDbLine
 10
1780.00006128
 20
15965.6907475
 30
0.0
 11
1780.00006128
 21
15625.6907475
 31
0.0
  0
LINE
  5
145
330
2F6
100
AcDbEntity
  8
YKK_N1
  6
Continuous
100
AcDbLine
 10
1835.00006128
 20
15965.6907475
 30
0.0
 11
1835.00006128
 21
15625.6907475
 31
0.0
  0
LINE
  5
146
330
2F6
100
AcDbEntity
  8
YKK_N1
100
AcDbLine
 10
1835.00006128
 20
15625.6907475
 30
0.0
 11
1780.00006128
 21
15625.6907475
 31
0.0
  0
CIRCLE
  5
147
330
2F6
100
AcDbEntity
  8
YKK_N1
100
AcDbCircle
 10
1780.00006128
 20
15625.6907475
 30
0.0
 40
10.0
  0
CIRCLE
  5
148
330
2F6
100
AcDbEntity
  8
YKK_N1
100
AcDbCircle
 10
1780.00006128
 20
15625.6907475
 30
0.0
 40
6.5
  0
CIRCLE
  5
149
330
2F6
100
AcDbEntity
  8
YKK_N1
100
AcDbCircle
 10
1835.00006128
 20
15625.6907475
 30
0.0
 40
10.0
  0
CIRCLE
  5
14A
330
2F6
100
AcDbEntity
  8
YKK_N1
100
AcDbCircle
 10
1835.00006128
 20
15625.6907475
 30
0.0
 40
6.5
  0
TEXT
  5
14B
330
2F6
100
AcDbEntity
  8
YKK_N1
  6
Continuous
100
AcDbText
 10
1749.67204355
 20
15550.90595057
 30
0.0
 40
60.0
  1
55
100
AcDbText
  0
TEXT
  5
14C
330
2F6
100
AcDbEntity
  8
YKK_A1
100
AcDbText
 10
1711.14269957
 20
16055.69081436
 30
0.0
 40
60.0
  1
F
 41
0.8
  7
YKK_SGSTYLE1
 72
     2
 11
1749.99984243
 21
16055.69081436
 31
0.0
100
AcDbText
  0
LINE
  5
14E
330
2F6
100
AcDbEntity
  8
YKK_N1
  6
Continuous
100
AcDbLine
 10
2520.8975209
 20
15475.6907475
 30
0.0
 11
2520.8975209
 21
15375.6907475
 31
0.0
  0
LINE
  5
14F
330
2F6
100
AcDbEntity
  8
YKK_N1
  6
Continuous
100
AcDbLine
 10
2520.8975209
 20
15475.6907475
 30
0.0
 11
2607.50006128
 21
15425.6907475
 31
0.0
  0
LINE
  5
150
330
2F6
100
AcDbEntity
  8
YKK_N1
  6
Continuous
100
AcDbLine
 10
2607.50006128
 20
15965.6907475
 30
0.0
 11
2607.50006128
 21
15425.6907475
 31
0.0
  0
LINE
  5
151
330
2F6
100
AcDbEntity
  8
YKK_N1
  6
Continuous
100
AcDbLine
 10
2607.50006128
 20
15425.6907475
 30
0.0
 11
2520.8975209
 21
15375.6907475
 31
0.0
  0
TEXT
  5
152
330
2F6
100
AcDbEntity
  8
YKK_A1
100
AcDbText
 10
2538.64263669
 20
16055.69081436
 30
0.0
 40
60.0
  1
F
 41
0.8
  7
YKK_SGSTYLE1
 72
     2
 11
2577.49977955
 21
16055.69081436
 31
0.0
100
AcDbText
  0
TEXT
  5
153
330
2F6
100
AcDbEntity
  8
YKK_N1
  6
Continuous
100
AcDbText
 10
2086.72712704
 20
15637.6907475
 30
0.0
 40
60.0
  1
772.5
100
AcDbText
  0
CIRCLE
  5
154
330
2F6
100
AcDbEntity
  8
YKK_N1
100
AcDbCircle
 10
2607.50006128
 20
15625.6907475
 30
0.0
 40
10.0
  0
CIRCLE
  5
155
330
2F6
100
AcDbEntity
  8
YKK_N1
100
AcDbCircle
 10
2607.50006128
 20
15625.6907475
 30
0.0
 40
6.5
  0
CIRCLE
  5
156
330
2F6
100
AcDbEntity
  8
YKK_N1
100
AcDbCircle
 10
3012.49993581
 20
16025.6907475
 30
0.0
 40
10.0
  0
CIRCLE
  5
157
330
2F6
100
AcDbEntity
  8
YKK_N1
100
AcDbCircle
 10
3012.49993581
 20
16025.6907475
 30
0.0
 40
6.5
  0
LINE
  5
158
330
2F6
100
AcDbEntity
  8
YKK_N1
  6
Continuous
100
AcDbLine
 10
4192.49993581
 20
16025.6907475
 30
0.0
 11
4712.49993581
 21
16025.6907475
 31
0.0
  0
LINE
  5
159
330
2F6
100
AcDbEntity
  8
YKK_N1
  6
ByBlock
100
AcDbLine
 10
3212.49993581
 20
16025.6907475
 30
0.0
 11
3212.49993581
 21
15345.6907475
 31
0.0
  0
CIRCLE
  5
15A
330
2F6
100
AcDbEntity
  8
YKK_N1
100
AcDbCircle
 10
3212.49993581
 20
15325.6907475
 30
0.0
 40
6.5
  0
CIRCLE
  5
15B
330
2F6
100
AcDbEntity
  8
YKK_N1
100
AcDbCircle
 10
3212.49993581
 20
15325.6907475
 30
0.0
 40
10.0
  0
LINE
  5
15C
330
2F6
100
AcDbEntity
  8
YKK_N1
100
AcDbLine
 10
3212.49993581
 20
15325.6907475
 30
0.0
 11
3212.49993581
 21
15345.6907475
 31
0.0
  0
POINT
  5
15D
330
2F6
100
AcDbEntity
  8
YKK_N1
  6
ByBlock
100
AcDbPoint
 10
3212.49993581
 20
15325.6907475
 30
0.0
  0
POINT
  5
15E
330
2F6
100
AcDbEntity
  8
YKK_N1
  6
ByBlock
100
AcDbPoint
 10
3212.49993581
 20
15325.6907475
 30
0.0
  0
LINE
  5
15F
330
2F6
100
AcDbEntity
  8
YKK_Z1
  6
ByBlock
 62
     0
100
AcDbLine
 10
3494.7856501
 20
15325.6907475
 30
0.0
 11
3460.1446341
 21
15385.6907475
 31
0.0
  0
TEXT
  5
160
330
2F6
100
AcDbEntity
  8
YKK_Z1
100
AcDbText
 10
3534.7856501
 20
15335.6907475
 30
0.0
 40
60.0
  1
FL
 41
0.8
  7
YKK_SGSTYLE1
 72
     2
 11
3612.49993581
 21
15335.6907475
 31
0.0
100
AcDbText
  0
LINE
  5
161
330
2F6
100
AcDbEntity
  8
YKK_Z1
  6
ByBlock
 62
     0
100
AcDbLine
 10
3529.4266661
 20
15385.6907475
 30
0.0
 11
3494.7856501
 21
15325.6907475
 31
0.0
  0
LINE
  5
162
330
2F6
100
AcDbEntity
  8
YKK_Z1
  6
ByBlock
 62
     0
100
AcDbLine
 10
3460.1446341
 20
15385.6907475
 30
0.0
 11
3529.4266661
 21
15385.6907475
 31
0.0
  0
TEXT
  5
163
330
2F6
100
AcDbEntity
  8
YKK_N1
100
AcDbText
 10
3202.49993581
 20
15607.11931893
 30
0.0
 40
60.0
  1
700
 50
90.0
 41
0.8
  7
YKK_SGSTYLE1
100
AcDbText
  0
LINE
  5
164
330
2F6
100
AcDbEntity
  8
YKK_N1
  6
Continuous
100
AcDbLine
 10
3162.49993581
 20
16112.29328788
 30
0.0
 11
3262.49993581
 21
16112.29328788
 31
0.0
  0
LINE
  5
165
330
2F6
100
AcDbEntity
  8
YKK_N1
  6
Continuous
100
AcDbLine
 10
3162.49993581
 20
16112.29328788
 30
0.0
 11
3212.49993581
 21
16025.6907475
 31
0.0
  0
LINE
  5
166
330
2F6
100
AcDbEntity
  8
YKK_N1
  6
Continuous
100
AcDbLine
 10
3212.49993581
 20
16025.6907475
 30
0.0
 11
3262.49993581
 21
16112.29328788
 31
0.0
  0
LINE
  5
167
330
2F6
100
AcDbEntity
  8
YKK_Z1
  6
Continuous
100
AcDbLine
 10
4102.49993581
 20
15860.69072972
 30
0.0
 11
4082.49993581
 21
15840.69072625
 31
0.0
  0
LINE
  5
168
330
2F6
100
AcDbEntity
  8
YKK_Z1
  6
Continuous
100
AcDbLine
 10
4082.49993581
 20
15860.690799
 30
0.0
 11
4102.49993581
 21
15840.69080939
 31
0.0
  0
LINE
  5
169
330
2F6
100
AcDbEntity
  8
YKK_Z1
  6
Continuous
100
AcDbLine
 10
4082.49993581
 20
15894.3913937
 30
0.0
 11
3902.49993581
 21
15714.39136252
 31
0.0
  0
LINE
  5
16A
330
2F6
100
AcDbEntity
  8
YKK_Z1
  6
Continuous
100
AcDbLine
 10
4082.49993581
 20
15914.19038871
 30
0.0
 11
3902.49993581
 21
15734.19035754
 31
0.0
  0
LINE
  5
16B
330
2F6
100
AcDbEntity
  8
YKK_Z1
  6
Continuous
100
AcDbLine
 10
4082.49993581
 20
15922.67567229
 30
0.0
 11
3902.49993581
 21
15742.67564112
 31
0.0
  0
LINE
  5
16C
330
2F6
100
AcDbEntity
  8
YKK_Z1
  6
Continuous
100
AcDbLine
 10
4082.49993581
 20
15625.69074704
 30
0.0
 11
4082.49993581
 21
15960.69074704
 31
0.0
  0
LINE
  5
16D
330
2F6
100
AcDbEntity
  8
YKK_Z1
  6
CENTER
100
AcDbLine
 10
3992.49993581
 20
15973.19074704
 30
0.0
 11
3992.49993581
 21
15625.69074704
 31
0.0
  0
LINE
  5
16E
330
2F6
100
AcDbEntity
  8
YKK_Z1
  6
Continuous
100
AcDbLine
 10
4102.49993581
 20
15960.69074704
 30
0.0
 11
4102.49993581
 21
15625.69074704
 31
0.0
  0
LINE
  5
16F
330
2F6
100
AcDbEntity
  8
YKK_Z1
  6
Continuous
100
AcDbLine
 10
4122.49993581
 20
16005.69074704
 30
0.0
 11
4122.49993581
 21
15625.69074704
 31
0.0
  0
LINE
  5
170
330
2F6
100
AcDbEntity
  8
YKK_Z1
  6
Continuous
100
AcDbLine
 10
4109.99993581
 20
15625.69074704
 30
0.0
 11
4109.99993581
 21
16005.69074704
 31
0.0
  0
LINE
  5
171
330
2F6
100
AcDbEntity
  8
YKK_Z1
  6
Continuous
100
AcDbLine
 10
3902.49993581
 20
15960.69074704
 30
0.0
 11
3902.49993581
 21
15625.69074704
 31
0.0
  0
LINE
  5
172
330
2F6
100
AcDbEntity
  8
YKK_Z1
  6
Continuous
100
AcDbLine
 10
3887.49993581
 20
15962.69074704
 30
0.0
 11
3887.49993581
 21
15625.69074704
 31
0.0
  0
LINE
  5
173
330
2F6
100
AcDbEntity
  8
YKK_Z1
  6
Continuous
100
AcDbLine
 10
3895.49993581
 20
15962.69074704
 30
0.0
 11
3895.49993581
 21
15625.69074704
 31
0.0
  0
LINE
  5
174
330
2F6
100
AcDbEntity
  8
YKK_Z1
  6
Continuous
100
AcDbLine
 10
3887.49993581
 20
15752.69074704
 30
0.0
 11
3895.49993581
 21
15752.69074704
 31
0.0
  0
LINE
  5
175
330
2F6
100
AcDbEntity
  8
YKK_Z1
  6
Continuous
100
AcDbLine
 10
3887.49993581
 20
15742.69074704
 30
0.0
 11
3895.49993581
 21
15742.69074704
 31
0.0
  0
LINE
  5
176
330
2F6
100
AcDbEntity
  8
YKK_Z1
  6
Continuous
100
AcDbLine
 10
3887.49993581
 20
15642.69074704
 30
0.0
 11
3895.49993581
 21
15642.69074704
 31
0.0
  0
LINE
  5
177
330
2F6
100
AcDbEntity
  8
YKK_Z1
  6
Continuous
100
AcDbLine
 10
3887.49993581
 20
15632.69074704
 30
0.0
 11
3895.49993581
 21
15632.69074704
 31
0.0
  0
LINE
  5
178
330
2F6
100
AcDbEntity
  8
YKK_Z1
  6
Continuous
100
AcDbLine
 10
3887.49993581
 20
15852.69074704
 30
0.0
 11
3895.49993581
 21
15852.69074704
 31
0.0
  0
LINE
  5
179
330
2F6
100
AcDbEntity
  8
YKK_Z1
  6
Continuous
100
AcDbLine
 10
4102.49993581
 20
15760.6907124
 30
0.0
 11
4082.49993581
 21
15740.69070893
 31
0.0
  0
LINE
  5
17A
330
2F6
100
AcDbEntity
  8
YKK_Z1
  6
Continuous
100
AcDbLine
 10
4082.49993581
 20
15760.69085096
 30
0.0
 11
4102.49993581
 21
15740.69086135
 31
0.0
  0
LINE
  5
17B
330
2F6
100
AcDbEntity
  8
YKK_Z1
  6
Continuous
100
AcDbLine
 10
4102.49993581
 20
15740.69070893
 30
0.0
 11
4082.49993581
 21
15720.69070547
 31
0.0
  0
LINE
  5
17C
330
2F6
100
AcDbEntity
  8
YKK_Z1
  6
Continuous
100
AcDbLine
 10
4082.49993581
 20
15740.69086135
 30
0.0
 11
4102.49993581
 21
15720.69087174
 31
0.0
  0
LINE
  5
17D
330
2F6
100
AcDbEntity
  8
YKK_Z1
  6
Continuous
100
AcDbLine
 10
4102.49993581
 20
15660.69069507
 30
0.0
 11
4082.49993581
 21
15640.69069161
 31
0.0
  0
LINE
  5
17E
330
2F6
100
AcDbEntity
  8
YKK_Z1
  6
Continuous
100
AcDbLine
 10
4082.49993581
 20
15660.69090292
 30
0.0
 11
4102.49993581
 21
15640.69091331
 31
0.0
  0
LINE
  5
180
330
2F6
100
AcDbEntity
  8
YKK_Z1
  6
Continuous
100
AcDbLine
 10
4102.49993581
 20
15640.69069161
 30
0.0
 11
4087.49999384
 21
15625.69074704
 31
0.0
  0
LINE
  5
181
330
2F6
100
AcDbEntity
  8
YKK_Z1
  6
Continuous
100
AcDbLine
 10
4082.49993581
 20
15640.69091331
 30
0.0
 11
4097.50010989
 21
15625.69074704
 31
0.0
  0
LINE
  5
182
330
2F6
100
AcDbEntity
  8
YKK_Z1
  6
Continuous
100
AcDbLine
 10
4102.49993581
 20
15700.690702
 30
0.0
 11
4082.49993581
 21
15680.69069854
 31
0.0
  0
LINE
  5
183
330
2F6
100
AcDbEntity
  8
YKK_Z1
  6
Continuous
100
AcDbLine
 10
4102.49993581
 20
15680.69069854
 30
0.0
 11
4082.49993581
 21
15660.69069507
 31
0.0
  0
LINE
  5
184
330
2F6
100
AcDbEntity
  8
YKK_Z1
  6
Continuous
100
AcDbLine
 10
4082.49993581
 20
15700.69088214
 30
0.0
 11
4102.49993581
 21
15680.69089253
 31
0.0
  0
LINE
  5
185
330
2F6
100
AcDbEntity
  8
YKK_Z1
  6
Continuous
100
AcDbLine
 10
4082.49993581
 20
15680.69089253
 30
0.0
 11
4102.49993581
 21
15660.69090292
 31
0.0
  0
LINE
  5
186
330
2F6
100
AcDbEntity
  8
YKK_Z1
  6
Continuous
100
AcDbLine
 10
4102.49993581
 20
15720.69070547
 30
0.0
 11
4082.49993581
 21
15700.690702
 31
0.0
  0
LINE
  5
187
330
2F6
100
AcDbEntity
  8
YKK_Z1
  6
Continuous
100
AcDbLine
 10
4082.49993581
 20
15720.69087174
 30
0.0
 11
4102.49993581
 21
15700.69088214
 31
0.0
  0
LINE
  5
188
330
2F6
100
AcDbEntity
  8
YKK_Z1
  6
Continuous
100
AcDbLine
 10
4102.49993581
 20
15840.69072625
 30
0.0
 11
4082.49993581
 21
15820.69072279
 31
0.0
  0
LINE
  5
189
330
2F6
100
AcDbEntity
  8
YKK_Z1
  6
Continuous
100
AcDbLine
 10
4082.49993581
 20
15840.69080939
 30
0.0
 11
4102.49993581
 21
15820.69081978
 31
0.0
  0
LINE
  5
18A
330
2F6
100
AcDbEntity
  8
YKK_Z1
  6
Continuous
100
AcDbLine
 10
4102.49993581
 20
15800.69071932
 30
0.0
 11
4082.49993581
 21
15780.69071586
 31
0.0
  0
LINE
  5
18B
330
2F6
100
AcDbEntity
  8
YKK_Z1
  6
Continuous
100
AcDbLine
 10
4082.49993581
 20
15800.69083017
 30
0.0
 11
4102.49993581
 21
15780.69084057
 31
0.0
  0
LINE
  5
18C
330
2F6
100
AcDbEntity
  8
YKK_Z1
  6
Continuous
100
AcDbLine
 10
4102.49993581
 20
15780.69071586
 30
0.0
 11
4082.49993581
 21
15760.6907124
 31
0.0
  0
LINE
  5
18D
330
2F6
100
AcDbEntity
  8
YKK_Z1
  6
Continuous
100
AcDbLine
 10
4082.49993581
 20
15780.69084057
 30
0.0
 11
4102.49993581
 21
15760.69085096
 31
0.0
  0
LINE
  5
18E
330
2F6
100
AcDbEntity
  8
YKK_Z1
  6
Continuous
100
AcDbLine
 10
4102.49993581
 20
15820.69072279
 30
0.0
 11
4082.49993581
 21
15800.69071932
 31
0.0
  0
LINE
  5
18F
330
2F6
100
AcDbEntity
  8
YKK_Z1
  6
Continuous
100
AcDbLine
 10
4082.49993581
 20
15820.69081978
 30
0.0
 11
4102.49993581
 21
15800.69083017
 31
0.0
  0
LINE
  5
190
330
2F6
100
AcDbEntity
  8
YKK_Z1
  6
Continuous
100
AcDbLine
 10
4082.49993581
 20
15960.69074704
 30
0.0
 11
3902.49993581
 21
15960.69074704
 31
0.0
  0
LINE
  5
191
330
2F6
100
AcDbEntity
  8
YKK_C1
100
AcDbLine
 10
3929.49993581
 20
16022.69074704
 30
0.0
 11
3977.49993581
 21
16022.69074704
 31
0.0
  0
LINE
  5
192
330
2F6
100
AcDbEntity
  8
YKK_C1
100
AcDbLine
 10
3932.49993581
 20
15994.29074704
 30
0.0
 11
3977.49993581
 21
15994.29074704
 31
0.0
  0
LINE
  5
193
330
2F6
100
AcDbEntity
  8
YKK_C1
100
AcDbLine
 10
3967.49993581
 20
15985.69074704
 30
0.0
 11
3977.49993581
 21
15985.69074704
 31
0.0
  0
LINE
  5
194
330
2F6
100
AcDbEntity
  8
YKK_C1
100
AcDbLine
 10
3929.49993581
 20
15999.69074704
 30
0.0
 11
3883.62993581
 21
15999.69074704
 31
0.0
  0
LINE
  5
195
330
2F6
100
AcDbEntity
  8
YKK_C1
100
AcDbLine
 10
3877.49993581
 20
15980.69074704
 30
0.0
 11
3932.49993581
 21
15980.69074704
 31
0.0
  0
LINE
  5
196
330
2F6
100
AcDbEntity
  8
YKK_C1
100
AcDbLine
 10
3877.49993581
 20
16025.69074704
 30
0.0
 11
3891.49993581
 21
16025.69074704
 31
0.0
  0
LINE
  5
197
330
2F6
100
AcDbEntity
  8
YKK_C1
100
AcDbLine
 10
3883.62993581
 20
15999.69074704
 30
0.0
 11
3883.62993581
 21
16005.62074704
 31
0.0
  0
LINE
  5
198
330
2F6
100
AcDbEntity
  8
YKK_C1
100
AcDbLine
 10
3877.49993581
 20
16005.62074704
 30
0.0
 11
3896.29993581
 21
16005.62074704
 31
0.0
  0
LINE
  5
199
330
2F6
100
AcDbEntity
  8
YKK_C1
100
AcDbLine
 10
3896.29993581
 20
16005.62074704
 30
0.0
 11
3896.29993581
 21
16000.69074704
 31
0.0
  0
LINE
  5
19A
330
2F6
100
AcDbEntity
  8
YKK_C1
100
AcDbLine
 10
3896.29993581
 20
16000.69074704
 30
0.0
 11
3892.79993581
 21
16000.69074704
 31
0.0
  0
LINE
  5
19B
330
2F6
100
AcDbEntity
  8
YKK_C1
100
AcDbLine
 10
3890.99993581
 20
15999.69074704
 30
0.0
 11
3890.99993581
 21
16003.69074704
 31
0.0
  0
LINE
  5
19C
330
2F6
100
AcDbEntity
  8
YKK_C1
100
AcDbLine
 10
3890.99993581
 20
16003.69074704
 30
0.0
 11
3894.79993581
 21
16003.69074704
 31
0.0
  0
LINE
  5
19D
330
2F6
100
AcDbEntity
  8
YKK_C1
100
AcDbLine
 10
3887.49993581
 20
15999.69074704
 30
0.0
 11
3887.49993581
 21
15983.21482483
 31
0.0
  0
LINE
  5
19E
330
2F6
100
AcDbEntity
  8
YKK_C1
100
AcDbLine
 10
3887.49993581
 20
15983.21482483
 30
0.0
 11
3877.49993581
 21
15982.69074704
 31
0.0
  0
LINE
  5
19F
330
2F6
100
AcDbEntity
  8
YKK_C1
100
AcDbLine
 10
3877.49993581
 20
15982.69074704
 30
0.0
 11
3877.49993581
 21
15980.69074704
 31
0.0
  0
LINE
  5
1A0
330
2F6
100
AcDbEntity
  8
YKK_Z1
  6
Continuous
100
AcDbLine
 10
3887.49993581
 20
15980.69074704
 30
0.0
 11
3887.49993581
 21
15962.69074704
 31
0.0
  0
LINE
  5
1A1
330
2F6
100
AcDbEntity
  8
YKK_Z1
  6
Continuous
100
AcDbLine
 10
3887.49993581
 20
15962.69074704
 30
0.0
 11
3895.49993581
 21
15962.69074704
 31
0.0
  0
LINE
  5
1A2
330
2F6
100
AcDbEntity
  8
YKK_C1
100
AcDbLine
 10
3877.49993581
 20
15992.69074704
 30
0.0
 11
3877.49993581
 21
16025.69074704
 31
0.0
  0
LINE
  5
1A3
330
2F6
100
AcDbEntity
  8
YKK_C1
100
AcDbLine
 10
3891.49993581
 20
16025.69074704
 30
0.0
 11
3891.49993581
 21
16005.62074704
 31
0.0
  0
LINE
  5
1A4
330
2F6
100
AcDbEntity
  8
YKK_C1
100
AcDbLine
 10
3944.49993581
 20
16002.33565175
 30
0.0
 11
3929.49993581
 21
15999.69074704
 31
0.0
  0
LINE
  5
1A5
330
2F6
100
AcDbEntity
  8
YKK_C1
100
AcDbLine
 10
3932.49993581
 20
15970.69074704
 30
0.0
 11
3932.49993581
 21
16000.21972798
 31
0.0
  0
LINE
  5
1A6
330
2F6
100
AcDbEntity
  8
YKK_C1
100
AcDbLine
 10
3932.49993581
 20
15985.69074704
 30
0.0
 11
3941.49993581
 21
15985.69074704
 31
0.0
  0
LINE
  5
1A7
330
2F6
100
AcDbEntity
  8
YKK_C1
100
AcDbLine
 10
3929.49993581
 20
16025.69074704
 30
0.0
 11
3929.49993581
 21
16010.19074704
 31
0.0
  0
LINE
  5
1A8
330
2F6
100
AcDbEntity
  8
YKK_C1
100
AcDbLine
 10
3944.49993581
 20
16022.69074704
 30
0.0
 11
3944.49993581
 21
16002.33565175
 31
0.0
  0
LINE
  5
1A9
330
2F6
100
AcDbEntity
  8
YKK_Z1
  6
Continuous
100
AcDbLine
 10
3887.49993581
 20
15862.69074704
 30
0.0
 11
3895.49993581
 21
15862.69074704
 31
0.0
  0
LINE
  5
1AA
330
2F6
100
AcDbEntity
  8
YKK_Z1
100
AcDbLine
 10
3977.49993581
 20
16020.69074704
 30
0.0
 11
4132.49993581
 21
16020.69074704
 31
0.0
  0
LINE
  5
1AB
330
2F6
100
AcDbEntity
  8
YKK_C1
100
AcDbLine
 10
3977.49993581
 20
16025.69074704
 30
0.0
 11
3977.49993581
 21
15985.69074704
 31
0.0
  0
LINE
  5
1AC
330
2F6
100
AcDbEntity
  8
YKK_Z1
100
AcDbLine
 10
4132.49993581
 20
15995.69074704
 30
0.0
 11
4122.49993581
 21
15995.69074704
 31
0.0
  0
LINE
  5
1AD
330
2F6
100
AcDbEntity
  8
YKK_Z1
  6
Continuous
100
AcDbLine
 10
4109.99993581
 20
16005.69074704
 30
0.0
 11
4122.49993581
 21
16005.69074704
 31
0.0
  0
LINE
  5
1AE
330
2F6
100
AcDbEntity
  8
YKK_Z1
100
AcDbLine
 10
4132.49993581
 20
16020.69074704
 30
0.0
 11
4132.49993581
 21
15995.69074704
 31
0.0
  0
LINE
  5
1AF
330
2F6
100
AcDbEntity
  8
YKK_Z1
  6
Continuous
100
AcDbLine
 10
4082.49993581
 20
15960.69074704
 30
0.0
 11
4102.49993581
 21
15960.69074704
 31
0.0
  0
LINE
  5
1B2
330
2F6
100
AcDbEntity
  8
YKK_Z1
  6
Continuous
100
AcDbLine
 10
4102.49993581
 20
15940.69074357
 30
0.0
 11
4082.49993581
 21
15920.69074011
 31
0.0
  0
LINE
  5
1B3
330
2F6
100
AcDbEntity
  8
YKK_Z1
  6
Continuous
100
AcDbLine
 10
4082.49993581
 20
15940.69075743
 30
0.0
 11
4102.49993581
 21
15920.69076782
 31
0.0
  0
LINE
  5
1B4
330
2F6
100
AcDbEntity
  8
YKK_Z1
  6
Continuous
100
AcDbLine
 10
4102.49993581
 20
15880.69073318
 30
0.0
 11
4082.49993581
 21
15860.69072972
 31
0.0
  0
LINE
  5
1B5
330
2F6
100
AcDbEntity
  8
YKK_Z1
  6
Continuous
100
AcDbLine
 10
4082.49993581
 20
15880.69078861
 30
0.0
 11
4102.49993581
 21
15860.690799
 31
0.0
  0
LINE
  5
1B6
330
2F6
100
AcDbEntity
  8
YKK_Z1
  6
Continuous
100
AcDbLine
 10
4102.49993581
 20
15900.69073664
 30
0.0
 11
4082.49993581
 21
15880.69073318
 31
0.0
  0
LINE
  5
1B7
330
2F6
100
AcDbEntity
  8
YKK_Z1
  6
Continuous
100
AcDbLine
 10
4082.49993581
 20
15900.69077821
 30
0.0
 11
4102.49993581
 21
15880.69078861
 31
0.0
  0
LINE
  5
1B8
330
2F6
100
AcDbEntity
  8
YKK_Z1
  6
Continuous
100
AcDbLine
 10
4102.49993581
 20
15920.69074011
 30
0.0
 11
4082.49993581
 21
15900.69073664
 31
0.0
  0
LINE
  5
1B9
330
2F6
100
AcDbEntity
  8
YKK_Z1
  6
Continuous
100
AcDbLine
 10
4082.49993581
 20
15920.69076782
 30
0.0
 11
4102.49993581
 21
15900.69077821
 31
0.0
  0
LINE
  5
1BA
330
2F6
100
AcDbEntity
  8
YKK_Z1
  6
Continuous
100
AcDbLine
 10
4102.49993581
 20
15960.69074704
 30
0.0
 11
4082.49993581
 21
15940.69074357
 31
0.0
  0
LINE
  5
1BB
330
2F6
100
AcDbEntity
  8
YKK_Z1
  6
Continuous
100
AcDbLine
 10
4082.49993581
 20
15960.69074704
 30
0.0
 11
4102.49993581
 21
15940.69075743
 31
0.0
  0
LINE
  5
1BC
330
2F6
100
AcDbEntity
  8
YKK_N1
  6
ByBlock
100
AcDbLine
 10
4712.49993581
 20
16025.6907475
 30
0.0
 11
4712.49993581
 21
15345.6907475
 31
0.0
  0
LINE
  5
1BD
330
2F6
100
AcDbEntity
  8
YKK_Z1
  6
CENTER
100
AcDbLine
 10
4612.49993581
 20
15325.6907475
 30
0.0
 11
5112.49993581
 21
15325.6907475
 31
0.0
  0
POINT
  5
1BE
330
2F6
100
AcDbEntity
  8
YKK_N1
  6
ByBlock
100
AcDbPoint
 10
4712.49993581
 20
15325.6907475
 30
0.0
  0
POINT
  5
1BF
330
2F6
100
AcDbEntity
  8
YKK_N1
  6
ByBlock
100
AcDbPoint
 10
4712.49993581
 20
15325.6907475
 30
0.0
  0
CIRCLE
  5
1C0
330
2F6
100
AcDbEntity
  8
YKK_N1
100
AcDbCircle
 10
4712.49993581
 20
15325.6907475
 30
0.0
 40
10.0
  0
CIRCLE
  5
1C1
330
2F6
100
AcDbEntity
  8
YKK_N1
100
AcDbCircle
 10
4712.49993581
 20
15325.6907475
 30
0.0
 40
6.5
  0
LINE
  5
1C2
330
2F6
100
AcDbEntity
  8
YKK_N1
100
AcDbLine
 10
4712.49993581
 20
15325.6907475
 30
0.0
 11
4712.49993581
 21
15345.6907475
 31
0.0
  0
TEXT
  5
1C3
330
2F6
100
AcDbEntity
  8
YKK_Z1
100
AcDbText
 10
5034.7856501
 20
15335.6907475
 30
0.0
 40
60.0
  1
FL
 41
0.8
  7
YKK_SGSTYLE1
 72
     2
 11
5112.49993581
 21
15335.6907475
 31
0.0
100
AcDbText
  0
LINE
  5
1C4
330
2F6
100
AcDbEntity
  8
YKK_Z1
  6
ByBlock
 62
     0
100
AcDbLine
 10
5029.4266661
 20
15385.6907475
 30
0.0
 11
4994.7856501
 21
15325.6907475
 31
0.0
  0
LINE
  5
1C5
330
2F6
100
AcDbEntity
  8
YKK_Z1
  6
ByBlock
 62
     0
100
AcDbLine
 10
4994.7856501
 20
15325.6907475
 30
0.0
 11
4960.1446341
 21
15385.6907475
 31
0.0
  0
LINE
  5
1C6
330
2F6
100
AcDbEntity
  8
YKK_Z1
  6
ByBlock
 62
     0
100
AcDbLine
 10
4960.1446341
 20
15385.6907475
 30
0.0
 11
5029.4266661
 21
15385.6907475
 31
0.0
  0
TEXT
  5
1C7
330
2F6
100
AcDbEntity
  8
YKK_N1
100
AcDbText
 10
4702.49993581
 20
15607.11931893
 30
0.0
 40
60.0
  1
700
 50
90.0
 41
0.8
  7
YKK_SGSTYLE1
100
AcDbText
  0
CIRCLE
  5
1C8
330
2F6
100
AcDbEntity
  8
YKK_N1
100
AcDbCircle
 10
4512.49993581
 20
16025.6907475
 30
0.0
 40
6.5
  0
CIRCLE
  5
1C9
330
2F6
100
AcDbEntity
  8
YKK_N1
100
AcDbCircle
 10
4512.49993581
 20
16025.6907475
 30
0.0
 40
10.0
  0
LINE
  5
1CA
330
2F6
100
AcDbEntity
  8
YKK_N1
  6
Continuous
100
AcDbLine
 10
4712.49993581
 20
16025.6907475
 30
0.0
 11
4762.49993581
 21
16112.29328788
 31
0.0
  0
LINE
  5
1CB
330
2F6
100
AcDbEntity
  8
YKK_N1
  6
Continuous
100
AcDbLine
 10
4662.49993581
 20
16112.29328788
 30
0.0
 11
4762.49993581
 21
16112.29328788
 31
0.0
  0
LINE
  5
1CC
330
2F6
100
AcDbEntity
  8
YKK_N1
  6
Continuous
100
AcDbLine
 10
4662.49993581
 20
16112.29328788
 30
0.0
 11
4712.49993581
 21
16025.6907475
 31
0.0
  0
TEXT
  5
1CD
330
2F6
100
AcDbEntity
  8
0
100
AcDbText
 10
100.0
 20
19187.5
 30
0.0
 40
200.0
  1
FIX窓（下枠）　一般タイプ
  7
EXTFONT
100
AcDbText
  0
TEXT
  5
1CE
330
2F6
100
AcDbEntity
  8
0
100
AcDbText
 10
100.0
 20
18737.5
 30
0.0
 40
200.0
  1
W＝1,600　H＝1,650
  7
EXTFONT
100
AcDbText
  0
LINE
  5
1CF
330
2F6
100
AcDbEntity
  8
YKK_N1
  6
Continuous
100
AcDbLine
 10
2692.49993581
 20
17675.6907475
 30
0.0
 11
3212.49993581
 21
17675.6907475
 31
0.0
  0
LINE
  5
1D0
330
2F6
100
AcDbEntity
  8
YKK_A1
100
AcDbLine
 10
2612.49993993
 20
17680.6907475
 30
0.0
 11
1002.50006007
 21
17680.6907475
 31
0.0
  0
LINE
  5
1D1
330
2F6
100
AcDbEntity
  8
YKK_A1
100
AcDbLine
 10
2607.49977955
 20
17675.69070975
 30
0.0
 11
1834.99983915
 21
17675.69070975
 31
0.0
  0
LINE
  5
1D2
330
2F6
100
AcDbEntity
  8
YKK_A1
100
AcDbLine
 10
2607.49977955
 20
17175.69074283
 30
0.0
 11
1834.99983915
 21
17175.69074283
 31
0.0
  0
LINE
  5
1D3
330
2F6
100
AcDbEntity
  8
YKK_A1
100
AcDbLine
 10
1834.99983915
 20
17230.69073955
 30
0.0
 11
2607.49977955
 21
17230.69073955
 31
0.0
  0
LINE
  5
1D4
330
2F6
100
AcDbEntity
  8
YKK_A1
100
AcDbLine
 10
1779.99984243
 20
17675.69070975
 30
0.0
 11
1007.49990204
 21
17675.69070975
 31
0.0
  0
LINE
  5
1D5
330
2F6
100
AcDbEntity
  8
YKK_A1
100
AcDbLine
 10
1007.49990204
 20
17230.69073955
 30
0.0
 11
1779.99984243
 21
17230.69073955
 31
0.0
  0
LINE
  5
1D6
330
2F6
100
AcDbEntity
  8
YKK_A1
100
AcDbLine
 10
1779.99984243
 20
17175.69074283
 30
0.0
 11
1007.49990204
 21
17175.69074283
 31
0.0
  0
TEXT
  5
1D7
330
2F6
100
AcDbEntity
  8
YKK_A1
100
AcDbText
 10
1711.14269957
 20
17260.69073955
 30
0.0
 40
60.0
  1
F
 41
0.8
  7
YKK_SGSTYLE1
 72
     2
 11
1749.99984243
 21
17260.69073955
 31
0.0
100
AcDbText
  0
TEXT
  5
1D8
330
2F6
100
AcDbEntity
  8
YKK_N1
  6
Continuous
100
AcDbText
 10
3000.49993581
 20
16514.82886196
 30
0.0
 40
60.0
  1
1150
 50
90.0
 72
     4
 11
2970.49993581
 21
16599.82886196
 31
0.0
100
AcDbText
  0
TEXT
  5
1D9
330
2F6
100
AcDbEntity
  8
YKK_A1
100
AcDbText
 10
2538.64263669
 20
17260.69073955
 30
0.0
 40
60.0
  1
F
 41
0.8
  7
YKK_SGSTYLE1
 72
     2
 11
2577.49977955
 21
17260.69073955
 31
0.0
100
AcDbText
  0
LINE
  5
1DA
330
2F6
100
AcDbEntity
  8
YKK_N1
  6
Continuous
100
AcDbLine
 10
3012.49993581
 20
17230.6907475
 30
0.0
 11
3012.49993581
 21
17675.6907475
 31
0.0
  0
TEXT
  5
1DB
330
2F6
100
AcDbEntity
  8
YKK_N1
  6
Continuous
100
AcDbText
 10
3000.49993581
 20
17377.54907949
 30
0.0
 40
60.0
  1
445
 50
90.0
 72
     4
 11
2970.49993581
 21
17457.54907949
 31
0.0
100
AcDbText
  0
LINE
  5
1DC
330
2F6
100
AcDbEntity
  8
YKK_N1
  6
Continuous
100
AcDbLine
 10
2692.49993581
 20
17175.6907475
 30
0.0
 11
3012.49993581
 21
17175.6907475
 31
0.0
  0
LINE
  5
1DD
330
2F6
100
AcDbEntity
  8
YKK_N1
  6
Continuous
100
AcDbLine
 10
2692.49993581
 20
17230.6907475
 30
0.0
 11
3012.49993581
 21
17230.6907475
 31
0.0
  0
LINE
  5
1DE
330
2F6
100
AcDbEntity
  8
YKK_N1
100
AcDbLine
 10
3012.49993581
 20
17230.6907475
 30
0.0
 11
3012.49993581
 21
17175.6907475
 31
0.0
  0
TEXT
  5
1DF
330
2F6
100
AcDbEntity
  8
YKK_N1
  6
Continuous
100
AcDbText
 10
3087.49382454
 20
17151.71985296
 30
0.0
 40
60.0
  1
55
 50
90.0
 72
     4
 11
3057.49382454
 21
17201.71985296
 31
0.0
100
AcDbText
  0
CIRCLE
  5
1E0
330
2F6
100
AcDbEntity
  8
YKK_N1
100
AcDbCircle
 10
3012.49993581
 20
17230.6907475
 30
0.0
 40
10.0
  0
CIRCLE
  5
1E1
330
2F6
100
AcDbEntity
  8
YKK_N1
100
AcDbCircle
 10
3012.49993581
 20
17230.6907475
 30
0.0
 40
6.5
  0
CIRCLE
  5
1E2
330
2F6
100
AcDbEntity
  8
YKK_N1
100
AcDbCircle
 10
3012.49993581
 20
17175.6907475
 30
0.0
 40
10.0
  0
CIRCLE
  5
1E3
330
2F6
100
AcDbEntity
  8
YKK_N1
100
AcDbCircle
 10
3012.49993581
 20
17175.6907475
 30
0.0
 40
6.5
  0
CIRCLE
  5
1E4
330
2F6
100
AcDbEntity
  8
YKK_N1
100
AcDbCircle
 10
3012.49993581
 20
17675.6907475
 30
0.0
 40
10.0
  0
CIRCLE
  5
1E5
330
2F6
100
AcDbEntity
  8
YKK_N1
100
AcDbCircle
 10
3012.49993581
 20
17675.6907475
 30
0.0
 40
6.5
  0
TEXT
  5
1E6
330
2F6
100
AcDbEntity
  8
YKK_N1
  6
Continuous
100
AcDbText
 10
4700.49993581
 20
17755.67057535
 30
0.0
 40
60.0
  1
20
 50
90.0
 72
     4
 11
4670.49993581
 21
17800.67057535
 31
0.0
100
AcDbText
  0
LINE
  5
1E7
330
2F6
100
AcDbEntity
  8
YKK_Z1
  6
Continuous
100
AcDbLine
 10
4102.49993581
 20
17805.69076136
 30
0.0
 11
4082.49993581
 21
17825.69076482
 31
0.0
  0
LINE
  5
1E8
330
2F6
100
AcDbEntity
  8
YKK_Z1
  6
Continuous
100
AcDbLine
 10
4082.49993581
 20
17805.69070593
 30
0.0
 11
4102.49993581
 21
17825.69069554
 31
0.0
  0
LINE
  5
1E9
330
2F6
100
AcDbEntity
  8
YKK_Z1
  6
Continuous
100
AcDbLine
 10
4122.49993581
 20
17705.6907475
 30
0.0
 11
4122.49993581
 21
18075.6907475
 31
0.0
  0
LINE
  5
1EA
330
2F6
100
AcDbEntity
  8
YKK_Z1
  6
Continuous
100
AcDbLine
 10
4109.99993581
 20
18075.6907475
 30
0.0
 11
4109.99993581
 21
17705.6907475
 31
0.0
  0
LINE
  5
1EB
330
2F6
100
AcDbEntity
  8
YKK_Z1
  6
Continuous
100
AcDbLine
 10
3902.49993581
 20
17725.6907475
 30
0.0
 11
3902.49993581
 21
18075.6907475
 31
0.0
  0
LINE
  5
1EC
330
2F6
100
AcDbEntity
  8
YKK_Z1
  6
Continuous
100
AcDbLine
 10
3887.49993581
 20
17727.1907475
 30
0.0
 11
3887.49993581
 21
18075.6907475
 31
0.0
  0
LINE
  5
1ED
330
2F6
100
AcDbEntity
  8
YKK_Z1
  6
Continuous
100
AcDbLine
 10
3895.49993581
 20
17727.1907475
 30
0.0
 11
3895.49993581
 21
18075.6907475
 31
0.0
  0
LINE
  5
1EE
330
2F6
100
AcDbEntity
  8
YKK_Z1
  6
CENTER
100
AcDbLine
 10
3992.49993581
 20
17713.1907475
 30
0.0
 11
3992.49993581
 21
18075.6907475
 31
0.0
  0
LINE
  5
1EF
330
2F6
100
AcDbEntity
  8
YKK_Z1
  6
Continuous
100
AcDbLine
 10
4082.49993581
 20
18075.6907475
 30
0.0
 11
4082.49993581
 21
17725.6907475
 31
0.0
  0
LINE
  5
1F0
330
2F6
100
AcDbEntity
  8
YKK_Z1
  6
Continuous
100
AcDbLine
 10
4102.49993581
 20
17725.6907475
 30
0.0
 11
4102.49993581
 21
18075.6907475
 31
0.0
  0
LINE
  5
1F1
330
2F6
100
AcDbEntity
  8
YKK_N1
  6
Continuous
100
AcDbLine
 10
4192.49993581
 20
17675.6907475
 30
0.0
 11
4712.49993581
 21
17675.6907475
 31
0.0
  0
LINE
  5
1F2
330
2F6
100
AcDbEntity
  8
YKK_N1
  6
Continuous
100
AcDbLine
 10
4192.49993581
 20
17700.6907475
 30
0.0
 11
4712.49993581
 21
17700.6907475
 31
0.0
  0
LINE
  5
1F3
330
2F6
100
AcDbEntity
  8
YKK_N1
  6
Continuous
100
AcDbLine
 10
4192.49993581
 20
17175.6907475
 30
0.0
 11
4512.49993581
 21
17175.6907475
 31
0.0
  0
LINE
  5
1F4
330
2F6
100
AcDbEntity
  8
YKK_N1
  6
Continuous
100
AcDbLine
 10
4192.49993581
 20
17230.6907475
 30
0.0
 11
4512.49993581
 21
17230.6907475
 31
0.0
  0
LINE
  5
1F5
330
2F6
100
AcDbEntity
  8
YKK_N1
  6
Continuous
100
AcDbLine
 10
4192.49993581
 20
17720.6907475
 30
0.0
 11
4712.49993581
 21
17720.6907475
 31
0.0
  0
TEXT
  5
1F6
330
2F6
100
AcDbEntity
  8
YKK_N1
  6
Continuous
100
AcDbText
 10
3200.49993581
 20
16693.77019558
 30
0.0
 40
60.0
  1
H=1650
 50
90.0
 72
     4
 11
3170.49993581
 21
16848.77019558
 31
0.0
100
AcDbText
  0
LINE
  5
1F7
330
2F6
100
AcDbEntity
  8
YKK_N1
  6
Continuous
100
AcDbLine
 10
3977.50240888
 20
16506.87720362
 30
0.0
 11
3877.49993571
 21
16506.87720362
 31
0.0
  0
CIRCLE
  5
1F8
330
2F6
100
AcDbEntity
  8
YKK_N1
100
AcDbCircle
 10
3977.50240888
 20
16506.87720362
 30
0.0
 40
10.0
  0
CIRCLE
  5
1F9
330
2F6
100
AcDbEntity
  8
YKK_N1
100
AcDbCircle
 10
3977.50240888
 20
16506.87720362
 30
0.0
 40
6.5
  0
TEXT
  5
1FA
330
2F6
100
AcDbEntity
  8
YKK_N1
  6
Continuous
100
AcDbText
 10
3702.49332193
 20
16525.51097496
 30
0.0
 40
60.0
  1
100
100
AcDbText
  0
CIRCLE
  5
1FB
330
2F6
100
AcDbEntity
  8
YKK_N1
100
AcDbCircle
 10
3877.49993571
 20
16506.87720362
 30
0.0
 40
10.0
  0
CIRCLE
  5
1FC
330
2F6
100
AcDbEntity
  8
YKK_N1
100
AcDbCircle
 10
3877.49993571
 20
16506.87720362
 30
0.0
 40
6.5
  0
LINE
  5
1FD
330
2F6
100
AcDbEntity
  8
YKK_N1
  6
Continuous
100
AcDbLine
 10
3977.49993571
 20
16506.87720362
 30
0.0
 11
3977.49993571
 21
16281.87720362
 31
0.0
  0
LINE
  5
1FE
330
2F6
100
AcDbEntity
  8
YKK_N1
  6
Continuous
100
AcDbLine
 10
3162.49993581
 20
17589.08820713
 30
0.0
 11
3262.49993581
 21
17589.08820713
 31
0.0
  0
LINE
  5
1FF
330
2F6
100
AcDbEntity
  8
YKK_N1
  6
Continuous
100
AcDbLine
 10
3162.49993581
 20
17589.08820713
 30
0.0
 11
3212.49993581
 21
17675.6907475
 31
0.0
  0
LINE
  5
200
330
2F6
100
AcDbEntity
  8
YKK_N1
  6
Continuous
100
AcDbLine
 10
3262.49993581
 20
17589.08820713
 30
0.0
 11
3212.49993581
 21
17675.6907475
 31
0.0
  0
LINE
  5
201
330
2F6
100
AcDbEntity
  8
YKK_C1
100
AcDbLine
 10
3877.49993581
 20
17665.69069976
 30
0.0
 11
3877.49993556
 21
17240.69074486
 31
0.0
  0
LINE
  5
202
330
2F6
100
AcDbEntity
  8
YKK_C1
100
AcDbLine
 10
3977.49993581
 20
17240.69074486
 30
0.0
 11
3977.49993581
 21
17665.69069976
 31
0.0
  0
LINE
  5
203
330
2F6
100
AcDbEntity
  8
YKK_C1
100
AcDbLine
 10
3898.49996633
 20
17215.69074486
 30
0.0
 11
3898.49996633
 21
17690.69077737
 31
0.0
  0
LINE
  5
204
330
2F6
100
AcDbEntity
  8
YKK_C1
100
AcDbLine
 10
3922.49996633
 20
17690.69062214
 30
0.0
 11
3922.49996633
 21
17215.69074486
 31
0.0
  0
LINE
  5
205
330
2F6
100
AcDbEntity
  8
YKK_C1
100
AcDbLine
 10
3929.49993581
 20
17227.69074486
 30
0.0
 11
3977.49993581
 21
17227.69074486
 31
0.0
  0
LINE
  5
206
330
2F6
100
AcDbEntity
  8
YKK_C1
100
AcDbLine
 10
3977.49993581
 20
17175.69074486
 30
0.0
 11
3929.49993581
 21
17175.69074486
 31
0.0
  0
LINE
  5
207
330
2F6
100
AcDbEntity
  8
YKK_C1
100
AcDbLine
 10
3929.49993581
 20
17204.69074486
 30
0.0
 11
3887.49993581
 21
17204.69074486
 31
0.0
  0
LINE
  5
208
330
2F6
100
AcDbEntity
  8
YKK_C1
100
AcDbLine
 10
3877.49959134
 20
17230.69074486
 30
0.0
 11
3891.49959134
 21
17230.69074486
 31
0.0
  0
LINE
  5
209
330
2F6
100
AcDbEntity
  8
YKK_C1
100
AcDbLine
 10
3891.49959134
 20
17230.69074486
 30
0.0
 11
3891.49959134
 21
17216.69074486
 31
0.0
  0
LINE
  5
20A
330
2F6
100
AcDbEntity
  8
YKK_C1
100
AcDbLine
 10
3887.49993581
 20
17204.69074486
 30
0.0
 11
3887.49993581
 21
17198.62074486
 31
0.0
  0
LINE
  5
20B
330
2F6
100
AcDbEntity
  8
YKK_C1
100
AcDbLine
 10
3891.49959134
 20
17175.69074486
 30
0.0
 11
3891.49959134
 21
17198.62074486
 31
0.0
  0
LINE
  5
20C
330
2F6
100
AcDbEntity
  8
YKK_C1
100
AcDbLine
 10
3877.49959134
 20
17198.62074486
 30
0.0
 11
3902.79959134
 21
17198.62074486
 31
0.0
  0
LINE
  5
20D
330
2F6
100
AcDbEntity
  8
YKK_C1
100
AcDbLine
 10
3902.79959134
 20
17198.62074486
 30
0.0
 11
3902.79959134
 21
17204.69074486
 31
0.0
  0
LINE
  5
20E
330
2F6
100
AcDbEntity
  8
YKK_C1
100
AcDbLine
 10
3877.49959134
 20
17175.69074486
 30
0.0
 11
3877.49959134
 21
17230.69074486
 31
0.0
  0
LINE
  5
20F
330
2F6
100
AcDbEntity
  8
YKK_C1
100
AcDbLine
 10
3929.49993581
 20
17230.69074486
 30
0.0
 11
3929.49993581
 21
17215.19074486
 31
0.0
  0
LINE
  5
210
330
2F6
100
AcDbEntity
  8
YKK_C1
100
AcDbLine
 10
3944.49993581
 20
17207.33564957
 30
0.0
 11
3929.49993581
 21
17204.69074486
 31
0.0
  0
LINE
  5
211
330
2F6
100
AcDbEntity
  8
YKK_C1
100
AcDbLine
 10
3929.49993581
 20
17175.69074486
 30
0.0
 11
3929.49993581
 21
17204.69074486
 31
0.0
  0
LINE
  5
212
330
2F6
100
AcDbEntity
  8
YKK_C1
100
AcDbLine
 10
3944.49993581
 20
17227.69074486
 30
0.0
 11
3944.49993581
 21
17207.33564957
 31
0.0
  0
LINE
  5
213
330
2F6
100
AcDbEntity
  8
YKK_C1
100
AcDbLine
 10
3977.49993581
 20
17230.69074486
 30
0.0
 11
3977.49993581
 21
17175.69074486
 31
0.0
  0
LINE
  5
214
330
2F6
100
AcDbEntity
  8
YKK_C1
100
AcDbLine
 10
3967.49993581
 20
17700.69069976
 30
0.0
 11
3977.49993581
 21
17700.69069976
 31
0.0
  0
LINE
  5
215
330
2F6
100
AcDbEntity
  8
YKK_C1
100
AcDbLine
 10
3977.49993581
 20
17675.69069976
 30
0.0
 11
3929.49993581
 21
17675.69069976
 31
0.0
  0
LINE
  5
216
330
2F6
100
AcDbEntity
  8
YKK_C1
100
AcDbLine
 10
3929.49993581
 20
17691.72069976
 30
0.0
 11
3977.49993581
 21
17691.72069976
 31
0.0
  0
LINE
  5
217
330
2F6
100
AcDbEntity
  8
YKK_Z1
  6
Continuous
100
AcDbLine
 10
4082.49993581
 20
17725.6907475
 30
0.0
 11
3902.49993581
 21
17725.6907475
 31
0.0
  0
LINE
  5
218
330
2F6
100
AcDbEntity
  8
YKK_Z1
  6
Continuous
100
AcDbLine
 10
3887.49993581
 20
17710.69069976
 30
0.0
 11
3887.49993581
 21
17727.1907475
 31
0.0
  0
LINE
  5
219
330
2F6
100
AcDbEntity
  8
YKK_C1
100
AcDbLine
 10
3932.49993581
 20
17710.69069976
 30
0.0
 11
3932.49993581
 21
17720.69069976
 31
0.0
  0
LINE
  5
21A
330
2F6
100
AcDbEntity
  8
YKK_C1
100
AcDbLine
 10
3877.49993581
 20
17710.69069976
 30
0.0
 11
3932.49993581
 21
17710.69069976
 31
0.0
  0
LINE
  5
21B
330
2F6
100
AcDbEntity
  8
YKK_C1
100
AcDbLine
 10
3877.49996633
 20
17675.69069976
 30
0.0
 11
3877.49993581
 21
17710.69069976
 31
0.0
  0
LINE
  5
21C
330
2F6
100
AcDbEntity
  8
YKK_C1
100
AcDbLine
 10
3877.49996633
 20
17690.69069976
 30
0.0
 11
3891.49996633
 21
17690.69069976
 31
0.0
  0
LINE
  5
21D
330
2F6
100
AcDbEntity
  8
YKK_C1
100
AcDbLine
 10
3891.49996633
 20
17675.69069976
 30
0.0
 11
3891.49996633
 21
17693.69069976
 31
0.0
  0
LINE
  5
21E
330
2F6
100
AcDbEntity
  8
YKK_C1
100
AcDbLine
 10
3877.49994846
 20
17696.19069976
 30
0.0
 11
3887.69993581
 21
17696.19069976
 31
0.0
  0
LINE
  5
21F
330
2F6
100
AcDbEntity
  8
YKK_C1
100
AcDbLine
 10
3887.69993581
 20
17696.19069976
 30
0.0
 11
3887.69993581
 21
17693.69069976
 31
0.0
  0
LINE
  5
220
330
2F6
100
AcDbEntity
  8
YKK_C1
100
AcDbLine
 10
3887.69993581
 20
17693.69069976
 30
0.0
 11
3891.49996633
 21
17693.69069976
 31
0.0
  0
LINE
  5
221
330
2F6
100
AcDbEntity
  8
YKK_C1
100
AcDbLine
 10
3929.49993581
 20
17675.69069976
 30
0.0
 11
3929.49993581
 21
17710.69069976
 31
0.0
  0
LINE
  5
222
330
2F6
100
AcDbEntity
  8
YKK_C1
100
AcDbLine
 10
3941.49993581
 20
17700.69069976
 30
0.0
 11
3929.49993581
 21
17700.69069976
 31
0.0
  0
LINE
  5
223
330
2F6
100
AcDbEntity
  8
YKK_Z1
  6
Continuous
100
AcDbLine
 10
3887.49993581
 20
17727.1907475
 30
0.0
 11
3895.49993581
 21
17727.1907475
 31
0.0
  0
LINE
  5
224
330
2F6
100
AcDbEntity
  8
YKK_Z1
100
AcDbLine
 10
3977.49993581
 20
17680.6907475
 30
0.0
 11
4132.49993581
 21
17680.6907475
 31
0.0
  0
LINE
  5
225
330
2F6
100
AcDbEntity
  8
YKK_C1
100
AcDbLine
 10
3977.49993581
 20
17700.69069976
 30
0.0
 11
3977.49993581
 21
17675.69069976
 31
0.0
  0
LINE
  5
226
330
2F6
100
AcDbEntity
  8
YKK_Z1
100
AcDbLine
 10
4132.49993581
 20
17705.6907475
 30
0.0
 11
4122.49993581
 21
17705.6907475
 31
0.0
  0
LINE
  5
227
330
2F6
100
AcDbEntity
  8
YKK_Z1
  6
Continuous
100
AcDbLine
 10
4109.99993581
 20
17705.6907475
 30
0.0
 11
4122.49993581
 21
17705.6907475
 31
0.0
  0
LINE
  5
228
330
2F6
100
AcDbEntity
  8
YKK_Z1
100
AcDbLine
 10
4132.49993581
 20
17680.6907475
 30
0.0
 11
4132.49993581
 21
17705.6907475
 31
0.0
  0
LINE
  5
229
330
2F6
100
AcDbEntity
  8
YKK_Z1
  6
Continuous
100
AcDbLine
 10
4057.76890146
 20
17725.6907475
 30
0.0
 11
4082.49993581
 21
17750.421769
 31
0.0
  0
LINE
  5
22A
330
2F6
100
AcDbEntity
  8
YKK_Z1
  6
Continuous
100
AcDbLine
 10
4102.49993581
 20
17725.6907475
 30
0.0
 11
4082.49993581
 21
17745.69075097
 31
0.0
  0
LINE
  5
22B
330
2F6
100
AcDbEntity
  8
YKK_Z1
  6
Continuous
100
AcDbLine
 10
4082.49993581
 20
17725.6907475
 30
0.0
 11
4102.49993581
 21
17745.69073711
 31
0.0
  0
LINE
  5
22C
330
2F6
100
AcDbEntity
  8
YKK_Z1
  6
Continuous
100
AcDbLine
 10
4082.49993581
 20
17725.6907475
 30
0.0
 11
4102.49993581
 21
17725.6907475
 31
0.0
  0
LINE
  5
22E
330
2F6
100
AcDbEntity
  8
YKK_Z1
  6
Continuous
100
AcDbLine
 10
4102.49993581
 20
17745.69075097
 30
0.0
 11
4082.49993581
 21
17765.69075443
 31
0.0
  0
LINE
  5
22F
330
2F6
100
AcDbEntity
  8
YKK_Z1
  6
Continuous
100
AcDbLine
 10
4102.49993581
 20
17765.69075443
 30
0.0
 11
4082.49993581
 21
17785.6907579
 31
0.0
  0
LINE
  5
230
330
2F6
100
AcDbEntity
  8
YKK_Z1
  6
Continuous
100
AcDbLine
 10
4102.49993581
 20
17785.6907579
 30
0.0
 11
4082.49993581
 21
17805.69076136
 31
0.0
  0
LINE
  5
231
330
2F6
100
AcDbEntity
  8
YKK_Z1
  6
Continuous
100
AcDbLine
 10
4082.49993581
 20
17745.69073711
 30
0.0
 11
4102.49993581
 21
17765.69072672
 31
0.0
  0
LINE
  5
232
330
2F6
100
AcDbEntity
  8
YKK_Z1
  6
Continuous
100
AcDbLine
 10
4082.49993581
 20
17765.69072672
 30
0.0
 11
4102.49993581
 21
17785.69071633
 31
0.0
  0
LINE
  5
233
330
2F6
100
AcDbEntity
  8
YKK_Z1
  6
Continuous
100
AcDbLine
 10
4082.49993581
 20
17785.69071633
 30
0.0
 11
4102.49993581
 21
17805.69070593
 31
0.0
  0
LINE
  5
234
330
2F6
100
AcDbEntity
  8
YKK_Z1
  6
Continuous
100
AcDbLine
 10
4029.48462777
 20
17725.6907475
 30
0.0
 11
4082.49993581
 21
17778.706028
 31
0.0
  0
LINE
  5
235
330
2F6
100
AcDbEntity
  8
YKK_Z1
  6
Continuous
100
AcDbLine
 10
4037.96990988
 20
17725.6907475
 30
0.0
 11
4082.49993581
 21
17770.2207503
 31
0.0
  0
TEXT
  5
236
330
2F6
100
AcDbEntity
  8
YKK_N1
  6
Continuous
100
AcDbText
 10
4500.49993581
 20
16514.82886196
 30
0.0
 40
60.0
  1
1150
 50
90.0
 72
     4
 11
4470.49993581
 21
16599.82886196
 31
0.0
100
AcDbText
  0
TEXT
  5
237
330
2F6
100
AcDbEntity
  8
YKK_N1
  6
Continuous
100
AcDbText
 10
4700.49993581
 20
16693.77019558
 30
0.0
 40
60.0
  1
H=1650
 50
90.0
 72
     4
 11
4670.49993581
 21
16848.77019558
 31
0.0
100
AcDbText
  0
LINE
  5
238
330
2F6
100
AcDbEntity
  8
YKK_N1
  6
Continuous
100
AcDbLine
 10
4512.49993581
 20
17230.6907475
 30
0.0
 11
4512.49993581
 21
17675.6907475
 31
0.0
  0
TEXT
  5
239
330
2F6
100
AcDbEntity
  8
YKK_N1
  6
Continuous
100
AcDbText
 10
4500.49993581
 20
17377.54907949
 30
0.0
 40
60.0
  1
445
 50
90.0
 72
     4
 11
4470.49993581
 21
17457.54907949
 31
0.0
100
AcDbText
  0
TEXT
  5
23A
330
2F6
100
AcDbEntity
  8
YKK_N1
  6
Continuous
100
AcDbText
 10
4587.49382454
 20
17151.71985296
 30
0.0
 40
60.0
  1
55
 50
90.0
 72
     4
 11
4557.49382454
 21
17201.71985296
 31
0.0
100
AcDbText
  0
CIRCLE
  5
23B
330
2F6
100
AcDbEntity
  8
YKK_N1
100
AcDbCircle
 10
4512.49993581
 20
17230.6907475
 30
0.0
 40
6.5
  0
CIRCLE
  5
23C
330
2F6
100
AcDbEntity
  8
YKK_N1
100
AcDbCircle
 10
4512.49993581
 20
17230.6907475
 30
0.0
 40
10.0
  0
CIRCLE
  5
23D
330
2F6
100
AcDbEntity
  8
YKK_N1
100
AcDbCircle
 10
4512.49993581
 20
17175.6907475
 30
0.0
 40
6.5
  0
CIRCLE
  5
23E
330
2F6
100
AcDbEntity
  8
YKK_N1
100
AcDbCircle
 10
4512.49993581
 20
17175.6907475
 30
0.0
 40
10.0
  0
LINE
  5
23F
330
2F6
100
AcDbEntity
  8
YKK_N1
100
AcDbLine
 10
4512.49993581
 20
17230.6907475
 30
0.0
 11
4512.49993581
 21
17175.6907475
 31
0.0
  0
CIRCLE
  5
240
330
2F6
100
AcDbEntity
  8
YKK_N1
100
AcDbCircle
 10
4512.49993581
 20
17675.6907475
 30
0.0
 40
6.5
  0
CIRCLE
  5
241
330
2F6
100
AcDbEntity
  8
YKK_N1
100
AcDbCircle
 10
4512.49993581
 20
17675.6907475
 30
0.0
 40
10.0
  0
TEXT
  5
242
330
2F6
100
AcDbEntity
  8
YKK_N1
  6
Continuous
100
AcDbText
 10
4788.61718251
 20
17643.54539044
 30
0.0
 40
60.0
  1
25
 50
90.0
 72
     4
 11
4758.61718251
 21
17693.54539044
 31
0.0
100
AcDbText
  0
CIRCLE
  5
243
330
2F6
100
AcDbEntity
  8
YKK_N1
100
AcDbCircle
 10
4712.49993581
 20
17720.6907475
 30
0.0
 40
10.0
  0
LINE
  5
244
330
2F6
100
AcDbEntity
  8
YKK_N1
100
AcDbLine
 10
4712.49993581
 20
17700.6907475
 30
0.0
 11
4712.49993581
 21
17720.6907475
 31
0.0
  0
LINE
  5
245
330
2F6
100
AcDbEntity
  8
YKK_N1
  6
Continuous
100
AcDbLine
 10
4762.49993581
 20
17589.08820713
 30
0.0
 11
4712.49993581
 21
17675.6907475
 31
0.0
  0
LINE
  5
246
330
2F6
100
AcDbEntity
  8
YKK_N1
  6
Continuous
100
AcDbLine
 10
4662.49993581
 20
17589.08820713
 30
0.0
 11
4762.49993581
 21
17589.08820713
 31
0.0
  0
CIRCLE
  5
247
330
2F6
100
AcDbEntity
  8
YKK_N1
100
AcDbCircle
 10
4712.49993581
 20
17700.6907475
 30
0.0
 40
6.5
  0
CIRCLE
  5
248
330
2F6
100
AcDbEntity
  8
YKK_N1
100
AcDbCircle
 10
4712.49993581
 20
17700.6907475
 30
0.0
 40
10.0
  0
LINE
  5
249
330
2F6
100
AcDbEntity
  8
YKK_N1
  6
Continuous
100
AcDbLine
 10
4712.49993581
 20
17675.6907475
 30
0.0
 11
4712.49993581
 21
17700.6907475
 31
0.0
  0
LINE
  5
24A
330
2F6
100
AcDbEntity
  8
YKK_N1
  6
Continuous
100
AcDbLine
 10
4662.49993581
 20
17589.08820713
 30
0.0
 11
4712.49993581
 21
17675.6907475
 31
0.0
  0
CIRCLE
  5
24B
330
2F6
100
AcDbEntity
  8
YKK_N1
100
AcDbCircle
 10
4712.49993581
 20
17720.6907475
 30
0.0
 40
6.5
  0
LINE
  5
24C
330
2F6
100
AcDbEntity
  8
YKK_Z1
  6
Continuous
100
AcDbLine
 10
3902.49993581
 20
17895.69084103
 30
0.0
 11
4082.49993581
 21
18075.6907475
 31
0.0
  0
LINE
  5
24D
330
2F6
100
AcDbEntity
  8
YKK_Z1
  6
Continuous
100
AcDbLine
 10
3902.49993581
 20
17887.20556333
 30
0.0
 11
4082.49993581
 21
18067.2054698
 31
0.0
  0
LINE
  5
24E
330
2F6
100
AcDbEntity
  8
YKK_Z1
  6
Continuous
100
AcDbLine
 10
3902.49993581
 20
17867.40658203
 30
0.0
 11
4082.49993581
 21
18047.4064885
 31
0.0
  0
LINE
  5
24F
330
2F6
100
AcDbEntity
  8
YKK_Z1
  6
Continuous
100
AcDbLine
 10
3887.49993581
 20
18047.1907475
 30
0.0
 11
3895.49993581
 21
18047.1907475
 31
0.0
  0
LINE
  5
250
330
2F6
100
AcDbEntity
  8
YKK_Z1
  6
Continuous
100
AcDbLine
 10
3887.49993581
 20
18057.1907475
 30
0.0
 11
3895.49993581
 21
18057.1907475
 31
0.0
  0
LINE
  5
251
330
2F6
100
AcDbEntity
  8
YKK_Z1
  6
Continuous
100
AcDbLine
 10
3887.49993581
 20
17937.1907475
 30
0.0
 11
3895.49993581
 21
17937.1907475
 31
0.0
  0
LINE
  5
252
330
2F6
100
AcDbEntity
  8
YKK_Z1
  6
Continuous
100
AcDbLine
 10
3887.49993581
 20
17947.1907475
 30
0.0
 11
3895.49993581
 21
17947.1907475
 31
0.0
  0
LINE
  5
253
330
2F6
100
AcDbEntity
  8
YKK_Z1
  6
Continuous
100
AcDbLine
 10
3887.49993581
 20
17837.1907475
 30
0.0
 11
3895.49993581
 21
17837.1907475
 31
0.0
  0
LINE
  5
254
330
2F6
100
AcDbEntity
  8
YKK_Z1
  6
Continuous
100
AcDbLine
 10
3887.49993581
 20
17827.1907475
 30
0.0
 11
3895.49993581
 21
17827.1907475
 31
0.0
  0
LINE
  5
255
330
2F6
100
AcDbEntity
  8
YKK_Z1
  6
Continuous
100
AcDbLine
 10
4102.49993581
 20
18025.69079947
 30
0.0
 11
4082.49993581
 21
18045.69080293
 31
0.0
  0
LINE
  5
256
330
2F6
100
AcDbEntity
  8
YKK_Z1
  6
Continuous
100
AcDbLine
 10
4082.49993581
 20
18025.69059162
 30
0.0
 11
4102.49993581
 21
18045.69058123
 31
0.0
  0
LINE
  5
257
330
2F6
100
AcDbEntity
  8
YKK_Z1
  6
Continuous
100
AcDbLine
 10
4102.49993581
 20
18045.69080293
 30
0.0
 11
4082.49993581
 21
18065.69080639
 31
0.0
  0
LINE
  5
258
330
2F6
100
AcDbEntity
  8
YKK_Z1
  6
Continuous
100
AcDbLine
 10
4102.49993581
 20
18065.69080639
 30
0.0
 11
4092.49999644
 21
18075.6907475
 31
0.0
  0
LINE
  5
259
330
2F6
100
AcDbEntity
  8
YKK_Z1
  6
Continuous
100
AcDbLine
 10
4082.49993581
 20
18045.69058123
 30
0.0
 11
4102.49993581
 21
18065.69057083
 31
0.0
  0
LINE
  5
25A
330
2F6
100
AcDbEntity
  8
YKK_Z1
  6
Continuous
100
AcDbLine
 10
4082.49993581
 20
18065.69057083
 30
0.0
 11
4092.50011768
 21
18075.6907475
 31
0.0
  0
LINE
  5
25B
330
2F6
100
AcDbEntity
  8
YKK_Z1
  6
Continuous
100
AcDbLine
 10
4102.49993581
 20
17945.69078561
 30
0.0
 11
4082.49993581
 21
17965.69078907
 31
0.0
  0
LINE
  5
25C
330
2F6
100
AcDbEntity
  8
YKK_Z1
  6
Continuous
100
AcDbLine
 10
4082.49993581
 20
17945.69063319
 30
0.0
 11
4102.49993581
 21
17965.6906228
 31
0.0
  0
LINE
  5
25D
330
2F6
100
AcDbEntity
  8
YKK_Z1
  6
Continuous
100
AcDbLine
 10
4102.49993581
 20
17925.69078215
 30
0.0
 11
4082.49993581
 21
17945.69078561
 31
0.0
  0
LINE
  5
25E
330
2F6
100
AcDbEntity
  8
YKK_Z1
  6
Continuous
100
AcDbLine
 10
4082.49993581
 20
17925.69064358
 30
0.0
 11
4102.49993581
 21
17945.69063319
 31
0.0
  0
LINE
  5
25F
330
2F6
100
AcDbEntity
  8
YKK_Z1
  6
Continuous
100
AcDbLine
 10
4102.49993581
 20
17965.69078907
 30
0.0
 11
4082.49993581
 21
17985.69079254
 31
0.0
  0
LINE
  5
260
330
2F6
100
AcDbEntity
  8
YKK_Z1
  6
Continuous
100
AcDbLine
 10
4082.49993581
 20
17965.6906228
 30
0.0
 11
4102.49993581
 21
17985.6906124
 31
0.0
  0
LINE
  5
261
330
2F6
100
AcDbEntity
  8
YKK_Z1
  6
Continuous
100
AcDbLine
 10
4102.49993581
 20
17985.69079254
 30
0.0
 11
4082.49993581
 21
18005.690796
 31
0.0
  0
LINE
  5
262
330
2F6
100
AcDbEntity
  8
YKK_Z1
  6
Continuous
100
AcDbLine
 10
4082.49993581
 20
17985.6906124
 30
0.0
 11
4102.49993581
 21
18005.69060201
 31
0.0
  0
LINE
  5
263
330
2F6
100
AcDbEntity
  8
YKK_Z1
  6
Continuous
100
AcDbLine
 10
4102.49993581
 20
18005.690796
 30
0.0
 11
4082.49993581
 21
18025.69079947
 31
0.0
  0
LINE
  5
264
330
2F6
100
AcDbEntity
  8
YKK_Z1
  6
Continuous
100
AcDbLine
 10
4082.49993581
 20
18005.69060201
 30
0.0
 11
4102.49993581
 21
18025.69059162
 31
0.0
  0
LINE
  5
265
330
2F6
100
AcDbEntity
  8
YKK_Z1
  6
Continuous
100
AcDbLine
 10
4102.49993581
 20
17845.69076829
 30
0.0
 11
4082.49993581
 21
17865.69077175
 31
0.0
  0
LINE
  5
266
330
2F6
100
AcDbEntity
  8
YKK_Z1
  6
Continuous
100
AcDbLine
 10
4082.49993581
 20
17845.69068515
 30
0.0
 11
4102.49993581
 21
17865.69067476
 31
0.0
  0
LINE
  5
267
330
2F6
100
AcDbEntity
  8
YKK_Z1
  6
Continuous
100
AcDbLine
 10
4102.49993581
 20
17825.69076482
 30
0.0
 11
4082.49993581
 21
17845.69076829
 31
0.0
  0
LINE
  5
268
330
2F6
100
AcDbEntity
  8
YKK_Z1
  6
Continuous
100
AcDbLine
 10
4082.49993581
 20
17825.69069554
 30
0.0
 11
4102.49993581
 21
17845.69068515
 31
0.0
  0
LINE
  5
269
330
2F6
100
AcDbEntity
  8
YKK_Z1
  6
Continuous
100
AcDbLine
 10
4102.49993581
 20
17865.69077175
 30
0.0
 11
4082.49993581
 21
17885.69077522
 31
0.0
  0
LINE
  5
26A
330
2F6
100
AcDbEntity
  8
YKK_Z1
  6
Continuous
100
AcDbLine
 10
4082.49993581
 20
17865.69067476
 30
0.0
 11
4102.49993581
 21
17885.69066437
 31
0.0
  0
LINE
  5
26B
330
2F6
100
AcDbEntity
  8
YKK_Z1
  6
Continuous
100
AcDbLine
 10
4102.49993581
 20
17885.69077522
 30
0.0
 11
4082.49993581
 21
17905.69077868
 31
0.0
  0
LINE
  5
26C
330
2F6
100
AcDbEntity
  8
YKK_Z1
  6
Continuous
100
AcDbLine
 10
4082.49993581
 20
17885.69066437
 30
0.0
 11
4102.49993581
 21
17905.69065397
 31
0.0
  0
LINE
  5
26D
330
2F6
100
AcDbEntity
  8
YKK_Z1
  6
Continuous
100
AcDbLine
 10
4102.49993581
 20
17905.69077868
 30
0.0
 11
4082.49993581
 21
17925.69078215
 31
0.0
  0
LINE
  5
26E
330
2F6
100
AcDbEntity
  8
YKK_Z1
  6
Continuous
100
AcDbLine
 10
4082.49993581
 20
17905.69065397
 30
0.0
 11
4102.49993581
 21
17925.69064358
 31
0.0
  0
LINE
  5
26F
330
2F6
100
AcDbEntity
  8
YKK_F1
100
AcDbLine
 10
28681.0155
 20
0.0
 30
0.0
 11
28681.0155
 21
20000.0
 31
0.0
  0
LINE
  5
270
330
2F6
100
AcDbEntity
  8
YKK_F1
100
AcDbLine
 10
28500.0
 20
0.0
 30
0.0
 11
28500.0
 21
20000.0
 31
0.0
  0
LINE
  5
271
330
2F6
100
AcDbEntity
  8
YKK_F1
100
AcDbLine
 10
22800.0
 20
0.0
 30
0.0
 11
22800.0
 21
19500.0
 31
0.0
  0
LINE
  5
272
330
2F6
100
AcDbEntity
  8
YKK_F1
100
AcDbLine
 10
17100.0
 20
0.0
 30
0.0
 11
17100.0
 21
19500.0
 31
0.0
  0
TEXT
  5
273
330
2F6
100
AcDbEntity
  8
0
100
AcDbText
 10
22915.0
 20
4405.81301726
 30
0.0
 40
200.0
  1
気密性
  7
EXTFONT
100
AcDbText
  0
TEXT
  5
274
330
2F6
100
AcDbEntity
  8
0
100
AcDbText
 10
22915.0
 20
3830.81301726
 30
0.0
 40
200.0
  1
水密性
  7
EXTFONT
100
AcDbText
  0
TEXT
  5
275
330
2F6
100
AcDbEntity
  8
0
100
AcDbText
 10
22915.0
 20
1943.10520459
 30
0.0
 40
200.0
  1
防火性
  7
EXTFONT
100
AcDbText
  0
TEXT
  5
276
330
2F6
100
AcDbEntity
  8
0
100
AcDbText
 10
22915.0
 20
2572.42361757
 30
0.0
 40
200.0
  1
断熱性
  7
EXTFONT
100
AcDbText
  0
TEXT
  5
277
330
2F6
100
AcDbEntity
  8
0
100
AcDbText
 10
22915.0
 20
3201.74203055
 30
0.0
 40
200.0
  1
遮音性
  7
EXTFONT
100
AcDbText
  0
TEXT
  5
278
330
2F6
100
AcDbEntity
  8
0
100
AcDbText
 10
22915.0
 20
4959.2247
 30
0.0
 40
200.0
  1
耐風圧性
  7
EXTFONT
100
AcDbText
  0
TEXT
  5
279
330
2F6
100
AcDbEntity
  8
0
100
AcDbText
 10
22915.0
 20
1313.78679161
 30
0.0
 40
200.0
  1
※複層ガラス(４＋Ａ６+４)を使用した場合
  7
EXTFONT
100
AcDbText
  0
TEXT
  5
27A
330
2F6
100
AcDbEntity
  8
0
100
AcDbText
 10
22915.0
 20
301.07568914
 30
0.0
 40
200.0
  1
ただし、窓種・サイズにより適応値が異なります。
  7
EXTFONT
100
AcDbText
  0
TEXT
  5
27B
330
2F6
100
AcDbEntity
  8
0
100
AcDbText
 10
22915.0
 20
5712.6247
 30
0.0
 40
200.0
  1
ＳＹＳＴＥＭＡ５２０ｅ　性能等級
  7
EXTFONT
100
AcDbText
  0
TEXT
  5
27C
330
2F6
100
AcDbEntity
  8
0
100
AcDbText
 10
24211.05
 20
2572.51003407
 30
0.0
 40
200.0
  1
Ｈ－１（０．２１５ｍ・Ｋ／Ｗ以上）
  7
EXTFONT
100
AcDbText
  0
TEXT
  5
27D
330
2F6
100
AcDbEntity
  8
0
100
AcDbText
 10
24211.05
 20
1943.19162109
 30
0.0
 40
200.0
  1
防火設備（防火戸）認定商品
  7
EXTFONT
100
AcDbText
  0
TEXT
  5
27E
330
2F6
100
AcDbEntity
  8
0
100
AcDbText
 10
24211.05
 20
3201.82844705
 30
0.0
 40
200.0
  1
Ｔ－１（２５等級線）
  7
EXTFONT
100
AcDbText
  0
TEXT
  5
27F
330
2F6
100
AcDbEntity
  8
0
100
AcDbText
 10
26529.57478494
 20
2714.00666459
 30
0.0
 40
70.0
  1
2
  7
EXTFONT
100
AcDbText
  0
TEXT
  5
280
330
2F6
100
AcDbEntity
  8
0
100
AcDbText
 10
26483.07811233
 20
3341.15886782
 30
0.0
 40
200.0
  1
※
  7
EXTFONT
100
AcDbText
  0
TEXT
  5
281
330
2F6
100
AcDbEntity
  8
0
100
AcDbText
 10
28166.54354343
 20
2714.00666459
 30
0.0
 40
200.0
  1
※
  7
EXTFONT
100
AcDbText
  0
TEXT
  5
282
330
2F6
100
AcDbEntity
  8
0
100
AcDbText
 10
24211.05
 20
4951.7247
 30
0.0
 40
200.0
  1
Ｓ－３（１６００Ｐａ）
  7
EXTFONT
100
AcDbText
  0
TEXT
  5
283
330
2F6
100
AcDbEntity
  8
0
100
AcDbText
 10
24211.05
 20
3830.81301726
 30
0.0
 40
200.0
  1
Ｗ－５（５００Ｐａ）
  7
EXTFONT
100
AcDbText
  0
TEXT
  5
284
330
2F6
100
AcDbEntity
  8
0
100
AcDbText
 10
24211.05
 20
4405.81301726
 30
0.0
 40
200.0
  1
Ａ－４（２等級線）
  7
EXTFONT
100
AcDbText
  0
ENDSEC
  0
SECTION
  2
OBJECTS
  0
DICTIONARY
  5
2E4
330
0
100
AcDbDictionary
281
     1
  3
ACAD_CIP_PREVIOUS_PRODUCT_INFO
350
3E7
  3
ACAD_COLOR
350
37E
  3
ACAD_DETAILVIEWSTYLE
350
397
  3
ACAD_GROUP
350
2E5
  3
ACAD_LAYOUT
350
2F1
  3
ACAD_MATERIAL
350
34C
  3
ACAD_MLEADERSTYLE
350
393
  3
ACAD_MLINESTYLE
350
2EE
  3
ACAD_PLOTSETTINGS
350
2F0
  3
ACAD_PLOTSTYLENAME
350
2E6
  3
ACAD_SCALELIST
350
381
  3
ACAD_SECTIONVIEWSTYLE
350
395
  3
ACAD_TABLESTYLE
350
37F
  3
ACAD_VISUALSTYLE
350
365
  3
ACDB_RECOMPOSE_DATA
350
3ED
  3
AcDbVariableDictionary
350
3DA
  0
DICTIONARY
  5
312
330
2F6
100
AcDbDictionary
280
     1
281
     1
  3
ACAD_LAYOUTSELFREF
360
342
  0
DICTIONARY
  5
314
330
2F2
100
AcDbDictionary
280
     1
281
     1
  3
ACAD_LAYOUTSELFREF
360
341
  0
XRECORD
  5
3E7
102
{ACAD_REACTORS
330
2E4
102
}
330
2E4
100
AcDbXrecord
280
     1
300
ACD
300
2014
300
86063ACD_2014_0F
  0
DICTIONARY
  5
37E
102
{ACAD_REACTORS
330
2E4
102
}
330
2E4
100
AcDbDictionary
281
     1
  0
DICTIONARY
  5
397
102
{ACAD_REACTORS
330
2E4
102
}
330
2E4
100
AcDbDictionary
281
     1
  3
Imperial24
350
398
  0
DICTIONARY
  5
2E5
102
{ACAD_REACTORS
330
2E4
102
}
330
2E4
100
AcDbDictionary
281
     1
  0
DICTIONARY
  5
2F1
102
{ACAD_REACTORS
330
2E4
102
}
330
2E4
100
AcDbDictionary
281
     1
  3
Model
350
2F9
  3
ﾚｲｱｳﾄ1
350
2F5
  0
DICTIONARY
  5
34C
102
{ACAD_REACTORS
330
2E4
102
}
330
2E4
100
AcDbDictionary
281
     1
  3
ByBlock
350
355
  3
ByLayer
350
34D
  3
Global
350
35D
  0
DICTIONARY
  5
393
102
{ACAD_REACTORS
330
2E4
102
}
330
2E4
100
AcDbDictionary
281
     1
  3
Standard
350
394
  0
DICTIONARY
  5
2EE
102
{ACAD_REACTORS
330
2E4
102
}
330
2E4
100
AcDbDictionary
281
     1
  3
Standard
350
2EF
  0
DICTIONARY
  5
2F0
102
{ACAD_REACTORS
330
2E4
102
}
330
2E4
100
AcDbDictionary
281
     1
  0
ACDBDICTIONARYWDFLT
  5
2E6
102
{ACAD_REACTORS
330
2E4
102
}
330
2E4
100
AcDbDictionary
281
     1
  3
Normal
350
2E7
100
AcDbDictionaryWithDefault
340
2E7
  0
DICTIONARY
  5
381
102
{ACAD_REACTORS
330
2E4
102
}
330
2E4
100
AcDbDictionary
281
     1
  3
A0
350
382
  3
A1
350
383
  3
A2
350
384
  3
A3
350
385
  3
A4
350
386
  3
A5
350
387
  3
A6
350
388
  3
A7
350
389
  3
A8
350
38A
  3
A9
350
38B
  3
B0
350
38C
  3
B1
350
38D
  3
B2
350
38E
  3
B3
350
38F
  3
B4
350
390
  3
B5
350
391
  3
B6
350
392
  0
DICTIONARY
  5
395
102
{ACAD_REACTORS
330
2E4
102
}
330
2E4
100
AcDbDictionary
281
     1
  3
Imperial24
350
396
  0
DICTIONARY
  5
37F
102
{ACAD_REACTORS
330
2E4
102
}
330
2E4
100
AcDbDictionary
281
     1
  3
Standard
350
380
  0
DICTIONARY
  5
365
102
{ACAD_REACTORS
330
2E4
102
}
330
2E4
100
AcDbDictionary
281
     1
  3
2dWireframe
350
36B
  3
Basic
350
36A
  3
Brighten
350
371
  3
ColorChange
350
375
  3
Conceptual
350
36E
  3
Dim
350
370
  3
EdgeColorOff
350
37D
  3
Facepattern
350
374
  3
Flat
350
366
  3
FlatWithEdges
350
367
  3
Gouraud
350
368
  3
GouraudWithEdges
350
369
  3
Hidden
350
36D
  3
JitterOff
350
37B
  3
Linepattern
350
373
  3
OverhangOff
350
37C
  3
Realistic
350
36F
  3
Shaded
350
37A
  3
Shaded with edges
350
379
  3
Shades of Gray
350
376
  3
Sketchy
350
377
  3
Thicken
350
372
  3
Wireframe
350
36C
  3
X-Ray
350
378
  0
XRECORD
  5
3ED
102
{ACAD_REACTORS
330
2E4
102
}
330
2E4
100
AcDbXrecord
280
     1
 90
        1
330
380
  0
DICTIONARY
  5
3DA
102
{ACAD_REACTORS
330
2E4
102
}
330
2E4
100
AcDbDictionary
281
     1
  3
CANNOSCALE
350
3DF
  3
CMLEADERSTYLE
350
3DC
  3
CTABLESTYLE
350
3DB
  3
CVIEWDETAILSTYLE
350
3DD
  3
CVIEWSECTIONSTYLE
350
3DE
  3
XCLIPFRAME
350
3EB
  0
XRECORD
  5
342
102
{ACAD_REACTORS
330
312
102
}
330
312
100
AcDbXrecord
280
     1
340
2F6
  0
XRECORD
  5
341
102
{ACAD_REACTORS
330
314
102
}
330
314
100
AcDbXrecord
280
     1
340
2F2
  0
ACDBDETAILVIEWSTYLE
  5
398
102
{ACAD_XDICTIONARY
360
426
102
}
102
{ACAD_REACTORS
330
397
102
}
330
397
100
AcDbModelDocViewStyle
 70
     0
  3
Imperial24
290
     0
100
AcDbDetailViewStyle
 70
     0
 71
     0
 90
        3
 71
     1
340
2E9
 62
   256
 40
0.24
340
0
 62
   256
 40
0.24
300

 40
0.36
280
     3
 71
     2
340
2ED
 90
       25
 62
   256
 71
     3
340
2E9
 62
   256
 40
0.24
 90
        1
 40
0.75
 90
        1
300
%<\AcVar ViewType \f "%tc1">% %<\AcVar ViewDetailId>%\PSCALE %<\AcVar ViewScale \f "%sn">%
 71
     4
340
2ED
 90
       25
 62
   256
340
2ED
 90
       25
 62
   256
280
     0
  0
LAYOUT
  5
2F9
102
{ACAD_REACTORS
330
2F1
102
}
330
2F1
100
AcDbPlotSettings
  1

  2
CANON LBP-1810
  4
A4
  6

 40
5.87374973
 41
5.87374783
 42
5.87374878
 43
5.87374878
 44
209.97332764
 45
296.92599487
 46
0.0
 47
0.0
 48
0.0
 49
0.0
140
0.0
141
0.0
142
1.0
143
2977.54279155
 70
 11952
 72
     0
 73
     1
 74
     0
  7
monochrome.ctb
 75
     0
147
0.00033585
 76
     0
 77
     2
 78
   300
148
31730.41754928
149
2099.09947506
100
AcDbLayout
  1
Model
 70
     1
 71
     0
 10
0.0
 20
0.0
 11
12.0
 21
9.0
 12
0.0
 22
0.0
 32
0.0
 14
0.0
 24
0.0
 34
0.0
 15
0.0
 25
0.0
 35
0.0
146
0.0
 13
0.0
 23
0.0
 33
0.0
 16
1.0
 26
0.0
 36
0.0
 17
0.0
 27
1.0
 37
0.0
 76
     0
330
2F6
1001
ACAD_PSEXT
1000
CANON LBP-1810
1000
Canon LASER SHOT LBP-1810
1000
IP_10.230.204.169
1000

1070
     0
  0
LAYOUT
  5
2F5
102
{ACAD_REACTORS
330
2F1
102
}
330
2F1
100
AcDbPlotSettings
  1

  2
CANON LBP-1810
  4
A4
  6

 40
5.87374973
 41
5.87374783
 42
5.87374878
 43
5.87374878
 44
209.97332764
 45
296.92599487
 46
0.0
 47
0.0
 48
0.0
 49
0.0
140
0.0
141
0.0
142
1.0
143
1.0
 70
 15024
 72
     0
 73
     1
 74
     5
  7
monochrome.ctb
 75
    16
147
1.0
 76
     0
 77
     2
 78
   300
148
0.0
149
0.0
100
AcDbLayout
  1
ﾚｲｱｳﾄ1
 70
     0
 71
     1
 10
0.0
 20
0.0
 11
12.0
 21
9.0
 12
0.0
 22
0.0
 32
0.0
 14
1.00000000E+20
 24
1.00000000E+20
 34
1.00000000E+20
 15
-1.00000000E+20
 25
-1.00000000E+20
 35
-1.00000000E+20
146
0.0
 13
0.0
 23
0.0
 33
0.0
 16
1.0
 26
0.0
 36
0.0
 17
0.0
 27
1.0
 37
0.0
 76
     0
330
2F2
1001
ACAD_PSEXT
1000
CANON LBP-1810
1000
Canon LASER SHOT LBP-1810
1000
IP_10.230.204.169
1000

1070
     0
  0
MATERIAL
  5
355
102
{ACAD_XDICTIONARY
360
356
102
}
102
{ACAD_REACTORS
330
34C
102
}
330
34C
100
AcDbMaterial
  1
ByBlock
 72
     0
 43
0.02083333
 43
0.0
 43
0.0
 43
0.0
 43
0.0
 43
0.02083333
 43
0.0
 43
0.0
 43
0.0
 43
0.0
 43
1.0
 43
0.0
 43
0.0
 43
0.0
 43
0.0
 43
1.0
 77
     0
 47
0.02083333
 47
0.0
 47
0.0
 47
0.0
 47
0.0
 47
0.02083333
 47
0.0
 47
0.0
 47
0.0
 47
0.0
 47
1.0
 47
0.0
 47
0.0
 47
0.0
 47
0.0
 47
1.0
171
     0
 49
0.02083333
 49
0.0
 49
0.0
 49
0.0
 49
0.0
 49
0.02083333
 49
0.0
 49
0.0
 49
0.0
 49
0.0
 49
1.0
 49
0.0
 49
0.0
 49
0.0
 49
0.0
 49
1.0
175
     0
142
0.02083333
142
0.0
142
0.0
142
0.0
142
0.0
142
0.02083333
142
0.0
142
0.0
142
0.0
142
0.0
142
1.0
142
0.0
142
0.0
142
0.0
142
0.0
142
1.0
179
     0
144
0.02083333
144
0.0
144
0.0
144
0.0
144
0.0
144
0.02083333
144
0.0
144
0.0
144
0.0
144
0.0
144
1.0
144
0.0
144
0.0
144
0.0
144
0.0
144
1.0
147
0.02083333
147
0.0
147
0.0
147
0.0
147
0.0
147
0.02083333
147
0.0
147
0.0
147
0.0
147
0.0
147
1.0
147
0.0
147
0.0
147
0.0
147
0.0
147
1.0
  0
MATERIAL
  5
34D
102
{ACAD_XDICTIONARY
360
34E
102
}
102
{ACAD_REACTORS
330
34C
102
}
330
34C
100
AcDbMaterial
  1
ByLayer
 72
     0
 43
0.02083333
 43
0.0
 43
0.0
 43
0.0
 43
0.0
 43
0.02083333
 43
0.0
 43
0.0
 43
0.0
 43
0.0
 43
1.0
 43
0.0
 43
0.0
 43
0.0
 43
0.0
 43
1.0
 77
     0
 47
0.02083333
 47
0.0
 47
0.0
 47
0.0
 47
0.0
 47
0.02083333
 47
0.0
 47
0.0
 47
0.0
 47
0.0
 47
1.0
 47
0.0
 47
0.0
 47
0.0
 47
0.0
 47
1.0
171
     0
 49
0.02083333
 49
0.0
 49
0.0
 49
0.0
 49
0.0
 49
0.02083333
 49
0.0
 49
0.0
 49
0.0
 49
0.0
 49
1.0
 49
0.0
 49
0.0
 49
0.0
 49
0.0
 49
1.0
175
     0
142
0.02083333
142
0.0
142
0.0
142
0.0
142
0.0
142
0.02083333
142
0.0
142
0.0
142
0.0
142
0.0
142
1.0
142
0.0
142
0.0
142
0.0
142
0.0
142
1.0
179
     0
144
0.02083333
144
0.0
144
0.0
144
0.0
144
0.0
144
0.02083333
144
0.0
144
0.0
144
0.0
144
0.0
144
1.0
144
0.0
144
0.0
144
0.0
144
0.0
144
1.0
147
0.02083333
147
0.0
147
0.0
147
0.0
147
0.0
147
0.02083333
147
0.0
147
0.0
147
0.0
147
0.0
147
1.0
147
0.0
147
0.0
147
0.0
147
0.0
147
1.0
  0
MATERIAL
  5
35D
102
{ACAD_XDICTIONARY
360
35E
102
}
102
{ACAD_REACTORS
330
34C
102
}
330
34C
100
AcDbMaterial
  1
Global
 72
     0
 43
0.02083333
 43
0.0
 43
0.0
 43
0.0
 43
0.0
 43
0.02083333
 43
0.0
 43
0.0
 43
0.0
 43
0.0
 43
1.0
 43
0.0
 43
0.0
 43
0.0
 43
0.0
 43
1.0
 77
     0
 47
0.02083333
 47
0.0
 47
0.0
 47
0.0
 47
0.0
 47
0.02083333
 47
0.0
 47
0.0
 47
0.0
 47
0.0
 47
1.0
 47
0.0
 47
0.0
 47
0.0
 47
0.0
 47
1.0
171
     0
 49
0.02083333
 49
0.0
 49
0.0
 49
0.0
 49
0.0
 49
0.02083333
 49
0.0
 49
0.0
 49
0.0
 49
0.0
 49
1.0
 49
0.0
 49
0.0
 49
0.0
 49
0.0
 49
1.0
175
     0
142
0.02083333
142
0.0
142
0.0
142
0.0
142
0.0
142
0.02083333
142
0.0
142
0.0
142
0.0
142
0.0
142
1.0
142
0.0
142
0.0
142
0.0
142
0.0
142
1.0
179
     0
144
0.02083333
144
0.0
144
0.0
144
0.0
144
0.0
144
0.02083333
144
0.0
144
0.0
144
0.0
144
0.0
144
1.0
144
0.0
144
0.0
144
0.0
144
0.0
144
1.0
147
0.02083333
147
0.0
147
0.0
147
0.0
147
0.0
147
0.02083333
147
0.0
147
0.0
147
0.0
147
0.0
147
1.0
147
0.0
147
0.0
147
0.0
147
0.0
147
1.0
  0
MLEADERSTYLE
  5
394
102
{ACAD_XDICTIONARY
360
422
102
}
102
{ACAD_REACTORS
330
393
102
}
330
393
100
AcDbMLeaderStyle
170
     2
171
     1
172
     0
 90
        2
 40
0.0
 41
0.0
173
     1
 91
-1056964608
340
2EB
 92
       -2
290
     1
 42
0.09
291
     1
 43
0.36
  3
Standard
 44
0.18
300

342
2E9
174
     1
178
     6
175
     1
176
     0
 93
-1056964608
 45
0.18
292
     0
297
     0
 46
0.18
 94
-1056964608
 47
1.0
 49
1.0
140
1.0
293
     1
141
0.0
294
     1
177
     0
142
1.0
295
     0
296
     0
143
0.125
1001
ACAD_MLEADERVER
1070
     2
  0
MLINESTYLE
  5
2EF
102
{ACAD_REACTORS
330
2EE
102
}
330
2EE
100
AcDbMlineStyle
  2
STANDARD
 70
     0
  3

 62
   256
 51
90.0
 52
90.0
 71
     2
 49
0.5
 62
   256
  6
BYLAYER
 49
-0.5
 62
   256
  6
BYLAYER
  0
ACDBPLACEHOLDER
  5
2E7
102
{ACAD_REACTORS
330
2E6
102
}
330
2E6
  0
SCALE
  5
382
102
{ACAD_REACTORS
330
381
102
}
330
381
100
AcDbScale
 70
     0
300
1:1
140
1.0
141
1.0
290
     1
  0
SCALE
  5
383
102
{ACAD_REACTORS
330
381
102
}
330
381
100
AcDbScale
 70
     0
300
1/128" = 1'-0"
140
0.0078125
141
12.0
290
     0
  0
SCALE
  5
384
102
{ACAD_REACTORS
330
381
102
}
330
381
100
AcDbScale
 70
     0
300
1/64" = 1'-0"
140
0.015625
141
12.0
290
     0
  0
SCALE
  5
385
102
{ACAD_REACTORS
330
381
102
}
330
381
100
AcDbScale
 70
     0
300
1/32" = 1'-0"
140
0.03125
141
12.0
290
     0
  0
SCALE
  5
386
102
{ACAD_REACTORS
330
381
102
}
330
381
100
AcDbScale
 70
     0
300
1/16" = 1'-0"
140
0.0625
141
12.0
290
     0
  0
SCALE
  5
387
102
{ACAD_REACTORS
330
381
102
}
330
381
100
AcDbScale
 70
     0
300
3/32" = 1'-0"
140
0.09375
141
12.0
290
     0
  0
SCALE
  5
388
102
{ACAD_REACTORS
330
381
102
}
330
381
100
AcDbScale
 70
     0
300
1/8" = 1'-0"
140
0.125
141
12.0
290
     0
  0
SCALE
  5
389
102
{ACAD_REACTORS
330
381
102
}
330
381
100
AcDbScale
 70
     0
300
3/16" = 1'-0"
140
0.1875
141
12.0
290
     0
  0
SCALE
  5
38A
102
{ACAD_REACTORS
330
381
102
}
330
381
100
AcDbScale
 70
     0
300
1/4" = 1'-0"
140
0.25
141
12.0
290
     0
  0
SCALE
  5
38B
102
{ACAD_REACTORS
330
381
102
}
330
381
100
AcDbScale
 70
     0
300
3/8" = 1'-0"
140
0.375
141
12.0
290
     0
  0
SCALE
  5
38C
102
{ACAD_REACTORS
330
381
102
}
330
381
100
AcDbScale
 70
     0
300
1/2" = 1'-0"
140
0.5
141
12.0
290
     0
  0
SCALE
  5
38D
102
{ACAD_REACTORS
330
381
102
}
330
381
100
AcDbScale
 70
     0
300
3/4" = 1'-0"
140
0.75
141
12.0
290
     0
  0
SCALE
  5
38E
102
{ACAD_REACTORS
330
381
102
}
330
381
100
AcDbScale
 70
     0
300
1" = 1'-0"
140
1.0
141
12.0
290
     0
  0
SCALE
  5
38F
102
{ACAD_REACTORS
330
381
102
}
330
381
100
AcDbScale
 70
     0
300
1-1/2" = 1'-0"
140
1.5
141
12.0
290
     0
  0
SCALE
  5
390
102
{ACAD_REACTORS
330
381
102
}
330
381
100
AcDbScale
 70
     0
300
3" = 1'-0"
140
3.0
141
12.0
290
     0
  0
SCALE
  5
391
102
{ACAD_REACTORS
330
381
102
}
330
381
100
AcDbScale
 70
     0
300
6" = 1'-0"
140
6.0
141
12.0
290
     0
  0
SCALE
  5
392
102
{ACAD_REACTORS
330
381
102
}
330
381
100
AcDbScale
 70
     0
300
1'-0" = 1'-0"
140
12.0
141
12.0
290
     0
  0
ACDBSECTIONVIEWSTYLE
  5
396
102
{ACAD_XDICTIONARY
360
424
102
}
102
{ACAD_REACTORS
330
395
102
}
330
395
100
AcDbModelDocViewStyle
 70
     0
  3
Imperial24
290
     0
100
AcDbSectionViewStyle
 70
     0
 71
     0
 90
      102
 71
     1
340
2E9
 62
   256
 40
5.0
340
0
340
0
 62
   256
 40
5.0
300
I, O, Q, S, X, Z
 40
10.0
 90
        0
 40
2.5
 90
        0
 71
     2
340
2ED
 90
       25
 62
   256
340
2ED
 90
       50
 62
   256
 40
5.0
 40
2.5
 40
5.0
 71
     3
340
2E9
 62
   256
 40
5.0
 90
        0
 40
15.0
 90
        1
300
%<\AcVar ViewSectionStartId>%-%<\AcVar ViewSectionEndId>% (%<\AcVar ViewScale \f "%sn">%)
 71
     4
 62
   256
 62
   257
300
ANSI31
 40
1.0
 90
        0
290
     0
290
     0
 90
        6
 40
0.0
 40
1.57079633
 40
0.26179939
 40
1.30899694
 40
-0.26179939
 40
1.83259571
  0
TABLESTYLE
  5
380
102
{ACAD_XDICTIONARY
360
39C
102
}
102
{ACAD_REACTORS
330
37F
102
}
330
37F
100
AcDbTableStyle
  3
Standard
 70
     0
 71
     0
 40
0.06
 41
0.06
280
     0
281
     0
  7
STANDARD
140
0.18
170
     2
 62
     0
 63
     7
283
     0
274
    -2
284
     1
 64
     0
275
    -2
285
     1
 65
     0
276
    -2
286
     1
 66
     0
277
    -2
287
     1
 67
     0
278
    -2
288
     1
 68
     0
279
    -2
289
     1
 69
     0
  7
STANDARD
140
0.25
170
     5
 62
     0
 63
     7
283
     0
274
    -2
284
     1
 64
     0
275
    -2
285
     1
 65
     0
276
    -2
286
     1
 66
     0
277
    -2
287
     1
 67
     0
278
    -2
288
     1
 68
     0
279
    -2
289
     1
 69
     0
  7
STANDARD
140
0.18
170
     5
 62
     0
 63
     7
283
     0
274
    -2
284
     1
 64
     0
275
    -2
285
     1
 65
     0
276
    -2
286
     1
 66
     0
277
    -2
287
     1
 67
     0
278
    -2
288
     1
 68
     0
279
    -2
289
     1
 69
     0
  0
VISUALSTYLE
  5
36B
102
{ACAD_XDICTIONARY
360
3FB
102
}
102
{ACAD_REACTORS
330
365
102
}
330
365
100
AcDbVisualStyle
  2
2dWireframe
 70
     4
 71
     0
 72
     2
 73
     0
 90
        0
 40
-0.6
 41
-30.0
 62
     5
 63
     7
421
 16777215
 74
     1
 91
        4
 64
     7
 65
   257
 75
     1
175
     1
 42
1.0
 92
        0
 66
   257
 43
1.0
 76
     1
 77
     6
 78
     2
 67
     7
 79
     5
170
     0
171
     0
290
     0
174
     0
 93
        1
 44
0.0
173
     0
291
     0
 45
0.0
1001
ACAD
1000
AcDbSavedByObjectVersion
1070
     0
  0
VISUALSTYLE
  5
36A
102
{ACAD_XDICTIONARY
360
3F9
102
}
102
{ACAD_REACTORS
330
365
102
}
330
365
100
AcDbVisualStyle
  2
Basic
 70
     7
 71
     1
 72
     0
 73
     1
 90
        0
 40
-0.6
 41
-30.0
 62
     5
 63
     7
421
 16777215
 74
     0
 91
        4
 64
     7
 65
   257
 75
     1
175
     1
 42
1.0
 92
        8
 66
     7
 43
1.0
 76
     1
 77
     6
 78
     2
 67
     7
 79
     5
170
     0
171
     0
290
     0
174
     0
 93
        1
 44
0.0
173
     0
291
     1
 45
0.0
1001
ACAD
1000
AcDbSavedByObjectVersion
1070
     0
  0
VISUALSTYLE
  5
371
102
{ACAD_XDICTIONARY
360
407
102
}
102
{ACAD_REACTORS
330
365
102
}
330
365
100
AcDbVisualStyle
  2
Brighten
 70
    12
 71
     2
 72
     2
 73
     0
 90
        0
 40
-0.6
 41
-30.0
 62
     5
 63
     7
421
 16777215
 74
     1
 91
        4
 64
     7
 65
   257
 75
     1
175
     1
 42
1.0
 92
        8
 66
     7
 43
1.0
 76
     1
 77
     6
 78
     2
 67
     7
 79
     5
170
     0
171
     0
290
     0
174
     0
 93
        1
 44
50.0
173
     0
291
     1
 45
0.0
1001
ACAD
1000
AcDbSavedByObjectVersion
1070
     0
  0
VISUALSTYLE
  5
375
102
{ACAD_XDICTIONARY
360
40F
102
}
102
{ACAD_REACTORS
330
365
102
}
330
365
100
AcDbVisualStyle
  2
ColorChange
 70
    16
 71
     2
 72
     2
 73
     3
 90
        0
 40
-0.6
 41
-30.0
 62
     5
 63
     8
421
  8421504
 74
     1
 91
        4
 64
     7
 65
   257
 75
     1
175
     1
 42
1.0
 92
        8
 66
     8
424
  8421504
 43
1.0
 76
     1
 77
     6
 78
     2
 67
     7
 79
     5
170
     0
171
     0
290
     0
174
     0
 93
        1
 44
0.0
173
     0
291
     1
 45
0.0
1001
ACAD
1000
AcDbSavedByObjectVersion
1070
     0
  0
VISUALSTYLE
  5
36E
102
{ACAD_XDICTIONARY
360
401
102
}
102
{ACAD_REACTORS
330
365
102
}
330
365
100
AcDbVisualStyle
  2
Conceptual
 70
     9
 71
     3
 72
     2
 73
     0
 90
        0
 40
-0.6
 41
-30.0
 62
     5
 63
     7
421
 16777215
 74
     2
 91
        2
 64
     7
 65
   257
 75
     1
175
     1
 42
179.0
 92
        8
 66
     7
 43
1.0
 76
     1
 77
     6
 78
     2
 67
     7
 79
     3
170
     0
171
     0
290
     0
174
     0
 93
        1
 44
0.0
173
     0
291
     0
 45
0.0
1001
ACAD
1000
AcDbSavedByObjectVersion
1070
     0
  0
VISUALSTYLE
  5
370
102
{ACAD_XDICTIONARY
360
405
102
}
102
{ACAD_REACTORS
330
365
102
}
330
365
100
AcDbVisualStyle
  2
Dim
 70
    11
 71
     2
 72
     2
 73
     0
 90
        0
 40
-0.6
 41
-30.0
 62
     5
 63
     7
421
 16777215
 74
     1
 91
        4
 64
     7
 65
   257
 75
     1
175
     1
 42
1.0
 92
        8
 66
     7
 43
1.0
 76
     1
 77
     6
 78
     2
 67
     7
 79
     5
170
     0
171
     0
290
     0
174
     0
 93
        1
 44
-50.0
173
     0
291
     1
 45
0.0
1001
ACAD
1000
AcDbSavedByObjectVersion
1070
     0
  0
VISUALSTYLE
  5
37D
102
{ACAD_XDICTIONARY
360
41F
102
}
102
{ACAD_REACTORS
330
365
102
}
330
365
100
AcDbVisualStyle
  2
EdgeColorOff
 70
    22
 71
     2
 72
     2
 73
     0
 90
        0
 40
-0.6
 41
-30.0
 62
     5
 63
     7
421
 16777215
 74
     1
 91
        4
 64
     7
 65
   257
 75
     1
175
     1
 42
1.0
 92
        8
 66
     7
 43
1.0
 76
     1
 77
     6
 78
     2
 67
     7
 79
     5
170
     0
171
     0
290
     0
174
     0
 93
        1
 44
0.0
173
     0
291
     1
 45
0.0
1001
ACAD
1000
AcDbSavedByObjectVersion
1070
     0
  0
VISUALSTYLE
  5
374
102
{ACAD_XDICTIONARY
360
40D
102
}
102
{ACAD_REACTORS
330
365
102
}
330
365
100
AcDbVisualStyle
  2
Facepattern
 70
    15
 71
     2
 72
     2
 73
     0
 90
        0
 40
-0.6
 41
-30.0
 62
     5
 63
     7
421
 16777215
 74
     1
 91
        4
 64
     7
 65
   257
 75
     1
175
     1
 42
1.0
 92
        8
 66
     7
 43
1.0
 76
     1
 77
     6
 78
     2
 67
     7
 79
     5
170
     0
171
     0
290
     0
174
     0
 93
        1
 44
0.0
173
     0
291
     1
 45
0.0
1001
ACAD
1000
AcDbSavedByObjectVersion
1070
     0
  0
VISUALSTYLE
  5
366
102
{ACAD_XDICTIONARY
360
3F1
102
}
102
{ACAD_REACTORS
330
365
102
}
330
365
100
AcDbVisualStyle
  2
Flat
 70
     0
 71
     2
 72
     1
 73
     1
 90
        2
 40
-0.6
 41
30.0
 62
     5
 63
     7
421
 16777215
 74
     0
 91
        0
 64
     7
 65
   257
 75
     1
175
     1
 42
1.0
 92
        8
 66
     7
 43
1.0
 76
     1
 77
     6
 78
     2
 67
     7
 79
     5
170
     0
171
     0
290
     0
174
     0
 93
       13
 44
0.0
173
     0
291
     1
 45
0.0
1001
ACAD
1000
AcDbSavedByObjectVersion
1070
     0
  0
VISUALSTYLE
  5
367
102
{ACAD_XDICTIONARY
360
3F3
102
}
102
{ACAD_REACTORS
330
365
102
}
330
365
100
AcDbVisualStyle
  2
FlatWithEdges
 70
     1
 71
     2
 72
     1
 73
     1
 90
        2
 40
-0.6
 41
30.0
 62
     5
 63
     7
421
 16777215
 74
     1
 91
        0
 64
     7
 65
   257
 75
     1
175
     1
 42
1.0
 92
        0
 66
   257
 43
1.0
 76
     1
 77
     6
 78
     2
 67
     7
 79
     5
170
     0
171
     0
290
     0
174
     0
 93
       13
 44
0.0
173
     0
291
     1
 45
0.0
1001
ACAD
1000
AcDbSavedByObjectVersion
1070
     0
  0
VISUALSTYLE
  5
368
102
{ACAD_XDICTIONARY
360
3F5
102
}
102
{ACAD_REACTORS
330
365
102
}
330
365
100
AcDbVisualStyle
  2
Gouraud
 70
     2
 71
     2
 72
     2
 73
     1
 90
        2
 40
-0.6
 41
30.0
 62
     5
 63
     7
421
 16777215
 74
     0
 91
        0
 64
     7
 65
   257
 75
     1
175
     1
 42
1.0
 92
        0
 66
     7
 43
1.0
 76
     1
 77
     6
 78
     2
 67
     7
 79
     5
170
     0
171
     0
290
     0
174
     0
 93
       13
 44
0.0
173
     0
291
     1
 45
0.0
1001
ACAD
1000
AcDbSavedByObjectVersion
1070
     0
  0
VISUALSTYLE
  5
369
102
{ACAD_XDICTIONARY
360
3F7
102
}
102
{ACAD_REACTORS
330
365
102
}
330
365
100
AcDbVisualStyle
  2
GouraudWithEdges
 70
     3
 71
     2
 72
     2
 73
     1
 90
        2
 40
-0.6
 41
30.0
 62
     5
 63
     7
421
 16777215
 74
     1
 91
        0
 64
     7
 65
   257
 75
     1
175
     1
 42
1.0
 92
        0
 66
   257
 43
1.0
 76
     1
 77
     6
 78
     2
 67
     7
 79
     5
170
     0
171
     0
290
     0
174
     0
 93
       13
 44
0.0
173
     0
291
     1
 45
0.0
1001
ACAD
1000
AcDbSavedByObjectVersion
1070
     0
  0
VISUALSTYLE
  5
36D
102
{ACAD_XDICTIONARY
360
3FF
102
}
102
{ACAD_REACTORS
330
365
102
}
330
365
100
AcDbVisualStyle
  2
Hidden
 70
     6
 71
     1
 72
     2
 73
     2
 90
        0
 40
-0.6
 41
-30.0
 62
     5
 63
     7
421
 16777215
 74
     2
 91
        2
 64
     7
 65
   257
 75
     2
175
     1
 42
40.0
 92
        0
 66
   257
 43
1.0
 76
     1
 77
     6
 78
     2
 67
     7
 79
     3
170
     0
171
     0
290
     0
174
     0
 93
        1
 44
0.0
173
     0
291
     0
 45
0.0
1001
ACAD
1000
AcDbSavedByObjectVersion
1070
     0
  0
VISUALSTYLE
  5
37B
102
{ACAD_XDICTIONARY
360
41B
102
}
102
{ACAD_REACTORS
330
365
102
}
330
365
100
AcDbVisualStyle
  2
JitterOff
 70
    20
 71
     2
 72
     2
 73
     0
 90
        0
 40
-0.6
 41
-30.0
 62
     5
 63
     7
421
 16777215
 74
     1
 91
        4
 64
     7
 65
   257
 75
     1
175
     1
 42
1.0
 92
       10
 66
     7
 43
1.0
 76
     1
 77
     6
 78
     2
 67
     7
 79
     5
170
     0
171
     0
290
     0
174
     0
 93
        1
 44
0.0
173
     0
291
     1
 45
0.0
1001
ACAD
1000
AcDbSavedByObjectVersion
1070
     0
  0
VISUALSTYLE
  5
373
102
{ACAD_XDICTIONARY
360
40B
102
}
102
{ACAD_REACTORS
330
365
102
}
330
365
100
AcDbVisualStyle
  2
Linepattern
 70
    14
 71
     2
 72
     2
 73
     0
 90
        0
 40
-0.6
 41
-30.0
 62
     5
 63
     7
421
 16777215
 74
     1
 91
        4
 64
     7
 65
   257
 75
     7
175
     7
 42
1.0
 92
        8
 66
     7
 43
1.0
 76
     1
 77
     6
 78
     2
 67
     7
 79
     5
170
     0
171
     0
290
     0
174
     0
 93
        1
 44
0.0
173
     0
291
     1
 45
0.0
1001
ACAD
1000
AcDbSavedByObjectVersion
1070
     0
  0
VISUALSTYLE
  5
37C
102
{ACAD_XDICTIONARY
360
41D
102
}
102
{ACAD_REACTORS
330
365
102
}
330
365
100
AcDbVisualStyle
  2
OverhangOff
 70
    21
 71
     2
 72
     2
 73
     0
 90
        0
 40
-0.6
 41
-30.0
 62
     5
 63
     7
421
 16777215
 74
     1
 91
        4
 64
     7
 65
   257
 75
     1
175
     1
 42
1.0
 92
        9
 66
     7
 43
1.0
 76
     1
 77
     6
 78
     2
 67
     7
 79
     5
170
     0
171
     0
290
     0
174
     0
 93
        1
 44
0.0
173
     0
291
     1
 45
0.0
1001
ACAD
1000
AcDbSavedByObjectVersion
1070
     0
  0
VISUALSTYLE
  5
36F
102
{ACAD_XDICTIONARY
360
403
102
}
102
{ACAD_REACTORS
330
365
102
}
330
365
100
AcDbVisualStyle
  2
Realistic
 70
     8
 71
     2
 72
     2
 73
     0
 90
        2
 40
-0.6
 41
30.0
 62
     5
 63
     7
421
 16777215
 74
     0
 91
        0
 64
     7
 65
   257
 75
     1
175
     1
 42
1.0
 92
        8
 66
   257
 43
1.0
 76
     1
 77
     6
 78
     2
 67
     7
 79
     3
170
     0
171
     0
290
     0
174
     0
 93
       13
 44
0.0
173
     0
291
     0
 45
0.0
1001
ACAD
1000
AcDbSavedByObjectVersion
1070
     0
  0
VISUALSTYLE
  5
37A
102
{ACAD_XDICTIONARY
360
419
102
}
102
{ACAD_REACTORS
330
365
102
}
330
365
100
AcDbVisualStyle
  2
Shaded
 70
    27
 71
     2
 72
     2
 73
     1
 90
        2
 40
-0.6
 41
30.0
 62
     5
 63
     7
421
 16777215
 74
     0
 91
        4
 64
     7
 65
   257
 75
     1
175
     1
 42
1.0
 92
        8
 66
   257
 43
1.0
 76
     1
 77
     6
 78
     2
 67
     8
425
  7895160
 79
     3
170
     0
171
     0
290
     0
174
     0
 93
        5
 44
0.0
173
     0
291
     0
 45
0.0
1001
ACAD
1000
AcDbSavedByObjectVersion
1070
     0
  0
VISUALSTYLE
  5
379
102
{ACAD_XDICTIONARY
360
417
102
}
102
{ACAD_REACTORS
330
365
102
}
330
365
100
AcDbVisualStyle
  2
Shaded with edges
 70
    26
 71
     2
 72
     2
 73
     1
 90
        2
 40
-0.6
 41
30.0
 62
     5
 63
     7
421
 16777215
 74
     1
 91
       10
 64
     7
 65
   257
 75
     2
175
     1
 42
1.0
 92
        8
 66
   257
 43
1.0
 76
     1
 77
     6
 78
     2
 67
     7
 79
     3
170
     0
171
     0
290
     0
174
     0
 93
        5
 44
0.0
173
     0
291
     0
 45
0.0
1001
ACAD
1000
AcDbSavedByObjectVersion
1070
     0
  0
VISUALSTYLE
  5
376
102
{ACAD_XDICTIONARY
360
411
102
}
102
{ACAD_REACTORS
330
365
102
}
330
365
100
AcDbVisualStyle
  2
Shades of Gray
 70
    23
 71
     2
 72
     2
 73
     3
 90
        0
 40
-0.6
 41
-30.0
 62
     5
 63
     7
421
 16777215
 74
     2
 91
        2
 64
     7
 65
     7
 75
     1
175
     1
 42
40.0
 92
        8
 66
     7
 43
1.0
 76
     1
 77
     6
 78
     2
 67
     7
 79
     3
170
     0
171
     0
290
     0
174
     0
 93
        1
 44
0.0
173
     0
291
     0
 45
0.0
1001
ACAD
1000
AcDbSavedByObjectVersion
1070
     0
  0
VISUALSTYLE
  5
377
102
{ACAD_XDICTIONARY
360
413
102
}
102
{ACAD_REACTORS
330
365
102
}
330
365
100
AcDbVisualStyle
  2
Sketchy
 70
    24
 71
     1
 72
     2
 73
     2
 90
        0
 40
-0.6
 41
-30.0
 62
     5
 63
     7
421
 16777215
 74
     2
 91
        2
 64
     7
 65
     7
 75
     1
175
     1
 42
40.0
 92
       11
 66
     7
 43
1.0
 76
     1
 77
     6
 78
     2
 67
     7
 79
     6
170
     0
171
     0
290
     0
174
     0
 93
        1
 44
0.0
173
     0
291
     0
 45
0.0
1001
ACAD
1000
AcDbSavedByObjectVersion
1070
     0
  0
VISUALSTYLE
  5
372
102
{ACAD_XDICTIONARY
360
409
102
}
102
{ACAD_REACTORS
330
365
102
}
330
365
100
AcDbVisualStyle
  2
Thicken
 70
    13
 71
     2
 72
     2
 73
     0
 90
        0
 40
-0.6
 41
-30.0
 62
     5
 63
     7
421
 16777215
 74
     1
 91
        4
 64
     7
 65
   257
 75
     1
175
     1
 42
1.0
 92
       12
 66
     7
 43
1.0
 76
     1
 77
     6
 78
     2
 67
     7
 79
     5
170
     0
171
     0
290
     0
174
     0
 93
        1
 44
0.0
173
     0
291
     1
 45
0.0
1001
ACAD
1000
AcDbSavedByObjectVersion
1070
     0
  0
VISUALSTYLE
  5
36C
102
{ACAD_XDICTIONARY
360
3FD
102
}
102
{ACAD_REACTORS
330
365
102
}
330
365
100
AcDbVisualStyle
  2
Wireframe
 70
     5
 71
     0
 72
     2
 73
     0
 90
        0
 40
-0.6
 41
-30.0
 62
     5
 63
     7
421
 16777215
 74
     1
 91
        4
 64
     7
 65
   257
 75
     1
175
     1
 42
1.0
 92
        0
 66
   257
 43
1.0
 76
     1
 77
     6
 78
     2
 67
     7
 79
     3
170
     0
171
     0
290
     0
174
     0
 93
        1
 44
0.0
173
     0
291
     0
 45
0.0
1001
ACAD
1000
AcDbSavedByObjectVersion
1070
     0
  0
VISUALSTYLE
  5
378
102
{ACAD_XDICTIONARY
360
415
102
}
102
{ACAD_REACTORS
330
365
102
}
330
365
100
AcDbVisualStyle
  2
X-Ray
 70
    25
 71
     2
 72
     2
 73
     1
 90
        1
 40
0.5
 41
-30.0
 62
     5
 63
     7
421
 16777215
 74
     1
 91
        0
 64
     7
 65
   257
 75
     1
175
     1
 42
1.0
 92
        8
 66
     7
 43
1.0
 76
     1
 77
     6
 78
     2
 67
     7
 79
     3
170
     0
171
     0
290
     0
174
     0
 93
       13
 44
0.0
173
     0
291
     0
 45
0.0
1001
ACAD
1000
AcDbSavedByObjectVersion
1070
     0
  0
DICTIONARYVAR
  5
3DF
102
{ACAD_REACTORS
330
3DA
102
}
330
3DA
100
DictionaryVariables
280
     0
  1
1:1
  0
DICTIONARYVAR
  5
3DC
102
{ACAD_REACTORS
330
3DA
102
}
330
3DA
100
DictionaryVariables
280
     0
  1
STANDARD
  0
DICTIONARYVAR
  5
3DB
102
{ACAD_REACTORS
330
3DA
102
}
330
3DA
100
DictionaryVariables
280
     0
  1
STANDARD
  0
DICTIONARYVAR
  5
3DD
102
{ACAD_REACTORS
330
3DA
102
}
330
3DA
100
DictionaryVariables
280
     0
  1
Imperial24
  0
DICTIONARYVAR
  5
3DE
102
{ACAD_REACTORS
330
3DA
102
}
330
3DA
100
DictionaryVariables
280
     0
  1
Imperial24
  0
DICTIONARYVAR
  5
3EB
102
{ACAD_REACTORS
330
3DA
102
}
330
3DA
100
DictionaryVariables
280
     0
  1
2
  0
DICTIONARY
  5
426
330
398
100
AcDbDictionary
280
     1
281
     1
  3
ACAD_XREC_ROUNDTRIP
360
427
  0
DICTIONARY
  5
356
330
355
100
AcDbDictionary
280
     1
281
     1
  3
ACAD_XREC_ROUNDTRIP
360
3EF
  3
BUMPTILE
360
358
  3
DIFFUSETILE
360
357
  3
OPACITYTILE
360
35B
  3
REFLECTIONTILE
360
35A
  3
REFRACTIONTILE
360
35C
  3
SPECULARTILE
360
359
  0
DICTIONARY
  5
34E
330
34D
100
AcDbDictionary
280
     1
281
     1
  3
ACAD_XREC_ROUNDTRIP
360
3EE
  3
BUMPTILE
360
350
  3
DIFFUSETILE
360
34F
  3
OPACITYTILE
360
353
  3
REFLECTIONTILE
360
352
  3
REFRACTIONTILE
360
354
  3
SPECULARTILE
360
351
  0
DICTIONARY
  5
35E
330
35D
100
AcDbDictionary
280
     1
281
     1
  3
ACAD_XREC_ROUNDTRIP
360
3F0
  3
BUMPTILE
360
360
  3
DIFFUSETILE
360
35F
  3
OPACITYTILE
360
363
  3
REFLECTIONTILE
360
362
  3
REFRACTIONTILE
360
364
  3
SPECULARTILE
360
361
  0
DICTIONARY
  5
422
330
394
100
AcDbDictionary
280
     1
281
     1
  3
ACAD_XREC_ROUNDTRIP
360
423
  0
DICTIONARY
  5
424
330
396
100
AcDbDictionary
280
     1
281
     1
  3
ACAD_XREC_ROUNDTRIP
360
425
  0
DICTIONARY
  5
39C
330
380
100
AcDbDictionary
280
     1
281
     1
  3
ACAD_ROUNDTRIP_2008_TABLESTYLE_CELLSTYLEMAP
360
3EC
  3
ACAD_XREC_ROUNDTRIP
360
421
  0
DICTIONARY
  5
3FB
330
36B
100
AcDbDictionary
280
     1
281
     1
  3
ACAD_XREC_ROUNDTRIP
360
3FC
  0
DICTIONARY
  5
3F9
330
36A
100
AcDbDictionary
280
     1
281
     1
  3
ACAD_XREC_ROUNDTRIP
360
3FA
  0
DICTIONARY
  5
407
330
371
100
AcDbDictionary
280
     1
281
     1
  3
ACAD_XREC_ROUNDTRIP
360
408
  0
DICTIONARY
  5
40F
330
375
100
AcDbDictionary
280
     1
281
     1
  3
ACAD_XREC_ROUNDTRIP
360
410
  0
DICTIONARY
  5
401
330
36E
100
AcDbDictionary
280
     1
281
     1
  3
ACAD_XREC_ROUNDTRIP
360
402
  0
DICTIONARY
  5
405
330
370
100
AcDbDictionary
280
     1
281
     1
  3
ACAD_XREC_ROUNDTRIP
360
406
  0
DICTIONARY
  5
41F
330
37D
100
AcDbDictionary
280
     1
281
     1
  3
ACAD_XREC_ROUNDTRIP
360
420
  0
DICTIONARY
  5
40D
330
374
100
AcDbDictionary
280
     1
281
     1
  3
ACAD_XREC_ROUNDTRIP
360
40E
  0
DICTIONARY
  5
3F1
330
366
100
AcDbDictionary
280
     1
281
     1
  3
ACAD_XREC_ROUNDTRIP
360
3F2
  0
DICTIONARY
  5
3F3
330
367
100
AcDbDictionary
280
     1
281
     1
  3
ACAD_XREC_ROUNDTRIP
360
3F4
  0
DICTIONARY
  5
3F5
330
368
100
AcDbDictionary
280
     1
281
     1
  3
ACAD_XREC_ROUNDTRIP
360
3F6
  0
DICTIONARY
  5
3F7
330
369
100
AcDbDictionary
280
     1
281
     1
  3
ACAD_XREC_ROUNDTRIP
360
3F8
  0
DICTIONARY
  5
3FF
330
36D
100
AcDbDictionary
280
     1
281
     1
  3
ACAD_XREC_ROUNDTRIP
360
400
  0
DICTIONARY
  5
41B
330
37B
100
AcDbDictionary
280
     1
281
     1
  3
ACAD_XREC_ROUNDTRIP
360
41C
  0
DICTIONARY
  5
40B
330
373
100
AcDbDictionary
280
     1
281
     1
  3
ACAD_XREC_ROUNDTRIP
360
40C
  0
DICTIONARY
  5
41D
330
37C
100
AcDbDictionary
280
     1
281
     1
  3
ACAD_XREC_ROUNDTRIP
360
41E
  0
DICTIONARY
  5
403
330
36F
100
AcDbDictionary
280
     1
281
     1
  3
ACAD_XREC_ROUNDTRIP
360
404
  0
DICTIONARY
  5
419
330
37A
100
AcDbDictionary
280
     1
281
     1
  3
ACAD_XREC_ROUNDTRIP
360
41A
  0
DICTIONARY
  5
417
330
379
100
AcDbDictionary
280
     1
281
     1
  3
ACAD_XREC_ROUNDTRIP
360
418
  0
DICTIONARY
  5
411
330
376
100
AcDbDictionary
280
     1
281
     1
  3
ACAD_XREC_ROUNDTRIP
360
412
  0
DICTIONARY
  5
413
330
377
100
AcDbDictionary
280
     1
281
     1
  3
ACAD_XREC_ROUNDTRIP
360
414
  0
DICTIONARY
  5
409
330
372
100
AcDbDictionary
280
     1
281
     1
  3
ACAD_XREC_ROUNDTRIP
360
40A
  0
DICTIONARY
  5
3FD
330
36C
100
AcDbDictionary
280
     1
281
     1
  3
ACAD_XREC_ROUNDTRIP
360
3FE
  0
DICTIONARY
  5
415
330
378
100
AcDbDictionary
280
     1
281
     1
  3
ACAD_XREC_ROUNDTRIP
360
416
  0
XRECORD
  5
427
102
{ACAD_REACTORS
330
426
102
}
330
426
100
AcDbXrecord
280
     1
102
DISPLAYNAME
  1
Imperial24
102
FLAGS
 90
        0
  0
XRECORD
  5
3EF
102
{ACAD_REACTORS
330
356
102
}
330
356
100
AcDbXrecord
280
     1
102
MATERIAL
148
0.0
149
0.0
149
0.0
 93
        0
 94
      127
282
     0
 72
     0
 77
     0
171
     0
175
     0
179
     0
273
     0
  0
XRECORD
  5
358
102
{ACAD_REACTORS
330
356
102
}
330
356
100
AcDbXrecord
280
     1
270
     1
271
     1
  0
XRECORD
  5
357
102
{ACAD_REACTORS
330
356
102
}
330
356
100
AcDbXrecord
280
     1
270
     1
271
     1
  0
XRECORD
  5
35B
102
{ACAD_REACTORS
330
356
102
}
330
356
100
AcDbXrecord
280
     1
270
     1
271
     1
  0
XRECORD
  5
35A
102
{ACAD_REACTORS
330
356
102
}
330
356
100
AcDbXrecord
280
     1
270
     1
271
     1
  0
XRECORD
  5
35C
102
{ACAD_REACTORS
330
356
102
}
330
356
100
AcDbXrecord
280
     1
270
     1
271
     1
  0
XRECORD
  5
359
102
{ACAD_REACTORS
330
356
102
}
330
356
100
AcDbXrecord
280
     1
270
     1
271
     1
  0
XRECORD
  5
3EE
102
{ACAD_REACTORS
330
34E
102
}
330
34E
100
AcDbXrecord
280
     1
102
MATERIAL
148
0.0
149
0.0
149
0.0
 93
        0
 94
      127
282
     0
 72
     0
 77
     0
171
     0
175
     0
179
     0
273
     0
  0
XRECORD
  5
350
102
{ACAD_REACTORS
330
34E
102
}
330
34E
100
AcDbXrecord
280
     1
270
     1
271
     1
  0
XRECORD
  5
34F
102
{ACAD_REACTORS
330
34E
102
}
330
34E
100
AcDbXrecord
280
     1
270
     1
271
     1
  0
XRECORD
  5
353
102
{ACAD_REACTORS
330
34E
102
}
330
34E
100
AcDbXrecord
280
     1
270
     1
271
     1
  0
XRECORD
  5
352
102
{ACAD_REACTORS
330
34E
102
}
330
34E
100
AcDbXrecord
280
     1
270
     1
271
     1
  0
XRECORD
  5
354
102
{ACAD_REACTORS
330
34E
102
}
330
34E
100
AcDbXrecord
280
     1
270
     1
271
     1
  0
XRECORD
  5
351
102
{ACAD_REACTORS
330
34E
102
}
330
34E
100
AcDbXrecord
280
     1
270
     1
271
     1
  0
XRECORD
  5
3F0
102
{ACAD_REACTORS
330
35E
102
}
330
35E
100
AcDbXrecord
280
     1
102
MATERIAL
148
0.0
149
0.0
149
0.0
 93
        0
 94
      127
282
     0
 72
     0
 77
     0
171
     0
175
     0
179
     0
273
     0
  0
XRECORD
  5
360
102
{ACAD_REACTORS
330
35E
102
}
330
35E
100
AcDbXrecord
280
     1
270
     1
271
     1
  0
XRECORD
  5
35F
102
{ACAD_REACTORS
330
35E
102
}
330
35E
100
AcDbXrecord
280
     1
270
     1
271
     1
  0
XRECORD
  5
363
102
{ACAD_REACTORS
330
35E
102
}
330
35E
100
AcDbXrecord
280
     1
270
     1
271
     1
  0
XRECORD
  5
362
102
{ACAD_REACTORS
330
35E
102
}
330
35E
100
AcDbXrecord
280
     1
270
     1
271
     1
  0
XRECORD
  5
364
102
{ACAD_REACTORS
330
35E
102
}
330
35E
100
AcDbXrecord
280
     1
270
     1
271
     1
  0
XRECORD
  5
361
102
{ACAD_REACTORS
330
35E
102
}
330
35E
100
AcDbXrecord
280
     1
270
     1
271
     1
  0
XRECORD
  5
423
102
{ACAD_REACTORS
330
422
102
}
330
422
100
AcDbXrecord
280
     1
102
ACAD_ROUNDTRIP_2012_MLEADER_STYLE
298
     1
  0
XRECORD
  5
425
102
{ACAD_REACTORS
330
424
102
}
330
424
100
AcDbXrecord
280
     1
102
DISPLAYNAME
  1
Imperial24
102
FLAGS
 90
        0
  0
CELLSTYLEMAP
  5
3EC
102
{ACAD_REACTORS
330
39C
102
}
330
39C
100
AcDbCellStyleMap
 90
        3
300
CELLSTYLE
  1
TABLEFORMAT_BEGIN
 90
        5
170
     1
 91
        0
 92
    32768
 62
   257
 93
        1
300
CONTENTFORMAT
  1
CONTENTFORMAT_BEGIN
 90
        0
 91
        0
 92
      512
 93
        0
300

 40
0.0
140
1.0
 94
        5
 62
     0
340
2E9
144
0.25
309
CONTENTFORMAT_END
171
     0
 94
        0
309
TABLEFORMAT_END
  1
CELLSTYLE_BEGIN
 90
        1
 91
        1
300
_TITLE
309
CELLSTYLE_END
300
CELLSTYLE
  1
TABLEFORMAT_BEGIN
 90
        5
170
     1
 91
        0
 92
        0
 62
   257
 93
        1
300
CONTENTFORMAT
  1
CONTENTFORMAT_BEGIN
 90
        0
 91
        0
 92
      512
 93
        0
300

 40
0.0
140
1.0
 94
        5
 62
     0
340
2E9
144
0.18
309
CONTENTFORMAT_END
171
     0
 94
        0
309
TABLEFORMAT_END
  1
CELLSTYLE_BEGIN
 90
        2
 91
        1
300
_HEADER
309
CELLSTYLE_END
300
CELLSTYLE
  1
TABLEFORMAT_BEGIN
 90
        5
170
     1
 91
        0
 92
        0
 62
   257
 93
        1
300
CONTENTFORMAT
  1
CONTENTFORMAT_BEGIN
 90
        0
 91
        0
 92
      512
 93
        0
300

 40
0.0
140
1.0
 94
        2
 62
     0
340
2E9
144
0.18
309
CONTENTFORMAT_END
171
     0
 94
        0
309
TABLEFORMAT_END
  1
CELLSTYLE_BEGIN
 90
        3
 91
        2
300
_DATA
309
CELLSTYLE_END
  0
XRECORD
  5
421
102
{ACAD_REACTORS
330
39C
102
}
330
39C
100
AcDbXrecord
280
     1
102
ACAD_ROUNDTRIP_PRE2007_TABLESTYLE
 90
      512
 91
        0
  1

 92
      512
 93
        0
  2

 94
      512
 95
        0
  3

  0
XRECORD
  5
3FC
102
{ACAD_REACTORS
330
3FB
102
}
330
3FB
100
AcDbXrecord
280
     1
102
RTVSPost2010Prop28
280
     1
102
RTVSPost2010PropOp28
 70
     1
102
RTVSPost2010Prop29
280
     1
102
RTVSPost2010PropOp29
 70
     1
102
RTVSPost2010Prop30
280
     0
102
RTVSPost2010PropOp30
 70
     1
102
RTVSPost2010Prop31
280
     0
102
RTVSPost2010PropOp31
 70
     1
102
RTVSPost2010Prop32
280
     0
102
RTVSPost2010PropOp32
 70
     1
102
RTVSPost2010Prop33
280
     0
102
RTVSPost2010PropOp33
 70
     1
102
RTVSPost2010Prop34
280
     0
102
RTVSPost2010PropOp34
 70
     1
102
RTVSPost2010Prop35
280
     0
102
RTVSPost2010PropOp35
 70
     1
102
RTVSPost2010Prop36
280
     0
102
RTVSPost2010PropOp36
 70
     1
102
RTVSPost2010Prop37
 90
       50
102
RTVSPost2010PropOp37
 70
     1
102
RTVSPost2010Prop38
140
0.0
102
RTVSPost2010PropOp38
 70
     1
102
RTVSPost2010Prop39
140
1.0
102
RTVSPost2010PropOp39
 70
     1
102
RTVSPost2010Prop40
 90
        0
102
RTVSPost2010PropOp40
 70
     1
102
RTVSPost2010Prop41ColorIndex
 90
       18
102
RTVSPost2010Prop41ColorRGB
 90
        0
102
RTVSPost2010PropOp41
 70
     1
102
RTVSPost2010Prop42
 90
       50
102
RTVSPost2010PropOp42
 70
     1
102
RTVSPost2010Prop43
 90
        3
102
RTVSPost2010PropOp43
 70
     1
102
RTVSPost2010Prop44ColorIndex
 90
        5
102
RTVSPost2010Prop44ColorRGB
 90
      255
102
RTVSPost2010PropOp44
 70
     1
102
RTVSPost2010Prop45
280
     0
102
RTVSPost2010PropOp45
 70
     1
102
RTVSPost2010Prop46
 90
       50
102
RTVSPost2010PropOp46
 70
     1
102
RTVSPost2010Prop47
 90
       50
102
RTVSPost2010PropOp47
 70
     1
102
RTVSPost2010Prop48
 90
       50
102
RTVSPost2010PropOp48
 70
     1
102
RTVSPost2010Prop49
280
     0
102
RTVSPost2010PropOp49
 70
     1
102
RTVSPost2010Prop50
 90
       50
102
RTVSPost2010PropOp50
 70
     1
102
RTVSPost2010Prop51ColorIndex
 90
      256
102
RTVSPost2010Prop51ColorRGB
 90
-16777216
102
RTVSPost2010PropOp51
 70
     0
102
RTVSPost2010Prop52
140
1.0
102
RTVSPost2010PropOp52
 70
     0
102
RTVSPost2010Prop53
 90
        2
102
RTVSPost2010PropOp53
 70
     1
102
RTVSPost2010Prop54
  1
strokes_ogs.tif
102
RTVSPost2010PropOp54
 70
     1
102
RTVSPost2010Prop55
280
     0
102
RTVSPost2010PropOp55
 70
     1
102
RTVSPost2010Prop56
140
1.0
102
RTVSPost2010PropOp56
 70
     1
102
RTVSPost2010Prop57
140
1.0
102
RTVSPost2010PropOp57
 70
     1
102
RTVSPropertyOp0
 70
     1
102
RTVSPropertyOp1
 70
     1
102
RTVSPropertyOp2
 70
     1
102
RTVSPropertyOp3
 70
     1
102
RTVSPropertyOp4
 70
     1
102
RTVSPropertyOp5
 70
     1
102
RTVSPropertyOp6
 70
     1
102
RTVSPropertyOp7
 70
     1
102
RTVSPropertyOp8
 70
     1
102
RTVSPropertyOp9
 70
     1
102
RTVSPropertyOp10
 70
     1
102
RTVSPropertyOp11
 70
     1
102
RTVSPropertyOp12
 70
     1
102
RTVSPropertyOp13
 70
     1
102
RTVSPropertyOp14
 70
     1
102
RTVSPropertyOp15
 70
     1
102
RTVSPropertyOp16
 70
     1
102
RTVSPropertyOp17
 70
     1
102
RTVSPropertyOp18
 70
     1
102
RTVSPropertyOp19
 70
     1
102
RTVSPropertyOp20
 70
     1
102
RTVSPropertyOp21
 70
     1
102
RTVSPropertyOp22
 70
     1
102
RTVSPropertyOp23
 70
     1
102
RTVSPropertyOp24
 70
     1
102
RTVSPropertyOp25
 70
     1
102
RTVSPropertyOp26
 70
     1
102
RTVSPropertyOp27
 70
     1
102
RTVSPropertyOp28
 70
     1
102
RTVSPropertyOp29
 70
     1
102
RTVSPropertyOp30
 70
     1
102
RTVSPropertyOp31
 70
     1
102
RTVSPropertyOp32
 70
     1
102
RTVSPropertyOp33
 70
     1
102
RTVSPropertyOp34
 70
     1
102
RTVSPropertyOp35
 70
     1
102
RTVSPropertyOp36
 70
     1
102
RTVSPropertyOp37
 70
     1
102
RTVSPropertyOp38
 70
     1
102
RTVSPropertyOp39
 70
     1
102
RTVSPropertyOp40
 70
     1
102
RTVSPropertyOp41
 70
     1
102
RTVSPropertyOp42
 70
     1
102
RTVSPropertyOp43
 70
     1
102
RTVSPropertyOp44
 70
     1
102
RTVSPropertyOp45
 70
     1
102
RTVSPropertyOp46
 70
     1
102
RTVSPropertyOp47
 70
     1
102
RTVSPropertyOp48
 70
     1
102
RTVSPropertyOp49
 70
     1
102
RTVSPropertyOp50
 70
     1
102
RTVSPropertyOp51
 70
     0
102
RTVSPropertyOp52
 70
     0
102
RTVSPropertyOp53
 70
     1
102
RTVSPropertyOp54
 70
     1
102
RTVSPropertyOp55
 70
     1
102
RTVSPropertyOp56
 70
     1
102
RTVSPropertyOp57
 70
     1
102
RTVSPropertyOp58
 70
     1
102
RTVSPropertyOp59
 70
     1
102
RTVSPropertyOp60
 70
     1
102
RTVSPropertyOp61
 70
     1
102
RTVSPropertyOp62
 70
     1
  0
XRECORD
  5
3FA
102
{ACAD_REACTORS
330
3F9
102
}
330
3F9
100
AcDbXrecord
280
     1
102
RTVSPost2010Prop28
280
     0
102
RTVSPost2010PropOp28
 70
     1
102
RTVSPost2010Prop29
280
     1
102
RTVSPost2010PropOp29
 70
     1
102
RTVSPost2010Prop30
280
     1
102
RTVSPost2010PropOp30
 70
     1
102
RTVSPost2010Prop31
280
     0
102
RTVSPost2010PropOp31
 70
     1
102
RTVSPost2010Prop32
280
     0
102
RTVSPost2010PropOp32
 70
     1
102
RTVSPost2010Prop33
280
     0
102
RTVSPost2010PropOp33
 70
     1
102
RTVSPost2010Prop34
280
     0
102
RTVSPost2010PropOp34
 70
     1
102
RTVSPost2010Prop35
280
     0
102
RTVSPost2010PropOp35
 70
     1
102
RTVSPost2010Prop36
280
     0
102
RTVSPost2010PropOp36
 70
     1
102
RTVSPost2010Prop37
 90
       50
102
RTVSPost2010PropOp37
 70
     1
102
RTVSPost2010Prop38
140
0.0
102
RTVSPost2010PropOp38
 70
     1
102
RTVSPost2010Prop39
140
1.0
102
RTVSPost2010PropOp39
 70
     1
102
RTVSPost2010Prop40
 90
        0
102
RTVSPost2010PropOp40
 70
     1
102
RTVSPost2010Prop41ColorIndex
 90
       18
102
RTVSPost2010Prop41ColorRGB
 90
        0
102
RTVSPost2010PropOp41
 70
     1
102
RTVSPost2010Prop42
 90
       50
102
RTVSPost2010PropOp42
 70
     1
102
RTVSPost2010Prop43
 90
        3
102
RTVSPost2010PropOp43
 70
     1
102
RTVSPost2010Prop44ColorIndex
 90
        5
102
RTVSPost2010Prop44ColorRGB
 90
      255
102
RTVSPost2010PropOp44
 70
     1
102
RTVSPost2010Prop45
280
     0
102
RTVSPost2010PropOp45
 70
     1
102
RTVSPost2010Prop46
 90
       50
102
RTVSPost2010PropOp46
 70
     1
102
RTVSPost2010Prop47
 90
       50
102
RTVSPost2010PropOp47
 70
     1
102
RTVSPost2010Prop48
 90
       50
102
RTVSPost2010PropOp48
 70
     1
102
RTVSPost2010Prop49
280
     0
102
RTVSPost2010PropOp49
 70
     1
102
RTVSPost2010Prop50
 90
       50
102
RTVSPost2010PropOp50
 70
     1
102
RTVSPost2010Prop51ColorIndex
 90
      256
102
RTVSPost2010Prop51ColorRGB
 90
-16777216
102
RTVSPost2010PropOp51
 70
     0
102
RTVSPost2010Prop52
140
1.0
102
RTVSPost2010PropOp52
 70
     0
102
RTVSPost2010Prop53
 90
        2
102
RTVSPost2010PropOp53
 70
     1
102
RTVSPost2010Prop54
  1
strokes_ogs.tif
102
RTVSPost2010PropOp54
 70
     1
102
RTVSPost2010Prop55
280
     0
102
RTVSPost2010PropOp55
 70
     1
102
RTVSPost2010Prop56
140
1.0
102
RTVSPost2010PropOp56
 70
     1
102
RTVSPost2010Prop57
140
1.0
102
RTVSPost2010PropOp57
 70
     1
102
RTVSPropertyOp0
 70
     1
102
RTVSPropertyOp1
 70
     1
102
RTVSPropertyOp2
 70
     1
102
RTVSPropertyOp3
 70
     1
102
RTVSPropertyOp4
 70
     1
102
RTVSPropertyOp5
 70
     1
102
RTVSPropertyOp6
 70
     1
102
RTVSPropertyOp7
 70
     1
102
RTVSPropertyOp8
 70
     1
102
RTVSPropertyOp9
 70
     1
102
RTVSPropertyOp10
 70
     1
102
RTVSPropertyOp11
 70
     1
102
RTVSPropertyOp12
 70
     1
102
RTVSPropertyOp13
 70
     1
102
RTVSPropertyOp14
 70
     1
102
RTVSPropertyOp15
 70
     1
102
RTVSPropertyOp16
 70
     1
102
RTVSPropertyOp17
 70
     1
102
RTVSPropertyOp18
 70
     1
102
RTVSPropertyOp19
 70
     1
102
RTVSPropertyOp20
 70
     1
102
RTVSPropertyOp21
 70
     1
102
RTVSPropertyOp22
 70
     1
102
RTVSPropertyOp23
 70
     1
102
RTVSPropertyOp24
 70
     1
102
RTVSPropertyOp25
 70
     1
102
RTVSPropertyOp26
 70
     1
102
RTVSPropertyOp27
 70
     1
102
RTVSPropertyOp28
 70
     1
102
RTVSPropertyOp29
 70
     1
102
RTVSPropertyOp30
 70
     1
102
RTVSPropertyOp31
 70
     1
102
RTVSPropertyOp32
 70
     1
102
RTVSPropertyOp33
 70
     1
102
RTVSPropertyOp34
 70
     1
102
RTVSPropertyOp35
 70
     1
102
RTVSPropertyOp36
 70
     1
102
RTVSPropertyOp37
 70
     1
102
RTVSPropertyOp38
 70
     1
102
RTVSPropertyOp39
 70
     1
102
RTVSPropertyOp40
 70
     1
102
RTVSPropertyOp41
 70
     1
102
RTVSPropertyOp42
 70
     1
102
RTVSPropertyOp43
 70
     1
102
RTVSPropertyOp44
 70
     1
102
RTVSPropertyOp45
 70
     1
102
RTVSPropertyOp46
 70
     1
102
RTVSPropertyOp47
 70
     1
102
RTVSPropertyOp48
 70
     1
102
RTVSPropertyOp49
 70
     1
102
RTVSPropertyOp50
 70
     1
102
RTVSPropertyOp51
 70
     0
102
RTVSPropertyOp52
 70
     0
102
RTVSPropertyOp53
 70
     1
102
RTVSPropertyOp54
 70
     1
102
RTVSPropertyOp55
 70
     1
102
RTVSPropertyOp56
 70
     1
102
RTVSPropertyOp57
 70
     1
102
RTVSPropertyOp58
 70
     1
102
RTVSPropertyOp59
 70
     1
102
RTVSPropertyOp60
 70
     1
102
RTVSPropertyOp61
 70
     1
102
RTVSPropertyOp62
 70
     1
  0
XRECORD
  5
408
102
{ACAD_REACTORS
330
407
102
}
330
407
100
AcDbXrecord
280
     1
102
RTVSPost2010Prop28
280
     0
102
RTVSPost2010PropOp28
 70
     1
102
RTVSPost2010Prop29
280
     1
102
RTVSPost2010PropOp29
 70
     1
102
RTVSPost2010Prop30
280
     1
102
RTVSPost2010PropOp30
 70
     1
102
RTVSPost2010Prop31
280
     0
102
RTVSPost2010PropOp31
 70
     1
102
RTVSPost2010Prop32
280
     0
102
RTVSPost2010PropOp32
 70
     1
102
RTVSPost2010Prop33
280
     0
102
RTVSPost2010PropOp33
 70
     1
102
RTVSPost2010Prop34
280
     0
102
RTVSPost2010PropOp34
 70
     1
102
RTVSPost2010Prop35
280
     0
102
RTVSPost2010PropOp35
 70
     1
102
RTVSPost2010Prop36
280
     0
102
RTVSPost2010PropOp36
 70
     1
102
RTVSPost2010Prop37
 90
       50
102
RTVSPost2010PropOp37
 70
     1
102
RTVSPost2010Prop38
140
0.0
102
RTVSPost2010PropOp38
 70
     1
102
RTVSPost2010Prop39
140
1.0
102
RTVSPost2010PropOp39
 70
     1
102
RTVSPost2010Prop40
 90
        0
102
RTVSPost2010PropOp40
 70
     1
102
RTVSPost2010Prop41ColorIndex
 90
       18
102
RTVSPost2010Prop41ColorRGB
 90
        0
102
RTVSPost2010PropOp41
 70
     1
102
RTVSPost2010Prop42
 90
       50
102
RTVSPost2010PropOp42
 70
     1
102
RTVSPost2010Prop43
 90
        3
102
RTVSPost2010PropOp43
 70
     1
102
RTVSPost2010Prop44ColorIndex
 90
        5
102
RTVSPost2010Prop44ColorRGB
 90
      255
102
RTVSPost2010PropOp44
 70
     1
102
RTVSPost2010Prop45
280
     0
102
RTVSPost2010PropOp45
 70
     1
102
RTVSPost2010Prop46
 90
       50
102
RTVSPost2010PropOp46
 70
     1
102
RTVSPost2010Prop47
 90
       50
102
RTVSPost2010PropOp47
 70
     1
102
RTVSPost2010Prop48
 90
       50
102
RTVSPost2010PropOp48
 70
     1
102
RTVSPost2010Prop49
280
     0
102
RTVSPost2010PropOp49
 70
     1
102
RTVSPost2010Prop50
 90
       50
102
RTVSPost2010PropOp50
 70
     1
102
RTVSPost2010Prop51ColorIndex
 90
      256
102
RTVSPost2010Prop51ColorRGB
 90
-16777216
102
RTVSPost2010PropOp51
 70
     0
102
RTVSPost2010Prop52
140
1.0
102
RTVSPost2010PropOp52
 70
     0
102
RTVSPost2010Prop53
 90
        2
102
RTVSPost2010PropOp53
 70
     1
102
RTVSPost2010Prop54
  1
strokes_ogs.tif
102
RTVSPost2010PropOp54
 70
     1
102
RTVSPost2010Prop55
280
     0
102
RTVSPost2010PropOp55
 70
     1
102
RTVSPost2010Prop56
140
1.0
102
RTVSPost2010PropOp56
 70
     1
102
RTVSPost2010Prop57
140
1.0
102
RTVSPost2010PropOp57
 70
     1
102
RTVSPropertyOp0
 70
     1
102
RTVSPropertyOp1
 70
     1
102
RTVSPropertyOp2
 70
     1
102
RTVSPropertyOp3
 70
     1
102
RTVSPropertyOp4
 70
     1
102
RTVSPropertyOp5
 70
     1
102
RTVSPropertyOp6
 70
     1
102
RTVSPropertyOp7
 70
     1
102
RTVSPropertyOp8
 70
     1
102
RTVSPropertyOp9
 70
     1
102
RTVSPropertyOp10
 70
     1
102
RTVSPropertyOp11
 70
     1
102
RTVSPropertyOp12
 70
     1
102
RTVSPropertyOp13
 70
     1
102
RTVSPropertyOp14
 70
     1
102
RTVSPropertyOp15
 70
     1
102
RTVSPropertyOp16
 70
     1
102
RTVSPropertyOp17
 70
     1
102
RTVSPropertyOp18
 70
     1
102
RTVSPropertyOp19
 70
     1
102
RTVSPropertyOp20
 70
     1
102
RTVSPropertyOp21
 70
     1
102
RTVSPropertyOp22
 70
     1
102
RTVSPropertyOp23
 70
     1
102
RTVSPropertyOp24
 70
     1
102
RTVSPropertyOp25
 70
     1
102
RTVSPropertyOp26
 70
     1
102
RTVSPropertyOp27
 70
     1
102
RTVSPropertyOp28
 70
     1
102
RTVSPropertyOp29
 70
     1
102
RTVSPropertyOp30
 70
     1
102
RTVSPropertyOp31
 70
     1
102
RTVSPropertyOp32
 70
     1
102
RTVSPropertyOp33
 70
     1
102
RTVSPropertyOp34
 70
     1
102
RTVSPropertyOp35
 70
     1
102
RTVSPropertyOp36
 70
     1
102
RTVSPropertyOp37
 70
     1
102
RTVSPropertyOp38
 70
     1
102
RTVSPropertyOp39
 70
     1
102
RTVSPropertyOp40
 70
     1
102
RTVSPropertyOp41
 70
     1
102
RTVSPropertyOp42
 70
     1
102
RTVSPropertyOp43
 70
     1
102
RTVSPropertyOp44
 70
     1
102
RTVSPropertyOp45
 70
     1
102
RTVSPropertyOp46
 70
     1
102
RTVSPropertyOp47
 70
     1
102
RTVSPropertyOp48
 70
     1
102
RTVSPropertyOp49
 70
     1
102
RTVSPropertyOp50
 70
     1
102
RTVSPropertyOp51
 70
     0
102
RTVSPropertyOp52
 70
     0
102
RTVSPropertyOp53
 70
     1
102
RTVSPropertyOp54
 70
     1
102
RTVSPropertyOp55
 70
     1
102
RTVSPropertyOp56
 70
     1
102
RTVSPropertyOp57
 70
     1
102
RTVSPropertyOp58
 70
     1
102
RTVSPropertyOp59
 70
     1
102
RTVSPropertyOp60
 70
     1
102
RTVSPropertyOp61
 70
     1
102
RTVSPropertyOp62
 70
     1
  0
XRECORD
  5
410
102
{ACAD_REACTORS
330
40F
102
}
330
40F
100
AcDbXrecord
280
     1
102
RTVSPost2010Prop28
280
     0
102
RTVSPost2010PropOp28
 70
     1
102
RTVSPost2010Prop29
280
     1
102
RTVSPost2010PropOp29
 70
     1
102
RTVSPost2010Prop30
280
     1
102
RTVSPost2010PropOp30
 70
     1
102
RTVSPost2010Prop31
280
     0
102
RTVSPost2010PropOp31
 70
     1
102
RTVSPost2010Prop32
280
     0
102
RTVSPost2010PropOp32
 70
     1
102
RTVSPost2010Prop33
280
     0
102
RTVSPost2010PropOp33
 70
     1
102
RTVSPost2010Prop34
280
     0
102
RTVSPost2010PropOp34
 70
     1
102
RTVSPost2010Prop35
280
     0
102
RTVSPost2010PropOp35
 70
     1
102
RTVSPost2010Prop36
280
     0
102
RTVSPost2010PropOp36
 70
     1
102
RTVSPost2010Prop37
 90
       50
102
RTVSPost2010PropOp37
 70
     1
102
RTVSPost2010Prop38
140
0.0
102
RTVSPost2010PropOp38
 70
     1
102
RTVSPost2010Prop39
140
1.0
102
RTVSPost2010PropOp39
 70
     1
102
RTVSPost2010Prop40
 90
        0
102
RTVSPost2010PropOp40
 70
     1
102
RTVSPost2010Prop41ColorIndex
 90
       18
102
RTVSPost2010Prop41ColorRGB
 90
        0
102
RTVSPost2010PropOp41
 70
     1
102
RTVSPost2010Prop42
 90
       50
102
RTVSPost2010PropOp42
 70
     1
102
RTVSPost2010Prop43
 90
        3
102
RTVSPost2010PropOp43
 70
     1
102
RTVSPost2010Prop44ColorIndex
 90
        5
102
RTVSPost2010Prop44ColorRGB
 90
      255
102
RTVSPost2010PropOp44
 70
     1
102
RTVSPost2010Prop45
280
     0
102
RTVSPost2010PropOp45
 70
     1
102
RTVSPost2010Prop46
 90
       50
102
RTVSPost2010PropOp46
 70
     1
102
RTVSPost2010Prop47
 90
       50
102
RTVSPost2010PropOp47
 70
     1
102
RTVSPost2010Prop48
 90
       50
102
RTVSPost2010PropOp48
 70
     1
102
RTVSPost2010Prop49
280
     0
102
RTVSPost2010PropOp49
 70
     1
102
RTVSPost2010Prop50
 90
       50
102
RTVSPost2010PropOp50
 70
     1
102
RTVSPost2010Prop51ColorIndex
 90
      256
102
RTVSPost2010Prop51ColorRGB
 90
-16777216
102
RTVSPost2010PropOp51
 70
     0
102
RTVSPost2010Prop52
140
1.0
102
RTVSPost2010PropOp52
 70
     0
102
RTVSPost2010Prop53
 90
        2
102
RTVSPost2010PropOp53
 70
     1
102
RTVSPost2010Prop54
  1
strokes_ogs.tif
102
RTVSPost2010PropOp54
 70
     1
102
RTVSPost2010Prop55
280
     0
102
RTVSPost2010PropOp55
 70
     1
102
RTVSPost2010Prop56
140
1.0
102
RTVSPost2010PropOp56
 70
     1
102
RTVSPost2010Prop57
140
1.0
102
RTVSPost2010PropOp57
 70
     1
102
RTVSPropertyOp0
 70
     1
102
RTVSPropertyOp1
 70
     1
102
RTVSPropertyOp2
 70
     1
102
RTVSPropertyOp3
 70
     1
102
RTVSPropertyOp4
 70
     1
102
RTVSPropertyOp5
 70
     1
102
RTVSPropertyOp6
 70
     1
102
RTVSPropertyOp7
 70
     1
102
RTVSPropertyOp8
 70
     1
102
RTVSPropertyOp9
 70
     1
102
RTVSPropertyOp10
 70
     1
102
RTVSPropertyOp11
 70
     1
102
RTVSPropertyOp12
 70
     1
102
RTVSPropertyOp13
 70
     1
102
RTVSPropertyOp14
 70
     1
102
RTVSPropertyOp15
 70
     1
102
RTVSPropertyOp16
 70
     1
102
RTVSPropertyOp17
 70
     1
102
RTVSPropertyOp18
 70
     1
102
RTVSPropertyOp19
 70
     1
102
RTVSPropertyOp20
 70
     1
102
RTVSPropertyOp21
 70
     1
102
RTVSPropertyOp22
 70
     1
102
RTVSPropertyOp23
 70
     1
102
RTVSPropertyOp24
 70
     1
102
RTVSPropertyOp25
 70
     1
102
RTVSPropertyOp26
 70
     1
102
RTVSPropertyOp27
 70
     1
102
RTVSPropertyOp28
 70
     1
102
RTVSPropertyOp29
 70
     1
102
RTVSPropertyOp30
 70
     1
102
RTVSPropertyOp31
 70
     1
102
RTVSPropertyOp32
 70
     1
102
RTVSPropertyOp33
 70
     1
102
RTVSPropertyOp34
 70
     1
102
RTVSPropertyOp35
 70
     1
102
RTVSPropertyOp36
 70
     1
102
RTVSPropertyOp37
 70
     1
102
RTVSPropertyOp38
 70
     1
102
RTVSPropertyOp39
 70
     1
102
RTVSPropertyOp40
 70
     1
102
RTVSPropertyOp41
 70
     1
102
RTVSPropertyOp42
 70
     1
102
RTVSPropertyOp43
 70
     1
102
RTVSPropertyOp44
 70
     1
102
RTVSPropertyOp45
 70
     1
102
RTVSPropertyOp46
 70
     1
102
RTVSPropertyOp47
 70
     1
102
RTVSPropertyOp48
 70
     1
102
RTVSPropertyOp49
 70
     1
102
RTVSPropertyOp50
 70
     1
102
RTVSPropertyOp51
 70
     0
102
RTVSPropertyOp52
 70
     0
102
RTVSPropertyOp53
 70
     1
102
RTVSPropertyOp54
 70
     1
102
RTVSPropertyOp55
 70
     1
102
RTVSPropertyOp56
 70
     1
102
RTVSPropertyOp57
 70
     1
102
RTVSPropertyOp58
 70
     1
102
RTVSPropertyOp59
 70
     1
102
RTVSPropertyOp60
 70
     1
102
RTVSPropertyOp61
 70
     1
102
RTVSPropertyOp62
 70
     1
  0
XRECORD
  5
402
102
{ACAD_REACTORS
330
401
102
}
330
401
100
AcDbXrecord
280
     1
102
RTVSPost2010Prop28
280
     0
102
RTVSPost2010PropOp28
 70
     1
102
RTVSPost2010Prop29
280
     1
102
RTVSPost2010PropOp29
 70
     1
102
RTVSPost2010Prop30
280
     1
102
RTVSPost2010PropOp30
 70
     1
102
RTVSPost2010Prop31
280
     0
102
RTVSPost2010PropOp31
 70
     1
102
RTVSPost2010Prop32
280
     0
102
RTVSPost2010PropOp32
 70
     1
102
RTVSPost2010Prop33
280
     0
102
RTVSPost2010PropOp33
 70
     1
102
RTVSPost2010Prop34
280
     0
102
RTVSPost2010PropOp34
 70
     1
102
RTVSPost2010Prop35
280
     0
102
RTVSPost2010PropOp35
 70
     1
102
RTVSPost2010Prop36
280
     0
102
RTVSPost2010PropOp36
 70
     1
102
RTVSPost2010Prop37
 90
       50
102
RTVSPost2010PropOp37
 70
     1
102
RTVSPost2010Prop38
140
0.0
102
RTVSPost2010PropOp38
 70
     1
102
RTVSPost2010Prop39
140
1.0
102
RTVSPost2010PropOp39
 70
     1
102
RTVSPost2010Prop40
 90
        0
102
RTVSPost2010PropOp40
 70
     1
102
RTVSPost2010Prop41ColorIndex
 90
       18
102
RTVSPost2010Prop41ColorRGB
 90
        0
102
RTVSPost2010PropOp41
 70
     1
102
RTVSPost2010Prop42
 90
       50
102
RTVSPost2010PropOp42
 70
     1
102
RTVSPost2010Prop43
 90
        3
102
RTVSPost2010PropOp43
 70
     1
102
RTVSPost2010Prop44ColorIndex
 90
        5
102
RTVSPost2010Prop44ColorRGB
 90
      255
102
RTVSPost2010PropOp44
 70
     1
102
RTVSPost2010Prop45
280
     0
102
RTVSPost2010PropOp45
 70
     1
102
RTVSPost2010Prop46
 90
       50
102
RTVSPost2010PropOp46
 70
     1
102
RTVSPost2010Prop47
 90
       50
102
RTVSPost2010PropOp47
 70
     1
102
RTVSPost2010Prop48
 90
       50
102
RTVSPost2010PropOp48
 70
     1
102
RTVSPost2010Prop49
280
     0
102
RTVSPost2010PropOp49
 70
     1
102
RTVSPost2010Prop50
 90
       50
102
RTVSPost2010PropOp50
 70
     1
102
RTVSPost2010Prop51ColorIndex
 90
      256
102
RTVSPost2010Prop51ColorRGB
 90
-16777216
102
RTVSPost2010PropOp51
 70
     0
102
RTVSPost2010Prop52
140
1.0
102
RTVSPost2010PropOp52
 70
     0
102
RTVSPost2010Prop53
 90
        2
102
RTVSPost2010PropOp53
 70
     1
102
RTVSPost2010Prop54
  1
strokes_ogs.tif
102
RTVSPost2010PropOp54
 70
     1
102
RTVSPost2010Prop55
280
     0
102
RTVSPost2010PropOp55
 70
     1
102
RTVSPost2010Prop56
140
1.0
102
RTVSPost2010PropOp56
 70
     1
102
RTVSPost2010Prop57
140
1.0
102
RTVSPost2010PropOp57
 70
     1
102
RTVSPropertyOp0
 70
     1
102
RTVSPropertyOp1
 70
     1
102
RTVSPropertyOp2
 70
     1
102
RTVSPropertyOp3
 70
     1
102
RTVSPropertyOp4
 70
     1
102
RTVSPropertyOp5
 70
     1
102
RTVSPropertyOp6
 70
     1
102
RTVSPropertyOp7
 70
     1
102
RTVSPropertyOp8
 70
     1
102
RTVSPropertyOp9
 70
     1
102
RTVSPropertyOp10
 70
     1
102
RTVSPropertyOp11
 70
     1
102
RTVSPropertyOp12
 70
     1
102
RTVSPropertyOp13
 70
     1
102
RTVSPropertyOp14
 70
     1
102
RTVSPropertyOp15
 70
     1
102
RTVSPropertyOp16
 70
     1
102
RTVSPropertyOp17
 70
     1
102
RTVSPropertyOp18
 70
     1
102
RTVSPropertyOp19
 70
     1
102
RTVSPropertyOp20
 70
     1
102
RTVSPropertyOp21
 70
     1
102
RTVSPropertyOp22
 70
     1
102
RTVSPropertyOp23
 70
     1
102
RTVSPropertyOp24
 70
     1
102
RTVSPropertyOp25
 70
     1
102
RTVSPropertyOp26
 70
     1
102
RTVSPropertyOp27
 70
     1
102
RTVSPropertyOp28
 70
     1
102
RTVSPropertyOp29
 70
     1
102
RTVSPropertyOp30
 70
     1
102
RTVSPropertyOp31
 70
     1
102
RTVSPropertyOp32
 70
     1
102
RTVSPropertyOp33
 70
     1
102
RTVSPropertyOp34
 70
     1
102
RTVSPropertyOp35
 70
     1
102
RTVSPropertyOp36
 70
     1
102
RTVSPropertyOp37
 70
     1
102
RTVSPropertyOp38
 70
     1
102
RTVSPropertyOp39
 70
     1
102
RTVSPropertyOp40
 70
     1
102
RTVSPropertyOp41
 70
     1
102
RTVSPropertyOp42
 70
     1
102
RTVSPropertyOp43
 70
     1
102
RTVSPropertyOp44
 70
     1
102
RTVSPropertyOp45
 70
     1
102
RTVSPropertyOp46
 70
     1
102
RTVSPropertyOp47
 70
     1
102
RTVSPropertyOp48
 70
     1
102
RTVSPropertyOp49
 70
     1
102
RTVSPropertyOp50
 70
     1
102
RTVSPropertyOp51
 70
     0
102
RTVSPropertyOp52
 70
     0
102
RTVSPropertyOp53
 70
     1
102
RTVSPropertyOp54
 70
     1
102
RTVSPropertyOp55
 70
     1
102
RTVSPropertyOp56
 70
     1
102
RTVSPropertyOp57
 70
     1
102
RTVSPropertyOp58
 70
     1
102
RTVSPropertyOp59
 70
     1
102
RTVSPropertyOp60
 70
     1
102
RTVSPropertyOp61
 70
     1
102
RTVSPropertyOp62
 70
     1
  0
XRECORD
  5
406
102
{ACAD_REACTORS
330
405
102
}
330
405
100
AcDbXrecord
280
     1
102
RTVSPost2010Prop28
280
     0
102
RTVSPost2010PropOp28
 70
     1
102
RTVSPost2010Prop29
280
     1
102
RTVSPost2010PropOp29
 70
     1
102
RTVSPost2010Prop30
280
     1
102
RTVSPost2010PropOp30
 70
     1
102
RTVSPost2010Prop31
280
     0
102
RTVSPost2010PropOp31
 70
     1
102
RTVSPost2010Prop32
280
     0
102
RTVSPost2010PropOp32
 70
     1
102
RTVSPost2010Prop33
280
     0
102
RTVSPost2010PropOp33
 70
     1
102
RTVSPost2010Prop34
280
     0
102
RTVSPost2010PropOp34
 70
     1
102
RTVSPost2010Prop35
280
     0
102
RTVSPost2010PropOp35
 70
     1
102
RTVSPost2010Prop36
280
     0
102
RTVSPost2010PropOp36
 70
     1
102
RTVSPost2010Prop37
 90
       50
102
RTVSPost2010PropOp37
 70
     1
102
RTVSPost2010Prop38
140
0.0
102
RTVSPost2010PropOp38
 70
     1
102
RTVSPost2010Prop39
140
1.0
102
RTVSPost2010PropOp39
 70
     1
102
RTVSPost2010Prop40
 90
        0
102
RTVSPost2010PropOp40
 70
     1
102
RTVSPost2010Prop41ColorIndex
 90
       18
102
RTVSPost2010Prop41ColorRGB
 90
        0
102
RTVSPost2010PropOp41
 70
     1
102
RTVSPost2010Prop42
 90
       50
102
RTVSPost2010PropOp42
 70
     1
102
RTVSPost2010Prop43
 90
        3
102
RTVSPost2010PropOp43
 70
     1
102
RTVSPost2010Prop44ColorIndex
 90
        5
102
RTVSPost2010Prop44ColorRGB
 90
      255
102
RTVSPost2010PropOp44
 70
     1
102
RTVSPost2010Prop45
280
     0
102
RTVSPost2010PropOp45
 70
     1
102
RTVSPost2010Prop46
 90
       50
102
RTVSPost2010PropOp46
 70
     1
102
RTVSPost2010Prop47
 90
       50
102
RTVSPost2010PropOp47
 70
     1
102
RTVSPost2010Prop48
 90
       50
102
RTVSPost2010PropOp48
 70
     1
102
RTVSPost2010Prop49
280
     0
102
RTVSPost2010PropOp49
 70
     1
102
RTVSPost2010Prop50
 90
       50
102
RTVSPost2010PropOp50
 70
     1
102
RTVSPost2010Prop51ColorIndex
 90
      256
102
RTVSPost2010Prop51ColorRGB
 90
-16777216
102
RTVSPost2010PropOp51
 70
     0
102
RTVSPost2010Prop52
140
1.0
102
RTVSPost2010PropOp52
 70
     0
102
RTVSPost2010Prop53
 90
        2
102
RTVSPost2010PropOp53
 70
     1
102
RTVSPost2010Prop54
  1
strokes_ogs.tif
102
RTVSPost2010PropOp54
 70
     1
102
RTVSPost2010Prop55
280
     0
102
RTVSPost2010PropOp55
 70
     1
102
RTVSPost2010Prop56
140
1.0
102
RTVSPost2010PropOp56
 70
     1
102
RTVSPost2010Prop57
140
1.0
102
RTVSPost2010PropOp57
 70
     1
102
RTVSPropertyOp0
 70
     1
102
RTVSPropertyOp1
 70
     1
102
RTVSPropertyOp2
 70
     1
102
RTVSPropertyOp3
 70
     1
102
RTVSPropertyOp4
 70
     1
102
RTVSPropertyOp5
 70
     1
102
RTVSPropertyOp6
 70
     1
102
RTVSPropertyOp7
 70
     1
102
RTVSPropertyOp8
 70
     1
102
RTVSPropertyOp9
 70
     1
102
RTVSPropertyOp10
 70
     1
102
RTVSPropertyOp11
 70
     1
102
RTVSPropertyOp12
 70
     1
102
RTVSPropertyOp13
 70
     1
102
RTVSPropertyOp14
 70
     1
102
RTVSPropertyOp15
 70
     1
102
RTVSPropertyOp16
 70
     1
102
RTVSPropertyOp17
 70
     1
102
RTVSPropertyOp18
 70
     1
102
RTVSPropertyOp19
 70
     1
102
RTVSPropertyOp20
 70
     1
102
RTVSPropertyOp21
 70
     1
102
RTVSPropertyOp22
 70
     1
102
RTVSPropertyOp23
 70
     1
102
RTVSPropertyOp24
 70
     1
102
RTVSPropertyOp25
 70
     1
102
RTVSPropertyOp26
 70
     1
102
RTVSPropertyOp27
 70
     1
102
RTVSPropertyOp28
 70
     1
102
RTVSPropertyOp29
 70
     1
102
RTVSPropertyOp30
 70
     1
102
RTVSPropertyOp31
 70
     1
102
RTVSPropertyOp32
 70
     1
102
RTVSPropertyOp33
 70
     1
102
RTVSPropertyOp34
 70
     1
102
RTVSPropertyOp35
 70
     1
102
RTVSPropertyOp36
 70
     1
102
RTVSPropertyOp37
 70
     1
102
RTVSPropertyOp38
 70
     1
102
RTVSPropertyOp39
 70
     1
102
RTVSPropertyOp40
 70
     1
102
RTVSPropertyOp41
 70
     1
102
RTVSPropertyOp42
 70
     1
102
RTVSPropertyOp43
 70
     1
102
RTVSPropertyOp44
 70
     1
102
RTVSPropertyOp45
 70
     1
102
RTVSPropertyOp46
 70
     1
102
RTVSPropertyOp47
 70
     1
102
RTVSPropertyOp48
 70
     1
102
RTVSPropertyOp49
 70
     1
102
RTVSPropertyOp50
 70
     1
102
RTVSPropertyOp51
 70
     0
102
RTVSPropertyOp52
 70
     0
102
RTVSPropertyOp53
 70
     1
102
RTVSPropertyOp54
 70
     1
102
RTVSPropertyOp55
 70
     1
102
RTVSPropertyOp56
 70
     1
102
RTVSPropertyOp57
 70
     1
102
RTVSPropertyOp58
 70
     1
102
RTVSPropertyOp59
 70
     1
102
RTVSPropertyOp60
 70
     1
102
RTVSPropertyOp61
 70
     1
102
RTVSPropertyOp62
 70
     1
  0
XRECORD
  5
420
102
{ACAD_REACTORS
330
41F
102
}
330
41F
100
AcDbXrecord
280
     1
102
RTVSPost2010Prop28
280
     0
102
RTVSPost2010PropOp28
 70
     0
102
RTVSPost2010Prop29
280
     1
102
RTVSPost2010PropOp29
 70
     0
102
RTVSPost2010Prop30
280
     1
102
RTVSPost2010PropOp30
 70
     0
102
RTVSPost2010Prop31
280
     0
102
RTVSPost2010PropOp31
 70
     0
102
RTVSPost2010Prop32
280
     0
102
RTVSPost2010PropOp32
 70
     0
102
RTVSPost2010Prop33
280
     0
102
RTVSPost2010PropOp33
 70
     0
102
RTVSPost2010Prop34
280
     0
102
RTVSPost2010PropOp34
 70
     0
102
RTVSPost2010Prop35
280
     0
102
RTVSPost2010PropOp35
 70
     0
102
RTVSPost2010Prop36
280
     0
102
RTVSPost2010PropOp36
 70
     0
102
RTVSPost2010Prop37
 90
       50
102
RTVSPost2010PropOp37
 70
     0
102
RTVSPost2010Prop38
140
0.0
102
RTVSPost2010PropOp38
 70
     0
102
RTVSPost2010Prop39
140
1.0
102
RTVSPost2010PropOp39
 70
     0
102
RTVSPost2010Prop40
 90
        0
102
RTVSPost2010PropOp40
 70
     0
102
RTVSPost2010Prop41ColorIndex
 90
       18
102
RTVSPost2010Prop41ColorRGB
 90
        0
102
RTVSPost2010PropOp41
 70
     0
102
RTVSPost2010Prop42
 90
       50
102
RTVSPost2010PropOp42
 70
     0
102
RTVSPost2010Prop43
 90
        3
102
RTVSPost2010PropOp43
 70
     0
102
RTVSPost2010Prop44ColorIndex
 90
        5
102
RTVSPost2010Prop44ColorRGB
 90
      255
102
RTVSPost2010PropOp44
 70
     0
102
RTVSPost2010Prop45
280
     0
102
RTVSPost2010PropOp45
 70
     0
102
RTVSPost2010Prop46
 90
       50
102
RTVSPost2010PropOp46
 70
     0
102
RTVSPost2010Prop47
 90
       50
102
RTVSPost2010PropOp47
 70
     0
102
RTVSPost2010Prop48
 90
       50
102
RTVSPost2010PropOp48
 70
     0
102
RTVSPost2010Prop49
280
     0
102
RTVSPost2010PropOp49
 70
     0
102
RTVSPost2010Prop50
 90
       50
102
RTVSPost2010PropOp50
 70
     0
102
RTVSPost2010Prop51ColorIndex
 90
      256
102
RTVSPost2010Prop51ColorRGB
 90
-16777216
102
RTVSPost2010PropOp51
 70
     0
102
RTVSPost2010Prop52
140
1.0
102
RTVSPost2010PropOp52
 70
     0
102
RTVSPost2010Prop53
 90
        2
102
RTVSPost2010PropOp53
 70
     0
102
RTVSPost2010Prop54
  1
strokes_ogs.tif
102
RTVSPost2010PropOp54
 70
     0
102
RTVSPost2010Prop55
280
     0
102
RTVSPost2010PropOp55
 70
     0
102
RTVSPost2010Prop56
140
1.0
102
RTVSPost2010PropOp56
 70
     0
102
RTVSPost2010Prop57
140
1.0
102
RTVSPost2010PropOp57
 70
     0
102
RTVSPropertyOp0
 70
     0
102
RTVSPropertyOp1
 70
     0
102
RTVSPropertyOp2
 70
     0
102
RTVSPropertyOp3
 70
     0
102
RTVSPropertyOp4
 70
     0
102
RTVSPropertyOp5
 70
     0
102
RTVSPropertyOp6
 70
     0
102
RTVSPropertyOp7
 70
     0
102
RTVSPropertyOp8
 70
     0
102
RTVSPropertyOp9
 70
     0
102
RTVSPropertyOp10
 70
     0
102
RTVSPropertyOp11
 70
     0
102
RTVSPropertyOp12
 70
     0
102
RTVSPropertyOp13
 70
     0
102
RTVSPropertyOp14
 70
     2
102
RTVSPropertyOp15
 70
     0
102
RTVSPropertyOp16
 70
     0
102
RTVSPropertyOp17
 70
     0
102
RTVSPropertyOp18
 70
     0
102
RTVSPropertyOp19
 70
     0
102
RTVSPropertyOp20
 70
     0
102
RTVSPropertyOp21
 70
     0
102
RTVSPropertyOp22
 70
     0
102
RTVSPropertyOp23
 70
     0
102
RTVSPropertyOp24
 70
     0
102
RTVSPropertyOp25
 70
     0
102
RTVSPropertyOp26
 70
     0
102
RTVSPropertyOp27
 70
     0
102
RTVSPropertyOp28
 70
     0
102
RTVSPropertyOp29
 70
     0
102
RTVSPropertyOp30
 70
     0
102
RTVSPropertyOp31
 70
     0
102
RTVSPropertyOp32
 70
     0
102
RTVSPropertyOp33
 70
     0
102
RTVSPropertyOp34
 70
     0
102
RTVSPropertyOp35
 70
     0
102
RTVSPropertyOp36
 70
     0
102
RTVSPropertyOp37
 70
     0
102
RTVSPropertyOp38
 70
     0
102
RTVSPropertyOp39
 70
     0
102
RTVSPropertyOp40
 70
     0
102
RTVSPropertyOp41
 70
     0
102
RTVSPropertyOp42
 70
     0
102
RTVSPropertyOp43
 70
     0
102
RTVSPropertyOp44
 70
     0
102
RTVSPropertyOp45
 70
     0
102
RTVSPropertyOp46
 70
     0
102
RTVSPropertyOp47
 70
     0
102
RTVSPropertyOp48
 70
     0
102
RTVSPropertyOp49
 70
     0
102
RTVSPropertyOp50
 70
     0
102
RTVSPropertyOp51
 70
     0
102
RTVSPropertyOp52
 70
     0
102
RTVSPropertyOp53
 70
     0
102
RTVSPropertyOp54
 70
     0
102
RTVSPropertyOp55
 70
     0
102
RTVSPropertyOp56
 70
     0
102
RTVSPropertyOp57
 70
     0
102
RTVSPropertyOp58
 70
     0
102
RTVSPropertyOp59
 70
     0
102
RTVSPropertyOp60
 70
     0
102
RTVSPropertyOp61
 70
     0
102
RTVSPropertyOp62
 70
     0
  0
XRECORD
  5
40E
102
{ACAD_REACTORS
330
40D
102
}
330
40D
100
AcDbXrecord
280
     1
102
RTVSPost2010Prop28
280
     0
102
RTVSPost2010PropOp28
 70
     1
102
RTVSPost2010Prop29
280
     1
102
RTVSPost2010PropOp29
 70
     1
102
RTVSPost2010Prop30
280
     1
102
RTVSPost2010PropOp30
 70
     1
102
RTVSPost2010Prop31
280
     0
102
RTVSPost2010PropOp31
 70
     1
102
RTVSPost2010Prop32
280
     0
102
RTVSPost2010PropOp32
 70
     1
102
RTVSPost2010Prop33
280
     0
102
RTVSPost2010PropOp33
 70
     1
102
RTVSPost2010Prop34
280
     0
102
RTVSPost2010PropOp34
 70
     1
102
RTVSPost2010Prop35
280
     0
102
RTVSPost2010PropOp35
 70
     1
102
RTVSPost2010Prop36
280
     0
102
RTVSPost2010PropOp36
 70
     1
102
RTVSPost2010Prop37
 90
       50
102
RTVSPost2010PropOp37
 70
     1
102
RTVSPost2010Prop38
140
0.0
102
RTVSPost2010PropOp38
 70
     1
102
RTVSPost2010Prop39
140
1.0
102
RTVSPost2010PropOp39
 70
     1
102
RTVSPost2010Prop40
 90
        0
102
RTVSPost2010PropOp40
 70
     1
102
RTVSPost2010Prop41ColorIndex
 90
       18
102
RTVSPost2010Prop41ColorRGB
 90
        0
102
RTVSPost2010PropOp41
 70
     1
102
RTVSPost2010Prop42
 90
       50
102
RTVSPost2010PropOp42
 70
     1
102
RTVSPost2010Prop43
 90
        3
102
RTVSPost2010PropOp43
 70
     1
102
RTVSPost2010Prop44ColorIndex
 90
        5
102
RTVSPost2010Prop44ColorRGB
 90
      255
102
RTVSPost2010PropOp44
 70
     1
102
RTVSPost2010Prop45
280
     0
102
RTVSPost2010PropOp45
 70
     1
102
RTVSPost2010Prop46
 90
       50
102
RTVSPost2010PropOp46
 70
     1
102
RTVSPost2010Prop47
 90
       50
102
RTVSPost2010PropOp47
 70
     1
102
RTVSPost2010Prop48
 90
       50
102
RTVSPost2010PropOp48
 70
     1
102
RTVSPost2010Prop49
280
     0
102
RTVSPost2010PropOp49
 70
     1
102
RTVSPost2010Prop50
 90
       50
102
RTVSPost2010PropOp50
 70
     1
102
RTVSPost2010Prop51ColorIndex
 90
      256
102
RTVSPost2010Prop51ColorRGB
 90
-16777216
102
RTVSPost2010PropOp51
 70
     0
102
RTVSPost2010Prop52
140
1.0
102
RTVSPost2010PropOp52
 70
     0
102
RTVSPost2010Prop53
 90
        2
102
RTVSPost2010PropOp53
 70
     1
102
RTVSPost2010Prop54
  1
strokes_ogs.tif
102
RTVSPost2010PropOp54
 70
     1
102
RTVSPost2010Prop55
280
     0
102
RTVSPost2010PropOp55
 70
     1
102
RTVSPost2010Prop56
140
1.0
102
RTVSPost2010PropOp56
 70
     1
102
RTVSPost2010Prop57
140
1.0
102
RTVSPost2010PropOp57
 70
     1
102
RTVSPropertyOp0
 70
     1
102
RTVSPropertyOp1
 70
     1
102
RTVSPropertyOp2
 70
     1
102
RTVSPropertyOp3
 70
     1
102
RTVSPropertyOp4
 70
     1
102
RTVSPropertyOp5
 70
     1
102
RTVSPropertyOp6
 70
     1
102
RTVSPropertyOp7
 70
     1
102
RTVSPropertyOp8
 70
     1
102
RTVSPropertyOp9
 70
     1
102
RTVSPropertyOp10
 70
     1
102
RTVSPropertyOp11
 70
     1
102
RTVSPropertyOp12
 70
     1
102
RTVSPropertyOp13
 70
     1
102
RTVSPropertyOp14
 70
     1
102
RTVSPropertyOp15
 70
     1
102
RTVSPropertyOp16
 70
     1
102
RTVSPropertyOp17
 70
     1
102
RTVSPropertyOp18
 70
     1
102
RTVSPropertyOp19
 70
     1
102
RTVSPropertyOp20
 70
     1
102
RTVSPropertyOp21
 70
     1
102
RTVSPropertyOp22
 70
     1
102
RTVSPropertyOp23
 70
     1
102
RTVSPropertyOp24
 70
     1
102
RTVSPropertyOp25
 70
     1
102
RTVSPropertyOp26
 70
     1
102
RTVSPropertyOp27
 70
     1
102
RTVSPropertyOp28
 70
     1
102
RTVSPropertyOp29
 70
     1
102
RTVSPropertyOp30
 70
     1
102
RTVSPropertyOp31
 70
     1
102
RTVSPropertyOp32
 70
     1
102
RTVSPropertyOp33
 70
     1
102
RTVSPropertyOp34
 70
     1
102
RTVSPropertyOp35
 70
     1
102
RTVSPropertyOp36
 70
     1
102
RTVSPropertyOp37
 70
     1
102
RTVSPropertyOp38
 70
     1
102
RTVSPropertyOp39
 70
     1
102
RTVSPropertyOp40
 70
     1
102
RTVSPropertyOp41
 70
     1
102
RTVSPropertyOp42
 70
     1
102
RTVSPropertyOp43
 70
     1
102
RTVSPropertyOp44
 70
     1
102
RTVSPropertyOp45
 70
     1
102
RTVSPropertyOp46
 70
     1
102
RTVSPropertyOp47
 70
     1
102
RTVSPropertyOp48
 70
     1
102
RTVSPropertyOp49
 70
     1
102
RTVSPropertyOp50
 70
     1
102
RTVSPropertyOp51
 70
     0
102
RTVSPropertyOp52
 70
     0
102
RTVSPropertyOp53
 70
     1
102
RTVSPropertyOp54
 70
     1
102
RTVSPropertyOp55
 70
     1
102
RTVSPropertyOp56
 70
     1
102
RTVSPropertyOp57
 70
     1
102
RTVSPropertyOp58
 70
     1
102
RTVSPropertyOp59
 70
     1
102
RTVSPropertyOp60
 70
     1
102
RTVSPropertyOp61
 70
     1
102
RTVSPropertyOp62
 70
     1
  0
XRECORD
  5
3F2
102
{ACAD_REACTORS
330
3F1
102
}
330
3F1
100
AcDbXrecord
280
     1
102
RTVSPost2010Prop28
280
     0
102
RTVSPost2010PropOp28
 70
     1
102
RTVSPost2010Prop29
280
     1
102
RTVSPost2010PropOp29
 70
     1
102
RTVSPost2010Prop30
280
     1
102
RTVSPost2010PropOp30
 70
     1
102
RTVSPost2010Prop31
280
     0
102
RTVSPost2010PropOp31
 70
     1
102
RTVSPost2010Prop32
280
     0
102
RTVSPost2010PropOp32
 70
     1
102
RTVSPost2010Prop33
280
     0
102
RTVSPost2010PropOp33
 70
     1
102
RTVSPost2010Prop34
280
     0
102
RTVSPost2010PropOp34
 70
     1
102
RTVSPost2010Prop35
280
     0
102
RTVSPost2010PropOp35
 70
     1
102
RTVSPost2010Prop36
280
     0
102
RTVSPost2010PropOp36
 70
     1
102
RTVSPost2010Prop37
 90
       50
102
RTVSPost2010PropOp37
 70
     1
102
RTVSPost2010Prop38
140
0.0
102
RTVSPost2010PropOp38
 70
     1
102
RTVSPost2010Prop39
140
1.0
102
RTVSPost2010PropOp39
 70
     1
102
RTVSPost2010Prop40
 90
        0
102
RTVSPost2010PropOp40
 70
     1
102
RTVSPost2010Prop41ColorIndex
 90
       18
102
RTVSPost2010Prop41ColorRGB
 90
        0
102
RTVSPost2010PropOp41
 70
     1
102
RTVSPost2010Prop42
 90
       50
102
RTVSPost2010PropOp42
 70
     1
102
RTVSPost2010Prop43
 90
        3
102
RTVSPost2010PropOp43
 70
     1
102
RTVSPost2010Prop44ColorIndex
 90
        5
102
RTVSPost2010Prop44ColorRGB
 90
      255
102
RTVSPost2010PropOp44
 70
     1
102
RTVSPost2010Prop45
280
     0
102
RTVSPost2010PropOp45
 70
     1
102
RTVSPost2010Prop46
 90
       50
102
RTVSPost2010PropOp46
 70
     1
102
RTVSPost2010Prop47
 90
       50
102
RTVSPost2010PropOp47
 70
     1
102
RTVSPost2010Prop48
 90
       50
102
RTVSPost2010PropOp48
 70
     1
102
RTVSPost2010Prop49
280
     0
102
RTVSPost2010PropOp49
 70
     1
102
RTVSPost2010Prop50
 90
       50
102
RTVSPost2010PropOp50
 70
     1
102
RTVSPost2010Prop51ColorIndex
 90
      256
102
RTVSPost2010Prop51ColorRGB
 90
-16777216
102
RTVSPost2010PropOp51
 70
     0
102
RTVSPost2010Prop52
140
1.0
102
RTVSPost2010PropOp52
 70
     0
102
RTVSPost2010Prop53
 90
        2
102
RTVSPost2010PropOp53
 70
     1
102
RTVSPost2010Prop54
  1
strokes_ogs.tif
102
RTVSPost2010PropOp54
 70
     1
102
RTVSPost2010Prop55
280
     0
102
RTVSPost2010PropOp55
 70
     1
102
RTVSPost2010Prop56
140
1.0
102
RTVSPost2010PropOp56
 70
     1
102
RTVSPost2010Prop57
140
1.0
102
RTVSPost2010PropOp57
 70
     1
102
RTVSPropertyOp0
 70
     1
102
RTVSPropertyOp1
 70
     1
102
RTVSPropertyOp2
 70
     1
102
RTVSPropertyOp3
 70
     1
102
RTVSPropertyOp4
 70
     1
102
RTVSPropertyOp5
 70
     1
102
RTVSPropertyOp6
 70
     1
102
RTVSPropertyOp7
 70
     1
102
RTVSPropertyOp8
 70
     1
102
RTVSPropertyOp9
 70
     1
102
RTVSPropertyOp10
 70
     1
102
RTVSPropertyOp11
 70
     1
102
RTVSPropertyOp12
 70
     1
102
RTVSPropertyOp13
 70
     1
102
RTVSPropertyOp14
 70
     1
102
RTVSPropertyOp15
 70
     1
102
RTVSPropertyOp16
 70
     1
102
RTVSPropertyOp17
 70
     1
102
RTVSPropertyOp18
 70
     1
102
RTVSPropertyOp19
 70
     1
102
RTVSPropertyOp20
 70
     1
102
RTVSPropertyOp21
 70
     1
102
RTVSPropertyOp22
 70
     1
102
RTVSPropertyOp23
 70
     1
102
RTVSPropertyOp24
 70
     1
102
RTVSPropertyOp25
 70
     1
102
RTVSPropertyOp26
 70
     1
102
RTVSPropertyOp27
 70
     1
102
RTVSPropertyOp28
 70
     1
102
RTVSPropertyOp29
 70
     1
102
RTVSPropertyOp30
 70
     1
102
RTVSPropertyOp31
 70
     1
102
RTVSPropertyOp32
 70
     1
102
RTVSPropertyOp33
 70
     1
102
RTVSPropertyOp34
 70
     1
102
RTVSPropertyOp35
 70
     1
102
RTVSPropertyOp36
 70
     1
102
RTVSPropertyOp37
 70
     1
102
RTVSPropertyOp38
 70
     1
102
RTVSPropertyOp39
 70
     1
102
RTVSPropertyOp40
 70
     1
102
RTVSPropertyOp41
 70
     1
102
RTVSPropertyOp42
 70
     1
102
RTVSPropertyOp43
 70
     1
102
RTVSPropertyOp44
 70
     1
102
RTVSPropertyOp45
 70
     1
102
RTVSPropertyOp46
 70
     1
102
RTVSPropertyOp47
 70
     1
102
RTVSPropertyOp48
 70
     1
102
RTVSPropertyOp49
 70
     1
102
RTVSPropertyOp50
 70
     1
102
RTVSPropertyOp51
 70
     0
102
RTVSPropertyOp52
 70
     0
102
RTVSPropertyOp53
 70
     1
102
RTVSPropertyOp54
 70
     1
102
RTVSPropertyOp55
 70
     1
102
RTVSPropertyOp56
 70
     1
102
RTVSPropertyOp57
 70
     1
102
RTVSPropertyOp58
 70
     1
102
RTVSPropertyOp59
 70
     1
102
RTVSPropertyOp60
 70
     1
102
RTVSPropertyOp61
 70
     1
102
RTVSPropertyOp62
 70
     1
  0
XRECORD
  5
3F4
102
{ACAD_REACTORS
330
3F3
102
}
330
3F3
100
AcDbXrecord
280
     1
102
RTVSPost2010Prop28
280
     0
102
RTVSPost2010PropOp28
 70
     1
102
RTVSPost2010Prop29
280
     1
102
RTVSPost2010PropOp29
 70
     1
102
RTVSPost2010Prop30
280
     1
102
RTVSPost2010PropOp30
 70
     1
102
RTVSPost2010Prop31
280
     0
102
RTVSPost2010PropOp31
 70
     1
102
RTVSPost2010Prop32
280
     0
102
RTVSPost2010PropOp32
 70
     1
102
RTVSPost2010Prop33
280
     0
102
RTVSPost2010PropOp33
 70
     1
102
RTVSPost2010Prop34
280
     0
102
RTVSPost2010PropOp34
 70
     1
102
RTVSPost2010Prop35
280
     0
102
RTVSPost2010PropOp35
 70
     1
102
RTVSPost2010Prop36
280
     0
102
RTVSPost2010PropOp36
 70
     1
102
RTVSPost2010Prop37
 90
       50
102
RTVSPost2010PropOp37
 70
     1
102
RTVSPost2010Prop38
140
0.0
102
RTVSPost2010PropOp38
 70
     1
102
RTVSPost2010Prop39
140
1.0
102
RTVSPost2010PropOp39
 70
     1
102
RTVSPost2010Prop40
 90
        0
102
RTVSPost2010PropOp40
 70
     1
102
RTVSPost2010Prop41ColorIndex
 90
       18
102
RTVSPost2010Prop41ColorRGB
 90
        0
102
RTVSPost2010PropOp41
 70
     1
102
RTVSPost2010Prop42
 90
       50
102
RTVSPost2010PropOp42
 70
     1
102
RTVSPost2010Prop43
 90
        3
102
RTVSPost2010PropOp43
 70
     1
102
RTVSPost2010Prop44ColorIndex
 90
        5
102
RTVSPost2010Prop44ColorRGB
 90
      255
102
RTVSPost2010PropOp44
 70
     1
102
RTVSPost2010Prop45
280
     0
102
RTVSPost2010PropOp45
 70
     1
102
RTVSPost2010Prop46
 90
       50
102
RTVSPost2010PropOp46
 70
     1
102
RTVSPost2010Prop47
 90
       50
102
RTVSPost2010PropOp47
 70
     1
102
RTVSPost2010Prop48
 90
       50
102
RTVSPost2010PropOp48
 70
     1
102
RTVSPost2010Prop49
280
     0
102
RTVSPost2010PropOp49
 70
     1
102
RTVSPost2010Prop50
 90
       50
102
RTVSPost2010PropOp50
 70
     1
102
RTVSPost2010Prop51ColorIndex
 90
      256
102
RTVSPost2010Prop51ColorRGB
 90
-16777216
102
RTVSPost2010PropOp51
 70
     0
102
RTVSPost2010Prop52
140
1.0
102
RTVSPost2010PropOp52
 70
     0
102
RTVSPost2010Prop53
 90
        2
102
RTVSPost2010PropOp53
 70
     1
102
RTVSPost2010Prop54
  1
strokes_ogs.tif
102
RTVSPost2010PropOp54
 70
     1
102
RTVSPost2010Prop55
280
     0
102
RTVSPost2010PropOp55
 70
     1
102
RTVSPost2010Prop56
140
1.0
102
RTVSPost2010PropOp56
 70
     1
102
RTVSPost2010Prop57
140
1.0
102
RTVSPost2010PropOp57
 70
     1
102
RTVSPropertyOp0
 70
     1
102
RTVSPropertyOp1
 70
     1
102
RTVSPropertyOp2
 70
     1
102
RTVSPropertyOp3
 70
     1
102
RTVSPropertyOp4
 70
     1
102
RTVSPropertyOp5
 70
     1
102
RTVSPropertyOp6
 70
     1
102
RTVSPropertyOp7
 70
     1
102
RTVSPropertyOp8
 70
     1
102
RTVSPropertyOp9
 70
     1
102
RTVSPropertyOp10
 70
     1
102
RTVSPropertyOp11
 70
     1
102
RTVSPropertyOp12
 70
     1
102
RTVSPropertyOp13
 70
     1
102
RTVSPropertyOp14
 70
     1
102
RTVSPropertyOp15
 70
     1
102
RTVSPropertyOp16
 70
     1
102
RTVSPropertyOp17
 70
     1
102
RTVSPropertyOp18
 70
     1
102
RTVSPropertyOp19
 70
     1
102
RTVSPropertyOp20
 70
     1
102
RTVSPropertyOp21
 70
     1
102
RTVSPropertyOp22
 70
     1
102
RTVSPropertyOp23
 70
     1
102
RTVSPropertyOp24
 70
     1
102
RTVSPropertyOp25
 70
     1
102
RTVSPropertyOp26
 70
     1
102
RTVSPropertyOp27
 70
     1
102
RTVSPropertyOp28
 70
     1
102
RTVSPropertyOp29
 70
     1
102
RTVSPropertyOp30
 70
     1
102
RTVSPropertyOp31
 70
     1
102
RTVSPropertyOp32
 70
     1
102
RTVSPropertyOp33
 70
     1
102
RTVSPropertyOp34
 70
     1
102
RTVSPropertyOp35
 70
     1
102
RTVSPropertyOp36
 70
     1
102
RTVSPropertyOp37
 70
     1
102
RTVSPropertyOp38
 70
     1
102
RTVSPropertyOp39
 70
     1
102
RTVSPropertyOp40
 70
     1
102
RTVSPropertyOp41
 70
     1
102
RTVSPropertyOp42
 70
     1
102
RTVSPropertyOp43
 70
     1
102
RTVSPropertyOp44
 70
     1
102
RTVSPropertyOp45
 70
     1
102
RTVSPropertyOp46
 70
     1
102
RTVSPropertyOp47
 70
     1
102
RTVSPropertyOp48
 70
     1
102
RTVSPropertyOp49
 70
     1
102
RTVSPropertyOp50
 70
     1
102
RTVSPropertyOp51
 70
     0
102
RTVSPropertyOp52
 70
     0
102
RTVSPropertyOp53
 70
     1
102
RTVSPropertyOp54
 70
     1
102
RTVSPropertyOp55
 70
     1
102
RTVSPropertyOp56
 70
     1
102
RTVSPropertyOp57
 70
     1
102
RTVSPropertyOp58
 70
     1
102
RTVSPropertyOp59
 70
     1
102
RTVSPropertyOp60
 70
     1
102
RTVSPropertyOp61
 70
     1
102
RTVSPropertyOp62
 70
     1
  0
XRECORD
  5
3F6
102
{ACAD_REACTORS
330
3F5
102
}
330
3F5
100
AcDbXrecord
280
     1
102
RTVSPost2010Prop28
280
     0
102
RTVSPost2010PropOp28
 70
     1
102
RTVSPost2010Prop29
280
     1
102
RTVSPost2010PropOp29
 70
     1
102
RTVSPost2010Prop30
280
     1
102
RTVSPost2010PropOp30
 70
     1
102
RTVSPost2010Prop31
280
     0
102
RTVSPost2010PropOp31
 70
     1
102
RTVSPost2010Prop32
280
     0
102
RTVSPost2010PropOp32
 70
     1
102
RTVSPost2010Prop33
280
     0
102
RTVSPost2010PropOp33
 70
     1
102
RTVSPost2010Prop34
280
     0
102
RTVSPost2010PropOp34
 70
     1
102
RTVSPost2010Prop35
280
     0
102
RTVSPost2010PropOp35
 70
     1
102
RTVSPost2010Prop36
280
     0
102
RTVSPost2010PropOp36
 70
     1
102
RTVSPost2010Prop37
 90
       50
102
RTVSPost2010PropOp37
 70
     1
102
RTVSPost2010Prop38
140
0.0
102
RTVSPost2010PropOp38
 70
     1
102
RTVSPost2010Prop39
140
1.0
102
RTVSPost2010PropOp39
 70
     1
102
RTVSPost2010Prop40
 90
        0
102
RTVSPost2010PropOp40
 70
     1
102
RTVSPost2010Prop41ColorIndex
 90
       18
102
RTVSPost2010Prop41ColorRGB
 90
        0
102
RTVSPost2010PropOp41
 70
     1
102
RTVSPost2010Prop42
 90
       50
102
RTVSPost2010PropOp42
 70
     1
102
RTVSPost2010Prop43
 90
        3
102
RTVSPost2010PropOp43
 70
     1
102
RTVSPost2010Prop44ColorIndex
 90
        5
102
RTVSPost2010Prop44ColorRGB
 90
      255
102
RTVSPost2010PropOp44
 70
     1
102
RTVSPost2010Prop45
280
     0
102
RTVSPost2010PropOp45
 70
     1
102
RTVSPost2010Prop46
 90
       50
102
RTVSPost2010PropOp46
 70
     1
102
RTVSPost2010Prop47
 90
       50
102
RTVSPost2010PropOp47
 70
     1
102
RTVSPost2010Prop48
 90
       50
102
RTVSPost2010PropOp48
 70
     1
102
RTVSPost2010Prop49
280
     0
102
RTVSPost2010PropOp49
 70
     1
102
RTVSPost2010Prop50
 90
       50
102
RTVSPost2010PropOp50
 70
     1
102
RTVSPost2010Prop51ColorIndex
 90
      256
102
RTVSPost2010Prop51ColorRGB
 90
-16777216
102
RTVSPost2010PropOp51
 70
     0
102
RTVSPost2010Prop52
140
1.0
102
RTVSPost2010PropOp52
 70
     0
102
RTVSPost2010Prop53
 90
        2
102
RTVSPost2010PropOp53
 70
     1
102
RTVSPost2010Prop54
  1
strokes_ogs.tif
102
RTVSPost2010PropOp54
 70
     1
102
RTVSPost2010Prop55
280
     0
102
RTVSPost2010PropOp55
 70
     1
102
RTVSPost2010Prop56
140
1.0
102
RTVSPost2010PropOp56
 70
     1
102
RTVSPost2010Prop57
140
1.0
102
RTVSPost2010PropOp57
 70
     1
102
RTVSPropertyOp0
 70
     1
102
RTVSPropertyOp1
 70
     1
102
RTVSPropertyOp2
 70
     1
102
RTVSPropertyOp3
 70
     1
102
RTVSPropertyOp4
 70
     1
102
RTVSPropertyOp5
 70
     1
102
RTVSPropertyOp6
 70
     1
102
RTVSPropertyOp7
 70
     1
102
RTVSPropertyOp8
 70
     1
102
RTVSPropertyOp9
 70
     1
102
RTVSPropertyOp10
 70
     1
102
RTVSPropertyOp11
 70
     1
102
RTVSPropertyOp12
 70
     1
102
RTVSPropertyOp13
 70
     1
102
RTVSPropertyOp14
 70
     1
102
RTVSPropertyOp15
 70
     1
102
RTVSPropertyOp16
 70
     1
102
RTVSPropertyOp17
 70
     1
102
RTVSPropertyOp18
 70
     1
102
RTVSPropertyOp19
 70
     1
102
RTVSPropertyOp20
 70
     1
102
RTVSPropertyOp21
 70
     1
102
RTVSPropertyOp22
 70
     1
102
RTVSPropertyOp23
 70
     1
102
RTVSPropertyOp24
 70
     1
102
RTVSPropertyOp25
 70
     1
102
RTVSPropertyOp26
 70
     1
102
RTVSPropertyOp27
 70
     1
102
RTVSPropertyOp28
 70
     1
102
RTVSPropertyOp29
 70
     1
102
RTVSPropertyOp30
 70
     1
102
RTVSPropertyOp31
 70
     1
102
RTVSPropertyOp32
 70
     1
102
RTVSPropertyOp33
 70
     1
102
RTVSPropertyOp34
 70
     1
102
RTVSPropertyOp35
 70
     1
102
RTVSPropertyOp36
 70
     1
102
RTVSPropertyOp37
 70
     1
102
RTVSPropertyOp38
 70
     1
102
RTVSPropertyOp39
 70
     1
102
RTVSPropertyOp40
 70
     1
102
RTVSPropertyOp41
 70
     1
102
RTVSPropertyOp42
 70
     1
102
RTVSPropertyOp43
 70
     1
102
RTVSPropertyOp44
 70
     1
102
RTVSPropertyOp45
 70
     1
102
RTVSPropertyOp46
 70
     1
102
RTVSPropertyOp47
 70
     1
102
RTVSPropertyOp48
 70
     1
102
RTVSPropertyOp49
 70
     1
102
RTVSPropertyOp50
 70
     1
102
RTVSPropertyOp51
 70
     0
102
RTVSPropertyOp52
 70
     0
102
RTVSPropertyOp53
 70
     1
102
RTVSPropertyOp54
 70
     1
102
RTVSPropertyOp55
 70
     1
102
RTVSPropertyOp56
 70
     1
102
RTVSPropertyOp57
 70
     1
102
RTVSPropertyOp58
 70
     1
102
RTVSPropertyOp59
 70
     1
102
RTVSPropertyOp60
 70
     1
102
RTVSPropertyOp61
 70
     1
102
RTVSPropertyOp62
 70
     1
  0
XRECORD
  5
3F8
102
{ACAD_REACTORS
330
3F7
102
}
330
3F7
100
AcDbXrecord
280
     1
102
RTVSPost2010Prop28
280
     0
102
RTVSPost2010PropOp28
 70
     1
102
RTVSPost2010Prop29
280
     1
102
RTVSPost2010PropOp29
 70
     1
102
RTVSPost2010Prop30
280
     1
102
RTVSPost2010PropOp30
 70
     1
102
RTVSPost2010Prop31
280
     0
102
RTVSPost2010PropOp31
 70
     1
102
RTVSPost2010Prop32
280
     0
102
RTVSPost2010PropOp32
 70
     1
102
RTVSPost2010Prop33
280
     0
102
RTVSPost2010PropOp33
 70
     1
102
RTVSPost2010Prop34
280
     0
102
RTVSPost2010PropOp34
 70
     1
102
RTVSPost2010Prop35
280
     0
102
RTVSPost2010PropOp35
 70
     1
102
RTVSPost2010Prop36
280
     0
102
RTVSPost2010PropOp36
 70
     1
102
RTVSPost2010Prop37
 90
       50
102
RTVSPost2010PropOp37
 70
     1
102
RTVSPost2010Prop38
140
0.0
102
RTVSPost2010PropOp38
 70
     1
102
RTVSPost2010Prop39
140
1.0
102
RTVSPost2010PropOp39
 70
     1
102
RTVSPost2010Prop40
 90
        0
102
RTVSPost2010PropOp40
 70
     1
102
RTVSPost2010Prop41ColorIndex
 90
       18
102
RTVSPost2010Prop41ColorRGB
 90
        0
102
RTVSPost2010PropOp41
 70
     1
102
RTVSPost2010Prop42
 90
       50
102
RTVSPost2010PropOp42
 70
     1
102
RTVSPost2010Prop43
 90
        3
102
RTVSPost2010PropOp43
 70
     1
102
RTVSPost2010Prop44ColorIndex
 90
        5
102
RTVSPost2010Prop44ColorRGB
 90
      255
102
RTVSPost2010PropOp44
 70
     1
102
RTVSPost2010Prop45
280
     0
102
RTVSPost2010PropOp45
 70
     1
102
RTVSPost2010Prop46
 90
       50
102
RTVSPost2010PropOp46
 70
     1
102
RTVSPost2010Prop47
 90
       50
102
RTVSPost2010PropOp47
 70
     1
102
RTVSPost2010Prop48
 90
       50
102
RTVSPost2010PropOp48
 70
     1
102
RTVSPost2010Prop49
280
     0
102
RTVSPost2010PropOp49
 70
     1
102
RTVSPost2010Prop50
 90
       50
102
RTVSPost2010PropOp50
 70
     1
102
RTVSPost2010Prop51ColorIndex
 90
      256
102
RTVSPost2010Prop51ColorRGB
 90
-16777216
102
RTVSPost2010PropOp51
 70
     0
102
RTVSPost2010Prop52
140
1.0
102
RTVSPost2010PropOp52
 70
     0
102
RTVSPost2010Prop53
 90
        2
102
RTVSPost2010PropOp53
 70
     1
102
RTVSPost2010Prop54
  1
strokes_ogs.tif
102
RTVSPost2010PropOp54
 70
     1
102
RTVSPost2010Prop55
280
     0
102
RTVSPost2010PropOp55
 70
     1
102
RTVSPost2010Prop56
140
1.0
102
RTVSPost2010PropOp56
 70
     1
102
RTVSPost2010Prop57
140
1.0
102
RTVSPost2010PropOp57
 70
     1
102
RTVSPropertyOp0
 70
     1
102
RTVSPropertyOp1
 70
     1
102
RTVSPropertyOp2
 70
     1
102
RTVSPropertyOp3
 70
     1
102
RTVSPropertyOp4
 70
     1
102
RTVSPropertyOp5
 70
     1
102
RTVSPropertyOp6
 70
     1
102
RTVSPropertyOp7
 70
     1
102
RTVSPropertyOp8
 70
     1
102
RTVSPropertyOp9
 70
     1
102
RTVSPropertyOp10
 70
     1
102
RTVSPropertyOp11
 70
     1
102
RTVSPropertyOp12
 70
     1
102
RTVSPropertyOp13
 70
     1
102
RTVSPropertyOp14
 70
     1
102
RTVSPropertyOp15
 70
     1
102
RTVSPropertyOp16
 70
     1
102
RTVSPropertyOp17
 70
     1
102
RTVSPropertyOp18
 70
     1
102
RTVSPropertyOp19
 70
     1
102
RTVSPropertyOp20
 70
     1
102
RTVSPropertyOp21
 70
     1
102
RTVSPropertyOp22
 70
     1
102
RTVSPropertyOp23
 70
     1
102
RTVSPropertyOp24
 70
     1
102
RTVSPropertyOp25
 70
     1
102
RTVSPropertyOp26
 70
     1
102
RTVSPropertyOp27
 70
     1
102
RTVSPropertyOp28
 70
     1
102
RTVSPropertyOp29
 70
     1
102
RTVSPropertyOp30
 70
     1
102
RTVSPropertyOp31
 70
     1
102
RTVSPropertyOp32
 70
     1
102
RTVSPropertyOp33
 70
     1
102
RTVSPropertyOp34
 70
     1
102
RTVSPropertyOp35
 70
     1
102
RTVSPropertyOp36
 70
     1
102
RTVSPropertyOp37
 70
     1
102
RTVSPropertyOp38
 70
     1
102
RTVSPropertyOp39
 70
     1
102
RTVSPropertyOp40
 70
     1
102
RTVSPropertyOp41
 70
     1
102
RTVSPropertyOp42
 70
     1
102
RTVSPropertyOp43
 70
     1
102
RTVSPropertyOp44
 70
     1
102
RTVSPropertyOp45
 70
     1
102
RTVSPropertyOp46
 70
     1
102
RTVSPropertyOp47
 70
     1
102
RTVSPropertyOp48
 70
     1
102
RTVSPropertyOp49
 70
     1
102
RTVSPropertyOp50
 70
     1
102
RTVSPropertyOp51
 70
     0
102
RTVSPropertyOp52
 70
     0
102
RTVSPropertyOp53
 70
     1
102
RTVSPropertyOp54
 70
     1
102
RTVSPropertyOp55
 70
     1
102
RTVSPropertyOp56
 70
     1
102
RTVSPropertyOp57
 70
     1
102
RTVSPropertyOp58
 70
     1
102
RTVSPropertyOp59
 70
     1
102
RTVSPropertyOp60
 70
     1
102
RTVSPropertyOp61
 70
     1
102
RTVSPropertyOp62
 70
     1
  0
XRECORD
  5
400
102
{ACAD_REACTORS
330
3FF
102
}
330
3FF
100
AcDbXrecord
280
     1
102
RTVSPost2010Prop28
280
     0
102
RTVSPost2010PropOp28
 70
     1
102
RTVSPost2010Prop29
280
     1
102
RTVSPost2010PropOp29
 70
     1
102
RTVSPost2010Prop30
280
     1
102
RTVSPost2010PropOp30
 70
     1
102
RTVSPost2010Prop31
280
     0
102
RTVSPost2010PropOp31
 70
     1
102
RTVSPost2010Prop32
280
     0
102
RTVSPost2010PropOp32
 70
     1
102
RTVSPost2010Prop33
280
     0
102
RTVSPost2010PropOp33
 70
     1
102
RTVSPost2010Prop34
280
     0
102
RTVSPost2010PropOp34
 70
     1
102
RTVSPost2010Prop35
280
     0
102
RTVSPost2010PropOp35
 70
     1
102
RTVSPost2010Prop36
280
     0
102
RTVSPost2010PropOp36
 70
     1
102
RTVSPost2010Prop37
 90
       50
102
RTVSPost2010PropOp37
 70
     1
102
RTVSPost2010Prop38
140
0.0
102
RTVSPost2010PropOp38
 70
     1
102
RTVSPost2010Prop39
140
1.0
102
RTVSPost2010PropOp39
 70
     1
102
RTVSPost2010Prop40
 90
        0
102
RTVSPost2010PropOp40
 70
     1
102
RTVSPost2010Prop41ColorIndex
 90
       18
102
RTVSPost2010Prop41ColorRGB
 90
        0
102
RTVSPost2010PropOp41
 70
     1
102
RTVSPost2010Prop42
 90
       50
102
RTVSPost2010PropOp42
 70
     1
102
RTVSPost2010Prop43
 90
        3
102
RTVSPost2010PropOp43
 70
     1
102
RTVSPost2010Prop44ColorIndex
 90
        5
102
RTVSPost2010Prop44ColorRGB
 90
      255
102
RTVSPost2010PropOp44
 70
     1
102
RTVSPost2010Prop45
280
     0
102
RTVSPost2010PropOp45
 70
     1
102
RTVSPost2010Prop46
 90
       50
102
RTVSPost2010PropOp46
 70
     1
102
RTVSPost2010Prop47
 90
       50
102
RTVSPost2010PropOp47
 70
     1
102
RTVSPost2010Prop48
 90
       50
102
RTVSPost2010PropOp48
 70
     1
102
RTVSPost2010Prop49
280
     0
102
RTVSPost2010PropOp49
 70
     1
102
RTVSPost2010Prop50
 90
       50
102
RTVSPost2010PropOp50
 70
     1
102
RTVSPost2010Prop51ColorIndex
 90
      256
102
RTVSPost2010Prop51ColorRGB
 90
-16777216
102
RTVSPost2010PropOp51
 70
     0
102
RTVSPost2010Prop52
140
1.0
102
RTVSPost2010PropOp52
 70
     0
102
RTVSPost2010Prop53
 90
        2
102
RTVSPost2010PropOp53
 70
     1
102
RTVSPost2010Prop54
  1
strokes_ogs.tif
102
RTVSPost2010PropOp54
 70
     1
102
RTVSPost2010Prop55
280
     0
102
RTVSPost2010PropOp55
 70
     1
102
RTVSPost2010Prop56
140
1.0
102
RTVSPost2010PropOp56
 70
     1
102
RTVSPost2010Prop57
140
1.0
102
RTVSPost2010PropOp57
 70
     1
102
RTVSPropertyOp0
 70
     1
102
RTVSPropertyOp1
 70
     1
102
RTVSPropertyOp2
 70
     1
102
RTVSPropertyOp3
 70
     1
102
RTVSPropertyOp4
 70
     1
102
RTVSPropertyOp5
 70
     1
102
RTVSPropertyOp6
 70
     1
102
RTVSPropertyOp7
 70
     1
102
RTVSPropertyOp8
 70
     1
102
RTVSPropertyOp9
 70
     1
102
RTVSPropertyOp10
 70
     1
102
RTVSPropertyOp11
 70
     1
102
RTVSPropertyOp12
 70
     1
102
RTVSPropertyOp13
 70
     1
102
RTVSPropertyOp14
 70
     1
102
RTVSPropertyOp15
 70
     1
102
RTVSPropertyOp16
 70
     1
102
RTVSPropertyOp17
 70
     1
102
RTVSPropertyOp18
 70
     1
102
RTVSPropertyOp19
 70
     1
102
RTVSPropertyOp20
 70
     1
102
RTVSPropertyOp21
 70
     1
102
RTVSPropertyOp22
 70
     1
102
RTVSPropertyOp23
 70
     1
102
RTVSPropertyOp24
 70
     1
102
RTVSPropertyOp25
 70
     1
102
RTVSPropertyOp26
 70
     1
102
RTVSPropertyOp27
 70
     1
102
RTVSPropertyOp28
 70
     1
102
RTVSPropertyOp29
 70
     1
102
RTVSPropertyOp30
 70
     1
102
RTVSPropertyOp31
 70
     1
102
RTVSPropertyOp32
 70
     1
102
RTVSPropertyOp33
 70
     1
102
RTVSPropertyOp34
 70
     1
102
RTVSPropertyOp35
 70
     1
102
RTVSPropertyOp36
 70
     1
102
RTVSPropertyOp37
 70
     1
102
RTVSPropertyOp38
 70
     1
102
RTVSPropertyOp39
 70
     1
102
RTVSPropertyOp40
 70
     1
102
RTVSPropertyOp41
 70
     1
102
RTVSPropertyOp42
 70
     1
102
RTVSPropertyOp43
 70
     1
102
RTVSPropertyOp44
 70
     1
102
RTVSPropertyOp45
 70
     1
102
RTVSPropertyOp46
 70
     1
102
RTVSPropertyOp47
 70
     1
102
RTVSPropertyOp48
 70
     1
102
RTVSPropertyOp49
 70
     1
102
RTVSPropertyOp50
 70
     1
102
RTVSPropertyOp51
 70
     0
102
RTVSPropertyOp52
 70
     0
102
RTVSPropertyOp53
 70
     1
102
RTVSPropertyOp54
 70
     1
102
RTVSPropertyOp55
 70
     1
102
RTVSPropertyOp56
 70
     1
102
RTVSPropertyOp57
 70
     1
102
RTVSPropertyOp58
 70
     1
102
RTVSPropertyOp59
 70
     1
102
RTVSPropertyOp60
 70
     1
102
RTVSPropertyOp61
 70
     1
102
RTVSPropertyOp62
 70
     1
  0
XRECORD
  5
41C
102
{ACAD_REACTORS
330
41B
102
}
330
41B
100
AcDbXrecord
280
     1
102
RTVSPost2010Prop28
280
     0
102
RTVSPost2010PropOp28
 70
     0
102
RTVSPost2010Prop29
280
     1
102
RTVSPost2010PropOp29
 70
     0
102
RTVSPost2010Prop30
280
     1
102
RTVSPost2010PropOp30
 70
     0
102
RTVSPost2010Prop31
280
     0
102
RTVSPost2010PropOp31
 70
     0
102
RTVSPost2010Prop32
280
     0
102
RTVSPost2010PropOp32
 70
     0
102
RTVSPost2010Prop33
280
     0
102
RTVSPost2010PropOp33
 70
     0
102
RTVSPost2010Prop34
280
     0
102
RTVSPost2010PropOp34
 70
     0
102
RTVSPost2010Prop35
280
     0
102
RTVSPost2010PropOp35
 70
     0
102
RTVSPost2010Prop36
280
     0
102
RTVSPost2010PropOp36
 70
     0
102
RTVSPost2010Prop37
 90
       50
102
RTVSPost2010PropOp37
 70
     0
102
RTVSPost2010Prop38
140
0.0
102
RTVSPost2010PropOp38
 70
     0
102
RTVSPost2010Prop39
140
1.0
102
RTVSPost2010PropOp39
 70
     0
102
RTVSPost2010Prop40
 90
        0
102
RTVSPost2010PropOp40
 70
     0
102
RTVSPost2010Prop41ColorIndex
 90
       18
102
RTVSPost2010Prop41ColorRGB
 90
        0
102
RTVSPost2010PropOp41
 70
     0
102
RTVSPost2010Prop42
 90
       50
102
RTVSPost2010PropOp42
 70
     0
102
RTVSPost2010Prop43
 90
        3
102
RTVSPost2010PropOp43
 70
     0
102
RTVSPost2010Prop44ColorIndex
 90
        5
102
RTVSPost2010Prop44ColorRGB
 90
      255
102
RTVSPost2010PropOp44
 70
     0
102
RTVSPost2010Prop45
280
     0
102
RTVSPost2010PropOp45
 70
     0
102
RTVSPost2010Prop46
 90
       50
102
RTVSPost2010PropOp46
 70
     0
102
RTVSPost2010Prop47
 90
       50
102
RTVSPost2010PropOp47
 70
     0
102
RTVSPost2010Prop48
 90
       50
102
RTVSPost2010PropOp48
 70
     0
102
RTVSPost2010Prop49
280
     0
102
RTVSPost2010PropOp49
 70
     0
102
RTVSPost2010Prop50
 90
       50
102
RTVSPost2010PropOp50
 70
     0
102
RTVSPost2010Prop51ColorIndex
 90
      256
102
RTVSPost2010Prop51ColorRGB
 90
-16777216
102
RTVSPost2010PropOp51
 70
     0
102
RTVSPost2010Prop52
140
1.0
102
RTVSPost2010PropOp52
 70
     0
102
RTVSPost2010Prop53
 90
        2
102
RTVSPost2010PropOp53
 70
     0
102
RTVSPost2010Prop54
  1
strokes_ogs.tif
102
RTVSPost2010PropOp54
 70
     0
102
RTVSPost2010Prop55
280
     0
102
RTVSPost2010PropOp55
 70
     0
102
RTVSPost2010Prop56
140
1.0
102
RTVSPost2010PropOp56
 70
     0
102
RTVSPost2010Prop57
140
1.0
102
RTVSPost2010PropOp57
 70
     0
102
RTVSPropertyOp0
 70
     0
102
RTVSPropertyOp1
 70
     0
102
RTVSPropertyOp2
 70
     0
102
RTVSPropertyOp3
 70
     0
102
RTVSPropertyOp4
 70
     0
102
RTVSPropertyOp5
 70
     0
102
RTVSPropertyOp6
 70
     0
102
RTVSPropertyOp7
 70
     0
102
RTVSPropertyOp8
 70
     0
102
RTVSPropertyOp9
 70
     0
102
RTVSPropertyOp10
 70
     0
102
RTVSPropertyOp11
 70
     0
102
RTVSPropertyOp12
 70
     0
102
RTVSPropertyOp13
 70
     0
102
RTVSPropertyOp14
 70
     2
102
RTVSPropertyOp15
 70
     0
102
RTVSPropertyOp16
 70
     0
102
RTVSPropertyOp17
 70
     0
102
RTVSPropertyOp18
 70
     0
102
RTVSPropertyOp19
 70
     0
102
RTVSPropertyOp20
 70
     0
102
RTVSPropertyOp21
 70
     0
102
RTVSPropertyOp22
 70
     0
102
RTVSPropertyOp23
 70
     0
102
RTVSPropertyOp24
 70
     0
102
RTVSPropertyOp25
 70
     0
102
RTVSPropertyOp26
 70
     0
102
RTVSPropertyOp27
 70
     0
102
RTVSPropertyOp28
 70
     0
102
RTVSPropertyOp29
 70
     0
102
RTVSPropertyOp30
 70
     0
102
RTVSPropertyOp31
 70
     0
102
RTVSPropertyOp32
 70
     0
102
RTVSPropertyOp33
 70
     0
102
RTVSPropertyOp34
 70
     0
102
RTVSPropertyOp35
 70
     0
102
RTVSPropertyOp36
 70
     0
102
RTVSPropertyOp37
 70
     0
102
RTVSPropertyOp38
 70
     0
102
RTVSPropertyOp39
 70
     0
102
RTVSPropertyOp40
 70
     0
102
RTVSPropertyOp41
 70
     0
102
RTVSPropertyOp42
 70
     0
102
RTVSPropertyOp43
 70
     0
102
RTVSPropertyOp44
 70
     0
102
RTVSPropertyOp45
 70
     0
102
RTVSPropertyOp46
 70
     0
102
RTVSPropertyOp47
 70
     0
102
RTVSPropertyOp48
 70
     0
102
RTVSPropertyOp49
 70
     0
102
RTVSPropertyOp50
 70
     0
102
RTVSPropertyOp51
 70
     0
102
RTVSPropertyOp52
 70
     0
102
RTVSPropertyOp53
 70
     0
102
RTVSPropertyOp54
 70
     0
102
RTVSPropertyOp55
 70
     0
102
RTVSPropertyOp56
 70
     0
102
RTVSPropertyOp57
 70
     0
102
RTVSPropertyOp58
 70
     0
102
RTVSPropertyOp59
 70
     0
102
RTVSPropertyOp60
 70
     0
102
RTVSPropertyOp61
 70
     0
102
RTVSPropertyOp62
 70
     0
  0
XRECORD
  5
40C
102
{ACAD_REACTORS
330
40B
102
}
330
40B
100
AcDbXrecord
280
     1
102
RTVSPost2010Prop28
280
     0
102
RTVSPost2010PropOp28
 70
     1
102
RTVSPost2010Prop29
280
     1
102
RTVSPost2010PropOp29
 70
     1
102
RTVSPost2010Prop30
280
     1
102
RTVSPost2010PropOp30
 70
     1
102
RTVSPost2010Prop31
280
     0
102
RTVSPost2010PropOp31
 70
     1
102
RTVSPost2010Prop32
280
     0
102
RTVSPost2010PropOp32
 70
     1
102
RTVSPost2010Prop33
280
     0
102
RTVSPost2010PropOp33
 70
     1
102
RTVSPost2010Prop34
280
     0
102
RTVSPost2010PropOp34
 70
     1
102
RTVSPost2010Prop35
280
     0
102
RTVSPost2010PropOp35
 70
     1
102
RTVSPost2010Prop36
280
     0
102
RTVSPost2010PropOp36
 70
     1
102
RTVSPost2010Prop37
 90
       50
102
RTVSPost2010PropOp37
 70
     1
102
RTVSPost2010Prop38
140
0.0
102
RTVSPost2010PropOp38
 70
     1
102
RTVSPost2010Prop39
140
1.0
102
RTVSPost2010PropOp39
 70
     1
102
RTVSPost2010Prop40
 90
        0
102
RTVSPost2010PropOp40
 70
     1
102
RTVSPost2010Prop41ColorIndex
 90
       18
102
RTVSPost2010Prop41ColorRGB
 90
        0
102
RTVSPost2010PropOp41
 70
     1
102
RTVSPost2010Prop42
 90
       50
102
RTVSPost2010PropOp42
 70
     1
102
RTVSPost2010Prop43
 90
        3
102
RTVSPost2010PropOp43
 70
     1
102
RTVSPost2010Prop44ColorIndex
 90
        5
102
RTVSPost2010Prop44ColorRGB
 90
      255
102
RTVSPost2010PropOp44
 70
     1
102
RTVSPost2010Prop45
280
     0
102
RTVSPost2010PropOp45
 70
     1
102
RTVSPost2010Prop46
 90
       50
102
RTVSPost2010PropOp46
 70
     1
102
RTVSPost2010Prop47
 90
       50
102
RTVSPost2010PropOp47
 70
     1
102
RTVSPost2010Prop48
 90
       50
102
RTVSPost2010PropOp48
 70
     1
102
RTVSPost2010Prop49
280
     0
102
RTVSPost2010PropOp49
 70
     1
102
RTVSPost2010Prop50
 90
       50
102
RTVSPost2010PropOp50
 70
     1
102
RTVSPost2010Prop51ColorIndex
 90
      256
102
RTVSPost2010Prop51ColorRGB
 90
-16777216
102
RTVSPost2010PropOp51
 70
     0
102
RTVSPost2010Prop52
140
1.0
102
RTVSPost2010PropOp52
 70
     0
102
RTVSPost2010Prop53
 90
        2
102
RTVSPost2010PropOp53
 70
     1
102
RTVSPost2010Prop54
  1
strokes_ogs.tif
102
RTVSPost2010PropOp54
 70
     1
102
RTVSPost2010Prop55
280
     0
102
RTVSPost2010PropOp55
 70
     1
102
RTVSPost2010Prop56
140
1.0
102
RTVSPost2010PropOp56
 70
     1
102
RTVSPost2010Prop57
140
1.0
102
RTVSPost2010PropOp57
 70
     1
102
RTVSPropertyOp0
 70
     1
102
RTVSPropertyOp1
 70
     1
102
RTVSPropertyOp2
 70
     1
102
RTVSPropertyOp3
 70
     1
102
RTVSPropertyOp4
 70
     1
102
RTVSPropertyOp5
 70
     1
102
RTVSPropertyOp6
 70
     1
102
RTVSPropertyOp7
 70
     1
102
RTVSPropertyOp8
 70
     1
102
RTVSPropertyOp9
 70
     1
102
RTVSPropertyOp10
 70
     1
102
RTVSPropertyOp11
 70
     1
102
RTVSPropertyOp12
 70
     1
102
RTVSPropertyOp13
 70
     1
102
RTVSPropertyOp14
 70
     1
102
RTVSPropertyOp15
 70
     1
102
RTVSPropertyOp16
 70
     1
102
RTVSPropertyOp17
 70
     1
102
RTVSPropertyOp18
 70
     1
102
RTVSPropertyOp19
 70
     1
102
RTVSPropertyOp20
 70
     1
102
RTVSPropertyOp21
 70
     1
102
RTVSPropertyOp22
 70
     1
102
RTVSPropertyOp23
 70
     1
102
RTVSPropertyOp24
 70
     1
102
RTVSPropertyOp25
 70
     1
102
RTVSPropertyOp26
 70
     1
102
RTVSPropertyOp27
 70
     1
102
RTVSPropertyOp28
 70
     1
102
RTVSPropertyOp29
 70
     1
102
RTVSPropertyOp30
 70
     1
102
RTVSPropertyOp31
 70
     1
102
RTVSPropertyOp32
 70
     1
102
RTVSPropertyOp33
 70
     1
102
RTVSPropertyOp34
 70
     1
102
RTVSPropertyOp35
 70
     1
102
RTVSPropertyOp36
 70
     1
102
RTVSPropertyOp37
 70
     1
102
RTVSPropertyOp38
 70
     1
102
RTVSPropertyOp39
 70
     1
102
RTVSPropertyOp40
 70
     1
102
RTVSPropertyOp41
 70
     1
102
RTVSPropertyOp42
 70
     1
102
RTVSPropertyOp43
 70
     1
102
RTVSPropertyOp44
 70
     1
102
RTVSPropertyOp45
 70
     1
102
RTVSPropertyOp46
 70
     1
102
RTVSPropertyOp47
 70
     1
102
RTVSPropertyOp48
 70
     1
102
RTVSPropertyOp49
 70
     1
102
RTVSPropertyOp50
 70
     1
102
RTVSPropertyOp51
 70
     0
102
RTVSPropertyOp52
 70
     0
102
RTVSPropertyOp53
 70
     1
102
RTVSPropertyOp54
 70
     1
102
RTVSPropertyOp55
 70
     1
102
RTVSPropertyOp56
 70
     1
102
RTVSPropertyOp57
 70
     1
102
RTVSPropertyOp58
 70
     1
102
RTVSPropertyOp59
 70
     1
102
RTVSPropertyOp60
 70
     1
102
RTVSPropertyOp61
 70
     1
102
RTVSPropertyOp62
 70
     1
  0
XRECORD
  5
41E
102
{ACAD_REACTORS
330
41D
102
}
330
41D
100
AcDbXrecord
280
     1
102
RTVSPost2010Prop28
280
     0
102
RTVSPost2010PropOp28
 70
     0
102
RTVSPost2010Prop29
280
     1
102
RTVSPost2010PropOp29
 70
     0
102
RTVSPost2010Prop30
280
     1
102
RTVSPost2010PropOp30
 70
     0
102
RTVSPost2010Prop31
280
     0
102
RTVSPost2010PropOp31
 70
     0
102
RTVSPost2010Prop32
280
     0
102
RTVSPost2010PropOp32
 70
     0
102
RTVSPost2010Prop33
280
     0
102
RTVSPost2010PropOp33
 70
     0
102
RTVSPost2010Prop34
280
     0
102
RTVSPost2010PropOp34
 70
     0
102
RTVSPost2010Prop35
280
     0
102
RTVSPost2010PropOp35
 70
     0
102
RTVSPost2010Prop36
280
     0
102
RTVSPost2010PropOp36
 70
     0
102
RTVSPost2010Prop37
 90
       50
102
RTVSPost2010PropOp37
 70
     0
102
RTVSPost2010Prop38
140
0.0
102
RTVSPost2010PropOp38
 70
     0
102
RTVSPost2010Prop39
140
1.0
102
RTVSPost2010PropOp39
 70
     0
102
RTVSPost2010Prop40
 90
        0
102
RTVSPost2010PropOp40
 70
     0
102
RTVSPost2010Prop41ColorIndex
 90
       18
102
RTVSPost2010Prop41ColorRGB
 90
        0
102
RTVSPost2010PropOp41
 70
     0
102
RTVSPost2010Prop42
 90
       50
102
RTVSPost2010PropOp42
 70
     0
102
RTVSPost2010Prop43
 90
        3
102
RTVSPost2010PropOp43
 70
     0
102
RTVSPost2010Prop44ColorIndex
 90
        5
102
RTVSPost2010Prop44ColorRGB
 90
      255
102
RTVSPost2010PropOp44
 70
     0
102
RTVSPost2010Prop45
280
     0
102
RTVSPost2010PropOp45
 70
     0
102
RTVSPost2010Prop46
 90
       50
102
RTVSPost2010PropOp46
 70
     0
102
RTVSPost2010Prop47
 90
       50
102
RTVSPost2010PropOp47
 70
     0
102
RTVSPost2010Prop48
 90
       50
102
RTVSPost2010PropOp48
 70
     0
102
RTVSPost2010Prop49
280
     0
102
RTVSPost2010PropOp49
 70
     0
102
RTVSPost2010Prop50
 90
       50
102
RTVSPost2010PropOp50
 70
     0
102
RTVSPost2010Prop51ColorIndex
 90
      256
102
RTVSPost2010Prop51ColorRGB
 90
-16777216
102
RTVSPost2010PropOp51
 70
     0
102
RTVSPost2010Prop52
140
1.0
102
RTVSPost2010PropOp52
 70
     0
102
RTVSPost2010Prop53
 90
        2
102
RTVSPost2010PropOp53
 70
     0
102
RTVSPost2010Prop54
  1
strokes_ogs.tif
102
RTVSPost2010PropOp54
 70
     0
102
RTVSPost2010Prop55
280
     0
102
RTVSPost2010PropOp55
 70
     0
102
RTVSPost2010Prop56
140
1.0
102
RTVSPost2010PropOp56
 70
     0
102
RTVSPost2010Prop57
140
1.0
102
RTVSPost2010PropOp57
 70
     0
102
RTVSPropertyOp0
 70
     0
102
RTVSPropertyOp1
 70
     0
102
RTVSPropertyOp2
 70
     0
102
RTVSPropertyOp3
 70
     0
102
RTVSPropertyOp4
 70
     0
102
RTVSPropertyOp5
 70
     0
102
RTVSPropertyOp6
 70
     0
102
RTVSPropertyOp7
 70
     0
102
RTVSPropertyOp8
 70
     0
102
RTVSPropertyOp9
 70
     0
102
RTVSPropertyOp10
 70
     0
102
RTVSPropertyOp11
 70
     0
102
RTVSPropertyOp12
 70
     0
102
RTVSPropertyOp13
 70
     0
102
RTVSPropertyOp14
 70
     2
102
RTVSPropertyOp15
 70
     0
102
RTVSPropertyOp16
 70
     0
102
RTVSPropertyOp17
 70
     0
102
RTVSPropertyOp18
 70
     0
102
RTVSPropertyOp19
 70
     0
102
RTVSPropertyOp20
 70
     0
102
RTVSPropertyOp21
 70
     0
102
RTVSPropertyOp22
 70
     0
102
RTVSPropertyOp23
 70
     0
102
RTVSPropertyOp24
 70
     0
102
RTVSPropertyOp25
 70
     0
102
RTVSPropertyOp26
 70
     0
102
RTVSPropertyOp27
 70
     0
102
RTVSPropertyOp28
 70
     0
102
RTVSPropertyOp29
 70
     0
102
RTVSPropertyOp30
 70
     0
102
RTVSPropertyOp31
 70
     0
102
RTVSPropertyOp32
 70
     0
102
RTVSPropertyOp33
 70
     0
102
RTVSPropertyOp34
 70
     0
102
RTVSPropertyOp35
 70
     0
102
RTVSPropertyOp36
 70
     0
102
RTVSPropertyOp37
 70
     0
102
RTVSPropertyOp38
 70
     0
102
RTVSPropertyOp39
 70
     0
102
RTVSPropertyOp40
 70
     0
102
RTVSPropertyOp41
 70
     0
102
RTVSPropertyOp42
 70
     0
102
RTVSPropertyOp43
 70
     0
102
RTVSPropertyOp44
 70
     0
102
RTVSPropertyOp45
 70
     0
102
RTVSPropertyOp46
 70
     0
102
RTVSPropertyOp47
 70
     0
102
RTVSPropertyOp48
 70
     0
102
RTVSPropertyOp49
 70
     0
102
RTVSPropertyOp50
 70
     0
102
RTVSPropertyOp51
 70
     0
102
RTVSPropertyOp52
 70
     0
102
RTVSPropertyOp53
 70
     0
102
RTVSPropertyOp54
 70
     0
102
RTVSPropertyOp55
 70
     0
102
RTVSPropertyOp56
 70
     0
102
RTVSPropertyOp57
 70
     0
102
RTVSPropertyOp58
 70
     0
102
RTVSPropertyOp59
 70
     0
102
RTVSPropertyOp60
 70
     0
102
RTVSPropertyOp61
 70
     0
102
RTVSPropertyOp62
 70
     0
  0
XRECORD
  5
404
102
{ACAD_REACTORS
330
403
102
}
330
403
100
AcDbXrecord
280
     1
102
RTVSPost2010Prop28
280
     0
102
RTVSPost2010PropOp28
 70
     1
102
RTVSPost2010Prop29
280
     1
102
RTVSPost2010PropOp29
 70
     1
102
RTVSPost2010Prop30
280
     1
102
RTVSPost2010PropOp30
 70
     1
102
RTVSPost2010Prop31
280
     0
102
RTVSPost2010PropOp31
 70
     1
102
RTVSPost2010Prop32
280
     0
102
RTVSPost2010PropOp32
 70
     1
102
RTVSPost2010Prop33
280
     0
102
RTVSPost2010PropOp33
 70
     1
102
RTVSPost2010Prop34
280
     0
102
RTVSPost2010PropOp34
 70
     1
102
RTVSPost2010Prop35
280
     0
102
RTVSPost2010PropOp35
 70
     1
102
RTVSPost2010Prop36
280
     0
102
RTVSPost2010PropOp36
 70
     1
102
RTVSPost2010Prop37
 90
       50
102
RTVSPost2010PropOp37
 70
     1
102
RTVSPost2010Prop38
140
0.0
102
RTVSPost2010PropOp38
 70
     1
102
RTVSPost2010Prop39
140
1.0
102
RTVSPost2010PropOp39
 70
     1
102
RTVSPost2010Prop40
 90
        0
102
RTVSPost2010PropOp40
 70
     1
102
RTVSPost2010Prop41ColorIndex
 90
       18
102
RTVSPost2010Prop41ColorRGB
 90
        0
102
RTVSPost2010PropOp41
 70
     1
102
RTVSPost2010Prop42
 90
       50
102
RTVSPost2010PropOp42
 70
     1
102
RTVSPost2010Prop43
 90
        3
102
RTVSPost2010PropOp43
 70
     1
102
RTVSPost2010Prop44ColorIndex
 90
        5
102
RTVSPost2010Prop44ColorRGB
 90
      255
102
RTVSPost2010PropOp44
 70
     1
102
RTVSPost2010Prop45
280
     0
102
RTVSPost2010PropOp45
 70
     1
102
RTVSPost2010Prop46
 90
       50
102
RTVSPost2010PropOp46
 70
     1
102
RTVSPost2010Prop47
 90
       50
102
RTVSPost2010PropOp47
 70
     1
102
RTVSPost2010Prop48
 90
       50
102
RTVSPost2010PropOp48
 70
     1
102
RTVSPost2010Prop49
280
     0
102
RTVSPost2010PropOp49
 70
     1
102
RTVSPost2010Prop50
 90
       50
102
RTVSPost2010PropOp50
 70
     1
102
RTVSPost2010Prop51ColorIndex
 90
      256
102
RTVSPost2010Prop51ColorRGB
 90
-16777216
102
RTVSPost2010PropOp51
 70
     0
102
RTVSPost2010Prop52
140
1.0
102
RTVSPost2010PropOp52
 70
     0
102
RTVSPost2010Prop53
 90
        2
102
RTVSPost2010PropOp53
 70
     1
102
RTVSPost2010Prop54
  1
strokes_ogs.tif
102
RTVSPost2010PropOp54
 70
     1
102
RTVSPost2010Prop55
280
     0
102
RTVSPost2010PropOp55
 70
     1
102
RTVSPost2010Prop56
140
1.0
102
RTVSPost2010PropOp56
 70
     1
102
RTVSPost2010Prop57
140
1.0
102
RTVSPost2010PropOp57
 70
     1
102
RTVSPropertyOp0
 70
     1
102
RTVSPropertyOp1
 70
     1
102
RTVSPropertyOp2
 70
     1
102
RTVSPropertyOp3
 70
     1
102
RTVSPropertyOp4
 70
     1
102
RTVSPropertyOp5
 70
     1
102
RTVSPropertyOp6
 70
     1
102
RTVSPropertyOp7
 70
     1
102
RTVSPropertyOp8
 70
     1
102
RTVSPropertyOp9
 70
     1
102
RTVSPropertyOp10
 70
     1
102
RTVSPropertyOp11
 70
     1
102
RTVSPropertyOp12
 70
     1
102
RTVSPropertyOp13
 70
     1
102
RTVSPropertyOp14
 70
     1
102
RTVSPropertyOp15
 70
     1
102
RTVSPropertyOp16
 70
     1
102
RTVSPropertyOp17
 70
     1
102
RTVSPropertyOp18
 70
     1
102
RTVSPropertyOp19
 70
     1
102
RTVSPropertyOp20
 70
     1
102
RTVSPropertyOp21
 70
     1
102
RTVSPropertyOp22
 70
     1
102
RTVSPropertyOp23
 70
     1
102
RTVSPropertyOp24
 70
     1
102
RTVSPropertyOp25
 70
     1
102
RTVSPropertyOp26
 70
     1
102
RTVSPropertyOp27
 70
     1
102
RTVSPropertyOp28
 70
     1
102
RTVSPropertyOp29
 70
     1
102
RTVSPropertyOp30
 70
     1
102
RTVSPropertyOp31
 70
     1
102
RTVSPropertyOp32
 70
     1
102
RTVSPropertyOp33
 70
     1
102
RTVSPropertyOp34
 70
     1
102
RTVSPropertyOp35
 70
     1
102
RTVSPropertyOp36
 70
     1
102
RTVSPropertyOp37
 70
     1
102
RTVSPropertyOp38
 70
     1
102
RTVSPropertyOp39
 70
     1
102
RTVSPropertyOp40
 70
     1
102
RTVSPropertyOp41
 70
     1
102
RTVSPropertyOp42
 70
     1
102
RTVSPropertyOp43
 70
     1
102
RTVSPropertyOp44
 70
     1
102
RTVSPropertyOp45
 70
     1
102
RTVSPropertyOp46
 70
     1
102
RTVSPropertyOp47
 70
     1
102
RTVSPropertyOp48
 70
     1
102
RTVSPropertyOp49
 70
     1
102
RTVSPropertyOp50
 70
     1
102
RTVSPropertyOp51
 70
     0
102
RTVSPropertyOp52
 70
     0
102
RTVSPropertyOp53
 70
     1
102
RTVSPropertyOp54
 70
     1
102
RTVSPropertyOp55
 70
     1
102
RTVSPropertyOp56
 70
     1
102
RTVSPropertyOp57
 70
     1
102
RTVSPropertyOp58
 70
     1
102
RTVSPropertyOp59
 70
     1
102
RTVSPropertyOp60
 70
     1
102
RTVSPropertyOp61
 70
     1
102
RTVSPropertyOp62
 70
     1
  0
XRECORD
  5
41A
102
{ACAD_REACTORS
330
419
102
}
330
419
100
AcDbXrecord
280
     1
102
RTVSPost2010Prop28
280
     0
102
RTVSPost2010PropOp28
 70
     1
102
RTVSPost2010Prop29
280
     1
102
RTVSPost2010PropOp29
 70
     1
102
RTVSPost2010Prop30
280
     1
102
RTVSPost2010PropOp30
 70
     1
102
RTVSPost2010Prop31
280
     0
102
RTVSPost2010PropOp31
 70
     1
102
RTVSPost2010Prop32
280
     0
102
RTVSPost2010PropOp32
 70
     1
102
RTVSPost2010Prop33
280
     0
102
RTVSPost2010PropOp33
 70
     1
102
RTVSPost2010Prop34
280
     0
102
RTVSPost2010PropOp34
 70
     1
102
RTVSPost2010Prop35
280
     0
102
RTVSPost2010PropOp35
 70
     1
102
RTVSPost2010Prop36
280
     0
102
RTVSPost2010PropOp36
 70
     1
102
RTVSPost2010Prop37
 90
       50
102
RTVSPost2010PropOp37
 70
     1
102
RTVSPost2010Prop38
140
0.0
102
RTVSPost2010PropOp38
 70
     1
102
RTVSPost2010Prop39
140
1.0
102
RTVSPost2010PropOp39
 70
     1
102
RTVSPost2010Prop40
 90
        0
102
RTVSPost2010PropOp40
 70
     1
102
RTVSPost2010Prop41ColorIndex
 90
       18
102
RTVSPost2010Prop41ColorRGB
 90
        0
102
RTVSPost2010PropOp41
 70
     1
102
RTVSPost2010Prop42
 90
       50
102
RTVSPost2010PropOp42
 70
     1
102
RTVSPost2010Prop43
 90
        3
102
RTVSPost2010PropOp43
 70
     1
102
RTVSPost2010Prop44ColorIndex
 90
        5
102
RTVSPost2010Prop44ColorRGB
 90
      255
102
RTVSPost2010PropOp44
 70
     1
102
RTVSPost2010Prop45
280
     0
102
RTVSPost2010PropOp45
 70
     1
102
RTVSPost2010Prop46
 90
       50
102
RTVSPost2010PropOp46
 70
     1
102
RTVSPost2010Prop47
 90
       50
102
RTVSPost2010PropOp47
 70
     1
102
RTVSPost2010Prop48
 90
       50
102
RTVSPost2010PropOp48
 70
     1
102
RTVSPost2010Prop49
280
     0
102
RTVSPost2010PropOp49
 70
     1
102
RTVSPost2010Prop50
 90
       50
102
RTVSPost2010PropOp50
 70
     1
102
RTVSPost2010Prop51ColorIndex
 90
      256
102
RTVSPost2010Prop51ColorRGB
 90
-16777216
102
RTVSPost2010PropOp51
 70
     0
102
RTVSPost2010Prop52
140
1.0
102
RTVSPost2010PropOp52
 70
     0
102
RTVSPost2010Prop53
 90
        2
102
RTVSPost2010PropOp53
 70
     1
102
RTVSPost2010Prop54
  1
strokes_ogs.tif
102
RTVSPost2010PropOp54
 70
     1
102
RTVSPost2010Prop55
280
     0
102
RTVSPost2010PropOp55
 70
     1
102
RTVSPost2010Prop56
140
1.0
102
RTVSPost2010PropOp56
 70
     1
102
RTVSPost2010Prop57
140
1.0
102
RTVSPost2010PropOp57
 70
     1
102
RTVSPropertyOp0
 70
     1
102
RTVSPropertyOp1
 70
     1
102
RTVSPropertyOp2
 70
     1
102
RTVSPropertyOp3
 70
     1
102
RTVSPropertyOp4
 70
     1
102
RTVSPropertyOp5
 70
     1
102
RTVSPropertyOp6
 70
     1
102
RTVSPropertyOp7
 70
     1
102
RTVSPropertyOp8
 70
     1
102
RTVSPropertyOp9
 70
     1
102
RTVSPropertyOp10
 70
     1
102
RTVSPropertyOp11
 70
     1
102
RTVSPropertyOp12
 70
     1
102
RTVSPropertyOp13
 70
     1
102
RTVSPropertyOp14
 70
     1
102
RTVSPropertyOp15
 70
     1
102
RTVSPropertyOp16
 70
     1
102
RTVSPropertyOp17
 70
     1
102
RTVSPropertyOp18
 70
     1
102
RTVSPropertyOp19
 70
     1
102
RTVSPropertyOp20
 70
     1
102
RTVSPropertyOp21
 70
     1
102
RTVSPropertyOp22
 70
     1
102
RTVSPropertyOp23
 70
     1
102
RTVSPropertyOp24
 70
     1
102
RTVSPropertyOp25
 70
     1
102
RTVSPropertyOp26
 70
     1
102
RTVSPropertyOp27
 70
     1
102
RTVSPropertyOp28
 70
     1
102
RTVSPropertyOp29
 70
     1
102
RTVSPropertyOp30
 70
     1
102
RTVSPropertyOp31
 70
     1
102
RTVSPropertyOp32
 70
     1
102
RTVSPropertyOp33
 70
     1
102
RTVSPropertyOp34
 70
     1
102
RTVSPropertyOp35
 70
     1
102
RTVSPropertyOp36
 70
     1
102
RTVSPropertyOp37
 70
     1
102
RTVSPropertyOp38
 70
     1
102
RTVSPropertyOp39
 70
     1
102
RTVSPropertyOp40
 70
     1
102
RTVSPropertyOp41
 70
     1
102
RTVSPropertyOp42
 70
     1
102
RTVSPropertyOp43
 70
     1
102
RTVSPropertyOp44
 70
     1
102
RTVSPropertyOp45
 70
     1
102
RTVSPropertyOp46
 70
     1
102
RTVSPropertyOp47
 70
     1
102
RTVSPropertyOp48
 70
     1
102
RTVSPropertyOp49
 70
     1
102
RTVSPropertyOp50
 70
     1
102
RTVSPropertyOp51
 70
     0
102
RTVSPropertyOp52
 70
     0
102
RTVSPropertyOp53
 70
     1
102
RTVSPropertyOp54
 70
     1
102
RTVSPropertyOp55
 70
     1
102
RTVSPropertyOp56
 70
     1
102
RTVSPropertyOp57
 70
     1
102
RTVSPropertyOp58
 70
     1
102
RTVSPropertyOp59
 70
     1
102
RTVSPropertyOp60
 70
     1
102
RTVSPropertyOp61
 70
     1
102
RTVSPropertyOp62
 70
     1
  0
XRECORD
  5
418
102
{ACAD_REACTORS
330
417
102
}
330
417
100
AcDbXrecord
280
     1
102
RTVSPost2010Prop28
280
     0
102
RTVSPost2010PropOp28
 70
     1
102
RTVSPost2010Prop29
280
     1
102
RTVSPost2010PropOp29
 70
     1
102
RTVSPost2010Prop30
280
     1
102
RTVSPost2010PropOp30
 70
     1
102
RTVSPost2010Prop31
280
     0
102
RTVSPost2010PropOp31
 70
     1
102
RTVSPost2010Prop32
280
     0
102
RTVSPost2010PropOp32
 70
     1
102
RTVSPost2010Prop33
280
     0
102
RTVSPost2010PropOp33
 70
     1
102
RTVSPost2010Prop34
280
     0
102
RTVSPost2010PropOp34
 70
     1
102
RTVSPost2010Prop35
280
     0
102
RTVSPost2010PropOp35
 70
     1
102
RTVSPost2010Prop36
280
     0
102
RTVSPost2010PropOp36
 70
     1
102
RTVSPost2010Prop37
 90
       50
102
RTVSPost2010PropOp37
 70
     1
102
RTVSPost2010Prop38
140
0.0
102
RTVSPost2010PropOp38
 70
     1
102
RTVSPost2010Prop39
140
1.0
102
RTVSPost2010PropOp39
 70
     1
102
RTVSPost2010Prop40
 90
        0
102
RTVSPost2010PropOp40
 70
     1
102
RTVSPost2010Prop41ColorIndex
 90
       18
102
RTVSPost2010Prop41ColorRGB
 90
        0
102
RTVSPost2010PropOp41
 70
     1
102
RTVSPost2010Prop42
 90
       50
102
RTVSPost2010PropOp42
 70
     1
102
RTVSPost2010Prop43
 90
        3
102
RTVSPost2010PropOp43
 70
     1
102
RTVSPost2010Prop44ColorIndex
 90
        5
102
RTVSPost2010Prop44ColorRGB
 90
      255
102
RTVSPost2010PropOp44
 70
     1
102
RTVSPost2010Prop45
280
     0
102
RTVSPost2010PropOp45
 70
     1
102
RTVSPost2010Prop46
 90
       50
102
RTVSPost2010PropOp46
 70
     1
102
RTVSPost2010Prop47
 90
       50
102
RTVSPost2010PropOp47
 70
     1
102
RTVSPost2010Prop48
 90
       50
102
RTVSPost2010PropOp48
 70
     1
102
RTVSPost2010Prop49
280
     0
102
RTVSPost2010PropOp49
 70
     1
102
RTVSPost2010Prop50
 90
       50
102
RTVSPost2010PropOp50
 70
     1
102
RTVSPost2010Prop51ColorIndex
 90
      256
102
RTVSPost2010Prop51ColorRGB
 90
-16777216
102
RTVSPost2010PropOp51
 70
     0
102
RTVSPost2010Prop52
140
1.0
102
RTVSPost2010PropOp52
 70
     0
102
RTVSPost2010Prop53
 90
        2
102
RTVSPost2010PropOp53
 70
     1
102
RTVSPost2010Prop54
  1
strokes_ogs.tif
102
RTVSPost2010PropOp54
 70
     1
102
RTVSPost2010Prop55
280
     0
102
RTVSPost2010PropOp55
 70
     1
102
RTVSPost2010Prop56
140
1.0
102
RTVSPost2010PropOp56
 70
     1
102
RTVSPost2010Prop57
140
1.0
102
RTVSPost2010PropOp57
 70
     1
102
RTVSPropertyOp0
 70
     1
102
RTVSPropertyOp1
 70
     1
102
RTVSPropertyOp2
 70
     1
102
RTVSPropertyOp3
 70
     1
102
RTVSPropertyOp4
 70
     1
102
RTVSPropertyOp5
 70
     1
102
RTVSPropertyOp6
 70
     1
102
RTVSPropertyOp7
 70
     1
102
RTVSPropertyOp8
 70
     1
102
RTVSPropertyOp9
 70
     1
102
RTVSPropertyOp10
 70
     1
102
RTVSPropertyOp11
 70
     1
102
RTVSPropertyOp12
 70
     1
102
RTVSPropertyOp13
 70
     1
102
RTVSPropertyOp14
 70
     1
102
RTVSPropertyOp15
 70
     1
102
RTVSPropertyOp16
 70
     1
102
RTVSPropertyOp17
 70
     1
102
RTVSPropertyOp18
 70
     1
102
RTVSPropertyOp19
 70
     1
102
RTVSPropertyOp20
 70
     1
102
RTVSPropertyOp21
 70
     1
102
RTVSPropertyOp22
 70
     1
102
RTVSPropertyOp23
 70
     1
102
RTVSPropertyOp24
 70
     1
102
RTVSPropertyOp25
 70
     1
102
RTVSPropertyOp26
 70
     1
102
RTVSPropertyOp27
 70
     1
102
RTVSPropertyOp28
 70
     1
102
RTVSPropertyOp29
 70
     1
102
RTVSPropertyOp30
 70
     1
102
RTVSPropertyOp31
 70
     1
102
RTVSPropertyOp32
 70
     1
102
RTVSPropertyOp33
 70
     1
102
RTVSPropertyOp34
 70
     1
102
RTVSPropertyOp35
 70
     1
102
RTVSPropertyOp36
 70
     1
102
RTVSPropertyOp37
 70
     1
102
RTVSPropertyOp38
 70
     1
102
RTVSPropertyOp39
 70
     1
102
RTVSPropertyOp40
 70
     1
102
RTVSPropertyOp41
 70
     1
102
RTVSPropertyOp42
 70
     1
102
RTVSPropertyOp43
 70
     1
102
RTVSPropertyOp44
 70
     1
102
RTVSPropertyOp45
 70
     1
102
RTVSPropertyOp46
 70
     1
102
RTVSPropertyOp47
 70
     1
102
RTVSPropertyOp48
 70
     1
102
RTVSPropertyOp49
 70
     1
102
RTVSPropertyOp50
 70
     1
102
RTVSPropertyOp51
 70
     0
102
RTVSPropertyOp52
 70
     0
102
RTVSPropertyOp53
 70
     1
102
RTVSPropertyOp54
 70
     1
102
RTVSPropertyOp55
 70
     1
102
RTVSPropertyOp56
 70
     1
102
RTVSPropertyOp57
 70
     1
102
RTVSPropertyOp58
 70
     1
102
RTVSPropertyOp59
 70
     1
102
RTVSPropertyOp60
 70
     1
102
RTVSPropertyOp61
 70
     1
102
RTVSPropertyOp62
 70
     1
  0
XRECORD
  5
412
102
{ACAD_REACTORS
330
411
102
}
330
411
100
AcDbXrecord
280
     1
102
RTVSPost2010Prop28
280
     0
102
RTVSPost2010PropOp28
 70
     1
102
RTVSPost2010Prop29
280
     1
102
RTVSPost2010PropOp29
 70
     1
102
RTVSPost2010Prop30
280
     1
102
RTVSPost2010PropOp30
 70
     1
102
RTVSPost2010Prop31
280
     0
102
RTVSPost2010PropOp31
 70
     1
102
RTVSPost2010Prop32
280
     0
102
RTVSPost2010PropOp32
 70
     1
102
RTVSPost2010Prop33
280
     0
102
RTVSPost2010PropOp33
 70
     1
102
RTVSPost2010Prop34
280
     0
102
RTVSPost2010PropOp34
 70
     1
102
RTVSPost2010Prop35
280
     0
102
RTVSPost2010PropOp35
 70
     1
102
RTVSPost2010Prop36
280
     0
102
RTVSPost2010PropOp36
 70
     1
102
RTVSPost2010Prop37
 90
       50
102
RTVSPost2010PropOp37
 70
     1
102
RTVSPost2010Prop38
140
0.0
102
RTVSPost2010PropOp38
 70
     1
102
RTVSPost2010Prop39
140
1.0
102
RTVSPost2010PropOp39
 70
     1
102
RTVSPost2010Prop40
 90
        0
102
RTVSPost2010PropOp40
 70
     1
102
RTVSPost2010Prop41ColorIndex
 90
       18
102
RTVSPost2010Prop41ColorRGB
 90
        0
102
RTVSPost2010PropOp41
 70
     1
102
RTVSPost2010Prop42
 90
       50
102
RTVSPost2010PropOp42
 70
     1
102
RTVSPost2010Prop43
 90
        3
102
RTVSPost2010PropOp43
 70
     1
102
RTVSPost2010Prop44ColorIndex
 90
        5
102
RTVSPost2010Prop44ColorRGB
 90
      255
102
RTVSPost2010PropOp44
 70
     1
102
RTVSPost2010Prop45
280
     0
102
RTVSPost2010PropOp45
 70
     1
102
RTVSPost2010Prop46
 90
       50
102
RTVSPost2010PropOp46
 70
     1
102
RTVSPost2010Prop47
 90
       50
102
RTVSPost2010PropOp47
 70
     1
102
RTVSPost2010Prop48
 90
       50
102
RTVSPost2010PropOp48
 70
     1
102
RTVSPost2010Prop49
280
     0
102
RTVSPost2010PropOp49
 70
     1
102
RTVSPost2010Prop50
 90
       50
102
RTVSPost2010PropOp50
 70
     1
102
RTVSPost2010Prop51ColorIndex
 90
      256
102
RTVSPost2010Prop51ColorRGB
 90
-16777216
102
RTVSPost2010PropOp51
 70
     0
102
RTVSPost2010Prop52
140
1.0
102
RTVSPost2010PropOp52
 70
     0
102
RTVSPost2010Prop53
 90
        2
102
RTVSPost2010PropOp53
 70
     1
102
RTVSPost2010Prop54
  1
strokes_ogs.tif
102
RTVSPost2010PropOp54
 70
     1
102
RTVSPost2010Prop55
280
     0
102
RTVSPost2010PropOp55
 70
     1
102
RTVSPost2010Prop56
140
1.0
102
RTVSPost2010PropOp56
 70
     1
102
RTVSPost2010Prop57
140
1.0
102
RTVSPost2010PropOp57
 70
     1
102
RTVSPropertyOp0
 70
     1
102
RTVSPropertyOp1
 70
     1
102
RTVSPropertyOp2
 70
     1
102
RTVSPropertyOp3
 70
     1
102
RTVSPropertyOp4
 70
     1
102
RTVSPropertyOp5
 70
     1
102
RTVSPropertyOp6
 70
     1
102
RTVSPropertyOp7
 70
     1
102
RTVSPropertyOp8
 70
     1
102
RTVSPropertyOp9
 70
     1
102
RTVSPropertyOp10
 70
     1
102
RTVSPropertyOp11
 70
     1
102
RTVSPropertyOp12
 70
     1
102
RTVSPropertyOp13
 70
     1
102
RTVSPropertyOp14
 70
     1
102
RTVSPropertyOp15
 70
     1
102
RTVSPropertyOp16
 70
     1
102
RTVSPropertyOp17
 70
     1
102
RTVSPropertyOp18
 70
     1
102
RTVSPropertyOp19
 70
     1
102
RTVSPropertyOp20
 70
     1
102
RTVSPropertyOp21
 70
     1
102
RTVSPropertyOp22
 70
     1
102
RTVSPropertyOp23
 70
     1
102
RTVSPropertyOp24
 70
     1
102
RTVSPropertyOp25
 70
     1
102
RTVSPropertyOp26
 70
     1
102
RTVSPropertyOp27
 70
     1
102
RTVSPropertyOp28
 70
     1
102
RTVSPropertyOp29
 70
     1
102
RTVSPropertyOp30
 70
     1
102
RTVSPropertyOp31
 70
     1
102
RTVSPropertyOp32
 70
     1
102
RTVSPropertyOp33
 70
     1
102
RTVSPropertyOp34
 70
     1
102
RTVSPropertyOp35
 70
     1
102
RTVSPropertyOp36
 70
     1
102
RTVSPropertyOp37
 70
     1
102
RTVSPropertyOp38
 70
     1
102
RTVSPropertyOp39
 70
     1
102
RTVSPropertyOp40
 70
     1
102
RTVSPropertyOp41
 70
     1
102
RTVSPropertyOp42
 70
     1
102
RTVSPropertyOp43
 70
     1
102
RTVSPropertyOp44
 70
     1
102
RTVSPropertyOp45
 70
     1
102
RTVSPropertyOp46
 70
     1
102
RTVSPropertyOp47
 70
     1
102
RTVSPropertyOp48
 70
     1
102
RTVSPropertyOp49
 70
     1
102
RTVSPropertyOp50
 70
     1
102
RTVSPropertyOp51
 70
     0
102
RTVSPropertyOp52
 70
     0
102
RTVSPropertyOp53
 70
     1
102
RTVSPropertyOp54
 70
     1
102
RTVSPropertyOp55
 70
     1
102
RTVSPropertyOp56
 70
     1
102
RTVSPropertyOp57
 70
     1
102
RTVSPropertyOp58
 70
     1
102
RTVSPropertyOp59
 70
     1
102
RTVSPropertyOp60
 70
     1
102
RTVSPropertyOp61
 70
     1
102
RTVSPropertyOp62
 70
     1
  0
XRECORD
  5
414
102
{ACAD_REACTORS
330
413
102
}
330
413
100
AcDbXrecord
280
     1
102
RTVSPost2010Prop28
280
     0
102
RTVSPost2010PropOp28
 70
     1
102
RTVSPost2010Prop29
280
     1
102
RTVSPost2010PropOp29
 70
     1
102
RTVSPost2010Prop30
280
     1
102
RTVSPost2010PropOp30
 70
     1
102
RTVSPost2010Prop31
280
     0
102
RTVSPost2010PropOp31
 70
     1
102
RTVSPost2010Prop32
280
     0
102
RTVSPost2010PropOp32
 70
     1
102
RTVSPost2010Prop33
280
     0
102
RTVSPost2010PropOp33
 70
     1
102
RTVSPost2010Prop34
280
     0
102
RTVSPost2010PropOp34
 70
     1
102
RTVSPost2010Prop35
280
     0
102
RTVSPost2010PropOp35
 70
     1
102
RTVSPost2010Prop36
280
     0
102
RTVSPost2010PropOp36
 70
     1
102
RTVSPost2010Prop37
 90
       50
102
RTVSPost2010PropOp37
 70
     1
102
RTVSPost2010Prop38
140
0.0
102
RTVSPost2010PropOp38
 70
     1
102
RTVSPost2010Prop39
140
1.0
102
RTVSPost2010PropOp39
 70
     1
102
RTVSPost2010Prop40
 90
        0
102
RTVSPost2010PropOp40
 70
     1
102
RTVSPost2010Prop41ColorIndex
 90
       18
102
RTVSPost2010Prop41ColorRGB
 90
        0
102
RTVSPost2010PropOp41
 70
     1
102
RTVSPost2010Prop42
 90
       50
102
RTVSPost2010PropOp42
 70
     1
102
RTVSPost2010Prop43
 90
        3
102
RTVSPost2010PropOp43
 70
     1
102
RTVSPost2010Prop44ColorIndex
 90
        5
102
RTVSPost2010Prop44ColorRGB
 90
      255
102
RTVSPost2010PropOp44
 70
     1
102
RTVSPost2010Prop45
280
     0
102
RTVSPost2010PropOp45
 70
     1
102
RTVSPost2010Prop46
 90
       50
102
RTVSPost2010PropOp46
 70
     1
102
RTVSPost2010Prop47
 90
       50
102
RTVSPost2010PropOp47
 70
     1
102
RTVSPost2010Prop48
 90
       50
102
RTVSPost2010PropOp48
 70
     1
102
RTVSPost2010Prop49
280
     0
102
RTVSPost2010PropOp49
 70
     1
102
RTVSPost2010Prop50
 90
       50
102
RTVSPost2010PropOp50
 70
     1
102
RTVSPost2010Prop51ColorIndex
 90
      256
102
RTVSPost2010Prop51ColorRGB
 90
-16777216
102
RTVSPost2010PropOp51
 70
     0
102
RTVSPost2010Prop52
140
1.0
102
RTVSPost2010PropOp52
 70
     0
102
RTVSPost2010Prop53
 90
        2
102
RTVSPost2010PropOp53
 70
     1
102
RTVSPost2010Prop54
  1
strokes_ogs.tif
102
RTVSPost2010PropOp54
 70
     1
102
RTVSPost2010Prop55
280
     0
102
RTVSPost2010PropOp55
 70
     1
102
RTVSPost2010Prop56
140
1.0
102
RTVSPost2010PropOp56
 70
     1
102
RTVSPost2010Prop57
140
1.0
102
RTVSPost2010PropOp57
 70
     1
102
RTVSPropertyOp0
 70
     1
102
RTVSPropertyOp1
 70
     1
102
RTVSPropertyOp2
 70
     1
102
RTVSPropertyOp3
 70
     1
102
RTVSPropertyOp4
 70
     1
102
RTVSPropertyOp5
 70
     1
102
RTVSPropertyOp6
 70
     1
102
RTVSPropertyOp7
 70
     1
102
RTVSPropertyOp8
 70
     1
102
RTVSPropertyOp9
 70
     1
102
RTVSPropertyOp10
 70
     1
102
RTVSPropertyOp11
 70
     1
102
RTVSPropertyOp12
 70
     1
102
RTVSPropertyOp13
 70
     1
102
RTVSPropertyOp14
 70
     1
102
RTVSPropertyOp15
 70
     1
102
RTVSPropertyOp16
 70
     1
102
RTVSPropertyOp17
 70
     1
102
RTVSPropertyOp18
 70
     1
102
RTVSPropertyOp19
 70
     1
102
RTVSPropertyOp20
 70
     1
102
RTVSPropertyOp21
 70
     1
102
RTVSPropertyOp22
 70
     1
102
RTVSPropertyOp23
 70
     1
102
RTVSPropertyOp24
 70
     1
102
RTVSPropertyOp25
 70
     1
102
RTVSPropertyOp26
 70
     1
102
RTVSPropertyOp27
 70
     1
102
RTVSPropertyOp28
 70
     1
102
RTVSPropertyOp29
 70
     1
102
RTVSPropertyOp30
 70
     1
102
RTVSPropertyOp31
 70
     1
102
RTVSPropertyOp32
 70
     1
102
RTVSPropertyOp33
 70
     1
102
RTVSPropertyOp34
 70
     1
102
RTVSPropertyOp35
 70
     1
102
RTVSPropertyOp36
 70
     1
102
RTVSPropertyOp37
 70
     1
102
RTVSPropertyOp38
 70
     1
102
RTVSPropertyOp39
 70
     1
102
RTVSPropertyOp40
 70
     1
102
RTVSPropertyOp41
 70
     1
102
RTVSPropertyOp42
 70
     1
102
RTVSPropertyOp43
 70
     1
102
RTVSPropertyOp44
 70
     1
102
RTVSPropertyOp45
 70
     1
102
RTVSPropertyOp46
 70
     1
102
RTVSPropertyOp47
 70
     1
102
RTVSPropertyOp48
 70
     1
102
RTVSPropertyOp49
 70
     1
102
RTVSPropertyOp50
 70
     1
102
RTVSPropertyOp51
 70
     0
102
RTVSPropertyOp52
 70
     0
102
RTVSPropertyOp53
 70
     1
102
RTVSPropertyOp54
 70
     1
102
RTVSPropertyOp55
 70
     1
102
RTVSPropertyOp56
 70
     1
102
RTVSPropertyOp57
 70
     1
102
RTVSPropertyOp58
 70
     1
102
RTVSPropertyOp59
 70
     1
102
RTVSPropertyOp60
 70
     1
102
RTVSPropertyOp61
 70
     1
102
RTVSPropertyOp62
 70
     1
  0
XRECORD
  5
40A
102
{ACAD_REACTORS
330
409
102
}
330
409
100
AcDbXrecord
280
     1
102
RTVSPost2010Prop28
280
     0
102
RTVSPost2010PropOp28
 70
     1
102
RTVSPost2010Prop29
280
     1
102
RTVSPost2010PropOp29
 70
     1
102
RTVSPost2010Prop30
280
     1
102
RTVSPost2010PropOp30
 70
     1
102
RTVSPost2010Prop31
280
     0
102
RTVSPost2010PropOp31
 70
     1
102
RTVSPost2010Prop32
280
     0
102
RTVSPost2010PropOp32
 70
     1
102
RTVSPost2010Prop33
280
     0
102
RTVSPost2010PropOp33
 70
     1
102
RTVSPost2010Prop34
280
     0
102
RTVSPost2010PropOp34
 70
     1
102
RTVSPost2010Prop35
280
     0
102
RTVSPost2010PropOp35
 70
     1
102
RTVSPost2010Prop36
280
     0
102
RTVSPost2010PropOp36
 70
     1
102
RTVSPost2010Prop37
 90
       50
102
RTVSPost2010PropOp37
 70
     1
102
RTVSPost2010Prop38
140
0.0
102
RTVSPost2010PropOp38
 70
     1
102
RTVSPost2010Prop39
140
1.0
102
RTVSPost2010PropOp39
 70
     1
102
RTVSPost2010Prop40
 90
        0
102
RTVSPost2010PropOp40
 70
     1
102
RTVSPost2010Prop41ColorIndex
 90
       18
102
RTVSPost2010Prop41ColorRGB
 90
        0
102
RTVSPost2010PropOp41
 70
     1
102
RTVSPost2010Prop42
 90
       50
102
RTVSPost2010PropOp42
 70
     1
102
RTVSPost2010Prop43
 90
        3
102
RTVSPost2010PropOp43
 70
     1
102
RTVSPost2010Prop44ColorIndex
 90
        5
102
RTVSPost2010Prop44ColorRGB
 90
      255
102
RTVSPost2010PropOp44
 70
     1
102
RTVSPost2010Prop45
280
     0
102
RTVSPost2010PropOp45
 70
     1
102
RTVSPost2010Prop46
 90
       50
102
RTVSPost2010PropOp46
 70
     1
102
RTVSPost2010Prop47
 90
       50
102
RTVSPost2010PropOp47
 70
     1
102
RTVSPost2010Prop48
 90
       50
102
RTVSPost2010PropOp48
 70
     1
102
RTVSPost2010Prop49
280
     0
102
RTVSPost2010PropOp49
 70
     1
102
RTVSPost2010Prop50
 90
       50
102
RTVSPost2010PropOp50
 70
     1
102
RTVSPost2010Prop51ColorIndex
 90
      256
102
RTVSPost2010Prop51ColorRGB
 90
-16777216
102
RTVSPost2010PropOp51
 70
     0
102
RTVSPost2010Prop52
140
1.0
102
RTVSPost2010PropOp52
 70
     0
102
RTVSPost2010Prop53
 90
        2
102
RTVSPost2010PropOp53
 70
     1
102
RTVSPost2010Prop54
  1
strokes_ogs.tif
102
RTVSPost2010PropOp54
 70
     1
102
RTVSPost2010Prop55
280
     0
102
RTVSPost2010PropOp55
 70
     1
102
RTVSPost2010Prop56
140
1.0
102
RTVSPost2010PropOp56
 70
     1
102
RTVSPost2010Prop57
140
1.0
102
RTVSPost2010PropOp57
 70
     1
102
RTVSPropertyOp0
 70
     1
102
RTVSPropertyOp1
 70
     1
102
RTVSPropertyOp2
 70
     1
102
RTVSPropertyOp3
 70
     1
102
RTVSPropertyOp4
 70
     1
102
RTVSPropertyOp5
 70
     1
102
RTVSPropertyOp6
 70
     1
102
RTVSPropertyOp7
 70
     1
102
RTVSPropertyOp8
 70
     1
102
RTVSPropertyOp9
 70
     1
102
RTVSPropertyOp10
 70
     1
102
RTVSPropertyOp11
 70
     1
102
RTVSPropertyOp12
 70
     1
102
RTVSPropertyOp13
 70
     1
102
RTVSPropertyOp14
 70
     1
102
RTVSPropertyOp15
 70
     1
102
RTVSPropertyOp16
 70
     1
102
RTVSPropertyOp17
 70
     1
102
RTVSPropertyOp18
 70
     1
102
RTVSPropertyOp19
 70
     1
102
RTVSPropertyOp20
 70
     1
102
RTVSPropertyOp21
 70
     1
102
RTVSPropertyOp22
 70
     1
102
RTVSPropertyOp23
 70
     1
102
RTVSPropertyOp24
 70
     1
102
RTVSPropertyOp25
 70
     1
102
RTVSPropertyOp26
 70
     1
102
RTVSPropertyOp27
 70
     1
102
RTVSPropertyOp28
 70
     1
102
RTVSPropertyOp29
 70
     1
102
RTVSPropertyOp30
 70
     1
102
RTVSPropertyOp31
 70
     1
102
RTVSPropertyOp32
 70
     1
102
RTVSPropertyOp33
 70
     1
102
RTVSPropertyOp34
 70
     1
102
RTVSPropertyOp35
 70
     1
102
RTVSPropertyOp36
 70
     1
102
RTVSPropertyOp37
 70
     1
102
RTVSPropertyOp38
 70
     1
102
RTVSPropertyOp39
 70
     1
102
RTVSPropertyOp40
 70
     1
102
RTVSPropertyOp41
 70
     1
102
RTVSPropertyOp42
 70
     1
102
RTVSPropertyOp43
 70
     1
102
RTVSPropertyOp44
 70
     1
102
RTVSPropertyOp45
 70
     1
102
RTVSPropertyOp46
 70
     1
102
RTVSPropertyOp47
 70
     1
102
RTVSPropertyOp48
 70
     1
102
RTVSPropertyOp49
 70
     1
102
RTVSPropertyOp50
 70
     1
102
RTVSPropertyOp51
 70
     0
102
RTVSPropertyOp52
 70
     0
102
RTVSPropertyOp53
 70
     1
102
RTVSPropertyOp54
 70
     1
102
RTVSPropertyOp55
 70
     1
102
RTVSPropertyOp56
 70
     1
102
RTVSPropertyOp57
 70
     1
102
RTVSPropertyOp58
 70
     1
102
RTVSPropertyOp59
 70
     1
102
RTVSPropertyOp60
 70
     1
102
RTVSPropertyOp61
 70
     1
102
RTVSPropertyOp62
 70
     1
  0
XRECORD
  5
3FE
102
{ACAD_REACTORS
330
3FD
102
}
330
3FD
100
AcDbXrecord
280
     1
102
RTVSPost2010Prop28
280
     0
102
RTVSPost2010PropOp28
 70
     1
102
RTVSPost2010Prop29
280
     1
102
RTVSPost2010PropOp29
 70
     1
102
RTVSPost2010Prop30
280
     1
102
RTVSPost2010PropOp30
 70
     1
102
RTVSPost2010Prop31
280
     0
102
RTVSPost2010PropOp31
 70
     1
102
RTVSPost2010Prop32
280
     0
102
RTVSPost2010PropOp32
 70
     1
102
RTVSPost2010Prop33
280
     0
102
RTVSPost2010PropOp33
 70
     1
102
RTVSPost2010Prop34
280
     0
102
RTVSPost2010PropOp34
 70
     1
102
RTVSPost2010Prop35
280
     0
102
RTVSPost2010PropOp35
 70
     1
102
RTVSPost2010Prop36
280
     0
102
RTVSPost2010PropOp36
 70
     1
102
RTVSPost2010Prop37
 90
       50
102
RTVSPost2010PropOp37
 70
     1
102
RTVSPost2010Prop38
140
0.0
102
RTVSPost2010PropOp38
 70
     1
102
RTVSPost2010Prop39
140
1.0
102
RTVSPost2010PropOp39
 70
     1
102
RTVSPost2010Prop40
 90
        0
102
RTVSPost2010PropOp40
 70
     1
102
RTVSPost2010Prop41ColorIndex
 90
       18
102
RTVSPost2010Prop41ColorRGB
 90
        0
102
RTVSPost2010PropOp41
 70
     1
102
RTVSPost2010Prop42
 90
       50
102
RTVSPost2010PropOp42
 70
     1
102
RTVSPost2010Prop43
 90
        3
102
RTVSPost2010PropOp43
 70
     1
102
RTVSPost2010Prop44ColorIndex
 90
        5
102
RTVSPost2010Prop44ColorRGB
 90
      255
102
RTVSPost2010PropOp44
 70
     1
102
RTVSPost2010Prop45
280
     0
102
RTVSPost2010PropOp45
 70
     1
102
RTVSPost2010Prop46
 90
       50
102
RTVSPost2010PropOp46
 70
     1
102
RTVSPost2010Prop47
 90
       50
102
RTVSPost2010PropOp47
 70
     1
102
RTVSPost2010Prop48
 90
       50
102
RTVSPost2010PropOp48
 70
     1
102
RTVSPost2010Prop49
280
     0
102
RTVSPost2010PropOp49
 70
     1
102
RTVSPost2010Prop50
 90
       50
102
RTVSPost2010PropOp50
 70
     1
102
RTVSPost2010Prop51ColorIndex
 90
      256
102
RTVSPost2010Prop51ColorRGB
 90
-16777216
102
RTVSPost2010PropOp51
 70
     0
102
RTVSPost2010Prop52
140
1.0
102
RTVSPost2010PropOp52
 70
     0
102
RTVSPost2010Prop53
 90
        2
102
RTVSPost2010PropOp53
 70
     1
102
RTVSPost2010Prop54
  1
strokes_ogs.tif
102
RTVSPost2010PropOp54
 70
     1
102
RTVSPost2010Prop55
280
     0
102
RTVSPost2010PropOp55
 70
     1
102
RTVSPost2010Prop56
140
1.0
102
RTVSPost2010PropOp56
 70
     1
102
RTVSPost2010Prop57
140
1.0
102
RTVSPost2010PropOp57
 70
     1
102
RTVSPropertyOp0
 70
     1
102
RTVSPropertyOp1
 70
     1
102
RTVSPropertyOp2
 70
     1
102
RTVSPropertyOp3
 70
     1
102
RTVSPropertyOp4
 70
     1
102
RTVSPropertyOp5
 70
     1
102
RTVSPropertyOp6
 70
     1
102
RTVSPropertyOp7
 70
     1
102
RTVSPropertyOp8
 70
     1
102
RTVSPropertyOp9
 70
     1
102
RTVSPropertyOp10
 70
     1
102
RTVSPropertyOp11
 70
     1
102
RTVSPropertyOp12
 70
     1
102
RTVSPropertyOp13
 70
     1
102
RTVSPropertyOp14
 70
     1
102
RTVSPropertyOp15
 70
     1
102
RTVSPropertyOp16
 70
     1
102
RTVSPropertyOp17
 70
     1
102
RTVSPropertyOp18
 70
     1
102
RTVSPropertyOp19
 70
     1
102
RTVSPropertyOp20
 70
     1
102
RTVSPropertyOp21
 70
     1
102
RTVSPropertyOp22
 70
     1
102
RTVSPropertyOp23
 70
     1
102
RTVSPropertyOp24
 70
     1
102
RTVSPropertyOp25
 70
     1
102
RTVSPropertyOp26
 70
     1
102
RTVSPropertyOp27
 70
     1
102
RTVSPropertyOp28
 70
     1
102
RTVSPropertyOp29
 70
     1
102
RTVSPropertyOp30
 70
     1
102
RTVSPropertyOp31
 70
     1
102
RTVSPropertyOp32
 70
     1
102
RTVSPropertyOp33
 70
     1
102
RTVSPropertyOp34
 70
     1
102
RTVSPropertyOp35
 70
     1
102
RTVSPropertyOp36
 70
     1
102
RTVSPropertyOp37
 70
     1
102
RTVSPropertyOp38
 70
     1
102
RTVSPropertyOp39
 70
     1
102
RTVSPropertyOp40
 70
     1
102
RTVSPropertyOp41
 70
     1
102
RTVSPropertyOp42
 70
     1
102
RTVSPropertyOp43
 70
     1
102
RTVSPropertyOp44
 70
     1
102
RTVSPropertyOp45
 70
     1
102
RTVSPropertyOp46
 70
     1
102
RTVSPropertyOp47
 70
     1
102
RTVSPropertyOp48
 70
     1
102
RTVSPropertyOp49
 70
     1
102
RTVSPropertyOp50
 70
     1
102
RTVSPropertyOp51
 70
     0
102
RTVSPropertyOp52
 70
     0
102
RTVSPropertyOp53
 70
     1
102
RTVSPropertyOp54
 70
     1
102
RTVSPropertyOp55
 70
     1
102
RTVSPropertyOp56
 70
     1
102
RTVSPropertyOp57
 70
     1
102
RTVSPropertyOp58
 70
     1
102
RTVSPropertyOp59
 70
     1
102
RTVSPropertyOp60
 70
     1
102
RTVSPropertyOp61
 70
     1
102
RTVSPropertyOp62
 70
     1
  0
XRECORD
  5
416
102
{ACAD_REACTORS
330
415
102
}
330
415
100
AcDbXrecord
280
     1
102
RTVSPost2010Prop28
280
     0
102
RTVSPost2010PropOp28
 70
     1
102
RTVSPost2010Prop29
280
     1
102
RTVSPost2010PropOp29
 70
     1
102
RTVSPost2010Prop30
280
     1
102
RTVSPost2010PropOp30
 70
     1
102
RTVSPost2010Prop31
280
     0
102
RTVSPost2010PropOp31
 70
     1
102
RTVSPost2010Prop32
280
     0
102
RTVSPost2010PropOp32
 70
     1
102
RTVSPost2010Prop33
280
     0
102
RTVSPost2010PropOp33
 70
     1
102
RTVSPost2010Prop34
280
     0
102
RTVSPost2010PropOp34
 70
     1
102
RTVSPost2010Prop35
280
     0
102
RTVSPost2010PropOp35
 70
     1
102
RTVSPost2010Prop36
280
     0
102
RTVSPost2010PropOp36
 70
     1
102
RTVSPost2010Prop37
 90
       50
102
RTVSPost2010PropOp37
 70
     1
102
RTVSPost2010Prop38
140
0.0
102
RTVSPost2010PropOp38
 70
     1
102
RTVSPost2010Prop39
140
1.0
102
RTVSPost2010PropOp39
 70
     1
102
RTVSPost2010Prop40
 90
        0
102
RTVSPost2010PropOp40
 70
     1
102
RTVSPost2010Prop41ColorIndex
 90
       18
102
RTVSPost2010Prop41ColorRGB
 90
        0
102
RTVSPost2010PropOp41
 70
     1
102
RTVSPost2010Prop42
 90
       50
102
RTVSPost2010PropOp42
 70
     1
102
RTVSPost2010Prop43
 90
        3
102
RTVSPost2010PropOp43
 70
     1
102
RTVSPost2010Prop44ColorIndex
 90
        5
102
RTVSPost2010Prop44ColorRGB
 90
      255
102
RTVSPost2010PropOp44
 70
     1
102
RTVSPost2010Prop45
280
     0
102
RTVSPost2010PropOp45
 70
     1
102
RTVSPost2010Prop46
 90
       50
102
RTVSPost2010PropOp46
 70
     1
102
RTVSPost2010Prop47
 90
       50
102
RTVSPost2010PropOp47
 70
     1
102
RTVSPost2010Prop48
 90
       50
102
RTVSPost2010PropOp48
 70
     1
102
RTVSPost2010Prop49
280
     0
102
RTVSPost2010PropOp49
 70
     1
102
RTVSPost2010Prop50
 90
       50
102
RTVSPost2010PropOp50
 70
     1
102
RTVSPost2010Prop51ColorIndex
 90
      256
102
RTVSPost2010Prop51ColorRGB
 90
-16777216
102
RTVSPost2010PropOp51
 70
     0
102
RTVSPost2010Prop52
140
1.0
102
RTVSPost2010PropOp52
 70
     0
102
RTVSPost2010Prop53
 90
        2
102
RTVSPost2010PropOp53
 70
     1
102
RTVSPost2010Prop54
  1
strokes_ogs.tif
102
RTVSPost2010PropOp54
 70
     1
102
RTVSPost2010Prop55
280
     0
102
RTVSPost2010PropOp55
 70
     1
102
RTVSPost2010Prop56
140
1.0
102
RTVSPost2010PropOp56
 70
     1
102
RTVSPost2010Prop57
140
1.0
102
RTVSPost2010PropOp57
 70
     1
102
RTVSPropertyOp0
 70
     1
102
RTVSPropertyOp1
 70
     1
102
RTVSPropertyOp2
 70
     1
102
RTVSPropertyOp3
 70
     1
102
RTVSPropertyOp4
 70
     1
102
RTVSPropertyOp5
 70
     1
102
RTVSPropertyOp6
 70
     1
102
RTVSPropertyOp7
 70
     1
102
RTVSPropertyOp8
 70
     1
102
RTVSPropertyOp9
 70
     1
102
RTVSPropertyOp10
 70
     1
102
RTVSPropertyOp11
 70
     1
102
RTVSPropertyOp12
 70
     1
102
RTVSPropertyOp13
 70
     1
102
RTVSPropertyOp14
 70
     1
102
RTVSPropertyOp15
 70
     1
102
RTVSPropertyOp16
 70
     1
102
RTVSPropertyOp17
 70
     1
102
RTVSPropertyOp18
 70
     1
102
RTVSPropertyOp19
 70
     1
102
RTVSPropertyOp20
 70
     1
102
RTVSPropertyOp21
 70
     1
102
RTVSPropertyOp22
 70
     1
102
RTVSPropertyOp23
 70
     1
102
RTVSPropertyOp24
 70
     1
102
RTVSPropertyOp25
 70
     1
102
RTVSPropertyOp26
 70
     1
102
RTVSPropertyOp27
 70
     1
102
RTVSPropertyOp28
 70
     1
102
RTVSPropertyOp29
 70
     1
102
RTVSPropertyOp30
 70
     1
102
RTVSPropertyOp31
 70
     1
102
RTVSPropertyOp32
 70
     1
102
RTVSPropertyOp33
 70
     1
102
RTVSPropertyOp34
 70
     1
102
RTVSPropertyOp35
 70
     1
102
RTVSPropertyOp36
 70
     1
102
RTVSPropertyOp37
 70
     1
102
RTVSPropertyOp38
 70
     1
102
RTVSPropertyOp39
 70
     1
102
RTVSPropertyOp40
 70
     1
102
RTVSPropertyOp41
 70
     1
102
RTVSPropertyOp42
 70
     1
102
RTVSPropertyOp43
 70
     1
102
RTVSPropertyOp44
 70
     1
102
RTVSPropertyOp45
 70
     1
102
RTVSPropertyOp46
 70
     1
102
RTVSPropertyOp47
 70
     1
102
RTVSPropertyOp48
 70
     1
102
RTVSPropertyOp49
 70
     1
102
RTVSPropertyOp50
 70
     1
102
RTVSPropertyOp51
 70
     0
102
RTVSPropertyOp52
 70
     0
102
RTVSPropertyOp53
 70
     1
102
RTVSPropertyOp54
 70
     1
102
RTVSPropertyOp55
 70
     1
102
RTVSPropertyOp56
 70
     1
102
RTVSPropertyOp57
 70
     1
102
RTVSPropertyOp58
 70
     1
102
RTVSPropertyOp59
 70
     1
102
RTVSPropertyOp60
 70
     1
102
RTVSPropertyOp61
 70
     1
102
RTVSPropertyOp62
 70
     1
  0
ENDSEC
  0
EOF
