  0
SECTION
  2
HEADER
  9
$ACADVER
  1
AC1018
  9
$ACADMAINTVER
 70
   104
  9
$DWGCODEPAGE
  3
ANSI_932
  9
$INSBASE
 10
0.0
 20
0.0
 30
0.0
  9
$EXTMIN
 10
-1.75047013
 20
-1.22064724
 30
-0.00000003
  9
$EXTMAX
 10
28682.76623725
 20
20001.22083351
 30
0.00000008
  9
$LIMMIN
 10
0.0
 20
0.0
  9
$LIMMAX
 10
420.0
 20
330.0
  9
$ORTHOMODE
 70
     1
  9
$REGENMODE
 70
     1
  9
$FILLMODE
 70
     1
  9
$QTEXTMODE
 70
     0
  9
$MIRRTEXT
 70
     0
  9
$LTSCALE
 40
1.0
  9
$ATTMODE
 70
     1
  9
$TEXTSIZE
 40
0.2
  9
$TRACEWID
 40
0.05
  9
$TEXTSTYLE
  7
STANDARD
  9
$CLAYER
  8
0
  9
$CELTYPE
  6
BYLAYER
  9
$CECOLOR
 62
   256
  9
$CELTSCALE
 40
1.0
  9
$DISPSILH
 70
     1
  9
$DIMSCALE
 40
1.0
  9
$DIMASZ
 40
0.18
  9
$DIMEXO
 40
0.0625
  9
$DIMDLI
 40
0.38
  9
$DIMRND
 40
0.0
  9
$DIMDLE
 40
0.0
  9
$DIMEXE
 40
0.18
  9
$DIMTP
 40
0.0
  9
$DIMTM
 40
0.0
  9
$DIMTXT
 40
0.18
  9
$DIMCEN
 40
0.09
  9
$DIMTSZ
 40
0.0
  9
$DIMTOL
 70
     0
  9
$DIMLIM
 70
     0
  9
$DIMTIH
 70
     1
  9
$DIMTOH
 70
     1
  9
$DIMSE1
 70
     0
  9
$DIMSE2
 70
     0
  9
$DIMTAD
 70
     0
  9
$DIMZIN
 70
     0
  9
$DIMBLK
  1

  9
$DIMASO
 70
     1
  9
$DIMSHO
 70
     0
  9
$DIMPOST
  1

  9
$DIMAPOST
  1

  9
$DIMALT
 70
     0
  9
$DIMALTD
 70
     2
  9
$DIMALTF
 40
25.4
  9
$DIMLFAC
 40
1.0
  9
$DIMTOFL
 70
     0
  9
$DIMTVP
 40
0.0
  9
$DIMTIX
 70
     0
  9
$DIMSOXD
 70
     0
  9
$DIMSAH
 70
     0
  9
$DIMBLK1
  1

  9
$DIMBLK2
  1

  9
$DIMSTYLE
  2
STANDARD
  9
$DIMCLRD
 70
     0
  9
$DIMCLRE
 70
     0
  9
$DIMCLRT
 70
     0
  9
$DIMTFAC
 40
1.0
  9
$DIMGAP
 40
0.09
  9
$DIMJUST
 70
     0
  9
$DIMSD1
 70
     0
  9
$DIMSD2
 70
     0
  9
$DIMTOLJ
 70
     1
  9
$DIMTZIN
 70
     0
  9
$DIMALTZ
 70
     0
  9
$DIMALTTZ
 70
     0
  9
$DIMUPT
 70
     0
  9
$DIMDEC
 70
     4
  9
$DIMTDEC
 70
     4
  9
$DIMALTU
 70
     2
  9
$DIMALTTD
 70
     2
  9
$DIMTXSTY
  7
STANDARD
  9
$DIMAUNIT
 70
     0
  9
$DIMADEC
 70
     0
  9
$DIMALTRND
 40
0.0
  9
$DIMAZIN
 70
     0
  9
$DIMDSEP
 70
    46
  9
$DIMATFIT
 70
     3
  9
$DIMFRAC
 70
     0
  9
$DIMLDRBLK
  1

  9
$DIMLUNIT
 70
     2
  9
$DIMLWD
 70
    -2
  9
$DIMLWE
 70
    -2
  9
$DIMTMOVE
 70
     2
  9
$LUNITS
 70
     2
  9
$LUPREC
 70
     4
  9
$SKETCHINC
 40
0.1
  9
$FILLETRAD
 40
1.0
  9
$AUNITS
 70
     0
  9
$AUPREC
 70
     0
  9
$MENU
  1
c:\acadwin\support\acad
  9
$ELEVATION
 40
0.0
  9
$PELEVATION
 40
0.0
  9
$THICKNESS
 40
0.0
  9
$LIMCHECK
 70
     0
  9
$CHAMFERA
 40
0.0
  9
$CHAMFERB
 40
0.0
  9
$CHAMFERC
 40
0.0
  9
$CHAMFERD
 40
0.0
  9
$SKPOLY
 70
     0
  9
$TDCREATE
 40
2453068.801933044
  9
$TDUCREATE
 40
2453068.426933044
  9
$TDUPDATE
 40
2457185.495956841
  9
$TDUUPDATE
 40
2457185.120956840
  9
$TDINDWG
 40
0.0000987731
  9
$TDUSRTIMER
 40
0.0000987731
  9
$USRTIMER
 70
     1
  9
$ANGBASE
 50
0.0
  9
$ANGDIR
 70
     0
  9
$PDMODE
 70
     0
  9
$PDSIZE
 40
0.0
  9
$PLINEWID
 40
0.0
  9
$SPLFRAME
 70
     0
  9
$SPLINETYPE
 70
     6
  9
$SPLINESEGS
 70
     8
  9
$HANDSEED
  5
696
  9
$SURFTAB1
 70
     6
  9
$SURFTAB2
 70
     6
  9
$SURFTYPE
 70
     6
  9
$SURFU
 70
     6
  9
$SURFV
 70
     6
  9
$UCSBASE
  2

  9
$UCSNAME
  2

  9
$UCSORG
 10
0.0
 20
0.0
 30
0.0
  9
$UCSXDIR
 10
1.0
 20
0.0
 30
0.0
  9
$UCSYDIR
 10
0.0
 20
1.0
 30
0.0
  9
$UCSORTHOREF
  2

  9
$UCSORTHOVIEW
 70
     0
  9
$UCSORGTOP
 10
0.0
 20
0.0
 30
0.0
  9
$UCSORGBOTTOM
 10
0.0
 20
0.0
 30
0.0
  9
$UCSORGLEFT
 10
0.0
 20
0.0
 30
0.0
  9
$UCSORGRIGHT
 10
0.0
 20
0.0
 30
0.0
  9
$UCSORGFRONT
 10
0.0
 20
0.0
 30
0.0
  9
$UCSORGBACK
 10
0.0
 20
0.0
 30
0.0
  9
$PUCSBASE
  2

  9
$PUCSNAME
  2

  9
$PUCSORG
 10
0.0
 20
0.0
 30
0.0
  9
$PUCSXDIR
 10
1.0
 20
0.0
 30
0.0
  9
$PUCSYDIR
 10
0.0
 20
1.0
 30
0.0
  9
$PUCSORTHOREF
  2

  9
$PUCSORTHOVIEW
 70
     0
  9
$PUCSORGTOP
 10
0.0
 20
0.0
 30
0.0
  9
$PUCSORGBOTTOM
 10
0.0
 20
0.0
 30
0.0
  9
$PUCSORGLEFT
 10
0.0
 20
0.0
 30
0.0
  9
$PUCSORGRIGHT
 10
0.0
 20
0.0
 30
0.0
  9
$PUCSORGFRONT
 10
0.0
 20
0.0
 30
0.0
  9
$PUCSORGBACK
 10
0.0
 20
0.0
 30
0.0
  9
$USERI1
 70
     0
  9
$USERI2
 70
     0
  9
$USERI3
 70
     0
  9
$USERI4
 70
     0
  9
$USERI5
 70
     0
  9
$USERR1
 40
0.0
  9
$USERR2
 40
0.0
  9
$USERR3
 40
0.0
  9
$USERR4
 40
0.0
  9
$USERR5
 40
0.0
  9
$WORLDVIEW
 70
     1
  9
$SHADEDGE
 70
     3
  9
$SHADEDIF
 70
    70
  9
$TILEMODE
 70
     1
  9
$MAXACTVP
 70
    16
  9
$PINSBASE
 10
0.0
 20
0.0
 30
0.0
  9
$PLIMCHECK
 70
     0
  9
$PEXTMIN
 10
1.00000000E+20
 20
1.00000000E+20
 30
1.00000000E+20
  9
$PEXTMAX
 10
-1.00000000E+20
 20
-1.00000000E+20
 30
-1.00000000E+20
  9
$PLIMMIN
 10
0.0
 20
0.0
  9
$PLIMMAX
 10
12.0
 20
9.0
  9
$UNITMODE
 70
     0
  9
$VISRETAIN
 70
     0
  9
$PLINEGEN
 70
     0
  9
$PSLTSCALE
 70
     0
  9
$TREEDEPTH
 70
  3020
  9
$CMLSTYLE
  2
STANDARD
  9
$CMLJUST
 70
     0
  9
$CMLSCALE
 40
1.0
  9
$PROXYGRAPHICS
 70
     1
  9
$MEASUREMENT
 70
     1
  9
$CELWEIGHT
370
    -1
  9
$ENDCAPS
280
     0
  9
$JOINSTYLE
280
     0
  9
$LWDISPLAY
290
     0
  9
$INSUNITS
 70
     0
  9
$HYPERLINKBASE
  1

  9
$STYLESHEET
  1

  9
$XEDIT
290
     1
  9
$CEPSNTYPE
380
     0
  9
$PSTYLEMODE
290
     1
  9
$FINGERPRINTGUID
  2
{7049E5EC-06E2-4308-94B1-8584C236B4C1}
  9
$VERSIONGUID
  2
{87BDFE0A-092A-479E-BD1D-81EEC2A97599}
  9
$EXTNAMES
290
     1
  9
$PSVPSCALE
 40
0.0
  9
$OLESTARTUP
290
     0
  9
$SORTENTS
280
   127
  9
$INDEXCTL
280
     0
  9
$HIDETEXT
280
     0
  9
$XCLIPFRAME
290
     0
  9
$HALOGAP
280
     0
  9
$OBSCOLOR
 70
   257
  9
$OBSLTYPE
280
     0
  9
$INTERSECTIONDISPLAY
280
     0
  9
$INTERSECTIONCOLOR
 70
   257
  9
$DIMASSOC
280
     1
  9
$PROJECTNAME
  1

  0
ENDSEC
  0
SECTION
  2
CLASSES
  0
CLASS
  1
DICTIONARYVAR
  2
AcDbDictionaryVar
  3
ObjectDBX Classes
 90
        0
 91
        8
280
     0
281
     0
  0
CLASS
  1
ACDBDICTIONARYWDFLT
  2
AcDbDictionaryWithDefault
  3
ObjectDBX Classes
 90
        0
 91
        1
280
     0
281
     0
  0
CLASS
  1
MATERIAL
  2
AcDbMaterial
  3
ObjectDBX Classes
 90
     1153
 91
        3
280
     0
281
     0
  0
CLASS
  1
VISUALSTYLE
  2
AcDbVisualStyle
  3
ObjectDBX Classes
 90
     4095
 91
       24
280
     0
281
     0
  0
CLASS
  1
TABLESTYLE
  2
AcDbTableStyle
  3
ObjectDBX Classes
 90
     4095
 91
        1
280
     0
281
     0
  0
CLASS
  1
SCALE
  2
AcDbScale
  3
ObjectDBX Classes
 90
     1153
 91
       17
280
     0
281
     0
  0
CLASS
  1
MLEADERSTYLE
  2
AcDbMLeaderStyle
  3
ACDB_MLEADERSTYLE_CLASS
 90
     4095
 91
        1
280
     0
281
     0
  0
CLASS
  1
ACDBSECTIONVIEWSTYLE
  2
AcDbSectionViewStyle
  3
ObjectDBX Classes
 90
     1025
 91
        1
280
     0
281
     0
  0
CLASS
  1
ACDBDETAILVIEWSTYLE
  2
AcDbDetailViewStyle
  3
ObjectDBX Classes
 90
     1025
 91
        1
280
     0
281
     0
  0
CLASS
  1
CELLSTYLEMAP
  2
AcDbCellStyleMap
  3
ObjectDBX Classes
 90
     1152
 91
        2
280
     0
281
     0
  0
ENDSEC
  0
SECTION
  2
TABLES
  0
TABLE
  2
VPORT
  5
585
330
0
100
AcDbSymbolTable
 70
     1
  0
VPORT
  5
5B3
330
585
100
AcDbSymbolTableRecord
100
AcDbViewportTableRecord
  2
*ACTIVE
 70
     0
 10
0.0
 20
0.0
 11
1.0
 21
1.0
 12
14340.50788356
 22
10000.00009314
 13
0.0
 23
0.0
 14
1.0
 24
1.0
 15
10.0
 25
10.0
 16
0.0
 26
0.0
 36
1.0
 17
0.0
 27
0.0
 37
0.0
 40
21505.27251241
 41
1.34178905
 42
50.0
 43
0.0
 44
0.0
 50
0.0
 51
0.0
 71
     0
 72
   100
 73
     1
 74
     0
 75
     0
 76
     0
 77
     0
 78
     0
281
     0
 65
     1
110
0.0
120
0.0
130
0.0
111
1.0
121
0.0
131
0.0
112
0.0
122
1.0
132
0.0
 79
     0
146
0.0
1001
ACAD_NAV_VCDISPLAY
1070
     1
  0
ENDTAB
  0
TABLE
  2
LTYPE
  5
582
330
0
100
AcDbSymbolTable
 70
     2
  0
LTYPE
  5
58E
330
582
100
AcDbSymbolTableRecord
100
AcDbLinetypeTableRecord
  2
BYBLOCK
 70
     0
  3

 72
    65
 73
     0
 40
0.0
  0
LTYPE
  5
58F
330
582
100
AcDbSymbolTableRecord
100
AcDbLinetypeTableRecord
  2
BYLAYER
 70
     0
  3

 72
    65
 73
     0
 40
0.0
  0
LTYPE
  5
590
330
582
100
AcDbSymbolTableRecord
100
AcDbLinetypeTableRecord
  2
CONTINUOUS
 70
     0
  3
Solid line
 72
    65
 73
     0
 40
0.0
  0
LTYPE
  5
59B
330
582
100
AcDbSymbolTableRecord
100
AcDbLinetypeTableRecord
  2
CENTER
 70
     0
  3
____ _ ____ _ ____ _ ____ _ ____ _ ____ _ ____ 
 72
    65
 73
     4
 40
2.0
 49
1.25
 74
     0
 49
-0.25
 74
     0
 49
0.25
 74
     0
 49
-0.25
 74
     0
  0
ENDTAB
  0
TABLE
  2
LAYER
  5
57F
330
0
100
AcDbSymbolTable
 70
    11
  0
LAYER
  5
58B
330
57F
100
AcDbSymbolTableRecord
100
AcDbLayerTableRecord
  2
0
 70
     0
 62
     7
  6
CONTINUOUS
370
    -3
390
5B6
  0
LAYER
  5
59F
330
57F
100
AcDbSymbolTableRecord
100
AcDbLayerTableRecord
  2
YKK_IN
 70
     0
 62
     1
  6
CONTINUOUS
370
    -3
390
5B6
  0
LAYER
  5
5A0
330
57F
100
AcDbSymbolTableRecord
100
AcDbLayerTableRecord
  2
YKK_F1
 70
     0
 62
     7
  6
CONTINUOUS
370
    -3
390
5B6
  0
LAYER
  5
5A1
330
57F
100
AcDbSymbolTableRecord
100
AcDbLayerTableRecord
  2
YKK_N1
 70
     0
 62
     2
  6
CONTINUOUS
370
    -3
390
5B6
  0
LAYER
  5
5A2
330
57F
100
AcDbSymbolTableRecord
100
AcDbLayerTableRecord
  2
YKK_Z1
 70
     0
 62
     7
  6
CONTINUOUS
370
    -3
390
5B6
  0
LAYER
  5
5A3
330
57F
100
AcDbSymbolTableRecord
100
AcDbLayerTableRecord
  2
YKK_A1
 70
     0
 62
     4
  6
CONTINUOUS
370
    -3
390
5B6
  0
LAYER
  5
5A4
330
57F
100
AcDbSymbolTableRecord
100
AcDbLayerTableRecord
  2
YKK_A2
 70
     0
 62
     3
  6
CONTINUOUS
370
    -3
390
5B6
  0
LAYER
  5
5A5
330
57F
100
AcDbSymbolTableRecord
100
AcDbLayerTableRecord
  2
YKK_B1
 70
     0
 62
     4
  6
CONTINUOUS
370
    -3
390
5B6
  0
LAYER
  5
5A6
330
57F
100
AcDbSymbolTableRecord
100
AcDbLayerTableRecord
  2
YKK_C1
 70
     0
 62
     4
  6
CONTINUOUS
370
    -3
390
5B6
  0
LAYER
  5
5A7
330
57F
100
AcDbSymbolTableRecord
100
AcDbLayerTableRecord
  2
YKK_B2
 70
     0
 62
     5
  6
CONTINUOUS
370
    -3
390
5B6
  0
LAYER
  5
5A8
330
57F
100
AcDbSymbolTableRecord
100
AcDbLayerTableRecord
  2
YKK_C2
 70
     0
 62
     5
  6
CONTINUOUS
370
    -3
390
5B6
  0
ENDTAB
  0
TABLE
  2
STYLE
  5
580
330
0
100
AcDbSymbolTable
 70
     3
  0
STYLE
  5
58C
330
580
100
AcDbSymbolTableRecord
100
AcDbTextStyleTableRecord
  2
STANDARD
 70
     0
 40
0.0
 41
1.0
 50
0.0
 71
     0
 42
0.2
  3
txt
  4

  0
STYLE
  5
599
330
580
100
AcDbSymbolTableRecord
100
AcDbTextStyleTableRecord
  2
EXTFONT
 70
     0
 40
60.0
 41
1.0
 50
0.0
 71
     0
 42
60.0
  3
txt.shx
  4
EXTFONT
  0
STYLE
  5
59A
330
580
100
AcDbSymbolTableRecord
100
AcDbTextStyleTableRecord
  2
YKK_SGSTYLE1
 70
     0
 40
0.0
 41
0.8
 50
0.0
 71
     0
 42
60.0
  3
ROMANS.SHX
  4
EXTFONT.SHX
  0
ENDTAB
  0
TABLE
  2
VIEW
  5
583
330
0
100
AcDbSymbolTable
 70
     0
  0
ENDTAB
  0
TABLE
  2
UCS
  5
584
330
0
100
AcDbSymbolTable
 70
     0
  0
ENDTAB
  0
TABLE
  2
APPID
  5
586
330
0
100
AcDbSymbolTable
 70
     5
  0
APPID
  5
58D
330
586
100
AcDbSymbolTableRecord
100
AcDbRegAppTableRecord
  2
ACAD
 70
     0
  0
APPID
  5
642
330
586
100
AcDbSymbolTableRecord
100
AcDbRegAppTableRecord
  2
ACAD_MLEADERVER
 70
     0
  0
APPID
  5
656
330
586
100
AcDbSymbolTableRecord
100
AcDbRegAppTableRecord
  2
ACAD_PSEXT
 70
     0
  0
APPID
  5
657
330
586
100
AcDbSymbolTableRecord
100
AcDbRegAppTableRecord
  2
ACAD_NAV_VCDISPLAY
 70
     0
  0
APPID
  5
658
330
586
100
AcDbSymbolTableRecord
100
AcDbRegAppTableRecord
  2
YKK_AP_LOCKLAYER
 70
     0
  0
ENDTAB
  0
TABLE
  2
DIMSTYLE
  5
587
330
0
100
AcDbSymbolTable
 70
     1
100
AcDbDimStyleTable
 71
     0
  0
DIMSTYLE
105
59E
330
587
100
AcDbSymbolTableRecord
100
AcDbDimStyleTableRecord
  2
STANDARD
 70
     0
279
     2
340
58C
  0
ENDTAB
  0
TABLE
  2
BLOCK_RECORD
  5
57E
330
0
100
AcDbSymbolTable
 70
     0
  0
BLOCK_RECORD
  5
594
330
57E
100
AcDbSymbolTableRecord
100
AcDbBlockTableRecord
  2
*MODEL_SPACE
340
609
  0
BLOCK_RECORD
  5
591
330
57E
100
AcDbSymbolTableRecord
100
AcDbBlockTableRecord
  2
*PAPER_SPACE
340
60A
  0
ENDTAB
  0
ENDSEC
  0
SECTION
  2
BLOCKS
  0
BLOCK
  5
5AB
330
594
100
AcDbEntity
  8
0
100
AcDbBlockBegin
  2
*MODEL_SPACE
 70
     0
 10
0.0
 20
0.0
 30
0.0
  3
*MODEL_SPACE
  1

  0
ENDBLK
  5
5AC
330
594
100
AcDbEntity
  8
0
100
AcDbBlockEnd
  0
BLOCK
  5
5A9
330
591
100
AcDbEntity
 67
     1
  8
0
100
AcDbBlockBegin
  2
*PAPER_SPACE
 70
     0
 10
0.0
 20
0.0
 30
0.0
  3
*PAPER_SPACE
  1

  0
ENDBLK
  5
5AA
330
591
100
AcDbEntity
 67
     1
  8
0
100
AcDbBlockEnd
  0
ENDSEC
  0
SECTION
  2
ENTITIES
  0
LINE
  5
1D
330
594
100
AcDbEntity
  8
YKK_F1
100
AcDbLine
 10
0.0
 20
5600.0
 30
0.0
 11
28500.0
 21
5600.0
 31
0.0
  0
LINE
  5
1F
330
594
100
AcDbEntity
  8
YKK_F1
100
AcDbLine
 10
0.0
 20
6050.0
 30
0.0
 11
28500.0
 21
6050.0
 31
0.0
  0
LINE
  5
20
330
594
100
AcDbEntity
  8
YKK_F1
100
AcDbLine
 10
0.0
 20
12100.0
 30
0.0
 11
28500.0
 21
12100.0
 31
0.0
  0
LINE
  5
21
330
594
100
AcDbEntity
  8
YKK_F1
100
AcDbLine
 10
0.0
 20
12550.0
 30
0.0
 11
28500.0
 21
12550.0
 31
0.0
  0
LINE
  5
22
330
594
100
AcDbEntity
  8
YKK_F1
100
AcDbLine
 10
0.0
 20
6500.0
 30
0.0
 11
28500.0
 21
6500.0
 31
0.0
  0
LINE
  5
23
330
594
100
AcDbEntity
  8
YKK_F1
100
AcDbLine
 10
0.0
 20
13000.0
 30
0.0
 11
28500.0
 21
13000.0
 31
0.0
  0
LINE
  5
24
330
594
100
AcDbEntity
  8
YKK_F1
100
AcDbLine
 10
0.0
 20
18600.0
 30
0.0
 11
28500.0
 21
18600.0
 31
0.0
  0
LINE
  5
25
330
594
100
AcDbEntity
  8
YKK_F1
100
AcDbLine
 10
0.0
 20
19050.0
 30
0.0
 11
28500.0
 21
19050.0
 31
0.0
  0
LINE
  5
26
330
594
100
AcDbEntity
  8
YKK_F1
100
AcDbLine
 10
0.0
 20
0.0
 30
0.0
 11
28681.0155
 21
0.0
 31
0.0
  0
LINE
  5
27
330
594
100
AcDbEntity
  8
YKK_F1
100
AcDbLine
 10
0.0
 20
20000.0
 30
0.0
 11
28681.0155
 21
20000.0
 31
0.0
  0
LINE
  5
28
330
594
100
AcDbEntity
  8
YKK_F1
100
AcDbLine
 10
0.0
 20
19500.0
 30
0.0
 11
28500.0
 21
19500.0
 31
0.0
  0
LINE
  5
29
330
594
100
AcDbEntity
  8
YKK_F1
100
AcDbLine
 10
5700.0
 20
0.0
 30
0.0
 11
5700.0
 21
19500.0
 31
0.0
  0
LINE
  5
2A
330
594
100
AcDbEntity
  8
YKK_F1
100
AcDbLine
 10
11400.0
 20
0.0
 30
0.0
 11
11400.0
 21
19500.0
 31
0.0
  0
LINE
  5
2B
330
594
100
AcDbEntity
  8
YKK_F1
100
AcDbLine
 10
0.0
 20
0.0
 30
0.0
 11
0.0
 21
20000.0
 31
0.0
  0
POINT
  5
2C
330
594
100
AcDbEntity
  8
YKK_IN
100
AcDbPoint
 10
0.0
 20
0.0
 30
0.0
  0
POINT
  5
2E
330
594
100
AcDbEntity
  8
YKK_F1
100
AcDbPoint
 10
0.0
 20
0.0
 30
0.0
  0
POINT
  5
2F
330
594
100
AcDbEntity
  8
YKK_N1
100
AcDbPoint
 10
0.0
 20
0.0
 30
0.0
  0
POINT
  5
31
330
594
100
AcDbEntity
  8
YKK_Z1
100
AcDbPoint
 10
0.0
 20
0.0
 30
0.0
  0
POINT
  5
33
330
594
100
AcDbEntity
  8
YKK_A1
100
AcDbPoint
 10
0.0
 20
0.0
 30
0.0
  0
POINT
  5
35
330
594
100
AcDbEntity
  8
YKK_A2
100
AcDbPoint
 10
0.0
 20
0.0
 30
0.0
  0
POINT
  5
37
330
594
100
AcDbEntity
  8
YKK_B1
100
AcDbPoint
 10
0.0
 20
0.0
 30
0.0
  0
POINT
  5
39
330
594
100
AcDbEntity
  8
YKK_C1
100
AcDbPoint
 10
0.0
 20
0.0
 30
0.0
  0
POINT
  5
3B
330
594
100
AcDbEntity
  8
YKK_B2
100
AcDbPoint
 10
0.0
 20
0.0
 30
0.0
  0
POINT
  5
3D
330
594
100
AcDbEntity
  8
YKK_C2
100
AcDbPoint
 10
0.0
 20
0.0
 30
0.0
  0
LINE
  5
3F
330
594
100
AcDbEntity
  8
YKK_Z1
  6
CENTER
100
AcDbLine
 10
2907.5
 20
15615.6907475
 30
0.0
 11
3607.5
 21
15615.6907475
 31
0.0
  0
TEXT
  5
41
330
594
100
AcDbEntity
  8
0
100
AcDbText
 10
500.0
 20
19625.0
 30
0.0
 40
250.0
  1
ＦＲＳ５ＦＸ０１　ＳＹＳＴＥＭＡ５１０ｅ　ＲＣ枠　はめ殺し窓
  7
EXTFONT
100
AcDbText
  0
TEXT
  5
43
330
594
100
AcDbEntity
  8
0
100
AcDbText
 10
100.0
 20
19187.5
 30
0.0
 40
200.0
  1
はめ殺し窓（巾木）　一般タイプ
  7
EXTFONT
100
AcDbText
  0
LINE
  5
44
330
594
100
AcDbEntity
  8
YKK_N1
  6
ByBlock
100
AcDbLine
 10
3207.5
 20
15616.6907475
 30
0.0
 11
3207.5
 21
18014.6907475
 31
0.0
  0
LINE
  5
45
330
594
100
AcDbEntity
  8
YKK_N1
  6
ByBlock
100
AcDbLine
 10
3007.5
 20
15635.6907475
 30
0.0
 11
3007.5
 21
17495.6907475
 31
0.0
  0
LINE
  5
46
330
594
100
AcDbEntity
  8
YKK_A1
100
AcDbLine
 10
1789.5
 20
15615.6907475
 30
0.0
 11
1789.5
 21
17515.6907475
 31
0.0
  0
LINE
  5
47
330
594
100
AcDbEntity
  8
YKK_A1
100
AcDbLine
 10
1789.5
 20
15740.6907475
 30
0.0
 11
1789.5
 21
17515.6907475
 31
0.0
  0
LINE
  5
48
330
594
100
AcDbEntity
  8
YKK_A1
100
AcDbLine
 10
2607.5
 20
15615.6907475
 30
0.0
 11
2607.5
 21
17515.6907475
 31
0.0
  0
LINE
  5
49
330
594
100
AcDbEntity
  8
YKK_A1
100
AcDbLine
 10
1825.5
 20
17515.6907475
 30
0.0
 11
1825.5
 21
15615.6907475
 31
0.0
  0
LINE
  5
4A
330
594
100
AcDbEntity
  8
YKK_A1
100
AcDbLine
 10
2607.5
 20
15740.6907475
 30
0.0
 11
2607.5
 21
17515.6907475
 31
0.0
  0
LINE
  5
4B
330
594
100
AcDbEntity
  8
YKK_A1
100
AcDbLine
 10
1825.5
 20
17515.6907475
 30
0.0
 11
1825.5
 21
15740.6907475
 31
0.0
  0
LINE
  5
4C
330
594
100
AcDbEntity
  8
YKK_A1
100
AcDbLine
 10
1789.5
 20
18030.6907475
 30
0.0
 11
1789.5
 21
15615.6907475
 31
0.0
  0
LINE
  5
4D
330
594
100
AcDbEntity
  8
YKK_A1
100
AcDbLine
 10
1825.5
 20
15615.6907475
 30
0.0
 11
1825.5
 21
18030.6907475
 31
0.0
  0
LINE
  5
4E
330
594
100
AcDbEntity
  8
YKK_A1
100
AcDbLine
 10
1789.5
 20
18030.6907475
 30
0.0
 11
1789.5
 21
15615.6907475
 31
0.0
  0
LINE
  5
4F
330
594
100
AcDbEntity
  8
YKK_A1
100
AcDbLine
 10
2622.5
 20
15615.6907475
 30
0.0
 11
2622.5
 21
18030.6907475
 31
0.0
  0
LINE
  5
50
330
594
100
AcDbEntity
  8
YKK_A1
100
AcDbLine
 10
1825.5
 20
18030.6907475
 30
0.0
 11
1825.5
 21
15615.6907475
 31
0.0
  0
LINE
  5
51
330
594
100
AcDbEntity
  8
YKK_A1
100
AcDbLine
 10
1007.5
 20
17515.6907475
 30
0.0
 11
1007.5
 21
15615.6907475
 31
0.0
  0
LINE
  5
52
330
594
100
AcDbEntity
  8
YKK_A1
100
AcDbLine
 10
1007.5
 20
17515.6907475
 30
0.0
 11
1007.5
 21
15740.6907475
 31
0.0
  0
LINE
  5
53
330
594
100
AcDbEntity
  8
YKK_A1
100
AcDbLine
 10
992.5
 20
15615.6907475
 30
0.0
 11
992.5
 21
18030.6907475
 31
0.0
  0
TEXT
  5
54
330
594
100
AcDbEntity
  8
YKK_N1
100
AcDbText
 10
1660.07142857
 20
13382.5
 30
0.0
 40
60.0
  1
W=1600
 41
0.8
  7
YKK_SGSTYLE1
100
AcDbText
  0
LINE
  5
56
330
594
100
AcDbEntity
  8
YKK_N1
  6
ByBlock
100
AcDbLine
 10
1008.5
 20
13372.5
 30
0.0
 11
2606.5
 21
13372.5
 31
0.0
  0
LINE
  5
57
330
594
100
AcDbEntity
  8
YKK_N1
  6
ByBlock
100
AcDbLine
 10
1845.5
 20
13572.5
 30
0.0
 11
2587.5
 21
13572.5
 31
0.0
  0
LINE
  5
58
330
594
100
AcDbEntity
  8
YKK_B1
100
AcDbLine
 10
1825.5
 20
14049.5
 30
0.0
 11
2607.5
 21
14049.5
 31
0.0
  0
LINE
  5
59
330
594
100
AcDbEntity
  8
YKK_B1
100
AcDbLine
 10
1845.5
 20
13972.5
 30
0.0
 11
2587.5
 21
13972.5
 31
0.0
  0
LINE
  5
5A
330
594
100
AcDbEntity
  8
YKK_B1
100
AcDbLine
 10
1845.5
 20
14072.5
 30
0.0
 11
2587.5
 21
14072.5
 31
0.0
  0
LINE
  5
5B
330
594
100
AcDbEntity
  8
YKK_N1
  6
ByBlock
100
AcDbLine
 10
1789.5
 20
13912.5
 30
0.0
 11
1789.5
 21
13542.5
 31
0.0
  0
LINE
  5
5C
330
594
100
AcDbEntity
  8
YKK_N1
  6
ByBlock
100
AcDbLine
 10
1007.5
 20
13912.5
 30
0.0
 11
1007.5
 21
13542.5
 31
0.0
  0
LINE
  5
5D
330
594
100
AcDbEntity
  8
YKK_N1
  6
ByBlock
100
AcDbLine
 10
1825.5
 20
13912.5
 30
0.0
 11
1825.5
 21
13542.5
 31
0.0
  0
LINE
  5
5E
330
594
100
AcDbEntity
  8
YKK_N1
  6
ByBlock
100
AcDbLine
 10
1789.5
 20
13912.5
 30
0.0
 11
1789.5
 21
13542.5
 31
0.0
  0
LINE
  5
5F
330
594
100
AcDbEntity
  8
YKK_N1
  6
ByBlock
100
AcDbLine
 10
1007.5
 20
13912.5
 30
0.0
 11
1007.5
 21
13342.5
 31
0.0
  0
LINE
  5
60
330
594
100
AcDbEntity
  8
YKK_N1
  6
ByBlock
100
AcDbLine
 10
1825.5
 20
13912.5
 30
0.0
 11
1825.5
 21
13542.5
 31
0.0
  0
LINE
  5
61
330
594
100
AcDbEntity
  8
YKK_Z1
  6
Continuous
100
AcDbLine
 10
997.5
 20
13972.5
 30
0.0
 11
997.5
 21
13772.5
 31
0.0
  0
LINE
  5
62
330
594
100
AcDbEntity
  8
YKK_Z1
  6
Continuous
100
AcDbLine
 10
985.0
 20
13772.5
 30
0.0
 11
985.0
 21
13972.5
 31
0.0
  0
LINE
  5
63
330
594
100
AcDbEntity
  8
YKK_N1
  6
ByBlock
100
AcDbLine
 10
1027.5
 20
13572.5
 30
0.0
 11
1769.5
 21
13572.5
 31
0.0
  0
LINE
  5
64
330
594
100
AcDbEntity
  8
YKK_N1
  6
ByBlock
100
AcDbLine
 10
1094.10254038
 20
13422.5
 30
0.0
 11
1007.5
 21
13372.5
 31
0.0
  0
LINE
  5
65
330
594
100
AcDbEntity
  8
YKK_N1
  6
ByBlock
100
AcDbLine
 10
1094.10254038
 20
13322.5
 30
0.0
 11
1094.10254038
 21
13422.5
 31
0.0
  0
LINE
  5
66
330
594
100
AcDbEntity
  8
YKK_N1
  6
ByBlock
100
AcDbLine
 10
1007.5
 20
13372.5
 30
0.0
 11
1094.10254038
 21
13322.5
 31
0.0
  0
LINE
  5
67
330
594
100
AcDbEntity
  8
YKK_N1
  6
ByBlock
100
AcDbLine
 10
1007.5
 20
13372.5
 30
0.0
 11
1107.5
 21
13372.5
 31
0.0
  0
LINE
  5
68
330
594
100
AcDbEntity
  8
YKK_N1
100
AcDbLine
 10
1007.5
 20
13572.5
 30
0.0
 11
1027.5
 21
13572.5
 31
0.0
  0
CIRCLE
  5
69
330
594
100
AcDbEntity
  8
YKK_N1
100
AcDbCircle
 10
1007.5
 20
13572.5
 30
0.0
 40
6.5
  0
CIRCLE
  5
6A
330
594
100
AcDbEntity
  8
YKK_N1
100
AcDbCircle
 10
1007.5
 20
13572.5
 30
0.0
 40
10.0
  0
TEXT
  5
6B
330
594
100
AcDbEntity
  8
YKK_N1
100
AcDbText
 10
1761.78571429
 20
13475.0
 30
0.0
 40
60.0
  1
36
 41
0.8
  7
YKK_SGSTYLE1
100
AcDbText
  0
TEXT
  5
6C
330
594
100
AcDbEntity
  8
YKK_N1
100
AcDbText
 10
1329.92857143
 20
13582.5
 30
0.0
 40
60.0
  1
782
 41
0.8
  7
YKK_SGSTYLE1
100
AcDbText
  0
LINE
  5
6D
330
594
100
AcDbEntity
  8
YKK_N1
100
AcDbLine
 10
1825.5
 20
13572.5
 30
0.0
 11
1845.5
 21
13572.5
 31
0.0
  0
CIRCLE
  5
6E
330
594
100
AcDbEntity
  8
YKK_N1
100
AcDbCircle
 10
1825.5
 20
13572.5
 30
0.0
 40
6.5
  0
CIRCLE
  5
6F
330
594
100
AcDbEntity
  8
YKK_N1
100
AcDbCircle
 10
1825.5
 20
13572.5
 30
0.0
 40
10.0
  0
LINE
  5
70
330
594
100
AcDbEntity
  8
YKK_N1
100
AcDbLine
 10
1789.5
 20
13572.5
 30
0.0
 11
1769.5
 21
13572.5
 31
0.0
  0
CIRCLE
  5
71
330
594
100
AcDbEntity
  8
YKK_N1
100
AcDbCircle
 10
1789.5
 20
13572.5
 30
0.0
 40
6.5
  0
CIRCLE
  5
72
330
594
100
AcDbEntity
  8
YKK_N1
100
AcDbCircle
 10
1789.5
 20
13572.5
 30
0.0
 40
10.0
  0
LINE
  5
73
330
594
100
AcDbEntity
  8
YKK_N1
100
AcDbLine
 10
1825.5
 20
13572.5
 30
0.0
 11
1845.5
 21
13572.5
 31
0.0
  0
CIRCLE
  5
74
330
594
100
AcDbEntity
  8
YKK_N1
100
AcDbCircle
 10
1825.5
 20
13572.5
 30
0.0
 40
6.5
  0
CIRCLE
  5
75
330
594
100
AcDbEntity
  8
YKK_N1
100
AcDbCircle
 10
1825.5
 20
13572.5
 30
0.0
 40
10.0
  0
LINE
  5
76
330
594
100
AcDbEntity
  8
YKK_N1
100
AcDbLine
 10
1789.5
 20
13572.5
 30
0.0
 11
1769.5
 21
13572.5
 31
0.0
  0
CIRCLE
  5
77
330
594
100
AcDbEntity
  8
YKK_N1
100
AcDbCircle
 10
1789.5
 20
13572.5
 30
0.0
 40
6.5
  0
CIRCLE
  5
78
330
594
100
AcDbEntity
  8
YKK_N1
100
AcDbCircle
 10
1789.5
 20
13572.5
 30
0.0
 40
10.0
  0
POINT
  5
79
330
594
100
AcDbEntity
  8
YKK_N1
  6
ByBlock
100
AcDbPoint
 10
1789.5
 20
13572.5
 30
0.0
  0
POINT
  5
7A
330
594
100
AcDbEntity
  8
YKK_N1
  6
ByBlock
100
AcDbPoint
 10
1825.5
 20
13572.5
 30
0.0
  0
LINE
  5
7B
330
594
100
AcDbEntity
  8
YKK_N1
  6
ByBlock
100
AcDbLine
 10
1789.5
 20
13572.5
 30
0.0
 11
1825.5
 21
13572.5
 31
0.0
  0
LINE
  5
7C
330
594
100
AcDbEntity
  8
YKK_N1
  6
ByBlock
100
AcDbLine
 10
1789.5
 20
13572.5
 30
0.0
 11
1825.5
 21
13572.5
 31
0.0
  0
LINE
  5
7D
330
594
100
AcDbEntity
  8
YKK_N1
  6
ByBlock
100
AcDbLine
 10
1845.5
 20
13572.5
 30
0.0
 11
1865.5
 21
13572.5
 31
0.0
  0
LINE
  5
7E
330
594
100
AcDbEntity
  8
YKK_N1
  6
ByBlock
100
AcDbLine
 10
1769.5
 20
13572.5
 30
0.0
 11
1749.5
 21
13572.5
 31
0.0
  0
LINE
  5
7F
330
594
100
AcDbEntity
  8
YKK_N1
  6
ByBlock
100
AcDbLine
 10
1181.5
 20
14072.5
 30
0.0
 11
1201.5
 21
14072.5
 31
0.0
  0
LINE
  5
80
330
594
100
AcDbEntity
  8
YKK_N1
  6
ByBlock
100
AcDbLine
 10
1181.5
 20
13972.5
 30
0.0
 11
1201.5
 21
13972.5
 31
0.0
  0
LINE
  5
81
330
594
100
AcDbEntity
  8
YKK_B1
100
AcDbLine
 10
1007.5
 20
14049.5
 30
0.0
 11
1789.5
 21
14049.5
 31
0.0
  0
LINE
  5
82
330
594
100
AcDbEntity
  8
YKK_B1
100
AcDbLine
 10
1027.5
 20
13972.5
 30
0.0
 11
1769.5
 21
13972.5
 31
0.0
  0
LINE
  5
83
330
594
100
AcDbEntity
  8
YKK_B1
100
AcDbLine
 10
1027.5
 20
14072.5
 30
0.0
 11
1769.5
 21
14072.5
 31
0.0
  0
LINE
  5
84
330
594
100
AcDbEntity
  8
YKK_Z1
  6
Continuous
100
AcDbLine
 10
867.49998614
 20
13922.5
 30
0.0
 11
847.49998268
 21
13942.5
 31
0.0
  0
LINE
  5
85
330
594
100
AcDbEntity
  8
YKK_Z1
  6
Continuous
100
AcDbLine
 10
867.50004157
 20
13942.5
 30
0.0
 11
847.50005196
 21
13922.5
 31
0.0
  0
LINE
  5
86
330
594
100
AcDbEntity
  8
YKK_Z1
  6
Continuous
100
AcDbLine
 10
607.5
 20
13942.5
 30
0.0
 11
947.5
 21
13942.5
 31
0.0
  0
LINE
  5
87
330
594
100
AcDbEntity
  8
YKK_Z1
  6
Continuous
100
AcDbLine
 10
977.5
 20
14122.5
 30
0.0
 11
607.5
 21
14122.5
 31
0.0
  0
LINE
  5
88
330
594
100
AcDbEntity
  8
YKK_Z1
  6
CENTER
100
AcDbLine
 10
962.5
 20
14032.5
 30
0.0
 11
607.5
 21
14032.5
 31
0.0
  0
LINE
  5
89
330
594
100
AcDbEntity
  8
YKK_Z1
  6
Continuous
100
AcDbLine
 10
947.5
 20
13922.5
 30
0.0
 11
607.5
 21
13922.5
 31
0.0
  0
LINE
  5
8A
330
594
100
AcDbEntity
  8
YKK_Z1
  6
Continuous
100
AcDbLine
 10
992.5
 20
14137.5
 30
0.0
 11
607.5
 21
14137.5
 31
0.0
  0
LINE
  5
8B
330
594
100
AcDbEntity
  8
YKK_Z1
  6
Continuous
100
AcDbLine
 10
984.5
 20
14129.5
 30
0.0
 11
607.5
 21
14129.5
 31
0.0
  0
LINE
  5
8C
330
594
100
AcDbEntity
  8
YKK_Z1
  6
Continuous
100
AcDbLine
 10
782.5
 20
14137.5
 30
0.0
 11
782.5
 21
14129.5
 31
0.0
  0
LINE
  5
8D
330
594
100
AcDbEntity
  8
YKK_Z1
  6
Continuous
100
AcDbLine
 10
772.5
 20
14137.5
 30
0.0
 11
772.5
 21
14129.5
 31
0.0
  0
LINE
  5
8E
330
594
100
AcDbEntity
  8
YKK_Z1
  6
Continuous
100
AcDbLine
 10
847.49998268
 20
13922.5
 30
0.0
 11
827.49997922
 21
13942.5
 31
0.0
  0
LINE
  5
8F
330
594
100
AcDbEntity
  8
YKK_Z1
  6
Continuous
100
AcDbLine
 10
847.50005196
 20
13942.5
 30
0.0
 11
827.50006235
 21
13922.5
 31
0.0
  0
LINE
  5
90
330
594
100
AcDbEntity
  8
YKK_Z1
  6
Continuous
100
AcDbLine
 10
807.49997575
 20
13922.5
 30
0.0
 11
787.49997229
 21
13942.5
 31
0.0
  0
LINE
  5
91
330
594
100
AcDbEntity
  8
YKK_Z1
  6
Continuous
100
AcDbLine
 10
787.49997229
 20
13922.5
 30
0.0
 11
767.49996882
 21
13942.5
 31
0.0
  0
LINE
  5
92
330
594
100
AcDbEntity
  8
YKK_Z1
  6
Continuous
100
AcDbLine
 10
767.49996882
 20
13922.5
 30
0.0
 11
747.49996536
 21
13942.5
 31
0.0
  0
LINE
  5
93
330
594
100
AcDbEntity
  8
YKK_Z1
  6
Continuous
100
AcDbLine
 10
747.49996536
 20
13922.5
 30
0.0
 11
727.49996189
 21
13942.5
 31
0.0
  0
LINE
  5
94
330
594
100
AcDbEntity
  8
YKK_Z1
  6
Continuous
100
AcDbLine
 10
727.49996189
 20
13922.5
 30
0.0
 11
707.49995843
 21
13942.5
 31
0.0
  0
LINE
  5
95
330
594
100
AcDbEntity
  8
YKK_Z1
  6
Continuous
100
AcDbLine
 10
807.50007275
 20
13942.5
 30
0.0
 11
787.50008314
 21
13922.5
 31
0.0
  0
LINE
  5
96
330
594
100
AcDbEntity
  8
YKK_Z1
  6
Continuous
100
AcDbLine
 10
787.50008314
 20
13942.5
 30
0.0
 11
767.50009353
 21
13922.5
 31
0.0
  0
LINE
  5
97
330
594
100
AcDbEntity
  8
YKK_Z1
  6
Continuous
100
AcDbLine
 10
767.50009353
 20
13942.5
 30
0.0
 11
747.50010392
 21
13922.5
 31
0.0
  0
LINE
  5
98
330
594
100
AcDbEntity
  8
YKK_Z1
  6
Continuous
100
AcDbLine
 10
747.50010392
 20
13942.5
 30
0.0
 11
727.50011432
 21
13922.5
 31
0.0
  0
LINE
  5
99
330
594
100
AcDbEntity
  8
YKK_Z1
  6
Continuous
100
AcDbLine
 10
727.50011432
 20
13942.5
 30
0.0
 11
707.50012471
 21
13922.5
 31
0.0
  0
LINE
  5
9A
330
594
100
AcDbEntity
  8
YKK_Z1
  6
Continuous
100
AcDbLine
 10
827.49997922
 20
13922.5
 30
0.0
 11
807.49997575
 21
13942.5
 31
0.0
  0
LINE
  5
9B
330
594
100
AcDbEntity
  8
YKK_Z1
  6
Continuous
100
AcDbLine
 10
827.50006235
 20
13942.5
 30
0.0
 11
807.50007275
 21
13922.5
 31
0.0
  0
LINE
  5
9C
330
594
100
AcDbEntity
  8
YKK_Z1
  6
Continuous
100
AcDbLine
 10
672.5
 20
14137.5
 30
0.0
 11
672.5
 21
14129.5
 31
0.0
  0
LINE
  5
9D
330
594
100
AcDbEntity
  8
YKK_Z1
  6
Continuous
100
AcDbLine
 10
662.5
 20
14137.5
 30
0.0
 11
662.5
 21
14129.5
 31
0.0
  0
LINE
  5
9E
330
594
100
AcDbEntity
  8
YKK_Z1
  6
Continuous
100
AcDbLine
 10
687.49995497
 20
13922.5
 30
0.0
 11
667.4999515
 21
13942.5
 31
0.0
  0
LINE
  5
9F
330
594
100
AcDbEntity
  8
YKK_Z1
  6
Continuous
100
AcDbLine
 10
667.4999515
 20
13922.5
 30
0.0
 11
647.49994804
 21
13942.5
 31
0.0
  0
LINE
  5
A0
330
594
100
AcDbEntity
  8
YKK_Z1
  6
Continuous
100
AcDbLine
 10
647.49994804
 20
13922.5
 30
0.0
 11
627.49994457
 21
13942.5
 31
0.0
  0
LINE
  5
A1
330
594
100
AcDbEntity
  8
YKK_Z1
  6
Continuous
100
AcDbLine
 10
627.49994457
 20
13922.5
 30
0.0
 11
607.5
 21
13942.49994111
 31
0.0
  0
LINE
  5
A2
330
594
100
AcDbEntity
  8
YKK_Z1
  6
Continuous
100
AcDbLine
 10
687.5001351
 20
13942.5
 30
0.0
 11
667.50014549
 21
13922.5
 31
0.0
  0
LINE
  5
A3
330
594
100
AcDbEntity
  8
YKK_Z1
  6
Continuous
100
AcDbLine
 10
667.50014549
 20
13942.5
 30
0.0
 11
647.50015588
 21
13922.5
 31
0.0
  0
LINE
  5
A4
330
594
100
AcDbEntity
  8
YKK_Z1
  6
Continuous
100
AcDbLine
 10
647.50015588
 20
13942.5
 30
0.0
 11
627.50016628
 21
13922.5
 31
0.0
  0
LINE
  5
A5
330
594
100
AcDbEntity
  8
YKK_Z1
  6
Continuous
100
AcDbLine
 10
627.50016628
 20
13942.5
 30
0.0
 11
607.50017667
 21
13922.5
 31
0.0
  0
LINE
  5
A6
330
594
100
AcDbEntity
  8
YKK_Z1
  6
Continuous
100
AcDbLine
 10
607.50017667
 20
13942.5
 30
0.0
 11
607.5
 21
13942.49982333
 31
0.0
  0
LINE
  5
A7
330
594
100
AcDbEntity
  8
YKK_Z1
  6
Continuous
100
AcDbLine
 10
787.49990647
 20
14122.5
 30
0.0
 11
607.5
 21
13942.5
 31
0.0
  0
LINE
  5
A8
330
594
100
AcDbEntity
  8
YKK_Z1
  6
Continuous
100
AcDbLine
 10
795.98518417
 20
14122.5
 30
0.0
 11
615.9852777
 21
13942.5
 31
0.0
  0
LINE
  5
A9
330
594
100
AcDbEntity
  8
YKK_Z1
  6
Continuous
100
AcDbLine
 10
815.78416547
 20
14122.5
 30
0.0
 11
635.784259
 21
13942.5
 31
0.0
  0
LINE
  5
AA
330
594
100
AcDbEntity
  8
YKK_Z1
  6
Continuous
100
AcDbLine
 10
707.49995843
 20
13922.5
 30
0.0
 11
687.49995497
 21
13942.5
 31
0.0
  0
LINE
  5
AB
330
594
100
AcDbEntity
  8
YKK_Z1
  6
Continuous
100
AcDbLine
 10
707.50012471
 20
13942.5
 30
0.0
 11
687.5001351
 21
13922.5
 31
0.0
  0
TEXT
  5
AC
330
594
100
AcDbEntity
  8
YKK_N1
100
AcDbText
 10
1186.5
 20
13950.5
 30
0.0
 40
60.0
  1
100
 50
90.0
 41
0.8
  7
YKK_SGSTYLE1
100
AcDbText
  0
POINT
  5
AD
330
594
100
AcDbEntity
  8
YKK_N1
  6
ByBlock
100
AcDbPoint
 10
1007.5
 20
13972.5
 30
0.0
  0
POINT
  5
AE
330
594
100
AcDbEntity
  8
YKK_N1
  6
ByBlock
100
AcDbPoint
 10
1007.5
 20
13972.5
 30
0.0
  0
LINE
  5
AF
330
594
100
AcDbEntity
  8
YKK_B1
100
AcDbLine
 10
1007.5
 20
14039.0
 30
0.0
 11
983.5
 21
14039.0
 31
0.0
  0
LINE
  5
B0
330
594
100
AcDbEntity
  8
YKK_B1
100
AcDbLine
 10
983.5
 20
14039.0
 30
0.0
 11
983.5
 21
14060.0
 31
0.0
  0
LINE
  5
B1
330
594
100
AcDbEntity
  8
YKK_B1
100
AcDbLine
 10
983.5
 20
14060.0
 30
0.0
 11
1007.5
 21
14060.0
 31
0.0
  0
LINE
  5
B2
330
594
100
AcDbEntity
  8
YKK_B1
100
AcDbLine
 10
1007.5
 20
14072.5
 30
0.0
 11
977.5
 21
14072.5
 31
0.0
  0
LINE
  5
B3
330
594
100
AcDbEntity
  8
YKK_B1
100
AcDbLine
 10
977.5
 20
14072.5
 30
0.0
 11
977.5
 21
14062.5
 31
0.0
  0
LINE
  5
B4
330
594
100
AcDbEntity
  8
YKK_B1
100
AcDbLine
 10
1007.5
 20
13972.5
 30
0.0
 11
977.5
 21
13972.5
 31
0.0
  0
LINE
  5
B5
330
594
100
AcDbEntity
  8
YKK_B1
100
AcDbLine
 10
977.5
 20
13972.5
 30
0.0
 11
977.5
 21
13982.5
 31
0.0
  0
LINE
  5
B6
330
594
100
AcDbEntity
  8
YKK_B1
100
AcDbLine
 10
1007.5
 20
13972.5
 30
0.0
 11
1007.5
 21
14072.5
 31
0.0
  0
LINE
  5
B7
330
594
100
AcDbEntity
  8
YKK_Z1
  6
Continuous
100
AcDbLine
 10
947.5
 20
14077.5
 30
0.0
 11
977.5
 21
14087.5
 31
0.0
  0
LINE
  5
B8
330
594
100
AcDbEntity
  8
YKK_Z1
  6
Continuous
100
AcDbLine
 10
977.5
 20
14087.5
 30
0.0
 11
977.5
 21
14122.5
 31
0.0
  0
LINE
  5
B9
330
594
100
AcDbEntity
  8
YKK_Z1
  6
Continuous
100
AcDbLine
 10
992.5
 20
14072.5
 30
0.0
 11
984.5
 21
14072.5
 31
0.0
  0
LINE
  5
BA
330
594
100
AcDbEntity
  8
YKK_Z1
  6
Continuous
100
AcDbLine
 10
992.5
 20
14072.5
 30
0.0
 11
992.5
 21
14137.5
 31
0.0
  0
LINE
  5
BB
330
594
100
AcDbEntity
  8
YKK_Z1
  6
Continuous
100
AcDbLine
 10
984.5
 20
14072.5
 30
0.0
 11
984.5
 21
14129.5
 31
0.0
  0
LINE
  5
BC
330
594
100
AcDbEntity
  8
YKK_Z1
  6
Continuous
100
AcDbLine
 10
947.5
 20
13957.23102915
 30
0.0
 11
932.7689785
 21
13942.5
 31
0.0
  0
LINE
  5
BD
330
594
100
AcDbEntity
  8
YKK_Z1
  6
Continuous
100
AcDbLine
 10
947.5
 20
13942.5
 30
0.0
 11
947.5
 21
13922.5
 31
0.0
  0
LINE
  5
BF
330
594
100
AcDbEntity
  8
YKK_Z1
  6
Continuous
100
AcDbLine
 10
947.5
 20
13922.5
 30
0.0
 11
927.49999654
 21
13942.5
 31
0.0
  0
LINE
  5
C0
330
594
100
AcDbEntity
  8
YKK_Z1
  6
Continuous
100
AcDbLine
 10
947.5
 20
13942.5
 30
0.0
 11
927.50001039
 21
13922.5
 31
0.0
  0
LINE
  5
C1
330
594
100
AcDbEntity
  8
YKK_Z1
  6
Continuous
100
AcDbLine
 10
985.0
 20
13972.5
 30
0.0
 11
997.5
 21
13972.5
 31
0.0
  0
LINE
  5
C2
330
594
100
AcDbEntity
  8
YKK_Z1
  6
Continuous
100
AcDbLine
 10
947.5
 20
13942.5
 30
0.0
 11
947.5
 21
14077.5
 31
0.0
  0
LINE
  5
C3
330
594
100
AcDbEntity
  8
YKK_Z1
  6
Continuous
100
AcDbLine
 10
892.5
 20
14137.5
 30
0.0
 11
892.5
 21
14129.5
 31
0.0
  0
LINE
  5
C4
330
594
100
AcDbEntity
  8
YKK_Z1
  6
Continuous
100
AcDbLine
 10
882.5
 20
14137.5
 30
0.0
 11
882.5
 21
14129.5
 31
0.0
  0
LINE
  5
C5
330
594
100
AcDbEntity
  8
YKK_Z1
  6
Continuous
100
AcDbLine
 10
907.49999307
 20
13922.5
 30
0.0
 11
887.49998961
 21
13942.5
 31
0.0
  0
LINE
  5
C6
330
594
100
AcDbEntity
  8
YKK_Z1
  6
Continuous
100
AcDbLine
 10
887.49998961
 20
13922.5
 30
0.0
 11
867.49998614
 21
13942.5
 31
0.0
  0
LINE
  5
C7
330
594
100
AcDbEntity
  8
YKK_Z1
  6
Continuous
100
AcDbLine
 10
907.50002078
 20
13942.5
 30
0.0
 11
887.50003118
 21
13922.5
 31
0.0
  0
LINE
  5
C8
330
594
100
AcDbEntity
  8
YKK_Z1
  6
Continuous
100
AcDbLine
 10
887.50003118
 20
13942.5
 30
0.0
 11
867.50004157
 21
13922.5
 31
0.0
  0
LINE
  5
C9
330
594
100
AcDbEntity
  8
YKK_Z1
  6
Continuous
100
AcDbLine
 10
947.5
 20
13985.51530285
 30
0.0
 11
904.4847195
 21
13942.5
 31
0.0
  0
LINE
  5
CA
330
594
100
AcDbEntity
  8
YKK_Z1
  6
Continuous
100
AcDbLine
 10
947.5
 20
13977.03002074
 30
0.0
 11
912.9699972
 21
13942.5
 31
0.0
  0
LINE
  5
CB
330
594
100
AcDbEntity
  8
YKK_Z1
  6
Continuous
100
AcDbLine
 10
927.49999654
 20
13922.5
 30
0.0
 11
907.49999307
 21
13942.5
 31
0.0
  0
LINE
  5
CC
330
594
100
AcDbEntity
  8
YKK_Z1
  6
Continuous
100
AcDbLine
 10
927.50001039
 20
13942.5
 30
0.0
 11
907.50002078
 21
13922.5
 31
0.0
  0
LINE
  5
CD
330
594
100
AcDbEntity
  8
YKK_N1
100
AcDbLine
 10
1231.5
 20
13972.5
 30
0.0
 11
1231.5
 21
13992.5
 31
0.0
  0
CIRCLE
  5
CE
330
594
100
AcDbEntity
  8
YKK_N1
100
AcDbCircle
 10
1231.5
 20
13972.5
 30
0.0
 40
6.5
  0
CIRCLE
  5
CF
330
594
100
AcDbEntity
  8
YKK_N1
100
AcDbCircle
 10
1231.5
 20
13972.5
 30
0.0
 40
10.0
  0
LINE
  5
D0
330
594
100
AcDbEntity
  8
YKK_N1
100
AcDbLine
 10
1231.5
 20
14072.5
 30
0.0
 11
1231.5
 21
14052.5
 31
0.0
  0
CIRCLE
  5
D1
330
594
100
AcDbEntity
  8
YKK_N1
100
AcDbCircle
 10
1231.5
 20
14072.5
 30
0.0
 40
6.5
  0
CIRCLE
  5
D2
330
594
100
AcDbEntity
  8
YKK_N1
100
AcDbCircle
 10
1231.5
 20
14072.5
 30
0.0
 40
10.0
  0
POINT
  5
D3
330
594
100
AcDbEntity
  8
YKK_N1
  6
ByBlock
100
AcDbPoint
 10
1231.5
 20
14072.5
 30
0.0
  0
POINT
  5
D4
330
594
100
AcDbEntity
  8
YKK_N1
  6
ByBlock
100
AcDbPoint
 10
1241.5
 20
14072.5
 30
0.0
  0
POINT
  5
D5
330
594
100
AcDbEntity
  8
YKK_N1
  6
ByBlock
100
AcDbPoint
 10
1241.5
 20
13972.5
 30
0.0
  0
LINE
  5
D6
330
594
100
AcDbEntity
  8
YKK_N1
  6
ByBlock
100
AcDbLine
 10
1231.5
 20
13992.5
 30
0.0
 11
1231.5
 21
14052.5
 31
0.0
  0
POINT
  5
D7
330
594
100
AcDbEntity
  8
YKK_N1
  6
ByBlock
100
AcDbPoint
 10
1789.5
 20
13972.5
 30
0.0
  0
POINT
  5
D8
330
594
100
AcDbEntity
  8
YKK_N1
  6
ByBlock
100
AcDbPoint
 10
1825.5
 20
13972.5
 30
0.0
  0
POINT
  5
D9
330
594
100
AcDbEntity
  8
YKK_N1
  6
ByBlock
100
AcDbPoint
 10
1789.5
 20
13972.5
 30
0.0
  0
POINT
  5
DA
330
594
100
AcDbEntity
  8
YKK_N1
  6
ByBlock
100
AcDbPoint
 10
1825.5
 20
13972.5
 30
0.0
  0
LINE
  5
DB
330
594
100
AcDbEntity
  8
YKK_B1
100
AcDbLine
 10
1789.5
 20
14072.5
 30
0.0
 11
1825.5
 21
14072.5
 31
0.0
  0
LINE
  5
DC
330
594
100
AcDbEntity
  8
YKK_B1
100
AcDbLine
 10
1789.5
 20
13972.5
 30
0.0
 11
1825.5
 21
13972.5
 31
0.0
  0
LINE
  5
DD
330
594
100
AcDbEntity
  8
YKK_B1
100
AcDbLine
 10
1789.5
 20
13972.5
 30
0.0
 11
1789.5
 21
14072.5
 31
0.0
  0
LINE
  5
DE
330
594
100
AcDbEntity
  8
YKK_B1
100
AcDbLine
 10
1825.5
 20
13972.5
 30
0.0
 11
1825.5
 21
14072.5
 31
0.0
  0
LINE
  5
DF
330
594
100
AcDbEntity
  8
YKK_N1
  6
ByBlock
100
AcDbLine
 10
2607.5
 20
13912.5
 30
0.0
 11
2607.5
 21
13342.5
 31
0.0
  0
LINE
  5
E0
330
594
100
AcDbEntity
  8
YKK_N1
  6
ByBlock
100
AcDbLine
 10
2607.5
 20
13912.5
 30
0.0
 11
2607.5
 21
13542.5
 31
0.0
  0
LINE
  5
E1
330
594
100
AcDbEntity
  8
YKK_Z1
  6
Continuous
100
AcDbLine
 10
2617.5
 20
13972.5
 30
0.0
 11
2617.5
 21
13772.5
 31
0.0
  0
LINE
  5
E2
330
594
100
AcDbEntity
  8
YKK_Z1
  6
Continuous
100
AcDbLine
 10
2630.0
 20
13772.5
 30
0.0
 11
2630.0
 21
13972.5
 31
0.0
  0
LINE
  5
E3
330
594
100
AcDbEntity
  8
YKK_N1
  6
ByBlock
100
AcDbLine
 10
2520.89745962
 20
13322.5
 30
0.0
 11
2607.5
 21
13372.5
 31
0.0
  0
LINE
  5
E4
330
594
100
AcDbEntity
  8
YKK_N1
  6
ByBlock
100
AcDbLine
 10
2607.5
 20
13372.5
 30
0.0
 11
2520.89745962
 21
13422.5
 31
0.0
  0
LINE
  5
E5
330
594
100
AcDbEntity
  8
YKK_N1
  6
ByBlock
100
AcDbLine
 10
2607.5
 20
13372.5
 30
0.0
 11
2507.5
 21
13372.5
 31
0.0
  0
LINE
  5
E6
330
594
100
AcDbEntity
  8
YKK_N1
  6
ByBlock
100
AcDbLine
 10
2520.89745962
 20
13422.5
 30
0.0
 11
2520.89745962
 21
13322.5
 31
0.0
  0
TEXT
  5
E7
330
594
100
AcDbEntity
  8
YKK_N1
100
AcDbText
 10
2147.92857143
 20
13582.5
 30
0.0
 40
60.0
  1
782
 41
0.8
  7
YKK_SGSTYLE1
100
AcDbText
  0
POINT
  5
E8
330
594
100
AcDbEntity
  8
YKK_N1
  6
ByBlock
100
AcDbPoint
 10
2607.5
 20
13372.5
 30
0.0
  0
LINE
  5
E9
330
594
100
AcDbEntity
  8
YKK_N1
100
AcDbLine
 10
2607.5
 20
13572.5
 30
0.0
 11
2587.5
 21
13572.5
 31
0.0
  0
CIRCLE
  5
EA
330
594
100
AcDbEntity
  8
YKK_N1
100
AcDbCircle
 10
2607.5
 20
13572.5
 30
0.0
 40
6.5
  0
CIRCLE
  5
EB
330
594
100
AcDbEntity
  8
YKK_N1
100
AcDbCircle
 10
2607.5
 20
13572.5
 30
0.0
 40
10.0
  0
POINT
  5
EC
330
594
100
AcDbEntity
  8
YKK_N1
  6
ByBlock
100
AcDbPoint
 10
2607.5
 20
13572.5
 30
0.0
  0
LINE
  5
ED
330
594
100
AcDbEntity
  8
YKK_Z1
  6
Continuous
100
AcDbLine
 10
2927.50004503
 20
13922.5
 30
0.0
 11
2947.5000485
 21
13942.5
 31
0.0
  0
LINE
  5
EE
330
594
100
AcDbEntity
  8
YKK_Z1
  6
Continuous
100
AcDbLine
 10
2927.4998649
 20
13942.5
 30
0.0
 11
2947.49985451
 21
13922.5
 31
0.0
  0
LINE
  5
EF
330
594
100
AcDbEntity
  8
YKK_Z1
  6
Continuous
100
AcDbLine
 10
3007.5
 20
13942.5
 30
0.0
 11
2667.5
 21
13942.5
 31
0.0
  0
LINE
  5
F0
330
594
100
AcDbEntity
  8
YKK_Z1
  6
Continuous
100
AcDbLine
 10
2637.5
 20
14122.5
 30
0.0
 11
3007.5
 21
14122.5
 31
0.0
  0
LINE
  5
F1
330
594
100
AcDbEntity
  8
YKK_Z1
  6
CENTER
100
AcDbLine
 10
2652.5
 20
14032.5
 30
0.0
 11
3007.5
 21
14032.5
 31
0.0
  0
LINE
  5
F2
330
594
100
AcDbEntity
  8
YKK_Z1
  6
Continuous
100
AcDbLine
 10
2667.5
 20
13922.5
 30
0.0
 11
3007.5
 21
13922.5
 31
0.0
  0
LINE
  5
F3
330
594
100
AcDbEntity
  8
YKK_Z1
  6
Continuous
100
AcDbLine
 10
2622.5
 20
14137.5
 30
0.0
 11
3007.5
 21
14137.5
 31
0.0
  0
LINE
  5
F4
330
594
100
AcDbEntity
  8
YKK_Z1
  6
Continuous
100
AcDbLine
 10
2630.5
 20
14129.5
 30
0.0
 11
3007.5
 21
14129.5
 31
0.0
  0
POINT
  5
F5
330
594
100
AcDbEntity
  8
YKK_N1
  6
ByBlock
100
AcDbPoint
 10
2607.5
 20
13972.5
 30
0.0
  0
POINT
  5
F6
330
594
100
AcDbEntity
  8
YKK_N1
  6
ByBlock
100
AcDbPoint
 10
2607.5
 20
13972.5
 30
0.0
  0
LINE
  5
F7
330
594
100
AcDbEntity
  8
YKK_B1
100
AcDbLine
 10
2607.5
 20
14039.0
 30
0.0
 11
2631.5
 21
14039.0
 31
0.0
  0
LINE
  5
F8
330
594
100
AcDbEntity
  8
YKK_B1
100
AcDbLine
 10
2631.5
 20
14039.0
 30
0.0
 11
2631.5
 21
14060.0
 31
0.0
  0
LINE
  5
F9
330
594
100
AcDbEntity
  8
YKK_B1
100
AcDbLine
 10
2631.5
 20
14060.0
 30
0.0
 11
2607.5
 21
14060.0
 31
0.0
  0
LINE
  5
FA
330
594
100
AcDbEntity
  8
YKK_B1
100
AcDbLine
 10
2607.5
 20
14072.5
 30
0.0
 11
2637.5
 21
14072.5
 31
0.0
  0
LINE
  5
FB
330
594
100
AcDbEntity
  8
YKK_B1
100
AcDbLine
 10
2637.5
 20
14072.5
 30
0.0
 11
2637.5
 21
14062.5
 31
0.0
  0
LINE
  5
FC
330
594
100
AcDbEntity
  8
YKK_B1
100
AcDbLine
 10
2607.5
 20
13972.5
 30
0.0
 11
2637.5
 21
13972.5
 31
0.0
  0
LINE
  5
FD
330
594
100
AcDbEntity
  8
YKK_B1
100
AcDbLine
 10
2637.5
 20
13972.5
 30
0.0
 11
2637.5
 21
13982.5
 31
0.0
  0
LINE
  5
FE
330
594
100
AcDbEntity
  8
YKK_B1
100
AcDbLine
 10
2607.5
 20
13972.5
 30
0.0
 11
2607.5
 21
14072.5
 31
0.0
  0
LINE
  5
FF
330
594
100
AcDbEntity
  8
YKK_Z1
  6
Continuous
100
AcDbLine
 10
2832.5
 20
14137.5
 30
0.0
 11
2832.5
 21
14129.5
 31
0.0
  0
LINE
  5
100
330
594
100
AcDbEntity
  8
YKK_Z1
  6
Continuous
100
AcDbLine
 10
2842.5
 20
14137.5
 30
0.0
 11
2842.5
 21
14129.5
 31
0.0
  0
LINE
  5
101
330
594
100
AcDbEntity
  8
YKK_Z1
  6
Continuous
100
AcDbLine
 10
2887.50003811
 20
13922.5
 30
0.0
 11
2907.50004157
 21
13942.5
 31
0.0
  0
LINE
  5
102
330
594
100
AcDbEntity
  8
YKK_Z1
  6
Continuous
100
AcDbLine
 10
2907.50004157
 20
13922.5
 30
0.0
 11
2927.50004503
 21
13942.5
 31
0.0
  0
LINE
  5
103
330
594
100
AcDbEntity
  8
YKK_Z1
  6
Continuous
100
AcDbLine
 10
2887.49988568
 20
13942.5
 30
0.0
 11
2907.49987529
 21
13922.5
 31
0.0
  0
LINE
  5
104
330
594
100
AcDbEntity
  8
YKK_Z1
  6
Continuous
100
AcDbLine
 10
2907.49987529
 20
13942.5
 30
0.0
 11
2927.4998649
 21
13922.5
 31
0.0
  0
LINE
  5
105
330
594
100
AcDbEntity
  8
YKK_Z1
  6
Continuous
100
AcDbLine
 10
2767.50001732
 20
13922.5
 30
0.0
 11
2787.50002078
 21
13942.5
 31
0.0
  0
LINE
  5
106
330
594
100
AcDbEntity
  8
YKK_Z1
  6
Continuous
100
AcDbLine
 10
2787.50002078
 20
13922.5
 30
0.0
 11
2807.50002425
 21
13942.5
 31
0.0
  0
LINE
  5
107
330
594
100
AcDbEntity
  8
YKK_Z1
  6
Continuous
100
AcDbLine
 10
2807.50002425
 20
13922.5
 30
0.0
 11
2827.50002771
 21
13942.5
 31
0.0
  0
LINE
  5
108
330
594
100
AcDbEntity
  8
YKK_Z1
  6
Continuous
100
AcDbLine
 10
2827.50002771
 20
13922.5
 30
0.0
 11
2847.50003118
 21
13942.5
 31
0.0
  0
LINE
  5
109
330
594
100
AcDbEntity
  8
YKK_Z1
  6
Continuous
100
AcDbLine
 10
2847.50003118
 20
13922.5
 30
0.0
 11
2867.50003464
 21
13942.5
 31
0.0
  0
LINE
  5
10A
330
594
100
AcDbEntity
  8
YKK_Z1
  6
Continuous
100
AcDbLine
 10
2767.49994804
 20
13942.5
 30
0.0
 11
2787.49993765
 21
13922.5
 31
0.0
  0
LINE
  5
10B
330
594
100
AcDbEntity
  8
YKK_Z1
  6
Continuous
100
AcDbLine
 10
2787.49993765
 20
13942.5
 30
0.0
 11
2807.49992725
 21
13922.5
 31
0.0
  0
LINE
  5
10C
330
594
100
AcDbEntity
  8
YKK_Z1
  6
Continuous
100
AcDbLine
 10
2807.49992725
 20
13942.5
 30
0.0
 11
2827.49991686
 21
13922.5
 31
0.0
  0
LINE
  5
10D
330
594
100
AcDbEntity
  8
YKK_Z1
  6
Continuous
100
AcDbLine
 10
2827.49991686
 20
13942.5
 30
0.0
 11
2847.49990647
 21
13922.5
 31
0.0
  0
LINE
  5
10E
330
594
100
AcDbEntity
  8
YKK_Z1
  6
Continuous
100
AcDbLine
 10
2847.49990647
 20
13942.5
 30
0.0
 11
2867.49989608
 21
13922.5
 31
0.0
  0
LINE
  5
10F
330
594
100
AcDbEntity
  8
YKK_Z1
  6
Continuous
100
AcDbLine
 10
2867.50003464
 20
13922.5
 30
0.0
 11
2887.50003811
 21
13942.5
 31
0.0
  0
LINE
  5
110
330
594
100
AcDbEntity
  8
YKK_Z1
  6
Continuous
100
AcDbLine
 10
2867.49989608
 20
13942.5
 30
0.0
 11
2887.49988568
 21
13922.5
 31
0.0
  0
LINE
  5
111
330
594
100
AcDbEntity
  8
YKK_Z1
  6
Continuous
100
AcDbLine
 10
2722.5
 20
14137.5
 30
0.0
 11
2722.5
 21
14129.5
 31
0.0
  0
LINE
  5
112
330
594
100
AcDbEntity
  8
YKK_Z1
  6
Continuous
100
AcDbLine
 10
2732.5
 20
14137.5
 30
0.0
 11
2732.5
 21
14129.5
 31
0.0
  0
LINE
  5
113
330
594
100
AcDbEntity
  8
YKK_Z1
  6
Continuous
100
AcDbLine
 10
2637.5
 20
14087.5
 30
0.0
 11
2637.5
 21
14122.5
 31
0.0
  0
LINE
  5
114
330
594
100
AcDbEntity
  8
YKK_Z1
  6
Continuous
100
AcDbLine
 10
2622.5
 20
14072.5
 30
0.0
 11
2630.5
 21
14072.5
 31
0.0
  0
LINE
  5
115
330
594
100
AcDbEntity
  8
YKK_Z1
  6
Continuous
100
AcDbLine
 10
2622.5
 20
14072.5
 30
0.0
 11
2622.5
 21
14137.5
 31
0.0
  0
LINE
  5
116
330
594
100
AcDbEntity
  8
YKK_Z1
  6
Continuous
100
AcDbLine
 10
2630.5
 20
14072.5
 30
0.0
 11
2630.5
 21
14129.5
 31
0.0
  0
LINE
  5
117
330
594
100
AcDbEntity
  8
YKK_Z1
  6
Continuous
100
AcDbLine
 10
2667.5
 20
14077.5
 30
0.0
 11
2637.5
 21
14087.5
 31
0.0
  0
LINE
  5
118
330
594
100
AcDbEntity
  8
YKK_Z1
  6
Continuous
100
AcDbLine
 10
2667.5
 20
13942.5
 30
0.0
 11
2667.5
 21
13922.5
 31
0.0
  0
LINE
  5
11A
330
594
100
AcDbEntity
  8
YKK_Z1
  6
Continuous
100
AcDbLine
 10
2667.5
 20
13922.5
 30
0.0
 11
2687.50000346
 21
13942.5
 31
0.0
  0
LINE
  5
11B
330
594
100
AcDbEntity
  8
YKK_Z1
  6
Continuous
100
AcDbLine
 10
2687.50000346
 20
13922.5
 30
0.0
 11
2707.50000693
 21
13942.5
 31
0.0
  0
LINE
  5
11C
330
594
100
AcDbEntity
  8
YKK_Z1
  6
Continuous
100
AcDbLine
 10
2707.50000693
 20
13922.5
 30
0.0
 11
2727.50001039
 21
13942.5
 31
0.0
  0
LINE
  5
11D
330
594
100
AcDbEntity
  8
YKK_Z1
  6
Continuous
100
AcDbLine
 10
2727.50001039
 20
13922.5
 30
0.0
 11
2747.50001386
 21
13942.5
 31
0.0
  0
LINE
  5
11E
330
594
100
AcDbEntity
  8
YKK_Z1
  6
Continuous
100
AcDbLine
 10
2667.5
 20
13942.5
 30
0.0
 11
2687.49998961
 21
13922.5
 31
0.0
  0
LINE
  5
11F
330
594
100
AcDbEntity
  8
YKK_Z1
  6
Continuous
100
AcDbLine
 10
2687.49998961
 20
13942.5
 30
0.0
 11
2707.49997922
 21
13922.5
 31
0.0
  0
LINE
  5
120
330
594
100
AcDbEntity
  8
YKK_Z1
  6
Continuous
100
AcDbLine
 10
2707.49997922
 20
13942.5
 30
0.0
 11
2727.49996882
 21
13922.5
 31
0.0
  0
LINE
  5
121
330
594
100
AcDbEntity
  8
YKK_Z1
  6
Continuous
100
AcDbLine
 10
2727.49996882
 20
13942.5
 30
0.0
 11
2747.49995843
 21
13922.5
 31
0.0
  0
LINE
  5
122
330
594
100
AcDbEntity
  8
YKK_Z1
  6
Continuous
100
AcDbLine
 10
2630.0
 20
13972.5
 30
0.0
 11
2617.5
 21
13972.5
 31
0.0
  0
LINE
  5
123
330
594
100
AcDbEntity
  8
YKK_Z1
  6
Continuous
100
AcDbLine
 10
2667.5
 20
13942.5
 30
0.0
 11
2667.5
 21
14077.5
 31
0.0
  0
LINE
  5
124
330
594
100
AcDbEntity
  8
YKK_Z1
  6
Continuous
100
AcDbLine
 10
2710.51507474
 20
13942.5
 30
0.0
 11
2890.51510592
 21
14122.5
 31
0.0
  0
LINE
  5
125
330
594
100
AcDbEntity
  8
YKK_Z1
  6
Continuous
100
AcDbLine
 10
2719.00035832
 20
13942.5
 30
0.0
 11
2899.0003895
 21
14122.5
 31
0.0
  0
LINE
  5
126
330
594
100
AcDbEntity
  8
YKK_Z1
  6
Continuous
100
AcDbLine
 10
2738.79935334
 20
13942.5
 30
0.0
 11
2918.79938452
 21
14122.5
 31
0.0
  0
LINE
  5
127
330
594
100
AcDbEntity
  8
YKK_Z1
  6
Continuous
100
AcDbLine
 10
2747.50001386
 20
13922.5
 30
0.0
 11
2767.50001732
 21
13942.5
 31
0.0
  0
LINE
  5
128
330
594
100
AcDbEntity
  8
YKK_Z1
  6
Continuous
100
AcDbLine
 10
2747.49995843
 20
13942.5
 30
0.0
 11
2767.49994804
 21
13922.5
 31
0.0
  0
LINE
  5
12A
330
594
100
AcDbEntity
  8
YKK_Z1
  6
Continuous
100
AcDbLine
 10
2987.50005543
 20
13922.5
 30
0.0
 11
3007.5
 21
13942.49994111
 31
0.0
  0
LINE
  5
12B
330
594
100
AcDbEntity
  8
YKK_Z1
  6
Continuous
100
AcDbLine
 10
2987.49983372
 20
13942.5
 30
0.0
 11
3007.49982333
 21
13922.5
 31
0.0
  0
LINE
  5
12C
330
594
100
AcDbEntity
  8
YKK_Z1
  6
Continuous
100
AcDbLine
 10
3007.49982333
 20
13942.5
 30
0.0
 11
3007.5
 21
13942.49982333
 31
0.0
  0
LINE
  5
12D
330
594
100
AcDbEntity
  8
YKK_Z1
  6
Continuous
100
AcDbLine
 10
2942.5
 20
14137.5
 30
0.0
 11
2942.5
 21
14129.5
 31
0.0
  0
LINE
  5
12E
330
594
100
AcDbEntity
  8
YKK_Z1
  6
Continuous
100
AcDbLine
 10
2952.5
 20
14137.5
 30
0.0
 11
2952.5
 21
14129.5
 31
0.0
  0
LINE
  5
12F
330
594
100
AcDbEntity
  8
YKK_Z1
  6
Continuous
100
AcDbLine
 10
2947.5000485
 20
13922.5
 30
0.0
 11
2967.50005196
 21
13942.5
 31
0.0
  0
LINE
  5
130
330
594
100
AcDbEntity
  8
YKK_Z1
  6
Continuous
100
AcDbLine
 10
2947.49985451
 20
13942.5
 30
0.0
 11
2967.49984412
 21
13922.5
 31
0.0
  0
LINE
  5
131
330
594
100
AcDbEntity
  8
YKK_Z1
  6
Continuous
100
AcDbLine
 10
2967.50005196
 20
13922.5
 30
0.0
 11
2987.50005543
 21
13942.5
 31
0.0
  0
LINE
  5
132
330
594
100
AcDbEntity
  8
YKK_Z1
  6
Continuous
100
AcDbLine
 10
2967.49984412
 20
13942.5
 30
0.0
 11
2987.49983372
 21
13922.5
 31
0.0
  0
TEXT
  5
133
330
594
100
AcDbEntity
  8
YKK_N1
100
AcDbText
 10
1660.07142857
 20
15025.6907475
 30
0.0
 40
60.0
  1
W=1600
 41
0.8
  7
YKK_SGSTYLE1
100
AcDbText
  0
LINE
  5
134
330
594
100
AcDbEntity
  8
YKK_N1
  6
ByBlock
100
AcDbLine
 10
1008.5
 20
15015.6907475
 30
0.0
 11
2606.5
 21
15015.6907475
 31
0.0
  0
LINE
  5
135
330
594
100
AcDbEntity
  8
YKK_N1
  6
ByBlock
100
AcDbLine
 10
1845.5
 20
15215.6907475
 30
0.0
 11
2587.5
 21
15215.6907475
 31
0.0
  0
LINE
  5
136
330
594
100
AcDbEntity
  8
YKK_A1
100
AcDbLine
 10
1810.5
 20
15615.6907475
 30
0.0
 11
2622.5
 21
15615.6907475
 31
0.0
  0
LINE
  5
137
330
594
100
AcDbEntity
  8
YKK_A1
100
AcDbLine
 10
1825.5
 20
15615.6907475
 30
0.0
 11
2607.5
 21
15615.6907475
 31
0.0
  0
LINE
  5
138
330
594
100
AcDbEntity
  8
YKK_A1
100
AcDbLine
 10
1825.5
 20
15740.6907475
 30
0.0
 11
2607.5
 21
15740.6907475
 31
0.0
  0
LINE
  5
139
330
594
100
AcDbEntity
  8
YKK_N1
  6
ByBlock
100
AcDbLine
 10
1789.5
 20
15555.6907475
 30
0.0
 11
1789.5
 21
15185.6907475
 31
0.0
  0
LINE
  5
13A
330
594
100
AcDbEntity
  8
YKK_N1
  6
ByBlock
100
AcDbLine
 10
1007.5
 20
15555.6907475
 30
0.0
 11
1007.5
 21
15185.6907475
 31
0.0
  0
LINE
  5
13B
330
594
100
AcDbEntity
  8
YKK_N1
  6
ByBlock
100
AcDbLine
 10
1825.5
 20
15555.6907475
 30
0.0
 11
1825.5
 21
15185.6907475
 31
0.0
  0
LINE
  5
13C
330
594
100
AcDbEntity
  8
YKK_N1
  6
ByBlock
100
AcDbLine
 10
1789.5
 20
15555.6907475
 30
0.0
 11
1789.5
 21
15185.6907475
 31
0.0
  0
LINE
  5
13D
330
594
100
AcDbEntity
  8
YKK_N1
  6
ByBlock
100
AcDbLine
 10
1007.5
 20
15555.6907475
 30
0.0
 11
1007.5
 21
14985.6907475
 31
0.0
  0
LINE
  5
13E
330
594
100
AcDbEntity
  8
YKK_N1
  6
ByBlock
100
AcDbLine
 10
1825.5
 20
15555.6907475
 30
0.0
 11
1825.5
 21
15185.6907475
 31
0.0
  0
LINE
  5
13F
330
594
100
AcDbEntity
  8
YKK_N1
  6
ByBlock
100
AcDbLine
 10
1027.5
 20
15215.6907475
 30
0.0
 11
1769.5
 21
15215.6907475
 31
0.0
  0
LINE
  5
140
330
594
100
AcDbEntity
  8
YKK_N1
  6
ByBlock
100
AcDbLine
 10
1094.10254038
 20
15065.6907475
 30
0.0
 11
1007.5
 21
15015.6907475
 31
0.0
  0
LINE
  5
141
330
594
100
AcDbEntity
  8
YKK_N1
  6
ByBlock
100
AcDbLine
 10
1094.10254038
 20
14965.6907475
 30
0.0
 11
1094.10254038
 21
15065.6907475
 31
0.0
  0
LINE
  5
142
330
594
100
AcDbEntity
  8
YKK_N1
  6
ByBlock
100
AcDbLine
 10
1007.5
 20
15015.6907475
 30
0.0
 11
1094.10254038
 21
14965.6907475
 31
0.0
  0
LINE
  5
143
330
594
100
AcDbEntity
  8
YKK_N1
  6
ByBlock
100
AcDbLine
 10
1007.5
 20
15015.6907475
 30
0.0
 11
1107.5
 21
15015.6907475
 31
0.0
  0
LINE
  5
144
330
594
100
AcDbEntity
  8
YKK_N1
100
AcDbLine
 10
1007.5
 20
15215.6907475
 30
0.0
 11
1027.5
 21
15215.6907475
 31
0.0
  0
CIRCLE
  5
145
330
594
100
AcDbEntity
  8
YKK_N1
100
AcDbCircle
 10
1007.5
 20
15215.6907475
 30
0.0
 40
6.5
  0
CIRCLE
  5
146
330
594
100
AcDbEntity
  8
YKK_N1
100
AcDbCircle
 10
1007.5
 20
15215.6907475
 30
0.0
 40
10.0
  0
TEXT
  5
147
330
594
100
AcDbEntity
  8
YKK_N1
100
AcDbText
 10
1329.92857143
 20
15225.6907475
 30
0.0
 40
60.0
  1
782
 41
0.8
  7
YKK_SGSTYLE1
100
AcDbText
  0
LINE
  5
148
330
594
100
AcDbEntity
  8
YKK_N1
100
AcDbLine
 10
1825.5
 20
15215.6907475
 30
0.0
 11
1845.5
 21
15215.6907475
 31
0.0
  0
CIRCLE
  5
149
330
594
100
AcDbEntity
  8
YKK_N1
100
AcDbCircle
 10
1825.5
 20
15215.6907475
 30
0.0
 40
6.5
  0
CIRCLE
  5
14A
330
594
100
AcDbEntity
  8
YKK_N1
100
AcDbCircle
 10
1825.5
 20
15215.6907475
 30
0.0
 40
10.0
  0
TEXT
  5
14B
330
594
100
AcDbEntity
  8
YKK_N1
100
AcDbText
 10
1761.78571429
 20
15118.1907475
 30
0.0
 40
60.0
  1
36
 41
0.8
  7
YKK_SGSTYLE1
100
AcDbText
  0
LINE
  5
14C
330
594
100
AcDbEntity
  8
YKK_N1
100
AcDbLine
 10
1789.5
 20
15215.6907475
 30
0.0
 11
1769.5
 21
15215.6907475
 31
0.0
  0
CIRCLE
  5
14D
330
594
100
AcDbEntity
  8
YKK_N1
100
AcDbCircle
 10
1789.5
 20
15215.6907475
 30
0.0
 40
6.5
  0
CIRCLE
  5
14E
330
594
100
AcDbEntity
  8
YKK_N1
100
AcDbCircle
 10
1789.5
 20
15215.6907475
 30
0.0
 40
10.0
  0
LINE
  5
14F
330
594
100
AcDbEntity
  8
YKK_N1
100
AcDbLine
 10
1825.5
 20
15215.6907475
 30
0.0
 11
1845.5
 21
15215.6907475
 31
0.0
  0
CIRCLE
  5
150
330
594
100
AcDbEntity
  8
YKK_N1
100
AcDbCircle
 10
1825.5
 20
15215.6907475
 30
0.0
 40
6.5
  0
CIRCLE
  5
151
330
594
100
AcDbEntity
  8
YKK_N1
100
AcDbCircle
 10
1825.5
 20
15215.6907475
 30
0.0
 40
10.0
  0
LINE
  5
152
330
594
100
AcDbEntity
  8
YKK_N1
100
AcDbLine
 10
1789.5
 20
15215.6907475
 30
0.0
 11
1769.5
 21
15215.6907475
 31
0.0
  0
CIRCLE
  5
153
330
594
100
AcDbEntity
  8
YKK_N1
100
AcDbCircle
 10
1789.5
 20
15215.6907475
 30
0.0
 40
6.5
  0
CIRCLE
  5
154
330
594
100
AcDbEntity
  8
YKK_N1
100
AcDbCircle
 10
1789.5
 20
15215.6907475
 30
0.0
 40
10.0
  0
POINT
  5
155
330
594
100
AcDbEntity
  8
YKK_N1
  6
ByBlock
100
AcDbPoint
 10
1789.5
 20
15215.6907475
 30
0.0
  0
POINT
  5
156
330
594
100
AcDbEntity
  8
YKK_N1
  6
ByBlock
100
AcDbPoint
 10
1825.5
 20
15215.6907475
 30
0.0
  0
LINE
  5
157
330
594
100
AcDbEntity
  8
YKK_N1
  6
ByBlock
100
AcDbLine
 10
1789.5
 20
15215.6907475
 30
0.0
 11
1825.5
 21
15215.6907475
 31
0.0
  0
LINE
  5
158
330
594
100
AcDbEntity
  8
YKK_N1
  6
ByBlock
100
AcDbLine
 10
1789.5
 20
15215.6907475
 30
0.0
 11
1825.5
 21
15215.6907475
 31
0.0
  0
LINE
  5
159
330
594
100
AcDbEntity
  8
YKK_N1
  6
ByBlock
100
AcDbLine
 10
1845.5
 20
15215.6907475
 30
0.0
 11
1865.5
 21
15215.6907475
 31
0.0
  0
LINE
  5
15A
330
594
100
AcDbEntity
  8
YKK_N1
  6
ByBlock
100
AcDbLine
 10
1769.5
 20
15215.6907475
 30
0.0
 11
1749.5
 21
15215.6907475
 31
0.0
  0
LINE
  5
15B
330
594
100
AcDbEntity
  8
YKK_A1
100
AcDbLine
 10
992.5
 20
15615.6907475
 30
0.0
 11
1804.5
 21
15615.6907475
 31
0.0
  0
LINE
  5
15C
330
594
100
AcDbEntity
  8
YKK_A1
100
AcDbLine
 10
1007.5
 20
15615.6907475
 30
0.0
 11
1789.5
 21
15615.6907475
 31
0.0
  0
LINE
  5
15D
330
594
100
AcDbEntity
  8
YKK_A1
100
AcDbLine
 10
1007.5
 20
15740.6907475
 30
0.0
 11
1789.5
 21
15740.6907475
 31
0.0
  0
POINT
  5
15E
330
594
100
AcDbEntity
  8
YKK_N1
  6
ByBlock
100
AcDbPoint
 10
1007.5
 20
15615.6907475
 30
0.0
  0
POINT
  5
15F
330
594
100
AcDbEntity
  8
YKK_N1
  6
ByBlock
100
AcDbPoint
 10
1007.5
 20
15615.6907475
 30
0.0
  0
POINT
  5
160
330
594
100
AcDbEntity
  8
YKK_N1
  6
ByBlock
100
AcDbPoint
 10
1789.5
 20
15615.6907475
 30
0.0
  0
POINT
  5
161
330
594
100
AcDbEntity
  8
YKK_N1
  6
ByBlock
100
AcDbPoint
 10
1825.5
 20
15615.6907475
 30
0.0
  0
POINT
  5
162
330
594
100
AcDbEntity
  8
YKK_N1
  6
ByBlock
100
AcDbPoint
 10
1789.5
 20
15615.6907475
 30
0.0
  0
POINT
  5
163
330
594
100
AcDbEntity
  8
YKK_N1
  6
ByBlock
100
AcDbPoint
 10
1825.5
 20
15615.6907475
 30
0.0
  0
TEXT
  5
164
330
594
100
AcDbEntity
  8
YKK_A1
100
AcDbText
 10
1720.64285714
 20
15770.6907475
 30
0.0
 40
60.0
  1
F
 41
0.8
  7
YKK_SGSTYLE1
 72
     2
 11
1759.5
 21
15770.6907475
 31
0.0
100
AcDbText
  0
LINE
  5
165
330
594
100
AcDbEntity
  8
YKK_A1
100
AcDbLine
 10
1789.5
 20
15615.6907475
 30
0.0
 11
1804.5
 21
15615.6907475
 31
0.0
  0
LINE
  5
166
330
594
100
AcDbEntity
  8
YKK_A1
100
AcDbLine
 10
1789.5
 20
15615.6907475
 30
0.0
 11
1825.5
 21
15615.6907475
 31
0.0
  0
LINE
  5
167
330
594
100
AcDbEntity
  8
YKK_A1
100
AcDbLine
 10
1825.5
 20
15615.6907475
 30
0.0
 11
1810.5
 21
15615.6907475
 31
0.0
  0
LINE
  5
168
330
594
100
AcDbEntity
  8
YKK_N1
  6
ByBlock
100
AcDbLine
 10
2607.5
 20
15555.6907475
 30
0.0
 11
2607.5
 21
14985.6907475
 31
0.0
  0
LINE
  5
169
330
594
100
AcDbEntity
  8
YKK_N1
  6
ByBlock
100
AcDbLine
 10
2607.5
 20
15555.6907475
 30
0.0
 11
2607.5
 21
15185.6907475
 31
0.0
  0
LINE
  5
16A
330
594
100
AcDbEntity
  8
YKK_N1
  6
ByBlock
100
AcDbLine
 10
2520.89745962
 20
14965.6907475
 30
0.0
 11
2607.5
 21
15015.6907475
 31
0.0
  0
LINE
  5
16B
330
594
100
AcDbEntity
  8
YKK_N1
  6
ByBlock
100
AcDbLine
 10
2607.5
 20
15015.6907475
 30
0.0
 11
2520.89745962
 21
15065.6907475
 31
0.0
  0
LINE
  5
16C
330
594
100
AcDbEntity
  8
YKK_N1
  6
ByBlock
100
AcDbLine
 10
2607.5
 20
15015.6907475
 30
0.0
 11
2507.5
 21
15015.6907475
 31
0.0
  0
LINE
  5
16D
330
594
100
AcDbEntity
  8
YKK_N1
  6
ByBlock
100
AcDbLine
 10
2520.89745962
 20
15065.6907475
 30
0.0
 11
2520.89745962
 21
14965.6907475
 31
0.0
  0
TEXT
  5
16E
330
594
100
AcDbEntity
  8
YKK_N1
100
AcDbText
 10
2147.92857143
 20
15225.6907475
 30
0.0
 40
60.0
  1
782
 41
0.8
  7
YKK_SGSTYLE1
100
AcDbText
  0
POINT
  5
16F
330
594
100
AcDbEntity
  8
YKK_N1
  6
ByBlock
100
AcDbPoint
 10
2607.5
 20
15015.6907475
 30
0.0
  0
LINE
  5
170
330
594
100
AcDbEntity
  8
YKK_N1
100
AcDbLine
 10
2607.5
 20
15215.6907475
 30
0.0
 11
2587.5
 21
15215.6907475
 31
0.0
  0
CIRCLE
  5
171
330
594
100
AcDbEntity
  8
YKK_N1
100
AcDbCircle
 10
2607.5
 20
15215.6907475
 30
0.0
 40
6.5
  0
CIRCLE
  5
172
330
594
100
AcDbEntity
  8
YKK_N1
100
AcDbCircle
 10
2607.5
 20
15215.6907475
 30
0.0
 40
10.0
  0
POINT
  5
173
330
594
100
AcDbEntity
  8
YKK_N1
  6
ByBlock
100
AcDbPoint
 10
2607.5
 20
15215.6907475
 30
0.0
  0
TEXT
  5
174
330
594
100
AcDbEntity
  8
YKK_A1
100
AcDbText
 10
2538.64285714
 20
15770.6907475
 30
0.0
 40
60.0
  1
F
 41
0.8
  7
YKK_SGSTYLE1
 72
     2
 11
2577.5
 21
15770.6907475
 31
0.0
100
AcDbText
  0
LINE
  5
175
330
594
100
AcDbEntity
  8
YKK_N1
  6
ByBlock
100
AcDbLine
 10
2667.5
 20
15615.6907475
 30
0.0
 11
3237.5
 21
15615.6907475
 31
0.0
  0
LINE
  5
176
330
594
100
AcDbEntity
  8
YKK_N1
  6
ByBlock
100
AcDbLine
 10
2667.5
 20
15615.6907475
 30
0.0
 11
3037.5
 21
15615.6907475
 31
0.0
  0
POINT
  5
177
330
594
100
AcDbEntity
  8
YKK_N1
  6
ByBlock
100
AcDbPoint
 10
2607.5
 20
15615.6907475
 30
0.0
  0
POINT
  5
178
330
594
100
AcDbEntity
  8
YKK_N1
  6
ByBlock
100
AcDbPoint
 10
2607.5
 20
15615.6907475
 30
0.0
  0
POINT
  5
179
330
594
100
AcDbEntity
  8
YKK_N1
  6
ByBlock
100
AcDbPoint
 10
2607.5
 20
15615.6907475
 30
0.0
  0
POINT
  5
17A
330
594
100
AcDbEntity
  8
YKK_N1
  6
ByBlock
100
AcDbPoint
 10
2607.5
 20
15615.6907475
 30
0.0
  0
LINE
  5
17B
330
594
100
AcDbEntity
  8
YKK_N1
100
AcDbLine
 10
3007.5
 20
15615.6907475
 30
0.0
 11
3007.5
 21
15635.6907475
 31
0.0
  0
CIRCLE
  5
17C
330
594
100
AcDbEntity
  8
YKK_N1
100
AcDbCircle
 10
3007.5
 20
15615.6907475
 30
0.0
 40
6.5
  0
CIRCLE
  5
17D
330
594
100
AcDbEntity
  8
YKK_N1
100
AcDbCircle
 10
3007.5
 20
15615.6907475
 30
0.0
 40
10.0
  0
LINE
  5
17E
330
594
100
AcDbEntity
  8
YKK_N1
  6
ByBlock
100
AcDbLine
 10
3157.5
 20
15702.29328788
 30
0.0
 11
3207.5
 21
15615.6907475
 31
0.0
  0
LINE
  5
17F
330
594
100
AcDbEntity
  8
YKK_N1
  6
ByBlock
100
AcDbLine
 10
3257.5
 20
15702.29328788
 30
0.0
 11
3157.5
 21
15702.29328788
 31
0.0
  0
LINE
  5
180
330
594
100
AcDbEntity
  8
YKK_N1
  6
ByBlock
100
AcDbLine
 10
3207.5
 20
15615.6907475
 30
0.0
 11
3257.5
 21
15702.29328788
 31
0.0
  0
LINE
  5
181
330
594
100
AcDbEntity
  8
YKK_N1
  6
ByBlock
100
AcDbLine
 10
3207.5
 20
15615.6907475
 30
0.0
 11
3207.5
 21
15715.6907475
 31
0.0
  0
TEXT
  5
182
330
594
100
AcDbEntity
  8
0
100
AcDbText
 10
100.0
 20
18737.5
 30
0.0
 40
200.0
  1
W＝1,600　H＝2,400
  7
EXTFONT
100
AcDbText
  0
TEXT
  5
183
330
594
100
AcDbEntity
  8
YKK_N1
100
AcDbText
 10
2997.5
 20
17722.11931893
 30
0.0
 40
60.0
  1
450
 50
90.0
 41
0.8
  7
YKK_SGSTYLE1
100
AcDbText
  0
LINE
  5
184
330
594
100
AcDbEntity
  8
YKK_N1
  6
ByBlock
100
AcDbLine
 10
3007.5
 20
17585.6907475
 30
0.0
 11
3007.5
 21
17995.6907475
 31
0.0
  0
LINE
  5
185
330
594
100
AcDbEntity
  8
YKK_A1
100
AcDbLine
 10
2607.5
 20
17565.6907475
 30
0.0
 11
2607.5
 21
18015.6907475
 31
0.0
  0
LINE
  5
186
330
594
100
AcDbEntity
  8
YKK_A1
100
AcDbLine
 10
2607.5
 20
17565.6907475
 30
0.0
 11
2607.5
 21
18015.6907475
 31
0.0
  0
LINE
  5
187
330
594
100
AcDbEntity
  8
YKK_A1
100
AcDbLine
 10
1789.5
 20
17565.6907475
 30
0.0
 11
1789.5
 21
18015.6907475
 31
0.0
  0
LINE
  5
188
330
594
100
AcDbEntity
  8
YKK_A1
100
AcDbLine
 10
1789.5
 20
17565.6907475
 30
0.0
 11
1789.5
 21
18015.6907475
 31
0.0
  0
LINE
  5
189
330
594
100
AcDbEntity
  8
YKK_A1
100
AcDbLine
 10
1825.5
 20
18015.6907475
 30
0.0
 11
1825.5
 21
17565.6907475
 31
0.0
  0
LINE
  5
18A
330
594
100
AcDbEntity
  8
YKK_A1
100
AcDbLine
 10
1825.5
 20
18015.6907475
 30
0.0
 11
1825.5
 21
17565.6907475
 31
0.0
  0
LINE
  5
18B
330
594
100
AcDbEntity
  8
YKK_A1
100
AcDbLine
 10
1007.5
 20
18015.6907475
 30
0.0
 11
1007.5
 21
17565.6907475
 31
0.0
  0
LINE
  5
18C
330
594
100
AcDbEntity
  8
YKK_A1
100
AcDbLine
 10
1007.5
 20
18015.6907475
 30
0.0
 11
1007.5
 21
17565.6907475
 31
0.0
  0
LINE
  5
18D
330
594
100
AcDbEntity
  8
YKK_A1
100
AcDbLine
 10
2607.5
 20
17565.6907475
 30
0.0
 11
1825.5
 21
17565.6907475
 31
0.0
  0
LINE
  5
18E
330
594
100
AcDbEntity
  8
YKK_A1
100
AcDbLine
 10
1825.5
 20
17565.6907475
 30
0.0
 11
2607.5
 21
17565.6907475
 31
0.0
  0
LINE
  5
18F
330
594
100
AcDbEntity
  8
YKK_A1
100
AcDbLine
 10
1825.5
 20
17565.6907475
 30
0.0
 11
2607.5
 21
17565.6907475
 31
0.0
  0
LINE
  5
190
330
594
100
AcDbEntity
  8
YKK_A1
100
AcDbLine
 10
2607.5
 20
17515.6907475
 30
0.0
 11
1825.5
 21
17515.6907475
 31
0.0
  0
LINE
  5
191
330
594
100
AcDbEntity
  8
YKK_A1
100
AcDbLine
 10
2607.5
 20
17515.6907475
 30
0.0
 11
1825.5
 21
17515.6907475
 31
0.0
  0
LINE
  5
192
330
594
100
AcDbEntity
  8
YKK_A1
100
AcDbLine
 10
1825.5
 20
17515.6907475
 30
0.0
 11
2607.5
 21
17515.6907475
 31
0.0
  0
LINE
  5
193
330
594
100
AcDbEntity
  8
YKK_A1
100
AcDbLine
 10
1789.5
 20
17515.6907475
 30
0.0
 11
1007.5
 21
17515.6907475
 31
0.0
  0
LINE
  5
194
330
594
100
AcDbEntity
  8
YKK_A1
100
AcDbLine
 10
1789.5
 20
17515.6907475
 30
0.0
 11
1007.5
 21
17515.6907475
 31
0.0
  0
LINE
  5
195
330
594
100
AcDbEntity
  8
YKK_A1
100
AcDbLine
 10
1007.5
 20
17515.6907475
 30
0.0
 11
1789.5
 21
17515.6907475
 31
0.0
  0
LINE
  5
196
330
594
100
AcDbEntity
  8
YKK_A1
100
AcDbLine
 10
1789.5
 20
17565.6907475
 30
0.0
 11
1007.5
 21
17565.6907475
 31
0.0
  0
LINE
  5
197
330
594
100
AcDbEntity
  8
YKK_A1
100
AcDbLine
 10
1007.5
 20
17565.6907475
 30
0.0
 11
1789.5
 21
17565.6907475
 31
0.0
  0
LINE
  5
198
330
594
100
AcDbEntity
  8
YKK_A1
100
AcDbLine
 10
1007.5
 20
17565.6907475
 30
0.0
 11
1789.5
 21
17565.6907475
 31
0.0
  0
LINE
  5
199
330
594
100
AcDbEntity
  8
YKK_A1
100
AcDbLine
 10
1007.5
 20
17565.6907475
 30
0.0
 11
1007.5
 21
17515.6907475
 31
0.0
  0
TEXT
  5
19A
330
594
100
AcDbEntity
  8
YKK_A1
100
AcDbText
 10
1720.64285714
 20
17595.6907475
 30
0.0
 40
60.0
  1
F
 41
0.8
  7
YKK_SGSTYLE1
 72
     2
 11
1759.5
 21
17595.6907475
 31
0.0
100
AcDbText
  0
LINE
  5
19B
330
594
100
AcDbEntity
  8
YKK_A1
100
AcDbLine
 10
1789.5
 20
17515.6907475
 30
0.0
 11
1789.5
 21
17565.6907475
 31
0.0
  0
LINE
  5
19C
330
594
100
AcDbEntity
  8
YKK_A1
100
AcDbLine
 10
1825.5
 20
17565.6907475
 30
0.0
 11
1825.5
 21
17515.6907475
 31
0.0
  0
TEXT
  5
19D
330
594
100
AcDbEntity
  8
YKK_N1
100
AcDbText
 10
2997.5
 20
16470.83360465
 30
0.0
 40
60.0
  1
1900
 50
90.0
 41
0.8
  7
YKK_SGSTYLE1
100
AcDbText
  0
TEXT
  5
19E
330
594
100
AcDbEntity
  8
YKK_N1
100
AcDbText
 10
3197.5
 20
16668.26217608
 30
0.0
 40
60.0
  1
H=2400
 50
90.0
 41
0.8
  7
YKK_SGSTYLE1
100
AcDbText
  0
TEXT
  5
19F
330
594
100
AcDbEntity
  8
YKK_A1
100
AcDbText
 10
2538.64285714
 20
17595.6907475
 30
0.0
 40
60.0
  1
F
 41
0.8
  7
YKK_SGSTYLE1
 72
     2
 11
2577.5
 21
17595.6907475
 31
0.0
100
AcDbText
  0
LINE
  5
1A0
330
594
100
AcDbEntity
  8
YKK_N1
  6
ByBlock
100
AcDbLine
 10
2667.5
 20
17565.6907475
 30
0.0
 11
3037.5
 21
17565.6907475
 31
0.0
  0
LINE
  5
1A1
330
594
100
AcDbEntity
  8
YKK_N1
  6
ByBlock
100
AcDbLine
 10
2667.5
 20
17515.6907475
 30
0.0
 11
3037.5
 21
17515.6907475
 31
0.0
  0
LINE
  5
1A2
330
594
100
AcDbEntity
  8
YKK_N1
  6
ByBlock
100
AcDbLine
 10
2667.5
 20
17565.6907475
 30
0.0
 11
3037.5
 21
17565.6907475
 31
0.0
  0
LINE
  5
1A3
330
594
100
AcDbEntity
  8
YKK_N1
  6
ByBlock
100
AcDbLine
 10
2667.5
 20
17515.6907475
 30
0.0
 11
3037.5
 21
17515.6907475
 31
0.0
  0
POINT
  5
1A4
330
594
100
AcDbEntity
  8
YKK_N1
  6
ByBlock
100
AcDbPoint
 10
2607.5
 20
17565.6907475
 30
0.0
  0
POINT
  5
1A5
330
594
100
AcDbEntity
  8
YKK_N1
  6
ByBlock
100
AcDbPoint
 10
2607.5
 20
17515.6907475
 30
0.0
  0
POINT
  5
1A6
330
594
100
AcDbEntity
  8
YKK_N1
  6
ByBlock
100
AcDbPoint
 10
2607.5
 20
17565.6907475
 30
0.0
  0
POINT
  5
1A7
330
594
100
AcDbEntity
  8
YKK_N1
  6
ByBlock
100
AcDbPoint
 10
2607.5
 20
17515.6907475
 30
0.0
  0
LINE
  5
1A8
330
594
100
AcDbEntity
  8
YKK_A1
100
AcDbLine
 10
2607.5
 20
17515.6907475
 30
0.0
 11
2607.5
 21
17565.6907475
 31
0.0
  0
LINE
  5
1A9
330
594
100
AcDbEntity
  8
YKK_N1
100
AcDbLine
 10
3007.5
 20
17515.6907475
 30
0.0
 11
3007.5
 21
17495.6907475
 31
0.0
  0
CIRCLE
  5
1AA
330
594
100
AcDbEntity
  8
YKK_N1
100
AcDbCircle
 10
3007.5
 20
17515.6907475
 30
0.0
 40
6.5
  0
CIRCLE
  5
1AB
330
594
100
AcDbEntity
  8
YKK_N1
100
AcDbCircle
 10
3007.5
 20
17515.6907475
 30
0.0
 40
10.0
  0
LINE
  5
1AC
330
594
100
AcDbEntity
  8
YKK_N1
100
AcDbLine
 10
3007.5
 20
17565.6907475
 30
0.0
 11
3007.5
 21
17585.6907475
 31
0.0
  0
CIRCLE
  5
1AD
330
594
100
AcDbEntity
  8
YKK_N1
100
AcDbCircle
 10
3007.5
 20
17565.6907475
 30
0.0
 40
6.5
  0
CIRCLE
  5
1AE
330
594
100
AcDbEntity
  8
YKK_N1
100
AcDbCircle
 10
3007.5
 20
17565.6907475
 30
0.0
 40
10.0
  0
TEXT
  5
1AF
330
594
100
AcDbEntity
  8
YKK_N1
100
AcDbText
 10
3105.0
 20
17494.97646179
 30
0.0
 40
60.0
  1
50
 50
90.0
 41
0.8
  7
YKK_SGSTYLE1
100
AcDbText
  0
LINE
  5
1B0
330
594
100
AcDbEntity
  8
YKK_N1
100
AcDbLine
 10
3007.5
 20
17515.6907475
 30
0.0
 11
3007.5
 21
17495.6907475
 31
0.0
  0
CIRCLE
  5
1B1
330
594
100
AcDbEntity
  8
YKK_N1
100
AcDbCircle
 10
3007.5
 20
17515.6907475
 30
0.0
 40
6.5
  0
CIRCLE
  5
1B2
330
594
100
AcDbEntity
  8
YKK_N1
100
AcDbCircle
 10
3007.5
 20
17515.6907475
 30
0.0
 40
10.0
  0
LINE
  5
1B3
330
594
100
AcDbEntity
  8
YKK_N1
100
AcDbLine
 10
3007.5
 20
17565.6907475
 30
0.0
 11
3007.5
 21
17585.6907475
 31
0.0
  0
CIRCLE
  5
1B4
330
594
100
AcDbEntity
  8
YKK_N1
100
AcDbCircle
 10
3007.5
 20
17565.6907475
 30
0.0
 40
6.5
  0
CIRCLE
  5
1B5
330
594
100
AcDbEntity
  8
YKK_N1
100
AcDbCircle
 10
3007.5
 20
17565.6907475
 30
0.0
 40
10.0
  0
POINT
  5
1B6
330
594
100
AcDbEntity
  8
YKK_N1
  6
ByBlock
100
AcDbPoint
 10
3007.5
 20
17565.6907475
 30
0.0
  0
LINE
  5
1B7
330
594
100
AcDbEntity
  8
YKK_N1
  6
ByBlock
100
AcDbLine
 10
3007.5
 20
17515.6907475
 30
0.0
 11
3007.5
 21
17565.6907475
 31
0.0
  0
LINE
  5
1B8
330
594
100
AcDbEntity
  8
YKK_N1
  6
ByBlock
100
AcDbLine
 10
3007.5
 20
17515.6907475
 30
0.0
 11
3007.5
 21
17565.6907475
 31
0.0
  0
LINE
  5
1B9
330
594
100
AcDbEntity
  8
YKK_N1
  6
ByBlock
100
AcDbLine
 10
3007.5
 20
17585.6907475
 30
0.0
 11
3007.5
 21
17605.6907475
 31
0.0
  0
LINE
  5
1BA
330
594
100
AcDbEntity
  8
YKK_N1
  6
ByBlock
100
AcDbLine
 10
3007.5
 20
17495.6907475
 30
0.0
 11
3007.5
 21
17475.6907475
 31
0.0
  0
POINT
  5
1BB
330
594
100
AcDbEntity
  8
YKK_N1
  6
ByBlock
100
AcDbPoint
 10
3007.5
 20
17515.6907475
 30
0.0
  0
LINE
  5
1BC
330
594
100
AcDbEntity
  8
YKK_A1
100
AcDbLine
 10
1825.5
 20
18030.6907475
 30
0.0
 11
2622.5
 21
18030.6907475
 31
0.0
  0
LINE
  5
1BD
330
594
100
AcDbEntity
  8
YKK_A1
100
AcDbLine
 10
2607.5
 20
18015.6907475
 30
0.0
 11
1825.5
 21
18015.6907475
 31
0.0
  0
LINE
  5
1BE
330
594
100
AcDbEntity
  8
YKK_A1
100
AcDbLine
 10
2607.5
 20
18015.6907475
 30
0.0
 11
1825.5
 21
18015.6907475
 31
0.0
  0
LINE
  5
1BF
330
594
100
AcDbEntity
  8
YKK_A1
100
AcDbLine
 10
992.5
 20
18030.6907475
 30
0.0
 11
1789.5
 21
18030.6907475
 31
0.0
  0
LINE
  5
1C0
330
594
100
AcDbEntity
  8
YKK_A1
100
AcDbLine
 10
1789.5
 20
18015.6907475
 30
0.0
 11
1007.5
 21
18015.6907475
 31
0.0
  0
LINE
  5
1C1
330
594
100
AcDbEntity
  8
YKK_A1
100
AcDbLine
 10
1789.5
 20
18015.6907475
 30
0.0
 11
1007.5
 21
18015.6907475
 31
0.0
  0
LINE
  5
1C2
330
594
100
AcDbEntity
  8
YKK_A1
100
AcDbLine
 10
1825.5
 20
18030.6907475
 30
0.0
 11
1789.5
 21
18030.6907475
 31
0.0
  0
LINE
  5
1C3
330
594
100
AcDbEntity
  8
YKK_N1
  6
ByBlock
100
AcDbLine
 10
2667.5
 20
18015.6907475
 30
0.0
 11
3037.5
 21
18015.6907475
 31
0.0
  0
LINE
  5
1C4
330
594
100
AcDbEntity
  8
YKK_N1
  6
ByBlock
100
AcDbLine
 10
2667.5
 20
18015.6907475
 30
0.0
 11
3237.5
 21
18015.6907475
 31
0.0
  0
POINT
  5
1C5
330
594
100
AcDbEntity
  8
YKK_N1
  6
ByBlock
100
AcDbPoint
 10
2607.5
 20
18015.6907475
 30
0.0
  0
POINT
  5
1C6
330
594
100
AcDbEntity
  8
YKK_N1
  6
ByBlock
100
AcDbPoint
 10
2607.5
 20
18015.6907475
 30
0.0
  0
LINE
  5
1C7
330
594
100
AcDbEntity
  8
YKK_N1
  6
ByBlock
100
AcDbLine
 10
3257.5
 20
17929.08820713
 30
0.0
 11
3207.5
 21
18015.6907475
 31
0.0
  0
LINE
  5
1C8
330
594
100
AcDbEntity
  8
YKK_N1
  6
ByBlock
100
AcDbLine
 10
3157.5
 20
17929.08820713
 30
0.0
 11
3257.5
 21
17929.08820713
 31
0.0
  0
LINE
  5
1C9
330
594
100
AcDbEntity
  8
YKK_N1
  6
ByBlock
100
AcDbLine
 10
3207.5
 20
18015.6907475
 30
0.0
 11
3157.5
 21
17929.08820713
 31
0.0
  0
LINE
  5
1CA
330
594
100
AcDbEntity
  8
YKK_N1
  6
ByBlock
100
AcDbLine
 10
3207.5
 20
18015.6907475
 30
0.0
 11
3207.5
 21
17915.6907475
 31
0.0
  0
LINE
  5
1CB
330
594
100
AcDbEntity
  8
YKK_N1
100
AcDbLine
 10
3007.5
 20
18015.6907475
 30
0.0
 11
3007.5
 21
17995.6907475
 31
0.0
  0
CIRCLE
  5
1CC
330
594
100
AcDbEntity
  8
YKK_N1
100
AcDbCircle
 10
3007.5
 20
18015.6907475
 30
0.0
 40
6.5
  0
CIRCLE
  5
1CD
330
594
100
AcDbEntity
  8
YKK_N1
100
AcDbCircle
 10
3007.5
 20
18015.6907475
 30
0.0
 40
10.0
  0
POINT
  5
1CE
330
594
100
AcDbEntity
  8
YKK_N1
  6
ByBlock
100
AcDbPoint
 10
3007.5
 20
18015.6907475
 30
0.0
  0
POINT
  5
1CF
330
594
100
AcDbEntity
  8
YKK_N1
  6
ByBlock
100
AcDbPoint
 10
3207.5
 20
18015.6907475
 30
0.0
  0
LINE
  5
1D0
330
594
100
AcDbEntity
  8
YKK_N1
  6
ByBlock
100
AcDbLine
 10
4707.5
 20
15616.6907475
 30
0.0
 11
4707.5
 21
18014.6907475
 31
0.0
  0
LINE
  5
1D1
330
594
100
AcDbEntity
  8
YKK_N1
  6
ByBlock
100
AcDbLine
 10
4507.5
 20
15635.6907475
 30
0.0
 11
4507.5
 21
17495.6907475
 31
0.0
  0
LINE
  5
1D2
330
594
100
AcDbEntity
  8
YKK_N1
  6
ByBlock
100
AcDbLine
 10
10407.5
 20
15616.6907475
 30
0.0
 11
10407.5
 21
18014.6907475
 31
0.0
  0
LINE
  5
1D3
330
594
100
AcDbEntity
  8
YKK_N1
  6
ByBlock
100
AcDbLine
 10
10207.5
 20
15635.6907475
 30
0.0
 11
10207.5
 21
17495.6907475
 31
0.0
  0
LINE
  5
1D4
330
594
100
AcDbEntity
  8
YKK_N1
  6
ByBlock
100
AcDbLine
 10
8907.5
 20
15616.6907475
 30
0.0
 11
8907.5
 21
18014.6907475
 31
0.0
  0
LINE
  5
1D5
330
594
100
AcDbEntity
  8
YKK_N1
  6
ByBlock
100
AcDbLine
 10
8707.5
 20
15635.6907475
 30
0.0
 11
8707.5
 21
17495.6907475
 31
0.0
  0
LINE
  5
1D6
330
594
100
AcDbEntity
  8
YKK_A1
100
AcDbLine
 10
7489.5
 20
15615.6907475
 30
0.0
 11
7489.5
 21
17515.6907475
 31
0.0
  0
LINE
  5
1D7
330
594
100
AcDbEntity
  8
YKK_A1
100
AcDbLine
 10
7489.5
 20
15740.6907475
 30
0.0
 11
7489.5
 21
17515.6907475
 31
0.0
  0
LINE
  5
1D8
330
594
100
AcDbEntity
  8
YKK_A1
100
AcDbLine
 10
8307.5
 20
15615.6907475
 30
0.0
 11
8307.5
 21
17515.6907475
 31
0.0
  0
LINE
  5
1D9
330
594
100
AcDbEntity
  8
YKK_A1
100
AcDbLine
 10
7525.5
 20
17515.6907475
 30
0.0
 11
7525.5
 21
15615.6907475
 31
0.0
  0
LINE
  5
1DA
330
594
100
AcDbEntity
  8
YKK_A1
100
AcDbLine
 10
8307.5
 20
15740.6907475
 30
0.0
 11
8307.5
 21
17515.6907475
 31
0.0
  0
LINE
  5
1DB
330
594
100
AcDbEntity
  8
YKK_A1
100
AcDbLine
 10
7525.5
 20
17515.6907475
 30
0.0
 11
7525.5
 21
15740.6907475
 31
0.0
  0
LINE
  5
1DC
330
594
100
AcDbEntity
  8
YKK_A1
100
AcDbLine
 10
6707.5
 20
17515.6907475
 30
0.0
 11
6707.5
 21
15615.6907475
 31
0.0
  0
LINE
  5
1DD
330
594
100
AcDbEntity
  8
YKK_A1
100
AcDbLine
 10
6707.5
 20
17515.6907475
 30
0.0
 11
6707.5
 21
15740.6907475
 31
0.0
  0
LINE
  5
1DE
330
594
100
AcDbEntity
  8
YKK_A1
100
AcDbLine
 10
6692.5
 20
15615.6907475
 30
0.0
 11
6692.5
 21
18030.6907475
 31
0.0
  0
LINE
  5
1DF
330
594
100
AcDbEntity
  8
YKK_A1
100
AcDbLine
 10
7489.5
 20
18030.6907475
 30
0.0
 11
7489.5
 21
15615.6907475
 31
0.0
  0
LINE
  5
1E0
330
594
100
AcDbEntity
  8
YKK_A1
100
AcDbLine
 10
7525.5
 20
15615.6907475
 30
0.0
 11
7525.5
 21
18030.6907475
 31
0.0
  0
LINE
  5
1E1
330
594
100
AcDbEntity
  8
YKK_A1
100
AcDbLine
 10
7489.5
 20
18030.6907475
 30
0.0
 11
7489.5
 21
15615.6907475
 31
0.0
  0
LINE
  5
1E2
330
594
100
AcDbEntity
  8
YKK_A1
100
AcDbLine
 10
8322.5
 20
15615.6907475
 30
0.0
 11
8322.5
 21
18030.6907475
 31
0.0
  0
LINE
  5
1E3
330
594
100
AcDbEntity
  8
YKK_A1
100
AcDbLine
 10
7525.5
 20
18030.6907475
 30
0.0
 11
7525.5
 21
15615.6907475
 31
0.0
  0
LINE
  5
1E4
330
594
100
AcDbEntity
  8
YKK_C1
100
AcDbLine
 10
9680.5
 20
15733.1907475
 30
0.0
 11
9680.5
 21
17515.6907475
 31
0.0
  0
LINE
  5
1E5
330
594
100
AcDbEntity
  8
YKK_C1
100
AcDbLine
 10
9807.5
 20
15635.6907475
 30
0.0
 11
9807.5
 21
17495.6907475
 31
0.0
  0
LINE
  5
1E6
330
594
100
AcDbEntity
  8
YKK_C1
100
AcDbLine
 10
9657.5
 20
15760.6907475
 30
0.0
 11
9657.5
 21
17495.6907475
 31
0.0
  0
LINE
  5
1E7
330
594
100
AcDbEntity
  8
YKK_C1
100
AcDbLine
 10
4030.5
 20
15733.1907475
 30
0.0
 11
4030.5
 21
17515.6907475
 31
0.0
  0
LINE
  5
1E8
330
594
100
AcDbEntity
  8
YKK_C1
100
AcDbLine
 10
4107.5
 20
15635.6907475
 30
0.0
 11
4107.5
 21
17495.6907475
 31
0.0
  0
LINE
  5
1E9
330
594
100
AcDbEntity
  8
YKK_C1
100
AcDbLine
 10
4007.5
 20
15760.6907475
 30
0.0
 11
4007.5
 21
17495.6907475
 31
0.0
  0
LINE
  5
1EA
330
594
100
AcDbEntity
  8
YKK_Z1
  6
Continuous
100
AcDbLine
 10
9592.5
 20
15615.6907475
 30
0.0
 11
9592.5
 21
16815.6907475
 31
0.0
  0
LINE
  5
1EB
330
594
100
AcDbEntity
  8
YKK_Z1
  6
Continuous
100
AcDbLine
 10
3942.5
 20
15615.6907475
 30
0.0
 11
3942.5
 21
16815.6907475
 31
0.0
  0
LINE
  5
1EC
330
594
100
AcDbEntity
  8
YKK_N1
  6
ByBlock
100
AcDbLine
 10
8367.5
 20
15615.6907475
 30
0.0
 11
8937.5
 21
15615.6907475
 31
0.0
  0
LINE
  5
1ED
330
594
100
AcDbEntity
  8
YKK_Z1
  6
CENTER
100
AcDbLine
 10
8607.5
 20
15615.6907475
 30
0.0
 11
9307.5
 21
15615.6907475
 31
0.0
  0
LINE
  5
1EE
330
594
100
AcDbEntity
  8
YKK_N1
  6
ByBlock
100
AcDbLine
 10
4167.5
 20
15615.6907475
 30
0.0
 11
4737.5
 21
15615.6907475
 31
0.0
  0
LINE
  5
1EF
330
594
100
AcDbEntity
  8
YKK_Z1
  6
CENTER
100
AcDbLine
 10
4607.5
 20
15615.6907475
 30
0.0
 11
5107.5
 21
15615.6907475
 31
0.0
  0
LINE
  5
1F0
330
594
100
AcDbEntity
  8
YKK_Z1
  6
Continuous
100
AcDbLine
 10
4507.5
 20
15565.6907475
 30
0.0
 11
4327.50003118
 21
15385.6907475
 31
0.0
  0
LINE
  5
1F1
330
594
100
AcDbEntity
  8
YKK_Z1
  6
Continuous
100
AcDbLine
 10
4507.5
 20
15557.20546393
 30
0.0
 11
4335.98531329
 21
15385.6907475
 31
0.0
  0
LINE
  5
1F2
330
594
100
AcDbEntity
  8
YKK_Z1
  6
Continuous
100
AcDbLine
 10
4507.5
 20
15537.40646891
 30
0.0
 11
4355.78430487
 21
15385.6907475
 31
0.0
  0
LINE
  5
1F3
330
594
100
AcDbEntity
  8
YKK_Z1
  6
Continuous
100
AcDbLine
 10
3913.53025236
 20
15565.6907475
 30
0.0
 11
3807.5
 21
15459.66047678
 31
0.0
  0
LINE
  5
1F4
330
594
100
AcDbEntity
  8
YKK_Z1
  6
Continuous
100
AcDbLine
 10
3922.01553447
 20
15565.6907475
 30
0.0
 11
3807.5
 21
15451.1751932
 31
0.0
  0
LINE
  5
1F5
330
594
100
AcDbEntity
  8
YKK_Z1
  6
Continuous
100
AcDbLine
 10
3941.81452606
 20
15565.6907475
 30
0.0
 11
3807.5
 21
15431.37619818
 31
0.0
  0
LINE
  5
1F6
330
594
100
AcDbEntity
  8
YKK_Z1
  6
Continuous
100
AcDbLine
 10
4210.51512618
 20
15565.6907475
 30
0.0
 11
4030.51515736
 21
15385.6907475
 31
0.0
  0
LINE
  5
1F7
330
594
100
AcDbEntity
  8
YKK_Z1
  6
Continuous
100
AcDbLine
 10
4219.00040829
 20
15565.6907475
 30
0.0
 11
4039.00043947
 21
15385.6907475
 31
0.0
  0
LINE
  5
1F8
330
594
100
AcDbEntity
  8
YKK_Z1
  6
Continuous
100
AcDbLine
 10
4238.79939988
 20
15565.6907475
 30
0.0
 11
4058.79943106
 21
15385.6907475
 31
0.0
  0
LINE
  5
1F9
330
594
100
AcDbEntity
  8
YKK_Z1
  6
Continuous
100
AcDbLine
 10
3807.5
 20
15385.6907475
 30
0.0
 11
4507.5
 21
15385.6907475
 31
0.0
  0
LINE
  5
1FA
330
594
100
AcDbEntity
  8
YKK_Z1
  6
Continuous
100
AcDbLine
 10
3952.5
 20
15605.6907475
 30
0.0
 11
4002.5
 21
15605.6907475
 31
0.0
  0
LINE
  5
1FB
330
594
100
AcDbEntity
  8
YKK_Z1
  6
Continuous
100
AcDbLine
 10
4002.5
 20
15615.6907475
 30
0.0
 11
3952.5
 21
15615.6907475
 31
0.0
  0
LINE
  5
1FC
330
594
100
AcDbEntity
  8
YKK_Z1
  6
Continuous
100
AcDbLine
 10
4507.5
 20
15565.6907475
 30
0.0
 11
3807.5
 21
15565.6907475
 31
0.0
  0
LINE
  5
1FD
330
594
100
AcDbEntity
  8
YKK_Z1
  6
ByBlock
 62
     0
100
AcDbLine
 10
3524.42673029
 20
15675.6907475
 30
0.0
 11
3489.78571429
 21
15615.6907475
 31
0.0
  0
LINE
  5
1FE
330
594
100
AcDbEntity
  8
YKK_Z1
  6
ByBlock
 62
     0
100
AcDbLine
 10
3455.14469829
 20
15675.6907475
 30
0.0
 11
3524.42673029
 21
15675.6907475
 31
0.0
  0
LINE
  5
1FF
330
594
100
AcDbEntity
  8
YKK_Z1
  6
ByBlock
 62
     0
100
AcDbLine
 10
3489.78571429
 20
15615.6907475
 30
0.0
 11
3455.14469829
 21
15675.6907475
 31
0.0
  0
TEXT
  5
200
330
594
100
AcDbEntity
  8
YKK_Z1
100
AcDbText
 10
3529.78571429
 20
15625.6907475
 30
0.0
 40
60.0
  1
FL
 41
0.8
  7
YKK_SGSTYLE1
 72
     2
 11
3607.5
 21
15625.6907475
 31
0.0
100
AcDbText
  0
LINE
  5
201
330
594
100
AcDbEntity
  8
YKK_Z1
  6
Continuous
100
AcDbLine
 10
3947.5
 20
15605.6907475
 30
0.0
 11
3947.5
 21
15615.6907475
 31
0.0
  0
LINE
  5
202
330
594
100
AcDbEntity
  8
YKK_Z1
  6
Continuous
100
AcDbLine
 10
3952.5
 20
15611.6907475
 30
0.0
 11
3947.5
 21
15611.6907475
 31
0.0
  0
LINE
  5
203
330
594
100
AcDbEntity
  8
YKK_Z1
  6
Continuous
100
AcDbLine
 10
3952.5
 20
15615.6907475
 30
0.0
 11
3952.5
 21
15605.6907475
 31
0.0
  0
LINE
  5
204
330
594
100
AcDbEntity
  8
YKK_Z1
  6
Continuous
100
AcDbLine
 10
3837.5
 20
15605.6907475
 30
0.0
 11
3837.5
 21
15615.6907475
 31
0.0
  0
LINE
  5
205
330
594
100
AcDbEntity
  8
YKK_Z1
  6
Continuous
100
AcDbLine
 10
3842.5
 20
15611.6907475
 30
0.0
 11
3837.5
 21
15611.6907475
 31
0.0
  0
LINE
  5
206
330
594
100
AcDbEntity
  8
YKK_Z1
  6
Continuous
100
AcDbLine
 10
3892.5
 20
15605.6907475
 30
0.0
 11
3892.5
 21
15615.6907475
 31
0.0
  0
LINE
  5
207
330
594
100
AcDbEntity
  8
YKK_Z1
  6
Continuous
100
AcDbLine
 10
3842.5
 20
15605.6907475
 30
0.0
 11
3892.5
 21
15605.6907475
 31
0.0
  0
LINE
  5
208
330
594
100
AcDbEntity
  8
YKK_Z1
  6
Continuous
100
AcDbLine
 10
3842.5
 20
15615.6907475
 30
0.0
 11
3842.5
 21
15605.6907475
 31
0.0
  0
LINE
  5
209
330
594
100
AcDbEntity
  8
YKK_Z1
  6
Continuous
100
AcDbLine
 10
3892.5
 20
15615.6907475
 30
0.0
 11
3842.5
 21
15615.6907475
 31
0.0
  0
LINE
  5
20A
330
594
100
AcDbEntity
  8
YKK_Z1
  6
Continuous
100
AcDbLine
 10
3897.5
 20
15611.6907475
 30
0.0
 11
3892.5
 21
15611.6907475
 31
0.0
  0
LINE
  5
20B
330
594
100
AcDbEntity
  8
YKK_Z1
  6
Continuous
100
AcDbLine
 10
3897.5
 20
15615.6907475
 30
0.0
 11
3897.5
 21
15605.6907475
 31
0.0
  0
LINE
  5
20C
330
594
100
AcDbEntity
  8
YKK_Z1
  6
Continuous
100
AcDbLine
 10
3837.5
 20
15615.6907475
 30
0.0
 11
3807.5
 21
15615.6907475
 31
0.0
  0
LINE
  5
20D
330
594
100
AcDbEntity
  8
YKK_Z1
  6
Continuous
100
AcDbLine
 10
3807.5
 20
15605.6907475
 30
0.0
 11
3837.5
 21
15605.6907475
 31
0.0
  0
LINE
  5
20E
330
594
100
AcDbEntity
  8
YKK_Z1
  6
Continuous
100
AcDbLine
 10
3897.5
 20
15605.6907475
 30
0.0
 11
3947.5
 21
15605.6907475
 31
0.0
  0
LINE
  5
20F
330
594
100
AcDbEntity
  8
YKK_Z1
  6
Continuous
100
AcDbLine
 10
3947.5
 20
15615.6907475
 30
0.0
 11
3897.5
 21
15615.6907475
 31
0.0
  0
LINE
  5
210
330
594
100
AcDbEntity
  8
YKK_N1
  6
ByBlock
100
AcDbLine
 10
4167.5
 20
15615.6907475
 30
0.0
 11
4537.5
 21
15615.6907475
 31
0.0
  0
LINE
  5
211
330
594
100
AcDbEntity
  8
YKK_Z1
  6
Continuous
100
AcDbLine
 10
4282.5
 20
15615.6907475
 30
0.0
 11
4332.5
 21
15615.6907475
 31
0.0
  0
LINE
  5
212
330
594
100
AcDbEntity
  8
YKK_Z1
  6
Continuous
100
AcDbLine
 10
4332.5
 20
15605.6907475
 30
0.0
 11
4282.5
 21
15605.6907475
 31
0.0
  0
POINT
  5
213
330
594
100
AcDbEntity
  8
YKK_N1
  6
ByBlock
100
AcDbPoint
 10
4107.5
 20
15615.6907475
 30
0.0
  0
POINT
  5
214
330
594
100
AcDbEntity
  8
YKK_N1
  6
ByBlock
100
AcDbPoint
 10
4107.5
 20
15615.6907475
 30
0.0
  0
LINE
  5
215
330
594
100
AcDbEntity
  8
YKK_C1
100
AcDbLine
 10
4057.5
 20
15740.6907475
 30
0.0
 11
4057.5
 21
15600.6907475
 31
0.0
  0
LINE
  5
216
330
594
100
AcDbEntity
  8
YKK_C1
100
AcDbLine
 10
4057.5
 20
15600.6907475
 30
0.0
 11
4052.5
 21
15600.6907475
 31
0.0
  0
LINE
  5
217
330
594
100
AcDbEntity
  8
YKK_C1
100
AcDbLine
 10
4057.5
 20
15740.6907475
 30
0.0
 11
4041.0
 21
15740.6907475
 31
0.0
  0
LINE
  5
218
330
594
100
AcDbEntity
  8
YKK_C1
100
AcDbLine
 10
4041.0
 20
15740.6907475
 30
0.0
 11
4041.0
 21
15725.6907475
 31
0.0
  0
LINE
  5
219
330
594
100
AcDbEntity
  8
YKK_C1
100
AcDbLine
 10
4020.0
 20
15740.6907475
 30
0.0
 11
4020.0
 21
15725.6907475
 31
0.0
  0
LINE
  5
21A
330
594
100
AcDbEntity
  8
YKK_C1
100
AcDbLine
 10
4007.5
 20
15740.6907475
 30
0.0
 11
4007.5
 21
15600.6907475
 31
0.0
  0
LINE
  5
21B
330
594
100
AcDbEntity
  8
YKK_C1
100
AcDbLine
 10
4007.5
 20
15600.6907475
 30
0.0
 11
4012.5
 21
15600.6907475
 31
0.0
  0
LINE
  5
21C
330
594
100
AcDbEntity
  8
YKK_C1
100
AcDbLine
 10
4057.5
 20
15725.6907475
 30
0.0
 11
4007.5
 21
15725.6907475
 31
0.0
  0
LINE
  5
21D
330
594
100
AcDbEntity
  8
YKK_C1
100
AcDbLine
 10
4057.5
 20
15610.6907475
 30
0.0
 11
4007.5
 21
15610.6907475
 31
0.0
  0
LINE
  5
21E
330
594
100
AcDbEntity
  8
YKK_C1
100
AcDbLine
 10
4007.5
 20
15740.6907475
 30
0.0
 11
4020.0
 21
15740.6907475
 31
0.0
  0
LINE
  5
21F
330
594
100
AcDbEntity
  8
YKK_Z1
  6
Continuous
100
AcDbLine
 10
4277.5
 20
15615.6907475
 30
0.0
 11
4277.5
 21
15605.6907475
 31
0.0
  0
LINE
  5
220
330
594
100
AcDbEntity
  8
YKK_Z1
  6
Continuous
100
AcDbLine
 10
4277.5
 20
15611.6907475
 30
0.0
 11
4282.5
 21
15611.6907475
 31
0.0
  0
LINE
  5
221
330
594
100
AcDbEntity
  8
YKK_Z1
  6
Continuous
100
AcDbLine
 10
4282.5
 20
15605.6907475
 30
0.0
 11
4282.5
 21
15615.6907475
 31
0.0
  0
LINE
  5
222
330
594
100
AcDbEntity
  8
YKK_Z1
  6
Continuous
100
AcDbLine
 10
4167.5
 20
15615.6907475
 30
0.0
 11
4167.5
 21
15605.6907475
 31
0.0
  0
LINE
  5
223
330
594
100
AcDbEntity
  8
YKK_Z1
  6
Continuous
100
AcDbLine
 10
4167.5
 20
15611.6907475
 30
0.0
 11
4172.5
 21
15611.6907475
 31
0.0
  0
LINE
  5
224
330
594
100
AcDbEntity
  8
YKK_Z1
  6
Continuous
100
AcDbLine
 10
4172.5
 20
15615.6907475
 30
0.0
 11
4222.5
 21
15615.6907475
 31
0.0
  0
LINE
  5
225
330
594
100
AcDbEntity
  8
YKK_Z1
  6
Continuous
100
AcDbLine
 10
4222.5
 20
15615.6907475
 30
0.0
 11
4222.5
 21
15605.6907475
 31
0.0
  0
LINE
  5
226
330
594
100
AcDbEntity
  8
YKK_Z1
  6
Continuous
100
AcDbLine
 10
4222.5
 20
15605.6907475
 30
0.0
 11
4172.5
 21
15605.6907475
 31
0.0
  0
LINE
  5
227
330
594
100
AcDbEntity
  8
YKK_Z1
  6
Continuous
100
AcDbLine
 10
4172.5
 20
15605.6907475
 30
0.0
 11
4172.5
 21
15615.6907475
 31
0.0
  0
LINE
  5
228
330
594
100
AcDbEntity
  8
YKK_Z1
  6
Continuous
100
AcDbLine
 10
4222.5
 20
15611.6907475
 30
0.0
 11
4227.5
 21
15611.6907475
 31
0.0
  0
LINE
  5
229
330
594
100
AcDbEntity
  8
YKK_Z1
  6
Continuous
100
AcDbLine
 10
4227.5
 20
15605.6907475
 30
0.0
 11
4227.5
 21
15615.6907475
 31
0.0
  0
LINE
  5
22A
330
594
100
AcDbEntity
  8
YKK_Z1
  6
Continuous
100
AcDbLine
 10
4227.5
 20
15615.6907475
 30
0.0
 11
4277.5
 21
15615.6907475
 31
0.0
  0
LINE
  5
22B
330
594
100
AcDbEntity
  8
YKK_Z1
  6
Continuous
100
AcDbLine
 10
4277.5
 20
15605.6907475
 30
0.0
 11
4227.5
 21
15605.6907475
 31
0.0
  0
LINE
  5
22C
330
594
100
AcDbEntity
  8
YKK_Z1
  6
Continuous
100
AcDbLine
 10
4057.5
 20
15611.6907475
 30
0.0
 11
4062.5
 21
15611.6907475
 31
0.0
  0
LINE
  5
22D
330
594
100
AcDbEntity
  8
YKK_Z1
  6
Continuous
100
AcDbLine
 10
4062.5
 20
15615.6907475
 30
0.0
 11
4112.5
 21
15615.6907475
 31
0.0
  0
LINE
  5
22E
330
594
100
AcDbEntity
  8
YKK_Z1
  6
Continuous
100
AcDbLine
 10
4112.5
 20
15615.6907475
 30
0.0
 11
4112.5
 21
15605.6907475
 31
0.0
  0
LINE
  5
22F
330
594
100
AcDbEntity
  8
YKK_Z1
  6
Continuous
100
AcDbLine
 10
4112.5
 20
15605.6907475
 30
0.0
 11
4062.5
 21
15605.6907475
 31
0.0
  0
LINE
  5
230
330
594
100
AcDbEntity
  8
YKK_Z1
  6
Continuous
100
AcDbLine
 10
4062.5
 20
15605.6907475
 30
0.0
 11
4062.5
 21
15615.6907475
 31
0.0
  0
LINE
  5
231
330
594
100
AcDbEntity
  8
YKK_Z1
  6
Continuous
100
AcDbLine
 10
4112.5
 20
15611.6907475
 30
0.0
 11
4117.5
 21
15611.6907475
 31
0.0
  0
LINE
  5
232
330
594
100
AcDbEntity
  8
YKK_Z1
  6
Continuous
100
AcDbLine
 10
4117.5
 20
15605.6907475
 30
0.0
 11
4117.5
 21
15615.6907475
 31
0.0
  0
LINE
  5
233
330
594
100
AcDbEntity
  8
YKK_Z1
  6
Continuous
100
AcDbLine
 10
4007.5
 20
15615.6907475
 30
0.0
 11
4007.5
 21
15605.6907475
 31
0.0
  0
LINE
  5
234
330
594
100
AcDbEntity
  8
YKK_Z1
  6
Continuous
100
AcDbLine
 10
4002.5
 20
15605.6907475
 30
0.0
 11
4002.5
 21
15615.6907475
 31
0.0
  0
LINE
  5
235
330
594
100
AcDbEntity
  8
YKK_Z1
  6
Continuous
100
AcDbLine
 10
4007.5
 20
15611.6907475
 30
0.0
 11
4002.5
 21
15611.6907475
 31
0.0
  0
LINE
  5
236
330
594
100
AcDbEntity
  8
YKK_Z1
  6
Continuous
100
AcDbLine
 10
4117.5
 20
15615.6907475
 30
0.0
 11
4167.5
 21
15615.6907475
 31
0.0
  0
LINE
  5
237
330
594
100
AcDbEntity
  8
YKK_Z1
  6
Continuous
100
AcDbLine
 10
4167.5
 20
15605.6907475
 30
0.0
 11
4117.5
 21
15605.6907475
 31
0.0
  0
LINE
  5
238
330
594
100
AcDbEntity
  8
YKK_N1
100
AcDbLine
 10
4507.5
 20
15615.6907475
 30
0.0
 11
4507.5
 21
15635.6907475
 31
0.0
  0
CIRCLE
  5
239
330
594
100
AcDbEntity
  8
YKK_N1
100
AcDbCircle
 10
4507.5
 20
15615.6907475
 30
0.0
 40
6.5
  0
CIRCLE
  5
23A
330
594
100
AcDbEntity
  8
YKK_N1
100
AcDbCircle
 10
4507.5
 20
15615.6907475
 30
0.0
 40
10.0
  0
LINE
  5
23B
330
594
100
AcDbEntity
  8
YKK_Z1
  6
Continuous
100
AcDbLine
 10
4497.5
 20
15615.6907475
 30
0.0
 11
4497.5
 21
15605.6907475
 31
0.0
  0
LINE
  5
23C
330
594
100
AcDbEntity
  8
YKK_Z1
  6
Continuous
100
AcDbLine
 10
4497.5
 20
15611.6907475
 30
0.0
 11
4502.5
 21
15611.6907475
 31
0.0
  0
LINE
  5
23D
330
594
100
AcDbEntity
  8
YKK_Z1
  6
Continuous
100
AcDbLine
 10
4502.5
 20
15615.6907475
 30
0.0
 11
4507.5
 21
15615.6907475
 31
0.0
  0
LINE
  5
23E
330
594
100
AcDbEntity
  8
YKK_Z1
  6
Continuous
100
AcDbLine
 10
4507.5
 20
15605.6907475
 30
0.0
 11
4502.5
 21
15605.6907475
 31
0.0
  0
LINE
  5
23F
330
594
100
AcDbEntity
  8
YKK_Z1
  6
Continuous
100
AcDbLine
 10
4502.5
 20
15605.6907475
 30
0.0
 11
4502.5
 21
15615.6907475
 31
0.0
  0
LINE
  5
240
330
594
100
AcDbEntity
  8
YKK_Z1
  6
Continuous
100
AcDbLine
 10
4387.5
 20
15615.6907475
 30
0.0
 11
4387.5
 21
15605.6907475
 31
0.0
  0
LINE
  5
241
330
594
100
AcDbEntity
  8
YKK_Z1
  6
Continuous
100
AcDbLine
 10
4387.5
 20
15611.6907475
 30
0.0
 11
4392.5
 21
15611.6907475
 31
0.0
  0
LINE
  5
242
330
594
100
AcDbEntity
  8
YKK_Z1
  6
Continuous
100
AcDbLine
 10
4392.5
 20
15615.6907475
 30
0.0
 11
4442.5
 21
15615.6907475
 31
0.0
  0
LINE
  5
243
330
594
100
AcDbEntity
  8
YKK_Z1
  6
Continuous
100
AcDbLine
 10
4442.5
 20
15615.6907475
 30
0.0
 11
4442.5
 21
15605.6907475
 31
0.0
  0
LINE
  5
244
330
594
100
AcDbEntity
  8
YKK_Z1
  6
Continuous
100
AcDbLine
 10
4442.5
 20
15605.6907475
 30
0.0
 11
4392.5
 21
15605.6907475
 31
0.0
  0
LINE
  5
245
330
594
100
AcDbEntity
  8
YKK_Z1
  6
Continuous
100
AcDbLine
 10
4392.5
 20
15605.6907475
 30
0.0
 11
4392.5
 21
15615.6907475
 31
0.0
  0
LINE
  5
246
330
594
100
AcDbEntity
  8
YKK_Z1
  6
Continuous
100
AcDbLine
 10
4442.5
 20
15611.6907475
 30
0.0
 11
4447.5
 21
15611.6907475
 31
0.0
  0
LINE
  5
247
330
594
100
AcDbEntity
  8
YKK_Z1
  6
Continuous
100
AcDbLine
 10
4447.5
 20
15605.6907475
 30
0.0
 11
4447.5
 21
15615.6907475
 31
0.0
  0
LINE
  5
248
330
594
100
AcDbEntity
  8
YKK_Z1
  6
Continuous
100
AcDbLine
 10
4447.5
 20
15615.6907475
 30
0.0
 11
4497.5
 21
15615.6907475
 31
0.0
  0
LINE
  5
249
330
594
100
AcDbEntity
  8
YKK_Z1
  6
Continuous
100
AcDbLine
 10
4497.5
 20
15605.6907475
 30
0.0
 11
4447.5
 21
15605.6907475
 31
0.0
  0
LINE
  5
24A
330
594
100
AcDbEntity
  8
YKK_Z1
  6
Continuous
100
AcDbLine
 10
4332.5
 20
15615.6907475
 30
0.0
 11
4332.5
 21
15605.6907475
 31
0.0
  0
LINE
  5
24B
330
594
100
AcDbEntity
  8
YKK_Z1
  6
Continuous
100
AcDbLine
 10
4332.5
 20
15611.6907475
 30
0.0
 11
4337.5
 21
15611.6907475
 31
0.0
  0
LINE
  5
24C
330
594
100
AcDbEntity
  8
YKK_Z1
  6
Continuous
100
AcDbLine
 10
4337.5
 20
15605.6907475
 30
0.0
 11
4337.5
 21
15615.6907475
 31
0.0
  0
LINE
  5
24D
330
594
100
AcDbEntity
  8
YKK_Z1
  6
Continuous
100
AcDbLine
 10
4337.5
 20
15615.6907475
 30
0.0
 11
4387.5
 21
15615.6907475
 31
0.0
  0
LINE
  5
24E
330
594
100
AcDbEntity
  8
YKK_Z1
  6
Continuous
100
AcDbLine
 10
4387.5
 20
15605.6907475
 30
0.0
 11
4337.5
 21
15605.6907475
 31
0.0
  0
LINE
  5
24F
330
594
100
AcDbEntity
  8
YKK_Z1
  6
ByBlock
 62
     0
100
AcDbLine
 10
5024.42673029
 20
15675.6907475
 30
0.0
 11
4989.78571429
 21
15615.6907475
 31
0.0
  0
LINE
  5
250
330
594
100
AcDbEntity
  8
YKK_Z1
  6
ByBlock
 62
     0
100
AcDbLine
 10
4955.14469829
 20
15675.6907475
 30
0.0
 11
5024.42673029
 21
15675.6907475
 31
0.0
  0
LINE
  5
251
330
594
100
AcDbEntity
  8
YKK_N1
  6
ByBlock
100
AcDbLine
 10
4657.5
 20
15702.29328788
 30
0.0
 11
4707.5
 21
15615.6907475
 31
0.0
  0
LINE
  5
252
330
594
100
AcDbEntity
  8
YKK_N1
  6
ByBlock
100
AcDbLine
 10
4757.5
 20
15702.29328788
 30
0.0
 11
4657.5
 21
15702.29328788
 31
0.0
  0
LINE
  5
253
330
594
100
AcDbEntity
  8
YKK_N1
  6
ByBlock
100
AcDbLine
 10
4707.5
 20
15615.6907475
 30
0.0
 11
4757.5
 21
15702.29328788
 31
0.0
  0
LINE
  5
254
330
594
100
AcDbEntity
  8
YKK_N1
  6
ByBlock
100
AcDbLine
 10
4707.5
 20
15615.6907475
 30
0.0
 11
4707.5
 21
15715.6907475
 31
0.0
  0
LINE
  5
255
330
594
100
AcDbEntity
  8
YKK_Z1
  6
ByBlock
 62
     0
100
AcDbLine
 10
4989.78571429
 20
15615.6907475
 30
0.0
 11
4955.14469829
 21
15675.6907475
 31
0.0
  0
TEXT
  5
256
330
594
100
AcDbEntity
  8
YKK_Z1
100
AcDbText
 10
5029.78571429
 20
15625.6907475
 30
0.0
 40
60.0
  1
FL
 41
0.8
  7
YKK_SGSTYLE1
 72
     2
 11
5107.5
 21
15625.6907475
 31
0.0
100
AcDbText
  0
TEXT
  5
257
330
594
100
AcDbEntity
  8
YKK_N1
100
AcDbText
 10
7360.07142857
 20
13332.5
 30
0.0
 40
60.0
  1
W=1600
 41
0.8
  7
YKK_SGSTYLE1
100
AcDbText
  0
LINE
  5
258
330
594
100
AcDbEntity
  8
YKK_N1
  6
ByBlock
100
AcDbLine
 10
6708.5
 20
13322.5
 30
0.0
 11
8306.5
 21
13322.5
 31
0.0
  0
LINE
  5
259
330
594
100
AcDbEntity
  8
YKK_N1
  6
ByBlock
100
AcDbLine
 10
6727.5
 20
13522.5
 30
0.0
 11
7469.5
 21
13522.5
 31
0.0
  0
LINE
  5
25A
330
594
100
AcDbEntity
  8
YKK_B1
100
AcDbLine
 10
6707.5
 20
14049.5
 30
0.0
 11
7489.5
 21
14049.5
 31
0.0
  0
LINE
  5
25B
330
594
100
AcDbEntity
  8
YKK_B1
100
AcDbLine
 10
6727.5
 20
13922.5
 30
0.0
 11
7469.5
 21
13922.5
 31
0.0
  0
LINE
  5
25C
330
594
100
AcDbEntity
  8
YKK_B1
100
AcDbLine
 10
6727.5
 20
14072.5
 30
0.0
 11
7469.5
 21
14072.5
 31
0.0
  0
LINE
  5
25D
330
594
100
AcDbEntity
  8
YKK_Z1
  6
Continuous
100
AcDbLine
 10
6697.5
 20
13922.5
 30
0.0
 11
6697.5
 21
13722.5
 31
0.0
  0
LINE
  5
25E
330
594
100
AcDbEntity
  8
YKK_Z1
  6
Continuous
100
AcDbLine
 10
6685.0
 20
13722.5
 30
0.0
 11
6685.0
 21
13922.5
 31
0.0
  0
LINE
  5
25F
330
594
100
AcDbEntity
  8
YKK_N1
100
AcDbLine
 10
6707.5
 20
13522.5
 30
0.0
 11
6727.5
 21
13522.5
 31
0.0
  0
LINE
  5
260
330
594
100
AcDbEntity
  8
YKK_N1
  6
ByBlock
100
AcDbLine
 10
6794.10254038
 20
13372.5
 30
0.0
 11
6707.5
 21
13322.5
 31
0.0
  0
LINE
  5
261
330
594
100
AcDbEntity
  8
YKK_N1
  6
ByBlock
100
AcDbLine
 10
6707.5
 20
13322.5
 30
0.0
 11
6794.10254038
 21
13272.5
 31
0.0
  0
LINE
  5
262
330
594
100
AcDbEntity
  8
YKK_N1
  6
ByBlock
100
AcDbLine
 10
6707.5
 20
13322.5
 30
0.0
 11
6807.5
 21
13322.5
 31
0.0
  0
CIRCLE
  5
263
330
594
100
AcDbEntity
  8
YKK_N1
100
AcDbCircle
 10
6707.5
 20
13522.5
 30
0.0
 40
10.0
  0
LINE
  5
264
330
594
100
AcDbEntity
  8
YKK_N1
  6
ByBlock
100
AcDbLine
 10
6707.5
 20
13862.5
 30
0.0
 11
6707.5
 21
13292.5
 31
0.0
  0
LINE
  5
265
330
594
100
AcDbEntity
  8
YKK_N1
  6
ByBlock
100
AcDbLine
 10
6707.5
 20
13862.5
 30
0.0
 11
6707.5
 21
13492.5
 31
0.0
  0
CIRCLE
  5
266
330
594
100
AcDbEntity
  8
YKK_N1
100
AcDbCircle
 10
6707.5
 20
13522.5
 30
0.0
 40
6.5
  0
LINE
  5
267
330
594
100
AcDbEntity
  8
YKK_N1
  6
ByBlock
100
AcDbLine
 10
6794.10254038
 20
13272.5
 30
0.0
 11
6794.10254038
 21
13372.5
 31
0.0
  0
TEXT
  5
268
330
594
100
AcDbEntity
  8
YKK_N1
100
AcDbText
 10
7029.92857143
 20
13532.5
 30
0.0
 40
60.0
  1
782
 41
0.8
  7
YKK_SGSTYLE1
100
AcDbText
  0
LINE
  5
269
330
594
100
AcDbEntity
  8
YKK_Z1
  6
Continuous
100
AcDbLine
 10
6677.5
 20
14122.5
 30
0.0
 11
6307.5
 21
14122.5
 31
0.0
  0
LINE
  5
26A
330
594
100
AcDbEntity
  8
YKK_Z1
  6
Continuous
100
AcDbLine
 10
6692.5
 20
14137.5
 30
0.0
 11
6307.5
 21
14137.5
 31
0.0
  0
LINE
  5
26B
330
594
100
AcDbEntity
  8
YKK_Z1
  6
Continuous
100
AcDbLine
 10
6684.5
 20
14129.5
 30
0.0
 11
6307.5
 21
14129.5
 31
0.0
  0
LINE
  5
26C
330
594
100
AcDbEntity
  8
YKK_Z1
  6
Continuous
100
AcDbLine
 10
6387.49995497
 20
13922.5
 30
0.0
 11
6367.4999515
 21
13942.5
 31
0.0
  0
LINE
  5
26D
330
594
100
AcDbEntity
  8
YKK_Z1
  6
Continuous
100
AcDbLine
 10
6387.5001351
 20
13942.5
 30
0.0
 11
6367.50014549
 21
13922.5
 31
0.0
  0
LINE
  5
26E
330
594
100
AcDbEntity
  8
YKK_Z1
  6
Continuous
100
AcDbLine
 10
6307.5
 20
13942.5
 30
0.0
 11
6647.5
 21
13942.5
 31
0.0
  0
LINE
  5
26F
330
594
100
AcDbEntity
  8
YKK_Z1
  6
CENTER
100
AcDbLine
 10
6662.5
 20
14032.5
 30
0.0
 11
6307.5
 21
14032.5
 31
0.0
  0
LINE
  5
270
330
594
100
AcDbEntity
  8
YKK_Z1
  6
Continuous
100
AcDbLine
 10
6647.5
 20
13922.5
 30
0.0
 11
6307.5
 21
13922.5
 31
0.0
  0
LINE
  5
271
330
594
100
AcDbEntity
  8
YKK_Z1
  6
Continuous
100
AcDbLine
 10
6487.49990647
 20
14122.5
 30
0.0
 11
6307.5
 21
13942.5
 31
0.0
  0
LINE
  5
272
330
594
100
AcDbEntity
  8
YKK_Z1
  6
Continuous
100
AcDbLine
 10
6495.98518417
 20
14122.5
 30
0.0
 11
6315.9852777
 21
13942.5
 31
0.0
  0
LINE
  5
273
330
594
100
AcDbEntity
  8
YKK_Z1
  6
Continuous
100
AcDbLine
 10
6515.78416547
 20
14122.5
 30
0.0
 11
6335.784259
 21
13942.5
 31
0.0
  0
LINE
  5
274
330
594
100
AcDbEntity
  8
YKK_Z1
  6
Continuous
100
AcDbLine
 10
6372.5
 20
14137.5
 30
0.0
 11
6372.5
 21
14129.5
 31
0.0
  0
LINE
  5
275
330
594
100
AcDbEntity
  8
YKK_Z1
  6
Continuous
100
AcDbLine
 10
6362.5
 20
14137.5
 30
0.0
 11
6362.5
 21
14129.5
 31
0.0
  0
LINE
  5
276
330
594
100
AcDbEntity
  8
YKK_Z1
  6
Continuous
100
AcDbLine
 10
6367.4999515
 20
13922.5
 30
0.0
 11
6347.49994804
 21
13942.5
 31
0.0
  0
LINE
  5
277
330
594
100
AcDbEntity
  8
YKK_Z1
  6
Continuous
100
AcDbLine
 10
6347.49994804
 20
13922.5
 30
0.0
 11
6327.49994457
 21
13942.5
 31
0.0
  0
LINE
  5
278
330
594
100
AcDbEntity
  8
YKK_Z1
  6
Continuous
100
AcDbLine
 10
6327.49994457
 20
13922.5
 30
0.0
 11
6307.5
 21
13942.49994111
 31
0.0
  0
LINE
  5
279
330
594
100
AcDbEntity
  8
YKK_Z1
  6
Continuous
100
AcDbLine
 10
6367.50014549
 20
13942.5
 30
0.0
 11
6347.50015588
 21
13922.5
 31
0.0
  0
LINE
  5
27A
330
594
100
AcDbEntity
  8
YKK_Z1
  6
Continuous
100
AcDbLine
 10
6347.50015588
 20
13942.5
 30
0.0
 11
6327.50016628
 21
13922.5
 31
0.0
  0
LINE
  5
27B
330
594
100
AcDbEntity
  8
YKK_Z1
  6
Continuous
100
AcDbLine
 10
6327.50016628
 20
13942.5
 30
0.0
 11
6307.50017667
 21
13922.5
 31
0.0
  0
LINE
  5
27C
330
594
100
AcDbEntity
  8
YKK_Z1
  6
Continuous
100
AcDbLine
 10
6307.50017667
 20
13942.5
 30
0.0
 11
6307.5
 21
13942.49982333
 31
0.0
  0
POINT
  5
27D
330
594
100
AcDbEntity
  8
YKK_N1
  6
ByBlock
100
AcDbPoint
 10
6707.5
 20
13922.5
 30
0.0
  0
POINT
  5
27E
330
594
100
AcDbEntity
  8
YKK_N1
  6
ByBlock
100
AcDbPoint
 10
6707.5
 20
13922.5
 30
0.0
  0
LINE
  5
27F
330
594
100
AcDbEntity
  8
YKK_B1
100
AcDbLine
 10
6707.5
 20
14039.0
 30
0.0
 11
6683.5
 21
14039.0
 31
0.0
  0
LINE
  5
280
330
594
100
AcDbEntity
  8
YKK_B1
100
AcDbLine
 10
6683.5
 20
14039.0
 30
0.0
 11
6683.5
 21
14060.0
 31
0.0
  0
LINE
  5
281
330
594
100
AcDbEntity
  8
YKK_B1
100
AcDbLine
 10
6683.5
 20
14060.0
 30
0.0
 11
6707.5
 21
14060.0
 31
0.0
  0
LINE
  5
282
330
594
100
AcDbEntity
  8
YKK_B1
100
AcDbLine
 10
6707.5
 20
14072.5
 30
0.0
 11
6677.5
 21
14072.5
 31
0.0
  0
LINE
  5
283
330
594
100
AcDbEntity
  8
YKK_B1
100
AcDbLine
 10
6677.5
 20
14072.5
 30
0.0
 11
6677.5
 21
14062.5
 31
0.0
  0
LINE
  5
284
330
594
100
AcDbEntity
  8
YKK_B1
100
AcDbLine
 10
6707.5
 20
13922.5
 30
0.0
 11
6677.5
 21
13922.5
 31
0.0
  0
LINE
  5
285
330
594
100
AcDbEntity
  8
YKK_B1
100
AcDbLine
 10
6677.5
 20
13922.5
 30
0.0
 11
6677.5
 21
13932.5
 31
0.0
  0
LINE
  5
286
330
594
100
AcDbEntity
  8
YKK_B1
100
AcDbLine
 10
6707.5
 20
13922.5
 30
0.0
 11
6707.5
 21
14072.5
 31
0.0
  0
LINE
  5
287
330
594
100
AcDbEntity
  8
YKK_Z1
  6
Continuous
100
AcDbLine
 10
6592.5
 20
14137.5
 30
0.0
 11
6592.5
 21
14129.5
 31
0.0
  0
LINE
  5
288
330
594
100
AcDbEntity
  8
YKK_Z1
  6
Continuous
100
AcDbLine
 10
6582.5
 20
14137.5
 30
0.0
 11
6582.5
 21
14129.5
 31
0.0
  0
LINE
  5
289
330
594
100
AcDbEntity
  8
YKK_Z1
  6
Continuous
100
AcDbLine
 10
6482.5
 20
14137.5
 30
0.0
 11
6482.5
 21
14129.5
 31
0.0
  0
LINE
  5
28A
330
594
100
AcDbEntity
  8
YKK_Z1
  6
Continuous
100
AcDbLine
 10
6472.5
 20
14137.5
 30
0.0
 11
6472.5
 21
14129.5
 31
0.0
  0
LINE
  5
28B
330
594
100
AcDbEntity
  8
YKK_Z1
  6
Continuous
100
AcDbLine
 10
6647.5
 20
14077.5
 30
0.0
 11
6677.5
 21
14087.5
 31
0.0
  0
LINE
  5
28C
330
594
100
AcDbEntity
  8
YKK_Z1
  6
Continuous
100
AcDbLine
 10
6692.5
 20
14072.5
 30
0.0
 11
6684.5
 21
14072.5
 31
0.0
  0
LINE
  5
28D
330
594
100
AcDbEntity
  8
YKK_Z1
  6
Continuous
100
AcDbLine
 10
6647.5
 20
13957.23102915
 30
0.0
 11
6632.7689785
 21
13942.5
 31
0.0
  0
LINE
  5
28E
330
594
100
AcDbEntity
  8
YKK_Z1
  6
Continuous
100
AcDbLine
 10
6647.5
 20
13942.5
 30
0.0
 11
6647.5
 21
13922.5
 31
0.0
  0
LINE
  5
290
330
594
100
AcDbEntity
  8
YKK_Z1
  6
Continuous
100
AcDbLine
 10
6647.5
 20
13922.5
 30
0.0
 11
6627.49999654
 21
13942.5
 31
0.0
  0
LINE
  5
291
330
594
100
AcDbEntity
  8
YKK_Z1
  6
Continuous
100
AcDbLine
 10
6627.49999654
 20
13922.5
 30
0.0
 11
6607.49999307
 21
13942.5
 31
0.0
  0
LINE
  5
292
330
594
100
AcDbEntity
  8
YKK_Z1
  6
Continuous
100
AcDbLine
 10
6647.5
 20
13942.5
 30
0.0
 11
6627.50001039
 21
13922.5
 31
0.0
  0
LINE
  5
294
330
594
100
AcDbEntity
  8
YKK_Z1
  6
Continuous
100
AcDbLine
 10
6627.50001039
 20
13942.5
 30
0.0
 11
6607.50002078
 21
13922.5
 31
0.0
  0
LINE
  5
295
330
594
100
AcDbEntity
  8
YKK_Z1
  6
Continuous
100
AcDbLine
 10
6685.0
 20
13922.5
 30
0.0
 11
6697.5
 21
13922.5
 31
0.0
  0
LINE
  5
296
330
594
100
AcDbEntity
  8
YKK_Z1
  6
Continuous
100
AcDbLine
 10
6587.49998961
 20
13922.5
 30
0.0
 11
6567.49998614
 21
13942.5
 31
0.0
  0
LINE
  5
297
330
594
100
AcDbEntity
  8
YKK_Z1
  6
Continuous
100
AcDbLine
 10
6567.49998614
 20
13922.5
 30
0.0
 11
6547.49998268
 21
13942.5
 31
0.0
  0
LINE
  5
298
330
594
100
AcDbEntity
  8
YKK_Z1
  6
Continuous
100
AcDbLine
 10
6547.49998268
 20
13922.5
 30
0.0
 11
6527.49997922
 21
13942.5
 31
0.0
  0
LINE
  5
299
330
594
100
AcDbEntity
  8
YKK_Z1
  6
Continuous
100
AcDbLine
 10
6527.49997922
 20
13922.5
 30
0.0
 11
6507.49997575
 21
13942.5
 31
0.0
  0
LINE
  5
29A
330
594
100
AcDbEntity
  8
YKK_Z1
  6
Continuous
100
AcDbLine
 10
6587.50003118
 20
13942.5
 30
0.0
 11
6567.50004157
 21
13922.5
 31
0.0
  0
LINE
  5
29B
330
594
100
AcDbEntity
  8
YKK_Z1
  6
Continuous
100
AcDbLine
 10
6567.50004157
 20
13942.5
 30
0.0
 11
6547.50005196
 21
13922.5
 31
0.0
  0
LINE
  5
29C
330
594
100
AcDbEntity
  8
YKK_Z1
  6
Continuous
100
AcDbLine
 10
6547.50005196
 20
13942.5
 30
0.0
 11
6527.50006235
 21
13922.5
 31
0.0
  0
LINE
  5
29D
330
594
100
AcDbEntity
  8
YKK_Z1
  6
Continuous
100
AcDbLine
 10
6527.50006235
 20
13942.5
 30
0.0
 11
6507.50007275
 21
13922.5
 31
0.0
  0
LINE
  5
29E
330
594
100
AcDbEntity
  8
YKK_Z1
  6
Continuous
100
AcDbLine
 10
6607.49999307
 20
13922.5
 30
0.0
 11
6587.49998961
 21
13942.5
 31
0.0
  0
LINE
  5
29F
330
594
100
AcDbEntity
  8
YKK_Z1
  6
Continuous
100
AcDbLine
 10
6607.50002078
 20
13942.5
 30
0.0
 11
6587.50003118
 21
13922.5
 31
0.0
  0
LINE
  5
2A0
330
594
100
AcDbEntity
  8
YKK_Z1
  6
Continuous
100
AcDbLine
 10
6647.5
 20
13942.5
 30
0.0
 11
6647.5
 21
14077.5
 31
0.0
  0
LINE
  5
2A1
330
594
100
AcDbEntity
  8
YKK_Z1
  6
Continuous
100
AcDbLine
 10
6647.5
 20
13985.51530285
 30
0.0
 11
6604.4847195
 21
13942.5
 31
0.0
  0
LINE
  5
2A2
330
594
100
AcDbEntity
  8
YKK_Z1
  6
Continuous
100
AcDbLine
 10
6647.5
 20
13977.03002074
 30
0.0
 11
6612.9699972
 21
13942.5
 31
0.0
  0
LINE
  5
2A3
330
594
100
AcDbEntity
  8
YKK_Z1
  6
Continuous
100
AcDbLine
 10
6487.49997229
 20
13922.5
 30
0.0
 11
6467.49996882
 21
13942.5
 31
0.0
  0
LINE
  5
2A4
330
594
100
AcDbEntity
  8
YKK_Z1
  6
Continuous
100
AcDbLine
 10
6467.49996882
 20
13922.5
 30
0.0
 11
6447.49996536
 21
13942.5
 31
0.0
  0
LINE
  5
2A5
330
594
100
AcDbEntity
  8
YKK_Z1
  6
Continuous
100
AcDbLine
 10
6447.49996536
 20
13922.5
 30
0.0
 11
6427.49996189
 21
13942.5
 31
0.0
  0
LINE
  5
2A6
330
594
100
AcDbEntity
  8
YKK_Z1
  6
Continuous
100
AcDbLine
 10
6427.49996189
 20
13922.5
 30
0.0
 11
6407.49995843
 21
13942.5
 31
0.0
  0
LINE
  5
2A7
330
594
100
AcDbEntity
  8
YKK_Z1
  6
Continuous
100
AcDbLine
 10
6407.49995843
 20
13922.5
 30
0.0
 11
6387.49995497
 21
13942.5
 31
0.0
  0
LINE
  5
2A8
330
594
100
AcDbEntity
  8
YKK_Z1
  6
Continuous
100
AcDbLine
 10
6487.50008314
 20
13942.5
 30
0.0
 11
6467.50009353
 21
13922.5
 31
0.0
  0
LINE
  5
2A9
330
594
100
AcDbEntity
  8
YKK_Z1
  6
Continuous
100
AcDbLine
 10
6467.50009353
 20
13942.5
 30
0.0
 11
6447.50010392
 21
13922.5
 31
0.0
  0
LINE
  5
2AA
330
594
100
AcDbEntity
  8
YKK_Z1
  6
Continuous
100
AcDbLine
 10
6447.50010392
 20
13942.5
 30
0.0
 11
6427.50011432
 21
13922.5
 31
0.0
  0
LINE
  5
2AB
330
594
100
AcDbEntity
  8
YKK_Z1
  6
Continuous
100
AcDbLine
 10
6427.50011432
 20
13942.5
 30
0.0
 11
6407.50012471
 21
13922.5
 31
0.0
  0
LINE
  5
2AC
330
594
100
AcDbEntity
  8
YKK_Z1
  6
Continuous
100
AcDbLine
 10
6407.50012471
 20
13942.5
 30
0.0
 11
6387.5001351
 21
13922.5
 31
0.0
  0
LINE
  5
2AD
330
594
100
AcDbEntity
  8
YKK_Z1
  6
Continuous
100
AcDbLine
 10
6507.49997575
 20
13922.5
 30
0.0
 11
6487.49997229
 21
13942.5
 31
0.0
  0
LINE
  5
2AE
330
594
100
AcDbEntity
  8
YKK_Z1
  6
Continuous
100
AcDbLine
 10
6507.50007275
 20
13942.5
 30
0.0
 11
6487.50008314
 21
13922.5
 31
0.0
  0
LINE
  5
2AF
330
594
100
AcDbEntity
  8
YKK_Z1
  6
Continuous
100
AcDbLine
 10
6677.5
 20
14087.5
 30
0.0
 11
6677.5
 21
14122.5
 31
0.0
  0
LINE
  5
2B0
330
594
100
AcDbEntity
  8
YKK_Z1
  6
Continuous
100
AcDbLine
 10
6692.5
 20
14072.5
 30
0.0
 11
6692.5
 21
14137.5
 31
0.0
  0
LINE
  5
2B1
330
594
100
AcDbEntity
  8
YKK_Z1
  6
Continuous
100
AcDbLine
 10
6684.5
 20
14072.5
 30
0.0
 11
6684.5
 21
14129.5
 31
0.0
  0
LINE
  5
2B2
330
594
100
AcDbEntity
  8
YKK_N1
100
AcDbLine
 10
6931.5
 20
13922.5
 30
0.0
 11
6931.5
 21
13942.5
 31
0.0
  0
CIRCLE
  5
2B3
330
594
100
AcDbEntity
  8
YKK_N1
100
AcDbCircle
 10
6931.5
 20
13922.5
 30
0.0
 40
6.5
  0
CIRCLE
  5
2B4
330
594
100
AcDbEntity
  8
YKK_N1
100
AcDbCircle
 10
6931.5
 20
13922.5
 30
0.0
 40
10.0
  0
LINE
  5
2B5
330
594
100
AcDbEntity
  8
YKK_N1
100
AcDbLine
 10
6931.5
 20
14072.5
 30
0.0
 11
6931.5
 21
14052.5
 31
0.0
  0
CIRCLE
  5
2B6
330
594
100
AcDbEntity
  8
YKK_N1
100
AcDbCircle
 10
6931.5
 20
14072.5
 30
0.0
 40
6.5
  0
CIRCLE
  5
2B7
330
594
100
AcDbEntity
  8
YKK_N1
100
AcDbCircle
 10
6931.5
 20
14072.5
 30
0.0
 40
10.0
  0
TEXT
  5
2B8
330
594
100
AcDbEntity
  8
YKK_N1
100
AcDbText
 10
6921.5
 20
13925.5
 30
0.0
 40
60.0
  1
150
 50
90.0
 41
0.8
  7
YKK_SGSTYLE1
100
AcDbText
  0
POINT
  5
2B9
330
594
100
AcDbEntity
  8
YKK_N1
  6
ByBlock
100
AcDbPoint
 10
6931.5
 20
14072.5
 30
0.0
  0
POINT
  5
2BA
330
594
100
AcDbEntity
  8
YKK_N1
  6
ByBlock
100
AcDbPoint
 10
6941.5
 20
14072.5
 30
0.0
  0
POINT
  5
2BB
330
594
100
AcDbEntity
  8
YKK_N1
  6
ByBlock
100
AcDbPoint
 10
6941.5
 20
13922.5
 30
0.0
  0
LINE
  5
2BC
330
594
100
AcDbEntity
  8
YKK_N1
  6
ByBlock
100
AcDbLine
 10
6931.5
 20
13942.5
 30
0.0
 11
6931.5
 21
14052.5
 31
0.0
  0
LINE
  5
2BD
330
594
100
AcDbEntity
  8
YKK_N1
  6
ByBlock
100
AcDbLine
 10
6881.5
 20
14072.5
 30
0.0
 11
6901.5
 21
14072.5
 31
0.0
  0
LINE
  5
2BE
330
594
100
AcDbEntity
  8
YKK_N1
  6
ByBlock
100
AcDbLine
 10
6881.5
 20
13922.5
 30
0.0
 11
6901.5
 21
13922.5
 31
0.0
  0
LINE
  5
2BF
330
594
100
AcDbEntity
  8
YKK_Z1
  6
Continuous
100
AcDbLine
 10
8317.5
 20
13922.5
 30
0.0
 11
8317.5
 21
13722.5
 31
0.0
  0
LINE
  5
2C0
330
594
100
AcDbEntity
  8
YKK_Z1
  6
Continuous
100
AcDbLine
 10
8330.0
 20
13722.5
 30
0.0
 11
8330.0
 21
13922.5
 31
0.0
  0
LINE
  5
2C1
330
594
100
AcDbEntity
  8
YKK_N1
  6
ByBlock
100
AcDbLine
 10
7545.5
 20
13522.5
 30
0.0
 11
8287.5
 21
13522.5
 31
0.0
  0
CIRCLE
  5
2C2
330
594
100
AcDbEntity
  8
YKK_N1
100
AcDbCircle
 10
7489.5
 20
13522.5
 30
0.0
 40
10.0
  0
CIRCLE
  5
2C3
330
594
100
AcDbEntity
  8
YKK_N1
100
AcDbCircle
 10
7525.5
 20
13522.5
 30
0.0
 40
10.0
  0
CIRCLE
  5
2C4
330
594
100
AcDbEntity
  8
YKK_N1
100
AcDbCircle
 10
7489.5
 20
13522.5
 30
0.0
 40
10.0
  0
CIRCLE
  5
2C5
330
594
100
AcDbEntity
  8
YKK_N1
100
AcDbCircle
 10
7525.5
 20
13522.5
 30
0.0
 40
10.0
  0
LINE
  5
2C6
330
594
100
AcDbEntity
  8
YKK_N1
  6
ByBlock
100
AcDbLine
 10
7525.5
 20
13862.5
 30
0.0
 11
7525.5
 21
13492.5
 31
0.0
  0
LINE
  5
2C7
330
594
100
AcDbEntity
  8
YKK_N1
  6
ByBlock
100
AcDbLine
 10
7489.5
 20
13862.5
 30
0.0
 11
7489.5
 21
13492.5
 31
0.0
  0
LINE
  5
2C8
330
594
100
AcDbEntity
  8
YKK_N1
  6
ByBlock
100
AcDbLine
 10
7525.5
 20
13862.5
 30
0.0
 11
7525.5
 21
13492.5
 31
0.0
  0
LINE
  5
2C9
330
594
100
AcDbEntity
  8
YKK_N1
  6
ByBlock
100
AcDbLine
 10
7489.5
 20
13862.5
 30
0.0
 11
7489.5
 21
13492.5
 31
0.0
  0
TEXT
  5
2CA
330
594
100
AcDbEntity
  8
YKK_N1
100
AcDbText
 10
7461.78571429
 20
13425.0
 30
0.0
 40
60.0
  1
36
 41
0.8
  7
YKK_SGSTYLE1
100
AcDbText
  0
LINE
  5
2CB
330
594
100
AcDbEntity
  8
YKK_N1
100
AcDbLine
 10
7489.5
 20
13522.5
 30
0.0
 11
7469.5
 21
13522.5
 31
0.0
  0
CIRCLE
  5
2CC
330
594
100
AcDbEntity
  8
YKK_N1
100
AcDbCircle
 10
7489.5
 20
13522.5
 30
0.0
 40
6.5
  0
LINE
  5
2CD
330
594
100
AcDbEntity
  8
YKK_N1
100
AcDbLine
 10
7525.5
 20
13522.5
 30
0.0
 11
7545.5
 21
13522.5
 31
0.0
  0
CIRCLE
  5
2CE
330
594
100
AcDbEntity
  8
YKK_N1
100
AcDbCircle
 10
7525.5
 20
13522.5
 30
0.0
 40
6.5
  0
LINE
  5
2CF
330
594
100
AcDbEntity
  8
YKK_N1
100
AcDbLine
 10
7489.5
 20
13522.5
 30
0.0
 11
7469.5
 21
13522.5
 31
0.0
  0
CIRCLE
  5
2D0
330
594
100
AcDbEntity
  8
YKK_N1
100
AcDbCircle
 10
7489.5
 20
13522.5
 30
0.0
 40
6.5
  0
LINE
  5
2D1
330
594
100
AcDbEntity
  8
YKK_N1
100
AcDbLine
 10
7525.5
 20
13522.5
 30
0.0
 11
7545.5
 21
13522.5
 31
0.0
  0
CIRCLE
  5
2D2
330
594
100
AcDbEntity
  8
YKK_N1
100
AcDbCircle
 10
7525.5
 20
13522.5
 30
0.0
 40
6.5
  0
POINT
  5
2D3
330
594
100
AcDbEntity
  8
YKK_N1
  6
ByBlock
100
AcDbPoint
 10
7525.5
 20
13522.5
 30
0.0
  0
LINE
  5
2D4
330
594
100
AcDbEntity
  8
YKK_N1
  6
ByBlock
100
AcDbLine
 10
7489.5
 20
13522.5
 30
0.0
 11
7525.5
 21
13522.5
 31
0.0
  0
LINE
  5
2D5
330
594
100
AcDbEntity
  8
YKK_N1
  6
ByBlock
100
AcDbLine
 10
7489.5
 20
13522.5
 30
0.0
 11
7525.5
 21
13522.5
 31
0.0
  0
LINE
  5
2D6
330
594
100
AcDbEntity
  8
YKK_N1
  6
ByBlock
100
AcDbLine
 10
7545.5
 20
13522.5
 30
0.0
 11
7565.5
 21
13522.5
 31
0.0
  0
LINE
  5
2D7
330
594
100
AcDbEntity
  8
YKK_N1
  6
ByBlock
100
AcDbLine
 10
7469.5
 20
13522.5
 30
0.0
 11
7449.5
 21
13522.5
 31
0.0
  0
POINT
  5
2D8
330
594
100
AcDbEntity
  8
YKK_N1
  6
ByBlock
100
AcDbPoint
 10
7489.5
 20
13522.5
 30
0.0
  0
TEXT
  5
2D9
330
594
100
AcDbEntity
  8
YKK_N1
100
AcDbText
 10
7847.92857143
 20
13532.5
 30
0.0
 40
60.0
  1
782
 41
0.8
  7
YKK_SGSTYLE1
100
AcDbText
  0
CIRCLE
  5
2DA
330
594
100
AcDbEntity
  8
YKK_N1
100
AcDbCircle
 10
8307.5
 20
13522.5
 30
0.0
 40
10.0
  0
LINE
  5
2DB
330
594
100
AcDbEntity
  8
YKK_N1
  6
ByBlock
100
AcDbLine
 10
8307.5
 20
13862.5
 30
0.0
 11
8307.5
 21
13492.5
 31
0.0
  0
LINE
  5
2DC
330
594
100
AcDbEntity
  8
YKK_N1
  6
ByBlock
100
AcDbLine
 10
8307.5
 20
13862.5
 30
0.0
 11
8307.5
 21
13292.5
 31
0.0
  0
LINE
  5
2DD
330
594
100
AcDbEntity
  8
YKK_N1
  6
ByBlock
100
AcDbLine
 10
8220.89745962
 20
13272.5
 30
0.0
 11
8307.5
 21
13322.5
 31
0.0
  0
LINE
  5
2DE
330
594
100
AcDbEntity
  8
YKK_N1
  6
ByBlock
100
AcDbLine
 10
8220.89745962
 20
13372.5
 30
0.0
 11
8220.89745962
 21
13272.5
 31
0.0
  0
LINE
  5
2DF
330
594
100
AcDbEntity
  8
YKK_N1
  6
ByBlock
100
AcDbLine
 10
8307.5
 20
13322.5
 30
0.0
 11
8220.89745962
 21
13372.5
 31
0.0
  0
LINE
  5
2E0
330
594
100
AcDbEntity
  8
YKK_N1
  6
ByBlock
100
AcDbLine
 10
8307.5
 20
13322.5
 30
0.0
 11
8207.5
 21
13322.5
 31
0.0
  0
POINT
  5
2E1
330
594
100
AcDbEntity
  8
YKK_N1
  6
ByBlock
100
AcDbPoint
 10
8307.5
 20
13322.5
 30
0.0
  0
LINE
  5
2E2
330
594
100
AcDbEntity
  8
YKK_N1
100
AcDbLine
 10
8307.5
 20
13522.5
 30
0.0
 11
8287.5
 21
13522.5
 31
0.0
  0
CIRCLE
  5
2E3
330
594
100
AcDbEntity
  8
YKK_N1
100
AcDbCircle
 10
8307.5
 20
13522.5
 30
0.0
 40
6.5
  0
POINT
  5
2E4
330
594
100
AcDbEntity
  8
YKK_N1
  6
ByBlock
100
AcDbPoint
 10
8307.5
 20
13522.5
 30
0.0
  0
LINE
  5
2E5
330
594
100
AcDbEntity
  8
YKK_B1
100
AcDbLine
 10
7525.5
 20
14049.5
 30
0.0
 11
8307.5
 21
14049.5
 31
0.0
  0
LINE
  5
2E6
330
594
100
AcDbEntity
  8
YKK_B1
100
AcDbLine
 10
7545.5
 20
13922.5
 30
0.0
 11
8287.5
 21
13922.5
 31
0.0
  0
LINE
  5
2E7
330
594
100
AcDbEntity
  8
YKK_B1
100
AcDbLine
 10
7545.5
 20
14072.5
 30
0.0
 11
8287.5
 21
14072.5
 31
0.0
  0
POINT
  5
2E8
330
594
100
AcDbEntity
  8
YKK_N1
  6
ByBlock
100
AcDbPoint
 10
7525.5
 20
13922.5
 30
0.0
  0
POINT
  5
2E9
330
594
100
AcDbEntity
  8
YKK_N1
  6
ByBlock
100
AcDbPoint
 10
7489.5
 20
13922.5
 30
0.0
  0
POINT
  5
2EA
330
594
100
AcDbEntity
  8
YKK_N1
  6
ByBlock
100
AcDbPoint
 10
7525.5
 20
13922.5
 30
0.0
  0
POINT
  5
2EB
330
594
100
AcDbEntity
  8
YKK_N1
  6
ByBlock
100
AcDbPoint
 10
7489.5
 20
13922.5
 30
0.0
  0
LINE
  5
2EC
330
594
100
AcDbEntity
  8
YKK_B1
100
AcDbLine
 10
7489.5
 20
14072.5
 30
0.0
 11
7525.5
 21
14072.5
 31
0.0
  0
LINE
  5
2ED
330
594
100
AcDbEntity
  8
YKK_B1
100
AcDbLine
 10
7489.5
 20
13922.5
 30
0.0
 11
7525.5
 21
13922.5
 31
0.0
  0
LINE
  5
2EE
330
594
100
AcDbEntity
  8
YKK_B1
100
AcDbLine
 10
7489.5
 20
13922.5
 30
0.0
 11
7489.5
 21
14072.5
 31
0.0
  0
LINE
  5
2EF
330
594
100
AcDbEntity
  8
YKK_B1
100
AcDbLine
 10
7525.5
 20
13922.5
 30
0.0
 11
7525.5
 21
14072.5
 31
0.0
  0
LINE
  5
2F0
330
594
100
AcDbEntity
  8
YKK_Z1
  6
Continuous
100
AcDbLine
 10
8337.5
 20
14122.5
 30
0.0
 11
8707.5
 21
14122.5
 31
0.0
  0
LINE
  5
2F1
330
594
100
AcDbEntity
  8
YKK_Z1
  6
Continuous
100
AcDbLine
 10
8322.5
 20
14137.5
 30
0.0
 11
8707.5
 21
14137.5
 31
0.0
  0
LINE
  5
2F2
330
594
100
AcDbEntity
  8
YKK_Z1
  6
Continuous
100
AcDbLine
 10
8330.5
 20
14129.5
 30
0.0
 11
8707.5
 21
14129.5
 31
0.0
  0
LINE
  5
2F3
330
594
100
AcDbEntity
  8
YKK_Z1
  6
Continuous
100
AcDbLine
 10
8447.50001386
 20
13922.5
 30
0.0
 11
8467.50001732
 21
13942.5
 31
0.0
  0
LINE
  5
2F4
330
594
100
AcDbEntity
  8
YKK_Z1
  6
Continuous
100
AcDbLine
 10
8447.49995843
 20
13942.5
 30
0.0
 11
8467.49994804
 21
13922.5
 31
0.0
  0
LINE
  5
2F5
330
594
100
AcDbEntity
  8
YKK_Z1
  6
Continuous
100
AcDbLine
 10
8707.5
 20
13942.5
 30
0.0
 11
8367.5
 21
13942.5
 31
0.0
  0
LINE
  5
2F6
330
594
100
AcDbEntity
  8
YKK_Z1
  6
CENTER
100
AcDbLine
 10
8352.5
 20
14032.5
 30
0.0
 11
8707.5
 21
14032.5
 31
0.0
  0
LINE
  5
2F7
330
594
100
AcDbEntity
  8
YKK_Z1
  6
Continuous
100
AcDbLine
 10
8367.5
 20
13922.5
 30
0.0
 11
8707.5
 21
13922.5
 31
0.0
  0
LINE
  5
2F8
330
594
100
AcDbEntity
  8
YKK_Z1
  6
Continuous
100
AcDbLine
 10
8410.51507474
 20
13942.5
 30
0.0
 11
8590.51510592
 21
14122.5
 31
0.0
  0
LINE
  5
2F9
330
594
100
AcDbEntity
  8
YKK_Z1
  6
Continuous
100
AcDbLine
 10
8419.00035832
 20
13942.5
 30
0.0
 11
8599.0003895
 21
14122.5
 31
0.0
  0
LINE
  5
2FA
330
594
100
AcDbEntity
  8
YKK_Z1
  6
Continuous
100
AcDbLine
 10
8438.79935334
 20
13942.5
 30
0.0
 11
8618.79938452
 21
14122.5
 31
0.0
  0
POINT
  5
2FB
330
594
100
AcDbEntity
  8
YKK_N1
  6
ByBlock
100
AcDbPoint
 10
8307.5
 20
13922.5
 30
0.0
  0
POINT
  5
2FC
330
594
100
AcDbEntity
  8
YKK_N1
  6
ByBlock
100
AcDbPoint
 10
8307.5
 20
13922.5
 30
0.0
  0
LINE
  5
2FD
330
594
100
AcDbEntity
  8
YKK_B1
100
AcDbLine
 10
8331.5
 20
14039.0
 30
0.0
 11
8331.5
 21
14060.0
 31
0.0
  0
LINE
  5
2FE
330
594
100
AcDbEntity
  8
YKK_B1
100
AcDbLine
 10
8337.5
 20
14072.5
 30
0.0
 11
8337.5
 21
14062.5
 31
0.0
  0
LINE
  5
2FF
330
594
100
AcDbEntity
  8
YKK_B1
100
AcDbLine
 10
8337.5
 20
13922.5
 30
0.0
 11
8337.5
 21
13932.5
 31
0.0
  0
LINE
  5
300
330
594
100
AcDbEntity
  8
YKK_B1
100
AcDbLine
 10
8307.5
 20
13922.5
 30
0.0
 11
8307.5
 21
14072.5
 31
0.0
  0
LINE
  5
301
330
594
100
AcDbEntity
  8
YKK_B1
100
AcDbLine
 10
8307.5
 20
14039.0
 30
0.0
 11
8331.5
 21
14039.0
 31
0.0
  0
LINE
  5
302
330
594
100
AcDbEntity
  8
YKK_B1
100
AcDbLine
 10
8331.5
 20
14060.0
 30
0.0
 11
8307.5
 21
14060.0
 31
0.0
  0
LINE
  5
303
330
594
100
AcDbEntity
  8
YKK_B1
100
AcDbLine
 10
8307.5
 20
13922.5
 30
0.0
 11
8337.5
 21
13922.5
 31
0.0
  0
LINE
  5
304
330
594
100
AcDbEntity
  8
YKK_B1
100
AcDbLine
 10
8307.5
 20
14072.5
 30
0.0
 11
8337.5
 21
14072.5
 31
0.0
  0
LINE
  5
305
330
594
100
AcDbEntity
  8
YKK_Z1
  6
Continuous
100
AcDbLine
 10
8422.5
 20
14137.5
 30
0.0
 11
8422.5
 21
14129.5
 31
0.0
  0
LINE
  5
306
330
594
100
AcDbEntity
  8
YKK_Z1
  6
Continuous
100
AcDbLine
 10
8432.5
 20
14137.5
 30
0.0
 11
8432.5
 21
14129.5
 31
0.0
  0
LINE
  5
307
330
594
100
AcDbEntity
  8
YKK_Z1
  6
Continuous
100
AcDbLine
 10
8367.5
 20
14077.5
 30
0.0
 11
8337.5
 21
14087.5
 31
0.0
  0
LINE
  5
308
330
594
100
AcDbEntity
  8
YKK_Z1
  6
Continuous
100
AcDbLine
 10
8322.5
 20
14072.5
 30
0.0
 11
8330.5
 21
14072.5
 31
0.0
  0
LINE
  5
309
330
594
100
AcDbEntity
  8
YKK_Z1
  6
Continuous
100
AcDbLine
 10
8367.5
 20
13942.5
 30
0.0
 11
8367.5
 21
13922.5
 31
0.0
  0
LINE
  5
30B
330
594
100
AcDbEntity
  8
YKK_Z1
  6
Continuous
100
AcDbLine
 10
8367.5
 20
13922.5
 30
0.0
 11
8387.50000346
 21
13942.5
 31
0.0
  0
LINE
  5
30C
330
594
100
AcDbEntity
  8
YKK_Z1
  6
Continuous
100
AcDbLine
 10
8387.50000346
 20
13922.5
 30
0.0
 11
8407.50000693
 21
13942.5
 31
0.0
  0
LINE
  5
30D
330
594
100
AcDbEntity
  8
YKK_Z1
  6
Continuous
100
AcDbLine
 10
8407.50000693
 20
13922.5
 30
0.0
 11
8427.50001039
 21
13942.5
 31
0.0
  0
LINE
  5
30E
330
594
100
AcDbEntity
  8
YKK_Z1
  6
Continuous
100
AcDbLine
 10
8367.5
 20
13942.5
 30
0.0
 11
8387.49998961
 21
13922.5
 31
0.0
  0
LINE
  5
310
330
594
100
AcDbEntity
  8
YKK_Z1
  6
Continuous
100
AcDbLine
 10
8387.49998961
 20
13942.5
 30
0.0
 11
8407.49997922
 21
13922.5
 31
0.0
  0
LINE
  5
311
330
594
100
AcDbEntity
  8
YKK_Z1
  6
Continuous
100
AcDbLine
 10
8407.49997922
 20
13942.5
 30
0.0
 11
8427.49996882
 21
13922.5
 31
0.0
  0
LINE
  5
312
330
594
100
AcDbEntity
  8
YKK_Z1
  6
Continuous
100
AcDbLine
 10
8427.50001039
 20
13922.5
 30
0.0
 11
8447.50001386
 21
13942.5
 31
0.0
  0
LINE
  5
313
330
594
100
AcDbEntity
  8
YKK_Z1
  6
Continuous
100
AcDbLine
 10
8427.49996882
 20
13942.5
 30
0.0
 11
8447.49995843
 21
13922.5
 31
0.0
  0
LINE
  5
314
330
594
100
AcDbEntity
  8
YKK_Z1
  6
Continuous
100
AcDbLine
 10
8367.5
 20
13942.5
 30
0.0
 11
8367.5
 21
14077.5
 31
0.0
  0
LINE
  5
315
330
594
100
AcDbEntity
  8
YKK_Z1
  6
Continuous
100
AcDbLine
 10
8330.0
 20
13922.5
 30
0.0
 11
8317.5
 21
13922.5
 31
0.0
  0
LINE
  5
316
330
594
100
AcDbEntity
  8
YKK_Z1
  6
Continuous
100
AcDbLine
 10
8337.5
 20
14087.5
 30
0.0
 11
8337.5
 21
14122.5
 31
0.0
  0
LINE
  5
317
330
594
100
AcDbEntity
  8
YKK_Z1
  6
Continuous
100
AcDbLine
 10
8322.5
 20
14072.5
 30
0.0
 11
8322.5
 21
14137.5
 31
0.0
  0
LINE
  5
318
330
594
100
AcDbEntity
  8
YKK_Z1
  6
Continuous
100
AcDbLine
 10
8330.5
 20
14072.5
 30
0.0
 11
8330.5
 21
14129.5
 31
0.0
  0
LINE
  5
319
330
594
100
AcDbEntity
  8
YKK_Z1
  6
Continuous
100
AcDbLine
 10
8642.5
 20
14137.5
 30
0.0
 11
8642.5
 21
14129.5
 31
0.0
  0
LINE
  5
31A
330
594
100
AcDbEntity
  8
YKK_Z1
  6
Continuous
100
AcDbLine
 10
8652.5
 20
14137.5
 30
0.0
 11
8652.5
 21
14129.5
 31
0.0
  0
LINE
  5
31B
330
594
100
AcDbEntity
  8
YKK_Z1
  6
Continuous
100
AcDbLine
 10
8532.5
 20
14137.5
 30
0.0
 11
8532.5
 21
14129.5
 31
0.0
  0
LINE
  5
31C
330
594
100
AcDbEntity
  8
YKK_Z1
  6
Continuous
100
AcDbLine
 10
8542.5
 20
14137.5
 30
0.0
 11
8542.5
 21
14129.5
 31
0.0
  0
LINE
  5
31E
330
594
100
AcDbEntity
  8
YKK_Z1
  6
Continuous
100
AcDbLine
 10
8667.50005196
 20
13922.5
 30
0.0
 11
8687.50005543
 21
13942.5
 31
0.0
  0
LINE
  5
31F
330
594
100
AcDbEntity
  8
YKK_Z1
  6
Continuous
100
AcDbLine
 10
8687.50005543
 20
13922.5
 30
0.0
 11
8707.5
 21
13942.49994111
 31
0.0
  0
LINE
  5
320
330
594
100
AcDbEntity
  8
YKK_Z1
  6
Continuous
100
AcDbLine
 10
8667.49984412
 20
13942.5
 30
0.0
 11
8687.49983372
 21
13922.5
 31
0.0
  0
LINE
  5
321
330
594
100
AcDbEntity
  8
YKK_Z1
  6
Continuous
100
AcDbLine
 10
8687.49983372
 20
13942.5
 30
0.0
 11
8707.49982333
 21
13922.5
 31
0.0
  0
LINE
  5
322
330
594
100
AcDbEntity
  8
YKK_Z1
  6
Continuous
100
AcDbLine
 10
8707.49982333
 20
13942.5
 30
0.0
 11
8707.5
 21
13942.49982333
 31
0.0
  0
LINE
  5
323
330
594
100
AcDbEntity
  8
YKK_Z1
  6
Continuous
100
AcDbLine
 10
8567.50003464
 20
13922.5
 30
0.0
 11
8587.50003811
 21
13942.5
 31
0.0
  0
LINE
  5
324
330
594
100
AcDbEntity
  8
YKK_Z1
  6
Continuous
100
AcDbLine
 10
8587.50003811
 20
13922.5
 30
0.0
 11
8607.50004157
 21
13942.5
 31
0.0
  0
LINE
  5
325
330
594
100
AcDbEntity
  8
YKK_Z1
  6
Continuous
100
AcDbLine
 10
8607.50004157
 20
13922.5
 30
0.0
 11
8627.50004503
 21
13942.5
 31
0.0
  0
LINE
  5
326
330
594
100
AcDbEntity
  8
YKK_Z1
  6
Continuous
100
AcDbLine
 10
8627.50004503
 20
13922.5
 30
0.0
 11
8647.5000485
 21
13942.5
 31
0.0
  0
LINE
  5
327
330
594
100
AcDbEntity
  8
YKK_Z1
  6
Continuous
100
AcDbLine
 10
8567.49989608
 20
13942.5
 30
0.0
 11
8587.49988568
 21
13922.5
 31
0.0
  0
LINE
  5
328
330
594
100
AcDbEntity
  8
YKK_Z1
  6
Continuous
100
AcDbLine
 10
8587.49988568
 20
13942.5
 30
0.0
 11
8607.49987529
 21
13922.5
 31
0.0
  0
LINE
  5
329
330
594
100
AcDbEntity
  8
YKK_Z1
  6
Continuous
100
AcDbLine
 10
8607.49987529
 20
13942.5
 30
0.0
 11
8627.4998649
 21
13922.5
 31
0.0
  0
LINE
  5
32A
330
594
100
AcDbEntity
  8
YKK_Z1
  6
Continuous
100
AcDbLine
 10
8627.4998649
 20
13942.5
 30
0.0
 11
8647.49985451
 21
13922.5
 31
0.0
  0
LINE
  5
32B
330
594
100
AcDbEntity
  8
YKK_Z1
  6
Continuous
100
AcDbLine
 10
8647.5000485
 20
13922.5
 30
0.0
 11
8667.50005196
 21
13942.5
 31
0.0
  0
LINE
  5
32C
330
594
100
AcDbEntity
  8
YKK_Z1
  6
Continuous
100
AcDbLine
 10
8647.49985451
 20
13942.5
 30
0.0
 11
8667.49984412
 21
13922.5
 31
0.0
  0
LINE
  5
32D
330
594
100
AcDbEntity
  8
YKK_Z1
  6
Continuous
100
AcDbLine
 10
8467.50001732
 20
13922.5
 30
0.0
 11
8487.50002078
 21
13942.5
 31
0.0
  0
LINE
  5
32E
330
594
100
AcDbEntity
  8
YKK_Z1
  6
Continuous
100
AcDbLine
 10
8487.50002078
 20
13922.5
 30
0.0
 11
8507.50002425
 21
13942.5
 31
0.0
  0
LINE
  5
32F
330
594
100
AcDbEntity
  8
YKK_Z1
  6
Continuous
100
AcDbLine
 10
8507.50002425
 20
13922.5
 30
0.0
 11
8527.50002771
 21
13942.5
 31
0.0
  0
LINE
  5
330
330
594
100
AcDbEntity
  8
YKK_Z1
  6
Continuous
100
AcDbLine
 10
8527.50002771
 20
13922.5
 30
0.0
 11
8547.50003118
 21
13942.5
 31
0.0
  0
LINE
  5
331
330
594
100
AcDbEntity
  8
YKK_Z1
  6
Continuous
100
AcDbLine
 10
8467.49994804
 20
13942.5
 30
0.0
 11
8487.49993765
 21
13922.5
 31
0.0
  0
LINE
  5
332
330
594
100
AcDbEntity
  8
YKK_Z1
  6
Continuous
100
AcDbLine
 10
8487.49993765
 20
13942.5
 30
0.0
 11
8507.49992725
 21
13922.5
 31
0.0
  0
LINE
  5
333
330
594
100
AcDbEntity
  8
YKK_Z1
  6
Continuous
100
AcDbLine
 10
8507.49992725
 20
13942.5
 30
0.0
 11
8527.49991686
 21
13922.5
 31
0.0
  0
LINE
  5
334
330
594
100
AcDbEntity
  8
YKK_Z1
  6
Continuous
100
AcDbLine
 10
8527.49991686
 20
13942.5
 30
0.0
 11
8547.49990647
 21
13922.5
 31
0.0
  0
LINE
  5
335
330
594
100
AcDbEntity
  8
YKK_Z1
  6
Continuous
100
AcDbLine
 10
8547.50003118
 20
13922.5
 30
0.0
 11
8567.50003464
 21
13942.5
 31
0.0
  0
LINE
  5
336
330
594
100
AcDbEntity
  8
YKK_Z1
  6
Continuous
100
AcDbLine
 10
8547.49990647
 20
13942.5
 30
0.0
 11
8567.49989608
 21
13922.5
 31
0.0
  0
TEXT
  5
337
330
594
100
AcDbEntity
  8
YKK_N1
100
AcDbText
 10
7360.07142857
 20
15025.6907475
 30
0.0
 40
60.0
  1
W=1600
 41
0.8
  7
YKK_SGSTYLE1
100
AcDbText
  0
LINE
  5
338
330
594
100
AcDbEntity
  8
YKK_N1
  6
ByBlock
100
AcDbLine
 10
6708.5
 20
15015.6907475
 30
0.0
 11
8306.5
 21
15015.6907475
 31
0.0
  0
LINE
  5
339
330
594
100
AcDbEntity
  8
YKK_N1
  6
ByBlock
100
AcDbLine
 10
6727.5
 20
15215.6907475
 30
0.0
 11
7469.5
 21
15215.6907475
 31
0.0
  0
LINE
  5
33A
330
594
100
AcDbEntity
  8
YKK_A1
100
AcDbLine
 10
6692.5
 20
15615.6907475
 30
0.0
 11
7504.5
 21
15615.6907475
 31
0.0
  0
LINE
  5
33B
330
594
100
AcDbEntity
  8
YKK_A1
100
AcDbLine
 10
6707.5
 20
15615.6907475
 30
0.0
 11
7489.5
 21
15615.6907475
 31
0.0
  0
LINE
  5
33C
330
594
100
AcDbEntity
  8
YKK_A1
100
AcDbLine
 10
6707.5
 20
15740.6907475
 30
0.0
 11
7489.5
 21
15740.6907475
 31
0.0
  0
LINE
  5
33D
330
594
100
AcDbEntity
  8
YKK_N1
  6
ByBlock
100
AcDbLine
 10
6707.5
 20
15555.6907475
 30
0.0
 11
6707.5
 21
14985.6907475
 31
0.0
  0
LINE
  5
33E
330
594
100
AcDbEntity
  8
YKK_N1
  6
ByBlock
100
AcDbLine
 10
6707.5
 20
15555.6907475
 30
0.0
 11
6707.5
 21
15185.6907475
 31
0.0
  0
LINE
  5
33F
330
594
100
AcDbEntity
  8
YKK_N1
100
AcDbLine
 10
6707.5
 20
15215.6907475
 30
0.0
 11
6727.5
 21
15215.6907475
 31
0.0
  0
LINE
  5
340
330
594
100
AcDbEntity
  8
YKK_N1
  6
ByBlock
100
AcDbLine
 10
6794.10254038
 20
15065.6907475
 30
0.0
 11
6707.5
 21
15015.6907475
 31
0.0
  0
LINE
  5
341
330
594
100
AcDbEntity
  8
YKK_N1
  6
ByBlock
100
AcDbLine
 10
6707.5
 20
15015.6907475
 30
0.0
 11
6794.10254038
 21
14965.6907475
 31
0.0
  0
LINE
  5
342
330
594
100
AcDbEntity
  8
YKK_N1
  6
ByBlock
100
AcDbLine
 10
6707.5
 20
15015.6907475
 30
0.0
 11
6807.5
 21
15015.6907475
 31
0.0
  0
CIRCLE
  5
343
330
594
100
AcDbEntity
  8
YKK_N1
100
AcDbCircle
 10
6707.5
 20
15215.6907475
 30
0.0
 40
6.5
  0
CIRCLE
  5
344
330
594
100
AcDbEntity
  8
YKK_N1
100
AcDbCircle
 10
6707.5
 20
15215.6907475
 30
0.0
 40
10.0
  0
LINE
  5
345
330
594
100
AcDbEntity
  8
YKK_N1
  6
ByBlock
100
AcDbLine
 10
6794.10254038
 20
14965.6907475
 30
0.0
 11
6794.10254038
 21
15065.6907475
 31
0.0
  0
TEXT
  5
346
330
594
100
AcDbEntity
  8
YKK_N1
100
AcDbText
 10
7029.92857143
 20
15225.6907475
 30
0.0
 40
60.0
  1
782
 41
0.8
  7
YKK_SGSTYLE1
100
AcDbText
  0
POINT
  5
347
330
594
100
AcDbEntity
  8
YKK_N1
  6
ByBlock
100
AcDbPoint
 10
6707.5
 20
15615.6907475
 30
0.0
  0
POINT
  5
348
330
594
100
AcDbEntity
  8
YKK_N1
  6
ByBlock
100
AcDbPoint
 10
6707.5
 20
15615.6907475
 30
0.0
  0
LINE
  5
349
330
594
100
AcDbEntity
  8
YKK_N1
  6
ByBlock
100
AcDbLine
 10
8307.5
 20
15555.6907475
 30
0.0
 11
8307.5
 21
15185.6907475
 31
0.0
  0
LINE
  5
34A
330
594
100
AcDbEntity
  8
YKK_N1
  6
ByBlock
100
AcDbLine
 10
7525.5
 20
15555.6907475
 30
0.0
 11
7525.5
 21
15185.6907475
 31
0.0
  0
LINE
  5
34B
330
594
100
AcDbEntity
  8
YKK_N1
  6
ByBlock
100
AcDbLine
 10
7525.5
 20
15555.6907475
 30
0.0
 11
7525.5
 21
15185.6907475
 31
0.0
  0
LINE
  5
34C
330
594
100
AcDbEntity
  8
YKK_N1
  6
ByBlock
100
AcDbLine
 10
7489.5
 20
15555.6907475
 30
0.0
 11
7489.5
 21
15185.6907475
 31
0.0
  0
LINE
  5
34D
330
594
100
AcDbEntity
  8
YKK_N1
  6
ByBlock
100
AcDbLine
 10
8307.5
 20
15555.6907475
 30
0.0
 11
8307.5
 21
14985.6907475
 31
0.0
  0
LINE
  5
34E
330
594
100
AcDbEntity
  8
YKK_N1
  6
ByBlock
100
AcDbLine
 10
7489.5
 20
15555.6907475
 30
0.0
 11
7489.5
 21
15185.6907475
 31
0.0
  0
LINE
  5
34F
330
594
100
AcDbEntity
  8
YKK_N1
  6
ByBlock
100
AcDbLine
 10
7545.5
 20
15215.6907475
 30
0.0
 11
8287.5
 21
15215.6907475
 31
0.0
  0
LINE
  5
350
330
594
100
AcDbEntity
  8
YKK_N1
100
AcDbLine
 10
7489.5
 20
15215.6907475
 30
0.0
 11
7469.5
 21
15215.6907475
 31
0.0
  0
CIRCLE
  5
351
330
594
100
AcDbEntity
  8
YKK_N1
100
AcDbCircle
 10
7489.5
 20
15215.6907475
 30
0.0
 40
6.5
  0
CIRCLE
  5
352
330
594
100
AcDbEntity
  8
YKK_N1
100
AcDbCircle
 10
7489.5
 20
15215.6907475
 30
0.0
 40
10.0
  0
TEXT
  5
353
330
594
100
AcDbEntity
  8
YKK_N1
100
AcDbText
 10
7461.78571429
 20
15118.1907475
 30
0.0
 40
60.0
  1
36
 41
0.8
  7
YKK_SGSTYLE1
100
AcDbText
  0
LINE
  5
354
330
594
100
AcDbEntity
  8
YKK_N1
100
AcDbLine
 10
7489.5
 20
15215.6907475
 30
0.0
 11
7469.5
 21
15215.6907475
 31
0.0
  0
CIRCLE
  5
355
330
594
100
AcDbEntity
  8
YKK_N1
100
AcDbCircle
 10
7489.5
 20
15215.6907475
 30
0.0
 40
6.5
  0
CIRCLE
  5
356
330
594
100
AcDbEntity
  8
YKK_N1
100
AcDbCircle
 10
7489.5
 20
15215.6907475
 30
0.0
 40
10.0
  0
LINE
  5
357
330
594
100
AcDbEntity
  8
YKK_N1
100
AcDbLine
 10
7525.5
 20
15215.6907475
 30
0.0
 11
7545.5
 21
15215.6907475
 31
0.0
  0
CIRCLE
  5
358
330
594
100
AcDbEntity
  8
YKK_N1
100
AcDbCircle
 10
7525.5
 20
15215.6907475
 30
0.0
 40
6.5
  0
CIRCLE
  5
359
330
594
100
AcDbEntity
  8
YKK_N1
100
AcDbCircle
 10
7525.5
 20
15215.6907475
 30
0.0
 40
10.0
  0
LINE
  5
35A
330
594
100
AcDbEntity
  8
YKK_N1
100
AcDbLine
 10
7525.5
 20
15215.6907475
 30
0.0
 11
7545.5
 21
15215.6907475
 31
0.0
  0
CIRCLE
  5
35B
330
594
100
AcDbEntity
  8
YKK_N1
100
AcDbCircle
 10
7525.5
 20
15215.6907475
 30
0.0
 40
6.5
  0
CIRCLE
  5
35C
330
594
100
AcDbEntity
  8
YKK_N1
100
AcDbCircle
 10
7525.5
 20
15215.6907475
 30
0.0
 40
10.0
  0
POINT
  5
35D
330
594
100
AcDbEntity
  8
YKK_N1
  6
ByBlock
100
AcDbPoint
 10
7525.5
 20
15215.6907475
 30
0.0
  0
LINE
  5
35E
330
594
100
AcDbEntity
  8
YKK_N1
  6
ByBlock
100
AcDbLine
 10
7489.5
 20
15215.6907475
 30
0.0
 11
7525.5
 21
15215.6907475
 31
0.0
  0
LINE
  5
35F
330
594
100
AcDbEntity
  8
YKK_N1
  6
ByBlock
100
AcDbLine
 10
7489.5
 20
15215.6907475
 30
0.0
 11
7525.5
 21
15215.6907475
 31
0.0
  0
LINE
  5
360
330
594
100
AcDbEntity
  8
YKK_N1
  6
ByBlock
100
AcDbLine
 10
7545.5
 20
15215.6907475
 30
0.0
 11
7565.5
 21
15215.6907475
 31
0.0
  0
LINE
  5
361
330
594
100
AcDbEntity
  8
YKK_N1
  6
ByBlock
100
AcDbLine
 10
7469.5
 20
15215.6907475
 30
0.0
 11
7449.5
 21
15215.6907475
 31
0.0
  0
POINT
  5
362
330
594
100
AcDbEntity
  8
YKK_N1
  6
ByBlock
100
AcDbPoint
 10
7489.5
 20
15215.6907475
 30
0.0
  0
TEXT
  5
363
330
594
100
AcDbEntity
  8
YKK_N1
100
AcDbText
 10
7847.92857143
 20
15225.6907475
 30
0.0
 40
60.0
  1
782
 41
0.8
  7
YKK_SGSTYLE1
100
AcDbText
  0
LINE
  5
364
330
594
100
AcDbEntity
  8
YKK_N1
  6
ByBlock
100
AcDbLine
 10
8220.89745962
 20
14965.6907475
 30
0.0
 11
8307.5
 21
15015.6907475
 31
0.0
  0
LINE
  5
365
330
594
100
AcDbEntity
  8
YKK_N1
  6
ByBlock
100
AcDbLine
 10
8220.89745962
 20
15065.6907475
 30
0.0
 11
8220.89745962
 21
14965.6907475
 31
0.0
  0
LINE
  5
366
330
594
100
AcDbEntity
  8
YKK_N1
  6
ByBlock
100
AcDbLine
 10
8307.5
 20
15015.6907475
 30
0.0
 11
8220.89745962
 21
15065.6907475
 31
0.0
  0
LINE
  5
367
330
594
100
AcDbEntity
  8
YKK_N1
  6
ByBlock
100
AcDbLine
 10
8307.5
 20
15015.6907475
 30
0.0
 11
8207.5
 21
15015.6907475
 31
0.0
  0
POINT
  5
368
330
594
100
AcDbEntity
  8
YKK_N1
  6
ByBlock
100
AcDbPoint
 10
8307.5
 20
15015.6907475
 30
0.0
  0
LINE
  5
369
330
594
100
AcDbEntity
  8
YKK_N1
100
AcDbLine
 10
8307.5
 20
15215.6907475
 30
0.0
 11
8287.5
 21
15215.6907475
 31
0.0
  0
CIRCLE
  5
36A
330
594
100
AcDbEntity
  8
YKK_N1
100
AcDbCircle
 10
8307.5
 20
15215.6907475
 30
0.0
 40
6.5
  0
CIRCLE
  5
36B
330
594
100
AcDbEntity
  8
YKK_N1
100
AcDbCircle
 10
8307.5
 20
15215.6907475
 30
0.0
 40
10.0
  0
POINT
  5
36C
330
594
100
AcDbEntity
  8
YKK_N1
  6
ByBlock
100
AcDbPoint
 10
8307.5
 20
15215.6907475
 30
0.0
  0
LINE
  5
36D
330
594
100
AcDbEntity
  8
YKK_A1
100
AcDbLine
 10
7510.5
 20
15615.6907475
 30
0.0
 11
8322.5
 21
15615.6907475
 31
0.0
  0
LINE
  5
36E
330
594
100
AcDbEntity
  8
YKK_A1
100
AcDbLine
 10
7525.5
 20
15615.6907475
 30
0.0
 11
8307.5
 21
15615.6907475
 31
0.0
  0
LINE
  5
36F
330
594
100
AcDbEntity
  8
YKK_A1
100
AcDbLine
 10
7525.5
 20
15740.6907475
 30
0.0
 11
8307.5
 21
15740.6907475
 31
0.0
  0
POINT
  5
370
330
594
100
AcDbEntity
  8
YKK_N1
  6
ByBlock
100
AcDbPoint
 10
7525.5
 20
15615.6907475
 30
0.0
  0
POINT
  5
371
330
594
100
AcDbEntity
  8
YKK_N1
  6
ByBlock
100
AcDbPoint
 10
7525.5
 20
15615.6907475
 30
0.0
  0
POINT
  5
372
330
594
100
AcDbEntity
  8
YKK_N1
  6
ByBlock
100
AcDbPoint
 10
7489.5
 20
15615.6907475
 30
0.0
  0
POINT
  5
373
330
594
100
AcDbEntity
  8
YKK_N1
  6
ByBlock
100
AcDbPoint
 10
7489.5
 20
15615.6907475
 30
0.0
  0
TEXT
  5
374
330
594
100
AcDbEntity
  8
YKK_A1
100
AcDbText
 10
7420.64285714
 20
15770.6907475
 30
0.0
 40
60.0
  1
F
 41
0.8
  7
YKK_SGSTYLE1
 72
     2
 11
7459.5
 21
15770.6907475
 31
0.0
100
AcDbText
  0
LINE
  5
375
330
594
100
AcDbEntity
  8
YKK_A1
100
AcDbLine
 10
7489.5
 20
15615.6907475
 30
0.0
 11
7504.5
 21
15615.6907475
 31
0.0
  0
LINE
  5
376
330
594
100
AcDbEntity
  8
YKK_A1
100
AcDbLine
 10
7489.5
 20
15615.6907475
 30
0.0
 11
7525.5
 21
15615.6907475
 31
0.0
  0
LINE
  5
377
330
594
100
AcDbEntity
  8
YKK_A1
100
AcDbLine
 10
7525.5
 20
15615.6907475
 30
0.0
 11
7510.5
 21
15615.6907475
 31
0.0
  0
LINE
  5
378
330
594
100
AcDbEntity
  8
YKK_N1
  6
ByBlock
100
AcDbLine
 10
8367.5
 20
15615.6907475
 30
0.0
 11
8737.5
 21
15615.6907475
 31
0.0
  0
POINT
  5
379
330
594
100
AcDbEntity
  8
YKK_N1
  6
ByBlock
100
AcDbPoint
 10
8307.5
 20
15615.6907475
 30
0.0
  0
POINT
  5
37A
330
594
100
AcDbEntity
  8
YKK_N1
  6
ByBlock
100
AcDbPoint
 10
8307.5
 20
15615.6907475
 30
0.0
  0
POINT
  5
37B
330
594
100
AcDbEntity
  8
YKK_N1
  6
ByBlock
100
AcDbPoint
 10
8307.5
 20
15615.6907475
 30
0.0
  0
POINT
  5
37C
330
594
100
AcDbEntity
  8
YKK_N1
  6
ByBlock
100
AcDbPoint
 10
8307.5
 20
15615.6907475
 30
0.0
  0
TEXT
  5
37D
330
594
100
AcDbEntity
  8
YKK_A1
100
AcDbText
 10
8238.64285714
 20
15770.6907475
 30
0.0
 40
60.0
  1
F
 41
0.8
  7
YKK_SGSTYLE1
 72
     2
 11
8277.5
 21
15770.6907475
 31
0.0
100
AcDbText
  0
LINE
  5
37E
330
594
100
AcDbEntity
  8
YKK_N1
100
AcDbLine
 10
8707.5
 20
15615.6907475
 30
0.0
 11
8707.5
 21
15635.6907475
 31
0.0
  0
CIRCLE
  5
37F
330
594
100
AcDbEntity
  8
YKK_N1
100
AcDbCircle
 10
8707.5
 20
15615.6907475
 30
0.0
 40
6.5
  0
CIRCLE
  5
380
330
594
100
AcDbEntity
  8
YKK_N1
100
AcDbCircle
 10
8707.5
 20
15615.6907475
 30
0.0
 40
10.0
  0
LINE
  5
381
330
594
100
AcDbEntity
  8
YKK_N1
  6
ByBlock
100
AcDbLine
 10
9867.5
 20
15615.6907475
 30
0.0
 11
10437.5
 21
15615.6907475
 31
0.0
  0
LINE
  5
382
330
594
100
AcDbEntity
  8
YKK_N1
  6
ByBlock
100
AcDbLine
 10
9867.5
 20
15615.6907475
 30
0.0
 11
10237.5
 21
15615.6907475
 31
0.0
  0
LINE
  5
383
330
594
100
AcDbEntity
  8
YKK_Z1
  6
Continuous
100
AcDbLine
 10
10152.5
 20
15615.6907475
 30
0.0
 11
10202.5
 21
15615.6907475
 31
0.0
  0
LINE
  5
384
330
594
100
AcDbEntity
  8
YKK_Z1
  6
Continuous
100
AcDbLine
 10
10202.5
 20
15605.6907475
 30
0.0
 11
10152.5
 21
15605.6907475
 31
0.0
  0
LINE
  5
385
330
594
100
AcDbEntity
  8
YKK_Z1
  6
Continuous
100
AcDbLine
 10
10207.5
 20
15565.6907475
 30
0.0
 11
10027.50003118
 21
15385.6907475
 31
0.0
  0
LINE
  5
386
330
594
100
AcDbEntity
  8
YKK_Z1
  6
Continuous
100
AcDbLine
 10
10207.5
 20
15557.20546393
 30
0.0
 11
10035.98531329
 21
15385.6907475
 31
0.0
  0
LINE
  5
387
330
594
100
AcDbEntity
  8
YKK_Z1
  6
Continuous
100
AcDbLine
 10
10207.5
 20
15537.40646891
 30
0.0
 11
10055.78430487
 21
15385.6907475
 31
0.0
  0
LINE
  5
388
330
594
100
AcDbEntity
  8
YKK_Z1
  6
Continuous
100
AcDbLine
 10
10207.5
 20
15565.6907475
 30
0.0
 11
9457.5
 21
15565.6907475
 31
0.0
  0
LINE
  5
389
330
594
100
AcDbEntity
  8
YKK_Z1
  6
Continuous
100
AcDbLine
 10
9457.5
 20
15385.6907475
 30
0.0
 11
10207.5
 21
15385.6907475
 31
0.0
  0
LINE
  5
38A
330
594
100
AcDbEntity
  8
YKK_Z1
  6
Continuous
100
AcDbLine
 10
9910.51512618
 20
15565.6907475
 30
0.0
 11
9730.51515736
 21
15385.6907475
 31
0.0
  0
LINE
  5
38B
330
594
100
AcDbEntity
  8
YKK_Z1
  6
Continuous
100
AcDbLine
 10
9919.00040829
 20
15565.6907475
 30
0.0
 11
9739.00043947
 21
15385.6907475
 31
0.0
  0
LINE
  5
38C
330
594
100
AcDbEntity
  8
YKK_Z1
  6
Continuous
100
AcDbLine
 10
9613.53025236
 20
15565.6907475
 30
0.0
 11
9457.5
 21
15409.66046811
 31
0.0
  0
LINE
  5
38D
330
594
100
AcDbEntity
  8
YKK_Z1
  6
Continuous
100
AcDbLine
 10
9622.01553447
 20
15565.6907475
 30
0.0
 11
9457.5
 21
15401.17518454
 31
0.0
  0
LINE
  5
38E
330
594
100
AcDbEntity
  8
YKK_Z1
  6
Continuous
100
AcDbLine
 10
9641.81452606
 20
15565.6907475
 30
0.0
 11
9461.81455724
 21
15385.6907475
 31
0.0
  0
LINE
  5
38F
330
594
100
AcDbEntity
  8
YKK_Z1
  6
Continuous
100
AcDbLine
 10
9938.79939988
 20
15565.6907475
 30
0.0
 11
9758.79943106
 21
15385.6907475
 31
0.0
  0
LINE
  5
390
330
594
100
AcDbEntity
  8
YKK_Z1
  6
Continuous
100
AcDbLine
 10
9457.5
 20
15605.6907475
 30
0.0
 11
9487.5
 21
15605.6907475
 31
0.0
  0
LINE
  5
391
330
594
100
AcDbEntity
  8
YKK_Z1
  6
Continuous
100
AcDbLine
 10
9487.5
 20
15615.6907475
 30
0.0
 11
9457.5
 21
15615.6907475
 31
0.0
  0
LINE
  5
392
330
594
100
AcDbEntity
  8
YKK_N1
  6
ByBlock
100
AcDbLine
 10
8857.5
 20
15702.29328788
 30
0.0
 11
8907.5
 21
15615.6907475
 31
0.0
  0
LINE
  5
393
330
594
100
AcDbEntity
  8
YKK_N1
  6
ByBlock
100
AcDbLine
 10
8957.5
 20
15702.29328788
 30
0.0
 11
8857.5
 21
15702.29328788
 31
0.0
  0
LINE
  5
394
330
594
100
AcDbEntity
  8
YKK_N1
  6
ByBlock
100
AcDbLine
 10
8907.5
 20
15615.6907475
 30
0.0
 11
8957.5
 21
15702.29328788
 31
0.0
  0
LINE
  5
395
330
594
100
AcDbEntity
  8
YKK_N1
  6
ByBlock
100
AcDbLine
 10
8907.5
 20
15615.6907475
 30
0.0
 11
8907.5
 21
15715.6907475
 31
0.0
  0
LINE
  5
396
330
594
100
AcDbEntity
  8
YKK_Z1
  6
ByBlock
 62
     0
100
AcDbLine
 10
9224.42673029
 20
15675.6907475
 30
0.0
 11
9189.78571429
 21
15615.6907475
 31
0.0
  0
LINE
  5
397
330
594
100
AcDbEntity
  8
YKK_Z1
  6
ByBlock
 62
     0
100
AcDbLine
 10
9155.14469829
 20
15675.6907475
 30
0.0
 11
9224.42673029
 21
15675.6907475
 31
0.0
  0
LINE
  5
398
330
594
100
AcDbEntity
  8
YKK_Z1
  6
ByBlock
 62
     0
100
AcDbLine
 10
9189.78571429
 20
15615.6907475
 30
0.0
 11
9155.14469829
 21
15675.6907475
 31
0.0
  0
TEXT
  5
399
330
594
100
AcDbEntity
  8
YKK_Z1
100
AcDbText
 10
9229.78571429
 20
15625.6907475
 30
0.0
 40
60.0
  1
FL
 41
0.8
  7
YKK_SGSTYLE1
 72
     2
 11
9307.5
 21
15625.6907475
 31
0.0
100
AcDbText
  0
LINE
  5
39A
330
594
100
AcDbEntity
  8
YKK_Z1
  6
Continuous
100
AcDbLine
 10
9822.5
 20
15615.6907475
 30
0.0
 11
9872.5
 21
15615.6907475
 31
0.0
  0
LINE
  5
39B
330
594
100
AcDbEntity
  8
YKK_Z1
  6
Continuous
100
AcDbLine
 10
9872.5
 20
15605.6907475
 30
0.0
 11
9822.5
 21
15605.6907475
 31
0.0
  0
POINT
  5
39C
330
594
100
AcDbEntity
  8
YKK_N1
  6
ByBlock
100
AcDbPoint
 10
9807.5
 20
15615.6907475
 30
0.0
  0
POINT
  5
39D
330
594
100
AcDbEntity
  8
YKK_N1
  6
ByBlock
100
AcDbPoint
 10
9807.5
 20
15615.6907475
 30
0.0
  0
LINE
  5
39E
330
594
100
AcDbEntity
  8
YKK_C1
100
AcDbLine
 10
9707.5
 20
15740.6907475
 30
0.0
 11
9707.5
 21
15600.6907475
 31
0.0
  0
LINE
  5
39F
330
594
100
AcDbEntity
  8
YKK_C1
100
AcDbLine
 10
9707.5
 20
15600.6907475
 30
0.0
 11
9702.5
 21
15600.6907475
 31
0.0
  0
LINE
  5
3A0
330
594
100
AcDbEntity
  8
YKK_C1
100
AcDbLine
 10
9657.5
 20
15740.6907475
 30
0.0
 11
9657.5
 21
15600.6907475
 31
0.0
  0
LINE
  5
3A1
330
594
100
AcDbEntity
  8
YKK_C1
100
AcDbLine
 10
9657.5
 20
15600.6907475
 30
0.0
 11
9662.5
 21
15600.6907475
 31
0.0
  0
LINE
  5
3A2
330
594
100
AcDbEntity
  8
YKK_C1
100
AcDbLine
 10
9691.0
 20
15740.6907475
 30
0.0
 11
9691.0
 21
15725.6907475
 31
0.0
  0
LINE
  5
3A3
330
594
100
AcDbEntity
  8
YKK_C1
100
AcDbLine
 10
9657.5
 20
15740.6907475
 30
0.0
 11
9670.0
 21
15740.6907475
 31
0.0
  0
LINE
  5
3A4
330
594
100
AcDbEntity
  8
YKK_C1
100
AcDbLine
 10
9670.0
 20
15740.6907475
 30
0.0
 11
9670.0
 21
15725.6907475
 31
0.0
  0
LINE
  5
3A5
330
594
100
AcDbEntity
  8
YKK_C1
100
AcDbLine
 10
9707.5
 20
15725.6907475
 30
0.0
 11
9657.5
 21
15725.6907475
 31
0.0
  0
LINE
  5
3A6
330
594
100
AcDbEntity
  8
YKK_C1
100
AcDbLine
 10
9707.5
 20
15610.6907475
 30
0.0
 11
9657.5
 21
15610.6907475
 31
0.0
  0
LINE
  5
3A7
330
594
100
AcDbEntity
  8
YKK_C1
100
AcDbLine
 10
9707.5
 20
15740.6907475
 30
0.0
 11
9691.0
 21
15740.6907475
 31
0.0
  0
LINE
  5
3A8
330
594
100
AcDbEntity
  8
YKK_Z1
  6
Continuous
100
AcDbLine
 10
9817.5
 20
15615.6907475
 30
0.0
 11
9817.5
 21
15605.6907475
 31
0.0
  0
LINE
  5
3A9
330
594
100
AcDbEntity
  8
YKK_Z1
  6
Continuous
100
AcDbLine
 10
9817.5
 20
15611.6907475
 30
0.0
 11
9822.5
 21
15611.6907475
 31
0.0
  0
LINE
  5
3AA
330
594
100
AcDbEntity
  8
YKK_Z1
  6
Continuous
100
AcDbLine
 10
9822.5
 20
15605.6907475
 30
0.0
 11
9822.5
 21
15615.6907475
 31
0.0
  0
LINE
  5
3AB
330
594
100
AcDbEntity
  8
YKK_Z1
  6
Continuous
100
AcDbLine
 10
9707.5
 20
15611.6907475
 30
0.0
 11
9712.5
 21
15611.6907475
 31
0.0
  0
LINE
  5
3AC
330
594
100
AcDbEntity
  8
YKK_Z1
  6
Continuous
100
AcDbLine
 10
9712.5
 20
15615.6907475
 30
0.0
 11
9762.5
 21
15615.6907475
 31
0.0
  0
LINE
  5
3AD
330
594
100
AcDbEntity
  8
YKK_Z1
  6
Continuous
100
AcDbLine
 10
9762.5
 20
15615.6907475
 30
0.0
 11
9762.5
 21
15605.6907475
 31
0.0
  0
LINE
  5
3AE
330
594
100
AcDbEntity
  8
YKK_Z1
  6
Continuous
100
AcDbLine
 10
9762.5
 20
15605.6907475
 30
0.0
 11
9712.5
 21
15605.6907475
 31
0.0
  0
LINE
  5
3AF
330
594
100
AcDbEntity
  8
YKK_Z1
  6
Continuous
100
AcDbLine
 10
9712.5
 20
15605.6907475
 30
0.0
 11
9712.5
 21
15615.6907475
 31
0.0
  0
LINE
  5
3B0
330
594
100
AcDbEntity
  8
YKK_Z1
  6
Continuous
100
AcDbLine
 10
9762.5
 20
15611.6907475
 30
0.0
 11
9767.5
 21
15611.6907475
 31
0.0
  0
LINE
  5
3B1
330
594
100
AcDbEntity
  8
YKK_Z1
  6
Continuous
100
AcDbLine
 10
9767.5
 20
15605.6907475
 30
0.0
 11
9767.5
 21
15615.6907475
 31
0.0
  0
LINE
  5
3B2
330
594
100
AcDbEntity
  8
YKK_Z1
  6
Continuous
100
AcDbLine
 10
9767.5
 20
15615.6907475
 30
0.0
 11
9817.5
 21
15615.6907475
 31
0.0
  0
LINE
  5
3B3
330
594
100
AcDbEntity
  8
YKK_Z1
  6
Continuous
100
AcDbLine
 10
9817.5
 20
15605.6907475
 30
0.0
 11
9767.5
 21
15605.6907475
 31
0.0
  0
LINE
  5
3B4
330
594
100
AcDbEntity
  8
YKK_Z1
  6
Continuous
100
AcDbLine
 10
9657.5
 20
15611.6907475
 30
0.0
 11
9652.5
 21
15611.6907475
 31
0.0
  0
LINE
  5
3B5
330
594
100
AcDbEntity
  8
YKK_Z1
  6
Continuous
100
AcDbLine
 10
9652.5
 20
15605.6907475
 30
0.0
 11
9652.5
 21
15615.6907475
 31
0.0
  0
LINE
  5
3B6
330
594
100
AcDbEntity
  8
YKK_Z1
  6
Continuous
100
AcDbLine
 10
9652.5
 20
15615.6907475
 30
0.0
 11
9602.5
 21
15615.6907475
 31
0.0
  0
LINE
  5
3B7
330
594
100
AcDbEntity
  8
YKK_Z1
  6
Continuous
100
AcDbLine
 10
9602.5
 20
15605.6907475
 30
0.0
 11
9652.5
 21
15605.6907475
 31
0.0
  0
LINE
  5
3B8
330
594
100
AcDbEntity
  8
YKK_Z1
  6
Continuous
100
AcDbLine
 10
9602.5
 20
15615.6907475
 30
0.0
 11
9602.5
 21
15605.6907475
 31
0.0
  0
LINE
  5
3B9
330
594
100
AcDbEntity
  8
YKK_Z1
  6
Continuous
100
AcDbLine
 10
9602.5
 20
15611.6907475
 30
0.0
 11
9597.5
 21
15611.6907475
 31
0.0
  0
LINE
  5
3BA
330
594
100
AcDbEntity
  8
YKK_Z1
  6
Continuous
100
AcDbLine
 10
9597.5
 20
15605.6907475
 30
0.0
 11
9597.5
 21
15615.6907475
 31
0.0
  0
LINE
  5
3BB
330
594
100
AcDbEntity
  8
YKK_Z1
  6
Continuous
100
AcDbLine
 10
9547.5
 20
15615.6907475
 30
0.0
 11
9547.5
 21
15605.6907475
 31
0.0
  0
LINE
  5
3BC
330
594
100
AcDbEntity
  8
YKK_Z1
  6
Continuous
100
AcDbLine
 10
9547.5
 20
15611.6907475
 30
0.0
 11
9542.5
 21
15611.6907475
 31
0.0
  0
LINE
  5
3BD
330
594
100
AcDbEntity
  8
YKK_Z1
  6
Continuous
100
AcDbLine
 10
9542.5
 20
15615.6907475
 30
0.0
 11
9492.5
 21
15615.6907475
 31
0.0
  0
LINE
  5
3BE
330
594
100
AcDbEntity
  8
YKK_Z1
  6
Continuous
100
AcDbLine
 10
9492.5
 20
15615.6907475
 30
0.0
 11
9492.5
 21
15605.6907475
 31
0.0
  0
LINE
  5
3BF
330
594
100
AcDbEntity
  8
YKK_Z1
  6
Continuous
100
AcDbLine
 10
9492.5
 20
15605.6907475
 30
0.0
 11
9542.5
 21
15605.6907475
 31
0.0
  0
LINE
  5
3C0
330
594
100
AcDbEntity
  8
YKK_Z1
  6
Continuous
100
AcDbLine
 10
9542.5
 20
15605.6907475
 30
0.0
 11
9542.5
 21
15615.6907475
 31
0.0
  0
LINE
  5
3C1
330
594
100
AcDbEntity
  8
YKK_Z1
  6
Continuous
100
AcDbLine
 10
9492.5
 20
15611.6907475
 30
0.0
 11
9487.5
 21
15611.6907475
 31
0.0
  0
LINE
  5
3C2
330
594
100
AcDbEntity
  8
YKK_Z1
  6
Continuous
100
AcDbLine
 10
9487.5
 20
15605.6907475
 30
0.0
 11
9487.5
 21
15615.6907475
 31
0.0
  0
LINE
  5
3C3
330
594
100
AcDbEntity
  8
YKK_Z1
  6
Continuous
100
AcDbLine
 10
9597.5
 20
15615.6907475
 30
0.0
 11
9547.5
 21
15615.6907475
 31
0.0
  0
LINE
  5
3C4
330
594
100
AcDbEntity
  8
YKK_Z1
  6
Continuous
100
AcDbLine
 10
9547.5
 20
15605.6907475
 30
0.0
 11
9597.5
 21
15605.6907475
 31
0.0
  0
LINE
  5
3C5
330
594
100
AcDbEntity
  8
YKK_Z1
  6
Continuous
100
AcDbLine
 10
10152.5
 20
15605.6907475
 30
0.0
 11
10152.5
 21
15615.6907475
 31
0.0
  0
LINE
  5
3C6
330
594
100
AcDbEntity
  8
YKK_Z1
  6
Continuous
100
AcDbLine
 10
10037.5
 20
15615.6907475
 30
0.0
 11
10037.5
 21
15605.6907475
 31
0.0
  0
LINE
  5
3C7
330
594
100
AcDbEntity
  8
YKK_Z1
  6
Continuous
100
AcDbLine
 10
10037.5
 20
15611.6907475
 30
0.0
 11
10042.5
 21
15611.6907475
 31
0.0
  0
LINE
  5
3C8
330
594
100
AcDbEntity
  8
YKK_Z1
  6
Continuous
100
AcDbLine
 10
10042.5
 20
15615.6907475
 30
0.0
 11
10092.5
 21
15615.6907475
 31
0.0
  0
LINE
  5
3C9
330
594
100
AcDbEntity
  8
YKK_Z1
  6
Continuous
100
AcDbLine
 10
10092.5
 20
15615.6907475
 30
0.0
 11
10092.5
 21
15605.6907475
 31
0.0
  0
LINE
  5
3CA
330
594
100
AcDbEntity
  8
YKK_Z1
  6
Continuous
100
AcDbLine
 10
10092.5
 20
15605.6907475
 30
0.0
 11
10042.5
 21
15605.6907475
 31
0.0
  0
LINE
  5
3CB
330
594
100
AcDbEntity
  8
YKK_Z1
  6
Continuous
100
AcDbLine
 10
10042.5
 20
15605.6907475
 30
0.0
 11
10042.5
 21
15615.6907475
 31
0.0
  0
LINE
  5
3CC
330
594
100
AcDbEntity
  8
YKK_Z1
  6
Continuous
100
AcDbLine
 10
10092.5
 20
15611.6907475
 30
0.0
 11
10097.5
 21
15611.6907475
 31
0.0
  0
LINE
  5
3CD
330
594
100
AcDbEntity
  8
YKK_Z1
  6
Continuous
100
AcDbLine
 10
10097.5
 20
15615.6907475
 30
0.0
 11
10147.5
 21
15615.6907475
 31
0.0
  0
LINE
  5
3CE
330
594
100
AcDbEntity
  8
YKK_Z1
  6
Continuous
100
AcDbLine
 10
10147.5
 20
15615.6907475
 30
0.0
 11
10147.5
 21
15605.6907475
 31
0.0
  0
LINE
  5
3CF
330
594
100
AcDbEntity
  8
YKK_Z1
  6
Continuous
100
AcDbLine
 10
10147.5
 20
15605.6907475
 30
0.0
 11
10097.5
 21
15605.6907475
 31
0.0
  0
LINE
  5
3D0
330
594
100
AcDbEntity
  8
YKK_Z1
  6
Continuous
100
AcDbLine
 10
10097.5
 20
15605.6907475
 30
0.0
 11
10097.5
 21
15615.6907475
 31
0.0
  0
LINE
  5
3D1
330
594
100
AcDbEntity
  8
YKK_Z1
  6
Continuous
100
AcDbLine
 10
9927.5
 20
15615.6907475
 30
0.0
 11
9927.5
 21
15605.6907475
 31
0.0
  0
LINE
  5
3D2
330
594
100
AcDbEntity
  8
YKK_Z1
  6
Continuous
100
AcDbLine
 10
9927.5
 20
15611.6907475
 30
0.0
 11
9932.5
 21
15611.6907475
 31
0.0
  0
LINE
  5
3D3
330
594
100
AcDbEntity
  8
YKK_Z1
  6
Continuous
100
AcDbLine
 10
9932.5
 20
15615.6907475
 30
0.0
 11
9982.5
 21
15615.6907475
 31
0.0
  0
LINE
  5
3D4
330
594
100
AcDbEntity
  8
YKK_Z1
  6
Continuous
100
AcDbLine
 10
9982.5
 20
15615.6907475
 30
0.0
 11
9982.5
 21
15605.6907475
 31
0.0
  0
LINE
  5
3D5
330
594
100
AcDbEntity
  8
YKK_Z1
  6
Continuous
100
AcDbLine
 10
9982.5
 20
15605.6907475
 30
0.0
 11
9932.5
 21
15605.6907475
 31
0.0
  0
LINE
  5
3D6
330
594
100
AcDbEntity
  8
YKK_Z1
  6
Continuous
100
AcDbLine
 10
9932.5
 20
15605.6907475
 30
0.0
 11
9932.5
 21
15615.6907475
 31
0.0
  0
LINE
  5
3D7
330
594
100
AcDbEntity
  8
YKK_Z1
  6
Continuous
100
AcDbLine
 10
9982.5
 20
15611.6907475
 30
0.0
 11
9987.5
 21
15611.6907475
 31
0.0
  0
LINE
  5
3D8
330
594
100
AcDbEntity
  8
YKK_Z1
  6
Continuous
100
AcDbLine
 10
9987.5
 20
15605.6907475
 30
0.0
 11
9987.5
 21
15615.6907475
 31
0.0
  0
LINE
  5
3D9
330
594
100
AcDbEntity
  8
YKK_Z1
  6
Continuous
100
AcDbLine
 10
9987.5
 20
15615.6907475
 30
0.0
 11
10037.5
 21
15615.6907475
 31
0.0
  0
LINE
  5
3DA
330
594
100
AcDbEntity
  8
YKK_Z1
  6
Continuous
100
AcDbLine
 10
10037.5
 20
15605.6907475
 30
0.0
 11
9987.5
 21
15605.6907475
 31
0.0
  0
LINE
  5
3DB
330
594
100
AcDbEntity
  8
YKK_Z1
  6
Continuous
100
AcDbLine
 10
10147.5
 20
15611.6907475
 30
0.0
 11
10152.5
 21
15611.6907475
 31
0.0
  0
LINE
  5
3DC
330
594
100
AcDbEntity
  8
YKK_Z1
  6
Continuous
100
AcDbLine
 10
9872.5
 20
15615.6907475
 30
0.0
 11
9872.5
 21
15605.6907475
 31
0.0
  0
LINE
  5
3DD
330
594
100
AcDbEntity
  8
YKK_Z1
  6
Continuous
100
AcDbLine
 10
9872.5
 20
15611.6907475
 30
0.0
 11
9877.5
 21
15611.6907475
 31
0.0
  0
LINE
  5
3DE
330
594
100
AcDbEntity
  8
YKK_Z1
  6
Continuous
100
AcDbLine
 10
9877.5
 20
15605.6907475
 30
0.0
 11
9877.5
 21
15615.6907475
 31
0.0
  0
LINE
  5
3DF
330
594
100
AcDbEntity
  8
YKK_Z1
  6
Continuous
100
AcDbLine
 10
9877.5
 20
15615.6907475
 30
0.0
 11
9927.5
 21
15615.6907475
 31
0.0
  0
LINE
  5
3E0
330
594
100
AcDbEntity
  8
YKK_Z1
  6
Continuous
100
AcDbLine
 10
9927.5
 20
15605.6907475
 30
0.0
 11
9877.5
 21
15605.6907475
 31
0.0
  0
LINE
  5
3E1
330
594
100
AcDbEntity
  8
YKK_Z1
  6
CENTER
100
AcDbLine
 10
10307.5
 20
15615.6907475
 30
0.0
 11
10807.5
 21
15615.6907475
 31
0.0
  0
LINE
  5
3E2
330
594
100
AcDbEntity
  8
YKK_N1
100
AcDbLine
 10
10207.5
 20
15615.6907475
 30
0.0
 11
10207.5
 21
15635.6907475
 31
0.0
  0
CIRCLE
  5
3E3
330
594
100
AcDbEntity
  8
YKK_N1
100
AcDbCircle
 10
10207.5
 20
15615.6907475
 30
0.0
 40
6.5
  0
CIRCLE
  5
3E4
330
594
100
AcDbEntity
  8
YKK_N1
100
AcDbCircle
 10
10207.5
 20
15615.6907475
 30
0.0
 40
10.0
  0
LINE
  5
3E5
330
594
100
AcDbEntity
  8
YKK_N1
  6
ByBlock
100
AcDbLine
 10
10357.5
 20
15702.29328788
 30
0.0
 11
10407.5
 21
15615.6907475
 31
0.0
  0
LINE
  5
3E6
330
594
100
AcDbEntity
  8
YKK_N1
  6
ByBlock
100
AcDbLine
 10
10457.5
 20
15702.29328788
 30
0.0
 11
10357.5
 21
15702.29328788
 31
0.0
  0
LINE
  5
3E7
330
594
100
AcDbEntity
  8
YKK_N1
  6
ByBlock
100
AcDbLine
 10
10407.5
 20
15615.6907475
 30
0.0
 11
10457.5
 21
15702.29328788
 31
0.0
  0
LINE
  5
3E8
330
594
100
AcDbEntity
  8
YKK_N1
  6
ByBlock
100
AcDbLine
 10
10407.5
 20
15615.6907475
 30
0.0
 11
10407.5
 21
15715.6907475
 31
0.0
  0
LINE
  5
3E9
330
594
100
AcDbEntity
  8
YKK_Z1
  6
Continuous
100
AcDbLine
 10
10202.5
 20
15615.6907475
 30
0.0
 11
10202.5
 21
15605.6907475
 31
0.0
  0
LINE
  5
3EA
330
594
100
AcDbEntity
  8
YKK_Z1
  6
Continuous
100
AcDbLine
 10
10202.5
 20
15611.6907475
 30
0.0
 11
10207.5
 21
15611.6907475
 31
0.0
  0
LINE
  5
3EB
330
594
100
AcDbEntity
  8
YKK_Z1
  6
ByBlock
 62
     0
100
AcDbLine
 10
10724.42673029
 20
15675.6907475
 30
0.0
 11
10689.78571429
 21
15615.6907475
 31
0.0
  0
LINE
  5
3EC
330
594
100
AcDbEntity
  8
YKK_Z1
  6
ByBlock
 62
     0
100
AcDbLine
 10
10655.14469829
 20
15675.6907475
 30
0.0
 11
10724.42673029
 21
15675.6907475
 31
0.0
  0
LINE
  5
3ED
330
594
100
AcDbEntity
  8
YKK_Z1
  6
ByBlock
 62
     0
100
AcDbLine
 10
10689.78571429
 20
15615.6907475
 30
0.0
 11
10655.14469829
 21
15675.6907475
 31
0.0
  0
TEXT
  5
3EE
330
594
100
AcDbEntity
  8
YKK_Z1
100
AcDbText
 10
10729.78571429
 20
15625.6907475
 30
0.0
 40
60.0
  1
FL
 41
0.8
  7
YKK_SGSTYLE1
 72
     2
 11
10807.5
 21
15625.6907475
 31
0.0
100
AcDbText
  0
TEXT
  5
3EF
330
594
100
AcDbEntity
  8
YKK_N1
100
AcDbText
 10
8805.0
 20
17494.97646179
 30
0.0
 40
60.0
  1
50
 50
90.0
 41
0.8
  7
YKK_SGSTYLE1
100
AcDbText
  0
LINE
  5
3F0
330
594
100
AcDbEntity
  8
YKK_N1
  6
ByBlock
100
AcDbLine
 10
8367.5
 20
18015.6907475
 30
0.0
 11
8937.5
 21
18015.6907475
 31
0.0
  0
TEXT
  5
3F1
330
594
100
AcDbEntity
  8
0
100
AcDbText
 10
5800.0
 20
19187.5
 30
0.0
 40
200.0
  1
はめ殺し窓（巾木）　高強度タイプ
  7
EXTFONT
100
AcDbText
  0
TEXT
  5
3F2
330
594
100
AcDbEntity
  8
0
100
AcDbText
 10
5800.0
 20
18737.5
 30
0.0
 40
200.0
  1
W＝1,600　H＝2,400
  7
EXTFONT
100
AcDbText
  0
TEXT
  5
3F3
330
594
100
AcDbEntity
  8
YKK_N1
100
AcDbText
 10
4497.5
 20
17722.11931893
 30
0.0
 40
60.0
  1
450
 50
90.0
 41
0.8
  7
YKK_SGSTYLE1
100
AcDbText
  0
LINE
  5
3F4
330
594
100
AcDbEntity
  8
YKK_N1
  6
ByBlock
100
AcDbLine
 10
4507.5
 20
17585.6907475
 30
0.0
 11
4507.5
 21
17995.6907475
 31
0.0
  0
LINE
  5
3F5
330
594
100
AcDbEntity
  8
YKK_C1
100
AcDbLine
 10
4030.5
 20
17565.6907475
 30
0.0
 11
4030.5
 21
18015.6907475
 31
0.0
  0
LINE
  5
3F6
330
594
100
AcDbEntity
  8
YKK_C1
100
AcDbLine
 10
4107.5
 20
17585.6907475
 30
0.0
 11
4107.5
 21
17995.6907475
 31
0.0
  0
LINE
  5
3F7
330
594
100
AcDbEntity
  8
YKK_C1
100
AcDbLine
 10
4007.5
 20
17585.6907475
 30
0.0
 11
4007.5
 21
17995.6907475
 31
0.0
  0
LINE
  5
3F8
330
594
100
AcDbEntity
  8
YKK_Z1
  6
Continuous
100
AcDbLine
 10
3942.5
 20
18030.6907475
 30
0.0
 11
3942.5
 21
16815.6907475
 31
0.0
  0
TEXT
  5
3F9
330
594
100
AcDbEntity
  8
YKK_N1
100
AcDbText
 10
4697.5
 20
16668.26217608
 30
0.0
 40
60.0
  1
H=2400
 50
90.0
 41
0.8
  7
YKK_SGSTYLE1
100
AcDbText
  0
TEXT
  5
3FA
330
594
100
AcDbEntity
  8
YKK_N1
100
AcDbText
 10
3985.5
 20
17017.6907475
 30
0.0
 40
60.0
  1
100
 41
0.8
  7
YKK_SGSTYLE1
100
AcDbText
  0
TEXT
  5
3FB
330
594
100
AcDbEntity
  8
YKK_N1
100
AcDbText
 10
4497.5
 20
16470.83360465
 30
0.0
 40
60.0
  1
1900
 50
90.0
 41
0.8
  7
YKK_SGSTYLE1
100
AcDbText
  0
LINE
  5
3FC
330
594
100
AcDbEntity
  8
YKK_N1
100
AcDbLine
 10
4107.5
 20
16972.6907475
 30
0.0
 11
4087.5
 21
16972.6907475
 31
0.0
  0
CIRCLE
  5
3FD
330
594
100
AcDbEntity
  8
YKK_N1
100
AcDbCircle
 10
4107.5
 20
16972.6907475
 30
0.0
 40
6.5
  0
CIRCLE
  5
3FE
330
594
100
AcDbEntity
  8
YKK_N1
100
AcDbCircle
 10
4107.5
 20
16972.6907475
 30
0.0
 40
10.0
  0
LINE
  5
3FF
330
594
100
AcDbEntity
  8
YKK_N1
100
AcDbLine
 10
4007.5
 20
16972.6907475
 30
0.0
 11
4027.5
 21
16972.6907475
 31
0.0
  0
CIRCLE
  5
400
330
594
100
AcDbEntity
  8
YKK_N1
100
AcDbCircle
 10
4007.5
 20
16972.6907475
 30
0.0
 40
6.5
  0
CIRCLE
  5
401
330
594
100
AcDbEntity
  8
YKK_N1
100
AcDbCircle
 10
4007.5
 20
16972.6907475
 30
0.0
 40
10.0
  0
POINT
  5
402
330
594
100
AcDbEntity
  8
YKK_N1
  6
ByBlock
100
AcDbPoint
 10
4007.5
 20
16972.6907475
 30
0.0
  0
POINT
  5
403
330
594
100
AcDbEntity
  8
YKK_N1
  6
ByBlock
100
AcDbPoint
 10
4007.5
 20
16962.6907475
 30
0.0
  0
POINT
  5
404
330
594
100
AcDbEntity
  8
YKK_N1
  6
ByBlock
100
AcDbPoint
 10
4107.5
 20
16962.6907475
 30
0.0
  0
LINE
  5
405
330
594
100
AcDbEntity
  8
YKK_N1
  6
ByBlock
100
AcDbLine
 10
4087.5
 20
16972.6907475
 30
0.0
 11
4027.5
 21
16972.6907475
 31
0.0
  0
LINE
  5
406
330
594
100
AcDbEntity
  8
YKK_N1
  6
ByBlock
100
AcDbLine
 10
4007.5
 20
17022.6907475
 30
0.0
 11
4007.5
 21
17002.6907475
 31
0.0
  0
LINE
  5
407
330
594
100
AcDbEntity
  8
YKK_N1
  6
ByBlock
100
AcDbLine
 10
4107.5
 20
17022.6907475
 30
0.0
 11
4107.5
 21
17002.6907475
 31
0.0
  0
LINE
  5
408
330
594
100
AcDbEntity
  8
YKK_N1
  6
ByBlock
100
AcDbLine
 10
4167.5
 20
17565.6907475
 30
0.0
 11
4537.5
 21
17565.6907475
 31
0.0
  0
LINE
  5
409
330
594
100
AcDbEntity
  8
YKK_N1
  6
ByBlock
100
AcDbLine
 10
4167.5
 20
17515.6907475
 30
0.0
 11
4537.5
 21
17515.6907475
 31
0.0
  0
LINE
  5
40A
330
594
100
AcDbEntity
  8
YKK_N1
  6
ByBlock
100
AcDbLine
 10
4167.5
 20
17565.6907475
 30
0.0
 11
4537.5
 21
17565.6907475
 31
0.0
  0
LINE
  5
40B
330
594
100
AcDbEntity
  8
YKK_N1
  6
ByBlock
100
AcDbLine
 10
4167.5
 20
17515.6907475
 30
0.0
 11
4537.5
 21
17515.6907475
 31
0.0
  0
POINT
  5
40C
330
594
100
AcDbEntity
  8
YKK_N1
  6
ByBlock
100
AcDbPoint
 10
4107.5
 20
17565.6907475
 30
0.0
  0
POINT
  5
40D
330
594
100
AcDbEntity
  8
YKK_N1
  6
ByBlock
100
AcDbPoint
 10
4107.5
 20
17515.6907475
 30
0.0
  0
POINT
  5
40E
330
594
100
AcDbEntity
  8
YKK_N1
  6
ByBlock
100
AcDbPoint
 10
4107.5
 20
17565.6907475
 30
0.0
  0
POINT
  5
40F
330
594
100
AcDbEntity
  8
YKK_N1
  6
ByBlock
100
AcDbPoint
 10
4107.5
 20
17515.6907475
 30
0.0
  0
LINE
  5
410
330
594
100
AcDbEntity
  8
YKK_C1
100
AcDbLine
 10
4041.0
 20
17565.6907475
 30
0.0
 11
4041.0
 21
17541.6907475
 31
0.0
  0
LINE
  5
411
330
594
100
AcDbEntity
  8
YKK_C1
100
AcDbLine
 10
4041.0
 20
17541.6907475
 30
0.0
 11
4020.0
 21
17541.6907475
 31
0.0
  0
LINE
  5
412
330
594
100
AcDbEntity
  8
YKK_C1
100
AcDbLine
 10
4020.0
 20
17541.6907475
 30
0.0
 11
4020.0
 21
17565.6907475
 31
0.0
  0
LINE
  5
413
330
594
100
AcDbEntity
  8
YKK_C1
100
AcDbLine
 10
4041.0
 20
17539.6907475
 30
0.0
 11
4020.0
 21
17539.6907475
 31
0.0
  0
LINE
  5
414
330
594
100
AcDbEntity
  8
YKK_C1
100
AcDbLine
 10
4107.5
 20
17565.6907475
 30
0.0
 11
4007.5
 21
17565.6907475
 31
0.0
  0
LINE
  5
415
330
594
100
AcDbEntity
  8
YKK_C1
100
AcDbLine
 10
4107.5
 20
17515.6907475
 30
0.0
 11
4007.5
 21
17515.6907475
 31
0.0
  0
LINE
  5
416
330
594
100
AcDbEntity
  8
YKK_C1
100
AcDbLine
 10
4041.0
 20
17515.6907475
 30
0.0
 11
4041.0
 21
17539.6907475
 31
0.0
  0
LINE
  5
417
330
594
100
AcDbEntity
  8
YKK_C1
100
AcDbLine
 10
4020.0
 20
17539.6907475
 30
0.0
 11
4020.0
 21
17515.6907475
 31
0.0
  0
LINE
  5
418
330
594
100
AcDbEntity
  8
YKK_C1
100
AcDbLine
 10
4107.5
 20
17565.6907475
 30
0.0
 11
4107.5
 21
17515.6907475
 31
0.0
  0
LINE
  5
419
330
594
100
AcDbEntity
  8
YKK_C1
100
AcDbLine
 10
4007.5
 20
17565.6907475
 30
0.0
 11
4007.5
 21
17515.6907475
 31
0.0
  0
LINE
  5
41A
330
594
100
AcDbEntity
  8
YKK_N1
100
AcDbLine
 10
4507.5
 20
17515.6907475
 30
0.0
 11
4507.5
 21
17495.6907475
 31
0.0
  0
CIRCLE
  5
41B
330
594
100
AcDbEntity
  8
YKK_N1
100
AcDbCircle
 10
4507.5
 20
17515.6907475
 30
0.0
 40
6.5
  0
CIRCLE
  5
41C
330
594
100
AcDbEntity
  8
YKK_N1
100
AcDbCircle
 10
4507.5
 20
17515.6907475
 30
0.0
 40
10.0
  0
LINE
  5
41D
330
594
100
AcDbEntity
  8
YKK_N1
100
AcDbLine
 10
4507.5
 20
17565.6907475
 30
0.0
 11
4507.5
 21
17585.6907475
 31
0.0
  0
CIRCLE
  5
41E
330
594
100
AcDbEntity
  8
YKK_N1
100
AcDbCircle
 10
4507.5
 20
17565.6907475
 30
0.0
 40
6.5
  0
CIRCLE
  5
41F
330
594
100
AcDbEntity
  8
YKK_N1
100
AcDbCircle
 10
4507.5
 20
17565.6907475
 30
0.0
 40
10.0
  0
TEXT
  5
420
330
594
100
AcDbEntity
  8
YKK_N1
100
AcDbText
 10
4605.0
 20
17494.97646179
 30
0.0
 40
60.0
  1
50
 50
90.0
 41
0.8
  7
YKK_SGSTYLE1
100
AcDbText
  0
LINE
  5
421
330
594
100
AcDbEntity
  8
YKK_N1
100
AcDbLine
 10
4507.5
 20
17515.6907475
 30
0.0
 11
4507.5
 21
17495.6907475
 31
0.0
  0
CIRCLE
  5
422
330
594
100
AcDbEntity
  8
YKK_N1
100
AcDbCircle
 10
4507.5
 20
17515.6907475
 30
0.0
 40
6.5
  0
CIRCLE
  5
423
330
594
100
AcDbEntity
  8
YKK_N1
100
AcDbCircle
 10
4507.5
 20
17515.6907475
 30
0.0
 40
10.0
  0
LINE
  5
424
330
594
100
AcDbEntity
  8
YKK_N1
100
AcDbLine
 10
4507.5
 20
17565.6907475
 30
0.0
 11
4507.5
 21
17585.6907475
 31
0.0
  0
CIRCLE
  5
425
330
594
100
AcDbEntity
  8
YKK_N1
100
AcDbCircle
 10
4507.5
 20
17565.6907475
 30
0.0
 40
6.5
  0
CIRCLE
  5
426
330
594
100
AcDbEntity
  8
YKK_N1
100
AcDbCircle
 10
4507.5
 20
17565.6907475
 30
0.0
 40
10.0
  0
POINT
  5
427
330
594
100
AcDbEntity
  8
YKK_N1
  6
ByBlock
100
AcDbPoint
 10
4507.5
 20
17565.6907475
 30
0.0
  0
LINE
  5
428
330
594
100
AcDbEntity
  8
YKK_N1
  6
ByBlock
100
AcDbLine
 10
4507.5
 20
17515.6907475
 30
0.0
 11
4507.5
 21
17565.6907475
 31
0.0
  0
LINE
  5
429
330
594
100
AcDbEntity
  8
YKK_N1
  6
ByBlock
100
AcDbLine
 10
4507.5
 20
17515.6907475
 30
0.0
 11
4507.5
 21
17565.6907475
 31
0.0
  0
LINE
  5
42A
330
594
100
AcDbEntity
  8
YKK_N1
  6
ByBlock
100
AcDbLine
 10
4507.5
 20
17585.6907475
 30
0.0
 11
4507.5
 21
17605.6907475
 31
0.0
  0
LINE
  5
42B
330
594
100
AcDbEntity
  8
YKK_N1
  6
ByBlock
100
AcDbLine
 10
4507.5
 20
17495.6907475
 30
0.0
 11
4507.5
 21
17475.6907475
 31
0.0
  0
POINT
  5
42C
330
594
100
AcDbEntity
  8
YKK_N1
  6
ByBlock
100
AcDbPoint
 10
4507.5
 20
17515.6907475
 30
0.0
  0
LINE
  5
42D
330
594
100
AcDbEntity
  8
YKK_N1
  6
ByBlock
100
AcDbLine
 10
4167.5
 20
18015.6907475
 30
0.0
 11
4737.5
 21
18015.6907475
 31
0.0
  0
LINE
  5
42E
330
594
100
AcDbEntity
  8
YKK_Z1
  6
Continuous
100
AcDbLine
 10
3992.5
 20
18045.6907475
 30
0.0
 11
3957.5
 21
18045.6907475
 31
0.0
  0
LINE
  5
42F
330
594
100
AcDbEntity
  8
YKK_Z1
  6
Continuous
100
AcDbLine
 10
4007.5
 20
18030.6907475
 30
0.0
 11
3942.5
 21
18030.6907475
 31
0.0
  0
LINE
  5
430
330
594
100
AcDbEntity
  8
YKK_Z1
  6
Continuous
100
AcDbLine
 10
4007.5
 20
18038.6907475
 30
0.0
 11
3950.5
 21
18038.6907475
 31
0.0
  0
LINE
  5
431
330
594
100
AcDbEntity
  8
YKK_Z1
  6
Continuous
100
AcDbLine
 10
3957.5
 20
18235.69084103
 30
0.0
 11
4137.5
 21
18415.6907475
 31
0.0
  0
LINE
  5
432
330
594
100
AcDbEntity
  8
YKK_Z1
  6
Continuous
100
AcDbLine
 10
3957.5
 20
18227.20556333
 30
0.0
 11
4137.5
 21
18407.2054698
 31
0.0
  0
LINE
  5
433
330
594
100
AcDbEntity
  8
YKK_Z1
  6
Continuous
100
AcDbLine
 10
3957.5
 20
18207.40658203
 30
0.0
 11
4137.5
 21
18387.4064885
 31
0.0
  0
LINE
  5
434
330
594
100
AcDbEntity
  8
YKK_Z1
  6
Continuous
100
AcDbLine
 10
3957.5
 20
18045.6907475
 30
0.0
 11
3957.5
 21
18415.6907475
 31
0.0
  0
LINE
  5
435
330
594
100
AcDbEntity
  8
YKK_Z1
  6
Continuous
100
AcDbLine
 10
3942.5
 20
18030.6907475
 30
0.0
 11
3942.5
 21
18415.6907475
 31
0.0
  0
LINE
  5
436
330
594
100
AcDbEntity
  8
YKK_Z1
  6
Continuous
100
AcDbLine
 10
3950.5
 20
18038.6907475
 30
0.0
 11
3950.5
 21
18415.6907475
 31
0.0
  0
LINE
  5
437
330
594
100
AcDbEntity
  8
YKK_Z1
  6
Continuous
100
AcDbLine
 10
3942.5
 20
18130.6907475
 30
0.0
 11
3950.5
 21
18130.6907475
 31
0.0
  0
LINE
  5
438
330
594
100
AcDbEntity
  8
YKK_Z1
  6
Continuous
100
AcDbLine
 10
3942.5
 20
18140.6907475
 30
0.0
 11
3950.5
 21
18140.6907475
 31
0.0
  0
LINE
  5
439
330
594
100
AcDbEntity
  8
YKK_Z1
  6
Continuous
100
AcDbLine
 10
3942.5
 20
18350.6907475
 30
0.0
 11
3950.5
 21
18350.6907475
 31
0.0
  0
LINE
  5
43A
330
594
100
AcDbEntity
  8
YKK_Z1
  6
Continuous
100
AcDbLine
 10
3942.5
 20
18360.6907475
 30
0.0
 11
3950.5
 21
18360.6907475
 31
0.0
  0
LINE
  5
43B
330
594
100
AcDbEntity
  8
YKK_Z1
  6
Continuous
100
AcDbLine
 10
3942.5
 20
18240.6907475
 30
0.0
 11
3950.5
 21
18240.6907475
 31
0.0
  0
LINE
  5
43C
330
594
100
AcDbEntity
  8
YKK_Z1
  6
Continuous
100
AcDbLine
 10
3942.5
 20
18250.6907475
 30
0.0
 11
3950.5
 21
18250.6907475
 31
0.0
  0
LINE
  5
43D
330
594
100
AcDbEntity
  8
YKK_Z1
  6
Continuous
100
AcDbLine
 10
4157.5
 20
18195.69076829
 30
0.0
 11
4137.5
 21
18215.69077175
 31
0.0
  0
LINE
  5
43E
330
594
100
AcDbEntity
  8
YKK_Z1
  6
Continuous
100
AcDbLine
 10
4137.5
 20
18195.69068515
 30
0.0
 11
4157.5
 21
18215.69067476
 31
0.0
  0
LINE
  5
43F
330
594
100
AcDbEntity
  8
YKK_Z1
  6
Continuous
100
AcDbLine
 10
4137.5
 20
18415.6907475
 30
0.0
 11
4137.5
 21
18075.6907475
 31
0.0
  0
LINE
  5
440
330
594
100
AcDbEntity
  8
YKK_Z1
  6
Continuous
100
AcDbLine
 10
4157.5
 20
18075.6907475
 30
0.0
 11
4157.5
 21
18415.6907475
 31
0.0
  0
LINE
  5
441
330
594
100
AcDbEntity
  8
YKK_Z1
  6
CENTER
100
AcDbLine
 10
4047.5
 20
18060.6907475
 30
0.0
 11
4047.5
 21
18415.6907475
 31
0.0
  0
LINE
  5
442
330
594
100
AcDbEntity
  8
YKK_N1
  6
ByBlock
100
AcDbLine
 10
4167.5
 20
18015.6907475
 30
0.0
 11
4537.5
 21
18015.6907475
 31
0.0
  0
LINE
  5
443
330
594
100
AcDbEntity
  8
YKK_Z1
  6
Continuous
100
AcDbLine
 10
4107.5
 20
18025.6907475
 30
0.0
 11
4507.5
 21
18025.6907475
 31
0.0
  0
LINE
  5
444
330
594
100
AcDbEntity
  8
YKK_Z1
  6
Continuous
100
AcDbLine
 10
4507.5
 20
18038.1907475
 30
0.0
 11
4107.5
 21
18038.1907475
 31
0.0
  0
POINT
  5
445
330
594
100
AcDbEntity
  8
YKK_N1
  6
ByBlock
100
AcDbPoint
 10
4107.5
 20
18015.6907475
 30
0.0
  0
POINT
  5
446
330
594
100
AcDbEntity
  8
YKK_N1
  6
ByBlock
100
AcDbPoint
 10
4107.5
 20
18015.6907475
 30
0.0
  0
LINE
  5
447
330
594
100
AcDbEntity
  8
YKK_C1
100
AcDbLine
 10
4041.0
 20
18015.6907475
 30
0.0
 11
4041.0
 21
18039.6907475
 31
0.0
  0
LINE
  5
448
330
594
100
AcDbEntity
  8
YKK_C1
100
AcDbLine
 10
4041.0
 20
18039.6907475
 30
0.0
 11
4020.0
 21
18039.6907475
 31
0.0
  0
LINE
  5
449
330
594
100
AcDbEntity
  8
YKK_C1
100
AcDbLine
 10
4020.0
 20
18039.6907475
 30
0.0
 11
4020.0
 21
18015.6907475
 31
0.0
  0
LINE
  5
44A
330
594
100
AcDbEntity
  8
YKK_C1
100
AcDbLine
 10
4107.5
 20
18015.6907475
 30
0.0
 11
4107.5
 21
18045.6907475
 31
0.0
  0
LINE
  5
44B
330
594
100
AcDbEntity
  8
YKK_C1
100
AcDbLine
 10
4107.5
 20
18045.6907475
 30
0.0
 11
4097.5
 21
18045.6907475
 31
0.0
  0
LINE
  5
44C
330
594
100
AcDbEntity
  8
YKK_C1
100
AcDbLine
 10
4007.5
 20
18015.6907475
 30
0.0
 11
4007.5
 21
18045.6907475
 31
0.0
  0
LINE
  5
44D
330
594
100
AcDbEntity
  8
YKK_C1
100
AcDbLine
 10
4107.5
 20
18015.6907475
 30
0.0
 11
4007.5
 21
18015.6907475
 31
0.0
  0
LINE
  5
44E
330
594
100
AcDbEntity
  8
YKK_C1
100
AcDbLine
 10
4007.5
 20
18045.6907475
 30
0.0
 11
4017.5
 21
18045.6907475
 31
0.0
  0
LINE
  5
44F
330
594
100
AcDbEntity
  8
YKK_Z1
  6
Continuous
100
AcDbLine
 10
4157.5
 20
18175.69076482
 30
0.0
 11
4137.5
 21
18195.69076829
 31
0.0
  0
LINE
  5
450
330
594
100
AcDbEntity
  8
YKK_Z1
  6
Continuous
100
AcDbLine
 10
4137.5
 20
18175.69069554
 30
0.0
 11
4157.5
 21
18195.69068515
 31
0.0
  0
LINE
  5
451
330
594
100
AcDbEntity
  8
YKK_Z1
  6
Continuous
100
AcDbLine
 10
4137.5
 20
18075.6907475
 30
0.0
 11
4157.5
 21
18075.6907475
 31
0.0
  0
LINE
  5
453
330
594
100
AcDbEntity
  8
YKK_Z1
  6
Continuous
100
AcDbLine
 10
4157.5
 20
18075.6907475
 30
0.0
 11
4137.5
 21
18095.69075097
 31
0.0
  0
LINE
  5
454
330
594
100
AcDbEntity
  8
YKK_Z1
  6
Continuous
100
AcDbLine
 10
4157.5
 20
18095.69075097
 30
0.0
 11
4137.5
 21
18115.69075443
 31
0.0
  0
LINE
  5
455
330
594
100
AcDbEntity
  8
YKK_Z1
  6
Continuous
100
AcDbLine
 10
4157.5
 20
18115.69075443
 30
0.0
 11
4137.5
 21
18135.6907579
 31
0.0
  0
LINE
  5
456
330
594
100
AcDbEntity
  8
YKK_Z1
  6
Continuous
100
AcDbLine
 10
4157.5
 20
18135.6907579
 30
0.0
 11
4137.5
 21
18155.69076136
 31
0.0
  0
LINE
  5
457
330
594
100
AcDbEntity
  8
YKK_Z1
  6
Continuous
100
AcDbLine
 10
4137.5
 20
18075.6907475
 30
0.0
 11
4157.5
 21
18095.69073711
 31
0.0
  0
LINE
  5
458
330
594
100
AcDbEntity
  8
YKK_Z1
  6
Continuous
100
AcDbLine
 10
4137.5
 20
18095.69073711
 30
0.0
 11
4157.5
 21
18115.69072672
 31
0.0
  0
LINE
  5
459
330
594
100
AcDbEntity
  8
YKK_Z1
  6
Continuous
100
AcDbLine
 10
4137.5
 20
18115.69072672
 30
0.0
 11
4157.5
 21
18135.69071633
 31
0.0
  0
LINE
  5
45A
330
594
100
AcDbEntity
  8
YKK_Z1
  6
Continuous
100
AcDbLine
 10
4137.5
 20
18135.69071633
 30
0.0
 11
4157.5
 21
18155.69070593
 31
0.0
  0
LINE
  5
45B
330
594
100
AcDbEntity
  8
YKK_Z1
  6
Continuous
100
AcDbLine
 10
4157.5
 20
18155.69076136
 30
0.0
 11
4137.5
 21
18175.69076482
 31
0.0
  0
LINE
  5
45C
330
594
100
AcDbEntity
  8
YKK_Z1
  6
Continuous
100
AcDbLine
 10
4137.5
 20
18155.69070593
 30
0.0
 11
4157.5
 21
18175.69069554
 31
0.0
  0
LINE
  5
45D
330
594
100
AcDbEntity
  8
YKK_Z1
  6
Continuous
100
AcDbLine
 10
4107.5
 20
18038.1907475
 30
0.0
 11
4107.5
 21
18025.6907475
 31
0.0
  0
LINE
  5
45E
330
594
100
AcDbEntity
  8
YKK_Z1
  6
Continuous
100
AcDbLine
 10
4002.5
 20
18075.6907475
 30
0.0
 11
3992.5
 21
18045.6907475
 31
0.0
  0
LINE
  5
45F
330
594
100
AcDbEntity
  8
YKK_Z1
  6
Continuous
100
AcDbLine
 10
4007.5
 20
18030.6907475
 30
0.0
 11
4007.5
 21
18038.6907475
 31
0.0
  0
LINE
  5
460
330
594
100
AcDbEntity
  8
YKK_Z1
  6
Continuous
100
AcDbLine
 10
4137.5
 20
18075.6907475
 30
0.0
 11
4002.5
 21
18075.6907475
 31
0.0
  0
LINE
  5
461
330
594
100
AcDbEntity
  8
YKK_Z1
  6
Continuous
100
AcDbLine
 10
4094.48469715
 20
18075.6907475
 30
0.0
 11
4137.5
 21
18118.706028
 31
0.0
  0
LINE
  5
462
330
594
100
AcDbEntity
  8
YKK_Z1
  6
Continuous
100
AcDbLine
 10
4102.96997926
 20
18075.6907475
 30
0.0
 11
4137.5
 21
18110.2207503
 31
0.0
  0
LINE
  5
463
330
594
100
AcDbEntity
  8
YKK_Z1
  6
Continuous
100
AcDbLine
 10
4122.76897085
 20
18075.6907475
 30
0.0
 11
4137.5
 21
18090.421769
 31
0.0
  0
LINE
  5
464
330
594
100
AcDbEntity
  8
YKK_N1
100
AcDbLine
 10
4507.5
 20
18015.6907475
 30
0.0
 11
4507.5
 21
17995.6907475
 31
0.0
  0
CIRCLE
  5
465
330
594
100
AcDbEntity
  8
YKK_N1
100
AcDbCircle
 10
4507.5
 20
18015.6907475
 30
0.0
 40
6.5
  0
CIRCLE
  5
466
330
594
100
AcDbEntity
  8
YKK_N1
100
AcDbCircle
 10
4507.5
 20
18015.6907475
 30
0.0
 40
10.0
  0
POINT
  5
467
330
594
100
AcDbEntity
  8
YKK_N1
  6
ByBlock
100
AcDbPoint
 10
4507.5
 20
18015.6907475
 30
0.0
  0
LINE
  5
468
330
594
100
AcDbEntity
  8
YKK_Z1
  6
Continuous
100
AcDbLine
 10
4157.5
 20
18335.69079254
 30
0.0
 11
4137.5
 21
18355.690796
 31
0.0
  0
LINE
  5
469
330
594
100
AcDbEntity
  8
YKK_Z1
  6
Continuous
100
AcDbLine
 10
4157.5
 20
18355.690796
 30
0.0
 11
4137.5
 21
18375.69079947
 31
0.0
  0
LINE
  5
46A
330
594
100
AcDbEntity
  8
YKK_Z1
  6
Continuous
100
AcDbLine
 10
4157.5
 20
18375.69079947
 30
0.0
 11
4137.5
 21
18395.69080293
 31
0.0
  0
LINE
  5
46B
330
594
100
AcDbEntity
  8
YKK_Z1
  6
Continuous
100
AcDbLine
 10
4157.5
 20
18395.69080293
 30
0.0
 11
4137.50005889
 21
18415.6907475
 31
0.0
  0
LINE
  5
46C
330
594
100
AcDbEntity
  8
YKK_Z1
  6
Continuous
100
AcDbLine
 10
4137.5
 20
18335.6906124
 30
0.0
 11
4157.5
 21
18355.69060201
 31
0.0
  0
LINE
  5
46D
330
594
100
AcDbEntity
  8
YKK_Z1
  6
Continuous
100
AcDbLine
 10
4137.5
 20
18355.69060201
 30
0.0
 11
4157.5
 21
18375.69059162
 31
0.0
  0
LINE
  5
46E
330
594
100
AcDbEntity
  8
YKK_Z1
  6
Continuous
100
AcDbLine
 10
4137.5
 20
18375.69059162
 30
0.0
 11
4157.5
 21
18395.69058123
 31
0.0
  0
LINE
  5
46F
330
594
100
AcDbEntity
  8
YKK_Z1
  6
Continuous
100
AcDbLine
 10
4137.5
 20
18395.69058123
 30
0.0
 11
4157.5
 21
18415.69057083
 31
0.0
  0
LINE
  5
470
330
594
100
AcDbEntity
  8
YKK_Z1
  6
Continuous
100
AcDbLine
 10
4137.5
 20
18415.69057083
 30
0.0
 11
4137.50017667
 21
18415.6907475
 31
0.0
  0
LINE
  5
471
330
594
100
AcDbEntity
  8
YKK_Z1
  6
Continuous
100
AcDbLine
 10
4157.5
 20
18215.69077175
 30
0.0
 11
4137.5
 21
18235.69077522
 31
0.0
  0
LINE
  5
472
330
594
100
AcDbEntity
  8
YKK_Z1
  6
Continuous
100
AcDbLine
 10
4157.5
 20
18235.69077522
 30
0.0
 11
4137.5
 21
18255.69077868
 31
0.0
  0
LINE
  5
473
330
594
100
AcDbEntity
  8
YKK_Z1
  6
Continuous
100
AcDbLine
 10
4157.5
 20
18255.69077868
 30
0.0
 11
4137.5
 21
18275.69078215
 31
0.0
  0
LINE
  5
474
330
594
100
AcDbEntity
  8
YKK_Z1
  6
Continuous
100
AcDbLine
 10
4157.5
 20
18275.69078215
 30
0.0
 11
4137.5
 21
18295.69078561
 31
0.0
  0
LINE
  5
475
330
594
100
AcDbEntity
  8
YKK_Z1
  6
Continuous
100
AcDbLine
 10
4157.5
 20
18295.69078561
 30
0.0
 11
4137.5
 21
18315.69078907
 31
0.0
  0
LINE
  5
476
330
594
100
AcDbEntity
  8
YKK_Z1
  6
Continuous
100
AcDbLine
 10
4137.5
 20
18215.69067476
 30
0.0
 11
4157.5
 21
18235.69066437
 31
0.0
  0
LINE
  5
477
330
594
100
AcDbEntity
  8
YKK_Z1
  6
Continuous
100
AcDbLine
 10
4137.5
 20
18235.69066437
 30
0.0
 11
4157.5
 21
18255.69065397
 31
0.0
  0
LINE
  5
478
330
594
100
AcDbEntity
  8
YKK_Z1
  6
Continuous
100
AcDbLine
 10
4137.5
 20
18255.69065397
 30
0.0
 11
4157.5
 21
18275.69064358
 31
0.0
  0
LINE
  5
479
330
594
100
AcDbEntity
  8
YKK_Z1
  6
Continuous
100
AcDbLine
 10
4137.5
 20
18275.69064358
 30
0.0
 11
4157.5
 21
18295.69063319
 31
0.0
  0
LINE
  5
47A
330
594
100
AcDbEntity
  8
YKK_Z1
  6
Continuous
100
AcDbLine
 10
4137.5
 20
18295.69063319
 30
0.0
 11
4157.5
 21
18315.6906228
 31
0.0
  0
LINE
  5
47B
330
594
100
AcDbEntity
  8
YKK_Z1
  6
Continuous
100
AcDbLine
 10
4157.5
 20
18315.69078907
 30
0.0
 11
4137.5
 21
18335.69079254
 31
0.0
  0
LINE
  5
47C
330
594
100
AcDbEntity
  8
YKK_Z1
  6
Continuous
100
AcDbLine
 10
4137.5
 20
18315.6906228
 30
0.0
 11
4157.5
 21
18335.6906124
 31
0.0
  0
LINE
  5
47D
330
594
100
AcDbEntity
  8
YKK_N1
  6
ByBlock
100
AcDbLine
 10
4757.5
 20
17929.08820713
 30
0.0
 11
4707.5
 21
18015.6907475
 31
0.0
  0
LINE
  5
47E
330
594
100
AcDbEntity
  8
YKK_N1
  6
ByBlock
100
AcDbLine
 10
4657.5
 20
17929.08820713
 30
0.0
 11
4757.5
 21
17929.08820713
 31
0.0
  0
LINE
  5
47F
330
594
100
AcDbEntity
  8
YKK_N1
  6
ByBlock
100
AcDbLine
 10
4707.5
 20
18015.6907475
 30
0.0
 11
4657.5
 21
17929.08820713
 31
0.0
  0
LINE
  5
480
330
594
100
AcDbEntity
  8
YKK_N1
  6
ByBlock
100
AcDbLine
 10
4707.5
 20
18015.6907475
 30
0.0
 11
4707.5
 21
17915.6907475
 31
0.0
  0
POINT
  5
481
330
594
100
AcDbEntity
  8
YKK_N1
  6
ByBlock
100
AcDbPoint
 10
4707.5
 20
18015.6907475
 30
0.0
  0
TEXT
  5
482
330
594
100
AcDbEntity
  8
YKK_N1
100
AcDbText
 10
8697.5
 20
17722.11931893
 30
0.0
 40
60.0
  1
450
 50
90.0
 41
0.8
  7
YKK_SGSTYLE1
100
AcDbText
  0
LINE
  5
483
330
594
100
AcDbEntity
  8
YKK_N1
  6
ByBlock
100
AcDbLine
 10
8707.5
 20
17585.6907475
 30
0.0
 11
8707.5
 21
17995.6907475
 31
0.0
  0
LINE
  5
484
330
594
100
AcDbEntity
  8
YKK_A1
100
AcDbLine
 10
8307.5
 20
17565.6907475
 30
0.0
 11
8307.5
 21
18015.6907475
 31
0.0
  0
LINE
  5
485
330
594
100
AcDbEntity
  8
YKK_A1
100
AcDbLine
 10
8307.5
 20
17565.6907475
 30
0.0
 11
8307.5
 21
18015.6907475
 31
0.0
  0
LINE
  5
486
330
594
100
AcDbEntity
  8
YKK_A1
100
AcDbLine
 10
7489.5
 20
17565.6907475
 30
0.0
 11
7489.5
 21
18015.6907475
 31
0.0
  0
LINE
  5
487
330
594
100
AcDbEntity
  8
YKK_A1
100
AcDbLine
 10
7489.5
 20
17565.6907475
 30
0.0
 11
7489.5
 21
18015.6907475
 31
0.0
  0
LINE
  5
488
330
594
100
AcDbEntity
  8
YKK_A1
100
AcDbLine
 10
7525.5
 20
18015.6907475
 30
0.0
 11
7525.5
 21
17565.6907475
 31
0.0
  0
LINE
  5
489
330
594
100
AcDbEntity
  8
YKK_A1
100
AcDbLine
 10
7525.5
 20
18015.6907475
 30
0.0
 11
7525.5
 21
17565.6907475
 31
0.0
  0
LINE
  5
48A
330
594
100
AcDbEntity
  8
YKK_A1
100
AcDbLine
 10
6707.5
 20
18015.6907475
 30
0.0
 11
6707.5
 21
17565.6907475
 31
0.0
  0
LINE
  5
48B
330
594
100
AcDbEntity
  8
YKK_A1
100
AcDbLine
 10
6707.5
 20
18015.6907475
 30
0.0
 11
6707.5
 21
17565.6907475
 31
0.0
  0
LINE
  5
48C
330
594
100
AcDbEntity
  8
YKK_A1
100
AcDbLine
 10
7489.5
 20
17565.6907475
 30
0.0
 11
6707.5
 21
17565.6907475
 31
0.0
  0
LINE
  5
48D
330
594
100
AcDbEntity
  8
YKK_A1
100
AcDbLine
 10
6707.5
 20
17565.6907475
 30
0.0
 11
7489.5
 21
17565.6907475
 31
0.0
  0
LINE
  5
48E
330
594
100
AcDbEntity
  8
YKK_A1
100
AcDbLine
 10
6707.5
 20
17565.6907475
 30
0.0
 11
7489.5
 21
17565.6907475
 31
0.0
  0
LINE
  5
48F
330
594
100
AcDbEntity
  8
YKK_A1
100
AcDbLine
 10
7489.5
 20
17515.6907475
 30
0.0
 11
6707.5
 21
17515.6907475
 31
0.0
  0
LINE
  5
490
330
594
100
AcDbEntity
  8
YKK_A1
100
AcDbLine
 10
7489.5
 20
17515.6907475
 30
0.0
 11
6707.5
 21
17515.6907475
 31
0.0
  0
LINE
  5
491
330
594
100
AcDbEntity
  8
YKK_A1
100
AcDbLine
 10
6707.5
 20
17515.6907475
 30
0.0
 11
7489.5
 21
17515.6907475
 31
0.0
  0
LINE
  5
492
330
594
100
AcDbEntity
  8
YKK_A1
100
AcDbLine
 10
6707.5
 20
17565.6907475
 30
0.0
 11
6707.5
 21
17515.6907475
 31
0.0
  0
TEXT
  5
493
330
594
100
AcDbEntity
  8
YKK_N1
100
AcDbText
 10
8697.5
 20
16470.83360465
 30
0.0
 40
60.0
  1
1900
 50
90.0
 41
0.8
  7
YKK_SGSTYLE1
100
AcDbText
  0
LINE
  5
494
330
594
100
AcDbEntity
  8
YKK_A1
100
AcDbLine
 10
8307.5
 20
17565.6907475
 30
0.0
 11
7525.5
 21
17565.6907475
 31
0.0
  0
LINE
  5
495
330
594
100
AcDbEntity
  8
YKK_A1
100
AcDbLine
 10
7525.5
 20
17565.6907475
 30
0.0
 11
8307.5
 21
17565.6907475
 31
0.0
  0
LINE
  5
496
330
594
100
AcDbEntity
  8
YKK_A1
100
AcDbLine
 10
7525.5
 20
17565.6907475
 30
0.0
 11
8307.5
 21
17565.6907475
 31
0.0
  0
LINE
  5
497
330
594
100
AcDbEntity
  8
YKK_A1
100
AcDbLine
 10
8307.5
 20
17515.6907475
 30
0.0
 11
7525.5
 21
17515.6907475
 31
0.0
  0
LINE
  5
498
330
594
100
AcDbEntity
  8
YKK_A1
100
AcDbLine
 10
8307.5
 20
17515.6907475
 30
0.0
 11
7525.5
 21
17515.6907475
 31
0.0
  0
LINE
  5
499
330
594
100
AcDbEntity
  8
YKK_A1
100
AcDbLine
 10
7525.5
 20
17515.6907475
 30
0.0
 11
8307.5
 21
17515.6907475
 31
0.0
  0
TEXT
  5
49A
330
594
100
AcDbEntity
  8
YKK_A1
100
AcDbText
 10
7420.64285714
 20
17595.6907475
 30
0.0
 40
60.0
  1
F
 41
0.8
  7
YKK_SGSTYLE1
 72
     2
 11
7459.5
 21
17595.6907475
 31
0.0
100
AcDbText
  0
LINE
  5
49B
330
594
100
AcDbEntity
  8
YKK_A1
100
AcDbLine
 10
7489.5
 20
17515.6907475
 30
0.0
 11
7489.5
 21
17565.6907475
 31
0.0
  0
LINE
  5
49C
330
594
100
AcDbEntity
  8
YKK_A1
100
AcDbLine
 10
7525.5
 20
17565.6907475
 30
0.0
 11
7525.5
 21
17515.6907475
 31
0.0
  0
LINE
  5
49D
330
594
100
AcDbEntity
  8
YKK_N1
  6
ByBlock
100
AcDbLine
 10
8367.5
 20
17565.6907475
 30
0.0
 11
8737.5
 21
17565.6907475
 31
0.0
  0
LINE
  5
49E
330
594
100
AcDbEntity
  8
YKK_N1
  6
ByBlock
100
AcDbLine
 10
8367.5
 20
17565.6907475
 30
0.0
 11
8737.5
 21
17565.6907475
 31
0.0
  0
LINE
  5
49F
330
594
100
AcDbEntity
  8
YKK_N1
  6
ByBlock
100
AcDbLine
 10
8367.5
 20
17515.6907475
 30
0.0
 11
8737.5
 21
17515.6907475
 31
0.0
  0
LINE
  5
4A0
330
594
100
AcDbEntity
  8
YKK_N1
  6
ByBlock
100
AcDbLine
 10
8367.5
 20
17515.6907475
 30
0.0
 11
8737.5
 21
17515.6907475
 31
0.0
  0
POINT
  5
4A1
330
594
100
AcDbEntity
  8
YKK_N1
  6
ByBlock
100
AcDbPoint
 10
8307.5
 20
17565.6907475
 30
0.0
  0
POINT
  5
4A2
330
594
100
AcDbEntity
  8
YKK_N1
  6
ByBlock
100
AcDbPoint
 10
8307.5
 20
17565.6907475
 30
0.0
  0
POINT
  5
4A3
330
594
100
AcDbEntity
  8
YKK_N1
  6
ByBlock
100
AcDbPoint
 10
8307.5
 20
17515.6907475
 30
0.0
  0
POINT
  5
4A4
330
594
100
AcDbEntity
  8
YKK_N1
  6
ByBlock
100
AcDbPoint
 10
8307.5
 20
17515.6907475
 30
0.0
  0
TEXT
  5
4A5
330
594
100
AcDbEntity
  8
YKK_A1
100
AcDbText
 10
8238.64285714
 20
17595.6907475
 30
0.0
 40
60.0
  1
F
 41
0.8
  7
YKK_SGSTYLE1
 72
     2
 11
8277.5
 21
17595.6907475
 31
0.0
100
AcDbText
  0
LINE
  5
4A6
330
594
100
AcDbEntity
  8
YKK_A1
100
AcDbLine
 10
8307.5
 20
17515.6907475
 30
0.0
 11
8307.5
 21
17565.6907475
 31
0.0
  0
LINE
  5
4A7
330
594
100
AcDbEntity
  8
YKK_N1
100
AcDbLine
 10
8707.5
 20
17515.6907475
 30
0.0
 11
8707.5
 21
17495.6907475
 31
0.0
  0
CIRCLE
  5
4A8
330
594
100
AcDbEntity
  8
YKK_N1
100
AcDbCircle
 10
8707.5
 20
17515.6907475
 30
0.0
 40
6.5
  0
CIRCLE
  5
4A9
330
594
100
AcDbEntity
  8
YKK_N1
100
AcDbCircle
 10
8707.5
 20
17515.6907475
 30
0.0
 40
10.0
  0
LINE
  5
4AA
330
594
100
AcDbEntity
  8
YKK_N1
100
AcDbLine
 10
8707.5
 20
17515.6907475
 30
0.0
 11
8707.5
 21
17495.6907475
 31
0.0
  0
CIRCLE
  5
4AB
330
594
100
AcDbEntity
  8
YKK_N1
100
AcDbCircle
 10
8707.5
 20
17515.6907475
 30
0.0
 40
6.5
  0
CIRCLE
  5
4AC
330
594
100
AcDbEntity
  8
YKK_N1
100
AcDbCircle
 10
8707.5
 20
17515.6907475
 30
0.0
 40
10.0
  0
LINE
  5
4AD
330
594
100
AcDbEntity
  8
YKK_N1
100
AcDbLine
 10
8707.5
 20
17565.6907475
 30
0.0
 11
8707.5
 21
17585.6907475
 31
0.0
  0
CIRCLE
  5
4AE
330
594
100
AcDbEntity
  8
YKK_N1
100
AcDbCircle
 10
8707.5
 20
17565.6907475
 30
0.0
 40
6.5
  0
CIRCLE
  5
4AF
330
594
100
AcDbEntity
  8
YKK_N1
100
AcDbCircle
 10
8707.5
 20
17565.6907475
 30
0.0
 40
10.0
  0
LINE
  5
4B0
330
594
100
AcDbEntity
  8
YKK_N1
100
AcDbLine
 10
8707.5
 20
17565.6907475
 30
0.0
 11
8707.5
 21
17585.6907475
 31
0.0
  0
CIRCLE
  5
4B1
330
594
100
AcDbEntity
  8
YKK_N1
100
AcDbCircle
 10
8707.5
 20
17565.6907475
 30
0.0
 40
6.5
  0
CIRCLE
  5
4B2
330
594
100
AcDbEntity
  8
YKK_N1
100
AcDbCircle
 10
8707.5
 20
17565.6907475
 30
0.0
 40
10.0
  0
POINT
  5
4B3
330
594
100
AcDbEntity
  8
YKK_N1
  6
ByBlock
100
AcDbPoint
 10
8707.5
 20
17565.6907475
 30
0.0
  0
LINE
  5
4B4
330
594
100
AcDbEntity
  8
YKK_N1
  6
ByBlock
100
AcDbLine
 10
8707.5
 20
17515.6907475
 30
0.0
 11
8707.5
 21
17565.6907475
 31
0.0
  0
LINE
  5
4B5
330
594
100
AcDbEntity
  8
YKK_N1
  6
ByBlock
100
AcDbLine
 10
8707.5
 20
17515.6907475
 30
0.0
 11
8707.5
 21
17565.6907475
 31
0.0
  0
LINE
  5
4B6
330
594
100
AcDbEntity
  8
YKK_N1
  6
ByBlock
100
AcDbLine
 10
8707.5
 20
17585.6907475
 30
0.0
 11
8707.5
 21
17605.6907475
 31
0.0
  0
LINE
  5
4B7
330
594
100
AcDbEntity
  8
YKK_N1
  6
ByBlock
100
AcDbLine
 10
8707.5
 20
17495.6907475
 30
0.0
 11
8707.5
 21
17475.6907475
 31
0.0
  0
POINT
  5
4B8
330
594
100
AcDbEntity
  8
YKK_N1
  6
ByBlock
100
AcDbPoint
 10
8707.5
 20
17515.6907475
 30
0.0
  0
LINE
  5
4B9
330
594
100
AcDbEntity
  8
YKK_A1
100
AcDbLine
 10
6692.5
 20
18030.6907475
 30
0.0
 11
7489.5
 21
18030.6907475
 31
0.0
  0
LINE
  5
4BA
330
594
100
AcDbEntity
  8
YKK_A1
100
AcDbLine
 10
7489.5
 20
18015.6907475
 30
0.0
 11
6707.5
 21
18015.6907475
 31
0.0
  0
LINE
  5
4BB
330
594
100
AcDbEntity
  8
YKK_A1
100
AcDbLine
 10
7489.5
 20
18015.6907475
 30
0.0
 11
6707.5
 21
18015.6907475
 31
0.0
  0
LINE
  5
4BC
330
594
100
AcDbEntity
  8
YKK_A1
100
AcDbLine
 10
7525.5
 20
18030.6907475
 30
0.0
 11
8322.5
 21
18030.6907475
 31
0.0
  0
LINE
  5
4BD
330
594
100
AcDbEntity
  8
YKK_A1
100
AcDbLine
 10
8307.5
 20
18015.6907475
 30
0.0
 11
7525.5
 21
18015.6907475
 31
0.0
  0
LINE
  5
4BE
330
594
100
AcDbEntity
  8
YKK_A1
100
AcDbLine
 10
8307.5
 20
18015.6907475
 30
0.0
 11
7525.5
 21
18015.6907475
 31
0.0
  0
LINE
  5
4BF
330
594
100
AcDbEntity
  8
YKK_A1
100
AcDbLine
 10
7525.5
 20
18030.6907475
 30
0.0
 11
7489.5
 21
18030.6907475
 31
0.0
  0
LINE
  5
4C0
330
594
100
AcDbEntity
  8
YKK_N1
  6
ByBlock
100
AcDbLine
 10
8367.5
 20
18015.6907475
 30
0.0
 11
8737.5
 21
18015.6907475
 31
0.0
  0
POINT
  5
4C1
330
594
100
AcDbEntity
  8
YKK_N1
  6
ByBlock
100
AcDbPoint
 10
8307.5
 20
18015.6907475
 30
0.0
  0
POINT
  5
4C2
330
594
100
AcDbEntity
  8
YKK_N1
  6
ByBlock
100
AcDbPoint
 10
8307.5
 20
18015.6907475
 30
0.0
  0
LINE
  5
4C3
330
594
100
AcDbEntity
  8
YKK_N1
100
AcDbLine
 10
8707.5
 20
18015.6907475
 30
0.0
 11
8707.5
 21
17995.6907475
 31
0.0
  0
CIRCLE
  5
4C4
330
594
100
AcDbEntity
  8
YKK_N1
100
AcDbCircle
 10
8707.5
 20
18015.6907475
 30
0.0
 40
6.5
  0
CIRCLE
  5
4C5
330
594
100
AcDbEntity
  8
YKK_N1
100
AcDbCircle
 10
8707.5
 20
18015.6907475
 30
0.0
 40
10.0
  0
POINT
  5
4C6
330
594
100
AcDbEntity
  8
YKK_N1
  6
ByBlock
100
AcDbPoint
 10
8707.5
 20
18015.6907475
 30
0.0
  0
TEXT
  5
4C7
330
594
100
AcDbEntity
  8
YKK_N1
100
AcDbText
 10
10197.5
 20
17722.11931893
 30
0.0
 40
60.0
  1
450
 50
90.0
 41
0.8
  7
YKK_SGSTYLE1
100
AcDbText
  0
LINE
  5
4C8
330
594
100
AcDbEntity
  8
YKK_N1
  6
ByBlock
100
AcDbLine
 10
10207.5
 20
17585.6907475
 30
0.0
 11
10207.5
 21
17995.6907475
 31
0.0
  0
LINE
  5
4C9
330
594
100
AcDbEntity
  8
YKK_C1
100
AcDbLine
 10
9680.5
 20
17565.6907475
 30
0.0
 11
9680.5
 21
18015.6907475
 31
0.0
  0
LINE
  5
4CA
330
594
100
AcDbEntity
  8
YKK_C1
100
AcDbLine
 10
9807.5
 20
17585.6907475
 30
0.0
 11
9807.5
 21
17995.6907475
 31
0.0
  0
LINE
  5
4CB
330
594
100
AcDbEntity
  8
YKK_C1
100
AcDbLine
 10
9657.5
 20
17585.6907475
 30
0.0
 11
9657.5
 21
17995.6907475
 31
0.0
  0
LINE
  5
4CC
330
594
100
AcDbEntity
  8
YKK_Z1
  6
Continuous
100
AcDbLine
 10
9592.5
 20
18030.6907475
 30
0.0
 11
9592.5
 21
16815.6907475
 31
0.0
  0
TEXT
  5
4CD
330
594
100
AcDbEntity
  8
YKK_N1
100
AcDbText
 10
10197.5
 20
16470.83360465
 30
0.0
 40
60.0
  1
1900
 50
90.0
 41
0.8
  7
YKK_SGSTYLE1
100
AcDbText
  0
LINE
  5
4CE
330
594
100
AcDbEntity
  8
YKK_N1
  6
ByBlock
100
AcDbLine
 10
9867.5
 20
17565.6907475
 30
0.0
 11
10237.5
 21
17565.6907475
 31
0.0
  0
LINE
  5
4CF
330
594
100
AcDbEntity
  8
YKK_N1
  6
ByBlock
100
AcDbLine
 10
9867.5
 20
17515.6907475
 30
0.0
 11
10237.5
 21
17515.6907475
 31
0.0
  0
LINE
  5
4D0
330
594
100
AcDbEntity
  8
YKK_N1
  6
ByBlock
100
AcDbLine
 10
9867.5
 20
17565.6907475
 30
0.0
 11
10237.5
 21
17565.6907475
 31
0.0
  0
LINE
  5
4D1
330
594
100
AcDbEntity
  8
YKK_N1
  6
ByBlock
100
AcDbLine
 10
9867.5
 20
17515.6907475
 30
0.0
 11
10237.5
 21
17515.6907475
 31
0.0
  0
TEXT
  5
4D2
330
594
100
AcDbEntity
  8
YKK_N1
100
AcDbText
 10
9660.5
 20
16982.6907475
 30
0.0
 40
60.0
  1
150
 41
0.8
  7
YKK_SGSTYLE1
100
AcDbText
  0
TEXT
  5
4D3
330
594
100
AcDbEntity
  8
YKK_N1
100
AcDbText
 10
8897.5
 20
16668.26217608
 30
0.0
 40
60.0
  1
H=2400
 50
90.0
 41
0.8
  7
YKK_SGSTYLE1
100
AcDbText
  0
LINE
  5
4D4
330
594
100
AcDbEntity
  8
YKK_N1
100
AcDbLine
 10
9807.5
 20
16972.6907475
 30
0.0
 11
9787.5
 21
16972.6907475
 31
0.0
  0
CIRCLE
  5
4D5
330
594
100
AcDbEntity
  8
YKK_N1
100
AcDbCircle
 10
9807.5
 20
16972.6907475
 30
0.0
 40
6.5
  0
CIRCLE
  5
4D6
330
594
100
AcDbEntity
  8
YKK_N1
100
AcDbCircle
 10
9807.5
 20
16972.6907475
 30
0.0
 40
10.0
  0
LINE
  5
4D7
330
594
100
AcDbEntity
  8
YKK_N1
100
AcDbLine
 10
9657.5
 20
16972.6907475
 30
0.0
 11
9677.5
 21
16972.6907475
 31
0.0
  0
CIRCLE
  5
4D8
330
594
100
AcDbEntity
  8
YKK_N1
100
AcDbCircle
 10
9657.5
 20
16972.6907475
 30
0.0
 40
6.5
  0
CIRCLE
  5
4D9
330
594
100
AcDbEntity
  8
YKK_N1
100
AcDbCircle
 10
9657.5
 20
16972.6907475
 30
0.0
 40
10.0
  0
POINT
  5
4DA
330
594
100
AcDbEntity
  8
YKK_N1
  6
ByBlock
100
AcDbPoint
 10
9657.5
 20
16972.6907475
 30
0.0
  0
POINT
  5
4DB
330
594
100
AcDbEntity
  8
YKK_N1
  6
ByBlock
100
AcDbPoint
 10
9657.5
 20
16962.6907475
 30
0.0
  0
POINT
  5
4DC
330
594
100
AcDbEntity
  8
YKK_N1
  6
ByBlock
100
AcDbPoint
 10
9807.5
 20
16962.6907475
 30
0.0
  0
LINE
  5
4DD
330
594
100
AcDbEntity
  8
YKK_N1
  6
ByBlock
100
AcDbLine
 10
9787.5
 20
16972.6907475
 30
0.0
 11
9677.5
 21
16972.6907475
 31
0.0
  0
LINE
  5
4DE
330
594
100
AcDbEntity
  8
YKK_N1
  6
ByBlock
100
AcDbLine
 10
9657.5
 20
17022.6907475
 30
0.0
 11
9657.5
 21
17002.6907475
 31
0.0
  0
LINE
  5
4DF
330
594
100
AcDbEntity
  8
YKK_N1
  6
ByBlock
100
AcDbLine
 10
9807.5
 20
17022.6907475
 30
0.0
 11
9807.5
 21
17002.6907475
 31
0.0
  0
POINT
  5
4E0
330
594
100
AcDbEntity
  8
YKK_N1
  6
ByBlock
100
AcDbPoint
 10
9807.5
 20
17565.6907475
 30
0.0
  0
POINT
  5
4E1
330
594
100
AcDbEntity
  8
YKK_N1
  6
ByBlock
100
AcDbPoint
 10
9807.5
 20
17515.6907475
 30
0.0
  0
POINT
  5
4E2
330
594
100
AcDbEntity
  8
YKK_N1
  6
ByBlock
100
AcDbPoint
 10
9807.5
 20
17565.6907475
 30
0.0
  0
POINT
  5
4E3
330
594
100
AcDbEntity
  8
YKK_N1
  6
ByBlock
100
AcDbPoint
 10
9807.5
 20
17515.6907475
 30
0.0
  0
LINE
  5
4E4
330
594
100
AcDbEntity
  8
YKK_C1
100
AcDbLine
 10
9691.0
 20
17565.6907475
 30
0.0
 11
9691.0
 21
17541.6907475
 31
0.0
  0
LINE
  5
4E5
330
594
100
AcDbEntity
  8
YKK_C1
100
AcDbLine
 10
9691.0
 20
17541.6907475
 30
0.0
 11
9670.0
 21
17541.6907475
 31
0.0
  0
LINE
  5
4E6
330
594
100
AcDbEntity
  8
YKK_C1
100
AcDbLine
 10
9670.0
 20
17541.6907475
 30
0.0
 11
9670.0
 21
17565.6907475
 31
0.0
  0
LINE
  5
4E7
330
594
100
AcDbEntity
  8
YKK_C1
100
AcDbLine
 10
9691.0
 20
17539.6907475
 30
0.0
 11
9670.0
 21
17539.6907475
 31
0.0
  0
LINE
  5
4E8
330
594
100
AcDbEntity
  8
YKK_C1
100
AcDbLine
 10
9807.5
 20
17565.6907475
 30
0.0
 11
9657.5
 21
17565.6907475
 31
0.0
  0
LINE
  5
4E9
330
594
100
AcDbEntity
  8
YKK_C1
100
AcDbLine
 10
9807.5
 20
17515.6907475
 30
0.0
 11
9657.5
 21
17515.6907475
 31
0.0
  0
LINE
  5
4EA
330
594
100
AcDbEntity
  8
YKK_C1
100
AcDbLine
 10
9691.0
 20
17515.6907475
 30
0.0
 11
9691.0
 21
17539.6907475
 31
0.0
  0
LINE
  5
4EB
330
594
100
AcDbEntity
  8
YKK_C1
100
AcDbLine
 10
9670.0
 20
17539.6907475
 30
0.0
 11
9670.0
 21
17515.6907475
 31
0.0
  0
LINE
  5
4EC
330
594
100
AcDbEntity
  8
YKK_C1
100
AcDbLine
 10
9807.5
 20
17565.6907475
 30
0.0
 11
9807.5
 21
17515.6907475
 31
0.0
  0
LINE
  5
4ED
330
594
100
AcDbEntity
  8
YKK_C1
100
AcDbLine
 10
9657.5
 20
17565.6907475
 30
0.0
 11
9657.5
 21
17515.6907475
 31
0.0
  0
TEXT
  5
4EE
330
594
100
AcDbEntity
  8
YKK_N1
100
AcDbText
 10
10397.5
 20
16668.26217608
 30
0.0
 40
60.0
  1
H=2400
 50
90.0
 41
0.8
  7
YKK_SGSTYLE1
100
AcDbText
  0
LINE
  5
4EF
330
594
100
AcDbEntity
  8
YKK_N1
100
AcDbLine
 10
10207.5
 20
17515.6907475
 30
0.0
 11
10207.5
 21
17495.6907475
 31
0.0
  0
CIRCLE
  5
4F0
330
594
100
AcDbEntity
  8
YKK_N1
100
AcDbCircle
 10
10207.5
 20
17515.6907475
 30
0.0
 40
6.5
  0
CIRCLE
  5
4F1
330
594
100
AcDbEntity
  8
YKK_N1
100
AcDbCircle
 10
10207.5
 20
17515.6907475
 30
0.0
 40
10.0
  0
LINE
  5
4F2
330
594
100
AcDbEntity
  8
YKK_N1
100
AcDbLine
 10
10207.5
 20
17565.6907475
 30
0.0
 11
10207.5
 21
17585.6907475
 31
0.0
  0
CIRCLE
  5
4F3
330
594
100
AcDbEntity
  8
YKK_N1
100
AcDbCircle
 10
10207.5
 20
17565.6907475
 30
0.0
 40
6.5
  0
CIRCLE
  5
4F4
330
594
100
AcDbEntity
  8
YKK_N1
100
AcDbCircle
 10
10207.5
 20
17565.6907475
 30
0.0
 40
10.0
  0
TEXT
  5
4F5
330
594
100
AcDbEntity
  8
YKK_N1
100
AcDbText
 10
10305.0
 20
17494.97646179
 30
0.0
 40
60.0
  1
50
 50
90.0
 41
0.8
  7
YKK_SGSTYLE1
100
AcDbText
  0
LINE
  5
4F6
330
594
100
AcDbEntity
  8
YKK_N1
100
AcDbLine
 10
10207.5
 20
17515.6907475
 30
0.0
 11
10207.5
 21
17495.6907475
 31
0.0
  0
CIRCLE
  5
4F7
330
594
100
AcDbEntity
  8
YKK_N1
100
AcDbCircle
 10
10207.5
 20
17515.6907475
 30
0.0
 40
6.5
  0
CIRCLE
  5
4F8
330
594
100
AcDbEntity
  8
YKK_N1
100
AcDbCircle
 10
10207.5
 20
17515.6907475
 30
0.0
 40
10.0
  0
LINE
  5
4F9
330
594
100
AcDbEntity
  8
YKK_N1
100
AcDbLine
 10
10207.5
 20
17565.6907475
 30
0.0
 11
10207.5
 21
17585.6907475
 31
0.0
  0
CIRCLE
  5
4FA
330
594
100
AcDbEntity
  8
YKK_N1
100
AcDbCircle
 10
10207.5
 20
17565.6907475
 30
0.0
 40
6.5
  0
CIRCLE
  5
4FB
330
594
100
AcDbEntity
  8
YKK_N1
100
AcDbCircle
 10
10207.5
 20
17565.6907475
 30
0.0
 40
10.0
  0
POINT
  5
4FC
330
594
100
AcDbEntity
  8
YKK_N1
  6
ByBlock
100
AcDbPoint
 10
10207.5
 20
17565.6907475
 30
0.0
  0
LINE
  5
4FD
330
594
100
AcDbEntity
  8
YKK_N1
  6
ByBlock
100
AcDbLine
 10
10207.5
 20
17515.6907475
 30
0.0
 11
10207.5
 21
17565.6907475
 31
0.0
  0
LINE
  5
4FE
330
594
100
AcDbEntity
  8
YKK_N1
  6
ByBlock
100
AcDbLine
 10
10207.5
 20
17515.6907475
 30
0.0
 11
10207.5
 21
17565.6907475
 31
0.0
  0
LINE
  5
4FF
330
594
100
AcDbEntity
  8
YKK_N1
  6
ByBlock
100
AcDbLine
 10
10207.5
 20
17585.6907475
 30
0.0
 11
10207.5
 21
17605.6907475
 31
0.0
  0
LINE
  5
500
330
594
100
AcDbEntity
  8
YKK_N1
  6
ByBlock
100
AcDbLine
 10
10207.5
 20
17495.6907475
 30
0.0
 11
10207.5
 21
17475.6907475
 31
0.0
  0
POINT
  5
501
330
594
100
AcDbEntity
  8
YKK_N1
  6
ByBlock
100
AcDbPoint
 10
10207.5
 20
17515.6907475
 30
0.0
  0
LINE
  5
502
330
594
100
AcDbEntity
  8
YKK_N1
  6
ByBlock
100
AcDbLine
 10
9867.5
 20
18015.6907475
 30
0.0
 11
10237.5
 21
18015.6907475
 31
0.0
  0
LINE
  5
503
330
594
100
AcDbEntity
  8
YKK_N1
  6
ByBlock
100
AcDbLine
 10
9867.5
 20
18015.6907475
 30
0.0
 11
10437.5
 21
18015.6907475
 31
0.0
  0
LINE
  5
504
330
594
100
AcDbEntity
  8
YKK_Z1
  6
Continuous
100
AcDbLine
 10
9807.5
 20
18025.6907475
 30
0.0
 11
10207.5
 21
18025.6907475
 31
0.0
  0
LINE
  5
505
330
594
100
AcDbEntity
  8
YKK_Z1
  6
Continuous
100
AcDbLine
 10
10207.5
 20
18038.1907475
 30
0.0
 11
9807.5
 21
18038.1907475
 31
0.0
  0
LINE
  5
506
330
594
100
AcDbEntity
  8
YKK_N1
  6
ByBlock
100
AcDbLine
 10
8957.5
 20
17929.08820713
 30
0.0
 11
8907.5
 21
18015.6907475
 31
0.0
  0
LINE
  5
507
330
594
100
AcDbEntity
  8
YKK_N1
  6
ByBlock
100
AcDbLine
 10
8857.5
 20
17929.08820713
 30
0.0
 11
8957.5
 21
17929.08820713
 31
0.0
  0
LINE
  5
508
330
594
100
AcDbEntity
  8
YKK_N1
  6
ByBlock
100
AcDbLine
 10
8907.5
 20
18015.6907475
 30
0.0
 11
8857.5
 21
17929.08820713
 31
0.0
  0
LINE
  5
509
330
594
100
AcDbEntity
  8
YKK_N1
  6
ByBlock
100
AcDbLine
 10
8907.5
 20
18015.6907475
 30
0.0
 11
8907.5
 21
17915.6907475
 31
0.0
  0
POINT
  5
50A
330
594
100
AcDbEntity
  8
YKK_N1
  6
ByBlock
100
AcDbPoint
 10
8907.5
 20
18015.6907475
 30
0.0
  0
LINE
  5
50B
330
594
100
AcDbEntity
  8
YKK_Z1
  6
Continuous
100
AcDbLine
 10
9807.5
 20
18195.69076829
 30
0.0
 11
9787.5
 21
18215.69077175
 31
0.0
  0
LINE
  5
50C
330
594
100
AcDbEntity
  8
YKK_Z1
  6
Continuous
100
AcDbLine
 10
9787.5
 20
18195.69068515
 30
0.0
 11
9807.5
 21
18215.69067476
 31
0.0
  0
LINE
  5
50D
330
594
100
AcDbEntity
  8
YKK_Z1
  6
Continuous
100
AcDbLine
 10
9787.5
 20
18415.6907475
 30
0.0
 11
9787.5
 21
18075.6907475
 31
0.0
  0
LINE
  5
50E
330
594
100
AcDbEntity
  8
YKK_Z1
  6
Continuous
100
AcDbLine
 10
9607.5
 20
18045.6907475
 30
0.0
 11
9607.5
 21
18415.6907475
 31
0.0
  0
LINE
  5
50F
330
594
100
AcDbEntity
  8
YKK_Z1
  6
CENTER
100
AcDbLine
 10
9697.5
 20
18060.6907475
 30
0.0
 11
9697.5
 21
18415.6907475
 31
0.0
  0
LINE
  5
510
330
594
100
AcDbEntity
  8
YKK_Z1
  6
Continuous
100
AcDbLine
 10
9807.5
 20
18075.6907475
 30
0.0
 11
9807.5
 21
18415.6907475
 31
0.0
  0
LINE
  5
511
330
594
100
AcDbEntity
  8
YKK_Z1
  6
Continuous
100
AcDbLine
 10
9592.5
 20
18030.6907475
 30
0.0
 11
9592.5
 21
18415.6907475
 31
0.0
  0
LINE
  5
512
330
594
100
AcDbEntity
  8
YKK_Z1
  6
Continuous
100
AcDbLine
 10
9600.5
 20
18038.6907475
 30
0.0
 11
9600.5
 21
18415.6907475
 31
0.0
  0
POINT
  5
513
330
594
100
AcDbEntity
  8
YKK_N1
  6
ByBlock
100
AcDbPoint
 10
9807.5
 20
18015.6907475
 30
0.0
  0
POINT
  5
514
330
594
100
AcDbEntity
  8
YKK_N1
  6
ByBlock
100
AcDbPoint
 10
9807.5
 20
18015.6907475
 30
0.0
  0
LINE
  5
515
330
594
100
AcDbEntity
  8
YKK_C1
100
AcDbLine
 10
9807.5
 20
18015.6907475
 30
0.0
 11
9807.5
 21
18045.6907475
 31
0.0
  0
LINE
  5
516
330
594
100
AcDbEntity
  8
YKK_C1
100
AcDbLine
 10
9807.5
 20
18045.6907475
 30
0.0
 11
9797.5
 21
18045.6907475
 31
0.0
  0
LINE
  5
517
330
594
100
AcDbEntity
  8
YKK_C1
100
AcDbLine
 10
9691.0
 20
18015.6907475
 30
0.0
 11
9691.0
 21
18039.6907475
 31
0.0
  0
LINE
  5
518
330
594
100
AcDbEntity
  8
YKK_C1
100
AcDbLine
 10
9691.0
 20
18039.6907475
 30
0.0
 11
9670.0
 21
18039.6907475
 31
0.0
  0
LINE
  5
519
330
594
100
AcDbEntity
  8
YKK_C1
100
AcDbLine
 10
9670.0
 20
18039.6907475
 30
0.0
 11
9670.0
 21
18015.6907475
 31
0.0
  0
LINE
  5
51A
330
594
100
AcDbEntity
  8
YKK_C1
100
AcDbLine
 10
9657.5
 20
18015.6907475
 30
0.0
 11
9657.5
 21
18045.6907475
 31
0.0
  0
LINE
  5
51B
330
594
100
AcDbEntity
  8
YKK_C1
100
AcDbLine
 10
9657.5
 20
18045.6907475
 30
0.0
 11
9667.5
 21
18045.6907475
 31
0.0
  0
LINE
  5
51C
330
594
100
AcDbEntity
  8
YKK_C1
100
AcDbLine
 10
9807.5
 20
18015.6907475
 30
0.0
 11
9657.5
 21
18015.6907475
 31
0.0
  0
LINE
  5
51D
330
594
100
AcDbEntity
  8
YKK_Z1
  6
Continuous
100
AcDbLine
 10
9807.5
 20
18175.69076482
 30
0.0
 11
9787.5
 21
18195.69076829
 31
0.0
  0
LINE
  5
51E
330
594
100
AcDbEntity
  8
YKK_Z1
  6
Continuous
100
AcDbLine
 10
9787.5
 20
18175.69069554
 30
0.0
 11
9807.5
 21
18195.69068515
 31
0.0
  0
LINE
  5
520
330
594
100
AcDbEntity
  8
YKK_Z1
  6
Continuous
100
AcDbLine
 10
9807.5
 20
18038.1907475
 30
0.0
 11
9807.5
 21
18025.6907475
 31
0.0
  0
LINE
  5
521
330
594
100
AcDbEntity
  8
YKK_Z1
  6
Continuous
100
AcDbLine
 10
9744.48469715
 20
18075.6907475
 30
0.0
 11
9787.5
 21
18118.706028
 31
0.0
  0
LINE
  5
522
330
594
100
AcDbEntity
  8
YKK_Z1
  6
Continuous
100
AcDbLine
 10
9752.96997926
 20
18075.6907475
 30
0.0
 11
9787.5
 21
18110.2207503
 31
0.0
  0
LINE
  5
523
330
594
100
AcDbEntity
  8
YKK_Z1
  6
Continuous
100
AcDbLine
 10
9772.76897085
 20
18075.6907475
 30
0.0
 11
9787.5
 21
18090.421769
 31
0.0
  0
LINE
  5
525
330
594
100
AcDbEntity
  8
YKK_Z1
  6
Continuous
100
AcDbLine
 10
9787.5
 20
18075.6907475
 30
0.0
 11
9807.5
 21
18075.6907475
 31
0.0
  0
LINE
  5
526
330
594
100
AcDbEntity
  8
YKK_Z1
  6
Continuous
100
AcDbLine
 10
9807.5
 20
18075.6907475
 30
0.0
 11
9787.5
 21
18095.69075097
 31
0.0
  0
LINE
  5
527
330
594
100
AcDbEntity
  8
YKK_Z1
  6
Continuous
100
AcDbLine
 10
9807.5
 20
18095.69075097
 30
0.0
 11
9787.5
 21
18115.69075443
 31
0.0
  0
LINE
  5
528
330
594
100
AcDbEntity
  8
YKK_Z1
  6
Continuous
100
AcDbLine
 10
9807.5
 20
18115.69075443
 30
0.0
 11
9787.5
 21
18135.6907579
 31
0.0
  0
LINE
  5
529
330
594
100
AcDbEntity
  8
YKK_Z1
  6
Continuous
100
AcDbLine
 10
9807.5
 20
18135.6907579
 30
0.0
 11
9787.5
 21
18155.69076136
 31
0.0
  0
LINE
  5
52A
330
594
100
AcDbEntity
  8
YKK_Z1
  6
Continuous
100
AcDbLine
 10
9787.5
 20
18075.6907475
 30
0.0
 11
9807.5
 21
18095.69073711
 31
0.0
  0
LINE
  5
52B
330
594
100
AcDbEntity
  8
YKK_Z1
  6
Continuous
100
AcDbLine
 10
9787.5
 20
18095.69073711
 30
0.0
 11
9807.5
 21
18115.69072672
 31
0.0
  0
LINE
  5
52C
330
594
100
AcDbEntity
  8
YKK_Z1
  6
Continuous
100
AcDbLine
 10
9787.5
 20
18115.69072672
 30
0.0
 11
9807.5
 21
18135.69071633
 31
0.0
  0
LINE
  5
52D
330
594
100
AcDbEntity
  8
YKK_Z1
  6
Continuous
100
AcDbLine
 10
9787.5
 20
18135.69071633
 30
0.0
 11
9807.5
 21
18155.69070593
 31
0.0
  0
LINE
  5
52E
330
594
100
AcDbEntity
  8
YKK_Z1
  6
Continuous
100
AcDbLine
 10
9652.5
 20
18075.6907475
 30
0.0
 11
9642.5
 21
18045.6907475
 31
0.0
  0
LINE
  5
52F
330
594
100
AcDbEntity
  8
YKK_Z1
  6
Continuous
100
AcDbLine
 10
9642.5
 20
18045.6907475
 30
0.0
 11
9607.5
 21
18045.6907475
 31
0.0
  0
LINE
  5
530
330
594
100
AcDbEntity
  8
YKK_Z1
  6
Continuous
100
AcDbLine
 10
9657.5
 20
18030.6907475
 30
0.0
 11
9657.5
 21
18038.6907475
 31
0.0
  0
LINE
  5
531
330
594
100
AcDbEntity
  8
YKK_Z1
  6
Continuous
100
AcDbLine
 10
9657.5
 20
18030.6907475
 30
0.0
 11
9592.5
 21
18030.6907475
 31
0.0
  0
LINE
  5
532
330
594
100
AcDbEntity
  8
YKK_Z1
  6
Continuous
100
AcDbLine
 10
9657.5
 20
18038.6907475
 30
0.0
 11
9600.5
 21
18038.6907475
 31
0.0
  0
LINE
  5
533
330
594
100
AcDbEntity
  8
YKK_Z1
  6
Continuous
100
AcDbLine
 10
9592.5
 20
18130.6907475
 30
0.0
 11
9600.5
 21
18130.6907475
 31
0.0
  0
LINE
  5
534
330
594
100
AcDbEntity
  8
YKK_Z1
  6
Continuous
100
AcDbLine
 10
9592.5
 20
18140.6907475
 30
0.0
 11
9600.5
 21
18140.6907475
 31
0.0
  0
LINE
  5
535
330
594
100
AcDbEntity
  8
YKK_Z1
  6
Continuous
100
AcDbLine
 10
9787.5
 20
18075.6907475
 30
0.0
 11
9652.5
 21
18075.6907475
 31
0.0
  0
LINE
  5
536
330
594
100
AcDbEntity
  8
YKK_Z1
  6
Continuous
100
AcDbLine
 10
9807.5
 20
18155.69076136
 30
0.0
 11
9787.5
 21
18175.69076482
 31
0.0
  0
LINE
  5
537
330
594
100
AcDbEntity
  8
YKK_Z1
  6
Continuous
100
AcDbLine
 10
9787.5
 20
18155.69070593
 30
0.0
 11
9807.5
 21
18175.69069554
 31
0.0
  0
LINE
  5
538
330
594
100
AcDbEntity
  8
YKK_Z1
  6
Continuous
100
AcDbLine
 10
9787.5
 20
18415.69057083
 30
0.0
 11
9787.50017667
 21
18415.6907475
 31
0.0
  0
LINE
  5
539
330
594
100
AcDbEntity
  8
YKK_Z1
  6
Continuous
100
AcDbLine
 10
9807.5
 20
18335.69079254
 30
0.0
 11
9787.5
 21
18355.690796
 31
0.0
  0
LINE
  5
53A
330
594
100
AcDbEntity
  8
YKK_Z1
  6
Continuous
100
AcDbLine
 10
9807.5
 20
18355.690796
 30
0.0
 11
9787.5
 21
18375.69079947
 31
0.0
  0
LINE
  5
53B
330
594
100
AcDbEntity
  8
YKK_Z1
  6
Continuous
100
AcDbLine
 10
9807.5
 20
18375.69079947
 30
0.0
 11
9787.5
 21
18395.69080293
 31
0.0
  0
LINE
  5
53C
330
594
100
AcDbEntity
  8
YKK_Z1
  6
Continuous
100
AcDbLine
 10
9807.5
 20
18395.69080293
 30
0.0
 11
9787.50005889
 21
18415.6907475
 31
0.0
  0
LINE
  5
53D
330
594
100
AcDbEntity
  8
YKK_Z1
  6
Continuous
100
AcDbLine
 10
9787.5
 20
18335.6906124
 30
0.0
 11
9807.5
 21
18355.69060201
 31
0.0
  0
LINE
  5
53E
330
594
100
AcDbEntity
  8
YKK_Z1
  6
Continuous
100
AcDbLine
 10
9787.5
 20
18355.69060201
 30
0.0
 11
9807.5
 21
18375.69059162
 31
0.0
  0
LINE
  5
53F
330
594
100
AcDbEntity
  8
YKK_Z1
  6
Continuous
100
AcDbLine
 10
9787.5
 20
18375.69059162
 30
0.0
 11
9807.5
 21
18395.69058123
 31
0.0
  0
LINE
  5
540
330
594
100
AcDbEntity
  8
YKK_Z1
  6
Continuous
100
AcDbLine
 10
9787.5
 20
18395.69058123
 30
0.0
 11
9807.5
 21
18415.69057083
 31
0.0
  0
LINE
  5
541
330
594
100
AcDbEntity
  8
YKK_Z1
  6
Continuous
100
AcDbLine
 10
9807.5
 20
18215.69077175
 30
0.0
 11
9787.5
 21
18235.69077522
 31
0.0
  0
LINE
  5
542
330
594
100
AcDbEntity
  8
YKK_Z1
  6
Continuous
100
AcDbLine
 10
9807.5
 20
18235.69077522
 30
0.0
 11
9787.5
 21
18255.69077868
 31
0.0
  0
LINE
  5
543
330
594
100
AcDbEntity
  8
YKK_Z1
  6
Continuous
100
AcDbLine
 10
9807.5
 20
18255.69077868
 30
0.0
 11
9787.5
 21
18275.69078215
 31
0.0
  0
LINE
  5
544
330
594
100
AcDbEntity
  8
YKK_Z1
  6
Continuous
100
AcDbLine
 10
9807.5
 20
18275.69078215
 30
0.0
 11
9787.5
 21
18295.69078561
 31
0.0
  0
LINE
  5
545
330
594
100
AcDbEntity
  8
YKK_Z1
  6
Continuous
100
AcDbLine
 10
9807.5
 20
18295.69078561
 30
0.0
 11
9787.5
 21
18315.69078907
 31
0.0
  0
LINE
  5
546
330
594
100
AcDbEntity
  8
YKK_Z1
  6
Continuous
100
AcDbLine
 10
9787.5
 20
18215.69067476
 30
0.0
 11
9807.5
 21
18235.69066437
 31
0.0
  0
LINE
  5
547
330
594
100
AcDbEntity
  8
YKK_Z1
  6
Continuous
100
AcDbLine
 10
9787.5
 20
18235.69066437
 30
0.0
 11
9807.5
 21
18255.69065397
 31
0.0
  0
LINE
  5
548
330
594
100
AcDbEntity
  8
YKK_Z1
  6
Continuous
100
AcDbLine
 10
9787.5
 20
18255.69065397
 30
0.0
 11
9807.5
 21
18275.69064358
 31
0.0
  0
LINE
  5
549
330
594
100
AcDbEntity
  8
YKK_Z1
  6
Continuous
100
AcDbLine
 10
9787.5
 20
18275.69064358
 30
0.0
 11
9807.5
 21
18295.69063319
 31
0.0
  0
LINE
  5
54A
330
594
100
AcDbEntity
  8
YKK_Z1
  6
Continuous
100
AcDbLine
 10
9787.5
 20
18295.69063319
 30
0.0
 11
9807.5
 21
18315.6906228
 31
0.0
  0
LINE
  5
54B
330
594
100
AcDbEntity
  8
YKK_Z1
  6
Continuous
100
AcDbLine
 10
9807.5
 20
18315.69078907
 30
0.0
 11
9787.5
 21
18335.69079254
 31
0.0
  0
LINE
  5
54C
330
594
100
AcDbEntity
  8
YKK_Z1
  6
Continuous
100
AcDbLine
 10
9787.5
 20
18315.6906228
 30
0.0
 11
9807.5
 21
18335.6906124
 31
0.0
  0
LINE
  5
54D
330
594
100
AcDbEntity
  8
YKK_Z1
  6
Continuous
100
AcDbLine
 10
9592.5
 20
18350.6907475
 30
0.0
 11
9600.5
 21
18350.6907475
 31
0.0
  0
LINE
  5
54E
330
594
100
AcDbEntity
  8
YKK_Z1
  6
Continuous
100
AcDbLine
 10
9592.5
 20
18360.6907475
 30
0.0
 11
9600.5
 21
18360.6907475
 31
0.0
  0
LINE
  5
54F
330
594
100
AcDbEntity
  8
YKK_Z1
  6
Continuous
100
AcDbLine
 10
9592.5
 20
18240.6907475
 30
0.0
 11
9600.5
 21
18240.6907475
 31
0.0
  0
LINE
  5
550
330
594
100
AcDbEntity
  8
YKK_Z1
  6
Continuous
100
AcDbLine
 10
9592.5
 20
18250.6907475
 30
0.0
 11
9600.5
 21
18250.6907475
 31
0.0
  0
LINE
  5
551
330
594
100
AcDbEntity
  8
YKK_Z1
  6
Continuous
100
AcDbLine
 10
9607.5
 20
18235.69084103
 30
0.0
 11
9787.5
 21
18415.6907475
 31
0.0
  0
LINE
  5
552
330
594
100
AcDbEntity
  8
YKK_Z1
  6
Continuous
100
AcDbLine
 10
9607.5
 20
18227.20556333
 30
0.0
 11
9787.5
 21
18407.2054698
 31
0.0
  0
LINE
  5
553
330
594
100
AcDbEntity
  8
YKK_Z1
  6
Continuous
100
AcDbLine
 10
9607.5
 20
18207.40658203
 30
0.0
 11
9787.5
 21
18387.4064885
 31
0.0
  0
LINE
  5
554
330
594
100
AcDbEntity
  8
YKK_N1
  6
ByBlock
100
AcDbLine
 10
10457.5
 20
17929.08820713
 30
0.0
 11
10407.5
 21
18015.6907475
 31
0.0
  0
LINE
  5
555
330
594
100
AcDbEntity
  8
YKK_N1
  6
ByBlock
100
AcDbLine
 10
10357.5
 20
17929.08820713
 30
0.0
 11
10457.5
 21
17929.08820713
 31
0.0
  0
LINE
  5
556
330
594
100
AcDbEntity
  8
YKK_N1
  6
ByBlock
100
AcDbLine
 10
10407.5
 20
18015.6907475
 30
0.0
 11
10357.5
 21
17929.08820713
 31
0.0
  0
LINE
  5
557
330
594
100
AcDbEntity
  8
YKK_N1
  6
ByBlock
100
AcDbLine
 10
10407.5
 20
18015.6907475
 30
0.0
 11
10407.5
 21
17915.6907475
 31
0.0
  0
LINE
  5
558
330
594
100
AcDbEntity
  8
YKK_N1
100
AcDbLine
 10
10207.5
 20
18015.6907475
 30
0.0
 11
10207.5
 21
17995.6907475
 31
0.0
  0
CIRCLE
  5
559
330
594
100
AcDbEntity
  8
YKK_N1
100
AcDbCircle
 10
10207.5
 20
18015.6907475
 30
0.0
 40
6.5
  0
CIRCLE
  5
55A
330
594
100
AcDbEntity
  8
YKK_N1
100
AcDbCircle
 10
10207.5
 20
18015.6907475
 30
0.0
 40
10.0
  0
POINT
  5
55B
330
594
100
AcDbEntity
  8
YKK_N1
  6
ByBlock
100
AcDbPoint
 10
10207.5
 20
18015.6907475
 30
0.0
  0
POINT
  5
55C
330
594
100
AcDbEntity
  8
YKK_N1
  6
ByBlock
100
AcDbPoint
 10
10407.5
 20
18015.6907475
 30
0.0
  0
LINE
  5
55D
330
594
100
AcDbEntity
  8
YKK_F1
100
AcDbLine
 10
17100.0
 20
0.0
 30
0.0
 11
17100.0
 21
19500.0
 31
0.0
  0
LINE
  5
55E
330
594
100
AcDbEntity
  8
YKK_F1
100
AcDbLine
 10
22800.0
 20
0.0
 30
0.0
 11
22800.0
 21
19500.0
 31
0.0
  0
LINE
  5
55F
330
594
100
AcDbEntity
  8
YKK_F1
100
AcDbLine
 10
28500.0
 20
0.0
 30
0.0
 11
28500.0
 21
20000.0
 31
0.0
  0
LINE
  5
560
330
594
100
AcDbEntity
  8
YKK_F1
100
AcDbLine
 10
28681.0155
 20
0.0
 30
0.0
 11
28681.0155
 21
20000.0
 31
0.0
  0
TEXT
  5
561
330
594
100
AcDbEntity
  8
0
100
AcDbText
 10
24211.05
 20
3184.74203055
 30
0.0
 40
200.0
  1
防火設備（防火戸）認定商品
  7
EXTFONT
100
AcDbText
  0
TEXT
  5
562
330
594
100
AcDbEntity
  8
0
100
AcDbText
 10
22915.0
 20
2609.81019766
 30
0.0
 40
200.0
  1
ただし、窓種・サイズにより適応値が異なります。
  7
EXTFONT
100
AcDbText
  0
TEXT
  5
563
330
594
100
AcDbEntity
  8
0
100
AcDbText
 10
24211.05
 20
4951.7247
 30
0.0
 40
200.0
  1
Ｓ－３（１６００Ｐａ）
  7
EXTFONT
100
AcDbText
  0
TEXT
  5
564
330
594
100
AcDbEntity
  8
0
100
AcDbText
 10
24211.05
 20
3830.81301726
 30
0.0
 40
200.0
  1
Ｗ－５（５００Ｐａ）
  7
EXTFONT
100
AcDbText
  0
TEXT
  5
565
330
594
100
AcDbEntity
  8
0
100
AcDbText
 10
24211.05
 20
4405.81301726
 30
0.0
 40
200.0
  1
Ａ－４（２等級線）
  7
EXTFONT
100
AcDbText
  0
TEXT
  5
566
330
594
100
AcDbEntity
  8
0
100
AcDbText
 10
22915.0
 20
5712.6247
 30
0.0
 40
200.0
  1
ＳＹＳＴＥＭＡ５１０ｅ　性能等級
  7
EXTFONT
100
AcDbText
  0
TEXT
  5
567
330
594
100
AcDbEntity
  8
0
100
AcDbText
 10
22915.0
 20
3201.74203055
 30
0.0
 40
200.0
  1
防火性
  7
EXTFONT
100
AcDbText
  0
TEXT
  5
568
330
594
100
AcDbEntity
  8
0
100
AcDbText
 10
22915.0
 20
4405.81301726
 30
0.0
 40
200.0
  1
気密性
  7
EXTFONT
100
AcDbText
  0
TEXT
  5
569
330
594
100
AcDbEntity
  8
0
100
AcDbText
 10
22915.0
 20
3830.81301726
 30
0.0
 40
200.0
  1
水密性
  7
EXTFONT
100
AcDbText
  0
TEXT
  5
56A
330
594
100
AcDbEntity
  8
0
100
AcDbText
 10
22915.0
 20
4959.2247
 30
0.0
 40
200.0
  1
耐風圧性
  7
EXTFONT
100
AcDbText
  0
LINE
  5
576
330
594
100
AcDbEntity
  8
YKK_B1
  6
ByBlock
100
AcDbLine
 10
1807.5
 20
14217.5
 30
0.0
 11
1807.5
 21
13847.5
 31
0.0
  0
LINE
  5
577
330
594
100
AcDbEntity
  8
YKK_B1
  6
ByBlock
100
AcDbLine
 10
7507.5
 20
14167.5
 30
0.0
 11
7507.5
 21
13797.5
 31
0.0
  0
ENDSEC
  0
SECTION
  2
OBJECTS
  0
DICTIONARY
  5
589
330
0
100
AcDbDictionary
281
     1
  3
ACAD_CIP_PREVIOUS_PRODUCT_INFO
350
655
  3
ACAD_COLOR
350
5E9
  3
ACAD_DETAILVIEWSTYLE
350
602
  3
ACAD_GROUP
350
58A
  3
ACAD_LAYOUT
350
608
  3
ACAD_MATERIAL
350
5B7
  3
ACAD_MLEADERSTYLE
350
5FE
  3
ACAD_MLINESTYLE
350
597
  3
ACAD_PLOTSETTINGS
350
607
  3
ACAD_PLOTSTYLENAME
350
5B5
  3
ACAD_SCALELIST
350
5EC
  3
ACAD_SECTIONVIEWSTYLE
350
600
  3
ACAD_TABLESTYLE
350
5EA
  3
ACAD_VISUALSTYLE
350
5D0
  3
ACDB_RECOMPOSE_DATA
350
65B
  3
ACDBVARIABLEDICTIONARY
350
5AD
  0
XRECORD
  5
655
102
{ACAD_REACTORS
330
589
102
}
330
589
100
AcDbXrecord
280
     1
300
ACD
300
2014
300
86063ACD_2014_0F
  0
DICTIONARY
  5
5E9
102
{ACAD_REACTORS
330
589
102
}
330
589
100
AcDbDictionary
281
     1
  0
DICTIONARY
  5
602
102
{ACAD_REACTORS
330
589
102
}
330
589
100
AcDbDictionary
281
     1
  3
Imperial24
350
603
  0
DICTIONARY
  5
58A
102
{ACAD_REACTORS
330
589
102
}
330
589
100
AcDbDictionary
281
     1
  0
DICTIONARY
  5
608
102
{ACAD_REACTORS
330
589
102
}
330
589
100
AcDbDictionary
281
     1
  3
Model
350
609
  3
レイアウト1
350
60A
  0
DICTIONARY
  5
5B7
102
{ACAD_REACTORS
330
589
102
}
330
589
100
AcDbDictionary
281
     1
  3
ByBlock
350
5C0
  3
ByLayer
350
5B8
  3
Global
350
5C8
  0
DICTIONARY
  5
5FE
102
{ACAD_REACTORS
330
589
102
}
330
589
100
AcDbDictionary
281
     1
  3
Standard
350
5FF
  0
DICTIONARY
  5
597
102
{ACAD_REACTORS
330
589
102
}
330
589
100
AcDbDictionary
281
     1
  3
STANDARD
350
598
  0
DICTIONARY
  5
607
102
{ACAD_REACTORS
330
589
102
}
330
589
100
AcDbDictionary
281
     1
  0
ACDBDICTIONARYWDFLT
  5
5B5
102
{ACAD_REACTORS
330
589
102
}
330
589
100
AcDbDictionary
281
     1
  3
Normal
350
5B6
100
AcDbDictionaryWithDefault
340
5B6
  0
DICTIONARY
  5
5EC
102
{ACAD_REACTORS
330
589
102
}
330
589
100
AcDbDictionary
281
     1
  3
A0
350
5ED
  3
A1
350
5EE
  3
A2
350
5EF
  3
A3
350
5F0
  3
A4
350
5F1
  3
A5
350
5F2
  3
A6
350
5F3
  3
A7
350
5F4
  3
A8
350
5F5
  3
A9
350
5F6
  3
B0
350
5F7
  3
B1
350
5F8
  3
B2
350
5F9
  3
B3
350
5FA
  3
B4
350
5FB
  3
B5
350
5FC
  3
B6
350
5FD
  0
DICTIONARY
  5
600
102
{ACAD_REACTORS
330
589
102
}
330
589
100
AcDbDictionary
281
     1
  3
Imperial24
350
601
  0
DICTIONARY
  5
5EA
102
{ACAD_REACTORS
330
589
102
}
330
589
100
AcDbDictionary
281
     1
  3
Standard
350
5EB
  0
DICTIONARY
  5
5D0
102
{ACAD_REACTORS
330
589
102
}
330
589
100
AcDbDictionary
281
     1
  3
2dWireframe
350
5D6
  3
Basic
350
5D5
  3
Brighten
350
5DC
  3
ColorChange
350
5E0
  3
Conceptual
350
5D9
  3
Dim
350
5DB
  3
EdgeColorOff
350
5E8
  3
Facepattern
350
5DF
  3
Flat
350
5D1
  3
FlatWithEdges
350
5D2
  3
Gouraud
350
5D3
  3
GouraudWithEdges
350
5D4
  3
Hidden
350
5D8
  3
JitterOff
350
5E6
  3
Linepattern
350
5DE
  3
OverhangOff
350
5E7
  3
Realistic
350
5DA
  3
Shaded
350
5E5
  3
Shaded with edges
350
5E4
  3
Shades of Gray
350
5E1
  3
Sketchy
350
5E2
  3
Thicken
350
5DD
  3
Wireframe
350
5D7
  3
X-Ray
350
5E3
  0
XRECORD
  5
65B
102
{ACAD_REACTORS
330
589
102
}
330
589
100
AcDbXrecord
280
     1
 90
        1
330
5EB
  0
DICTIONARY
  5
5AD
102
{ACAD_REACTORS
330
589
102
}
330
589
100
AcDbDictionary
281
     1
  3
CANNOSCALE
350
64D
  3
CMLEADERSTYLE
350
64A
  3
CTABLESTYLE
350
649
  3
CVIEWDETAILSTYLE
350
64B
  3
CVIEWSECTIONSTYLE
350
64C
  3
DIMADEC
350
5AE
  3
XCLIPFRAME
350
659
  0
ACDBDETAILVIEWSTYLE
  5
603
102
{ACAD_XDICTIONARY
360
694
102
}
102
{ACAD_REACTORS
330
602
102
}
330
602
100
AcDbModelDocViewStyle
 70
     0
  3
Imperial24
290
     0
100
AcDbDetailViewStyle
 70
     0
 71
     0
 90
        3
 71
     1
340
58C
 62
   256
 40
0.24
340
0
 62
   256
 40
0.24
300

 40
0.36
280
     3
 71
     2
340
590
 90
       25
 62
   256
 71
     3
340
58C
 62
   256
 40
0.24
 90
        1
 40
0.75
 90
        1
300
%<\AcVar ViewType \f "%tc1">% %<\AcVar ViewDetailId>%\PSCALE %<\AcVar ViewScale \f "%sn">%
 71
     4
340
590
 90
       25
 62
   256
340
590
 90
       25
 62
   256
280
     0
  0
LAYOUT
  5
609
102
{ACAD_REACTORS
330
608
102
}
330
608
100
AcDbPlotSettings
  1

  2
C:\ACAD-I\support\plotters\Default Windows System Printer.pc3
  4
A4
  6

 40
3.17499995
 41
3.17499995
 42
3.17500305
 43
3.17498779
 44
209.88865662
 45
297.05300903
 46
0.0
 47
0.0
 48
0.0
 49
0.0
140
0.0
141
0.0
142
1.0
143
3304.92720565
 70
 11952
 72
     0
 73
     1
 74
     0
  7
monochrome.ctb
 75
     0
147
0.00030258
 76
     0
 77
     2
 78
   300
148
87048.72221002
149
2907.51885808
100
AcDbLayout
  1
Model
 70
     1
 71
     0
 10
0.0
 20
0.0
 11
12.0
 21
9.0
 12
0.0
 22
0.0
 32
0.0
 14
0.0
 24
0.0
 34
0.0
 15
0.0
 25
0.0
 35
0.0
146
0.0
 13
0.0
 23
0.0
 33
0.0
 16
1.0
 26
0.0
 36
0.0
 17
0.0
 27
1.0
 37
0.0
 76
     0
330
594
1001
ACAD_PSEXT
1000
C:\ACAD-I\support\plotters\Default Windows System Printer.pc3
1000
Fiery PRO80 65-55C-KM PS3.0jp
1000
IP_10.230.204.212
1000

1070
     0
  0
LAYOUT
  5
60A
102
{ACAD_REACTORS
330
608
102
}
330
608
100
AcDbPlotSettings
  1

  2
C:\ACAD-I\support\plotters\Default Windows System Printer.pc3
  4
A4
  6

 40
3.17499995
 41
3.17499995
 42
3.17500305
 43
3.17498779
 44
209.88865662
 45
297.05300903
 46
0.0
 47
0.0
 48
0.0
 49
0.0
140
0.0
141
0.0
142
1.0
143
1.0
 70
 15024
 72
     0
 73
     1
 74
     5
  7
monochrome.ctb
 75
    16
147
1.0
 76
     0
 77
     2
 78
   300
148
0.0
149
0.0
100
AcDbLayout
  1
レイアウト1
 70
     0
 71
     1
 10
0.0
 20
0.0
 11
12.0
 21
9.0
 12
0.0
 22
0.0
 32
0.0
 14
1.00000000E+20
 24
1.00000000E+20
 34
1.00000000E+20
 15
-1.00000000E+20
 25
-1.00000000E+20
 35
-1.00000000E+20
146
0.0
 13
0.0
 23
0.0
 33
0.0
 16
1.0
 26
0.0
 36
0.0
 17
0.0
 27
1.0
 37
0.0
 76
     0
330
591
1001
ACAD_PSEXT
1000
C:\ACAD-I\support\plotters\Default Windows System Printer.pc3
1000
Fiery PRO80 65-55C-KM PS3.0jp
1000
IP_10.230.204.212
1000

1070
     0
  0
MATERIAL
  5
5C0
102
{ACAD_XDICTIONARY
360
5C1
102
}
102
{ACAD_REACTORS
330
5B7
102
}
330
5B7
100
AcDbMaterial
  1
ByBlock
 72
     0
 43
0.02083333
 43
0.0
 43
0.0
 43
0.0
 43
0.0
 43
0.02083333
 43
0.0
 43
0.0
 43
0.0
 43
0.0
 43
1.0
 43
0.0
 43
0.0
 43
0.0
 43
0.0
 43
1.0
 77
     0
 47
0.02083333
 47
0.0
 47
0.0
 47
0.0
 47
0.0
 47
0.02083333
 47
0.0
 47
0.0
 47
0.0
 47
0.0
 47
1.0
 47
0.0
 47
0.0
 47
0.0
 47
0.0
 47
1.0
171
     0
 49
0.02083333
 49
0.0
 49
0.0
 49
0.0
 49
0.0
 49
0.02083333
 49
0.0
 49
0.0
 49
0.0
 49
0.0
 49
1.0
 49
0.0
 49
0.0
 49
0.0
 49
0.0
 49
1.0
175
     0
142
0.02083333
142
0.0
142
0.0
142
0.0
142
0.0
142
0.02083333
142
0.0
142
0.0
142
0.0
142
0.0
142
1.0
142
0.0
142
0.0
142
0.0
142
0.0
142
1.0
179
     0
144
0.02083333
144
0.0
144
0.0
144
0.0
144
0.0
144
0.02083333
144
0.0
144
0.0
144
0.0
144
0.0
144
1.0
144
0.0
144
0.0
144
0.0
144
0.0
144
1.0
147
0.02083333
147
0.0
147
0.0
147
0.0
147
0.0
147
0.02083333
147
0.0
147
0.0
147
0.0
147
0.0
147
1.0
147
0.0
147
0.0
147
0.0
147
0.0
147
1.0
  0
MATERIAL
  5
5B8
102
{ACAD_XDICTIONARY
360
5B9
102
}
102
{ACAD_REACTORS
330
5B7
102
}
330
5B7
100
AcDbMaterial
  1
ByLayer
 72
     0
 43
0.02083333
 43
0.0
 43
0.0
 43
0.0
 43
0.0
 43
0.02083333
 43
0.0
 43
0.0
 43
0.0
 43
0.0
 43
1.0
 43
0.0
 43
0.0
 43
0.0
 43
0.0
 43
1.0
 77
     0
 47
0.02083333
 47
0.0
 47
0.0
 47
0.0
 47
0.0
 47
0.02083333
 47
0.0
 47
0.0
 47
0.0
 47
0.0
 47
1.0
 47
0.0
 47
0.0
 47
0.0
 47
0.0
 47
1.0
171
     0
 49
0.02083333
 49
0.0
 49
0.0
 49
0.0
 49
0.0
 49
0.02083333
 49
0.0
 49
0.0
 49
0.0
 49
0.0
 49
1.0
 49
0.0
 49
0.0
 49
0.0
 49
0.0
 49
1.0
175
     0
142
0.02083333
142
0.0
142
0.0
142
0.0
142
0.0
142
0.02083333
142
0.0
142
0.0
142
0.0
142
0.0
142
1.0
142
0.0
142
0.0
142
0.0
142
0.0
142
1.0
179
     0
144
0.02083333
144
0.0
144
0.0
144
0.0
144
0.0
144
0.02083333
144
0.0
144
0.0
144
0.0
144
0.0
144
1.0
144
0.0
144
0.0
144
0.0
144
0.0
144
1.0
147
0.02083333
147
0.0
147
0.0
147
0.0
147
0.0
147
0.02083333
147
0.0
147
0.0
147
0.0
147
0.0
147
1.0
147
0.0
147
0.0
147
0.0
147
0.0
147
1.0
  0
MATERIAL
  5
5C8
102
{ACAD_XDICTIONARY
360
5C9
102
}
102
{ACAD_REACTORS
330
5B7
102
}
330
5B7
100
AcDbMaterial
  1
Global
 72
     0
 43
0.02083333
 43
0.0
 43
0.0
 43
0.0
 43
0.0
 43
0.02083333
 43
0.0
 43
0.0
 43
0.0
 43
0.0
 43
1.0
 43
0.0
 43
0.0
 43
0.0
 43
0.0
 43
1.0
 77
     0
 47
0.02083333
 47
0.0
 47
0.0
 47
0.0
 47
0.0
 47
0.02083333
 47
0.0
 47
0.0
 47
0.0
 47
0.0
 47
1.0
 47
0.0
 47
0.0
 47
0.0
 47
0.0
 47
1.0
171
     0
 49
0.02083333
 49
0.0
 49
0.0
 49
0.0
 49
0.0
 49
0.02083333
 49
0.0
 49
0.0
 49
0.0
 49
0.0
 49
1.0
 49
0.0
 49
0.0
 49
0.0
 49
0.0
 49
1.0
175
     0
142
0.02083333
142
0.0
142
0.0
142
0.0
142
0.0
142
0.02083333
142
0.0
142
0.0
142
0.0
142
0.0
142
1.0
142
0.0
142
0.0
142
0.0
142
0.0
142
1.0
179
     0
144
0.02083333
144
0.0
144
0.0
144
0.0
144
0.0
144
0.02083333
144
0.0
144
0.0
144
0.0
144
0.0
144
1.0
144
0.0
144
0.0
144
0.0
144
0.0
144
1.0
147
0.02083333
147
0.0
147
0.0
147
0.0
147
0.0
147
0.02083333
147
0.0
147
0.0
147
0.0
147
0.0
147
1.0
147
0.0
147
0.0
147
0.0
147
0.0
147
1.0
  0
MLEADERSTYLE
  5
5FF
102
{ACAD_XDICTIONARY
360
690
102
}
102
{ACAD_REACTORS
330
5FE
102
}
330
5FE
100
AcDbMLeaderStyle
170
     2
171
     1
172
     0
 90
        2
 40
0.0
 41
0.0
173
     1
 91
-1056964608
340
58E
 92
       -2
290
     1
 42
0.09
291
     1
 43
0.36
  3
Standard
 44
0.18
300

342
58C
174
     1
178
     6
175
     1
176
     0
 93
-1056964608
 45
0.18
292
     0
297
     0
 46
0.18
 94
-1056964608
 47
1.0
 49
1.0
140
1.0
293
     1
141
0.0
294
     1
177
     0
142
1.0
295
     0
296
     0
143
0.125
1001
ACAD_MLEADERVER
1070
     2
  0
MLINESTYLE
  5
598
102
{ACAD_REACTORS
330
597
102
}
330
597
100
AcDbMlineStyle
  2
STANDARD
 70
     0
  3

 62
   256
 51
90.0
 52
90.0
 71
     2
 49
0.5
 62
   256
  6
BYLAYER
 49
-0.5
 62
   256
  6
BYLAYER
  0
ACDBPLACEHOLDER
  5
5B6
102
{ACAD_REACTORS
330
5B5
102
}
330
5B5
  0
SCALE
  5
5ED
102
{ACAD_REACTORS
330
5EC
102
}
330
5EC
100
AcDbScale
 70
     0
300
1:1
140
1.0
141
1.0
290
     1
  0
SCALE
  5
5EE
102
{ACAD_REACTORS
330
5EC
102
}
330
5EC
100
AcDbScale
 70
     0
300
1/128" = 1'-0"
140
0.0078125
141
12.0
290
     0
  0
SCALE
  5
5EF
102
{ACAD_REACTORS
330
5EC
102
}
330
5EC
100
AcDbScale
 70
     0
300
1/64" = 1'-0"
140
0.015625
141
12.0
290
     0
  0
SCALE
  5
5F0
102
{ACAD_REACTORS
330
5EC
102
}
330
5EC
100
AcDbScale
 70
     0
300
1/32" = 1'-0"
140
0.03125
141
12.0
290
     0
  0
SCALE
  5
5F1
102
{ACAD_REACTORS
330
5EC
102
}
330
5EC
100
AcDbScale
 70
     0
300
1/16" = 1'-0"
140
0.0625
141
12.0
290
     0
  0
SCALE
  5
5F2
102
{ACAD_REACTORS
330
5EC
102
}
330
5EC
100
AcDbScale
 70
     0
300
3/32" = 1'-0"
140
0.09375
141
12.0
290
     0
  0
SCALE
  5
5F3
102
{ACAD_REACTORS
330
5EC
102
}
330
5EC
100
AcDbScale
 70
     0
300
1/8" = 1'-0"
140
0.125
141
12.0
290
     0
  0
SCALE
  5
5F4
102
{ACAD_REACTORS
330
5EC
102
}
330
5EC
100
AcDbScale
 70
     0
300
3/16" = 1'-0"
140
0.1875
141
12.0
290
     0
  0
SCALE
  5
5F5
102
{ACAD_REACTORS
330
5EC
102
}
330
5EC
100
AcDbScale
 70
     0
300
1/4" = 1'-0"
140
0.25
141
12.0
290
     0
  0
SCALE
  5
5F6
102
{ACAD_REACTORS
330
5EC
102
}
330
5EC
100
AcDbScale
 70
     0
300
3/8" = 1'-0"
140
0.375
141
12.0
290
     0
  0
SCALE
  5
5F7
102
{ACAD_REACTORS
330
5EC
102
}
330
5EC
100
AcDbScale
 70
     0
300
1/2" = 1'-0"
140
0.5
141
12.0
290
     0
  0
SCALE
  5
5F8
102
{ACAD_REACTORS
330
5EC
102
}
330
5EC
100
AcDbScale
 70
     0
300
3/4" = 1'-0"
140
0.75
141
12.0
290
     0
  0
SCALE
  5
5F9
102
{ACAD_REACTORS
330
5EC
102
}
330
5EC
100
AcDbScale
 70
     0
300
1" = 1'-0"
140
1.0
141
12.0
290
     0
  0
SCALE
  5
5FA
102
{ACAD_REACTORS
330
5EC
102
}
330
5EC
100
AcDbScale
 70
     0
300
1-1/2" = 1'-0"
140
1.5
141
12.0
290
     0
  0
SCALE
  5
5FB
102
{ACAD_REACTORS
330
5EC
102
}
330
5EC
100
AcDbScale
 70
     0
300
3" = 1'-0"
140
3.0
141
12.0
290
     0
  0
SCALE
  5
5FC
102
{ACAD_REACTORS
330
5EC
102
}
330
5EC
100
AcDbScale
 70
     0
300
6" = 1'-0"
140
6.0
141
12.0
290
     0
  0
SCALE
  5
5FD
102
{ACAD_REACTORS
330
5EC
102
}
330
5EC
100
AcDbScale
 70
     0
300
1'-0" = 1'-0"
140
12.0
141
12.0
290
     0
  0
ACDBSECTIONVIEWSTYLE
  5
601
102
{ACAD_XDICTIONARY
360
692
102
}
102
{ACAD_REACTORS
330
600
102
}
330
600
100
AcDbModelDocViewStyle
 70
     0
  3
Imperial24
290
     0
100
AcDbSectionViewStyle
 70
     0
 71
     0
 90
      102
 71
     1
340
58C
 62
   256
 40
5.0
340
0
340
0
 62
   256
 40
5.0
300
I, O, Q, S, X, Z
 40
10.0
 90
        0
 40
2.5
 90
        0
 71
     2
340
590
 90
       25
 62
   256
340
590
 90
       50
 62
   256
 40
5.0
 40
2.5
 40
5.0
 71
     3
340
58C
 62
   256
 40
5.0
 90
        0
 40
15.0
 90
        1
300
%<\AcVar ViewSectionStartId>%-%<\AcVar ViewSectionEndId>% (%<\AcVar ViewScale \f "%sn">%)
 71
     4
 62
   256
 62
   257
300
ANSI31
 40
1.0
 90
        0
290
     0
290
     0
 90
        6
 40
0.0
 40
1.57079633
 40
0.26179939
 40
1.30899694
 40
-0.26179939
 40
1.83259571
  0
TABLESTYLE
  5
5EB
102
{ACAD_XDICTIONARY
360
60B
102
}
102
{ACAD_REACTORS
330
5EA
102
}
330
5EA
100
AcDbTableStyle
  3
Standard
 70
     0
 71
     0
 40
0.06
 41
0.06
280
     0
281
     0
  7
STANDARD
140
0.18
170
     2
 62
     0
 63
     7
283
     0
274
    -2
284
     1
 64
     0
275
    -2
285
     1
 65
     0
276
    -2
286
     1
 66
     0
277
    -2
287
     1
 67
     0
278
    -2
288
     1
 68
     0
279
    -2
289
     1
 69
     0
  7
STANDARD
140
0.25
170
     5
 62
     0
 63
     7
283
     0
274
    -2
284
     1
 64
     0
275
    -2
285
     1
 65
     0
276
    -2
286
     1
 66
     0
277
    -2
287
     1
 67
     0
278
    -2
288
     1
 68
     0
279
    -2
289
     1
 69
     0
  7
STANDARD
140
0.18
170
     5
 62
     0
 63
     7
283
     0
274
    -2
284
     1
 64
     0
275
    -2
285
     1
 65
     0
276
    -2
286
     1
 66
     0
277
    -2
287
     1
 67
     0
278
    -2
288
     1
 68
     0
279
    -2
289
     1
 69
     0
  0
VISUALSTYLE
  5
5D6
102
{ACAD_XDICTIONARY
360
669
102
}
102
{ACAD_REACTORS
330
5D0
102
}
330
5D0
100
AcDbVisualStyle
  2
2dWireframe
 70
     4
 71
     0
 72
     2
 73
     0
 90
        0
 40
-0.6
 41
-30.0
 62
     5
 63
     7
421
 16777215
 74
     1
 91
        4
 64
     7
 65
   257
 75
     1
175
     1
 42
1.0
 92
        0
 66
   257
 43
1.0
 76
     1
 77
     6
 78
     2
 67
     7
 79
     5
170
     0
171
     0
290
     0
174
     0
 93
        1
 44
0.0
173
     0
291
     0
 45
0.0
1001
ACAD
1000
AcDbSavedByObjectVersion
1070
     0
  0
VISUALSTYLE
  5
5D5
102
{ACAD_XDICTIONARY
360
667
102
}
102
{ACAD_REACTORS
330
5D0
102
}
330
5D0
100
AcDbVisualStyle
  2
Basic
 70
     7
 71
     1
 72
     0
 73
     1
 90
        0
 40
-0.6
 41
-30.0
 62
     5
 63
     7
421
 16777215
 74
     0
 91
        4
 64
     7
 65
   257
 75
     1
175
     1
 42
1.0
 92
        8
 66
     7
 43
1.0
 76
     1
 77
     6
 78
     2
 67
     7
 79
     5
170
     0
171
     0
290
     0
174
     0
 93
        1
 44
0.0
173
     0
291
     1
 45
0.0
1001
ACAD
1000
AcDbSavedByObjectVersion
1070
     0
  0
VISUALSTYLE
  5
5DC
102
{ACAD_XDICTIONARY
360
675
102
}
102
{ACAD_REACTORS
330
5D0
102
}
330
5D0
100
AcDbVisualStyle
  2
Brighten
 70
    12
 71
     2
 72
     2
 73
     0
 90
        0
 40
-0.6
 41
-30.0
 62
     5
 63
     7
421
 16777215
 74
     1
 91
        4
 64
     7
 65
   257
 75
     1
175
     1
 42
1.0
 92
        8
 66
     7
 43
1.0
 76
     1
 77
     6
 78
     2
 67
     7
 79
     5
170
     0
171
     0
290
     0
174
     0
 93
        1
 44
50.0
173
     0
291
     1
 45
0.0
1001
ACAD
1000
AcDbSavedByObjectVersion
1070
     0
  0
VISUALSTYLE
  5
5E0
102
{ACAD_XDICTIONARY
360
67D
102
}
102
{ACAD_REACTORS
330
5D0
102
}
330
5D0
100
AcDbVisualStyle
  2
ColorChange
 70
    16
 71
     2
 72
     2
 73
     3
 90
        0
 40
-0.6
 41
-30.0
 62
     5
 63
     8
421
  8421504
 74
     1
 91
        4
 64
     7
 65
   257
 75
     1
175
     1
 42
1.0
 92
        8
 66
     8
424
  8421504
 43
1.0
 76
     1
 77
     6
 78
     2
 67
     7
 79
     5
170
     0
171
     0
290
     0
174
     0
 93
        1
 44
0.0
173
     0
291
     1
 45
0.0
1001
ACAD
1000
AcDbSavedByObjectVersion
1070
     0
  0
VISUALSTYLE
  5
5D9
102
{ACAD_XDICTIONARY
360
66F
102
}
102
{ACAD_REACTORS
330
5D0
102
}
330
5D0
100
AcDbVisualStyle
  2
Conceptual
 70
     9
 71
     3
 72
     2
 73
     0
 90
        0
 40
-0.6
 41
-30.0
 62
     5
 63
     7
421
 16777215
 74
     2
 91
        2
 64
     7
 65
   257
 75
     1
175
     1
 42
179.0
 92
        8
 66
     7
 43
1.0
 76
     1
 77
     6
 78
     2
 67
     7
 79
     3
170
     0
171
     0
290
     0
174
     0
 93
        1
 44
0.0
173
     0
291
     0
 45
0.0
1001
ACAD
1000
AcDbSavedByObjectVersion
1070
     0
  0
VISUALSTYLE
  5
5DB
102
{ACAD_XDICTIONARY
360
673
102
}
102
{ACAD_REACTORS
330
5D0
102
}
330
5D0
100
AcDbVisualStyle
  2
Dim
 70
    11
 71
     2
 72
     2
 73
     0
 90
        0
 40
-0.6
 41
-30.0
 62
     5
 63
     7
421
 16777215
 74
     1
 91
        4
 64
     7
 65
   257
 75
     1
175
     1
 42
1.0
 92
        8
 66
     7
 43
1.0
 76
     1
 77
     6
 78
     2
 67
     7
 79
     5
170
     0
171
     0
290
     0
174
     0
 93
        1
 44
-50.0
173
     0
291
     1
 45
0.0
1001
ACAD
1000
AcDbSavedByObjectVersion
1070
     0
  0
VISUALSTYLE
  5
5E8
102
{ACAD_XDICTIONARY
360
68D
102
}
102
{ACAD_REACTORS
330
5D0
102
}
330
5D0
100
AcDbVisualStyle
  2
EdgeColorOff
 70
    22
 71
     2
 72
     2
 73
     0
 90
        0
 40
-0.6
 41
-30.0
 62
     5
 63
     7
421
 16777215
 74
     1
 91
        4
 64
     7
 65
   257
 75
     1
175
     1
 42
1.0
 92
        8
 66
     7
 43
1.0
 76
     1
 77
     6
 78
     2
 67
     7
 79
     5
170
     0
171
     0
290
     0
174
     0
 93
        1
 44
0.0
173
     0
291
     1
 45
0.0
1001
ACAD
1000
AcDbSavedByObjectVersion
1070
     0
  0
VISUALSTYLE
  5
5DF
102
{ACAD_XDICTIONARY
360
67B
102
}
102
{ACAD_REACTORS
330
5D0
102
}
330
5D0
100
AcDbVisualStyle
  2
Facepattern
 70
    15
 71
     2
 72
     2
 73
     0
 90
        0
 40
-0.6
 41
-30.0
 62
     5
 63
     7
421
 16777215
 74
     1
 91
        4
 64
     7
 65
   257
 75
     1
175
     1
 42
1.0
 92
        8
 66
     7
 43
1.0
 76
     1
 77
     6
 78
     2
 67
     7
 79
     5
170
     0
171
     0
290
     0
174
     0
 93
        1
 44
0.0
173
     0
291
     1
 45
0.0
1001
ACAD
1000
AcDbSavedByObjectVersion
1070
     0
  0
VISUALSTYLE
  5
5D1
102
{ACAD_XDICTIONARY
360
65F
102
}
102
{ACAD_REACTORS
330
5D0
102
}
330
5D0
100
AcDbVisualStyle
  2
Flat
 70
     0
 71
     2
 72
     1
 73
     1
 90
        2
 40
-0.6
 41
30.0
 62
     5
 63
     7
421
 16777215
 74
     0
 91
        0
 64
     7
 65
   257
 75
     1
175
     1
 42
1.0
 92
        8
 66
     7
 43
1.0
 76
     1
 77
     6
 78
     2
 67
     7
 79
     5
170
     0
171
     0
290
     0
174
     0
 93
       13
 44
0.0
173
     0
291
     1
 45
0.0
1001
ACAD
1000
AcDbSavedByObjectVersion
1070
     0
  0
VISUALSTYLE
  5
5D2
102
{ACAD_XDICTIONARY
360
661
102
}
102
{ACAD_REACTORS
330
5D0
102
}
330
5D0
100
AcDbVisualStyle
  2
FlatWithEdges
 70
     1
 71
     2
 72
     1
 73
     1
 90
        2
 40
-0.6
 41
30.0
 62
     5
 63
     7
421
 16777215
 74
     1
 91
        0
 64
     7
 65
   257
 75
     1
175
     1
 42
1.0
 92
        0
 66
   257
 43
1.0
 76
     1
 77
     6
 78
     2
 67
     7
 79
     5
170
     0
171
     0
290
     0
174
     0
 93
       13
 44
0.0
173
     0
291
     1
 45
0.0
1001
ACAD
1000
AcDbSavedByObjectVersion
1070
     0
  0
VISUALSTYLE
  5
5D3
102
{ACAD_XDICTIONARY
360
663
102
}
102
{ACAD_REACTORS
330
5D0
102
}
330
5D0
100
AcDbVisualStyle
  2
Gouraud
 70
     2
 71
     2
 72
     2
 73
     1
 90
        2
 40
-0.6
 41
30.0
 62
     5
 63
     7
421
 16777215
 74
     0
 91
        0
 64
     7
 65
   257
 75
     1
175
     1
 42
1.0
 92
        0
 66
     7
 43
1.0
 76
     1
 77
     6
 78
     2
 67
     7
 79
     5
170
     0
171
     0
290
     0
174
     0
 93
       13
 44
0.0
173
     0
291
     1
 45
0.0
1001
ACAD
1000
AcDbSavedByObjectVersion
1070
     0
  0
VISUALSTYLE
  5
5D4
102
{ACAD_XDICTIONARY
360
665
102
}
102
{ACAD_REACTORS
330
5D0
102
}
330
5D0
100
AcDbVisualStyle
  2
GouraudWithEdges
 70
     3
 71
     2
 72
     2
 73
     1
 90
        2
 40
-0.6
 41
30.0
 62
     5
 63
     7
421
 16777215
 74
     1
 91
        0
 64
     7
 65
   257
 75
     1
175
     1
 42
1.0
 92
        0
 66
   257
 43
1.0
 76
     1
 77
     6
 78
     2
 67
     7
 79
     5
170
     0
171
     0
290
     0
174
     0
 93
       13
 44
0.0
173
     0
291
     1
 45
0.0
1001
ACAD
1000
AcDbSavedByObjectVersion
1070
     0
  0
VISUALSTYLE
  5
5D8
102
{ACAD_XDICTIONARY
360
66D
102
}
102
{ACAD_REACTORS
330
5D0
102
}
330
5D0
100
AcDbVisualStyle
  2
Hidden
 70
     6
 71
     1
 72
     2
 73
     2
 90
        0
 40
-0.6
 41
-30.0
 62
     5
 63
     7
421
 16777215
 74
     2
 91
        2
 64
     7
 65
   257
 75
     2
175
     1
 42
40.0
 92
        0
 66
   257
 43
1.0
 76
     1
 77
     6
 78
     2
 67
     7
 79
     3
170
     0
171
     0
290
     0
174
     0
 93
        1
 44
0.0
173
     0
291
     0
 45
0.0
1001
ACAD
1000
AcDbSavedByObjectVersion
1070
     0
  0
VISUALSTYLE
  5
5E6
102
{ACAD_XDICTIONARY
360
689
102
}
102
{ACAD_REACTORS
330
5D0
102
}
330
5D0
100
AcDbVisualStyle
  2
JitterOff
 70
    20
 71
     2
 72
     2
 73
     0
 90
        0
 40
-0.6
 41
-30.0
 62
     5
 63
     7
421
 16777215
 74
     1
 91
        4
 64
     7
 65
   257
 75
     1
175
     1
 42
1.0
 92
       10
 66
     7
 43
1.0
 76
     1
 77
     6
 78
     2
 67
     7
 79
     5
170
     0
171
     0
290
     0
174
     0
 93
        1
 44
0.0
173
     0
291
     1
 45
0.0
1001
ACAD
1000
AcDbSavedByObjectVersion
1070
     0
  0
VISUALSTYLE
  5
5DE
102
{ACAD_XDICTIONARY
360
679
102
}
102
{ACAD_REACTORS
330
5D0
102
}
330
5D0
100
AcDbVisualStyle
  2
Linepattern
 70
    14
 71
     2
 72
     2
 73
     0
 90
        0
 40
-0.6
 41
-30.0
 62
     5
 63
     7
421
 16777215
 74
     1
 91
        4
 64
     7
 65
   257
 75
     7
175
     7
 42
1.0
 92
        8
 66
     7
 43
1.0
 76
     1
 77
     6
 78
     2
 67
     7
 79
     5
170
     0
171
     0
290
     0
174
     0
 93
        1
 44
0.0
173
     0
291
     1
 45
0.0
1001
ACAD
1000
AcDbSavedByObjectVersion
1070
     0
  0
VISUALSTYLE
  5
5E7
102
{ACAD_XDICTIONARY
360
68B
102
}
102
{ACAD_REACTORS
330
5D0
102
}
330
5D0
100
AcDbVisualStyle
  2
OverhangOff
 70
    21
 71
     2
 72
     2
 73
     0
 90
        0
 40
-0.6
 41
-30.0
 62
     5
 63
     7
421
 16777215
 74
     1
 91
        4
 64
     7
 65
   257
 75
     1
175
     1
 42
1.0
 92
        9
 66
     7
 43
1.0
 76
     1
 77
     6
 78
     2
 67
     7
 79
     5
170
     0
171
     0
290
     0
174
     0
 93
        1
 44
0.0
173
     0
291
     1
 45
0.0
1001
ACAD
1000
AcDbSavedByObjectVersion
1070
     0
  0
VISUALSTYLE
  5
5DA
102
{ACAD_XDICTIONARY
360
671
102
}
102
{ACAD_REACTORS
330
5D0
102
}
330
5D0
100
AcDbVisualStyle
  2
Realistic
 70
     8
 71
     2
 72
     2
 73
     0
 90
        2
 40
-0.6
 41
30.0
 62
     5
 63
     7
421
 16777215
 74
     0
 91
        0
 64
     7
 65
   257
 75
     1
175
     1
 42
1.0
 92
        8
 66
   257
 43
1.0
 76
     1
 77
     6
 78
     2
 67
     7
 79
     3
170
     0
171
     0
290
     0
174
     0
 93
       13
 44
0.0
173
     0
291
     0
 45
0.0
1001
ACAD
1000
AcDbSavedByObjectVersion
1070
     0
  0
VISUALSTYLE
  5
5E5
102
{ACAD_XDICTIONARY
360
687
102
}
102
{ACAD_REACTORS
330
5D0
102
}
330
5D0
100
AcDbVisualStyle
  2
Shaded
 70
    27
 71
     2
 72
     2
 73
     1
 90
        2
 40
-0.6
 41
30.0
 62
     5
 63
     7
421
 16777215
 74
     0
 91
        4
 64
     7
 65
   257
 75
     1
175
     1
 42
1.0
 92
        8
 66
   257
 43
1.0
 76
     1
 77
     6
 78
     2
 67
     8
425
  7895160
 79
     3
170
     0
171
     0
290
     0
174
     0
 93
        5
 44
0.0
173
     0
291
     0
 45
0.0
1001
ACAD
1000
AcDbSavedByObjectVersion
1070
     0
  0
VISUALSTYLE
  5
5E4
102
{ACAD_XDICTIONARY
360
685
102
}
102
{ACAD_REACTORS
330
5D0
102
}
330
5D0
100
AcDbVisualStyle
  2
Shaded with edges
 70
    26
 71
     2
 72
     2
 73
     1
 90
        2
 40
-0.6
 41
30.0
 62
     5
 63
     7
421
 16777215
 74
     1
 91
       10
 64
     7
 65
   257
 75
     2
175
     1
 42
1.0
 92
        8
 66
   257
 43
1.0
 76
     1
 77
     6
 78
     2
 67
     7
 79
     3
170
     0
171
     0
290
     0
174
     0
 93
        5
 44
0.0
173
     0
291
     0
 45
0.0
1001
ACAD
1000
AcDbSavedByObjectVersion
1070
     0
  0
VISUALSTYLE
  5
5E1
102
{ACAD_XDICTIONARY
360
67F
102
}
102
{ACAD_REACTORS
330
5D0
102
}
330
5D0
100
AcDbVisualStyle
  2
Shades of Gray
 70
    23
 71
     2
 72
     2
 73
     3
 90
        0
 40
-0.6
 41
-30.0
 62
     5
 63
     7
421
 16777215
 74
     2
 91
        2
 64
     7
 65
     7
 75
     1
175
     1
 42
40.0
 92
        8
 66
     7
 43
1.0
 76
     1
 77
     6
 78
     2
 67
     7
 79
     3
170
     0
171
     0
290
     0
174
     0
 93
        1
 44
0.0
173
     0
291
     0
 45
0.0
1001
ACAD
1000
AcDbSavedByObjectVersion
1070
     0
  0
VISUALSTYLE
  5
5E2
102
{ACAD_XDICTIONARY
360
681
102
}
102
{ACAD_REACTORS
330
5D0
102
}
330
5D0
100
AcDbVisualStyle
  2
Sketchy
 70
    24
 71
     1
 72
     2
 73
     2
 90
        0
 40
-0.6
 41
-30.0
 62
     5
 63
     7
421
 16777215
 74
     2
 91
        2
 64
     7
 65
     7
 75
     1
175
     1
 42
40.0
 92
       11
 66
     7
 43
1.0
 76
     1
 77
     6
 78
     2
 67
     7
 79
     6
170
     0
171
     0
290
     0
174
     0
 93
        1
 44
0.0
173
     0
291
     0
 45
0.0
1001
ACAD
1000
AcDbSavedByObjectVersion
1070
     0
  0
VISUALSTYLE
  5
5DD
102
{ACAD_XDICTIONARY
360
677
102
}
102
{ACAD_REACTORS
330
5D0
102
}
330
5D0
100
AcDbVisualStyle
  2
Thicken
 70
    13
 71
     2
 72
     2
 73
     0
 90
        0
 40
-0.6
 41
-30.0
 62
     5
 63
     7
421
 16777215
 74
     1
 91
        4
 64
     7
 65
   257
 75
     1
175
     1
 42
1.0
 92
       12
 66
     7
 43
1.0
 76
     1
 77
     6
 78
     2
 67
     7
 79
     5
170
     0
171
     0
290
     0
174
     0
 93
        1
 44
0.0
173
     0
291
     1
 45
0.0
1001
ACAD
1000
AcDbSavedByObjectVersion
1070
     0
  0
VISUALSTYLE
  5
5D7
102
{ACAD_XDICTIONARY
360
66B
102
}
102
{ACAD_REACTORS
330
5D0
102
}
330
5D0
100
AcDbVisualStyle
  2
Wireframe
 70
     5
 71
     0
 72
     2
 73
     0
 90
        0
 40
-0.6
 41
-30.0
 62
     5
 63
     7
421
 16777215
 74
     1
 91
        4
 64
     7
 65
   257
 75
     1
175
     1
 42
1.0
 92
        0
 66
   257
 43
1.0
 76
     1
 77
     6
 78
     2
 67
     7
 79
     3
170
     0
171
     0
290
     0
174
     0
 93
        1
 44
0.0
173
     0
291
     0
 45
0.0
1001
ACAD
1000
AcDbSavedByObjectVersion
1070
     0
  0
VISUALSTYLE
  5
5E3
102
{ACAD_XDICTIONARY
360
683
102
}
102
{ACAD_REACTORS
330
5D0
102
}
330
5D0
100
AcDbVisualStyle
  2
X-Ray
 70
    25
 71
     2
 72
     2
 73
     1
 90
        1
 40
0.5
 41
-30.0
 62
     5
 63
     7
421
 16777215
 74
     1
 91
        0
 64
     7
 65
   257
 75
     1
175
     1
 42
1.0
 92
        8
 66
     7
 43
1.0
 76
     1
 77
     6
 78
     2
 67
     7
 79
     3
170
     0
171
     0
290
     0
174
     0
 93
       13
 44
0.0
173
     0
291
     0
 45
0.0
1001
ACAD
1000
AcDbSavedByObjectVersion
1070
     0
  0
DICTIONARYVAR
  5
64D
102
{ACAD_REACTORS
330
5AD
102
}
330
5AD
100
DictionaryVariables
280
     0
  1
1:1
  0
DICTIONARYVAR
  5
64A
102
{ACAD_REACTORS
330
5AD
102
}
330
5AD
100
DictionaryVariables
280
     0
  1
STANDARD
  0
DICTIONARYVAR
  5
649
102
{ACAD_REACTORS
330
5AD
102
}
330
5AD
100
DictionaryVariables
280
     0
  1
STANDARD
  0
DICTIONARYVAR
  5
64B
102
{ACAD_REACTORS
330
5AD
102
}
330
5AD
100
DictionaryVariables
280
     0
  1
Imperial24
  0
DICTIONARYVAR
  5
64C
102
{ACAD_REACTORS
330
5AD
102
}
330
5AD
100
DictionaryVariables
280
     0
  1
Imperial24
  0
DICTIONARYVAR
  5
5AE
102
{ACAD_REACTORS
330
5AD
102
}
330
5AD
100
DictionaryVariables
280
     0
  1
0
  0
DICTIONARYVAR
  5
659
102
{ACAD_REACTORS
330
5AD
102
}
330
5AD
100
DictionaryVariables
280
     0
  1
2
  0
DICTIONARY
  5
694
330
603
100
AcDbDictionary
280
     1
281
     1
  3
ACAD_XREC_ROUNDTRIP
360
695
  0
DICTIONARY
  5
5C1
330
5C0
100
AcDbDictionary
280
     1
281
     1
  3
ACAD_XREC_ROUNDTRIP
360
65D
  3
BUMPTILE
360
5C3
  3
DIFFUSETILE
360
5C2
  3
OPACITYTILE
360
5C6
  3
REFLECTIONTILE
360
5C5
  3
REFRACTIONTILE
360
5C7
  3
SPECULARTILE
360
5C4
  0
DICTIONARY
  5
5B9
330
5B8
100
AcDbDictionary
280
     1
281
     1
  3
ACAD_XREC_ROUNDTRIP
360
65C
  3
BUMPTILE
360
5BB
  3
DIFFUSETILE
360
5BA
  3
OPACITYTILE
360
5BE
  3
REFLECTIONTILE
360
5BD
  3
REFRACTIONTILE
360
5BF
  3
SPECULARTILE
360
5BC
  0
DICTIONARY
  5
5C9
330
5C8
100
AcDbDictionary
280
     1
281
     1
  3
ACAD_XREC_ROUNDTRIP
360
65E
  3
BUMPTILE
360
5CB
  3
DIFFUSETILE
360
5CA
  3
OPACITYTILE
360
5CE
  3
REFLECTIONTILE
360
5CD
  3
REFRACTIONTILE
360
5CF
  3
SPECULARTILE
360
5CC
  0
DICTIONARY
  5
690
330
5FF
100
AcDbDictionary
280
     1
281
     1
  3
ACAD_XREC_ROUNDTRIP
360
691
  0
DICTIONARY
  5
692
330
601
100
AcDbDictionary
280
     1
281
     1
  3
ACAD_XREC_ROUNDTRIP
360
693
  0
DICTIONARY
  5
60B
330
5EB
100
AcDbDictionary
280
     1
281
     1
  3
ACAD_ROUNDTRIP_2008_TABLESTYLE_CELLSTYLEMAP
360
65A
  3
ACAD_XREC_ROUNDTRIP
360
68F
  0
DICTIONARY
  5
669
330
5D6
100
AcDbDictionary
280
     1
281
     1
  3
ACAD_XREC_ROUNDTRIP
360
66A
  0
DICTIONARY
  5
667
330
5D5
100
AcDbDictionary
280
     1
281
     1
  3
ACAD_XREC_ROUNDTRIP
360
668
  0
DICTIONARY
  5
675
330
5DC
100
AcDbDictionary
280
     1
281
     1
  3
ACAD_XREC_ROUNDTRIP
360
676
  0
DICTIONARY
  5
67D
330
5E0
100
AcDbDictionary
280
     1
281
     1
  3
ACAD_XREC_ROUNDTRIP
360
67E
  0
DICTIONARY
  5
66F
330
5D9
100
AcDbDictionary
280
     1
281
     1
  3
ACAD_XREC_ROUNDTRIP
360
670
  0
DICTIONARY
  5
673
330
5DB
100
AcDbDictionary
280
     1
281
     1
  3
ACAD_XREC_ROUNDTRIP
360
674
  0
DICTIONARY
  5
68D
330
5E8
100
AcDbDictionary
280
     1
281
     1
  3
ACAD_XREC_ROUNDTRIP
360
68E
  0
DICTIONARY
  5
67B
330
5DF
100
AcDbDictionary
280
     1
281
     1
  3
ACAD_XREC_ROUNDTRIP
360
67C
  0
DICTIONARY
  5
65F
330
5D1
100
AcDbDictionary
280
     1
281
     1
  3
ACAD_XREC_ROUNDTRIP
360
660
  0
DICTIONARY
  5
661
330
5D2
100
AcDbDictionary
280
     1
281
     1
  3
ACAD_XREC_ROUNDTRIP
360
662
  0
DICTIONARY
  5
663
330
5D3
100
AcDbDictionary
280
     1
281
     1
  3
ACAD_XREC_ROUNDTRIP
360
664
  0
DICTIONARY
  5
665
330
5D4
100
AcDbDictionary
280
     1
281
     1
  3
ACAD_XREC_ROUNDTRIP
360
666
  0
DICTIONARY
  5
66D
330
5D8
100
AcDbDictionary
280
     1
281
     1
  3
ACAD_XREC_ROUNDTRIP
360
66E
  0
DICTIONARY
  5
689
330
5E6
100
AcDbDictionary
280
     1
281
     1
  3
ACAD_XREC_ROUNDTRIP
360
68A
  0
DICTIONARY
  5
679
330
5DE
100
AcDbDictionary
280
     1
281
     1
  3
ACAD_XREC_ROUNDTRIP
360
67A
  0
DICTIONARY
  5
68B
330
5E7
100
AcDbDictionary
280
     1
281
     1
  3
ACAD_XREC_ROUNDTRIP
360
68C
  0
DICTIONARY
  5
671
330
5DA
100
AcDbDictionary
280
     1
281
     1
  3
ACAD_XREC_ROUNDTRIP
360
672
  0
DICTIONARY
  5
687
330
5E5
100
AcDbDictionary
280
     1
281
     1
  3
ACAD_XREC_ROUNDTRIP
360
688
  0
DICTIONARY
  5
685
330
5E4
100
AcDbDictionary
280
     1
281
     1
  3
ACAD_XREC_ROUNDTRIP
360
686
  0
DICTIONARY
  5
67F
330
5E1
100
AcDbDictionary
280
     1
281
     1
  3
ACAD_XREC_ROUNDTRIP
360
680
  0
DICTIONARY
  5
681
330
5E2
100
AcDbDictionary
280
     1
281
     1
  3
ACAD_XREC_ROUNDTRIP
360
682
  0
DICTIONARY
  5
677
330
5DD
100
AcDbDictionary
280
     1
281
     1
  3
ACAD_XREC_ROUNDTRIP
360
678
  0
DICTIONARY
  5
66B
330
5D7
100
AcDbDictionary
280
     1
281
     1
  3
ACAD_XREC_ROUNDTRIP
360
66C
  0
DICTIONARY
  5
683
330
5E3
100
AcDbDictionary
280
     1
281
     1
  3
ACAD_XREC_ROUNDTRIP
360
684
  0
XRECORD
  5
695
102
{ACAD_REACTORS
330
694
102
}
330
694
100
AcDbXrecord
280
     1
102
DISPLAYNAME
  1
Imperial24
102
FLAGS
 90
        0
  0
XRECORD
  5
65D
102
{ACAD_REACTORS
330
5C1
102
}
330
5C1
100
AcDbXrecord
280
     1
102
MATERIAL
148
0.0
149
0.0
149
0.0
 93
        0
 94
      127
282
     0
 72
     0
 77
     0
171
     0
175
     0
179
     0
273
     0
  0
XRECORD
  5
5C3
102
{ACAD_REACTORS
330
5C1
102
}
330
5C1
100
AcDbXrecord
280
     1
270
     1
271
     1
  0
XRECORD
  5
5C2
102
{ACAD_REACTORS
330
5C1
102
}
330
5C1
100
AcDbXrecord
280
     1
270
     1
271
     1
  0
XRECORD
  5
5C6
102
{ACAD_REACTORS
330
5C1
102
}
330
5C1
100
AcDbXrecord
280
     1
270
     1
271
     1
  0
XRECORD
  5
5C5
102
{ACAD_REACTORS
330
5C1
102
}
330
5C1
100
AcDbXrecord
280
     1
270
     1
271
     1
  0
XRECORD
  5
5C7
102
{ACAD_REACTORS
330
5C1
102
}
330
5C1
100
AcDbXrecord
280
     1
270
     1
271
     1
  0
XRECORD
  5
5C4
102
{ACAD_REACTORS
330
5C1
102
}
330
5C1
100
AcDbXrecord
280
     1
270
     1
271
     1
  0
XRECORD
  5
65C
102
{ACAD_REACTORS
330
5B9
102
}
330
5B9
100
AcDbXrecord
280
     1
102
MATERIAL
148
0.0
149
0.0
149
0.0
 93
        0
 94
      127
282
     0
 72
     0
 77
     0
171
     0
175
     0
179
     0
273
     0
  0
XRECORD
  5
5BB
102
{ACAD_REACTORS
330
5B9
102
}
330
5B9
100
AcDbXrecord
280
     1
270
     1
271
     1
  0
XRECORD
  5
5BA
102
{ACAD_REACTORS
330
5B9
102
}
330
5B9
100
AcDbXrecord
280
     1
270
     1
271
     1
  0
XRECORD
  5
5BE
102
{ACAD_REACTORS
330
5B9
102
}
330
5B9
100
AcDbXrecord
280
     1
270
     1
271
     1
  0
XRECORD
  5
5BD
102
{ACAD_REACTORS
330
5B9
102
}
330
5B9
100
AcDbXrecord
280
     1
270
     1
271
     1
  0
XRECORD
  5
5BF
102
{ACAD_REACTORS
330
5B9
102
}
330
5B9
100
AcDbXrecord
280
     1
270
     1
271
     1
  0
XRECORD
  5
5BC
102
{ACAD_REACTORS
330
5B9
102
}
330
5B9
100
AcDbXrecord
280
     1
270
     1
271
     1
  0
XRECORD
  5
65E
102
{ACAD_REACTORS
330
5C9
102
}
330
5C9
100
AcDbXrecord
280
     1
102
MATERIAL
148
0.0
149
0.0
149
0.0
 93
        0
 94
      127
282
     0
 72
     0
 77
     0
171
     0
175
     0
179
     0
273
     0
  0
XRECORD
  5
5CB
102
{ACAD_REACTORS
330
5C9
102
}
330
5C9
100
AcDbXrecord
280
     1
270
     1
271
     1
  0
XRECORD
  5
5CA
102
{ACAD_REACTORS
330
5C9
102
}
330
5C9
100
AcDbXrecord
280
     1
270
     1
271
     1
  0
XRECORD
  5
5CE
102
{ACAD_REACTORS
330
5C9
102
}
330
5C9
100
AcDbXrecord
280
     1
270
     1
271
     1
  0
XRECORD
  5
5CD
102
{ACAD_REACTORS
330
5C9
102
}
330
5C9
100
AcDbXrecord
280
     1
270
     1
271
     1
  0
XRECORD
  5
5CF
102
{ACAD_REACTORS
330
5C9
102
}
330
5C9
100
AcDbXrecord
280
     1
270
     1
271
     1
  0
XRECORD
  5
5CC
102
{ACAD_REACTORS
330
5C9
102
}
330
5C9
100
AcDbXrecord
280
     1
270
     1
271
     1
  0
XRECORD
  5
691
102
{ACAD_REACTORS
330
690
102
}
330
690
100
AcDbXrecord
280
     1
102
ACAD_ROUNDTRIP_2012_MLEADER_STYLE
298
     1
  0
XRECORD
  5
693
102
{ACAD_REACTORS
330
692
102
}
330
692
100
AcDbXrecord
280
     1
102
DISPLAYNAME
  1
Imperial24
102
FLAGS
 90
        0
  0
CELLSTYLEMAP
  5
65A
102
{ACAD_REACTORS
330
60B
102
}
330
60B
100
AcDbCellStyleMap
 90
        3
300
CELLSTYLE
  1
TABLEFORMAT_BEGIN
 90
        5
170
     1
 91
        0
 92
    32768
 62
   257
 93
        1
300
CONTENTFORMAT
  1
CONTENTFORMAT_BEGIN
 90
        0
 91
        0
 92
      512
 93
        0
300

 40
0.0
140
1.0
 94
        5
 62
     0
340
58C
144
0.25
309
CONTENTFORMAT_END
171
     0
 94
        0
309
TABLEFORMAT_END
  1
CELLSTYLE_BEGIN
 90
        1
 91
        1
300
_TITLE
309
CELLSTYLE_END
300
CELLSTYLE
  1
TABLEFORMAT_BEGIN
 90
        5
170
     1
 91
        0
 92
        0
 62
   257
 93
        1
300
CONTENTFORMAT
  1
CONTENTFORMAT_BEGIN
 90
        0
 91
        0
 92
      512
 93
        0
300

 40
0.0
140
1.0
 94
        5
 62
     0
340
58C
144
0.18
309
CONTENTFORMAT_END
171
     0
 94
        0
309
TABLEFORMAT_END
  1
CELLSTYLE_BEGIN
 90
        2
 91
        1
300
_HEADER
309
CELLSTYLE_END
300
CELLSTYLE
  1
TABLEFORMAT_BEGIN
 90
        5
170
     1
 91
        0
 92
        0
 62
   257
 93
        1
300
CONTENTFORMAT
  1
CONTENTFORMAT_BEGIN
 90
        0
 91
        0
 92
      512
 93
        0
300

 40
0.0
140
1.0
 94
        2
 62
     0
340
58C
144
0.18
309
CONTENTFORMAT_END
171
     0
 94
        0
309
TABLEFORMAT_END
  1
CELLSTYLE_BEGIN
 90
        3
 91
        2
300
_DATA
309
CELLSTYLE_END
  0
XRECORD
  5
68F
102
{ACAD_REACTORS
330
60B
102
}
330
60B
100
AcDbXrecord
280
     1
102
ACAD_ROUNDTRIP_PRE2007_TABLESTYLE
 90
      512
 91
        0
  1

 92
      512
 93
        0
  2

 94
      512
 95
        0
  3

  0
XRECORD
  5
66A
102
{ACAD_REACTORS
330
669
102
}
330
669
100
AcDbXrecord
280
     1
102
RTVSPost2010Prop28
280
     1
102
RTVSPost2010PropOp28
 70
     1
102
RTVSPost2010Prop29
280
     1
102
RTVSPost2010PropOp29
 70
     1
102
RTVSPost2010Prop30
280
     0
102
RTVSPost2010PropOp30
 70
     1
102
RTVSPost2010Prop31
280
     0
102
RTVSPost2010PropOp31
 70
     1
102
RTVSPost2010Prop32
280
     0
102
RTVSPost2010PropOp32
 70
     1
102
RTVSPost2010Prop33
280
     0
102
RTVSPost2010PropOp33
 70
     1
102
RTVSPost2010Prop34
280
     0
102
RTVSPost2010PropOp34
 70
     1
102
RTVSPost2010Prop35
280
     0
102
RTVSPost2010PropOp35
 70
     1
102
RTVSPost2010Prop36
280
     0
102
RTVSPost2010PropOp36
 70
     1
102
RTVSPost2010Prop37
 90
       50
102
RTVSPost2010PropOp37
 70
     1
102
RTVSPost2010Prop38
140
0.0
102
RTVSPost2010PropOp38
 70
     1
102
RTVSPost2010Prop39
140
1.0
102
RTVSPost2010PropOp39
 70
     1
102
RTVSPost2010Prop40
 90
        0
102
RTVSPost2010PropOp40
 70
     1
102
RTVSPost2010Prop41ColorIndex
 90
       18
102
RTVSPost2010Prop41ColorRGB
 90
        0
102
RTVSPost2010PropOp41
 70
     1
102
RTVSPost2010Prop42
 90
       50
102
RTVSPost2010PropOp42
 70
     1
102
RTVSPost2010Prop43
 90
        3
102
RTVSPost2010PropOp43
 70
     1
102
RTVSPost2010Prop44ColorIndex
 90
        5
102
RTVSPost2010Prop44ColorRGB
 90
      255
102
RTVSPost2010PropOp44
 70
     1
102
RTVSPost2010Prop45
280
     0
102
RTVSPost2010PropOp45
 70
     1
102
RTVSPost2010Prop46
 90
       50
102
RTVSPost2010PropOp46
 70
     1
102
RTVSPost2010Prop47
 90
       50
102
RTVSPost2010PropOp47
 70
     1
102
RTVSPost2010Prop48
 90
       50
102
RTVSPost2010PropOp48
 70
     1
102
RTVSPost2010Prop49
280
     0
102
RTVSPost2010PropOp49
 70
     1
102
RTVSPost2010Prop50
 90
       50
102
RTVSPost2010PropOp50
 70
     1
102
RTVSPost2010Prop51ColorIndex
 90
      256
102
RTVSPost2010Prop51ColorRGB
 90
-16777216
102
RTVSPost2010PropOp51
 70
     0
102
RTVSPost2010Prop52
140
1.0
102
RTVSPost2010PropOp52
 70
     0
102
RTVSPost2010Prop53
 90
        2
102
RTVSPost2010PropOp53
 70
     1
102
RTVSPost2010Prop54
  1
strokes_ogs.tif
102
RTVSPost2010PropOp54
 70
     1
102
RTVSPost2010Prop55
280
     0
102
RTVSPost2010PropOp55
 70
     1
102
RTVSPost2010Prop56
140
1.0
102
RTVSPost2010PropOp56
 70
     1
102
RTVSPost2010Prop57
140
1.0
102
RTVSPost2010PropOp57
 70
     1
102
RTVSPropertyOp0
 70
     1
102
RTVSPropertyOp1
 70
     1
102
RTVSPropertyOp2
 70
     1
102
RTVSPropertyOp3
 70
     1
102
RTVSPropertyOp4
 70
     1
102
RTVSPropertyOp5
 70
     1
102
RTVSPropertyOp6
 70
     1
102
RTVSPropertyOp7
 70
     1
102
RTVSPropertyOp8
 70
     1
102
RTVSPropertyOp9
 70
     1
102
RTVSPropertyOp10
 70
     1
102
RTVSPropertyOp11
 70
     1
102
RTVSPropertyOp12
 70
     1
102
RTVSPropertyOp13
 70
     1
102
RTVSPropertyOp14
 70
     1
102
RTVSPropertyOp15
 70
     1
102
RTVSPropertyOp16
 70
     1
102
RTVSPropertyOp17
 70
     1
102
RTVSPropertyOp18
 70
     1
102
RTVSPropertyOp19
 70
     1
102
RTVSPropertyOp20
 70
     1
102
RTVSPropertyOp21
 70
     1
102
RTVSPropertyOp22
 70
     1
102
RTVSPropertyOp23
 70
     1
102
RTVSPropertyOp24
 70
     1
102
RTVSPropertyOp25
 70
     1
102
RTVSPropertyOp26
 70
     1
102
RTVSPropertyOp27
 70
     1
102
RTVSPropertyOp28
 70
     1
102
RTVSPropertyOp29
 70
     1
102
RTVSPropertyOp30
 70
     1
102
RTVSPropertyOp31
 70
     1
102
RTVSPropertyOp32
 70
     1
102
RTVSPropertyOp33
 70
     1
102
RTVSPropertyOp34
 70
     1
102
RTVSPropertyOp35
 70
     1
102
RTVSPropertyOp36
 70
     1
102
RTVSPropertyOp37
 70
     1
102
RTVSPropertyOp38
 70
     1
102
RTVSPropertyOp39
 70
     1
102
RTVSPropertyOp40
 70
     1
102
RTVSPropertyOp41
 70
     1
102
RTVSPropertyOp42
 70
     1
102
RTVSPropertyOp43
 70
     1
102
RTVSPropertyOp44
 70
     1
102
RTVSPropertyOp45
 70
     1
102
RTVSPropertyOp46
 70
     1
102
RTVSPropertyOp47
 70
     1
102
RTVSPropertyOp48
 70
     1
102
RTVSPropertyOp49
 70
     1
102
RTVSPropertyOp50
 70
     1
102
RTVSPropertyOp51
 70
     0
102
RTVSPropertyOp52
 70
     0
102
RTVSPropertyOp53
 70
     1
102
RTVSPropertyOp54
 70
     1
102
RTVSPropertyOp55
 70
     1
102
RTVSPropertyOp56
 70
     1
102
RTVSPropertyOp57
 70
     1
102
RTVSPropertyOp58
 70
     1
102
RTVSPropertyOp59
 70
     1
102
RTVSPropertyOp60
 70
     1
102
RTVSPropertyOp61
 70
     1
102
RTVSPropertyOp62
 70
     1
  0
XRECORD
  5
668
102
{ACAD_REACTORS
330
667
102
}
330
667
100
AcDbXrecord
280
     1
102
RTVSPost2010Prop28
280
     0
102
RTVSPost2010PropOp28
 70
     1
102
RTVSPost2010Prop29
280
     1
102
RTVSPost2010PropOp29
 70
     1
102
RTVSPost2010Prop30
280
     1
102
RTVSPost2010PropOp30
 70
     1
102
RTVSPost2010Prop31
280
     0
102
RTVSPost2010PropOp31
 70
     1
102
RTVSPost2010Prop32
280
     0
102
RTVSPost2010PropOp32
 70
     1
102
RTVSPost2010Prop33
280
     0
102
RTVSPost2010PropOp33
 70
     1
102
RTVSPost2010Prop34
280
     0
102
RTVSPost2010PropOp34
 70
     1
102
RTVSPost2010Prop35
280
     0
102
RTVSPost2010PropOp35
 70
     1
102
RTVSPost2010Prop36
280
     0
102
RTVSPost2010PropOp36
 70
     1
102
RTVSPost2010Prop37
 90
       50
102
RTVSPost2010PropOp37
 70
     1
102
RTVSPost2010Prop38
140
0.0
102
RTVSPost2010PropOp38
 70
     1
102
RTVSPost2010Prop39
140
1.0
102
RTVSPost2010PropOp39
 70
     1
102
RTVSPost2010Prop40
 90
        0
102
RTVSPost2010PropOp40
 70
     1
102
RTVSPost2010Prop41ColorIndex
 90
       18
102
RTVSPost2010Prop41ColorRGB
 90
        0
102
RTVSPost2010PropOp41
 70
     1
102
RTVSPost2010Prop42
 90
       50
102
RTVSPost2010PropOp42
 70
     1
102
RTVSPost2010Prop43
 90
        3
102
RTVSPost2010PropOp43
 70
     1
102
RTVSPost2010Prop44ColorIndex
 90
        5
102
RTVSPost2010Prop44ColorRGB
 90
      255
102
RTVSPost2010PropOp44
 70
     1
102
RTVSPost2010Prop45
280
     0
102
RTVSPost2010PropOp45
 70
     1
102
RTVSPost2010Prop46
 90
       50
102
RTVSPost2010PropOp46
 70
     1
102
RTVSPost2010Prop47
 90
       50
102
RTVSPost2010PropOp47
 70
     1
102
RTVSPost2010Prop48
 90
       50
102
RTVSPost2010PropOp48
 70
     1
102
RTVSPost2010Prop49
280
     0
102
RTVSPost2010PropOp49
 70
     1
102
RTVSPost2010Prop50
 90
       50
102
RTVSPost2010PropOp50
 70
     1
102
RTVSPost2010Prop51ColorIndex
 90
      256
102
RTVSPost2010Prop51ColorRGB
 90
-16777216
102
RTVSPost2010PropOp51
 70
     0
102
RTVSPost2010Prop52
140
1.0
102
RTVSPost2010PropOp52
 70
     0
102
RTVSPost2010Prop53
 90
        2
102
RTVSPost2010PropOp53
 70
     1
102
RTVSPost2010Prop54
  1
strokes_ogs.tif
102
RTVSPost2010PropOp54
 70
     1
102
RTVSPost2010Prop55
280
     0
102
RTVSPost2010PropOp55
 70
     1
102
RTVSPost2010Prop56
140
1.0
102
RTVSPost2010PropOp56
 70
     1
102
RTVSPost2010Prop57
140
1.0
102
RTVSPost2010PropOp57
 70
     1
102
RTVSPropertyOp0
 70
     1
102
RTVSPropertyOp1
 70
     1
102
RTVSPropertyOp2
 70
     1
102
RTVSPropertyOp3
 70
     1
102
RTVSPropertyOp4
 70
     1
102
RTVSPropertyOp5
 70
     1
102
RTVSPropertyOp6
 70
     1
102
RTVSPropertyOp7
 70
     1
102
RTVSPropertyOp8
 70
     1
102
RTVSPropertyOp9
 70
     1
102
RTVSPropertyOp10
 70
     1
102
RTVSPropertyOp11
 70
     1
102
RTVSPropertyOp12
 70
     1
102
RTVSPropertyOp13
 70
     1
102
RTVSPropertyOp14
 70
     1
102
RTVSPropertyOp15
 70
     1
102
RTVSPropertyOp16
 70
     1
102
RTVSPropertyOp17
 70
     1
102
RTVSPropertyOp18
 70
     1
102
RTVSPropertyOp19
 70
     1
102
RTVSPropertyOp20
 70
     1
102
RTVSPropertyOp21
 70
     1
102
RTVSPropertyOp22
 70
     1
102
RTVSPropertyOp23
 70
     1
102
RTVSPropertyOp24
 70
     1
102
RTVSPropertyOp25
 70
     1
102
RTVSPropertyOp26
 70
     1
102
RTVSPropertyOp27
 70
     1
102
RTVSPropertyOp28
 70
     1
102
RTVSPropertyOp29
 70
     1
102
RTVSPropertyOp30
 70
     1
102
RTVSPropertyOp31
 70
     1
102
RTVSPropertyOp32
 70
     1
102
RTVSPropertyOp33
 70
     1
102
RTVSPropertyOp34
 70
     1
102
RTVSPropertyOp35
 70
     1
102
RTVSPropertyOp36
 70
     1
102
RTVSPropertyOp37
 70
     1
102
RTVSPropertyOp38
 70
     1
102
RTVSPropertyOp39
 70
     1
102
RTVSPropertyOp40
 70
     1
102
RTVSPropertyOp41
 70
     1
102
RTVSPropertyOp42
 70
     1
102
RTVSPropertyOp43
 70
     1
102
RTVSPropertyOp44
 70
     1
102
RTVSPropertyOp45
 70
     1
102
RTVSPropertyOp46
 70
     1
102
RTVSPropertyOp47
 70
     1
102
RTVSPropertyOp48
 70
     1
102
RTVSPropertyOp49
 70
     1
102
RTVSPropertyOp50
 70
     1
102
RTVSPropertyOp51
 70
     0
102
RTVSPropertyOp52
 70
     0
102
RTVSPropertyOp53
 70
     1
102
RTVSPropertyOp54
 70
     1
102
RTVSPropertyOp55
 70
     1
102
RTVSPropertyOp56
 70
     1
102
RTVSPropertyOp57
 70
     1
102
RTVSPropertyOp58
 70
     1
102
RTVSPropertyOp59
 70
     1
102
RTVSPropertyOp60
 70
     1
102
RTVSPropertyOp61
 70
     1
102
RTVSPropertyOp62
 70
     1
  0
XRECORD
  5
676
102
{ACAD_REACTORS
330
675
102
}
330
675
100
AcDbXrecord
280
     1
102
RTVSPost2010Prop28
280
     0
102
RTVSPost2010PropOp28
 70
     1
102
RTVSPost2010Prop29
280
     1
102
RTVSPost2010PropOp29
 70
     1
102
RTVSPost2010Prop30
280
     1
102
RTVSPost2010PropOp30
 70
     1
102
RTVSPost2010Prop31
280
     0
102
RTVSPost2010PropOp31
 70
     1
102
RTVSPost2010Prop32
280
     0
102
RTVSPost2010PropOp32
 70
     1
102
RTVSPost2010Prop33
280
     0
102
RTVSPost2010PropOp33
 70
     1
102
RTVSPost2010Prop34
280
     0
102
RTVSPost2010PropOp34
 70
     1
102
RTVSPost2010Prop35
280
     0
102
RTVSPost2010PropOp35
 70
     1
102
RTVSPost2010Prop36
280
     0
102
RTVSPost2010PropOp36
 70
     1
102
RTVSPost2010Prop37
 90
       50
102
RTVSPost2010PropOp37
 70
     1
102
RTVSPost2010Prop38
140
0.0
102
RTVSPost2010PropOp38
 70
     1
102
RTVSPost2010Prop39
140
1.0
102
RTVSPost2010PropOp39
 70
     1
102
RTVSPost2010Prop40
 90
        0
102
RTVSPost2010PropOp40
 70
     1
102
RTVSPost2010Prop41ColorIndex
 90
       18
102
RTVSPost2010Prop41ColorRGB
 90
        0
102
RTVSPost2010PropOp41
 70
     1
102
RTVSPost2010Prop42
 90
       50
102
RTVSPost2010PropOp42
 70
     1
102
RTVSPost2010Prop43
 90
        3
102
RTVSPost2010PropOp43
 70
     1
102
RTVSPost2010Prop44ColorIndex
 90
        5
102
RTVSPost2010Prop44ColorRGB
 90
      255
102
RTVSPost2010PropOp44
 70
     1
102
RTVSPost2010Prop45
280
     0
102
RTVSPost2010PropOp45
 70
     1
102
RTVSPost2010Prop46
 90
       50
102
RTVSPost2010PropOp46
 70
     1
102
RTVSPost2010Prop47
 90
       50
102
RTVSPost2010PropOp47
 70
     1
102
RTVSPost2010Prop48
 90
       50
102
RTVSPost2010PropOp48
 70
     1
102
RTVSPost2010Prop49
280
     0
102
RTVSPost2010PropOp49
 70
     1
102
RTVSPost2010Prop50
 90
       50
102
RTVSPost2010PropOp50
 70
     1
102
RTVSPost2010Prop51ColorIndex
 90
      256
102
RTVSPost2010Prop51ColorRGB
 90
-16777216
102
RTVSPost2010PropOp51
 70
     0
102
RTVSPost2010Prop52
140
1.0
102
RTVSPost2010PropOp52
 70
     0
102
RTVSPost2010Prop53
 90
        2
102
RTVSPost2010PropOp53
 70
     1
102
RTVSPost2010Prop54
  1
strokes_ogs.tif
102
RTVSPost2010PropOp54
 70
     1
102
RTVSPost2010Prop55
280
     0
102
RTVSPost2010PropOp55
 70
     1
102
RTVSPost2010Prop56
140
1.0
102
RTVSPost2010PropOp56
 70
     1
102
RTVSPost2010Prop57
140
1.0
102
RTVSPost2010PropOp57
 70
     1
102
RTVSPropertyOp0
 70
     1
102
RTVSPropertyOp1
 70
     1
102
RTVSPropertyOp2
 70
     1
102
RTVSPropertyOp3
 70
     1
102
RTVSPropertyOp4
 70
     1
102
RTVSPropertyOp5
 70
     1
102
RTVSPropertyOp6
 70
     1
102
RTVSPropertyOp7
 70
     1
102
RTVSPropertyOp8
 70
     1
102
RTVSPropertyOp9
 70
     1
102
RTVSPropertyOp10
 70
     1
102
RTVSPropertyOp11
 70
     1
102
RTVSPropertyOp12
 70
     1
102
RTVSPropertyOp13
 70
     1
102
RTVSPropertyOp14
 70
     1
102
RTVSPropertyOp15
 70
     1
102
RTVSPropertyOp16
 70
     1
102
RTVSPropertyOp17
 70
     1
102
RTVSPropertyOp18
 70
     1
102
RTVSPropertyOp19
 70
     1
102
RTVSPropertyOp20
 70
     1
102
RTVSPropertyOp21
 70
     1
102
RTVSPropertyOp22
 70
     1
102
RTVSPropertyOp23
 70
     1
102
RTVSPropertyOp24
 70
     1
102
RTVSPropertyOp25
 70
     1
102
RTVSPropertyOp26
 70
     1
102
RTVSPropertyOp27
 70
     1
102
RTVSPropertyOp28
 70
     1
102
RTVSPropertyOp29
 70
     1
102
RTVSPropertyOp30
 70
     1
102
RTVSPropertyOp31
 70
     1
102
RTVSPropertyOp32
 70
     1
102
RTVSPropertyOp33
 70
     1
102
RTVSPropertyOp34
 70
     1
102
RTVSPropertyOp35
 70
     1
102
RTVSPropertyOp36
 70
     1
102
RTVSPropertyOp37
 70
     1
102
RTVSPropertyOp38
 70
     1
102
RTVSPropertyOp39
 70
     1
102
RTVSPropertyOp40
 70
     1
102
RTVSPropertyOp41
 70
     1
102
RTVSPropertyOp42
 70
     1
102
RTVSPropertyOp43
 70
     1
102
RTVSPropertyOp44
 70
     1
102
RTVSPropertyOp45
 70
     1
102
RTVSPropertyOp46
 70
     1
102
RTVSPropertyOp47
 70
     1
102
RTVSPropertyOp48
 70
     1
102
RTVSPropertyOp49
 70
     1
102
RTVSPropertyOp50
 70
     1
102
RTVSPropertyOp51
 70
     0
102
RTVSPropertyOp52
 70
     0
102
RTVSPropertyOp53
 70
     1
102
RTVSPropertyOp54
 70
     1
102
RTVSPropertyOp55
 70
     1
102
RTVSPropertyOp56
 70
     1
102
RTVSPropertyOp57
 70
     1
102
RTVSPropertyOp58
 70
     1
102
RTVSPropertyOp59
 70
     1
102
RTVSPropertyOp60
 70
     1
102
RTVSPropertyOp61
 70
     1
102
RTVSPropertyOp62
 70
     1
  0
XRECORD
  5
67E
102
{ACAD_REACTORS
330
67D
102
}
330
67D
100
AcDbXrecord
280
     1
102
RTVSPost2010Prop28
280
     0
102
RTVSPost2010PropOp28
 70
     1
102
RTVSPost2010Prop29
280
     1
102
RTVSPost2010PropOp29
 70
     1
102
RTVSPost2010Prop30
280
     1
102
RTVSPost2010PropOp30
 70
     1
102
RTVSPost2010Prop31
280
     0
102
RTVSPost2010PropOp31
 70
     1
102
RTVSPost2010Prop32
280
     0
102
RTVSPost2010PropOp32
 70
     1
102
RTVSPost2010Prop33
280
     0
102
RTVSPost2010PropOp33
 70
     1
102
RTVSPost2010Prop34
280
     0
102
RTVSPost2010PropOp34
 70
     1
102
RTVSPost2010Prop35
280
     0
102
RTVSPost2010PropOp35
 70
     1
102
RTVSPost2010Prop36
280
     0
102
RTVSPost2010PropOp36
 70
     1
102
RTVSPost2010Prop37
 90
       50
102
RTVSPost2010PropOp37
 70
     1
102
RTVSPost2010Prop38
140
0.0
102
RTVSPost2010PropOp38
 70
     1
102
RTVSPost2010Prop39
140
1.0
102
RTVSPost2010PropOp39
 70
     1
102
RTVSPost2010Prop40
 90
        0
102
RTVSPost2010PropOp40
 70
     1
102
RTVSPost2010Prop41ColorIndex
 90
       18
102
RTVSPost2010Prop41ColorRGB
 90
        0
102
RTVSPost2010PropOp41
 70
     1
102
RTVSPost2010Prop42
 90
       50
102
RTVSPost2010PropOp42
 70
     1
102
RTVSPost2010Prop43
 90
        3
102
RTVSPost2010PropOp43
 70
     1
102
RTVSPost2010Prop44ColorIndex
 90
        5
102
RTVSPost2010Prop44ColorRGB
 90
      255
102
RTVSPost2010PropOp44
 70
     1
102
RTVSPost2010Prop45
280
     0
102
RTVSPost2010PropOp45
 70
     1
102
RTVSPost2010Prop46
 90
       50
102
RTVSPost2010PropOp46
 70
     1
102
RTVSPost2010Prop47
 90
       50
102
RTVSPost2010PropOp47
 70
     1
102
RTVSPost2010Prop48
 90
       50
102
RTVSPost2010PropOp48
 70
     1
102
RTVSPost2010Prop49
280
     0
102
RTVSPost2010PropOp49
 70
     1
102
RTVSPost2010Prop50
 90
       50
102
RTVSPost2010PropOp50
 70
     1
102
RTVSPost2010Prop51ColorIndex
 90
      256
102
RTVSPost2010Prop51ColorRGB
 90
-16777216
102
RTVSPost2010PropOp51
 70
     0
102
RTVSPost2010Prop52
140
1.0
102
RTVSPost2010PropOp52
 70
     0
102
RTVSPost2010Prop53
 90
        2
102
RTVSPost2010PropOp53
 70
     1
102
RTVSPost2010Prop54
  1
strokes_ogs.tif
102
RTVSPost2010PropOp54
 70
     1
102
RTVSPost2010Prop55
280
     0
102
RTVSPost2010PropOp55
 70
     1
102
RTVSPost2010Prop56
140
1.0
102
RTVSPost2010PropOp56
 70
     1
102
RTVSPost2010Prop57
140
1.0
102
RTVSPost2010PropOp57
 70
     1
102
RTVSPropertyOp0
 70
     1
102
RTVSPropertyOp1
 70
     1
102
RTVSPropertyOp2
 70
     1
102
RTVSPropertyOp3
 70
     1
102
RTVSPropertyOp4
 70
     1
102
RTVSPropertyOp5
 70
     1
102
RTVSPropertyOp6
 70
     1
102
RTVSPropertyOp7
 70
     1
102
RTVSPropertyOp8
 70
     1
102
RTVSPropertyOp9
 70
     1
102
RTVSPropertyOp10
 70
     1
102
RTVSPropertyOp11
 70
     1
102
RTVSPropertyOp12
 70
     1
102
RTVSPropertyOp13
 70
     1
102
RTVSPropertyOp14
 70
     1
102
RTVSPropertyOp15
 70
     1
102
RTVSPropertyOp16
 70
     1
102
RTVSPropertyOp17
 70
     1
102
RTVSPropertyOp18
 70
     1
102
RTVSPropertyOp19
 70
     1
102
RTVSPropertyOp20
 70
     1
102
RTVSPropertyOp21
 70
     1
102
RTVSPropertyOp22
 70
     1
102
RTVSPropertyOp23
 70
     1
102
RTVSPropertyOp24
 70
     1
102
RTVSPropertyOp25
 70
     1
102
RTVSPropertyOp26
 70
     1
102
RTVSPropertyOp27
 70
     1
102
RTVSPropertyOp28
 70
     1
102
RTVSPropertyOp29
 70
     1
102
RTVSPropertyOp30
 70
     1
102
RTVSPropertyOp31
 70
     1
102
RTVSPropertyOp32
 70
     1
102
RTVSPropertyOp33
 70
     1
102
RTVSPropertyOp34
 70
     1
102
RTVSPropertyOp35
 70
     1
102
RTVSPropertyOp36
 70
     1
102
RTVSPropertyOp37
 70
     1
102
RTVSPropertyOp38
 70
     1
102
RTVSPropertyOp39
 70
     1
102
RTVSPropertyOp40
 70
     1
102
RTVSPropertyOp41
 70
     1
102
RTVSPropertyOp42
 70
     1
102
RTVSPropertyOp43
 70
     1
102
RTVSPropertyOp44
 70
     1
102
RTVSPropertyOp45
 70
     1
102
RTVSPropertyOp46
 70
     1
102
RTVSPropertyOp47
 70
     1
102
RTVSPropertyOp48
 70
     1
102
RTVSPropertyOp49
 70
     1
102
RTVSPropertyOp50
 70
     1
102
RTVSPropertyOp51
 70
     0
102
RTVSPropertyOp52
 70
     0
102
RTVSPropertyOp53
 70
     1
102
RTVSPropertyOp54
 70
     1
102
RTVSPropertyOp55
 70
     1
102
RTVSPropertyOp56
 70
     1
102
RTVSPropertyOp57
 70
     1
102
RTVSPropertyOp58
 70
     1
102
RTVSPropertyOp59
 70
     1
102
RTVSPropertyOp60
 70
     1
102
RTVSPropertyOp61
 70
     1
102
RTVSPropertyOp62
 70
     1
  0
XRECORD
  5
670
102
{ACAD_REACTORS
330
66F
102
}
330
66F
100
AcDbXrecord
280
     1
102
RTVSPost2010Prop28
280
     0
102
RTVSPost2010PropOp28
 70
     1
102
RTVSPost2010Prop29
280
     1
102
RTVSPost2010PropOp29
 70
     1
102
RTVSPost2010Prop30
280
     1
102
RTVSPost2010PropOp30
 70
     1
102
RTVSPost2010Prop31
280
     0
102
RTVSPost2010PropOp31
 70
     1
102
RTVSPost2010Prop32
280
     0
102
RTVSPost2010PropOp32
 70
     1
102
RTVSPost2010Prop33
280
     0
102
RTVSPost2010PropOp33
 70
     1
102
RTVSPost2010Prop34
280
     0
102
RTVSPost2010PropOp34
 70
     1
102
RTVSPost2010Prop35
280
     0
102
RTVSPost2010PropOp35
 70
     1
102
RTVSPost2010Prop36
280
     0
102
RTVSPost2010PropOp36
 70
     1
102
RTVSPost2010Prop37
 90
       50
102
RTVSPost2010PropOp37
 70
     1
102
RTVSPost2010Prop38
140
0.0
102
RTVSPost2010PropOp38
 70
     1
102
RTVSPost2010Prop39
140
1.0
102
RTVSPost2010PropOp39
 70
     1
102
RTVSPost2010Prop40
 90
        0
102
RTVSPost2010PropOp40
 70
     1
102
RTVSPost2010Prop41ColorIndex
 90
       18
102
RTVSPost2010Prop41ColorRGB
 90
        0
102
RTVSPost2010PropOp41
 70
     1
102
RTVSPost2010Prop42
 90
       50
102
RTVSPost2010PropOp42
 70
     1
102
RTVSPost2010Prop43
 90
        3
102
RTVSPost2010PropOp43
 70
     1
102
RTVSPost2010Prop44ColorIndex
 90
        5
102
RTVSPost2010Prop44ColorRGB
 90
      255
102
RTVSPost2010PropOp44
 70
     1
102
RTVSPost2010Prop45
280
     0
102
RTVSPost2010PropOp45
 70
     1
102
RTVSPost2010Prop46
 90
       50
102
RTVSPost2010PropOp46
 70
     1
102
RTVSPost2010Prop47
 90
       50
102
RTVSPost2010PropOp47
 70
     1
102
RTVSPost2010Prop48
 90
       50
102
RTVSPost2010PropOp48
 70
     1
102
RTVSPost2010Prop49
280
     0
102
RTVSPost2010PropOp49
 70
     1
102
RTVSPost2010Prop50
 90
       50
102
RTVSPost2010PropOp50
 70
     1
102
RTVSPost2010Prop51ColorIndex
 90
      256
102
RTVSPost2010Prop51ColorRGB
 90
-16777216
102
RTVSPost2010PropOp51
 70
     0
102
RTVSPost2010Prop52
140
1.0
102
RTVSPost2010PropOp52
 70
     0
102
RTVSPost2010Prop53
 90
        2
102
RTVSPost2010PropOp53
 70
     1
102
RTVSPost2010Prop54
  1
strokes_ogs.tif
102
RTVSPost2010PropOp54
 70
     1
102
RTVSPost2010Prop55
280
     0
102
RTVSPost2010PropOp55
 70
     1
102
RTVSPost2010Prop56
140
1.0
102
RTVSPost2010PropOp56
 70
     1
102
RTVSPost2010Prop57
140
1.0
102
RTVSPost2010PropOp57
 70
     1
102
RTVSPropertyOp0
 70
     1
102
RTVSPropertyOp1
 70
     1
102
RTVSPropertyOp2
 70
     1
102
RTVSPropertyOp3
 70
     1
102
RTVSPropertyOp4
 70
     1
102
RTVSPropertyOp5
 70
     1
102
RTVSPropertyOp6
 70
     1
102
RTVSPropertyOp7
 70
     1
102
RTVSPropertyOp8
 70
     1
102
RTVSPropertyOp9
 70
     1
102
RTVSPropertyOp10
 70
     1
102
RTVSPropertyOp11
 70
     1
102
RTVSPropertyOp12
 70
     1
102
RTVSPropertyOp13
 70
     1
102
RTVSPropertyOp14
 70
     1
102
RTVSPropertyOp15
 70
     1
102
RTVSPropertyOp16
 70
     1
102
RTVSPropertyOp17
 70
     1
102
RTVSPropertyOp18
 70
     1
102
RTVSPropertyOp19
 70
     1
102
RTVSPropertyOp20
 70
     1
102
RTVSPropertyOp21
 70
     1
102
RTVSPropertyOp22
 70
     1
102
RTVSPropertyOp23
 70
     1
102
RTVSPropertyOp24
 70
     1
102
RTVSPropertyOp25
 70
     1
102
RTVSPropertyOp26
 70
     1
102
RTVSPropertyOp27
 70
     1
102
RTVSPropertyOp28
 70
     1
102
RTVSPropertyOp29
 70
     1
102
RTVSPropertyOp30
 70
     1
102
RTVSPropertyOp31
 70
     1
102
RTVSPropertyOp32
 70
     1
102
RTVSPropertyOp33
 70
     1
102
RTVSPropertyOp34
 70
     1
102
RTVSPropertyOp35
 70
     1
102
RTVSPropertyOp36
 70
     1
102
RTVSPropertyOp37
 70
     1
102
RTVSPropertyOp38
 70
     1
102
RTVSPropertyOp39
 70
     1
102
RTVSPropertyOp40
 70
     1
102
RTVSPropertyOp41
 70
     1
102
RTVSPropertyOp42
 70
     1
102
RTVSPropertyOp43
 70
     1
102
RTVSPropertyOp44
 70
     1
102
RTVSPropertyOp45
 70
     1
102
RTVSPropertyOp46
 70
     1
102
RTVSPropertyOp47
 70
     1
102
RTVSPropertyOp48
 70
     1
102
RTVSPropertyOp49
 70
     1
102
RTVSPropertyOp50
 70
     1
102
RTVSPropertyOp51
 70
     0
102
RTVSPropertyOp52
 70
     0
102
RTVSPropertyOp53
 70
     1
102
RTVSPropertyOp54
 70
     1
102
RTVSPropertyOp55
 70
     1
102
RTVSPropertyOp56
 70
     1
102
RTVSPropertyOp57
 70
     1
102
RTVSPropertyOp58
 70
     1
102
RTVSPropertyOp59
 70
     1
102
RTVSPropertyOp60
 70
     1
102
RTVSPropertyOp61
 70
     1
102
RTVSPropertyOp62
 70
     1
  0
XRECORD
  5
674
102
{ACAD_REACTORS
330
673
102
}
330
673
100
AcDbXrecord
280
     1
102
RTVSPost2010Prop28
280
     0
102
RTVSPost2010PropOp28
 70
     1
102
RTVSPost2010Prop29
280
     1
102
RTVSPost2010PropOp29
 70
     1
102
RTVSPost2010Prop30
280
     1
102
RTVSPost2010PropOp30
 70
     1
102
RTVSPost2010Prop31
280
     0
102
RTVSPost2010PropOp31
 70
     1
102
RTVSPost2010Prop32
280
     0
102
RTVSPost2010PropOp32
 70
     1
102
RTVSPost2010Prop33
280
     0
102
RTVSPost2010PropOp33
 70
     1
102
RTVSPost2010Prop34
280
     0
102
RTVSPost2010PropOp34
 70
     1
102
RTVSPost2010Prop35
280
     0
102
RTVSPost2010PropOp35
 70
     1
102
RTVSPost2010Prop36
280
     0
102
RTVSPost2010PropOp36
 70
     1
102
RTVSPost2010Prop37
 90
       50
102
RTVSPost2010PropOp37
 70
     1
102
RTVSPost2010Prop38
140
0.0
102
RTVSPost2010PropOp38
 70
     1
102
RTVSPost2010Prop39
140
1.0
102
RTVSPost2010PropOp39
 70
     1
102
RTVSPost2010Prop40
 90
        0
102
RTVSPost2010PropOp40
 70
     1
102
RTVSPost2010Prop41ColorIndex
 90
       18
102
RTVSPost2010Prop41ColorRGB
 90
        0
102
RTVSPost2010PropOp41
 70
     1
102
RTVSPost2010Prop42
 90
       50
102
RTVSPost2010PropOp42
 70
     1
102
RTVSPost2010Prop43
 90
        3
102
RTVSPost2010PropOp43
 70
     1
102
RTVSPost2010Prop44ColorIndex
 90
        5
102
RTVSPost2010Prop44ColorRGB
 90
      255
102
RTVSPost2010PropOp44
 70
     1
102
RTVSPost2010Prop45
280
     0
102
RTVSPost2010PropOp45
 70
     1
102
RTVSPost2010Prop46
 90
       50
102
RTVSPost2010PropOp46
 70
     1
102
RTVSPost2010Prop47
 90
       50
102
RTVSPost2010PropOp47
 70
     1
102
RTVSPost2010Prop48
 90
       50
102
RTVSPost2010PropOp48
 70
     1
102
RTVSPost2010Prop49
280
     0
102
RTVSPost2010PropOp49
 70
     1
102
RTVSPost2010Prop50
 90
       50
102
RTVSPost2010PropOp50
 70
     1
102
RTVSPost2010Prop51ColorIndex
 90
      256
102
RTVSPost2010Prop51ColorRGB
 90
-16777216
102
RTVSPost2010PropOp51
 70
     0
102
RTVSPost2010Prop52
140
1.0
102
RTVSPost2010PropOp52
 70
     0
102
RTVSPost2010Prop53
 90
        2
102
RTVSPost2010PropOp53
 70
     1
102
RTVSPost2010Prop54
  1
strokes_ogs.tif
102
RTVSPost2010PropOp54
 70
     1
102
RTVSPost2010Prop55
280
     0
102
RTVSPost2010PropOp55
 70
     1
102
RTVSPost2010Prop56
140
1.0
102
RTVSPost2010PropOp56
 70
     1
102
RTVSPost2010Prop57
140
1.0
102
RTVSPost2010PropOp57
 70
     1
102
RTVSPropertyOp0
 70
     1
102
RTVSPropertyOp1
 70
     1
102
RTVSPropertyOp2
 70
     1
102
RTVSPropertyOp3
 70
     1
102
RTVSPropertyOp4
 70
     1
102
RTVSPropertyOp5
 70
     1
102
RTVSPropertyOp6
 70
     1
102
RTVSPropertyOp7
 70
     1
102
RTVSPropertyOp8
 70
     1
102
RTVSPropertyOp9
 70
     1
102
RTVSPropertyOp10
 70
     1
102
RTVSPropertyOp11
 70
     1
102
RTVSPropertyOp12
 70
     1
102
RTVSPropertyOp13
 70
     1
102
RTVSPropertyOp14
 70
     1
102
RTVSPropertyOp15
 70
     1
102
RTVSPropertyOp16
 70
     1
102
RTVSPropertyOp17
 70
     1
102
RTVSPropertyOp18
 70
     1
102
RTVSPropertyOp19
 70
     1
102
RTVSPropertyOp20
 70
     1
102
RTVSPropertyOp21
 70
     1
102
RTVSPropertyOp22
 70
     1
102
RTVSPropertyOp23
 70
     1
102
RTVSPropertyOp24
 70
     1
102
RTVSPropertyOp25
 70
     1
102
RTVSPropertyOp26
 70
     1
102
RTVSPropertyOp27
 70
     1
102
RTVSPropertyOp28
 70
     1
102
RTVSPropertyOp29
 70
     1
102
RTVSPropertyOp30
 70
     1
102
RTVSPropertyOp31
 70
     1
102
RTVSPropertyOp32
 70
     1
102
RTVSPropertyOp33
 70
     1
102
RTVSPropertyOp34
 70
     1
102
RTVSPropertyOp35
 70
     1
102
RTVSPropertyOp36
 70
     1
102
RTVSPropertyOp37
 70
     1
102
RTVSPropertyOp38
 70
     1
102
RTVSPropertyOp39
 70
     1
102
RTVSPropertyOp40
 70
     1
102
RTVSPropertyOp41
 70
     1
102
RTVSPropertyOp42
 70
     1
102
RTVSPropertyOp43
 70
     1
102
RTVSPropertyOp44
 70
     1
102
RTVSPropertyOp45
 70
     1
102
RTVSPropertyOp46
 70
     1
102
RTVSPropertyOp47
 70
     1
102
RTVSPropertyOp48
 70
     1
102
RTVSPropertyOp49
 70
     1
102
RTVSPropertyOp50
 70
     1
102
RTVSPropertyOp51
 70
     0
102
RTVSPropertyOp52
 70
     0
102
RTVSPropertyOp53
 70
     1
102
RTVSPropertyOp54
 70
     1
102
RTVSPropertyOp55
 70
     1
102
RTVSPropertyOp56
 70
     1
102
RTVSPropertyOp57
 70
     1
102
RTVSPropertyOp58
 70
     1
102
RTVSPropertyOp59
 70
     1
102
RTVSPropertyOp60
 70
     1
102
RTVSPropertyOp61
 70
     1
102
RTVSPropertyOp62
 70
     1
  0
XRECORD
  5
68E
102
{ACAD_REACTORS
330
68D
102
}
330
68D
100
AcDbXrecord
280
     1
102
RTVSPost2010Prop28
280
     0
102
RTVSPost2010PropOp28
 70
     0
102
RTVSPost2010Prop29
280
     1
102
RTVSPost2010PropOp29
 70
     0
102
RTVSPost2010Prop30
280
     1
102
RTVSPost2010PropOp30
 70
     0
102
RTVSPost2010Prop31
280
     0
102
RTVSPost2010PropOp31
 70
     0
102
RTVSPost2010Prop32
280
     0
102
RTVSPost2010PropOp32
 70
     0
102
RTVSPost2010Prop33
280
     0
102
RTVSPost2010PropOp33
 70
     0
102
RTVSPost2010Prop34
280
     0
102
RTVSPost2010PropOp34
 70
     0
102
RTVSPost2010Prop35
280
     0
102
RTVSPost2010PropOp35
 70
     0
102
RTVSPost2010Prop36
280
     0
102
RTVSPost2010PropOp36
 70
     0
102
RTVSPost2010Prop37
 90
       50
102
RTVSPost2010PropOp37
 70
     0
102
RTVSPost2010Prop38
140
0.0
102
RTVSPost2010PropOp38
 70
     0
102
RTVSPost2010Prop39
140
1.0
102
RTVSPost2010PropOp39
 70
     0
102
RTVSPost2010Prop40
 90
        0
102
RTVSPost2010PropOp40
 70
     0
102
RTVSPost2010Prop41ColorIndex
 90
       18
102
RTVSPost2010Prop41ColorRGB
 90
        0
102
RTVSPost2010PropOp41
 70
     0
102
RTVSPost2010Prop42
 90
       50
102
RTVSPost2010PropOp42
 70
     0
102
RTVSPost2010Prop43
 90
        3
102
RTVSPost2010PropOp43
 70
     0
102
RTVSPost2010Prop44ColorIndex
 90
        5
102
RTVSPost2010Prop44ColorRGB
 90
      255
102
RTVSPost2010PropOp44
 70
     0
102
RTVSPost2010Prop45
280
     0
102
RTVSPost2010PropOp45
 70
     0
102
RTVSPost2010Prop46
 90
       50
102
RTVSPost2010PropOp46
 70
     0
102
RTVSPost2010Prop47
 90
       50
102
RTVSPost2010PropOp47
 70
     0
102
RTVSPost2010Prop48
 90
       50
102
RTVSPost2010PropOp48
 70
     0
102
RTVSPost2010Prop49
280
     0
102
RTVSPost2010PropOp49
 70
     0
102
RTVSPost2010Prop50
 90
       50
102
RTVSPost2010PropOp50
 70
     0
102
RTVSPost2010Prop51ColorIndex
 90
      256
102
RTVSPost2010Prop51ColorRGB
 90
-16777216
102
RTVSPost2010PropOp51
 70
     0
102
RTVSPost2010Prop52
140
1.0
102
RTVSPost2010PropOp52
 70
     0
102
RTVSPost2010Prop53
 90
        2
102
RTVSPost2010PropOp53
 70
     0
102
RTVSPost2010Prop54
  1
strokes_ogs.tif
102
RTVSPost2010PropOp54
 70
     0
102
RTVSPost2010Prop55
280
     0
102
RTVSPost2010PropOp55
 70
     0
102
RTVSPost2010Prop56
140
1.0
102
RTVSPost2010PropOp56
 70
     0
102
RTVSPost2010Prop57
140
1.0
102
RTVSPost2010PropOp57
 70
     0
102
RTVSPropertyOp0
 70
     0
102
RTVSPropertyOp1
 70
     0
102
RTVSPropertyOp2
 70
     0
102
RTVSPropertyOp3
 70
     0
102
RTVSPropertyOp4
 70
     0
102
RTVSPropertyOp5
 70
     0
102
RTVSPropertyOp6
 70
     0
102
RTVSPropertyOp7
 70
     0
102
RTVSPropertyOp8
 70
     0
102
RTVSPropertyOp9
 70
     0
102
RTVSPropertyOp10
 70
     0
102
RTVSPropertyOp11
 70
     0
102
RTVSPropertyOp12
 70
     0
102
RTVSPropertyOp13
 70
     0
102
RTVSPropertyOp14
 70
     2
102
RTVSPropertyOp15
 70
     0
102
RTVSPropertyOp16
 70
     0
102
RTVSPropertyOp17
 70
     0
102
RTVSPropertyOp18
 70
     0
102
RTVSPropertyOp19
 70
     0
102
RTVSPropertyOp20
 70
     0
102
RTVSPropertyOp21
 70
     0
102
RTVSPropertyOp22
 70
     0
102
RTVSPropertyOp23
 70
     0
102
RTVSPropertyOp24
 70
     0
102
RTVSPropertyOp25
 70
     0
102
RTVSPropertyOp26
 70
     0
102
RTVSPropertyOp27
 70
     0
102
RTVSPropertyOp28
 70
     0
102
RTVSPropertyOp29
 70
     0
102
RTVSPropertyOp30
 70
     0
102
RTVSPropertyOp31
 70
     0
102
RTVSPropertyOp32
 70
     0
102
RTVSPropertyOp33
 70
     0
102
RTVSPropertyOp34
 70
     0
102
RTVSPropertyOp35
 70
     0
102
RTVSPropertyOp36
 70
     0
102
RTVSPropertyOp37
 70
     0
102
RTVSPropertyOp38
 70
     0
102
RTVSPropertyOp39
 70
     0
102
RTVSPropertyOp40
 70
     0
102
RTVSPropertyOp41
 70
     0
102
RTVSPropertyOp42
 70
     0
102
RTVSPropertyOp43
 70
     0
102
RTVSPropertyOp44
 70
     0
102
RTVSPropertyOp45
 70
     0
102
RTVSPropertyOp46
 70
     0
102
RTVSPropertyOp47
 70
     0
102
RTVSPropertyOp48
 70
     0
102
RTVSPropertyOp49
 70
     0
102
RTVSPropertyOp50
 70
     0
102
RTVSPropertyOp51
 70
     0
102
RTVSPropertyOp52
 70
     0
102
RTVSPropertyOp53
 70
     0
102
RTVSPropertyOp54
 70
     0
102
RTVSPropertyOp55
 70
     0
102
RTVSPropertyOp56
 70
     0
102
RTVSPropertyOp57
 70
     0
102
RTVSPropertyOp58
 70
     0
102
RTVSPropertyOp59
 70
     0
102
RTVSPropertyOp60
 70
     0
102
RTVSPropertyOp61
 70
     0
102
RTVSPropertyOp62
 70
     0
  0
XRECORD
  5
67C
102
{ACAD_REACTORS
330
67B
102
}
330
67B
100
AcDbXrecord
280
     1
102
RTVSPost2010Prop28
280
     0
102
RTVSPost2010PropOp28
 70
     1
102
RTVSPost2010Prop29
280
     1
102
RTVSPost2010PropOp29
 70
     1
102
RTVSPost2010Prop30
280
     1
102
RTVSPost2010PropOp30
 70
     1
102
RTVSPost2010Prop31
280
     0
102
RTVSPost2010PropOp31
 70
     1
102
RTVSPost2010Prop32
280
     0
102
RTVSPost2010PropOp32
 70
     1
102
RTVSPost2010Prop33
280
     0
102
RTVSPost2010PropOp33
 70
     1
102
RTVSPost2010Prop34
280
     0
102
RTVSPost2010PropOp34
 70
     1
102
RTVSPost2010Prop35
280
     0
102
RTVSPost2010PropOp35
 70
     1
102
RTVSPost2010Prop36
280
     0
102
RTVSPost2010PropOp36
 70
     1
102
RTVSPost2010Prop37
 90
       50
102
RTVSPost2010PropOp37
 70
     1
102
RTVSPost2010Prop38
140
0.0
102
RTVSPost2010PropOp38
 70
     1
102
RTVSPost2010Prop39
140
1.0
102
RTVSPost2010PropOp39
 70
     1
102
RTVSPost2010Prop40
 90
        0
102
RTVSPost2010PropOp40
 70
     1
102
RTVSPost2010Prop41ColorIndex
 90
       18
102
RTVSPost2010Prop41ColorRGB
 90
        0
102
RTVSPost2010PropOp41
 70
     1
102
RTVSPost2010Prop42
 90
       50
102
RTVSPost2010PropOp42
 70
     1
102
RTVSPost2010Prop43
 90
        3
102
RTVSPost2010PropOp43
 70
     1
102
RTVSPost2010Prop44ColorIndex
 90
        5
102
RTVSPost2010Prop44ColorRGB
 90
      255
102
RTVSPost2010PropOp44
 70
     1
102
RTVSPost2010Prop45
280
     0
102
RTVSPost2010PropOp45
 70
     1
102
RTVSPost2010Prop46
 90
       50
102
RTVSPost2010PropOp46
 70
     1
102
RTVSPost2010Prop47
 90
       50
102
RTVSPost2010PropOp47
 70
     1
102
RTVSPost2010Prop48
 90
       50
102
RTVSPost2010PropOp48
 70
     1
102
RTVSPost2010Prop49
280
     0
102
RTVSPost2010PropOp49
 70
     1
102
RTVSPost2010Prop50
 90
       50
102
RTVSPost2010PropOp50
 70
     1
102
RTVSPost2010Prop51ColorIndex
 90
      256
102
RTVSPost2010Prop51ColorRGB
 90
-16777216
102
RTVSPost2010PropOp51
 70
     0
102
RTVSPost2010Prop52
140
1.0
102
RTVSPost2010PropOp52
 70
     0
102
RTVSPost2010Prop53
 90
        2
102
RTVSPost2010PropOp53
 70
     1
102
RTVSPost2010Prop54
  1
strokes_ogs.tif
102
RTVSPost2010PropOp54
 70
     1
102
RTVSPost2010Prop55
280
     0
102
RTVSPost2010PropOp55
 70
     1
102
RTVSPost2010Prop56
140
1.0
102
RTVSPost2010PropOp56
 70
     1
102
RTVSPost2010Prop57
140
1.0
102
RTVSPost2010PropOp57
 70
     1
102
RTVSPropertyOp0
 70
     1
102
RTVSPropertyOp1
 70
     1
102
RTVSPropertyOp2
 70
     1
102
RTVSPropertyOp3
 70
     1
102
RTVSPropertyOp4
 70
     1
102
RTVSPropertyOp5
 70
     1
102
RTVSPropertyOp6
 70
     1
102
RTVSPropertyOp7
 70
     1
102
RTVSPropertyOp8
 70
     1
102
RTVSPropertyOp9
 70
     1
102
RTVSPropertyOp10
 70
     1
102
RTVSPropertyOp11
 70
     1
102
RTVSPropertyOp12
 70
     1
102
RTVSPropertyOp13
 70
     1
102
RTVSPropertyOp14
 70
     1
102
RTVSPropertyOp15
 70
     1
102
RTVSPropertyOp16
 70
     1
102
RTVSPropertyOp17
 70
     1
102
RTVSPropertyOp18
 70
     1
102
RTVSPropertyOp19
 70
     1
102
RTVSPropertyOp20
 70
     1
102
RTVSPropertyOp21
 70
     1
102
RTVSPropertyOp22
 70
     1
102
RTVSPropertyOp23
 70
     1
102
RTVSPropertyOp24
 70
     1
102
RTVSPropertyOp25
 70
     1
102
RTVSPropertyOp26
 70
     1
102
RTVSPropertyOp27
 70
     1
102
RTVSPropertyOp28
 70
     1
102
RTVSPropertyOp29
 70
     1
102
RTVSPropertyOp30
 70
     1
102
RTVSPropertyOp31
 70
     1
102
RTVSPropertyOp32
 70
     1
102
RTVSPropertyOp33
 70
     1
102
RTVSPropertyOp34
 70
     1
102
RTVSPropertyOp35
 70
     1
102
RTVSPropertyOp36
 70
     1
102
RTVSPropertyOp37
 70
     1
102
RTVSPropertyOp38
 70
     1
102
RTVSPropertyOp39
 70
     1
102
RTVSPropertyOp40
 70
     1
102
RTVSPropertyOp41
 70
     1
102
RTVSPropertyOp42
 70
     1
102
RTVSPropertyOp43
 70
     1
102
RTVSPropertyOp44
 70
     1
102
RTVSPropertyOp45
 70
     1
102
RTVSPropertyOp46
 70
     1
102
RTVSPropertyOp47
 70
     1
102
RTVSPropertyOp48
 70
     1
102
RTVSPropertyOp49
 70
     1
102
RTVSPropertyOp50
 70
     1
102
RTVSPropertyOp51
 70
     0
102
RTVSPropertyOp52
 70
     0
102
RTVSPropertyOp53
 70
     1
102
RTVSPropertyOp54
 70
     1
102
RTVSPropertyOp55
 70
     1
102
RTVSPropertyOp56
 70
     1
102
RTVSPropertyOp57
 70
     1
102
RTVSPropertyOp58
 70
     1
102
RTVSPropertyOp59
 70
     1
102
RTVSPropertyOp60
 70
     1
102
RTVSPropertyOp61
 70
     1
102
RTVSPropertyOp62
 70
     1
  0
XRECORD
  5
660
102
{ACAD_REACTORS
330
65F
102
}
330
65F
100
AcDbXrecord
280
     1
102
RTVSPost2010Prop28
280
     0
102
RTVSPost2010PropOp28
 70
     1
102
RTVSPost2010Prop29
280
     1
102
RTVSPost2010PropOp29
 70
     1
102
RTVSPost2010Prop30
280
     1
102
RTVSPost2010PropOp30
 70
     1
102
RTVSPost2010Prop31
280
     0
102
RTVSPost2010PropOp31
 70
     1
102
RTVSPost2010Prop32
280
     0
102
RTVSPost2010PropOp32
 70
     1
102
RTVSPost2010Prop33
280
     0
102
RTVSPost2010PropOp33
 70
     1
102
RTVSPost2010Prop34
280
     0
102
RTVSPost2010PropOp34
 70
     1
102
RTVSPost2010Prop35
280
     0
102
RTVSPost2010PropOp35
 70
     1
102
RTVSPost2010Prop36
280
     0
102
RTVSPost2010PropOp36
 70
     1
102
RTVSPost2010Prop37
 90
       50
102
RTVSPost2010PropOp37
 70
     1
102
RTVSPost2010Prop38
140
0.0
102
RTVSPost2010PropOp38
 70
     1
102
RTVSPost2010Prop39
140
1.0
102
RTVSPost2010PropOp39
 70
     1
102
RTVSPost2010Prop40
 90
        0
102
RTVSPost2010PropOp40
 70
     1
102
RTVSPost2010Prop41ColorIndex
 90
       18
102
RTVSPost2010Prop41ColorRGB
 90
        0
102
RTVSPost2010PropOp41
 70
     1
102
RTVSPost2010Prop42
 90
       50
102
RTVSPost2010PropOp42
 70
     1
102
RTVSPost2010Prop43
 90
        3
102
RTVSPost2010PropOp43
 70
     1
102
RTVSPost2010Prop44ColorIndex
 90
        5
102
RTVSPost2010Prop44ColorRGB
 90
      255
102
RTVSPost2010PropOp44
 70
     1
102
RTVSPost2010Prop45
280
     0
102
RTVSPost2010PropOp45
 70
     1
102
RTVSPost2010Prop46
 90
       50
102
RTVSPost2010PropOp46
 70
     1
102
RTVSPost2010Prop47
 90
       50
102
RTVSPost2010PropOp47
 70
     1
102
RTVSPost2010Prop48
 90
       50
102
RTVSPost2010PropOp48
 70
     1
102
RTVSPost2010Prop49
280
     0
102
RTVSPost2010PropOp49
 70
     1
102
RTVSPost2010Prop50
 90
       50
102
RTVSPost2010PropOp50
 70
     1
102
RTVSPost2010Prop51ColorIndex
 90
      256
102
RTVSPost2010Prop51ColorRGB
 90
-16777216
102
RTVSPost2010PropOp51
 70
     0
102
RTVSPost2010Prop52
140
1.0
102
RTVSPost2010PropOp52
 70
     0
102
RTVSPost2010Prop53
 90
        2
102
RTVSPost2010PropOp53
 70
     1
102
RTVSPost2010Prop54
  1
strokes_ogs.tif
102
RTVSPost2010PropOp54
 70
     1
102
RTVSPost2010Prop55
280
     0
102
RTVSPost2010PropOp55
 70
     1
102
RTVSPost2010Prop56
140
1.0
102
RTVSPost2010PropOp56
 70
     1
102
RTVSPost2010Prop57
140
1.0
102
RTVSPost2010PropOp57
 70
     1
102
RTVSPropertyOp0
 70
     1
102
RTVSPropertyOp1
 70
     1
102
RTVSPropertyOp2
 70
     1
102
RTVSPropertyOp3
 70
     1
102
RTVSPropertyOp4
 70
     1
102
RTVSPropertyOp5
 70
     1
102
RTVSPropertyOp6
 70
     1
102
RTVSPropertyOp7
 70
     1
102
RTVSPropertyOp8
 70
     1
102
RTVSPropertyOp9
 70
     1
102
RTVSPropertyOp10
 70
     1
102
RTVSPropertyOp11
 70
     1
102
RTVSPropertyOp12
 70
     1
102
RTVSPropertyOp13
 70
     1
102
RTVSPropertyOp14
 70
     1
102
RTVSPropertyOp15
 70
     1
102
RTVSPropertyOp16
 70
     1
102
RTVSPropertyOp17
 70
     1
102
RTVSPropertyOp18
 70
     1
102
RTVSPropertyOp19
 70
     1
102
RTVSPropertyOp20
 70
     1
102
RTVSPropertyOp21
 70
     1
102
RTVSPropertyOp22
 70
     1
102
RTVSPropertyOp23
 70
     1
102
RTVSPropertyOp24
 70
     1
102
RTVSPropertyOp25
 70
     1
102
RTVSPropertyOp26
 70
     1
102
RTVSPropertyOp27
 70
     1
102
RTVSPropertyOp28
 70
     1
102
RTVSPropertyOp29
 70
     1
102
RTVSPropertyOp30
 70
     1
102
RTVSPropertyOp31
 70
     1
102
RTVSPropertyOp32
 70
     1
102
RTVSPropertyOp33
 70
     1
102
RTVSPropertyOp34
 70
     1
102
RTVSPropertyOp35
 70
     1
102
RTVSPropertyOp36
 70
     1
102
RTVSPropertyOp37
 70
     1
102
RTVSPropertyOp38
 70
     1
102
RTVSPropertyOp39
 70
     1
102
RTVSPropertyOp40
 70
     1
102
RTVSPropertyOp41
 70
     1
102
RTVSPropertyOp42
 70
     1
102
RTVSPropertyOp43
 70
     1
102
RTVSPropertyOp44
 70
     1
102
RTVSPropertyOp45
 70
     1
102
RTVSPropertyOp46
 70
     1
102
RTVSPropertyOp47
 70
     1
102
RTVSPropertyOp48
 70
     1
102
RTVSPropertyOp49
 70
     1
102
RTVSPropertyOp50
 70
     1
102
RTVSPropertyOp51
 70
     0
102
RTVSPropertyOp52
 70
     0
102
RTVSPropertyOp53
 70
     1
102
RTVSPropertyOp54
 70
     1
102
RTVSPropertyOp55
 70
     1
102
RTVSPropertyOp56
 70
     1
102
RTVSPropertyOp57
 70
     1
102
RTVSPropertyOp58
 70
     1
102
RTVSPropertyOp59
 70
     1
102
RTVSPropertyOp60
 70
     1
102
RTVSPropertyOp61
 70
     1
102
RTVSPropertyOp62
 70
     1
  0
XRECORD
  5
662
102
{ACAD_REACTORS
330
661
102
}
330
661
100
AcDbXrecord
280
     1
102
RTVSPost2010Prop28
280
     0
102
RTVSPost2010PropOp28
 70
     1
102
RTVSPost2010Prop29
280
     1
102
RTVSPost2010PropOp29
 70
     1
102
RTVSPost2010Prop30
280
     1
102
RTVSPost2010PropOp30
 70
     1
102
RTVSPost2010Prop31
280
     0
102
RTVSPost2010PropOp31
 70
     1
102
RTVSPost2010Prop32
280
     0
102
RTVSPost2010PropOp32
 70
     1
102
RTVSPost2010Prop33
280
     0
102
RTVSPost2010PropOp33
 70
     1
102
RTVSPost2010Prop34
280
     0
102
RTVSPost2010PropOp34
 70
     1
102
RTVSPost2010Prop35
280
     0
102
RTVSPost2010PropOp35
 70
     1
102
RTVSPost2010Prop36
280
     0
102
RTVSPost2010PropOp36
 70
     1
102
RTVSPost2010Prop37
 90
       50
102
RTVSPost2010PropOp37
 70
     1
102
RTVSPost2010Prop38
140
0.0
102
RTVSPost2010PropOp38
 70
     1
102
RTVSPost2010Prop39
140
1.0
102
RTVSPost2010PropOp39
 70
     1
102
RTVSPost2010Prop40
 90
        0
102
RTVSPost2010PropOp40
 70
     1
102
RTVSPost2010Prop41ColorIndex
 90
       18
102
RTVSPost2010Prop41ColorRGB
 90
        0
102
RTVSPost2010PropOp41
 70
     1
102
RTVSPost2010Prop42
 90
       50
102
RTVSPost2010PropOp42
 70
     1
102
RTVSPost2010Prop43
 90
        3
102
RTVSPost2010PropOp43
 70
     1
102
RTVSPost2010Prop44ColorIndex
 90
        5
102
RTVSPost2010Prop44ColorRGB
 90
      255
102
RTVSPost2010PropOp44
 70
     1
102
RTVSPost2010Prop45
280
     0
102
RTVSPost2010PropOp45
 70
     1
102
RTVSPost2010Prop46
 90
       50
102
RTVSPost2010PropOp46
 70
     1
102
RTVSPost2010Prop47
 90
       50
102
RTVSPost2010PropOp47
 70
     1
102
RTVSPost2010Prop48
 90
       50
102
RTVSPost2010PropOp48
 70
     1
102
RTVSPost2010Prop49
280
     0
102
RTVSPost2010PropOp49
 70
     1
102
RTVSPost2010Prop50
 90
       50
102
RTVSPost2010PropOp50
 70
     1
102
RTVSPost2010Prop51ColorIndex
 90
      256
102
RTVSPost2010Prop51ColorRGB
 90
-16777216
102
RTVSPost2010PropOp51
 70
     0
102
RTVSPost2010Prop52
140
1.0
102
RTVSPost2010PropOp52
 70
     0
102
RTVSPost2010Prop53
 90
        2
102
RTVSPost2010PropOp53
 70
     1
102
RTVSPost2010Prop54
  1
strokes_ogs.tif
102
RTVSPost2010PropOp54
 70
     1
102
RTVSPost2010Prop55
280
     0
102
RTVSPost2010PropOp55
 70
     1
102
RTVSPost2010Prop56
140
1.0
102
RTVSPost2010PropOp56
 70
     1
102
RTVSPost2010Prop57
140
1.0
102
RTVSPost2010PropOp57
 70
     1
102
RTVSPropertyOp0
 70
     1
102
RTVSPropertyOp1
 70
     1
102
RTVSPropertyOp2
 70
     1
102
RTVSPropertyOp3
 70
     1
102
RTVSPropertyOp4
 70
     1
102
RTVSPropertyOp5
 70
     1
102
RTVSPropertyOp6
 70
     1
102
RTVSPropertyOp7
 70
     1
102
RTVSPropertyOp8
 70
     1
102
RTVSPropertyOp9
 70
     1
102
RTVSPropertyOp10
 70
     1
102
RTVSPropertyOp11
 70
     1
102
RTVSPropertyOp12
 70
     1
102
RTVSPropertyOp13
 70
     1
102
RTVSPropertyOp14
 70
     1
102
RTVSPropertyOp15
 70
     1
102
RTVSPropertyOp16
 70
     1
102
RTVSPropertyOp17
 70
     1
102
RTVSPropertyOp18
 70
     1
102
RTVSPropertyOp19
 70
     1
102
RTVSPropertyOp20
 70
     1
102
RTVSPropertyOp21
 70
     1
102
RTVSPropertyOp22
 70
     1
102
RTVSPropertyOp23
 70
     1
102
RTVSPropertyOp24
 70
     1
102
RTVSPropertyOp25
 70
     1
102
RTVSPropertyOp26
 70
     1
102
RTVSPropertyOp27
 70
     1
102
RTVSPropertyOp28
 70
     1
102
RTVSPropertyOp29
 70
     1
102
RTVSPropertyOp30
 70
     1
102
RTVSPropertyOp31
 70
     1
102
RTVSPropertyOp32
 70
     1
102
RTVSPropertyOp33
 70
     1
102
RTVSPropertyOp34
 70
     1
102
RTVSPropertyOp35
 70
     1
102
RTVSPropertyOp36
 70
     1
102
RTVSPropertyOp37
 70
     1
102
RTVSPropertyOp38
 70
     1
102
RTVSPropertyOp39
 70
     1
102
RTVSPropertyOp40
 70
     1
102
RTVSPropertyOp41
 70
     1
102
RTVSPropertyOp42
 70
     1
102
RTVSPropertyOp43
 70
     1
102
RTVSPropertyOp44
 70
     1
102
RTVSPropertyOp45
 70
     1
102
RTVSPropertyOp46
 70
     1
102
RTVSPropertyOp47
 70
     1
102
RTVSPropertyOp48
 70
     1
102
RTVSPropertyOp49
 70
     1
102
RTVSPropertyOp50
 70
     1
102
RTVSPropertyOp51
 70
     0
102
RTVSPropertyOp52
 70
     0
102
RTVSPropertyOp53
 70
     1
102
RTVSPropertyOp54
 70
     1
102
RTVSPropertyOp55
 70
     1
102
RTVSPropertyOp56
 70
     1
102
RTVSPropertyOp57
 70
     1
102
RTVSPropertyOp58
 70
     1
102
RTVSPropertyOp59
 70
     1
102
RTVSPropertyOp60
 70
     1
102
RTVSPropertyOp61
 70
     1
102
RTVSPropertyOp62
 70
     1
  0
XRECORD
  5
664
102
{ACAD_REACTORS
330
663
102
}
330
663
100
AcDbXrecord
280
     1
102
RTVSPost2010Prop28
280
     0
102
RTVSPost2010PropOp28
 70
     1
102
RTVSPost2010Prop29
280
     1
102
RTVSPost2010PropOp29
 70
     1
102
RTVSPost2010Prop30
280
     1
102
RTVSPost2010PropOp30
 70
     1
102
RTVSPost2010Prop31
280
     0
102
RTVSPost2010PropOp31
 70
     1
102
RTVSPost2010Prop32
280
     0
102
RTVSPost2010PropOp32
 70
     1
102
RTVSPost2010Prop33
280
     0
102
RTVSPost2010PropOp33
 70
     1
102
RTVSPost2010Prop34
280
     0
102
RTVSPost2010PropOp34
 70
     1
102
RTVSPost2010Prop35
280
     0
102
RTVSPost2010PropOp35
 70
     1
102
RTVSPost2010Prop36
280
     0
102
RTVSPost2010PropOp36
 70
     1
102
RTVSPost2010Prop37
 90
       50
102
RTVSPost2010PropOp37
 70
     1
102
RTVSPost2010Prop38
140
0.0
102
RTVSPost2010PropOp38
 70
     1
102
RTVSPost2010Prop39
140
1.0
102
RTVSPost2010PropOp39
 70
     1
102
RTVSPost2010Prop40
 90
        0
102
RTVSPost2010PropOp40
 70
     1
102
RTVSPost2010Prop41ColorIndex
 90
       18
102
RTVSPost2010Prop41ColorRGB
 90
        0
102
RTVSPost2010PropOp41
 70
     1
102
RTVSPost2010Prop42
 90
       50
102
RTVSPost2010PropOp42
 70
     1
102
RTVSPost2010Prop43
 90
        3
102
RTVSPost2010PropOp43
 70
     1
102
RTVSPost2010Prop44ColorIndex
 90
        5
102
RTVSPost2010Prop44ColorRGB
 90
      255
102
RTVSPost2010PropOp44
 70
     1
102
RTVSPost2010Prop45
280
     0
102
RTVSPost2010PropOp45
 70
     1
102
RTVSPost2010Prop46
 90
       50
102
RTVSPost2010PropOp46
 70
     1
102
RTVSPost2010Prop47
 90
       50
102
RTVSPost2010PropOp47
 70
     1
102
RTVSPost2010Prop48
 90
       50
102
RTVSPost2010PropOp48
 70
     1
102
RTVSPost2010Prop49
280
     0
102
RTVSPost2010PropOp49
 70
     1
102
RTVSPost2010Prop50
 90
       50
102
RTVSPost2010PropOp50
 70
     1
102
RTVSPost2010Prop51ColorIndex
 90
      256
102
RTVSPost2010Prop51ColorRGB
 90
-16777216
102
RTVSPost2010PropOp51
 70
     0
102
RTVSPost2010Prop52
140
1.0
102
RTVSPost2010PropOp52
 70
     0
102
RTVSPost2010Prop53
 90
        2
102
RTVSPost2010PropOp53
 70
     1
102
RTVSPost2010Prop54
  1
strokes_ogs.tif
102
RTVSPost2010PropOp54
 70
     1
102
RTVSPost2010Prop55
280
     0
102
RTVSPost2010PropOp55
 70
     1
102
RTVSPost2010Prop56
140
1.0
102
RTVSPost2010PropOp56
 70
     1
102
RTVSPost2010Prop57
140
1.0
102
RTVSPost2010PropOp57
 70
     1
102
RTVSPropertyOp0
 70
     1
102
RTVSPropertyOp1
 70
     1
102
RTVSPropertyOp2
 70
     1
102
RTVSPropertyOp3
 70
     1
102
RTVSPropertyOp4
 70
     1
102
RTVSPropertyOp5
 70
     1
102
RTVSPropertyOp6
 70
     1
102
RTVSPropertyOp7
 70
     1
102
RTVSPropertyOp8
 70
     1
102
RTVSPropertyOp9
 70
     1
102
RTVSPropertyOp10
 70
     1
102
RTVSPropertyOp11
 70
     1
102
RTVSPropertyOp12
 70
     1
102
RTVSPropertyOp13
 70
     1
102
RTVSPropertyOp14
 70
     1
102
RTVSPropertyOp15
 70
     1
102
RTVSPropertyOp16
 70
     1
102
RTVSPropertyOp17
 70
     1
102
RTVSPropertyOp18
 70
     1
102
RTVSPropertyOp19
 70
     1
102
RTVSPropertyOp20
 70
     1
102
RTVSPropertyOp21
 70
     1
102
RTVSPropertyOp22
 70
     1
102
RTVSPropertyOp23
 70
     1
102
RTVSPropertyOp24
 70
     1
102
RTVSPropertyOp25
 70
     1
102
RTVSPropertyOp26
 70
     1
102
RTVSPropertyOp27
 70
     1
102
RTVSPropertyOp28
 70
     1
102
RTVSPropertyOp29
 70
     1
102
RTVSPropertyOp30
 70
     1
102
RTVSPropertyOp31
 70
     1
102
RTVSPropertyOp32
 70
     1
102
RTVSPropertyOp33
 70
     1
102
RTVSPropertyOp34
 70
     1
102
RTVSPropertyOp35
 70
     1
102
RTVSPropertyOp36
 70
     1
102
RTVSPropertyOp37
 70
     1
102
RTVSPropertyOp38
 70
     1
102
RTVSPropertyOp39
 70
     1
102
RTVSPropertyOp40
 70
     1
102
RTVSPropertyOp41
 70
     1
102
RTVSPropertyOp42
 70
     1
102
RTVSPropertyOp43
 70
     1
102
RTVSPropertyOp44
 70
     1
102
RTVSPropertyOp45
 70
     1
102
RTVSPropertyOp46
 70
     1
102
RTVSPropertyOp47
 70
     1
102
RTVSPropertyOp48
 70
     1
102
RTVSPropertyOp49
 70
     1
102
RTVSPropertyOp50
 70
     1
102
RTVSPropertyOp51
 70
     0
102
RTVSPropertyOp52
 70
     0
102
RTVSPropertyOp53
 70
     1
102
RTVSPropertyOp54
 70
     1
102
RTVSPropertyOp55
 70
     1
102
RTVSPropertyOp56
 70
     1
102
RTVSPropertyOp57
 70
     1
102
RTVSPropertyOp58
 70
     1
102
RTVSPropertyOp59
 70
     1
102
RTVSPropertyOp60
 70
     1
102
RTVSPropertyOp61
 70
     1
102
RTVSPropertyOp62
 70
     1
  0
XRECORD
  5
666
102
{ACAD_REACTORS
330
665
102
}
330
665
100
AcDbXrecord
280
     1
102
RTVSPost2010Prop28
280
     0
102
RTVSPost2010PropOp28
 70
     1
102
RTVSPost2010Prop29
280
     1
102
RTVSPost2010PropOp29
 70
     1
102
RTVSPost2010Prop30
280
     1
102
RTVSPost2010PropOp30
 70
     1
102
RTVSPost2010Prop31
280
     0
102
RTVSPost2010PropOp31
 70
     1
102
RTVSPost2010Prop32
280
     0
102
RTVSPost2010PropOp32
 70
     1
102
RTVSPost2010Prop33
280
     0
102
RTVSPost2010PropOp33
 70
     1
102
RTVSPost2010Prop34
280
     0
102
RTVSPost2010PropOp34
 70
     1
102
RTVSPost2010Prop35
280
     0
102
RTVSPost2010PropOp35
 70
     1
102
RTVSPost2010Prop36
280
     0
102
RTVSPost2010PropOp36
 70
     1
102
RTVSPost2010Prop37
 90
       50
102
RTVSPost2010PropOp37
 70
     1
102
RTVSPost2010Prop38
140
0.0
102
RTVSPost2010PropOp38
 70
     1
102
RTVSPost2010Prop39
140
1.0
102
RTVSPost2010PropOp39
 70
     1
102
RTVSPost2010Prop40
 90
        0
102
RTVSPost2010PropOp40
 70
     1
102
RTVSPost2010Prop41ColorIndex
 90
       18
102
RTVSPost2010Prop41ColorRGB
 90
        0
102
RTVSPost2010PropOp41
 70
     1
102
RTVSPost2010Prop42
 90
       50
102
RTVSPost2010PropOp42
 70
     1
102
RTVSPost2010Prop43
 90
        3
102
RTVSPost2010PropOp43
 70
     1
102
RTVSPost2010Prop44ColorIndex
 90
        5
102
RTVSPost2010Prop44ColorRGB
 90
      255
102
RTVSPost2010PropOp44
 70
     1
102
RTVSPost2010Prop45
280
     0
102
RTVSPost2010PropOp45
 70
     1
102
RTVSPost2010Prop46
 90
       50
102
RTVSPost2010PropOp46
 70
     1
102
RTVSPost2010Prop47
 90
       50
102
RTVSPost2010PropOp47
 70
     1
102
RTVSPost2010Prop48
 90
       50
102
RTVSPost2010PropOp48
 70
     1
102
RTVSPost2010Prop49
280
     0
102
RTVSPost2010PropOp49
 70
     1
102
RTVSPost2010Prop50
 90
       50
102
RTVSPost2010PropOp50
 70
     1
102
RTVSPost2010Prop51ColorIndex
 90
      256
102
RTVSPost2010Prop51ColorRGB
 90
-16777216
102
RTVSPost2010PropOp51
 70
     0
102
RTVSPost2010Prop52
140
1.0
102
RTVSPost2010PropOp52
 70
     0
102
RTVSPost2010Prop53
 90
        2
102
RTVSPost2010PropOp53
 70
     1
102
RTVSPost2010Prop54
  1
strokes_ogs.tif
102
RTVSPost2010PropOp54
 70
     1
102
RTVSPost2010Prop55
280
     0
102
RTVSPost2010PropOp55
 70
     1
102
RTVSPost2010Prop56
140
1.0
102
RTVSPost2010PropOp56
 70
     1
102
RTVSPost2010Prop57
140
1.0
102
RTVSPost2010PropOp57
 70
     1
102
RTVSPropertyOp0
 70
     1
102
RTVSPropertyOp1
 70
     1
102
RTVSPropertyOp2
 70
     1
102
RTVSPropertyOp3
 70
     1
102
RTVSPropertyOp4
 70
     1
102
RTVSPropertyOp5
 70
     1
102
RTVSPropertyOp6
 70
     1
102
RTVSPropertyOp7
 70
     1
102
RTVSPropertyOp8
 70
     1
102
RTVSPropertyOp9
 70
     1
102
RTVSPropertyOp10
 70
     1
102
RTVSPropertyOp11
 70
     1
102
RTVSPropertyOp12
 70
     1
102
RTVSPropertyOp13
 70
     1
102
RTVSPropertyOp14
 70
     1
102
RTVSPropertyOp15
 70
     1
102
RTVSPropertyOp16
 70
     1
102
RTVSPropertyOp17
 70
     1
102
RTVSPropertyOp18
 70
     1
102
RTVSPropertyOp19
 70
     1
102
RTVSPropertyOp20
 70
     1
102
RTVSPropertyOp21
 70
     1
102
RTVSPropertyOp22
 70
     1
102
RTVSPropertyOp23
 70
     1
102
RTVSPropertyOp24
 70
     1
102
RTVSPropertyOp25
 70
     1
102
RTVSPropertyOp26
 70
     1
102
RTVSPropertyOp27
 70
     1
102
RTVSPropertyOp28
 70
     1
102
RTVSPropertyOp29
 70
     1
102
RTVSPropertyOp30
 70
     1
102
RTVSPropertyOp31
 70
     1
102
RTVSPropertyOp32
 70
     1
102
RTVSPropertyOp33
 70
     1
102
RTVSPropertyOp34
 70
     1
102
RTVSPropertyOp35
 70
     1
102
RTVSPropertyOp36
 70
     1
102
RTVSPropertyOp37
 70
     1
102
RTVSPropertyOp38
 70
     1
102
RTVSPropertyOp39
 70
     1
102
RTVSPropertyOp40
 70
     1
102
RTVSPropertyOp41
 70
     1
102
RTVSPropertyOp42
 70
     1
102
RTVSPropertyOp43
 70
     1
102
RTVSPropertyOp44
 70
     1
102
RTVSPropertyOp45
 70
     1
102
RTVSPropertyOp46
 70
     1
102
RTVSPropertyOp47
 70
     1
102
RTVSPropertyOp48
 70
     1
102
RTVSPropertyOp49
 70
     1
102
RTVSPropertyOp50
 70
     1
102
RTVSPropertyOp51
 70
     0
102
RTVSPropertyOp52
 70
     0
102
RTVSPropertyOp53
 70
     1
102
RTVSPropertyOp54
 70
     1
102
RTVSPropertyOp55
 70
     1
102
RTVSPropertyOp56
 70
     1
102
RTVSPropertyOp57
 70
     1
102
RTVSPropertyOp58
 70
     1
102
RTVSPropertyOp59
 70
     1
102
RTVSPropertyOp60
 70
     1
102
RTVSPropertyOp61
 70
     1
102
RTVSPropertyOp62
 70
     1
  0
XRECORD
  5
66E
102
{ACAD_REACTORS
330
66D
102
}
330
66D
100
AcDbXrecord
280
     1
102
RTVSPost2010Prop28
280
     0
102
RTVSPost2010PropOp28
 70
     1
102
RTVSPost2010Prop29
280
     1
102
RTVSPost2010PropOp29
 70
     1
102
RTVSPost2010Prop30
280
     1
102
RTVSPost2010PropOp30
 70
     1
102
RTVSPost2010Prop31
280
     0
102
RTVSPost2010PropOp31
 70
     1
102
RTVSPost2010Prop32
280
     0
102
RTVSPost2010PropOp32
 70
     1
102
RTVSPost2010Prop33
280
     0
102
RTVSPost2010PropOp33
 70
     1
102
RTVSPost2010Prop34
280
     0
102
RTVSPost2010PropOp34
 70
     1
102
RTVSPost2010Prop35
280
     0
102
RTVSPost2010PropOp35
 70
     1
102
RTVSPost2010Prop36
280
     0
102
RTVSPost2010PropOp36
 70
     1
102
RTVSPost2010Prop37
 90
       50
102
RTVSPost2010PropOp37
 70
     1
102
RTVSPost2010Prop38
140
0.0
102
RTVSPost2010PropOp38
 70
     1
102
RTVSPost2010Prop39
140
1.0
102
RTVSPost2010PropOp39
 70
     1
102
RTVSPost2010Prop40
 90
        0
102
RTVSPost2010PropOp40
 70
     1
102
RTVSPost2010Prop41ColorIndex
 90
       18
102
RTVSPost2010Prop41ColorRGB
 90
        0
102
RTVSPost2010PropOp41
 70
     1
102
RTVSPost2010Prop42
 90
       50
102
RTVSPost2010PropOp42
 70
     1
102
RTVSPost2010Prop43
 90
        3
102
RTVSPost2010PropOp43
 70
     1
102
RTVSPost2010Prop44ColorIndex
 90
        5
102
RTVSPost2010Prop44ColorRGB
 90
      255
102
RTVSPost2010PropOp44
 70
     1
102
RTVSPost2010Prop45
280
     0
102
RTVSPost2010PropOp45
 70
     1
102
RTVSPost2010Prop46
 90
       50
102
RTVSPost2010PropOp46
 70
     1
102
RTVSPost2010Prop47
 90
       50
102
RTVSPost2010PropOp47
 70
     1
102
RTVSPost2010Prop48
 90
       50
102
RTVSPost2010PropOp48
 70
     1
102
RTVSPost2010Prop49
280
     0
102
RTVSPost2010PropOp49
 70
     1
102
RTVSPost2010Prop50
 90
       50
102
RTVSPost2010PropOp50
 70
     1
102
RTVSPost2010Prop51ColorIndex
 90
      256
102
RTVSPost2010Prop51ColorRGB
 90
-16777216
102
RTVSPost2010PropOp51
 70
     0
102
RTVSPost2010Prop52
140
1.0
102
RTVSPost2010PropOp52
 70
     0
102
RTVSPost2010Prop53
 90
        2
102
RTVSPost2010PropOp53
 70
     1
102
RTVSPost2010Prop54
  1
strokes_ogs.tif
102
RTVSPost2010PropOp54
 70
     1
102
RTVSPost2010Prop55
280
     0
102
RTVSPost2010PropOp55
 70
     1
102
RTVSPost2010Prop56
140
1.0
102
RTVSPost2010PropOp56
 70
     1
102
RTVSPost2010Prop57
140
1.0
102
RTVSPost2010PropOp57
 70
     1
102
RTVSPropertyOp0
 70
     1
102
RTVSPropertyOp1
 70
     1
102
RTVSPropertyOp2
 70
     1
102
RTVSPropertyOp3
 70
     1
102
RTVSPropertyOp4
 70
     1
102
RTVSPropertyOp5
 70
     1
102
RTVSPropertyOp6
 70
     1
102
RTVSPropertyOp7
 70
     1
102
RTVSPropertyOp8
 70
     1
102
RTVSPropertyOp9
 70
     1
102
RTVSPropertyOp10
 70
     1
102
RTVSPropertyOp11
 70
     1
102
RTVSPropertyOp12
 70
     1
102
RTVSPropertyOp13
 70
     1
102
RTVSPropertyOp14
 70
     1
102
RTVSPropertyOp15
 70
     1
102
RTVSPropertyOp16
 70
     1
102
RTVSPropertyOp17
 70
     1
102
RTVSPropertyOp18
 70
     1
102
RTVSPropertyOp19
 70
     1
102
RTVSPropertyOp20
 70
     1
102
RTVSPropertyOp21
 70
     1
102
RTVSPropertyOp22
 70
     1
102
RTVSPropertyOp23
 70
     1
102
RTVSPropertyOp24
 70
     1
102
RTVSPropertyOp25
 70
     1
102
RTVSPropertyOp26
 70
     1
102
RTVSPropertyOp27
 70
     1
102
RTVSPropertyOp28
 70
     1
102
RTVSPropertyOp29
 70
     1
102
RTVSPropertyOp30
 70
     1
102
RTVSPropertyOp31
 70
     1
102
RTVSPropertyOp32
 70
     1
102
RTVSPropertyOp33
 70
     1
102
RTVSPropertyOp34
 70
     1
102
RTVSPropertyOp35
 70
     1
102
RTVSPropertyOp36
 70
     1
102
RTVSPropertyOp37
 70
     1
102
RTVSPropertyOp38
 70
     1
102
RTVSPropertyOp39
 70
     1
102
RTVSPropertyOp40
 70
     1
102
RTVSPropertyOp41
 70
     1
102
RTVSPropertyOp42
 70
     1
102
RTVSPropertyOp43
 70
     1
102
RTVSPropertyOp44
 70
     1
102
RTVSPropertyOp45
 70
     1
102
RTVSPropertyOp46
 70
     1
102
RTVSPropertyOp47
 70
     1
102
RTVSPropertyOp48
 70
     1
102
RTVSPropertyOp49
 70
     1
102
RTVSPropertyOp50
 70
     1
102
RTVSPropertyOp51
 70
     0
102
RTVSPropertyOp52
 70
     0
102
RTVSPropertyOp53
 70
     1
102
RTVSPropertyOp54
 70
     1
102
RTVSPropertyOp55
 70
     1
102
RTVSPropertyOp56
 70
     1
102
RTVSPropertyOp57
 70
     1
102
RTVSPropertyOp58
 70
     1
102
RTVSPropertyOp59
 70
     1
102
RTVSPropertyOp60
 70
     1
102
RTVSPropertyOp61
 70
     1
102
RTVSPropertyOp62
 70
     1
  0
XRECORD
  5
68A
102
{ACAD_REACTORS
330
689
102
}
330
689
100
AcDbXrecord
280
     1
102
RTVSPost2010Prop28
280
     0
102
RTVSPost2010PropOp28
 70
     0
102
RTVSPost2010Prop29
280
     1
102
RTVSPost2010PropOp29
 70
     0
102
RTVSPost2010Prop30
280
     1
102
RTVSPost2010PropOp30
 70
     0
102
RTVSPost2010Prop31
280
     0
102
RTVSPost2010PropOp31
 70
     0
102
RTVSPost2010Prop32
280
     0
102
RTVSPost2010PropOp32
 70
     0
102
RTVSPost2010Prop33
280
     0
102
RTVSPost2010PropOp33
 70
     0
102
RTVSPost2010Prop34
280
     0
102
RTVSPost2010PropOp34
 70
     0
102
RTVSPost2010Prop35
280
     0
102
RTVSPost2010PropOp35
 70
     0
102
RTVSPost2010Prop36
280
     0
102
RTVSPost2010PropOp36
 70
     0
102
RTVSPost2010Prop37
 90
       50
102
RTVSPost2010PropOp37
 70
     0
102
RTVSPost2010Prop38
140
0.0
102
RTVSPost2010PropOp38
 70
     0
102
RTVSPost2010Prop39
140
1.0
102
RTVSPost2010PropOp39
 70
     0
102
RTVSPost2010Prop40
 90
        0
102
RTVSPost2010PropOp40
 70
     0
102
RTVSPost2010Prop41ColorIndex
 90
       18
102
RTVSPost2010Prop41ColorRGB
 90
        0
102
RTVSPost2010PropOp41
 70
     0
102
RTVSPost2010Prop42
 90
       50
102
RTVSPost2010PropOp42
 70
     0
102
RTVSPost2010Prop43
 90
        3
102
RTVSPost2010PropOp43
 70
     0
102
RTVSPost2010Prop44ColorIndex
 90
        5
102
RTVSPost2010Prop44ColorRGB
 90
      255
102
RTVSPost2010PropOp44
 70
     0
102
RTVSPost2010Prop45
280
     0
102
RTVSPost2010PropOp45
 70
     0
102
RTVSPost2010Prop46
 90
       50
102
RTVSPost2010PropOp46
 70
     0
102
RTVSPost2010Prop47
 90
       50
102
RTVSPost2010PropOp47
 70
     0
102
RTVSPost2010Prop48
 90
       50
102
RTVSPost2010PropOp48
 70
     0
102
RTVSPost2010Prop49
280
     0
102
RTVSPost2010PropOp49
 70
     0
102
RTVSPost2010Prop50
 90
       50
102
RTVSPost2010PropOp50
 70
     0
102
RTVSPost2010Prop51ColorIndex
 90
      256
102
RTVSPost2010Prop51ColorRGB
 90
-16777216
102
RTVSPost2010PropOp51
 70
     0
102
RTVSPost2010Prop52
140
1.0
102
RTVSPost2010PropOp52
 70
     0
102
RTVSPost2010Prop53
 90
        2
102
RTVSPost2010PropOp53
 70
     0
102
RTVSPost2010Prop54
  1
strokes_ogs.tif
102
RTVSPost2010PropOp54
 70
     0
102
RTVSPost2010Prop55
280
     0
102
RTVSPost2010PropOp55
 70
     0
102
RTVSPost2010Prop56
140
1.0
102
RTVSPost2010PropOp56
 70
     0
102
RTVSPost2010Prop57
140
1.0
102
RTVSPost2010PropOp57
 70
     0
102
RTVSPropertyOp0
 70
     0
102
RTVSPropertyOp1
 70
     0
102
RTVSPropertyOp2
 70
     0
102
RTVSPropertyOp3
 70
     0
102
RTVSPropertyOp4
 70
     0
102
RTVSPropertyOp5
 70
     0
102
RTVSPropertyOp6
 70
     0
102
RTVSPropertyOp7
 70
     0
102
RTVSPropertyOp8
 70
     0
102
RTVSPropertyOp9
 70
     0
102
RTVSPropertyOp10
 70
     0
102
RTVSPropertyOp11
 70
     0
102
RTVSPropertyOp12
 70
     0
102
RTVSPropertyOp13
 70
     0
102
RTVSPropertyOp14
 70
     2
102
RTVSPropertyOp15
 70
     0
102
RTVSPropertyOp16
 70
     0
102
RTVSPropertyOp17
 70
     0
102
RTVSPropertyOp18
 70
     0
102
RTVSPropertyOp19
 70
     0
102
RTVSPropertyOp20
 70
     0
102
RTVSPropertyOp21
 70
     0
102
RTVSPropertyOp22
 70
     0
102
RTVSPropertyOp23
 70
     0
102
RTVSPropertyOp24
 70
     0
102
RTVSPropertyOp25
 70
     0
102
RTVSPropertyOp26
 70
     0
102
RTVSPropertyOp27
 70
     0
102
RTVSPropertyOp28
 70
     0
102
RTVSPropertyOp29
 70
     0
102
RTVSPropertyOp30
 70
     0
102
RTVSPropertyOp31
 70
     0
102
RTVSPropertyOp32
 70
     0
102
RTVSPropertyOp33
 70
     0
102
RTVSPropertyOp34
 70
     0
102
RTVSPropertyOp35
 70
     0
102
RTVSPropertyOp36
 70
     0
102
RTVSPropertyOp37
 70
     0
102
RTVSPropertyOp38
 70
     0
102
RTVSPropertyOp39
 70
     0
102
RTVSPropertyOp40
 70
     0
102
RTVSPropertyOp41
 70
     0
102
RTVSPropertyOp42
 70
     0
102
RTVSPropertyOp43
 70
     0
102
RTVSPropertyOp44
 70
     0
102
RTVSPropertyOp45
 70
     0
102
RTVSPropertyOp46
 70
     0
102
RTVSPropertyOp47
 70
     0
102
RTVSPropertyOp48
 70
     0
102
RTVSPropertyOp49
 70
     0
102
RTVSPropertyOp50
 70
     0
102
RTVSPropertyOp51
 70
     0
102
RTVSPropertyOp52
 70
     0
102
RTVSPropertyOp53
 70
     0
102
RTVSPropertyOp54
 70
     0
102
RTVSPropertyOp55
 70
     0
102
RTVSPropertyOp56
 70
     0
102
RTVSPropertyOp57
 70
     0
102
RTVSPropertyOp58
 70
     0
102
RTVSPropertyOp59
 70
     0
102
RTVSPropertyOp60
 70
     0
102
RTVSPropertyOp61
 70
     0
102
RTVSPropertyOp62
 70
     0
  0
XRECORD
  5
67A
102
{ACAD_REACTORS
330
679
102
}
330
679
100
AcDbXrecord
280
     1
102
RTVSPost2010Prop28
280
     0
102
RTVSPost2010PropOp28
 70
     1
102
RTVSPost2010Prop29
280
     1
102
RTVSPost2010PropOp29
 70
     1
102
RTVSPost2010Prop30
280
     1
102
RTVSPost2010PropOp30
 70
     1
102
RTVSPost2010Prop31
280
     0
102
RTVSPost2010PropOp31
 70
     1
102
RTVSPost2010Prop32
280
     0
102
RTVSPost2010PropOp32
 70
     1
102
RTVSPost2010Prop33
280
     0
102
RTVSPost2010PropOp33
 70
     1
102
RTVSPost2010Prop34
280
     0
102
RTVSPost2010PropOp34
 70
     1
102
RTVSPost2010Prop35
280
     0
102
RTVSPost2010PropOp35
 70
     1
102
RTVSPost2010Prop36
280
     0
102
RTVSPost2010PropOp36
 70
     1
102
RTVSPost2010Prop37
 90
       50
102
RTVSPost2010PropOp37
 70
     1
102
RTVSPost2010Prop38
140
0.0
102
RTVSPost2010PropOp38
 70
     1
102
RTVSPost2010Prop39
140
1.0
102
RTVSPost2010PropOp39
 70
     1
102
RTVSPost2010Prop40
 90
        0
102
RTVSPost2010PropOp40
 70
     1
102
RTVSPost2010Prop41ColorIndex
 90
       18
102
RTVSPost2010Prop41ColorRGB
 90
        0
102
RTVSPost2010PropOp41
 70
     1
102
RTVSPost2010Prop42
 90
       50
102
RTVSPost2010PropOp42
 70
     1
102
RTVSPost2010Prop43
 90
        3
102
RTVSPost2010PropOp43
 70
     1
102
RTVSPost2010Prop44ColorIndex
 90
        5
102
RTVSPost2010Prop44ColorRGB
 90
      255
102
RTVSPost2010PropOp44
 70
     1
102
RTVSPost2010Prop45
280
     0
102
RTVSPost2010PropOp45
 70
     1
102
RTVSPost2010Prop46
 90
       50
102
RTVSPost2010PropOp46
 70
     1
102
RTVSPost2010Prop47
 90
       50
102
RTVSPost2010PropOp47
 70
     1
102
RTVSPost2010Prop48
 90
       50
102
RTVSPost2010PropOp48
 70
     1
102
RTVSPost2010Prop49
280
     0
102
RTVSPost2010PropOp49
 70
     1
102
RTVSPost2010Prop50
 90
       50
102
RTVSPost2010PropOp50
 70
     1
102
RTVSPost2010Prop51ColorIndex
 90
      256
102
RTVSPost2010Prop51ColorRGB
 90
-16777216
102
RTVSPost2010PropOp51
 70
     0
102
RTVSPost2010Prop52
140
1.0
102
RTVSPost2010PropOp52
 70
     0
102
RTVSPost2010Prop53
 90
        2
102
RTVSPost2010PropOp53
 70
     1
102
RTVSPost2010Prop54
  1
strokes_ogs.tif
102
RTVSPost2010PropOp54
 70
     1
102
RTVSPost2010Prop55
280
     0
102
RTVSPost2010PropOp55
 70
     1
102
RTVSPost2010Prop56
140
1.0
102
RTVSPost2010PropOp56
 70
     1
102
RTVSPost2010Prop57
140
1.0
102
RTVSPost2010PropOp57
 70
     1
102
RTVSPropertyOp0
 70
     1
102
RTVSPropertyOp1
 70
     1
102
RTVSPropertyOp2
 70
     1
102
RTVSPropertyOp3
 70
     1
102
RTVSPropertyOp4
 70
     1
102
RTVSPropertyOp5
 70
     1
102
RTVSPropertyOp6
 70
     1
102
RTVSPropertyOp7
 70
     1
102
RTVSPropertyOp8
 70
     1
102
RTVSPropertyOp9
 70
     1
102
RTVSPropertyOp10
 70
     1
102
RTVSPropertyOp11
 70
     1
102
RTVSPropertyOp12
 70
     1
102
RTVSPropertyOp13
 70
     1
102
RTVSPropertyOp14
 70
     1
102
RTVSPropertyOp15
 70
     1
102
RTVSPropertyOp16
 70
     1
102
RTVSPropertyOp17
 70
     1
102
RTVSPropertyOp18
 70
     1
102
RTVSPropertyOp19
 70
     1
102
RTVSPropertyOp20
 70
     1
102
RTVSPropertyOp21
 70
     1
102
RTVSPropertyOp22
 70
     1
102
RTVSPropertyOp23
 70
     1
102
RTVSPropertyOp24
 70
     1
102
RTVSPropertyOp25
 70
     1
102
RTVSPropertyOp26
 70
     1
102
RTVSPropertyOp27
 70
     1
102
RTVSPropertyOp28
 70
     1
102
RTVSPropertyOp29
 70
     1
102
RTVSPropertyOp30
 70
     1
102
RTVSPropertyOp31
 70
     1
102
RTVSPropertyOp32
 70
     1
102
RTVSPropertyOp33
 70
     1
102
RTVSPropertyOp34
 70
     1
102
RTVSPropertyOp35
 70
     1
102
RTVSPropertyOp36
 70
     1
102
RTVSPropertyOp37
 70
     1
102
RTVSPropertyOp38
 70
     1
102
RTVSPropertyOp39
 70
     1
102
RTVSPropertyOp40
 70
     1
102
RTVSPropertyOp41
 70
     1
102
RTVSPropertyOp42
 70
     1
102
RTVSPropertyOp43
 70
     1
102
RTVSPropertyOp44
 70
     1
102
RTVSPropertyOp45
 70
     1
102
RTVSPropertyOp46
 70
     1
102
RTVSPropertyOp47
 70
     1
102
RTVSPropertyOp48
 70
     1
102
RTVSPropertyOp49
 70
     1
102
RTVSPropertyOp50
 70
     1
102
RTVSPropertyOp51
 70
     0
102
RTVSPropertyOp52
 70
     0
102
RTVSPropertyOp53
 70
     1
102
RTVSPropertyOp54
 70
     1
102
RTVSPropertyOp55
 70
     1
102
RTVSPropertyOp56
 70
     1
102
RTVSPropertyOp57
 70
     1
102
RTVSPropertyOp58
 70
     1
102
RTVSPropertyOp59
 70
     1
102
RTVSPropertyOp60
 70
     1
102
RTVSPropertyOp61
 70
     1
102
RTVSPropertyOp62
 70
     1
  0
XRECORD
  5
68C
102
{ACAD_REACTORS
330
68B
102
}
330
68B
100
AcDbXrecord
280
     1
102
RTVSPost2010Prop28
280
     0
102
RTVSPost2010PropOp28
 70
     0
102
RTVSPost2010Prop29
280
     1
102
RTVSPost2010PropOp29
 70
     0
102
RTVSPost2010Prop30
280
     1
102
RTVSPost2010PropOp30
 70
     0
102
RTVSPost2010Prop31
280
     0
102
RTVSPost2010PropOp31
 70
     0
102
RTVSPost2010Prop32
280
     0
102
RTVSPost2010PropOp32
 70
     0
102
RTVSPost2010Prop33
280
     0
102
RTVSPost2010PropOp33
 70
     0
102
RTVSPost2010Prop34
280
     0
102
RTVSPost2010PropOp34
 70
     0
102
RTVSPost2010Prop35
280
     0
102
RTVSPost2010PropOp35
 70
     0
102
RTVSPost2010Prop36
280
     0
102
RTVSPost2010PropOp36
 70
     0
102
RTVSPost2010Prop37
 90
       50
102
RTVSPost2010PropOp37
 70
     0
102
RTVSPost2010Prop38
140
0.0
102
RTVSPost2010PropOp38
 70
     0
102
RTVSPost2010Prop39
140
1.0
102
RTVSPost2010PropOp39
 70
     0
102
RTVSPost2010Prop40
 90
        0
102
RTVSPost2010PropOp40
 70
     0
102
RTVSPost2010Prop41ColorIndex
 90
       18
102
RTVSPost2010Prop41ColorRGB
 90
        0
102
RTVSPost2010PropOp41
 70
     0
102
RTVSPost2010Prop42
 90
       50
102
RTVSPost2010PropOp42
 70
     0
102
RTVSPost2010Prop43
 90
        3
102
RTVSPost2010PropOp43
 70
     0
102
RTVSPost2010Prop44ColorIndex
 90
        5
102
RTVSPost2010Prop44ColorRGB
 90
      255
102
RTVSPost2010PropOp44
 70
     0
102
RTVSPost2010Prop45
280
     0
102
RTVSPost2010PropOp45
 70
     0
102
RTVSPost2010Prop46
 90
       50
102
RTVSPost2010PropOp46
 70
     0
102
RTVSPost2010Prop47
 90
       50
102
RTVSPost2010PropOp47
 70
     0
102
RTVSPost2010Prop48
 90
       50
102
RTVSPost2010PropOp48
 70
     0
102
RTVSPost2010Prop49
280
     0
102
RTVSPost2010PropOp49
 70
     0
102
RTVSPost2010Prop50
 90
       50
102
RTVSPost2010PropOp50
 70
     0
102
RTVSPost2010Prop51ColorIndex
 90
      256
102
RTVSPost2010Prop51ColorRGB
 90
-16777216
102
RTVSPost2010PropOp51
 70
     0
102
RTVSPost2010Prop52
140
1.0
102
RTVSPost2010PropOp52
 70
     0
102
RTVSPost2010Prop53
 90
        2
102
RTVSPost2010PropOp53
 70
     0
102
RTVSPost2010Prop54
  1
strokes_ogs.tif
102
RTVSPost2010PropOp54
 70
     0
102
RTVSPost2010Prop55
280
     0
102
RTVSPost2010PropOp55
 70
     0
102
RTVSPost2010Prop56
140
1.0
102
RTVSPost2010PropOp56
 70
     0
102
RTVSPost2010Prop57
140
1.0
102
RTVSPost2010PropOp57
 70
     0
102
RTVSPropertyOp0
 70
     0
102
RTVSPropertyOp1
 70
     0
102
RTVSPropertyOp2
 70
     0
102
RTVSPropertyOp3
 70
     0
102
RTVSPropertyOp4
 70
     0
102
RTVSPropertyOp5
 70
     0
102
RTVSPropertyOp6
 70
     0
102
RTVSPropertyOp7
 70
     0
102
RTVSPropertyOp8
 70
     0
102
RTVSPropertyOp9
 70
     0
102
RTVSPropertyOp10
 70
     0
102
RTVSPropertyOp11
 70
     0
102
RTVSPropertyOp12
 70
     0
102
RTVSPropertyOp13
 70
     0
102
RTVSPropertyOp14
 70
     2
102
RTVSPropertyOp15
 70
     0
102
RTVSPropertyOp16
 70
     0
102
RTVSPropertyOp17
 70
     0
102
RTVSPropertyOp18
 70
     0
102
RTVSPropertyOp19
 70
     0
102
RTVSPropertyOp20
 70
     0
102
RTVSPropertyOp21
 70
     0
102
RTVSPropertyOp22
 70
     0
102
RTVSPropertyOp23
 70
     0
102
RTVSPropertyOp24
 70
     0
102
RTVSPropertyOp25
 70
     0
102
RTVSPropertyOp26
 70
     0
102
RTVSPropertyOp27
 70
     0
102
RTVSPropertyOp28
 70
     0
102
RTVSPropertyOp29
 70
     0
102
RTVSPropertyOp30
 70
     0
102
RTVSPropertyOp31
 70
     0
102
RTVSPropertyOp32
 70
     0
102
RTVSPropertyOp33
 70
     0
102
RTVSPropertyOp34
 70
     0
102
RTVSPropertyOp35
 70
     0
102
RTVSPropertyOp36
 70
     0
102
RTVSPropertyOp37
 70
     0
102
RTVSPropertyOp38
 70
     0
102
RTVSPropertyOp39
 70
     0
102
RTVSPropertyOp40
 70
     0
102
RTVSPropertyOp41
 70
     0
102
RTVSPropertyOp42
 70
     0
102
RTVSPropertyOp43
 70
     0
102
RTVSPropertyOp44
 70
     0
102
RTVSPropertyOp45
 70
     0
102
RTVSPropertyOp46
 70
     0
102
RTVSPropertyOp47
 70
     0
102
RTVSPropertyOp48
 70
     0
102
RTVSPropertyOp49
 70
     0
102
RTVSPropertyOp50
 70
     0
102
RTVSPropertyOp51
 70
     0
102
RTVSPropertyOp52
 70
     0
102
RTVSPropertyOp53
 70
     0
102
RTVSPropertyOp54
 70
     0
102
RTVSPropertyOp55
 70
     0
102
RTVSPropertyOp56
 70
     0
102
RTVSPropertyOp57
 70
     0
102
RTVSPropertyOp58
 70
     0
102
RTVSPropertyOp59
 70
     0
102
RTVSPropertyOp60
 70
     0
102
RTVSPropertyOp61
 70
     0
102
RTVSPropertyOp62
 70
     0
  0
XRECORD
  5
672
102
{ACAD_REACTORS
330
671
102
}
330
671
100
AcDbXrecord
280
     1
102
RTVSPost2010Prop28
280
     0
102
RTVSPost2010PropOp28
 70
     1
102
RTVSPost2010Prop29
280
     1
102
RTVSPost2010PropOp29
 70
     1
102
RTVSPost2010Prop30
280
     1
102
RTVSPost2010PropOp30
 70
     1
102
RTVSPost2010Prop31
280
     0
102
RTVSPost2010PropOp31
 70
     1
102
RTVSPost2010Prop32
280
     0
102
RTVSPost2010PropOp32
 70
     1
102
RTVSPost2010Prop33
280
     0
102
RTVSPost2010PropOp33
 70
     1
102
RTVSPost2010Prop34
280
     0
102
RTVSPost2010PropOp34
 70
     1
102
RTVSPost2010Prop35
280
     0
102
RTVSPost2010PropOp35
 70
     1
102
RTVSPost2010Prop36
280
     0
102
RTVSPost2010PropOp36
 70
     1
102
RTVSPost2010Prop37
 90
       50
102
RTVSPost2010PropOp37
 70
     1
102
RTVSPost2010Prop38
140
0.0
102
RTVSPost2010PropOp38
 70
     1
102
RTVSPost2010Prop39
140
1.0
102
RTVSPost2010PropOp39
 70
     1
102
RTVSPost2010Prop40
 90
        0
102
RTVSPost2010PropOp40
 70
     1
102
RTVSPost2010Prop41ColorIndex
 90
       18
102
RTVSPost2010Prop41ColorRGB
 90
        0
102
RTVSPost2010PropOp41
 70
     1
102
RTVSPost2010Prop42
 90
       50
102
RTVSPost2010PropOp42
 70
     1
102
RTVSPost2010Prop43
 90
        3
102
RTVSPost2010PropOp43
 70
     1
102
RTVSPost2010Prop44ColorIndex
 90
        5
102
RTVSPost2010Prop44ColorRGB
 90
      255
102
RTVSPost2010PropOp44
 70
     1
102
RTVSPost2010Prop45
280
     0
102
RTVSPost2010PropOp45
 70
     1
102
RTVSPost2010Prop46
 90
       50
102
RTVSPost2010PropOp46
 70
     1
102
RTVSPost2010Prop47
 90
       50
102
RTVSPost2010PropOp47
 70
     1
102
RTVSPost2010Prop48
 90
       50
102
RTVSPost2010PropOp48
 70
     1
102
RTVSPost2010Prop49
280
     0
102
RTVSPost2010PropOp49
 70
     1
102
RTVSPost2010Prop50
 90
       50
102
RTVSPost2010PropOp50
 70
     1
102
RTVSPost2010Prop51ColorIndex
 90
      256
102
RTVSPost2010Prop51ColorRGB
 90
-16777216
102
RTVSPost2010PropOp51
 70
     0
102
RTVSPost2010Prop52
140
1.0
102
RTVSPost2010PropOp52
 70
     0
102
RTVSPost2010Prop53
 90
        2
102
RTVSPost2010PropOp53
 70
     1
102
RTVSPost2010Prop54
  1
strokes_ogs.tif
102
RTVSPost2010PropOp54
 70
     1
102
RTVSPost2010Prop55
280
     0
102
RTVSPost2010PropOp55
 70
     1
102
RTVSPost2010Prop56
140
1.0
102
RTVSPost2010PropOp56
 70
     1
102
RTVSPost2010Prop57
140
1.0
102
RTVSPost2010PropOp57
 70
     1
102
RTVSPropertyOp0
 70
     1
102
RTVSPropertyOp1
 70
     1
102
RTVSPropertyOp2
 70
     1
102
RTVSPropertyOp3
 70
     1
102
RTVSPropertyOp4
 70
     1
102
RTVSPropertyOp5
 70
     1
102
RTVSPropertyOp6
 70
     1
102
RTVSPropertyOp7
 70
     1
102
RTVSPropertyOp8
 70
     1
102
RTVSPropertyOp9
 70
     1
102
RTVSPropertyOp10
 70
     1
102
RTVSPropertyOp11
 70
     1
102
RTVSPropertyOp12
 70
     1
102
RTVSPropertyOp13
 70
     1
102
RTVSPropertyOp14
 70
     1
102
RTVSPropertyOp15
 70
     1
102
RTVSPropertyOp16
 70
     1
102
RTVSPropertyOp17
 70
     1
102
RTVSPropertyOp18
 70
     1
102
RTVSPropertyOp19
 70
     1
102
RTVSPropertyOp20
 70
     1
102
RTVSPropertyOp21
 70
     1
102
RTVSPropertyOp22
 70
     1
102
RTVSPropertyOp23
 70
     1
102
RTVSPropertyOp24
 70
     1
102
RTVSPropertyOp25
 70
     1
102
RTVSPropertyOp26
 70
     1
102
RTVSPropertyOp27
 70
     1
102
RTVSPropertyOp28
 70
     1
102
RTVSPropertyOp29
 70
     1
102
RTVSPropertyOp30
 70
     1
102
RTVSPropertyOp31
 70
     1
102
RTVSPropertyOp32
 70
     1
102
RTVSPropertyOp33
 70
     1
102
RTVSPropertyOp34
 70
     1
102
RTVSPropertyOp35
 70
     1
102
RTVSPropertyOp36
 70
     1
102
RTVSPropertyOp37
 70
     1
102
RTVSPropertyOp38
 70
     1
102
RTVSPropertyOp39
 70
     1
102
RTVSPropertyOp40
 70
     1
102
RTVSPropertyOp41
 70
     1
102
RTVSPropertyOp42
 70
     1
102
RTVSPropertyOp43
 70
     1
102
RTVSPropertyOp44
 70
     1
102
RTVSPropertyOp45
 70
     1
102
RTVSPropertyOp46
 70
     1
102
RTVSPropertyOp47
 70
     1
102
RTVSPropertyOp48
 70
     1
102
RTVSPropertyOp49
 70
     1
102
RTVSPropertyOp50
 70
     1
102
RTVSPropertyOp51
 70
     0
102
RTVSPropertyOp52
 70
     0
102
RTVSPropertyOp53
 70
     1
102
RTVSPropertyOp54
 70
     1
102
RTVSPropertyOp55
 70
     1
102
RTVSPropertyOp56
 70
     1
102
RTVSPropertyOp57
 70
     1
102
RTVSPropertyOp58
 70
     1
102
RTVSPropertyOp59
 70
     1
102
RTVSPropertyOp60
 70
     1
102
RTVSPropertyOp61
 70
     1
102
RTVSPropertyOp62
 70
     1
  0
XRECORD
  5
688
102
{ACAD_REACTORS
330
687
102
}
330
687
100
AcDbXrecord
280
     1
102
RTVSPost2010Prop28
280
     0
102
RTVSPost2010PropOp28
 70
     1
102
RTVSPost2010Prop29
280
     1
102
RTVSPost2010PropOp29
 70
     1
102
RTVSPost2010Prop30
280
     1
102
RTVSPost2010PropOp30
 70
     1
102
RTVSPost2010Prop31
280
     0
102
RTVSPost2010PropOp31
 70
     1
102
RTVSPost2010Prop32
280
     0
102
RTVSPost2010PropOp32
 70
     1
102
RTVSPost2010Prop33
280
     0
102
RTVSPost2010PropOp33
 70
     1
102
RTVSPost2010Prop34
280
     0
102
RTVSPost2010PropOp34
 70
     1
102
RTVSPost2010Prop35
280
     0
102
RTVSPost2010PropOp35
 70
     1
102
RTVSPost2010Prop36
280
     0
102
RTVSPost2010PropOp36
 70
     1
102
RTVSPost2010Prop37
 90
       50
102
RTVSPost2010PropOp37
 70
     1
102
RTVSPost2010Prop38
140
0.0
102
RTVSPost2010PropOp38
 70
     1
102
RTVSPost2010Prop39
140
1.0
102
RTVSPost2010PropOp39
 70
     1
102
RTVSPost2010Prop40
 90
        0
102
RTVSPost2010PropOp40
 70
     1
102
RTVSPost2010Prop41ColorIndex
 90
       18
102
RTVSPost2010Prop41ColorRGB
 90
        0
102
RTVSPost2010PropOp41
 70
     1
102
RTVSPost2010Prop42
 90
       50
102
RTVSPost2010PropOp42
 70
     1
102
RTVSPost2010Prop43
 90
        3
102
RTVSPost2010PropOp43
 70
     1
102
RTVSPost2010Prop44ColorIndex
 90
        5
102
RTVSPost2010Prop44ColorRGB
 90
      255
102
RTVSPost2010PropOp44
 70
     1
102
RTVSPost2010Prop45
280
     0
102
RTVSPost2010PropOp45
 70
     1
102
RTVSPost2010Prop46
 90
       50
102
RTVSPost2010PropOp46
 70
     1
102
RTVSPost2010Prop47
 90
       50
102
RTVSPost2010PropOp47
 70
     1
102
RTVSPost2010Prop48
 90
       50
102
RTVSPost2010PropOp48
 70
     1
102
RTVSPost2010Prop49
280
     0
102
RTVSPost2010PropOp49
 70
     1
102
RTVSPost2010Prop50
 90
       50
102
RTVSPost2010PropOp50
 70
     1
102
RTVSPost2010Prop51ColorIndex
 90
      256
102
RTVSPost2010Prop51ColorRGB
 90
-16777216
102
RTVSPost2010PropOp51
 70
     0
102
RTVSPost2010Prop52
140
1.0
102
RTVSPost2010PropOp52
 70
     0
102
RTVSPost2010Prop53
 90
        2
102
RTVSPost2010PropOp53
 70
     1
102
RTVSPost2010Prop54
  1
strokes_ogs.tif
102
RTVSPost2010PropOp54
 70
     1
102
RTVSPost2010Prop55
280
     0
102
RTVSPost2010PropOp55
 70
     1
102
RTVSPost2010Prop56
140
1.0
102
RTVSPost2010PropOp56
 70
     1
102
RTVSPost2010Prop57
140
1.0
102
RTVSPost2010PropOp57
 70
     1
102
RTVSPropertyOp0
 70
     1
102
RTVSPropertyOp1
 70
     1
102
RTVSPropertyOp2
 70
     1
102
RTVSPropertyOp3
 70
     1
102
RTVSPropertyOp4
 70
     1
102
RTVSPropertyOp5
 70
     1
102
RTVSPropertyOp6
 70
     1
102
RTVSPropertyOp7
 70
     1
102
RTVSPropertyOp8
 70
     1
102
RTVSPropertyOp9
 70
     1
102
RTVSPropertyOp10
 70
     1
102
RTVSPropertyOp11
 70
     1
102
RTVSPropertyOp12
 70
     1
102
RTVSPropertyOp13
 70
     1
102
RTVSPropertyOp14
 70
     1
102
RTVSPropertyOp15
 70
     1
102
RTVSPropertyOp16
 70
     1
102
RTVSPropertyOp17
 70
     1
102
RTVSPropertyOp18
 70
     1
102
RTVSPropertyOp19
 70
     1
102
RTVSPropertyOp20
 70
     1
102
RTVSPropertyOp21
 70
     1
102
RTVSPropertyOp22
 70
     1
102
RTVSPropertyOp23
 70
     1
102
RTVSPropertyOp24
 70
     1
102
RTVSPropertyOp25
 70
     1
102
RTVSPropertyOp26
 70
     1
102
RTVSPropertyOp27
 70
     1
102
RTVSPropertyOp28
 70
     1
102
RTVSPropertyOp29
 70
     1
102
RTVSPropertyOp30
 70
     1
102
RTVSPropertyOp31
 70
     1
102
RTVSPropertyOp32
 70
     1
102
RTVSPropertyOp33
 70
     1
102
RTVSPropertyOp34
 70
     1
102
RTVSPropertyOp35
 70
     1
102
RTVSPropertyOp36
 70
     1
102
RTVSPropertyOp37
 70
     1
102
RTVSPropertyOp38
 70
     1
102
RTVSPropertyOp39
 70
     1
102
RTVSPropertyOp40
 70
     1
102
RTVSPropertyOp41
 70
     1
102
RTVSPropertyOp42
 70
     1
102
RTVSPropertyOp43
 70
     1
102
RTVSPropertyOp44
 70
     1
102
RTVSPropertyOp45
 70
     1
102
RTVSPropertyOp46
 70
     1
102
RTVSPropertyOp47
 70
     1
102
RTVSPropertyOp48
 70
     1
102
RTVSPropertyOp49
 70
     1
102
RTVSPropertyOp50
 70
     1
102
RTVSPropertyOp51
 70
     0
102
RTVSPropertyOp52
 70
     0
102
RTVSPropertyOp53
 70
     1
102
RTVSPropertyOp54
 70
     1
102
RTVSPropertyOp55
 70
     1
102
RTVSPropertyOp56
 70
     1
102
RTVSPropertyOp57
 70
     1
102
RTVSPropertyOp58
 70
     1
102
RTVSPropertyOp59
 70
     1
102
RTVSPropertyOp60
 70
     1
102
RTVSPropertyOp61
 70
     1
102
RTVSPropertyOp62
 70
     1
  0
XRECORD
  5
686
102
{ACAD_REACTORS
330
685
102
}
330
685
100
AcDbXrecord
280
     1
102
RTVSPost2010Prop28
280
     0
102
RTVSPost2010PropOp28
 70
     1
102
RTVSPost2010Prop29
280
     1
102
RTVSPost2010PropOp29
 70
     1
102
RTVSPost2010Prop30
280
     1
102
RTVSPost2010PropOp30
 70
     1
102
RTVSPost2010Prop31
280
     0
102
RTVSPost2010PropOp31
 70
     1
102
RTVSPost2010Prop32
280
     0
102
RTVSPost2010PropOp32
 70
     1
102
RTVSPost2010Prop33
280
     0
102
RTVSPost2010PropOp33
 70
     1
102
RTVSPost2010Prop34
280
     0
102
RTVSPost2010PropOp34
 70
     1
102
RTVSPost2010Prop35
280
     0
102
RTVSPost2010PropOp35
 70
     1
102
RTVSPost2010Prop36
280
     0
102
RTVSPost2010PropOp36
 70
     1
102
RTVSPost2010Prop37
 90
       50
102
RTVSPost2010PropOp37
 70
     1
102
RTVSPost2010Prop38
140
0.0
102
RTVSPost2010PropOp38
 70
     1
102
RTVSPost2010Prop39
140
1.0
102
RTVSPost2010PropOp39
 70
     1
102
RTVSPost2010Prop40
 90
        0
102
RTVSPost2010PropOp40
 70
     1
102
RTVSPost2010Prop41ColorIndex
 90
       18
102
RTVSPost2010Prop41ColorRGB
 90
        0
102
RTVSPost2010PropOp41
 70
     1
102
RTVSPost2010Prop42
 90
       50
102
RTVSPost2010PropOp42
 70
     1
102
RTVSPost2010Prop43
 90
        3
102
RTVSPost2010PropOp43
 70
     1
102
RTVSPost2010Prop44ColorIndex
 90
        5
102
RTVSPost2010Prop44ColorRGB
 90
      255
102
RTVSPost2010PropOp44
 70
     1
102
RTVSPost2010Prop45
280
     0
102
RTVSPost2010PropOp45
 70
     1
102
RTVSPost2010Prop46
 90
       50
102
RTVSPost2010PropOp46
 70
     1
102
RTVSPost2010Prop47
 90
       50
102
RTVSPost2010PropOp47
 70
     1
102
RTVSPost2010Prop48
 90
       50
102
RTVSPost2010PropOp48
 70
     1
102
RTVSPost2010Prop49
280
     0
102
RTVSPost2010PropOp49
 70
     1
102
RTVSPost2010Prop50
 90
       50
102
RTVSPost2010PropOp50
 70
     1
102
RTVSPost2010Prop51ColorIndex
 90
      256
102
RTVSPost2010Prop51ColorRGB
 90
-16777216
102
RTVSPost2010PropOp51
 70
     0
102
RTVSPost2010Prop52
140
1.0
102
RTVSPost2010PropOp52
 70
     0
102
RTVSPost2010Prop53
 90
        2
102
RTVSPost2010PropOp53
 70
     1
102
RTVSPost2010Prop54
  1
strokes_ogs.tif
102
RTVSPost2010PropOp54
 70
     1
102
RTVSPost2010Prop55
280
     0
102
RTVSPost2010PropOp55
 70
     1
102
RTVSPost2010Prop56
140
1.0
102
RTVSPost2010PropOp56
 70
     1
102
RTVSPost2010Prop57
140
1.0
102
RTVSPost2010PropOp57
 70
     1
102
RTVSPropertyOp0
 70
     1
102
RTVSPropertyOp1
 70
     1
102
RTVSPropertyOp2
 70
     1
102
RTVSPropertyOp3
 70
     1
102
RTVSPropertyOp4
 70
     1
102
RTVSPropertyOp5
 70
     1
102
RTVSPropertyOp6
 70
     1
102
RTVSPropertyOp7
 70
     1
102
RTVSPropertyOp8
 70
     1
102
RTVSPropertyOp9
 70
     1
102
RTVSPropertyOp10
 70
     1
102
RTVSPropertyOp11
 70
     1
102
RTVSPropertyOp12
 70
     1
102
RTVSPropertyOp13
 70
     1
102
RTVSPropertyOp14
 70
     1
102
RTVSPropertyOp15
 70
     1
102
RTVSPropertyOp16
 70
     1
102
RTVSPropertyOp17
 70
     1
102
RTVSPropertyOp18
 70
     1
102
RTVSPropertyOp19
 70
     1
102
RTVSPropertyOp20
 70
     1
102
RTVSPropertyOp21
 70
     1
102
RTVSPropertyOp22
 70
     1
102
RTVSPropertyOp23
 70
     1
102
RTVSPropertyOp24
 70
     1
102
RTVSPropertyOp25
 70
     1
102
RTVSPropertyOp26
 70
     1
102
RTVSPropertyOp27
 70
     1
102
RTVSPropertyOp28
 70
     1
102
RTVSPropertyOp29
 70
     1
102
RTVSPropertyOp30
 70
     1
102
RTVSPropertyOp31
 70
     1
102
RTVSPropertyOp32
 70
     1
102
RTVSPropertyOp33
 70
     1
102
RTVSPropertyOp34
 70
     1
102
RTVSPropertyOp35
 70
     1
102
RTVSPropertyOp36
 70
     1
102
RTVSPropertyOp37
 70
     1
102
RTVSPropertyOp38
 70
     1
102
RTVSPropertyOp39
 70
     1
102
RTVSPropertyOp40
 70
     1
102
RTVSPropertyOp41
 70
     1
102
RTVSPropertyOp42
 70
     1
102
RTVSPropertyOp43
 70
     1
102
RTVSPropertyOp44
 70
     1
102
RTVSPropertyOp45
 70
     1
102
RTVSPropertyOp46
 70
     1
102
RTVSPropertyOp47
 70
     1
102
RTVSPropertyOp48
 70
     1
102
RTVSPropertyOp49
 70
     1
102
RTVSPropertyOp50
 70
     1
102
RTVSPropertyOp51
 70
     0
102
RTVSPropertyOp52
 70
     0
102
RTVSPropertyOp53
 70
     1
102
RTVSPropertyOp54
 70
     1
102
RTVSPropertyOp55
 70
     1
102
RTVSPropertyOp56
 70
     1
102
RTVSPropertyOp57
 70
     1
102
RTVSPropertyOp58
 70
     1
102
RTVSPropertyOp59
 70
     1
102
RTVSPropertyOp60
 70
     1
102
RTVSPropertyOp61
 70
     1
102
RTVSPropertyOp62
 70
     1
  0
XRECORD
  5
680
102
{ACAD_REACTORS
330
67F
102
}
330
67F
100
AcDbXrecord
280
     1
102
RTVSPost2010Prop28
280
     0
102
RTVSPost2010PropOp28
 70
     1
102
RTVSPost2010Prop29
280
     1
102
RTVSPost2010PropOp29
 70
     1
102
RTVSPost2010Prop30
280
     1
102
RTVSPost2010PropOp30
 70
     1
102
RTVSPost2010Prop31
280
     0
102
RTVSPost2010PropOp31
 70
     1
102
RTVSPost2010Prop32
280
     0
102
RTVSPost2010PropOp32
 70
     1
102
RTVSPost2010Prop33
280
     0
102
RTVSPost2010PropOp33
 70
     1
102
RTVSPost2010Prop34
280
     0
102
RTVSPost2010PropOp34
 70
     1
102
RTVSPost2010Prop35
280
     0
102
RTVSPost2010PropOp35
 70
     1
102
RTVSPost2010Prop36
280
     0
102
RTVSPost2010PropOp36
 70
     1
102
RTVSPost2010Prop37
 90
       50
102
RTVSPost2010PropOp37
 70
     1
102
RTVSPost2010Prop38
140
0.0
102
RTVSPost2010PropOp38
 70
     1
102
RTVSPost2010Prop39
140
1.0
102
RTVSPost2010PropOp39
 70
     1
102
RTVSPost2010Prop40
 90
        0
102
RTVSPost2010PropOp40
 70
     1
102
RTVSPost2010Prop41ColorIndex
 90
       18
102
RTVSPost2010Prop41ColorRGB
 90
        0
102
RTVSPost2010PropOp41
 70
     1
102
RTVSPost2010Prop42
 90
       50
102
RTVSPost2010PropOp42
 70
     1
102
RTVSPost2010Prop43
 90
        3
102
RTVSPost2010PropOp43
 70
     1
102
RTVSPost2010Prop44ColorIndex
 90
        5
102
RTVSPost2010Prop44ColorRGB
 90
      255
102
RTVSPost2010PropOp44
 70
     1
102
RTVSPost2010Prop45
280
     0
102
RTVSPost2010PropOp45
 70
     1
102
RTVSPost2010Prop46
 90
       50
102
RTVSPost2010PropOp46
 70
     1
102
RTVSPost2010Prop47
 90
       50
102
RTVSPost2010PropOp47
 70
     1
102
RTVSPost2010Prop48
 90
       50
102
RTVSPost2010PropOp48
 70
     1
102
RTVSPost2010Prop49
280
     0
102
RTVSPost2010PropOp49
 70
     1
102
RTVSPost2010Prop50
 90
       50
102
RTVSPost2010PropOp50
 70
     1
102
RTVSPost2010Prop51ColorIndex
 90
      256
102
RTVSPost2010Prop51ColorRGB
 90
-16777216
102
RTVSPost2010PropOp51
 70
     0
102
RTVSPost2010Prop52
140
1.0
102
RTVSPost2010PropOp52
 70
     0
102
RTVSPost2010Prop53
 90
        2
102
RTVSPost2010PropOp53
 70
     1
102
RTVSPost2010Prop54
  1
strokes_ogs.tif
102
RTVSPost2010PropOp54
 70
     1
102
RTVSPost2010Prop55
280
     0
102
RTVSPost2010PropOp55
 70
     1
102
RTVSPost2010Prop56
140
1.0
102
RTVSPost2010PropOp56
 70
     1
102
RTVSPost2010Prop57
140
1.0
102
RTVSPost2010PropOp57
 70
     1
102
RTVSPropertyOp0
 70
     1
102
RTVSPropertyOp1
 70
     1
102
RTVSPropertyOp2
 70
     1
102
RTVSPropertyOp3
 70
     1
102
RTVSPropertyOp4
 70
     1
102
RTVSPropertyOp5
 70
     1
102
RTVSPropertyOp6
 70
     1
102
RTVSPropertyOp7
 70
     1
102
RTVSPropertyOp8
 70
     1
102
RTVSPropertyOp9
 70
     1
102
RTVSPropertyOp10
 70
     1
102
RTVSPropertyOp11
 70
     1
102
RTVSPropertyOp12
 70
     1
102
RTVSPropertyOp13
 70
     1
102
RTVSPropertyOp14
 70
     1
102
RTVSPropertyOp15
 70
     1
102
RTVSPropertyOp16
 70
     1
102
RTVSPropertyOp17
 70
     1
102
RTVSPropertyOp18
 70
     1
102
RTVSPropertyOp19
 70
     1
102
RTVSPropertyOp20
 70
     1
102
RTVSPropertyOp21
 70
     1
102
RTVSPropertyOp22
 70
     1
102
RTVSPropertyOp23
 70
     1
102
RTVSPropertyOp24
 70
     1
102
RTVSPropertyOp25
 70
     1
102
RTVSPropertyOp26
 70
     1
102
RTVSPropertyOp27
 70
     1
102
RTVSPropertyOp28
 70
     1
102
RTVSPropertyOp29
 70
     1
102
RTVSPropertyOp30
 70
     1
102
RTVSPropertyOp31
 70
     1
102
RTVSPropertyOp32
 70
     1
102
RTVSPropertyOp33
 70
     1
102
RTVSPropertyOp34
 70
     1
102
RTVSPropertyOp35
 70
     1
102
RTVSPropertyOp36
 70
     1
102
RTVSPropertyOp37
 70
     1
102
RTVSPropertyOp38
 70
     1
102
RTVSPropertyOp39
 70
     1
102
RTVSPropertyOp40
 70
     1
102
RTVSPropertyOp41
 70
     1
102
RTVSPropertyOp42
 70
     1
102
RTVSPropertyOp43
 70
     1
102
RTVSPropertyOp44
 70
     1
102
RTVSPropertyOp45
 70
     1
102
RTVSPropertyOp46
 70
     1
102
RTVSPropertyOp47
 70
     1
102
RTVSPropertyOp48
 70
     1
102
RTVSPropertyOp49
 70
     1
102
RTVSPropertyOp50
 70
     1
102
RTVSPropertyOp51
 70
     0
102
RTVSPropertyOp52
 70
     0
102
RTVSPropertyOp53
 70
     1
102
RTVSPropertyOp54
 70
     1
102
RTVSPropertyOp55
 70
     1
102
RTVSPropertyOp56
 70
     1
102
RTVSPropertyOp57
 70
     1
102
RTVSPropertyOp58
 70
     1
102
RTVSPropertyOp59
 70
     1
102
RTVSPropertyOp60
 70
     1
102
RTVSPropertyOp61
 70
     1
102
RTVSPropertyOp62
 70
     1
  0
XRECORD
  5
682
102
{ACAD_REACTORS
330
681
102
}
330
681
100
AcDbXrecord
280
     1
102
RTVSPost2010Prop28
280
     0
102
RTVSPost2010PropOp28
 70
     1
102
RTVSPost2010Prop29
280
     1
102
RTVSPost2010PropOp29
 70
     1
102
RTVSPost2010Prop30
280
     1
102
RTVSPost2010PropOp30
 70
     1
102
RTVSPost2010Prop31
280
     0
102
RTVSPost2010PropOp31
 70
     1
102
RTVSPost2010Prop32
280
     0
102
RTVSPost2010PropOp32
 70
     1
102
RTVSPost2010Prop33
280
     0
102
RTVSPost2010PropOp33
 70
     1
102
RTVSPost2010Prop34
280
     0
102
RTVSPost2010PropOp34
 70
     1
102
RTVSPost2010Prop35
280
     0
102
RTVSPost2010PropOp35
 70
     1
102
RTVSPost2010Prop36
280
     0
102
RTVSPost2010PropOp36
 70
     1
102
RTVSPost2010Prop37
 90
       50
102
RTVSPost2010PropOp37
 70
     1
102
RTVSPost2010Prop38
140
0.0
102
RTVSPost2010PropOp38
 70
     1
102
RTVSPost2010Prop39
140
1.0
102
RTVSPost2010PropOp39
 70
     1
102
RTVSPost2010Prop40
 90
        0
102
RTVSPost2010PropOp40
 70
     1
102
RTVSPost2010Prop41ColorIndex
 90
       18
102
RTVSPost2010Prop41ColorRGB
 90
        0
102
RTVSPost2010PropOp41
 70
     1
102
RTVSPost2010Prop42
 90
       50
102
RTVSPost2010PropOp42
 70
     1
102
RTVSPost2010Prop43
 90
        3
102
RTVSPost2010PropOp43
 70
     1
102
RTVSPost2010Prop44ColorIndex
 90
        5
102
RTVSPost2010Prop44ColorRGB
 90
      255
102
RTVSPost2010PropOp44
 70
     1
102
RTVSPost2010Prop45
280
     0
102
RTVSPost2010PropOp45
 70
     1
102
RTVSPost2010Prop46
 90
       50
102
RTVSPost2010PropOp46
 70
     1
102
RTVSPost2010Prop47
 90
       50
102
RTVSPost2010PropOp47
 70
     1
102
RTVSPost2010Prop48
 90
       50
102
RTVSPost2010PropOp48
 70
     1
102
RTVSPost2010Prop49
280
     0
102
RTVSPost2010PropOp49
 70
     1
102
RTVSPost2010Prop50
 90
       50
102
RTVSPost2010PropOp50
 70
     1
102
RTVSPost2010Prop51ColorIndex
 90
      256
102
RTVSPost2010Prop51ColorRGB
 90
-16777216
102
RTVSPost2010PropOp51
 70
     0
102
RTVSPost2010Prop52
140
1.0
102
RTVSPost2010PropOp52
 70
     0
102
RTVSPost2010Prop53
 90
        2
102
RTVSPost2010PropOp53
 70
     1
102
RTVSPost2010Prop54
  1
strokes_ogs.tif
102
RTVSPost2010PropOp54
 70
     1
102
RTVSPost2010Prop55
280
     0
102
RTVSPost2010PropOp55
 70
     1
102
RTVSPost2010Prop56
140
1.0
102
RTVSPost2010PropOp56
 70
     1
102
RTVSPost2010Prop57
140
1.0
102
RTVSPost2010PropOp57
 70
     1
102
RTVSPropertyOp0
 70
     1
102
RTVSPropertyOp1
 70
     1
102
RTVSPropertyOp2
 70
     1
102
RTVSPropertyOp3
 70
     1
102
RTVSPropertyOp4
 70
     1
102
RTVSPropertyOp5
 70
     1
102
RTVSPropertyOp6
 70
     1
102
RTVSPropertyOp7
 70
     1
102
RTVSPropertyOp8
 70
     1
102
RTVSPropertyOp9
 70
     1
102
RTVSPropertyOp10
 70
     1
102
RTVSPropertyOp11
 70
     1
102
RTVSPropertyOp12
 70
     1
102
RTVSPropertyOp13
 70
     1
102
RTVSPropertyOp14
 70
     1
102
RTVSPropertyOp15
 70
     1
102
RTVSPropertyOp16
 70
     1
102
RTVSPropertyOp17
 70
     1
102
RTVSPropertyOp18
 70
     1
102
RTVSPropertyOp19
 70
     1
102
RTVSPropertyOp20
 70
     1
102
RTVSPropertyOp21
 70
     1
102
RTVSPropertyOp22
 70
     1
102
RTVSPropertyOp23
 70
     1
102
RTVSPropertyOp24
 70
     1
102
RTVSPropertyOp25
 70
     1
102
RTVSPropertyOp26
 70
     1
102
RTVSPropertyOp27
 70
     1
102
RTVSPropertyOp28
 70
     1
102
RTVSPropertyOp29
 70
     1
102
RTVSPropertyOp30
 70
     1
102
RTVSPropertyOp31
 70
     1
102
RTVSPropertyOp32
 70
     1
102
RTVSPropertyOp33
 70
     1
102
RTVSPropertyOp34
 70
     1
102
RTVSPropertyOp35
 70
     1
102
RTVSPropertyOp36
 70
     1
102
RTVSPropertyOp37
 70
     1
102
RTVSPropertyOp38
 70
     1
102
RTVSPropertyOp39
 70
     1
102
RTVSPropertyOp40
 70
     1
102
RTVSPropertyOp41
 70
     1
102
RTVSPropertyOp42
 70
     1
102
RTVSPropertyOp43
 70
     1
102
RTVSPropertyOp44
 70
     1
102
RTVSPropertyOp45
 70
     1
102
RTVSPropertyOp46
 70
     1
102
RTVSPropertyOp47
 70
     1
102
RTVSPropertyOp48
 70
     1
102
RTVSPropertyOp49
 70
     1
102
RTVSPropertyOp50
 70
     1
102
RTVSPropertyOp51
 70
     0
102
RTVSPropertyOp52
 70
     0
102
RTVSPropertyOp53
 70
     1
102
RTVSPropertyOp54
 70
     1
102
RTVSPropertyOp55
 70
     1
102
RTVSPropertyOp56
 70
     1
102
RTVSPropertyOp57
 70
     1
102
RTVSPropertyOp58
 70
     1
102
RTVSPropertyOp59
 70
     1
102
RTVSPropertyOp60
 70
     1
102
RTVSPropertyOp61
 70
     1
102
RTVSPropertyOp62
 70
     1
  0
XRECORD
  5
678
102
{ACAD_REACTORS
330
677
102
}
330
677
100
AcDbXrecord
280
     1
102
RTVSPost2010Prop28
280
     0
102
RTVSPost2010PropOp28
 70
     1
102
RTVSPost2010Prop29
280
     1
102
RTVSPost2010PropOp29
 70
     1
102
RTVSPost2010Prop30
280
     1
102
RTVSPost2010PropOp30
 70
     1
102
RTVSPost2010Prop31
280
     0
102
RTVSPost2010PropOp31
 70
     1
102
RTVSPost2010Prop32
280
     0
102
RTVSPost2010PropOp32
 70
     1
102
RTVSPost2010Prop33
280
     0
102
RTVSPost2010PropOp33
 70
     1
102
RTVSPost2010Prop34
280
     0
102
RTVSPost2010PropOp34
 70
     1
102
RTVSPost2010Prop35
280
     0
102
RTVSPost2010PropOp35
 70
     1
102
RTVSPost2010Prop36
280
     0
102
RTVSPost2010PropOp36
 70
     1
102
RTVSPost2010Prop37
 90
       50
102
RTVSPost2010PropOp37
 70
     1
102
RTVSPost2010Prop38
140
0.0
102
RTVSPost2010PropOp38
 70
     1
102
RTVSPost2010Prop39
140
1.0
102
RTVSPost2010PropOp39
 70
     1
102
RTVSPost2010Prop40
 90
        0
102
RTVSPost2010PropOp40
 70
     1
102
RTVSPost2010Prop41ColorIndex
 90
       18
102
RTVSPost2010Prop41ColorRGB
 90
        0
102
RTVSPost2010PropOp41
 70
     1
102
RTVSPost2010Prop42
 90
       50
102
RTVSPost2010PropOp42
 70
     1
102
RTVSPost2010Prop43
 90
        3
102
RTVSPost2010PropOp43
 70
     1
102
RTVSPost2010Prop44ColorIndex
 90
        5
102
RTVSPost2010Prop44ColorRGB
 90
      255
102
RTVSPost2010PropOp44
 70
     1
102
RTVSPost2010Prop45
280
     0
102
RTVSPost2010PropOp45
 70
     1
102
RTVSPost2010Prop46
 90
       50
102
RTVSPost2010PropOp46
 70
     1
102
RTVSPost2010Prop47
 90
       50
102
RTVSPost2010PropOp47
 70
     1
102
RTVSPost2010Prop48
 90
       50
102
RTVSPost2010PropOp48
 70
     1
102
RTVSPost2010Prop49
280
     0
102
RTVSPost2010PropOp49
 70
     1
102
RTVSPost2010Prop50
 90
       50
102
RTVSPost2010PropOp50
 70
     1
102
RTVSPost2010Prop51ColorIndex
 90
      256
102
RTVSPost2010Prop51ColorRGB
 90
-16777216
102
RTVSPost2010PropOp51
 70
     0
102
RTVSPost2010Prop52
140
1.0
102
RTVSPost2010PropOp52
 70
     0
102
RTVSPost2010Prop53
 90
        2
102
RTVSPost2010PropOp53
 70
     1
102
RTVSPost2010Prop54
  1
strokes_ogs.tif
102
RTVSPost2010PropOp54
 70
     1
102
RTVSPost2010Prop55
280
     0
102
RTVSPost2010PropOp55
 70
     1
102
RTVSPost2010Prop56
140
1.0
102
RTVSPost2010PropOp56
 70
     1
102
RTVSPost2010Prop57
140
1.0
102
RTVSPost2010PropOp57
 70
     1
102
RTVSPropertyOp0
 70
     1
102
RTVSPropertyOp1
 70
     1
102
RTVSPropertyOp2
 70
     1
102
RTVSPropertyOp3
 70
     1
102
RTVSPropertyOp4
 70
     1
102
RTVSPropertyOp5
 70
     1
102
RTVSPropertyOp6
 70
     1
102
RTVSPropertyOp7
 70
     1
102
RTVSPropertyOp8
 70
     1
102
RTVSPropertyOp9
 70
     1
102
RTVSPropertyOp10
 70
     1
102
RTVSPropertyOp11
 70
     1
102
RTVSPropertyOp12
 70
     1
102
RTVSPropertyOp13
 70
     1
102
RTVSPropertyOp14
 70
     1
102
RTVSPropertyOp15
 70
     1
102
RTVSPropertyOp16
 70
     1
102
RTVSPropertyOp17
 70
     1
102
RTVSPropertyOp18
 70
     1
102
RTVSPropertyOp19
 70
     1
102
RTVSPropertyOp20
 70
     1
102
RTVSPropertyOp21
 70
     1
102
RTVSPropertyOp22
 70
     1
102
RTVSPropertyOp23
 70
     1
102
RTVSPropertyOp24
 70
     1
102
RTVSPropertyOp25
 70
     1
102
RTVSPropertyOp26
 70
     1
102
RTVSPropertyOp27
 70
     1
102
RTVSPropertyOp28
 70
     1
102
RTVSPropertyOp29
 70
     1
102
RTVSPropertyOp30
 70
     1
102
RTVSPropertyOp31
 70
     1
102
RTVSPropertyOp32
 70
     1
102
RTVSPropertyOp33
 70
     1
102
RTVSPropertyOp34
 70
     1
102
RTVSPropertyOp35
 70
     1
102
RTVSPropertyOp36
 70
     1
102
RTVSPropertyOp37
 70
     1
102
RTVSPropertyOp38
 70
     1
102
RTVSPropertyOp39
 70
     1
102
RTVSPropertyOp40
 70
     1
102
RTVSPropertyOp41
 70
     1
102
RTVSPropertyOp42
 70
     1
102
RTVSPropertyOp43
 70
     1
102
RTVSPropertyOp44
 70
     1
102
RTVSPropertyOp45
 70
     1
102
RTVSPropertyOp46
 70
     1
102
RTVSPropertyOp47
 70
     1
102
RTVSPropertyOp48
 70
     1
102
RTVSPropertyOp49
 70
     1
102
RTVSPropertyOp50
 70
     1
102
RTVSPropertyOp51
 70
     0
102
RTVSPropertyOp52
 70
     0
102
RTVSPropertyOp53
 70
     1
102
RTVSPropertyOp54
 70
     1
102
RTVSPropertyOp55
 70
     1
102
RTVSPropertyOp56
 70
     1
102
RTVSPropertyOp57
 70
     1
102
RTVSPropertyOp58
 70
     1
102
RTVSPropertyOp59
 70
     1
102
RTVSPropertyOp60
 70
     1
102
RTVSPropertyOp61
 70
     1
102
RTVSPropertyOp62
 70
     1
  0
XRECORD
  5
66C
102
{ACAD_REACTORS
330
66B
102
}
330
66B
100
AcDbXrecord
280
     1
102
RTVSPost2010Prop28
280
     0
102
RTVSPost2010PropOp28
 70
     1
102
RTVSPost2010Prop29
280
     1
102
RTVSPost2010PropOp29
 70
     1
102
RTVSPost2010Prop30
280
     1
102
RTVSPost2010PropOp30
 70
     1
102
RTVSPost2010Prop31
280
     0
102
RTVSPost2010PropOp31
 70
     1
102
RTVSPost2010Prop32
280
     0
102
RTVSPost2010PropOp32
 70
     1
102
RTVSPost2010Prop33
280
     0
102
RTVSPost2010PropOp33
 70
     1
102
RTVSPost2010Prop34
280
     0
102
RTVSPost2010PropOp34
 70
     1
102
RTVSPost2010Prop35
280
     0
102
RTVSPost2010PropOp35
 70
     1
102
RTVSPost2010Prop36
280
     0
102
RTVSPost2010PropOp36
 70
     1
102
RTVSPost2010Prop37
 90
       50
102
RTVSPost2010PropOp37
 70
     1
102
RTVSPost2010Prop38
140
0.0
102
RTVSPost2010PropOp38
 70
     1
102
RTVSPost2010Prop39
140
1.0
102
RTVSPost2010PropOp39
 70
     1
102
RTVSPost2010Prop40
 90
        0
102
RTVSPost2010PropOp40
 70
     1
102
RTVSPost2010Prop41ColorIndex
 90
       18
102
RTVSPost2010Prop41ColorRGB
 90
        0
102
RTVSPost2010PropOp41
 70
     1
102
RTVSPost2010Prop42
 90
       50
102
RTVSPost2010PropOp42
 70
     1
102
RTVSPost2010Prop43
 90
        3
102
RTVSPost2010PropOp43
 70
     1
102
RTVSPost2010Prop44ColorIndex
 90
        5
102
RTVSPost2010Prop44ColorRGB
 90
      255
102
RTVSPost2010PropOp44
 70
     1
102
RTVSPost2010Prop45
280
     0
102
RTVSPost2010PropOp45
 70
     1
102
RTVSPost2010Prop46
 90
       50
102
RTVSPost2010PropOp46
 70
     1
102
RTVSPost2010Prop47
 90
       50
102
RTVSPost2010PropOp47
 70
     1
102
RTVSPost2010Prop48
 90
       50
102
RTVSPost2010PropOp48
 70
     1
102
RTVSPost2010Prop49
280
     0
102
RTVSPost2010PropOp49
 70
     1
102
RTVSPost2010Prop50
 90
       50
102
RTVSPost2010PropOp50
 70
     1
102
RTVSPost2010Prop51ColorIndex
 90
      256
102
RTVSPost2010Prop51ColorRGB
 90
-16777216
102
RTVSPost2010PropOp51
 70
     0
102
RTVSPost2010Prop52
140
1.0
102
RTVSPost2010PropOp52
 70
     0
102
RTVSPost2010Prop53
 90
        2
102
RTVSPost2010PropOp53
 70
     1
102
RTVSPost2010Prop54
  1
strokes_ogs.tif
102
RTVSPost2010PropOp54
 70
     1
102
RTVSPost2010Prop55
280
     0
102
RTVSPost2010PropOp55
 70
     1
102
RTVSPost2010Prop56
140
1.0
102
RTVSPost2010PropOp56
 70
     1
102
RTVSPost2010Prop57
140
1.0
102
RTVSPost2010PropOp57
 70
     1
102
RTVSPropertyOp0
 70
     1
102
RTVSPropertyOp1
 70
     1
102
RTVSPropertyOp2
 70
     1
102
RTVSPropertyOp3
 70
     1
102
RTVSPropertyOp4
 70
     1
102
RTVSPropertyOp5
 70
     1
102
RTVSPropertyOp6
 70
     1
102
RTVSPropertyOp7
 70
     1
102
RTVSPropertyOp8
 70
     1
102
RTVSPropertyOp9
 70
     1
102
RTVSPropertyOp10
 70
     1
102
RTVSPropertyOp11
 70
     1
102
RTVSPropertyOp12
 70
     1
102
RTVSPropertyOp13
 70
     1
102
RTVSPropertyOp14
 70
     1
102
RTVSPropertyOp15
 70
     1
102
RTVSPropertyOp16
 70
     1
102
RTVSPropertyOp17
 70
     1
102
RTVSPropertyOp18
 70
     1
102
RTVSPropertyOp19
 70
     1
102
RTVSPropertyOp20
 70
     1
102
RTVSPropertyOp21
 70
     1
102
RTVSPropertyOp22
 70
     1
102
RTVSPropertyOp23
 70
     1
102
RTVSPropertyOp24
 70
     1
102
RTVSPropertyOp25
 70
     1
102
RTVSPropertyOp26
 70
     1
102
RTVSPropertyOp27
 70
     1
102
RTVSPropertyOp28
 70
     1
102
RTVSPropertyOp29
 70
     1
102
RTVSPropertyOp30
 70
     1
102
RTVSPropertyOp31
 70
     1
102
RTVSPropertyOp32
 70
     1
102
RTVSPropertyOp33
 70
     1
102
RTVSPropertyOp34
 70
     1
102
RTVSPropertyOp35
 70
     1
102
RTVSPropertyOp36
 70
     1
102
RTVSPropertyOp37
 70
     1
102
RTVSPropertyOp38
 70
     1
102
RTVSPropertyOp39
 70
     1
102
RTVSPropertyOp40
 70
     1
102
RTVSPropertyOp41
 70
     1
102
RTVSPropertyOp42
 70
     1
102
RTVSPropertyOp43
 70
     1
102
RTVSPropertyOp44
 70
     1
102
RTVSPropertyOp45
 70
     1
102
RTVSPropertyOp46
 70
     1
102
RTVSPropertyOp47
 70
     1
102
RTVSPropertyOp48
 70
     1
102
RTVSPropertyOp49
 70
     1
102
RTVSPropertyOp50
 70
     1
102
RTVSPropertyOp51
 70
     0
102
RTVSPropertyOp52
 70
     0
102
RTVSPropertyOp53
 70
     1
102
RTVSPropertyOp54
 70
     1
102
RTVSPropertyOp55
 70
     1
102
RTVSPropertyOp56
 70
     1
102
RTVSPropertyOp57
 70
     1
102
RTVSPropertyOp58
 70
     1
102
RTVSPropertyOp59
 70
     1
102
RTVSPropertyOp60
 70
     1
102
RTVSPropertyOp61
 70
     1
102
RTVSPropertyOp62
 70
     1
  0
XRECORD
  5
684
102
{ACAD_REACTORS
330
683
102
}
330
683
100
AcDbXrecord
280
     1
102
RTVSPost2010Prop28
280
     0
102
RTVSPost2010PropOp28
 70
     1
102
RTVSPost2010Prop29
280
     1
102
RTVSPost2010PropOp29
 70
     1
102
RTVSPost2010Prop30
280
     1
102
RTVSPost2010PropOp30
 70
     1
102
RTVSPost2010Prop31
280
     0
102
RTVSPost2010PropOp31
 70
     1
102
RTVSPost2010Prop32
280
     0
102
RTVSPost2010PropOp32
 70
     1
102
RTVSPost2010Prop33
280
     0
102
RTVSPost2010PropOp33
 70
     1
102
RTVSPost2010Prop34
280
     0
102
RTVSPost2010PropOp34
 70
     1
102
RTVSPost2010Prop35
280
     0
102
RTVSPost2010PropOp35
 70
     1
102
RTVSPost2010Prop36
280
     0
102
RTVSPost2010PropOp36
 70
     1
102
RTVSPost2010Prop37
 90
       50
102
RTVSPost2010PropOp37
 70
     1
102
RTVSPost2010Prop38
140
0.0
102
RTVSPost2010PropOp38
 70
     1
102
RTVSPost2010Prop39
140
1.0
102
RTVSPost2010PropOp39
 70
     1
102
RTVSPost2010Prop40
 90
        0
102
RTVSPost2010PropOp40
 70
     1
102
RTVSPost2010Prop41ColorIndex
 90
       18
102
RTVSPost2010Prop41ColorRGB
 90
        0
102
RTVSPost2010PropOp41
 70
     1
102
RTVSPost2010Prop42
 90
       50
102
RTVSPost2010PropOp42
 70
     1
102
RTVSPost2010Prop43
 90
        3
102
RTVSPost2010PropOp43
 70
     1
102
RTVSPost2010Prop44ColorIndex
 90
        5
102
RTVSPost2010Prop44ColorRGB
 90
      255
102
RTVSPost2010PropOp44
 70
     1
102
RTVSPost2010Prop45
280
     0
102
RTVSPost2010PropOp45
 70
     1
102
RTVSPost2010Prop46
 90
       50
102
RTVSPost2010PropOp46
 70
     1
102
RTVSPost2010Prop47
 90
       50
102
RTVSPost2010PropOp47
 70
     1
102
RTVSPost2010Prop48
 90
       50
102
RTVSPost2010PropOp48
 70
     1
102
RTVSPost2010Prop49
280
     0
102
RTVSPost2010PropOp49
 70
     1
102
RTVSPost2010Prop50
 90
       50
102
RTVSPost2010PropOp50
 70
     1
102
RTVSPost2010Prop51ColorIndex
 90
      256
102
RTVSPost2010Prop51ColorRGB
 90
-16777216
102
RTVSPost2010PropOp51
 70
     0
102
RTVSPost2010Prop52
140
1.0
102
RTVSPost2010PropOp52
 70
     0
102
RTVSPost2010Prop53
 90
        2
102
RTVSPost2010PropOp53
 70
     1
102
RTVSPost2010Prop54
  1
strokes_ogs.tif
102
RTVSPost2010PropOp54
 70
     1
102
RTVSPost2010Prop55
280
     0
102
RTVSPost2010PropOp55
 70
     1
102
RTVSPost2010Prop56
140
1.0
102
RTVSPost2010PropOp56
 70
     1
102
RTVSPost2010Prop57
140
1.0
102
RTVSPost2010PropOp57
 70
     1
102
RTVSPropertyOp0
 70
     1
102
RTVSPropertyOp1
 70
     1
102
RTVSPropertyOp2
 70
     1
102
RTVSPropertyOp3
 70
     1
102
RTVSPropertyOp4
 70
     1
102
RTVSPropertyOp5
 70
     1
102
RTVSPropertyOp6
 70
     1
102
RTVSPropertyOp7
 70
     1
102
RTVSPropertyOp8
 70
     1
102
RTVSPropertyOp9
 70
     1
102
RTVSPropertyOp10
 70
     1
102
RTVSPropertyOp11
 70
     1
102
RTVSPropertyOp12
 70
     1
102
RTVSPropertyOp13
 70
     1
102
RTVSPropertyOp14
 70
     1
102
RTVSPropertyOp15
 70
     1
102
RTVSPropertyOp16
 70
     1
102
RTVSPropertyOp17
 70
     1
102
RTVSPropertyOp18
 70
     1
102
RTVSPropertyOp19
 70
     1
102
RTVSPropertyOp20
 70
     1
102
RTVSPropertyOp21
 70
     1
102
RTVSPropertyOp22
 70
     1
102
RTVSPropertyOp23
 70
     1
102
RTVSPropertyOp24
 70
     1
102
RTVSPropertyOp25
 70
     1
102
RTVSPropertyOp26
 70
     1
102
RTVSPropertyOp27
 70
     1
102
RTVSPropertyOp28
 70
     1
102
RTVSPropertyOp29
 70
     1
102
RTVSPropertyOp30
 70
     1
102
RTVSPropertyOp31
 70
     1
102
RTVSPropertyOp32
 70
     1
102
RTVSPropertyOp33
 70
     1
102
RTVSPropertyOp34
 70
     1
102
RTVSPropertyOp35
 70
     1
102
RTVSPropertyOp36
 70
     1
102
RTVSPropertyOp37
 70
     1
102
RTVSPropertyOp38
 70
     1
102
RTVSPropertyOp39
 70
     1
102
RTVSPropertyOp40
 70
     1
102
RTVSPropertyOp41
 70
     1
102
RTVSPropertyOp42
 70
     1
102
RTVSPropertyOp43
 70
     1
102
RTVSPropertyOp44
 70
     1
102
RTVSPropertyOp45
 70
     1
102
RTVSPropertyOp46
 70
     1
102
RTVSPropertyOp47
 70
     1
102
RTVSPropertyOp48
 70
     1
102
RTVSPropertyOp49
 70
     1
102
RTVSPropertyOp50
 70
     1
102
RTVSPropertyOp51
 70
     0
102
RTVSPropertyOp52
 70
     0
102
RTVSPropertyOp53
 70
     1
102
RTVSPropertyOp54
 70
     1
102
RTVSPropertyOp55
 70
     1
102
RTVSPropertyOp56
 70
     1
102
RTVSPropertyOp57
 70
     1
102
RTVSPropertyOp58
 70
     1
102
RTVSPropertyOp59
 70
     1
102
RTVSPropertyOp60
 70
     1
102
RTVSPropertyOp61
 70
     1
102
RTVSPropertyOp62
 70
     1
  0
ENDSEC
  0
EOF
