  0
SECTION
  2
HEADER
  9
$ACADVER
  1
AC1018
  9
$ACADMAINTVER
 70
   104
  9
$DWGCODEPAGE
  3
ANSI_932
  9
$INSBASE
 10
0.0
 20
0.0
 30
0.0
  9
$EXTMIN
 10
-0.01209808
 20
-0.00860297
 30
0.0
  9
$EXTMAX
 10
793.42852736
 20
564.20862485
 30
0.0
  9
$LIMMIN
 10
0.0
 20
0.0
  9
$LIMMAX
 10
420.0
 20
297.0
  9
$ORTHOMODE
 70
     1
  9
$REGENMODE
 70
     1
  9
$FILLMODE
 70
     1
  9
$QTEXTMODE
 70
     0
  9
$MIRRTEXT
 70
     0
  9
$LTSCALE
 40
1.0
  9
$ATTMODE
 70
     1
  9
$TEXTSIZE
 40
3.0
  9
$TRACEWID
 40
1.0
  9
$TEXTSTYLE
  7
STANDARD
  9
$CLAYER
  8
0
  9
$CELTYPE
  6
ByLayer
  9
$CECOLOR
 62
   256
  9
$CELTSCALE
 40
1.0
  9
$DISPSILH
 70
     1
  9
$DIMSCALE
 40
1.0
  9
$DIMASZ
 40
1.5
  9
$DIMEXO
 40
2.0
  9
$DIMDLI
 40
10.0
  9
$DIMRND
 40
0.0
  9
$DIMDLE
 40
0.0
  9
$DIMEXE
 40
2.0
  9
$DIMTP
 40
0.0
  9
$DIMTM
 40
0.0
  9
$DIMTXT
 40
3.0
  9
$DIMCEN
 40
0.0
  9
$DIMTSZ
 40
0.0
  9
$DIMTOL
 70
     0
  9
$DIMLIM
 70
     0
  9
$DIMTIH
 70
     0
  9
$DIMTOH
 70
     0
  9
$DIMSE1
 70
     0
  9
$DIMSE2
 70
     0
  9
$DIMTAD
 70
     0
  9
$DIMZIN
 70
    12
  9
$DIMBLK
  1

  9
$DIMASO
 70
     1
  9
$DIMSHO
 70
     1
  9
$DIMPOST
  1

  9
$DIMAPOST
  1

  9
$DIMALT
 70
     0
  9
$DIMALTD
 70
     2
  9
$DIMALTF
 40
0.0394
  9
$DIMLFAC
 40
1.0
  9
$DIMTOFL
 70
     1
  9
$DIMTVP
 40
1.0
  9
$DIMTIX
 70
     0
  9
$DIMSOXD
 70
     0
  9
$DIMSAH
 70
     1
  9
$DIMBLK1
  1
DOT1
  9
$DIMBLK2
  1
DOT1
  9
$DIMSTYLE
  2
YKK_OSADOT
  9
$DIMCLRD
 70
     0
  9
$DIMCLRE
 70
     0
  9
$DIMCLRT
 70
     0
  9
$DIMTFAC
 40
1.0
  9
$DIMGAP
 40
0.01
  9
$DIMJUST
 70
     0
  9
$DIMSD1
 70
     0
  9
$DIMSD2
 70
     0
  9
$DIMTOLJ
 70
     1
  9
$DIMTZIN
 70
    12
  9
$DIMALTZ
 70
    12
  9
$DIMALTTZ
 70
    12
  9
$DIMUPT
 70
     0
  9
$DIMDEC
 70
     4
  9
$DIMTDEC
 70
     4
  9
$DIMALTU
 70
     2
  9
$DIMALTTD
 70
     2
  9
$DIMTXSTY
  7
STANDARD
  9
$DIMAUNIT
 70
     0
  9
$DIMADEC
 70
     0
  9
$DIMALTRND
 40
0.0
  9
$DIMAZIN
 70
     0
  9
$DIMDSEP
 70
    46
  9
$DIMATFIT
 70
     3
  9
$DIMFRAC
 70
     0
  9
$DIMLDRBLK
  1
DOT1
  9
$DIMLUNIT
 70
     2
  9
$DIMLWD
 70
    -2
  9
$DIMLWE
 70
    -2
  9
$DIMTMOVE
 70
     2
  9
$LUNITS
 70
     2
  9
$LUPREC
 70
     4
  9
$SKETCHINC
 40
1.0
  9
$FILLETRAD
 40
0.0
  9
$AUNITS
 70
     0
  9
$AUPREC
 70
     0
  9
$MENU
  1
.
  9
$ELEVATION
 40
0.0
  9
$PELEVATION
 40
0.0
  9
$THICKNESS
 40
0.0
  9
$LIMCHECK
 70
     0
  9
$CHAMFERA
 40
0.0
  9
$CHAMFERB
 40
0.0
  9
$CHAMFERC
 40
0.0
  9
$CHAMFERD
 40
0.0
  9
$SKPOLY
 70
     0
  9
$TDCREATE
 40
2456219.775668600
  9
$TDUCREATE
 40
2456219.400668600
  9
$TDUPDATE
 40
2456219.775668600
  9
$TDUUPDATE
 40
2456219.400668600
  9
$TDINDWG
 40
0.0000379745
  9
$TDUSRTIMER
 40
0.0000379745
  9
$USRTIMER
 70
     1
  9
$ANGBASE
 50
0.0
  9
$ANGDIR
 70
     0
  9
$PDMODE
 70
     0
  9
$PDSIZE
 40
0.0
  9
$PLINEWID
 40
0.0
  9
$SPLFRAME
 70
     0
  9
$SPLINETYPE
 70
     6
  9
$SPLINESEGS
 70
     8
  9
$HANDSEED
  5
84F
  9
$SURFTAB1
 70
     6
  9
$SURFTAB2
 70
     6
  9
$SURFTYPE
 70
     6
  9
$SURFU
 70
     6
  9
$SURFV
 70
     6
  9
$UCSBASE
  2

  9
$UCSNAME
  2

  9
$UCSORG
 10
0.0
 20
0.0
 30
0.0
  9
$UCSXDIR
 10
1.0
 20
0.0
 30
0.0
  9
$UCSYDIR
 10
0.0
 20
1.0
 30
0.0
  9
$UCSORTHOREF
  2

  9
$UCSORTHOVIEW
 70
     0
  9
$UCSORGTOP
 10
0.0
 20
0.0
 30
0.0
  9
$UCSORGBOTTOM
 10
0.0
 20
0.0
 30
0.0
  9
$UCSORGLEFT
 10
0.0
 20
0.0
 30
0.0
  9
$UCSORGRIGHT
 10
0.0
 20
0.0
 30
0.0
  9
$UCSORGFRONT
 10
0.0
 20
0.0
 30
0.0
  9
$UCSORGBACK
 10
0.0
 20
0.0
 30
0.0
  9
$PUCSBASE
  2

  9
$PUCSNAME
  2

  9
$PUCSORG
 10
0.0
 20
0.0
 30
0.0
  9
$PUCSXDIR
 10
1.0
 20
0.0
 30
0.0
  9
$PUCSYDIR
 10
0.0
 20
1.0
 30
0.0
  9
$PUCSORTHOREF
  2

  9
$PUCSORTHOVIEW
 70
     0
  9
$PUCSORGTOP
 10
0.0
 20
0.0
 30
0.0
  9
$PUCSORGBOTTOM
 10
0.0
 20
0.0
 30
0.0
  9
$PUCSORGLEFT
 10
0.0
 20
0.0
 30
0.0
  9
$PUCSORGRIGHT
 10
0.0
 20
0.0
 30
0.0
  9
$PUCSORGFRONT
 10
0.0
 20
0.0
 30
0.0
  9
$PUCSORGBACK
 10
0.0
 20
0.0
 30
0.0
  9
$USERI1
 70
     0
  9
$USERI2
 70
     0
  9
$USERI3
 70
     0
  9
$USERI4
 70
     0
  9
$USERI5
 70
     0
  9
$USERR1
 40
0.0
  9
$USERR2
 40
0.0
  9
$USERR3
 40
0.0
  9
$USERR4
 40
0.0
  9
$USERR5
 40
0.0
  9
$WORLDVIEW
 70
     1
  9
$SHADEDGE
 70
     3
  9
$SHADEDIF
 70
    70
  9
$TILEMODE
 70
     1
  9
$MAXACTVP
 70
    48
  9
$PINSBASE
 10
0.0
 20
0.0
 30
0.0
  9
$PLIMCHECK
 70
     0
  9
$PEXTMIN
 10
1.00000000E+20
 20
1.00000000E+20
 30
1.00000000E+20
  9
$PEXTMAX
 10
-1.00000000E+20
 20
-1.00000000E+20
 30
-1.00000000E+20
  9
$PLIMMIN
 10
0.0
 20
0.0
  9
$PLIMMAX
 10
420.0
 20
297.0
  9
$UNITMODE
 70
     0
  9
$VISRETAIN
 70
     1
  9
$PLINEGEN
 70
     0
  9
$PSLTSCALE
 70
     1
  9
$TREEDEPTH
 70
  3020
  9
$CMLSTYLE
  2
Standard
  9
$CMLJUST
 70
     0
  9
$CMLSCALE
 40
1.0
  9
$PROXYGRAPHICS
 70
     1
  9
$MEASUREMENT
 70
     1
  9
$CELWEIGHT
370
    -1
  9
$ENDCAPS
280
     0
  9
$JOINSTYLE
280
     0
  9
$LWDISPLAY
290
     0
  9
$INSUNITS
 70
     0
  9
$HYPERLINKBASE
  1

  9
$STYLESHEET
  1

  9
$XEDIT
290
     1
  9
$CEPSNTYPE
380
     0
  9
$PSTYLEMODE
290
     1
  9
$FINGERPRINTGUID
  2
{8CDBA148-034C-4994-A800-9FFCFC297684}
  9
$VERSIONGUID
  2
{8EDE94C5-51D8-4670-ACDD-D100F38F68FD}
  9
$EXTNAMES
290
     1
  9
$PSVPSCALE
 40
0.0
  9
$OLESTARTUP
290
     0
  9
$SORTENTS
280
   127
  9
$INDEXCTL
280
     0
  9
$HIDETEXT
280
     1
  9
$XCLIPFRAME
290
     0
  9
$HALOGAP
280
     0
  9
$OBSCOLOR
 70
   257
  9
$OBSLTYPE
280
     0
  9
$INTERSECTIONDISPLAY
280
     0
  9
$INTERSECTIONCOLOR
 70
   257
  9
$DIMASSOC
280
     2
  9
$PROJECTNAME
  1

  0
ENDSEC
  0
SECTION
  2
CLASSES
  0
CLASS
  1
ACDBDICTIONARYWDFLT
  2
AcDbDictionaryWithDefault
  3
ObjectDBX Classes
 90
        0
 91
        1
280
     0
281
     0
  0
CLASS
  1
MATERIAL
  2
AcDbMaterial
  3
ObjectDBX Classes
 90
     1153
 91
        3
280
     0
281
     0
  0
CLASS
  1
VISUALSTYLE
  2
AcDbVisualStyle
  3
ObjectDBX Classes
 90
     4095
 91
       24
280
     0
281
     0
  0
CLASS
  1
SCALE
  2
AcDbScale
  3
ObjectDBX Classes
 90
     1153
 91
       17
280
     0
281
     0
  0
CLASS
  1
TABLESTYLE
  2
AcDbTableStyle
  3
ObjectDBX Classes
 90
     4095
 91
        1
280
     0
281
     0
  0
CLASS
  1
MLEADERSTYLE
  2
AcDbMLeaderStyle
  3
ACDB_MLEADERSTYLE_CLASS
 90
     4095
 91
        1
280
     0
281
     0
  0
CLASS
  1
ACDBSECTIONVIEWSTYLE
  2
AcDbSectionViewStyle
  3
ObjectDBX Classes
 90
     1025
 91
        1
280
     0
281
     0
  0
CLASS
  1
ACDBDETAILVIEWSTYLE
  2
AcDbDetailViewStyle
  3
ObjectDBX Classes
 90
     1025
 91
        1
280
     0
281
     0
  0
CLASS
  1
DICTIONARYVAR
  2
AcDbDictionaryVar
  3
ObjectDBX Classes
 90
        0
 91
       10
280
     0
281
     0
  0
CLASS
  1
CELLSTYLEMAP
  2
AcDbCellStyleMap
  3
ObjectDBX Classes
 90
     1152
 91
        1
280
     0
281
     0
  0
ENDSEC
  0
SECTION
  2
TABLES
  0
TABLE
  2
VPORT
  5
77B
330
0
100
AcDbSymbolTable
 70
     1
  0
VPORT
  5
7EF
330
77B
100
AcDbSymbolTableRecord
100
AcDbViewportTableRecord
  2
*ACTIVE
 70
     0
 10
0.0
 20
0.0
 11
1.0
 21
1.0
 12
396.70821464
 22
282.10001094
 13
0.0
 23
0.0
 14
10.0
 24
10.0
 15
10.0
 25
10.0
 16
0.0
 26
0.0
 36
1.0
 17
0.0
 27
0.0
 37
0.0
 40
568.12184531
 41
1.89953811
 42
50.0
 43
0.0
 44
0.0
 50
0.0
 51
0.0
 71
     0
 72
  1000
 73
     1
 74
     1
 75
     0
 76
     0
 77
     0
 78
     0
281
     0
 65
     1
110
0.0
120
0.0
130
0.0
111
1.0
121
0.0
131
0.0
112
0.0
122
1.0
132
0.0
 79
     0
146
0.0
1001
ACAD_NAV_VCDISPLAY
1070
     1
  0
ENDTAB
  0
TABLE
  2
LTYPE
  5
778
330
0
100
AcDbSymbolTable
 70
     2
  0
LTYPE
  5
7CD
330
778
100
AcDbSymbolTableRecord
100
AcDbLinetypeTableRecord
  2
ByBlock
 70
     0
  3

 72
    65
 73
     0
 40
0.0
  0
LTYPE
  5
7CE
330
778
100
AcDbSymbolTableRecord
100
AcDbLinetypeTableRecord
  2
ByLayer
 70
     0
  3

 72
    65
 73
     0
 40
0.0
  0
LTYPE
  5
7CF
330
778
100
AcDbSymbolTableRecord
100
AcDbLinetypeTableRecord
  2
CONTINUOUS
 70
     0
  3
Solid line
 72
    65
 73
     0
 40
0.0
  0
LTYPE
  5
7EE
330
778
100
AcDbSymbolTableRecord
100
AcDbLinetypeTableRecord
  2
HIDDEN
 70
     0
  3
__ __ __ __ __ __ __ __ __ __ __ __ __ __ __ __
 72
    65
 73
     2
 40
0.375
 49
0.25
 74
     0
 49
-0.125
 74
     0
  0
ENDTAB
  0
TABLE
  2
LAYER
  5
775
330
0
100
AcDbSymbolTable
 70
     8
  0
LAYER
  5
7C7
330
775
100
AcDbSymbolTableRecord
100
AcDbLayerTableRecord
  2
0
 70
     0
 62
     7
  6
CONTINUOUS
370
    -3
390
782
  0
LAYER
  5
7F7
330
775
100
AcDbSymbolTableRecord
100
AcDbLayerTableRecord
  2
YKK_ZWAK
 70
     0
 62
     7
  6
CONTINUOUS
370
    -3
390
782
  0
LAYER
  5
7F8
330
775
100
AcDbSymbolTableRecord
100
AcDbLayerTableRecord
  2
USER1
 70
     0
 62
     3
  6
CONTINUOUS
370
    -3
390
782
  0
LAYER
  5
7F9
330
775
100
AcDbSymbolTableRecord
100
AcDbLayerTableRecord
  2
YKK_11
 70
     0
 62
     7
  6
CONTINUOUS
370
    -3
390
782
  0
LAYER
  5
7FA
330
775
100
AcDbSymbolTableRecord
100
AcDbLayerTableRecord
  2
YKK_12
 70
     0
 62
     2
  6
CONTINUOUS
370
    -3
390
782
  0
LAYER
  5
7FB
330
775
100
AcDbSymbolTableRecord
100
AcDbLayerTableRecord
  2
YKK_13
 70
     0
 62
     4
  6
CONTINUOUS
370
    -3
390
782
  0
LAYER
  5
7FC
330
775
100
AcDbSymbolTableRecord
100
AcDbLayerTableRecord
  2
YKK_D
 70
     0
 62
     6
  6
CONTINUOUS
370
    -3
390
782
  0
LAYER
  5
7FD
330
775
100
AcDbSymbolTableRecord
100
AcDbLayerTableRecord
  2
YKK_A1
 70
     0
 62
     4
  6
CONTINUOUS
370
    -3
390
782
  0
ENDTAB
  0
TABLE
  2
STYLE
  5
776
330
0
100
AcDbSymbolTable
 70
     2
  0
STYLE
  5
7C8
330
776
100
AcDbSymbolTableRecord
100
AcDbTextStyleTableRecord
  2
STANDARD
 70
     0
 40
0.0
 41
1.0
 50
0.0
 71
     0
 42
3.0
  3
ROMANS.SHX
  4
EXTFONT.SHX
  0
STYLE
  5
7CC
330
776
100
AcDbSymbolTableRecord
100
AcDbTextStyleTableRecord
  2
YKK_OSSTYLE1
 70
     0
 40
0.0
 41
0.9
 50
0.0
 71
     0
 42
4.0
  3
romans.shx
  4
EXTFONT.SHX
1001
AcadAnnotative
1000
AnnotativeData
1002
{
1070
     1
1070
     1
1002
}
  0
ENDTAB
  0
TABLE
  2
VIEW
  5
779
330
0
100
AcDbSymbolTable
 70
     0
  0
ENDTAB
  0
TABLE
  2
UCS
  5
77A
330
0
100
AcDbSymbolTable
 70
     0
  0
ENDTAB
  0
TABLE
  2
APPID
  5
77C
330
0
100
AcDbSymbolTable
 70
    10
  0
APPID
  5
7C9
330
77C
100
AcDbSymbolTableRecord
100
AcDbRegAppTableRecord
  2
ACAD
 70
     0
  0
APPID
  5
7F0
330
77C
100
AcDbSymbolTableRecord
100
AcDbRegAppTableRecord
  2
ACAECLAYERSTANDARD
 70
     0
  0
APPID
  5
7F1
330
77C
100
AcDbSymbolTableRecord
100
AcDbRegAppTableRecord
  2
YALIB
 70
     0
  0
APPID
  5
7F2
330
77C
100
AcDbSymbolTableRecord
100
AcDbRegAppTableRecord
  2
ACDBBLOCKREPETAG
 70
     0
  0
APPID
  5
7F3
330
77C
100
AcDbSymbolTableRecord
100
AcDbRegAppTableRecord
  2
YOBJCUT10831141753
 70
     0
  0
APPID
  5
7F4
330
77C
100
AcDbSymbolTableRecord
100
AcDbRegAppTableRecord
  2
YOBJCUT11022134159
 70
     0
  0
APPID
  5
7F5
330
77C
100
AcDbSymbolTableRecord
100
AcDbRegAppTableRecord
  2
YKK_AP_LOCKLAYER
 70
     0
  0
APPID
  5
7F6
330
77C
100
AcDbSymbolTableRecord
100
AcDbRegAppTableRecord
  2
ACAD_MLEADERVER
 70
     0
  0
APPID
  5
7D0
330
77C
100
AcDbSymbolTableRecord
100
AcDbRegAppTableRecord
  2
AcadAnnotative
 70
     0
  0
APPID
  5
806
330
77C
100
AcDbSymbolTableRecord
100
AcDbRegAppTableRecord
  2
ACAD_NAV_VCDISPLAY
 70
     0
  0
ENDTAB
  0
TABLE
  2
DIMSTYLE
  5
77D
330
0
100
AcDbSymbolTable
 70
     2
100
AcDbDimStyleTable
 71
     0
  0
DIMSTYLE
105
7CA
330
77D
100
AcDbSymbolTableRecord
100
AcDbDimStyleTableRecord
  2
YKK_OSADOT
 70
     0
 41
1.5
 42
2.0
 43
10.0
 44
2.0
 73
     0
 74
     0
 78
    12
140
3.0
141
0.0
143
0.0394
145
1.0
147
0.01
172
     1
173
     1
279
     2
284
    12
285
    12
286
    12
340
7C8
341
7E6
343
7E6
344
7E6
  0
ENDTAB
  0
TABLE
  2
BLOCK_RECORD
  5
774
330
0
100
AcDbSymbolTable
 70
     8
  0
BLOCK_RECORD
  5
7E2
330
774
100
AcDbSymbolTableRecord
100
AcDbBlockTableRecord
  2
*Model_Space
340
7E5
  0
BLOCK_RECORD
  5
7DE
330
774
100
AcDbSymbolTableRecord
100
AcDbBlockTableRecord
  2
*Paper_Space
340
7E1
  0
BLOCK_RECORD
  5
7E6
330
774
100
AcDbSymbolTableRecord
100
AcDbBlockTableRecord
  2
DOT1
340
0
  0
BLOCK_RECORD
  5
7E7
330
774
100
AcDbSymbolTableRecord
100
AcDbBlockTableRecord
  2
A201
340
0
102
{BLKREFS
331
4E
102
}
  0
BLOCK_RECORD
  5
7E8
330
774
100
AcDbSymbolTableRecord
100
AcDbBlockTableRecord
  2
2K-63680
340
0
102
{BLKREFS
331
2C0
102
}
  0
BLOCK_RECORD
  5
7E9
330
774
100
AcDbSymbolTableRecord
100
AcDbBlockTableRecord
  2
2K-63601
340
0
102
{BLKREFS
331
117
102
}
  0
BLOCK_RECORD
  5
7EA
330
774
100
AcDbSymbolTableRecord
100
AcDbBlockTableRecord
  2
2K-63606
340
0
102
{BLKREFS
331
1DC
331
24D
102
}
  0
BLOCK_RECORD
  5
7EB
330
774
100
AcDbSymbolTableRecord
100
AcDbBlockTableRecord
  2
2K-64448
340
0
102
{BLKREFS
331
29
102
}
  0
BLOCK_RECORD
  5
7EC
330
774
100
AcDbSymbolTableRecord
100
AcDbBlockTableRecord
  2
2K-64429
340
0
102
{BLKREFS
331
35
102
}
  0
BLOCK_RECORD
  5
7ED
330
774
100
AcDbSymbolTableRecord
100
AcDbBlockTableRecord
  2
2K-63658
340
0
102
{BLKREFS
331
2AD
102
}
  0
ENDTAB
  0
ENDSEC
  0
SECTION
  2
BLOCKS
  0
BLOCK
  5
800
330
7E2
100
AcDbEntity
  8
0
100
AcDbBlockBegin
  2
*Model_Space
 70
     0
 10
0.0
 20
0.0
 30
0.0
  3
*Model_Space
  1

  0
ENDBLK
  5
801
330
7E2
100
AcDbEntity
  8
0
100
AcDbBlockEnd
  0
BLOCK
  5
7FE
330
7DE
100
AcDbEntity
 67
     1
  8
0
100
AcDbBlockBegin
  2
*Paper_Space
 70
     0
 10
0.0
 20
0.0
 30
0.0
  3
*Paper_Space
  1

  0
ENDBLK
  5
7FF
330
7DE
100
AcDbEntity
 67
     1
  8
0
100
AcDbBlockEnd
  0
BLOCK
  5
27
330
7E6
100
AcDbEntity
  8
0
100
AcDbBlockBegin
  2
DOT1
 70
     0
 10
0.0
 20
0.0
 30
0.0
  3
DOT1
  1

  0
CIRCLE
  5
24
330
7E6
100
AcDbEntity
  8
0
  6
ByBlock
 62
     0
100
AcDbCircle
 10
0.0
 20
0.0
 30
0.0
 40
0.5
1001
ACAD
1000
RTLwPs
1070
   158
  0
CIRCLE
  5
25
330
7E6
100
AcDbEntity
  8
0
  6
ByBlock
 62
     0
100
AcDbCircle
 10
0.0
 20
0.0
 30
0.0
 40
0.325
1001
ACAD
1000
RTLwPs
1070
   158
  0
LINE
  5
26
330
7E6
100
AcDbEntity
  8
0
  6
ByBlock
 62
     0
100
AcDbLine
 10
0.0
 20
0.0
 30
0.0
 11
-1.0
 21
0.0
 31
0.0
1001
ACAD
1000
RTLwPs
1070
   158
  0
ENDBLK
  5
28
330
7E6
100
AcDbEntity
  8
0
100
AcDbBlockEnd
  0
BLOCK
  5
108
330
7E7
100
AcDbEntity
  8
0
100
AcDbBlockBegin
  2
A201
 70
     0
 10
0.0
 20
0.0
 30
0.0
  3
A201
  1

  0
LINE
  5
51
330
7E7
100
AcDbEntity
  8
YKK_ZWAK
  6
Continuous
 62
   254
100
AcDbLine
 10
21.000001
 20
8.9995
 30
0.0
 11
544.000013
 21
8.9995
 31
0.0
  0
LINE
  5
52
330
7E7
100
AcDbEntity
  8
YKK_ZWAK
  6
Continuous
 62
   131
100
AcDbLine
 10
205.000005
 20
21.000001
 30
0.0
 11
297.000007
 21
21.000001
 31
0.0
  0
LINE
  5
53
330
7E7
100
AcDbEntity
  8
YKK_ZWAK
  6
Continuous
 62
   254
100
AcDbLine
 10
571.000014
 20
34.999501
 30
0.0
 11
21.000001
 21
34.999501
 31
0.0
  0
LINE
  5
54
330
7E7
100
AcDbEntity
  8
YKK_ZWAK
  6
Continuous
 62
   254
100
AcDbLine
 10
544.000013
 20
33.999501
 30
0.0
 11
21.000001
 21
33.999501
 31
0.0
  0
LINE
  5
55
330
7E7
100
AcDbEntity
  8
YKK_ZWAK
  6
Continuous
 62
   254
100
AcDbLine
 10
571.000014
 20
409.99951
 30
0.0
 11
21.000001
 21
409.99951
 31
0.0
  0
LINE
  5
56
330
7E7
100
AcDbEntity
  8
YKK_ZWAK
  6
Continuous
 62
   254
100
AcDbLine
 10
21.000001
 20
34.999501
 30
0.0
 11
21.000001
 21
409.99951
 31
0.0
  0
LINE
  5
57
330
7E7
100
AcDbEntity
  8
YKK_ZWAK
  6
HIDDEN
 62
   131
100
AcDbLine
 10
24.284751
 20
13.7865
 30
0.0
 11
201.565005
 21
13.7865
 31
0.0
  0
LINE
  5
59
330
7E7
100
AcDbEntity
  8
YKK_ZWAK
  6
HIDDEN
 62
   131
100
AcDbLine
 10
24.284751
 20
18.7355
 30
0.0
 11
201.565005
 21
18.7355
 31
0.0
  0
LINE
  5
5A
330
7E7
100
AcDbEntity
  8
YKK_ZWAK
  6
HIDDEN
 62
   131
100
AcDbLine
 10
24.284751
 20
23.684501
 30
0.0
 11
201.565005
 21
23.684501
 31
0.0
  0
LINE
  5
5B
330
7E7
100
AcDbEntity
  8
YKK_ZWAK
  6
HIDDEN
 62
   131
100
AcDbLine
 10
24.284751
 20
28.633501
 30
0.0
 11
201.565005
 21
28.633501
 31
0.0
  0
LINE
  5
5C
330
7E7
100
AcDbEntity
  8
YKK_ZWAK
  6
Continuous
 62
   254
100
AcDbLine
 10
21.000001
 20
8.9995
 30
0.0
 11
21.000001
 21
33.999501
 31
0.0
  0
TEXT
  5
5D
330
7E7
100
AcDbEntity
  8
YKK_ZWAK
  6
Continuous
 62
   131
100
AcDbText
 10
24.367481
 20
29.394844
 30
0.0
 40
3.0
  1
変 更 記 事
 41
0.9
  7
YKK_OSSTYLE1
100
AcDbText
  0
TEXT
  5
5F
330
7E7
100
AcDbEntity
  8
YKK_ZWAK
  6
Continuous
 62
   254
100
AcDbText
 10
289.94159
 20
12.3725
 30
0.0
 40
5.0
  1
殿
 41
0.9
  7
YKK_OSSTYLE1
100
AcDbText
  0
LINE
  5
60
330
7E7
100
AcDbEntity
  8
YKK_ZWAK
  6
Continuous
 62
   254
100
AcDbLine
 10
296.000007
 20
33.999501
 30
0.0
 11
296.000007
 21
8.9995
 31
0.0
  0
LINE
  5
61
330
7E7
100
AcDbEntity
  8
YKK_ZWAK
  6
Continuous
 62
   254
100
AcDbLine
 10
205.000005
 20
33.999501
 30
0.0
 11
205.000005
 21
8.9995
 31
0.0
  0
TEXT
  5
62
330
7E7
100
AcDbEntity
  8
YKK_ZWAK
  6
Continuous
 62
   131
100
AcDbText
 10
207.692335
 20
17.675001
 30
0.0
 40
3.0
  1
施　　工
 41
0.9
  7
YKK_OSSTYLE1
100
AcDbText
  0
TEXT
  5
63
330
7E7
100
AcDbEntity
  8
YKK_ZWAK
  6
Continuous
 62
   131
100
AcDbText
 10
207.692335
 20
30.047503
 30
0.0
 40
3.0
  1
設計監理
 41
0.9
  7
YKK_OSSTYLE1
100
AcDbText
  0
TEXT
  5
64
330
7E7
100
AcDbEntity
  8
YKK_ZWAK
  6
Continuous
 62
   254
100
AcDbText
 10
289.94159
 20
24.745001
 30
0.0
 40
5.0
  1
殿
 41
0.9
  7
YKK_OSSTYLE1
100
AcDbText
  0
LINE
  5
65
330
7E7
100
AcDbEntity
  8
YKK_ZWAK
  6
Continuous
 62
   254
100
AcDbLine
 10
19.000001
 20
222.4995055
 30
0.0
 11
21.000001
 21
222.4995055
 31
0.0
  0
LINE
  5
66
330
7E7
100
AcDbEntity
  8
YKK_ZWAK
  6
Continuous
 62
     8
100
AcDbLine
 10
296.010007
 20
411.99951
 30
0.0
 11
296.010007
 21
409.99951
 31
0.0
  0
LINE
  5
67
330
7E7
100
AcDbEntity
  8
YKK_ZWAK
  6
Continuous
 62
   254
100
AcDbLine
 10
571.000014
 20
409.99951
 30
0.0
 11
571.000014
 21
34.999501
 31
0.0
  0
LINE
  5
68
330
7E7
100
AcDbEntity
  8
YKK_ZWAK
  6
Continuous
 62
   254
100
AcDbLine
 10
452.000011
 20
15.9995
 30
0.0
 11
523.999763
 21
15.9995
 31
0.0
  0
LINE
  5
69
330
7E7
100
AcDbEntity
  8
YKK_ZWAK
  6
Continuous
 62
   131
100
AcDbLine
 10
437.703011
 20
29.000001
 30
0.0
 11
389.00001
 21
29.000001
 31
0.0
  0
LINE
  5
6A
330
7E7
100
AcDbEntity
  8
YKK_ZWAK
  6
Continuous
 62
   254
100
AcDbLine
 10
389.00001
 20
33.999501
 30
0.0
 11
389.00001
 21
8.9995
 31
0.0
  0
LINE
  5
6B
330
7E7
100
AcDbEntity
  8
YKK_ZWAK
  6
Continuous
 62
   131
100
AcDbLine
 10
297.000007
 20
21.000001
 30
0.0
 11
389.00001
 21
21.000001
 31
0.0
  0
TEXT
  5
6C
330
7E7
100
AcDbEntity
  8
YKK_ZWAK
  6
Continuous
 62
   131
100
AcDbText
 10
298.58378403
 20
17.465002
 30
0.0
 40
3.0
  1
図面内容
 41
0.9
  7
YKK_OSSTYLE1
100
AcDbText
  0
TEXT
  5
6D
330
7E7
100
AcDbEntity
  8
YKK_ZWAK
  6
Continuous
 62
   131
100
AcDbText
 10
298.86588
 20
30.047503
 30
0.0
 40
3.0
  1
工 事 名
 41
0.9
  7
YKK_OSSTYLE1
100
AcDbText
  0
TEXT
  5
6E
330
7E7
100
AcDbEntity
  8
YKK_ZWAK
  6
Continuous
 62
   254
100
AcDbText
 10
377.16530176
 20
24.745001
 30
0.0
 40
5.0
  1
工事
 41
0.9
  7
YKK_OSSTYLE1
100
AcDbText
  0
LINE
  5
6F
330
7E7
100
AcDbEntity
  8
YKK_ZWAK
  6
Continuous
 62
   254
100
AcDbLine
 10
452.000011
 20
33.999501
 30
0.0
 11
452.000011
 21
8.9995
 31
0.0
  0
LINE
  5
70
330
7E7
100
AcDbEntity
  8
YKK_ZWAK
  6
Continuous
 62
   254
100
AcDbLine
 10
437.000011
 20
33.999501
 30
0.0
 11
437.000011
 21
8.9995
 31
0.0
  0
LINE
  5
71
330
7E7
100
AcDbEntity
  8
YKK_ZWAK
  6
Continuous
 62
   131
100
AcDbLine
 10
443.051603
 20
10.181617
 30
0.0
 11
449.854371
 21
16.984384
 31
0.0
  0
LINE
  5
72
330
7E7
100
AcDbEntity
  8
YKK_ZWAK
  6
Continuous
 62
   131
100
AcDbLine
 10
421.00001
 20
33.999501
 30
0.0
 11
421.00001
 21
8.9995
 31
0.0
  0
LINE
  5
73
330
7E7
100
AcDbEntity
  8
YKK_ZWAK
  6
Continuous
 62
   131
100
AcDbLine
 10
405.00001
 20
33.999501
 30
0.0
 11
405.00001
 21
8.9995
 31
0.0
  0
TEXT
  5
74
330
7E7
100
AcDbEntity
  8
YKK_ZWAK
  6
Continuous
 62
   131
100
AcDbText
 10
392.18209354
 20
9.752325
 30
0.0
 40
3.5
  1
 ． ．
 41
0.9
  7
YKK_OSSTYLE1
100
AcDbText
  0
LINE
  5
75
330
7E7
100
AcDbEntity
  8
YKK_ZWAK
  6
Continuous
 62
   131
100
AcDbLine
 10
455.5999986
 20
10.4995
 30
0.0
 11
455.5999986
 21
8.9995
 31
0.0
  0
TEXT
  5
76
330
7E7
100
AcDbEntity
  8
YKK_ZWAK
  6
Continuous
 62
   131
100
AcDbText
 10
407.8246491
 20
29.87075
 30
0.0
 40
3.0
  1
担  当
 41
0.9
  7
YKK_OSSTYLE1
100
AcDbText
  0
TEXT
  5
77
330
7E7
100
AcDbEntity
  8
YKK_ZWAK
  6
Continuous
 62
   131
100
AcDbText
 10
392.5636631
 20
29.87075
 30
0.0
 40
3.0
  1
照  査
 41
0.9
  7
YKK_OSSTYLE1
100
AcDbText
  0
TEXT
  5
78
330
7E7
100
AcDbEntity
  8
YKK_ZWAK
  6
Continuous
 62
   131
100
AcDbText
 10
424.0856971
 20
29.883751
 30
0.0
 40
3.0
  1
作  図
 41
0.9
  7
YKK_OSSTYLE1
100
AcDbText
  0
TEXT
  5
79
330
7E7
100
AcDbEntity
  8
YKK_ZWAK
  6
Continuous
 62
   131
100
AcDbText
 10
453.905095
 20
30.047501
 30
0.0
 40
3.0
  1
御承認印
 41
0.9
  7
YKK_OSSTYLE1
100
AcDbText
  0
LINE
  5
7A
330
7E7
100
AcDbEntity
  8
YKK_ZWAK
  6
Continuous
 62
   131
100
AcDbLine
 10
437.703011
 20
29.000001
 30
0.0
 11
452.000011
 21
29.000001
 31
0.0
  0
LINE
  5
7B
330
7E7
100
AcDbEntity
  8
YKK_ZWAK
  6
Continuous
 62
   131
100
AcDbLine
 10
439.264403
 20
21.330812
 30
0.0
 11
446.188247
 21
28.254656
 31
0.0
  0
TEXT
  5
7C
330
7E7
100
AcDbEntity
  8
YKK_ZWAK
  6
Continuous
 62
   131
100
AcDbText
 10
439.5087681
 20
30.044463
 30
0.0
 40
3.0
  1
尺  度
 41
0.9
  7
YKK_OSSTYLE1
100
AcDbText
  0
CIRCLE
  5
7D
330
7E7
100
AcDbEntity
  8
YKK_ZWAK
  6
Continuous
 62
     8
100
AcDbCircle
 10
579.426014
 20
83.719502
 30
0.0
 40
6.299999999999999
  0
LINE
  5
7E
330
7E7
100
AcDbEntity
  8
YKK_ZWAK
  6
Continuous
 62
     8
100
AcDbLine
 10
573.126014
 20
69.579502
 30
0.0
 11
585.726014
 21
69.579502
 31
0.0
  0
LINE
  5
7F
330
7E7
100
AcDbEntity
  8
YKK_ZWAK
  6
Continuous
 62
     8
100
AcDbLine
 10
573.126014
 20
55.439501
 30
0.0
 11
585.726014
 21
55.439501
 31
0.0
  0
CIRCLE
  5
80
330
7E7
100
AcDbEntity
  8
YKK_ZWAK
  6
Continuous
 62
     8
100
AcDbCircle
 10
579.426014
 20
69.579502
 30
0.0
 40
6.299999999999999
  0
CIRCLE
  5
81
330
7E7
100
AcDbEntity
  8
YKK_ZWAK
  6
Continuous
 62
     8
100
AcDbCircle
 10
579.426014
 20
55.439501
 30
0.0
 40
6.299999999999999
  0
LINE
  5
82
330
7E7
100
AcDbEntity
  8
YKK_ZWAK
  6
Continuous
 62
     8
100
AcDbLine
 10
573.126014
 20
41.299501
 30
0.0
 11
585.726014
 21
41.299501
 31
0.0
  0
CIRCLE
  5
83
330
7E7
100
AcDbEntity
  8
YKK_ZWAK
  6
Continuous
 62
     8
100
AcDbCircle
 10
579.426014
 20
41.299501
 30
0.0
 40
6.299999999999999
  0
LINE
  5
84
330
7E7
100
AcDbEntity
  8
YKK_ZWAK
  6
Continuous
 62
   254
100
AcDbLine
 10
544.000013
 20
33.999501
 30
0.0
 11
544.000013
 21
8.9995
 31
0.0
  0
LINE
  5
85
330
7E7
100
AcDbEntity
  8
YKK_ZWAK
  6
Continuous
 62
   254
100
AcDbLine
 10
523.999763
 20
33.999501
 30
0.0
 11
523.999763
 21
8.9995
 31
0.0
  0
ARC
  5
86
330
7E7
100
AcDbEntity
  8
YKK_ZWAK
  6
Continuous
 62
   254
100
AcDbCircle
 10
567.23923515
 20
16.32442811
 30
0.0
 40
3.065267824757687
100
AcDbArc
 50
285.44291453
 51
349.90448123
  0
ARC
  5
87
330
7E7
100
AcDbEntity
  8
YKK_ZWAK
  6
Continuous
 62
   254
100
AcDbCircle
 10
553.606314
 20
13.7174867
 30
0.0
 40
7.916047100361496
100
AcDbArc
 50
168.7637177
 51
199.80079153
  0
ARC
  5
88
330
7E7
100
AcDbEntity
  8
YKK_ZWAK
  6
Continuous
 62
   254
100
AcDbCircle
 10
550.84442657
 20
13.7651724
 30
0.0
 40
1.69178303147034
100
AcDbArc
 50
171.08203026
 51
216.71922793
  0
LINE
  5
89
330
7E7
100
AcDbEntity
  8
YKK_ZWAK
  6
Continuous
 62
   254
100
AcDbLine
 10
562.610947
 20
9.566381
 30
0.0
 11
562.610947
 21
20.243049
 31
0.0
  0
LINE
  5
8A
330
7E7
100
AcDbEntity
  8
YKK_ZWAK
  6
Continuous
 62
   254
100
AcDbLine
 10
559.019868
 20
23.216355
 30
0.0
 11
559.019868
 21
9.566381
 31
0.0
  0
LINE
  5
8B
330
7E7
100
AcDbEntity
  8
YKK_ZWAK
  6
Continuous
 62
   254
100
AcDbLine
 10
557.513933
 20
20.011363
 30
0.0
 11
557.513933
 21
9.585666
 31
0.0
  0
LINE
  5
8C
330
7E7
100
AcDbEntity
  8
YKK_ZWAK
  6
Continuous
 62
   254
100
AcDbLine
 10
554.019393
 20
12.520312
 30
0.0
 11
554.019393
 21
19.470807
 31
0.0
  0
LINE
  5
8D
330
7E7
100
AcDbEntity
  8
YKK_ZWAK
  6
Continuous
 62
   254
100
AcDbLine
 10
557.28225
 20
9.547052
 30
0.0
 11
549.405042
 21
9.527722
 31
0.0
  0
LINE
  5
8E
330
7E7
100
AcDbEntity
  8
YKK_ZWAK
  6
Continuous
 62
   254
100
AcDbLine
 10
550.00355
 20
12.520312
 30
0.0
 11
554.019393
 21
12.520312
 31
0.0
  0
ARC
  5
8F
330
7E7
100
AcDbEntity
  8
YKK_ZWAK
  6
Continuous
 62
   254
100
AcDbCircle
 10
548.60007313
 20
12.25485189
 30
0.0
 40
2.730646981973357
100
AcDbArc
 50
207.31435415
 51
263.59464075
  0
ARC
  5
90
330
7E7
100
AcDbEntity
  8
YKK_ZWAK
  6
Continuous
 62
   254
100
AcDbCircle
 10
550.17864126
 20
13.59595698
 30
0.0
 40
1.089801345776779
100
AcDbArc
 50
230.97279559
 51
260.75491133
  0
LINE
  5
91
330
7E7
100
AcDbEntity
  8
YKK_ZWAK
  6
Continuous
 62
   254
100
AcDbLine
 10
549.405042
 20
9.527722
 30
0.0
 11
548.343169
 21
9.527722
 31
0.0
  0
LINE
  5
92
330
7E7
100
AcDbEntity
  8
YKK_ZWAK
  6
Continuous
 62
   254
100
AcDbLine
 10
557.513933
 20
9.585666
 30
0.0
 11
557.28225
 21
9.547052
 31
0.0
  0
LINE
  5
93
330
7E7
100
AcDbEntity
  8
YKK_ZWAK
  6
Continuous
 62
   254
100
AcDbLine
 10
553.71047
 20
12.520312
 30
0.0
 11
553.961471
 21
12.520312
 31
0.0
  0
LINE
  5
94
330
7E7
100
AcDbEntity
  8
YKK_ZWAK
  6
Continuous
 62
   254
100
AcDbLine
 10
554.019393
 20
12.521084
 30
0.0
 11
554.020164
 21
12.520312
 31
0.0
  0
LINE
  5
95
330
7E7
100
AcDbEntity
  8
YKK_ZWAK
  6
Continuous
 62
   254
100
AcDbLine
 10
562.051042
 20
9.566381
 30
0.0
 11
562.610947
 21
9.566381
 31
0.0
  0
LINE
  5
96
330
7E7
100
AcDbEntity
  8
YKK_ZWAK
  6
Continuous
 62
   254
100
AcDbLine
 10
559.019868
 20
9.566381
 30
0.0
 11
562.051042
 21
9.566381
 31
0.0
  0
TEXT
  5
97
330
7E7
100
AcDbEntity
  8
YKK_ZWAK
  6
Continuous
 62
   131
100
AcDbText
 10
528.4269094
 20
29.81226201
 30
0.0
 40
3.2
  1
図　番
 41
0.9
  7
YKK_OSSTYLE1
100
AcDbText
  0
TEXT
  5
98
330
7E7
100
AcDbEntity
  8
YKK_ZWAK
  6
Continuous
 62
   131
100
AcDbText
 10
526.62767404
 20
16.79627903
 30
0.0
 40
3.2
  1
通し図番
 41
0.9
  7
YKK_OSSTYLE1
100
AcDbText
  0
LINE
  5
99
330
7E7
100
AcDbEntity
  8
YKK_ZWAK
  6
Continuous
 62
   131
100
AcDbLine
 10
523.999763
 20
28.999501
 30
0.0
 11
544.000013
 21
28.999501
 31
0.0
  0
LINE
  5
9A
330
7E7
100
AcDbEntity
  8
YKK_ZWAK
  6
Continuous
 62
   131
100
AcDbLine
 10
544.000013
 20
16.0
 30
0.0
 11
523.999763
 21
16.0
 31
0.0
  0
LINE
  5
9B
330
7E7
100
AcDbEntity
  8
YKK_ZWAK
  6
Continuous
 62
   254
100
AcDbLine
 10
523.999763
 20
21.000001
 30
0.0
 11
544.000013
 21
21.000001
 31
0.0
  0
TEXT
  5
9C
330
7E7
100
AcDbEntity
  8
YKK_ZWAK
  6
Continuous
 62
   131
100
AcDbText
 10
504.12596439
 20
16.73585252
 30
0.0
 40
2.828
  1
年   月   日
 41
0.9
  7
YKK_OSSTYLE1
100
AcDbText
  0
ARC
  5
9D
330
7E7
100
AcDbEntity
  8
YKK_ZWAK
  6
Continuous
 62
   254
100
AcDbCircle
 10
550.80023932
 20
8.38955158
 30
0.0
 40
9.506414110787718
100
AcDbArc
 50
79.38097908
 51
112.0582515
  0
ARC
  5
9E
330
7E7
100
AcDbEntity
  8
YKK_ZWAK
  6
Continuous
 62
   254
100
AcDbCircle
 10
552.02960157
 20
8.66870802
 30
0.0
 40
14.82019555938878
100
AcDbArc
 50
78.78009532
 51
91.46937906
  0
LINE
  5
9F
330
7E7
100
AcDbEntity
  8
YKK_ZWAK
  6
Continuous
 62
   254
100
AcDbLine
 10
553.247106
 20
20.281664
 30
0.0
 11
550.60589668
 21
20.23169161
 31
0.0
  0
LINE
  5
A0
330
7E7
100
AcDbEntity
  8
YKK_ZWAK
  6
Continuous
 62
   254
100
AcDbLine
 10
553.054042
 20
15.04953
 30
0.0
 11
550.200893
 21
15.046227
 31
0.0
  0
LINE
  5
A1
330
7E7
100
AcDbEntity
  8
YKK_ZWAK
  6
Continuous
 62
   254
100
AcDbLine
 10
554.187226
 20
33.42965
 30
0.0
 11
550.949599
 21
27.69553
 31
0.0
  0
LINE
  5
A2
330
7E7
100
AcDbEntity
  8
YKK_ZWAK
  6
Continuous
 62
   254
100
AcDbLine
 10
551.59718
 20
33.42965
 30
0.0
 11
554.187226
 21
33.42965
 31
0.0
  0
LINE
  5
A3
330
7E7
100
AcDbEntity
  8
YKK_ZWAK
  6
Continuous
 62
   254
100
AcDbLine
 10
548.594154
 20
27.714815
 30
0.0
 11
545.311979
 21
33.352466
 31
0.0
  0
ARC
  5
A4
330
7E7
100
AcDbEntity
  8
YKK_ZWAK
  6
Continuous
 62
   254
100
AcDbCircle
 10
549.68520483
 20
20.30975154
 30
0.0
 40
3.598113650678814
100
AcDbArc
 50
158.41083245
 51
179.71775245
  0
ARC
  5
A5
330
7E7
100
AcDbEntity
  8
YKK_ZWAK
  6
Continuous
 62
   254
100
AcDbCircle
 10
548.59054743
 20
14.76560333
 30
0.0
 40
2.791490107652263
100
AcDbArc
 50
121.82711365
 51
169.08474902
  0
LINE
  5
A6
330
7E7
100
AcDbEntity
  8
YKK_ZWAK
  6
Continuous
 62
   254
100
AcDbLine
 10
549.405042
 20
18.949491
 30
0.0
 11
546.084266
 21
18.949491
 31
0.0
  0
LINE
  5
A7
330
7E7
100
AcDbEntity
  8
YKK_ZWAK
  6
Continuous
 62
   254
100
AcDbLine
 10
546.084266
 20
18.949491
 30
0.0
 11
546.084266
 21
20.32747631
 31
0.0
  0
ARC
  5
A8
330
7E7
100
AcDbEntity
  8
YKK_ZWAK
  6
Continuous
 62
   254
100
AcDbCircle
 10
550.20700835
 20
14.01426078
 30
0.0
 40
1.031984336873053
100
AcDbArc
 50
90.33952634
 51
178.0363902
  0
ARC
  5
A9
330
7E7
100
AcDbEntity
  8
YKK_ZWAK
  6
Continuous
 62
   254
100
AcDbCircle
 10
550.91098672
 20
18.99454401
 30
0.0
 40
1.5066184932453
100
AcDbArc
 50
138.46381796
 51
181.71359389
  0
ARC
  5
AA
330
7E7
100
AcDbEntity
  8
YKK_ZWAK
  6
Continuous
 62
   254
100
AcDbCircle
 10
550.51068793
 20
19.02046023
 30
0.0
 40
1.214967561291876
100
AcDbArc
 50
85.50551117
 51
126.78038212
  0
ARC
  5
AB
330
7E7
100
AcDbEntity
  8
YKK_ZWAK
  6
Continuous
 62
   254
100
AcDbCircle
 10
548.00461954
 20
21.10278181
 30
0.0
 40
1.745462511199758
100
AcDbArc
 50
109.02126645
 51
161.5126404
  0
ARC
  5
AC
330
7E7
100
AcDbEntity
  8
YKK_ZWAK
  6
Continuous
 62
   254
100
AcDbCircle
 10
551.65872095
 20
10.85588209
 30
0.0
 40
12.62863449008531
100
AcDbArc
 50
89.89164773
 51
109.30848271
  0
LINE
  5
AD
330
7E7
100
AcDbEntity
  8
YKK_ZWAK
  6
Continuous
 62
   254
100
AcDbLine
 10
548.594154
 20
24.529198
 30
0.0
 11
548.594154
 21
27.714815
 31
0.0
  0
LINE
  5
AE
330
7E7
100
AcDbEntity
  8
YKK_ZWAK
  6
Continuous
 62
   254
100
AcDbLine
 10
550.949599
 20
24.529198
 30
0.0
 11
548.594154
 21
24.529198
 31
0.0
  0
LINE
  5
AF
330
7E7
100
AcDbEntity
  8
YKK_ZWAK
  6
Continuous
 62
   254
100
AcDbLine
 10
550.949599
 20
27.69553
 30
0.0
 11
550.949599
 21
24.529198
 31
0.0
  0
LINE
  5
B0
330
7E7
100
AcDbEntity
  8
YKK_ZWAK
  6
Continuous
 62
   254
100
AcDbLine
 10
545.311979
 20
33.352466
 30
0.0
 11
547.821884
 21
33.352466
 31
0.0
  0
LINE
  5
B1
330
7E7
100
AcDbEntity
  8
YKK_ZWAK
  6
Continuous
 62
   254
100
AcDbLine
 10
551.59718
 20
33.42965
 30
0.0
 11
549.771867
 21
29.877219
 31
0.0
  0
LINE
  5
B2
330
7E7
100
AcDbEntity
  8
YKK_ZWAK
  6
Continuous
 62
   254
100
AcDbLine
 10
549.617423
 20
29.993062
 30
0.0
 11
549.771867
 21
29.877219
 31
0.0
  0
LINE
  5
B3
330
7E7
100
AcDbEntity
  8
YKK_ZWAK
  6
Continuous
 62
   254
100
AcDbLine
 10
547.821884
 20
33.352466
 30
0.0
 11
549.617423
 21
29.993062
 31
0.0
  0
ARC
  5
B4
330
7E7
100
AcDbEntity
  8
YKK_ZWAK
  6
Continuous
 62
   254
100
AcDbCircle
 10
568.28604917
 20
28.29398617
 30
0.0
 40
1.544618833868573
100
AcDbArc
 50
0.00166292
 51
89.99603715
  0
ARC
  5
B5
330
7E7
100
AcDbEntity
  8
YKK_ZWAK
  6
Continuous
 62
   254
100
AcDbCircle
 10
559.98514917
 20
28.23604217
 30
0.0
 40
1.544618833868573
100
AcDbArc
 50
0.00166292
 51
89.99603715
  0
LINE
  5
B6
330
7E7
100
AcDbEntity
  8
YKK_ZWAK
  6
Continuous
 62
   254
100
AcDbLine
 10
562.553028
 20
24.625712
 30
0.0
 11
562.553028
 21
33.487594
 31
0.0
  0
LINE
  5
B7
330
7E7
100
AcDbEntity
  8
YKK_ZWAK
  6
Continuous
 62
   254
100
AcDbLine
 10
554.328297
 20
24.548527
 30
0.0
 11
554.328297
 21
33.410366
 31
0.0
  0
LINE
  5
B8
330
7E7
100
AcDbEntity
  8
YKK_ZWAK
  6
Continuous
 62
   254
100
AcDbLine
 10
564.985674
 20
24.625712
 30
0.0
 11
562.553028
 21
24.625712
 31
0.0
  0
LINE
  5
B9
330
7E7
100
AcDbEntity
  8
YKK_ZWAK
  6
Continuous
 62
   254
100
AcDbLine
 10
567.302491
 20
23.216355
 30
0.0
 11
559.019868
 21
23.216355
 31
0.0
  0
LINE
  5
BA
330
7E7
100
AcDbEntity
  8
YKK_ZWAK
  6
Continuous
 62
   254
100
AcDbLine
 10
563.479759
 20
13.196086
 30
0.0
 11
567.283206
 21
13.196086
 31
0.0
  0
LINE
  5
BB
330
7E7
100
AcDbEntity
  8
YKK_ZWAK
  6
Continuous
 62
   254
100
AcDbLine
 10
566.008932
 20
16.150017
 30
0.0
 11
563.479759
 21
16.150017
 31
0.0
  0
LINE
  5
BC
330
7E7
100
AcDbEntity
  8
YKK_ZWAK
  6
Continuous
 62
   254
100
AcDbLine
 10
562.610947
 20
20.243049
 30
0.0
 11
565.931704
 21
20.243049
 31
0.0
  0
ARC
  5
BD
330
7E7
100
AcDbEntity
  8
YKK_ZWAK
  6
Continuous
 62
   254
100
AcDbCircle
 10
554.22066
 20
20.08146332
 30
0.0
 40
3.294016994121146
100
AcDbArc
 50
358.78059045
 51
38.76562608
  0
ARC
  5
BE
330
7E7
100
AcDbEntity
  8
YKK_ZWAK
  6
Continuous
 62
   254
100
AcDbCircle
 10
552.89717617
 20
19.17519964
 30
0.0
 40
1.16048018439929
100
AcDbArc
 50
14.7551995
 51
72.44994796
  0
LINE
  5
BF
330
7E7
100
AcDbEntity
  8
YKK_ZWAK
  6
Continuous
 62
   254
100
AcDbLine
 10
553.054042
 20
17.617318
 30
0.0
 11
553.054042
 21
15.04953
 31
0.0
  0
LINE
  5
C0
330
7E7
100
AcDbEntity
  8
YKK_ZWAK
  6
Continuous
 62
   254
100
AcDbLine
 10
552.552059
 20
17.733161
 30
0.0
 11
553.054042
 21
17.617318
 31
0.0
  0
LINE
  5
C1
330
7E7
100
AcDbEntity
  8
YKK_ZWAK
  6
Continuous
 62
   254
100
AcDbLine
 10
563.479759
 20
16.150017
 30
0.0
 11
563.479759
 21
13.196086
 31
0.0
  0
LINE
  5
C2
330
7E7
100
AcDbEntity
  8
YKK_ZWAK
  6
Continuous
 62
   254
100
AcDbLine
 10
558.981248
 20
27.869273
 30
0.0
 11
556.703043
 21
27.869273
 31
0.0
  0
ARC
  5
C3
330
7E7
100
AcDbEntity
  8
YKK_ZWAK
  6
Continuous
 62
   254
100
AcDbCircle
 10
554.37879626
 20
20.07343796
 30
0.0
 40
3.177485297559325
100
AcDbArc
 50
40.66422291
 51
80.31693569
  0
LINE
  5
C4
330
7E7
100
AcDbEntity
  8
YKK_ZWAK
  6
Continuous
 62
   254
100
AcDbLine
 10
556.703043
 20
24.548527
 30
0.0
 11
554.328297
 21
24.548527
 31
0.0
  0
LINE
  5
C5
330
7E7
100
AcDbEntity
  8
YKK_ZWAK
  6
Continuous
 62
   254
100
AcDbLine
 10
556.703043
 20
27.869273
 30
0.0
 11
556.703043
 21
24.548527
 31
0.0
  0
LINE
  5
C6
330
7E7
100
AcDbEntity
  8
YKK_ZWAK
  6
Continuous
 62
   254
100
AcDbLine
 10
561.529756
 20
28.236131
 30
0.0
 11
561.529756
 21
24.606427
 31
0.0
  0
LINE
  5
C7
330
7E7
100
AcDbEntity
  8
YKK_ZWAK
  6
Continuous
 62
   254
100
AcDbLine
 10
559.290171
 20
27.75343
 30
0.0
 11
558.981248
 21
27.869273
 31
0.0
  0
LINE
  5
C8
330
7E7
100
AcDbEntity
  8
YKK_ZWAK
  6
Continuous
 62
   254
100
AcDbLine
 10
559.290171
 20
24.606427
 30
0.0
 11
559.290171
 21
27.75343
 31
0.0
  0
LINE
  5
C9
330
7E7
100
AcDbEntity
  8
YKK_ZWAK
  6
Continuous
 62
   254
100
AcDbLine
 10
561.529756
 20
24.606427
 30
0.0
 11
559.290171
 21
24.606427
 31
0.0
  0
ARC
  5
CA
330
7E7
100
AcDbEntity
  8
YKK_ZWAK
  6
Continuous
 62
   254
100
AcDbCircle
 10
567.19412132
 20
20.11358836
 30
0.0
 40
3.10079004118515
100
AcDbArc
 50
14.44572328
 51
87.08746338
  0
ARC
  5
CB
330
7E7
100
AcDbEntity
  8
YKK_ZWAK
  6
Continuous
 62
   254
100
AcDbCircle
 10
564.36413966
 20
17.54165325
 30
0.0
 40
2.640498151312115
100
AcDbArc
 50
343.69020327
 51
354.7536235
  0
ARC
  5
CC
330
7E7
100
AcDbEntity
  8
YKK_ZWAK
  6
Continuous
 62
   254
100
AcDbCircle
 10
566.00966971
 20
17.08269286
 30
0.0
 40
0.9326761550249523
100
AcDbArc
 50
269.95468111
 51
342.90144849
  0
ARC
  5
CD
330
7E7
100
AcDbEntity
  8
YKK_ZWAK
  6
Continuous
 62
   254
100
AcDbCircle
 10
566.04623887
 20
19.3715952
 30
0.0
 40
0.8777839045469994
100
AcDbArc
 50
16.43123457
 51
96.91661396
  0
ARC
  5
CE
330
7E7
100
AcDbEntity
  8
YKK_ZWAK
  6
Continuous
 62
   254
100
AcDbCircle
 10
564.37945167
 20
18.85119468
 30
0.0
 40
2.623848066620805
100
AcDbArc
 50
4.93422741
 51
17.03551963
  0
LINE
  5
CF
330
7E7
100
AcDbEntity
  8
YKK_ZWAK
  6
Continuous
 62
   254
100
AcDbLine
 10
567.283206
 20
13.196086
 30
0.0
 11
568.055449
 21
13.369828
 31
0.0
  0
LINE
  5
D0
330
7E7
100
AcDbEntity
  8
YKK_ZWAK
  6
Continuous
 62
   254
100
AcDbLine
 10
566.980872
 20
19.173458
 30
0.0
 11
566.993576
 21
17.29190622
 31
0.0
  0
ARC
  5
D1
330
7E7
100
AcDbEntity
  8
YKK_ZWAK
  6
Continuous
 62
   254
100
AcDbCircle
 10
555.54697452
 20
18.15146785
 30
0.0
 40
14.90004285451682
100
AcDbArc
 50
350.99026817
 51
10.67624521
  0
LINE
  5
D2
330
7E7
100
AcDbEntity
  8
YKK_ZWAK
  6
Continuous
 62
   254
100
AcDbLine
 10
569.831709
 20
24.645041
 30
0.0
 11
567.572791
 21
24.645041
 31
0.0
  0
LINE
  5
D3
330
7E7
100
AcDbEntity
  8
YKK_ZWAK
  6
Continuous
 62
   254
100
AcDbLine
 10
567.572791
 20
27.772759
 30
0.0
 11
567.263877
 21
27.888602
 31
0.0
  0
LINE
  5
D4
330
7E7
100
AcDbEntity
  8
YKK_ZWAK
  6
Continuous
 62
   254
100
AcDbLine
 10
567.263877
 20
27.888602
 30
0.0
 11
564.985674
 21
27.888602
 31
0.0
  0
LINE
  5
D5
330
7E7
100
AcDbEntity
  8
YKK_ZWAK
  6
Continuous
 62
   254
100
AcDbLine
 10
564.985674
 20
27.888602
 30
0.0
 11
564.985674
 21
24.625712
 31
0.0
  0
LINE
  5
D6
330
7E7
100
AcDbEntity
  8
YKK_ZWAK
  6
Continuous
 62
   254
100
AcDbLine
 10
567.572791
 20
24.645041
 30
0.0
 11
567.572791
 21
27.772759
 31
0.0
  0
LINE
  5
D7
330
7E7
100
AcDbEntity
  8
YKK_ZWAK
  6
Continuous
 62
   254
100
AcDbLine
 10
567.572791
 20
24.681182
 30
0.0
 11
567.608933
 21
24.645041
 31
0.0
  0
LINE
  5
D8
330
7E7
100
AcDbEntity
  8
YKK_ZWAK
  6
Continuous
 62
   254
100
AcDbLine
 10
569.831709
 20
28.236131
 30
0.0
 11
569.831709
 21
24.645041
 31
0.0
  0
LINE
  5
D9
330
7E7
100
AcDbEntity
  8
YKK_ZWAK
  6
Continuous
 62
   254
100
AcDbLine
 10
562.553028
 20
33.487594
 30
0.0
 11
564.889116
 21
33.487594
 31
0.0
  0
LINE
  5
DA
330
7E7
100
AcDbEntity
  8
YKK_ZWAK
  6
Continuous
 62
   254
100
AcDbLine
 10
556.625823
 20
29.768591
 30
0.0
 11
559.03917
 21
33.44898
 31
0.0
  0
LINE
  5
DB
330
7E7
100
AcDbEntity
  8
YKK_ZWAK
  6
Continuous
 62
   254
100
AcDbLine
 10
556.625823
 20
33.410366
 30
0.0
 11
556.625823
 21
29.768591
 31
0.0
  0
LINE
  5
DC
330
7E7
100
AcDbEntity
  8
YKK_ZWAK
  6
Continuous
 62
   254
100
AcDbLine
 10
554.328297
 20
33.410366
 30
0.0
 11
556.625823
 21
33.410366
 31
0.0
  0
LINE
  5
DD
330
7E7
100
AcDbEntity
  8
YKK_ZWAK
  6
Continuous
 62
   254
100
AcDbLine
 10
559.985256
 20
29.780661
 30
0.0
 11
559.242942
 21
29.780661
 31
0.0
  0
LINE
  5
DE
330
7E7
100
AcDbEntity
  8
YKK_ZWAK
  6
Continuous
 62
   254
100
AcDbLine
 10
561.771363
 20
33.44898
 30
0.0
 11
559.242942
 21
29.780661
 31
0.0
  0
LINE
  5
DF
330
7E7
100
AcDbEntity
  8
YKK_ZWAK
  6
Continuous
 62
   254
100
AcDbLine
 10
559.03917
 20
33.44898
 30
0.0
 11
561.771363
 21
33.44898
 31
0.0
  0
LINE
  5
E0
330
7E7
100
AcDbEntity
  8
YKK_ZWAK
  6
Continuous
 62
   254
100
AcDbLine
 10
569.773765
 20
33.024222
 30
0.0
 11
567.543842
 21
29.838605
 31
0.0
  0
LINE
  5
E1
330
7E7
100
AcDbEntity
  8
YKK_ZWAK
  6
Continuous
 62
   254
100
AcDbLine
 10
567.341105
 20
33.487594
 30
0.0
 11
570.044065
 21
33.487594
 31
0.0
  0
LINE
  5
E2
330
7E7
100
AcDbEntity
  8
YKK_ZWAK
  6
Continuous
 62
   254
100
AcDbLine
 10
568.286156
 20
29.838605
 30
0.0
 11
567.543842
 21
29.838605
 31
0.0
  0
LINE
  5
E3
330
7E7
100
AcDbEntity
  8
YKK_ZWAK
  6
Continuous
 62
   254
100
AcDbLine
 10
564.889116
 20
29.779236
 30
0.0
 11
567.341105
 21
33.487594
 31
0.0
  0
LINE
  5
E4
330
7E7
100
AcDbEntity
  8
YKK_ZWAK
  6
Continuous
 62
   254
100
AcDbLine
 10
564.889116
 20
33.487594
 30
0.0
 11
564.889116
 21
29.779236
 31
0.0
  0
LINE
  5
E5
330
7E7
100
AcDbEntity
  8
YKK_ZWAK
  6
Continuous
 62
   254
100
AcDbLine
 10
570.044065
 20
33.487594
 30
0.0
 11
569.773765
 21
33.024222
 31
0.0
  0
LINE
  5
E6
330
7E7
100
AcDbEntity
  8
YKK_ZWAK
  6
Continuous
 62
     8
100
AcDbLine
 10
573.126014
 20
168.559504
 30
0.0
 11
585.726014
 21
168.559504
 31
0.0
  0
LINE
  5
E7
330
7E7
100
AcDbEntity
  8
YKK_ZWAK
  6
Continuous
 62
     8
100
AcDbLine
 10
573.126014
 20
154.419504
 30
0.0
 11
585.726014
 21
154.419504
 31
0.0
  0
LINE
  5
E8
330
7E7
100
AcDbEntity
  8
YKK_ZWAK
  6
Continuous
 62
     8
100
AcDbLine
 10
573.126014
 20
140.279503
 30
0.0
 11
585.726014
 21
140.279503
 31
0.0
  0
LINE
  5
E9
330
7E7
100
AcDbEntity
  8
YKK_ZWAK
  6
Continuous
 62
     8
100
AcDbLine
 10
573.126014
 20
126.139503
 30
0.0
 11
585.726014
 21
126.139503
 31
0.0
  0
LINE
  5
EA
330
7E7
100
AcDbEntity
  8
YKK_ZWAK
  6
Continuous
 62
     8
100
AcDbLine
 10
573.126014
 20
111.999503
 30
0.0
 11
585.726014
 21
111.999503
 31
0.0
  0
LINE
  5
EB
330
7E7
100
AcDbEntity
  8
YKK_ZWAK
  6
Continuous
 62
     8
100
AcDbLine
 10
573.126014
 20
97.859502
 30
0.0
 11
585.726014
 21
97.859502
 31
0.0
  0
LINE
  5
EC
330
7E7
100
AcDbEntity
  8
YKK_ZWAK
  6
Continuous
 62
     8
100
AcDbLine
 10
573.126014
 20
83.719502
 30
0.0
 11
585.726014
 21
83.719502
 31
0.0
  0
CIRCLE
  5
ED
330
7E7
100
AcDbEntity
  8
YKK_ZWAK
  6
Continuous
 62
     8
100
AcDbCircle
 10
579.426014
 20
168.559504
 30
0.0
 40
6.299999999999999
  0
CIRCLE
  5
EE
330
7E7
100
AcDbEntity
  8
YKK_ZWAK
  6
Continuous
 62
     8
100
AcDbCircle
 10
579.426014
 20
140.279503
 30
0.0
 40
6.299999999999999
  0
CIRCLE
  5
EF
330
7E7
100
AcDbEntity
  8
YKK_ZWAK
  6
Continuous
 62
     8
100
AcDbCircle
 10
579.426014
 20
111.999503
 30
0.0
 40
6.299999999999999
  0
CIRCLE
  5
F0
330
7E7
100
AcDbEntity
  8
YKK_ZWAK
  6
Continuous
 62
     8
100
AcDbCircle
 10
579.426014
 20
154.419504
 30
0.0
 40
6.299999999999999
  0
CIRCLE
  5
F1
330
7E7
100
AcDbEntity
  8
YKK_ZWAK
  6
Continuous
 62
     8
100
AcDbCircle
 10
579.426014
 20
126.139503
 30
0.0
 40
6.299999999999999
  0
CIRCLE
  5
F2
330
7E7
100
AcDbEntity
  8
YKK_ZWAK
  6
Continuous
 62
     8
100
AcDbCircle
 10
579.426014
 20
97.859502
 30
0.0
 40
6.299999999999999
  0
LINE
  5
F3
330
7E7
100
AcDbEntity
  8
YKK_ZWAK
  6
Continuous
 62
   254
100
AcDbLine
 10
571.000014
 20
222.4995055
 30
0.0
 11
573.000014
 21
222.4995055
 31
0.0
  0
TEXT
  5
F4
330
7E7
100
AcDbEntity
  8
YKK_ZWAK
  6
Continuous
 62
   131
100
AcDbText
 10
408.18209354
 20
9.752325
 30
0.0
 40
3.5
  1
 ． ．
 41
0.9
  7
YKK_OSSTYLE1
100
AcDbText
  0
TEXT
  5
F5
330
7E7
100
AcDbEntity
  8
YKK_ZWAK
  6
Continuous
 62
   131
100
AcDbText
 10
424.18209354
 20
9.752325
 30
0.0
 40
3.5
  1
 ． ．
 41
0.9
  7
YKK_OSSTYLE1
100
AcDbText
  0
LINE
  5
F6
330
7E7
100
AcDbEntity
  8
YKK_ZWAK
  6
Continuous
 62
   131
100
AcDbLine
 10
459.1999862
 20
10.4995
 30
0.0
 11
459.1999862
 21
8.9995
 31
0.0
  0
LINE
  5
F7
330
7E7
100
AcDbEntity
  8
YKK_ZWAK
  6
Continuous
 62
   131
100
AcDbLine
 10
462.7999738
 20
10.4995
 30
0.0
 11
462.7999738
 21
8.9995
 31
0.0
  0
LINE
  5
F8
330
7E7
100
AcDbEntity
  8
YKK_ZWAK
  6
Continuous
 62
   131
100
AcDbLine
 10
466.3999614
 20
10.4995
 30
0.0
 11
466.3999614
 21
8.9995
 31
0.0
  0
LINE
  5
F9
330
7E7
100
AcDbEntity
  8
YKK_ZWAK
  6
Continuous
 62
   131
100
AcDbLine
 10
469.999949
 20
10.4995
 30
0.0
 11
469.999949
 21
8.9995
 31
0.0
  0
LINE
  5
FA
330
7E7
100
AcDbEntity
  8
YKK_ZWAK
  6
Continuous
 62
   131
100
AcDbLine
 10
473.5999366
 20
10.4995
 30
0.0
 11
473.5999366
 21
8.9995
 31
0.0
  0
LINE
  5
FB
330
7E7
100
AcDbEntity
  8
YKK_ZWAK
  6
Continuous
 62
   131
100
AcDbLine
 10
477.1999242
 20
10.4995
 30
0.0
 11
477.1999242
 21
8.9995
 31
0.0
  0
LINE
  5
FC
330
7E7
100
AcDbEntity
  8
YKK_ZWAK
  6
Continuous
 62
   131
100
AcDbLine
 10
480.7999118
 20
10.4995
 30
0.0
 11
480.7999118
 21
8.9995
 31
0.0
  0
LINE
  5
FD
330
7E7
100
AcDbEntity
  8
YKK_ZWAK
  6
Continuous
 62
   131
100
AcDbLine
 10
484.3998994
 20
10.4995
 30
0.0
 11
484.3998994
 21
8.9995
 31
0.0
  0
LINE
  5
FE
330
7E7
100
AcDbEntity
  8
YKK_ZWAK
  6
Continuous
 62
   131
100
AcDbLine
 10
487.999887
 20
10.4995
 30
0.0
 11
487.999887
 21
8.9995
 31
0.0
  0
LINE
  5
FF
330
7E7
100
AcDbEntity
  8
YKK_ZWAK
  6
Continuous
 62
   131
100
AcDbLine
 10
491.5998746
 20
10.4995
 30
0.0
 11
491.5998746
 21
8.9995
 31
0.0
  0
LINE
  5
100
330
7E7
100
AcDbEntity
  8
YKK_ZWAK
  6
Continuous
 62
   131
100
AcDbLine
 10
495.1998622
 20
10.4995
 30
0.0
 11
495.1998622
 21
8.9995
 31
0.0
  0
LINE
  5
101
330
7E7
100
AcDbEntity
  8
YKK_ZWAK
  6
Continuous
 62
   131
100
AcDbLine
 10
498.7998498
 20
10.4995
 30
0.0
 11
498.7998498
 21
8.9995
 31
0.0
  0
LINE
  5
102
330
7E7
100
AcDbEntity
  8
YKK_ZWAK
  6
Continuous
 62
   131
100
AcDbLine
 10
502.3998374
 20
10.4995
 30
0.0
 11
502.3998374
 21
8.9995
 31
0.0
  0
LINE
  5
103
330
7E7
100
AcDbEntity
  8
YKK_ZWAK
  6
Continuous
 62
   131
100
AcDbLine
 10
505.999825
 20
10.4995
 30
0.0
 11
505.999825
 21
8.9995
 31
0.0
  0
LINE
  5
104
330
7E7
100
AcDbEntity
  8
YKK_ZWAK
  6
Continuous
 62
   131
100
AcDbLine
 10
509.5998126
 20
10.4995
 30
0.0
 11
509.5998126
 21
8.9995
 31
0.0
  0
LINE
  5
105
330
7E7
100
AcDbEntity
  8
YKK_ZWAK
  6
Continuous
 62
   131
100
AcDbLine
 10
513.1998002
 20
10.4995
 30
0.0
 11
513.1998002
 21
8.9995
 31
0.0
  0
LINE
  5
106
330
7E7
100
AcDbEntity
  8
YKK_ZWAK
  6
Continuous
 62
   131
100
AcDbLine
 10
516.7997878
 20
10.4995
 30
0.0
 11
516.7997878
 21
8.9995
 31
0.0
  0
LINE
  5
107
330
7E7
100
AcDbEntity
  8
YKK_ZWAK
  6
Continuous
 62
   131
100
AcDbLine
 10
520.3997754
 20
10.4995
 30
0.0
 11
520.3997754
 21
8.9995
 31
0.0
  0
ENDBLK
  5
109
330
7E7
100
AcDbEntity
  8
0
100
AcDbBlockEnd
  0
BLOCK
  5
2C4
330
7E8
100
AcDbEntity
  8
0
100
AcDbBlockBegin
  2
2K-63680
 70
     0
 10
0.0
 20
0.0
 30
0.0
  3
2K-63680
  1

  0
LWPOLYLINE
  5
2C2
330
7E8
100
AcDbEntity
  8
0
  6
ByBlock
 62
     0
100
AcDbPolyline
 90
       39
 70
     1
 43
0.0
 10
17.8
 20
4.8
 10
17.8
 20
26.8
 10
13.2
 20
26.8
 10
13.2
 20
20.8
 10
14.2
 20
20.8
 10
14.2
 20
24.1
 10
16.17
 20
24.1
 10
16.17
 20
15.6
 10
14.2
 20
15.6
 10
14.2
 20
16.8
 10
13.2
 20
16.8
 10
13.2
 20
14.6
 10
16.17
 20
14.6
 10
16.17
 20
10.758258
 10
16.29
 20
10.574955
 10
16.29
 20
10.025045
 10
16.17
 20
9.841742
 10
16.17
 20
9.758258
 10
16.29
 20
9.574955
 10
16.29
 20
9.025045
 10
16.17
 20
8.841742
 10
16.17
 20
7.6
 42
-0.41421347
 10
15.17
 20
6.6
 10
14.0
 20
6.6
 42
0.41421347
 10
12.5
 20
5.1
 10
12.5
 20
3.27963757
 10
4.73868597
 20
1.2
 10
1.448528
 20
1.2
 10
1.024264
 20
1.624264
 42
1.00000017
 10
0.175736
 20
0.775736
 10
0.951472
 20
0.0
 10
4.89666898
 20
0.0
 10
15.0
 20
2.70717929
 10
15.0
 20
3.3071795
 10
13.8
 20
3.9999995
 10
13.8
 20
5.3
 10
15.6
 20
5.3
 10
15.8
 20
5.1
 10
16.1
 20
4.8
  0
ENDBLK
  5
2C5
330
7E8
100
AcDbEntity
  8
0
100
AcDbBlockEnd
  0
BLOCK
  5
120
330
7E9
100
AcDbEntity
  8
0
100
AcDbBlockBegin
  2
2K-63601
 70
     0
 10
0.0
 20
0.0
 30
0.0
  3
2K-63601
  1

  0
LWPOLYLINE
  5
119
330
7E9
100
AcDbEntity
  8
0
  6
ByBlock
 62
     0
100
AcDbPolyline
 90
       70
 70
     0
 43
0.0
 10
16.630231
 20
21.81873
 10
1.63
 20
20.50637997
 10
1.63
 20
11.63
 10
12.9
 20
11.63
 42
-0.41421347
 10
14.5
 20
10.03
 10
14.5
 20
0.75
 42
-1.00000017
 10
13.0
 20
0.75
 10
13.0
 20
4.541742
 10
13.12
 20
4.725045
 10
13.12
 20
5.274955
 10
13.0
 20
5.458258
 10
13.0
 20
10.0
 10
0.0
 20
10.0
 10
0.0
 20
21.99999997
 10
25.5
 20
24.23096103
 10
25.5
 20
37.37
 10
5.2
 20
37.37
 10
5.2
 20
35.0
 10
4.2
 20
35.0
 10
4.2
 20
63.0
 10
8.8
 20
63.0
 10
8.8
 20
57.0
 10
7.8
 20
57.0
 10
7.8
 20
60.3
 10
5.83
 20
60.3
 10
5.83
 20
51.8
 10
7.8
 20
51.8
 10
7.8
 20
53.0
 10
8.8
 20
53.0
 10
8.8
 20
51.8
 10
10.3
 20
51.8
 10
10.3
 20
50.8
 10
5.83
 20
50.8
 10
5.83
 20
39.0
 10
34.00000042
 20
39.0
 10
46.0
 20
45.92820355
 10
46.0
 20
61.37
 10
31.0
 20
61.37
 10
31.0
 20
50.8
 10
25.3
 20
50.8
 10
25.3
 20
51.8
 10
26.8
 20
51.8
 10
26.8
 20
53.0
 10
27.8
 20
53.0
 10
27.8
 20
51.8
 10
29.8
 20
51.8
 10
29.8
 20
60.3
 10
27.8
 20
60.3
 10
27.8
 20
57.0
 10
26.8
 20
57.0
 10
26.8
 20
63.0
 10
68.37
 20
63.0
 10
68.37
 20
65.0
 10
70.0
 20
65.0
 10
70.0
 20
25.0
 10
67.958258
 20
25.0
 10
67.774955
 20
25.12
 10
67.225045
 20
25.12
 10
67.041742
 20
25.0
 10
66.958258
 20
25.0
 10
66.774955
 20
25.12
 10
66.225045
 20
25.12
 10
66.041742
 20
25.0
 10
64.0
 20
25.0
 10
64.0
 20
26.0000005
 10
65.09119162
 20
26.63
 10
68.37
 20
26.63
 10
68.37
 20
61.37
 10
47.63
 20
61.37
 10
47.63
 20
51.192663
  0
LWPOLYLINE
  5
11A
330
7E9
100
AcDbEntity
  8
0
  6
ByBlock
 62
     0
100
AcDbPolyline
 90
       14
 70
     0
 43
0.0
 10
47.741872
 20
45.051712
 10
34.808038
 20
37.584359
 42
-0.13165255
 10
34.008038
 20
37.37
 10
27.13
 20
37.37
 10
27.13
 20
24.203471
 42
-0.38887877
 10
25.669449
 20
22.609559
 10
23.519649
 20
22.421476
 10
23.139033
 20
21.658691
 42
-0.14037759
 10
23.7
 20
19.7
 10
23.7
 20
18.63
 10
26.90880838
 20
18.63
 10
28.0
 20
18.0000005
 10
28.0
 20
17.0
 10
21.65
 20
17.0
  0
LINE
  5
11B
330
7E9
100
AcDbEntity
  8
0
 62
     2
100
AcDbLine
 10
47.5
 20
48.0
 30
0.0
 11
52.5
 21
48.0
 31
0.0
  0
LINE
  5
11C
330
7E9
100
AcDbEntity
  8
0
 62
     2
100
AcDbLine
 10
50.0
 20
50.5
 30
0.0
 11
50.0
 21
45.5
 31
0.0
  0
LINE
  5
11D
330
7E9
100
AcDbEntity
  8
0
 62
     2
100
AcDbLine
 10
17.5
 20
19.7
 30
0.0
 11
22.5
 21
19.7
 31
0.0
  0
LINE
  5
11E
330
7E9
100
AcDbEntity
  8
0
 62
     2
100
AcDbLine
 10
20.0
 20
22.2
 30
0.0
 11
20.0
 21
17.2
 31
0.0
  0
ENDBLK
  5
121
330
7E9
100
AcDbEntity
  8
0
100
AcDbBlockEnd
  0
BLOCK
  5
1E0
330
7EA
100
AcDbEntity
  8
0
100
AcDbBlockBegin
  2
2K-63606
 70
     0
 10
0.0
 20
0.0
 30
0.0
  3
2K-63606
  1

  0
LWPOLYLINE
  5
1DE
330
7EA
100
AcDbEntity
  8
0
  6
ByBlock
 62
     0
100
AcDbPolyline
 90
       54
 70
     1
 43
0.0
 10
23.37
 20
68.37
 10
23.37
 20
1.63
 10
1.63
 20
1.63
 10
1.63
 20
7.90880838
 10
1.0000005
 20
9.0
 10
0.0
 20
9.0
 10
0.0
 20
5.458258
 10
0.12
 20
5.274955
 10
0.12
 20
4.725045
 10
0.0
 20
4.541742
 10
0.0
 20
4.458258
 10
0.12
 20
4.274955
 10
0.12
 20
3.725045
 10
0.0
 20
3.541742
 10
0.0
 20
0.0
 10
25.0
 20
0.0
 10
25.0
 20
38.6
 10
45.0
 20
38.6
 10
45.0
 20
43.2
 10
39.0
 20
43.2
 10
39.0
 20
42.2
 10
42.3
 20
42.2
 10
42.3
 20
40.23
 10
33.8
 20
40.23
 10
33.8
 20
42.2
 10
35.0
 20
42.2
 10
35.0
 20
43.2
 10
33.8
 20
43.2
 10
33.8
 20
44.7
 10
32.8
 20
44.7
 10
32.8
 20
40.23
 10
25.0
 20
40.23
 10
25.0
 20
64.17
 10
32.8
 20
64.17
 10
32.8
 20
59.7
 10
33.8
 20
59.7
 10
33.8
 20
61.2
 10
35.0
 20
61.2
 10
35.0
 20
62.2
 10
33.8
 20
62.2
 10
33.8
 20
64.17
 10
42.3
 20
64.17
 10
42.3
 20
62.2
 10
39.0
 20
62.2
 10
39.0
 20
61.2
 10
45.0
 20
61.2
 10
45.0
 20
65.8
 10
25.0
 20
65.8
 10
25.0
 20
70.0
 10
0.0
 20
70.0
 10
0.0
 20
61.0
 10
1.0000005
 20
61.0
 10
1.63
 20
62.09119162
 10
1.63
 20
68.37
  0
ENDBLK
  5
1E1
330
7EA
100
AcDbEntity
  8
0
100
AcDbBlockEnd
  0
BLOCK
  5
33
330
7EB
100
AcDbEntity
  8
0
100
AcDbBlockBegin
  2
2K-64448
 70
     0
 10
0.0
 20
0.0
 30
0.0
  3
2K-64448
  1

  0
LWPOLYLINE
  5
2F
330
7EB
100
AcDbEntity
  8
0
  6
ByBlock
 62
     0
100
AcDbPolyline
 90
       68
 70
     1
 43
0.0
 10
40.0
 20
41.5
 10
40.0
 20
0.0
 10
0.0
 20
0.0
 10
0.0
 20
41.5
 10
6.0
 20
41.5
 10
6.0
 20
40.5
 10
2.7
 20
40.5
 10
2.7
 20
38.53
 10
11.2
 20
38.53
 10
11.2
 20
40.5
 10
10.0
 20
40.5
 10
10.0
 20
41.5
 10
11.2
 20
41.5
 10
11.2
 20
43.43
 10
20.0
 20
43.43
 10
20.0
 20
58.0
 10
17.0
 20
58.0
 10
17.0
 20
59.0
 10
20.0
 20
59.0
 10
20.0
 20
62.47
 10
12.2
 20
62.47
 10
12.2
 20
58.0
 10
11.2
 20
58.0
 10
11.2
 20
59.5
 10
10.0
 20
59.5
 10
10.0
 20
60.5
 10
11.2
 20
60.5
 10
11.2
 20
62.47
 10
2.7
 20
62.47
 10
2.7
 20
60.5
 10
6.0
 20
60.5
 10
6.0
 20
59.5
 10
0.0
 20
59.5
 10
0.0
 20
64.1
 10
40.0
 20
64.1
 10
40.0
 20
59.5
 10
34.0
 20
59.5
 10
34.0
 20
60.5
 10
37.3
 20
60.5
 10
37.3
 20
62.47
 10
28.8
 20
62.47
 10
28.8
 20
60.5
 10
30.0
 20
60.5
 10
30.0
 20
59.5
 10
28.8
 20
59.5
 10
28.8
 20
58.0
 10
27.8
 20
58.0
 10
27.8
 20
62.47
 10
25.958258
 20
62.47
 10
25.774955
 20
62.59
 10
25.225045
 20
62.59
 10
25.041742
 20
62.47
 10
24.958258
 20
62.47
 10
24.774955
 20
62.59
 10
24.225045
 20
62.59
 10
24.041742
 20
62.47
 10
22.0
 20
62.47
 10
22.0
 20
43.43
 10
28.8
 20
43.43
 10
28.8
 20
41.5
 10
30.0
 20
41.5
 10
30.0
 20
40.5
 10
28.8
 20
40.5
 10
28.8
 20
38.53
 10
37.3
 20
38.53
 10
37.3
 20
40.5
 10
34.0
 20
40.5
 10
34.0
 20
41.5
  0
LWPOLYLINE
  5
30
330
7EB
100
AcDbEntity
  8
0
  6
ByBlock
 62
     0
100
AcDbPolyline
 90
        2
 70
     0
 43
0.0
 10
38.07
 20
1.93
 10
1.93
 20
1.93
  0
LWPOLYLINE
  5
31
330
7EB
100
AcDbEntity
  8
0
  6
ByBlock
 62
     0
100
AcDbPolyline
 90
       10
 70
     1
 43
0.0
 10
38.07
 20
1.93
 10
1.93
 20
1.93
 10
1.93
 20
36.6
 10
10.93
 20
36.6
 42
0.41421347
 10
13.13
 20
38.8
 10
13.13
 20
41.5
 10
26.87
 20
41.5
 10
26.87
 20
38.8
 42
0.41421347
 10
29.07
 20
36.6
 10
38.07
 20
36.6
  0
ENDBLK
  5
34
330
7EB
100
AcDbEntity
  8
0
100
AcDbBlockEnd
  0
BLOCK
  5
3B
330
7EC
100
AcDbEntity
  8
0
100
AcDbBlockBegin
  2
2K-64429
 70
     0
 10
0.0
 20
0.0
 30
0.0
  3
2K-64429
  1

  0
LWPOLYLINE
  5
37
330
7EC
100
AcDbEntity
  8
0
  6
ByBlock
 62
     0
100
AcDbPolyline
 90
       72
 70
     1
 43
0.0
 10
60.0
 20
64.1
 10
0.0
 20
64.1
 10
0.0
 20
59.5
 10
6.0
 20
59.5
 10
6.0
 20
60.5
 10
2.7
 20
60.5
 10
2.7
 20
62.47
 10
11.2
 20
62.47
 10
11.2
 20
60.5
 10
10.0
 20
60.5
 10
10.0
 20
59.5
 10
11.2
 20
59.5
 10
11.2
 20
58.0
 10
12.2
 20
58.0
 10
12.2
 20
62.47
 10
20.0
 20
62.47
 10
20.0
 20
38.53
 10
12.2
 20
38.53
 10
12.2
 20
43.0
 10
11.2
 20
43.0
 10
11.2
 20
41.5
 10
10.0
 20
41.5
 10
10.0
 20
40.5
 10
11.2
 20
40.5
 10
11.2
 20
38.53
 10
2.7
 20
38.53
 10
2.7
 20
40.5
 10
6.0
 20
40.5
 10
6.0
 20
41.5
 10
0.0
 20
41.5
 10
0.0
 20
36.9
 10
20.0
 20
36.9
 10
20.0
 20
0.0
 10
40.0
 20
0.0
 10
40.0
 20
36.9
 10
60.0
 20
36.9
 10
60.0
 20
41.5
 10
54.0
 20
41.5
 10
54.0
 20
40.5
 10
57.3
 20
40.5
 10
57.3
 20
38.53
 10
48.8
 20
38.53
 10
48.8
 20
40.5
 10
50.0
 20
40.5
 10
50.0
 20
41.5
 10
48.8
 20
41.5
 10
48.8
 20
43.0
 10
47.8
 20
43.0
 10
47.8
 20
38.53
 10
40.0
 20
38.53
 10
40.0
 20
62.47
 10
43.041742
 20
62.47
 10
43.225045
 20
62.59
 10
43.774955
 20
62.59
 10
43.958258
 20
62.47
 10
44.041742
 20
62.47
 10
44.225045
 20
62.59
 10
44.774955
 20
62.59
 10
44.958258
 20
62.47
 10
47.8
 20
62.47
 10
47.8
 20
58.0
 10
48.8
 20
58.0
 10
48.8
 20
59.5
 10
50.0
 20
59.5
 10
50.0
 20
60.5
 10
48.8
 20
60.5
 10
48.8
 20
62.47
 10
57.3
 20
62.47
 10
57.3
 20
60.5
 10
54.0
 20
60.5
 10
54.0
 20
59.5
 10
60.0
 20
59.5
  0
LWPOLYLINE
  5
38
330
7EC
100
AcDbEntity
  8
0
  6
ByBlock
 62
     0
100
AcDbPolyline
 90
        2
 70
     0
 43
0.0
 10
38.07
 20
1.93
 10
38.07
 20
62.17
  0
LWPOLYLINE
  5
39
330
7EC
100
AcDbEntity
  8
0
  6
ByBlock
 62
     0
100
AcDbPolyline
 90
        4
 70
     1
 43
0.0
 10
38.07
 20
1.93
 10
38.07
 20
62.17
 10
21.93
 20
62.17
 10
21.93
 20
1.93
  0
ENDBLK
  5
3C
330
7EC
100
AcDbEntity
  8
0
100
AcDbBlockEnd
  0
BLOCK
  5
2B6
330
7ED
100
AcDbEntity
  8
0
100
AcDbBlockBegin
  2
2K-63658
 70
     0
 10
0.0
 20
0.0
 30
0.0
  3
2K-63658
  1

  0
LWPOLYLINE
  5
2AF
330
7ED
100
AcDbEntity
  8
0
  6
ByBlock
 62
     0
100
AcDbPolyline
 90
       54
 70
     0
 43
0.0
 10
53.350388
 20
23.63
 10
68.37
 20
23.63
 10
68.37
 20
50.37
 10
62.09119162
 20
50.37
 10
61.0
 20
50.9999995
 10
61.0
 20
52.0
 10
64.541742
 20
52.0
 10
64.725045
 20
51.88
 10
65.274955
 20
51.88
 10
65.458258
 20
52.0
 10
65.541742
 20
52.0
 10
65.725045
 20
51.88
 10
66.274955
 20
51.88
 10
66.458258
 20
52.0
 10
70.0
 20
52.0
 10
70.0
 20
22.0
 10
31.4
 20
22.0
 10
31.4
 20
0.0
 10
26.8
 20
0.0
 10
26.8
 20
6.0
 10
27.8
 20
6.0
 10
27.8
 20
2.7
 10
29.77
 20
2.7
 10
29.77
 20
11.2
 10
27.8
 20
11.2
 10
27.8
 20
10.0
 10
26.8
 20
10.0
 10
26.8
 20
11.2
 10
25.3
 20
11.2
 10
25.3
 20
12.2
 10
29.77
 20
12.2
 10
29.77
 20
27.0
 10
24.9
 20
27.0
 10
24.9
 20
24.0
 10
20.7
 20
24.0
 10
20.7
 20
25.0
 10
23.9
 20
25.0
 10
23.9
 20
27.0
 10
5.83
 20
27.0
 10
5.83
 20
23.63
 10
6.7623984
 20
23.63
 10
8.2
 20
22.80000047
 10
8.2
 20
22.0
 10
0.0
 20
22.0
 10
0.0
 20
52.0
 10
9.0
 20
52.0
 10
9.0
 20
50.9999995
 10
7.90880838
 20
50.37
 10
1.63
 20
50.37
 10
1.63
 20
23.63
 10
4.2
 20
23.63
 10
4.2
 20
27.03
 42
-0.41421347
 10
5.8
 20
28.63
 10
16.649612
 20
28.63
  0
LWPOLYLINE
  5
2B0
330
7ED
100
AcDbEntity
  8
0
  6
ByBlock
 62
     0
100
AcDbPolyline
 90
        5
 70
     0
 43
0.0
 10
23.350388
 20
28.63
 10
29.8
 20
28.63
 42
-0.41421347
 10
31.4
 20
27.03
 10
31.4
 20
23.63
 10
46.649612
 20
23.63
  0
LINE
  5
2B1
330
7ED
100
AcDbEntity
  8
0
 62
     2
100
AcDbLine
 10
17.5
 20
30.7
 30
0.0
 11
22.5
 21
30.7
 31
0.0
  0
LINE
  5
2B2
330
7ED
100
AcDbEntity
  8
0
 62
     2
100
AcDbLine
 10
20.0
 20
33.2
 30
0.0
 11
20.0
 21
28.2
 31
0.0
  0
LINE
  5
2B3
330
7ED
100
AcDbEntity
  8
0
 62
     2
100
AcDbLine
 10
47.5
 20
25.7
 30
0.0
 11
52.5
 21
25.7
 31
0.0
  0
LINE
  5
2B4
330
7ED
100
AcDbEntity
  8
0
 62
     2
100
AcDbLine
 10
50.0
 20
28.2
 30
0.0
 11
50.0
 21
23.2
 31
0.0
  0
ENDBLK
  5
2B7
330
7ED
100
AcDbEntity
  8
0
100
AcDbBlockEnd
  0
ENDSEC
  0
SECTION
  2
ENTITIES
  0
INSERT
  5
29
330
7E2
100
AcDbEntity
  8
YKK_11
100
AcDbBlockReference
  2
2K-64448
 10
602.80005116
 20
289.16585046
 30
0.0
  0
INSERT
  5
35
330
7E2
100
AcDbEntity
  8
YKK_11
100
AcDbBlockReference
  2
2K-64429
 10
392.79994957
 20
288.10010462
 30
0.0
  0
LINE
  5
3D
330
7E2
100
AcDbEntity
  8
YKK_D
100
AcDbLine
 10
212.8
 20
434.4000014
 30
0.0
 11
212.8
 21
148.4000014
 31
0.0
  0
LINE
  5
41
330
7E2
100
AcDbEntity
  8
YKK_12
100
AcDbLine
 10
107.0
 20
419.7000014
 30
0.0
 11
107.0
 21
280.9000014
 31
0.0
  0
LINE
  5
45
330
7E2
100
AcDbEntity
  8
YKK_12
100
AcDbLine
 10
111.59999935
 20
419.9000014
 30
0.0
 11
111.59999935
 21
280.9000014
 31
0.0
  0
LINE
  5
46
330
7E2
100
AcDbEntity
  8
YKK_12
100
AcDbLine
 10
117.6
 20
427.4000014
 30
0.0
 11
117.6
 21
280.9000014
 31
0.0
  0
LINE
  5
47
330
7E2
100
AcDbEntity
  8
YKK_12
100
AcDbLine
 10
118.6
 20
427.4000014
 30
0.0
 11
118.6
 21
280.9000014
 31
0.0
  0
LINE
  5
48
330
7E2
100
AcDbEntity
  8
YKK_12
100
AcDbLine
 10
122.6
 20
427.4000014
 30
0.0
 11
122.6
 21
280.9000014
 31
0.0
  0
LINE
  5
49
330
7E2
100
AcDbEntity
  8
YKK_12
100
AcDbLine
 10
123.6
 20
427.4000014
 30
0.0
 11
123.6
 21
280.9000014
 31
0.0
  0
LINE
  5
4A
330
7E2
100
AcDbEntity
  8
YKK_12
100
AcDbLine
 10
129.59998074
 20
419.7000014
 30
0.0
 11
129.59998074
 21
280.9000014
 31
0.0
  0
LINE
  5
4B
330
7E2
100
AcDbEntity
  8
YKK_12
100
AcDbLine
 10
134.19998074
 20
419.7000014
 30
0.0
 11
134.19998074
 21
280.9000014
 31
0.0
  0
LINE
  5
4C
330
7E2
100
AcDbEntity
  8
YKK_12
100
AcDbLine
 10
102.8
 20
471.4000014
 30
0.0
 11
102.8
 21
280.9000014
 31
0.0
  0
LINE
  5
4D
330
7E2
100
AcDbEntity
  8
YKK_12
100
AcDbLine
 10
172.8
 20
456.10062793
 30
0.0
 11
172.8
 21
280.9000014
 31
0.0
  0
INSERT
  5
4E
330
7E2
100
AcDbEntity
  8
YKK_ZWAK
100
AcDbBlockReference
  2
A201
 10
-26.6000014
 20
-12.5993
 30
0.0
 41
1.4
 42
1.4
 43
1.4
  0
TEXT
  5
10A
330
7E2
100
AcDbEntity
  8
YKK_D
100
AcDbText
 10
211.8
 20
110.82995064
 30
0.0
 40
6.0
  1
55
 50
90.0
 41
0.8
100
AcDbText
1001
ACAD
1000
MTEXTBEGIN
1070
    73
1070
     1
1070
    44
1040
1.0
1070
    74
1070
     0
1000
MTEXTEND
  0
LINE
  5
10B
330
7E2
100
AcDbEntity
  8
YKK_13
100
AcDbLine
 10
124.63007144
 20
115.39988841
 30
0.0
 11
124.63007144
 21
131.40007548
 31
0.0
  0
LINE
  5
10F
330
7E2
100
AcDbEntity
  8
YKK_13
100
AcDbLine
 10
124.63007144
 20
115.4000014
 30
0.0
 11
116.13007144
 21
131.40007548
 31
0.0
  0
LINE
  5
110
330
7E2
100
AcDbEntity
  8
YKK_13
100
AcDbLine
 10
124.63007144
 20
131.40007548
 30
0.0
 11
116.13007144
 21
115.4000014
 31
0.0
1001
YOBJCUT10831141753
1000
PARTS2
  0
LINE
  5
112
330
7E2
100
AcDbEntity
  8
YKK_13
100
AcDbLine
 10
108.63
 20
115.40007548
 30
0.0
 11
108.63
 21
118.40007548
 31
0.0
  0
LINE
  5
113
330
7E2
100
AcDbEntity
  8
YKK_D
100
AcDbLine
 10
82.8
 20
139.4000014
 30
0.0
 11
82.8
 21
111.4000014
 31
0.0
  0
LINE
  5
114
330
7E2
100
AcDbEntity
  8
YKK_12
100
AcDbLine
 10
102.8
 20
86.4000014
 30
0.0
 11
102.8
 21
277.9000014
 31
0.0
  0
LINE
  5
115
330
7E2
100
AcDbEntity
  8
YKK_12
  6
Continuous
100
AcDbLine
 10
172.8
 20
140.0000014
 30
0.0
 11
172.8
 21
86.4000014
 31
0.0
1001
YALIB
1000
YALIB1603
1000
 L=131 t1=6.8 t2=5 A=12 ta1=1 ta2= 1 SDFLG="1" AFLG1="1" AFLG2="0" MFLG="0" HFLG="0"  
  0
INSERT
  5
117
330
7E2
100
AcDbEntity
  8
YKK_11
100
AcDbBlockReference
  2
2K-63601
 10
102.79999999
 20
76.40000139
 30
0.0
  0
LINE
  5
122
330
7E2
100
AcDbEntity
  8
YKK_D
100
AcDbLine
 10
212.8
 20
141.4000014
 30
0.0
 11
212.8
 21
86.4000014
 31
0.0
  0
LINE
  5
123
330
7E2
100
AcDbEntity
  8
YKK_13
100
AcDbLine
 10
108.63
 20
115.40007294
 30
0.0
 11
124.63007144
 21
115.39988841
 31
0.0
  0
LINE
  5
124
330
7E2
100
AcDbEntity
  8
YKK_12
  6
Continuous
100
AcDbLine
 10
102.8
 20
86.4000014
 30
0.0
 11
115.5
 21
86.4000014
 31
0.0
1001
YALIB
1000
YALIB1603
1000
 L=131 t1=6.8 t2=5 A=12 ta1=1 ta2= 1 SDFLG="1" AFLG1="1" AFLG2="0" MFLG="0" HFLG="0"  
  0
LINE
  5
125
330
7E2
100
AcDbEntity
  8
YKK_D
100
AcDbLine
 10
82.8
 20
98.4000014
 30
0.0
 11
82.8
 21
86.4000014
 31
0.0
  0
TEXT
  5
126
330
7E2
100
AcDbEntity
  8
YKK_D
100
AcDbText
 10
81.8
 20
89.14720952
 30
0.0
 40
6.0
  1
12
 50
90.0
 41
0.8
100
AcDbText
1001
ACAD
1000
MTEXTBEGIN
1070
    73
1070
     1
1070
    44
1040
1.0
1070
    74
1070
     0
1000
MTEXTEND
  0
LINE
  5
127
330
7E2
100
AcDbEntity
  8
YKK_D
100
AcDbLine
 10
99.8
 20
86.4000014
 30
0.0
 11
81.8
 21
86.4000014
 31
0.0
  0
LWPOLYLINE
  5
128
330
7E2
100
AcDbEntity
  8
YKK_D
  6
ByBlock
100
AcDbPolyline
 90
        2
 70
     1
 43
0.85
 10
82.8
 20
86.5062514
 42
1.0
 10
82.8
 20
86.2937514
 42
1.0
  0
TEXT
  5
129
330
7E2
100
AcDbEntity
  8
YKK_D
100
AcDbText
 10
81.8
 20
101.65939226
 30
0.0
 40
6.0
  1
13
 50
90.0
 41
0.8
100
AcDbText
1001
ACAD
1000
MTEXTBEGIN
1070
    73
1070
     1
1070
    44
1040
1.0
1070
    74
1070
     0
1000
MTEXTEND
  0
LINE
  5
12A
330
7E2
100
AcDbEntity
  8
YKK_D
100
AcDbLine
 10
82.8
 20
111.4000014
 30
0.0
 11
82.8
 21
98.4000014
 31
0.0
  0
LINE
  5
12B
330
7E2
100
AcDbEntity
  8
YKK_D
100
AcDbLine
 10
99.8
 20
98.4000014
 30
0.0
 11
81.8
 21
98.4000014
 31
0.0
  0
LINE
  5
12C
330
7E2
100
AcDbEntity
  8
YKK_D
100
AcDbLine
 10
99.8
 20
98.4000014
 30
0.0
 11
81.8
 21
98.4000014
 31
0.0
  0
LWPOLYLINE
  5
12D
330
7E2
100
AcDbEntity
  8
YKK_D
  6
ByBlock
100
AcDbPolyline
 90
        2
 70
     1
 43
0.85
 10
82.8
 20
98.5062514
 42
1.0
 10
82.8
 20
98.2937514
 42
1.0
  0
LWPOLYLINE
  5
12E
330
7E2
100
AcDbEntity
  8
YKK_D
  6
ByBlock
100
AcDbPolyline
 90
        2
 70
     1
 43
0.85
 10
82.8
 20
98.2937514
 42
1.0
 10
82.8
 20
98.5062514
 42
1.0
  0
LINE
  5
12F
330
7E2
100
AcDbEntity
  8
YKK_D
100
AcDbLine
 10
99.8
 20
111.4000014
 30
0.0
 11
81.8
 21
111.4000014
 31
0.0
  0
LINE
  5
130
330
7E2
100
AcDbEntity
  8
YKK_D
100
AcDbLine
 10
99.8
 20
111.4000014
 30
0.0
 11
81.8
 21
111.4000014
 31
0.0
  0
LWPOLYLINE
  5
131
330
7E2
100
AcDbEntity
  8
YKK_D
  6
ByBlock
100
AcDbPolyline
 90
        2
 70
     1
 43
0.85
 10
82.8
 20
111.5062514
 42
1.0
 10
82.8
 20
111.2937514
 42
1.0
  0
LWPOLYLINE
  5
132
330
7E2
100
AcDbEntity
  8
YKK_D
  6
ByBlock
100
AcDbPolyline
 90
        2
 70
     1
 43
0.85
 10
82.8
 20
111.2937514
 42
1.0
 10
82.8
 20
111.5062514
 42
1.0
  0
LINE
  5
133
330
7E2
100
AcDbEntity
  8
YKK_12
  6
Continuous
100
AcDbLine
 10
117.3
 20
86.4000014
 30
0.0
 11
172.8
 21
86.4000014
 31
0.0
1001
YALIB
1000
YALIB1603
1000
 L=131 t1=6.8 t2=5 A=12 ta1=1 ta2= 1 SDFLG="1" AFLG1="1" AFLG2="0" MFLG="0" HFLG="0"  
  0
LINE
  5
134
330
7E2
100
AcDbEntity
  8
YKK_D
100
AcDbLine
 10
212.8
 20
63.37530818
 30
0.0
 11
212.8
 21
76.4000014
 31
0.0
  0
TEXT
  5
135
330
7E2
100
AcDbEntity
  8
YKK_D
100
AcDbText
 10
211.8
 20
63.76617112
 30
0.0
 40
6.0
  1
10
 50
90.0
 41
0.8
100
AcDbText
  0
LINE
  5
136
330
7E2
100
AcDbEntity
  8
YKK_D
100
AcDbLine
 10
175.8
 20
86.4000014
 30
0.0
 11
213.8
 21
86.4000014
 31
0.0
  0
LINE
  5
137
330
7E2
100
AcDbEntity
  8
YKK_D
100
AcDbLine
 10
175.8
 20
86.4000014
 30
0.0
 11
213.8
 21
86.4000014
 31
0.0
  0
LINE
  5
138
330
7E2
100
AcDbEntity
  8
YKK_D
100
AcDbLine
 10
175.8
 20
76.4000014
 30
0.0
 11
213.8
 21
76.4000014
 31
0.0
  0
LINE
  5
139
330
7E2
100
AcDbEntity
  8
YKK_D
100
AcDbLine
 10
212.8
 20
86.4000014
 30
0.0
 11
212.8
 21
76.4000014
 31
0.0
  0
LWPOLYLINE
  5
13A
330
7E2
100
AcDbEntity
  8
YKK_D
  6
ByBlock
100
AcDbPolyline
 90
        2
 70
     1
 43
0.85
 10
212.8
 20
76.5062514
 42
1.0
 10
212.8
 20
76.2937514
 42
1.0
  0
LWPOLYLINE
  5
13B
330
7E2
100
AcDbEntity
  8
YKK_D
  6
ByBlock
100
AcDbPolyline
 90
        2
 70
     1
 43
0.85
 10
212.8
 20
86.5062514
 42
1.0
 10
212.8
 20
86.2937514
 42
1.0
  0
LWPOLYLINE
  5
13C
330
7E2
100
AcDbEntity
  8
YKK_D
  6
ByBlock
100
AcDbPolyline
 90
        2
 70
     1
 43
0.85
 10
212.8
 20
86.2937514
 42
1.0
 10
212.8
 20
86.5062514
 42
1.0
  0
LINE
  5
13D
330
7E2
100
AcDbEntity
  8
YKK_12
100
AcDbLine
 10
107.0
 20
139.1000014
 30
0.0
 11
107.0
 21
277.9000014
 31
0.0
  0
LINE
  5
13E
330
7E2
100
AcDbEntity
  8
YKK_12
100
AcDbLine
 10
111.6
 20
138.9000014
 30
0.0
 11
111.59999935
 21
277.9000014
 31
0.0
  0
LINE
  5
13F
330
7E2
100
AcDbEntity
  8
YKK_12
100
AcDbLine
 10
117.6
 20
131.4000014
 30
0.0
 11
117.6
 21
277.9000014
 31
0.0
  0
LINE
  5
140
330
7E2
100
AcDbEntity
  8
YKK_12
100
AcDbLine
 10
118.6
 20
131.4000014
 30
0.0
 11
118.6
 21
277.9000014
 31
0.0
  0
LINE
  5
141
330
7E2
100
AcDbEntity
  8
YKK_12
100
AcDbLine
 10
122.6
 20
131.4000014
 30
0.0
 11
122.6
 21
277.9000014
 31
0.0
  0
LINE
  5
142
330
7E2
100
AcDbEntity
  8
YKK_12
100
AcDbLine
 10
123.6
 20
131.4000014
 30
0.0
 11
123.6
 21
277.9000014
 31
0.0
  0
LINE
  5
143
330
7E2
100
AcDbEntity
  8
YKK_12
100
AcDbLine
 10
129.59998075
 20
139.1000014
 30
0.0
 11
129.59998074
 21
277.9000014
 31
0.0
  0
LINE
  5
144
330
7E2
100
AcDbEntity
  8
YKK_12
100
AcDbLine
 10
134.19998074
 20
139.4000014
 30
0.0
 11
134.19998074
 21
277.9000014
 31
0.0
  0
LINE
  5
145
330
7E2
100
AcDbEntity
  8
YKK_12
100
AcDbLine
 10
172.8
 20
141.4000014
 30
0.0
 11
172.8
 21
277.9000014
 31
0.0
  0
LINE
  5
146
330
7E2
100
AcDbEntity
  8
YKK_D
100
AcDbLine
 10
172.8
 20
140.79115422
 30
0.0
 11
172.8
 21
169.8931533
 31
0.0
  0
LINE
  5
147
330
7E2
100
AcDbEntity
  8
YKK_D
100
AcDbLine
 10
102.8
 20
140.79115422
 30
0.0
 11
102.8
 21
169.8931533
 31
0.0
  0
LINE
  5
148
330
7E2
100
AcDbEntity
  8
YKK_13
  6
Continuous
100
AcDbLine
 10
117.60000106
 20
141.39999179
 30
0.0
 11
111.59999935
 21
139.4000014
 31
0.0
  0
LINE
  5
149
330
7E2
100
AcDbEntity
  8
YKK_13
  6
Continuous
100
AcDbLine
 10
116.59998048
 20
129.39999351
 30
0.0
 11
112.59998219
 21
129.39999968
 31
0.0
  0
LINE
  5
14A
330
7E2
100
AcDbEntity
  8
YKK_13
  6
Continuous
100
AcDbLine
 10
112.59999077
 20
134.39999968
 30
0.0
 11
116.59998905
 21
134.39999351
 31
0.0
  0
LINE
  5
14B
330
7E2
100
AcDbEntity
  8
YKK_13
  6
Continuous
100
AcDbLine
 10
112.59999077
 20
134.39999968
 30
0.0
 11
116.59998905
 21
134.39999351
 31
0.0
  0
LINE
  5
14C
330
7E2
100
AcDbEntity
  8
YKK_13
100
AcDbLine
 10
114.19173521
 20
134.39999723
 30
0.0
 11
111.59999522
 21
136.99174611
 31
0.0
  0
LINE
  5
14D
330
7E2
100
AcDbEntity
  8
YKK_13
100
AcDbLine
 10
117.59998806
 20
133.82016466
 30
0.0
 11
111.91512835
 21
139.50504387
 31
0.0
  0
LINE
  5
14E
330
7E2
100
AcDbEntity
  8
YKK_13
100
AcDbLine
 10
111.59998986
 20
133.86823334
 30
0.0
 11
117.59999843
 21
139.86822134
 31
0.0
  0
LINE
  5
14F
330
7E2
100
AcDbEntity
  8
YKK_13
100
AcDbLine
 10
111.59999471
 20
136.69666047
 30
0.0
 11
115.65501434
 21
140.75166618
 31
0.0
  0
LINE
  5
150
330
7E2
100
AcDbEntity
  8
YKK_13
100
AcDbLine
 10
108.63
 20
118.40007548
 30
0.0
 11
116.13007144
 21
118.40007548
 31
0.0
  0
LINE
  5
151
330
7E2
100
AcDbEntity
  8
YKK_D
100
AcDbLine
 10
82.8
 20
141.4000014
 30
0.0
 11
82.8
 21
139.4000014
 31
0.0
  0
TEXT
  5
152
330
7E2
100
AcDbEntity
  8
YKK_D
100
AcDbText
 10
81.8
 20
122.29340242
 30
0.0
 40
6.0
  1
28
 50
90.0
 41
0.8
100
AcDbText
1001
ACAD
1000
MTEXTBEGIN
1070
    73
1070
     1
1070
    44
1040
1.0
1070
    74
1070
     0
1000
MTEXTEND
  0
LINE
  5
153
330
7E2
100
AcDbEntity
  8
YKK_D
100
AcDbLine
 10
99.8
 20
139.4000014
 30
0.0
 11
81.8
 21
139.4000014
 31
0.0
  0
LINE
  5
154
330
7E2
100
AcDbEntity
  8
YKK_D
100
AcDbLine
 10
99.8
 20
139.4000014
 30
0.0
 11
81.8
 21
139.4000014
 31
0.0
  0
LWPOLYLINE
  5
155
330
7E2
100
AcDbEntity
  8
YKK_D
  6
ByBlock
100
AcDbPolyline
 90
        2
 70
     1
 43
0.85
 10
82.8
 20
139.5062514
 42
1.0
 10
82.8
 20
139.2937514
 42
1.0
  0
LWPOLYLINE
  5
156
330
7E2
100
AcDbEntity
  8
YKK_D
  6
ByBlock
100
AcDbPolyline
 90
        2
 70
     1
 43
0.85
 10
82.8
 20
139.2937514
 42
1.0
 10
82.8
 20
139.5062514
 42
1.0
  0
LINE
  5
157
330
7E2
100
AcDbEntity
  8
YKK_13
  6
Continuous
100
AcDbLine
 10
111.59998391
 20
130.4000014
 30
0.0
 11
111.59998905
 21
133.4000014
 31
0.0
  0
ARC
  5
158
330
7E2
100
AcDbEntity
  8
YKK_13
  6
Continuous
100
AcDbCircle
 10
112.59998391
 20
130.39999968
 30
0.0
 40
0.999999999999169
100
AcDbArc
 50
179.99990172
 51
269.99990172
  0
ARC
  5
159
330
7E2
100
AcDbEntity
  8
YKK_13
  6
Continuous
100
AcDbCircle
 10
112.59998905
 20
133.39999968
 30
0.0
 40
1.000000000000377
100
AcDbArc
 50
89.99990172
 51
179.99990172
  0
ARC
  5
15A
330
7E2
100
AcDbEntity
  8
YKK_13
  6
Continuous
100
AcDbCircle
 10
112.59998905
 20
133.39999968
 30
0.0
 40
1.000000000000377
100
AcDbArc
 50
89.99990172
 51
179.99990172
  0
LINE
  5
15B
330
7E2
100
AcDbEntity
  8
YKK_13
100
AcDbLine
 10
111.78451517
 20
133.97879355
 30
0.0
 11
111.59999036
 21
134.16331898
 31
0.0
  0
LINE
  5
15C
330
7E2
100
AcDbEntity
  8
YKK_13
  6
Continuous
100
AcDbLine
 10
111.59999935
 20
139.4000014
 30
0.0
 11
111.59998905
 21
133.4000014
 31
0.0
  0
TEXT
  5
15D
330
7E2
100
AcDbEntity
  8
YKK_D
100
AcDbText
 10
81.8
 20
146.66525844
 30
0.0
 40
6.0
  1
2
 50
90.0
 41
0.8
100
AcDbText
  0
LINE
  5
15E
330
7E2
100
AcDbEntity
  8
YKK_D
100
AcDbLine
 10
99.8
 20
141.4000014
 30
0.0
 11
81.8
 21
141.4000014
 31
0.0
  0
LWPOLYLINE
  5
15F
330
7E2
100
AcDbEntity
  8
YKK_D
  6
ByBlock
100
AcDbPolyline
 90
        2
 70
     1
 43
0.85
 10
82.8
 20
141.2937514
 42
1.0
 10
82.8
 20
141.5062514
 42
1.0
  0
LINE
  5
160
330
7E2
100
AcDbEntity
  8
YKK_D
100
AcDbLine
 10
82.8
 20
150.44292342
 30
0.0
 11
82.8
 21
141.4000014
 31
0.0
  0
LINE
  5
161
330
7E2
100
AcDbEntity
  8
YKK_13
100
AcDbLine
 10
123.59999947
 20
139.07701822
 30
0.0
 11
125.34222639
 21
140.81925112
 31
0.0
  0
LINE
  5
162
330
7E2
100
AcDbEntity
  8
YKK_13
100
AcDbLine
 10
117.59999776
 20
139.47701891
 30
0.0
 11
116.1577708
 21
140.91925082
 31
0.0
  0
LINE
  5
163
330
7E2
100
AcDbEntity
  8
YKK_13
  6
Continuous
100
AcDbLine
 10
123.59999549
 20
141.39999179
 30
0.0
 11
129.5999972
 21
139.4000014
 31
0.0
  0
LINE
  5
164
330
7E2
100
AcDbEntity
  8
YKK_13
  6
Continuous
100
AcDbLine
 10
117.59998734
 20
133.39999179
 30
0.0
 11
117.60000106
 21
141.39999179
 31
0.0
  0
LINE
  5
165
330
7E2
100
AcDbEntity
  8
YKK_13
  6
Continuous
100
AcDbLine
 10
123.60000921
 20
133.39999179
 30
0.0
 11
123.59999549
 21
141.39999179
 31
0.0
  0
LINE
  5
166
330
7E2
100
AcDbEntity
  8
YKK_13
100
AcDbLine
 10
129.60000116
 20
137.09665978
 30
0.0
 11
126.14498172
 21
140.55166737
 31
0.0
  0
LINE
  5
167
330
7E2
100
AcDbEntity
  8
YKK_13
100
AcDbLine
 10
116.13007144
 20
118.40007548
 30
0.0
 11
116.13007144
 21
131.40007548
 31
0.0
  0
LINE
  5
168
330
7E2
100
AcDbEntity
  8
YKK_13
  6
Continuous
100
AcDbLine
 10
125.00001607
 20
129.39999351
 30
0.0
 11
128.60001436
 21
129.39999968
 31
0.0
  0
LINE
  5
169
330
7E2
100
AcDbEntity
  8
YKK_13
  6
Continuous
100
AcDbLine
 10
128.60000578
 20
134.39999968
 30
0.0
 11
125.0000075
 21
134.39999351
 31
0.0
  0
LINE
  5
16A
330
7E2
100
AcDbEntity
  8
YKK_13
100
AcDbLine
 10
127.40826176
 20
134.39999764
 30
0.0
 11
129.60000202
 21
136.59174542
 31
0.0
  0
LINE
  5
16B
330
7E2
100
AcDbEntity
  8
YKK_13
  6
Continuous
100
AcDbLine
 10
128.60000578
 20
134.39999968
 30
0.0
 11
125.0000075
 21
134.39999351
 31
0.0
  0
LINE
  5
16C
330
7E2
100
AcDbEntity
  8
YKK_13
100
AcDbLine
 10
124.51090499
 20
134.33106291
 30
0.0
 11
129.58486884
 21
139.40504416
 31
0.0
  0
LINE
  5
16D
330
7E2
100
AcDbEntity
  8
YKK_13
100
AcDbLine
 10
129.60000601
 20
134.26823266
 30
0.0
 11
123.59999743
 21
140.26822065
 31
0.0
  0
LINE
  5
16E
330
7E2
100
AcDbEntity
  8
YKK_13
  6
Continuous
100
AcDbLine
 10
123.60000921
 20
133.39999179
 30
0.0
 11
123.60001436
 21
130.39999179
 31
0.0
  0
LINE
  5
16F
330
7E2
100
AcDbEntity
  8
YKK_13
100
AcDbLine
 10
124.23501322
 20
130.0649922
 30
0.0
 11
124.0577968
 21
130.06499189
 31
0.0
  0
LINE
  5
170
330
7E2
100
AcDbEntity
  8
YKK_13
100
AcDbLine
 10
127.26501322
 20
130.06499739
 30
0.0
 11
127.06501322
 21
130.06499705
 31
0.0
  0
LINE
  5
171
330
7E2
100
AcDbEntity
  8
YKK_13
100
AcDbLine
 10
125.65001079
 20
131.47999462
 30
0.0
 11
125.45001079
 21
131.47999428
 31
0.0
  0
ARC
  5
172
330
7E2
100
AcDbEntity
  8
YKK_13
  6
Continuous
100
AcDbCircle
 10
124.94914832
 20
130.80878167
 30
0.0
 40
1.409706213155308
100
AcDbArc
 50
196.85689742
 51
272.06790638
  0
ARC
  5
173
330
7E2
100
AcDbEntity
  8
YKK_13
  6
Continuous
100
AcDbCircle
 10
124.9491433
 20
132.99120639
 30
0.0
 40
1.409705041813946
100
AcDbArc
 50
87.93223679
 51
163.14327817
  0
LINE
  5
174
330
7E2
100
AcDbEntity
  8
YKK_13
100
AcDbLine
 10
123.60000918
 20
133.42016397
 30
0.0
 11
123.60928528
 21
133.42944011
 31
0.0
  0
LINE
  5
175
330
7E2
100
AcDbEntity
  8
YKK_13
100
AcDbLine
 10
126.63980991
 20
134.39999632
 30
0.0
 11
123.60000228
 21
137.43979353
 31
0.0
  0
LINE
  5
176
330
7E2
100
AcDbEntity
  8
YKK_13
100
AcDbLine
 10
124.09709826
 20
134.11427698
 30
0.0
 11
123.60000713
 21
134.6113664
 31
0.0
  0
LINE
  5
177
330
7E2
100
AcDbEntity
  8
YKK_13
100
AcDbLine
 10
124.23500836
 20
132.8949922
 30
0.0
 11
124.03500836
 21
132.89499185
 31
0.0
  0
LINE
  5
178
330
7E2
100
AcDbEntity
  8
YKK_13
100
AcDbLine
 10
127.26500836
 20
132.89499739
 30
0.0
 11
127.06500836
 21
132.89499705
 31
0.0
  0
LINE
  5
179
330
7E2
100
AcDbEntity
  8
YKK_13
100
AcDbLine
 10
125.65000594
 20
134.30999462
 30
0.0
 11
125.45000594
 21
134.30999428
 31
0.0
  0
ARC
  5
17A
330
7E2
100
AcDbEntity
  8
YKK_13
  6
Continuous
100
AcDbCircle
 10
124.9491433
 20
132.99120639
 30
0.0
 40
1.409705041813946
100
AcDbArc
 50
87.93223679
 51
163.14327817
  0
LINE
  5
17B
330
7E2
100
AcDbEntity
  8
YKK_13
  6
Continuous
100
AcDbLine
 10
117.59998734
 20
133.39999179
 30
0.0
 11
117.59998219
 21
130.39999179
 31
0.0
  0
LINE
  5
17C
330
7E2
100
AcDbEntity
  8
YKK_13
100
AcDbLine
 10
117.36498333
 20
130.0649922
 30
0.0
 11
117.54219975
 21
130.06499189
 31
0.0
  0
LINE
  5
17D
330
7E2
100
AcDbEntity
  8
YKK_13
100
AcDbLine
 10
114.33498333
 20
130.06499739
 30
0.0
 11
114.53498333
 21
130.06499705
 31
0.0
  0
LINE
  5
17E
330
7E2
100
AcDbEntity
  8
YKK_13
100
AcDbLine
 10
115.94998576
 20
131.47999462
 30
0.0
 11
116.14998576
 21
131.47999428
 31
0.0
  0
LINE
  5
17F
330
7E2
100
AcDbEntity
  8
YKK_13
100
AcDbLine
 10
112.91998576
 20
131.47999982
 30
0.0
 11
113.11998576
 21
131.47999948
 31
0.0
  0
ARC
  5
180
330
7E2
100
AcDbEntity
  8
YKK_13
  6
Continuous
100
AcDbCircle
 10
116.59998219
 20
130.39999351
 30
0.0
 40
1.000000000001314
100
AcDbArc
 50
269.99990172
 51
359.99990172
  0
LINE
  5
181
330
7E2
100
AcDbEntity
  8
YKK_13
100
AcDbLine
 10
117.36498819
 20
132.8949922
 30
0.0
 11
117.56498819
 21
132.89499185
 31
0.0
  0
LINE
  5
182
330
7E2
100
AcDbEntity
  8
YKK_13
100
AcDbLine
 10
114.33498819
 20
132.89499739
 30
0.0
 11
114.53498819
 21
132.89499705
 31
0.0
  0
LINE
  5
183
330
7E2
100
AcDbEntity
  8
YKK_13
100
AcDbLine
 10
115.94999062
 20
134.30999462
 30
0.0
 11
116.14999062
 21
134.30999428
 31
0.0
  0
LINE
  5
184
330
7E2
100
AcDbEntity
  8
YKK_13
100
AcDbLine
 10
112.91999062
 20
134.30999982
 30
0.0
 11
113.11999062
 21
134.30999948
 31
0.0
  0
ARC
  5
185
330
7E2
100
AcDbEntity
  8
YKK_13
  6
Continuous
100
AcDbCircle
 10
116.59998734
 20
133.39999351
 30
0.0
 40
0.9999999999992827
100
AcDbArc
 50
359.99990172
 51
89.99990172
  0
ARC
  5
186
330
7E2
100
AcDbEntity
  8
YKK_13
  6
Continuous
100
AcDbCircle
 10
116.59998734
 20
133.39999351
 30
0.0
 40
0.9999999999992827
100
AcDbArc
 50
359.99990172
 51
89.99990172
  0
LINE
  5
187
330
7E2
100
AcDbEntity
  8
YKK_13
100
AcDbLine
 10
117.3950897
 20
134.00646876
 30
0.0
 11
117.59998873
 21
134.21136709
 31
0.0
  0
LINE
  5
188
330
7E2
100
AcDbEntity
  8
YKK_13
100
AcDbLine
 10
114.96018636
 20
134.39999604
 30
0.0
 11
117.59999358
 21
137.03979421
 31
0.0
  0
LINE
  5
189
330
7E2
100
AcDbEntity
  8
YKK_12
  6
Continuous
100
AcDbLine
 10
123.6
 20
131.4000014
 30
0.0
 11
117.6
 21
131.4000014
 31
0.0
1001
YALIB
1000
YALIB1601
1000
 L=251 t1=6.8 ta=1 SDFLG="0" MFLG="0" HFLG="0"  
  0
LINE
  5
18A
330
7E2
100
AcDbEntity
  8
YKK_13
100
AcDbLine
 10
124.63007144
 20
131.40007548
 30
0.0
 11
116.13007144
 21
131.40007548
 31
0.0
  0
LINE
  5
18B
330
7E2
100
AcDbEntity
  8
YKK_13
100
AcDbLine
 10
117.59999291
 20
136.64859178
 30
0.0
 11
114.03644958
 21
140.21214734
 31
0.0
  0
LINE
  5
18C
330
7E2
100
AcDbEntity
  8
YKK_13
100
AcDbLine
 10
123.60000433
 20
136.2485911
 30
0.0
 11
127.46354761
 21
140.11214764
 31
0.0
  0
LINE
  5
18D
330
7E2
100
AcDbEntity
  8
YKK_13
  6
Continuous
100
AcDbLine
 10
129.60001264
 20
130.4000014
 30
0.0
 11
129.6000075
 21
133.4000014
 31
0.0
  0
LINE
  5
18E
330
7E2
100
AcDbEntity
  8
YKK_13
100
AcDbLine
 10
128.68001079
 20
131.47999982
 30
0.0
 11
128.48001079
 21
131.47999948
 31
0.0
  0
ARC
  5
18F
330
7E2
100
AcDbEntity
  8
YKK_13
  6
Continuous
100
AcDbCircle
 10
128.60001264
 20
130.39999968
 30
0.0
 40
0.9999999999991974
100
AcDbArc
 50
270.00009828
 51
0.00009828
  0
ARC
  5
190
330
7E2
100
AcDbEntity
  8
YKK_13
  6
Continuous
100
AcDbCircle
 10
128.6000075
 20
133.39999968
 30
0.0
 40
1.00000000000032
100
AcDbArc
 50
0.00009828
 51
90.00009828
  0
LINE
  5
191
330
7E2
100
AcDbEntity
  8
YKK_13
100
AcDbLine
 10
129.54974273
 20
133.71305398
 30
0.0
 11
129.60000687
 21
133.7633183
 31
0.0
  0
LINE
  5
192
330
7E2
100
AcDbEntity
  8
YKK_13
100
AcDbLine
 10
128.68000594
 20
134.30999982
 30
0.0
 11
128.48000594
 21
134.30999948
 31
0.0
  0
ARC
  5
193
330
7E2
100
AcDbEntity
  8
YKK_13
  6
Continuous
100
AcDbCircle
 10
128.6000075
 20
133.39999968
 30
0.0
 40
1.00000000000032
100
AcDbArc
 50
0.00009828
 51
90.00009828
  0
LINE
  5
194
330
7E2
100
AcDbEntity
  8
YKK_13
  6
Continuous
100
AcDbLine
 10
129.5999972
 20
139.4000014
 30
0.0
 11
129.6000075
 21
133.4000014
 31
0.0
  0
LINE
  5
195
330
7E2
100
AcDbEntity
  8
YKK_D
100
AcDbLine
 10
102.8
 20
168.8931533
 30
0.0
 11
172.8
 21
168.8931533
 31
0.0
  0
LWPOLYLINE
  5
196
330
7E2
100
AcDbEntity
  8
YKK_D
  6
ByBlock
100
AcDbPolyline
 90
        2
 70
     1
 43
0.85
 10
102.90625
 20
168.8931533
 42
1.0
 10
102.69375
 20
168.8931533
 42
1.0
  0
TEXT
  5
197
330
7E2
100
AcDbEntity
  8
YKK_D
100
AcDbText
 10
134.60812183
 20
169.8931533
 30
0.0
 40
6.0
  1
70
 41
0.8
100
AcDbText
1001
ACAD
1000
MTEXTBEGIN
1070
    73
1070
     1
1070
    44
1040
1.0
1070
    74
1070
     0
1000
MTEXTEND
  0
LWPOLYLINE
  5
198
330
7E2
100
AcDbEntity
  8
YKK_D
  6
ByBlock
100
AcDbPolyline
 90
        2
 70
     1
 43
0.85
 10
172.69375
 20
168.8931533
 42
1.0
 10
172.90625
 20
168.8931533
 42
1.0
  0
LINE
  5
199
330
7E2
100
AcDbEntity
  8
YKK_D
100
AcDbLine
 10
175.8
 20
141.4000014
 30
0.0
 11
213.8
 21
141.4000014
 31
0.0
  0
LINE
  5
19A
330
7E2
100
AcDbEntity
  8
YKK_D
100
AcDbLine
 10
175.8
 20
141.4000014
 30
0.0
 11
213.8
 21
141.4000014
 31
0.0
  0
LINE
  5
19B
330
7E2
100
AcDbEntity
  8
YKK_D
100
AcDbLine
 10
212.8
 20
141.4000014
 30
0.0
 11
212.8
 21
153.52435705
 31
0.0
  0
LINE
  5
19C
330
7E2
100
AcDbEntity
  8
YKK_D
100
AcDbLine
 10
212.8
 20
141.4000014
 30
0.0
 11
209.3
 21
147.46217923
 31
0.0
  0
LINE
  5
19D
330
7E2
100
AcDbEntity
  8
YKK_D
100
AcDbLine
 10
212.8
 20
141.4000014
 30
0.0
 11
216.3
 21
147.46217923
 31
0.0
  0
LINE
  5
19E
330
7E2
100
AcDbEntity
  8
YKK_D
100
AcDbLine
 10
216.3
 20
147.46217923
 30
0.0
 11
209.3
 21
147.46217923
 31
0.0
  0
TEXT
  5
19F
330
7E2
100
AcDbEntity
  8
YKK_D
100
AcDbText
 10
211.8
 20
289.85279328
 30
0.0
 40
6.0
  1
H
 50
90.0
 41
0.8
100
AcDbText
1001
ACAD
1000
MTEXTBEGIN
1070
    73
1070
     1
1070
    44
1040
1.0
1070
    74
1070
     0
1000
MTEXTEND
  0
LINE
  5
1A0
330
7E2
100
AcDbEntity
  8
YKK_D
100
AcDbLine
 10
667.8000182
 20
123.4000014
 30
0.0
 11
667.8000182
 21
85.4000014
 31
0.0
  0
LINE
  5
1A1
330
7E2
100
AcDbEntity
  8
YKK_D
100
AcDbLine
 10
667.8000182
 20
123.4000014
 30
0.0
 11
667.8000182
 21
85.4000014
 31
0.0
  0
LINE
  5
1A2
330
7E2
100
AcDbEntity
  8
YKK_D
100
AcDbLine
 10
692.8000182
 20
123.4000014
 30
0.0
 11
692.8000182
 21
85.4000014
 31
0.0
  0
LINE
  5
1A3
330
7E2
100
AcDbEntity
  8
YKK_D
100
AcDbLine
 10
647.8000182
 20
123.4000014
 30
0.0
 11
647.8000182
 21
105.4000014
 31
0.0
  0
LINE
  5
1A4
330
7E2
100
AcDbEntity
  8
YKK_D
100
AcDbLine
 10
667.8000182
 20
123.4000014
 30
0.0
 11
667.8000182
 21
105.4000014
 31
0.0
  0
LINE
  5
1A5
330
7E2
100
AcDbEntity
  8
YKK_D
100
AcDbLine
 10
367.8000182
 20
123.4000014
 30
0.0
 11
367.8000182
 21
85.4000014
 31
0.0
  0
LINE
  5
1A6
330
7E2
100
AcDbEntity
  8
YKK_D
100
AcDbLine
 10
342.8000182
 20
123.4000014
 30
0.0
 11
342.8000182
 21
85.4000014
 31
0.0
  0
LINE
  5
1A7
330
7E2
100
AcDbEntity
  8
YKK_D
100
AcDbLine
 10
367.8000182
 20
123.4000014
 30
0.0
 11
367.8000182
 21
85.4000014
 31
0.0
  0
LINE
  5
1A8
330
7E2
100
AcDbEntity
  8
YKK_D
100
AcDbLine
 10
367.8000182
 20
123.4000014
 30
0.0
 11
367.8000182
 21
105.4000014
 31
0.0
  0
LINE
  5
1A9
330
7E2
100
AcDbEntity
  8
YKK_D
100
AcDbLine
 10
387.8000182
 20
123.4000014
 30
0.0
 11
387.8000182
 21
105.4000014
 31
0.0
  0
LINE
  5
1AA
330
7E2
100
AcDbEntity
  8
YKK_D
100
AcDbLine
 10
660.8000182
 20
86.4000014
 30
0.0
 11
374.8000182
 21
86.4000014
 31
0.0
  0
TEXT
  5
1AB
330
7E2
100
AcDbEntity
  8
USER1
 62
     3
100
AcDbText
 10
416.17705229
 20
7.55086503
 30
0.0
 40
4.2
  1
EXIMA 31 FIX窓【外押縁ﾀｲﾌﾟ】
 72
     1
 11
454.37705229
 21
9.65086503
 31
0.0
100
AcDbText
 73
     2
  0
TEXT
  5
1AD
330
7E2
100
AcDbEntity
  8
USER1
 62
     3
100
AcDbText
 10
431.51705229
 20
1.3753389
 30
0.0
 40
4.2
  1
RC枠 18mm溝幅
 72
     1
 11
454.37705229
 21
3.4753389
 31
0.0
100
AcDbText
 73
     2
  0
LINE
  5
1AF
330
7E2
100
AcDbEntity
  8
YKK_D
100
AcDbLine
 10
342.8000182
 20
86.4000014
 30
0.0
 11
367.8000182
 21
86.4000014
 31
0.0
  0
TEXT
  5
1B0
330
7E2
100
AcDbEntity
  8
YKK_D
100
AcDbText
 10
352.2177847
 20
87.4000014
 30
0.0
 40
6.0
  1
25
 41
0.8
100
AcDbText
1001
ACAD
1000
MTEXTBEGIN
1070
    73
1070
     1
1070
    44
1040
1.0
1070
    74
1070
     0
1000
MTEXTEND
  0
LWPOLYLINE
  5
1B1
330
7E2
100
AcDbEntity
  8
YKK_D
  6
ByBlock
100
AcDbPolyline
 90
        2
 70
     1
 43
0.85
 10
342.9062682
 20
86.4000014
 42
1.0
 10
342.6937682
 20
86.4000014
 42
1.0
  0
LINE
  5
1B2
330
7E2
100
AcDbEntity
  8
YKK_D
100
AcDbLine
 10
367.8000182
 20
86.4000014
 30
0.0
 11
379.92437385
 21
86.4000014
 31
0.0
  0
LINE
  5
1B3
330
7E2
100
AcDbEntity
  8
YKK_D
100
AcDbLine
 10
367.8000182
 20
86.4000014
 30
0.0
 11
373.86219603
 21
89.9000014
 31
0.0
  0
LINE
  5
1B4
330
7E2
100
AcDbEntity
  8
YKK_D
100
AcDbLine
 10
367.8000182
 20
86.4000014
 30
0.0
 11
373.86219603
 21
82.9000014
 31
0.0
  0
LINE
  5
1B5
330
7E2
100
AcDbEntity
  8
YKK_D
100
AcDbLine
 10
373.86219603
 20
82.9000014
 30
0.0
 11
373.86219603
 21
89.9000014
 31
0.0
  0
LINE
  5
1B6
330
7E2
100
AcDbEntity
  8
YKK_D
100
AcDbLine
 10
367.8000182
 20
106.4000014
 30
0.0
 11
387.8000182
 21
106.4000014
 31
0.0
  0
TEXT
  5
1B7
330
7E2
100
AcDbEntity
  8
YKK_D
100
AcDbText
 10
374.65687099
 20
107.4000014
 30
0.0
 40
6.0
  1
20
 41
0.8
100
AcDbText
1001
ACAD
1000
MTEXTBEGIN
1070
    73
1070
     1
1070
    44
1040
1.0
1070
    74
1070
     0
1000
MTEXTEND
  0
LWPOLYLINE
  5
1B8
330
7E2
100
AcDbEntity
  8
YKK_D
  6
ByBlock
100
AcDbPolyline
 90
        2
 70
     1
 43
0.85
 10
367.9062682
 20
106.4000014
 42
1.0
 10
367.6937682
 20
106.4000014
 42
1.0
  0
LWPOLYLINE
  5
1B9
330
7E2
100
AcDbEntity
  8
YKK_D
  6
ByBlock
100
AcDbPolyline
 90
        2
 70
     1
 43
0.85
 10
387.6937682
 20
106.4000014
 42
1.0
 10
387.9062682
 20
106.4000014
 42
1.0
  0
TEXT
  5
1BA
330
7E2
100
AcDbEntity
  8
YKK_D
100
AcDbText
 10
516.26499282
 20
87.4000014
 30
0.0
 40
6.0
  1
W
 41
0.8
100
AcDbText
1001
ACAD
1000
MTEXTBEGIN
1070
    73
1070
     1
1070
    44
1040
1.0
1070
    74
1070
     0
1000
MTEXTEND
  0
TEXT
  5
1BB
330
7E2
100
AcDbEntity
  8
USER1
 62
     3
100
AcDbText
 10
595.53333193
 20
15.4007
 30
0.0
 40
5.6
  1
1
 72
     1
 11
597.7999986
 21
18.2007
 31
0.0
100
AcDbText
 73
     2
  0
LINE
  5
1BC
330
7E2
100
AcDbEntity
  8
YKK_D
100
AcDbLine
 10
667.8000182
 20
86.4000014
 30
0.0
 11
692.8000182
 21
86.4000014
 31
0.0
  0
TEXT
  5
1BD
330
7E2
100
AcDbEntity
  8
USER1
 62
     3
100
AcDbText
 10
587.9999986
 20
21.0007
 30
0.0
 40
5.6
  1
1
100
AcDbText
  0
LINE
  5
1BE
330
7E2
100
AcDbEntity
  8
YKK_D
100
AcDbLine
 10
667.8000182
 20
86.4000014
 30
0.0
 11
655.67566255
 21
86.4000014
 31
0.0
  0
LINE
  5
1BF
330
7E2
100
AcDbEntity
  8
YKK_D
100
AcDbLine
 10
667.8000182
 20
86.4000014
 30
0.0
 11
661.73784037
 21
89.9000014
 31
0.0
  0
LINE
  5
1C0
330
7E2
100
AcDbEntity
  8
YKK_D
100
AcDbLine
 10
667.8000182
 20
86.4000014
 30
0.0
 11
661.73784037
 21
82.9000014
 31
0.0
  0
LINE
  5
1C1
330
7E2
100
AcDbEntity
  8
YKK_D
100
AcDbLine
 10
661.73784037
 20
89.9000014
 30
0.0
 11
661.73784037
 21
82.9000014
 31
0.0
  0
TEXT
  5
1C2
330
7E2
100
AcDbEntity
  8
YKK_D
100
AcDbText
 10
654.65687099
 20
107.4000014
 30
0.0
 40
6.0
  1
20
 41
0.8
100
AcDbText
1001
ACAD
1000
MTEXTBEGIN
1070
    73
1070
     1
1070
    44
1040
1.0
1070
    74
1070
     0
1000
MTEXTEND
  0
LINE
  5
1C3
330
7E2
100
AcDbEntity
  8
YKK_D
100
AcDbLine
 10
647.8000182
 20
106.4000014
 30
0.0
 11
667.8000182
 21
106.4000014
 31
0.0
  0
LWPOLYLINE
  5
1C4
330
7E2
100
AcDbEntity
  8
YKK_D
  6
ByBlock
100
AcDbPolyline
 90
        2
 70
     1
 43
0.85
 10
647.9062682
 20
106.4000014
 42
1.0
 10
647.6937682
 20
106.4000014
 42
1.0
  0
LWPOLYLINE
  5
1C5
330
7E2
100
AcDbEntity
  8
YKK_D
  6
ByBlock
100
AcDbPolyline
 90
        2
 70
     1
 43
0.85
 10
667.6937682
 20
106.4000014
 42
1.0
 10
667.9062682
 20
106.4000014
 42
1.0
  0
TEXT
  5
1C6
330
7E2
100
AcDbEntity
  8
YKK_D
100
AcDbText
 10
677.2177847
 20
87.4000014
 30
0.0
 40
6.0
  1
25
 41
0.8
100
AcDbText
1001
ACAD
1000
MTEXTBEGIN
1070
    73
1070
     1
1070
    44
1040
1.0
1070
    74
1070
     0
1000
MTEXTEND
  0
LWPOLYLINE
  5
1C7
330
7E2
100
AcDbEntity
  8
YKK_D
  6
ByBlock
100
AcDbPolyline
 90
        2
 70
     1
 43
0.85
 10
692.6937682
 20
86.4000014
 42
1.0
 10
692.9062682
 20
86.4000014
 42
1.0
  0
LINE
  5
1C8
330
7E2
100
AcDbEntity
  8
YKK_12
  6
Continuous
100
AcDbLine
 10
667.8000182
 20
196.4000014
 30
0.0
 11
519.3000182
 21
196.4000014
 31
0.0
  0
LINE
  5
1C9
330
7E2
100
AcDbEntity
  8
YKK_12
  6
Continuous
100
AcDbLine
 10
648.1000182
 20
192.2000014
 30
0.0
 11
519.3000182
 21
192.2000014
 31
0.0
  0
LINE
  5
1CA
330
7E2
100
AcDbEntity
  8
YKK_12
  6
Continuous
100
AcDbLine
 10
648.1000182
 20
187.6000014
 30
0.0
 11
519.3000182
 21
187.6000014
 31
0.0
  0
LINE
  5
1CB
330
7E2
100
AcDbEntity
  8
YKK_12
  6
Continuous
100
AcDbLine
 10
655.8000182
 20
181.60000054
 30
0.0
 11
519.3000182
 21
181.60000054
 31
0.0
  0
LINE
  5
1CC
330
7E2
100
AcDbEntity
  8
YKK_12
  6
Continuous
100
AcDbLine
 10
655.8000182
 20
180.60000054
 30
0.0
 11
519.3000182
 21
180.60000054
 31
0.0
  0
LINE
  5
1CD
330
7E2
100
AcDbEntity
  8
YKK_12
  6
Continuous
100
AcDbLine
 10
655.8000182
 20
176.60000054
 30
0.0
 11
519.3000182
 21
176.60000054
 31
0.0
  0
LINE
  5
1CE
330
7E2
100
AcDbEntity
  8
YKK_12
  6
Continuous
100
AcDbLine
 10
655.8000182
 20
175.60000054
 30
0.0
 11
519.3000182
 21
175.60000054
 31
0.0
  0
LINE
  5
1CF
330
7E2
100
AcDbEntity
  8
YKK_12
  6
Continuous
100
AcDbLine
 10
648.1000182
 20
169.6000014
 30
0.0
 11
519.3000182
 21
169.6000014
 31
0.0
  0
LINE
  5
1D0
330
7E2
100
AcDbEntity
  8
YKK_12
  6
Continuous
100
AcDbLine
 10
667.8000182
 20
128.0300014
 30
0.0
 11
519.3000182
 21
128.0300014
 31
0.0
  0
LINE
  5
1D1
330
7E2
100
AcDbEntity
  8
YKK_12
  6
Continuous
100
AcDbLine
 10
667.8000182
 20
126.4000014
 30
0.0
 11
519.3000182
 21
126.4000014
 31
0.0
  0
LINE
  5
1D2
330
7E2
100
AcDbEntity
  8
YKK_12
  6
Continuous
100
AcDbLine
 10
367.8000182
 20
196.4000014
 30
0.0
 11
516.3000182
 21
196.4000014
 31
0.0
  0
LINE
  5
1D3
330
7E2
100
AcDbEntity
  8
YKK_12
  6
Continuous
100
AcDbLine
 10
387.5000182
 20
192.2000014
 30
0.0
 11
516.3000182
 21
192.2000014
 31
0.0
  0
LINE
  5
1D4
330
7E2
100
AcDbEntity
  8
YKK_12
  6
Continuous
100
AcDbLine
 10
387.5000182
 20
187.6000014
 30
0.0
 11
516.3000182
 21
187.6000014
 31
0.0
  0
LINE
  5
1D5
330
7E2
100
AcDbEntity
  8
YKK_12
  6
Continuous
100
AcDbLine
 10
379.8000182
 20
181.60000054
 30
0.0
 11
516.3000182
 21
181.60000054
 31
0.0
  0
LINE
  5
1D6
330
7E2
100
AcDbEntity
  8
YKK_12
  6
Continuous
100
AcDbLine
 10
379.8000182
 20
180.60000054
 30
0.0
 11
516.3000182
 21
180.60000054
 31
0.0
  0
LINE
  5
1D7
330
7E2
100
AcDbEntity
  8
YKK_12
  6
Continuous
100
AcDbLine
 10
379.8000182
 20
176.60000054
 30
0.0
 11
516.3000182
 21
176.60000054
 31
0.0
  0
LINE
  5
1D8
330
7E2
100
AcDbEntity
  8
YKK_12
  6
Continuous
100
AcDbLine
 10
379.8000182
 20
175.60000054
 30
0.0
 11
516.3000182
 21
175.60000054
 31
0.0
  0
LINE
  5
1D9
330
7E2
100
AcDbEntity
  8
YKK_12
  6
Continuous
100
AcDbLine
 10
387.5000182
 20
169.6000014
 30
0.0
 11
516.3000182
 21
169.6000014
 31
0.0
  0
LINE
  5
1DA
330
7E2
100
AcDbEntity
  8
YKK_12
  6
Continuous
100
AcDbLine
 10
367.8000182
 20
128.0300014
 30
0.0
 11
516.3000182
 21
128.0300014
 31
0.0
  0
LINE
  5
1DB
330
7E2
100
AcDbEntity
  8
YKK_12
  6
Continuous
100
AcDbLine
 10
367.8000182
 20
126.4000014
 30
0.0
 11
516.3000182
 21
126.4000014
 31
0.0
  0
INSERT
  5
1DC
330
7E2
100
AcDbEntity
  8
YKK_11
100
AcDbBlockReference
  2
2K-63606
 10
342.80001819
 20
126.40000139
 30
0.0
  0
LINE
  5
1E2
330
7E2
100
AcDbEntity
  8
YKK_12
100
AcDbLine
 10
367.8000182
 20
164.7000014
 30
0.0
 11
367.8000182
 21
126.4000014
 31
0.0
  0
LINE
  5
1E3
330
7E2
100
AcDbEntity
  8
YKK_12
100
AcDbLine
 10
367.8000182
 20
190.2700014
 30
0.0
 11
367.8000182
 21
166.9300014
 31
0.0
  0
LINE
  5
1E4
330
7E2
100
AcDbEntity
  8
YKK_12
  6
Continuous
100
AcDbLine
 10
379.8000182
 20
175.60000054
 30
0.0
 11
379.8000182
 21
181.60000054
 31
0.0
1001
YALIB
1000
YALIB1601
1000
 L=246 t1=6.8 ta=1 SDFLG="0" MFLG="0" HFLG="0"  
  0
LINE
  5
1E5
330
7E2
100
AcDbEntity
  8
YKK_13
100
AcDbLine
 10
379.8000182
 20
175.10000054
 30
0.0
 11
379.8000182
 21
182.10000054
 31
0.0
  0
LINE
  5
1E6
330
7E2
100
AcDbEntity
  8
YKK_13
100
AcDbLine
 10
367.8000182
 20
182.10000054
 30
0.0
 11
367.8000182
 21
175.10000054
 31
0.0
  0
LINE
  5
1E7
330
7E2
100
AcDbEntity
  8
YKK_13
100
AcDbLine
 10
379.8000182
 20
182.10000054
 30
0.0
 11
367.8000182
 21
175.10000054
 31
0.0
  0
LINE
  5
1E8
330
7E2
100
AcDbEntity
  8
YKK_13
100
AcDbLine
 10
379.8000182
 20
175.10000054
 30
0.0
 11
367.8000182
 21
182.10000054
 31
0.0
  0
LINE
  5
1E9
330
7E2
100
AcDbEntity
  8
YKK_13
100
AcDbLine
 10
367.8000182
 20
175.10000054
 30
0.0
 11
379.8000182
 21
175.10000054
 31
0.0
  0
LINE
  5
1EA
330
7E2
100
AcDbEntity
  8
YKK_13
  6
Continuous
100
AcDbLine
 10
381.80000859
 20
175.60000226
 30
0.0
 11
378.80000859
 21
175.59999711
 31
0.0
  0
LINE
  5
1EB
330
7E2
100
AcDbEntity
  8
YKK_13
  6
Continuous
100
AcDbLine
 10
378.8000182
 20
169.59999883
 30
0.0
 11
381.8000182
 21
169.60000397
 31
0.0
  0
LINE
  5
1EC
330
7E2
100
AcDbEntity
  8
YKK_13
100
AcDbLine
 10
378.465009
 20
175.36499825
 30
0.0
 11
378.46500869
 21
175.54221466
 31
0.0
  0
ARC
  5
1ED
330
7E2
100
AcDbEntity
  8
YKK_13
  6
Continuous
100
AcDbCircle
 10
378.80001031
 20
174.59999711
 30
0.0
 40
1.000000000001386
100
AcDbArc
 50
90.00009828
 51
180.00009828
  0
LINE
  5
1EE
330
7E2
100
AcDbEntity
  8
YKK_13
100
AcDbLine
 10
378.46501419
 20
172.33499825
 30
0.0
 11
378.46501385
 21
172.53499825
 31
0.0
  0
ARC
  5
1EF
330
7E2
100
AcDbEntity
  8
YKK_13
  6
Continuous
100
AcDbCircle
 10
378.80001648
 20
170.59999883
 30
0.0
 40
0.9999999999991405
100
AcDbArc
 50
180.00009828
 51
270.00009828
  0
LINE
  5
1F0
330
7E2
100
AcDbEntity
  8
YKK_13
  6
Continuous
100
AcDbLine
 10
377.80001031
 20
174.5999954
 30
0.0
 11
377.80001648
 21
170.59999711
 31
0.0
  0
LINE
  5
1F1
330
7E2
100
AcDbEntity
  8
YKK_13
100
AcDbLine
 10
385.04860858
 20
175.60000783
 30
0.0
 11
388.61216414
 21
172.03646449
 31
0.0
  0
LINE
  5
1F2
330
7E2
100
AcDbEntity
  8
YKK_13
100
AcDbLine
 10
387.87703571
 20
175.60001268
 30
0.0
 11
389.31926762
 21
174.15778572
 31
0.0
  0
LINE
  5
1F3
330
7E2
100
AcDbEntity
  8
YKK_13
100
AcDbLine
 10
382.80001284
 20
172.96020127
 30
0.0
 11
385.43981101
 21
175.6000085
 31
0.0
  0
LINE
  5
1F4
330
7E2
100
AcDbEntity
  8
YKK_13
100
AcDbLine
 10
381.295009
 20
175.36500311
 30
0.0
 11
381.29500865
 21
175.56500311
 31
0.0
  0
LINE
  5
1F5
330
7E2
100
AcDbEntity
  8
YKK_13
100
AcDbLine
 10
382.40648556
 20
175.39510462
 30
0.0
 11
382.61138389
 21
175.60000365
 31
0.0
  0
LINE
  5
1F6
330
7E2
100
AcDbEntity
  8
YKK_13
100
AcDbLine
 10
381.29501419
 20
172.33500311
 30
0.0
 11
381.29501385
 21
172.53500311
 31
0.0
  0
LINE
  5
1F7
330
7E2
100
AcDbEntity
  8
YKK_13
100
AcDbLine
 10
382.71001142
 20
173.95000553
 30
0.0
 11
382.71001108
 21
174.15000553
 31
0.0
  0
LINE
  5
1F8
330
7E2
100
AcDbEntity
  8
YKK_13
100
AcDbLine
 10
379.88001142
 20
173.95000068
 30
0.0
 11
379.88001108
 21
174.15000068
 31
0.0
  0
LINE
  5
1F9
330
7E2
100
AcDbEntity
  8
YKK_13
  6
Continuous
100
AcDbLine
 10
381.80000859
 20
175.60000226
 30
0.0
 11
389.80000859
 21
175.60001598
 31
0.0
  0
ARC
  5
1FA
330
7E2
100
AcDbEntity
  8
YKK_13
  6
Continuous
100
AcDbCircle
 10
381.80001031
 20
174.60000226
 30
0.0
 40
0.9999999999992542
100
AcDbArc
 50
0.00009828
 51
90.00009828
  0
ARC
  5
1FB
330
7E2
100
AcDbEntity
  8
YKK_13
  6
Continuous
100
AcDbCircle
 10
381.80001031
 20
174.60000226
 30
0.0
 40
0.9999999999992542
100
AcDbArc
 50
0.00009828
 51
90.00009828
  0
LINE
  5
1FC
330
7E2
100
AcDbEntity
  8
YKK_13
100
AcDbLine
 10
382.71001662
 20
170.92000553
 30
0.0
 11
382.71001628
 21
171.12000553
 31
0.0
  0
LINE
  5
1FD
330
7E2
100
AcDbEntity
  8
YKK_13
100
AcDbLine
 10
379.88001662
 20
170.92000068
 30
0.0
 11
379.88001628
 21
171.12000068
 31
0.0
  0
LINE
  5
1FE
330
7E2
100
AcDbEntity
  8
YKK_13
100
AcDbLine
 10
382.37881035
 20
169.78453008
 30
0.0
 11
382.56333578
 21
169.60000528
 31
0.0
  0
LINE
  5
1FF
330
7E2
100
AcDbEntity
  8
YKK_13
  6
Continuous
100
AcDbLine
 10
387.8000182
 20
169.60001427
 30
0.0
 11
381.8000182
 21
169.60000397
 31
0.0
  0
ARC
  5
200
330
7E2
100
AcDbEntity
  8
YKK_13
  6
Continuous
100
AcDbCircle
 10
381.80001648
 20
170.60000397
 30
0.0
 40
1.000000000000305
100
AcDbArc
 50
270.00009828
 51
0.00009828
  0
ARC
  5
201
330
7E2
100
AcDbEntity
  8
YKK_13
  6
Continuous
100
AcDbCircle
 10
381.80001648
 20
170.60000397
 30
0.0
 40
1.000000000000305
100
AcDbArc
 50
270.00009828
 51
0.00009828
  0
LINE
  5
202
330
7E2
100
AcDbEntity
  8
YKK_13
100
AcDbLine
 10
382.80001403
 20
172.19175012
 30
0.0
 11
385.39176291
 21
169.60001013
 31
0.0
  0
LINE
  5
203
330
7E2
100
AcDbEntity
  8
YKK_13
100
AcDbLine
 10
385.09667727
 20
169.60000963
 30
0.0
 11
389.15168298
 21
173.65502925
 31
0.0
  0
LINE
  5
204
330
7E2
100
AcDbEntity
  8
YKK_13
  6
Continuous
100
AcDbLine
 10
389.80000859
 20
175.60001598
 30
0.0
 11
387.8000182
 21
169.60001427
 31
0.0
  0
LINE
  5
205
330
7E2
100
AcDbEntity
  8
YKK_13
  6
Continuous
100
AcDbLine
 10
382.80001648
 20
170.60000569
 30
0.0
 11
382.80001031
 21
174.60000397
 31
0.0
  0
LINE
  5
206
330
7E2
100
AcDbEntity
  8
YKK_13
  6
Continuous
100
AcDbLine
 10
382.80001648
 20
170.60000569
 30
0.0
 11
382.80001031
 21
174.60000397
 31
0.0
  0
LINE
  5
207
330
7E2
100
AcDbEntity
  8
YKK_13
100
AcDbLine
 10
382.22018146
 20
175.60000298
 30
0.0
 11
387.90506067
 21
169.91514327
 31
0.0
  0
LINE
  5
208
330
7E2
100
AcDbEntity
  8
YKK_13
100
AcDbLine
 10
382.26825014
 20
169.60000478
 30
0.0
 11
388.26823814
 21
175.60001335
 31
0.0
  0
LINE
  5
209
330
7E2
100
AcDbEntity
  8
YKK_13
  6
Continuous
100
AcDbLine
 10
378.8000182
 20
187.60000397
 30
0.0
 11
381.8000182
 21
187.59999883
 31
0.0
  0
LINE
  5
20A
330
7E2
100
AcDbEntity
  8
YKK_13
100
AcDbLine
 10
379.8000182
 20
182.10000054
 30
0.0
 11
367.8000182
 21
182.10000054
 31
0.0
  0
LINE
  5
20B
330
7E2
100
AcDbEntity
  8
YKK_13
  6
Continuous
100
AcDbLine
 10
381.80000859
 20
181.60000054
 30
0.0
 11
378.80000859
 21
181.60000569
 31
0.0
  0
ARC
  5
20C
330
7E2
100
AcDbEntity
  8
YKK_13
  6
Continuous
100
AcDbCircle
 10
378.80001648
 20
186.60000397
 30
0.0
 40
0.9999999999991405
100
AcDbArc
 50
89.99990172
 51
179.99990172
  0
LINE
  5
20D
330
7E2
100
AcDbEntity
  8
YKK_13
100
AcDbLine
 10
378.46501419
 20
184.86500455
 30
0.0
 11
378.46501385
 21
184.66500455
 31
0.0
  0
LINE
  5
20E
330
7E2
100
AcDbEntity
  8
YKK_13
100
AcDbLine
 10
378.465009
 20
181.83500455
 30
0.0
 11
378.46500869
 21
181.65778814
 31
0.0
  0
ARC
  5
20F
330
7E2
100
AcDbEntity
  8
YKK_13
  6
Continuous
100
AcDbCircle
 10
378.80001031
 20
182.60000569
 30
0.0
 40
1.000000000001357
100
AcDbArc
 50
179.99990172
 51
269.99990172
  0
LINE
  5
210
330
7E2
100
AcDbEntity
  8
YKK_13
  6
Continuous
100
AcDbLine
 10
377.80001031
 20
182.6000074
 30
0.0
 11
377.80001648
 21
186.60000569
 31
0.0
  0
LINE
  5
211
330
7E2
100
AcDbEntity
  8
YKK_13
100
AcDbLine
 10
382.80001403
 20
185.00825268
 30
0.0
 11
385.39176291
 21
187.59999267
 31
0.0
  0
LINE
  5
212
330
7E2
100
AcDbEntity
  8
YKK_13
100
AcDbLine
 10
385.09667727
 20
187.59999317
 30
0.0
 11
389.15168298
 21
183.54497355
 31
0.0
  0
LINE
  5
213
330
7E2
100
AcDbEntity
  8
YKK_13
100
AcDbLine
 10
379.88001662
 20
186.28000212
 30
0.0
 11
379.88001628
 21
186.08000212
 31
0.0
  0
LINE
  5
214
330
7E2
100
AcDbEntity
  8
YKK_13
100
AcDbLine
 10
382.71001662
 20
186.27999727
 30
0.0
 11
382.71001628
 21
186.07999727
 31
0.0
  0
LINE
  5
215
330
7E2
100
AcDbEntity
  8
YKK_13
100
AcDbLine
 10
382.37881035
 20
187.41547272
 30
0.0
 11
382.56333578
 21
187.59999752
 31
0.0
  0
LINE
  5
216
330
7E2
100
AcDbEntity
  8
YKK_13
100
AcDbLine
 10
381.29501419
 20
184.86499969
 30
0.0
 11
381.29501385
 21
184.66499969
 31
0.0
  0
LINE
  5
217
330
7E2
100
AcDbEntity
  8
YKK_13
100
AcDbLine
 10
379.88001142
 20
183.25000212
 30
0.0
 11
379.88001108
 21
183.05000212
 31
0.0
  0
LINE
  5
218
330
7E2
100
AcDbEntity
  8
YKK_13
100
AcDbLine
 10
382.71001142
 20
183.24999727
 30
0.0
 11
382.71001108
 21
183.04999727
 31
0.0
  0
LINE
  5
219
330
7E2
100
AcDbEntity
  8
YKK_13
  6
Continuous
100
AcDbLine
 10
387.8000182
 20
187.59998853
 30
0.0
 11
381.8000182
 21
187.59999883
 31
0.0
  0
ARC
  5
21A
330
7E2
100
AcDbEntity
  8
YKK_13
  6
Continuous
100
AcDbCircle
 10
381.80001648
 20
186.59999883
 30
0.0
 40
1.000000000000334
100
AcDbArc
 50
359.99990172
 51
89.99990172
  0
ARC
  5
21B
330
7E2
100
AcDbEntity
  8
YKK_13
  6
Continuous
100
AcDbCircle
 10
381.80001648
 20
186.59999883
 30
0.0
 40
1.000000000000334
100
AcDbArc
 50
359.99990172
 51
89.99990172
  0
LINE
  5
21C
330
7E2
100
AcDbEntity
  8
YKK_13
100
AcDbLine
 10
381.295009
 20
181.83499969
 30
0.0
 11
381.29500865
 21
181.63499969
 31
0.0
  0
LINE
  5
21D
330
7E2
100
AcDbEntity
  8
YKK_13
100
AcDbLine
 10
382.40648556
 20
181.80489818
 30
0.0
 11
382.61138389
 21
181.59999915
 31
0.0
  0
LINE
  5
21E
330
7E2
100
AcDbEntity
  8
YKK_13
  6
Continuous
100
AcDbLine
 10
381.80000859
 20
181.60000054
 30
0.0
 11
389.80000859
 21
181.59998682
 31
0.0
  0
ARC
  5
21F
330
7E2
100
AcDbEntity
  8
YKK_13
  6
Continuous
100
AcDbCircle
 10
381.80001031
 20
182.60000054
 30
0.0
 40
0.9999999999991974
100
AcDbArc
 50
269.99990172
 51
359.99990172
  0
ARC
  5
220
330
7E2
100
AcDbEntity
  8
YKK_13
  6
Continuous
100
AcDbCircle
 10
381.80001031
 20
182.60000054
 30
0.0
 40
0.9999999999991974
100
AcDbArc
 50
269.99990172
 51
359.99990172
  0
LINE
  5
221
330
7E2
100
AcDbEntity
  8
YKK_13
100
AcDbLine
 10
387.87703571
 20
181.59999012
 30
0.0
 11
389.31926762
 21
183.04221708
 31
0.0
  0
LINE
  5
222
330
7E2
100
AcDbEntity
  8
YKK_13
100
AcDbLine
 10
385.04860858
 20
181.59999497
 30
0.0
 11
388.61216414
 21
185.16353831
 31
0.0
  0
LINE
  5
223
330
7E2
100
AcDbEntity
  8
YKK_13
100
AcDbLine
 10
382.80001284
 20
184.23980153
 30
0.0
 11
385.43981101
 21
181.5999943
 31
0.0
  0
LINE
  5
224
330
7E2
100
AcDbEntity
  8
YKK_13
  6
Continuous
100
AcDbLine
 10
389.80000859
 20
181.59998682
 30
0.0
 11
387.8000182
 21
187.59998853
 31
0.0
  0
LINE
  5
225
330
7E2
100
AcDbEntity
  8
YKK_13
  6
Continuous
100
AcDbLine
 10
382.80001648
 20
186.59999711
 30
0.0
 11
382.80001031
 21
182.59999883
 31
0.0
  0
LINE
  5
226
330
7E2
100
AcDbEntity
  8
YKK_13
  6
Continuous
100
AcDbLine
 10
382.80001648
 20
186.59999711
 30
0.0
 11
382.80001031
 21
182.59999883
 31
0.0
  0
LINE
  5
227
330
7E2
100
AcDbEntity
  8
YKK_13
100
AcDbLine
 10
382.22018146
 20
181.59999982
 30
0.0
 11
387.90506067
 21
187.28485953
 31
0.0
  0
LINE
  5
228
330
7E2
100
AcDbEntity
  8
YKK_13
100
AcDbLine
 10
382.26825014
 20
187.59999802
 30
0.0
 11
388.26823814
 21
181.59998945
 31
0.0
  0
LINE
  5
229
330
7E2
100
AcDbEntity
  8
YKK_12
100
AcDbLine
 10
367.8000182
 20
196.4000014
 30
0.0
 11
367.8000182
 21
192.5000014
 31
0.0
  0
LINE
  5
22A
330
7E2
100
AcDbEntity
  8
YKK_12
  6
Continuous
100
AcDbLine
 10
502.79994958
 20
286.40010463
 30
0.0
 11
342.79994958
 21
286.40010463
 31
0.0
1001
YALIB
1000
YALIB1603
1000
 L=131 t1=6.8 t2=5 A=12 ta1=1 ta2= 1 SDFLG="1" AFLG1="1" AFLG2="0" MFLG="0" HFLG="0"  
  0
LINE
  5
22B
330
7E2
100
AcDbEntity
  8
YKK_12
  6
Continuous
100
AcDbLine
 10
502.79994958
 20
288.03010463
 30
0.0
 11
342.79994958
 21
288.03010463
 31
0.0
1001
YALIB
1000
YALIB1603
1000
 L=131 t1=6.8 t2=5 A=12 ta1=1 ta2= 1 SDFLG="1" AFLG1="1" AFLG2="0" MFLG="0" HFLG="0"  
  0
TEXT
  5
22C
330
7E2
100
AcDbEntity
  8
YKK_D
100
AcDbText
 10
419.65680247
 20
247.40010463
 30
0.0
 40
6.0
  1
20
 41
0.8
100
AcDbText
1001
ACAD
1000
MTEXTBEGIN
1070
    73
1070
     1
1070
    44
1040
1.0
1070
    74
1070
     0
1000
MTEXTEND
  0
LINE
  5
22D
330
7E2
100
AcDbEntity
  8
YKK_D
100
AcDbLine
 10
432.79982268
 20
246.40010463
 30
0.0
 11
412.80007668
 21
246.40010463
 31
0.0
  0
TEXT
  5
22E
330
7E2
100
AcDbEntity
  8
USER1
100
AcDbText
 10
411.22881109
 20
235.16458021
 30
0.0
 40
6.0
  1
たて骨
 41
0.8
100
AcDbText
1001
ACAD
1000
MTEXTBEGIN
1070
    73
1070
     1
1070
    44
1040
1.0
1070
    74
1070
     0
1000
MTEXTEND
1000
MTEXTBEGIN
1070
    73
1070
     1
1070
    44
1040
1.0
1070
    74
1070
     0
1000
MTEXTEND
  0
LINE
  5
22F
330
7E2
100
AcDbEntity
  8
YKK_D
100
AcDbLine
 10
412.79994496
 20
283.40010463
 30
0.0
 11
412.8000076
 21
245.40009249
 31
0.0
  0
LINE
  5
230
330
7E2
100
AcDbEntity
  8
YKK_D
100
AcDbLine
 10
412.80007668
 20
283.40010463
 30
0.0
 11
412.80007668
 21
245.40010463
 31
0.0
  0
LINE
  5
231
330
7E2
100
AcDbEntity
  8
YKK_D
100
AcDbLine
 10
342.8000182
 20
246.39997711
 30
0.0
 11
406.80000595
 21
246.4000826
 31
0.0
  0
TEXT
  5
232
330
7E2
100
AcDbEntity
  8
YKK_D
100
AcDbText
 10
371.26701583
 20
247.20002403
 30
0.0
 40
6.0
  1
Ｗ
 50
0.00009444
 41
0.8
100
AcDbText
1001
ACAD
1000
MTEXTBEGIN
1070
    73
1070
     1
1070
    44
1040
1.0
1070
    74
1070
     0
1000
MTEXTEND
  0
TEXT
  5
233
330
7E2
100
AcDbEntity
  8
YKK_D
100
AcDbText
 10
377.50457928
 20
247.20003432
 30
0.0
 40
3.0
  1
1
 50
0.00009444
 41
0.8
100
AcDbText
1001
ACAD
1000
MTEXTBEGIN
1070
    73
1070
     1
1070
    44
1040
1.0
1070
    74
1070
     0
1000
MTEXTEND
  0
LINE
  5
234
330
7E2
100
AcDbEntity
  8
YKK_D
100
AcDbLine
 10
412.80000595
 20
246.40009249
 30
0.0
 11
407.60385847
 21
243.40008393
 31
0.0
  0
LINE
  5
235
330
7E2
100
AcDbEntity
  8
YKK_D
100
AcDbLine
 10
412.80000595
 20
246.40009249
 30
0.0
 11
402.4077011
 21
246.40007536
 31
0.0
  0
LINE
  5
236
330
7E2
100
AcDbEntity
  8
YKK_D
100
AcDbLine
 10
412.80000595
 20
246.40009249
 30
0.0
 11
407.60384858
 21
249.40008393
 31
0.0
  0
LINE
  5
237
330
7E2
100
AcDbEntity
  8
YKK_D
100
AcDbLine
 10
407.60384858
 20
249.40008393
 30
0.0
 11
407.60385847
 21
243.40008393
 31
0.0
  0
LINE
  5
238
330
7E2
100
AcDbEntity
  8
YKK_D
100
AcDbLine
 10
412.79994958
 20
266.40010463
 30
0.0
 11
392.79994958
 21
266.40010463
 31
0.0
  0
LINE
  5
239
330
7E2
100
AcDbEntity
  8
YKK_D
100
AcDbLine
 10
392.79994958
 20
283.40010463
 30
0.0
 11
392.79994958
 21
265.40010463
 31
0.0
  0
LWPOLYLINE
  5
23A
330
7E2
100
AcDbEntity
  8
YKK_D
  6
ByBlock
100
AcDbPolyline
 90
        2
 70
     1
 43
0.85
 10
392.90619958
 20
266.40010463
 42
1.0
 10
392.69369958
 20
266.40010463
 42
1.0
  0
LINE
  5
23B
330
7E2
100
AcDbEntity
  8
YKK_D
100
AcDbLine
 10
412.79994958
 20
283.40010463
 30
0.0
 11
412.79994958
 21
265.40010463
 31
0.0
  0
TEXT
  5
23C
330
7E2
100
AcDbEntity
  8
YKK_D
100
AcDbText
 10
399.65680237
 20
267.40010463
 30
0.0
 40
6.0
  1
20
 41
0.8
100
AcDbText
1001
ACAD
1000
MTEXTBEGIN
1070
    73
1070
     1
1070
    44
1040
1.0
1070
    74
1070
     0
1000
MTEXTEND
  0
LWPOLYLINE
  5
23D
330
7E2
100
AcDbEntity
  8
YKK_D
  6
ByBlock
100
AcDbPolyline
 90
        2
 70
     1
 43
0.85
 10
412.69369958
 20
266.40010463
 42
1.0
 10
412.90619958
 20
266.40010463
 42
1.0
  0
LINE
  5
23E
330
7E2
100
AcDbEntity
  8
YKK_D
100
AcDbLine
 10
432.79991322
 20
283.40010463
 30
0.0
 11
432.79985058
 21
245.40011677
 31
0.0
  0
LINE
  5
23F
330
7E2
100
AcDbEntity
  8
YKK_D
100
AcDbLine
 10
432.79982268
 20
283.40010463
 30
0.0
 11
432.79982268
 21
245.40010463
 31
0.0
  0
LINE
  5
240
330
7E2
100
AcDbEntity
  8
YKK_D
100
AcDbLine
 10
502.79988096
 20
246.40000139
 30
0.0
 11
438.79985223
 21
246.40010688
 31
0.0
  0
LINE
  5
241
330
7E2
100
AcDbEntity
  8
YKK_D
100
AcDbLine
 10
432.79985223
 20
246.40011677
 30
0.0
 11
443.19215707
 21
246.40009964
 31
0.0
  0
LINE
  5
242
330
7E2
100
AcDbEntity
  8
YKK_D
100
AcDbLine
 10
432.79985223
 20
246.40011677
 30
0.0
 11
437.99599971
 21
243.40010821
 31
0.0
  0
LINE
  5
243
330
7E2
100
AcDbEntity
  8
YKK_D
100
AcDbLine
 10
432.79985223
 20
246.40011677
 30
0.0
 11
437.9960096
 21
249.40010821
 31
0.0
  0
LINE
  5
244
330
7E2
100
AcDbEntity
  8
YKK_D
100
AcDbLine
 10
437.99599971
 20
243.40010821
 30
0.0
 11
437.9960096
 21
249.40010821
 31
0.0
  0
TEXT
  5
245
330
7E2
100
AcDbEntity
  8
YKK_D
100
AcDbText
 10
467.04758365
 20
247.20006032
 30
0.0
 40
6.0
  1
Ｗ
 50
359.99990556
 41
0.8
100
AcDbText
1001
ACAD
1000
MTEXTBEGIN
1070
    73
1070
     1
1070
    44
1040
1.0
1070
    74
1070
     0
1000
MTEXTEND
  0
TEXT
  5
246
330
7E2
100
AcDbEntity
  8
YKK_D
100
AcDbText
 10
473.2851471
 20
247.20005004
 30
0.0
 40
3.0
  1
2
 50
359.99990556
 41
0.8
100
AcDbText
1001
ACAD
1000
MTEXTBEGIN
1070
    73
1070
     1
1070
    44
1040
1.0
1070
    74
1070
     0
1000
MTEXTEND
  0
LINE
  5
247
330
7E2
100
AcDbEntity
  8
YKK_D
100
AcDbLine
 10
432.79994958
 20
283.40010463
 30
0.0
 11
432.79994958
 21
265.40010463
 31
0.0
  0
LINE
  5
248
330
7E2
100
AcDbEntity
  8
YKK_D
100
AcDbLine
 10
452.79994958
 20
283.40010463
 30
0.0
 11
452.79994958
 21
265.40010463
 31
0.0
  0
LINE
  5
249
330
7E2
100
AcDbEntity
  8
YKK_D
100
AcDbLine
 10
432.79994958
 20
266.40010463
 30
0.0
 11
452.79994958
 21
266.40010463
 31
0.0
  0
TEXT
  5
24A
330
7E2
100
AcDbEntity
  8
YKK_D
100
AcDbText
 10
439.65680237
 20
267.40010463
 30
0.0
 40
6.0
  1
20
 41
0.8
100
AcDbText
1001
ACAD
1000
MTEXTBEGIN
1070
    73
1070
     1
1070
    44
1040
1.0
1070
    74
1070
     0
1000
MTEXTEND
  0
LWPOLYLINE
  5
24B
330
7E2
100
AcDbEntity
  8
YKK_D
  6
ByBlock
100
AcDbPolyline
 90
        2
 70
     1
 43
0.85
 10
432.90619958
 20
266.40010463
 42
1.0
 10
432.69369958
 20
266.40010463
 42
1.0
  0
LWPOLYLINE
  5
24C
330
7E2
100
AcDbEntity
  8
YKK_D
  6
ByBlock
100
AcDbPolyline
 90
        2
 70
     1
 43
0.85
 10
452.69369958
 20
266.40010463
 42
1.0
 10
452.90619958
 20
266.40010463
 42
1.0
  0
INSERT
  5
24D
330
7E2
100
AcDbEntity
  8
YKK_11
100
AcDbBlockReference
  2
2K-63606
 10
692.80001821
 20
126.40000139
 30
0.0
 41
-1.0
  0
TEXT
  5
24E
330
7E2
100
AcDbEntity
  8
YKK_D
100
AcDbText
 10
618.93383492
 20
158.20812323
 30
0.0
 40
6.0
  1
70
 50
90.0
 41
0.8
100
AcDbText
1001
ACAD
1000
MTEXTBEGIN
1070
    73
1070
     1
1070
    44
1040
1.0
1070
    74
1070
     0
1000
MTEXTEND
  0
LINE
  5
24F
330
7E2
100
AcDbEntity
  8
YKK_D
100
AcDbLine
 10
619.93383492
 20
196.4000014
 30
0.0
 11
619.93383492
 21
126.4000014
 31
0.0
  0
LINE
  5
250
330
7E2
100
AcDbEntity
  8
YKK_12
100
AcDbLine
 10
667.8000182
 20
164.7000014
 30
0.0
 11
667.8000182
 21
126.4000014
 31
0.0
  0
LINE
  5
251
330
7E2
100
AcDbEntity
  8
YKK_D
100
AcDbLine
 10
635.93383492
 20
126.4000014
 30
0.0
 11
618.93383492
 21
126.4000014
 31
0.0
  0
LWPOLYLINE
  5
252
330
7E2
100
AcDbEntity
  8
YKK_D
  6
ByBlock
100
AcDbPolyline
 90
        2
 70
     1
 43
0.85
 10
619.93383492
 20
126.5062514
 42
1.0
 10
619.93383492
 20
126.2937514
 42
1.0
  0
LINE
  5
253
330
7E2
100
AcDbEntity
  8
YKK_12
100
AcDbLine
 10
667.8000182
 20
190.2700014
 30
0.0
 11
667.8000182
 21
166.9300014
 31
0.0
  0
LINE
  5
254
330
7E2
100
AcDbEntity
  8
YKK_12
  6
Continuous
100
AcDbLine
 10
655.8000182
 20
181.60000054
 30
0.0
 11
655.8000182
 21
175.60000054
 31
0.0
1001
YALIB
1000
YALIB1601
1000
 L=246 t1=6.8 ta=1 SDFLG="0" MFLG="0" HFLG="0"  
  0
LINE
  5
255
330
7E2
100
AcDbEntity
  8
YKK_13
100
AcDbLine
 10
657.1350274
 20
175.36499825
 30
0.0
 11
657.13502771
 21
175.54221466
 31
0.0
  0
LINE
  5
256
330
7E2
100
AcDbEntity
  8
YKK_13
100
AcDbLine
 10
654.3050274
 20
175.36500311
 30
0.0
 11
654.30502775
 21
175.56500311
 31
0.0
  0
ARC
  5
257
330
7E2
100
AcDbEntity
  8
YKK_13
  6
Continuous
100
AcDbCircle
 10
653.80002609
 20
174.60000226
 30
0.0
 40
0.9999999999991974
100
AcDbArc
 50
89.99990172
 51
179.99990172
  0
LINE
  5
258
330
7E2
100
AcDbEntity
  8
YKK_13
  6
Continuous
100
AcDbLine
 10
653.80002781
 20
175.60000226
 30
0.0
 11
656.80002781
 21
175.59999711
 31
0.0
  0
ARC
  5
259
330
7E2
100
AcDbEntity
  8
YKK_13
  6
Continuous
100
AcDbCircle
 10
656.80002609
 20
174.59999711
 30
0.0
 40
1.000000000001386
100
AcDbArc
 50
359.99990172
 51
89.99990172
  0
ARC
  5
25A
330
7E2
100
AcDbEntity
  8
YKK_13
  6
Continuous
100
AcDbCircle
 10
653.80002609
 20
174.60000226
 30
0.0
 40
0.9999999999991974
100
AcDbArc
 50
89.99990172
 51
179.99990172
  0
LINE
  5
25B
330
7E2
100
AcDbEntity
  8
YKK_13
100
AcDbLine
 10
653.19355084
 20
175.39510462
 30
0.0
 11
652.98865251
 21
175.60000365
 31
0.0
  0
LINE
  5
25C
330
7E2
100
AcDbEntity
  8
YKK_13
100
AcDbLine
 10
657.13502221
 20
172.33499825
 30
0.0
 11
657.13502255
 21
172.53499825
 31
0.0
  0
LINE
  5
25D
330
7E2
100
AcDbEntity
  8
YKK_13
100
AcDbLine
 10
654.30502221
 20
172.33500311
 30
0.0
 11
654.30502255
 21
172.53500311
 31
0.0
  0
LINE
  5
25E
330
7E2
100
AcDbEntity
  8
YKK_13
100
AcDbLine
 10
655.72002498
 20
173.95000068
 30
0.0
 11
655.72002532
 21
174.15000068
 31
0.0
  0
LINE
  5
25F
330
7E2
100
AcDbEntity
  8
YKK_13
100
AcDbLine
 10
652.89002498
 20
173.95000553
 30
0.0
 11
652.89002532
 21
174.15000553
 31
0.0
  0
LINE
  5
260
330
7E2
100
AcDbEntity
  8
YKK_13
100
AcDbLine
 10
652.80002356
 20
172.96020127
 30
0.0
 11
650.16022539
 21
175.6000085
 31
0.0
  0
LINE
  5
261
330
7E2
100
AcDbEntity
  8
YKK_13
100
AcDbLine
 10
647.72300069
 20
175.60001268
 30
0.0
 11
646.28076878
 21
174.15778572
 31
0.0
  0
LINE
  5
262
330
7E2
100
AcDbEntity
  8
YKK_13
  6
Continuous
100
AcDbLine
 10
653.80002781
 20
175.60000226
 30
0.0
 11
645.80002781
 21
175.60001598
 31
0.0
  0
LINE
  5
263
330
7E2
100
AcDbEntity
  8
YKK_13
100
AcDbLine
 10
650.55142782
 20
175.60000783
 30
0.0
 11
646.98787226
 21
172.03646449
 31
0.0
  0
LINE
  5
264
330
7E2
100
AcDbEntity
  8
YKK_13
100
AcDbLine
 10
655.72001978
 20
170.92000068
 30
0.0
 11
655.72002012
 21
171.12000068
 31
0.0
  0
LINE
  5
265
330
7E2
100
AcDbEntity
  8
YKK_13
100
AcDbLine
 10
652.89001978
 20
170.92000553
 30
0.0
 11
652.89002012
 21
171.12000553
 31
0.0
  0
ARC
  5
266
330
7E2
100
AcDbEntity
  8
YKK_13
  6
Continuous
100
AcDbCircle
 10
653.80001992
 20
170.60000397
 30
0.0
 40
1.000000000000305
100
AcDbArc
 50
179.99990172
 51
269.99990172
  0
ARC
  5
267
330
7E2
100
AcDbEntity
  8
YKK_13
  6
Continuous
100
AcDbCircle
 10
656.80001992
 20
170.59999883
 30
0.0
 40
0.9999999999991974
100
AcDbArc
 50
269.99990172
 51
359.99990172
  0
LINE
  5
268
330
7E2
100
AcDbEntity
  8
YKK_13
  6
Continuous
100
AcDbLine
 10
656.8000182
 20
169.59999883
 30
0.0
 11
653.8000182
 21
169.60000397
 31
0.0
  0
ARC
  5
269
330
7E2
100
AcDbEntity
  8
YKK_13
  6
Continuous
100
AcDbCircle
 10
653.80001992
 20
170.60000397
 30
0.0
 40
1.000000000000305
100
AcDbArc
 50
179.99990172
 51
269.99990172
  0
LINE
  5
26A
330
7E2
100
AcDbEntity
  8
YKK_13
100
AcDbLine
 10
653.22122605
 20
169.78453008
 30
0.0
 11
653.03670062
 21
169.60000528
 31
0.0
  0
LINE
  5
26B
330
7E2
100
AcDbEntity
  8
YKK_13
  6
Continuous
100
AcDbLine
 10
647.8000182
 20
169.60001427
 30
0.0
 11
653.8000182
 21
169.60000397
 31
0.0
  0
LINE
  5
26C
330
7E2
100
AcDbEntity
  8
YKK_13
100
AcDbLine
 10
650.50335913
 20
169.60000963
 30
0.0
 11
646.44835342
 21
173.65502925
 31
0.0
  0
LINE
  5
26D
330
7E2
100
AcDbEntity
  8
YKK_13
100
AcDbLine
 10
653.37985494
 20
175.60000298
 30
0.0
 11
647.69497573
 21
169.91514327
 31
0.0
  0
LINE
  5
26E
330
7E2
100
AcDbEntity
  8
YKK_13
100
AcDbLine
 10
653.33178626
 20
169.60000478
 30
0.0
 11
647.33179826
 21
175.60001335
 31
0.0
  0
LINE
  5
26F
330
7E2
100
AcDbEntity
  8
YKK_13
  6
Continuous
100
AcDbLine
 10
645.80002781
 20
175.60001598
 30
0.0
 11
647.8000182
 21
169.60001427
 31
0.0
  0
LINE
  5
270
330
7E2
100
AcDbEntity
  8
YKK_13
100
AcDbLine
 10
652.80002237
 20
172.19175012
 30
0.0
 11
650.20827349
 21
169.60001013
 31
0.0
  0
LINE
  5
271
330
7E2
100
AcDbEntity
  8
YKK_13
  6
Continuous
100
AcDbLine
 10
652.80001992
 20
170.60000569
 30
0.0
 11
652.80002609
 21
174.60000397
 31
0.0
  0
LINE
  5
272
330
7E2
100
AcDbEntity
  8
YKK_13
  6
Continuous
100
AcDbLine
 10
657.80002609
 20
174.5999954
 30
0.0
 11
657.80001992
 21
170.59999711
 31
0.0
  0
LINE
  5
273
330
7E2
100
AcDbEntity
  8
YKK_13
  6
Continuous
100
AcDbLine
 10
652.80001992
 20
170.60000569
 30
0.0
 11
652.80002609
 21
174.60000397
 31
0.0
  0
LINE
  5
274
330
7E2
100
AcDbEntity
  8
YKK_13
100
AcDbLine
 10
652.89001978
 20
186.27999727
 30
0.0
 11
652.89002012
 21
186.07999727
 31
0.0
  0
LINE
  5
275
330
7E2
100
AcDbEntity
  8
YKK_13
100
AcDbLine
 10
655.72001978
 20
186.28000212
 30
0.0
 11
655.72002012
 21
186.08000212
 31
0.0
  0
ARC
  5
276
330
7E2
100
AcDbEntity
  8
YKK_13
  6
Continuous
100
AcDbCircle
 10
653.80001992
 20
186.59999883
 30
0.0
 40
1.000000000000334
100
AcDbArc
 50
90.00009828
 51
180.00009828
  0
ARC
  5
277
330
7E2
100
AcDbEntity
  8
YKK_13
  6
Continuous
100
AcDbCircle
 10
656.80001992
 20
186.60000397
 30
0.0
 40
0.9999999999991974
100
AcDbArc
 50
0.00009828
 51
90.00009828
  0
LINE
  5
278
330
7E2
100
AcDbEntity
  8
YKK_13
  6
Continuous
100
AcDbLine
 10
656.8000182
 20
187.60000397
 30
0.0
 11
653.8000182
 21
187.59999883
 31
0.0
  0
ARC
  5
279
330
7E2
100
AcDbEntity
  8
YKK_13
  6
Continuous
100
AcDbCircle
 10
653.80001992
 20
186.59999883
 30
0.0
 40
1.000000000000334
100
AcDbArc
 50
90.00009828
 51
180.00009828
  0
LINE
  5
27A
330
7E2
100
AcDbEntity
  8
YKK_13
100
AcDbLine
 10
653.22122605
 20
187.41547272
 30
0.0
 11
653.03670062
 21
187.59999752
 31
0.0
  0
LINE
  5
27B
330
7E2
100
AcDbEntity
  8
YKK_13
100
AcDbLine
 10
654.30502221
 20
184.86499969
 30
0.0
 11
654.30502255
 21
184.66499969
 31
0.0
  0
LINE
  5
27C
330
7E2
100
AcDbEntity
  8
YKK_13
100
AcDbLine
 10
657.13502221
 20
184.86500455
 30
0.0
 11
657.13502255
 21
184.66500455
 31
0.0
  0
LINE
  5
27D
330
7E2
100
AcDbEntity
  8
YKK_13
100
AcDbLine
 10
652.89002498
 20
183.24999727
 30
0.0
 11
652.89002532
 21
183.04999727
 31
0.0
  0
LINE
  5
27E
330
7E2
100
AcDbEntity
  8
YKK_13
100
AcDbLine
 10
655.72002498
 20
183.25000212
 30
0.0
 11
655.72002532
 21
183.05000212
 31
0.0
  0
LINE
  5
27F
330
7E2
100
AcDbEntity
  8
YKK_13
100
AcDbLine
 10
652.80002237
 20
185.00825268
 30
0.0
 11
650.20827349
 21
187.59999267
 31
0.0
  0
LINE
  5
280
330
7E2
100
AcDbEntity
  8
YKK_13
  6
Continuous
100
AcDbLine
 10
647.8000182
 20
187.59998853
 30
0.0
 11
653.8000182
 21
187.59999883
 31
0.0
  0
LINE
  5
281
330
7E2
100
AcDbEntity
  8
YKK_13
100
AcDbLine
 10
650.50335913
 20
187.59999317
 30
0.0
 11
646.44835342
 21
183.54497355
 31
0.0
  0
LINE
  5
282
330
7E2
100
AcDbEntity
  8
YKK_13
100
AcDbLine
 10
654.3050274
 20
181.83499969
 30
0.0
 11
654.30502775
 21
181.63499969
 31
0.0
  0
LINE
  5
283
330
7E2
100
AcDbEntity
  8
YKK_13
100
AcDbLine
 10
657.1350274
 20
181.83500455
 30
0.0
 11
657.13502771
 21
181.65778814
 31
0.0
  0
ARC
  5
284
330
7E2
100
AcDbEntity
  8
YKK_13
  6
Continuous
100
AcDbCircle
 10
653.80002609
 20
182.60000054
 30
0.0
 40
0.9999999999991974
100
AcDbArc
 50
180.00009828
 51
270.00009828
  0
LINE
  5
285
330
7E2
100
AcDbEntity
  8
YKK_13
  6
Continuous
100
AcDbLine
 10
653.80002781
 20
181.60000054
 30
0.0
 11
656.80002781
 21
181.60000569
 31
0.0
  0
ARC
  5
286
330
7E2
100
AcDbEntity
  8
YKK_13
  6
Continuous
100
AcDbCircle
 10
656.80002609
 20
182.60000569
 30
0.0
 40
1.000000000001357
100
AcDbArc
 50
270.00009828
 51
0.00009828
  0
ARC
  5
287
330
7E2
100
AcDbEntity
  8
YKK_13
  6
Continuous
100
AcDbCircle
 10
653.80002609
 20
182.60000054
 30
0.0
 40
0.9999999999991974
100
AcDbArc
 50
180.00009828
 51
270.00009828
  0
LINE
  5
288
330
7E2
100
AcDbEntity
  8
YKK_13
100
AcDbLine
 10
653.19355084
 20
181.80489818
 30
0.0
 11
652.98865251
 21
181.59999915
 31
0.0
  0
LINE
  5
289
330
7E2
100
AcDbEntity
  8
YKK_13
  6
Continuous
100
AcDbLine
 10
653.80002781
 20
181.60000054
 30
0.0
 11
645.80002781
 21
181.59998682
 31
0.0
  0
LINE
  5
28A
330
7E2
100
AcDbEntity
  8
YKK_13
100
AcDbLine
 10
650.55142782
 20
181.59999497
 30
0.0
 11
646.98787226
 21
185.16353831
 31
0.0
  0
LINE
  5
28B
330
7E2
100
AcDbEntity
  8
YKK_13
100
AcDbLine
 10
653.37985494
 20
181.59999982
 30
0.0
 11
647.69497573
 21
187.28485953
 31
0.0
  0
LINE
  5
28C
330
7E2
100
AcDbEntity
  8
YKK_13
100
AcDbLine
 10
653.33178626
 20
187.59999802
 30
0.0
 11
647.33179826
 21
181.59998945
 31
0.0
  0
LINE
  5
28D
330
7E2
100
AcDbEntity
  8
YKK_13
100
AcDbLine
 10
647.72300069
 20
181.59999012
 30
0.0
 11
646.28076878
 21
183.04221708
 31
0.0
  0
LINE
  5
28E
330
7E2
100
AcDbEntity
  8
YKK_13
  6
Continuous
100
AcDbLine
 10
645.80002781
 20
181.59998682
 30
0.0
 11
647.8000182
 21
187.59998853
 31
0.0
  0
LINE
  5
28F
330
7E2
100
AcDbEntity
  8
YKK_13
100
AcDbLine
 10
652.80002356
 20
184.23980153
 30
0.0
 11
650.16022539
 21
181.5999943
 31
0.0
  0
LINE
  5
290
330
7E2
100
AcDbEntity
  8
YKK_13
  6
Continuous
100
AcDbLine
 10
652.80001992
 20
186.59999711
 30
0.0
 11
652.80002609
 21
182.59999883
 31
0.0
  0
LINE
  5
291
330
7E2
100
AcDbEntity
  8
YKK_13
  6
Continuous
100
AcDbLine
 10
657.80002609
 20
182.6000074
 30
0.0
 11
657.80001992
 21
186.60000569
 31
0.0
  0
LINE
  5
292
330
7E2
100
AcDbEntity
  8
YKK_13
  6
Continuous
100
AcDbLine
 10
652.80001992
 20
186.59999711
 30
0.0
 11
652.80002609
 21
182.59999883
 31
0.0
  0
LINE
  5
293
330
7E2
100
AcDbEntity
  8
YKK_D
100
AcDbLine
 10
635.93383492
 20
196.4000014
 30
0.0
 11
618.93383492
 21
196.4000014
 31
0.0
  0
LWPOLYLINE
  5
294
330
7E2
100
AcDbEntity
  8
YKK_D
  6
ByBlock
100
AcDbPolyline
 90
        2
 70
     1
 43
0.85
 10
619.93383492
 20
196.2937514
 42
1.0
 10
619.93383492
 20
196.5062514
 42
1.0
  0
LINE
  5
295
330
7E2
100
AcDbEntity
  8
YKK_12
100
AcDbLine
 10
667.8000182
 20
196.4000014
 30
0.0
 11
667.8000182
 21
192.5000014
 31
0.0
  0
LINE
  5
296
330
7E2
100
AcDbEntity
  8
YKK_12
  6
Continuous
100
AcDbLine
 10
692.80005117
 20
287.46585047
 30
0.0
 11
552.80005117
 21
287.46585047
 31
0.0
1001
YALIB
1000
YALIB1603
1000
 L=131 t1=6.8 t2=5 A=12 ta1=1 ta2= 1 SDFLG="1" AFLG1="1" AFLG2="0" MFLG="0" HFLG="0"  
  0
LINE
  5
297
330
7E2
100
AcDbEntity
  8
YKK_12
  6
Continuous
100
AcDbLine
 10
692.80005117
 20
289.09585047
 30
0.0
 11
552.80005117
 21
289.09585047
 31
0.0
1001
YALIB
1000
YALIB1603
1000
 L=131 t1=6.8 t2=5 A=12 ta1=1 ta2= 1 SDFLG="1" AFLG1="1" AFLG2="0" MFLG="0" HFLG="0"  
  0
LINE
  5
298
330
7E2
100
AcDbEntity
  8
YKK_D
100
AcDbLine
 10
692.8000182
 20
267.46578019
 30
0.0
 11
648.79999018
 21
267.46585272
 31
0.0
  0
TEXT
  5
299
330
7E2
100
AcDbEntity
  8
USER1
100
AcDbText
 10
598.42279082
 20
254.7366521
 30
0.0
 40
6.0
  1
たて骨（40見付）
 41
0.8
100
AcDbText
1001
ACAD
1000
MTEXTBEGIN
1070
    73
1070
     1
1070
    44
1040
1.0
1070
    74
1070
     0
1000
MTEXTEND
1000
MTEXTBEGIN
1070
    73
1070
     1
1070
    44
1040
1.0
1070
    74
1070
     0
1000
MTEXTEND
  0
LINE
  5
29A
330
7E2
100
AcDbEntity
  8
YKK_D
100
AcDbLine
 10
602.80005117
 20
267.46585047
 30
0.0
 11
642.80005117
 21
267.46585047
 31
0.0
  0
LINE
  5
29B
330
7E2
100
AcDbEntity
  8
YKK_D
100
AcDbLine
 10
552.80008682
 20
267.46575591
 30
0.0
 11
596.80011216
 21
267.46582844
 31
0.0
  0
TEXT
  5
29C
330
7E2
100
AcDbEntity
  8
YKK_D
100
AcDbText
 10
571.26710325
 20
268.26578635
 30
0.0
 40
6.0
  1
Ｗ
 50
0.00009444
 41
0.8
100
AcDbText
1001
ACAD
1000
MTEXTBEGIN
1070
    73
1070
     1
1070
    44
1040
1.0
1070
    74
1070
     0
1000
MTEXTEND
  0
TEXT
  5
29D
330
7E2
100
AcDbEntity
  8
YKK_D
100
AcDbText
 10
577.5046667
 20
268.26579663
 30
0.0
 40
3.0
  1
1
 50
0.00009444
 41
0.8
100
AcDbText
1001
ACAD
1000
MTEXTBEGIN
1070
    73
1070
     1
1070
    44
1040
1.0
1070
    74
1070
     0
1000
MTEXTEND
  0
LINE
  5
29E
330
7E2
100
AcDbEntity
  8
YKK_D
100
AcDbLine
 10
602.80005117
 20
284.46585047
 30
0.0
 11
602.80005117
 21
266.46585047
 31
0.0
  0
LINE
  5
29F
330
7E2
100
AcDbEntity
  8
YKK_D
100
AcDbLine
 10
602.80008413
 20
284.46585047
 30
0.0
 11
602.8001138
 21
266.46583833
 31
0.0
  0
LINE
  5
2A0
330
7E2
100
AcDbEntity
  8
YKK_D
100
AcDbLine
 10
602.80011216
 20
267.46583833
 30
0.0
 11
597.60396468
 21
264.46582977
 31
0.0
  0
LINE
  5
2A1
330
7E2
100
AcDbEntity
  8
YKK_D
100
AcDbLine
 10
602.80011216
 20
267.46583833
 30
0.0
 11
592.40780731
 21
267.4658212
 31
0.0
  0
LINE
  5
2A2
330
7E2
100
AcDbEntity
  8
YKK_D
100
AcDbLine
 10
602.80011216
 20
267.46583833
 30
0.0
 11
597.60395479
 21
270.46582977
 31
0.0
  0
LINE
  5
2A3
330
7E2
100
AcDbEntity
  8
YKK_D
100
AcDbLine
 10
597.60395479
 20
270.46582977
 30
0.0
 11
597.60396468
 21
264.46582977
 31
0.0
  0
LINE
  5
2A4
330
7E2
100
AcDbEntity
  8
YKK_D
100
AcDbLine
 10
642.79999018
 20
267.46586261
 30
0.0
 11
647.99614755
 21
270.46585405
 31
0.0
  0
LINE
  5
2A5
330
7E2
100
AcDbEntity
  8
YKK_D
100
AcDbLine
 10
642.79999018
 20
267.46586261
 30
0.0
 11
647.99613766
 21
264.46585405
 31
0.0
  0
LINE
  5
2A6
330
7E2
100
AcDbEntity
  8
YKK_D
100
AcDbLine
 10
642.79999018
 20
267.46586261
 30
0.0
 11
653.19229502
 21
267.46584548
 31
0.0
  0
TEXT
  5
2A7
330
7E2
100
AcDbEntity
  8
YKK_D
100
AcDbText
 10
619.70563492
 20
268.46585047
 30
0.0
 40
6.0
  1
40
 41
0.8
100
AcDbText
1001
ACAD
1000
MTEXTBEGIN
1070
    73
1070
     1
1070
    44
1040
1.0
1070
    74
1070
     0
1000
MTEXTEND
  0
LINE
  5
2A8
330
7E2
100
AcDbEntity
  8
YKK_D
100
AcDbLine
 10
642.8000182
 20
284.46585047
 30
0.0
 11
642.79998853
 21
266.46586261
 31
0.0
  0
LINE
  5
2A9
330
7E2
100
AcDbEntity
  8
YKK_D
100
AcDbLine
 10
642.80005117
 20
284.46585047
 30
0.0
 11
642.80005117
 21
266.46585047
 31
0.0
  0
TEXT
  5
2AA
330
7E2
100
AcDbEntity
  8
YKK_D
100
AcDbText
 10
667.04772124
 20
268.26582264
 30
0.0
 40
6.0
  1
Ｗ
 50
359.99990556
 41
0.8
100
AcDbText
1001
ACAD
1000
MTEXTBEGIN
1070
    73
1070
     1
1070
    44
1040
1.0
1070
    74
1070
     0
1000
MTEXTEND
  0
LINE
  5
2AB
330
7E2
100
AcDbEntity
  8
YKK_D
100
AcDbLine
 10
647.99613766
 20
264.46585405
 30
0.0
 11
647.99614755
 21
270.46585405
 31
0.0
  0
TEXT
  5
2AC
330
7E2
100
AcDbEntity
  8
YKK_D
100
AcDbText
 10
673.2852847
 20
268.26581236
 30
0.0
 40
3.0
  1
2
 50
359.99990556
 41
0.8
100
AcDbText
1001
ACAD
1000
MTEXTBEGIN
1070
    73
1070
     1
1070
    44
1040
1.0
1070
    74
1070
     0
1000
MTEXTEND
  0
INSERT
  5
2AD
330
7E2
100
AcDbEntity
  8
YKK_11
100
AcDbBlockReference
  2
2K-63658
 10
102.79999999
 20
419.40000139
 30
0.0
  0
LINE
  5
2B8
330
7E2
100
AcDbEntity
  8
YKK_13
  6
Continuous
100
AcDbLine
 10
116.59998048
 20
429.40000929
 30
0.0
 11
112.59998219
 21
429.40000312
 31
0.0
  0
LINE
  5
2B9
330
7E2
100
AcDbEntity
  8
YKK_13
  6
Continuous
100
AcDbLine
 10
117.60000106
 20
417.40001101
 30
0.0
 11
111.59999935
 21
419.4000014
 31
0.0
  0
LINE
  5
2BA
330
7E2
100
AcDbEntity
  8
YKK_13
100
AcDbLine
 10
111.59999471
 20
422.10334233
 30
0.0
 11
115.65501434
 21
418.04833662
 31
0.0
  0
LINE
  5
2BB
330
7E2
100
AcDbEntity
  8
YKK_13
  6
Continuous
100
AcDbLine
 10
112.59999077
 20
424.40000312
 30
0.0
 11
116.59998905
 21
424.40000929
 31
0.0
  0
LINE
  5
2BC
330
7E2
100
AcDbEntity
  8
YKK_13
  6
Continuous
100
AcDbLine
 10
112.59999077
 20
424.40000312
 30
0.0
 11
116.59998905
 21
424.40000929
 31
0.0
  0
LINE
  5
2BD
330
7E2
100
AcDbEntity
  8
YKK_13
100
AcDbLine
 10
114.19173521
 20
424.40000557
 30
0.0
 11
111.59999522
 21
421.80825669
 31
0.0
  0
LINE
  5
2BE
330
7E2
100
AcDbEntity
  8
YKK_13
100
AcDbLine
 10
117.59998806
 20
424.97983814
 30
0.0
 11
111.91512835
 21
419.29495893
 31
0.0
  0
LINE
  5
2BF
330
7E2
100
AcDbEntity
  8
YKK_13
100
AcDbLine
 10
111.59998986
 20
424.93176946
 30
0.0
 11
117.59999843
 21
418.93178146
 31
0.0
  0
INSERT
  5
2C0
330
7E2
100
AcDbEntity
  8
YKK_11
100
AcDbBlockReference
  2
2K-63680
 10
124.80001926
 20
446.199977
 30
0.0
 50
180.0
  0
ARC
  5
2C6
330
7E2
100
AcDbEntity
  8
YKK_13
  6
Continuous
100
AcDbCircle
 10
112.59998391
 20
428.40000312
 30
0.0
 40
0.9999999999991974
100
AcDbArc
 50
90.00009828
 51
180.00009828
  0
LINE
  5
2C7
330
7E2
100
AcDbEntity
  8
YKK_13
  6
Continuous
100
AcDbLine
 10
111.59998391
 20
428.4000014
 30
0.0
 11
111.59998905
 21
425.4000014
 31
0.0
  0
LINE
  5
2C8
330
7E2
100
AcDbEntity
  8
YKK_13
100
AcDbLine
 10
111.78451517
 20
424.82120925
 30
0.0
 11
111.59999036
 21
424.63668382
 31
0.0
  0
ARC
  5
2C9
330
7E2
100
AcDbEntity
  8
YKK_13
  6
Continuous
100
AcDbCircle
 10
112.59998905
 20
425.40000312
 30
0.0
 40
1.00000000000032
100
AcDbArc
 50
180.00009828
 51
270.00009828
  0
LINE
  5
2CA
330
7E2
100
AcDbEntity
  8
YKK_13
  6
Continuous
100
AcDbLine
 10
111.59999935
 20
419.4000014
 30
0.0
 11
111.59998905
 21
425.4000014
 31
0.0
  0
ARC
  5
2CB
330
7E2
100
AcDbEntity
  8
YKK_13
  6
Continuous
100
AcDbCircle
 10
112.59998905
 20
425.40000312
 30
0.0
 40
1.00000000000032
100
AcDbArc
 50
180.00009828
 51
270.00009828
  0
LINE
  5
2CC
330
7E2
100
AcDbEntity
  8
YKK_13
100
AcDbLine
 10
123.59998301
 20
419.72298458
 30
0.0
 11
125.34220993
 21
417.98075168
 31
0.0
  0
LINE
  5
2CD
330
7E2
100
AcDbEntity
  8
YKK_13
100
AcDbLine
 10
123.59998787
 20
422.5514117
 30
0.0
 11
127.46353116
 21
418.68785516
 31
0.0
  0
LINE
  5
2CE
330
7E2
100
AcDbEntity
  8
YKK_13
100
AcDbLine
 10
117.59999776
 20
419.32298389
 30
0.0
 11
116.1577708
 21
417.88075198
 31
0.0
  0
LINE
  5
2CF
330
7E2
100
AcDbEntity
  8
YKK_13
100
AcDbLine
 10
117.59999291
 20
422.15141102
 30
0.0
 11
114.03644958
 21
418.58785546
 31
0.0
  0
LINE
  5
2D0
330
7E2
100
AcDbEntity
  8
YKK_13
  6
Continuous
100
AcDbLine
 10
123.59997903
 20
417.40001101
 30
0.0
 11
129.59998074
 21
419.4000014
 31
0.0
  0
LINE
  5
2D1
330
7E2
100
AcDbEntity
  8
YKK_13
100
AcDbLine
 10
129.59998955
 20
424.53177014
 30
0.0
 11
123.59998097
 21
418.53178215
 31
0.0
  0
LINE
  5
2D2
330
7E2
100
AcDbEntity
  8
YKK_13
100
AcDbLine
 10
129.5999847
 20
421.70334302
 30
0.0
 11
126.14496526
 21
418.24833543
 31
0.0
  0
LINE
  5
2D3
330
7E2
100
AcDbEntity
  8
YKK_13
  6
Continuous
100
AcDbLine
 10
123.59999275
 20
425.40001101
 30
0.0
 11
123.59997903
 21
417.40001101
 31
0.0
  0
LINE
  5
2D4
330
7E2
100
AcDbEntity
  8
YKK_13
  6
Continuous
100
AcDbLine
 10
117.59998734
 20
425.40001101
 30
0.0
 11
117.60000106
 21
417.40001101
 31
0.0
  0
LINE
  5
2D5
330
7E2
100
AcDbEntity
  8
YKK_13
  6
Continuous
100
AcDbLine
 10
124.99999961
 20
429.40000929
 30
0.0
 11
128.5999979
 21
429.40000312
 31
0.0
  0
LINE
  5
2D6
330
7E2
100
AcDbEntity
  8
YKK_13
  6
Continuous
100
AcDbLine
 10
128.59998932
 20
424.40000312
 30
0.0
 11
124.99999104
 21
424.40000929
 31
0.0
  0
LINE
  5
2D7
330
7E2
100
AcDbEntity
  8
YKK_13
  6
Continuous
100
AcDbLine
 10
128.59998932
 20
424.40000312
 30
0.0
 11
124.99999104
 21
424.40000929
 31
0.0
  0
LINE
  5
2D8
330
7E2
100
AcDbEntity
  8
YKK_13
100
AcDbLine
 10
124.51088853
 20
424.46893989
 30
0.0
 11
129.58485238
 21
419.39495864
 31
0.0
  0
LINE
  5
2D9
330
7E2
100
AcDbEntity
  8
YKK_13
100
AcDbLine
 10
127.4082453
 20
424.40000516
 30
0.0
 11
129.59998556
 21
422.20825738
 31
0.0
  0
ARC
  5
2DA
330
7E2
100
AcDbEntity
  8
YKK_13
  6
Continuous
100
AcDbCircle
 10
124.94913186
 20
427.99122113
 30
0.0
 40
1.409706213155327
100
AcDbArc
 50
87.93209362
 51
163.14310258
  0
LINE
  5
2DB
330
7E2
100
AcDbEntity
  8
YKK_13
100
AcDbLine
 10
124.23499676
 20
428.7350106
 30
0.0
 11
124.05778035
 21
428.73501091
 31
0.0
  0
LINE
  5
2DC
330
7E2
100
AcDbEntity
  8
YKK_13
100
AcDbLine
 10
127.26499676
 20
428.73500541
 30
0.0
 11
127.06499676
 21
428.73500575
 31
0.0
  0
LINE
  5
2DD
330
7E2
100
AcDbEntity
  8
YKK_13
100
AcDbLine
 10
124.2349919
 20
425.9050106
 30
0.0
 11
124.0349919
 21
425.90501095
 31
0.0
  0
LINE
  5
2DE
330
7E2
100
AcDbEntity
  8
YKK_13
100
AcDbLine
 10
127.2649919
 20
425.90500541
 30
0.0
 11
127.0649919
 21
425.90500575
 31
0.0
  0
LINE
  5
2DF
330
7E2
100
AcDbEntity
  8
YKK_13
100
AcDbLine
 10
125.64999433
 20
427.32000818
 30
0.0
 11
125.44999433
 21
427.32000852
 31
0.0
  0
LINE
  5
2E0
330
7E2
100
AcDbEntity
  8
YKK_13
100
AcDbLine
 10
123.59999272
 20
425.37983883
 30
0.0
 11
123.60926883
 21
425.37056269
 31
0.0
  0
LINE
  5
2E1
330
7E2
100
AcDbEntity
  8
YKK_13
  6
Continuous
100
AcDbLine
 10
123.59999275
 20
425.40001101
 30
0.0
 11
123.5999979
 21
428.40001101
 31
0.0
  0
ARC
  5
2E2
330
7E2
100
AcDbEntity
  8
YKK_13
  6
Continuous
100
AcDbCircle
 10
116.59998219
 20
428.40000929
 30
0.0
 40
1.000000000001314
100
AcDbArc
 50
0.00009828
 51
90.00009828
  0
LINE
  5
2E3
330
7E2
100
AcDbEntity
  8
YKK_13
100
AcDbLine
 10
117.36498819
 20
425.9050106
 30
0.0
 11
117.56498819
 21
425.90501095
 31
0.0
  0
LINE
  5
2E4
330
7E2
100
AcDbEntity
  8
YKK_13
100
AcDbLine
 10
114.33498819
 20
425.90500541
 30
0.0
 11
114.53498819
 21
425.90500575
 31
0.0
  0
LINE
  5
2E5
330
7E2
100
AcDbEntity
  8
YKK_13
100
AcDbLine
 10
117.36498333
 20
428.7350106
 30
0.0
 11
117.54219975
 21
428.73501091
 31
0.0
  0
LINE
  5
2E6
330
7E2
100
AcDbEntity
  8
YKK_13
100
AcDbLine
 10
114.33498333
 20
428.73500541
 30
0.0
 11
114.53498333
 21
428.73500575
 31
0.0
  0
LINE
  5
2E7
330
7E2
100
AcDbEntity
  8
YKK_13
100
AcDbLine
 10
115.94998576
 20
427.32000818
 30
0.0
 11
116.14998576
 21
427.32000852
 31
0.0
  0
LINE
  5
2E8
330
7E2
100
AcDbEntity
  8
YKK_13
100
AcDbLine
 10
112.91998576
 20
427.32000298
 30
0.0
 11
113.11998576
 21
427.32000332
 31
0.0
  0
LINE
  5
2E9
330
7E2
100
AcDbEntity
  8
YKK_13
  6
Continuous
100
AcDbLine
 10
117.59998734
 20
425.40001101
 30
0.0
 11
117.59998219
 21
428.40001101
 31
0.0
  0
LINE
  5
2EA
330
7E2
100
AcDbEntity
  8
YKK_12
  6
Continuous
100
AcDbLine
 10
117.6
 20
427.4000014
 30
0.0
 11
123.6
 21
427.4000014
 31
0.0
1001
YALIB
1000
YALIB1601
1000
 L=251 t1=6.8 ta=1 SDFLG="0" MFLG="0" HFLG="0"  
  0
LINE
  5
2EB
330
7E2
100
AcDbEntity
  8
YKK_13
100
AcDbLine
 10
125.64998948
 20
424.49000818
 30
0.0
 11
125.44998948
 21
424.49000852
 31
0.0
  0
LINE
  5
2EC
330
7E2
100
AcDbEntity
  8
YKK_13
100
AcDbLine
 10
124.0970818
 20
424.68572582
 30
0.0
 11
123.59999067
 21
424.1886364
 31
0.0
  0
LINE
  5
2ED
330
7E2
100
AcDbEntity
  8
YKK_13
100
AcDbLine
 10
126.63979346
 20
424.40000648
 30
0.0
 11
123.59998582
 21
421.36020927
 31
0.0
  0
LINE
  5
2EE
330
7E2
100
AcDbEntity
  8
YKK_13
100
AcDbLine
 10
115.94999062
 20
424.49000818
 30
0.0
 11
116.14999062
 21
424.49000852
 31
0.0
  0
LINE
  5
2EF
330
7E2
100
AcDbEntity
  8
YKK_13
100
AcDbLine
 10
112.91999062
 20
424.49000298
 30
0.0
 11
113.11999062
 21
424.49000332
 31
0.0
  0
LINE
  5
2F0
330
7E2
100
AcDbEntity
  8
YKK_13
100
AcDbLine
 10
114.96018636
 20
424.40000676
 30
0.0
 11
117.59999358
 21
421.76020859
 31
0.0
  0
LINE
  5
2F1
330
7E2
100
AcDbEntity
  8
YKK_13
100
AcDbLine
 10
117.3950897
 20
424.79353404
 30
0.0
 11
117.59998873
 21
424.58863571
 31
0.0
  0
ARC
  5
2F2
330
7E2
100
AcDbEntity
  8
YKK_13
  6
Continuous
100
AcDbCircle
 10
116.59998734
 20
425.40000929
 30
0.0
 40
0.9999999999993111
100
AcDbArc
 50
270.00009828
 51
0.00009828
  0
ARC
  5
2F3
330
7E2
100
AcDbEntity
  8
YKK_13
  6
Continuous
100
AcDbCircle
 10
116.59998734
 20
425.40000929
 30
0.0
 40
0.9999999999993111
100
AcDbArc
 50
270.00009828
 51
0.00009828
  0
ARC
  5
2F4
330
7E2
100
AcDbEntity
  8
YKK_13
  6
Continuous
100
AcDbCircle
 10
124.94912685
 20
425.80879641
 30
0.0
 40
1.409705041813977
100
AcDbArc
 50
196.85672183
 51
272.06776321
  0
ARC
  5
2F5
330
7E2
100
AcDbEntity
  8
YKK_13
  6
Continuous
100
AcDbCircle
 10
124.94912685
 20
425.80879641
 30
0.0
 40
1.409705041813977
100
AcDbArc
 50
196.85672183
 51
272.06776321
  0
ARC
  5
2F6
330
7E2
100
AcDbEntity
  8
YKK_13
  6
Continuous
100
AcDbCircle
 10
128.59999618
 20
428.40000312
 30
0.0
 40
0.9999999999991974
100
AcDbArc
 50
359.99990172
 51
89.99990172
  0
LINE
  5
2F7
330
7E2
100
AcDbEntity
  8
YKK_13
100
AcDbLine
 10
128.67999433
 20
427.32000298
 30
0.0
 11
128.47999433
 21
427.32000332
 31
0.0
  0
LINE
  5
2F8
330
7E2
100
AcDbEntity
  8
YKK_13
  6
Continuous
100
AcDbLine
 10
129.59999618
 20
428.4000014
 30
0.0
 11
129.59999104
 21
425.4000014
 31
0.0
  0
LINE
  5
2F9
330
7E2
100
AcDbEntity
  8
YKK_13
100
AcDbLine
 10
128.67998948
 20
424.49000298
 30
0.0
 11
128.47998948
 21
424.49000332
 31
0.0
  0
LINE
  5
2FA
330
7E2
100
AcDbEntity
  8
YKK_13
100
AcDbLine
 10
129.54972627
 20
425.08694882
 30
0.0
 11
129.59999041
 21
425.0366845
 31
0.0
  0
ARC
  5
2FB
330
7E2
100
AcDbEntity
  8
YKK_13
  6
Continuous
100
AcDbCircle
 10
128.59999104
 20
425.40000312
 30
0.0
 40
1.00000000000032
100
AcDbArc
 50
269.99990172
 51
359.99990172
  0
LINE
  5
2FC
330
7E2
100
AcDbEntity
  8
YKK_13
  6
Continuous
100
AcDbLine
 10
129.59998074
 20
419.4000014
 30
0.0
 11
129.59999104
 21
425.4000014
 31
0.0
  0
ARC
  5
2FD
330
7E2
100
AcDbEntity
  8
YKK_13
  6
Continuous
100
AcDbCircle
 10
128.59999104
 20
425.40000312
 30
0.0
 40
1.00000000000032
100
AcDbArc
 50
269.99990172
 51
359.99990172
  0
LINE
  5
2FE
330
7E2
100
AcDbEntity
  8
YKK_12
  6
Continuous
100
AcDbLine
 10
102.8
 20
471.4000014
 30
0.0
 11
172.8
 21
471.4000014
 31
0.0
1001
YALIB
1000
YALIB1603
1000
 L=131 t1=6.8 t2=5 A=12 ta1=1 ta2= 1 SDFLG="1" AFLG1="1" AFLG2="0" MFLG="0" HFLG="0"  
  0
LINE
  5
2FF
330
7E2
100
AcDbEntity
  8
YKK_12
  6
Continuous
100
AcDbLine
 10
172.8
 20
471.4000014
 30
0.0
 11
172.8
 21
457.69937487
 31
0.0
1001
YALIB
1000
YALIB1603
1000
 L=131 t1=6.8 t2=5 A=12 ta1=1 ta2= 1 SDFLG="1" AFLG1="1" AFLG2="0" MFLG="0" HFLG="0"  
  0
LINE
  5
300
330
7E2
100
AcDbEntity
  8
YKK_D
100
AcDbLine
 10
212.8
 20
471.4000014
 30
0.0
 11
212.8
 21
441.4000014
 31
0.0
  0
TEXT
  5
301
330
7E2
100
AcDbEntity
  8
YKK_D
100
AcDbText
 10
211.8
 20
453.26903693
 30
0.0
 40
6.0
  1
30
 50
90.0
 41
0.8
100
AcDbText
1001
ACAD
1000
MTEXTBEGIN
1070
    73
1070
     1
1070
    44
1040
1.0
1070
    74
1070
     0
1000
MTEXTEND
  0
TEXT
  5
302
330
7E2
100
AcDbEntity
  8
YKK_D
100
AcDbText
 10
191.8
 20
427.30559126
 30
0.0
 40
6.0
  1
22
 50
90.0
 41
0.8
100
AcDbText
1001
ACAD
1000
MTEXTBEGIN
1070
    73
1070
     1
1070
    44
1040
1.0
1070
    74
1070
     0
1000
MTEXTEND
  0
LINE
  5
303
330
7E2
100
AcDbEntity
  8
YKK_D
100
AcDbLine
 10
212.8
 20
441.4000014
 30
0.0
 11
212.8
 21
429.27564575
 31
0.0
  0
LINE
  5
304
330
7E2
100
AcDbEntity
  8
YKK_D
100
AcDbLine
 10
192.8
 20
419.40001361
 30
0.0
 11
192.8
 21
441.4000014
 31
0.0
  0
LINE
  5
305
330
7E2
100
AcDbEntity
  8
YKK_D
100
AcDbLine
 10
175.8
 20
419.40001361
 30
0.0
 11
193.8
 21
419.40001361
 31
0.0
  0
LWPOLYLINE
  5
306
330
7E2
100
AcDbEntity
  8
YKK_D
  6
ByBlock
100
AcDbPolyline
 90
        2
 70
     1
 43
0.85
 10
192.8
 20
419.50626361
 42
1.0
 10
192.8
 20
419.29376361
 42
1.0
  0
LINE
  5
307
330
7E2
100
AcDbEntity
  8
YKK_D
100
AcDbLine
 10
175.8
 20
441.4000014
 30
0.0
 11
213.8
 21
441.4000014
 31
0.0
  0
LINE
  5
308
330
7E2
100
AcDbEntity
  8
YKK_D
100
AcDbLine
 10
175.8
 20
441.4000014
 30
0.0
 11
213.8
 21
441.4000014
 31
0.0
  0
LINE
  5
309
330
7E2
100
AcDbEntity
  8
YKK_D
100
AcDbLine
 10
175.8
 20
441.4000014
 30
0.0
 11
193.8
 21
441.4000014
 31
0.0
  0
LWPOLYLINE
  5
30A
330
7E2
100
AcDbEntity
  8
YKK_D
  6
ByBlock
100
AcDbPolyline
 90
        2
 70
     1
 43
0.85
 10
192.8
 20
441.2937514
 42
1.0
 10
192.8
 20
441.5062514
 42
1.0
  0
LINE
  5
30B
330
7E2
100
AcDbEntity
  8
YKK_D
100
AcDbLine
 10
209.3
 20
435.33782357
 30
0.0
 11
216.3
 21
435.33782357
 31
0.0
  0
LINE
  5
30C
330
7E2
100
AcDbEntity
  8
YKK_D
100
AcDbLine
 10
212.8
 20
441.4000014
 30
0.0
 11
209.3
 21
435.33782357
 31
0.0
  0
LINE
  5
30D
330
7E2
100
AcDbEntity
  8
YKK_D
100
AcDbLine
 10
212.8
 20
441.4000014
 30
0.0
 11
216.3
 21
435.33782357
 31
0.0
  0
LINE
  5
30E
330
7E2
100
AcDbEntity
  8
YKK_D
100
AcDbLine
 10
175.8
 20
471.4000014
 30
0.0
 11
213.8
 21
471.4000014
 31
0.0
  0
LWPOLYLINE
  5
30F
330
7E2
100
AcDbEntity
  8
YKK_D
  6
ByBlock
100
AcDbPolyline
 90
        2
 70
     1
 43
0.85
 10
212.8
 20
471.2937514
 42
1.0
 10
212.8
 20
471.5062514
 42
1.0
  0
LINE
  5
310
330
7E2
100
AcDbEntity
  8
YKK_A1
  6
ByBlock
100
AcDbLine
 10
550.39001341
 20
469.9000014
 30
0.0
 11
611.39001341
 21
469.9000014
 31
0.0
1001
ACDBBLOCKREPETAG
1070
     1
1071
       21
1005
310
  0
LINE
  5
313
330
7E2
100
AcDbEntity
  8
YKK_A1
  6
ByBlock
100
AcDbLine
 10
549.14001341
 20
471.4000014
 30
0.0
 11
612.64001341
 21
471.4000014
 31
0.0
1001
ACDBBLOCKREPETAG
1070
     1
1071
       19
1005
313
  0
LINE
  5
314
330
7E2
100
AcDbEntity
  8
YKK_A1
  6
ByBlock
100
AcDbLine
 10
549.14001341
 20
437.9000014
 30
0.0
 11
612.64001341
 21
437.9000014
 31
0.0
1001
ACDBBLOCKREPETAG
1070
     1
1071
       17
1005
314
  0
LINE
  5
315
330
7E2
100
AcDbEntity
  8
YKK_A1
  6
ByBlock
100
AcDbLine
 10
550.39001341
 20
439.9000014
 30
0.0
 11
611.39001341
 21
439.9000014
 31
0.0
1001
ACDBBLOCKREPETAG
1070
     1
1071
       24
1005
315
  0
TEXT
  5
316
330
7E2
100
AcDbEntity
  8
YKK_D
100
AcDbText
 10
419.63243689
 20
377.40010463
 30
0.0
 40
6.0
  1
60
 41
0.8
100
AcDbText
1001
ACAD
1000
MTEXTBEGIN
1070
    73
1070
     1
1070
    44
1040
1.0
1070
    74
1070
     0
1000
MTEXTEND
  0
LINE
  5
317
330
7E2
100
AcDbEntity
  8
YKK_D
100
AcDbLine
 10
392.79994958
 20
376.40010463
 30
0.0
 11
452.79994958
 21
376.40010463
 31
0.0
  0
LINE
  5
318
330
7E2
100
AcDbEntity
  8
YKK_12
  6
Continuous
100
AcDbLine
 10
502.79994958
 20
352.20010463
 30
0.0
 11
342.79994958
 21
352.20010463
 31
0.0
1001
YALIB
1000
YALIB1603
1000
 L=131 t1=6.8 t2=5 A=12 ta1=1 ta2= 1 SDFLG="1" AFLG1="1" AFLG2="0" MFLG="0" HFLG="0"  
  0
LINE
  5
319
330
7E2
100
AcDbEntity
  8
YKK_12
  6
Continuous
100
AcDbLine
 10
502.79994958
 20
356.40010463
 30
0.0
 11
342.79994958
 21
356.40010463
 31
0.0
1001
YALIB
1000
YALIB1603
1000
 L=131 t1=6.8 t2=5 A=12 ta1=1 ta2= 1 SDFLG="1" AFLG1="1" AFLG2="0" MFLG="0" HFLG="0"  
  0
LINE
  5
31A
330
7E2
100
AcDbEntity
  8
YKK_12
  6
Continuous
100
AcDbLine
 10
342.79994958
 20
341.60010378
 30
0.0
 11
400.79994958
 21
341.60010378
 31
0.0
1001
YALIB
1000
YALIB1601
1000
 L=246 t1=6.8 ta=1 SDFLG="0" MFLG="0" HFLG="0"  
  0
LINE
  5
31B
330
7E2
100
AcDbEntity
  8
YKK_12
  6
Continuous
100
AcDbLine
 10
400.79994958
 20
340.60010378
 30
0.0
 11
342.79994958
 21
340.60010378
 31
0.0
1001
YALIB
1000
YALIB1601
1000
 L=246 t1=6.8 ta=1 SDFLG="0" MFLG="0" HFLG="0"  
  0
LINE
  5
31C
330
7E2
100
AcDbEntity
  8
YKK_12
  6
Continuous
100
AcDbLine
 10
400.79994958
 20
335.60010378
 30
0.0
 11
342.79994958
 21
335.60010378
 31
0.0
1001
YALIB
1000
YALIB1601
1000
 L=246 t1=6.8 ta=1 SDFLG="0" MFLG="0" HFLG="0"  
  0
LINE
  5
31D
330
7E2
100
AcDbEntity
  8
YKK_12
  6
Continuous
100
AcDbLine
 10
342.79994958
 20
336.60010378
 30
0.0
 11
400.79994958
 21
336.60010378
 31
0.0
1001
YALIB
1000
YALIB1601
1000
 L=246 t1=6.8 ta=1 SDFLG="0" MFLG="0" HFLG="0"  
  0
LINE
  5
31E
330
7E2
100
AcDbEntity
  8
YKK_12
  6
Continuous
100
AcDbLine
 10
393.79353286
 20
329.60010463
 30
0.0
 11
342.79994958
 21
329.60010463
 31
0.0
1001
YALIB
1000
YALIB1603
1000
 L=131 t1=6.8 t2=5 A=12 ta1=1 ta2= 1 SDFLG="1" AFLG1="1" AFLG2="0" MFLG="0" HFLG="0"  
  0
LINE
  5
31F
330
7E2
100
AcDbEntity
  8
YKK_12
  6
Continuous
100
AcDbLine
 10
393.79353286
 20
347.60010463
 30
0.0
 11
342.79994958
 21
347.60010463
 31
0.0
1001
YALIB
1000
YALIB1603
1000
 L=131 t1=6.8 t2=5 A=12 ta1=1 ta2= 1 SDFLG="1" AFLG1="1" AFLG2="0" MFLG="0" HFLG="0"  
  0
LINE
  5
320
330
7E2
100
AcDbEntity
  8
YKK_13
  6
Continuous
100
AcDbLine
 10
403.49354075
 20
334.60009863
 30
0.0
 11
403.49353457
 21
330.60010035
 31
0.0
  0
LINE
  5
321
330
7E2
100
AcDbEntity
  8
YKK_13
  6
Continuous
100
AcDbLine
 10
398.49353457
 20
330.60010892
 30
0.0
 11
398.49354075
 21
334.60010721
 31
0.0
  0
LINE
  5
322
330
7E2
100
AcDbEntity
  8
YKK_13
  6
Continuous
100
AcDbLine
 10
398.49353457
 20
330.60010892
 30
0.0
 11
398.49354075
 21
334.60010721
 31
0.0
  0
LINE
  5
323
330
7E2
100
AcDbEntity
  8
YKK_13
100
AcDbLine
 10
398.49353822
 20
332.96030451
 30
0.0
 11
395.85374005
 21
335.60011174
 31
0.0
  0
LINE
  5
324
330
7E2
100
AcDbEntity
  8
YKK_13
  6
Continuous
100
AcDbLine
 10
391.49354246
 20
335.60011922
 30
0.0
 11
393.49353286
 21
329.6001175
 31
0.0
  0
LINE
  5
325
330
7E2
100
AcDbEntity
  8
YKK_13
100
AcDbLine
 10
393.41651535
 20
335.60011592
 30
0.0
 11
391.97428344
 21
334.15788895
 31
0.0
  0
LINE
  5
326
330
7E2
100
AcDbEntity
  8
YKK_13
100
AcDbLine
 10
396.24494248
 20
335.60011106
 30
0.0
 11
392.68138691
 21
332.03656773
 31
0.0
  0
LINE
  5
327
330
7E2
100
AcDbEntity
  8
YKK_13
100
AcDbLine
 10
399.0733696
 20
335.60010621
 30
0.0
 11
393.38849039
 21
329.91524651
 31
0.0
  0
LINE
  5
328
330
7E2
100
AcDbEntity
  8
YKK_13
100
AcDbLine
 10
399.02530091
 20
329.60010801
 30
0.0
 11
393.02531292
 21
335.60011659
 31
0.0
  0
LINE
  5
329
330
7E2
100
AcDbEntity
  8
YKK_13
100
AcDbLine
 10
396.19687379
 20
329.60011286
 30
0.0
 11
392.14186807
 21
333.65513249
 31
0.0
  0
LINE
  5
32A
330
7E2
100
AcDbEntity
  8
YKK_13
  6
Continuous
100
AcDbLine
 10
393.49353286
 20
329.6001175
 30
0.0
 11
399.49353286
 21
329.60010721
 31
0.0
  0
LINE
  5
32B
330
7E2
100
AcDbEntity
  8
YKK_13
100
AcDbLine
 10
402.82853686
 20
332.33510149
 30
0.0
 11
402.82853721
 21
332.53510149
 31
0.0
  0
LINE
  5
32C
330
7E2
100
AcDbEntity
  8
YKK_13
100
AcDbLine
 10
401.41353444
 20
330.92010391
 30
0.0
 11
401.41353478
 21
331.12010391
 31
0.0
  0
LINE
  5
32D
330
7E2
100
AcDbEntity
  8
YKK_13
100
AcDbLine
 10
398.58353444
 20
330.92010877
 30
0.0
 11
398.58353478
 21
331.12010877
 31
0.0
  0
LINE
  5
32E
330
7E2
100
AcDbEntity
  8
YKK_13
100
AcDbLine
 10
398.91474071
 20
329.78463332
 30
0.0
 11
398.73021527
 21
329.60010852
 31
0.0
  0
LINE
  5
32F
330
7E2
100
AcDbEntity
  8
YKK_13
  6
Continuous
100
AcDbLine
 10
402.49353286
 20
329.60010206
 30
0.0
 11
399.49353286
 21
329.60010721
 31
0.0
  0
LINE
  5
330
330
7E2
100
AcDbEntity
  8
YKK_13
100
AcDbLine
 10
399.99853686
 20
332.33510634
 30
0.0
 11
399.99853721
 21
332.53510634
 31
0.0
  0
LINE
  5
331
330
7E2
100
AcDbEntity
  8
YKK_13
100
AcDbLine
 10
401.41353963
 20
333.95010391
 30
0.0
 11
401.41353998
 21
334.15010391
 31
0.0
  0
LINE
  5
332
330
7E2
100
AcDbEntity
  8
YKK_13
100
AcDbLine
 10
398.58353963
 20
333.95010877
 30
0.0
 11
398.58353998
 21
334.15010877
 31
0.0
  0
ARC
  5
333
330
7E2
100
AcDbEntity
  8
YKK_13
  6
Continuous
100
AcDbCircle
 10
402.49353457
 20
330.60010206
 30
0.0
 40
0.9999999999992542
100
AcDbArc
 50
269.99990172
 51
359.99990172
  0
LINE
  5
334
330
7E2
100
AcDbEntity
  8
YKK_13
100
AcDbLine
 10
398.49353703
 20
332.19185336
 30
0.0
 11
395.90178815
 21
329.60011337
 31
0.0
  0
ARC
  5
335
330
7E2
100
AcDbEntity
  8
YKK_13
  6
Continuous
100
AcDbCircle
 10
399.49353457
 20
330.60010721
 30
0.0
 40
1.000000000000277
100
AcDbArc
 50
179.99990172
 51
269.99990172
  0
ARC
  5
336
330
7E2
100
AcDbEntity
  8
YKK_13
  6
Continuous
100
AcDbCircle
 10
399.49353457
 20
330.60010721
 30
0.0
 40
1.000000000000277
100
AcDbArc
 50
179.99990172
 51
269.99990172
  0
LINE
  5
337
330
7E2
100
AcDbEntity
  8
YKK_13
100
AcDbLine
 10
395.79687447
 20
347.60009572
 30
0.0
 11
392.34186689
 21
344.14507628
 31
0.0
  0
LINE
  5
338
330
7E2
100
AcDbEntity
  8
YKK_13
100
AcDbLine
 10
396.64494316
 20
341.60009889
 30
0.0
 11
392.78138662
 21
345.46364218
 31
0.0
  0
LINE
  5
339
330
7E2
100
AcDbEntity
  8
YKK_13
100
AcDbLine
 10
398.6253016
 20
347.60010057
 30
0.0
 11
392.62531361
 21
341.600092
 31
0.0
  0
LINE
  5
33A
330
7E2
100
AcDbEntity
  8
YKK_13
100
AcDbLine
 10
398.49374847
 20
342.57972219
 30
0.0
 11
393.48849009
 21
347.5849634
 31
0.0
  0
LINE
  5
33B
330
7E2
100
AcDbEntity
  8
YKK_13
  6
Continuous
100
AcDbLine
 10
399.49354246
 20
341.60010378
 30
0.0
 11
391.49354246
 21
341.60009005
 31
0.0
  0
LINE
  5
33C
330
7E2
100
AcDbEntity
  8
YKK_13
  6
Continuous
100
AcDbLine
 10
393.49353286
 20
347.60009177
 30
0.0
 11
399.49353286
 21
347.60010206
 31
0.0
  0
LINE
  5
33D
330
7E2
100
AcDbEntity
  8
YKK_13
  6
Continuous
100
AcDbLine
 10
399.49354246
 20
335.60010549
 30
0.0
 11
391.49354246
 21
335.60011922
 31
0.0
  0
LINE
  5
33E
330
7E2
100
AcDbEntity
  8
YKK_13
  6
Continuous
100
AcDbLine
 10
391.49354246
 20
341.60009005
 30
0.0
 11
393.49353286
 21
347.60009177
 31
0.0
  0
LINE
  5
33F
330
7E2
100
AcDbEntity
  8
YKK_13
100
AcDbLine
 10
393.81651604
 20
341.60009404
 30
0.0
 11
392.07428314
 21
343.34232096
 31
0.0
  0
LINE
  5
340
330
7E2
100
AcDbEntity
  8
YKK_13
  6
Continuous
100
AcDbLine
 10
398.49353457
 20
346.60010035
 30
0.0
 11
398.49354075
 21
342.60010206
 31
0.0
  0
LINE
  5
341
330
7E2
100
AcDbEntity
  8
YKK_13
  6
Continuous
100
AcDbLine
 10
398.49353457
 20
346.60010035
 30
0.0
 11
398.49354075
 21
342.60010206
 31
0.0
  0
LINE
  5
342
330
7E2
100
AcDbEntity
  8
YKK_13
  6
Continuous
100
AcDbLine
 10
403.49354075
 20
342.60011064
 30
0.0
 11
403.49353457
 21
346.60010892
 31
0.0
  0
LINE
  5
343
330
7E2
100
AcDbEntity
  8
YKK_13
100
AcDbLine
 10
398.49353641
 20
345.40835653
 30
0.0
 11
396.30178883
 21
347.60009659
 31
0.0
  0
LINE
  5
344
330
7E2
100
AcDbEntity
  8
YKK_13
100
AcDbLine
 10
402.82854206
 20
342.23510778
 30
0.0
 11
402.82854236
 21
342.05789137
 31
0.0
  0
LINE
  5
345
330
7E2
100
AcDbEntity
  8
YKK_13
100
AcDbLine
 10
402.82853686
 20
345.26510778
 30
0.0
 11
402.82853721
 21
345.06510778
 31
0.0
  0
LINE
  5
346
330
7E2
100
AcDbEntity
  8
YKK_13
100
AcDbLine
 10
399.99854206
 20
342.23510293
 30
0.0
 11
399.9985424
 21
342.03510293
 31
0.0
  0
LINE
  5
347
330
7E2
100
AcDbEntity
  8
YKK_13
100
AcDbLine
 10
399.47337029
 20
341.60010374
 30
0.0
 11
399.4731626
 21
341.60031143
 31
0.0
  0
LINE
  5
348
330
7E2
100
AcDbEntity
  8
YKK_13
  6
Continuous
100
AcDbLine
 10
399.49354246
 20
341.60010378
 30
0.0
 11
402.49354246
 21
341.60010892
 31
0.0
  0
LINE
  5
349
330
7E2
100
AcDbEntity
  8
YKK_13
100
AcDbLine
 10
399.99853686
 20
345.26510293
 30
0.0
 11
399.99853721
 21
345.06510293
 31
0.0
  0
LINE
  5
34A
330
7E2
100
AcDbEntity
  8
YKK_13
100
AcDbLine
 10
398.58353963
 20
343.6501005
 30
0.0
 11
398.58353998
 21
343.4501005
 31
0.0
  0
LINE
  5
34B
330
7E2
100
AcDbEntity
  8
YKK_13
100
AcDbLine
 10
401.41353963
 20
343.65010536
 30
0.0
 11
401.41353998
 21
343.45010536
 31
0.0
  0
ARC
  5
34C
330
7E2
100
AcDbEntity
  8
YKK_13
  6
Continuous
100
AcDbCircle
 10
402.49354075
 20
342.60010892
 30
0.0
 40
1.000000000001414
100
AcDbArc
 50
270.00009828
 51
0.00009828
  0
ARC
  5
34D
330
7E2
100
AcDbEntity
  8
YKK_13
  6
Continuous
100
AcDbCircle
 10
399.49354075
 20
342.60010378
 30
0.0
 40
0.9999999999993679
100
AcDbArc
 50
180.00009828
 51
270.00009828
  0
LINE
  5
34E
330
7E2
100
AcDbEntity
  8
YKK_13
100
AcDbLine
 10
398.4935376
 20
344.63990414
 30
0.0
 11
395.45374073
 21
341.60009685
 31
0.0
  0
ARC
  5
34F
330
7E2
100
AcDbEntity
  8
YKK_13
  6
Continuous
100
AcDbCircle
 10
399.49354075
 20
342.60010378
 30
0.0
 40
0.9999999999993679
100
AcDbArc
 50
180.00009828
 51
270.00009828
  0
LINE
  5
350
330
7E2
100
AcDbEntity
  8
YKK_13
100
AcDbLine
 10
398.68869054
 20
342.00662578
 30
0.0
 11
398.28216786
 21
341.6001017
 31
0.0
  0
ARC
  5
351
330
7E2
100
AcDbEntity
  8
YKK_13
  6
Continuous
100
AcDbCircle
 10
402.49354075
 20
334.60010035
 30
0.0
 40
1.000000000001414
100
AcDbArc
 50
359.99990172
 51
89.99990172
  0
LINE
  5
352
330
7E2
100
AcDbEntity
  8
YKK_13
100
AcDbLine
 10
402.82854206
 20
335.36510149
 30
0.0
 11
402.82854236
 21
335.5423179
 31
0.0
  0
LINE
  5
353
330
7E2
100
AcDbEntity
  8
YKK_13
100
AcDbLine
 10
398.8870655
 20
335.39520786
 30
0.0
 11
398.68216717
 21
335.60010688
 31
0.0
  0
LINE
  5
354
330
7E2
100
AcDbEntity
  8
YKK_13
100
AcDbLine
 10
399.99854206
 20
335.36510634
 30
0.0
 11
399.9985424
 21
335.56510634
 31
0.0
  0
LINE
  5
355
330
7E2
100
AcDbEntity
  8
YKK_13
  6
Continuous
100
AcDbLine
 10
399.49354246
 20
335.60010549
 30
0.0
 11
402.49354246
 21
335.60010035
 31
0.0
  0
ARC
  5
356
330
7E2
100
AcDbEntity
  8
YKK_13
  6
Continuous
100
AcDbCircle
 10
399.49354075
 20
334.60010549
 30
0.0
 40
0.9999999999993679
100
AcDbArc
 50
89.99990172
 51
179.99990172
  0
ARC
  5
357
330
7E2
100
AcDbEntity
  8
YKK_13
  6
Continuous
100
AcDbCircle
 10
399.49354075
 20
334.60010549
 30
0.0
 40
0.9999999999993679
100
AcDbArc
 50
89.99990172
 51
179.99990172
  0
LINE
  5
358
330
7E2
100
AcDbEntity
  8
YKK_12
  6
Continuous
100
AcDbLine
 10
400.79994958
 20
341.60010378
 30
0.0
 11
400.79994958
 21
335.60010378
 31
0.0
1001
YALIB
1000
YALIB1601
1000
 L=246 t1=6.8 ta=1 SDFLG="0" MFLG="0" HFLG="0"  
  0
LINE
  5
359
330
7E2
100
AcDbEntity
  8
YKK_13
100
AcDbLine
 10
399.18048028
 20
347.54983729
 30
0.0
 11
399.13021596
 21
347.60010144
 31
0.0
  0
LINE
  5
35A
330
7E2
100
AcDbEntity
  8
YKK_13
100
AcDbLine
 10
398.58353444
 20
346.6801005
 30
0.0
 11
398.58353478
 21
346.4801005
 31
0.0
  0
LINE
  5
35B
330
7E2
100
AcDbEntity
  8
YKK_13
100
AcDbLine
 10
401.41353444
 20
346.68010536
 30
0.0
 11
401.41353478
 21
346.48010536
 31
0.0
  0
LINE
  5
35C
330
7E2
100
AcDbEntity
  8
YKK_13
  6
Continuous
100
AcDbLine
 10
402.49353286
 20
347.60010721
 30
0.0
 11
399.49353286
 21
347.60010206
 31
0.0
  0
ARC
  5
35D
330
7E2
100
AcDbEntity
  8
YKK_13
  6
Continuous
100
AcDbCircle
 10
402.49353457
 20
346.60010721
 30
0.0
 40
0.9999999999992542
100
AcDbArc
 50
0.00009828
 51
90.00009828
  0
ARC
  5
35E
330
7E2
100
AcDbEntity
  8
YKK_13
  6
Continuous
100
AcDbCircle
 10
399.49353457
 20
346.60010206
 30
0.0
 40
1.000000000000334
100
AcDbArc
 50
90.00009828
 51
180.00009828
  0
ARC
  5
35F
330
7E2
100
AcDbEntity
  8
YKK_13
  6
Continuous
100
AcDbCircle
 10
399.49353457
 20
346.60010206
 30
0.0
 40
1.000000000000334
100
AcDbArc
 50
90.00009828
 51
180.00009828
  0
LINE
  5
360
330
7E2
100
AcDbEntity
  8
YKK_D
100
AcDbLine
 10
392.79994958
 20
359.40010463
 30
0.0
 11
392.79994958
 21
377.40010463
 31
0.0
  0
LWPOLYLINE
  5
361
330
7E2
100
AcDbEntity
  8
YKK_D
  6
ByBlock
100
AcDbPolyline
 90
        2
 70
     1
 43
0.85
 10
392.90619958
 20
376.40010463
 42
1.0
 10
392.69369958
 20
376.40010463
 42
1.0
  0
LINE
  5
362
330
7E2
100
AcDbEntity
  8
YKK_12
  6
Continuous
100
AcDbLine
 10
451.8063663
 20
329.60010463
 30
0.0
 11
502.79994958
 21
329.60010463
 31
0.0
1001
YALIB
1000
YALIB1603
1000
 L=131 t1=6.8 t2=5 A=12 ta1=1 ta2= 1 SDFLG="1" AFLG1="1" AFLG2="0" MFLG="0" HFLG="0"  
  0
LINE
  5
363
330
7E2
100
AcDbEntity
  8
YKK_12
  6
Continuous
100
AcDbLine
 10
451.8063663
 20
347.60010463
 30
0.0
 11
502.79994958
 21
347.60010463
 31
0.0
1001
YALIB
1000
YALIB1603
1000
 L=131 t1=6.8 t2=5 A=12 ta1=1 ta2= 1 SDFLG="1" AFLG1="1" AFLG2="0" MFLG="0" HFLG="0"  
  0
LINE
  5
364
330
7E2
100
AcDbEntity
  8
YKK_12
  6
Continuous
100
AcDbLine
 10
503.49353286
 20
341.60010378
 30
0.0
 11
444.79994958
 21
341.60010378
 31
0.0
1001
YALIB
1000
YALIB1601
1000
 L=246 t1=6.8 ta=1 SDFLG="0" MFLG="0" HFLG="0"  
  0
LINE
  5
365
330
7E2
100
AcDbEntity
  8
YKK_12
  6
Continuous
100
AcDbLine
 10
444.79994958
 20
335.60010378
 30
0.0
 11
503.49353286
 21
335.60010378
 31
0.0
1001
YALIB
1000
YALIB1601
1000
 L=246 t1=6.8 ta=1 SDFLG="0" MFLG="0" HFLG="0"  
  0
LINE
  5
366
330
7E2
100
AcDbEntity
  8
YKK_12
  6
Continuous
100
AcDbLine
 10
444.79994958
 20
340.60010378
 30
0.0
 11
503.49353286
 21
340.60010378
 31
0.0
1001
YALIB
1000
YALIB1601
1000
 L=246 t1=6.8 ta=1 SDFLG="0" MFLG="0" HFLG="0"  
  0
LINE
  5
367
330
7E2
100
AcDbEntity
  8
YKK_12
  6
Continuous
100
AcDbLine
 10
503.49353286
 20
336.60010378
 30
0.0
 11
444.79994958
 21
336.60010378
 31
0.0
1001
YALIB
1000
YALIB1601
1000
 L=246 t1=6.8 ta=1 SDFLG="0" MFLG="0" HFLG="0"  
  0
LINE
  5
368
330
7E2
100
AcDbEntity
  8
YKK_13
  6
Continuous
100
AcDbLine
 10
454.10635669
 20
335.60011922
 30
0.0
 11
452.1063663
 21
329.6001175
 31
0.0
  0
LINE
  5
369
330
7E2
100
AcDbEntity
  8
YKK_13
100
AcDbLine
 10
452.18338381
 20
335.60011592
 30
0.0
 11
453.62561572
 21
334.15788895
 31
0.0
  0
LINE
  5
36A
330
7E2
100
AcDbEntity
  8
YKK_13
100
AcDbLine
 10
446.52652956
 20
335.60010621
 30
0.0
 11
452.21140877
 21
329.91524651
 31
0.0
  0
LINE
  5
36B
330
7E2
100
AcDbEntity
  8
YKK_13
100
AcDbLine
 10
449.35495668
 20
335.60011106
 30
0.0
 11
452.91851224
 21
332.03656773
 31
0.0
  0
LINE
  5
36C
330
7E2
100
AcDbEntity
  8
YKK_13
100
AcDbLine
 10
446.57459824
 20
329.60010801
 30
0.0
 11
452.57458624
 21
335.60011659
 31
0.0
  0
LINE
  5
36D
330
7E2
100
AcDbEntity
  8
YKK_13
100
AcDbLine
 10
447.10636094
 20
332.96030451
 30
0.0
 11
449.74615911
 21
335.60011174
 31
0.0
  0
LINE
  5
36E
330
7E2
100
AcDbEntity
  8
YKK_13
  6
Continuous
100
AcDbLine
 10
447.10636458
 20
330.60010892
 30
0.0
 11
447.10635841
 21
334.60010721
 31
0.0
  0
LINE
  5
36F
330
7E2
100
AcDbEntity
  8
YKK_13
  6
Continuous
100
AcDbLine
 10
447.10636458
 20
330.60010892
 30
0.0
 11
447.10635841
 21
334.60010721
 31
0.0
  0
LINE
  5
370
330
7E2
100
AcDbEntity
  8
YKK_13
  6
Continuous
100
AcDbLine
 10
442.10635841
 20
334.60009863
 30
0.0
 11
442.10636458
 21
330.60010035
 31
0.0
  0
LINE
  5
371
330
7E2
100
AcDbEntity
  8
YKK_13
100
AcDbLine
 10
447.01636472
 20
330.92010877
 30
0.0
 11
447.01636438
 21
331.12010877
 31
0.0
  0
ARC
  5
372
330
7E2
100
AcDbEntity
  8
YKK_13
  6
Continuous
100
AcDbCircle
 10
446.10636458
 20
330.60010721
 30
0.0
 40
1.000000000000334
100
AcDbArc
 50
270.00009828
 51
0.00009828
  0
ARC
  5
373
330
7E2
100
AcDbEntity
  8
YKK_13
  6
Continuous
100
AcDbCircle
 10
446.10636458
 20
330.60010721
 30
0.0
 40
1.000000000000334
100
AcDbArc
 50
270.00009828
 51
0.00009828
  0
LINE
  5
374
330
7E2
100
AcDbEntity
  8
YKK_13
100
AcDbLine
 10
446.68515845
 20
329.78463332
 30
0.0
 11
446.86968388
 21
329.60010852
 31
0.0
  0
LINE
  5
375
330
7E2
100
AcDbEntity
  8
YKK_13
100
AcDbLine
 10
445.60136229
 20
332.33510634
 30
0.0
 11
445.60136195
 21
332.53510634
 31
0.0
  0
LINE
  5
376
330
7E2
100
AcDbEntity
  8
YKK_13
100
AcDbLine
 10
447.01635952
 20
333.95010877
 30
0.0
 11
447.01635918
 21
334.15010877
 31
0.0
  0
LINE
  5
377
330
7E2
100
AcDbEntity
  8
YKK_13
  6
Continuous
100
AcDbLine
 10
452.1063663
 20
329.6001175
 30
0.0
 11
446.1063663
 21
329.60010721
 31
0.0
  0
LINE
  5
378
330
7E2
100
AcDbEntity
  8
YKK_13
100
AcDbLine
 10
447.10636213
 20
332.19185336
 30
0.0
 11
449.69811101
 21
329.60011337
 31
0.0
  0
LINE
  5
379
330
7E2
100
AcDbEntity
  8
YKK_13
100
AcDbLine
 10
449.40302537
 20
329.60011286
 30
0.0
 11
453.45803108
 21
333.65513249
 31
0.0
  0
LINE
  5
37A
330
7E2
100
AcDbEntity
  8
YKK_13
100
AcDbLine
 10
444.18636472
 20
330.92010391
 30
0.0
 11
444.18636438
 21
331.12010391
 31
0.0
  0
ARC
  5
37B
330
7E2
100
AcDbEntity
  8
YKK_13
  6
Continuous
100
AcDbCircle
 10
443.10636458
 20
330.60010206
 30
0.0
 40
0.9999999999991974
100
AcDbArc
 50
180.00009828
 51
270.00009828
  0
LINE
  5
37C
330
7E2
100
AcDbEntity
  8
YKK_13
100
AcDbLine
 10
442.77136229
 20
332.33510149
 30
0.0
 11
442.77136195
 21
332.53510149
 31
0.0
  0
LINE
  5
37D
330
7E2
100
AcDbEntity
  8
YKK_13
100
AcDbLine
 10
444.18635952
 20
333.95010391
 30
0.0
 11
444.18635918
 21
334.15010391
 31
0.0
  0
LINE
  5
37E
330
7E2
100
AcDbEntity
  8
YKK_13
  6
Continuous
100
AcDbLine
 10
443.1063663
 20
329.60010206
 30
0.0
 11
446.1063663
 21
329.60010721
 31
0.0
  0
LINE
  5
37F
330
7E2
100
AcDbEntity
  8
YKK_13
  6
Continuous
100
AcDbLine
 10
454.10635669
 20
341.60009005
 30
0.0
 11
452.1063663
 21
347.60009177
 31
0.0
  0
LINE
  5
380
330
7E2
100
AcDbEntity
  8
YKK_13
100
AcDbLine
 10
449.80302468
 20
347.60009572
 30
0.0
 11
453.25803227
 21
344.14507628
 31
0.0
  0
LINE
  5
381
330
7E2
100
AcDbEntity
  8
YKK_13
  6
Continuous
100
AcDbLine
 10
447.10636458
 20
346.60010035
 30
0.0
 11
447.10635841
 21
342.60010206
 31
0.0
  0
LINE
  5
382
330
7E2
100
AcDbEntity
  8
YKK_13
  6
Continuous
100
AcDbLine
 10
447.10636458
 20
346.60010035
 30
0.0
 11
447.10635841
 21
342.60010206
 31
0.0
  0
LINE
  5
383
330
7E2
100
AcDbEntity
  8
YKK_13
100
AcDbLine
 10
447.10636274
 20
345.40835653
 30
0.0
 11
449.29811032
 21
347.60009659
 31
0.0
  0
LINE
  5
384
330
7E2
100
AcDbEntity
  8
YKK_13
100
AcDbLine
 10
447.10615068
 20
342.57972219
 30
0.0
 11
452.11140906
 21
347.5849634
 31
0.0
  0
LINE
  5
385
330
7E2
100
AcDbEntity
  8
YKK_13
100
AcDbLine
 10
446.97459756
 20
347.60010057
 30
0.0
 11
452.97458555
 21
341.600092
 31
0.0
  0
LINE
  5
386
330
7E2
100
AcDbEntity
  8
YKK_13
  6
Continuous
100
AcDbLine
 10
442.10635841
 20
342.60011064
 30
0.0
 11
442.10636458
 21
346.60010892
 31
0.0
  0
LINE
  5
38C
330
7E2
100
AcDbEntity
  8
YKK_13
100
AcDbLine
 10
451.78338312
 20
341.60009404
 30
0.0
 11
453.52561602
 21
343.34232096
 31
0.0
  0
LINE
  5
38D
330
7E2
100
AcDbEntity
  8
YKK_13
100
AcDbLine
 10
445.6013571
 20
342.23510293
 30
0.0
 11
445.60135675
 21
342.03510293
 31
0.0
  0
ARC
  5
38E
330
7E2
100
AcDbEntity
  8
YKK_13
  6
Continuous
100
AcDbCircle
 10
446.10635841
 20
342.60010378
 30
0.0
 40
0.9999999999993679
100
AcDbArc
 50
269.99990172
 51
359.99990172
  0
ARC
  5
38F
330
7E2
100
AcDbEntity
  8
YKK_13
  6
Continuous
100
AcDbCircle
 10
446.10635841
 20
342.60010378
 30
0.0
 40
0.9999999999993679
100
AcDbArc
 50
269.99990172
 51
359.99990172
  0
LINE
  5
390
330
7E2
100
AcDbEntity
  8
YKK_13
100
AcDbLine
 10
446.12652887
 20
341.60010374
 30
0.0
 11
446.12673656
 21
341.60031143
 31
0.0
  0
LINE
  5
391
330
7E2
100
AcDbEntity
  8
YKK_13
100
AcDbLine
 10
446.91120862
 20
342.00662578
 30
0.0
 11
447.3177313
 21
341.6001017
 31
0.0
  0
LINE
  5
392
330
7E2
100
AcDbEntity
  8
YKK_13
100
AcDbLine
 10
445.60136229
 20
345.26510293
 30
0.0
 11
445.60136195
 21
345.06510293
 31
0.0
  0
LINE
  5
393
330
7E2
100
AcDbEntity
  8
YKK_13
100
AcDbLine
 10
447.01635952
 20
343.6501005
 30
0.0
 11
447.01635918
 21
343.4501005
 31
0.0
  0
LINE
  5
394
330
7E2
100
AcDbEntity
  8
YKK_13
  6
Continuous
100
AcDbLine
 10
446.10635669
 20
341.60010378
 30
0.0
 11
454.10635669
 21
341.60009005
 31
0.0
  0
LINE
  5
395
330
7E2
100
AcDbEntity
  8
YKK_13
100
AcDbLine
 10
448.954956
 20
341.60009889
 30
0.0
 11
452.81851254
 21
345.46364218
 31
0.0
  0
LINE
  5
396
330
7E2
100
AcDbEntity
  8
YKK_13
100
AcDbLine
 10
447.10636156
 20
344.63990414
 30
0.0
 11
450.14615843
 21
341.60009685
 31
0.0
  0
LINE
  5
397
330
7E2
100
AcDbEntity
  8
YKK_13
100
AcDbLine
 10
442.7713571
 20
342.23510778
 30
0.0
 11
442.77135679
 21
342.05789137
 31
0.0
  0
ARC
  5
398
330
7E2
100
AcDbEntity
  8
YKK_13
  6
Continuous
100
AcDbCircle
 10
443.10635841
 20
342.60010892
 30
0.0
 40
1.000000000001357
100
AcDbArc
 50
179.99990172
 51
269.99990172
  0
LINE
  5
399
330
7E2
100
AcDbEntity
  8
YKK_13
100
AcDbLine
 10
442.77136229
 20
345.26510778
 30
0.0
 11
442.77136195
 21
345.06510778
 31
0.0
  0
LINE
  5
39A
330
7E2
100
AcDbEntity
  8
YKK_13
100
AcDbLine
 10
444.18635952
 20
343.65010536
 30
0.0
 11
444.18635918
 21
343.45010536
 31
0.0
  0
LINE
  5
39B
330
7E2
100
AcDbEntity
  8
YKK_13
  6
Continuous
100
AcDbLine
 10
446.10635669
 20
341.60010378
 30
0.0
 11
443.10635669
 21
341.60010892
 31
0.0
  0
ARC
  5
39C
330
7E2
100
AcDbEntity
  8
YKK_13
  6
Continuous
100
AcDbCircle
 10
446.10635841
 20
334.60010549
 30
0.0
 40
0.9999999999993679
100
AcDbArc
 50
0.00009828
 51
90.00009828
  0
ARC
  5
39D
330
7E2
100
AcDbEntity
  8
YKK_13
  6
Continuous
100
AcDbCircle
 10
446.10635841
 20
334.60010549
 30
0.0
 40
0.9999999999993679
100
AcDbArc
 50
0.00009828
 51
90.00009828
  0
LINE
  5
39E
330
7E2
100
AcDbEntity
  8
YKK_13
100
AcDbLine
 10
445.6013571
 20
335.36510634
 30
0.0
 11
445.60135675
 21
335.56510634
 31
0.0
  0
LINE
  5
39F
330
7E2
100
AcDbEntity
  8
YKK_13
100
AcDbLine
 10
446.71283366
 20
335.39520786
 30
0.0
 11
446.91773199
 21
335.60010688
 31
0.0
  0
LINE
  5
3A0
330
7E2
100
AcDbEntity
  8
YKK_13
  6
Continuous
100
AcDbLine
 10
446.10635669
 20
335.60010549
 30
0.0
 11
454.10635669
 21
335.60011922
 31
0.0
  0
ARC
  5
3A1
330
7E2
100
AcDbEntity
  8
YKK_13
  6
Continuous
100
AcDbCircle
 10
443.10635841
 20
334.60010035
 30
0.0
 40
1.000000000001357
100
AcDbArc
 50
90.00009828
 51
180.00009828
  0
LINE
  5
3A2
330
7E2
100
AcDbEntity
  8
YKK_13
100
AcDbLine
 10
442.7713571
 20
335.36510149
 30
0.0
 11
442.77135679
 21
335.5423179
 31
0.0
  0
LINE
  5
3A3
330
7E2
100
AcDbEntity
  8
YKK_13
  6
Continuous
100
AcDbLine
 10
446.10635669
 20
335.60010549
 30
0.0
 11
443.10635669
 21
335.60010035
 31
0.0
  0
LINE
  5
3A5
330
7E2
100
AcDbEntity
  8
YKK_12
  6
Continuous
100
AcDbLine
 10
444.79994958
 20
341.60010378
 30
0.0
 11
444.79994958
 21
335.60010378
 31
0.0
1001
YALIB
1000
YALIB1601
1000
 L=246 t1=6.8 ta=1 SDFLG="0" MFLG="0" HFLG="0"  
  0
LINE
  5
3A6
330
7E2
100
AcDbEntity
  8
YKK_13
100
AcDbLine
 10
447.01636472
 20
346.6801005
 30
0.0
 11
447.01636438
 21
346.4801005
 31
0.0
  0
ARC
  5
3A7
330
7E2
100
AcDbEntity
  8
YKK_13
  6
Continuous
100
AcDbCircle
 10
446.10636458
 20
346.60010206
 30
0.0
 40
1.000000000000334
100
AcDbArc
 50
359.99990172
 51
89.99990172
  0
ARC
  5
3A8
330
7E2
100
AcDbEntity
  8
YKK_13
  6
Continuous
100
AcDbCircle
 10
446.10636458
 20
346.60010206
 30
0.0
 40
1.000000000000334
100
AcDbArc
 50
359.99990172
 51
89.99990172
  0
LINE
  5
3A9
330
7E2
100
AcDbEntity
  8
YKK_13
100
AcDbLine
 10
446.41941888
 20
347.54983729
 30
0.0
 11
446.4696832
 21
347.60010144
 31
0.0
  0
LINE
  5
3AA
330
7E2
100
AcDbEntity
  8
YKK_13
  6
Continuous
100
AcDbLine
 10
452.1063663
 20
347.60009177
 30
0.0
 11
446.1063663
 21
347.60010206
 31
0.0
  0
LINE
  5
3AB
330
7E2
100
AcDbEntity
  8
YKK_13
100
AcDbLine
 10
444.18636472
 20
346.68010536
 30
0.0
 11
444.18636438
 21
346.48010536
 31
0.0
  0
ARC
  5
3AC
330
7E2
100
AcDbEntity
  8
YKK_13
  6
Continuous
100
AcDbCircle
 10
443.10636458
 20
346.60010721
 30
0.0
 40
0.9999999999991974
100
AcDbArc
 50
89.99990172
 51
179.99990172
  0
LINE
  5
3AD
330
7E2
100
AcDbEntity
  8
YKK_13
  6
Continuous
100
AcDbLine
 10
443.1063663
 20
347.60010721
 30
0.0
 11
446.1063663
 21
347.60010206
 31
0.0
  0
LINE
  5
3AE
330
7E2
100
AcDbEntity
  8
YKK_D
100
AcDbLine
 10
452.79994958
 20
359.40010463
 30
0.0
 11
452.79994958
 21
377.40010463
 31
0.0
  0
LWPOLYLINE
  5
3AF
330
7E2
100
AcDbEntity
  8
YKK_D
  6
ByBlock
100
AcDbPolyline
 90
        2
 70
     1
 43
0.85
 10
452.69369958
 20
376.40010463
 42
1.0
 10
452.90619958
 20
376.40010463
 42
1.0
  0
LINE
  5
3B0
330
7E2
100
AcDbEntity
  8
YKK_A1
  6
ByBlock
100
AcDbLine
 10
531.00250274
 20
439.9000014
 30
0.0
 11
531.00250274
 21
468.8000014
 31
0.0
1001
ACDBBLOCKREPETAG
1070
     1
1071
       30
1005
3B0
  0
LINE
  5
3B1
330
7E2
100
AcDbEntity
  8
YKK_A1
  6
ByBlock
100
AcDbLine
 10
532.00250274
 20
439.9000014
 30
0.0
 11
532.00250274
 21
469.9000014
 31
0.0
1001
ACDBBLOCKREPETAG
1070
     1
1071
       26
1005
3B1
  0
LINE
  5
3B2
330
7E2
100
AcDbEntity
  8
YKK_A1
  6
ByBlock
100
AcDbLine
 10
533.25250274
 20
437.9000014
 30
0.0
 11
533.25250274
 21
471.4000014
 31
0.0
1001
ACDBBLOCKREPETAG
1070
     1
1071
       18
1005
3B2
  0
LINE
  5
3B3
330
7E2
100
AcDbEntity
  8
YKK_A1
  6
ByBlock
100
AcDbLine
 10
549.14001341
 20
437.9000014
 30
0.0
 11
549.14001341
 21
471.4000014
 31
0.0
1001
ACDBBLOCKREPETAG
1070
     1
1071
       20
1005
3B3
  0
LINE
  5
3B4
330
7E2
100
AcDbEntity
  8
YKK_A1
  6
ByBlock
100
AcDbLine
 10
550.39001341
 20
439.9000014
 30
0.0
 11
550.39001341
 21
469.9000014
 31
0.0
1001
ACDBBLOCKREPETAG
1070
     1
1071
       27
1005
3B4
  0
LINE
  5
3B5
330
7E2
100
AcDbEntity
  8
YKK_A1
  6
ByBlock
100
AcDbLine
 10
503.00250274
 20
439.9000014
 30
0.0
 11
503.00250274
 21
468.8000014
 31
0.0
1001
ACDBBLOCKREPETAG
1070
     1
1071
       31
1005
3B5
  0
LINE
  5
3B6
330
7E2
100
AcDbEntity
  8
YKK_A1
  6
ByBlock
100
AcDbLine
 10
502.00250274
 20
439.9000014
 30
0.0
 11
502.00250274
 21
469.9000014
 31
0.0
1001
ACDBBLOCKREPETAG
1070
     1
1071
       27
1005
3B6
  0
LINE
  5
3B7
330
7E2
100
AcDbEntity
  8
YKK_A1
  6
ByBlock
100
AcDbLine
 10
500.75250274
 20
437.9000014
 30
0.0
 11
500.75250274
 21
471.4000014
 31
0.0
1001
ACDBBLOCKREPETAG
1070
     1
1071
       20
1005
3B7
  0
LINE
  5
3B8
330
7E2
100
AcDbEntity
  8
YKK_A1
  6
ByBlock
100
AcDbLine
 10
502.00250274
 20
439.9000014
 30
0.0
 11
532.00250274
 21
439.9000014
 31
0.0
1001
ACDBBLOCKREPETAG
1070
     1
1071
       24
1005
3B8
  0
LINE
  5
3B9
330
7E2
100
AcDbEntity
  8
YKK_A1
  6
ByBlock
100
AcDbLine
 10
500.75250274
 20
437.9000014
 30
0.0
 11
533.25250274
 21
437.9000014
 31
0.0
1001
ACDBBLOCKREPETAG
1070
     1
1071
       17
1005
3B9
  0
TEXT
  5
3BA
330
7E2
100
AcDbEntity
  8
YKK_A1
100
AcDbText
 10
525.52279533
 20
440.57425254
 30
0.0
 40
6.0
  1
F
 41
0.8
100
AcDbText
1001
ACAD
1000
MTEXTBEGIN
1070
    73
1070
     1
1070
    44
1040
1.0
1070
    74
1070
     0
1000
MTEXTEND
1000
MTEXTBEGIN
1070
    73
1070
     1
1070
    44
1040
1.0
1070
    74
1070
     0
1000
MTEXTEND
  0
LINE
  5
3BB
330
7E2
100
AcDbEntity
  8
YKK_A1
  6
ByBlock
100
AcDbLine
 10
503.00250274
 20
468.8000014
 30
0.0
 11
531.00250274
 21
468.8000014
 31
0.0
1001
ACDBBLOCKREPETAG
1070
     1
1071
       23
1005
3BB
  0
LINE
  5
3BC
330
7E2
100
AcDbEntity
  8
YKK_A1
  6
ByBlock
100
AcDbLine
 10
502.00250274
 20
469.9000014
 30
0.0
 11
532.00250274
 21
469.9000014
 31
0.0
1001
ACDBBLOCKREPETAG
1070
     1
1071
       21
1005
3BC
  0
LINE
  5
3BD
330
7E2
100
AcDbEntity
  8
YKK_A1
  6
ByBlock
100
AcDbLine
 10
500.75250274
 20
471.4000014
 30
0.0
 11
533.25250274
 21
471.4000014
 31
0.0
1001
ACDBBLOCKREPETAG
1070
     1
1071
       19
1005
3BD
  0
LINE
  5
3BE
330
7E2
100
AcDbEntity
  8
YKK_12
  6
Continuous
100
AcDbLine
 10
641.80646789
 20
348.66585047
 30
0.0
 11
692.80005117
 21
348.66585047
 31
0.0
1001
YALIB
1000
YALIB1603
1000
 L=131 t1=6.8 t2=5 A=12 ta1=1 ta2= 1 SDFLG="1" AFLG1="1" AFLG2="0" MFLG="0" HFLG="0"  
  0
LINE
  5
3BF
330
7E2
100
AcDbEntity
  8
YKK_12
  6
Continuous
100
AcDbLine
 10
634.80005117
 20
341.66584961
 30
0.0
 11
692.80005117
 21
341.66584961
 31
0.0
1001
YALIB
1000
YALIB1601
1000
 L=246 t1=6.8 ta=1 SDFLG="0" MFLG="0" HFLG="0"  
  0
LINE
  5
3C0
330
7E2
100
AcDbEntity
  8
YKK_12
  6
Continuous
100
AcDbLine
 10
634.80005117
 20
336.66584961
 30
0.0
 11
692.80005117
 21
336.66584961
 31
0.0
1001
YALIB
1000
YALIB1601
1000
 L=246 t1=6.8 ta=1 SDFLG="0" MFLG="0" HFLG="0"  
  0
LINE
  5
3C1
330
7E2
100
AcDbEntity
  8
YKK_12
  6
Continuous
100
AcDbLine
 10
692.80005117
 20
337.66584961
 30
0.0
 11
634.80005117
 21
337.66584961
 31
0.0
1001
YALIB
1000
YALIB1601
1000
 L=246 t1=6.8 ta=1 SDFLG="0" MFLG="0" HFLG="0"  
  0
LINE
  5
3C2
330
7E2
100
AcDbEntity
  8
YKK_12
  6
Continuous
100
AcDbLine
 10
641.80646789
 20
330.66585047
 30
0.0
 11
692.80005117
 21
330.66585047
 31
0.0
1001
YALIB
1000
YALIB1603
1000
 L=131 t1=6.8 t2=5 A=12 ta1=1 ta2= 1 SDFLG="1" AFLG1="1" AFLG2="0" MFLG="0" HFLG="0"  
  0
LINE
  5
3C3
330
7E2
100
AcDbEntity
  8
YKK_12
  6
Continuous
100
AcDbLine
 10
692.80005117
 20
342.66584961
 30
0.0
 11
634.80005117
 21
342.66584961
 31
0.0
1001
YALIB
1000
YALIB1601
1000
 L=246 t1=6.8 ta=1 SDFLG="0" MFLG="0" HFLG="0"  
  0
LINE
  5
3C4
330
7E2
100
AcDbEntity
  8
YKK_12
  6
Continuous
100
AcDbLine
 10
692.80005117
 20
353.26585047
 30
0.0
 11
552.80005117
 21
353.26585047
 31
0.0
1001
YALIB
1000
YALIB1603
1000
 L=131 t1=6.8 t2=5 A=12 ta1=1 ta2= 1 SDFLG="1" AFLG1="1" AFLG2="0" MFLG="0" HFLG="0"  
  0
LINE
  5
3C5
330
7E2
100
AcDbEntity
  8
YKK_12
  6
Continuous
100
AcDbLine
 10
692.80005117
 20
357.46585047
 30
0.0
 11
552.80005117
 21
357.46585047
 31
0.0
1001
YALIB
1000
YALIB1603
1000
 L=131 t1=6.8 t2=5 A=12 ta1=1 ta2= 1 SDFLG="1" AFLG1="1" AFLG2="0" MFLG="0" HFLG="0"  
  0
LINE
  5
3C6
330
7E2
100
AcDbEntity
  8
YKK_13
100
AcDbLine
 10
609.07347119
 20
336.66585205
 30
0.0
 11
603.38859198
 21
330.98099234
 31
0.0
  0
LINE
  5
3C7
330
7E2
100
AcDbEntity
  8
YKK_13
100
AcDbLine
 10
609.0254025
 20
330.66585385
 30
0.0
 11
603.02541451
 21
336.66586242
 31
0.0
  0
LINE
  5
3C8
330
7E2
100
AcDbEntity
  8
YKK_13
  6
Continuous
100
AcDbLine
 10
608.49363616
 20
331.66585476
 30
0.0
 11
608.49364234
 21
335.66585304
 31
0.0
  0
LINE
  5
3C9
330
7E2
100
AcDbEntity
  8
YKK_13
100
AcDbLine
 10
606.24504406
 20
336.6658569
 30
0.0
 11
602.6814885
 21
333.10231356
 31
0.0
  0
LINE
  5
3CA
330
7E2
100
AcDbEntity
  8
YKK_13
100
AcDbLine
 10
608.49363981
 20
334.02605034
 30
0.0
 11
605.85384163
 21
336.66585757
 31
0.0
  0
LINE
  5
3CB
330
7E2
100
AcDbEntity
  8
YKK_13
  6
Continuous
100
AcDbLine
 10
608.49363616
 20
331.66585476
 30
0.0
 11
608.49364234
 21
335.66585304
 31
0.0
  0
LINE
  5
3CC
330
7E2
100
AcDbEntity
  8
YKK_13
  6
Continuous
100
AcDbLine
 10
613.49364234
 20
335.66584447
 30
0.0
 11
613.49363616
 21
331.66584618
 31
0.0
  0
LINE
  5
3CD
330
7E2
100
AcDbEntity
  8
YKK_13
100
AcDbLine
 10
606.19697538
 20
330.6658587
 30
0.0
 11
602.14196966
 21
334.72087833
 31
0.0
  0
LINE
  5
3CE
330
7E2
100
AcDbEntity
  8
YKK_13
  6
Continuous
100
AcDbLine
 10
601.49364405
 20
336.66586505
 30
0.0
 11
603.49363445
 21
330.66586334
 31
0.0
  0
LINE
  5
3CF
330
7E2
100
AcDbEntity
  8
YKK_12
  6
Continuous
100
AcDbLine
 10
603.79363445
 20
330.66585047
 30
0.0
 11
552.80005117
 21
330.66585047
 31
0.0
1001
YALIB
1000
YALIB1603
1000
 L=131 t1=6.8 t2=5 A=12 ta1=1 ta2= 1 SDFLG="1" AFLG1="1" AFLG2="0" MFLG="0" HFLG="0"  
  0
ARC
  5
3D0
330
7E2
100
AcDbEntity
  8
YKK_13
  6
Continuous
100
AcDbCircle
 10
609.49363616
 20
331.66585304
 30
0.0
 40
1.000000000000334
100
AcDbArc
 50
179.99990172
 51
269.99990172
  0
LINE
  5
3D1
330
7E2
100
AcDbEntity
  8
YKK_13
100
AcDbLine
 10
608.49363862
 20
333.25759919
 30
0.0
 11
605.90188974
 21
330.6658592
 31
0.0
  0
ARC
  5
3D2
330
7E2
100
AcDbEntity
  8
YKK_13
  6
Continuous
100
AcDbCircle
 10
609.49363616
 20
331.66585304
 30
0.0
 40
1.000000000000334
100
AcDbArc
 50
179.99990172
 51
269.99990172
  0
ARC
  5
3D3
330
7E2
100
AcDbEntity
  8
YKK_13
  6
Continuous
100
AcDbCircle
 10
612.49363616
 20
331.6658479
 30
0.0
 40
0.9999999999993111
100
AcDbArc
 50
269.99990172
 51
359.99990172
  0
LINE
  5
3D4
330
7E2
100
AcDbEntity
  8
YKK_13
  6
Continuous
100
AcDbLine
 10
603.49363445
 20
330.66586334
 30
0.0
 11
609.49363445
 21
330.66585304
 31
0.0
  0
LINE
  5
3D5
330
7E2
100
AcDbEntity
  8
YKK_13
100
AcDbLine
 10
608.9148423
 20
330.85037916
 30
0.0
 11
608.73031686
 21
330.66585435
 31
0.0
  0
LINE
  5
3D6
330
7E2
100
AcDbEntity
  8
YKK_13
  6
Continuous
100
AcDbLine
 10
612.49363445
 20
330.6658479
 30
0.0
 11
609.49363445
 21
330.66585304
 31
0.0
  0
LINE
  5
3D7
330
7E2
100
AcDbEntity
  8
YKK_13
100
AcDbLine
 10
612.82863845
 20
333.40084732
 30
0.0
 11
612.82863879
 21
333.60084732
 31
0.0
  0
LINE
  5
3D8
330
7E2
100
AcDbEntity
  8
YKK_13
100
AcDbLine
 10
609.99863845
 20
333.40085218
 30
0.0
 11
609.99863879
 21
333.60085218
 31
0.0
  0
LINE
  5
3D9
330
7E2
100
AcDbEntity
  8
YKK_13
100
AcDbLine
 10
611.41363602
 20
331.98584975
 30
0.0
 11
611.41363637
 21
332.18584975
 31
0.0
  0
LINE
  5
3DA
330
7E2
100
AcDbEntity
  8
YKK_13
100
AcDbLine
 10
608.58363602
 20
331.9858546
 30
0.0
 11
608.58363637
 21
332.1858546
 31
0.0
  0
LINE
  5
3DB
330
7E2
100
AcDbEntity
  8
YKK_12
  6
Continuous
100
AcDbLine
 10
603.79363445
 20
348.66585047
 30
0.0
 11
552.80005117
 21
348.66585047
 31
0.0
1001
YALIB
1000
YALIB1603
1000
 L=131 t1=6.8 t2=5 A=12 ta1=1 ta2= 1 SDFLG="1" AFLG1="1" AFLG2="0" MFLG="0" HFLG="0"  
  0
LINE
  5
3DC
330
7E2
100
AcDbEntity
  8
YKK_12
  6
Continuous
100
AcDbLine
 10
610.80005117
 20
341.66584961
 30
0.0
 11
552.80005117
 21
341.66584961
 31
0.0
1001
YALIB
1000
YALIB1601
1000
 L=246 t1=6.8 ta=1 SDFLG="0" MFLG="0" HFLG="0"  
  0
LINE
  5
3DD
330
7E2
100
AcDbEntity
  8
YKK_12
  6
Continuous
100
AcDbLine
 10
610.80005117
 20
336.66584909
 30
0.0
 11
552.80005117
 21
336.66584961
 31
0.0
1001
YALIB
1000
YALIB1601
1000
 L=246 t1=6.8 ta=1 SDFLG="0" MFLG="0" HFLG="0"  
  0
LINE
  5
3DE
330
7E2
100
AcDbEntity
  8
YKK_12
  6
Continuous
100
AcDbLine
 10
552.80005117
 20
337.66584961
 30
0.0
 11
610.80005117
 21
337.66584961
 31
0.0
1001
YALIB
1000
YALIB1601
1000
 L=246 t1=6.8 ta=1 SDFLG="0" MFLG="0" HFLG="0"  
  0
LINE
  5
3DF
330
7E2
100
AcDbEntity
  8
YKK_12
  6
Continuous
100
AcDbLine
 10
552.80005117
 20
342.66584961
 30
0.0
 11
610.80005117
 21
342.66584961
 31
0.0
1001
YALIB
1000
YALIB1601
1000
 L=246 t1=6.8 ta=1 SDFLG="0" MFLG="0" HFLG="0"  
  0
LINE
  5
3E0
330
7E2
100
AcDbEntity
  8
YKK_13
  6
Continuous
100
AcDbLine
 10
608.49363616
 20
347.66584618
 30
0.0
 11
608.49364234
 21
343.6658479
 31
0.0
  0
LINE
  5
3E1
330
7E2
100
AcDbEntity
  8
YKK_13
100
AcDbLine
 10
606.64504475
 20
342.66584473
 30
0.0
 11
602.78148821
 21
346.52938802
 31
0.0
  0
LINE
  5
3E2
330
7E2
100
AcDbEntity
  8
YKK_13
  6
Continuous
100
AcDbLine
 10
608.49363616
 20
347.66584618
 30
0.0
 11
608.49364234
 21
343.6658479
 31
0.0
  0
LINE
  5
3E3
330
7E2
100
AcDbEntity
  8
YKK_13
  6
Continuous
100
AcDbLine
 10
613.49364234
 20
343.66585647
 30
0.0
 11
613.49363616
 21
347.66585476
 31
0.0
  0
LINE
  5
3E4
330
7E2
100
AcDbEntity
  8
YKK_13
  6
Continuous
100
AcDbLine
 10
601.49364405
 20
342.66583589
 30
0.0
 11
603.49363445
 21
348.66583761
 31
0.0
  0
LINE
  5
3E5
330
7E2
100
AcDbEntity
  8
YKK_13
100
AcDbLine
 10
608.49385006
 20
343.64546803
 30
0.0
 11
603.48859168
 21
348.65070924
 31
0.0
  0
LINE
  5
3E6
330
7E2
100
AcDbEntity
  8
YKK_13
100
AcDbLine
 10
605.79697606
 20
348.66584156
 30
0.0
 11
602.34196848
 21
345.21082212
 31
0.0
  0
LINE
  5
3E7
330
7E2
100
AcDbEntity
  8
YKK_13
100
AcDbLine
 10
608.62540319
 20
348.66584641
 30
0.0
 11
602.62541519
 21
342.66583783
 31
0.0
  0
ARC
  5
3E8
330
7E2
100
AcDbEntity
  8
YKK_13
  6
Continuous
100
AcDbCircle
 10
609.49364234
 20
343.66584961
 30
0.0
 40
0.9999999999991974
100
AcDbArc
 50
180.00009828
 51
270.00009828
  0
LINE
  5
3E9
330
7E2
100
AcDbEntity
  8
YKK_13
100
AcDbLine
 10
609.47347188
 20
342.66584958
 30
0.0
 11
609.47326418
 21
342.66605727
 31
0.0
  0
LINE
  5
3EA
330
7E2
100
AcDbEntity
  8
YKK_13
100
AcDbLine
 10
608.49363919
 20
345.70564998
 30
0.0
 11
605.45384232
 21
342.66584268
 31
0.0
  0
LINE
  5
3EB
330
7E2
100
AcDbEntity
  8
YKK_13
100
AcDbLine
 10
608.68879213
 20
343.07237161
 30
0.0
 11
608.28226944
 21
342.66584753
 31
0.0
  0
ARC
  5
3EC
330
7E2
100
AcDbEntity
  8
YKK_13
  6
Continuous
100
AcDbCircle
 10
609.49364234
 20
343.66584961
 30
0.0
 40
0.9999999999991974
100
AcDbArc
 50
180.00009828
 51
270.00009828
  0
LINE
  5
3ED
330
7E2
100
AcDbEntity
  8
YKK_13
  6
Continuous
100
AcDbLine
 10
609.49364405
 20
342.66584961
 30
0.0
 11
612.49364405
 21
342.66585476
 31
0.0
  0
ARC
  5
3EE
330
7E2
100
AcDbEntity
  8
YKK_13
  6
Continuous
100
AcDbCircle
 10
612.49364234
 20
343.66585476
 30
0.0
 40
1.0000000000013
100
AcDbArc
 50
270.00009828
 51
0.00009828
  0
LINE
  5
3EF
330
7E2
100
AcDbEntity
  8
YKK_13
100
AcDbLine
 10
609.99864365
 20
343.30084876
 30
0.0
 11
609.99864399
 21
343.10084876
 31
0.0
  0
LINE
  5
3F0
330
7E2
100
AcDbEntity
  8
YKK_13
100
AcDbLine
 10
609.99863845
 20
346.33084876
 30
0.0
 11
609.99863879
 21
346.13084876
 31
0.0
  0
LINE
  5
3F1
330
7E2
100
AcDbEntity
  8
YKK_13
100
AcDbLine
 10
612.82864365
 20
343.30085362
 30
0.0
 11
612.82864395
 21
343.12363721
 31
0.0
  0
LINE
  5
3F2
330
7E2
100
AcDbEntity
  8
YKK_13
100
AcDbLine
 10
612.82863845
 20
346.33085362
 30
0.0
 11
612.82863879
 21
346.13085362
 31
0.0
  0
LINE
  5
3F3
330
7E2
100
AcDbEntity
  8
YKK_13
100
AcDbLine
 10
608.58364122
 20
344.71584634
 30
0.0
 11
608.58364156
 21
344.51584634
 31
0.0
  0
LINE
  5
3F4
330
7E2
100
AcDbEntity
  8
YKK_13
100
AcDbLine
 10
611.41364122
 20
344.71585119
 30
0.0
 11
611.41364156
 21
344.51585119
 31
0.0
  0
LINE
  5
3F5
330
7E2
100
AcDbEntity
  8
YKK_13
100
AcDbLine
 10
603.81661763
 20
342.66583987
 30
0.0
 11
602.07438473
 21
344.40806679
 31
0.0
  0
LINE
  5
3F6
330
7E2
100
AcDbEntity
  8
YKK_13
  6
Continuous
100
AcDbLine
 10
609.49364405
 20
342.66584961
 30
0.0
 11
601.49364405
 21
342.66583589
 31
0.0
  0
LINE
  5
3F7
330
7E2
100
AcDbEntity
  8
YKK_13
100
AcDbLine
 10
603.41661694
 20
336.66586175
 30
0.0
 11
601.97438503
 21
335.22363479
 31
0.0
  0
LINE
  5
3F8
330
7E2
100
AcDbEntity
  8
YKK_13
100
AcDbLine
 10
611.41364122
 20
335.01584975
 30
0.0
 11
611.41364156
 21
335.21584975
 31
0.0
  0
LINE
  5
3F9
330
7E2
100
AcDbEntity
  8
YKK_13
100
AcDbLine
 10
608.58364122
 20
335.0158546
 30
0.0
 11
608.58364156
 21
335.2158546
 31
0.0
  0
ARC
  5
3FA
330
7E2
100
AcDbEntity
  8
YKK_13
  6
Continuous
100
AcDbCircle
 10
609.49364234
 20
335.66585133
 30
0.0
 40
0.9999999999993111
100
AcDbArc
 50
89.99990172
 51
179.99990172
  0
LINE
  5
3FB
330
7E2
100
AcDbEntity
  8
YKK_13
100
AcDbLine
 10
608.88716708
 20
336.46095369
 30
0.0
 11
608.68226876
 21
336.66585272
 31
0.0
  0
ARC
  5
3FC
330
7E2
100
AcDbEntity
  8
YKK_13
  6
Continuous
100
AcDbCircle
 10
609.49364234
 20
335.66585133
 30
0.0
 40
0.9999999999993111
100
AcDbArc
 50
89.99990172
 51
179.99990172
  0
LINE
  5
3FD
330
7E2
100
AcDbEntity
  8
YKK_13
  6
Continuous
100
AcDbLine
 10
609.49364405
 20
336.66585133
 30
0.0
 11
612.49364405
 21
336.66584618
 31
0.0
  0
ARC
  5
3FE
330
7E2
100
AcDbEntity
  8
YKK_13
  6
Continuous
100
AcDbCircle
 10
612.49364234
 20
335.66584618
 30
0.0
 40
1.000000000001357
100
AcDbArc
 50
359.99990172
 51
89.99990172
  0
LINE
  5
3FF
330
7E2
100
AcDbEntity
  8
YKK_13
100
AcDbLine
 10
612.82864365
 20
336.43084732
 30
0.0
 11
612.82864395
 21
336.60806374
 31
0.0
  0
LINE
  5
400
330
7E2
100
AcDbEntity
  8
YKK_13
100
AcDbLine
 10
609.99864365
 20
336.43085218
 30
0.0
 11
609.99864399
 21
336.63085218
 31
0.0
  0
LINE
  5
401
330
7E2
100
AcDbEntity
  8
YKK_13
  6
Continuous
100
AcDbLine
 10
609.49364405
 20
336.66585133
 30
0.0
 11
601.49364405
 21
336.66586505
 31
0.0
  0
LINE
  5
402
330
7E2
100
AcDbEntity
  8
YKK_12
  6
Continuous
100
AcDbLine
 10
610.80005117
 20
342.66584961
 30
0.0
 11
610.80005117
 21
336.66584961
 31
0.0
1001
YALIB
1000
YALIB1601
1000
 L=246 t1=6.8 ta=1 SDFLG="0" MFLG="0" HFLG="0"  
  0
LINE
  5
403
330
7E2
100
AcDbEntity
  8
YKK_13
  6
Continuous
100
AcDbLine
 10
603.49363445
 20
348.66583761
 30
0.0
 11
609.49363445
 21
348.6658479
 31
0.0
  0
LINE
  5
404
330
7E2
100
AcDbEntity
  8
YKK_13
100
AcDbLine
 10
609.18058187
 20
348.61558313
 30
0.0
 11
609.13031755
 21
348.66584727
 31
0.0
  0
LINE
  5
405
330
7E2
100
AcDbEntity
  8
YKK_13
  6
Continuous
100
AcDbLine
 10
612.49363445
 20
348.66585304
 30
0.0
 11
609.49363445
 21
348.6658479
 31
0.0
  0
LINE
  5
406
330
7E2
100
AcDbEntity
  8
YKK_13
100
AcDbLine
 10
608.58363602
 20
347.74584634
 30
0.0
 11
608.58363637
 21
347.54584634
 31
0.0
  0
LINE
  5
407
330
7E2
100
AcDbEntity
  8
YKK_13
100
AcDbLine
 10
611.41363602
 20
347.74585119
 30
0.0
 11
611.41363637
 21
347.54585119
 31
0.0
  0
ARC
  5
408
330
7E2
100
AcDbEntity
  8
YKK_13
  6
Continuous
100
AcDbCircle
 10
609.49363616
 20
347.6658479
 30
0.0
 40
1.000000000000277
100
AcDbArc
 50
90.00009828
 51
180.00009828
  0
LINE
  5
409
330
7E2
100
AcDbEntity
  8
YKK_13
100
AcDbLine
 10
608.493638
 20
346.47410236
 30
0.0
 11
606.30189042
 21
348.66584242
 31
0.0
  0
ARC
  5
40A
330
7E2
100
AcDbEntity
  8
YKK_13
  6
Continuous
100
AcDbCircle
 10
609.49363616
 20
347.6658479
 30
0.0
 40
1.000000000000277
100
AcDbArc
 50
90.00009828
 51
180.00009828
  0
ARC
  5
40B
330
7E2
100
AcDbEntity
  8
YKK_13
  6
Continuous
100
AcDbCircle
 10
612.49363616
 20
347.66585304
 30
0.0
 40
0.9999999999991974
100
AcDbArc
 50
0.00009828
 51
90.00009828
  0
LINE
  5
40C
330
7E2
100
AcDbEntity
  8
YKK_13
  6
Continuous
100
AcDbLine
 10
644.10645828
 20
336.66586505
 30
0.0
 11
642.10646789
 21
330.66586334
 31
0.0
  0
LINE
  5
40D
330
7E2
100
AcDbEntity
  8
YKK_13
100
AcDbLine
 10
636.52663115
 20
336.66585205
 30
0.0
 11
642.21151036
 21
330.98099234
 31
0.0
  0
LINE
  5
40E
330
7E2
100
AcDbEntity
  8
YKK_13
100
AcDbLine
 10
636.57469983
 20
330.66585385
 30
0.0
 11
642.57468783
 21
336.66586242
 31
0.0
  0
LINE
  5
40F
330
7E2
100
AcDbEntity
  8
YKK_13
  6
Continuous
100
AcDbLine
 10
637.10646617
 20
331.66585476
 30
0.0
 11
637.10646
 21
335.66585304
 31
0.0
  0
LINE
  5
410
330
7E2
100
AcDbEntity
  8
YKK_13
100
AcDbLine
 10
639.35505827
 20
336.6658569
 30
0.0
 11
642.91861383
 21
333.10231356
 31
0.0
  0
LINE
  5
411
330
7E2
100
AcDbEntity
  8
YKK_13
100
AcDbLine
 10
637.10646253
 20
334.02605034
 30
0.0
 11
639.7462607
 21
336.66585757
 31
0.0
  0
LINE
  5
412
330
7E2
100
AcDbEntity
  8
YKK_13
  6
Continuous
100
AcDbLine
 10
637.10646617
 20
331.66585476
 30
0.0
 11
637.10646
 21
335.66585304
 31
0.0
  0
LINE
  5
413
330
7E2
100
AcDbEntity
  8
YKK_13
100
AcDbLine
 10
639.40312696
 20
330.6658587
 30
0.0
 11
643.45813267
 21
334.72087833
 31
0.0
  0
LINE
  5
414
330
7E2
100
AcDbEntity
  8
YKK_13
  6
Continuous
100
AcDbLine
 10
632.10646
 20
335.66584447
 30
0.0
 11
632.10646617
 21
331.66584618
 31
0.0
  0
ARC
  5
415
330
7E2
100
AcDbEntity
  8
YKK_13
  6
Continuous
100
AcDbCircle
 10
636.10646617
 20
331.66585304
 30
0.0
 40
1.000000000000334
100
AcDbArc
 50
270.00009828
 51
0.00009828
  0
LINE
  5
416
330
7E2
100
AcDbEntity
  8
YKK_13
100
AcDbLine
 10
637.10646372
 20
333.25759919
 30
0.0
 11
639.6982126
 21
330.6658592
 31
0.0
  0
ARC
  5
417
330
7E2
100
AcDbEntity
  8
YKK_13
  6
Continuous
100
AcDbCircle
 10
636.10646617
 20
331.66585304
 30
0.0
 40
1.000000000000334
100
AcDbArc
 50
270.00009828
 51
0.00009828
  0
LINE
  5
418
330
7E2
100
AcDbEntity
  8
YKK_13
  6
Continuous
100
AcDbLine
 10
642.10646789
 20
330.66586334
 30
0.0
 11
636.10646789
 21
330.66585304
 31
0.0
  0
LINE
  5
419
330
7E2
100
AcDbEntity
  8
YKK_13
100
AcDbLine
 10
636.68526004
 20
330.85037916
 30
0.0
 11
636.86978547
 21
330.66585435
 31
0.0
  0
LINE
  5
41A
330
7E2
100
AcDbEntity
  8
YKK_13
100
AcDbLine
 10
635.60146388
 20
333.40085218
 30
0.0
 11
635.60146354
 21
333.60085218
 31
0.0
  0
LINE
  5
41B
330
7E2
100
AcDbEntity
  8
YKK_13
100
AcDbLine
 10
637.01646631
 20
331.9858546
 30
0.0
 11
637.01646597
 21
332.1858546
 31
0.0
  0
LINE
  5
41C
330
7E2
100
AcDbEntity
  8
YKK_13
100
AcDbLine
 10
634.18646631
 20
331.98584975
 30
0.0
 11
634.18646597
 21
332.18584975
 31
0.0
  0
ARC
  5
41D
330
7E2
100
AcDbEntity
  8
YKK_13
  6
Continuous
100
AcDbCircle
 10
633.10646617
 20
331.6658479
 30
0.0
 40
0.9999999999991974
100
AcDbArc
 50
180.00009828
 51
270.00009828
  0
LINE
  5
41E
330
7E2
100
AcDbEntity
  8
YKK_13
100
AcDbLine
 10
632.77146388
 20
333.40084732
 30
0.0
 11
632.77146354
 21
333.60084732
 31
0.0
  0
LINE
  5
41F
330
7E2
100
AcDbEntity
  8
YKK_13
  6
Continuous
100
AcDbLine
 10
633.10646789
 20
330.6658479
 30
0.0
 11
636.10646789
 21
330.66585304
 31
0.0
  0
LINE
  5
420
330
7E2
100
AcDbEntity
  8
YKK_13
  6
Continuous
100
AcDbLine
 10
637.10646617
 20
347.66584618
 30
0.0
 11
637.10646
 21
343.6658479
 31
0.0
  0
LINE
  5
421
330
7E2
100
AcDbEntity
  8
YKK_13
100
AcDbLine
 10
638.95505758
 20
342.66584473
 30
0.0
 11
642.81861413
 21
346.52938802
 31
0.0
  0
LINE
  5
422
330
7E2
100
AcDbEntity
  8
YKK_13
  6
Continuous
100
AcDbLine
 10
637.10646617
 20
347.66584618
 30
0.0
 11
637.10646
 21
343.6658479
 31
0.0
  0
LINE
  5
424
330
7E2
100
AcDbEntity
  8
YKK_13
  6
Continuous
100
AcDbLine
 10
632.10646
 20
343.66585647
 30
0.0
 11
632.10646617
 21
347.66585476
 31
0.0
  0
LINE
  5
426
330
7E2
100
AcDbEntity
  8
YKK_13
  6
Continuous
100
AcDbLine
 10
644.10645828
 20
342.66583589
 30
0.0
 11
642.10646789
 21
348.66583761
 31
0.0
  0
LINE
  5
427
330
7E2
100
AcDbEntity
  8
YKK_13
100
AcDbLine
 10
637.10625227
 20
343.64546803
 30
0.0
 11
642.11151065
 21
348.65070924
 31
0.0
  0
LINE
  5
428
330
7E2
100
AcDbEntity
  8
YKK_13
100
AcDbLine
 10
636.97469915
 20
348.66584641
 30
0.0
 11
642.97468714
 21
342.66583783
 31
0.0
  0
LINE
  5
429
330
7E2
100
AcDbEntity
  8
YKK_13
100
AcDbLine
 10
639.80312627
 20
348.66584156
 30
0.0
 11
643.25813386
 21
345.21082212
 31
0.0
  0
LINE
  5
42D
330
7E2
100
AcDbEntity
  8
YKK_13
  6
Continuous
100
AcDbLine
 10
636.10645828
 20
342.66584961
 30
0.0
 11
644.10645828
 21
342.66583589
 31
0.0
  0
ARC
  5
42E
330
7E2
100
AcDbEntity
  8
YKK_13
  6
Continuous
100
AcDbCircle
 10
636.10646
 20
343.66584961
 30
0.0
 40
0.9999999999993111
100
AcDbArc
 50
269.99990172
 51
359.99990172
  0
LINE
  5
42F
330
7E2
100
AcDbEntity
  8
YKK_13
100
AcDbLine
 10
641.78348471
 20
342.66583987
 30
0.0
 11
643.5257176
 21
344.40806679
 31
0.0
  0
LINE
  5
430
330
7E2
100
AcDbEntity
  8
YKK_13
100
AcDbLine
 10
636.12663046
 20
342.66584958
 30
0.0
 11
636.12683815
 21
342.66605727
 31
0.0
  0
LINE
  5
431
330
7E2
100
AcDbEntity
  8
YKK_13
100
AcDbLine
 10
636.91131021
 20
343.07237161
 30
0.0
 11
637.31783289
 21
342.66584753
 31
0.0
  0
LINE
  5
432
330
7E2
100
AcDbEntity
  8
YKK_13
100
AcDbLine
 10
637.10646315
 20
345.70564998
 30
0.0
 11
640.14626001
 21
342.66584268
 31
0.0
  0
ARC
  5
433
330
7E2
100
AcDbEntity
  8
YKK_13
  6
Continuous
100
AcDbCircle
 10
636.10646
 20
343.66584961
 30
0.0
 40
0.9999999999993111
100
AcDbArc
 50
269.99990172
 51
359.99990172
  0
LINE
  5
434
330
7E2
100
AcDbEntity
  8
YKK_13
100
AcDbLine
 10
635.60145869
 20
343.30084876
 30
0.0
 11
635.60145834
 21
343.10084876
 31
0.0
  0
LINE
  5
435
330
7E2
100
AcDbEntity
  8
YKK_13
100
AcDbLine
 10
635.60146388
 20
346.33084876
 30
0.0
 11
635.60146354
 21
346.13084876
 31
0.0
  0
LINE
  5
436
330
7E2
100
AcDbEntity
  8
YKK_13
100
AcDbLine
 10
634.18646111
 20
344.71585119
 30
0.0
 11
634.18646077
 21
344.51585119
 31
0.0
  0
LINE
  5
437
330
7E2
100
AcDbEntity
  8
YKK_13
100
AcDbLine
 10
637.01646111
 20
344.71584634
 30
0.0
 11
637.01646077
 21
344.51584634
 31
0.0
  0
ARC
  5
438
330
7E2
100
AcDbEntity
  8
YKK_13
  6
Continuous
100
AcDbCircle
 10
633.10646
 20
343.66585476
 30
0.0
 40
1.0000000000013
100
AcDbArc
 50
179.99990172
 51
269.99990172
  0
LINE
  5
439
330
7E2
100
AcDbEntity
  8
YKK_13
100
AcDbLine
 10
632.77145869
 20
343.30085362
 30
0.0
 11
632.77145838
 21
343.12363721
 31
0.0
  0
LINE
  5
43A
330
7E2
100
AcDbEntity
  8
YKK_13
100
AcDbLine
 10
632.77146388
 20
346.33085362
 30
0.0
 11
632.77146354
 21
346.13085362
 31
0.0
  0
LINE
  5
43C
330
7E2
100
AcDbEntity
  8
YKK_13
  6
Continuous
100
AcDbLine
 10
636.10645828
 20
342.66584961
 30
0.0
 11
633.10645828
 21
342.66585476
 31
0.0
  0
LINE
  5
43D
330
7E2
100
AcDbEntity
  8
YKK_13
100
AcDbLine
 10
642.18348539
 20
336.66586175
 30
0.0
 11
643.62571731
 21
335.22363479
 31
0.0
  0
LINE
  5
43E
330
7E2
100
AcDbEntity
  8
YKK_13
100
AcDbLine
 10
637.01646111
 20
335.0158546
 30
0.0
 11
637.01646077
 21
335.2158546
 31
0.0
  0
LINE
  5
43F
330
7E2
100
AcDbEntity
  8
YKK_13
100
AcDbLine
 10
634.18646111
 20
335.01584975
 30
0.0
 11
634.18646077
 21
335.21584975
 31
0.0
  0
LINE
  5
440
330
7E2
100
AcDbEntity
  8
YKK_13
  6
Continuous
100
AcDbLine
 10
636.10645828
 20
336.66585133
 30
0.0
 11
644.10645828
 21
336.66586505
 31
0.0
  0
ARC
  5
441
330
7E2
100
AcDbEntity
  8
YKK_13
  6
Continuous
100
AcDbCircle
 10
636.10646
 20
335.66585133
 30
0.0
 40
0.9999999999993111
100
AcDbArc
 50
0.00009828
 51
90.00009828
  0
LINE
  5
442
330
7E2
100
AcDbEntity
  8
YKK_13
100
AcDbLine
 10
636.71293525
 20
336.46095369
 30
0.0
 11
636.91783358
 21
336.66585272
 31
0.0
  0
LINE
  5
443
330
7E2
100
AcDbEntity
  8
YKK_13
100
AcDbLine
 10
635.60145869
 20
336.43085218
 30
0.0
 11
635.60145834
 21
336.63085218
 31
0.0
  0
ARC
  5
444
330
7E2
100
AcDbEntity
  8
YKK_13
  6
Continuous
100
AcDbCircle
 10
636.10646
 20
335.66585133
 30
0.0
 40
0.9999999999993111
100
AcDbArc
 50
0.00009828
 51
90.00009828
  0
LINE
  5
445
330
7E2
100
AcDbEntity
  8
YKK_13
100
AcDbLine
 10
632.77145869
 20
336.43084732
 30
0.0
 11
632.77145838
 21
336.60806374
 31
0.0
  0
ARC
  5
446
330
7E2
100
AcDbEntity
  8
YKK_13
  6
Continuous
100
AcDbCircle
 10
633.10646
 20
335.66584618
 30
0.0
 40
1.000000000001357
100
AcDbArc
 50
90.00009828
 51
180.00009828
  0
LINE
  5
447
330
7E2
100
AcDbEntity
  8
YKK_13
  6
Continuous
100
AcDbLine
 10
636.10645828
 20
336.66585133
 30
0.0
 11
633.10645828
 21
336.66584618
 31
0.0
  0
LINE
  5
448
330
7E2
100
AcDbEntity
  8
YKK_12
  6
Continuous
100
AcDbLine
 10
634.80005117
 20
342.66584961
 30
0.0
 11
634.80005117
 21
336.66584961
 31
0.0
1001
YALIB
1000
YALIB1601
1000
 L=246 t1=6.8 ta=1 SDFLG="0" MFLG="0" HFLG="0"  
  0
LINE
  5
44B
330
7E2
100
AcDbEntity
  8
YKK_13
  6
Continuous
100
AcDbLine
 10
642.10646789
 20
348.66583761
 30
0.0
 11
636.10646789
 21
348.6658479
 31
0.0
  0
LINE
  5
44C
330
7E2
100
AcDbEntity
  8
YKK_13
100
AcDbLine
 10
636.41952047
 20
348.61558313
 30
0.0
 11
636.46978479
 21
348.66584727
 31
0.0
  0
LINE
  5
44D
330
7E2
100
AcDbEntity
  8
YKK_13
  6
Continuous
100
AcDbLine
 10
633.10646789
 20
348.66585304
 30
0.0
 11
636.10646789
 21
348.6658479
 31
0.0
  0
LINE
  5
44E
330
7E2
100
AcDbEntity
  8
YKK_13
100
AcDbLine
 10
634.18646631
 20
347.74585119
 30
0.0
 11
634.18646597
 21
347.54585119
 31
0.0
  0
LINE
  5
44F
330
7E2
100
AcDbEntity
  8
YKK_13
100
AcDbLine
 10
637.01646631
 20
347.74584634
 30
0.0
 11
637.01646597
 21
347.54584634
 31
0.0
  0
ARC
  5
450
330
7E2
100
AcDbEntity
  8
YKK_13
  6
Continuous
100
AcDbCircle
 10
636.10646617
 20
347.6658479
 30
0.0
 40
1.000000000000277
100
AcDbArc
 50
359.99990172
 51
89.99990172
  0
LINE
  5
451
330
7E2
100
AcDbEntity
  8
YKK_13
100
AcDbLine
 10
637.10646433
 20
346.47410236
 30
0.0
 11
639.29821191
 21
348.66584242
 31
0.0
  0
ARC
  5
452
330
7E2
100
AcDbEntity
  8
YKK_13
  6
Continuous
100
AcDbCircle
 10
636.10646617
 20
347.6658479
 30
0.0
 40
1.000000000000277
100
AcDbArc
 50
359.99990172
 51
89.99990172
  0
ARC
  5
453
330
7E2
100
AcDbEntity
  8
YKK_13
  6
Continuous
100
AcDbCircle
 10
633.10646617
 20
347.66585304
 30
0.0
 40
0.9999999999991974
100
AcDbArc
 50
89.99990172
 51
179.99990172
  0
LINE
  5
454
330
7E2
100
AcDbEntity
  8
YKK_A1
  6
ByBlock
100
AcDbLine
 10
662.0500182
 20
468.8000014
 30
0.0
 11
690.5500182
 21
468.8000014
 31
0.0
1001
ACDBBLOCKREPETAG
1070
     1
1071
       23
1005
46C
1001
YOBJCUT11022134159
1000
ELV2
  0
LINE
  5
456
330
7E2
100
AcDbEntity
  8
YKK_A1
  6
ByBlock
100
AcDbLine
 10
630.5500182
 20
469.9000014
 30
0.0
 11
691.5500182
 21
469.9000014
 31
0.0
1001
ACDBBLOCKREPETAG
1070
     1
1071
       21
1005
456
  0
LINE
  5
457
330
7E2
100
AcDbEntity
  8
YKK_A1
  6
ByBlock
100
AcDbLine
 10
629.3000182
 20
471.4000014
 30
0.0
 11
692.8000182
 21
471.4000014
 31
0.0
1001
ACDBBLOCKREPETAG
1070
     1
1071
       19
1005
457
  0
LINE
  5
458
330
7E2
100
AcDbEntity
  8
YKK_A1
  6
ByBlock
100
AcDbLine
 10
630.5500182
 20
439.9000014
 30
0.0
 11
691.5500182
 21
439.9000014
 31
0.0
1001
ACDBBLOCKREPETAG
1070
     1
1071
       24
1005
458
  0
LINE
  5
459
330
7E2
100
AcDbEntity
  8
YKK_A1
  6
ByBlock
100
AcDbLine
 10
629.3000182
 20
437.9000014
 30
0.0
 11
692.8000182
 21
437.9000014
 31
0.0
1001
ACDBBLOCKREPETAG
1070
     1
1071
       17
1005
459
  0
LINE
  5
45A
330
7E2
100
AcDbEntity
  8
YKK_A1
  6
ByBlock
100
AcDbLine
 10
551.39001341
 20
439.9000014
 30
0.0
 11
551.39001341
 21
468.8000014
 31
0.0
1001
ACDBBLOCKREPETAG
1070
     1
1071
       31
1005
45A
  0
LINE
  5
45B
330
7E2
100
AcDbEntity
  8
YKK_A1
  6
ByBlock
100
AcDbLine
 10
579.39001341
 20
439.9000014
 30
0.0
 11
579.39001341
 21
468.8000014
 31
0.0
1001
ACDBBLOCKREPETAG
1070
     1
1071
       30
1005
45B
  0
LINE
  5
45C
330
7E2
100
AcDbEntity
  8
YKK_A1
  6
ByBlock
100
AcDbLine
 10
631.5500182
 20
439.9000014
 30
0.0
 11
631.5500182
 21
468.8000014
 31
0.0
1001
ACDBBLOCKREPETAG
1070
     1
1071
       31
1005
45C
  0
LINE
  5
45D
330
7E2
100
AcDbEntity
  8
YKK_A1
  6
ByBlock
100
AcDbLine
 10
630.5500182
 20
439.9000014
 30
0.0
 11
630.5500182
 21
469.9000014
 31
0.0
1001
ACDBBLOCKREPETAG
1070
     1
1071
       27
1005
45D
  0
LINE
  5
45E
330
7E2
100
AcDbEntity
  8
YKK_A1
  6
ByBlock
100
AcDbLine
 10
629.3000182
 20
437.9000014
 30
0.0
 11
629.3000182
 21
471.4000014
 31
0.0
1001
ACDBBLOCKREPETAG
1070
     1
1071
       20
1005
45E
  0
LINE
  5
45F
330
7E2
100
AcDbEntity
  8
YKK_A1
  6
ByBlock
100
AcDbLine
 10
581.39001341
 20
439.9000014
 30
0.0
 11
581.39001341
 21
469.9000014
 31
0.0
1001
ACDBBLOCKREPETAG
1070
     1
1071
       18
1005
45F
  0
LINE
  5
460
330
7E2
100
AcDbEntity
  8
YKK_A1
  6
ByBlock
100
AcDbLine
 10
610.39001341
 20
439.9000014
 30
0.0
 11
610.39001341
 21
468.8000014
 31
0.0
1001
ACDBBLOCKREPETAG
1070
     1
1071
       37
1005
460
  0
LINE
  5
461
330
7E2
100
AcDbEntity
  8
YKK_A1
  6
ByBlock
100
AcDbLine
 10
611.39001341
 20
439.9000014
 30
0.0
 11
611.39001341
 21
469.9000014
 31
0.0
1001
ACDBBLOCKREPETAG
1070
     1
1071
       36
1005
461
  0
LINE
  5
462
330
7E2
100
AcDbEntity
  8
YKK_A1
  6
ByBlock
100
AcDbLine
 10
612.64001341
 20
437.9000014
 30
0.0
 11
612.64001341
 21
471.4000014
 31
0.0
1001
ACDBBLOCKREPETAG
1070
     1
1071
       35
1005
462
  0
LINE
  5
463
330
7E2
100
AcDbEntity
  8
YKK_A1
  6
ByBlock
100
AcDbLine
 10
582.39001341
 20
439.9000014
 30
0.0
 11
582.39001341
 21
468.8000014
 31
0.0
1001
ACDBBLOCKREPETAG
1070
     1
1071
       34
1005
463
  0
LINE
  5
464
330
7E2
100
AcDbEntity
  8
YKK_A1
  6
ByBlock
100
AcDbLine
 10
580.39001341
 20
439.9000014
 30
0.0
 11
580.39001341
 21
469.9000014
 31
0.0
1001
ACDBBLOCKREPETAG
1070
     1
1071
       26
1005
464
  0
LINE
  5
465
330
7E2
100
AcDbEntity
  8
YKK_A1
  6
ByBlock
100
AcDbLine
 10
662.0500182
 20
439.9000014
 30
0.0
 11
662.0500182
 21
469.9000014
 31
0.0
1001
ACDBBLOCKREPETAG
1070
     1
1071
       34
1005
465
  0
LINE
  5
466
330
7E2
100
AcDbEntity
  8
YKK_A1
  6
ByBlock
100
AcDbLine
 10
660.0500182
 20
439.9000014
 30
0.0
 11
660.0500182
 21
469.9000014
 31
0.0
1001
ACDBBLOCKREPETAG
1070
     1
1071
       30
1005
466
  0
TEXT
  5
467
330
7E2
100
AcDbEntity
  8
YKK_A1
100
AcDbText
 10
573.81677314
 20
440.22358016
 30
0.0
 40
6.0
  1
F
 41
0.8
100
AcDbText
1001
ACAD
1000
MTEXTBEGIN
1070
    73
1070
     1
1070
    44
1040
1.0
1070
    74
1070
     0
1000
MTEXTEND
1000
MTEXTBEGIN
1070
    73
1070
     1
1070
    44
1040
1.0
1070
    74
1070
     0
1000
MTEXTEND
  0
TEXT
  5
468
330
7E2
100
AcDbEntity
  8
YKK_A1
100
AcDbText
 10
604.7464408
 20
440.71561632
 30
0.0
 40
6.0
  1
F
 41
0.8
100
AcDbText
1001
ACAD
1000
MTEXTBEGIN
1070
    73
1070
     1
1070
    44
1040
1.0
1070
    74
1070
     0
1000
MTEXTEND
1000
MTEXTBEGIN
1070
    73
1070
     1
1070
    44
1040
1.0
1070
    74
1070
     0
1000
MTEXTEND
  0
TEXT
  5
469
330
7E2
100
AcDbEntity
  8
YKK_A1
100
AcDbText
 10
654.82076535
 20
440.36416197
 30
0.0
 40
6.0
  1
F
 41
0.8
100
AcDbText
1001
ACAD
1000
MTEXTBEGIN
1070
    73
1070
     1
1070
    44
1040
1.0
1070
    74
1070
     0
1000
MTEXTEND
1000
MTEXTBEGIN
1070
    73
1070
     1
1070
    44
1040
1.0
1070
    74
1070
     0
1000
MTEXTEND
  0
LINE
  5
46A
330
7E2
100
AcDbEntity
  8
YKK_A1
  6
ByBlock
100
AcDbLine
 10
581.39001341
 20
468.8000014
 30
0.0
 11
610.39001341
 21
468.8000014
 31
0.0
1001
ACDBBLOCKREPETAG
1070
     1
1071
       38
1005
46A
  0
LINE
  5
46B
330
7E2
100
AcDbEntity
  8
YKK_A1
  6
ByBlock
100
AcDbLine
 10
551.39001341
 20
468.8000014
 30
0.0
 11
580.39001341
 21
468.8000014
 31
0.0
1001
ACDBBLOCKREPETAG
1070
     1
1071
       23
1005
46B
  0
LINE
  5
46C
330
7E2
100
AcDbEntity
  8
YKK_A1
  6
ByBlock
100
AcDbLine
 10
631.5500182
 20
468.8000014
 30
0.0
 11
660.0500182
 21
468.8000014
 31
0.0
1001
ACDBBLOCKREPETAG
1070
     1
1071
       23
1005
46C
1001
YOBJCUT11022134159
1000
ELV2
  0
LINE
  5
46D
330
7E2
100
AcDbEntity
  8
YKK_A1
  6
ByBlock
100
AcDbLine
 10
690.5500182
 20
439.9000014
 30
0.0
 11
690.5500182
 21
468.8000014
 31
0.0
1001
ACDBBLOCKREPETAG
1070
     1
1071
       37
1005
46D
  0
LINE
  5
46E
330
7E2
100
AcDbEntity
  8
YKK_A1
  6
ByBlock
100
AcDbLine
 10
691.5500182
 20
439.9000014
 30
0.0
 11
691.5500182
 21
469.9000014
 31
0.0
1001
ACDBBLOCKREPETAG
1070
     1
1071
       36
1005
46E
  0
LINE
  5
46F
330
7E2
100
AcDbEntity
  8
YKK_A1
  6
ByBlock
100
AcDbLine
 10
692.8000182
 20
437.9000014
 30
0.0
 11
692.8000182
 21
471.4000014
 31
0.0
1001
ACDBBLOCKREPETAG
1070
     1
1071
       35
1005
46F
  0
TEXT
  5
470
330
7E2
100
AcDbEntity
  8
YKK_A1
100
AcDbText
 10
684.12511665
 20
440.64532547
 30
0.0
 40
6.0
  1
F
 41
0.8
100
AcDbText
1001
ACAD
1000
MTEXTBEGIN
1070
    73
1070
     1
1070
    44
1040
1.0
1070
    74
1070
     0
1000
MTEXTEND
1000
MTEXTBEGIN
1070
    73
1070
     1
1070
    44
1040
1.0
1070
    74
1070
     0
1000
MTEXTEND
  0
ENDSEC
  0
SECTION
  2
OBJECTS
  0
DICTIONARY
  5
77F
330
0
100
AcDbDictionary
281
     1
  3
ACAD_CIP_PREVIOUS_PRODUCT_INFO
350
805
  3
ACAD_COLOR
350
7D5
  3
ACAD_DETAILVIEWSTYLE
350
7DC
  3
ACAD_GROUP
350
780
  3
ACAD_LAYOUT
350
7D4
  3
ACAD_MATERIAL
350
783
  3
ACAD_MLEADERSTYLE
350
7D8
  3
ACAD_MLINESTYLE
350
7D1
  3
ACAD_PLOTSETTINGS
350
7D3
  3
ACAD_PLOTSTYLENAME
350
781
  3
ACAD_SCALELIST
350
7B5
  3
ACAD_SECTIONVIEWSTYLE
350
7DA
  3
ACAD_TABLESTYLE
350
7D6
  3
ACAD_VISUALSTYLE
350
79C
  3
ACDB_RECOMPOSE_DATA
350
814
  3
AcDbVariableDictionary
350
807
  0
XRECORD
  5
805
102
{ACAD_REACTORS
330
77F
102
}
330
77F
100
AcDbXrecord
280
     1
300
ACD
300
2014
300
86063ACD_2014_0F
  0
DICTIONARY
  5
7D5
102
{ACAD_REACTORS
330
77F
102
}
330
77F
100
AcDbDictionary
281
     1
  0
DICTIONARY
  5
7DC
102
{ACAD_REACTORS
330
77F
102
}
330
77F
100
AcDbDictionary
281
     1
  3
Imperial24
350
7DD
  0
DICTIONARY
  5
780
102
{ACAD_REACTORS
330
77F
102
}
330
77F
100
AcDbDictionary
281
     1
  0
DICTIONARY
  5
7D4
102
{ACAD_REACTORS
330
77F
102
}
330
77F
100
AcDbDictionary
281
     1
  3
Model
350
7E5
  3
レイアウト1
350
7E1
  0
DICTIONARY
  5
783
102
{ACAD_REACTORS
330
77F
102
}
330
77F
100
AcDbDictionary
281
     1
  3
ByBlock
350
78C
  3
ByLayer
350
784
  3
Global
350
794
  0
DICTIONARY
  5
7D8
102
{ACAD_REACTORS
330
77F
102
}
330
77F
100
AcDbDictionary
281
     1
  3
Standard
350
7D9
  0
DICTIONARY
  5
7D1
102
{ACAD_REACTORS
330
77F
102
}
330
77F
100
AcDbDictionary
281
     1
  3
Standard
350
7D2
  0
DICTIONARY
  5
7D3
102
{ACAD_REACTORS
330
77F
102
}
330
77F
100
AcDbDictionary
281
     1
  0
ACDBDICTIONARYWDFLT
  5
781
102
{ACAD_REACTORS
330
77F
102
}
330
77F
100
AcDbDictionary
281
     1
  3
Normal
350
782
100
AcDbDictionaryWithDefault
340
782
  0
DICTIONARY
  5
7B5
102
{ACAD_REACTORS
330
77F
102
}
330
77F
100
AcDbDictionary
281
     1
  3
A0
350
7B6
  3
A1
350
7B7
  3
A2
350
7B8
  3
A3
350
7B9
  3
A4
350
7BA
  3
A5
350
7BB
  3
A6
350
7BC
  3
A7
350
7BD
  3
A8
350
7BE
  3
A9
350
7BF
  3
B0
350
7C0
  3
B1
350
7C1
  3
B2
350
7C2
  3
B3
350
7C3
  3
B4
350
7C4
  3
B5
350
7C5
  3
B6
350
7C6
  0
DICTIONARY
  5
7DA
102
{ACAD_REACTORS
330
77F
102
}
330
77F
100
AcDbDictionary
281
     1
  3
Imperial24
350
7DB
  0
DICTIONARY
  5
7D6
102
{ACAD_REACTORS
330
77F
102
}
330
77F
100
AcDbDictionary
281
     1
  3
Standard
350
7D7
  0
DICTIONARY
  5
79C
102
{ACAD_REACTORS
330
77F
102
}
330
77F
100
AcDbDictionary
281
     1
  3
2dWireframe
350
7A2
  3
Basic
350
7A1
  3
Brighten
350
7A8
  3
ColorChange
350
7AC
  3
Conceptual
350
7A5
  3
Dim
350
7A7
  3
EdgeColorOff
350
7B4
  3
Facepattern
350
7AB
  3
Flat
350
79D
  3
FlatWithEdges
350
79E
  3
Gouraud
350
79F
  3
GouraudWithEdges
350
7A0
  3
Hidden
350
7A4
  3
JitterOff
350
7B2
  3
Linepattern
350
7AA
  3
OverhangOff
350
7B3
  3
Realistic
350
7A6
  3
Shaded
350
7B1
  3
Shaded with edges
350
7B0
  3
Shades of Gray
350
7AD
  3
Sketchy
350
7AE
  3
Thicken
350
7A9
  3
Wireframe
350
7A3
  3
X-Ray
350
7AF
  0
XRECORD
  5
814
102
{ACAD_REACTORS
330
77F
102
}
330
77F
100
AcDbXrecord
280
     1
 90
        1
330
7D7
  0
DICTIONARY
  5
807
102
{ACAD_REACTORS
330
77F
102
}
330
77F
100
AcDbDictionary
281
     1
  3
CANNOSCALE
350
80D
  3
CMLEADERSTYLE
350
809
  3
CTABLESTYLE
350
808
  3
CVIEWDETAILSTYLE
350
80A
  3
CVIEWSECTIONSTYLE
350
80B
  3
LAYEREVAL
350
80F
  3
LAYERNOTIFY
350
810
  3
LIGHTINGUNITS
350
80E
  3
MSLTSCALE
350
80C
  3
XCLIPFRAME
350
811
  0
ACDBDETAILVIEWSTYLE
  5
7DD
102
{ACAD_XDICTIONARY
360
84D
102
}
102
{ACAD_REACTORS
330
7DC
102
}
330
7DC
100
AcDbModelDocViewStyle
 70
     0
  3
Imperial24
290
     0
100
AcDbDetailViewStyle
 70
     0
 71
     0
 90
        3
 71
     1
340
7C8
 62
   256
 40
0.24
340
0
 62
   256
 40
0.24
300

 40
0.36
280
     3
 71
     2
340
7CF
 90
       25
 62
   256
 71
     3
340
7C8
 62
   256
 40
0.24
 90
        1
 40
0.75
 90
        1
300
%<\AcVar ViewType \f "%tc1">% %<\AcVar ViewDetailId>%\PSCALE %<\AcVar ViewScale \f "%sn">%
 71
     4
340
7CF
 90
       25
 62
   256
340
7CF
 90
       25
 62
   256
280
     0
  0
LAYOUT
  5
7E5
102
{ACAD_REACTORS
330
7D4
102
}
330
7D4
100
AcDbPlotSettings
  1

  2
C:\ACAD-I\support\plotters\Default Windows System Printer.pc3
  4
A4
  6

 40
4.90008307
 41
4.90005732
 42
4.90008545
 43
4.90008545
 44
210.01567078
 45
297.01065063
 46
0.0
 47
0.0
 48
0.0
 49
0.0
140
0.0
141
0.0
142
1.0
143
137.025795
 70
  1712
 72
     0
 73
     0
 74
     0
  7
monochrome.ctb
 75
     0
147
0.0072979
 76
     0
 77
     2
 78
   300
148
876.39319484
149
56.07012857
100
AcDbLayout
  1
Model
 70
     1
 71
     0
 10
0.0
 20
0.0
 11
12.0
 21
9.0
 12
0.0
 22
0.0
 32
0.0
 14
0.0
 24
0.0
 34
0.0
 15
0.0
 25
0.0
 35
0.0
146
0.0
 13
0.0
 23
0.0
 33
0.0
 16
1.0
 26
0.0
 36
0.0
 17
0.0
 27
1.0
 37
0.0
 76
     0
330
7E2
  0
LAYOUT
  5
7E1
102
{ACAD_REACTORS
330
7D4
102
}
330
7D4
100
AcDbPlotSettings
  1

  2
C:\ACAD-I\support\plotters\Default Windows System Printer.pc3
  4
A4
  6

 40
4.90008307
 41
4.90005732
 42
4.90008545
 43
4.90008545
 44
210.01567078
 45
297.01065063
 46
0.0
 47
0.0
 48
0.0
 49
0.0
140
0.0
141
0.0
142
1.0
143
1.0
 70
   688
 72
     0
 73
     0
 74
     5
  7
monochrome.ctb
 75
    16
147
1.0
 76
     0
 77
     2
 78
   300
148
0.0
149
0.0
100
AcDbLayout
  1
レイアウト1
 70
     1
 71
     1
 10
0.0
 20
0.0
 11
420.0
 21
297.0
 12
0.0
 22
0.0
 32
0.0
 14
1.00000000E+20
 24
1.00000000E+20
 34
1.00000000E+20
 15
-1.00000000E+20
 25
-1.00000000E+20
 35
-1.00000000E+20
146
0.0
 13
0.0
 23
0.0
 33
0.0
 16
1.0
 26
0.0
 36
0.0
 17
0.0
 27
1.0
 37
0.0
 76
     0
330
7DE
  0
MATERIAL
  5
78C
102
{ACAD_XDICTIONARY
360
78D
102
}
102
{ACAD_REACTORS
330
783
102
}
330
783
100
AcDbMaterial
  1
ByBlock
 72
     0
 43
0.02083333
 43
0.0
 43
0.0
 43
0.0
 43
0.0
 43
0.02083333
 43
0.0
 43
0.0
 43
0.0
 43
0.0
 43
1.0
 43
0.0
 43
0.0
 43
0.0
 43
0.0
 43
1.0
 77
     0
 47
0.02083333
 47
0.0
 47
0.0
 47
0.0
 47
0.0
 47
0.02083333
 47
0.0
 47
0.0
 47
0.0
 47
0.0
 47
1.0
 47
0.0
 47
0.0
 47
0.0
 47
0.0
 47
1.0
171
     0
 49
0.02083333
 49
0.0
 49
0.0
 49
0.0
 49
0.0
 49
0.02083333
 49
0.0
 49
0.0
 49
0.0
 49
0.0
 49
1.0
 49
0.0
 49
0.0
 49
0.0
 49
0.0
 49
1.0
175
     0
142
0.02083333
142
0.0
142
0.0
142
0.0
142
0.0
142
0.02083333
142
0.0
142
0.0
142
0.0
142
0.0
142
1.0
142
0.0
142
0.0
142
0.0
142
0.0
142
1.0
179
     0
144
0.02083333
144
0.0
144
0.0
144
0.0
144
0.0
144
0.02083333
144
0.0
144
0.0
144
0.0
144
0.0
144
1.0
144
0.0
144
0.0
144
0.0
144
0.0
144
1.0
147
0.02083333
147
0.0
147
0.0
147
0.0
147
0.0
147
0.02083333
147
0.0
147
0.0
147
0.0
147
0.0
147
1.0
147
0.0
147
0.0
147
0.0
147
0.0
147
1.0
  0
MATERIAL
  5
784
102
{ACAD_XDICTIONARY
360
785
102
}
102
{ACAD_REACTORS
330
783
102
}
330
783
100
AcDbMaterial
  1
ByLayer
 72
     0
 43
0.02083333
 43
0.0
 43
0.0
 43
0.0
 43
0.0
 43
0.02083333
 43
0.0
 43
0.0
 43
0.0
 43
0.0
 43
1.0
 43
0.0
 43
0.0
 43
0.0
 43
0.0
 43
1.0
 77
     0
 47
0.02083333
 47
0.0
 47
0.0
 47
0.0
 47
0.0
 47
0.02083333
 47
0.0
 47
0.0
 47
0.0
 47
0.0
 47
1.0
 47
0.0
 47
0.0
 47
0.0
 47
0.0
 47
1.0
171
     0
 49
0.02083333
 49
0.0
 49
0.0
 49
0.0
 49
0.0
 49
0.02083333
 49
0.0
 49
0.0
 49
0.0
 49
0.0
 49
1.0
 49
0.0
 49
0.0
 49
0.0
 49
0.0
 49
1.0
175
     0
142
0.02083333
142
0.0
142
0.0
142
0.0
142
0.0
142
0.02083333
142
0.0
142
0.0
142
0.0
142
0.0
142
1.0
142
0.0
142
0.0
142
0.0
142
0.0
142
1.0
179
     0
144
0.02083333
144
0.0
144
0.0
144
0.0
144
0.0
144
0.02083333
144
0.0
144
0.0
144
0.0
144
0.0
144
1.0
144
0.0
144
0.0
144
0.0
144
0.0
144
1.0
147
0.02083333
147
0.0
147
0.0
147
0.0
147
0.0
147
0.02083333
147
0.0
147
0.0
147
0.0
147
0.0
147
1.0
147
0.0
147
0.0
147
0.0
147
0.0
147
1.0
  0
MATERIAL
  5
794
102
{ACAD_XDICTIONARY
360
795
102
}
102
{ACAD_REACTORS
330
783
102
}
330
783
100
AcDbMaterial
  1
Global
 72
     0
 43
0.02083333
 43
0.0
 43
0.0
 43
0.0
 43
0.0
 43
0.02083333
 43
0.0
 43
0.0
 43
0.0
 43
0.0
 43
1.0
 43
0.0
 43
0.0
 43
0.0
 43
0.0
 43
1.0
 77
     0
 47
0.02083333
 47
0.0
 47
0.0
 47
0.0
 47
0.0
 47
0.02083333
 47
0.0
 47
0.0
 47
0.0
 47
0.0
 47
1.0
 47
0.0
 47
0.0
 47
0.0
 47
0.0
 47
1.0
171
     0
 49
0.02083333
 49
0.0
 49
0.0
 49
0.0
 49
0.0
 49
0.02083333
 49
0.0
 49
0.0
 49
0.0
 49
0.0
 49
1.0
 49
0.0
 49
0.0
 49
0.0
 49
0.0
 49
1.0
175
     0
142
0.02083333
142
0.0
142
0.0
142
0.0
142
0.0
142
0.02083333
142
0.0
142
0.0
142
0.0
142
0.0
142
1.0
142
0.0
142
0.0
142
0.0
142
0.0
142
1.0
179
     0
144
0.02083333
144
0.0
144
0.0
144
0.0
144
0.0
144
0.02083333
144
0.0
144
0.0
144
0.0
144
0.0
144
1.0
144
0.0
144
0.0
144
0.0
144
0.0
144
1.0
147
0.02083333
147
0.0
147
0.0
147
0.0
147
0.0
147
0.02083333
147
0.0
147
0.0
147
0.0
147
0.0
147
1.0
147
0.0
147
0.0
147
0.0
147
0.0
147
1.0
  0
MLEADERSTYLE
  5
7D9
102
{ACAD_XDICTIONARY
360
849
102
}
102
{ACAD_REACTORS
330
7D8
102
}
330
7D8
100
AcDbMLeaderStyle
170
     2
171
     1
172
     0
 90
        2
 40
0.0
 41
0.0
173
     1
 91
-1056964608
340
7CD
 92
       -2
290
     1
 42
0.09
291
     1
 43
0.36
  3
Standard
 44
0.18
300

342
7C8
174
     1
178
     6
175
     1
176
     0
 93
-1056964608
 45
0.18
292
     0
297
     0
 46
0.18
 94
-1056964608
 47
1.0
 49
1.0
140
1.0
293
     1
141
0.0
294
     1
177
     0
142
1.0
295
     0
296
     0
143
0.125
1001
ACAD_MLEADERVER
1070
     2
  0
MLINESTYLE
  5
7D2
102
{ACAD_REACTORS
330
7D1
102
}
330
7D1
100
AcDbMlineStyle
  2
STANDARD
 70
     0
  3

 62
   256
 51
90.0
 52
90.0
 71
     2
 49
0.5
 62
   256
  6
BYLAYER
 49
-0.5
 62
   256
  6
BYLAYER
  0
ACDBPLACEHOLDER
  5
782
102
{ACAD_REACTORS
330
781
102
}
330
781
  0
SCALE
  5
7B6
102
{ACAD_REACTORS
330
7B5
102
}
330
7B5
100
AcDbScale
 70
     0
300
1:1
140
1.0
141
1.0
290
     1
  0
SCALE
  5
7B7
102
{ACAD_REACTORS
330
7B5
102
}
330
7B5
100
AcDbScale
 70
     0
300
1/128" = 1'-0"
140
0.0078125
141
12.0
290
     0
  0
SCALE
  5
7B8
102
{ACAD_REACTORS
330
7B5
102
}
330
7B5
100
AcDbScale
 70
     0
300
1/64" = 1'-0"
140
0.015625
141
12.0
290
     0
  0
SCALE
  5
7B9
102
{ACAD_REACTORS
330
7B5
102
}
330
7B5
100
AcDbScale
 70
     0
300
1/32" = 1'-0"
140
0.03125
141
12.0
290
     0
  0
SCALE
  5
7BA
102
{ACAD_REACTORS
330
7B5
102
}
330
7B5
100
AcDbScale
 70
     0
300
1/16" = 1'-0"
140
0.0625
141
12.0
290
     0
  0
SCALE
  5
7BB
102
{ACAD_REACTORS
330
7B5
102
}
330
7B5
100
AcDbScale
 70
     0
300
3/32" = 1'-0"
140
0.09375
141
12.0
290
     0
  0
SCALE
  5
7BC
102
{ACAD_REACTORS
330
7B5
102
}
330
7B5
100
AcDbScale
 70
     0
300
1/8" = 1'-0"
140
0.125
141
12.0
290
     0
  0
SCALE
  5
7BD
102
{ACAD_REACTORS
330
7B5
102
}
330
7B5
100
AcDbScale
 70
     0
300
3/16" = 1'-0"
140
0.1875
141
12.0
290
     0
  0
SCALE
  5
7BE
102
{ACAD_REACTORS
330
7B5
102
}
330
7B5
100
AcDbScale
 70
     0
300
1/4" = 1'-0"
140
0.25
141
12.0
290
     0
  0
SCALE
  5
7BF
102
{ACAD_REACTORS
330
7B5
102
}
330
7B5
100
AcDbScale
 70
     0
300
3/8" = 1'-0"
140
0.375
141
12.0
290
     0
  0
SCALE
  5
7C0
102
{ACAD_REACTORS
330
7B5
102
}
330
7B5
100
AcDbScale
 70
     0
300
1/2" = 1'-0"
140
0.5
141
12.0
290
     0
  0
SCALE
  5
7C1
102
{ACAD_REACTORS
330
7B5
102
}
330
7B5
100
AcDbScale
 70
     0
300
3/4" = 1'-0"
140
0.75
141
12.0
290
     0
  0
SCALE
  5
7C2
102
{ACAD_REACTORS
330
7B5
102
}
330
7B5
100
AcDbScale
 70
     0
300
1" = 1'-0"
140
1.0
141
12.0
290
     0
  0
SCALE
  5
7C3
102
{ACAD_REACTORS
330
7B5
102
}
330
7B5
100
AcDbScale
 70
     0
300
1-1/2" = 1'-0"
140
1.5
141
12.0
290
     0
  0
SCALE
  5
7C4
102
{ACAD_REACTORS
330
7B5
102
}
330
7B5
100
AcDbScale
 70
     0
300
3" = 1'-0"
140
3.0
141
12.0
290
     0
  0
SCALE
  5
7C5
102
{ACAD_REACTORS
330
7B5
102
}
330
7B5
100
AcDbScale
 70
     0
300
6" = 1'-0"
140
6.0
141
12.0
290
     0
  0
SCALE
  5
7C6
102
{ACAD_REACTORS
330
7B5
102
}
330
7B5
100
AcDbScale
 70
     0
300
1'-0" = 1'-0"
140
12.0
141
12.0
290
     0
  0
ACDBSECTIONVIEWSTYLE
  5
7DB
102
{ACAD_XDICTIONARY
360
84B
102
}
102
{ACAD_REACTORS
330
7DA
102
}
330
7DA
100
AcDbModelDocViewStyle
 70
     0
  3
Imperial24
290
     0
100
AcDbSectionViewStyle
 70
     0
 71
     0
 90
       78
 71
     1
340
7C8
 62
   256
 40
0.24
340
0
340
0
 62
   256
 40
0.24
300
I, O, Q, S, X, Z
 40
0.48
 90
        3
 40
0.18
 90
        1
 71
     2
340
7CF
 90
       25
 62
   256
340
7CF
 90
       50
 62
   256
 40
0.24
 40
0.0
 40
0.24
 71
     3
340
7C8
 62
   256
 40
0.24
 90
        1
 40
0.75
 90
        1
300
%<\AcVar ViewType \f "%tc1">% %<\AcVar ViewSectionStartId>%-%<\AcVar ViewSectionEndId>%\PSCALE %<\AcVar ViewScale \f "%sn">%
 71
     4
 62
   256
 62
   257
300
ANSI31
 40
1.0
 90
        0
290
     0
290
     0
 90
        6
 40
0.0
 40
1.57079633
 40
0.26179939
 40
1.30899694
 40
-0.26179939
 40
1.83259571
  0
TABLESTYLE
  5
7D7
102
{ACAD_XDICTIONARY
360
812
102
}
102
{ACAD_REACTORS
330
7D6
102
}
330
7D6
100
AcDbTableStyle
  3
Standard
 70
     0
 71
     0
 40
0.06
 41
0.06
280
     0
281
     0
  7
STANDARD
140
0.18
170
     2
 62
     0
 63
     7
283
     0
274
    -2
284
     1
 64
     0
275
    -2
285
     1
 65
     0
276
    -2
286
     1
 66
     0
277
    -2
287
     1
 67
     0
278
    -2
288
     1
 68
     0
279
    -2
289
     1
 69
     0
  7
STANDARD
140
0.25
170
     5
 62
     0
 63
     7
283
     0
274
    -2
284
     1
 64
     0
275
    -2
285
     1
 65
     0
276
    -2
286
     1
 66
     0
277
    -2
287
     1
 67
     0
278
    -2
288
     1
 68
     0
279
    -2
289
     1
 69
     0
  7
STANDARD
140
0.18
170
     5
 62
     0
 63
     7
283
     0
274
    -2
284
     1
 64
     0
275
    -2
285
     1
 65
     0
276
    -2
286
     1
 66
     0
277
    -2
287
     1
 67
     0
278
    -2
288
     1
 68
     0
279
    -2
289
     1
 69
     0
  0
VISUALSTYLE
  5
7A2
102
{ACAD_XDICTIONARY
360
822
102
}
102
{ACAD_REACTORS
330
79C
102
}
330
79C
100
AcDbVisualStyle
  2
2dWireframe
 70
     4
 71
     0
 72
     2
 73
     0
 90
        0
 40
-0.6
 41
-30.0
 62
     5
 63
     7
421
 16777215
 74
     1
 91
        4
 64
     7
 65
   257
 75
     1
175
     1
 42
1.0
 92
        0
 66
   257
 43
1.0
 76
     1
 77
     6
 78
     2
 67
     7
 79
     5
170
     0
171
     0
290
     0
174
     0
 93
        1
 44
0.0
173
     0
291
     0
 45
0.0
1001
ACAD
1000
AcDbSavedByObjectVersion
1070
     0
  0
VISUALSTYLE
  5
7A1
102
{ACAD_XDICTIONARY
360
820
102
}
102
{ACAD_REACTORS
330
79C
102
}
330
79C
100
AcDbVisualStyle
  2
Basic
 70
     7
 71
     1
 72
     0
 73
     1
 90
        0
 40
-0.6
 41
-30.0
 62
     5
 63
     7
421
 16777215
 74
     0
 91
        4
 64
     7
 65
   257
 75
     1
175
     1
 42
1.0
 92
        8
 66
     7
 43
1.0
 76
     1
 77
     6
 78
     2
 67
     7
 79
     5
170
     0
171
     0
290
     0
174
     0
 93
        1
 44
0.0
173
     0
291
     1
 45
0.0
1001
ACAD
1000
AcDbSavedByObjectVersion
1070
     0
  0
VISUALSTYLE
  5
7A8
102
{ACAD_XDICTIONARY
360
82E
102
}
102
{ACAD_REACTORS
330
79C
102
}
330
79C
100
AcDbVisualStyle
  2
Brighten
 70
    12
 71
     2
 72
     2
 73
     0
 90
        0
 40
-0.6
 41
-30.0
 62
     5
 63
     7
421
 16777215
 74
     1
 91
        4
 64
     7
 65
   257
 75
     1
175
     1
 42
1.0
 92
        8
 66
     7
 43
1.0
 76
     1
 77
     6
 78
     2
 67
     7
 79
     5
170
     0
171
     0
290
     0
174
     0
 93
        1
 44
50.0
173
     0
291
     1
 45
0.0
1001
ACAD
1000
AcDbSavedByObjectVersion
1070
     0
  0
VISUALSTYLE
  5
7AC
102
{ACAD_XDICTIONARY
360
836
102
}
102
{ACAD_REACTORS
330
79C
102
}
330
79C
100
AcDbVisualStyle
  2
ColorChange
 70
    16
 71
     2
 72
     2
 73
     3
 90
        0
 40
-0.6
 41
-30.0
 62
     5
 63
     8
421
  8421504
 74
     1
 91
        4
 64
     7
 65
   257
 75
     1
175
     1
 42
1.0
 92
        8
 66
     8
424
  8421504
 43
1.0
 76
     1
 77
     6
 78
     2
 67
     7
 79
     5
170
     0
171
     0
290
     0
174
     0
 93
        1
 44
0.0
173
     0
291
     1
 45
0.0
1001
ACAD
1000
AcDbSavedByObjectVersion
1070
     0
  0
VISUALSTYLE
  5
7A5
102
{ACAD_XDICTIONARY
360
828
102
}
102
{ACAD_REACTORS
330
79C
102
}
330
79C
100
AcDbVisualStyle
  2
Conceptual
 70
     9
 71
     3
 72
     2
 73
     0
 90
        0
 40
-0.6
 41
-30.0
 62
     5
 63
     7
421
 16777215
 74
     2
 91
        2
 64
     7
 65
   257
 75
     1
175
     1
 42
179.0
 92
        8
 66
     7
 43
1.0
 76
     1
 77
     6
 78
     2
 67
     7
 79
     3
170
     0
171
     0
290
     0
174
     0
 93
        1
 44
0.0
173
     0
291
     0
 45
0.0
1001
ACAD
1000
AcDbSavedByObjectVersion
1070
     0
  0
VISUALSTYLE
  5
7A7
102
{ACAD_XDICTIONARY
360
82C
102
}
102
{ACAD_REACTORS
330
79C
102
}
330
79C
100
AcDbVisualStyle
  2
Dim
 70
    11
 71
     2
 72
     2
 73
     0
 90
        0
 40
-0.6
 41
-30.0
 62
     5
 63
     7
421
 16777215
 74
     1
 91
        4
 64
     7
 65
   257
 75
     1
175
     1
 42
1.0
 92
        8
 66
     7
 43
1.0
 76
     1
 77
     6
 78
     2
 67
     7
 79
     5
170
     0
171
     0
290
     0
174
     0
 93
        1
 44
-50.0
173
     0
291
     1
 45
0.0
1001
ACAD
1000
AcDbSavedByObjectVersion
1070
     0
  0
VISUALSTYLE
  5
7B4
102
{ACAD_XDICTIONARY
360
846
102
}
102
{ACAD_REACTORS
330
79C
102
}
330
79C
100
AcDbVisualStyle
  2
EdgeColorOff
 70
    22
 71
     2
 72
     2
 73
     0
 90
        0
 40
-0.6
 41
-30.0
 62
     5
 63
     7
421
 16777215
 74
     1
 91
        4
 64
     7
 65
   257
 75
     1
175
     1
 42
1.0
 92
        8
 66
     7
 43
1.0
 76
     1
 77
     6
 78
     2
 67
     7
 79
     5
170
     0
171
     0
290
     0
174
     0
 93
        1
 44
0.0
173
     0
291
     1
 45
0.0
1001
ACAD
1000
AcDbSavedByObjectVersion
1070
     0
  0
VISUALSTYLE
  5
7AB
102
{ACAD_XDICTIONARY
360
834
102
}
102
{ACAD_REACTORS
330
79C
102
}
330
79C
100
AcDbVisualStyle
  2
Facepattern
 70
    15
 71
     2
 72
     2
 73
     0
 90
        0
 40
-0.6
 41
-30.0
 62
     5
 63
     7
421
 16777215
 74
     1
 91
        4
 64
     7
 65
   257
 75
     1
175
     1
 42
1.0
 92
        8
 66
     7
 43
1.0
 76
     1
 77
     6
 78
     2
 67
     7
 79
     5
170
     0
171
     0
290
     0
174
     0
 93
        1
 44
0.0
173
     0
291
     1
 45
0.0
1001
ACAD
1000
AcDbSavedByObjectVersion
1070
     0
  0
VISUALSTYLE
  5
79D
102
{ACAD_XDICTIONARY
360
818
102
}
102
{ACAD_REACTORS
330
79C
102
}
330
79C
100
AcDbVisualStyle
  2
Flat
 70
     0
 71
     2
 72
     1
 73
     1
 90
        2
 40
-0.6
 41
30.0
 62
     5
 63
     7
421
 16777215
 74
     0
 91
        0
 64
     7
 65
   257
 75
     1
175
     1
 42
1.0
 92
        8
 66
     7
 43
1.0
 76
     1
 77
     6
 78
     2
 67
     7
 79
     5
170
     0
171
     0
290
     0
174
     0
 93
       13
 44
0.0
173
     0
291
     1
 45
0.0
1001
ACAD
1000
AcDbSavedByObjectVersion
1070
     0
  0
VISUALSTYLE
  5
79E
102
{ACAD_XDICTIONARY
360
81A
102
}
102
{ACAD_REACTORS
330
79C
102
}
330
79C
100
AcDbVisualStyle
  2
FlatWithEdges
 70
     1
 71
     2
 72
     1
 73
     1
 90
        2
 40
-0.6
 41
30.0
 62
     5
 63
     7
421
 16777215
 74
     1
 91
        0
 64
     7
 65
   257
 75
     1
175
     1
 42
1.0
 92
        0
 66
   257
 43
1.0
 76
     1
 77
     6
 78
     2
 67
     7
 79
     5
170
     0
171
     0
290
     0
174
     0
 93
       13
 44
0.0
173
     0
291
     1
 45
0.0
1001
ACAD
1000
AcDbSavedByObjectVersion
1070
     0
  0
VISUALSTYLE
  5
79F
102
{ACAD_XDICTIONARY
360
81C
102
}
102
{ACAD_REACTORS
330
79C
102
}
330
79C
100
AcDbVisualStyle
  2
Gouraud
 70
     2
 71
     2
 72
     2
 73
     1
 90
        2
 40
-0.6
 41
30.0
 62
     5
 63
     7
421
 16777215
 74
     0
 91
        0
 64
     7
 65
   257
 75
     1
175
     1
 42
1.0
 92
        0
 66
     7
 43
1.0
 76
     1
 77
     6
 78
     2
 67
     7
 79
     5
170
     0
171
     0
290
     0
174
     0
 93
       13
 44
0.0
173
     0
291
     1
 45
0.0
1001
ACAD
1000
AcDbSavedByObjectVersion
1070
     0
  0
VISUALSTYLE
  5
7A0
102
{ACAD_XDICTIONARY
360
81E
102
}
102
{ACAD_REACTORS
330
79C
102
}
330
79C
100
AcDbVisualStyle
  2
GouraudWithEdges
 70
     3
 71
     2
 72
     2
 73
     1
 90
        2
 40
-0.6
 41
30.0
 62
     5
 63
     7
421
 16777215
 74
     1
 91
        0
 64
     7
 65
   257
 75
     1
175
     1
 42
1.0
 92
        0
 66
   257
 43
1.0
 76
     1
 77
     6
 78
     2
 67
     7
 79
     5
170
     0
171
     0
290
     0
174
     0
 93
       13
 44
0.0
173
     0
291
     1
 45
0.0
1001
ACAD
1000
AcDbSavedByObjectVersion
1070
     0
  0
VISUALSTYLE
  5
7A4
102
{ACAD_XDICTIONARY
360
826
102
}
102
{ACAD_REACTORS
330
79C
102
}
330
79C
100
AcDbVisualStyle
  2
Hidden
 70
     6
 71
     1
 72
     2
 73
     2
 90
        0
 40
-0.6
 41
-30.0
 62
     5
 63
     7
421
 16777215
 74
     2
 91
        2
 64
     7
 65
   257
 75
     2
175
     1
 42
40.0
 92
        0
 66
   257
 43
1.0
 76
     1
 77
     6
 78
     2
 67
     7
 79
     3
170
     0
171
     0
290
     0
174
     0
 93
        1
 44
0.0
173
     0
291
     0
 45
0.0
1001
ACAD
1000
AcDbSavedByObjectVersion
1070
     0
  0
VISUALSTYLE
  5
7B2
102
{ACAD_XDICTIONARY
360
842
102
}
102
{ACAD_REACTORS
330
79C
102
}
330
79C
100
AcDbVisualStyle
  2
JitterOff
 70
    20
 71
     2
 72
     2
 73
     0
 90
        0
 40
-0.6
 41
-30.0
 62
     5
 63
     7
421
 16777215
 74
     1
 91
        4
 64
     7
 65
   257
 75
     1
175
     1
 42
1.0
 92
       10
 66
     7
 43
1.0
 76
     1
 77
     6
 78
     2
 67
     7
 79
     5
170
     0
171
     0
290
     0
174
     0
 93
        1
 44
0.0
173
     0
291
     1
 45
0.0
1001
ACAD
1000
AcDbSavedByObjectVersion
1070
     0
  0
VISUALSTYLE
  5
7AA
102
{ACAD_XDICTIONARY
360
832
102
}
102
{ACAD_REACTORS
330
79C
102
}
330
79C
100
AcDbVisualStyle
  2
Linepattern
 70
    14
 71
     2
 72
     2
 73
     0
 90
        0
 40
-0.6
 41
-30.0
 62
     5
 63
     7
421
 16777215
 74
     1
 91
        4
 64
     7
 65
   257
 75
     7
175
     7
 42
1.0
 92
        8
 66
     7
 43
1.0
 76
     1
 77
     6
 78
     2
 67
     7
 79
     5
170
     0
171
     0
290
     0
174
     0
 93
        1
 44
0.0
173
     0
291
     1
 45
0.0
1001
ACAD
1000
AcDbSavedByObjectVersion
1070
     0
  0
VISUALSTYLE
  5
7B3
102
{ACAD_XDICTIONARY
360
844
102
}
102
{ACAD_REACTORS
330
79C
102
}
330
79C
100
AcDbVisualStyle
  2
OverhangOff
 70
    21
 71
     2
 72
     2
 73
     0
 90
        0
 40
-0.6
 41
-30.0
 62
     5
 63
     7
421
 16777215
 74
     1
 91
        4
 64
     7
 65
   257
 75
     1
175
     1
 42
1.0
 92
        9
 66
     7
 43
1.0
 76
     1
 77
     6
 78
     2
 67
     7
 79
     5
170
     0
171
     0
290
     0
174
     0
 93
        1
 44
0.0
173
     0
291
     1
 45
0.0
1001
ACAD
1000
AcDbSavedByObjectVersion
1070
     0
  0
VISUALSTYLE
  5
7A6
102
{ACAD_XDICTIONARY
360
82A
102
}
102
{ACAD_REACTORS
330
79C
102
}
330
79C
100
AcDbVisualStyle
  2
Realistic
 70
     8
 71
     2
 72
     3
 73
     0
 90
        2
 40
-0.6
 41
30.0
 62
     5
 63
     7
421
 16777215
 74
     0
 91
        0
 64
     7
 65
   257
 75
     1
175
     1
 42
1.0
 92
        8
 66
   257
 43
1.0
 76
     1
 77
     6
 78
     2
 67
     7
 79
     3
170
     0
171
     0
290
     0
174
     0
 93
       13
 44
0.0
173
     0
291
     0
 45
0.0
1001
ACAD
1000
AcDbSavedByObjectVersion
1070
     0
  0
VISUALSTYLE
  5
7B1
102
{ACAD_XDICTIONARY
360
840
102
}
102
{ACAD_REACTORS
330
79C
102
}
330
79C
100
AcDbVisualStyle
  2
Shaded
 70
    27
 71
     2
 72
     2
 73
     1
 90
        2
 40
-0.6
 41
30.0
 62
     5
 63
     7
421
 16777215
 74
     0
 91
        4
 64
     7
 65
   257
 75
     1
175
     1
 42
1.0
 92
        8
 66
   257
 43
1.0
 76
     1
 77
     6
 78
     2
 67
     8
425
  7895160
 79
     3
170
     0
171
     0
290
     0
174
     0
 93
        5
 44
0.0
173
     0
291
     0
 45
0.0
1001
ACAD
1000
AcDbSavedByObjectVersion
1070
     0
  0
VISUALSTYLE
  5
7B0
102
{ACAD_XDICTIONARY
360
83E
102
}
102
{ACAD_REACTORS
330
79C
102
}
330
79C
100
AcDbVisualStyle
  2
Shaded with edges
 70
    26
 71
     2
 72
     2
 73
     1
 90
        2
 40
-0.6
 41
30.0
 62
     5
 63
     7
421
 16777215
 74
     1
 91
       10
 64
     7
 65
   257
 75
     2
175
     1
 42
1.0
 92
        8
 66
   257
 43
1.0
 76
     1
 77
     6
 78
     2
 67
     7
 79
     3
170
     0
171
     0
290
     0
174
     0
 93
        5
 44
0.0
173
     0
291
     0
 45
0.0
1001
ACAD
1000
AcDbSavedByObjectVersion
1070
     0
  0
VISUALSTYLE
  5
7AD
102
{ACAD_XDICTIONARY
360
838
102
}
102
{ACAD_REACTORS
330
79C
102
}
330
79C
100
AcDbVisualStyle
  2
Shades of Gray
 70
    23
 71
     2
 72
     2
 73
     3
 90
        0
 40
-0.6
 41
-30.0
 62
     5
 63
     7
421
 16777215
 74
     2
 91
        2
 64
     7
 65
     7
 75
     1
175
     1
 42
40.0
 92
        8
 66
     7
 43
1.0
 76
     1
 77
     6
 78
     2
 67
     7
 79
     3
170
     0
171
     0
290
     0
174
     0
 93
        1
 44
0.0
173
     0
291
     0
 45
0.0
1001
ACAD
1000
AcDbSavedByObjectVersion
1070
     0
  0
VISUALSTYLE
  5
7AE
102
{ACAD_XDICTIONARY
360
83A
102
}
102
{ACAD_REACTORS
330
79C
102
}
330
79C
100
AcDbVisualStyle
  2
Sketchy
 70
    24
 71
     1
 72
     2
 73
     2
 90
        0
 40
-0.6
 41
-30.0
 62
     5
 63
     7
421
 16777215
 74
     2
 91
        2
 64
     7
 65
     7
 75
     1
175
     1
 42
40.0
 92
       11
 66
     7
 43
1.0
 76
     1
 77
     6
 78
     2
 67
     7
 79
     6
170
     0
171
     0
290
     0
174
     0
 93
        1
 44
0.0
173
     0
291
     0
 45
0.0
1001
ACAD
1000
AcDbSavedByObjectVersion
1070
     0
  0
VISUALSTYLE
  5
7A9
102
{ACAD_XDICTIONARY
360
830
102
}
102
{ACAD_REACTORS
330
79C
102
}
330
79C
100
AcDbVisualStyle
  2
Thicken
 70
    13
 71
     2
 72
     2
 73
     0
 90
        0
 40
-0.6
 41
-30.0
 62
     5
 63
     7
421
 16777215
 74
     1
 91
        4
 64
     7
 65
   257
 75
     1
175
     1
 42
1.0
 92
       12
 66
     7
 43
1.0
 76
     1
 77
     6
 78
     2
 67
     7
 79
     5
170
     0
171
     0
290
     0
174
     0
 93
        1
 44
0.0
173
     0
291
     1
 45
0.0
1001
ACAD
1000
AcDbSavedByObjectVersion
1070
     0
  0
VISUALSTYLE
  5
7A3
102
{ACAD_XDICTIONARY
360
824
102
}
102
{ACAD_REACTORS
330
79C
102
}
330
79C
100
AcDbVisualStyle
  2
Wireframe
 70
     5
 71
     0
 72
     2
 73
     0
 90
        0
 40
-0.6
 41
-30.0
 62
     5
 63
     7
421
 16777215
 74
     1
 91
        4
 64
     7
 65
   257
 75
     1
175
     1
 42
1.0
 92
        0
 66
   257
 43
1.0
 76
     1
 77
     6
 78
     2
 67
     7
 79
     3
170
     0
171
     0
290
     0
174
     0
 93
        1
 44
0.0
173
     0
291
     0
 45
0.0
1001
ACAD
1000
AcDbSavedByObjectVersion
1070
     0
  0
VISUALSTYLE
  5
7AF
102
{ACAD_XDICTIONARY
360
83C
102
}
102
{ACAD_REACTORS
330
79C
102
}
330
79C
100
AcDbVisualStyle
  2
X-Ray
 70
    25
 71
     2
 72
     2
 73
     1
 90
        1
 40
0.5
 41
-30.0
 62
     5
 63
     7
421
 16777215
 74
     1
 91
        0
 64
     7
 65
   257
 75
     1
175
     1
 42
1.0
 92
        8
 66
     7
 43
1.0
 76
     1
 77
     6
 78
     2
 67
     7
 79
     3
170
     0
171
     0
290
     0
174
     0
 93
       13
 44
0.0
173
     0
291
     0
 45
0.0
1001
ACAD
1000
AcDbSavedByObjectVersion
1070
     0
  0
DICTIONARYVAR
  5
80D
102
{ACAD_REACTORS
330
807
102
}
330
807
100
DictionaryVariables
280
     0
  1
1:1
  0
DICTIONARYVAR
  5
809
102
{ACAD_REACTORS
330
807
102
}
330
807
100
DictionaryVariables
280
     0
  1
STANDARD
  0
DICTIONARYVAR
  5
808
102
{ACAD_REACTORS
330
807
102
}
330
807
100
DictionaryVariables
280
     0
  1
STANDARD
  0
DICTIONARYVAR
  5
80A
102
{ACAD_REACTORS
330
807
102
}
330
807
100
DictionaryVariables
280
     0
  1
Imperial24
  0
DICTIONARYVAR
  5
80B
102
{ACAD_REACTORS
330
807
102
}
330
807
100
DictionaryVariables
280
     0
  1
Imperial24
  0
DICTIONARYVAR
  5
80F
102
{ACAD_REACTORS
330
807
102
}
330
807
100
DictionaryVariables
280
     0
  1
0
  0
DICTIONARYVAR
  5
810
102
{ACAD_REACTORS
330
807
102
}
330
807
100
DictionaryVariables
280
     0
  1
0
  0
DICTIONARYVAR
  5
80E
102
{ACAD_REACTORS
330
807
102
}
330
807
100
DictionaryVariables
280
     0
  1
2
  0
DICTIONARYVAR
  5
80C
102
{ACAD_REACTORS
330
807
102
}
330
807
100
DictionaryVariables
280
     0
  1
1
  0
DICTIONARYVAR
  5
811
102
{ACAD_REACTORS
330
807
102
}
330
807
100
DictionaryVariables
280
     0
  1
2
  0
DICTIONARY
  5
84D
330
7DD
100
AcDbDictionary
280
     1
281
     1
  3
ACAD_XREC_ROUNDTRIP
360
84E
  0
DICTIONARY
  5
78D
330
78C
100
AcDbDictionary
280
     1
281
     1
  3
ACAD_XREC_ROUNDTRIP
360
816
  3
BUMPTILE
360
78F
  3
DIFFUSETILE
360
78E
  3
OPACITYTILE
360
792
  3
REFLECTIONTILE
360
791
  3
REFRACTIONTILE
360
793
  3
SPECULARTILE
360
790
  0
DICTIONARY
  5
785
330
784
100
AcDbDictionary
280
     1
281
     1
  3
ACAD_XREC_ROUNDTRIP
360
815
  3
BUMPTILE
360
787
  3
DIFFUSETILE
360
786
  3
OPACITYTILE
360
78A
  3
REFLECTIONTILE
360
789
  3
REFRACTIONTILE
360
78B
  3
SPECULARTILE
360
788
  0
DICTIONARY
  5
795
330
794
100
AcDbDictionary
280
     1
281
     1
  3
ACAD_XREC_ROUNDTRIP
360
817
  3
BUMPTILE
360
797
  3
DIFFUSETILE
360
796
  3
OPACITYTILE
360
79A
  3
REFLECTIONTILE
360
799
  3
REFRACTIONTILE
360
79B
  3
SPECULARTILE
360
798
  0
DICTIONARY
  5
849
330
7D9
100
AcDbDictionary
280
     1
281
     1
  3
ACAD_XREC_ROUNDTRIP
360
84A
  0
DICTIONARY
  5
84B
330
7DB
100
AcDbDictionary
280
     1
281
     1
  3
ACAD_XREC_ROUNDTRIP
360
84C
  0
DICTIONARY
  5
812
330
7D7
100
AcDbDictionary
280
     1
281
     1
  3
ACAD_ROUNDTRIP_2008_TABLESTYLE_CELLSTYLEMAP
360
813
  3
ACAD_XREC_ROUNDTRIP
360
848
  0
DICTIONARY
  5
822
330
7A2
100
AcDbDictionary
280
     1
281
     1
  3
ACAD_XREC_ROUNDTRIP
360
823
  0
DICTIONARY
  5
820
330
7A1
100
AcDbDictionary
280
     1
281
     1
  3
ACAD_XREC_ROUNDTRIP
360
821
  0
DICTIONARY
  5
82E
330
7A8
100
AcDbDictionary
280
     1
281
     1
  3
ACAD_XREC_ROUNDTRIP
360
82F
  0
DICTIONARY
  5
836
330
7AC
100
AcDbDictionary
280
     1
281
     1
  3
ACAD_XREC_ROUNDTRIP
360
837
  0
DICTIONARY
  5
828
330
7A5
100
AcDbDictionary
280
     1
281
     1
  3
ACAD_XREC_ROUNDTRIP
360
829
  0
DICTIONARY
  5
82C
330
7A7
100
AcDbDictionary
280
     1
281
     1
  3
ACAD_XREC_ROUNDTRIP
360
82D
  0
DICTIONARY
  5
846
330
7B4
100
AcDbDictionary
280
     1
281
     1
  3
ACAD_XREC_ROUNDTRIP
360
847
  0
DICTIONARY
  5
834
330
7AB
100
AcDbDictionary
280
     1
281
     1
  3
ACAD_XREC_ROUNDTRIP
360
835
  0
DICTIONARY
  5
818
330
79D
100
AcDbDictionary
280
     1
281
     1
  3
ACAD_XREC_ROUNDTRIP
360
819
  0
DICTIONARY
  5
81A
330
79E
100
AcDbDictionary
280
     1
281
     1
  3
ACAD_XREC_ROUNDTRIP
360
81B
  0
DICTIONARY
  5
81C
330
79F
100
AcDbDictionary
280
     1
281
     1
  3
ACAD_XREC_ROUNDTRIP
360
81D
  0
DICTIONARY
  5
81E
330
7A0
100
AcDbDictionary
280
     1
281
     1
  3
ACAD_XREC_ROUNDTRIP
360
81F
  0
DICTIONARY
  5
826
330
7A4
100
AcDbDictionary
280
     1
281
     1
  3
ACAD_XREC_ROUNDTRIP
360
827
  0
DICTIONARY
  5
842
330
7B2
100
AcDbDictionary
280
     1
281
     1
  3
ACAD_XREC_ROUNDTRIP
360
843
  0
DICTIONARY
  5
832
330
7AA
100
AcDbDictionary
280
     1
281
     1
  3
ACAD_XREC_ROUNDTRIP
360
833
  0
DICTIONARY
  5
844
330
7B3
100
AcDbDictionary
280
     1
281
     1
  3
ACAD_XREC_ROUNDTRIP
360
845
  0
DICTIONARY
  5
82A
330
7A6
100
AcDbDictionary
280
     1
281
     1
  3
ACAD_XREC_ROUNDTRIP
360
82B
  0
DICTIONARY
  5
840
330
7B1
100
AcDbDictionary
280
     1
281
     1
  3
ACAD_XREC_ROUNDTRIP
360
841
  0
DICTIONARY
  5
83E
330
7B0
100
AcDbDictionary
280
     1
281
     1
  3
ACAD_XREC_ROUNDTRIP
360
83F
  0
DICTIONARY
  5
838
330
7AD
100
AcDbDictionary
280
     1
281
     1
  3
ACAD_XREC_ROUNDTRIP
360
839
  0
DICTIONARY
  5
83A
330
7AE
100
AcDbDictionary
280
     1
281
     1
  3
ACAD_XREC_ROUNDTRIP
360
83B
  0
DICTIONARY
  5
830
330
7A9
100
AcDbDictionary
280
     1
281
     1
  3
ACAD_XREC_ROUNDTRIP
360
831
  0
DICTIONARY
  5
824
330
7A3
100
AcDbDictionary
280
     1
281
     1
  3
ACAD_XREC_ROUNDTRIP
360
825
  0
DICTIONARY
  5
83C
330
7AF
100
AcDbDictionary
280
     1
281
     1
  3
ACAD_XREC_ROUNDTRIP
360
83D
  0
XRECORD
  5
84E
102
{ACAD_REACTORS
330
84D
102
}
330
84D
100
AcDbXrecord
280
     1
102
DISPLAYNAME
  1
Imperial24
102
FLAGS
 90
        0
  0
XRECORD
  5
816
102
{ACAD_REACTORS
330
78D
102
}
330
78D
100
AcDbXrecord
280
     1
102
MATERIAL
148
0.0
149
0.0
149
0.0
 93
        0
 94
      127
282
     0
 72
     0
 77
     0
171
     0
175
     0
179
     0
273
     0
  0
XRECORD
  5
78F
102
{ACAD_REACTORS
330
78D
102
}
330
78D
100
AcDbXrecord
280
     1
270
     1
271
     1
  0
XRECORD
  5
78E
102
{ACAD_REACTORS
330
78D
102
}
330
78D
100
AcDbXrecord
280
     1
270
     1
271
     1
  0
XRECORD
  5
792
102
{ACAD_REACTORS
330
78D
102
}
330
78D
100
AcDbXrecord
280
     1
270
     1
271
     1
  0
XRECORD
  5
791
102
{ACAD_REACTORS
330
78D
102
}
330
78D
100
AcDbXrecord
280
     1
270
     1
271
     1
  0
XRECORD
  5
793
102
{ACAD_REACTORS
330
78D
102
}
330
78D
100
AcDbXrecord
280
     1
270
     1
271
     1
  0
XRECORD
  5
790
102
{ACAD_REACTORS
330
78D
102
}
330
78D
100
AcDbXrecord
280
     1
270
     1
271
     1
  0
XRECORD
  5
815
102
{ACAD_REACTORS
330
785
102
}
330
785
100
AcDbXrecord
280
     1
102
MATERIAL
148
0.0
149
0.0
149
0.0
 93
        0
 94
      127
282
     0
 72
     0
 77
     0
171
     0
175
     0
179
     0
273
     0
  0
XRECORD
  5
787
102
{ACAD_REACTORS
330
785
102
}
330
785
100
AcDbXrecord
280
     1
270
     1
271
     1
  0
XRECORD
  5
786
102
{ACAD_REACTORS
330
785
102
}
330
785
100
AcDbXrecord
280
     1
270
     1
271
     1
  0
XRECORD
  5
78A
102
{ACAD_REACTORS
330
785
102
}
330
785
100
AcDbXrecord
280
     1
270
     1
271
     1
  0
XRECORD
  5
789
102
{ACAD_REACTORS
330
785
102
}
330
785
100
AcDbXrecord
280
     1
270
     1
271
     1
  0
XRECORD
  5
78B
102
{ACAD_REACTORS
330
785
102
}
330
785
100
AcDbXrecord
280
     1
270
     1
271
     1
  0
XRECORD
  5
788
102
{ACAD_REACTORS
330
785
102
}
330
785
100
AcDbXrecord
280
     1
270
     1
271
     1
  0
XRECORD
  5
817
102
{ACAD_REACTORS
330
795
102
}
330
795
100
AcDbXrecord
280
     1
102
MATERIAL
148
0.0
149
0.0
149
0.0
 93
        0
 94
      127
282
     0
 72
     0
 77
     0
171
     0
175
     0
179
     0
273
     0
  0
XRECORD
  5
797
102
{ACAD_REACTORS
330
795
102
}
330
795
100
AcDbXrecord
280
     1
270
     1
271
     1
  0
XRECORD
  5
796
102
{ACAD_REACTORS
330
795
102
}
330
795
100
AcDbXrecord
280
     1
270
     1
271
     1
  0
XRECORD
  5
79A
102
{ACAD_REACTORS
330
795
102
}
330
795
100
AcDbXrecord
280
     1
270
     1
271
     1
  0
XRECORD
  5
799
102
{ACAD_REACTORS
330
795
102
}
330
795
100
AcDbXrecord
280
     1
270
     1
271
     1
  0
XRECORD
  5
79B
102
{ACAD_REACTORS
330
795
102
}
330
795
100
AcDbXrecord
280
     1
270
     1
271
     1
  0
XRECORD
  5
798
102
{ACAD_REACTORS
330
795
102
}
330
795
100
AcDbXrecord
280
     1
270
     1
271
     1
  0
XRECORD
  5
84A
102
{ACAD_REACTORS
330
849
102
}
330
849
100
AcDbXrecord
280
     1
102
ACAD_ROUNDTRIP_2012_MLEADER_STYLE
298
     1
  0
XRECORD
  5
84C
102
{ACAD_REACTORS
330
84B
102
}
330
84B
100
AcDbXrecord
280
     1
102
DISPLAYNAME
  1
Imperial24
102
FLAGS
 90
        0
  0
CELLSTYLEMAP
  5
813
102
{ACAD_REACTORS
330
812
102
}
330
812
100
AcDbCellStyleMap
 90
        3
300
CELLSTYLE
  1
TABLEFORMAT_BEGIN
 90
        5
170
     1
 91
        0
 92
    32768
 62
   257
 93
        1
300
CONTENTFORMAT
  1
CONTENTFORMAT_BEGIN
 90
        0
 91
        0
 92
      512
 93
        0
300

 40
0.0
140
1.0
 94
        5
 62
     0
340
7C8
144
0.25
309
CONTENTFORMAT_END
171
     0
 94
        0
309
TABLEFORMAT_END
  1
CELLSTYLE_BEGIN
 90
        1
 91
        1
300
_TITLE
309
CELLSTYLE_END
300
CELLSTYLE
  1
TABLEFORMAT_BEGIN
 90
        5
170
     1
 91
        0
 92
        0
 62
   257
 93
        1
300
CONTENTFORMAT
  1
CONTENTFORMAT_BEGIN
 90
        0
 91
        0
 92
      512
 93
        0
300

 40
0.0
140
1.0
 94
        5
 62
     0
340
7C8
144
0.18
309
CONTENTFORMAT_END
171
     0
 94
        0
309
TABLEFORMAT_END
  1
CELLSTYLE_BEGIN
 90
        2
 91
        1
300
_HEADER
309
CELLSTYLE_END
300
CELLSTYLE
  1
TABLEFORMAT_BEGIN
 90
        5
170
     1
 91
        0
 92
        0
 62
   257
 93
        1
300
CONTENTFORMAT
  1
CONTENTFORMAT_BEGIN
 90
        0
 91
        0
 92
      512
 93
        0
300

 40
0.0
140
1.0
 94
        2
 62
     0
340
7C8
144
0.18
309
CONTENTFORMAT_END
171
     0
 94
        0
309
TABLEFORMAT_END
  1
CELLSTYLE_BEGIN
 90
        3
 91
        2
300
_DATA
309
CELLSTYLE_END
  0
XRECORD
  5
848
102
{ACAD_REACTORS
330
812
102
}
330
812
100
AcDbXrecord
280
     1
102
ACAD_ROUNDTRIP_PRE2007_TABLESTYLE
 90
      512
 91
        0
  1

 92
      512
 93
        0
  2

 94
      512
 95
        0
  3

  0
XRECORD
  5
823
102
{ACAD_REACTORS
330
822
102
}
330
822
100
AcDbXrecord
280
     1
102
RTVSPost2010Prop28
280
     1
102
RTVSPost2010PropOp28
 70
     1
102
RTVSPost2010Prop29
280
     1
102
RTVSPost2010PropOp29
 70
     1
102
RTVSPost2010Prop30
280
     0
102
RTVSPost2010PropOp30
 70
     1
102
RTVSPost2010Prop31
280
     0
102
RTVSPost2010PropOp31
 70
     1
102
RTVSPost2010Prop32
280
     0
102
RTVSPost2010PropOp32
 70
     1
102
RTVSPost2010Prop33
280
     0
102
RTVSPost2010PropOp33
 70
     1
102
RTVSPost2010Prop34
280
     0
102
RTVSPost2010PropOp34
 70
     1
102
RTVSPost2010Prop35
280
     0
102
RTVSPost2010PropOp35
 70
     1
102
RTVSPost2010Prop36
280
     0
102
RTVSPost2010PropOp36
 70
     1
102
RTVSPost2010Prop37
 90
       50
102
RTVSPost2010PropOp37
 70
     1
102
RTVSPost2010Prop38
140
0.0
102
RTVSPost2010PropOp38
 70
     1
102
RTVSPost2010Prop39
140
1.0
102
RTVSPost2010PropOp39
 70
     1
102
RTVSPost2010Prop40
 90
        0
102
RTVSPost2010PropOp40
 70
     1
102
RTVSPost2010Prop41ColorIndex
 90
       18
102
RTVSPost2010Prop41ColorRGB
 90
        0
102
RTVSPost2010PropOp41
 70
     1
102
RTVSPost2010Prop42
 90
       50
102
RTVSPost2010PropOp42
 70
     1
102
RTVSPost2010Prop43
 90
        3
102
RTVSPost2010PropOp43
 70
     1
102
RTVSPost2010Prop44ColorIndex
 90
        5
102
RTVSPost2010Prop44ColorRGB
 90
      255
102
RTVSPost2010PropOp44
 70
     1
102
RTVSPost2010Prop45
280
     0
102
RTVSPost2010PropOp45
 70
     1
102
RTVSPost2010Prop46
 90
       50
102
RTVSPost2010PropOp46
 70
     1
102
RTVSPost2010Prop47
 90
       50
102
RTVSPost2010PropOp47
 70
     1
102
RTVSPost2010Prop48
 90
       50
102
RTVSPost2010PropOp48
 70
     1
102
RTVSPost2010Prop49
280
     0
102
RTVSPost2010PropOp49
 70
     1
102
RTVSPost2010Prop50
 90
       50
102
RTVSPost2010PropOp50
 70
     1
102
RTVSPost2010Prop51ColorIndex
 90
      256
102
RTVSPost2010Prop51ColorRGB
 90
-16777216
102
RTVSPost2010PropOp51
 70
     0
102
RTVSPost2010Prop52
140
1.0
102
RTVSPost2010PropOp52
 70
     0
102
RTVSPost2010Prop53
 90
        2
102
RTVSPost2010PropOp53
 70
     1
102
RTVSPost2010Prop54
  1
strokes_ogs.tif
102
RTVSPost2010PropOp54
 70
     1
102
RTVSPost2010Prop55
280
     0
102
RTVSPost2010PropOp55
 70
     1
102
RTVSPost2010Prop56
140
1.0
102
RTVSPost2010PropOp56
 70
     1
102
RTVSPost2010Prop57
140
1.0
102
RTVSPost2010PropOp57
 70
     1
102
RTVSPropertyOp0
 70
     1
102
RTVSPropertyOp1
 70
     1
102
RTVSPropertyOp2
 70
     1
102
RTVSPropertyOp3
 70
     1
102
RTVSPropertyOp4
 70
     1
102
RTVSPropertyOp5
 70
     1
102
RTVSPropertyOp6
 70
     1
102
RTVSPropertyOp7
 70
     1
102
RTVSPropertyOp8
 70
     1
102
RTVSPropertyOp9
 70
     1
102
RTVSPropertyOp10
 70
     1
102
RTVSPropertyOp11
 70
     1
102
RTVSPropertyOp12
 70
     1
102
RTVSPropertyOp13
 70
     1
102
RTVSPropertyOp14
 70
     1
102
RTVSPropertyOp15
 70
     1
102
RTVSPropertyOp16
 70
     1
102
RTVSPropertyOp17
 70
     1
102
RTVSPropertyOp18
 70
     1
102
RTVSPropertyOp19
 70
     1
102
RTVSPropertyOp20
 70
     1
102
RTVSPropertyOp21
 70
     1
102
RTVSPropertyOp22
 70
     1
102
RTVSPropertyOp23
 70
     1
102
RTVSPropertyOp24
 70
     1
102
RTVSPropertyOp25
 70
     1
102
RTVSPropertyOp26
 70
     1
102
RTVSPropertyOp27
 70
     1
102
RTVSPropertyOp28
 70
     1
102
RTVSPropertyOp29
 70
     1
102
RTVSPropertyOp30
 70
     1
102
RTVSPropertyOp31
 70
     1
102
RTVSPropertyOp32
 70
     1
102
RTVSPropertyOp33
 70
     1
102
RTVSPropertyOp34
 70
     1
102
RTVSPropertyOp35
 70
     1
102
RTVSPropertyOp36
 70
     1
102
RTVSPropertyOp37
 70
     1
102
RTVSPropertyOp38
 70
     1
102
RTVSPropertyOp39
 70
     1
102
RTVSPropertyOp40
 70
     1
102
RTVSPropertyOp41
 70
     1
102
RTVSPropertyOp42
 70
     1
102
RTVSPropertyOp43
 70
     1
102
RTVSPropertyOp44
 70
     1
102
RTVSPropertyOp45
 70
     1
102
RTVSPropertyOp46
 70
     1
102
RTVSPropertyOp47
 70
     1
102
RTVSPropertyOp48
 70
     1
102
RTVSPropertyOp49
 70
     1
102
RTVSPropertyOp50
 70
     1
102
RTVSPropertyOp51
 70
     0
102
RTVSPropertyOp52
 70
     0
102
RTVSPropertyOp53
 70
     1
102
RTVSPropertyOp54
 70
     1
102
RTVSPropertyOp55
 70
     1
102
RTVSPropertyOp56
 70
     1
102
RTVSPropertyOp57
 70
     1
102
RTVSPropertyOp58
 70
     1
102
RTVSPropertyOp59
 70
     1
102
RTVSPropertyOp60
 70
     1
102
RTVSPropertyOp61
 70
     1
102
RTVSPropertyOp62
 70
     1
  0
XRECORD
  5
821
102
{ACAD_REACTORS
330
820
102
}
330
820
100
AcDbXrecord
280
     1
102
RTVSPost2010Prop28
280
     0
102
RTVSPost2010PropOp28
 70
     1
102
RTVSPost2010Prop29
280
     1
102
RTVSPost2010PropOp29
 70
     1
102
RTVSPost2010Prop30
280
     1
102
RTVSPost2010PropOp30
 70
     1
102
RTVSPost2010Prop31
280
     0
102
RTVSPost2010PropOp31
 70
     1
102
RTVSPost2010Prop32
280
     0
102
RTVSPost2010PropOp32
 70
     1
102
RTVSPost2010Prop33
280
     0
102
RTVSPost2010PropOp33
 70
     1
102
RTVSPost2010Prop34
280
     0
102
RTVSPost2010PropOp34
 70
     1
102
RTVSPost2010Prop35
280
     0
102
RTVSPost2010PropOp35
 70
     1
102
RTVSPost2010Prop36
280
     0
102
RTVSPost2010PropOp36
 70
     1
102
RTVSPost2010Prop37
 90
       50
102
RTVSPost2010PropOp37
 70
     1
102
RTVSPost2010Prop38
140
0.0
102
RTVSPost2010PropOp38
 70
     1
102
RTVSPost2010Prop39
140
1.0
102
RTVSPost2010PropOp39
 70
     1
102
RTVSPost2010Prop40
 90
        0
102
RTVSPost2010PropOp40
 70
     1
102
RTVSPost2010Prop41ColorIndex
 90
       18
102
RTVSPost2010Prop41ColorRGB
 90
        0
102
RTVSPost2010PropOp41
 70
     1
102
RTVSPost2010Prop42
 90
       50
102
RTVSPost2010PropOp42
 70
     1
102
RTVSPost2010Prop43
 90
        3
102
RTVSPost2010PropOp43
 70
     1
102
RTVSPost2010Prop44ColorIndex
 90
        5
102
RTVSPost2010Prop44ColorRGB
 90
      255
102
RTVSPost2010PropOp44
 70
     1
102
RTVSPost2010Prop45
280
     0
102
RTVSPost2010PropOp45
 70
     1
102
RTVSPost2010Prop46
 90
       50
102
RTVSPost2010PropOp46
 70
     1
102
RTVSPost2010Prop47
 90
       50
102
RTVSPost2010PropOp47
 70
     1
102
RTVSPost2010Prop48
 90
       50
102
RTVSPost2010PropOp48
 70
     1
102
RTVSPost2010Prop49
280
     0
102
RTVSPost2010PropOp49
 70
     1
102
RTVSPost2010Prop50
 90
       50
102
RTVSPost2010PropOp50
 70
     1
102
RTVSPost2010Prop51ColorIndex
 90
      256
102
RTVSPost2010Prop51ColorRGB
 90
-16777216
102
RTVSPost2010PropOp51
 70
     0
102
RTVSPost2010Prop52
140
1.0
102
RTVSPost2010PropOp52
 70
     0
102
RTVSPost2010Prop53
 90
        2
102
RTVSPost2010PropOp53
 70
     1
102
RTVSPost2010Prop54
  1
strokes_ogs.tif
102
RTVSPost2010PropOp54
 70
     1
102
RTVSPost2010Prop55
280
     0
102
RTVSPost2010PropOp55
 70
     1
102
RTVSPost2010Prop56
140
1.0
102
RTVSPost2010PropOp56
 70
     1
102
RTVSPost2010Prop57
140
1.0
102
RTVSPost2010PropOp57
 70
     1
102
RTVSPropertyOp0
 70
     1
102
RTVSPropertyOp1
 70
     1
102
RTVSPropertyOp2
 70
     1
102
RTVSPropertyOp3
 70
     1
102
RTVSPropertyOp4
 70
     1
102
RTVSPropertyOp5
 70
     1
102
RTVSPropertyOp6
 70
     1
102
RTVSPropertyOp7
 70
     1
102
RTVSPropertyOp8
 70
     1
102
RTVSPropertyOp9
 70
     1
102
RTVSPropertyOp10
 70
     1
102
RTVSPropertyOp11
 70
     1
102
RTVSPropertyOp12
 70
     1
102
RTVSPropertyOp13
 70
     1
102
RTVSPropertyOp14
 70
     1
102
RTVSPropertyOp15
 70
     1
102
RTVSPropertyOp16
 70
     1
102
RTVSPropertyOp17
 70
     1
102
RTVSPropertyOp18
 70
     1
102
RTVSPropertyOp19
 70
     1
102
RTVSPropertyOp20
 70
     1
102
RTVSPropertyOp21
 70
     1
102
RTVSPropertyOp22
 70
     1
102
RTVSPropertyOp23
 70
     1
102
RTVSPropertyOp24
 70
     1
102
RTVSPropertyOp25
 70
     1
102
RTVSPropertyOp26
 70
     1
102
RTVSPropertyOp27
 70
     1
102
RTVSPropertyOp28
 70
     1
102
RTVSPropertyOp29
 70
     1
102
RTVSPropertyOp30
 70
     1
102
RTVSPropertyOp31
 70
     1
102
RTVSPropertyOp32
 70
     1
102
RTVSPropertyOp33
 70
     1
102
RTVSPropertyOp34
 70
     1
102
RTVSPropertyOp35
 70
     1
102
RTVSPropertyOp36
 70
     1
102
RTVSPropertyOp37
 70
     1
102
RTVSPropertyOp38
 70
     1
102
RTVSPropertyOp39
 70
     1
102
RTVSPropertyOp40
 70
     1
102
RTVSPropertyOp41
 70
     1
102
RTVSPropertyOp42
 70
     1
102
RTVSPropertyOp43
 70
     1
102
RTVSPropertyOp44
 70
     1
102
RTVSPropertyOp45
 70
     1
102
RTVSPropertyOp46
 70
     1
102
RTVSPropertyOp47
 70
     1
102
RTVSPropertyOp48
 70
     1
102
RTVSPropertyOp49
 70
     1
102
RTVSPropertyOp50
 70
     1
102
RTVSPropertyOp51
 70
     0
102
RTVSPropertyOp52
 70
     0
102
RTVSPropertyOp53
 70
     1
102
RTVSPropertyOp54
 70
     1
102
RTVSPropertyOp55
 70
     1
102
RTVSPropertyOp56
 70
     1
102
RTVSPropertyOp57
 70
     1
102
RTVSPropertyOp58
 70
     1
102
RTVSPropertyOp59
 70
     1
102
RTVSPropertyOp60
 70
     1
102
RTVSPropertyOp61
 70
     1
102
RTVSPropertyOp62
 70
     1
  0
XRECORD
  5
82F
102
{ACAD_REACTORS
330
82E
102
}
330
82E
100
AcDbXrecord
280
     1
102
RTVSPost2010Prop28
280
     0
102
RTVSPost2010PropOp28
 70
     1
102
RTVSPost2010Prop29
280
     1
102
RTVSPost2010PropOp29
 70
     1
102
RTVSPost2010Prop30
280
     1
102
RTVSPost2010PropOp30
 70
     1
102
RTVSPost2010Prop31
280
     0
102
RTVSPost2010PropOp31
 70
     1
102
RTVSPost2010Prop32
280
     0
102
RTVSPost2010PropOp32
 70
     1
102
RTVSPost2010Prop33
280
     0
102
RTVSPost2010PropOp33
 70
     1
102
RTVSPost2010Prop34
280
     0
102
RTVSPost2010PropOp34
 70
     1
102
RTVSPost2010Prop35
280
     0
102
RTVSPost2010PropOp35
 70
     1
102
RTVSPost2010Prop36
280
     0
102
RTVSPost2010PropOp36
 70
     1
102
RTVSPost2010Prop37
 90
       50
102
RTVSPost2010PropOp37
 70
     1
102
RTVSPost2010Prop38
140
0.0
102
RTVSPost2010PropOp38
 70
     1
102
RTVSPost2010Prop39
140
1.0
102
RTVSPost2010PropOp39
 70
     1
102
RTVSPost2010Prop40
 90
        0
102
RTVSPost2010PropOp40
 70
     1
102
RTVSPost2010Prop41ColorIndex
 90
       18
102
RTVSPost2010Prop41ColorRGB
 90
        0
102
RTVSPost2010PropOp41
 70
     1
102
RTVSPost2010Prop42
 90
       50
102
RTVSPost2010PropOp42
 70
     1
102
RTVSPost2010Prop43
 90
        3
102
RTVSPost2010PropOp43
 70
     1
102
RTVSPost2010Prop44ColorIndex
 90
        5
102
RTVSPost2010Prop44ColorRGB
 90
      255
102
RTVSPost2010PropOp44
 70
     1
102
RTVSPost2010Prop45
280
     0
102
RTVSPost2010PropOp45
 70
     1
102
RTVSPost2010Prop46
 90
       50
102
RTVSPost2010PropOp46
 70
     1
102
RTVSPost2010Prop47
 90
       50
102
RTVSPost2010PropOp47
 70
     1
102
RTVSPost2010Prop48
 90
       50
102
RTVSPost2010PropOp48
 70
     1
102
RTVSPost2010Prop49
280
     0
102
RTVSPost2010PropOp49
 70
     1
102
RTVSPost2010Prop50
 90
       50
102
RTVSPost2010PropOp50
 70
     1
102
RTVSPost2010Prop51ColorIndex
 90
      256
102
RTVSPost2010Prop51ColorRGB
 90
-16777216
102
RTVSPost2010PropOp51
 70
     0
102
RTVSPost2010Prop52
140
1.0
102
RTVSPost2010PropOp52
 70
     0
102
RTVSPost2010Prop53
 90
        2
102
RTVSPost2010PropOp53
 70
     1
102
RTVSPost2010Prop54
  1
strokes_ogs.tif
102
RTVSPost2010PropOp54
 70
     1
102
RTVSPost2010Prop55
280
     0
102
RTVSPost2010PropOp55
 70
     1
102
RTVSPost2010Prop56
140
1.0
102
RTVSPost2010PropOp56
 70
     1
102
RTVSPost2010Prop57
140
1.0
102
RTVSPost2010PropOp57
 70
     1
102
RTVSPropertyOp0
 70
     1
102
RTVSPropertyOp1
 70
     1
102
RTVSPropertyOp2
 70
     1
102
RTVSPropertyOp3
 70
     1
102
RTVSPropertyOp4
 70
     1
102
RTVSPropertyOp5
 70
     1
102
RTVSPropertyOp6
 70
     1
102
RTVSPropertyOp7
 70
     1
102
RTVSPropertyOp8
 70
     1
102
RTVSPropertyOp9
 70
     1
102
RTVSPropertyOp10
 70
     1
102
RTVSPropertyOp11
 70
     1
102
RTVSPropertyOp12
 70
     1
102
RTVSPropertyOp13
 70
     1
102
RTVSPropertyOp14
 70
     1
102
RTVSPropertyOp15
 70
     1
102
RTVSPropertyOp16
 70
     1
102
RTVSPropertyOp17
 70
     1
102
RTVSPropertyOp18
 70
     1
102
RTVSPropertyOp19
 70
     1
102
RTVSPropertyOp20
 70
     1
102
RTVSPropertyOp21
 70
     1
102
RTVSPropertyOp22
 70
     1
102
RTVSPropertyOp23
 70
     1
102
RTVSPropertyOp24
 70
     1
102
RTVSPropertyOp25
 70
     1
102
RTVSPropertyOp26
 70
     1
102
RTVSPropertyOp27
 70
     1
102
RTVSPropertyOp28
 70
     1
102
RTVSPropertyOp29
 70
     1
102
RTVSPropertyOp30
 70
     1
102
RTVSPropertyOp31
 70
     1
102
RTVSPropertyOp32
 70
     1
102
RTVSPropertyOp33
 70
     1
102
RTVSPropertyOp34
 70
     1
102
RTVSPropertyOp35
 70
     1
102
RTVSPropertyOp36
 70
     1
102
RTVSPropertyOp37
 70
     1
102
RTVSPropertyOp38
 70
     1
102
RTVSPropertyOp39
 70
     1
102
RTVSPropertyOp40
 70
     1
102
RTVSPropertyOp41
 70
     1
102
RTVSPropertyOp42
 70
     1
102
RTVSPropertyOp43
 70
     1
102
RTVSPropertyOp44
 70
     1
102
RTVSPropertyOp45
 70
     1
102
RTVSPropertyOp46
 70
     1
102
RTVSPropertyOp47
 70
     1
102
RTVSPropertyOp48
 70
     1
102
RTVSPropertyOp49
 70
     1
102
RTVSPropertyOp50
 70
     1
102
RTVSPropertyOp51
 70
     0
102
RTVSPropertyOp52
 70
     0
102
RTVSPropertyOp53
 70
     1
102
RTVSPropertyOp54
 70
     1
102
RTVSPropertyOp55
 70
     1
102
RTVSPropertyOp56
 70
     1
102
RTVSPropertyOp57
 70
     1
102
RTVSPropertyOp58
 70
     1
102
RTVSPropertyOp59
 70
     1
102
RTVSPropertyOp60
 70
     1
102
RTVSPropertyOp61
 70
     1
102
RTVSPropertyOp62
 70
     1
  0
XRECORD
  5
837
102
{ACAD_REACTORS
330
836
102
}
330
836
100
AcDbXrecord
280
     1
102
RTVSPost2010Prop28
280
     0
102
RTVSPost2010PropOp28
 70
     1
102
RTVSPost2010Prop29
280
     1
102
RTVSPost2010PropOp29
 70
     1
102
RTVSPost2010Prop30
280
     1
102
RTVSPost2010PropOp30
 70
     1
102
RTVSPost2010Prop31
280
     0
102
RTVSPost2010PropOp31
 70
     1
102
RTVSPost2010Prop32
280
     0
102
RTVSPost2010PropOp32
 70
     1
102
RTVSPost2010Prop33
280
     0
102
RTVSPost2010PropOp33
 70
     1
102
RTVSPost2010Prop34
280
     0
102
RTVSPost2010PropOp34
 70
     1
102
RTVSPost2010Prop35
280
     0
102
RTVSPost2010PropOp35
 70
     1
102
RTVSPost2010Prop36
280
     0
102
RTVSPost2010PropOp36
 70
     1
102
RTVSPost2010Prop37
 90
       50
102
RTVSPost2010PropOp37
 70
     1
102
RTVSPost2010Prop38
140
0.0
102
RTVSPost2010PropOp38
 70
     1
102
RTVSPost2010Prop39
140
1.0
102
RTVSPost2010PropOp39
 70
     1
102
RTVSPost2010Prop40
 90
        0
102
RTVSPost2010PropOp40
 70
     1
102
RTVSPost2010Prop41ColorIndex
 90
       18
102
RTVSPost2010Prop41ColorRGB
 90
        0
102
RTVSPost2010PropOp41
 70
     1
102
RTVSPost2010Prop42
 90
       50
102
RTVSPost2010PropOp42
 70
     1
102
RTVSPost2010Prop43
 90
        3
102
RTVSPost2010PropOp43
 70
     1
102
RTVSPost2010Prop44ColorIndex
 90
        5
102
RTVSPost2010Prop44ColorRGB
 90
      255
102
RTVSPost2010PropOp44
 70
     1
102
RTVSPost2010Prop45
280
     0
102
RTVSPost2010PropOp45
 70
     1
102
RTVSPost2010Prop46
 90
       50
102
RTVSPost2010PropOp46
 70
     1
102
RTVSPost2010Prop47
 90
       50
102
RTVSPost2010PropOp47
 70
     1
102
RTVSPost2010Prop48
 90
       50
102
RTVSPost2010PropOp48
 70
     1
102
RTVSPost2010Prop49
280
     0
102
RTVSPost2010PropOp49
 70
     1
102
RTVSPost2010Prop50
 90
       50
102
RTVSPost2010PropOp50
 70
     1
102
RTVSPost2010Prop51ColorIndex
 90
      256
102
RTVSPost2010Prop51ColorRGB
 90
-16777216
102
RTVSPost2010PropOp51
 70
     0
102
RTVSPost2010Prop52
140
1.0
102
RTVSPost2010PropOp52
 70
     0
102
RTVSPost2010Prop53
 90
        2
102
RTVSPost2010PropOp53
 70
     1
102
RTVSPost2010Prop54
  1
strokes_ogs.tif
102
RTVSPost2010PropOp54
 70
     1
102
RTVSPost2010Prop55
280
     0
102
RTVSPost2010PropOp55
 70
     1
102
RTVSPost2010Prop56
140
1.0
102
RTVSPost2010PropOp56
 70
     1
102
RTVSPost2010Prop57
140
1.0
102
RTVSPost2010PropOp57
 70
     1
102
RTVSPropertyOp0
 70
     1
102
RTVSPropertyOp1
 70
     1
102
RTVSPropertyOp2
 70
     1
102
RTVSPropertyOp3
 70
     1
102
RTVSPropertyOp4
 70
     1
102
RTVSPropertyOp5
 70
     1
102
RTVSPropertyOp6
 70
     1
102
RTVSPropertyOp7
 70
     1
102
RTVSPropertyOp8
 70
     1
102
RTVSPropertyOp9
 70
     1
102
RTVSPropertyOp10
 70
     1
102
RTVSPropertyOp11
 70
     1
102
RTVSPropertyOp12
 70
     1
102
RTVSPropertyOp13
 70
     1
102
RTVSPropertyOp14
 70
     1
102
RTVSPropertyOp15
 70
     1
102
RTVSPropertyOp16
 70
     1
102
RTVSPropertyOp17
 70
     1
102
RTVSPropertyOp18
 70
     1
102
RTVSPropertyOp19
 70
     1
102
RTVSPropertyOp20
 70
     1
102
RTVSPropertyOp21
 70
     1
102
RTVSPropertyOp22
 70
     1
102
RTVSPropertyOp23
 70
     1
102
RTVSPropertyOp24
 70
     1
102
RTVSPropertyOp25
 70
     1
102
RTVSPropertyOp26
 70
     1
102
RTVSPropertyOp27
 70
     1
102
RTVSPropertyOp28
 70
     1
102
RTVSPropertyOp29
 70
     1
102
RTVSPropertyOp30
 70
     1
102
RTVSPropertyOp31
 70
     1
102
RTVSPropertyOp32
 70
     1
102
RTVSPropertyOp33
 70
     1
102
RTVSPropertyOp34
 70
     1
102
RTVSPropertyOp35
 70
     1
102
RTVSPropertyOp36
 70
     1
102
RTVSPropertyOp37
 70
     1
102
RTVSPropertyOp38
 70
     1
102
RTVSPropertyOp39
 70
     1
102
RTVSPropertyOp40
 70
     1
102
RTVSPropertyOp41
 70
     1
102
RTVSPropertyOp42
 70
     1
102
RTVSPropertyOp43
 70
     1
102
RTVSPropertyOp44
 70
     1
102
RTVSPropertyOp45
 70
     1
102
RTVSPropertyOp46
 70
     1
102
RTVSPropertyOp47
 70
     1
102
RTVSPropertyOp48
 70
     1
102
RTVSPropertyOp49
 70
     1
102
RTVSPropertyOp50
 70
     1
102
RTVSPropertyOp51
 70
     0
102
RTVSPropertyOp52
 70
     0
102
RTVSPropertyOp53
 70
     1
102
RTVSPropertyOp54
 70
     1
102
RTVSPropertyOp55
 70
     1
102
RTVSPropertyOp56
 70
     1
102
RTVSPropertyOp57
 70
     1
102
RTVSPropertyOp58
 70
     1
102
RTVSPropertyOp59
 70
     1
102
RTVSPropertyOp60
 70
     1
102
RTVSPropertyOp61
 70
     1
102
RTVSPropertyOp62
 70
     1
  0
XRECORD
  5
829
102
{ACAD_REACTORS
330
828
102
}
330
828
100
AcDbXrecord
280
     1
102
RTVSPost2010Prop28
280
     0
102
RTVSPost2010PropOp28
 70
     1
102
RTVSPost2010Prop29
280
     1
102
RTVSPost2010PropOp29
 70
     1
102
RTVSPost2010Prop30
280
     1
102
RTVSPost2010PropOp30
 70
     1
102
RTVSPost2010Prop31
280
     0
102
RTVSPost2010PropOp31
 70
     1
102
RTVSPost2010Prop32
280
     0
102
RTVSPost2010PropOp32
 70
     1
102
RTVSPost2010Prop33
280
     0
102
RTVSPost2010PropOp33
 70
     1
102
RTVSPost2010Prop34
280
     0
102
RTVSPost2010PropOp34
 70
     1
102
RTVSPost2010Prop35
280
     0
102
RTVSPost2010PropOp35
 70
     1
102
RTVSPost2010Prop36
280
     0
102
RTVSPost2010PropOp36
 70
     1
102
RTVSPost2010Prop37
 90
       50
102
RTVSPost2010PropOp37
 70
     1
102
RTVSPost2010Prop38
140
0.0
102
RTVSPost2010PropOp38
 70
     1
102
RTVSPost2010Prop39
140
1.0
102
RTVSPost2010PropOp39
 70
     1
102
RTVSPost2010Prop40
 90
        0
102
RTVSPost2010PropOp40
 70
     1
102
RTVSPost2010Prop41ColorIndex
 90
       18
102
RTVSPost2010Prop41ColorRGB
 90
        0
102
RTVSPost2010PropOp41
 70
     1
102
RTVSPost2010Prop42
 90
       50
102
RTVSPost2010PropOp42
 70
     1
102
RTVSPost2010Prop43
 90
        3
102
RTVSPost2010PropOp43
 70
     1
102
RTVSPost2010Prop44ColorIndex
 90
        5
102
RTVSPost2010Prop44ColorRGB
 90
      255
102
RTVSPost2010PropOp44
 70
     1
102
RTVSPost2010Prop45
280
     0
102
RTVSPost2010PropOp45
 70
     1
102
RTVSPost2010Prop46
 90
       50
102
RTVSPost2010PropOp46
 70
     1
102
RTVSPost2010Prop47
 90
       50
102
RTVSPost2010PropOp47
 70
     1
102
RTVSPost2010Prop48
 90
       50
102
RTVSPost2010PropOp48
 70
     1
102
RTVSPost2010Prop49
280
     0
102
RTVSPost2010PropOp49
 70
     1
102
RTVSPost2010Prop50
 90
       50
102
RTVSPost2010PropOp50
 70
     1
102
RTVSPost2010Prop51ColorIndex
 90
      256
102
RTVSPost2010Prop51ColorRGB
 90
-16777216
102
RTVSPost2010PropOp51
 70
     0
102
RTVSPost2010Prop52
140
1.0
102
RTVSPost2010PropOp52
 70
     0
102
RTVSPost2010Prop53
 90
        2
102
RTVSPost2010PropOp53
 70
     1
102
RTVSPost2010Prop54
  1
strokes_ogs.tif
102
RTVSPost2010PropOp54
 70
     1
102
RTVSPost2010Prop55
280
     0
102
RTVSPost2010PropOp55
 70
     1
102
RTVSPost2010Prop56
140
1.0
102
RTVSPost2010PropOp56
 70
     1
102
RTVSPost2010Prop57
140
1.0
102
RTVSPost2010PropOp57
 70
     1
102
RTVSPropertyOp0
 70
     1
102
RTVSPropertyOp1
 70
     1
102
RTVSPropertyOp2
 70
     1
102
RTVSPropertyOp3
 70
     1
102
RTVSPropertyOp4
 70
     1
102
RTVSPropertyOp5
 70
     1
102
RTVSPropertyOp6
 70
     1
102
RTVSPropertyOp7
 70
     1
102
RTVSPropertyOp8
 70
     1
102
RTVSPropertyOp9
 70
     1
102
RTVSPropertyOp10
 70
     1
102
RTVSPropertyOp11
 70
     1
102
RTVSPropertyOp12
 70
     1
102
RTVSPropertyOp13
 70
     1
102
RTVSPropertyOp14
 70
     1
102
RTVSPropertyOp15
 70
     1
102
RTVSPropertyOp16
 70
     1
102
RTVSPropertyOp17
 70
     1
102
RTVSPropertyOp18
 70
     1
102
RTVSPropertyOp19
 70
     1
102
RTVSPropertyOp20
 70
     1
102
RTVSPropertyOp21
 70
     1
102
RTVSPropertyOp22
 70
     1
102
RTVSPropertyOp23
 70
     1
102
RTVSPropertyOp24
 70
     1
102
RTVSPropertyOp25
 70
     1
102
RTVSPropertyOp26
 70
     1
102
RTVSPropertyOp27
 70
     1
102
RTVSPropertyOp28
 70
     1
102
RTVSPropertyOp29
 70
     1
102
RTVSPropertyOp30
 70
     1
102
RTVSPropertyOp31
 70
     1
102
RTVSPropertyOp32
 70
     1
102
RTVSPropertyOp33
 70
     1
102
RTVSPropertyOp34
 70
     1
102
RTVSPropertyOp35
 70
     1
102
RTVSPropertyOp36
 70
     1
102
RTVSPropertyOp37
 70
     1
102
RTVSPropertyOp38
 70
     1
102
RTVSPropertyOp39
 70
     1
102
RTVSPropertyOp40
 70
     1
102
RTVSPropertyOp41
 70
     1
102
RTVSPropertyOp42
 70
     1
102
RTVSPropertyOp43
 70
     1
102
RTVSPropertyOp44
 70
     1
102
RTVSPropertyOp45
 70
     1
102
RTVSPropertyOp46
 70
     1
102
RTVSPropertyOp47
 70
     1
102
RTVSPropertyOp48
 70
     1
102
RTVSPropertyOp49
 70
     1
102
RTVSPropertyOp50
 70
     1
102
RTVSPropertyOp51
 70
     0
102
RTVSPropertyOp52
 70
     0
102
RTVSPropertyOp53
 70
     1
102
RTVSPropertyOp54
 70
     1
102
RTVSPropertyOp55
 70
     1
102
RTVSPropertyOp56
 70
     1
102
RTVSPropertyOp57
 70
     1
102
RTVSPropertyOp58
 70
     1
102
RTVSPropertyOp59
 70
     1
102
RTVSPropertyOp60
 70
     1
102
RTVSPropertyOp61
 70
     1
102
RTVSPropertyOp62
 70
     1
  0
XRECORD
  5
82D
102
{ACAD_REACTORS
330
82C
102
}
330
82C
100
AcDbXrecord
280
     1
102
RTVSPost2010Prop28
280
     0
102
RTVSPost2010PropOp28
 70
     1
102
RTVSPost2010Prop29
280
     1
102
RTVSPost2010PropOp29
 70
     1
102
RTVSPost2010Prop30
280
     1
102
RTVSPost2010PropOp30
 70
     1
102
RTVSPost2010Prop31
280
     0
102
RTVSPost2010PropOp31
 70
     1
102
RTVSPost2010Prop32
280
     0
102
RTVSPost2010PropOp32
 70
     1
102
RTVSPost2010Prop33
280
     0
102
RTVSPost2010PropOp33
 70
     1
102
RTVSPost2010Prop34
280
     0
102
RTVSPost2010PropOp34
 70
     1
102
RTVSPost2010Prop35
280
     0
102
RTVSPost2010PropOp35
 70
     1
102
RTVSPost2010Prop36
280
     0
102
RTVSPost2010PropOp36
 70
     1
102
RTVSPost2010Prop37
 90
       50
102
RTVSPost2010PropOp37
 70
     1
102
RTVSPost2010Prop38
140
0.0
102
RTVSPost2010PropOp38
 70
     1
102
RTVSPost2010Prop39
140
1.0
102
RTVSPost2010PropOp39
 70
     1
102
RTVSPost2010Prop40
 90
        0
102
RTVSPost2010PropOp40
 70
     1
102
RTVSPost2010Prop41ColorIndex
 90
       18
102
RTVSPost2010Prop41ColorRGB
 90
        0
102
RTVSPost2010PropOp41
 70
     1
102
RTVSPost2010Prop42
 90
       50
102
RTVSPost2010PropOp42
 70
     1
102
RTVSPost2010Prop43
 90
        3
102
RTVSPost2010PropOp43
 70
     1
102
RTVSPost2010Prop44ColorIndex
 90
        5
102
RTVSPost2010Prop44ColorRGB
 90
      255
102
RTVSPost2010PropOp44
 70
     1
102
RTVSPost2010Prop45
280
     0
102
RTVSPost2010PropOp45
 70
     1
102
RTVSPost2010Prop46
 90
       50
102
RTVSPost2010PropOp46
 70
     1
102
RTVSPost2010Prop47
 90
       50
102
RTVSPost2010PropOp47
 70
     1
102
RTVSPost2010Prop48
 90
       50
102
RTVSPost2010PropOp48
 70
     1
102
RTVSPost2010Prop49
280
     0
102
RTVSPost2010PropOp49
 70
     1
102
RTVSPost2010Prop50
 90
       50
102
RTVSPost2010PropOp50
 70
     1
102
RTVSPost2010Prop51ColorIndex
 90
      256
102
RTVSPost2010Prop51ColorRGB
 90
-16777216
102
RTVSPost2010PropOp51
 70
     0
102
RTVSPost2010Prop52
140
1.0
102
RTVSPost2010PropOp52
 70
     0
102
RTVSPost2010Prop53
 90
        2
102
RTVSPost2010PropOp53
 70
     1
102
RTVSPost2010Prop54
  1
strokes_ogs.tif
102
RTVSPost2010PropOp54
 70
     1
102
RTVSPost2010Prop55
280
     0
102
RTVSPost2010PropOp55
 70
     1
102
RTVSPost2010Prop56
140
1.0
102
RTVSPost2010PropOp56
 70
     1
102
RTVSPost2010Prop57
140
1.0
102
RTVSPost2010PropOp57
 70
     1
102
RTVSPropertyOp0
 70
     1
102
RTVSPropertyOp1
 70
     1
102
RTVSPropertyOp2
 70
     1
102
RTVSPropertyOp3
 70
     1
102
RTVSPropertyOp4
 70
     1
102
RTVSPropertyOp5
 70
     1
102
RTVSPropertyOp6
 70
     1
102
RTVSPropertyOp7
 70
     1
102
RTVSPropertyOp8
 70
     1
102
RTVSPropertyOp9
 70
     1
102
RTVSPropertyOp10
 70
     1
102
RTVSPropertyOp11
 70
     1
102
RTVSPropertyOp12
 70
     1
102
RTVSPropertyOp13
 70
     1
102
RTVSPropertyOp14
 70
     1
102
RTVSPropertyOp15
 70
     1
102
RTVSPropertyOp16
 70
     1
102
RTVSPropertyOp17
 70
     1
102
RTVSPropertyOp18
 70
     1
102
RTVSPropertyOp19
 70
     1
102
RTVSPropertyOp20
 70
     1
102
RTVSPropertyOp21
 70
     1
102
RTVSPropertyOp22
 70
     1
102
RTVSPropertyOp23
 70
     1
102
RTVSPropertyOp24
 70
     1
102
RTVSPropertyOp25
 70
     1
102
RTVSPropertyOp26
 70
     1
102
RTVSPropertyOp27
 70
     1
102
RTVSPropertyOp28
 70
     1
102
RTVSPropertyOp29
 70
     1
102
RTVSPropertyOp30
 70
     1
102
RTVSPropertyOp31
 70
     1
102
RTVSPropertyOp32
 70
     1
102
RTVSPropertyOp33
 70
     1
102
RTVSPropertyOp34
 70
     1
102
RTVSPropertyOp35
 70
     1
102
RTVSPropertyOp36
 70
     1
102
RTVSPropertyOp37
 70
     1
102
RTVSPropertyOp38
 70
     1
102
RTVSPropertyOp39
 70
     1
102
RTVSPropertyOp40
 70
     1
102
RTVSPropertyOp41
 70
     1
102
RTVSPropertyOp42
 70
     1
102
RTVSPropertyOp43
 70
     1
102
RTVSPropertyOp44
 70
     1
102
RTVSPropertyOp45
 70
     1
102
RTVSPropertyOp46
 70
     1
102
RTVSPropertyOp47
 70
     1
102
RTVSPropertyOp48
 70
     1
102
RTVSPropertyOp49
 70
     1
102
RTVSPropertyOp50
 70
     1
102
RTVSPropertyOp51
 70
     0
102
RTVSPropertyOp52
 70
     0
102
RTVSPropertyOp53
 70
     1
102
RTVSPropertyOp54
 70
     1
102
RTVSPropertyOp55
 70
     1
102
RTVSPropertyOp56
 70
     1
102
RTVSPropertyOp57
 70
     1
102
RTVSPropertyOp58
 70
     1
102
RTVSPropertyOp59
 70
     1
102
RTVSPropertyOp60
 70
     1
102
RTVSPropertyOp61
 70
     1
102
RTVSPropertyOp62
 70
     1
  0
XRECORD
  5
847
102
{ACAD_REACTORS
330
846
102
}
330
846
100
AcDbXrecord
280
     1
102
RTVSPost2010Prop28
280
     0
102
RTVSPost2010PropOp28
 70
     0
102
RTVSPost2010Prop29
280
     1
102
RTVSPost2010PropOp29
 70
     0
102
RTVSPost2010Prop30
280
     1
102
RTVSPost2010PropOp30
 70
     0
102
RTVSPost2010Prop31
280
     0
102
RTVSPost2010PropOp31
 70
     0
102
RTVSPost2010Prop32
280
     0
102
RTVSPost2010PropOp32
 70
     0
102
RTVSPost2010Prop33
280
     0
102
RTVSPost2010PropOp33
 70
     0
102
RTVSPost2010Prop34
280
     0
102
RTVSPost2010PropOp34
 70
     0
102
RTVSPost2010Prop35
280
     0
102
RTVSPost2010PropOp35
 70
     0
102
RTVSPost2010Prop36
280
     0
102
RTVSPost2010PropOp36
 70
     0
102
RTVSPost2010Prop37
 90
       50
102
RTVSPost2010PropOp37
 70
     0
102
RTVSPost2010Prop38
140
0.0
102
RTVSPost2010PropOp38
 70
     0
102
RTVSPost2010Prop39
140
1.0
102
RTVSPost2010PropOp39
 70
     0
102
RTVSPost2010Prop40
 90
        0
102
RTVSPost2010PropOp40
 70
     0
102
RTVSPost2010Prop41ColorIndex
 90
       18
102
RTVSPost2010Prop41ColorRGB
 90
        0
102
RTVSPost2010PropOp41
 70
     0
102
RTVSPost2010Prop42
 90
       50
102
RTVSPost2010PropOp42
 70
     0
102
RTVSPost2010Prop43
 90
        3
102
RTVSPost2010PropOp43
 70
     0
102
RTVSPost2010Prop44ColorIndex
 90
        5
102
RTVSPost2010Prop44ColorRGB
 90
      255
102
RTVSPost2010PropOp44
 70
     0
102
RTVSPost2010Prop45
280
     0
102
RTVSPost2010PropOp45
 70
     0
102
RTVSPost2010Prop46
 90
       50
102
RTVSPost2010PropOp46
 70
     0
102
RTVSPost2010Prop47
 90
       50
102
RTVSPost2010PropOp47
 70
     0
102
RTVSPost2010Prop48
 90
       50
102
RTVSPost2010PropOp48
 70
     0
102
RTVSPost2010Prop49
280
     0
102
RTVSPost2010PropOp49
 70
     0
102
RTVSPost2010Prop50
 90
       50
102
RTVSPost2010PropOp50
 70
     0
102
RTVSPost2010Prop51ColorIndex
 90
      256
102
RTVSPost2010Prop51ColorRGB
 90
-16777216
102
RTVSPost2010PropOp51
 70
     0
102
RTVSPost2010Prop52
140
1.0
102
RTVSPost2010PropOp52
 70
     0
102
RTVSPost2010Prop53
 90
        2
102
RTVSPost2010PropOp53
 70
     0
102
RTVSPost2010Prop54
  1
strokes_ogs.tif
102
RTVSPost2010PropOp54
 70
     0
102
RTVSPost2010Prop55
280
     0
102
RTVSPost2010PropOp55
 70
     0
102
RTVSPost2010Prop56
140
1.0
102
RTVSPost2010PropOp56
 70
     0
102
RTVSPost2010Prop57
140
1.0
102
RTVSPost2010PropOp57
 70
     0
102
RTVSPropertyOp0
 70
     0
102
RTVSPropertyOp1
 70
     0
102
RTVSPropertyOp2
 70
     0
102
RTVSPropertyOp3
 70
     0
102
RTVSPropertyOp4
 70
     0
102
RTVSPropertyOp5
 70
     0
102
RTVSPropertyOp6
 70
     0
102
RTVSPropertyOp7
 70
     0
102
RTVSPropertyOp8
 70
     0
102
RTVSPropertyOp9
 70
     0
102
RTVSPropertyOp10
 70
     0
102
RTVSPropertyOp11
 70
     0
102
RTVSPropertyOp12
 70
     0
102
RTVSPropertyOp13
 70
     0
102
RTVSPropertyOp14
 70
     2
102
RTVSPropertyOp15
 70
     0
102
RTVSPropertyOp16
 70
     0
102
RTVSPropertyOp17
 70
     0
102
RTVSPropertyOp18
 70
     0
102
RTVSPropertyOp19
 70
     0
102
RTVSPropertyOp20
 70
     0
102
RTVSPropertyOp21
 70
     0
102
RTVSPropertyOp22
 70
     0
102
RTVSPropertyOp23
 70
     0
102
RTVSPropertyOp24
 70
     0
102
RTVSPropertyOp25
 70
     0
102
RTVSPropertyOp26
 70
     0
102
RTVSPropertyOp27
 70
     0
102
RTVSPropertyOp28
 70
     0
102
RTVSPropertyOp29
 70
     0
102
RTVSPropertyOp30
 70
     0
102
RTVSPropertyOp31
 70
     0
102
RTVSPropertyOp32
 70
     0
102
RTVSPropertyOp33
 70
     0
102
RTVSPropertyOp34
 70
     0
102
RTVSPropertyOp35
 70
     0
102
RTVSPropertyOp36
 70
     0
102
RTVSPropertyOp37
 70
     0
102
RTVSPropertyOp38
 70
     0
102
RTVSPropertyOp39
 70
     0
102
RTVSPropertyOp40
 70
     0
102
RTVSPropertyOp41
 70
     0
102
RTVSPropertyOp42
 70
     0
102
RTVSPropertyOp43
 70
     0
102
RTVSPropertyOp44
 70
     0
102
RTVSPropertyOp45
 70
     0
102
RTVSPropertyOp46
 70
     0
102
RTVSPropertyOp47
 70
     0
102
RTVSPropertyOp48
 70
     0
102
RTVSPropertyOp49
 70
     0
102
RTVSPropertyOp50
 70
     0
102
RTVSPropertyOp51
 70
     0
102
RTVSPropertyOp52
 70
     0
102
RTVSPropertyOp53
 70
     0
102
RTVSPropertyOp54
 70
     0
102
RTVSPropertyOp55
 70
     0
102
RTVSPropertyOp56
 70
     0
102
RTVSPropertyOp57
 70
     0
102
RTVSPropertyOp58
 70
     0
102
RTVSPropertyOp59
 70
     0
102
RTVSPropertyOp60
 70
     0
102
RTVSPropertyOp61
 70
     0
102
RTVSPropertyOp62
 70
     0
  0
XRECORD
  5
835
102
{ACAD_REACTORS
330
834
102
}
330
834
100
AcDbXrecord
280
     1
102
RTVSPost2010Prop28
280
     0
102
RTVSPost2010PropOp28
 70
     1
102
RTVSPost2010Prop29
280
     1
102
RTVSPost2010PropOp29
 70
     1
102
RTVSPost2010Prop30
280
     1
102
RTVSPost2010PropOp30
 70
     1
102
RTVSPost2010Prop31
280
     0
102
RTVSPost2010PropOp31
 70
     1
102
RTVSPost2010Prop32
280
     0
102
RTVSPost2010PropOp32
 70
     1
102
RTVSPost2010Prop33
280
     0
102
RTVSPost2010PropOp33
 70
     1
102
RTVSPost2010Prop34
280
     0
102
RTVSPost2010PropOp34
 70
     1
102
RTVSPost2010Prop35
280
     0
102
RTVSPost2010PropOp35
 70
     1
102
RTVSPost2010Prop36
280
     0
102
RTVSPost2010PropOp36
 70
     1
102
RTVSPost2010Prop37
 90
       50
102
RTVSPost2010PropOp37
 70
     1
102
RTVSPost2010Prop38
140
0.0
102
RTVSPost2010PropOp38
 70
     1
102
RTVSPost2010Prop39
140
1.0
102
RTVSPost2010PropOp39
 70
     1
102
RTVSPost2010Prop40
 90
        0
102
RTVSPost2010PropOp40
 70
     1
102
RTVSPost2010Prop41ColorIndex
 90
       18
102
RTVSPost2010Prop41ColorRGB
 90
        0
102
RTVSPost2010PropOp41
 70
     1
102
RTVSPost2010Prop42
 90
       50
102
RTVSPost2010PropOp42
 70
     1
102
RTVSPost2010Prop43
 90
        3
102
RTVSPost2010PropOp43
 70
     1
102
RTVSPost2010Prop44ColorIndex
 90
        5
102
RTVSPost2010Prop44ColorRGB
 90
      255
102
RTVSPost2010PropOp44
 70
     1
102
RTVSPost2010Prop45
280
     0
102
RTVSPost2010PropOp45
 70
     1
102
RTVSPost2010Prop46
 90
       50
102
RTVSPost2010PropOp46
 70
     1
102
RTVSPost2010Prop47
 90
       50
102
RTVSPost2010PropOp47
 70
     1
102
RTVSPost2010Prop48
 90
       50
102
RTVSPost2010PropOp48
 70
     1
102
RTVSPost2010Prop49
280
     0
102
RTVSPost2010PropOp49
 70
     1
102
RTVSPost2010Prop50
 90
       50
102
RTVSPost2010PropOp50
 70
     1
102
RTVSPost2010Prop51ColorIndex
 90
      256
102
RTVSPost2010Prop51ColorRGB
 90
-16777216
102
RTVSPost2010PropOp51
 70
     0
102
RTVSPost2010Prop52
140
1.0
102
RTVSPost2010PropOp52
 70
     0
102
RTVSPost2010Prop53
 90
        2
102
RTVSPost2010PropOp53
 70
     1
102
RTVSPost2010Prop54
  1
strokes_ogs.tif
102
RTVSPost2010PropOp54
 70
     1
102
RTVSPost2010Prop55
280
     0
102
RTVSPost2010PropOp55
 70
     1
102
RTVSPost2010Prop56
140
1.0
102
RTVSPost2010PropOp56
 70
     1
102
RTVSPost2010Prop57
140
1.0
102
RTVSPost2010PropOp57
 70
     1
102
RTVSPropertyOp0
 70
     1
102
RTVSPropertyOp1
 70
     1
102
RTVSPropertyOp2
 70
     1
102
RTVSPropertyOp3
 70
     1
102
RTVSPropertyOp4
 70
     1
102
RTVSPropertyOp5
 70
     1
102
RTVSPropertyOp6
 70
     1
102
RTVSPropertyOp7
 70
     1
102
RTVSPropertyOp8
 70
     1
102
RTVSPropertyOp9
 70
     1
102
RTVSPropertyOp10
 70
     1
102
RTVSPropertyOp11
 70
     1
102
RTVSPropertyOp12
 70
     1
102
RTVSPropertyOp13
 70
     1
102
RTVSPropertyOp14
 70
     1
102
RTVSPropertyOp15
 70
     1
102
RTVSPropertyOp16
 70
     1
102
RTVSPropertyOp17
 70
     1
102
RTVSPropertyOp18
 70
     1
102
RTVSPropertyOp19
 70
     1
102
RTVSPropertyOp20
 70
     1
102
RTVSPropertyOp21
 70
     1
102
RTVSPropertyOp22
 70
     1
102
RTVSPropertyOp23
 70
     1
102
RTVSPropertyOp24
 70
     1
102
RTVSPropertyOp25
 70
     1
102
RTVSPropertyOp26
 70
     1
102
RTVSPropertyOp27
 70
     1
102
RTVSPropertyOp28
 70
     1
102
RTVSPropertyOp29
 70
     1
102
RTVSPropertyOp30
 70
     1
102
RTVSPropertyOp31
 70
     1
102
RTVSPropertyOp32
 70
     1
102
RTVSPropertyOp33
 70
     1
102
RTVSPropertyOp34
 70
     1
102
RTVSPropertyOp35
 70
     1
102
RTVSPropertyOp36
 70
     1
102
RTVSPropertyOp37
 70
     1
102
RTVSPropertyOp38
 70
     1
102
RTVSPropertyOp39
 70
     1
102
RTVSPropertyOp40
 70
     1
102
RTVSPropertyOp41
 70
     1
102
RTVSPropertyOp42
 70
     1
102
RTVSPropertyOp43
 70
     1
102
RTVSPropertyOp44
 70
     1
102
RTVSPropertyOp45
 70
     1
102
RTVSPropertyOp46
 70
     1
102
RTVSPropertyOp47
 70
     1
102
RTVSPropertyOp48
 70
     1
102
RTVSPropertyOp49
 70
     1
102
RTVSPropertyOp50
 70
     1
102
RTVSPropertyOp51
 70
     0
102
RTVSPropertyOp52
 70
     0
102
RTVSPropertyOp53
 70
     1
102
RTVSPropertyOp54
 70
     1
102
RTVSPropertyOp55
 70
     1
102
RTVSPropertyOp56
 70
     1
102
RTVSPropertyOp57
 70
     1
102
RTVSPropertyOp58
 70
     1
102
RTVSPropertyOp59
 70
     1
102
RTVSPropertyOp60
 70
     1
102
RTVSPropertyOp61
 70
     1
102
RTVSPropertyOp62
 70
     1
  0
XRECORD
  5
819
102
{ACAD_REACTORS
330
818
102
}
330
818
100
AcDbXrecord
280
     1
102
RTVSPost2010Prop28
280
     0
102
RTVSPost2010PropOp28
 70
     1
102
RTVSPost2010Prop29
280
     1
102
RTVSPost2010PropOp29
 70
     1
102
RTVSPost2010Prop30
280
     1
102
RTVSPost2010PropOp30
 70
     1
102
RTVSPost2010Prop31
280
     0
102
RTVSPost2010PropOp31
 70
     1
102
RTVSPost2010Prop32
280
     0
102
RTVSPost2010PropOp32
 70
     1
102
RTVSPost2010Prop33
280
     0
102
RTVSPost2010PropOp33
 70
     1
102
RTVSPost2010Prop34
280
     0
102
RTVSPost2010PropOp34
 70
     1
102
RTVSPost2010Prop35
280
     0
102
RTVSPost2010PropOp35
 70
     1
102
RTVSPost2010Prop36
280
     0
102
RTVSPost2010PropOp36
 70
     1
102
RTVSPost2010Prop37
 90
       50
102
RTVSPost2010PropOp37
 70
     1
102
RTVSPost2010Prop38
140
0.0
102
RTVSPost2010PropOp38
 70
     1
102
RTVSPost2010Prop39
140
1.0
102
RTVSPost2010PropOp39
 70
     1
102
RTVSPost2010Prop40
 90
        0
102
RTVSPost2010PropOp40
 70
     1
102
RTVSPost2010Prop41ColorIndex
 90
       18
102
RTVSPost2010Prop41ColorRGB
 90
        0
102
RTVSPost2010PropOp41
 70
     1
102
RTVSPost2010Prop42
 90
       50
102
RTVSPost2010PropOp42
 70
     1
102
RTVSPost2010Prop43
 90
        3
102
RTVSPost2010PropOp43
 70
     1
102
RTVSPost2010Prop44ColorIndex
 90
        5
102
RTVSPost2010Prop44ColorRGB
 90
      255
102
RTVSPost2010PropOp44
 70
     1
102
RTVSPost2010Prop45
280
     0
102
RTVSPost2010PropOp45
 70
     1
102
RTVSPost2010Prop46
 90
       50
102
RTVSPost2010PropOp46
 70
     1
102
RTVSPost2010Prop47
 90
       50
102
RTVSPost2010PropOp47
 70
     1
102
RTVSPost2010Prop48
 90
       50
102
RTVSPost2010PropOp48
 70
     1
102
RTVSPost2010Prop49
280
     0
102
RTVSPost2010PropOp49
 70
     1
102
RTVSPost2010Prop50
 90
       50
102
RTVSPost2010PropOp50
 70
     1
102
RTVSPost2010Prop51ColorIndex
 90
      256
102
RTVSPost2010Prop51ColorRGB
 90
-16777216
102
RTVSPost2010PropOp51
 70
     0
102
RTVSPost2010Prop52
140
1.0
102
RTVSPost2010PropOp52
 70
     0
102
RTVSPost2010Prop53
 90
        2
102
RTVSPost2010PropOp53
 70
     1
102
RTVSPost2010Prop54
  1
strokes_ogs.tif
102
RTVSPost2010PropOp54
 70
     1
102
RTVSPost2010Prop55
280
     0
102
RTVSPost2010PropOp55
 70
     1
102
RTVSPost2010Prop56
140
1.0
102
RTVSPost2010PropOp56
 70
     1
102
RTVSPost2010Prop57
140
1.0
102
RTVSPost2010PropOp57
 70
     1
102
RTVSPropertyOp0
 70
     1
102
RTVSPropertyOp1
 70
     1
102
RTVSPropertyOp2
 70
     1
102
RTVSPropertyOp3
 70
     1
102
RTVSPropertyOp4
 70
     1
102
RTVSPropertyOp5
 70
     1
102
RTVSPropertyOp6
 70
     1
102
RTVSPropertyOp7
 70
     1
102
RTVSPropertyOp8
 70
     1
102
RTVSPropertyOp9
 70
     1
102
RTVSPropertyOp10
 70
     1
102
RTVSPropertyOp11
 70
     1
102
RTVSPropertyOp12
 70
     1
102
RTVSPropertyOp13
 70
     1
102
RTVSPropertyOp14
 70
     1
102
RTVSPropertyOp15
 70
     1
102
RTVSPropertyOp16
 70
     1
102
RTVSPropertyOp17
 70
     1
102
RTVSPropertyOp18
 70
     1
102
RTVSPropertyOp19
 70
     1
102
RTVSPropertyOp20
 70
     1
102
RTVSPropertyOp21
 70
     1
102
RTVSPropertyOp22
 70
     1
102
RTVSPropertyOp23
 70
     1
102
RTVSPropertyOp24
 70
     1
102
RTVSPropertyOp25
 70
     1
102
RTVSPropertyOp26
 70
     1
102
RTVSPropertyOp27
 70
     1
102
RTVSPropertyOp28
 70
     1
102
RTVSPropertyOp29
 70
     1
102
RTVSPropertyOp30
 70
     1
102
RTVSPropertyOp31
 70
     1
102
RTVSPropertyOp32
 70
     1
102
RTVSPropertyOp33
 70
     1
102
RTVSPropertyOp34
 70
     1
102
RTVSPropertyOp35
 70
     1
102
RTVSPropertyOp36
 70
     1
102
RTVSPropertyOp37
 70
     1
102
RTVSPropertyOp38
 70
     1
102
RTVSPropertyOp39
 70
     1
102
RTVSPropertyOp40
 70
     1
102
RTVSPropertyOp41
 70
     1
102
RTVSPropertyOp42
 70
     1
102
RTVSPropertyOp43
 70
     1
102
RTVSPropertyOp44
 70
     1
102
RTVSPropertyOp45
 70
     1
102
RTVSPropertyOp46
 70
     1
102
RTVSPropertyOp47
 70
     1
102
RTVSPropertyOp48
 70
     1
102
RTVSPropertyOp49
 70
     1
102
RTVSPropertyOp50
 70
     1
102
RTVSPropertyOp51
 70
     0
102
RTVSPropertyOp52
 70
     0
102
RTVSPropertyOp53
 70
     1
102
RTVSPropertyOp54
 70
     1
102
RTVSPropertyOp55
 70
     1
102
RTVSPropertyOp56
 70
     1
102
RTVSPropertyOp57
 70
     1
102
RTVSPropertyOp58
 70
     1
102
RTVSPropertyOp59
 70
     1
102
RTVSPropertyOp60
 70
     1
102
RTVSPropertyOp61
 70
     1
102
RTVSPropertyOp62
 70
     1
  0
XRECORD
  5
81B
102
{ACAD_REACTORS
330
81A
102
}
330
81A
100
AcDbXrecord
280
     1
102
RTVSPost2010Prop28
280
     0
102
RTVSPost2010PropOp28
 70
     1
102
RTVSPost2010Prop29
280
     1
102
RTVSPost2010PropOp29
 70
     1
102
RTVSPost2010Prop30
280
     1
102
RTVSPost2010PropOp30
 70
     1
102
RTVSPost2010Prop31
280
     0
102
RTVSPost2010PropOp31
 70
     1
102
RTVSPost2010Prop32
280
     0
102
RTVSPost2010PropOp32
 70
     1
102
RTVSPost2010Prop33
280
     0
102
RTVSPost2010PropOp33
 70
     1
102
RTVSPost2010Prop34
280
     0
102
RTVSPost2010PropOp34
 70
     1
102
RTVSPost2010Prop35
280
     0
102
RTVSPost2010PropOp35
 70
     1
102
RTVSPost2010Prop36
280
     0
102
RTVSPost2010PropOp36
 70
     1
102
RTVSPost2010Prop37
 90
       50
102
RTVSPost2010PropOp37
 70
     1
102
RTVSPost2010Prop38
140
0.0
102
RTVSPost2010PropOp38
 70
     1
102
RTVSPost2010Prop39
140
1.0
102
RTVSPost2010PropOp39
 70
     1
102
RTVSPost2010Prop40
 90
        0
102
RTVSPost2010PropOp40
 70
     1
102
RTVSPost2010Prop41ColorIndex
 90
       18
102
RTVSPost2010Prop41ColorRGB
 90
        0
102
RTVSPost2010PropOp41
 70
     1
102
RTVSPost2010Prop42
 90
       50
102
RTVSPost2010PropOp42
 70
     1
102
RTVSPost2010Prop43
 90
        3
102
RTVSPost2010PropOp43
 70
     1
102
RTVSPost2010Prop44ColorIndex
 90
        5
102
RTVSPost2010Prop44ColorRGB
 90
      255
102
RTVSPost2010PropOp44
 70
     1
102
RTVSPost2010Prop45
280
     0
102
RTVSPost2010PropOp45
 70
     1
102
RTVSPost2010Prop46
 90
       50
102
RTVSPost2010PropOp46
 70
     1
102
RTVSPost2010Prop47
 90
       50
102
RTVSPost2010PropOp47
 70
     1
102
RTVSPost2010Prop48
 90
       50
102
RTVSPost2010PropOp48
 70
     1
102
RTVSPost2010Prop49
280
     0
102
RTVSPost2010PropOp49
 70
     1
102
RTVSPost2010Prop50
 90
       50
102
RTVSPost2010PropOp50
 70
     1
102
RTVSPost2010Prop51ColorIndex
 90
      256
102
RTVSPost2010Prop51ColorRGB
 90
-16777216
102
RTVSPost2010PropOp51
 70
     0
102
RTVSPost2010Prop52
140
1.0
102
RTVSPost2010PropOp52
 70
     0
102
RTVSPost2010Prop53
 90
        2
102
RTVSPost2010PropOp53
 70
     1
102
RTVSPost2010Prop54
  1
strokes_ogs.tif
102
RTVSPost2010PropOp54
 70
     1
102
RTVSPost2010Prop55
280
     0
102
RTVSPost2010PropOp55
 70
     1
102
RTVSPost2010Prop56
140
1.0
102
RTVSPost2010PropOp56
 70
     1
102
RTVSPost2010Prop57
140
1.0
102
RTVSPost2010PropOp57
 70
     1
102
RTVSPropertyOp0
 70
     1
102
RTVSPropertyOp1
 70
     1
102
RTVSPropertyOp2
 70
     1
102
RTVSPropertyOp3
 70
     1
102
RTVSPropertyOp4
 70
     1
102
RTVSPropertyOp5
 70
     1
102
RTVSPropertyOp6
 70
     1
102
RTVSPropertyOp7
 70
     1
102
RTVSPropertyOp8
 70
     1
102
RTVSPropertyOp9
 70
     1
102
RTVSPropertyOp10
 70
     1
102
RTVSPropertyOp11
 70
     1
102
RTVSPropertyOp12
 70
     1
102
RTVSPropertyOp13
 70
     1
102
RTVSPropertyOp14
 70
     1
102
RTVSPropertyOp15
 70
     1
102
RTVSPropertyOp16
 70
     1
102
RTVSPropertyOp17
 70
     1
102
RTVSPropertyOp18
 70
     1
102
RTVSPropertyOp19
 70
     1
102
RTVSPropertyOp20
 70
     1
102
RTVSPropertyOp21
 70
     1
102
RTVSPropertyOp22
 70
     1
102
RTVSPropertyOp23
 70
     1
102
RTVSPropertyOp24
 70
     1
102
RTVSPropertyOp25
 70
     1
102
RTVSPropertyOp26
 70
     1
102
RTVSPropertyOp27
 70
     1
102
RTVSPropertyOp28
 70
     1
102
RTVSPropertyOp29
 70
     1
102
RTVSPropertyOp30
 70
     1
102
RTVSPropertyOp31
 70
     1
102
RTVSPropertyOp32
 70
     1
102
RTVSPropertyOp33
 70
     1
102
RTVSPropertyOp34
 70
     1
102
RTVSPropertyOp35
 70
     1
102
RTVSPropertyOp36
 70
     1
102
RTVSPropertyOp37
 70
     1
102
RTVSPropertyOp38
 70
     1
102
RTVSPropertyOp39
 70
     1
102
RTVSPropertyOp40
 70
     1
102
RTVSPropertyOp41
 70
     1
102
RTVSPropertyOp42
 70
     1
102
RTVSPropertyOp43
 70
     1
102
RTVSPropertyOp44
 70
     1
102
RTVSPropertyOp45
 70
     1
102
RTVSPropertyOp46
 70
     1
102
RTVSPropertyOp47
 70
     1
102
RTVSPropertyOp48
 70
     1
102
RTVSPropertyOp49
 70
     1
102
RTVSPropertyOp50
 70
     1
102
RTVSPropertyOp51
 70
     0
102
RTVSPropertyOp52
 70
     0
102
RTVSPropertyOp53
 70
     1
102
RTVSPropertyOp54
 70
     1
102
RTVSPropertyOp55
 70
     1
102
RTVSPropertyOp56
 70
     1
102
RTVSPropertyOp57
 70
     1
102
RTVSPropertyOp58
 70
     1
102
RTVSPropertyOp59
 70
     1
102
RTVSPropertyOp60
 70
     1
102
RTVSPropertyOp61
 70
     1
102
RTVSPropertyOp62
 70
     1
  0
XRECORD
  5
81D
102
{ACAD_REACTORS
330
81C
102
}
330
81C
100
AcDbXrecord
280
     1
102
RTVSPost2010Prop28
280
     0
102
RTVSPost2010PropOp28
 70
     1
102
RTVSPost2010Prop29
280
     1
102
RTVSPost2010PropOp29
 70
     1
102
RTVSPost2010Prop30
280
     1
102
RTVSPost2010PropOp30
 70
     1
102
RTVSPost2010Prop31
280
     0
102
RTVSPost2010PropOp31
 70
     1
102
RTVSPost2010Prop32
280
     0
102
RTVSPost2010PropOp32
 70
     1
102
RTVSPost2010Prop33
280
     0
102
RTVSPost2010PropOp33
 70
     1
102
RTVSPost2010Prop34
280
     0
102
RTVSPost2010PropOp34
 70
     1
102
RTVSPost2010Prop35
280
     0
102
RTVSPost2010PropOp35
 70
     1
102
RTVSPost2010Prop36
280
     0
102
RTVSPost2010PropOp36
 70
     1
102
RTVSPost2010Prop37
 90
       50
102
RTVSPost2010PropOp37
 70
     1
102
RTVSPost2010Prop38
140
0.0
102
RTVSPost2010PropOp38
 70
     1
102
RTVSPost2010Prop39
140
1.0
102
RTVSPost2010PropOp39
 70
     1
102
RTVSPost2010Prop40
 90
        0
102
RTVSPost2010PropOp40
 70
     1
102
RTVSPost2010Prop41ColorIndex
 90
       18
102
RTVSPost2010Prop41ColorRGB
 90
        0
102
RTVSPost2010PropOp41
 70
     1
102
RTVSPost2010Prop42
 90
       50
102
RTVSPost2010PropOp42
 70
     1
102
RTVSPost2010Prop43
 90
        3
102
RTVSPost2010PropOp43
 70
     1
102
RTVSPost2010Prop44ColorIndex
 90
        5
102
RTVSPost2010Prop44ColorRGB
 90
      255
102
RTVSPost2010PropOp44
 70
     1
102
RTVSPost2010Prop45
280
     0
102
RTVSPost2010PropOp45
 70
     1
102
RTVSPost2010Prop46
 90
       50
102
RTVSPost2010PropOp46
 70
     1
102
RTVSPost2010Prop47
 90
       50
102
RTVSPost2010PropOp47
 70
     1
102
RTVSPost2010Prop48
 90
       50
102
RTVSPost2010PropOp48
 70
     1
102
RTVSPost2010Prop49
280
     0
102
RTVSPost2010PropOp49
 70
     1
102
RTVSPost2010Prop50
 90
       50
102
RTVSPost2010PropOp50
 70
     1
102
RTVSPost2010Prop51ColorIndex
 90
      256
102
RTVSPost2010Prop51ColorRGB
 90
-16777216
102
RTVSPost2010PropOp51
 70
     0
102
RTVSPost2010Prop52
140
1.0
102
RTVSPost2010PropOp52
 70
     0
102
RTVSPost2010Prop53
 90
        2
102
RTVSPost2010PropOp53
 70
     1
102
RTVSPost2010Prop54
  1
strokes_ogs.tif
102
RTVSPost2010PropOp54
 70
     1
102
RTVSPost2010Prop55
280
     0
102
RTVSPost2010PropOp55
 70
     1
102
RTVSPost2010Prop56
140
1.0
102
RTVSPost2010PropOp56
 70
     1
102
RTVSPost2010Prop57
140
1.0
102
RTVSPost2010PropOp57
 70
     1
102
RTVSPropertyOp0
 70
     1
102
RTVSPropertyOp1
 70
     1
102
RTVSPropertyOp2
 70
     1
102
RTVSPropertyOp3
 70
     1
102
RTVSPropertyOp4
 70
     1
102
RTVSPropertyOp5
 70
     1
102
RTVSPropertyOp6
 70
     1
102
RTVSPropertyOp7
 70
     1
102
RTVSPropertyOp8
 70
     1
102
RTVSPropertyOp9
 70
     1
102
RTVSPropertyOp10
 70
     1
102
RTVSPropertyOp11
 70
     1
102
RTVSPropertyOp12
 70
     1
102
RTVSPropertyOp13
 70
     1
102
RTVSPropertyOp14
 70
     1
102
RTVSPropertyOp15
 70
     1
102
RTVSPropertyOp16
 70
     1
102
RTVSPropertyOp17
 70
     1
102
RTVSPropertyOp18
 70
     1
102
RTVSPropertyOp19
 70
     1
102
RTVSPropertyOp20
 70
     1
102
RTVSPropertyOp21
 70
     1
102
RTVSPropertyOp22
 70
     1
102
RTVSPropertyOp23
 70
     1
102
RTVSPropertyOp24
 70
     1
102
RTVSPropertyOp25
 70
     1
102
RTVSPropertyOp26
 70
     1
102
RTVSPropertyOp27
 70
     1
102
RTVSPropertyOp28
 70
     1
102
RTVSPropertyOp29
 70
     1
102
RTVSPropertyOp30
 70
     1
102
RTVSPropertyOp31
 70
     1
102
RTVSPropertyOp32
 70
     1
102
RTVSPropertyOp33
 70
     1
102
RTVSPropertyOp34
 70
     1
102
RTVSPropertyOp35
 70
     1
102
RTVSPropertyOp36
 70
     1
102
RTVSPropertyOp37
 70
     1
102
RTVSPropertyOp38
 70
     1
102
RTVSPropertyOp39
 70
     1
102
RTVSPropertyOp40
 70
     1
102
RTVSPropertyOp41
 70
     1
102
RTVSPropertyOp42
 70
     1
102
RTVSPropertyOp43
 70
     1
102
RTVSPropertyOp44
 70
     1
102
RTVSPropertyOp45
 70
     1
102
RTVSPropertyOp46
 70
     1
102
RTVSPropertyOp47
 70
     1
102
RTVSPropertyOp48
 70
     1
102
RTVSPropertyOp49
 70
     1
102
RTVSPropertyOp50
 70
     1
102
RTVSPropertyOp51
 70
     0
102
RTVSPropertyOp52
 70
     0
102
RTVSPropertyOp53
 70
     1
102
RTVSPropertyOp54
 70
     1
102
RTVSPropertyOp55
 70
     1
102
RTVSPropertyOp56
 70
     1
102
RTVSPropertyOp57
 70
     1
102
RTVSPropertyOp58
 70
     1
102
RTVSPropertyOp59
 70
     1
102
RTVSPropertyOp60
 70
     1
102
RTVSPropertyOp61
 70
     1
102
RTVSPropertyOp62
 70
     1
  0
XRECORD
  5
81F
102
{ACAD_REACTORS
330
81E
102
}
330
81E
100
AcDbXrecord
280
     1
102
RTVSPost2010Prop28
280
     0
102
RTVSPost2010PropOp28
 70
     1
102
RTVSPost2010Prop29
280
     1
102
RTVSPost2010PropOp29
 70
     1
102
RTVSPost2010Prop30
280
     1
102
RTVSPost2010PropOp30
 70
     1
102
RTVSPost2010Prop31
280
     0
102
RTVSPost2010PropOp31
 70
     1
102
RTVSPost2010Prop32
280
     0
102
RTVSPost2010PropOp32
 70
     1
102
RTVSPost2010Prop33
280
     0
102
RTVSPost2010PropOp33
 70
     1
102
RTVSPost2010Prop34
280
     0
102
RTVSPost2010PropOp34
 70
     1
102
RTVSPost2010Prop35
280
     0
102
RTVSPost2010PropOp35
 70
     1
102
RTVSPost2010Prop36
280
     0
102
RTVSPost2010PropOp36
 70
     1
102
RTVSPost2010Prop37
 90
       50
102
RTVSPost2010PropOp37
 70
     1
102
RTVSPost2010Prop38
140
0.0
102
RTVSPost2010PropOp38
 70
     1
102
RTVSPost2010Prop39
140
1.0
102
RTVSPost2010PropOp39
 70
     1
102
RTVSPost2010Prop40
 90
        0
102
RTVSPost2010PropOp40
 70
     1
102
RTVSPost2010Prop41ColorIndex
 90
       18
102
RTVSPost2010Prop41ColorRGB
 90
        0
102
RTVSPost2010PropOp41
 70
     1
102
RTVSPost2010Prop42
 90
       50
102
RTVSPost2010PropOp42
 70
     1
102
RTVSPost2010Prop43
 90
        3
102
RTVSPost2010PropOp43
 70
     1
102
RTVSPost2010Prop44ColorIndex
 90
        5
102
RTVSPost2010Prop44ColorRGB
 90
      255
102
RTVSPost2010PropOp44
 70
     1
102
RTVSPost2010Prop45
280
     0
102
RTVSPost2010PropOp45
 70
     1
102
RTVSPost2010Prop46
 90
       50
102
RTVSPost2010PropOp46
 70
     1
102
RTVSPost2010Prop47
 90
       50
102
RTVSPost2010PropOp47
 70
     1
102
RTVSPost2010Prop48
 90
       50
102
RTVSPost2010PropOp48
 70
     1
102
RTVSPost2010Prop49
280
     0
102
RTVSPost2010PropOp49
 70
     1
102
RTVSPost2010Prop50
 90
       50
102
RTVSPost2010PropOp50
 70
     1
102
RTVSPost2010Prop51ColorIndex
 90
      256
102
RTVSPost2010Prop51ColorRGB
 90
-16777216
102
RTVSPost2010PropOp51
 70
     0
102
RTVSPost2010Prop52
140
1.0
102
RTVSPost2010PropOp52
 70
     0
102
RTVSPost2010Prop53
 90
        2
102
RTVSPost2010PropOp53
 70
     1
102
RTVSPost2010Prop54
  1
strokes_ogs.tif
102
RTVSPost2010PropOp54
 70
     1
102
RTVSPost2010Prop55
280
     0
102
RTVSPost2010PropOp55
 70
     1
102
RTVSPost2010Prop56
140
1.0
102
RTVSPost2010PropOp56
 70
     1
102
RTVSPost2010Prop57
140
1.0
102
RTVSPost2010PropOp57
 70
     1
102
RTVSPropertyOp0
 70
     1
102
RTVSPropertyOp1
 70
     1
102
RTVSPropertyOp2
 70
     1
102
RTVSPropertyOp3
 70
     1
102
RTVSPropertyOp4
 70
     1
102
RTVSPropertyOp5
 70
     1
102
RTVSPropertyOp6
 70
     1
102
RTVSPropertyOp7
 70
     1
102
RTVSPropertyOp8
 70
     1
102
RTVSPropertyOp9
 70
     1
102
RTVSPropertyOp10
 70
     1
102
RTVSPropertyOp11
 70
     1
102
RTVSPropertyOp12
 70
     1
102
RTVSPropertyOp13
 70
     1
102
RTVSPropertyOp14
 70
     1
102
RTVSPropertyOp15
 70
     1
102
RTVSPropertyOp16
 70
     1
102
RTVSPropertyOp17
 70
     1
102
RTVSPropertyOp18
 70
     1
102
RTVSPropertyOp19
 70
     1
102
RTVSPropertyOp20
 70
     1
102
RTVSPropertyOp21
 70
     1
102
RTVSPropertyOp22
 70
     1
102
RTVSPropertyOp23
 70
     1
102
RTVSPropertyOp24
 70
     1
102
RTVSPropertyOp25
 70
     1
102
RTVSPropertyOp26
 70
     1
102
RTVSPropertyOp27
 70
     1
102
RTVSPropertyOp28
 70
     1
102
RTVSPropertyOp29
 70
     1
102
RTVSPropertyOp30
 70
     1
102
RTVSPropertyOp31
 70
     1
102
RTVSPropertyOp32
 70
     1
102
RTVSPropertyOp33
 70
     1
102
RTVSPropertyOp34
 70
     1
102
RTVSPropertyOp35
 70
     1
102
RTVSPropertyOp36
 70
     1
102
RTVSPropertyOp37
 70
     1
102
RTVSPropertyOp38
 70
     1
102
RTVSPropertyOp39
 70
     1
102
RTVSPropertyOp40
 70
     1
102
RTVSPropertyOp41
 70
     1
102
RTVSPropertyOp42
 70
     1
102
RTVSPropertyOp43
 70
     1
102
RTVSPropertyOp44
 70
     1
102
RTVSPropertyOp45
 70
     1
102
RTVSPropertyOp46
 70
     1
102
RTVSPropertyOp47
 70
     1
102
RTVSPropertyOp48
 70
     1
102
RTVSPropertyOp49
 70
     1
102
RTVSPropertyOp50
 70
     1
102
RTVSPropertyOp51
 70
     0
102
RTVSPropertyOp52
 70
     0
102
RTVSPropertyOp53
 70
     1
102
RTVSPropertyOp54
 70
     1
102
RTVSPropertyOp55
 70
     1
102
RTVSPropertyOp56
 70
     1
102
RTVSPropertyOp57
 70
     1
102
RTVSPropertyOp58
 70
     1
102
RTVSPropertyOp59
 70
     1
102
RTVSPropertyOp60
 70
     1
102
RTVSPropertyOp61
 70
     1
102
RTVSPropertyOp62
 70
     1
  0
XRECORD
  5
827
102
{ACAD_REACTORS
330
826
102
}
330
826
100
AcDbXrecord
280
     1
102
RTVSPost2010Prop28
280
     0
102
RTVSPost2010PropOp28
 70
     1
102
RTVSPost2010Prop29
280
     1
102
RTVSPost2010PropOp29
 70
     1
102
RTVSPost2010Prop30
280
     1
102
RTVSPost2010PropOp30
 70
     1
102
RTVSPost2010Prop31
280
     0
102
RTVSPost2010PropOp31
 70
     1
102
RTVSPost2010Prop32
280
     0
102
RTVSPost2010PropOp32
 70
     1
102
RTVSPost2010Prop33
280
     0
102
RTVSPost2010PropOp33
 70
     1
102
RTVSPost2010Prop34
280
     0
102
RTVSPost2010PropOp34
 70
     1
102
RTVSPost2010Prop35
280
     0
102
RTVSPost2010PropOp35
 70
     1
102
RTVSPost2010Prop36
280
     0
102
RTVSPost2010PropOp36
 70
     1
102
RTVSPost2010Prop37
 90
       50
102
RTVSPost2010PropOp37
 70
     1
102
RTVSPost2010Prop38
140
0.0
102
RTVSPost2010PropOp38
 70
     1
102
RTVSPost2010Prop39
140
1.0
102
RTVSPost2010PropOp39
 70
     1
102
RTVSPost2010Prop40
 90
        0
102
RTVSPost2010PropOp40
 70
     1
102
RTVSPost2010Prop41ColorIndex
 90
       18
102
RTVSPost2010Prop41ColorRGB
 90
        0
102
RTVSPost2010PropOp41
 70
     1
102
RTVSPost2010Prop42
 90
       50
102
RTVSPost2010PropOp42
 70
     1
102
RTVSPost2010Prop43
 90
        3
102
RTVSPost2010PropOp43
 70
     1
102
RTVSPost2010Prop44ColorIndex
 90
        5
102
RTVSPost2010Prop44ColorRGB
 90
      255
102
RTVSPost2010PropOp44
 70
     1
102
RTVSPost2010Prop45
280
     0
102
RTVSPost2010PropOp45
 70
     1
102
RTVSPost2010Prop46
 90
       50
102
RTVSPost2010PropOp46
 70
     1
102
RTVSPost2010Prop47
 90
       50
102
RTVSPost2010PropOp47
 70
     1
102
RTVSPost2010Prop48
 90
       50
102
RTVSPost2010PropOp48
 70
     1
102
RTVSPost2010Prop49
280
     0
102
RTVSPost2010PropOp49
 70
     1
102
RTVSPost2010Prop50
 90
       50
102
RTVSPost2010PropOp50
 70
     1
102
RTVSPost2010Prop51ColorIndex
 90
      256
102
RTVSPost2010Prop51ColorRGB
 90
-16777216
102
RTVSPost2010PropOp51
 70
     0
102
RTVSPost2010Prop52
140
1.0
102
RTVSPost2010PropOp52
 70
     0
102
RTVSPost2010Prop53
 90
        2
102
RTVSPost2010PropOp53
 70
     1
102
RTVSPost2010Prop54
  1
strokes_ogs.tif
102
RTVSPost2010PropOp54
 70
     1
102
RTVSPost2010Prop55
280
     0
102
RTVSPost2010PropOp55
 70
     1
102
RTVSPost2010Prop56
140
1.0
102
RTVSPost2010PropOp56
 70
     1
102
RTVSPost2010Prop57
140
1.0
102
RTVSPost2010PropOp57
 70
     1
102
RTVSPropertyOp0
 70
     1
102
RTVSPropertyOp1
 70
     1
102
RTVSPropertyOp2
 70
     1
102
RTVSPropertyOp3
 70
     1
102
RTVSPropertyOp4
 70
     1
102
RTVSPropertyOp5
 70
     1
102
RTVSPropertyOp6
 70
     1
102
RTVSPropertyOp7
 70
     1
102
RTVSPropertyOp8
 70
     1
102
RTVSPropertyOp9
 70
     1
102
RTVSPropertyOp10
 70
     1
102
RTVSPropertyOp11
 70
     1
102
RTVSPropertyOp12
 70
     1
102
RTVSPropertyOp13
 70
     1
102
RTVSPropertyOp14
 70
     1
102
RTVSPropertyOp15
 70
     1
102
RTVSPropertyOp16
 70
     1
102
RTVSPropertyOp17
 70
     1
102
RTVSPropertyOp18
 70
     1
102
RTVSPropertyOp19
 70
     1
102
RTVSPropertyOp20
 70
     1
102
RTVSPropertyOp21
 70
     1
102
RTVSPropertyOp22
 70
     1
102
RTVSPropertyOp23
 70
     1
102
RTVSPropertyOp24
 70
     1
102
RTVSPropertyOp25
 70
     1
102
RTVSPropertyOp26
 70
     1
102
RTVSPropertyOp27
 70
     1
102
RTVSPropertyOp28
 70
     1
102
RTVSPropertyOp29
 70
     1
102
RTVSPropertyOp30
 70
     1
102
RTVSPropertyOp31
 70
     1
102
RTVSPropertyOp32
 70
     1
102
RTVSPropertyOp33
 70
     1
102
RTVSPropertyOp34
 70
     1
102
RTVSPropertyOp35
 70
     1
102
RTVSPropertyOp36
 70
     1
102
RTVSPropertyOp37
 70
     1
102
RTVSPropertyOp38
 70
     1
102
RTVSPropertyOp39
 70
     1
102
RTVSPropertyOp40
 70
     1
102
RTVSPropertyOp41
 70
     1
102
RTVSPropertyOp42
 70
     1
102
RTVSPropertyOp43
 70
     1
102
RTVSPropertyOp44
 70
     1
102
RTVSPropertyOp45
 70
     1
102
RTVSPropertyOp46
 70
     1
102
RTVSPropertyOp47
 70
     1
102
RTVSPropertyOp48
 70
     1
102
RTVSPropertyOp49
 70
     1
102
RTVSPropertyOp50
 70
     1
102
RTVSPropertyOp51
 70
     0
102
RTVSPropertyOp52
 70
     0
102
RTVSPropertyOp53
 70
     1
102
RTVSPropertyOp54
 70
     1
102
RTVSPropertyOp55
 70
     1
102
RTVSPropertyOp56
 70
     1
102
RTVSPropertyOp57
 70
     1
102
RTVSPropertyOp58
 70
     1
102
RTVSPropertyOp59
 70
     1
102
RTVSPropertyOp60
 70
     1
102
RTVSPropertyOp61
 70
     1
102
RTVSPropertyOp62
 70
     1
  0
XRECORD
  5
843
102
{ACAD_REACTORS
330
842
102
}
330
842
100
AcDbXrecord
280
     1
102
RTVSPost2010Prop28
280
     0
102
RTVSPost2010PropOp28
 70
     0
102
RTVSPost2010Prop29
280
     1
102
RTVSPost2010PropOp29
 70
     0
102
RTVSPost2010Prop30
280
     1
102
RTVSPost2010PropOp30
 70
     0
102
RTVSPost2010Prop31
280
     0
102
RTVSPost2010PropOp31
 70
     0
102
RTVSPost2010Prop32
280
     0
102
RTVSPost2010PropOp32
 70
     0
102
RTVSPost2010Prop33
280
     0
102
RTVSPost2010PropOp33
 70
     0
102
RTVSPost2010Prop34
280
     0
102
RTVSPost2010PropOp34
 70
     0
102
RTVSPost2010Prop35
280
     0
102
RTVSPost2010PropOp35
 70
     0
102
RTVSPost2010Prop36
280
     0
102
RTVSPost2010PropOp36
 70
     0
102
RTVSPost2010Prop37
 90
       50
102
RTVSPost2010PropOp37
 70
     0
102
RTVSPost2010Prop38
140
0.0
102
RTVSPost2010PropOp38
 70
     0
102
RTVSPost2010Prop39
140
1.0
102
RTVSPost2010PropOp39
 70
     0
102
RTVSPost2010Prop40
 90
        0
102
RTVSPost2010PropOp40
 70
     0
102
RTVSPost2010Prop41ColorIndex
 90
       18
102
RTVSPost2010Prop41ColorRGB
 90
        0
102
RTVSPost2010PropOp41
 70
     0
102
RTVSPost2010Prop42
 90
       50
102
RTVSPost2010PropOp42
 70
     0
102
RTVSPost2010Prop43
 90
        3
102
RTVSPost2010PropOp43
 70
     0
102
RTVSPost2010Prop44ColorIndex
 90
        5
102
RTVSPost2010Prop44ColorRGB
 90
      255
102
RTVSPost2010PropOp44
 70
     0
102
RTVSPost2010Prop45
280
     0
102
RTVSPost2010PropOp45
 70
     0
102
RTVSPost2010Prop46
 90
       50
102
RTVSPost2010PropOp46
 70
     0
102
RTVSPost2010Prop47
 90
       50
102
RTVSPost2010PropOp47
 70
     0
102
RTVSPost2010Prop48
 90
       50
102
RTVSPost2010PropOp48
 70
     0
102
RTVSPost2010Prop49
280
     0
102
RTVSPost2010PropOp49
 70
     0
102
RTVSPost2010Prop50
 90
       50
102
RTVSPost2010PropOp50
 70
     0
102
RTVSPost2010Prop51ColorIndex
 90
      256
102
RTVSPost2010Prop51ColorRGB
 90
-16777216
102
RTVSPost2010PropOp51
 70
     0
102
RTVSPost2010Prop52
140
1.0
102
RTVSPost2010PropOp52
 70
     0
102
RTVSPost2010Prop53
 90
        2
102
RTVSPost2010PropOp53
 70
     0
102
RTVSPost2010Prop54
  1
strokes_ogs.tif
102
RTVSPost2010PropOp54
 70
     0
102
RTVSPost2010Prop55
280
     0
102
RTVSPost2010PropOp55
 70
     0
102
RTVSPost2010Prop56
140
1.0
102
RTVSPost2010PropOp56
 70
     0
102
RTVSPost2010Prop57
140
1.0
102
RTVSPost2010PropOp57
 70
     0
102
RTVSPropertyOp0
 70
     0
102
RTVSPropertyOp1
 70
     0
102
RTVSPropertyOp2
 70
     0
102
RTVSPropertyOp3
 70
     0
102
RTVSPropertyOp4
 70
     0
102
RTVSPropertyOp5
 70
     0
102
RTVSPropertyOp6
 70
     0
102
RTVSPropertyOp7
 70
     0
102
RTVSPropertyOp8
 70
     0
102
RTVSPropertyOp9
 70
     0
102
RTVSPropertyOp10
 70
     0
102
RTVSPropertyOp11
 70
     0
102
RTVSPropertyOp12
 70
     0
102
RTVSPropertyOp13
 70
     0
102
RTVSPropertyOp14
 70
     2
102
RTVSPropertyOp15
 70
     0
102
RTVSPropertyOp16
 70
     0
102
RTVSPropertyOp17
 70
     0
102
RTVSPropertyOp18
 70
     0
102
RTVSPropertyOp19
 70
     0
102
RTVSPropertyOp20
 70
     0
102
RTVSPropertyOp21
 70
     0
102
RTVSPropertyOp22
 70
     0
102
RTVSPropertyOp23
 70
     0
102
RTVSPropertyOp24
 70
     0
102
RTVSPropertyOp25
 70
     0
102
RTVSPropertyOp26
 70
     0
102
RTVSPropertyOp27
 70
     0
102
RTVSPropertyOp28
 70
     0
102
RTVSPropertyOp29
 70
     0
102
RTVSPropertyOp30
 70
     0
102
RTVSPropertyOp31
 70
     0
102
RTVSPropertyOp32
 70
     0
102
RTVSPropertyOp33
 70
     0
102
RTVSPropertyOp34
 70
     0
102
RTVSPropertyOp35
 70
     0
102
RTVSPropertyOp36
 70
     0
102
RTVSPropertyOp37
 70
     0
102
RTVSPropertyOp38
 70
     0
102
RTVSPropertyOp39
 70
     0
102
RTVSPropertyOp40
 70
     0
102
RTVSPropertyOp41
 70
     0
102
RTVSPropertyOp42
 70
     0
102
RTVSPropertyOp43
 70
     0
102
RTVSPropertyOp44
 70
     0
102
RTVSPropertyOp45
 70
     0
102
RTVSPropertyOp46
 70
     0
102
RTVSPropertyOp47
 70
     0
102
RTVSPropertyOp48
 70
     0
102
RTVSPropertyOp49
 70
     0
102
RTVSPropertyOp50
 70
     0
102
RTVSPropertyOp51
 70
     0
102
RTVSPropertyOp52
 70
     0
102
RTVSPropertyOp53
 70
     0
102
RTVSPropertyOp54
 70
     0
102
RTVSPropertyOp55
 70
     0
102
RTVSPropertyOp56
 70
     0
102
RTVSPropertyOp57
 70
     0
102
RTVSPropertyOp58
 70
     0
102
RTVSPropertyOp59
 70
     0
102
RTVSPropertyOp60
 70
     0
102
RTVSPropertyOp61
 70
     0
102
RTVSPropertyOp62
 70
     0
  0
XRECORD
  5
833
102
{ACAD_REACTORS
330
832
102
}
330
832
100
AcDbXrecord
280
     1
102
RTVSPost2010Prop28
280
     0
102
RTVSPost2010PropOp28
 70
     1
102
RTVSPost2010Prop29
280
     1
102
RTVSPost2010PropOp29
 70
     1
102
RTVSPost2010Prop30
280
     1
102
RTVSPost2010PropOp30
 70
     1
102
RTVSPost2010Prop31
280
     0
102
RTVSPost2010PropOp31
 70
     1
102
RTVSPost2010Prop32
280
     0
102
RTVSPost2010PropOp32
 70
     1
102
RTVSPost2010Prop33
280
     0
102
RTVSPost2010PropOp33
 70
     1
102
RTVSPost2010Prop34
280
     0
102
RTVSPost2010PropOp34
 70
     1
102
RTVSPost2010Prop35
280
     0
102
RTVSPost2010PropOp35
 70
     1
102
RTVSPost2010Prop36
280
     0
102
RTVSPost2010PropOp36
 70
     1
102
RTVSPost2010Prop37
 90
       50
102
RTVSPost2010PropOp37
 70
     1
102
RTVSPost2010Prop38
140
0.0
102
RTVSPost2010PropOp38
 70
     1
102
RTVSPost2010Prop39
140
1.0
102
RTVSPost2010PropOp39
 70
     1
102
RTVSPost2010Prop40
 90
        0
102
RTVSPost2010PropOp40
 70
     1
102
RTVSPost2010Prop41ColorIndex
 90
       18
102
RTVSPost2010Prop41ColorRGB
 90
        0
102
RTVSPost2010PropOp41
 70
     1
102
RTVSPost2010Prop42
 90
       50
102
RTVSPost2010PropOp42
 70
     1
102
RTVSPost2010Prop43
 90
        3
102
RTVSPost2010PropOp43
 70
     1
102
RTVSPost2010Prop44ColorIndex
 90
        5
102
RTVSPost2010Prop44ColorRGB
 90
      255
102
RTVSPost2010PropOp44
 70
     1
102
RTVSPost2010Prop45
280
     0
102
RTVSPost2010PropOp45
 70
     1
102
RTVSPost2010Prop46
 90
       50
102
RTVSPost2010PropOp46
 70
     1
102
RTVSPost2010Prop47
 90
       50
102
RTVSPost2010PropOp47
 70
     1
102
RTVSPost2010Prop48
 90
       50
102
RTVSPost2010PropOp48
 70
     1
102
RTVSPost2010Prop49
280
     0
102
RTVSPost2010PropOp49
 70
     1
102
RTVSPost2010Prop50
 90
       50
102
RTVSPost2010PropOp50
 70
     1
102
RTVSPost2010Prop51ColorIndex
 90
      256
102
RTVSPost2010Prop51ColorRGB
 90
-16777216
102
RTVSPost2010PropOp51
 70
     0
102
RTVSPost2010Prop52
140
1.0
102
RTVSPost2010PropOp52
 70
     0
102
RTVSPost2010Prop53
 90
        2
102
RTVSPost2010PropOp53
 70
     1
102
RTVSPost2010Prop54
  1
strokes_ogs.tif
102
RTVSPost2010PropOp54
 70
     1
102
RTVSPost2010Prop55
280
     0
102
RTVSPost2010PropOp55
 70
     1
102
RTVSPost2010Prop56
140
1.0
102
RTVSPost2010PropOp56
 70
     1
102
RTVSPost2010Prop57
140
1.0
102
RTVSPost2010PropOp57
 70
     1
102
RTVSPropertyOp0
 70
     1
102
RTVSPropertyOp1
 70
     1
102
RTVSPropertyOp2
 70
     1
102
RTVSPropertyOp3
 70
     1
102
RTVSPropertyOp4
 70
     1
102
RTVSPropertyOp5
 70
     1
102
RTVSPropertyOp6
 70
     1
102
RTVSPropertyOp7
 70
     1
102
RTVSPropertyOp8
 70
     1
102
RTVSPropertyOp9
 70
     1
102
RTVSPropertyOp10
 70
     1
102
RTVSPropertyOp11
 70
     1
102
RTVSPropertyOp12
 70
     1
102
RTVSPropertyOp13
 70
     1
102
RTVSPropertyOp14
 70
     1
102
RTVSPropertyOp15
 70
     1
102
RTVSPropertyOp16
 70
     1
102
RTVSPropertyOp17
 70
     1
102
RTVSPropertyOp18
 70
     1
102
RTVSPropertyOp19
 70
     1
102
RTVSPropertyOp20
 70
     1
102
RTVSPropertyOp21
 70
     1
102
RTVSPropertyOp22
 70
     1
102
RTVSPropertyOp23
 70
     1
102
RTVSPropertyOp24
 70
     1
102
RTVSPropertyOp25
 70
     1
102
RTVSPropertyOp26
 70
     1
102
RTVSPropertyOp27
 70
     1
102
RTVSPropertyOp28
 70
     1
102
RTVSPropertyOp29
 70
     1
102
RTVSPropertyOp30
 70
     1
102
RTVSPropertyOp31
 70
     1
102
RTVSPropertyOp32
 70
     1
102
RTVSPropertyOp33
 70
     1
102
RTVSPropertyOp34
 70
     1
102
RTVSPropertyOp35
 70
     1
102
RTVSPropertyOp36
 70
     1
102
RTVSPropertyOp37
 70
     1
102
RTVSPropertyOp38
 70
     1
102
RTVSPropertyOp39
 70
     1
102
RTVSPropertyOp40
 70
     1
102
RTVSPropertyOp41
 70
     1
102
RTVSPropertyOp42
 70
     1
102
RTVSPropertyOp43
 70
     1
102
RTVSPropertyOp44
 70
     1
102
RTVSPropertyOp45
 70
     1
102
RTVSPropertyOp46
 70
     1
102
RTVSPropertyOp47
 70
     1
102
RTVSPropertyOp48
 70
     1
102
RTVSPropertyOp49
 70
     1
102
RTVSPropertyOp50
 70
     1
102
RTVSPropertyOp51
 70
     0
102
RTVSPropertyOp52
 70
     0
102
RTVSPropertyOp53
 70
     1
102
RTVSPropertyOp54
 70
     1
102
RTVSPropertyOp55
 70
     1
102
RTVSPropertyOp56
 70
     1
102
RTVSPropertyOp57
 70
     1
102
RTVSPropertyOp58
 70
     1
102
RTVSPropertyOp59
 70
     1
102
RTVSPropertyOp60
 70
     1
102
RTVSPropertyOp61
 70
     1
102
RTVSPropertyOp62
 70
     1
  0
XRECORD
  5
845
102
{ACAD_REACTORS
330
844
102
}
330
844
100
AcDbXrecord
280
     1
102
RTVSPost2010Prop28
280
     0
102
RTVSPost2010PropOp28
 70
     0
102
RTVSPost2010Prop29
280
     1
102
RTVSPost2010PropOp29
 70
     0
102
RTVSPost2010Prop30
280
     1
102
RTVSPost2010PropOp30
 70
     0
102
RTVSPost2010Prop31
280
     0
102
RTVSPost2010PropOp31
 70
     0
102
RTVSPost2010Prop32
280
     0
102
RTVSPost2010PropOp32
 70
     0
102
RTVSPost2010Prop33
280
     0
102
RTVSPost2010PropOp33
 70
     0
102
RTVSPost2010Prop34
280
     0
102
RTVSPost2010PropOp34
 70
     0
102
RTVSPost2010Prop35
280
     0
102
RTVSPost2010PropOp35
 70
     0
102
RTVSPost2010Prop36
280
     0
102
RTVSPost2010PropOp36
 70
     0
102
RTVSPost2010Prop37
 90
       50
102
RTVSPost2010PropOp37
 70
     0
102
RTVSPost2010Prop38
140
0.0
102
RTVSPost2010PropOp38
 70
     0
102
RTVSPost2010Prop39
140
1.0
102
RTVSPost2010PropOp39
 70
     0
102
RTVSPost2010Prop40
 90
        0
102
RTVSPost2010PropOp40
 70
     0
102
RTVSPost2010Prop41ColorIndex
 90
       18
102
RTVSPost2010Prop41ColorRGB
 90
        0
102
RTVSPost2010PropOp41
 70
     0
102
RTVSPost2010Prop42
 90
       50
102
RTVSPost2010PropOp42
 70
     0
102
RTVSPost2010Prop43
 90
        3
102
RTVSPost2010PropOp43
 70
     0
102
RTVSPost2010Prop44ColorIndex
 90
        5
102
RTVSPost2010Prop44ColorRGB
 90
      255
102
RTVSPost2010PropOp44
 70
     0
102
RTVSPost2010Prop45
280
     0
102
RTVSPost2010PropOp45
 70
     0
102
RTVSPost2010Prop46
 90
       50
102
RTVSPost2010PropOp46
 70
     0
102
RTVSPost2010Prop47
 90
       50
102
RTVSPost2010PropOp47
 70
     0
102
RTVSPost2010Prop48
 90
       50
102
RTVSPost2010PropOp48
 70
     0
102
RTVSPost2010Prop49
280
     0
102
RTVSPost2010PropOp49
 70
     0
102
RTVSPost2010Prop50
 90
       50
102
RTVSPost2010PropOp50
 70
     0
102
RTVSPost2010Prop51ColorIndex
 90
      256
102
RTVSPost2010Prop51ColorRGB
 90
-16777216
102
RTVSPost2010PropOp51
 70
     0
102
RTVSPost2010Prop52
140
1.0
102
RTVSPost2010PropOp52
 70
     0
102
RTVSPost2010Prop53
 90
        2
102
RTVSPost2010PropOp53
 70
     0
102
RTVSPost2010Prop54
  1
strokes_ogs.tif
102
RTVSPost2010PropOp54
 70
     0
102
RTVSPost2010Prop55
280
     0
102
RTVSPost2010PropOp55
 70
     0
102
RTVSPost2010Prop56
140
1.0
102
RTVSPost2010PropOp56
 70
     0
102
RTVSPost2010Prop57
140
1.0
102
RTVSPost2010PropOp57
 70
     0
102
RTVSPropertyOp0
 70
     0
102
RTVSPropertyOp1
 70
     0
102
RTVSPropertyOp2
 70
     0
102
RTVSPropertyOp3
 70
     0
102
RTVSPropertyOp4
 70
     0
102
RTVSPropertyOp5
 70
     0
102
RTVSPropertyOp6
 70
     0
102
RTVSPropertyOp7
 70
     0
102
RTVSPropertyOp8
 70
     0
102
RTVSPropertyOp9
 70
     0
102
RTVSPropertyOp10
 70
     0
102
RTVSPropertyOp11
 70
     0
102
RTVSPropertyOp12
 70
     0
102
RTVSPropertyOp13
 70
     0
102
RTVSPropertyOp14
 70
     2
102
RTVSPropertyOp15
 70
     0
102
RTVSPropertyOp16
 70
     0
102
RTVSPropertyOp17
 70
     0
102
RTVSPropertyOp18
 70
     0
102
RTVSPropertyOp19
 70
     0
102
RTVSPropertyOp20
 70
     0
102
RTVSPropertyOp21
 70
     0
102
RTVSPropertyOp22
 70
     0
102
RTVSPropertyOp23
 70
     0
102
RTVSPropertyOp24
 70
     0
102
RTVSPropertyOp25
 70
     0
102
RTVSPropertyOp26
 70
     0
102
RTVSPropertyOp27
 70
     0
102
RTVSPropertyOp28
 70
     0
102
RTVSPropertyOp29
 70
     0
102
RTVSPropertyOp30
 70
     0
102
RTVSPropertyOp31
 70
     0
102
RTVSPropertyOp32
 70
     0
102
RTVSPropertyOp33
 70
     0
102
RTVSPropertyOp34
 70
     0
102
RTVSPropertyOp35
 70
     0
102
RTVSPropertyOp36
 70
     0
102
RTVSPropertyOp37
 70
     0
102
RTVSPropertyOp38
 70
     0
102
RTVSPropertyOp39
 70
     0
102
RTVSPropertyOp40
 70
     0
102
RTVSPropertyOp41
 70
     0
102
RTVSPropertyOp42
 70
     0
102
RTVSPropertyOp43
 70
     0
102
RTVSPropertyOp44
 70
     0
102
RTVSPropertyOp45
 70
     0
102
RTVSPropertyOp46
 70
     0
102
RTVSPropertyOp47
 70
     0
102
RTVSPropertyOp48
 70
     0
102
RTVSPropertyOp49
 70
     0
102
RTVSPropertyOp50
 70
     0
102
RTVSPropertyOp51
 70
     0
102
RTVSPropertyOp52
 70
     0
102
RTVSPropertyOp53
 70
     0
102
RTVSPropertyOp54
 70
     0
102
RTVSPropertyOp55
 70
     0
102
RTVSPropertyOp56
 70
     0
102
RTVSPropertyOp57
 70
     0
102
RTVSPropertyOp58
 70
     0
102
RTVSPropertyOp59
 70
     0
102
RTVSPropertyOp60
 70
     0
102
RTVSPropertyOp61
 70
     0
102
RTVSPropertyOp62
 70
     0
  0
XRECORD
  5
82B
102
{ACAD_REACTORS
330
82A
102
}
330
82A
100
AcDbXrecord
280
     1
102
RTVSPost2010Prop28
280
     0
102
RTVSPost2010PropOp28
 70
     1
102
RTVSPost2010Prop29
280
     1
102
RTVSPost2010PropOp29
 70
     1
102
RTVSPost2010Prop30
280
     1
102
RTVSPost2010PropOp30
 70
     1
102
RTVSPost2010Prop31
280
     0
102
RTVSPost2010PropOp31
 70
     1
102
RTVSPost2010Prop32
280
     0
102
RTVSPost2010PropOp32
 70
     1
102
RTVSPost2010Prop33
280
     0
102
RTVSPost2010PropOp33
 70
     1
102
RTVSPost2010Prop34
280
     0
102
RTVSPost2010PropOp34
 70
     1
102
RTVSPost2010Prop35
280
     0
102
RTVSPost2010PropOp35
 70
     1
102
RTVSPost2010Prop36
280
     0
102
RTVSPost2010PropOp36
 70
     1
102
RTVSPost2010Prop37
 90
       50
102
RTVSPost2010PropOp37
 70
     1
102
RTVSPost2010Prop38
140
0.0
102
RTVSPost2010PropOp38
 70
     1
102
RTVSPost2010Prop39
140
1.0
102
RTVSPost2010PropOp39
 70
     1
102
RTVSPost2010Prop40
 90
        0
102
RTVSPost2010PropOp40
 70
     1
102
RTVSPost2010Prop41ColorIndex
 90
       18
102
RTVSPost2010Prop41ColorRGB
 90
        0
102
RTVSPost2010PropOp41
 70
     1
102
RTVSPost2010Prop42
 90
       50
102
RTVSPost2010PropOp42
 70
     1
102
RTVSPost2010Prop43
 90
        3
102
RTVSPost2010PropOp43
 70
     1
102
RTVSPost2010Prop44ColorIndex
 90
        5
102
RTVSPost2010Prop44ColorRGB
 90
      255
102
RTVSPost2010PropOp44
 70
     1
102
RTVSPost2010Prop45
280
     0
102
RTVSPost2010PropOp45
 70
     1
102
RTVSPost2010Prop46
 90
       50
102
RTVSPost2010PropOp46
 70
     1
102
RTVSPost2010Prop47
 90
       50
102
RTVSPost2010PropOp47
 70
     1
102
RTVSPost2010Prop48
 90
       50
102
RTVSPost2010PropOp48
 70
     1
102
RTVSPost2010Prop49
280
     0
102
RTVSPost2010PropOp49
 70
     1
102
RTVSPost2010Prop50
 90
       50
102
RTVSPost2010PropOp50
 70
     1
102
RTVSPost2010Prop51ColorIndex
 90
      256
102
RTVSPost2010Prop51ColorRGB
 90
-16777216
102
RTVSPost2010PropOp51
 70
     0
102
RTVSPost2010Prop52
140
1.0
102
RTVSPost2010PropOp52
 70
     0
102
RTVSPost2010Prop53
 90
        2
102
RTVSPost2010PropOp53
 70
     1
102
RTVSPost2010Prop54
  1
strokes_ogs.tif
102
RTVSPost2010PropOp54
 70
     1
102
RTVSPost2010Prop55
280
     0
102
RTVSPost2010PropOp55
 70
     1
102
RTVSPost2010Prop56
140
1.0
102
RTVSPost2010PropOp56
 70
     1
102
RTVSPost2010Prop57
140
1.0
102
RTVSPost2010PropOp57
 70
     1
102
RTVSPropertyOp0
 70
     1
102
RTVSPropertyOp1
 70
     1
102
RTVSPropertyOp2
 70
     1
102
RTVSPropertyOp3
 70
     1
102
RTVSPropertyOp4
 70
     1
102
RTVSPropertyOp5
 70
     1
102
RTVSPropertyOp6
 70
     1
102
RTVSPropertyOp7
 70
     1
102
RTVSPropertyOp8
 70
     1
102
RTVSPropertyOp9
 70
     1
102
RTVSPropertyOp10
 70
     1
102
RTVSPropertyOp11
 70
     1
102
RTVSPropertyOp12
 70
     1
102
RTVSPropertyOp13
 70
     1
102
RTVSPropertyOp14
 70
     1
102
RTVSPropertyOp15
 70
     1
102
RTVSPropertyOp16
 70
     1
102
RTVSPropertyOp17
 70
     1
102
RTVSPropertyOp18
 70
     1
102
RTVSPropertyOp19
 70
     1
102
RTVSPropertyOp20
 70
     1
102
RTVSPropertyOp21
 70
     1
102
RTVSPropertyOp22
 70
     1
102
RTVSPropertyOp23
 70
     1
102
RTVSPropertyOp24
 70
     1
102
RTVSPropertyOp25
 70
     1
102
RTVSPropertyOp26
 70
     1
102
RTVSPropertyOp27
 70
     1
102
RTVSPropertyOp28
 70
     1
102
RTVSPropertyOp29
 70
     1
102
RTVSPropertyOp30
 70
     1
102
RTVSPropertyOp31
 70
     1
102
RTVSPropertyOp32
 70
     1
102
RTVSPropertyOp33
 70
     1
102
RTVSPropertyOp34
 70
     1
102
RTVSPropertyOp35
 70
     1
102
RTVSPropertyOp36
 70
     1
102
RTVSPropertyOp37
 70
     1
102
RTVSPropertyOp38
 70
     1
102
RTVSPropertyOp39
 70
     1
102
RTVSPropertyOp40
 70
     1
102
RTVSPropertyOp41
 70
     1
102
RTVSPropertyOp42
 70
     1
102
RTVSPropertyOp43
 70
     1
102
RTVSPropertyOp44
 70
     1
102
RTVSPropertyOp45
 70
     1
102
RTVSPropertyOp46
 70
     1
102
RTVSPropertyOp47
 70
     1
102
RTVSPropertyOp48
 70
     1
102
RTVSPropertyOp49
 70
     1
102
RTVSPropertyOp50
 70
     1
102
RTVSPropertyOp51
 70
     0
102
RTVSPropertyOp52
 70
     0
102
RTVSPropertyOp53
 70
     1
102
RTVSPropertyOp54
 70
     1
102
RTVSPropertyOp55
 70
     1
102
RTVSPropertyOp56
 70
     1
102
RTVSPropertyOp57
 70
     1
102
RTVSPropertyOp58
 70
     1
102
RTVSPropertyOp59
 70
     1
102
RTVSPropertyOp60
 70
     1
102
RTVSPropertyOp61
 70
     1
102
RTVSPropertyOp62
 70
     1
  0
XRECORD
  5
841
102
{ACAD_REACTORS
330
840
102
}
330
840
100
AcDbXrecord
280
     1
102
RTVSPost2010Prop28
280
     0
102
RTVSPost2010PropOp28
 70
     1
102
RTVSPost2010Prop29
280
     1
102
RTVSPost2010PropOp29
 70
     1
102
RTVSPost2010Prop30
280
     1
102
RTVSPost2010PropOp30
 70
     1
102
RTVSPost2010Prop31
280
     0
102
RTVSPost2010PropOp31
 70
     1
102
RTVSPost2010Prop32
280
     0
102
RTVSPost2010PropOp32
 70
     1
102
RTVSPost2010Prop33
280
     0
102
RTVSPost2010PropOp33
 70
     1
102
RTVSPost2010Prop34
280
     0
102
RTVSPost2010PropOp34
 70
     1
102
RTVSPost2010Prop35
280
     0
102
RTVSPost2010PropOp35
 70
     1
102
RTVSPost2010Prop36
280
     0
102
RTVSPost2010PropOp36
 70
     1
102
RTVSPost2010Prop37
 90
       50
102
RTVSPost2010PropOp37
 70
     1
102
RTVSPost2010Prop38
140
0.0
102
RTVSPost2010PropOp38
 70
     1
102
RTVSPost2010Prop39
140
1.0
102
RTVSPost2010PropOp39
 70
     1
102
RTVSPost2010Prop40
 90
        0
102
RTVSPost2010PropOp40
 70
     1
102
RTVSPost2010Prop41ColorIndex
 90
       18
102
RTVSPost2010Prop41ColorRGB
 90
        0
102
RTVSPost2010PropOp41
 70
     1
102
RTVSPost2010Prop42
 90
       50
102
RTVSPost2010PropOp42
 70
     1
102
RTVSPost2010Prop43
 90
        3
102
RTVSPost2010PropOp43
 70
     1
102
RTVSPost2010Prop44ColorIndex
 90
        5
102
RTVSPost2010Prop44ColorRGB
 90
      255
102
RTVSPost2010PropOp44
 70
     1
102
RTVSPost2010Prop45
280
     0
102
RTVSPost2010PropOp45
 70
     1
102
RTVSPost2010Prop46
 90
       50
102
RTVSPost2010PropOp46
 70
     1
102
RTVSPost2010Prop47
 90
       50
102
RTVSPost2010PropOp47
 70
     1
102
RTVSPost2010Prop48
 90
       50
102
RTVSPost2010PropOp48
 70
     1
102
RTVSPost2010Prop49
280
     0
102
RTVSPost2010PropOp49
 70
     1
102
RTVSPost2010Prop50
 90
       50
102
RTVSPost2010PropOp50
 70
     1
102
RTVSPost2010Prop51ColorIndex
 90
      256
102
RTVSPost2010Prop51ColorRGB
 90
-16777216
102
RTVSPost2010PropOp51
 70
     0
102
RTVSPost2010Prop52
140
1.0
102
RTVSPost2010PropOp52
 70
     0
102
RTVSPost2010Prop53
 90
        2
102
RTVSPost2010PropOp53
 70
     1
102
RTVSPost2010Prop54
  1
strokes_ogs.tif
102
RTVSPost2010PropOp54
 70
     1
102
RTVSPost2010Prop55
280
     0
102
RTVSPost2010PropOp55
 70
     1
102
RTVSPost2010Prop56
140
1.0
102
RTVSPost2010PropOp56
 70
     1
102
RTVSPost2010Prop57
140
1.0
102
RTVSPost2010PropOp57
 70
     1
102
RTVSPropertyOp0
 70
     1
102
RTVSPropertyOp1
 70
     1
102
RTVSPropertyOp2
 70
     1
102
RTVSPropertyOp3
 70
     1
102
RTVSPropertyOp4
 70
     1
102
RTVSPropertyOp5
 70
     1
102
RTVSPropertyOp6
 70
     1
102
RTVSPropertyOp7
 70
     1
102
RTVSPropertyOp8
 70
     1
102
RTVSPropertyOp9
 70
     1
102
RTVSPropertyOp10
 70
     1
102
RTVSPropertyOp11
 70
     1
102
RTVSPropertyOp12
 70
     1
102
RTVSPropertyOp13
 70
     1
102
RTVSPropertyOp14
 70
     1
102
RTVSPropertyOp15
 70
     1
102
RTVSPropertyOp16
 70
     1
102
RTVSPropertyOp17
 70
     1
102
RTVSPropertyOp18
 70
     1
102
RTVSPropertyOp19
 70
     1
102
RTVSPropertyOp20
 70
     1
102
RTVSPropertyOp21
 70
     1
102
RTVSPropertyOp22
 70
     1
102
RTVSPropertyOp23
 70
     1
102
RTVSPropertyOp24
 70
     1
102
RTVSPropertyOp25
 70
     1
102
RTVSPropertyOp26
 70
     1
102
RTVSPropertyOp27
 70
     1
102
RTVSPropertyOp28
 70
     1
102
RTVSPropertyOp29
 70
     1
102
RTVSPropertyOp30
 70
     1
102
RTVSPropertyOp31
 70
     1
102
RTVSPropertyOp32
 70
     1
102
RTVSPropertyOp33
 70
     1
102
RTVSPropertyOp34
 70
     1
102
RTVSPropertyOp35
 70
     1
102
RTVSPropertyOp36
 70
     1
102
RTVSPropertyOp37
 70
     1
102
RTVSPropertyOp38
 70
     1
102
RTVSPropertyOp39
 70
     1
102
RTVSPropertyOp40
 70
     1
102
RTVSPropertyOp41
 70
     1
102
RTVSPropertyOp42
 70
     1
102
RTVSPropertyOp43
 70
     1
102
RTVSPropertyOp44
 70
     1
102
RTVSPropertyOp45
 70
     1
102
RTVSPropertyOp46
 70
     1
102
RTVSPropertyOp47
 70
     1
102
RTVSPropertyOp48
 70
     1
102
RTVSPropertyOp49
 70
     1
102
RTVSPropertyOp50
 70
     1
102
RTVSPropertyOp51
 70
     0
102
RTVSPropertyOp52
 70
     0
102
RTVSPropertyOp53
 70
     1
102
RTVSPropertyOp54
 70
     1
102
RTVSPropertyOp55
 70
     1
102
RTVSPropertyOp56
 70
     1
102
RTVSPropertyOp57
 70
     1
102
RTVSPropertyOp58
 70
     1
102
RTVSPropertyOp59
 70
     1
102
RTVSPropertyOp60
 70
     1
102
RTVSPropertyOp61
 70
     1
102
RTVSPropertyOp62
 70
     1
  0
XRECORD
  5
83F
102
{ACAD_REACTORS
330
83E
102
}
330
83E
100
AcDbXrecord
280
     1
102
RTVSPost2010Prop28
280
     0
102
RTVSPost2010PropOp28
 70
     1
102
RTVSPost2010Prop29
280
     1
102
RTVSPost2010PropOp29
 70
     1
102
RTVSPost2010Prop30
280
     1
102
RTVSPost2010PropOp30
 70
     1
102
RTVSPost2010Prop31
280
     0
102
RTVSPost2010PropOp31
 70
     1
102
RTVSPost2010Prop32
280
     0
102
RTVSPost2010PropOp32
 70
     1
102
RTVSPost2010Prop33
280
     0
102
RTVSPost2010PropOp33
 70
     1
102
RTVSPost2010Prop34
280
     0
102
RTVSPost2010PropOp34
 70
     1
102
RTVSPost2010Prop35
280
     0
102
RTVSPost2010PropOp35
 70
     1
102
RTVSPost2010Prop36
280
     0
102
RTVSPost2010PropOp36
 70
     1
102
RTVSPost2010Prop37
 90
       50
102
RTVSPost2010PropOp37
 70
     1
102
RTVSPost2010Prop38
140
0.0
102
RTVSPost2010PropOp38
 70
     1
102
RTVSPost2010Prop39
140
1.0
102
RTVSPost2010PropOp39
 70
     1
102
RTVSPost2010Prop40
 90
        0
102
RTVSPost2010PropOp40
 70
     1
102
RTVSPost2010Prop41ColorIndex
 90
       18
102
RTVSPost2010Prop41ColorRGB
 90
        0
102
RTVSPost2010PropOp41
 70
     1
102
RTVSPost2010Prop42
 90
       50
102
RTVSPost2010PropOp42
 70
     1
102
RTVSPost2010Prop43
 90
        3
102
RTVSPost2010PropOp43
 70
     1
102
RTVSPost2010Prop44ColorIndex
 90
        5
102
RTVSPost2010Prop44ColorRGB
 90
      255
102
RTVSPost2010PropOp44
 70
     1
102
RTVSPost2010Prop45
280
     0
102
RTVSPost2010PropOp45
 70
     1
102
RTVSPost2010Prop46
 90
       50
102
RTVSPost2010PropOp46
 70
     1
102
RTVSPost2010Prop47
 90
       50
102
RTVSPost2010PropOp47
 70
     1
102
RTVSPost2010Prop48
 90
       50
102
RTVSPost2010PropOp48
 70
     1
102
RTVSPost2010Prop49
280
     0
102
RTVSPost2010PropOp49
 70
     1
102
RTVSPost2010Prop50
 90
       50
102
RTVSPost2010PropOp50
 70
     1
102
RTVSPost2010Prop51ColorIndex
 90
      256
102
RTVSPost2010Prop51ColorRGB
 90
-16777216
102
RTVSPost2010PropOp51
 70
     0
102
RTVSPost2010Prop52
140
1.0
102
RTVSPost2010PropOp52
 70
     0
102
RTVSPost2010Prop53
 90
        2
102
RTVSPost2010PropOp53
 70
     1
102
RTVSPost2010Prop54
  1
strokes_ogs.tif
102
RTVSPost2010PropOp54
 70
     1
102
RTVSPost2010Prop55
280
     0
102
RTVSPost2010PropOp55
 70
     1
102
RTVSPost2010Prop56
140
1.0
102
RTVSPost2010PropOp56
 70
     1
102
RTVSPost2010Prop57
140
1.0
102
RTVSPost2010PropOp57
 70
     1
102
RTVSPropertyOp0
 70
     1
102
RTVSPropertyOp1
 70
     1
102
RTVSPropertyOp2
 70
     1
102
RTVSPropertyOp3
 70
     1
102
RTVSPropertyOp4
 70
     1
102
RTVSPropertyOp5
 70
     1
102
RTVSPropertyOp6
 70
     1
102
RTVSPropertyOp7
 70
     1
102
RTVSPropertyOp8
 70
     1
102
RTVSPropertyOp9
 70
     1
102
RTVSPropertyOp10
 70
     1
102
RTVSPropertyOp11
 70
     1
102
RTVSPropertyOp12
 70
     1
102
RTVSPropertyOp13
 70
     1
102
RTVSPropertyOp14
 70
     1
102
RTVSPropertyOp15
 70
     1
102
RTVSPropertyOp16
 70
     1
102
RTVSPropertyOp17
 70
     1
102
RTVSPropertyOp18
 70
     1
102
RTVSPropertyOp19
 70
     1
102
RTVSPropertyOp20
 70
     1
102
RTVSPropertyOp21
 70
     1
102
RTVSPropertyOp22
 70
     1
102
RTVSPropertyOp23
 70
     1
102
RTVSPropertyOp24
 70
     1
102
RTVSPropertyOp25
 70
     1
102
RTVSPropertyOp26
 70
     1
102
RTVSPropertyOp27
 70
     1
102
RTVSPropertyOp28
 70
     1
102
RTVSPropertyOp29
 70
     1
102
RTVSPropertyOp30
 70
     1
102
RTVSPropertyOp31
 70
     1
102
RTVSPropertyOp32
 70
     1
102
RTVSPropertyOp33
 70
     1
102
RTVSPropertyOp34
 70
     1
102
RTVSPropertyOp35
 70
     1
102
RTVSPropertyOp36
 70
     1
102
RTVSPropertyOp37
 70
     1
102
RTVSPropertyOp38
 70
     1
102
RTVSPropertyOp39
 70
     1
102
RTVSPropertyOp40
 70
     1
102
RTVSPropertyOp41
 70
     1
102
RTVSPropertyOp42
 70
     1
102
RTVSPropertyOp43
 70
     1
102
RTVSPropertyOp44
 70
     1
102
RTVSPropertyOp45
 70
     1
102
RTVSPropertyOp46
 70
     1
102
RTVSPropertyOp47
 70
     1
102
RTVSPropertyOp48
 70
     1
102
RTVSPropertyOp49
 70
     1
102
RTVSPropertyOp50
 70
     1
102
RTVSPropertyOp51
 70
     0
102
RTVSPropertyOp52
 70
     0
102
RTVSPropertyOp53
 70
     1
102
RTVSPropertyOp54
 70
     1
102
RTVSPropertyOp55
 70
     1
102
RTVSPropertyOp56
 70
     1
102
RTVSPropertyOp57
 70
     1
102
RTVSPropertyOp58
 70
     1
102
RTVSPropertyOp59
 70
     1
102
RTVSPropertyOp60
 70
     1
102
RTVSPropertyOp61
 70
     1
102
RTVSPropertyOp62
 70
     1
  0
XRECORD
  5
839
102
{ACAD_REACTORS
330
838
102
}
330
838
100
AcDbXrecord
280
     1
102
RTVSPost2010Prop28
280
     0
102
RTVSPost2010PropOp28
 70
     1
102
RTVSPost2010Prop29
280
     1
102
RTVSPost2010PropOp29
 70
     1
102
RTVSPost2010Prop30
280
     1
102
RTVSPost2010PropOp30
 70
     1
102
RTVSPost2010Prop31
280
     0
102
RTVSPost2010PropOp31
 70
     1
102
RTVSPost2010Prop32
280
     0
102
RTVSPost2010PropOp32
 70
     1
102
RTVSPost2010Prop33
280
     0
102
RTVSPost2010PropOp33
 70
     1
102
RTVSPost2010Prop34
280
     0
102
RTVSPost2010PropOp34
 70
     1
102
RTVSPost2010Prop35
280
     0
102
RTVSPost2010PropOp35
 70
     1
102
RTVSPost2010Prop36
280
     0
102
RTVSPost2010PropOp36
 70
     1
102
RTVSPost2010Prop37
 90
       50
102
RTVSPost2010PropOp37
 70
     1
102
RTVSPost2010Prop38
140
0.0
102
RTVSPost2010PropOp38
 70
     1
102
RTVSPost2010Prop39
140
1.0
102
RTVSPost2010PropOp39
 70
     1
102
RTVSPost2010Prop40
 90
        0
102
RTVSPost2010PropOp40
 70
     1
102
RTVSPost2010Prop41ColorIndex
 90
       18
102
RTVSPost2010Prop41ColorRGB
 90
        0
102
RTVSPost2010PropOp41
 70
     1
102
RTVSPost2010Prop42
 90
       50
102
RTVSPost2010PropOp42
 70
     1
102
RTVSPost2010Prop43
 90
        3
102
RTVSPost2010PropOp43
 70
     1
102
RTVSPost2010Prop44ColorIndex
 90
        5
102
RTVSPost2010Prop44ColorRGB
 90
      255
102
RTVSPost2010PropOp44
 70
     1
102
RTVSPost2010Prop45
280
     0
102
RTVSPost2010PropOp45
 70
     1
102
RTVSPost2010Prop46
 90
       50
102
RTVSPost2010PropOp46
 70
     1
102
RTVSPost2010Prop47
 90
       50
102
RTVSPost2010PropOp47
 70
     1
102
RTVSPost2010Prop48
 90
       50
102
RTVSPost2010PropOp48
 70
     1
102
RTVSPost2010Prop49
280
     0
102
RTVSPost2010PropOp49
 70
     1
102
RTVSPost2010Prop50
 90
       50
102
RTVSPost2010PropOp50
 70
     1
102
RTVSPost2010Prop51ColorIndex
 90
      256
102
RTVSPost2010Prop51ColorRGB
 90
-16777216
102
RTVSPost2010PropOp51
 70
     0
102
RTVSPost2010Prop52
140
1.0
102
RTVSPost2010PropOp52
 70
     0
102
RTVSPost2010Prop53
 90
        2
102
RTVSPost2010PropOp53
 70
     1
102
RTVSPost2010Prop54
  1
strokes_ogs.tif
102
RTVSPost2010PropOp54
 70
     1
102
RTVSPost2010Prop55
280
     0
102
RTVSPost2010PropOp55
 70
     1
102
RTVSPost2010Prop56
140
1.0
102
RTVSPost2010PropOp56
 70
     1
102
RTVSPost2010Prop57
140
1.0
102
RTVSPost2010PropOp57
 70
     1
102
RTVSPropertyOp0
 70
     1
102
RTVSPropertyOp1
 70
     1
102
RTVSPropertyOp2
 70
     1
102
RTVSPropertyOp3
 70
     1
102
RTVSPropertyOp4
 70
     1
102
RTVSPropertyOp5
 70
     1
102
RTVSPropertyOp6
 70
     1
102
RTVSPropertyOp7
 70
     1
102
RTVSPropertyOp8
 70
     1
102
RTVSPropertyOp9
 70
     1
102
RTVSPropertyOp10
 70
     1
102
RTVSPropertyOp11
 70
     1
102
RTVSPropertyOp12
 70
     1
102
RTVSPropertyOp13
 70
     1
102
RTVSPropertyOp14
 70
     1
102
RTVSPropertyOp15
 70
     1
102
RTVSPropertyOp16
 70
     1
102
RTVSPropertyOp17
 70
     1
102
RTVSPropertyOp18
 70
     1
102
RTVSPropertyOp19
 70
     1
102
RTVSPropertyOp20
 70
     1
102
RTVSPropertyOp21
 70
     1
102
RTVSPropertyOp22
 70
     1
102
RTVSPropertyOp23
 70
     1
102
RTVSPropertyOp24
 70
     1
102
RTVSPropertyOp25
 70
     1
102
RTVSPropertyOp26
 70
     1
102
RTVSPropertyOp27
 70
     1
102
RTVSPropertyOp28
 70
     1
102
RTVSPropertyOp29
 70
     1
102
RTVSPropertyOp30
 70
     1
102
RTVSPropertyOp31
 70
     1
102
RTVSPropertyOp32
 70
     1
102
RTVSPropertyOp33
 70
     1
102
RTVSPropertyOp34
 70
     1
102
RTVSPropertyOp35
 70
     1
102
RTVSPropertyOp36
 70
     1
102
RTVSPropertyOp37
 70
     1
102
RTVSPropertyOp38
 70
     1
102
RTVSPropertyOp39
 70
     1
102
RTVSPropertyOp40
 70
     1
102
RTVSPropertyOp41
 70
     1
102
RTVSPropertyOp42
 70
     1
102
RTVSPropertyOp43
 70
     1
102
RTVSPropertyOp44
 70
     1
102
RTVSPropertyOp45
 70
     1
102
RTVSPropertyOp46
 70
     1
102
RTVSPropertyOp47
 70
     1
102
RTVSPropertyOp48
 70
     1
102
RTVSPropertyOp49
 70
     1
102
RTVSPropertyOp50
 70
     1
102
RTVSPropertyOp51
 70
     0
102
RTVSPropertyOp52
 70
     0
102
RTVSPropertyOp53
 70
     1
102
RTVSPropertyOp54
 70
     1
102
RTVSPropertyOp55
 70
     1
102
RTVSPropertyOp56
 70
     1
102
RTVSPropertyOp57
 70
     1
102
RTVSPropertyOp58
 70
     1
102
RTVSPropertyOp59
 70
     1
102
RTVSPropertyOp60
 70
     1
102
RTVSPropertyOp61
 70
     1
102
RTVSPropertyOp62
 70
     1
  0
XRECORD
  5
83B
102
{ACAD_REACTORS
330
83A
102
}
330
83A
100
AcDbXrecord
280
     1
102
RTVSPost2010Prop28
280
     0
102
RTVSPost2010PropOp28
 70
     1
102
RTVSPost2010Prop29
280
     1
102
RTVSPost2010PropOp29
 70
     1
102
RTVSPost2010Prop30
280
     1
102
RTVSPost2010PropOp30
 70
     1
102
RTVSPost2010Prop31
280
     0
102
RTVSPost2010PropOp31
 70
     1
102
RTVSPost2010Prop32
280
     0
102
RTVSPost2010PropOp32
 70
     1
102
RTVSPost2010Prop33
280
     0
102
RTVSPost2010PropOp33
 70
     1
102
RTVSPost2010Prop34
280
     0
102
RTVSPost2010PropOp34
 70
     1
102
RTVSPost2010Prop35
280
     0
102
RTVSPost2010PropOp35
 70
     1
102
RTVSPost2010Prop36
280
     0
102
RTVSPost2010PropOp36
 70
     1
102
RTVSPost2010Prop37
 90
       50
102
RTVSPost2010PropOp37
 70
     1
102
RTVSPost2010Prop38
140
0.0
102
RTVSPost2010PropOp38
 70
     1
102
RTVSPost2010Prop39
140
1.0
102
RTVSPost2010PropOp39
 70
     1
102
RTVSPost2010Prop40
 90
        0
102
RTVSPost2010PropOp40
 70
     1
102
RTVSPost2010Prop41ColorIndex
 90
       18
102
RTVSPost2010Prop41ColorRGB
 90
        0
102
RTVSPost2010PropOp41
 70
     1
102
RTVSPost2010Prop42
 90
       50
102
RTVSPost2010PropOp42
 70
     1
102
RTVSPost2010Prop43
 90
        3
102
RTVSPost2010PropOp43
 70
     1
102
RTVSPost2010Prop44ColorIndex
 90
        5
102
RTVSPost2010Prop44ColorRGB
 90
      255
102
RTVSPost2010PropOp44
 70
     1
102
RTVSPost2010Prop45
280
     0
102
RTVSPost2010PropOp45
 70
     1
102
RTVSPost2010Prop46
 90
       50
102
RTVSPost2010PropOp46
 70
     1
102
RTVSPost2010Prop47
 90
       50
102
RTVSPost2010PropOp47
 70
     1
102
RTVSPost2010Prop48
 90
       50
102
RTVSPost2010PropOp48
 70
     1
102
RTVSPost2010Prop49
280
     0
102
RTVSPost2010PropOp49
 70
     1
102
RTVSPost2010Prop50
 90
       50
102
RTVSPost2010PropOp50
 70
     1
102
RTVSPost2010Prop51ColorIndex
 90
      256
102
RTVSPost2010Prop51ColorRGB
 90
-16777216
102
RTVSPost2010PropOp51
 70
     0
102
RTVSPost2010Prop52
140
1.0
102
RTVSPost2010PropOp52
 70
     0
102
RTVSPost2010Prop53
 90
        2
102
RTVSPost2010PropOp53
 70
     1
102
RTVSPost2010Prop54
  1
strokes_ogs.tif
102
RTVSPost2010PropOp54
 70
     1
102
RTVSPost2010Prop55
280
     0
102
RTVSPost2010PropOp55
 70
     1
102
RTVSPost2010Prop56
140
1.0
102
RTVSPost2010PropOp56
 70
     1
102
RTVSPost2010Prop57
140
1.0
102
RTVSPost2010PropOp57
 70
     1
102
RTVSPropertyOp0
 70
     1
102
RTVSPropertyOp1
 70
     1
102
RTVSPropertyOp2
 70
     1
102
RTVSPropertyOp3
 70
     1
102
RTVSPropertyOp4
 70
     1
102
RTVSPropertyOp5
 70
     1
102
RTVSPropertyOp6
 70
     1
102
RTVSPropertyOp7
 70
     1
102
RTVSPropertyOp8
 70
     1
102
RTVSPropertyOp9
 70
     1
102
RTVSPropertyOp10
 70
     1
102
RTVSPropertyOp11
 70
     1
102
RTVSPropertyOp12
 70
     1
102
RTVSPropertyOp13
 70
     1
102
RTVSPropertyOp14
 70
     1
102
RTVSPropertyOp15
 70
     1
102
RTVSPropertyOp16
 70
     1
102
RTVSPropertyOp17
 70
     1
102
RTVSPropertyOp18
 70
     1
102
RTVSPropertyOp19
 70
     1
102
RTVSPropertyOp20
 70
     1
102
RTVSPropertyOp21
 70
     1
102
RTVSPropertyOp22
 70
     1
102
RTVSPropertyOp23
 70
     1
102
RTVSPropertyOp24
 70
     1
102
RTVSPropertyOp25
 70
     1
102
RTVSPropertyOp26
 70
     1
102
RTVSPropertyOp27
 70
     1
102
RTVSPropertyOp28
 70
     1
102
RTVSPropertyOp29
 70
     1
102
RTVSPropertyOp30
 70
     1
102
RTVSPropertyOp31
 70
     1
102
RTVSPropertyOp32
 70
     1
102
RTVSPropertyOp33
 70
     1
102
RTVSPropertyOp34
 70
     1
102
RTVSPropertyOp35
 70
     1
102
RTVSPropertyOp36
 70
     1
102
RTVSPropertyOp37
 70
     1
102
RTVSPropertyOp38
 70
     1
102
RTVSPropertyOp39
 70
     1
102
RTVSPropertyOp40
 70
     1
102
RTVSPropertyOp41
 70
     1
102
RTVSPropertyOp42
 70
     1
102
RTVSPropertyOp43
 70
     1
102
RTVSPropertyOp44
 70
     1
102
RTVSPropertyOp45
 70
     1
102
RTVSPropertyOp46
 70
     1
102
RTVSPropertyOp47
 70
     1
102
RTVSPropertyOp48
 70
     1
102
RTVSPropertyOp49
 70
     1
102
RTVSPropertyOp50
 70
     1
102
RTVSPropertyOp51
 70
     0
102
RTVSPropertyOp52
 70
     0
102
RTVSPropertyOp53
 70
     1
102
RTVSPropertyOp54
 70
     1
102
RTVSPropertyOp55
 70
     1
102
RTVSPropertyOp56
 70
     1
102
RTVSPropertyOp57
 70
     1
102
RTVSPropertyOp58
 70
     1
102
RTVSPropertyOp59
 70
     1
102
RTVSPropertyOp60
 70
     1
102
RTVSPropertyOp61
 70
     1
102
RTVSPropertyOp62
 70
     1
  0
XRECORD
  5
831
102
{ACAD_REACTORS
330
830
102
}
330
830
100
AcDbXrecord
280
     1
102
RTVSPost2010Prop28
280
     0
102
RTVSPost2010PropOp28
 70
     1
102
RTVSPost2010Prop29
280
     1
102
RTVSPost2010PropOp29
 70
     1
102
RTVSPost2010Prop30
280
     1
102
RTVSPost2010PropOp30
 70
     1
102
RTVSPost2010Prop31
280
     0
102
RTVSPost2010PropOp31
 70
     1
102
RTVSPost2010Prop32
280
     0
102
RTVSPost2010PropOp32
 70
     1
102
RTVSPost2010Prop33
280
     0
102
RTVSPost2010PropOp33
 70
     1
102
RTVSPost2010Prop34
280
     0
102
RTVSPost2010PropOp34
 70
     1
102
RTVSPost2010Prop35
280
     0
102
RTVSPost2010PropOp35
 70
     1
102
RTVSPost2010Prop36
280
     0
102
RTVSPost2010PropOp36
 70
     1
102
RTVSPost2010Prop37
 90
       50
102
RTVSPost2010PropOp37
 70
     1
102
RTVSPost2010Prop38
140
0.0
102
RTVSPost2010PropOp38
 70
     1
102
RTVSPost2010Prop39
140
1.0
102
RTVSPost2010PropOp39
 70
     1
102
RTVSPost2010Prop40
 90
        0
102
RTVSPost2010PropOp40
 70
     1
102
RTVSPost2010Prop41ColorIndex
 90
       18
102
RTVSPost2010Prop41ColorRGB
 90
        0
102
RTVSPost2010PropOp41
 70
     1
102
RTVSPost2010Prop42
 90
       50
102
RTVSPost2010PropOp42
 70
     1
102
RTVSPost2010Prop43
 90
        3
102
RTVSPost2010PropOp43
 70
     1
102
RTVSPost2010Prop44ColorIndex
 90
        5
102
RTVSPost2010Prop44ColorRGB
 90
      255
102
RTVSPost2010PropOp44
 70
     1
102
RTVSPost2010Prop45
280
     0
102
RTVSPost2010PropOp45
 70
     1
102
RTVSPost2010Prop46
 90
       50
102
RTVSPost2010PropOp46
 70
     1
102
RTVSPost2010Prop47
 90
       50
102
RTVSPost2010PropOp47
 70
     1
102
RTVSPost2010Prop48
 90
       50
102
RTVSPost2010PropOp48
 70
     1
102
RTVSPost2010Prop49
280
     0
102
RTVSPost2010PropOp49
 70
     1
102
RTVSPost2010Prop50
 90
       50
102
RTVSPost2010PropOp50
 70
     1
102
RTVSPost2010Prop51ColorIndex
 90
      256
102
RTVSPost2010Prop51ColorRGB
 90
-16777216
102
RTVSPost2010PropOp51
 70
     0
102
RTVSPost2010Prop52
140
1.0
102
RTVSPost2010PropOp52
 70
     0
102
RTVSPost2010Prop53
 90
        2
102
RTVSPost2010PropOp53
 70
     1
102
RTVSPost2010Prop54
  1
strokes_ogs.tif
102
RTVSPost2010PropOp54
 70
     1
102
RTVSPost2010Prop55
280
     0
102
RTVSPost2010PropOp55
 70
     1
102
RTVSPost2010Prop56
140
1.0
102
RTVSPost2010PropOp56
 70
     1
102
RTVSPost2010Prop57
140
1.0
102
RTVSPost2010PropOp57
 70
     1
102
RTVSPropertyOp0
 70
     1
102
RTVSPropertyOp1
 70
     1
102
RTVSPropertyOp2
 70
     1
102
RTVSPropertyOp3
 70
     1
102
RTVSPropertyOp4
 70
     1
102
RTVSPropertyOp5
 70
     1
102
RTVSPropertyOp6
 70
     1
102
RTVSPropertyOp7
 70
     1
102
RTVSPropertyOp8
 70
     1
102
RTVSPropertyOp9
 70
     1
102
RTVSPropertyOp10
 70
     1
102
RTVSPropertyOp11
 70
     1
102
RTVSPropertyOp12
 70
     1
102
RTVSPropertyOp13
 70
     1
102
RTVSPropertyOp14
 70
     1
102
RTVSPropertyOp15
 70
     1
102
RTVSPropertyOp16
 70
     1
102
RTVSPropertyOp17
 70
     1
102
RTVSPropertyOp18
 70
     1
102
RTVSPropertyOp19
 70
     1
102
RTVSPropertyOp20
 70
     1
102
RTVSPropertyOp21
 70
     1
102
RTVSPropertyOp22
 70
     1
102
RTVSPropertyOp23
 70
     1
102
RTVSPropertyOp24
 70
     1
102
RTVSPropertyOp25
 70
     1
102
RTVSPropertyOp26
 70
     1
102
RTVSPropertyOp27
 70
     1
102
RTVSPropertyOp28
 70
     1
102
RTVSPropertyOp29
 70
     1
102
RTVSPropertyOp30
 70
     1
102
RTVSPropertyOp31
 70
     1
102
RTVSPropertyOp32
 70
     1
102
RTVSPropertyOp33
 70
     1
102
RTVSPropertyOp34
 70
     1
102
RTVSPropertyOp35
 70
     1
102
RTVSPropertyOp36
 70
     1
102
RTVSPropertyOp37
 70
     1
102
RTVSPropertyOp38
 70
     1
102
RTVSPropertyOp39
 70
     1
102
RTVSPropertyOp40
 70
     1
102
RTVSPropertyOp41
 70
     1
102
RTVSPropertyOp42
 70
     1
102
RTVSPropertyOp43
 70
     1
102
RTVSPropertyOp44
 70
     1
102
RTVSPropertyOp45
 70
     1
102
RTVSPropertyOp46
 70
     1
102
RTVSPropertyOp47
 70
     1
102
RTVSPropertyOp48
 70
     1
102
RTVSPropertyOp49
 70
     1
102
RTVSPropertyOp50
 70
     1
102
RTVSPropertyOp51
 70
     0
102
RTVSPropertyOp52
 70
     0
102
RTVSPropertyOp53
 70
     1
102
RTVSPropertyOp54
 70
     1
102
RTVSPropertyOp55
 70
     1
102
RTVSPropertyOp56
 70
     1
102
RTVSPropertyOp57
 70
     1
102
RTVSPropertyOp58
 70
     1
102
RTVSPropertyOp59
 70
     1
102
RTVSPropertyOp60
 70
     1
102
RTVSPropertyOp61
 70
     1
102
RTVSPropertyOp62
 70
     1
  0
XRECORD
  5
825
102
{ACAD_REACTORS
330
824
102
}
330
824
100
AcDbXrecord
280
     1
102
RTVSPost2010Prop28
280
     0
102
RTVSPost2010PropOp28
 70
     1
102
RTVSPost2010Prop29
280
     1
102
RTVSPost2010PropOp29
 70
     1
102
RTVSPost2010Prop30
280
     1
102
RTVSPost2010PropOp30
 70
     1
102
RTVSPost2010Prop31
280
     0
102
RTVSPost2010PropOp31
 70
     1
102
RTVSPost2010Prop32
280
     0
102
RTVSPost2010PropOp32
 70
     1
102
RTVSPost2010Prop33
280
     0
102
RTVSPost2010PropOp33
 70
     1
102
RTVSPost2010Prop34
280
     0
102
RTVSPost2010PropOp34
 70
     1
102
RTVSPost2010Prop35
280
     0
102
RTVSPost2010PropOp35
 70
     1
102
RTVSPost2010Prop36
280
     0
102
RTVSPost2010PropOp36
 70
     1
102
RTVSPost2010Prop37
 90
       50
102
RTVSPost2010PropOp37
 70
     1
102
RTVSPost2010Prop38
140
0.0
102
RTVSPost2010PropOp38
 70
     1
102
RTVSPost2010Prop39
140
1.0
102
RTVSPost2010PropOp39
 70
     1
102
RTVSPost2010Prop40
 90
        0
102
RTVSPost2010PropOp40
 70
     1
102
RTVSPost2010Prop41ColorIndex
 90
       18
102
RTVSPost2010Prop41ColorRGB
 90
        0
102
RTVSPost2010PropOp41
 70
     1
102
RTVSPost2010Prop42
 90
       50
102
RTVSPost2010PropOp42
 70
     1
102
RTVSPost2010Prop43
 90
        3
102
RTVSPost2010PropOp43
 70
     1
102
RTVSPost2010Prop44ColorIndex
 90
        5
102
RTVSPost2010Prop44ColorRGB
 90
      255
102
RTVSPost2010PropOp44
 70
     1
102
RTVSPost2010Prop45
280
     0
102
RTVSPost2010PropOp45
 70
     1
102
RTVSPost2010Prop46
 90
       50
102
RTVSPost2010PropOp46
 70
     1
102
RTVSPost2010Prop47
 90
       50
102
RTVSPost2010PropOp47
 70
     1
102
RTVSPost2010Prop48
 90
       50
102
RTVSPost2010PropOp48
 70
     1
102
RTVSPost2010Prop49
280
     0
102
RTVSPost2010PropOp49
 70
     1
102
RTVSPost2010Prop50
 90
       50
102
RTVSPost2010PropOp50
 70
     1
102
RTVSPost2010Prop51ColorIndex
 90
      256
102
RTVSPost2010Prop51ColorRGB
 90
-16777216
102
RTVSPost2010PropOp51
 70
     0
102
RTVSPost2010Prop52
140
1.0
102
RTVSPost2010PropOp52
 70
     0
102
RTVSPost2010Prop53
 90
        2
102
RTVSPost2010PropOp53
 70
     1
102
RTVSPost2010Prop54
  1
strokes_ogs.tif
102
RTVSPost2010PropOp54
 70
     1
102
RTVSPost2010Prop55
280
     0
102
RTVSPost2010PropOp55
 70
     1
102
RTVSPost2010Prop56
140
1.0
102
RTVSPost2010PropOp56
 70
     1
102
RTVSPost2010Prop57
140
1.0
102
RTVSPost2010PropOp57
 70
     1
102
RTVSPropertyOp0
 70
     1
102
RTVSPropertyOp1
 70
     1
102
RTVSPropertyOp2
 70
     1
102
RTVSPropertyOp3
 70
     1
102
RTVSPropertyOp4
 70
     1
102
RTVSPropertyOp5
 70
     1
102
RTVSPropertyOp6
 70
     1
102
RTVSPropertyOp7
 70
     1
102
RTVSPropertyOp8
 70
     1
102
RTVSPropertyOp9
 70
     1
102
RTVSPropertyOp10
 70
     1
102
RTVSPropertyOp11
 70
     1
102
RTVSPropertyOp12
 70
     1
102
RTVSPropertyOp13
 70
     1
102
RTVSPropertyOp14
 70
     1
102
RTVSPropertyOp15
 70
     1
102
RTVSPropertyOp16
 70
     1
102
RTVSPropertyOp17
 70
     1
102
RTVSPropertyOp18
 70
     1
102
RTVSPropertyOp19
 70
     1
102
RTVSPropertyOp20
 70
     1
102
RTVSPropertyOp21
 70
     1
102
RTVSPropertyOp22
 70
     1
102
RTVSPropertyOp23
 70
     1
102
RTVSPropertyOp24
 70
     1
102
RTVSPropertyOp25
 70
     1
102
RTVSPropertyOp26
 70
     1
102
RTVSPropertyOp27
 70
     1
102
RTVSPropertyOp28
 70
     1
102
RTVSPropertyOp29
 70
     1
102
RTVSPropertyOp30
 70
     1
102
RTVSPropertyOp31
 70
     1
102
RTVSPropertyOp32
 70
     1
102
RTVSPropertyOp33
 70
     1
102
RTVSPropertyOp34
 70
     1
102
RTVSPropertyOp35
 70
     1
102
RTVSPropertyOp36
 70
     1
102
RTVSPropertyOp37
 70
     1
102
RTVSPropertyOp38
 70
     1
102
RTVSPropertyOp39
 70
     1
102
RTVSPropertyOp40
 70
     1
102
RTVSPropertyOp41
 70
     1
102
RTVSPropertyOp42
 70
     1
102
RTVSPropertyOp43
 70
     1
102
RTVSPropertyOp44
 70
     1
102
RTVSPropertyOp45
 70
     1
102
RTVSPropertyOp46
 70
     1
102
RTVSPropertyOp47
 70
     1
102
RTVSPropertyOp48
 70
     1
102
RTVSPropertyOp49
 70
     1
102
RTVSPropertyOp50
 70
     1
102
RTVSPropertyOp51
 70
     0
102
RTVSPropertyOp52
 70
     0
102
RTVSPropertyOp53
 70
     1
102
RTVSPropertyOp54
 70
     1
102
RTVSPropertyOp55
 70
     1
102
RTVSPropertyOp56
 70
     1
102
RTVSPropertyOp57
 70
     1
102
RTVSPropertyOp58
 70
     1
102
RTVSPropertyOp59
 70
     1
102
RTVSPropertyOp60
 70
     1
102
RTVSPropertyOp61
 70
     1
102
RTVSPropertyOp62
 70
     1
  0
XRECORD
  5
83D
102
{ACAD_REACTORS
330
83C
102
}
330
83C
100
AcDbXrecord
280
     1
102
RTVSPost2010Prop28
280
     0
102
RTVSPost2010PropOp28
 70
     1
102
RTVSPost2010Prop29
280
     1
102
RTVSPost2010PropOp29
 70
     1
102
RTVSPost2010Prop30
280
     1
102
RTVSPost2010PropOp30
 70
     1
102
RTVSPost2010Prop31
280
     0
102
RTVSPost2010PropOp31
 70
     1
102
RTVSPost2010Prop32
280
     0
102
RTVSPost2010PropOp32
 70
     1
102
RTVSPost2010Prop33
280
     0
102
RTVSPost2010PropOp33
 70
     1
102
RTVSPost2010Prop34
280
     0
102
RTVSPost2010PropOp34
 70
     1
102
RTVSPost2010Prop35
280
     0
102
RTVSPost2010PropOp35
 70
     1
102
RTVSPost2010Prop36
280
     0
102
RTVSPost2010PropOp36
 70
     1
102
RTVSPost2010Prop37
 90
       50
102
RTVSPost2010PropOp37
 70
     1
102
RTVSPost2010Prop38
140
0.0
102
RTVSPost2010PropOp38
 70
     1
102
RTVSPost2010Prop39
140
1.0
102
RTVSPost2010PropOp39
 70
     1
102
RTVSPost2010Prop40
 90
        0
102
RTVSPost2010PropOp40
 70
     1
102
RTVSPost2010Prop41ColorIndex
 90
       18
102
RTVSPost2010Prop41ColorRGB
 90
        0
102
RTVSPost2010PropOp41
 70
     1
102
RTVSPost2010Prop42
 90
       50
102
RTVSPost2010PropOp42
 70
     1
102
RTVSPost2010Prop43
 90
        3
102
RTVSPost2010PropOp43
 70
     1
102
RTVSPost2010Prop44ColorIndex
 90
        5
102
RTVSPost2010Prop44ColorRGB
 90
      255
102
RTVSPost2010PropOp44
 70
     1
102
RTVSPost2010Prop45
280
     0
102
RTVSPost2010PropOp45
 70
     1
102
RTVSPost2010Prop46
 90
       50
102
RTVSPost2010PropOp46
 70
     1
102
RTVSPost2010Prop47
 90
       50
102
RTVSPost2010PropOp47
 70
     1
102
RTVSPost2010Prop48
 90
       50
102
RTVSPost2010PropOp48
 70
     1
102
RTVSPost2010Prop49
280
     0
102
RTVSPost2010PropOp49
 70
     1
102
RTVSPost2010Prop50
 90
       50
102
RTVSPost2010PropOp50
 70
     1
102
RTVSPost2010Prop51ColorIndex
 90
      256
102
RTVSPost2010Prop51ColorRGB
 90
-16777216
102
RTVSPost2010PropOp51
 70
     0
102
RTVSPost2010Prop52
140
1.0
102
RTVSPost2010PropOp52
 70
     0
102
RTVSPost2010Prop53
 90
        2
102
RTVSPost2010PropOp53
 70
     1
102
RTVSPost2010Prop54
  1
strokes_ogs.tif
102
RTVSPost2010PropOp54
 70
     1
102
RTVSPost2010Prop55
280
     0
102
RTVSPost2010PropOp55
 70
     1
102
RTVSPost2010Prop56
140
1.0
102
RTVSPost2010PropOp56
 70
     1
102
RTVSPost2010Prop57
140
1.0
102
RTVSPost2010PropOp57
 70
     1
102
RTVSPropertyOp0
 70
     1
102
RTVSPropertyOp1
 70
     1
102
RTVSPropertyOp2
 70
     1
102
RTVSPropertyOp3
 70
     1
102
RTVSPropertyOp4
 70
     1
102
RTVSPropertyOp5
 70
     1
102
RTVSPropertyOp6
 70
     1
102
RTVSPropertyOp7
 70
     1
102
RTVSPropertyOp8
 70
     1
102
RTVSPropertyOp9
 70
     1
102
RTVSPropertyOp10
 70
     1
102
RTVSPropertyOp11
 70
     1
102
RTVSPropertyOp12
 70
     1
102
RTVSPropertyOp13
 70
     1
102
RTVSPropertyOp14
 70
     1
102
RTVSPropertyOp15
 70
     1
102
RTVSPropertyOp16
 70
     1
102
RTVSPropertyOp17
 70
     1
102
RTVSPropertyOp18
 70
     1
102
RTVSPropertyOp19
 70
     1
102
RTVSPropertyOp20
 70
     1
102
RTVSPropertyOp21
 70
     1
102
RTVSPropertyOp22
 70
     1
102
RTVSPropertyOp23
 70
     1
102
RTVSPropertyOp24
 70
     1
102
RTVSPropertyOp25
 70
     1
102
RTVSPropertyOp26
 70
     1
102
RTVSPropertyOp27
 70
     1
102
RTVSPropertyOp28
 70
     1
102
RTVSPropertyOp29
 70
     1
102
RTVSPropertyOp30
 70
     1
102
RTVSPropertyOp31
 70
     1
102
RTVSPropertyOp32
 70
     1
102
RTVSPropertyOp33
 70
     1
102
RTVSPropertyOp34
 70
     1
102
RTVSPropertyOp35
 70
     1
102
RTVSPropertyOp36
 70
     1
102
RTVSPropertyOp37
 70
     1
102
RTVSPropertyOp38
 70
     1
102
RTVSPropertyOp39
 70
     1
102
RTVSPropertyOp40
 70
     1
102
RTVSPropertyOp41
 70
     1
102
RTVSPropertyOp42
 70
     1
102
RTVSPropertyOp43
 70
     1
102
RTVSPropertyOp44
 70
     1
102
RTVSPropertyOp45
 70
     1
102
RTVSPropertyOp46
 70
     1
102
RTVSPropertyOp47
 70
     1
102
RTVSPropertyOp48
 70
     1
102
RTVSPropertyOp49
 70
     1
102
RTVSPropertyOp50
 70
     1
102
RTVSPropertyOp51
 70
     0
102
RTVSPropertyOp52
 70
     0
102
RTVSPropertyOp53
 70
     1
102
RTVSPropertyOp54
 70
     1
102
RTVSPropertyOp55
 70
     1
102
RTVSPropertyOp56
 70
     1
102
RTVSPropertyOp57
 70
     1
102
RTVSPropertyOp58
 70
     1
102
RTVSPropertyOp59
 70
     1
102
RTVSPropertyOp60
 70
     1
102
RTVSPropertyOp61
 70
     1
102
RTVSPropertyOp62
 70
     1
  0
ENDSEC
  0
EOF
