  0
SECTION
  2
HEADER
  9
$ACADVER
  1
AC1018
  9
$ACADMAINTVER
 70
   104
  9
$DWGCODEPAGE
  3
ANSI_932
  9
$INSBASE
 10
0.0
 20
0.0
 30
0.0
  9
$EXTMIN
 10
-0.03631011
 20
-0.0074355
 30
0.0
  9
$EXTMAX
 10
793.45274309
 20
564.2258478
 30
0.0
  9
$LIMMIN
 10
0.0
 20
0.0
  9
$LIMMAX
 10
420.0
 20
297.0
  9
$ORTHOMODE
 70
     1
  9
$REGENMODE
 70
     1
  9
$FILLMODE
 70
     1
  9
$QTEXTMODE
 70
     0
  9
$MIRRTEXT
 70
     0
  9
$LTSCALE
 40
1.0
  9
$ATTMODE
 70
     1
  9
$TEXTSIZE
 40
3.0
  9
$TRACEWID
 40
1.0
  9
$TEXTSTYLE
  7
STANDARD
  9
$CLAYER
  8
0
  9
$CELTYPE
  6
BYLAYER
  9
$CECOLOR
 62
   256
  9
$CELTSCALE
 40
1.0
  9
$DISPSILH
 70
     1
  9
$DIMSCALE
 40
1.0
  9
$DIMASZ
 40
1.5
  9
$DIMEXO
 40
2.0
  9
$DIMDLI
 40
10.0
  9
$DIMRND
 40
0.0
  9
$DIMDLE
 40
0.0
  9
$DIMEXE
 40
2.0
  9
$DIMTP
 40
0.0
  9
$DIMTM
 40
0.0
  9
$DIMTXT
 40
3.0
  9
$DIMCEN
 40
0.0
  9
$DIMTSZ
 40
0.0
  9
$DIMTOL
 70
     0
  9
$DIMLIM
 70
     0
  9
$DIMTIH
 70
     0
  9
$DIMTOH
 70
     0
  9
$DIMSE1
 70
     0
  9
$DIMSE2
 70
     0
  9
$DIMTAD
 70
     0
  9
$DIMZIN
 70
    12
  9
$DIMBLK
  1

  9
$DIMASO
 70
     1
  9
$DIMSHO
 70
     1
  9
$DIMPOST
  1

  9
$DIMAPOST
  1

  9
$DIMALT
 70
     0
  9
$DIMALTD
 70
     2
  9
$DIMALTF
 40
0.0394
  9
$DIMLFAC
 40
1.0
  9
$DIMTOFL
 70
     1
  9
$DIMTVP
 40
1.0
  9
$DIMTIX
 70
     0
  9
$DIMSOXD
 70
     0
  9
$DIMSAH
 70
     1
  9
$DIMBLK1
  1
DOT1
  9
$DIMBLK2
  1
DOT1
  9
$DIMSTYLE
  2
YKK_OSADOT
  9
$DIMCLRD
 70
     0
  9
$DIMCLRE
 70
     0
  9
$DIMCLRT
 70
     0
  9
$DIMTFAC
 40
1.0
  9
$DIMGAP
 40
0.01
  9
$DIMJUST
 70
     0
  9
$DIMSD1
 70
     0
  9
$DIMSD2
 70
     0
  9
$DIMTOLJ
 70
     1
  9
$DIMTZIN
 70
    12
  9
$DIMALTZ
 70
    12
  9
$DIMALTTZ
 70
    12
  9
$DIMUPT
 70
     0
  9
$DIMDEC
 70
     4
  9
$DIMTDEC
 70
     4
  9
$DIMALTU
 70
     2
  9
$DIMALTTD
 70
     2
  9
$DIMTXSTY
  7
STANDARD
  9
$DIMAUNIT
 70
     0
  9
$DIMADEC
 70
     0
  9
$DIMALTRND
 40
0.0
  9
$DIMAZIN
 70
     0
  9
$DIMDSEP
 70
    46
  9
$DIMATFIT
 70
     3
  9
$DIMFRAC
 70
     0
  9
$DIMLDRBLK
  1

  9
$DIMLUNIT
 70
     2
  9
$DIMLWD
 70
    -2
  9
$DIMLWE
 70
    -2
  9
$DIMTMOVE
 70
     2
  9
$LUNITS
 70
     2
  9
$LUPREC
 70
     4
  9
$SKETCHINC
 40
1.0
  9
$FILLETRAD
 40
0.0
  9
$AUNITS
 70
     0
  9
$AUPREC
 70
     0
  9
$MENU
  1
.
  9
$ELEVATION
 40
0.0
  9
$PELEVATION
 40
0.0
  9
$THICKNESS
 40
0.0
  9
$LIMCHECK
 70
     0
  9
$CHAMFERA
 40
0.0
  9
$CHAMFERB
 40
0.0
  9
$CHAMFERC
 40
0.0
  9
$CHAMFERD
 40
0.0
  9
$SKPOLY
 70
     0
  9
$TDCREATE
 40
2452591.511588311
  9
$TDUCREATE
 40
2452591.136588310
  9
$TDUPDATE
 40
2457192.639922234
  9
$TDUUPDATE
 40
2457192.264922234
  9
$TDINDWG
 40
0.0434611343
  9
$TDUSRTIMER
 40
0.0434611343
  9
$USRTIMER
 70
     1
  9
$ANGBASE
 50
0.0
  9
$ANGDIR
 70
     0
  9
$PDMODE
 70
     0
  9
$PDSIZE
 40
0.0
  9
$PLINEWID
 40
0.0
  9
$SPLFRAME
 70
     0
  9
$SPLINETYPE
 70
     6
  9
$SPLINESEGS
 70
     8
  9
$HANDSEED
  5
556
  9
$SURFTAB1
 70
     6
  9
$SURFTAB2
 70
     6
  9
$SURFTYPE
 70
     6
  9
$SURFU
 70
     6
  9
$SURFV
 70
     6
  9
$UCSBASE
  2

  9
$UCSNAME
  2

  9
$UCSORG
 10
0.0
 20
0.0
 30
0.0
  9
$UCSXDIR
 10
1.0
 20
0.0
 30
0.0
  9
$UCSYDIR
 10
0.0
 20
1.0
 30
0.0
  9
$UCSORTHOREF
  2

  9
$UCSORTHOVIEW
 70
     0
  9
$UCSORGTOP
 10
0.0
 20
0.0
 30
0.0
  9
$UCSORGBOTTOM
 10
0.0
 20
0.0
 30
0.0
  9
$UCSORGLEFT
 10
0.0
 20
0.0
 30
0.0
  9
$UCSORGRIGHT
 10
0.0
 20
0.0
 30
0.0
  9
$UCSORGFRONT
 10
0.0
 20
0.0
 30
0.0
  9
$UCSORGBACK
 10
0.0
 20
0.0
 30
0.0
  9
$PUCSBASE
  2

  9
$PUCSNAME
  2

  9
$PUCSORG
 10
0.0
 20
0.0
 30
0.0
  9
$PUCSXDIR
 10
1.0
 20
0.0
 30
0.0
  9
$PUCSYDIR
 10
0.0
 20
1.0
 30
0.0
  9
$PUCSORTHOREF
  2

  9
$PUCSORTHOVIEW
 70
     0
  9
$PUCSORGTOP
 10
0.0
 20
0.0
 30
0.0
  9
$PUCSORGBOTTOM
 10
0.0
 20
0.0
 30
0.0
  9
$PUCSORGLEFT
 10
0.0
 20
0.0
 30
0.0
  9
$PUCSORGRIGHT
 10
0.0
 20
0.0
 30
0.0
  9
$PUCSORGFRONT
 10
0.0
 20
0.0
 30
0.0
  9
$PUCSORGBACK
 10
0.0
 20
0.0
 30
0.0
  9
$USERI1
 70
     0
  9
$USERI2
 70
     0
  9
$USERI3
 70
     0
  9
$USERI4
 70
     0
  9
$USERI5
 70
     0
  9
$USERR1
 40
0.0
  9
$USERR2
 40
0.0
  9
$USERR3
 40
0.0
  9
$USERR4
 40
0.0
  9
$USERR5
 40
0.0
  9
$WORLDVIEW
 70
     1
  9
$SHADEDGE
 70
     3
  9
$SHADEDIF
 70
    70
  9
$TILEMODE
 70
     1
  9
$MAXACTVP
 70
    48
  9
$PINSBASE
 10
0.0
 20
0.0
 30
0.0
  9
$PLIMCHECK
 70
     0
  9
$PEXTMIN
 10
1.00000000E+20
 20
1.00000000E+20
 30
1.00000000E+20
  9
$PEXTMAX
 10
-1.00000000E+20
 20
-1.00000000E+20
 30
-1.00000000E+20
  9
$PLIMMIN
 10
0.0
 20
0.0
  9
$PLIMMAX
 10
420.0
 20
297.0
  9
$UNITMODE
 70
     0
  9
$VISRETAIN
 70
     1
  9
$PLINEGEN
 70
     0
  9
$PSLTSCALE
 70
     1
  9
$TREEDEPTH
 70
  3020
  9
$CMLSTYLE
  2
STANDARD
  9
$CMLJUST
 70
     0
  9
$CMLSCALE
 40
1.0
  9
$PROXYGRAPHICS
 70
     1
  9
$MEASUREMENT
 70
     1
  9
$CELWEIGHT
370
    -1
  9
$ENDCAPS
280
     0
  9
$JOINSTYLE
280
     0
  9
$LWDISPLAY
290
     0
  9
$INSUNITS
 70
     0
  9
$HYPERLINKBASE
  1

  9
$STYLESHEET
  1

  9
$XEDIT
290
     1
  9
$CEPSNTYPE
380
     0
  9
$PSTYLEMODE
290
     1
  9
$FINGERPRINTGUID
  2
{6949F2AB-EFA2-4144-BC04-3CCC70685E87}
  9
$VERSIONGUID
  2
{8B1EB291-2F27-48EA-A66A-D99285A61C81}
  9
$EXTNAMES
290
     1
  9
$PSVPSCALE
 40
0.0
  9
$OLESTARTUP
290
     0
  9
$SORTENTS
280
   127
  9
$INDEXCTL
280
     0
  9
$HIDETEXT
280
     0
  9
$XCLIPFRAME
290
     0
  9
$HALOGAP
280
     0
  9
$OBSCOLOR
 70
   257
  9
$OBSLTYPE
280
     0
  9
$INTERSECTIONDISPLAY
280
     0
  9
$INTERSECTIONCOLOR
 70
   257
  9
$DIMASSOC
280
     1
  9
$PROJECTNAME
  1

  0
ENDSEC
  0
SECTION
  2
CLASSES
  0
CLASS
  1
DICTIONARYVAR
  2
AcDbDictionaryVar
  3
ObjectDBX Classes
 90
        0
 91
        7
280
     0
281
     0
  0
CLASS
  1
ACDBDICTIONARYWDFLT
  2
AcDbDictionaryWithDefault
  3
ObjectDBX Classes
 90
        0
 91
        1
280
     1
281
     0
  0
CLASS
  1
MATERIAL
  2
AcDbMaterial
  3
ObjectDBX Classes
 90
     1153
 91
        3
280
     0
281
     0
  0
CLASS
  1
VISUALSTYLE
  2
AcDbVisualStyle
  3
ObjectDBX Classes
 90
     4095
 91
       24
280
     0
281
     0
  0
CLASS
  1
TABLESTYLE
  2
AcDbTableStyle
  3
ObjectDBX Classes
 90
     4095
 91
        1
280
     0
281
     0
  0
CLASS
  1
SCALE
  2
AcDbScale
  3
ObjectDBX Classes
 90
     1153
 91
       17
280
     0
281
     0
  0
CLASS
  1
MLEADERSTYLE
  2
AcDbMLeaderStyle
  3
ACDB_MLEADERSTYLE_CLASS
 90
     4095
 91
        1
280
     0
281
     0
  0
CLASS
  1
ACDBSECTIONVIEWSTYLE
  2
AcDbSectionViewStyle
  3
ObjectDBX Classes
 90
     1025
 91
        1
280
     0
281
     0
  0
CLASS
  1
ACDBDETAILVIEWSTYLE
  2
AcDbDetailViewStyle
  3
ObjectDBX Classes
 90
     1025
 91
        1
280
     0
281
     0
  0
CLASS
  1
CELLSTYLEMAP
  2
AcDbCellStyleMap
  3
ObjectDBX Classes
 90
     1152
 91
        2
280
     0
281
     0
  0
ENDSEC
  0
SECTION
  2
TABLES
  0
TABLE
  2
VPORT
  5
16
330
0
100
AcDbSymbolTable
 70
     1
  0
VPORT
  5
474
330
16
100
AcDbSymbolTableRecord
100
AcDbViewportTableRecord
  2
*ACTIVE
 70
     0
 10
0.0
 20
0.0
 11
1.0
 21
1.0
 12
396.70821649
 22
282.10920615
 13
0.0
 23
0.0
 14
10.0
 24
10.0
 15
10.0
 25
10.0
 16
0.0
 26
0.0
 36
1.0
 17
0.0
 27
0.0
 37
0.0
 40
594.8923072
 41
1.34178905
 42
50.0
 43
0.0
 44
0.0
 50
0.0
 51
0.0
 71
     0
 72
  1000
 73
     1
 74
     1
 75
     0
 76
     0
 77
     0
 78
     0
281
     0
 65
     1
110
0.0
120
0.0
130
0.0
111
1.0
121
0.0
131
0.0
112
0.0
122
1.0
132
0.0
 79
     0
146
0.0
1001
ACAD_NAV_VCDISPLAY
1070
     1
  0
ENDTAB
  0
TABLE
  2
LTYPE
  5
11
330
0
100
AcDbSymbolTable
 70
     4
  0
LTYPE
  5
12
330
11
100
AcDbSymbolTableRecord
100
AcDbLinetypeTableRecord
  2
BYBLOCK
 70
     0
  3

 72
    65
 73
     0
 40
0.0
  0
LTYPE
  5
13
330
11
100
AcDbSymbolTableRecord
100
AcDbLinetypeTableRecord
  2
BYLAYER
 70
     0
  3

 72
    65
 73
     0
 40
0.0
  0
LTYPE
  5
7
330
11
100
AcDbSymbolTableRecord
100
AcDbLinetypeTableRecord
  2
CONTINUOUS
 70
     0
  3
Solid line
 72
    65
 73
     0
 40
0.0
  0
LTYPE
  5
41
330
11
100
AcDbSymbolTableRecord
100
AcDbLinetypeTableRecord
  2
HIDDEN
 70
     0
  3
__ __ __ __ __ __ __ __ __ __ __ __ __ __ __ __
 72
    65
 73
     2
 40
0.375
 49
0.25
 74
     0
 49
-0.125
 74
     0
  0
LTYPE
  5
2D0
330
11
100
AcDbSymbolTableRecord
100
AcDbLinetypeTableRecord
  2
YCENTER_1
 70
     0
  3
中心線尺度1--- － --- － ---
 72
    65
 73
     4
 40
13.0
 49
10.0
 74
     0
 49
-1.0
 74
     0
 49
1.0
 74
     0
 49
-1.0
 74
     0
  0
LTYPE
  5
113
330
11
100
AcDbSymbolTableRecord
100
AcDbLinetypeTableRecord
  2
YHIDDEN_1
 70
     0
  3
破線尺度1－ － － － － － －
 72
    65
 73
     2
 40
4.0
 49
3.0
 74
     0
 49
-1.0
 74
     0
  0
ENDTAB
  0
TABLE
  2
LAYER
  5
E
330
0
100
AcDbSymbolTable
 70
     8
  0
LAYER
  5
6
330
E
100
AcDbSymbolTableRecord
100
AcDbLayerTableRecord
  2
0
 70
     0
 62
     7
  6
CONTINUOUS
370
    -3
390
477
  0
LAYER
  5
38
330
E
100
AcDbSymbolTableRecord
100
AcDbLayerTableRecord
  2
YKK_ZWAK
 70
     0
 62
     7
  6
CONTINUOUS
370
    -3
390
477
  0
LAYER
  5
222
330
E
100
AcDbSymbolTableRecord
100
AcDbLayerTableRecord
  2
USER1
 70
     0
 62
     3
  6
CONTINUOUS
370
    -3
390
477
  0
LAYER
  5
106
330
E
100
AcDbSymbolTableRecord
100
AcDbLayerTableRecord
  2
YKK_11
 70
     0
 62
     7
  6
CONTINUOUS
370
    -3
390
477
1001
ACAECLAYERSTANDARD
1000

1000
形材形状　【中・実線】
  0
LAYER
  5
2F
330
E
100
AcDbSymbolTableRecord
100
AcDbLayerTableRecord
  2
YKK_12
 70
     0
 62
     2
  6
CONTINUOUS
370
    -3
390
477
1001
ACAECLAYERSTANDARD
1000

1000
一般線　　　【細・実線】
  0
LAYER
  5
421
330
E
100
AcDbSymbolTableRecord
100
AcDbLayerTableRecord
  2
YKK_A1
 70
     0
 62
     4
  6
CONTINUOUS
370
    -3
390
477
1001
ACAECLAYERSTANDARD
1000

1000
姿図　　　　【細・実線】
  0
LAYER
  5
31
330
E
100
AcDbSymbolTableRecord
100
AcDbLayerTableRecord
  2
YKK_13
 70
     0
 62
     4
  6
CONTINUOUS
370
    -3
390
477
1001
ACAECLAYERSTANDARD
1000

1000
部品形状　【細・実線】
  0
LAYER
  5
2A
330
E
100
AcDbSymbolTableRecord
100
AcDbLayerTableRecord
  2
YKK_D
 70
     0
 62
     6
  6
CONTINUOUS
370
    -3
390
477
1001
ACAECLAYERSTANDARD
1000

1000
寸法
  0
ENDTAB
  0
TABLE
  2
STYLE
  5
F
330
0
100
AcDbSymbolTable
 70
     2
  0
STYLE
  5
10
330
F
100
AcDbSymbolTableRecord
100
AcDbTextStyleTableRecord
  2
STANDARD
 70
     0
 40
0.0
 41
1.0
 50
0.0
 71
     0
 42
3.0
  3
ROMANS.SHX
  4
EXTFONT.SHX
  0
STYLE
  5
47
330
F
100
AcDbSymbolTableRecord
100
AcDbTextStyleTableRecord
  2
YKK_OSSTYLE1
 70
     0
 40
0.0
 41
0.9
 50
0.0
 71
     0
 42
4.0
  3
romans.shx
  4
EXTFONT.SHX
  0
ENDTAB
  0
TABLE
  2
VIEW
  5
14
330
0
100
AcDbSymbolTable
 70
     0
  0
ENDTAB
  0
TABLE
  2
UCS
  5
15
330
0
100
AcDbSymbolTable
 70
     0
  0
ENDTAB
  0
TABLE
  2
APPID
  5
18
330
0
100
AcDbSymbolTable
 70
    11
  0
APPID
  5
19
330
18
100
AcDbSymbolTableRecord
100
AcDbRegAppTableRecord
  2
ACAD
 70
     0
  0
APPID
  5
425
330
18
100
AcDbSymbolTableRecord
100
AcDbRegAppTableRecord
  2
GENIUS_GENREC_14
 70
     0
  0
APPID
  5
426
330
18
100
AcDbSymbolTableRecord
100
AcDbRegAppTableRecord
  2
GENIUS_GENOBJ-N-REC_13
 70
     0
  0
APPID
  5
153
330
18
100
AcDbSymbolTableRecord
100
AcDbRegAppTableRecord
  2
GENIUS_GENODEF_13
 70
     0
  0
APPID
  5
2B
330
18
100
AcDbSymbolTableRecord
100
AcDbRegAppTableRecord
  2
ACAECLAYERSTANDARD
 70
     0
  0
APPID
  5
422
330
18
100
AcDbSymbolTableRecord
100
AcDbRegAppTableRecord
  2
ACDBBLOCKREPETAG
 70
     0
  0
APPID
  5
154
330
18
100
AcDbSymbolTableRecord
100
AcDbRegAppTableRecord
  2
GENIUS_GENOBJ-N-FIL_13
 70
     0
  0
APPID
  5
502
330
18
100
AcDbSymbolTableRecord
100
AcDbRegAppTableRecord
  2
ACAD_MLEADERVER
 70
     0
  0
APPID
  5
516
330
18
100
AcDbSymbolTableRecord
100
AcDbRegAppTableRecord
  2
ACAD_PSEXT
 70
     0
  0
APPID
  5
517
330
18
100
AcDbSymbolTableRecord
100
AcDbRegAppTableRecord
  2
ACAD_NAV_VCDISPLAY
 70
     0
  0
APPID
  5
518
330
18
100
AcDbSymbolTableRecord
100
AcDbRegAppTableRecord
  2
YKK_AP_LOCKLAYER
 70
     0
  0
ENDTAB
  0
TABLE
  2
DIMSTYLE
  5
1A
330
0
100
AcDbSymbolTable
 70
     1
100
AcDbDimStyleTable
 71
     0
  0
DIMSTYLE
105
20
330
1A
100
AcDbSymbolTableRecord
100
AcDbDimStyleTableRecord
  2
YKK_OSADOT
 70
     0
 41
1.5
 42
2.0
 43
10.0
 44
2.0
 73
     0
 74
     0
 78
    12
140
3.0
141
0.0
143
0.0394
145
1.0
147
0.01
172
     1
173
     1
279
     2
284
    12
285
    12
286
    12
340
10
341
23
343
23
344
23
  0
ENDTAB
  0
TABLE
  2
BLOCK_RECORD
  5
1
330
0
100
AcDbSymbolTable
 70
     5
  0
BLOCK_RECORD
  5
2
102
{ACAD_XDICTIONARY
360
3
102
}
330
1
100
AcDbSymbolTableRecord
100
AcDbBlockTableRecord
  2
*MODEL_SPACE
340
4C9
  0
BLOCK_RECORD
  5
9
102
{ACAD_XDICTIONARY
360
A
102
}
330
1
100
AcDbSymbolTableRecord
100
AcDbBlockTableRecord
  2
*PAPER_SPACE
340
4CA
  0
BLOCK_RECORD
  5
23
330
1
100
AcDbSymbolTableRecord
100
AcDbBlockTableRecord
  2
DOT1
340
0
  0
BLOCK_RECORD
  5
39
330
1
100
AcDbSymbolTableRecord
100
AcDbBlockTableRecord
  2
A201
340
0
102
{BLKREFS
331
37
102
}
  0
BLOCK_RECORD
  5
124
102
{ACAD_XDICTIONARY
360
13F
102
}
330
1
100
AcDbSymbolTableRecord
100
AcDbBlockTableRecord
  2
SK-80201
340
0
102
{BLKREFS
331
123
102
}
1001
ACAD
1000
DesignCenter Data
1002
{
1070
     1
1070
     4
1002
}
  0
BLOCK_RECORD
  5
1F9
102
{ACAD_XDICTIONARY
360
218
102
}
330
1
100
AcDbSymbolTableRecord
100
AcDbBlockTableRecord
  2
SK-90201
340
0
102
{BLKREFS
331
389
331
1F8
331
21E
102
}
1001
ACAD
1000
DesignCenter Data
1002
{
1070
     1
1070
     4
1002
}
  0
BLOCK_RECORD
  5
107
102
{ACAD_XDICTIONARY
360
109
102
}
330
1
100
AcDbSymbolTableRecord
100
AcDbBlockTableRecord
  2
SK-98114
340
0
102
{BLKREFS
331
262
331
2F6
331
396
331
105
102
}
1001
ACAD
1000
DesignCenter Data
1002
{
1070
     1
1070
     4
1002
}
  0
ENDTAB
  0
ENDSEC
  0
SECTION
  2
BLOCKS
  0
BLOCK
  5
5
330
2
100
AcDbEntity
  8
0
100
AcDbBlockBegin
  2
*MODEL_SPACE
 70
     0
 10
0.0
 20
0.0
 30
0.0
  3
*MODEL_SPACE
  1

  0
ENDBLK
  5
8
330
2
100
AcDbEntity
  8
0
100
AcDbBlockEnd
  0
BLOCK
  5
C
330
9
100
AcDbEntity
 67
     1
  8
0
100
AcDbBlockBegin
  2
*PAPER_SPACE
 70
     0
 10
0.0
 20
0.0
 30
0.0
  3
*PAPER_SPACE
  1

  0
ENDBLK
  5
D
330
9
100
AcDbEntity
 67
     1
  8
0
100
AcDbBlockEnd
  0
BLOCK
  5
27
330
23
100
AcDbEntity
  8
0
100
AcDbBlockBegin
  2
DOT1
 70
     0
 10
0.0
 20
0.0
 30
0.0
  3
DOT1
  1

  0
CIRCLE
  5
24
330
23
100
AcDbEntity
  8
0
  6
ByBlock
 62
     0
370
    -2
100
AcDbCircle
 10
0.0
 20
0.0
 30
0.0
 40
0.5
  0
CIRCLE
  5
25
330
23
100
AcDbEntity
  8
0
  6
ByBlock
 62
     0
370
    -2
100
AcDbCircle
 10
0.0
 20
0.0
 30
0.0
 40
0.325
  0
LINE
  5
26
330
23
100
AcDbEntity
  8
0
  6
ByBlock
 62
     0
370
    -2
100
AcDbLine
 10
0.0
 20
0.0
 30
0.0
 11
-1.0
 21
0.0
 31
0.0
  0
ENDBLK
  5
28
330
23
100
AcDbEntity
  8
0
100
AcDbBlockEnd
  0
BLOCK
  5
F1
330
39
100
AcDbEntity
  8
0
100
AcDbBlockBegin
  2
A201
 70
     0
 10
0.0
 20
0.0
 30
0.0
  3
A201
  1

  0
LINE
  5
3A
330
39
100
AcDbEntity
  8
YKK_ZWAK
  6
Continuous
 62
   254
100
AcDbLine
 10
21.000001
 20
8.9995
 30
0.0
 11
544.000013
 21
8.9995
 31
0.0
  0
LINE
  5
3B
330
39
100
AcDbEntity
  8
YKK_ZWAK
  6
Continuous
 62
   131
100
AcDbLine
 10
205.000005
 20
21.000001
 30
0.0
 11
297.000007
 21
21.000001
 31
0.0
  0
LINE
  5
3C
330
39
100
AcDbEntity
  8
YKK_ZWAK
  6
Continuous
 62
   254
100
AcDbLine
 10
571.000014
 20
34.999501
 30
0.0
 11
21.000001
 21
34.999501
 31
0.0
  0
LINE
  5
3D
330
39
100
AcDbEntity
  8
YKK_ZWAK
  6
Continuous
 62
   254
100
AcDbLine
 10
544.000013
 20
33.999501
 30
0.0
 11
21.000001
 21
33.999501
 31
0.0
  0
LINE
  5
3E
330
39
100
AcDbEntity
  8
YKK_ZWAK
  6
Continuous
 62
   254
100
AcDbLine
 10
571.000014
 20
409.99951
 30
0.0
 11
21.000001
 21
409.99951
 31
0.0
  0
LINE
  5
3F
330
39
100
AcDbEntity
  8
YKK_ZWAK
  6
Continuous
 62
   254
100
AcDbLine
 10
21.000001
 20
34.999501
 30
0.0
 11
21.000001
 21
409.99951
 31
0.0
  0
LINE
  5
40
330
39
100
AcDbEntity
  8
YKK_ZWAK
  6
HIDDEN
 62
   131
100
AcDbLine
 10
24.284751
 20
13.7865
 30
0.0
 11
201.565005
 21
13.7865
 31
0.0
  0
LINE
  5
42
330
39
100
AcDbEntity
  8
YKK_ZWAK
  6
HIDDEN
 62
   131
100
AcDbLine
 10
24.284751
 20
18.7355
 30
0.0
 11
201.565005
 21
18.7355
 31
0.0
  0
LINE
  5
43
330
39
100
AcDbEntity
  8
YKK_ZWAK
  6
HIDDEN
 62
   131
100
AcDbLine
 10
24.284751
 20
23.684501
 30
0.0
 11
201.565005
 21
23.684501
 31
0.0
  0
LINE
  5
44
330
39
100
AcDbEntity
  8
YKK_ZWAK
  6
HIDDEN
 62
   131
100
AcDbLine
 10
24.284751
 20
28.633501
 30
0.0
 11
201.565005
 21
28.633501
 31
0.0
  0
LINE
  5
45
330
39
100
AcDbEntity
  8
YKK_ZWAK
  6
Continuous
 62
   254
100
AcDbLine
 10
21.000001
 20
8.9995
 30
0.0
 11
21.000001
 21
33.999501
 31
0.0
  0
TEXT
  5
46
330
39
100
AcDbEntity
  8
YKK_ZWAK
  6
Continuous
 62
   131
100
AcDbText
 10
24.367481
 20
29.394844
 30
0.0
 40
3.0
  1
変 更 記 事
 41
0.9
  7
YKK_OSSTYLE1
100
AcDbText
  0
TEXT
  5
48
330
39
100
AcDbEntity
  8
YKK_ZWAK
  6
Continuous
 62
   254
100
AcDbText
 10
289.94159
 20
12.3725
 30
0.0
 40
5.0
  1
殿
 41
0.9
  7
YKK_OSSTYLE1
100
AcDbText
  0
LINE
  5
49
330
39
100
AcDbEntity
  8
YKK_ZWAK
  6
Continuous
 62
   254
100
AcDbLine
 10
296.000007
 20
33.999501
 30
0.0
 11
296.000007
 21
8.9995
 31
0.0
  0
LINE
  5
4A
330
39
100
AcDbEntity
  8
YKK_ZWAK
  6
Continuous
 62
   254
100
AcDbLine
 10
205.000005
 20
33.999501
 30
0.0
 11
205.000005
 21
8.9995
 31
0.0
  0
TEXT
  5
4B
330
39
100
AcDbEntity
  8
YKK_ZWAK
  6
Continuous
 62
   131
100
AcDbText
 10
207.692335
 20
17.675001
 30
0.0
 40
3.0
  1
施　　工
 41
0.9
  7
YKK_OSSTYLE1
100
AcDbText
  0
TEXT
  5
4C
330
39
100
AcDbEntity
  8
YKK_ZWAK
  6
Continuous
 62
   131
100
AcDbText
 10
207.692335
 20
30.047503
 30
0.0
 40
3.0
  1
設計監理
 41
0.9
  7
YKK_OSSTYLE1
100
AcDbText
  0
TEXT
  5
4D
330
39
100
AcDbEntity
  8
YKK_ZWAK
  6
Continuous
 62
   254
100
AcDbText
 10
289.94159
 20
24.745001
 30
0.0
 40
5.0
  1
殿
 41
0.9
  7
YKK_OSSTYLE1
100
AcDbText
  0
LINE
  5
4E
330
39
100
AcDbEntity
  8
YKK_ZWAK
  6
Continuous
 62
   254
100
AcDbLine
 10
19.000001
 20
222.4995055
 30
0.0
 11
21.000001
 21
222.4995055
 31
0.0
  0
LINE
  5
4F
330
39
100
AcDbEntity
  8
YKK_ZWAK
  6
Continuous
 62
     8
100
AcDbLine
 10
296.010007
 20
411.99951
 30
0.0
 11
296.010007
 21
409.99951
 31
0.0
  0
LINE
  5
50
330
39
100
AcDbEntity
  8
YKK_ZWAK
  6
Continuous
 62
   254
100
AcDbLine
 10
571.000014
 20
409.99951
 30
0.0
 11
571.000014
 21
34.999501
 31
0.0
  0
LINE
  5
51
330
39
100
AcDbEntity
  8
YKK_ZWAK
  6
Continuous
 62
   254
100
AcDbLine
 10
452.000011
 20
15.9995
 30
0.0
 11
523.999763
 21
15.9995
 31
0.0
  0
LINE
  5
52
330
39
100
AcDbEntity
  8
YKK_ZWAK
  6
Continuous
 62
   131
100
AcDbLine
 10
437.703011
 20
29.000001
 30
0.0
 11
389.00001
 21
29.000001
 31
0.0
  0
LINE
  5
53
330
39
100
AcDbEntity
  8
YKK_ZWAK
  6
Continuous
 62
   254
100
AcDbLine
 10
389.00001
 20
33.999501
 30
0.0
 11
389.00001
 21
8.9995
 31
0.0
  0
LINE
  5
54
330
39
100
AcDbEntity
  8
YKK_ZWAK
  6
Continuous
 62
   131
100
AcDbLine
 10
297.000007
 20
21.000001
 30
0.0
 11
389.00001
 21
21.000001
 31
0.0
  0
TEXT
  5
55
330
39
100
AcDbEntity
  8
YKK_ZWAK
  6
Continuous
 62
   131
100
AcDbText
 10
298.58378403
 20
17.465002
 30
0.0
 40
3.0
  1
図面内容
 41
0.9
  7
YKK_OSSTYLE1
100
AcDbText
  0
TEXT
  5
56
330
39
100
AcDbEntity
  8
YKK_ZWAK
  6
Continuous
 62
   131
100
AcDbText
 10
298.86588
 20
30.047503
 30
0.0
 40
3.0
  1
工 事 名
 41
0.9
  7
YKK_OSSTYLE1
100
AcDbText
  0
TEXT
  5
57
330
39
100
AcDbEntity
  8
YKK_ZWAK
  6
Continuous
 62
   254
100
AcDbText
 10
377.16530176
 20
24.745001
 30
0.0
 40
5.0
  1
工事
 41
0.9
  7
YKK_OSSTYLE1
100
AcDbText
  0
LINE
  5
58
330
39
100
AcDbEntity
  8
YKK_ZWAK
  6
Continuous
 62
   254
100
AcDbLine
 10
452.000011
 20
33.999501
 30
0.0
 11
452.000011
 21
8.9995
 31
0.0
  0
LINE
  5
59
330
39
100
AcDbEntity
  8
YKK_ZWAK
  6
Continuous
 62
   254
100
AcDbLine
 10
437.000011
 20
33.999501
 30
0.0
 11
437.000011
 21
8.9995
 31
0.0
  0
LINE
  5
5A
330
39
100
AcDbEntity
  8
YKK_ZWAK
  6
Continuous
 62
   131
100
AcDbLine
 10
443.051603
 20
10.181617
 30
0.0
 11
449.854371
 21
16.984384
 31
0.0
  0
LINE
  5
5B
330
39
100
AcDbEntity
  8
YKK_ZWAK
  6
Continuous
 62
   131
100
AcDbLine
 10
421.00001
 20
33.999501
 30
0.0
 11
421.00001
 21
8.9995
 31
0.0
  0
LINE
  5
5C
330
39
100
AcDbEntity
  8
YKK_ZWAK
  6
Continuous
 62
   131
100
AcDbLine
 10
405.00001
 20
33.999501
 30
0.0
 11
405.00001
 21
8.9995
 31
0.0
  0
TEXT
  5
5D
330
39
100
AcDbEntity
  8
YKK_ZWAK
  6
Continuous
 62
   131
100
AcDbText
 10
392.18209354
 20
9.752325
 30
0.0
 40
3.5
  1
 ． ．
 41
0.9
  7
YKK_OSSTYLE1
100
AcDbText
  0
LINE
  5
5E
330
39
100
AcDbEntity
  8
YKK_ZWAK
  6
Continuous
 62
   131
100
AcDbLine
 10
455.5999986
 20
10.4995
 30
0.0
 11
455.5999986
 21
8.9995
 31
0.0
  0
TEXT
  5
5F
330
39
100
AcDbEntity
  8
YKK_ZWAK
  6
Continuous
 62
   131
100
AcDbText
 10
407.8246491
 20
29.87075
 30
0.0
 40
3.0
  1
担  当
 41
0.9
  7
YKK_OSSTYLE1
100
AcDbText
  0
TEXT
  5
60
330
39
100
AcDbEntity
  8
YKK_ZWAK
  6
Continuous
 62
   131
100
AcDbText
 10
392.5636631
 20
29.87075
 30
0.0
 40
3.0
  1
照  査
 41
0.9
  7
YKK_OSSTYLE1
100
AcDbText
  0
TEXT
  5
61
330
39
100
AcDbEntity
  8
YKK_ZWAK
  6
Continuous
 62
   131
100
AcDbText
 10
424.0856971
 20
29.883751
 30
0.0
 40
3.0
  1
作  図
 41
0.9
  7
YKK_OSSTYLE1
100
AcDbText
  0
TEXT
  5
62
330
39
100
AcDbEntity
  8
YKK_ZWAK
  6
Continuous
 62
   131
100
AcDbText
 10
453.905095
 20
30.047501
 30
0.0
 40
3.0
  1
御承認印
 41
0.9
  7
YKK_OSSTYLE1
100
AcDbText
  0
LINE
  5
63
330
39
100
AcDbEntity
  8
YKK_ZWAK
  6
Continuous
 62
   131
100
AcDbLine
 10
437.703011
 20
29.000001
 30
0.0
 11
452.000011
 21
29.000001
 31
0.0
  0
LINE
  5
64
330
39
100
AcDbEntity
  8
YKK_ZWAK
  6
Continuous
 62
   131
100
AcDbLine
 10
439.264403
 20
21.330812
 30
0.0
 11
446.188247
 21
28.254656
 31
0.0
  0
TEXT
  5
65
330
39
100
AcDbEntity
  8
YKK_ZWAK
  6
Continuous
 62
   131
100
AcDbText
 10
439.5087681
 20
30.044463
 30
0.0
 40
3.0
  1
尺  度
 41
0.9
  7
YKK_OSSTYLE1
100
AcDbText
  0
CIRCLE
  5
66
330
39
100
AcDbEntity
  8
YKK_ZWAK
  6
Continuous
 62
     8
100
AcDbCircle
 10
579.426014
 20
83.719502
 30
0.0
 40
6.299999999999999
  0
LINE
  5
67
330
39
100
AcDbEntity
  8
YKK_ZWAK
  6
Continuous
 62
     8
100
AcDbLine
 10
573.126014
 20
69.579502
 30
0.0
 11
585.726014
 21
69.579502
 31
0.0
  0
LINE
  5
68
330
39
100
AcDbEntity
  8
YKK_ZWAK
  6
Continuous
 62
     8
100
AcDbLine
 10
573.126014
 20
55.439501
 30
0.0
 11
585.726014
 21
55.439501
 31
0.0
  0
CIRCLE
  5
69
330
39
100
AcDbEntity
  8
YKK_ZWAK
  6
Continuous
 62
     8
100
AcDbCircle
 10
579.426014
 20
69.579502
 30
0.0
 40
6.299999999999999
  0
CIRCLE
  5
6A
330
39
100
AcDbEntity
  8
YKK_ZWAK
  6
Continuous
 62
     8
100
AcDbCircle
 10
579.426014
 20
55.439501
 30
0.0
 40
6.299999999999999
  0
LINE
  5
6B
330
39
100
AcDbEntity
  8
YKK_ZWAK
  6
Continuous
 62
     8
100
AcDbLine
 10
573.126014
 20
41.299501
 30
0.0
 11
585.726014
 21
41.299501
 31
0.0
  0
CIRCLE
  5
6C
330
39
100
AcDbEntity
  8
YKK_ZWAK
  6
Continuous
 62
     8
100
AcDbCircle
 10
579.426014
 20
41.299501
 30
0.0
 40
6.299999999999999
  0
LINE
  5
6D
330
39
100
AcDbEntity
  8
YKK_ZWAK
  6
Continuous
 62
   254
100
AcDbLine
 10
544.000013
 20
33.999501
 30
0.0
 11
544.000013
 21
8.9995
 31
0.0
  0
LINE
  5
6E
330
39
100
AcDbEntity
  8
YKK_ZWAK
  6
Continuous
 62
   254
100
AcDbLine
 10
523.999763
 20
33.999501
 30
0.0
 11
523.999763
 21
8.9995
 31
0.0
  0
ARC
  5
6F
330
39
100
AcDbEntity
  8
YKK_ZWAK
  6
Continuous
 62
   254
100
AcDbCircle
 10
567.23923515
 20
16.32442811
 30
0.0
 40
3.065267824757687
100
AcDbArc
 50
285.44291453
 51
349.90448123
  0
ARC
  5
70
330
39
100
AcDbEntity
  8
YKK_ZWAK
  6
Continuous
 62
   254
100
AcDbCircle
 10
553.606314
 20
13.7174867
 30
0.0
 40
7.916047100361496
100
AcDbArc
 50
168.7637177
 51
199.80079153
  0
ARC
  5
71
330
39
100
AcDbEntity
  8
YKK_ZWAK
  6
Continuous
 62
   254
100
AcDbCircle
 10
550.84442657
 20
13.7651724
 30
0.0
 40
1.69178303147034
100
AcDbArc
 50
171.08203026
 51
216.71922793
  0
LINE
  5
72
330
39
100
AcDbEntity
  8
YKK_ZWAK
  6
Continuous
 62
   254
100
AcDbLine
 10
562.610947
 20
9.566381
 30
0.0
 11
562.610947
 21
20.243049
 31
0.0
  0
LINE
  5
73
330
39
100
AcDbEntity
  8
YKK_ZWAK
  6
Continuous
 62
   254
100
AcDbLine
 10
559.019868
 20
23.216355
 30
0.0
 11
559.019868
 21
9.566381
 31
0.0
  0
LINE
  5
74
330
39
100
AcDbEntity
  8
YKK_ZWAK
  6
Continuous
 62
   254
100
AcDbLine
 10
557.513933
 20
20.011363
 30
0.0
 11
557.513933
 21
9.585666
 31
0.0
  0
LINE
  5
75
330
39
100
AcDbEntity
  8
YKK_ZWAK
  6
Continuous
 62
   254
100
AcDbLine
 10
554.019393
 20
12.520312
 30
0.0
 11
554.019393
 21
19.470807
 31
0.0
  0
LINE
  5
76
330
39
100
AcDbEntity
  8
YKK_ZWAK
  6
Continuous
 62
   254
100
AcDbLine
 10
557.28225
 20
9.547052
 30
0.0
 11
549.405042
 21
9.527722
 31
0.0
  0
LINE
  5
77
330
39
100
AcDbEntity
  8
YKK_ZWAK
  6
Continuous
 62
   254
100
AcDbLine
 10
550.00355
 20
12.520312
 30
0.0
 11
554.019393
 21
12.520312
 31
0.0
  0
ARC
  5
78
330
39
100
AcDbEntity
  8
YKK_ZWAK
  6
Continuous
 62
   254
100
AcDbCircle
 10
548.60007313
 20
12.25485189
 30
0.0
 40
2.730646981973357
100
AcDbArc
 50
207.31435415
 51
263.59464075
  0
ARC
  5
79
330
39
100
AcDbEntity
  8
YKK_ZWAK
  6
Continuous
 62
   254
100
AcDbCircle
 10
550.17864126
 20
13.59595698
 30
0.0
 40
1.089801345776779
100
AcDbArc
 50
230.97279559
 51
260.75491133
  0
LINE
  5
7A
330
39
100
AcDbEntity
  8
YKK_ZWAK
  6
Continuous
 62
   254
100
AcDbLine
 10
549.405042
 20
9.527722
 30
0.0
 11
548.343169
 21
9.527722
 31
0.0
  0
LINE
  5
7B
330
39
100
AcDbEntity
  8
YKK_ZWAK
  6
Continuous
 62
   254
100
AcDbLine
 10
557.513933
 20
9.585666
 30
0.0
 11
557.28225
 21
9.547052
 31
0.0
  0
LINE
  5
7C
330
39
100
AcDbEntity
  8
YKK_ZWAK
  6
Continuous
 62
   254
100
AcDbLine
 10
553.71047
 20
12.520312
 30
0.0
 11
553.961471
 21
12.520312
 31
0.0
  0
LINE
  5
7D
330
39
100
AcDbEntity
  8
YKK_ZWAK
  6
Continuous
 62
   254
100
AcDbLine
 10
554.019393
 20
12.521084
 30
0.0
 11
554.020164
 21
12.520312
 31
0.0
  0
LINE
  5
7E
330
39
100
AcDbEntity
  8
YKK_ZWAK
  6
Continuous
 62
   254
100
AcDbLine
 10
562.051042
 20
9.566381
 30
0.0
 11
562.610947
 21
9.566381
 31
0.0
  0
LINE
  5
7F
330
39
100
AcDbEntity
  8
YKK_ZWAK
  6
Continuous
 62
   254
100
AcDbLine
 10
559.019868
 20
9.566381
 30
0.0
 11
562.051042
 21
9.566381
 31
0.0
  0
TEXT
  5
80
330
39
100
AcDbEntity
  8
YKK_ZWAK
  6
Continuous
 62
   131
100
AcDbText
 10
528.4269094
 20
29.81226201
 30
0.0
 40
3.2
  1
図　番
 41
0.9
  7
YKK_OSSTYLE1
100
AcDbText
  0
TEXT
  5
81
330
39
100
AcDbEntity
  8
YKK_ZWAK
  6
Continuous
 62
   131
100
AcDbText
 10
526.62767404
 20
16.79627903
 30
0.0
 40
3.2
  1
通し図番
 41
0.9
  7
YKK_OSSTYLE1
100
AcDbText
  0
LINE
  5
82
330
39
100
AcDbEntity
  8
YKK_ZWAK
  6
Continuous
 62
   131
100
AcDbLine
 10
523.999763
 20
28.999501
 30
0.0
 11
544.000013
 21
28.999501
 31
0.0
  0
LINE
  5
83
330
39
100
AcDbEntity
  8
YKK_ZWAK
  6
Continuous
 62
   131
100
AcDbLine
 10
544.000013
 20
16.0
 30
0.0
 11
523.999763
 21
16.0
 31
0.0
  0
LINE
  5
84
330
39
100
AcDbEntity
  8
YKK_ZWAK
  6
Continuous
 62
   254
100
AcDbLine
 10
523.999763
 20
21.000001
 30
0.0
 11
544.000013
 21
21.000001
 31
0.0
  0
TEXT
  5
85
330
39
100
AcDbEntity
  8
YKK_ZWAK
  6
Continuous
 62
   131
100
AcDbText
 10
504.12596439
 20
16.73585252
 30
0.0
 40
2.828
  1
年   月   日
 41
0.9
  7
YKK_OSSTYLE1
100
AcDbText
  0
ARC
  5
86
330
39
100
AcDbEntity
  8
YKK_ZWAK
  6
Continuous
 62
   254
100
AcDbCircle
 10
550.80023932
 20
8.38955158
 30
0.0
 40
9.506414110787718
100
AcDbArc
 50
79.38097908
 51
112.0582515
  0
ARC
  5
87
330
39
100
AcDbEntity
  8
YKK_ZWAK
  6
Continuous
 62
   254
100
AcDbCircle
 10
552.02960157
 20
8.66870802
 30
0.0
 40
14.82019555938878
100
AcDbArc
 50
78.78009532
 51
91.46937906
  0
LINE
  5
88
330
39
100
AcDbEntity
  8
YKK_ZWAK
  6
Continuous
 62
   254
100
AcDbLine
 10
553.247106
 20
20.281664
 30
0.0
 11
550.60589668
 21
20.23169161
 31
0.0
  0
LINE
  5
89
330
39
100
AcDbEntity
  8
YKK_ZWAK
  6
Continuous
 62
   254
100
AcDbLine
 10
553.054042
 20
15.04953
 30
0.0
 11
550.200893
 21
15.046227
 31
0.0
  0
LINE
  5
8A
330
39
100
AcDbEntity
  8
YKK_ZWAK
  6
Continuous
 62
   254
100
AcDbLine
 10
554.187226
 20
33.42965
 30
0.0
 11
550.949599
 21
27.69553
 31
0.0
  0
LINE
  5
8B
330
39
100
AcDbEntity
  8
YKK_ZWAK
  6
Continuous
 62
   254
100
AcDbLine
 10
551.59718
 20
33.42965
 30
0.0
 11
554.187226
 21
33.42965
 31
0.0
  0
LINE
  5
8C
330
39
100
AcDbEntity
  8
YKK_ZWAK
  6
Continuous
 62
   254
100
AcDbLine
 10
548.594154
 20
27.714815
 30
0.0
 11
545.311979
 21
33.352466
 31
0.0
  0
ARC
  5
8D
330
39
100
AcDbEntity
  8
YKK_ZWAK
  6
Continuous
 62
   254
100
AcDbCircle
 10
549.68520483
 20
20.30975154
 30
0.0
 40
3.598113650678814
100
AcDbArc
 50
158.41083245
 51
179.71775245
  0
ARC
  5
8E
330
39
100
AcDbEntity
  8
YKK_ZWAK
  6
Continuous
 62
   254
100
AcDbCircle
 10
548.59054743
 20
14.76560333
 30
0.0
 40
2.791490107652263
100
AcDbArc
 50
121.82711365
 51
169.08474902
  0
LINE
  5
8F
330
39
100
AcDbEntity
  8
YKK_ZWAK
  6
Continuous
 62
   254
100
AcDbLine
 10
549.405042
 20
18.949491
 30
0.0
 11
546.084266
 21
18.949491
 31
0.0
  0
LINE
  5
90
330
39
100
AcDbEntity
  8
YKK_ZWAK
  6
Continuous
 62
   254
100
AcDbLine
 10
546.084266
 20
18.949491
 30
0.0
 11
546.084266
 21
20.32747631
 31
0.0
  0
ARC
  5
91
330
39
100
AcDbEntity
  8
YKK_ZWAK
  6
Continuous
 62
   254
100
AcDbCircle
 10
550.20700835
 20
14.01426078
 30
0.0
 40
1.031984336873053
100
AcDbArc
 50
90.33952634
 51
178.0363902
  0
ARC
  5
92
330
39
100
AcDbEntity
  8
YKK_ZWAK
  6
Continuous
 62
   254
100
AcDbCircle
 10
550.91098672
 20
18.99454401
 30
0.0
 40
1.5066184932453
100
AcDbArc
 50
138.46381796
 51
181.71359389
  0
ARC
  5
93
330
39
100
AcDbEntity
  8
YKK_ZWAK
  6
Continuous
 62
   254
100
AcDbCircle
 10
550.51068793
 20
19.02046023
 30
0.0
 40
1.214967561291876
100
AcDbArc
 50
85.50551117
 51
126.78038212
  0
ARC
  5
94
330
39
100
AcDbEntity
  8
YKK_ZWAK
  6
Continuous
 62
   254
100
AcDbCircle
 10
548.00461954
 20
21.10278181
 30
0.0
 40
1.745462511199758
100
AcDbArc
 50
109.02126645
 51
161.5126404
  0
ARC
  5
95
330
39
100
AcDbEntity
  8
YKK_ZWAK
  6
Continuous
 62
   254
100
AcDbCircle
 10
551.65872095
 20
10.85588209
 30
0.0
 40
12.62863449008531
100
AcDbArc
 50
89.89164773
 51
109.30848271
  0
LINE
  5
96
330
39
100
AcDbEntity
  8
YKK_ZWAK
  6
Continuous
 62
   254
100
AcDbLine
 10
548.594154
 20
24.529198
 30
0.0
 11
548.594154
 21
27.714815
 31
0.0
  0
LINE
  5
97
330
39
100
AcDbEntity
  8
YKK_ZWAK
  6
Continuous
 62
   254
100
AcDbLine
 10
550.949599
 20
24.529198
 30
0.0
 11
548.594154
 21
24.529198
 31
0.0
  0
LINE
  5
98
330
39
100
AcDbEntity
  8
YKK_ZWAK
  6
Continuous
 62
   254
100
AcDbLine
 10
550.949599
 20
27.69553
 30
0.0
 11
550.949599
 21
24.529198
 31
0.0
  0
LINE
  5
99
330
39
100
AcDbEntity
  8
YKK_ZWAK
  6
Continuous
 62
   254
100
AcDbLine
 10
545.311979
 20
33.352466
 30
0.0
 11
547.821884
 21
33.352466
 31
0.0
  0
LINE
  5
9A
330
39
100
AcDbEntity
  8
YKK_ZWAK
  6
Continuous
 62
   254
100
AcDbLine
 10
551.59718
 20
33.42965
 30
0.0
 11
549.771867
 21
29.877219
 31
0.0
  0
LINE
  5
9B
330
39
100
AcDbEntity
  8
YKK_ZWAK
  6
Continuous
 62
   254
100
AcDbLine
 10
549.617423
 20
29.993062
 30
0.0
 11
549.771867
 21
29.877219
 31
0.0
  0
LINE
  5
9C
330
39
100
AcDbEntity
  8
YKK_ZWAK
  6
Continuous
 62
   254
100
AcDbLine
 10
547.821884
 20
33.352466
 30
0.0
 11
549.617423
 21
29.993062
 31
0.0
  0
ARC
  5
9D
330
39
100
AcDbEntity
  8
YKK_ZWAK
  6
Continuous
 62
   254
100
AcDbCircle
 10
568.28604917
 20
28.29398617
 30
0.0
 40
1.544618833868573
100
AcDbArc
 50
0.00166292
 51
89.99603715
  0
ARC
  5
9E
330
39
100
AcDbEntity
  8
YKK_ZWAK
  6
Continuous
 62
   254
100
AcDbCircle
 10
559.98514917
 20
28.23604217
 30
0.0
 40
1.544618833868573
100
AcDbArc
 50
0.00166292
 51
89.99603715
  0
LINE
  5
9F
330
39
100
AcDbEntity
  8
YKK_ZWAK
  6
Continuous
 62
   254
100
AcDbLine
 10
562.553028
 20
24.625712
 30
0.0
 11
562.553028
 21
33.487594
 31
0.0
  0
LINE
  5
A0
330
39
100
AcDbEntity
  8
YKK_ZWAK
  6
Continuous
 62
   254
100
AcDbLine
 10
554.328297
 20
24.548527
 30
0.0
 11
554.328297
 21
33.410366
 31
0.0
  0
LINE
  5
A1
330
39
100
AcDbEntity
  8
YKK_ZWAK
  6
Continuous
 62
   254
100
AcDbLine
 10
564.985674
 20
24.625712
 30
0.0
 11
562.553028
 21
24.625712
 31
0.0
  0
LINE
  5
A2
330
39
100
AcDbEntity
  8
YKK_ZWAK
  6
Continuous
 62
   254
100
AcDbLine
 10
567.302491
 20
23.216355
 30
0.0
 11
559.019868
 21
23.216355
 31
0.0
  0
LINE
  5
A3
330
39
100
AcDbEntity
  8
YKK_ZWAK
  6
Continuous
 62
   254
100
AcDbLine
 10
563.479759
 20
13.196086
 30
0.0
 11
567.283206
 21
13.196086
 31
0.0
  0
LINE
  5
A4
330
39
100
AcDbEntity
  8
YKK_ZWAK
  6
Continuous
 62
   254
100
AcDbLine
 10
566.008932
 20
16.150017
 30
0.0
 11
563.479759
 21
16.150017
 31
0.0
  0
LINE
  5
A5
330
39
100
AcDbEntity
  8
YKK_ZWAK
  6
Continuous
 62
   254
100
AcDbLine
 10
562.610947
 20
20.243049
 30
0.0
 11
565.931704
 21
20.243049
 31
0.0
  0
ARC
  5
A6
330
39
100
AcDbEntity
  8
YKK_ZWAK
  6
Continuous
 62
   254
100
AcDbCircle
 10
554.22066
 20
20.08146332
 30
0.0
 40
3.294016994121146
100
AcDbArc
 50
358.78059045
 51
38.76562608
  0
ARC
  5
A7
330
39
100
AcDbEntity
  8
YKK_ZWAK
  6
Continuous
 62
   254
100
AcDbCircle
 10
552.89717617
 20
19.17519964
 30
0.0
 40
1.16048018439929
100
AcDbArc
 50
14.7551995
 51
72.44994796
  0
LINE
  5
A8
330
39
100
AcDbEntity
  8
YKK_ZWAK
  6
Continuous
 62
   254
100
AcDbLine
 10
553.054042
 20
17.617318
 30
0.0
 11
553.054042
 21
15.04953
 31
0.0
  0
LINE
  5
A9
330
39
100
AcDbEntity
  8
YKK_ZWAK
  6
Continuous
 62
   254
100
AcDbLine
 10
552.552059
 20
17.733161
 30
0.0
 11
553.054042
 21
17.617318
 31
0.0
  0
LINE
  5
AA
330
39
100
AcDbEntity
  8
YKK_ZWAK
  6
Continuous
 62
   254
100
AcDbLine
 10
563.479759
 20
16.150017
 30
0.0
 11
563.479759
 21
13.196086
 31
0.0
  0
LINE
  5
AB
330
39
100
AcDbEntity
  8
YKK_ZWAK
  6
Continuous
 62
   254
100
AcDbLine
 10
558.981248
 20
27.869273
 30
0.0
 11
556.703043
 21
27.869273
 31
0.0
  0
ARC
  5
AC
330
39
100
AcDbEntity
  8
YKK_ZWAK
  6
Continuous
 62
   254
100
AcDbCircle
 10
554.37879626
 20
20.07343796
 30
0.0
 40
3.177485297559325
100
AcDbArc
 50
40.66422291
 51
80.31693569
  0
LINE
  5
AD
330
39
100
AcDbEntity
  8
YKK_ZWAK
  6
Continuous
 62
   254
100
AcDbLine
 10
556.703043
 20
24.548527
 30
0.0
 11
554.328297
 21
24.548527
 31
0.0
  0
LINE
  5
AE
330
39
100
AcDbEntity
  8
YKK_ZWAK
  6
Continuous
 62
   254
100
AcDbLine
 10
556.703043
 20
27.869273
 30
0.0
 11
556.703043
 21
24.548527
 31
0.0
  0
LINE
  5
AF
330
39
100
AcDbEntity
  8
YKK_ZWAK
  6
Continuous
 62
   254
100
AcDbLine
 10
561.529756
 20
28.236131
 30
0.0
 11
561.529756
 21
24.606427
 31
0.0
  0
LINE
  5
B0
330
39
100
AcDbEntity
  8
YKK_ZWAK
  6
Continuous
 62
   254
100
AcDbLine
 10
559.290171
 20
27.75343
 30
0.0
 11
558.981248
 21
27.869273
 31
0.0
  0
LINE
  5
B1
330
39
100
AcDbEntity
  8
YKK_ZWAK
  6
Continuous
 62
   254
100
AcDbLine
 10
559.290171
 20
24.606427
 30
0.0
 11
559.290171
 21
27.75343
 31
0.0
  0
LINE
  5
B2
330
39
100
AcDbEntity
  8
YKK_ZWAK
  6
Continuous
 62
   254
100
AcDbLine
 10
561.529756
 20
24.606427
 30
0.0
 11
559.290171
 21
24.606427
 31
0.0
  0
ARC
  5
B3
330
39
100
AcDbEntity
  8
YKK_ZWAK
  6
Continuous
 62
   254
100
AcDbCircle
 10
567.19412132
 20
20.11358836
 30
0.0
 40
3.10079004118515
100
AcDbArc
 50
14.44572328
 51
87.08746338
  0
ARC
  5
B4
330
39
100
AcDbEntity
  8
YKK_ZWAK
  6
Continuous
 62
   254
100
AcDbCircle
 10
564.36413966
 20
17.54165325
 30
0.0
 40
2.640498151312115
100
AcDbArc
 50
343.69020327
 51
354.7536235
  0
ARC
  5
B5
330
39
100
AcDbEntity
  8
YKK_ZWAK
  6
Continuous
 62
   254
100
AcDbCircle
 10
566.00966971
 20
17.08269286
 30
0.0
 40
0.9326761550249523
100
AcDbArc
 50
269.95468111
 51
342.90144849
  0
ARC
  5
B6
330
39
100
AcDbEntity
  8
YKK_ZWAK
  6
Continuous
 62
   254
100
AcDbCircle
 10
566.04623887
 20
19.3715952
 30
0.0
 40
0.8777839045469994
100
AcDbArc
 50
16.43123457
 51
96.91661396
  0
ARC
  5
B7
330
39
100
AcDbEntity
  8
YKK_ZWAK
  6
Continuous
 62
   254
100
AcDbCircle
 10
564.37945167
 20
18.85119468
 30
0.0
 40
2.623848066620805
100
AcDbArc
 50
4.93422741
 51
17.03551963
  0
LINE
  5
B8
330
39
100
AcDbEntity
  8
YKK_ZWAK
  6
Continuous
 62
   254
100
AcDbLine
 10
567.283206
 20
13.196086
 30
0.0
 11
568.055449
 21
13.369828
 31
0.0
  0
LINE
  5
B9
330
39
100
AcDbEntity
  8
YKK_ZWAK
  6
Continuous
 62
   254
100
AcDbLine
 10
566.980872
 20
19.173458
 30
0.0
 11
566.993576
 21
17.29190622
 31
0.0
  0
ARC
  5
BA
330
39
100
AcDbEntity
  8
YKK_ZWAK
  6
Continuous
 62
   254
100
AcDbCircle
 10
555.54697452
 20
18.15146785
 30
0.0
 40
14.90004285451682
100
AcDbArc
 50
350.99026817
 51
10.67624521
  0
LINE
  5
BB
330
39
100
AcDbEntity
  8
YKK_ZWAK
  6
Continuous
 62
   254
100
AcDbLine
 10
569.831709
 20
24.645041
 30
0.0
 11
567.572791
 21
24.645041
 31
0.0
  0
LINE
  5
BC
330
39
100
AcDbEntity
  8
YKK_ZWAK
  6
Continuous
 62
   254
100
AcDbLine
 10
567.572791
 20
27.772759
 30
0.0
 11
567.263877
 21
27.888602
 31
0.0
  0
LINE
  5
BD
330
39
100
AcDbEntity
  8
YKK_ZWAK
  6
Continuous
 62
   254
100
AcDbLine
 10
567.263877
 20
27.888602
 30
0.0
 11
564.985674
 21
27.888602
 31
0.0
  0
LINE
  5
BE
330
39
100
AcDbEntity
  8
YKK_ZWAK
  6
Continuous
 62
   254
100
AcDbLine
 10
564.985674
 20
27.888602
 30
0.0
 11
564.985674
 21
24.625712
 31
0.0
  0
LINE
  5
BF
330
39
100
AcDbEntity
  8
YKK_ZWAK
  6
Continuous
 62
   254
100
AcDbLine
 10
567.572791
 20
24.645041
 30
0.0
 11
567.572791
 21
27.772759
 31
0.0
  0
LINE
  5
C0
330
39
100
AcDbEntity
  8
YKK_ZWAK
  6
Continuous
 62
   254
100
AcDbLine
 10
567.572791
 20
24.681182
 30
0.0
 11
567.608933
 21
24.645041
 31
0.0
  0
LINE
  5
C1
330
39
100
AcDbEntity
  8
YKK_ZWAK
  6
Continuous
 62
   254
100
AcDbLine
 10
569.831709
 20
28.236131
 30
0.0
 11
569.831709
 21
24.645041
 31
0.0
  0
LINE
  5
C2
330
39
100
AcDbEntity
  8
YKK_ZWAK
  6
Continuous
 62
   254
100
AcDbLine
 10
562.553028
 20
33.487594
 30
0.0
 11
564.889116
 21
33.487594
 31
0.0
  0
LINE
  5
C3
330
39
100
AcDbEntity
  8
YKK_ZWAK
  6
Continuous
 62
   254
100
AcDbLine
 10
556.625823
 20
29.768591
 30
0.0
 11
559.03917
 21
33.44898
 31
0.0
  0
LINE
  5
C4
330
39
100
AcDbEntity
  8
YKK_ZWAK
  6
Continuous
 62
   254
100
AcDbLine
 10
556.625823
 20
33.410366
 30
0.0
 11
556.625823
 21
29.768591
 31
0.0
  0
LINE
  5
C5
330
39
100
AcDbEntity
  8
YKK_ZWAK
  6
Continuous
 62
   254
100
AcDbLine
 10
554.328297
 20
33.410366
 30
0.0
 11
556.625823
 21
33.410366
 31
0.0
  0
LINE
  5
C6
330
39
100
AcDbEntity
  8
YKK_ZWAK
  6
Continuous
 62
   254
100
AcDbLine
 10
559.985256
 20
29.780661
 30
0.0
 11
559.242942
 21
29.780661
 31
0.0
  0
LINE
  5
C7
330
39
100
AcDbEntity
  8
YKK_ZWAK
  6
Continuous
 62
   254
100
AcDbLine
 10
561.771363
 20
33.44898
 30
0.0
 11
559.242942
 21
29.780661
 31
0.0
  0
LINE
  5
C8
330
39
100
AcDbEntity
  8
YKK_ZWAK
  6
Continuous
 62
   254
100
AcDbLine
 10
559.03917
 20
33.44898
 30
0.0
 11
561.771363
 21
33.44898
 31
0.0
  0
LINE
  5
C9
330
39
100
AcDbEntity
  8
YKK_ZWAK
  6
Continuous
 62
   254
100
AcDbLine
 10
569.773765
 20
33.024222
 30
0.0
 11
567.543842
 21
29.838605
 31
0.0
  0
LINE
  5
CA
330
39
100
AcDbEntity
  8
YKK_ZWAK
  6
Continuous
 62
   254
100
AcDbLine
 10
567.341105
 20
33.487594
 30
0.0
 11
570.044065
 21
33.487594
 31
0.0
  0
LINE
  5
CB
330
39
100
AcDbEntity
  8
YKK_ZWAK
  6
Continuous
 62
   254
100
AcDbLine
 10
568.286156
 20
29.838605
 30
0.0
 11
567.543842
 21
29.838605
 31
0.0
  0
LINE
  5
CC
330
39
100
AcDbEntity
  8
YKK_ZWAK
  6
Continuous
 62
   254
100
AcDbLine
 10
564.889116
 20
29.779236
 30
0.0
 11
567.341105
 21
33.487594
 31
0.0
  0
LINE
  5
CD
330
39
100
AcDbEntity
  8
YKK_ZWAK
  6
Continuous
 62
   254
100
AcDbLine
 10
564.889116
 20
33.487594
 30
0.0
 11
564.889116
 21
29.779236
 31
0.0
  0
LINE
  5
CE
330
39
100
AcDbEntity
  8
YKK_ZWAK
  6
Continuous
 62
   254
100
AcDbLine
 10
570.044065
 20
33.487594
 30
0.0
 11
569.773765
 21
33.024222
 31
0.0
  0
LINE
  5
CF
330
39
100
AcDbEntity
  8
YKK_ZWAK
  6
Continuous
 62
     8
100
AcDbLine
 10
573.126014
 20
168.559504
 30
0.0
 11
585.726014
 21
168.559504
 31
0.0
  0
LINE
  5
D0
330
39
100
AcDbEntity
  8
YKK_ZWAK
  6
Continuous
 62
     8
100
AcDbLine
 10
573.126014
 20
154.419504
 30
0.0
 11
585.726014
 21
154.419504
 31
0.0
  0
LINE
  5
D1
330
39
100
AcDbEntity
  8
YKK_ZWAK
  6
Continuous
 62
     8
100
AcDbLine
 10
573.126014
 20
140.279503
 30
0.0
 11
585.726014
 21
140.279503
 31
0.0
  0
LINE
  5
D2
330
39
100
AcDbEntity
  8
YKK_ZWAK
  6
Continuous
 62
     8
100
AcDbLine
 10
573.126014
 20
126.139503
 30
0.0
 11
585.726014
 21
126.139503
 31
0.0
  0
LINE
  5
D3
330
39
100
AcDbEntity
  8
YKK_ZWAK
  6
Continuous
 62
     8
100
AcDbLine
 10
573.126014
 20
111.999503
 30
0.0
 11
585.726014
 21
111.999503
 31
0.0
  0
LINE
  5
D4
330
39
100
AcDbEntity
  8
YKK_ZWAK
  6
Continuous
 62
     8
100
AcDbLine
 10
573.126014
 20
97.859502
 30
0.0
 11
585.726014
 21
97.859502
 31
0.0
  0
LINE
  5
D5
330
39
100
AcDbEntity
  8
YKK_ZWAK
  6
Continuous
 62
     8
100
AcDbLine
 10
573.126014
 20
83.719502
 30
0.0
 11
585.726014
 21
83.719502
 31
0.0
  0
CIRCLE
  5
D6
330
39
100
AcDbEntity
  8
YKK_ZWAK
  6
Continuous
 62
     8
100
AcDbCircle
 10
579.426014
 20
168.559504
 30
0.0
 40
6.299999999999999
  0
CIRCLE
  5
D7
330
39
100
AcDbEntity
  8
YKK_ZWAK
  6
Continuous
 62
     8
100
AcDbCircle
 10
579.426014
 20
140.279503
 30
0.0
 40
6.299999999999999
  0
CIRCLE
  5
D8
330
39
100
AcDbEntity
  8
YKK_ZWAK
  6
Continuous
 62
     8
100
AcDbCircle
 10
579.426014
 20
111.999503
 30
0.0
 40
6.299999999999999
  0
CIRCLE
  5
D9
330
39
100
AcDbEntity
  8
YKK_ZWAK
  6
Continuous
 62
     8
100
AcDbCircle
 10
579.426014
 20
154.419504
 30
0.0
 40
6.299999999999999
  0
CIRCLE
  5
DA
330
39
100
AcDbEntity
  8
YKK_ZWAK
  6
Continuous
 62
     8
100
AcDbCircle
 10
579.426014
 20
126.139503
 30
0.0
 40
6.299999999999999
  0
CIRCLE
  5
DB
330
39
100
AcDbEntity
  8
YKK_ZWAK
  6
Continuous
 62
     8
100
AcDbCircle
 10
579.426014
 20
97.859502
 30
0.0
 40
6.299999999999999
  0
LINE
  5
DC
330
39
100
AcDbEntity
  8
YKK_ZWAK
  6
Continuous
 62
   254
100
AcDbLine
 10
571.000014
 20
222.4995055
 30
0.0
 11
573.000014
 21
222.4995055
 31
0.0
  0
TEXT
  5
DD
330
39
100
AcDbEntity
  8
YKK_ZWAK
  6
Continuous
 62
   131
100
AcDbText
 10
408.18209354
 20
9.752325
 30
0.0
 40
3.5
  1
 ． ．
 41
0.9
  7
YKK_OSSTYLE1
100
AcDbText
  0
TEXT
  5
DE
330
39
100
AcDbEntity
  8
YKK_ZWAK
  6
Continuous
 62
   131
100
AcDbText
 10
424.18209354
 20
9.752325
 30
0.0
 40
3.5
  1
 ． ．
 41
0.9
  7
YKK_OSSTYLE1
100
AcDbText
  0
LINE
  5
DF
330
39
100
AcDbEntity
  8
YKK_ZWAK
  6
Continuous
 62
   131
100
AcDbLine
 10
459.1999862
 20
10.4995
 30
0.0
 11
459.1999862
 21
8.9995
 31
0.0
  0
LINE
  5
E0
330
39
100
AcDbEntity
  8
YKK_ZWAK
  6
Continuous
 62
   131
100
AcDbLine
 10
462.7999738
 20
10.4995
 30
0.0
 11
462.7999738
 21
8.9995
 31
0.0
  0
LINE
  5
E1
330
39
100
AcDbEntity
  8
YKK_ZWAK
  6
Continuous
 62
   131
100
AcDbLine
 10
466.3999614
 20
10.4995
 30
0.0
 11
466.3999614
 21
8.9995
 31
0.0
  0
LINE
  5
E2
330
39
100
AcDbEntity
  8
YKK_ZWAK
  6
Continuous
 62
   131
100
AcDbLine
 10
469.999949
 20
10.4995
 30
0.0
 11
469.999949
 21
8.9995
 31
0.0
  0
LINE
  5
E3
330
39
100
AcDbEntity
  8
YKK_ZWAK
  6
Continuous
 62
   131
100
AcDbLine
 10
473.5999366
 20
10.4995
 30
0.0
 11
473.5999366
 21
8.9995
 31
0.0
  0
LINE
  5
E4
330
39
100
AcDbEntity
  8
YKK_ZWAK
  6
Continuous
 62
   131
100
AcDbLine
 10
477.1999242
 20
10.4995
 30
0.0
 11
477.1999242
 21
8.9995
 31
0.0
  0
LINE
  5
E5
330
39
100
AcDbEntity
  8
YKK_ZWAK
  6
Continuous
 62
   131
100
AcDbLine
 10
480.7999118
 20
10.4995
 30
0.0
 11
480.7999118
 21
8.9995
 31
0.0
  0
LINE
  5
E6
330
39
100
AcDbEntity
  8
YKK_ZWAK
  6
Continuous
 62
   131
100
AcDbLine
 10
484.3998994
 20
10.4995
 30
0.0
 11
484.3998994
 21
8.9995
 31
0.0
  0
LINE
  5
E7
330
39
100
AcDbEntity
  8
YKK_ZWAK
  6
Continuous
 62
   131
100
AcDbLine
 10
487.999887
 20
10.4995
 30
0.0
 11
487.999887
 21
8.9995
 31
0.0
  0
LINE
  5
E8
330
39
100
AcDbEntity
  8
YKK_ZWAK
  6
Continuous
 62
   131
100
AcDbLine
 10
491.5998746
 20
10.4995
 30
0.0
 11
491.5998746
 21
8.9995
 31
0.0
  0
LINE
  5
E9
330
39
100
AcDbEntity
  8
YKK_ZWAK
  6
Continuous
 62
   131
100
AcDbLine
 10
495.1998622
 20
10.4995
 30
0.0
 11
495.1998622
 21
8.9995
 31
0.0
  0
LINE
  5
EA
330
39
100
AcDbEntity
  8
YKK_ZWAK
  6
Continuous
 62
   131
100
AcDbLine
 10
498.7998498
 20
10.4995
 30
0.0
 11
498.7998498
 21
8.9995
 31
0.0
  0
LINE
  5
EB
330
39
100
AcDbEntity
  8
YKK_ZWAK
  6
Continuous
 62
   131
100
AcDbLine
 10
502.3998374
 20
10.4995
 30
0.0
 11
502.3998374
 21
8.9995
 31
0.0
  0
LINE
  5
EC
330
39
100
AcDbEntity
  8
YKK_ZWAK
  6
Continuous
 62
   131
100
AcDbLine
 10
505.999825
 20
10.4995
 30
0.0
 11
505.999825
 21
8.9995
 31
0.0
  0
LINE
  5
ED
330
39
100
AcDbEntity
  8
YKK_ZWAK
  6
Continuous
 62
   131
100
AcDbLine
 10
509.5998126
 20
10.4995
 30
0.0
 11
509.5998126
 21
8.9995
 31
0.0
  0
LINE
  5
EE
330
39
100
AcDbEntity
  8
YKK_ZWAK
  6
Continuous
 62
   131
100
AcDbLine
 10
513.1998002
 20
10.4995
 30
0.0
 11
513.1998002
 21
8.9995
 31
0.0
  0
LINE
  5
EF
330
39
100
AcDbEntity
  8
YKK_ZWAK
  6
Continuous
 62
   131
100
AcDbLine
 10
516.7997878
 20
10.4995
 30
0.0
 11
516.7997878
 21
8.9995
 31
0.0
  0
LINE
  5
F0
330
39
100
AcDbEntity
  8
YKK_ZWAK
  6
Continuous
 62
   131
100
AcDbLine
 10
520.3997754
 20
10.4995
 30
0.0
 11
520.3997754
 21
8.9995
 31
0.0
  0
ENDBLK
  5
F2
330
39
100
AcDbEntity
  8
0
100
AcDbBlockEnd
  0
BLOCK
  5
140
330
124
100
AcDbEntity
  8
0
100
AcDbBlockBegin
  2
SK-80201
 70
     0
 10
0.0
 20
0.0
 30
0.0
  3
SK-80201
  1

  0
LINE
  5
125
330
124
100
AcDbEntity
  8
0
  6
ByBlock
 62
     0
 48
0.5
100
AcDbLine
 10
73.999985
 20
31.999998
 30
0.0
 11
73.999975
 21
0.0
 31
0.0
  0
LINE
  5
126
330
124
100
AcDbEntity
  8
0
  6
ByBlock
 62
     0
 48
0.5
100
AcDbLine
 10
73.999975
 20
0.0
 30
0.0
 11
72.499975
 21
0.0
 31
0.0
  0
LINE
  5
127
330
124
100
AcDbEntity
  8
0
  6
ByBlock
 62
     0
 48
0.5
100
AcDbLine
 10
72.499975
 20
0.0
 30
0.0
 11
72.499985
 21
31.999983
 31
0.0
  0
ARC
  5
128
330
124
100
AcDbEntity
  8
0
  6
ByBlock
 62
     0
 48
0.5
100
AcDbCircle
 10
71.000001
 20
31.999984
 30
0.0
 40
1.5
100
AcDbArc
 50
359.9999824
 51
89.99998128
  0
LINE
  5
129
330
124
100
AcDbEntity
  8
0
  6
ByBlock
 62
     0
 48
0.5
100
AcDbLine
 10
71.000001
 20
33.499984
 30
0.0
 11
40.500064
 21
33.499993
 31
0.0
  0
ARC
  5
12A
330
124
100
AcDbEntity
  8
0
  6
ByBlock
 62
     0
 48
0.5
100
AcDbCircle
 10
70.999985
 20
31.999999
 30
0.0
 40
3.0
100
AcDbArc
 50
359.9999824
 51
89.9996948
  0
LINE
  5
12B
330
124
100
AcDbEntity
  8
0
  6
ByBlock
 62
     0
 48
0.5
100
AcDbLine
 10
71.000002
 20
34.999999
 30
0.0
 11
40.500034
 21
34.999993
 31
0.0
  0
ARC
  5
12C
330
124
100
AcDbEntity
  8
0
  6
ByBlock
 62
     0
 48
0.5
100
AcDbCircle
 10
40.500033
 20
33.499978
 30
0.0
 40
1.500014999999999
100
AcDbArc
 50
89.99998128
 51
270.00057408
  0
LINE
  5
12D
330
124
100
AcDbEntity
  8
0
  6
ByBlock
 62
     0
 48
0.5
100
AcDbLine
 10
40.500048
 20
31.999993
 30
0.0
 11
47.500048
 21
32.000006
 31
0.0
  0
ARC
  5
12E
330
124
100
AcDbEntity
  8
0
  6
ByBlock
 62
     0
 48
0.5
100
AcDbCircle
 10
47.500032
 20
30.500007
 30
0.0
 40
1.5
100
AcDbArc
 50
359.9999824
 51
89.99940832
  0
LINE
  5
12F
330
124
100
AcDbEntity
  8
0
  6
ByBlock
 62
     0
 48
0.5
100
AcDbLine
 10
49.000017
 20
30.500006
 30
0.0
 11
49.000014
 21
21.500007
 31
0.0
  0
ARC
  5
130
330
124
100
AcDbEntity
  8
0
  6
ByBlock
 62
     0
 48
0.5
100
AcDbCircle
 10
47.500014
 20
21.500007
 30
0.0
 40
1.5
100
AcDbArc
 50
270.00000112
 51
359.9999824
  0
LINE
  5
131
330
124
100
AcDbEntity
  8
0
  6
ByBlock
 62
     0
 48
0.5
100
AcDbLine
 10
47.500014
 20
20.000007
 30
0.0
 11
3.000001
 21
20.000021
 31
0.0
  0
ARC
  5
132
330
124
100
AcDbEntity
  8
0
  6
ByBlock
 62
     0
 48
0.5
100
AcDbCircle
 10
3.0
 20
17.000021
 30
0.0
 40
3.0
100
AcDbArc
 50
89.99998128
 51
180.00024903
  0
LINE
  5
133
330
124
100
AcDbEntity
  8
0
  6
ByBlock
 62
     0
 48
0.5
100
AcDbLine
 10
0.0
 20
17.000007
 30
0.0
 11
0.000011
 21
3.000008
 31
0.0
  0
ARC
  5
134
330
124
100
AcDbEntity
  8
0
  6
ByBlock
 62
     0
 48
0.5
100
AcDbCircle
 10
3.000011
 20
3.000022
 30
0.0
 40
3.0
100
AcDbArc
 50
180.00024903
 51
270.00000112
  0
LINE
  5
135
330
124
100
AcDbEntity
  8
0
  6
ByBlock
 62
     0
 48
0.5
100
AcDbLine
 10
3.00001
 20
0.000022
 30
0.0
 11
12.000009
 21
0.000019
 31
0.0
  0
LINE
  5
136
330
124
100
AcDbEntity
  8
0
  6
ByBlock
 62
     0
 48
0.5
100
AcDbLine
 10
12.000009
 20
0.000019
 30
0.0
 11
12.00001
 21
1.500019
 31
0.0
  0
LINE
  5
137
330
124
100
AcDbEntity
  8
0
  6
ByBlock
 62
     0
 48
0.5
100
AcDbLine
 10
12.00001
 20
1.500019
 30
0.0
 11
3.00001
 21
1.500022
 31
0.0
  0
ARC
  5
138
330
124
100
AcDbEntity
  8
0
  6
ByBlock
 62
     0
 48
0.5
100
AcDbCircle
 10
3.000011
 20
3.000022
 30
0.0
 40
1.5
100
AcDbArc
 50
179.99996255
 51
270.00000112
  0
LINE
  5
139
330
124
100
AcDbEntity
  8
0
  6
ByBlock
 62
     0
 48
0.5
100
AcDbLine
 10
1.500011
 20
3.000023
 30
0.0
 11
1.500015
 21
17.000006
 31
0.0
  0
ARC
  5
13A
330
124
100
AcDbEntity
  8
0
  6
ByBlock
 62
     0
 48
0.5
100
AcDbCircle
 10
3.000015
 20
17.000006
 30
0.0
 40
1.5
100
AcDbArc
 50
89.99998128
 51
179.99996255
  0
LINE
  5
13B
330
124
100
AcDbEntity
  8
0
  6
ByBlock
 62
     0
 48
0.5
100
AcDbLine
 10
3.000016
 20
18.500006
 30
0.0
 11
47.499998
 21
18.499992
 31
0.0
  0
ARC
  5
13C
330
124
100
AcDbEntity
  8
0
  6
ByBlock
 62
     0
 48
0.5
100
AcDbCircle
 10
47.499999
 20
21.499992
 30
0.0
 40
3.0
100
AcDbArc
 50
270.00000112
 51
359.9999824
  0
LINE
  5
13D
330
124
100
AcDbEntity
  8
0
  6
ByBlock
 62
     0
 48
0.5
100
AcDbLine
 10
50.499999
 20
21.499991
 30
0.0
 11
50.500001
 21
30.49999
 31
0.0
  0
ARC
  5
13E
330
124
100
AcDbEntity
  8
0
  6
ByBlock
 62
     0
 48
0.5
100
AcDbCircle
 10
47.500002
 20
30.499991
 30
0.0
 40
3.0
100
AcDbArc
 50
359.9999824
 51
89.99998128
  0
ENDBLK
  5
141
330
124
100
AcDbEntity
  8
0
100
AcDbBlockEnd
  0
BLOCK
  5
219
330
1F9
100
AcDbEntity
  8
0
100
AcDbBlockBegin
  2
SK-90201
 70
     0
 10
0.0
 20
0.0
 30
0.0
  3
SK-90201
  1

  0
LINE
  5
1FA
330
1F9
100
AcDbEntity
  8
0
  6
ByBlock
 62
     0
 48
0.5
100
AcDbLine
 10
38.399963
 20
36.399872
 30
0.0
 11
38.399963
 21
2.499969
 31
0.0
  0
ARC
  5
1FB
330
1F9
100
AcDbEntity
  8
0
  6
ByBlock
 62
     0
 48
0.5
100
AcDbCircle
 10
37.499969
 20
2.499969
 30
0.0
 40
0.8999789999999999
100
AcDbArc
 50
270.00000112
 51
0.0
  0
LINE
  5
1FC
330
1F9
100
AcDbEntity
  8
0
  6
ByBlock
 62
     0
 48
0.5
100
AcDbLine
 10
37.499969
 20
1.599991
 30
0.0
 11
2.500031
 21
1.599976
 31
0.0
  0
ARC
  5
1FD
330
1F9
100
AcDbEntity
  8
0
  6
ByBlock
 62
     0
 48
0.5
100
AcDbCircle
 10
2.500031
 20
2.499969
 30
0.0
 40
0.8999939999999998
100
AcDbArc
 50
180.00001985
 51
270.00000112
  0
LINE
  5
1FE
330
1F9
100
AcDbEntity
  8
0
  6
ByBlock
 62
     0
 48
0.5
100
AcDbLine
 10
1.600037
 20
2.499969
 30
0.0
 11
1.600037
 21
12.0
 31
0.0
  0
LINE
  5
1FF
330
1F9
100
AcDbEntity
  8
0
  6
ByBlock
 62
     0
 48
0.5
100
AcDbLine
 10
1.600037
 20
12.0
 30
0.0
 11
0.000015
 21
12.0
 31
0.0
  0
LINE
  5
200
330
1F9
100
AcDbEntity
  8
0
  6
ByBlock
 62
     0
 48
0.5
100
AcDbLine
 10
0.000015
 20
12.0
 30
0.0
 11
0.000015
 21
2.5
 31
0.0
  0
ARC
  5
201
330
1F9
100
AcDbEntity
  8
0
  6
ByBlock
 62
     0
 48
0.5
100
AcDbCircle
 10
2.500015
 20
2.5
 30
0.0
 40
2.5
100
AcDbArc
 50
180.00001985
 51
270.00000112
  0
LINE
  5
202
330
1F9
100
AcDbEntity
  8
0
  6
ByBlock
 62
     0
 48
0.5
100
AcDbLine
 10
2.500015
 20
0.0
 30
0.0
 11
37.500015
 21
0.0
 31
0.0
  0
ARC
  5
203
330
1F9
100
AcDbEntity
  8
0
  6
ByBlock
 62
     0
 48
0.5
100
AcDbCircle
 10
37.500015
 20
2.5
 30
0.0
 40
2.5
100
AcDbArc
 50
270.00000112
 51
0.0
  0
LINE
  5
204
330
1F9
100
AcDbEntity
  8
0
  6
ByBlock
 62
     0
 48
0.5
100
AcDbLine
 10
40.000015
 20
2.5
 30
0.0
 11
40.000015
 21
36.399887
 31
0.0
  0
ARC
  5
205
330
1F9
100
AcDbEntity
  8
0
  6
ByBlock
 62
     0
 48
0.5
100
AcDbCircle
 10
38.399948
 20
36.399887
 30
0.0
 40
1.600006
100
AcDbArc
 50
0.0
 51
180.00053551
  0
LINE
  5
206
330
1F9
100
AcDbEntity
  8
0
  6
ByBlock
 62
     0
 48
0.5
100
AcDbLine
 10
36.799942
 20
36.399872
 30
0.0
 11
36.799942
 21
28.899918
 31
0.0
  0
ARC
  5
207
330
1F9
100
AcDbEntity
  8
0
  6
ByBlock
 62
     0
 48
0.5
100
AcDbCircle
 10
35.899933
 20
28.899933
 30
0.0
 40
0.8999939999999998
100
AcDbArc
 50
270.00000112
 51
359.99900837
  0
LINE
  5
208
330
1F9
100
AcDbEntity
  8
0
  6
ByBlock
 62
     0
 48
0.5
100
AcDbLine
 10
35.899933
 20
27.999939
 30
0.0
 11
25.899979
 21
27.999939
 31
0.0
  0
ARC
  5
209
330
1F9
100
AcDbEntity
  8
0
  6
ByBlock
 62
     0
 48
0.5
100
AcDbCircle
 10
25.899979
 20
28.899933
 30
0.0
 40
0.8999939999999998
100
AcDbArc
 50
180.00001985
 51
270.00000112
  0
LINE
  5
20A
330
1F9
100
AcDbEntity
  8
0
  6
ByBlock
 62
     0
 48
0.5
100
AcDbLine
 10
24.999985
 20
28.899933
 30
0.0
 11
24.999985
 21
77.499969
 31
0.0
  0
ARC
  5
20B
330
1F9
100
AcDbEntity
  8
0
  6
ByBlock
 62
     0
 48
0.5
100
AcDbCircle
 10
22.499985
 20
77.499969
 30
0.0
 40
2.5
100
AcDbArc
 50
0.0
 51
90.00032505
  0
LINE
  5
20C
330
1F9
100
AcDbEntity
  8
0
  6
ByBlock
 62
     0
 48
0.5
100
AcDbLine
 10
22.499969
 20
79.999969
 30
0.0
 11
2.5
 21
79.999954
 31
0.0
  0
ARC
  5
20D
330
1F9
100
AcDbEntity
  8
0
  6
ByBlock
 62
     0
 48
0.5
100
AcDbCircle
 10
2.5
 20
77.499954
 30
0.0
 40
2.5
100
AcDbArc
 50
89.99998128
 51
180.00001985
  0
LINE
  5
20E
330
1F9
100
AcDbEntity
  8
0
  6
ByBlock
 62
     0
 48
0.5
100
AcDbLine
 10
0.0
 20
77.499954
 30
0.0
 11
0.0
 21
61.999954
 31
0.0
  0
LINE
  5
20F
330
1F9
100
AcDbEntity
  8
0
  6
ByBlock
 62
     0
 48
0.5
100
AcDbLine
 10
0.0
 20
61.999954
 30
0.0
 11
1.600006
 21
61.999954
 31
0.0
  0
LINE
  5
210
330
1F9
100
AcDbEntity
  8
0
  6
ByBlock
 62
     0
 48
0.5
100
AcDbLine
 10
1.600006
 20
61.999954
 30
0.0
 11
1.600006
 21
77.499939
 31
0.0
  0
ARC
  5
211
330
1F9
100
AcDbEntity
  8
0
  6
ByBlock
 62
     0
 48
0.5
100
AcDbCircle
 10
2.5
 20
77.499939
 30
0.0
 40
0.900009
100
AcDbArc
 50
89.99998128
 51
180.00001985
  0
LINE
  5
212
330
1F9
100
AcDbEntity
  8
0
  6
ByBlock
 62
     0
 48
0.5
100
AcDbLine
 10
2.5
 20
78.399948
 30
0.0
 11
22.499969
 21
78.399948
 31
0.0
  0
ARC
  5
213
330
1F9
100
AcDbEntity
  8
0
  6
ByBlock
 62
     0
 48
0.5
100
AcDbCircle
 10
22.499969
 20
77.499939
 30
0.0
 40
0.900009
100
AcDbArc
 50
0.0
 51
89.99998128
  0
LINE
  5
214
330
1F9
100
AcDbEntity
  8
0
  6
ByBlock
 62
     0
 48
0.5
100
AcDbLine
 10
23.399979
 20
77.499939
 30
0.0
 11
23.399979
 21
28.899963
 31
0.0
  0
ARC
  5
215
330
1F9
100
AcDbEntity
  8
0
  6
ByBlock
 62
     0
 48
0.5
100
AcDbCircle
 10
25.899979
 20
28.899963
 30
0.0
 40
2.5
100
AcDbArc
 50
180.00001985
 51
270.00000112
  0
LINE
  5
216
330
1F9
100
AcDbEntity
  8
0
  6
ByBlock
 62
     0
 48
0.5
100
AcDbLine
 10
25.899979
 20
26.399963
 30
0.0
 11
35.899979
 21
26.399963
 31
0.0
  0
ARC
  5
217
330
1F9
100
AcDbEntity
  8
0
  6
ByBlock
 62
     0
 48
0.5
100
AcDbCircle
 10
35.899979
 20
28.899948
 30
0.0
 40
2.5
100
AcDbArc
 50
270.00000112
 51
0.0
  0
ENDBLK
  5
21A
330
1F9
100
AcDbEntity
  8
0
100
AcDbBlockEnd
  0
BLOCK
  5
10A
330
107
100
AcDbEntity
  8
0
100
AcDbBlockBegin
  2
SK-98114
 70
     0
 10
0.0
 20
0.0
 30
0.0
  3
SK-98114
  1

  0
LWPOLYLINE
  5
108
330
107
100
AcDbEntity
  8
0
  6
ByBlock
 62
     0
 48
0.5
100
AcDbPolyline
 90
       10
 70
     1
 43
0.0
 10
32.6
 20
1.6
 10
1.6
 20
1.6
 10
1.6
 20
15.0
 10
0.0
 20
15.0
 10
0.0
 20
2.5
 42
0.41421347
 10
2.5
 20
0.0
 10
31.7
 20
0.0
 42
0.41421347
 10
34.2
 20
2.5
 10
34.2
 20
15.0
 10
32.6
 20
15.0
  0
ENDBLK
  5
10B
330
107
100
AcDbEntity
  8
0
100
AcDbBlockEnd
  0
ENDSEC
  0
SECTION
  2
ENTITIES
  0
LINE
  5
29
330
2
100
AcDbEntity
  8
YKK_D
100
AcDbLine
 10
72.8
 20
472.40002244
 30
0.0
 11
72.8
 21
102.40002244
 31
0.0
  0
LINE
  5
2C
330
2
100
AcDbEntity
  8
YKK_D
100
AcDbLine
 10
192.79995422
 20
454.39999192
 30
0.0
 11
192.79995422
 21
118.40000114
 31
0.0
  0
TEXT
  5
2D
330
2
100
AcDbEntity
  8
YKK_D
100
AcDbText
 10
72.0
 20
276.45992091
 30
0.0
 40
6.0
  1
DH=H+20
 50
90.0
 41
0.8
100
AcDbText
  0
LINE
  5
2E
330
2
100
AcDbEntity
  8
YKK_12
100
AcDbLine
 10
172.79995422
 20
501.39999192
 30
0.0
 11
172.79995422
 21
288.90002244
 31
0.0
  0
LINE
  5
30
330
2
100
AcDbEntity
  8
YKK_13
100
AcDbLine
 10
131.80006104
 20
471.40002244
 30
0.0
 11
131.80006104
 21
288.90002244
 31
0.0
  0
LINE
  5
32
330
2
100
AcDbEntity
  8
YKK_13
100
AcDbLine
 10
131.20006104
 20
471.80002244
 30
0.0
 11
131.20006104
 21
288.90002244
 31
0.0
  0
LINE
  5
33
330
2
100
AcDbEntity
  8
YKK_13
100
AcDbLine
 10
96.4
 20
471.80002244
 30
0.0
 11
96.4
 21
288.90002244
 31
0.0
  0
LINE
  5
34
330
2
100
AcDbEntity
  8
YKK_13
100
AcDbLine
 10
95.8
 20
471.40002244
 30
0.0
 11
95.8
 21
288.90002244
 31
0.0
  0
LINE
  5
35
330
2
100
AcDbEntity
  8
YKK_12
100
AcDbLine
 10
92.8
 20
501.39569079
 30
0.0
 11
92.8
 21
288.90002244
 31
0.0
  0
LINE
  5
36
330
2
100
AcDbEntity
  8
YKK_12
100
AcDbLine
 10
134.80006104
 20
463.00006669
 30
0.0
 11
134.80006104
 21
288.90002244
 31
0.0
  0
INSERT
  5
37
330
2
100
AcDbEntity
  8
YKK_ZWAK
100
AcDbBlockReference
  2
A201
 10
-26.6000014
 20
-12.5993
 30
0.0
 41
1.4
 42
1.4
 43
1.4
  0
LWPOLYLINE
  5
F3
330
2
100
AcDbEntity
  8
YKK_D
  6
ByBlock
100
AcDbPolyline
 90
        2
 70
     1
 43
0.85
 10
302.80006398
 20
176.29370562
 42
1.0
 10
302.80006398
 20
176.50620562
 42
1.0
  0
LINE
  5
F4
330
2
100
AcDbEntity
  8
YKK_D
100
AcDbLine
 10
319.80004872
 20
176.39995562
 30
0.0
 11
301.80006398
 21
176.39995562
 31
0.0
  0
LWPOLYLINE
  5
F5
330
2
100
AcDbEntity
  8
YKK_D
  6
ByBlock
100
AcDbPolyline
 90
        2
 70
     1
 43
0.85
 10
302.80006398
 20
158.50620562
 42
1.0
 10
302.80006398
 20
158.29370562
 42
1.0
  0
LINE
  5
F6
330
2
100
AcDbEntity
  8
YKK_D
100
AcDbLine
 10
319.80004872
 20
158.39995562
 30
0.0
 11
301.80006398
 21
158.39995562
 31
0.0
  0
LWPOLYLINE
  5
F7
330
2
100
AcDbEntity
  8
YKK_D
  6
ByBlock
100
AcDbPolyline
 90
        2
 70
     1
 43
0.85
 10
302.80006398
 20
108.2937514
 42
1.0
 10
302.80006398
 20
108.5062514
 42
1.0
  0
LINE
  5
F8
330
2
100
AcDbEntity
  8
YKK_D
100
AcDbLine
 10
319.80004872
 20
108.4000014
 30
0.0
 11
301.80006398
 21
108.4000014
 31
0.0
  0
LWPOLYLINE
  5
F9
330
2
100
AcDbEntity
  8
YKK_D
  6
ByBlock
100
AcDbPolyline
 90
        2
 70
     1
 43
0.85
 10
302.80006398
 20
96.5062514
 42
1.0
 10
302.80006398
 20
96.2937514
 42
1.0
  0
LINE
  5
FA
330
2
100
AcDbEntity
  8
YKK_D
100
AcDbLine
 10
319.80004872
 20
96.4000014
 30
0.0
 11
301.80006398
 21
96.4000014
 31
0.0
  0
LINE
  5
FB
330
2
100
AcDbEntity
  8
YKK_D
100
AcDbLine
 10
192.79995422
 20
111.40000114
 30
0.0
 11
196.29995422
 21
117.46217896
 31
0.0
  0
LINE
  5
FC
330
2
100
AcDbEntity
  8
YKK_D
100
AcDbLine
 10
192.79995422
 20
111.40000114
 30
0.0
 11
189.29995422
 21
117.46217896
 31
0.0
  0
LINE
  5
FD
330
2
100
AcDbEntity
  8
YKK_D
100
AcDbLine
 10
192.79995422
 20
111.40000114
 30
0.0
 11
192.79995422
 21
123.52435679
 31
0.0
  0
LINE
  5
FE
330
2
100
AcDbEntity
  8
YKK_12
100
AcDbLine
 10
172.79995422
 20
76.4000014
 30
0.0
 11
172.79995422
 21
285.90002244
 31
0.0
  0
LINE
  5
FF
330
2
100
AcDbEntity
  8
YKK_12
100
AcDbLine
 10
134.80006104
 20
109.88792399
 30
0.0
 11
134.80006104
 21
285.90002244
 31
0.0
  0
LINE
  5
100
330
2
100
AcDbEntity
  8
YKK_13
100
AcDbLine
 10
131.80006104
 20
103.40002244
 30
0.0
 11
131.80006104
 21
285.90002244
 31
0.0
  0
LINE
  5
101
330
2
100
AcDbEntity
  8
YKK_13
100
AcDbLine
 10
131.20006104
 20
103.00002244
 30
0.0
 11
131.20006104
 21
285.90002244
 31
0.0
  0
LINE
  5
102
330
2
100
AcDbEntity
  8
YKK_13
100
AcDbLine
 10
96.4
 20
103.00002244
 30
0.0
 11
96.4
 21
285.90002244
 31
0.0
  0
LINE
  5
103
330
2
100
AcDbEntity
  8
YKK_13
100
AcDbLine
 10
95.8
 20
103.40002244
 30
0.0
 11
95.8
 21
285.90002244
 31
0.0
  0
LINE
  5
104
330
2
100
AcDbEntity
  8
YKK_12
100
AcDbLine
 10
92.8
 20
76.40002228
 30
0.0
 11
92.8
 21
285.90002244
 31
0.0
  0
INSERT
  5
105
330
2
100
AcDbEntity
  8
YKK_11
100
AcDbBlockReference
  2
SK-98114
 10
96.7
 20
103.40002244
 30
0.0
  0
LINE
  5
10C
330
2
100
AcDbEntity
  8
YKK_D
100
AcDbLine
 10
175.79995422
 20
111.40000114
 30
0.0
 11
193.79995422
 21
111.40000114
 31
0.0
  0
LINE
  5
10D
330
2
100
AcDbEntity
  8
YKK_D
100
AcDbLine
 10
175.79995422
 20
111.40000114
 30
0.0
 11
193.79995422
 21
111.40000114
 31
0.0
  0
LINE
  5
10E
330
2
100
AcDbEntity
  8
YKK_D
100
AcDbLine
 10
175.79995422
 20
76.4000014
 30
0.0
 11
193.79995422
 21
76.4000014
 31
0.0
  0
LINE
  5
10F
330
2
100
AcDbEntity
  8
YKK_D
100
AcDbLine
 10
95.80000776
 20
73.40002345
 30
0.0
 11
95.80000776
 21
55.40002204
 31
0.0
  0
LINE
  5
110
330
2
100
AcDbEntity
  8
YKK_D
100
AcDbLine
 10
95.80000776
 20
73.40002345
 30
0.0
 11
95.80000776
 21
55.40002204
 31
0.0
  0
LINE
  5
111
330
2
100
AcDbEntity
  8
YKK_D
100
AcDbLine
 10
92.8
 20
73.40002345
 30
0.0
 11
92.8
 21
55.40002204
 31
0.0
  0
LINE
  5
112
330
2
100
AcDbEntity
  8
YKK_13
  6
YHIDDEN_1
100
AcDbLine
 10
148.29997012
 20
62.90000154
 30
0.0
 11
148.29997012
 21
77.90000154
 31
0.0
  0
LINE
  5
114
330
2
100
AcDbEntity
  8
YKK_13
  6
YHIDDEN_1
100
AcDbLine
 10
150.59997012
 20
77.90000154
 30
0.0
 11
150.59997012
 21
62.90000154
 31
0.0
  0
LINE
  5
115
330
2
100
AcDbEntity
  8
YKK_D
100
AcDbLine
 10
107.80000377
 20
73.40002345
 30
0.0
 11
107.80000377
 21
55.40002204
 31
0.0
  0
LINE
  5
116
330
2
100
AcDbEntity
  8
YKK_D
100
AcDbLine
 10
95.80000776
 20
56.40002204
 30
0.0
 11
107.80000377
 21
56.40002204
 31
0.0
  0
LWPOLYLINE
  5
117
330
2
100
AcDbEntity
  8
YKK_D
  6
ByBlock
100
AcDbPolyline
 90
        2
 70
     1
 43
0.85
 10
95.69375776
 20
56.40002204
 42
1.0
 10
95.90625776
 20
56.40002204
 42
1.0
  0
LWPOLYLINE
  5
118
330
2
100
AcDbEntity
  8
YKK_D
  6
ByBlock
100
AcDbPolyline
 90
        2
 70
     1
 43
0.85
 10
95.90625776
 20
56.40002204
 42
1.0
 10
95.69375776
 20
56.40002204
 42
1.0
  0
LWPOLYLINE
  5
119
330
2
100
AcDbEntity
  8
YKK_D
  6
ByBlock
100
AcDbPolyline
 90
        2
 70
     1
 43
0.85
 10
92.90625
 20
56.40002204
 42
1.0
 10
92.69375
 20
56.40002204
 42
1.0
  0
LINE
  5
11A
330
2
100
AcDbEntity
  8
YKK_D
100
AcDbLine
 10
95.80000776
 20
56.40002204
 30
0.0
 11
92.8
 21
56.40002204
 31
0.0
  0
TEXT
  5
11B
330
2
100
AcDbEntity
  8
YKK_D
100
AcDbText
 10
85.2893401
 20
57.40002204
 30
0.0
 40
6.0
  1
3
 41
0.8
100
AcDbText
  0
LINE
  5
11C
330
2
100
AcDbEntity
  8
YKK_D
100
AcDbLine
 10
92.8
 20
56.40002204
 30
0.0
 11
84.2
 21
56.40002204
 31
0.0
  0
TEXT
  5
11D
330
2
100
AcDbEntity
  8
YKK_D
100
AcDbText
 10
98.54721389
 20
57.40002204
 30
0.0
 40
6.0
  1
12
 41
0.8
100
AcDbText
  0
LWPOLYLINE
  5
11E
330
2
100
AcDbEntity
  8
YKK_D
  6
ByBlock
100
AcDbPolyline
 90
        2
 70
     1
 43
0.85
 10
107.69375377
 20
56.40002204
 42
1.0
 10
107.90625377
 20
56.40002204
 42
1.0
  0
LINE
  5
11F
330
2
100
AcDbEntity
  8
YKK_13
  6
YHIDDEN_1
100
AcDbLine
 10
148.29997012
 20
62.90000154
 30
0.0
 11
150.59997012
 21
62.90000154
 31
0.0
  0
LINE
  5
120
330
2
100
AcDbEntity
  8
YKK_13
  6
YHIDDEN_1
100
AcDbLine
 10
103.29997012
 20
77.90000154
 30
0.0
 11
168.29997012
 21
77.90000154
 31
0.0
  0
LINE
  5
121
330
2
100
AcDbEntity
  8
YKK_12
100
AcDbLine
 10
92.8
 20
76.40002345
 30
0.0
 11
142.70190656
 21
76.40002345
 31
0.0
  0
LINE
  5
122
330
2
100
AcDbEntity
  8
YKK_13
  6
YHIDDEN_1
100
AcDbLine
 10
150.59997012
 20
80.20000154
 30
0.0
 11
103.29997012
 21
80.20000154
 31
0.0
  0
INSERT
  5
123
330
2
100
AcDbEntity
  8
YKK_11
100
AcDbBlockReference
  2
SK-80201
 10
95.79999438
 20
76.40000116
 30
0.0
  0
LINE
  5
142
330
2
100
AcDbEntity
  8
YKK_D
100
AcDbLine
 10
72.8
 20
96.40002244
 30
0.0
 11
72.8
 21
76.40002228
 31
0.0
  0
TEXT
  5
143
330
2
100
AcDbEntity
  8
YKK_D
100
AcDbText
 10
71.8
 20
83.25687515
 30
0.0
 40
6.0
  1
20
 50
90.0
 41
0.8
100
AcDbText
  0
LINE
  5
144
330
2
100
AcDbEntity
  8
YKK_D
100
AcDbLine
 10
89.8
 20
76.40002228
 30
0.0
 11
71.8
 21
76.40002228
 31
0.0
  0
LWPOLYLINE
  5
145
330
2
100
AcDbEntity
  8
YKK_D
  6
ByBlock
100
AcDbPolyline
 90
        2
 70
     1
 43
0.85
 10
72.8
 20
76.50627228
 42
1.0
 10
72.8
 20
76.29377228
 42
1.0
  0
LINE
  5
146
330
2
100
AcDbEntity
  8
YKK_13
  6
YHIDDEN_1
100
AcDbLine
 10
112.29997012
 20
77.90000154
 30
0.0
 11
112.29997012
 21
80.20000154
 31
0.0
  0
LINE
  5
147
330
2
100
AcDbEntity
  8
YKK_13
  6
YHIDDEN_1
100
AcDbLine
 10
103.29997012
 20
80.20000154
 30
0.0
 11
103.29997012
 21
77.90000154
 31
0.0
  0
LINE
  5
148
330
2
100
AcDbEntity
  8
YKK_D
100
AcDbLine
 10
89.8
 20
102.40002244
 30
0.0
 11
71.8
 21
102.40002244
 31
0.0
  0
LINE
  5
149
330
2
100
AcDbEntity
  8
YKK_D
100
AcDbLine
 10
89.8
 20
102.40002244
 30
0.0
 11
71.8
 21
102.40002244
 31
0.0
  0
LINE
  5
14A
330
2
100
AcDbEntity
  8
YKK_D
100
AcDbLine
 10
89.8
 20
96.40002244
 30
0.0
 11
71.8
 21
96.40002244
 31
0.0
  0
LINE
  5
14B
330
2
100
AcDbEntity
  8
YKK_D
100
AcDbLine
 10
89.8
 20
96.40002414
 30
0.0
 11
71.8
 21
96.40002414
 31
0.0
  0
LWPOLYLINE
  5
14C
330
2
100
AcDbEntity
  8
YKK_D
  6
ByBlock
100
AcDbPolyline
 90
        2
 70
     1
 43
0.85
 10
72.8
 20
102.50627244
 42
1.0
 10
72.8
 20
102.29377244
 42
1.0
  0
LWPOLYLINE
  5
14D
330
2
100
AcDbEntity
  8
YKK_D
  6
ByBlock
100
AcDbPolyline
 90
        2
 70
     1
 43
0.85
 10
72.8
 20
102.29377244
 42
1.0
 10
72.8
 20
102.50627244
 42
1.0
  0
LINE
  5
14E
330
2
100
AcDbEntity
  8
YKK_D
100
AcDbLine
 10
72.8
 20
102.40002244
 30
0.0
 11
72.8
 21
96.40002414
 31
0.0
  0
TEXT
  5
14F
330
2
100
AcDbEntity
  8
YKK_D
100
AcDbText
 10
71.8
 20
97.84063243
 30
0.0
 40
6.0
  1
6
 50
90.0
 41
0.8
100
AcDbText
  0
LWPOLYLINE
  5
150
330
2
100
AcDbEntity
  8
YKK_D
  6
ByBlock
100
AcDbPolyline
 90
        2
 70
     1
 43
0.85
 10
72.8
 20
96.50627414
 42
1.0
 10
72.8
 20
96.29377414
 42
1.0
  0
LWPOLYLINE
  5
151
330
2
100
AcDbEntity
  8
YKK_D
  6
ByBlock
100
AcDbPolyline
 90
        2
 70
     1
 43
0.85
 10
72.8
 20
96.29377244
 42
1.0
 10
72.8
 20
96.50627244
 42
1.0
  0
ARC
  5
152
330
2
100
AcDbEntity
  8
YKK_13
100
AcDbCircle
 10
96.8
 20
103.40002244
 30
0.0
 40
1.0
100
AcDbArc
 50
180.0
 51
270.0
1001
GENIUS_GENODEF_13
1002
{
1000
HIER
1070
     0
1002
}
1002
{
1000
MANEDIT
1070
     0
1002
}
1002
{
1000
NOSEL
1070
     0
1002
}
1002
{
1000
BEHIND
1070
     0
1002
}
1002
{
1000
OTHER
1070
     0
1002
}
1002
{
1000
REACTOR
1002
}
1001
GENIUS_GENOBJ-N-FIL_13
1002
{
1000
OWNER
1000
GEN
1002
}
  0
LINE
  5
155
330
2
100
AcDbEntity
  8
YKK_13
100
AcDbLine
 10
112.7
 20
102.40002244
 30
0.0
 11
96.8
 21
102.40002244
 31
0.0
  0
LINE
  5
156
330
2
100
AcDbEntity
  8
YKK_13
100
AcDbLine
 10
96.4
 20
103.00002244
 30
0.0
 11
112.7
 21
103.00002244
 31
0.0
  0
LINE
  5
157
330
2
100
AcDbEntity
  8
YKK_13
100
AcDbLine
 10
112.7
 20
103.00002244
 30
0.0
 11
112.7
 21
102.40002244
 31
0.0
  0
CIRCLE
  5
158
330
2
100
AcDbEntity
  8
YKK_13
  6
YHIDDEN_1
100
AcDbCircle
 10
145.29997012
 20
74.90000154
 30
0.0
 40
3.0
  0
LINE
  5
159
330
2
100
AcDbEntity
  8
YKK_13
  6
YHIDDEN_1
100
AcDbLine
 10
135.59997012
 20
77.90000154
 30
0.0
 11
135.59997012
 21
80.20000154
 31
0.0
  0
LINE
  5
15A
330
2
100
AcDbEntity
  8
YKK_13
  6
YHIDDEN_1
100
AcDbLine
 10
168.29997012
 20
77.90000154
 30
0.0
 11
168.29997012
 21
80.20000154
 31
0.0
  0
ARC
  5
15B
330
2
100
AcDbEntity
  8
YKK_13
  6
YHIDDEN_1
100
AcDbCircle
 10
150.59997012
 20
77.90000154
 30
0.0
 40
2.299999999999998
100
AcDbArc
 50
90.0
 51
180.0
  0
LINE
  5
15C
330
2
100
AcDbEntity
  8
YKK_12
100
AcDbLine
 10
150.59997012
 20
76.40002345
 30
0.0
 11
172.79995422
 21
76.40002345
 31
0.0
  0
LINE
  5
15D
330
2
100
AcDbEntity
  8
YKK_13
  6
YHIDDEN_1
100
AcDbLine
 10
168.29997012
 20
80.20000154
 30
0.0
 11
150.59997012
 21
80.20000154
 31
0.0
  0
LINE
  5
15E
330
2
100
AcDbEntity
  8
YKK_13
  6
Continuous
100
AcDbLine
 10
143.30001278
 20
99.90000441
 30
0.0
 11
143.30001278
 21
104.89999525
 31
0.0
  0
LINE
  5
15F
330
2
100
AcDbEntity
  8
YKK_13
  6
Continuous
100
AcDbLine
 10
139.60005551
 20
99.90000441
 30
0.0
 11
139.60005551
 21
104.89999525
 31
0.0
  0
LINE
  5
160
330
2
100
AcDbEntity
  8
YKK_13
  6
Continuous
100
AcDbLine
 10
132.80014304
 20
98.88069773
 30
0.0
 11
132.80014396
 21
105.91933634
 31
0.0
  0
ARC
  5
161
330
2
100
AcDbEntity
  8
YKK_13
100
AcDbCircle
 10
130.80006104
 20
103.40002244
 30
0.0
 40
1.0
100
AcDbArc
 50
270.0
 51
0.0
1001
GENIUS_GENODEF_13
1002
{
1000
HIER
1070
     0
1002
}
1002
{
1000
MANEDIT
1070
     0
1002
}
1002
{
1000
NOSEL
1070
     0
1002
}
1002
{
1000
BEHIND
1070
     0
1002
}
1002
{
1000
OTHER
1070
     0
1002
}
1002
{
1000
REACTOR
1002
}
1001
GENIUS_GENOBJ-N-FIL_13
1002
{
1000
OWNER
1000
GEN
1002
}
  0
LINE
  5
162
330
2
100
AcDbEntity
  8
YKK_13
  6
Continuous
100
AcDbLine
 10
138.10002111
 20
98.40000746
 30
0.0
 11
138.1000433
 21
102.40000746
 31
0.0
  0
LINE
  5
163
330
2
100
AcDbEntity
  8
YKK_13
  6
Continuous
100
AcDbLine
 10
144.80000973
 20
106.40000746
 30
0.0
 11
144.80000973
 21
98.40000746
 31
0.0
  0
LINE
  5
164
330
2
100
AcDbEntity
  8
YKK_13
  6
Continuous
100
AcDbLine
 10
131.80014406
 20
106.64274426
 30
0.0
 11
131.80014294
 21
98.15727239
 31
0.0
  0
LINE
  5
165
330
2
100
AcDbEntity
  8
YKK_13
  6
Continuous
100
AcDbLine
 10
143.30001278
 20
99.90000441
 30
0.0
 11
139.60005551
 21
99.90000441
 31
0.0
  0
LINE
  5
166
330
2
100
AcDbEntity
  8
YKK_13
  6
Continuous
100
AcDbLine
 10
132.36929812
 20
100.19413443
 30
0.0
 11
132.36929812
 21
100.39413443
 31
0.0
  0
LINE
  5
167
330
2
100
AcDbEntity
  8
YKK_13
  6
Continuous
100
AcDbLine
 10
132.10121179
 20
99.9260481
 30
0.0
 11
132.10121179
 21
100.1260481
 31
0.0
  0
LINE
  5
168
330
2
100
AcDbEntity
  8
YKK_13
  6
Continuous
100
AcDbLine
 10
132.29780843
 20
99.19327881
 30
0.0
 11
132.29780843
 21
99.39327881
 31
0.0
  0
LINE
  5
169
330
2
100
AcDbEntity
  8
YKK_13
  6
Continuous
100
AcDbLine
 10
132.58376718
 20
99.47923756
 30
0.0
 11
132.58376718
 21
99.67923756
 31
0.0
  0
LINE
  5
16A
330
2
100
AcDbEntity
  8
YKK_13
  6
Continuous
100
AcDbLine
 10
132.38717054
 20
100.64094497
 30
0.0
 11
132.38717054
 21
100.84094497
 31
0.0
  0
LINE
  5
16B
330
2
100
AcDbEntity
  8
YKK_13
  6
Continuous
100
AcDbLine
 10
132.15482906
 20
100.9983934
 30
0.0
 11
132.15482906
 21
101.19839341
 31
0.0
  0
LINE
  5
16C
330
2
100
AcDbEntity
  8
YKK_13
  6
Continuous
100
AcDbLine
 10
132.29780843
 20
101.26647973
 30
0.0
 11
132.29780843
 21
101.46647973
 31
0.0
  0
LINE
  5
16D
330
2
100
AcDbEntity
  8
YKK_13
  6
Continuous
100
AcDbLine
 10
132.53014992
 20
101.92775933
 30
0.0
 11
132.53014992
 21
102.12775934
 31
0.0
  0
LINE
  5
16E
330
2
100
AcDbEntity
  8
YKK_13
  6
Continuous
100
AcDbLine
 10
143.18084723
 20
98.3999961
 30
0.0
 11
141.20004667
 21
98.40002915
 31
0.0
  0
ARC
  5
16F
330
2
100
AcDbEntity
  8
YKK_13
  6
Continuous
100
AcDbCircle
 10
142.52851474
 20
96.88557715
 30
0.0
 40
0.299999952316284
100
AcDbArc
 50
146.21113999
 51
310.00243734
  0
LINE
  5
170
330
2
100
AcDbEntity
  8
YKK_13
  6
Continuous
100
AcDbLine
 10
143.18084723
 20
98.3999961
 30
0.0
 11
142.27918941
 21
97.05241572
 31
0.0
  0
LINE
  5
171
330
2
100
AcDbEntity
  8
YKK_13
  6
Continuous
100
AcDbLine
 10
144.80000973
 20
98.3999922
 30
0.0
 11
142.72134754
 21
96.65578782
 31
0.0
  0
ARC
  5
172
330
2
100
AcDbEntity
  8
YKK_13
  6
Continuous
100
AcDbCircle
 10
135.30002804
 20
102.40000786
 30
0.0
 40
5.5
100
AcDbArc
 50
230.48035536
 51
313.34175214
  0
LINE
  5
173
330
2
100
AcDbEntity
  8
YKK_13
  6
Continuous
100
AcDbLine
 10
136.60307335
 20
97.64894416
 30
0.0
 11
136.60307335
 21
97.84894416
 31
0.0
  0
LINE
  5
174
330
2
100
AcDbEntity
  8
YKK_13
  6
Continuous
100
AcDbLine
 10
137.41242999
 20
97.75451242
 30
0.0
 11
137.41242999
 21
97.95451242
 31
0.0
  0
LINE
  5
175
330
2
100
AcDbEntity
  8
YKK_13
  6
Continuous
100
AcDbLine
 10
137.02534638
 20
97.69586339
 30
0.0
 11
137.02534638
 21
97.89586339
 31
0.0
  0
LINE
  5
176
330
2
100
AcDbEntity
  8
YKK_13
  6
Continuous
100
AcDbLine
 10
136.10418294
 20
97.88087388
 30
0.0
 11
136.10418294
 21
98.08087389
 31
0.0
  0
LINE
  5
177
330
2
100
AcDbEntity
  8
YKK_13
  6
Continuous
100
AcDbLine
 10
135.57932106
 20
97.48722748
 30
0.0
 11
135.57932106
 21
97.68722748
 31
0.0
  0
LINE
  5
178
330
2
100
AcDbEntity
  8
YKK_13
  6
Continuous
100
AcDbLine
 10
134.98288712
 20
97.52301352
 30
0.0
 11
134.98288712
 21
97.72301352
 31
0.0
  0
LINE
  5
179
330
2
100
AcDbEntity
  8
YKK_13
  6
Continuous
100
AcDbLine
 10
134.39838185
 20
97.45144144
 30
0.0
 11
134.39838185
 21
97.65144145
 31
0.0
  0
LINE
  5
17A
330
2
100
AcDbEntity
  8
YKK_13
  6
Continuous
100
AcDbLine
 10
134.0285928
 20
97.85701653
 30
0.0
 11
134.0285928
 21
98.05701653
 31
0.0
  0
LINE
  5
17B
330
2
100
AcDbEntity
  8
YKK_13
  6
Continuous
100
AcDbLine
 10
134.52959732
 20
97.72580106
 30
0.0
 11
134.52959732
 21
97.92580106
 31
0.0
  0
LINE
  5
17C
330
2
100
AcDbEntity
  8
YKK_13
  6
Continuous
100
AcDbLine
 10
136.27118444
 20
97.65422898
 30
0.0
 11
136.27118444
 21
97.85422899
 31
0.0
  0
LINE
  5
17D
330
2
100
AcDbEntity
  8
YKK_13
  6
Continuous
100
AcDbLine
 10
133.79001922
 20
97.89280256
 30
0.0
 11
133.79001922
 21
98.09280257
 31
0.0
  0
LINE
  5
17E
330
2
100
AcDbEntity
  8
YKK_13
  6
Continuous
100
AcDbLine
 10
133.32480074
 20
97.83315917
 30
0.0
 11
133.32480074
 21
98.03315917
 31
0.0
  0
LINE
  5
17F
330
2
100
AcDbEntity
  8
YKK_13
  6
Continuous
100
AcDbLine
 10
132.5017219
 20
98.51309387
 30
0.0
 11
132.5017219
 21
98.71309387
 31
0.0
  0
LINE
  5
180
330
2
100
AcDbEntity
  8
YKK_13
  6
Continuous
100
AcDbLine
 10
132.58522265
 20
98.16716218
 30
0.0
 11
132.58522265
 21
98.36716218
 31
0.0
  0
LINE
  5
181
330
2
100
AcDbEntity
  8
YKK_13
  6
Continuous
100
AcDbLine
 10
132.88343962
 20
98.35802104
 30
0.0
 11
132.88343962
 21
98.55802104
 31
0.0
  0
LINE
  5
182
330
2
100
AcDbEntity
  8
YKK_13
  6
Continuous
100
AcDbLine
 10
133.8019479
 20
97.61844295
 30
0.0
 11
133.8019479
 21
97.81844295
 31
0.0
  0
LINE
  5
183
330
2
100
AcDbEntity
  8
YKK_13
  6
Continuous
100
AcDbLine
 10
131.95300267
 20
98.41766444
 30
0.0
 11
131.95300267
 21
98.61766444
 31
0.0
  0
LINE
  5
184
330
2
100
AcDbEntity
  8
YKK_13
  6
Continuous
100
AcDbLine
 10
136.18768369
 20
97.11743843
 30
0.0
 11
136.18768369
 21
97.31743844
 31
0.0
  0
LINE
  5
185
330
2
100
AcDbEntity
  8
YKK_13
  6
Continuous
100
AcDbLine
 10
134.79202825
 20
97.32022597
 30
0.0
 11
134.79202825
 21
97.52022598
 31
0.0
  0
LINE
  5
186
330
2
100
AcDbEntity
  8
YKK_13
  6
Continuous
100
AcDbLine
 10
135.55546371
 20
97.3082973
 30
0.0
 11
135.55546371
 21
97.5082973
 31
0.0
  0
LINE
  5
187
330
2
100
AcDbEntity
  8
YKK_13
  6
Continuous
100
AcDbLine
 10
138.03410973
 20
98.082947
 30
0.0
 11
138.03410973
 21
98.282947
 31
0.0
  0
ARC
  5
188
330
2
100
AcDbEntity
  8
YKK_13
  6
Continuous
100
AcDbCircle
 10
138.92853393
 20
96.88557807
 30
0.0
 40
0.299999952316284
100
AcDbArc
 50
146.21113999
 51
310.00243734
  0
LINE
  5
189
330
2
100
AcDbEntity
  8
YKK_13
  6
Continuous
100
AcDbLine
 10
139.58087017
 20
98.40000746
 30
0.0
 11
138.10002111
 21
98.40000746
 31
0.0
  0
LINE
  5
18A
330
2
100
AcDbEntity
  8
YKK_13
  6
Continuous
100
AcDbLine
 10
139.58087017
 20
98.40000746
 30
0.0
 11
138.67920861
 21
97.05241664
 31
0.0
  0
LINE
  5
18B
330
2
100
AcDbEntity
  8
YKK_13
  6
Continuous
100
AcDbLine
 10
141.20003415
 20
98.40000746
 30
0.0
 11
139.12136674
 21
96.65578874
 31
0.0
  0
ARC
  5
18C
330
2
100
AcDbEntity
  8
YKK_13
  6
Continuous
100
AcDbCircle
 10
135.30002804
 20
102.40000786
 30
0.0
 40
4.299999999999998
100
AcDbArc
 50
303.74990353
 51
310.62927877
  0
SPLINE
  5
18D
330
2
100
AcDbEntity
  8
YKK_13
  6
Continuous
100
AcDbSpline
210
0.0
220
0.0
230
1.0
 70
  1064
 71
     3
 72
    14
 73
    10
 74
     8
 42
0.000000001
 43
0.0000000001
 44
0.0000000001
 40
0.0
 40
0.0
 40
0.0
 40
0.0
 40
0.1242633271986108
 40
1.092074758264351
 40
2.059886189329894
 40
3.027697620395519
 40
3.995509051461286
 40
4.963320482527081
 40
5.93113191359261
 40
5.93113191359261
 40
5.93113191359261
 40
5.93113191359261
 10
132.8001430399961
 20
98.88069772591272
 30
0.0
 10
132.838169093621
 20
98.86378691046658
 30
0.0
 10
133.1723569369405
 20
98.71516804513651
 30
0.0
 10
133.3436322678042
 20
97.666692868533
 30
0.0
 10
134.5317048851141
 20
98.53535984170871
 30
0.0
 10
135.2963435285605
 20
97.28766317397717
 30
0.0
 10
136.0830417696584
 20
98.51403463106866
 30
0.0
 10
137.2049453456447
 20
97.75197676096054
 30
0.0
 10
137.5276311311316
 20
98.46711525768949
 30
0.0
 10
137.688974023875
 20
98.8246845060539
 30
0.0
 11
132.8001430399961
 21
98.88069772591272
 31
0.0
 11
132.9110700199132
 21
98.82469255103641
 31
0.0
 11
133.5014085984587
 21
98.05777708712762
 31
0.0
 11
134.4611325561368
 21
98.18263256822419
 31
0.0
 11
135.3000201281691
 21
97.7000078614477
 31
0.0
 11
136.1389093254731
 21
98.18262974320203
 31
0.0
 11
137.0986328626854
 21
98.05777103016081
 31
0.0
 11
137.688974023875
 21
98.8246845060539
 31
0.0
  0
LINE
  5
18E
330
2
100
AcDbEntity
  8
YKK_13
100
AcDbLine
 10
114.90006104
 20
102.40002244
 30
0.0
 11
130.80006104
 21
102.40002244
 31
0.0
  0
LINE
  5
18F
330
2
100
AcDbEntity
  8
YKK_13
100
AcDbLine
 10
131.20006104
 20
103.00002244
 30
0.0
 11
114.90006104
 21
103.00002244
 31
0.0
  0
LINE
  5
190
330
2
100
AcDbEntity
  8
YKK_13
100
AcDbLine
 10
114.90006104
 20
103.00002244
 30
0.0
 11
114.90006104
 21
102.40002244
 31
0.0
  0
LINE
  5
191
330
2
100
AcDbEntity
  8
YKK_13
  6
Continuous
100
AcDbLine
 10
143.18084723
 20
106.40000356
 30
0.0
 11
141.20004667
 21
106.39997051
 31
0.0
  0
LINE
  5
192
330
2
100
AcDbEntity
  8
YKK_13
  6
Continuous
100
AcDbLine
 10
143.18084723
 20
106.40000356
 30
0.0
 11
142.27918941
 21
107.74758394
 31
0.0
  0
ARC
  5
193
330
2
100
AcDbEntity
  8
YKK_13
  6
Continuous
100
AcDbCircle
 10
142.52851474
 20
107.91442251
 30
0.0
 40
0.299999952316284
100
AcDbArc
 50
49.99756266
 51
213.78886001
  0
LINE
  5
194
330
2
100
AcDbEntity
  8
YKK_13
  6
Continuous
100
AcDbLine
 10
144.80000973
 20
106.40000746
 30
0.0
 11
142.72134754
 21
108.14421184
 31
0.0
  0
LINE
  5
195
330
2
100
AcDbEntity
  8
YKK_13
  6
Continuous
100
AcDbLine
 10
143.30001278
 20
104.89999525
 30
0.0
 11
139.60005551
 21
104.89999525
 31
0.0
  0
ARC
  5
196
330
2
100
AcDbEntity
  8
YKK_13
  6
Continuous
100
AcDbCircle
 10
135.30002804
 20
102.40000786
 30
0.0
 40
4.299999999999998
100
AcDbArc
 50
49.37051226
 51
56.24990353
  0
ARC
  5
197
330
2
100
AcDbEntity
  8
YKK_13
  6
Continuous
100
AcDbCircle
 10
135.30002804
 20
102.40000786
 30
0.0
 40
5.5
100
AcDbArc
 50
46.65823569
 51
129.51962958
  0
LINE
  5
198
330
2
100
AcDbEntity
  8
YKK_13
  6
Continuous
100
AcDbLine
 10
136.6969118
 20
107.16181713
 30
0.0
 11
136.6969118
 21
107.36181713
 31
0.0
  0
LINE
  5
199
330
2
100
AcDbEntity
  8
YKK_13
  6
Continuous
100
AcDbLine
 10
137.4358896
 20
106.62224603
 30
0.0
 11
137.4358896
 21
106.82224604
 31
0.0
  0
LINE
  5
19A
330
2
100
AcDbEntity
  8
YKK_13
  6
Continuous
100
AcDbLine
 10
137.25994251
 20
107.1031681
 30
0.0
 11
137.25994251
 21
107.3031681
 31
0.0
  0
LINE
  5
19B
330
2
100
AcDbEntity
  8
YKK_13
  6
Continuous
100
AcDbLine
 10
137.76432418
 20
106.32900087
 30
0.0
 11
137.76432418
 21
106.52900088
 31
0.0
  0
LINE
  5
19C
330
2
100
AcDbEntity
  8
YKK_13
  6
Continuous
100
AcDbLine
 10
132.47653265
 20
103.39329791
 30
0.0
 11
132.47653265
 21
103.59329792
 31
0.0
  0
LINE
  5
19D
330
2
100
AcDbEntity
  8
YKK_13
  6
Continuous
100
AcDbLine
 10
132.27993601
 20
104.41202595
 30
0.0
 11
132.27993601
 21
104.61202595
 31
0.0
  0
LINE
  5
19E
330
2
100
AcDbEntity
  8
YKK_13
  6
Continuous
100
AcDbLine
 10
132.49440507
 20
106.12777843
 30
0.0
 11
132.49440507
 21
106.32777844
 31
0.0
  0
LINE
  5
19F
330
2
100
AcDbEntity
  8
YKK_13
  6
Continuous
100
AcDbLine
 10
132.20844632
 20
105.32351946
 30
0.0
 11
132.20844632
 21
105.52351946
 31
0.0
  0
LINE
  5
1A0
330
2
100
AcDbEntity
  8
YKK_13
  6
Continuous
100
AcDbLine
 10
132.67312929
 20
104.48351564
 30
0.0
 11
132.67312929
 21
104.68351564
 31
0.0
  0
LINE
  5
1A1
330
2
100
AcDbEntity
  8
YKK_13
  6
Continuous
100
AcDbLine
 10
132.1905739
 20
103.00010463
 30
0.0
 11
132.1905739
 21
103.20010464
 31
0.0
  0
LINE
  5
1A2
330
2
100
AcDbEntity
  8
YKK_13
  6
Continuous
100
AcDbLine
 10
132.53014992
 20
102.71414589
 30
0.0
 11
132.53014992
 21
102.91414589
 31
0.0
  0
LINE
  5
1A3
330
2
100
AcDbEntity
  8
YKK_13
  6
Continuous
100
AcDbLine
 10
132.33355328
 20
103.82223603
 30
0.0
 11
132.33355328
 21
104.02223604
 31
0.0
  0
LINE
  5
1A4
330
2
100
AcDbEntity
  8
YKK_13
  6
Continuous
100
AcDbLine
 10
132.11908422
 20
102.26733534
 30
0.0
 11
132.11908422
 21
102.46733535
 31
0.0
  0
LINE
  5
1A5
330
2
100
AcDbEntity
  8
YKK_13
  6
Continuous
100
AcDbLine
 10
131.83371588
 20
106.00430424
 30
0.0
 11
131.83371588
 21
106.20430424
 31
0.0
  0
LINE
  5
1A6
330
2
100
AcDbEntity
  8
YKK_13
  6
Continuous
100
AcDbLine
 10
132.59715133
 20
106.31444989
 30
0.0
 11
132.59715133
 21
106.5144499
 31
0.0
  0
LINE
  5
1A7
330
2
100
AcDbEntity
  8
YKK_13
  6
Continuous
100
AcDbLine
 10
132.94308302
 20
106.1951631
 30
0.0
 11
132.94308302
 21
106.39516311
 31
0.0
  0
LINE
  5
1A8
330
2
100
AcDbEntity
  8
YKK_13
  6
Continuous
100
AcDbLine
 10
133.1816566
 20
106.60073819
 30
0.0
 11
133.1816566
 21
106.80073819
 31
0.0
  0
LINE
  5
1A9
330
2
100
AcDbEntity
  8
YKK_13
  6
Continuous
100
AcDbLine
 10
133.71844715
 20
107.00631327
 30
0.0
 11
133.71844715
 21
107.20631327
 31
0.0
  0
LINE
  5
1AA
330
2
100
AcDbEntity
  8
YKK_13
  6
Continuous
100
AcDbLine
 10
134.10016488
 20
106.79159705
 30
0.0
 11
134.10016488
 21
106.99159705
 31
0.0
  0
LINE
  5
1AB
330
2
100
AcDbEntity
  8
YKK_13
  6
Continuous
100
AcDbLine
 10
134.43416789
 20
107.20910081
 30
0.0
 11
134.43416789
 21
107.40910082
 31
0.0
  0
LINE
  5
1AC
330
2
100
AcDbEntity
  8
YKK_13
  6
Continuous
100
AcDbLine
 10
134.9948158
 20
107.53117514
 30
0.0
 11
134.9948158
 21
107.73117515
 31
0.0
  0
LINE
  5
1AD
330
2
100
AcDbEntity
  8
YKK_13
  6
Continuous
100
AcDbLine
 10
135.53160635
 20
107.56696118
 30
0.0
 11
135.53160635
 21
107.76696118
 31
0.0
  0
LINE
  5
1AE
330
2
100
AcDbEntity
  8
YKK_13
  6
Continuous
100
AcDbLine
 10
135.6747505
 20
107.36417364
 30
0.0
 11
135.6747505
 21
107.56417364
 31
0.0
  0
LINE
  5
1AF
330
2
100
AcDbEntity
  8
YKK_13
  6
Continuous
100
AcDbLine
 10
136.17575501
 20
106.95859856
 30
0.0
 11
136.17575501
 21
107.15859856
 31
0.0
  0
LINE
  5
1B0
330
2
100
AcDbEntity
  8
YKK_13
  6
Continuous
100
AcDbLine
 10
136.28311312
 20
107.51924647
 30
0.0
 11
136.28311312
 21
107.71924647
 31
0.0
  0
LINE
  5
1B1
330
2
100
AcDbEntity
  8
YKK_13
  6
Continuous
100
AcDbLine
 10
134.85167165
 20
107.23295817
 30
0.0
 11
134.85167165
 21
107.43295817
 31
0.0
  0
LINE
  5
1B2
330
2
100
AcDbEntity
  8
YKK_13
  6
Continuous
100
AcDbLine
 10
132.70450944
 20
106.73195366
 30
0.0
 11
132.70450944
 21
106.93195366
 31
0.0
  0
LINE
  5
1B3
330
2
100
AcDbEntity
  8
YKK_13
  6
Continuous
100
AcDbLine
 10
132.09614681
 20
106.43373668
 30
0.0
 11
132.09614681
 21
106.63373668
 31
0.0
  0
SPLINE
  5
1B4
330
2
100
AcDbEntity
  8
YKK_13
  6
Continuous
100
AcDbSpline
210
0.0
220
0.0
230
1.0
 70
  1064
 71
     3
 72
    14
 73
    10
 74
     8
 42
0.000000001
 43
0.0000000001
 44
0.0000000001
 40
0.0
 40
0.0
 40
0.0
 40
0.0
 40
0.9678114310656248
 40
1.935622862131396
 40
2.903434293197218
 40
3.871245724262773
 40
4.839057155328339
 40
5.806868586394097
 40
5.931137194446229
 40
5.931137194446229
 40
5.931137194446229
 40
5.931137194446229
 10
137.6889860640422
 20
105.9753231718457
 30
0.0
 10
137.527644365494
 20
106.3328929833872
 30
0.0
 10
137.2049609683977
 20
107.0480326064704
 30
0.0
 10
136.0830549753481
 20
106.2859782167997
 30
0.0
 10
135.2963602971214
 20
107.5123534542781
 30
0.0
 10
134.5317195708835
 20
106.2646551346943
 30
0.0
 10
133.3436419702384
 20
107.1333418850256
 30
0.0
 10
133.172383609848
 20
106.0848228251982
 30
0.0
 10
132.8381739349621
 20
105.9362433159899
 30
0.0
 10
132.8001439649892
 20
105.91933634202
 30
0.0
 11
137.6889860640422
 21
105.9753231718457
 31
0.0
 11
137.0986474854969
 21
106.7422386357545
 31
0.0
 11
136.1389235278186
 21
106.6173831546579
 31
0.0
 11
135.3000359557861
 21
107.1000078614344
 31
0.0
 11
134.4611467584823
 21
106.6173859796801
 31
0.0
 11
133.5014232212702
 21
106.7422446927213
 31
0.0
 11
132.9110820600804
 21
105.9753312168281
 31
0.0
 11
132.8001439649892
 21
105.91933634202
 31
0.0
  0
ARC
  5
1B5
330
2
100
AcDbEntity
  8
YKK_13
  6
Continuous
100
AcDbCircle
 10
138.92853393
 20
107.91442159
 30
0.0
 40
0.299999952316284
100
AcDbArc
 50
49.99756266
 51
213.78886001
  0
LINE
  5
1B6
330
2
100
AcDbEntity
  8
YKK_13
  6
Continuous
100
AcDbLine
 10
138.10003914
 20
106.40000746
 30
0.0
 11
138.10002804
 21
102.40000746
 31
0.0
  0
LINE
  5
1B7
330
2
100
AcDbEntity
  8
YKK_13
  6
Continuous
100
AcDbLine
 10
138.13967798
 20
106.68089507
 30
0.0
 11
138.13967798
 21
106.88089507
 31
0.0
  0
LINE
  5
1B8
330
2
100
AcDbEntity
  8
YKK_13
  6
Continuous
100
AcDbLine
 10
139.58087017
 20
106.3999922
 30
0.0
 11
138.67920861
 21
107.74758302
 31
0.0
  0
LINE
  5
1B9
330
2
100
AcDbEntity
  8
YKK_13
  6
Continuous
100
AcDbLine
 10
141.20003415
 20
106.3999922
 30
0.0
 11
139.12136674
 21
108.14421092
 31
0.0
  0
LINE
  5
1BA
330
2
100
AcDbEntity
  8
YKK_13
  6
Continuous
100
AcDbLine
 10
139.58087017
 20
106.3999922
 30
0.0
 11
138.10003914
 21
106.40000746
 31
0.0
  0
LINE
  5
1BB
330
2
100
AcDbEntity
  8
YKK_D
100
AcDbLine
 10
192.79995422
 20
111.40000114
 30
0.0
 11
192.79995422
 21
76.4000014
 31
0.0
  0
LWPOLYLINE
  5
1BC
330
2
100
AcDbEntity
  8
YKK_D
  6
ByBlock
100
AcDbPolyline
 90
        2
 70
     1
 43
0.85
 10
192.79995422
 20
76.5062514
 42
1.0
 10
192.79995422
 20
76.2937514
 42
1.0
  0
TEXT
  5
1BD
330
2
100
AcDbEntity
  8
YKK_D
100
AcDbText
 10
191.79995422
 20
90.82995051
 30
0.0
 40
6.0
  1
35
 50
90.0
 41
0.8
100
AcDbText
  0
TEXT
  5
1BE
330
2
100
AcDbEntity
  8
YKK_D
100
AcDbText
 10
301.80006398
 20
99.14720952
 30
0.0
 40
6.0
  1
12
 50
90.0
 41
0.8
100
AcDbText
  0
LINE
  5
1BF
330
2
100
AcDbEntity
  8
YKK_D
100
AcDbLine
 10
302.80006398
 20
96.4000014
 30
0.0
 11
302.80006398
 21
108.4000014
 31
0.0
  0
LINE
  5
1C0
330
2
100
AcDbEntity
  8
YKK_D
100
AcDbLine
 10
172.79995422
 20
167.40002245
 30
0.0
 11
181.39995422
 21
167.40002245
 31
0.0
  0
LINE
  5
1C1
330
2
100
AcDbEntity
  8
YKK_D
100
AcDbLine
 10
169.79997979
 20
144.21294403
 30
0.0
 11
169.79997979
 21
168.40002245
 31
0.0
  0
LINE
  5
1C2
330
2
100
AcDbEntity
  8
YKK_D
100
AcDbLine
 10
169.79997979
 20
144.21294403
 30
0.0
 11
169.79997979
 21
168.40002245
 31
0.0
  0
LINE
  5
1C3
330
2
100
AcDbEntity
  8
YKK_D
100
AcDbLine
 10
172.79995422
 20
144.21294403
 30
0.0
 11
172.79995422
 21
168.40002245
 31
0.0
  0
LINE
  5
1C4
330
2
100
AcDbEntity
  8
YKK_D
100
AcDbLine
 10
172.79995422
 20
141.8845734
 30
0.0
 11
172.79995422
 21
188.40002245
 31
0.0
  0
LINE
  5
1C5
330
2
100
AcDbEntity
  8
YKK_D
100
AcDbLine
 10
134.80006104
 20
139.0482725
 30
0.0
 11
134.80006104
 21
168.40002245
 31
0.0
  0
LINE
  5
1C6
330
2
100
AcDbEntity
  8
YKK_D
100
AcDbLine
 10
131.80006104
 20
139.21063178
 30
0.0
 11
131.80006104
 21
168.40002245
 31
0.0
  0
LINE
  5
1C7
330
2
100
AcDbEntity
  8
YKK_D
100
AcDbLine
 10
134.80006104
 20
144.21294403
 30
0.0
 11
134.80006104
 21
168.40002245
 31
0.0
  0
LINE
  5
1C8
330
2
100
AcDbEntity
  8
YKK_D
100
AcDbLine
 10
95.8
 20
138.70261381
 30
0.0
 11
95.8
 21
168.40002245
 31
0.0
  0
LINE
  5
1C9
330
2
100
AcDbEntity
  8
YKK_D
100
AcDbLine
 10
92.8
 20
121.8845734
 30
0.0
 11
92.8
 21
168.40002245
 31
0.0
  0
LINE
  5
1CA
330
2
100
AcDbEntity
  8
YKK_D
100
AcDbLine
 10
131.80006104
 20
139.21063178
 30
0.0
 11
131.80006104
 21
168.40002245
 31
0.0
  0
LINE
  5
1CB
330
2
100
AcDbEntity
  8
YKK_D
100
AcDbLine
 10
95.8
 20
138.70261381
 30
0.0
 11
95.8
 21
168.40002245
 31
0.0
  0
LINE
  5
1CC
330
2
100
AcDbEntity
  8
YKK_D
100
AcDbLine
 10
92.8
 20
141.8845734
 30
0.0
 11
92.8
 21
188.40002245
 31
0.0
  0
LINE
  5
1CD
330
2
100
AcDbEntity
  8
YKK_D
100
AcDbLine
 10
133.30006104
 20
167.40002245
 30
0.0
 11
143.8208808
 21
150.02650416
 31
0.0
  0
LINE
  5
1CE
330
2
100
AcDbEntity
  8
YKK_13
100
AcDbLine
 10
96.4
 20
156.40002245
 30
0.0
 11
131.20006104
 21
156.40002245
 31
0.0
  0
LINE
  5
1CF
330
2
100
AcDbEntity
  8
YKK_13
100
AcDbLine
 10
96.4
 20
118.40002245
 30
0.0
 11
131.20006104
 21
118.40002245
 31
0.0
  0
LINE
  5
1D0
330
2
100
AcDbEntity
  8
YKK_13
100
AcDbLine
 10
96.4
 20
137.40002245
 30
0.0
 11
131.20006104
 21
137.40002245
 31
0.0
  0
LINE
  5
1D1
330
2
100
AcDbEntity
  8
YKK_D
100
AcDbLine
 10
143.8208808
 20
150.02650416
 30
0.0
 11
149.0208808
 21
150.02650416
 31
0.0
  0
TEXT
  5
1D2
330
2
100
AcDbEntity
  8
YKK_D
100
AcDbText
 10
144.9102209
 20
151.02650416
 30
0.0
 40
6.0
  1
3
 41
0.8
100
AcDbText
  0
TEXT
  5
1D3
330
2
100
AcDbEntity
  8
YKK_D
100
AcDbText
 10
110.71779702
 20
168.40002245
 30
0.0
 40
6.0
  1
36
 41
0.8
100
AcDbText
  0
LINE
  5
1D4
330
2
100
AcDbEntity
  8
YKK_D
100
AcDbLine
 10
92.8
 20
187.40002245
 30
0.0
 11
172.79995422
 21
187.40002245
 31
0.0
  0
LINE
  5
1D5
330
2
100
AcDbEntity
  8
YKK_D
100
AcDbLine
 10
95.8
 20
167.40002245
 30
0.0
 11
131.80006104
 21
167.40002245
 31
0.0
  0
LINE
  5
1D6
330
2
100
AcDbEntity
  8
YKK_13
100
AcDbLine
 10
96.4
 20
175.40002245
 30
0.0
 11
131.20006104
 21
175.40002245
 31
0.0
  0
LINE
  5
1D7
330
2
100
AcDbEntity
  8
YKK_13
100
AcDbLine
 10
96.4
 20
194.40002245
 30
0.0
 11
131.20006104
 21
194.40002245
 31
0.0
  0
TEXT
  5
1D8
330
2
100
AcDbEntity
  8
YKK_D
100
AcDbText
 10
85.2893401
 20
168.40002245
 30
0.0
 40
6.0
  1
3
 41
0.8
100
AcDbText
  0
LWPOLYLINE
  5
1D9
330
2
100
AcDbEntity
  8
YKK_D
  6
ByBlock
100
AcDbPolyline
 90
        2
 70
     1
 43
0.85
 10
95.90625
 20
167.40002245
 42
1.0
 10
95.69375
 20
167.40002245
 42
1.0
  0
LWPOLYLINE
  5
1DA
330
2
100
AcDbEntity
  8
YKK_D
  6
ByBlock
100
AcDbPolyline
 90
        2
 70
     1
 43
0.85
 10
95.69375
 20
167.40002245
 42
1.0
 10
95.90625
 20
167.40002245
 42
1.0
  0
LWPOLYLINE
  5
1DB
330
2
100
AcDbEntity
  8
YKK_D
  6
ByBlock
100
AcDbPolyline
 90
        2
 70
     1
 43
0.85
 10
92.90625
 20
167.40002245
 42
1.0
 10
92.69375
 20
167.40002245
 42
1.0
  0
LINE
  5
1DC
330
2
100
AcDbEntity
  8
YKK_D
100
AcDbLine
 10
95.8
 20
167.40002245
 30
0.0
 11
92.8
 21
167.40002245
 31
0.0
  0
LINE
  5
1DD
330
2
100
AcDbEntity
  8
YKK_D
100
AcDbLine
 10
92.8
 20
167.40002245
 30
0.0
 11
84.2
 21
167.40002245
 31
0.0
  0
LWPOLYLINE
  5
1DE
330
2
100
AcDbEntity
  8
YKK_D
  6
ByBlock
100
AcDbPolyline
 90
        2
 70
     1
 43
0.85
 10
92.90625
 20
187.40002245
 42
1.0
 10
92.69375
 20
187.40002245
 42
1.0
  0
LINE
  5
1DF
330
2
100
AcDbEntity
  8
YKK_D
100
AcDbLine
 10
169.79997979
 20
167.40002245
 30
0.0
 11
134.80006104
 21
167.40002245
 31
0.0
  0
LWPOLYLINE
  5
1E0
330
2
100
AcDbEntity
  8
YKK_D
  6
ByBlock
100
AcDbPolyline
 90
        2
 70
     1
 43
0.85
 10
134.90631104
 20
167.40002245
 42
1.0
 10
134.69381104
 20
167.40002245
 42
1.0
  0
LWPOLYLINE
  5
1E1
330
2
100
AcDbEntity
  8
YKK_D
  6
ByBlock
100
AcDbPolyline
 90
        2
 70
     1
 43
0.85
 10
134.69381104
 20
167.40002245
 42
1.0
 10
134.90631104
 20
167.40002245
 42
1.0
  0
LWPOLYLINE
  5
1E2
330
2
100
AcDbEntity
  8
YKK_D
  6
ByBlock
100
AcDbPolyline
 90
        2
 70
     1
 43
0.85
 10
131.69381104
 20
167.40002245
 42
1.0
 10
131.90631104
 20
167.40002245
 42
1.0
  0
LWPOLYLINE
  5
1E3
330
2
100
AcDbEntity
  8
YKK_D
  6
ByBlock
100
AcDbPolyline
 90
        2
 70
     1
 43
0.85
 10
131.90631104
 20
167.40002245
 42
1.0
 10
131.69381104
 20
167.40002245
 42
1.0
  0
LINE
  5
1E4
330
2
100
AcDbEntity
  8
YKK_D
100
AcDbLine
 10
131.80006104
 20
167.40002245
 30
0.0
 11
134.80006104
 21
167.40002245
 31
0.0
  0
TEXT
  5
1E5
330
2
100
AcDbEntity
  8
YKK_D
100
AcDbText
 10
149.22996965
 20
168.40002245
 30
0.0
 40
6.0
  1
35
 41
0.8
100
AcDbText
  0
LWPOLYLINE
  5
1E6
330
2
100
AcDbEntity
  8
YKK_D
  6
ByBlock
100
AcDbPolyline
 90
        2
 70
     1
 43
0.85
 10
172.69370422
 20
167.40002245
 42
1.0
 10
172.90620422
 20
167.40002245
 42
1.0
  0
LWPOLYLINE
  5
1E7
330
2
100
AcDbEntity
  8
YKK_D
  6
ByBlock
100
AcDbPolyline
 90
        2
 70
     1
 43
0.85
 10
169.90622979
 20
167.40002245
 42
1.0
 10
169.69372979
 20
167.40002245
 42
1.0
  0
LWPOLYLINE
  5
1E8
330
2
100
AcDbEntity
  8
YKK_D
  6
ByBlock
100
AcDbPolyline
 90
        2
 70
     1
 43
0.85
 10
169.69372979
 20
167.40002245
 42
1.0
 10
169.90622979
 20
167.40002245
 42
1.0
  0
LINE
  5
1E9
330
2
100
AcDbEntity
  8
YKK_D
100
AcDbLine
 10
169.79997979
 20
167.40002245
 30
0.0
 11
172.79995422
 21
167.40002245
 31
0.0
  0
TEXT
  5
1EA
330
2
100
AcDbEntity
  8
YKK_D
100
AcDbText
 10
129.66901264
 20
188.40002245
 30
0.0
 40
6.0
  1
80
 41
0.8
100
AcDbText
  0
LWPOLYLINE
  5
1EB
330
2
100
AcDbEntity
  8
YKK_D
  6
ByBlock
100
AcDbPolyline
 90
        2
 70
     1
 43
0.85
 10
172.69370422
 20
187.40002245
 42
1.0
 10
172.90620422
 20
187.40002245
 42
1.0
  0
LINE
  5
1EC
330
2
100
AcDbEntity
  8
YKK_D
100
AcDbLine
 10
302.80006398
 20
158.39995562
 30
0.0
 11
302.80006398
 21
176.39995562
 31
0.0
  0
LINE
  5
1ED
330
2
100
AcDbEntity
  8
YKK_D
100
AcDbLine
 10
196.29995422
 20
117.46217896
 30
0.0
 11
189.29995422
 21
117.46217896
 31
0.0
  0
TEXT
  5
1EE
330
2
100
AcDbEntity
  8
YKK_D
100
AcDbText
 10
177.28929433
 20
168.40002245
 30
0.0
 40
6.0
  1
3
 41
0.8
100
AcDbText
  0
TEXT
  5
1EF
330
2
100
AcDbEntity
  8
YKK_D
100
AcDbText
 10
301.80006398
 20
164.134981
 30
0.0
 40
6.0
  1
18
 50
90.0
 41
0.8
100
AcDbText
  0
LINE
  5
1F0
330
2
100
AcDbEntity
  8
YKK_13
100
AcDbLine
 10
96.4
 20
251.40002245
 30
0.0
 11
131.20006104
 21
251.40002245
 31
0.0
  0
LINE
  5
1F1
330
2
100
AcDbEntity
  8
YKK_13
100
AcDbLine
 10
96.4
 20
213.40002245
 30
0.0
 11
131.20006104
 21
213.40002245
 31
0.0
  0
LINE
  5
1F2
330
2
100
AcDbEntity
  8
YKK_13
100
AcDbLine
 10
96.4
 20
232.40002245
 30
0.0
 11
131.20006104
 21
232.40002245
 31
0.0
  0
LINE
  5
1F3
330
2
100
AcDbEntity
  8
YKK_13
100
AcDbLine
 10
96.4
 20
270.40002245
 30
0.0
 11
131.20006104
 21
270.40002245
 31
0.0
  0
TEXT
  5
1F4
330
2
100
AcDbEntity
  8
YKK_D
100
AcDbText
 10
191.79995422
 20
284.85278841
 30
0.0
 40
6.0
  1
H
 50
90.0
 41
0.8
100
AcDbText
  0
LINE
  5
1F5
330
2
100
AcDbEntity
  8
YKK_13
  6
YHIDDEN_1
100
AcDbLine
 10
701.2000121
 20
105.53410669
 30
0.0
 11
701.2000121
 21
165.53410669
 31
0.0
  0
LINE
  5
1F6
330
2
100
AcDbEntity
  8
YKK_13
  6
YHIDDEN_1
100
AcDbLine
 10
698.9000121
 20
165.53410669
 30
0.0
 11
698.9000121
 21
105.53410669
 31
0.0
  0
LINE
  5
1F7
330
2
100
AcDbEntity
  8
YKK_D
100
AcDbLine
 10
600.40003346
 20
176.39997088
 30
0.0
 11
600.40003346
 21
96.4000014
 31
0.0
  0
INSERT
  5
1F8
330
2
100
AcDbEntity
  8
YKK_11
100
AcDbBlockReference
  2
SK-90201
 10
702.80001821
 20
96.40000139
 30
0.0
 41
-1.0
  0
LINE
  5
21B
330
2
100
AcDbEntity
  8
YKK_D
100
AcDbLine
 10
620.40003346
 20
134.39989459
 30
0.0
 11
620.40003346
 21
99.4000014
 31
0.0
  0
LINE
  5
21C
330
2
100
AcDbEntity
  8
YKK_13
  6
YHIDDEN_1
100
AcDbLine
 10
326.70005482
 20
106.14994799
 30
0.0
 11
326.70005482
 21
166.14994799
 31
0.0
  0
LINE
  5
21D
330
2
100
AcDbEntity
  8
YKK_13
  6
YHIDDEN_1
100
AcDbLine
 10
324.40005482
 20
166.14994799
 30
0.0
 11
324.40005482
 21
106.14994799
 31
0.0
  0
INSERT
  5
21E
330
2
100
AcDbEntity
  8
YKK_11
100
AcDbBlockReference
  2
SK-90201
 10
322.80004871
 20
96.40000139
 30
0.0
  0
LINE
  5
21F
330
2
100
AcDbEntity
  8
YKK_12
100
AcDbLine
 10
662.80000294
 20
99.4000014
 30
0.0
 11
514.10003346
 21
99.4000014
 31
0.0
  0
LINE
  5
220
330
2
100
AcDbEntity
  8
YKK_D
100
AcDbLine
 10
369.80006398
 20
76.4000014
 30
0.0
 11
655.80000294
 21
76.4000014
 31
0.0
  0
TEXT
  5
221
330
2
100
AcDbEntity
  8
USER1
 62
     3
100
AcDbText
 10
436.31705229
 20
1.3753389
 30
0.0
 40
4.2
  1
標準仕様 片開き
 72
     1
 11
454.37705229
 21
3.4753389
 31
0.0
100
AcDbText
 73
     2
  0
TEXT
  5
223
330
2
100
AcDbEntity
  8
USER1
 62
     3
100
AcDbText
 10
431.41705229
 20
7.55086503
 30
0.0
 40
4.2
  1
ＥＸＩＭＡ ８０Ｓｔ
 72
     1
 11
454.37705229
 21
9.65086503
 31
0.0
100
AcDbText
 73
     2
  0
LINE
  5
224
330
2
100
AcDbEntity
  8
YKK_12
100
AcDbLine
 10
362.80006398
 20
99.4000014
 30
0.0
 11
511.10003346
 21
99.4000014
 31
0.0
  0
TEXT
  5
225
330
2
100
AcDbEntity
  8
USER1
 62
     3
100
AcDbText
 10
434.69137178
 20
21.86171936
 30
0.0
 40
6.0
  1
SD_EX01
 72
     4
 11
454.40565749
 21
24.57600508
 31
0.0
100
AcDbText
  0
LINE
  5
226
330
2
100
AcDbEntity
  8
YKK_D
100
AcDbLine
 10
362.80006398
 20
76.4000014
 30
0.0
 11
368.8622418
 21
79.9000014
 31
0.0
  0
LINE
  5
227
330
2
100
AcDbEntity
  8
YKK_D
100
AcDbLine
 10
362.80006398
 20
76.4000014
 30
0.0
 11
374.92441963
 21
76.4000014
 31
0.0
  0
LINE
  5
228
330
2
100
AcDbEntity
  8
YKK_D
100
AcDbLine
 10
362.80006398
 20
76.4000014
 30
0.0
 11
368.8622418
 21
72.9000014
 31
0.0
  0
LINE
  5
229
330
2
100
AcDbEntity
  8
YKK_D
100
AcDbLine
 10
362.80006398
 20
93.4000014
 30
0.0
 11
362.80006398
 21
75.4000014
 31
0.0
  0
LINE
  5
22A
330
2
100
AcDbEntity
  8
YKK_D
100
AcDbLine
 10
362.80006398
 20
93.4000014
 30
0.0
 11
362.80006398
 21
75.4000014
 31
0.0
  0
LINE
  5
22B
330
2
100
AcDbEntity
  8
YKK_D
100
AcDbLine
 10
322.80006398
 20
93.4000014
 30
0.0
 11
322.80006398
 21
75.4000014
 31
0.0
  0
LINE
  5
22C
330
2
100
AcDbEntity
  8
YKK_D
100
AcDbLine
 10
322.80006398
 20
76.4000014
 30
0.0
 11
362.80006398
 21
76.4000014
 31
0.0
  0
LWPOLYLINE
  5
22D
330
2
100
AcDbEntity
  8
YKK_D
  6
ByBlock
100
AcDbPolyline
 90
        2
 70
     1
 43
0.85
 10
322.90631398
 20
76.4000014
 42
1.0
 10
322.69381398
 20
76.4000014
 42
1.0
  0
TEXT
  5
22E
330
2
100
AcDbEntity
  8
YKK_D
100
AcDbText
 10
339.70564773
 20
77.4000014
 30
0.0
 40
6.0
  1
40
 41
0.8
100
AcDbText
  0
LINE
  5
22F
330
2
100
AcDbEntity
  8
YKK_13
  6
YHIDDEN_1
100
AcDbLine
 10
324.40005482
 20
106.14994799
 30
0.0
 11
326.70005482
 21
106.14994799
 31
0.0
  0
LINE
  5
230
330
2
100
AcDbEntity
  8
YKK_D
100
AcDbLine
 10
368.8622418
 20
72.9000014
 30
0.0
 11
368.8622418
 21
79.9000014
 31
0.0
  0
TEXT
  5
231
330
2
100
AcDbEntity
  8
YKK_D
100
AcDbText
 10
511.26500808
 20
77.4000014
 30
0.0
 40
6.0
  1
W
 41
0.8
100
AcDbText
  0
TEXT
  5
232
330
2
100
AcDbEntity
  8
USER1
 62
     3
100
AcDbText
 10
595.53333193
 20
15.4007
 30
0.0
 40
5.6
  1
1
 72
     1
 11
597.7999986
 21
18.2007
 31
0.0
100
AcDbText
 73
     2
  0
TEXT
  5
233
330
2
100
AcDbEntity
  8
YKK_D
100
AcDbText
 10
679.7055867
 20
77.4000014
 30
0.0
 40
6.0
  1
40
 41
0.8
100
AcDbText
  0
LINE
  5
234
330
2
100
AcDbEntity
  8
YKK_D
100
AcDbLine
 10
662.80000294
 20
76.4000014
 30
0.0
 11
702.80000294
 21
76.4000014
 31
0.0
  0
TEXT
  5
235
330
2
100
AcDbEntity
  8
USER1
 62
     3
100
AcDbText
 10
587.9999986
 20
21.0007
 30
0.0
 40
5.6
  1
1
100
AcDbText
  0
TEXT
  5
236
330
2
100
AcDbEntity
  8
YKK_D
100
AcDbText
 10
619.40003346
 20
90.5893415
 30
0.0
 40
6.0
  1
3
 50
90.0
 41
0.8
100
AcDbText
  0
LINE
  5
237
330
2
100
AcDbEntity
  8
YKK_D
100
AcDbLine
 10
640.03842986
 20
96.4000014
 30
0.0
 11
599.40003346
 21
96.4000014
 31
0.0
  0
LWPOLYLINE
  5
238
330
2
100
AcDbEntity
  8
YKK_D
  6
ByBlock
100
AcDbPolyline
 90
        2
 70
     1
 43
0.85
 10
600.40003346
 20
96.5062514
 42
1.0
 10
600.40003346
 20
96.2937514
 42
1.0
  0
LINE
  5
239
330
2
100
AcDbEntity
  8
YKK_D
100
AcDbLine
 10
620.40003346
 20
96.4000014
 30
0.0
 11
620.40003346
 21
89.5000014
 31
0.0
  0
LINE
  5
23A
330
2
100
AcDbEntity
  8
YKK_D
100
AcDbLine
 10
662.80000294
 20
93.4000014
 30
0.0
 11
662.80000294
 21
75.4000014
 31
0.0
  0
LINE
  5
23B
330
2
100
AcDbEntity
  8
YKK_D
100
AcDbLine
 10
662.80000294
 20
93.4000014
 30
0.0
 11
662.80000294
 21
75.4000014
 31
0.0
  0
LINE
  5
23C
330
2
100
AcDbEntity
  8
YKK_D
100
AcDbLine
 10
662.80000294
 20
76.4000014
 30
0.0
 11
656.73782511
 21
79.9000014
 31
0.0
  0
LINE
  5
23D
330
2
100
AcDbEntity
  8
YKK_D
100
AcDbLine
 10
656.73782511
 20
79.9000014
 30
0.0
 11
656.73782511
 21
72.9000014
 31
0.0
  0
LINE
  5
23E
330
2
100
AcDbEntity
  8
YKK_D
100
AcDbLine
 10
662.80000294
 20
76.4000014
 30
0.0
 11
650.67564729
 21
76.4000014
 31
0.0
  0
LINE
  5
23F
330
2
100
AcDbEntity
  8
YKK_D
100
AcDbLine
 10
662.80000294
 20
76.4000014
 30
0.0
 11
656.73782511
 21
72.9000014
 31
0.0
  0
LINE
  5
240
330
2
100
AcDbEntity
  8
YKK_D
100
AcDbLine
 10
640.03842986
 20
99.4000014
 30
0.0
 11
619.40003346
 21
99.4000014
 31
0.0
  0
LINE
  5
241
330
2
100
AcDbEntity
  8
YKK_D
100
AcDbLine
 10
640.03842986
 20
99.4000014
 30
0.0
 11
619.40003346
 21
99.4000014
 31
0.0
  0
LINE
  5
242
330
2
100
AcDbEntity
  8
YKK_D
100
AcDbLine
 10
640.03842986
 20
96.4000014
 30
0.0
 11
619.40003346
 21
96.4000014
 31
0.0
  0
LWPOLYLINE
  5
243
330
2
100
AcDbEntity
  8
YKK_D
  6
ByBlock
100
AcDbPolyline
 90
        2
 70
     1
 43
0.85
 10
620.40003346
 20
99.5062514
 42
1.0
 10
620.40003346
 20
99.2937514
 42
1.0
  0
LWPOLYLINE
  5
244
330
2
100
AcDbEntity
  8
YKK_D
  6
ByBlock
100
AcDbPolyline
 90
        2
 70
     1
 43
0.85
 10
620.40003346
 20
99.2937514
 42
1.0
 10
620.40003346
 20
99.5062514
 42
1.0
  0
LWPOLYLINE
  5
245
330
2
100
AcDbEntity
  8
YKK_D
  6
ByBlock
100
AcDbPolyline
 90
        2
 70
     1
 43
0.85
 10
620.40003346
 20
96.5062514
 42
1.0
 10
620.40003346
 20
96.2937514
 42
1.0
  0
LINE
  5
246
330
2
100
AcDbEntity
  8
YKK_D
100
AcDbLine
 10
620.40003346
 20
99.4000014
 30
0.0
 11
620.40003346
 21
96.4000014
 31
0.0
  0
LINE
  5
247
330
2
100
AcDbEntity
  8
YKK_D
100
AcDbLine
 10
702.80000294
 20
93.4000014
 30
0.0
 11
702.80000294
 21
75.4000014
 31
0.0
  0
LWPOLYLINE
  5
248
330
2
100
AcDbEntity
  8
YKK_D
  6
ByBlock
100
AcDbPolyline
 90
        2
 70
     1
 43
0.85
 10
702.69375294
 20
76.4000014
 42
1.0
 10
702.90625294
 20
76.4000014
 42
1.0
  0
LINE
  5
249
330
2
100
AcDbEntity
  8
YKK_D
100
AcDbLine
 10
705.80000294
 20
108.4000014
 30
0.0
 11
723.80000294
 21
108.4000014
 31
0.0
  0
LINE
  5
24A
330
2
100
AcDbEntity
  8
YKK_D
100
AcDbLine
 10
705.80000294
 20
96.4000014
 30
0.0
 11
723.80000294
 21
96.4000014
 31
0.0
  0
LINE
  5
24B
330
2
100
AcDbEntity
  8
YKK_13
  6
YHIDDEN_1
100
AcDbLine
 10
698.9000121
 20
105.53410669
 30
0.0
 11
701.2000121
 21
105.53410669
 31
0.0
  0
TEXT
  5
24C
330
2
100
AcDbEntity
  8
YKK_D
100
AcDbText
 10
721.80000294
 20
99.14720952
 30
0.0
 40
6.0
  1
12
 50
90.0
 41
0.8
100
AcDbText
  0
LINE
  5
24D
330
2
100
AcDbEntity
  8
YKK_D
100
AcDbLine
 10
722.80000294
 20
108.4000014
 30
0.0
 11
722.80000294
 21
96.4000014
 31
0.0
  0
LWPOLYLINE
  5
24E
330
2
100
AcDbEntity
  8
YKK_D
  6
ByBlock
100
AcDbPolyline
 90
        2
 70
     1
 43
0.85
 10
722.80000294
 20
96.5062514
 42
1.0
 10
722.80000294
 20
96.2937514
 42
1.0
  0
LWPOLYLINE
  5
24F
330
2
100
AcDbEntity
  8
YKK_D
  6
ByBlock
100
AcDbPolyline
 90
        2
 70
     1
 43
0.85
 10
722.80000294
 20
108.2937514
 42
1.0
 10
722.80000294
 20
108.5062514
 42
1.0
  0
LINE
  5
250
330
2
100
AcDbEntity
  8
YKK_13
100
AcDbLine
 10
673.20003346
 20
137.99997088
 30
0.0
 11
514.10003346
 21
137.99997088
 31
0.0
  0
LINE
  5
251
330
2
100
AcDbEntity
  8
YKK_12
100
AcDbLine
 10
664.40007008
 20
134.39989459
 30
0.0
 11
514.10003346
 21
134.39989459
 31
0.0
  0
LINE
  5
252
330
2
100
AcDbEntity
  8
YKK_13
100
AcDbLine
 10
672.80003346
 20
137.39997088
 30
0.0
 11
514.10003346
 21
137.39997088
 31
0.0
  0
LINE
  5
253
330
2
100
AcDbEntity
  8
YKK_13
100
AcDbLine
 10
673.20003346
 20
172.79997088
 30
0.0
 11
514.10003346
 21
172.79997088
 31
0.0
  0
LINE
  5
254
330
2
100
AcDbEntity
  8
YKK_13
100
AcDbLine
 10
672.80003346
 20
173.39997088
 30
0.0
 11
514.10003346
 21
173.39997088
 31
0.0
  0
LINE
  5
255
330
2
100
AcDbEntity
  8
YKK_D
100
AcDbLine
 10
673.80003346
 20
218.39997088
 30
0.0
 11
351.80003346
 21
218.39997088
 31
0.0
  0
LINE
  5
256
330
2
100
AcDbEntity
  8
YKK_D
100
AcDbLine
 10
347.80003346
 20
204.17493527
 30
0.0
 11
347.80003346
 21
219.39997088
 31
0.0
  0
LINE
  5
257
330
2
100
AcDbEntity
  8
YKK_D
100
AcDbLine
 10
351.80003346
 20
204.17493527
 30
0.0
 11
351.80003346
 21
219.39997088
 31
0.0
  0
LINE
  5
258
330
2
100
AcDbEntity
  8
YKK_D
100
AcDbLine
 10
347.80004855
 20
184.92554582
 30
0.0
 11
347.80004855
 21
219.39997088
 31
0.0
  0
LINE
  5
259
330
2
100
AcDbEntity
  8
YKK_D
100
AcDbLine
 10
351.80003346
 20
185.80966021
 30
0.0
 11
351.80003346
 21
219.39997088
 31
0.0
  0
LINE
  5
25A
330
2
100
AcDbEntity
  8
YKK_D
100
AcDbLine
 10
322.80006093
 20
179.39996298
 30
0.0
 11
322.80006093
 21
219.39997088
 31
0.0
  0
LINE
  5
25B
330
2
100
AcDbEntity
  8
YKK_13
100
AcDbLine
 10
352.40003346
 20
137.99997088
 30
0.0
 11
511.10003346
 21
137.99997088
 31
0.0
  0
LINE
  5
25C
330
2
100
AcDbEntity
  8
YKK_12
100
AcDbLine
 10
361.19999684
 20
134.39989459
 30
0.0
 11
511.10003346
 21
134.39989459
 31
0.0
  0
LINE
  5
25D
330
2
100
AcDbEntity
  8
YKK_13
100
AcDbLine
 10
352.80003346
 20
137.39997088
 30
0.0
 11
511.10003346
 21
137.39997088
 31
0.0
  0
LINE
  5
25E
330
2
100
AcDbEntity
  8
YKK_13
100
AcDbLine
 10
352.40003346
 20
172.79997088
 30
0.0
 11
511.10003346
 21
172.79997088
 31
0.0
  0
LINE
  5
25F
330
2
100
AcDbEntity
  8
YKK_13
100
AcDbLine
 10
352.80003346
 20
173.39997088
 30
0.0
 11
511.10003346
 21
173.39997088
 31
0.0
  0
LINE
  5
260
330
2
100
AcDbEntity
  8
YKK_13
100
AcDbLine
 10
351.80003346
 20
156.59997088
 30
0.0
 11
351.80003346
 21
172.39997088
 31
0.0
  0
LINE
  5
261
330
2
100
AcDbEntity
  8
YKK_13
100
AcDbLine
 10
374.80003346
 20
172.79997088
 30
0.0
 11
374.80003346
 21
137.99997088
 31
0.0
  0
INSERT
  5
262
330
2
100
AcDbEntity
  8
YKK_11
100
AcDbBlockReference
  2
SK-98114
 10
359.80003345
 20
172.49997089
 30
0.0
 50
270.0
  0
LINE
  5
263
330
2
100
AcDbEntity
  8
YKK_13
  6
Continuous
100
AcDbLine
 10
351.80003346
 20
180.62500649
 30
0.0
 11
351.80003346
 21
139.39997088
 31
0.0
  0
LINE
  5
264
330
2
100
AcDbEntity
  8
YKK_13
  6
Continuous
100
AcDbLine
 10
347.80003346
 20
180.62500649
 30
0.0
 11
347.80003346
 21
139.39997088
 31
0.0
  0
LINE
  5
265
330
2
100
AcDbEntity
  8
YKK_13
100
AcDbLine
 10
352.40003346
 20
172.79997088
 30
0.0
 11
352.40003346
 21
156.19997088
 31
0.0
  0
LINE
  5
266
330
2
100
AcDbEntity
  8
YKK_13
100
AcDbLine
 10
412.80003346
 20
172.79997088
 30
0.0
 11
412.80003346
 21
137.99997088
 31
0.0
  0
LINE
  5
267
330
2
100
AcDbEntity
  8
YKK_13
100
AcDbLine
 10
393.80003346
 20
172.79997088
 30
0.0
 11
393.80003346
 21
137.99997088
 31
0.0
  0
ARC
  5
268
330
2
100
AcDbEntity
  8
YKK_13
100
AcDbCircle
 10
352.80003346
 20
138.39997088
 30
0.0
 40
1.0
100
AcDbArc
 50
180.0
 51
270.0
1001
GENIUS_GENODEF_13
1002
{
1000
HIER
1070
     0
1002
}
1002
{
1000
MANEDIT
1070
     0
1002
}
1002
{
1000
NOSEL
1070
     0
1002
}
1002
{
1000
BEHIND
1070
     0
1002
}
1002
{
1000
OTHER
1070
     0
1002
}
1002
{
1000
REACTOR
1002
}
1001
GENIUS_GENOBJ-N-FIL_13
1002
{
1000
OWNER
1000
GEN
1002
}
  0
LINE
  5
269
330
2
100
AcDbEntity
  8
YKK_13
  6
Continuous
100
AcDbLine
 10
356.19999226
 20
125.89993731
 30
0.0
 11
356.19999226
 21
129.59989459
 31
0.0
  0
LINE
  5
26A
330
2
100
AcDbEntity
  8
YKK_13
  6
Continuous
100
AcDbLine
 10
357.70000447
 20
124.39994036
 30
0.0
 11
359.44420885
 21
126.47860255
 31
0.0
  0
LINE
  5
26B
330
2
100
AcDbEntity
  8
YKK_13
  6
Continuous
100
AcDbLine
 10
351.20000142
 20
125.89993731
 30
0.0
 11
351.20000142
 21
129.59989459
 31
0.0
  0
LINE
  5
26C
330
2
100
AcDbEntity
  8
YKK_13
  6
Continuous
100
AcDbLine
 10
349.69998921
 20
124.39994036
 30
0.0
 11
347.95578483
 21
126.47860255
 31
0.0
  0
LINE
  5
26D
330
2
100
AcDbEntity
  8
YKK_13
  6
Continuous
100
AcDbLine
 10
357.70000447
 20
124.39994036
 30
0.0
 11
349.70000447
 21
124.39994036
 31
0.0
  0
LINE
  5
26E
330
2
100
AcDbEntity
  8
YKK_13
  6
Continuous
100
AcDbLine
 10
351.20000142
 20
125.89993731
 30
0.0
 11
356.19999226
 21
125.89993731
 31
0.0
  0
LINE
  5
26F
330
2
100
AcDbEntity
  8
YKK_13
  6
Continuous
100
AcDbLine
 10
357.94274126
 20
137.39980604
 30
0.0
 11
349.45726939
 21
137.39980715
 31
0.0
  0
LINE
  5
270
330
2
100
AcDbEntity
  8
YKK_13
  6
Continuous
100
AcDbLine
 10
350.18069473
 20
136.39980706
 30
0.0
 11
357.21933335
 21
136.39980613
 31
0.0
  0
ARC
  5
271
330
2
100
AcDbEntity
  8
YKK_13
  6
Continuous
100
AcDbCircle
 10
353.70000487
 20
133.89992205
 30
0.0
 40
4.299999999999998
100
AcDbArc
 50
213.74990353
 51
220.62927877
  0
LINE
  5
272
330
2
100
AcDbEntity
  8
YKK_13
  6
Continuous
100
AcDbLine
 10
349.70000447
 20
131.09992899
 30
0.0
 11
353.70000447
 21
131.0999068
 31
0.0
  0
LINE
  5
273
330
2
100
AcDbEntity
  8
YKK_13
  6
Continuous
100
AcDbLine
 10
348.78722449
 20
133.62062903
 30
0.0
 11
348.98722449
 21
133.62062903
 31
0.0
  0
LINE
  5
274
330
2
100
AcDbEntity
  8
YKK_13
  6
Continuous
100
AcDbLine
 10
348.82301052
 20
134.21706298
 30
0.0
 11
349.02301053
 21
134.21706298
 31
0.0
  0
LINE
  5
275
330
2
100
AcDbEntity
  8
YKK_13
  6
Continuous
100
AcDbLine
 10
348.62022298
 20
134.40792184
 30
0.0
 11
348.82022298
 21
134.40792184
 31
0.0
  0
LINE
  5
276
330
2
100
AcDbEntity
  8
YKK_13
  6
Continuous
100
AcDbLine
 10
348.6082943
 20
133.64448639
 30
0.0
 11
348.8082943
 21
133.64448639
 31
0.0
  0
LINE
  5
277
330
2
100
AcDbEntity
  8
YKK_13
  6
Continuous
100
AcDbLine
 10
348.75143845
 20
134.80156825
 30
0.0
 11
348.95143845
 21
134.80156825
 31
0.0
  0
LINE
  5
278
330
2
100
AcDbEntity
  8
YKK_13
  6
Continuous
100
AcDbLine
 10
349.15701353
 20
135.17135729
 30
0.0
 11
349.35701354
 21
135.17135729
 31
0.0
  0
LINE
  5
279
330
2
100
AcDbEntity
  8
YKK_13
  6
Continuous
100
AcDbLine
 10
349.02579806
 20
134.67035278
 30
0.0
 11
349.22579807
 21
134.67035278
 31
0.0
  0
LINE
  5
27A
330
2
100
AcDbEntity
  8
YKK_13
  6
Continuous
100
AcDbLine
 10
349.19279957
 20
135.40993087
 30
0.0
 11
349.39279957
 21
135.40993087
 31
0.0
  0
LINE
  5
27B
330
2
100
AcDbEntity
  8
YKK_13
  6
Continuous
100
AcDbLine
 10
349.13315617
 20
135.87514935
 30
0.0
 11
349.33315618
 21
135.87514935
 31
0.0
  0
LINE
  5
27C
330
2
100
AcDbEntity
  8
YKK_13
  6
Continuous
100
AcDbLine
 10
348.91843995
 20
135.39800219
 30
0.0
 11
349.11843996
 21
135.39800219
 31
0.0
  0
LINE
  5
27D
330
2
100
AcDbEntity
  8
YKK_13
  6
Continuous
100
AcDbLine
 10
349.81309087
 20
136.6982282
 30
0.0
 11
350.01309088
 21
136.6982282
 31
0.0
  0
LINE
  5
27E
330
2
100
AcDbEntity
  8
YKK_13
  6
Continuous
100
AcDbLine
 10
349.46715919
 20
136.61472745
 30
0.0
 11
349.66715919
 21
136.61472745
 31
0.0
  0
LINE
  5
27F
330
2
100
AcDbEntity
  8
YKK_13
  6
Continuous
100
AcDbLine
 10
349.65801805
 20
136.31651047
 30
0.0
 11
349.85801805
 21
136.31651047
 31
0.0
  0
LINE
  5
280
330
2
100
AcDbEntity
  8
YKK_13
  6
Continuous
100
AcDbLine
 10
349.71766144
 20
137.24694743
 30
0.0
 11
349.91766145
 21
137.24694743
 31
0.0
  0
LINE
  5
281
330
2
100
AcDbEntity
  8
YKK_13
  6
Continuous
100
AcDbLine
 10
349.70000447
 20
129.61907993
 30
0.0
 11
349.70000447
 21
131.09992899
 31
0.0
  0
LINE
  5
282
330
2
100
AcDbEntity
  8
YKK_13
  6
Continuous
100
AcDbLine
 10
349.70000447
 20
129.61907993
 30
0.0
 11
348.35241365
 21
130.52074149
 31
0.0
  0
ARC
  5
283
330
2
100
AcDbEntity
  8
YKK_13
  6
Continuous
100
AcDbCircle
 10
348.18557508
 20
130.27141616
 30
0.0
 40
0.299999952316284
100
AcDbArc
 50
56.21113999
 51
220.00243734
  0
LINE
  5
284
330
2
100
AcDbEntity
  8
YKK_13
  6
Continuous
100
AcDbLine
 10
349.18087089
 20
133.09576716
 30
0.0
 11
349.38087089
 21
133.09576716
 31
0.0
  0
LINE
  5
285
330
2
100
AcDbEntity
  8
YKK_13
  6
Continuous
100
AcDbLine
 10
348.41743544
 20
133.01226641
 30
0.0
 11
348.61743544
 21
133.01226641
 31
0.0
  0
LINE
  5
286
330
2
100
AcDbEntity
  8
YKK_13
  6
Continuous
100
AcDbLine
 10
348.95422599
 20
132.92876565
 30
0.0
 11
349.15422599
 21
132.92876565
 31
0.0
  0
ARC
  5
287
330
2
100
AcDbEntity
  8
YKK_13
  6
Continuous
100
AcDbCircle
 10
348.18557416
 20
126.67143536
 30
0.0
 40
0.299999952316284
100
AcDbArc
 50
56.21113999
 51
220.00243734
  0
LINE
  5
288
330
2
100
AcDbEntity
  8
YKK_13
  6
Continuous
100
AcDbLine
 10
349.70000447
 20
127.99991595
 30
0.0
 11
347.95578575
 21
130.07858336
 31
0.0
  0
LINE
  5
289
330
2
100
AcDbEntity
  8
YKK_13
  6
Continuous
100
AcDbLine
 10
348.94894117
 20
132.59687675
 30
0.0
 11
349.14894117
 21
132.59687675
 31
0.0
  0
LINE
  5
28A
330
2
100
AcDbEntity
  8
YKK_13
  6
Continuous
100
AcDbLine
 10
349.05450942
 20
131.78752011
 30
0.0
 11
349.25450943
 21
131.78752011
 31
0.0
  0
LINE
  5
28B
330
2
100
AcDbEntity
  8
YKK_13
  6
Continuous
100
AcDbLine
 10
348.99586039
 20
132.17460372
 30
0.0
 11
349.1958604
 21
132.17460372
 31
0.0
  0
LINE
  5
28C
330
2
100
AcDbEntity
  8
YKK_13
  6
Continuous
100
AcDbLine
 10
349.382944
 20
131.16584037
 30
0.0
 11
349.58294401
 21
131.16584037
 31
0.0
  0
LINE
  5
28D
330
2
100
AcDbEntity
  8
YKK_13
  6
Continuous
100
AcDbLine
 10
349.69999311
 20
126.01910287
 30
0.0
 11
349.70002616
 21
127.99990343
 31
0.0
  0
LINE
  5
28E
330
2
100
AcDbEntity
  8
YKK_13
  6
Continuous
100
AcDbLine
 10
349.69999311
 20
126.01910287
 30
0.0
 11
348.35241272
 21
126.92076068
 31
0.0
  0
SPLINE
  5
28F
330
2
100
AcDbEntity
  8
YKK_13
  6
Continuous
100
AcDbSpline
210
0.0
220
0.0
230
1.0
 70
  1064
 71
     3
 72
    14
 73
    10
 74
     8
 42
0.000000001
 43
0.0000000001
 44
0.0000000001
 40
0.0
 40
0.0
 40
0.0
 40
0.0
 40
0.1242633271987626
 40
1.092074758264375
 40
2.05988618933003
 40
3.027697620395803
 40
3.995509051461555
 40
4.963320482527241
 40
5.931131913592794
 40
5.931131913592794
 40
5.931131913592794
 40
5.931131913592794
 10
350.180694732517
 20
136.3998070562825
 30
0.0
 10
350.163783917071
 20
136.3617810026575
 30
0.0
 10
350.0151650517415
 20
136.0275931593377
 30
0.0
 10
348.9666898751372
 20
135.8563178284745
 30
0.0
 10
349.8353568483131
 20
134.6682452111644
 30
0.0
 10
348.5876601805816
 20
133.9036065677178
 30
0.0
 10
349.8140316376729
 20
133.1169083266199
 30
0.0
 10
349.051973767565
 20
131.9950047506338
 30
0.0
 10
349.7671122642938
 20
131.6723189651468
 30
0.0
 10
350.1246815126582
 20
131.5109760724033
 30
0.0
 11
350.180694732517
 21
136.3998070562825
 31
0.0
 11
350.1246895576409
 21
136.2888800763651
 31
0.0
 11
349.357774093732
 21
135.6985414978199
 31
0.0
 11
349.4826295748286
 21
134.7388175401417
 31
0.0
 11
349.0000048680521
 21
133.8999299681093
 31
0.0
 11
349.4826267498064
 21
133.0610407708052
 31
0.0
 11
349.3577680367652
 21
132.101317233593
 31
0.0
 11
350.1246815126582
 21
131.5109760724033
 31
0.0
  0
ARC
  5
290
330
2
100
AcDbEntity
  8
YKK_13
  6
Continuous
100
AcDbCircle
 10
353.70000487
 20
133.89992205
 30
0.0
 40
5.5
100
AcDbArc
 50
140.48035536
 51
223.34175214
  0
LINE
  5
291
330
2
100
AcDbEntity
  8
YKK_13
  6
Continuous
100
AcDbLine
 10
357.42777544
 20
136.70554502
 30
0.0
 11
357.62777544
 21
136.70554502
 31
0.0
  0
LINE
  5
292
330
2
100
AcDbEntity
  8
YKK_13
  6
Continuous
100
AcDbLine
 10
357.49516011
 20
136.25686708
 30
0.0
 11
357.69516011
 21
136.25686708
 31
0.0
  0
LINE
  5
293
330
2
100
AcDbEntity
  8
YKK_13
  6
Continuous
100
AcDbLine
 10
357.6144469
 20
136.60279877
 30
0.0
 11
357.8144469
 21
136.60279877
 31
0.0
  0
LINE
  5
294
330
2
100
AcDbEntity
  8
YKK_13
  6
Continuous
100
AcDbLine
 10
356.62351646
 20
136.99150377
 30
0.0
 11
356.82351647
 21
136.99150377
 31
0.0
  0
LINE
  5
295
330
2
100
AcDbEntity
  8
YKK_13
  6
Continuous
100
AcDbLine
 10
357.30430125
 20
137.36623422
 30
0.0
 11
357.50430125
 21
137.36623422
 31
0.0
  0
LINE
  5
296
330
2
100
AcDbEntity
  8
YKK_13
  6
Continuous
100
AcDbLine
 10
358.83117215
 20
134.2051343
 30
0.0
 11
359.03117215
 21
134.2051343
 31
0.0
  0
LINE
  5
297
330
2
100
AcDbEntity
  8
YKK_13
  6
Continuous
100
AcDbLine
 10
358.86695819
 20
133.66834375
 30
0.0
 11
359.06695819
 21
133.66834375
 31
0.0
  0
LINE
  5
298
330
2
100
AcDbEntity
  8
YKK_13
  6
Continuous
100
AcDbLine
 10
358.66417065
 20
133.5251996
 30
0.0
 11
358.86417065
 21
133.5251996
 31
0.0
  0
LINE
  5
299
330
2
100
AcDbEntity
  8
YKK_13
  6
Continuous
100
AcDbLine
 10
358.53295518
 20
134.34827845
 30
0.0
 11
358.73295518
 21
134.34827845
 31
0.0
  0
LINE
  5
29A
330
2
100
AcDbEntity
  8
YKK_13
  6
Continuous
100
AcDbLine
 10
357.90073519
 20
136.0182935
 30
0.0
 11
358.1007352
 21
136.0182935
 31
0.0
  0
LINE
  5
29B
330
2
100
AcDbEntity
  8
YKK_13
  6
Continuous
100
AcDbLine
 10
358.30631028
 20
135.48150295
 30
0.0
 11
358.50631028
 21
135.48150295
 31
0.0
  0
LINE
  5
29C
330
2
100
AcDbEntity
  8
YKK_13
  6
Continuous
100
AcDbLine
 10
358.09159406
 20
135.09978522
 30
0.0
 11
358.29159406
 21
135.09978522
 31
0.0
  0
LINE
  5
29D
330
2
100
AcDbEntity
  8
YKK_13
  6
Continuous
100
AcDbLine
 10
358.50909782
 20
134.76578221
 30
0.0
 11
358.70909782
 21
134.76578221
 31
0.0
  0
LINE
  5
29E
330
2
100
AcDbEntity
  8
YKK_13
  6
Continuous
100
AcDbLine
 10
358.03195066
 20
136.49544066
 30
0.0
 11
358.23195066
 21
136.49544066
 31
0.0
  0
LINE
  5
29F
330
2
100
AcDbEntity
  8
YKK_13
  6
Continuous
100
AcDbLine
 10
357.73373369
 20
137.10380328
 30
0.0
 11
357.93373369
 21
137.10380328
 31
0.0
  0
LINE
  5
2A0
330
2
100
AcDbEntity
  8
YKK_13
  6
Continuous
100
AcDbLine
 10
354.69329492
 20
136.72341745
 30
0.0
 11
354.89329492
 21
136.72341745
 31
0.0
  0
LINE
  5
2A1
330
2
100
AcDbEntity
  8
YKK_13
  6
Continuous
100
AcDbLine
 10
355.71202296
 20
136.92001408
 30
0.0
 11
355.91202296
 21
136.92001408
 31
0.0
  0
LINE
  5
2A2
330
2
100
AcDbEntity
  8
YKK_13
  6
Continuous
100
AcDbLine
 10
355.78351264
 20
136.52682081
 30
0.0
 11
355.98351265
 21
136.52682081
 31
0.0
  0
LINE
  5
2A3
330
2
100
AcDbEntity
  8
YKK_13
  6
Continuous
100
AcDbLine
 10
354.30010164
 20
137.00937619
 30
0.0
 11
354.50010164
 21
137.00937619
 31
0.0
  0
LINE
  5
2A4
330
2
100
AcDbEntity
  8
YKK_13
  6
Continuous
100
AcDbLine
 10
354.01414289
 20
136.66980018
 30
0.0
 11
354.2141429
 21
136.66980018
 31
0.0
  0
LINE
  5
2A5
330
2
100
AcDbEntity
  8
YKK_13
  6
Continuous
100
AcDbLine
 10
355.12223304
 20
136.86639682
 30
0.0
 11
355.32223304
 21
136.86639682
 31
0.0
  0
LINE
  5
2A6
330
2
100
AcDbEntity
  8
YKK_13
  6
Continuous
100
AcDbLine
 10
353.56733235
 20
137.08086588
 30
0.0
 11
353.76733235
 21
137.08086588
 31
0.0
  0
LINE
  5
2A7
330
2
100
AcDbEntity
  8
YKK_13
  6
Continuous
100
AcDbLine
 10
353.22775634
 20
136.66980018
 30
0.0
 11
353.42775634
 21
136.66980018
 31
0.0
  0
LINE
  5
2A8
330
2
100
AcDbEntity
  8
YKK_13
  6
Continuous
100
AcDbLine
 10
351.94094198
 20
136.81277955
 30
0.0
 11
352.14094198
 21
136.81277955
 31
0.0
  0
LINE
  5
2A9
330
2
100
AcDbEntity
  8
YKK_13
  6
Continuous
100
AcDbLine
 10
352.29839041
 20
137.04512104
 30
0.0
 11
352.49839041
 21
137.04512104
 31
0.0
  0
LINE
  5
2AA
330
2
100
AcDbEntity
  8
YKK_13
  6
Continuous
100
AcDbLine
 10
352.56647674
 20
136.90214166
 30
0.0
 11
352.76647674
 21
136.90214166
 31
0.0
  0
LINE
  5
2AB
330
2
100
AcDbEntity
  8
YKK_13
  6
Continuous
100
AcDbLine
 10
351.22604511
 20
137.0987383
 30
0.0
 11
351.42604511
 21
137.0987383
 31
0.0
  0
LINE
  5
2AC
330
2
100
AcDbEntity
  8
YKK_13
  6
Continuous
100
AcDbLine
 10
351.49413143
 20
136.83065198
 30
0.0
 11
351.69413144
 21
136.83065198
 31
0.0
  0
LINE
  5
2AD
330
2
100
AcDbEntity
  8
YKK_13
  6
Continuous
100
AcDbLine
 10
350.49327582
 20
136.90214166
 30
0.0
 11
350.69327582
 21
136.90214166
 31
0.0
  0
LINE
  5
2AE
330
2
100
AcDbEntity
  8
YKK_13
  6
Continuous
100
AcDbLine
 10
350.77923457
 20
136.61618292
 30
0.0
 11
350.97923457
 21
136.61618292
 31
0.0
  0
ARC
  5
2AF
330
2
100
AcDbEntity
  8
YKK_13
  6
Continuous
100
AcDbCircle
 10
353.70000487
 20
133.89992205
 30
0.0
 40
4.299999999999998
100
AcDbArc
 50
319.37051226
 51
326.24990353
  0
ARC
  5
2B0
330
2
100
AcDbEntity
  8
YKK_13
  6
Continuous
100
AcDbCircle
 10
359.2144186
 20
130.27141616
 30
0.0
 40
0.299999952316284
100
AcDbArc
 50
319.99756266
 51
123.78886001
  0
ARC
  5
2B1
330
2
100
AcDbEntity
  8
YKK_13
  6
Continuous
100
AcDbCircle
 10
359.21441952
 20
126.67143536
 30
0.0
 40
0.299999952316284
100
AcDbArc
 50
319.99756266
 51
123.78886001
  0
LINE
  5
2B2
330
2
100
AcDbEntity
  8
YKK_13
  6
Continuous
100
AcDbLine
 10
358.25859556
 20
133.02419509
 30
0.0
 11
358.45859556
 21
133.02419509
 31
0.0
  0
LINE
  5
2B3
330
2
100
AcDbEntity
  8
YKK_13
  6
Continuous
100
AcDbLine
 10
358.81924347
 20
132.91683698
 30
0.0
 11
359.01924347
 21
132.91683698
 31
0.0
  0
LINE
  5
2B4
330
2
100
AcDbEntity
  8
YKK_13
  6
Continuous
100
AcDbLine
 10
358.46181413
 20
132.5030383
 30
0.0
 11
358.66181414
 21
132.5030383
 31
0.0
  0
LINE
  5
2B5
330
2
100
AcDbEntity
  8
YKK_13
  6
Continuous
100
AcDbLine
 10
357.92224304
 20
131.76406049
 30
0.0
 11
358.12224304
 21
131.76406049
 31
0.0
  0
LINE
  5
2B6
330
2
100
AcDbEntity
  8
YKK_13
  6
Continuous
100
AcDbLine
 10
357.98089207
 20
131.06027211
 30
0.0
 11
358.18089208
 21
131.06027211
 31
0.0
  0
LINE
  5
2B7
330
2
100
AcDbEntity
  8
YKK_13
  6
Continuous
100
AcDbLine
 10
358.4031651
 20
131.94000759
 30
0.0
 11
358.6031651
 21
131.94000759
 31
0.0
  0
LINE
  5
2B8
330
2
100
AcDbEntity
  8
YKK_13
  6
Continuous
100
AcDbLine
 10
357.69998921
 20
129.61907993
 30
0.0
 11
357.70000447
 21
131.09991096
 31
0.0
  0
LINE
  5
2B9
330
2
100
AcDbEntity
  8
YKK_13
  6
Continuous
100
AcDbLine
 10
357.70000057
 20
126.01910287
 30
0.0
 11
357.69996751
 21
127.99990343
 31
0.0
  0
LINE
  5
2BA
330
2
100
AcDbEntity
  8
YKK_13
  6
Continuous
100
AcDbLine
 10
357.69998921
 20
129.61907993
 30
0.0
 11
359.04758003
 21
130.52074149
 31
0.0
  0
LINE
  5
2BB
330
2
100
AcDbEntity
  8
YKK_13
  6
Continuous
100
AcDbLine
 10
357.70000057
 20
126.01910287
 30
0.0
 11
359.04758095
 21
126.92076068
 31
0.0
  0
LINE
  5
2BC
330
2
100
AcDbEntity
  8
YKK_13
  6
Continuous
100
AcDbLine
 10
357.69998921
 20
127.99991595
 30
0.0
 11
359.44420793
 21
130.07858336
 31
0.0
  0
LINE
  5
2BD
330
2
100
AcDbEntity
  8
YKK_13
  6
Continuous
100
AcDbLine
 10
357.62899788
 20
131.43562592
 30
0.0
 11
357.82899788
 21
131.43562592
 31
0.0
  0
LINE
  5
2BE
330
2
100
AcDbEntity
  8
YKK_13
  6
Continuous
100
AcDbLine
 10
357.70000447
 20
131.09991096
 30
0.0
 11
353.70000447
 21
131.09992205
 31
0.0
  0
LINE
  5
2BF
330
2
100
AcDbEntity
  8
YKK_13
  6
Continuous
100
AcDbLine
 10
351.20000142
 20
129.59989459
 30
0.0
 11
356.19999226
 21
129.59989459
 31
0.0
  0
SPLINE
  5
2C0
330
2
100
AcDbEntity
  8
YKK_13
  6
Continuous
100
AcDbSpline
210
0.0
220
0.0
230
1.0
 70
  1064
 71
     3
 72
    14
 73
    10
 74
     8
 42
0.000000001
 43
0.0000000001
 44
0.0000000001
 40
0.0
 40
0.0
 40
0.0
 40
0.0
 40
0.9678114310655018
 40
1.935622862131326
 40
2.903434293196951
 40
3.871245724262703
 40
4.839057155328304
 40
5.806868586393822
 40
5.931137194445827
 40
5.931137194445827
 40
5.931137194445827
 40
5.931137194445827
 10
357.2753201784502
 20
131.5109640322363
 30
0.0
 10
357.6328899899916
 20
131.6723057307845
 30
0.0
 10
358.3480296130747
 20
131.9949891278808
 30
0.0
 10
357.585975223404
 20
133.1168951209304
 30
0.0
 10
358.8123504608825
 20
133.903589799157
 30
0.0
 10
357.5646521412987
 20
134.668230525395
 30
0.0
 10
358.4333388916298
 20
135.8563081260401
 30
0.0
 10
357.3848198318026
 20
136.0275664864303
 30
0.0
 10
357.2362403225944
 20
136.3617761613163
 30
0.0
 10
357.2193333486244
 20
136.3998061312891
 30
0.0
 11
357.2753201784502
 21
131.5109640322363
 31
0.0
 11
358.0422356423588
 21
132.1013026107816
 31
0.0
 11
357.9173801612622
 21
133.0610265684599
 31
0.0
 11
358.4000048680388
 21
133.8999141404922
 31
0.0
 11
357.9173829862845
 21
134.7388033377963
 31
0.0
 11
358.0422416993255
 21
135.6985268750084
 31
0.0
 11
357.2753282234324
 21
136.2888680361981
 31
0.0
 11
357.2193333486244
 21
136.3998061312891
 31
0.0
  0
ARC
  5
2C1
330
2
100
AcDbEntity
  8
YKK_13
  6
Continuous
100
AcDbCircle
 10
353.70000487
 20
133.89992205
 30
0.0
 40
5.5
100
AcDbArc
 50
316.65823569
 51
39.51962958
  0
LINE
  5
2C2
330
2
100
AcDbEntity
  8
YKK_13
100
AcDbLine
 10
352.40003346
 20
137.99997088
 30
0.0
 11
352.40003346
 21
154.59997088
 31
0.0
  0
LINE
  5
2C3
330
2
100
AcDbEntity
  8
YKK_13
100
AcDbLine
 10
351.80003346
 20
154.19997088
 30
0.0
 11
351.80003346
 21
138.39997088
 31
0.0
  0
LINE
  5
2C4
330
2
100
AcDbEntity
  8
YKK_13
  6
Continuous
100
AcDbLine
 10
348.80003346
 20
139.39997088
 30
0.0
 11
351.80003346
 21
139.39997088
 31
0.0
  0
LINE
  5
2C5
330
2
100
AcDbEntity
  8
YKK_13
  6
Continuous
100
AcDbLine
 10
347.80003346
 20
139.39997088
 30
0.0
 11
350.80003346
 21
139.39997088
 31
0.0
  0
LINE
  5
2C6
330
2
100
AcDbEntity
  8
YKK_13
100
AcDbLine
 10
359.80003346
 20
154.59997088
 30
0.0
 11
359.80003346
 21
155.19997088
 31
0.0
  0
LINE
  5
2C7
330
2
100
AcDbEntity
  8
YKK_13
100
AcDbLine
 10
359.80003346
 20
156.19997088
 30
0.0
 11
359.80003346
 21
155.59997088
 31
0.0
  0
ARC
  5
2C8
330
2
100
AcDbEntity
  8
YKK_13
100
AcDbCircle
 10
352.80003346
 20
154.19997088
 30
0.0
 40
1.0
100
AcDbArc
 50
90.0
 51
180.0
1001
GENIUS_GENODEF_13
1002
{
1000
HIER
1070
     0
1002
}
1002
{
1000
MANEDIT
1070
     0
1002
}
1002
{
1000
NOSEL
1070
     0
1002
}
1002
{
1000
BEHIND
1070
     0
1002
}
1002
{
1000
OTHER
1070
     0
1002
}
1002
{
1000
REACTOR
1002
}
1001
GENIUS_GENOBJ-N-FIL_13
1002
{
1000
OWNER
1000
GEN
1002
}
  0
LINE
  5
2C9
330
2
100
AcDbEntity
  8
YKK_13
100
AcDbLine
 10
352.40003346
 20
154.59997088
 30
0.0
 11
359.80003346
 21
154.59997088
 31
0.0
  0
LINE
  5
2CA
330
2
100
AcDbEntity
  8
YKK_13
100
AcDbLine
 10
359.80003346
 20
155.19997088
 30
0.0
 11
352.80003346
 21
155.19997088
 31
0.0
  0
LINE
  5
2CB
330
2
100
AcDbEntity
  8
YKK_13
100
AcDbLine
 10
352.40003346
 20
156.19997088
 30
0.0
 11
359.80003346
 21
156.19997088
 31
0.0
  0
LINE
  5
2CC
330
2
100
AcDbEntity
  8
YKK_13
100
AcDbLine
 10
359.80003346
 20
155.59997088
 30
0.0
 11
352.80003346
 21
155.59997088
 31
0.0
  0
ARC
  5
2CD
330
2
100
AcDbEntity
  8
YKK_13
100
AcDbCircle
 10
352.80003346
 20
156.59997088
 30
0.0
 40
1.0
100
AcDbArc
 50
180.0
 51
270.0
1001
GENIUS_GENOBJ-N-FIL_13
1002
{
1000
OWNER
1000
GEN
1002
}
1001
GENIUS_GENODEF_13
1002
{
1000
HIER
1070
     0
1002
}
1002
{
1000
MANEDIT
1070
     0
1002
}
1002
{
1000
NOSEL
1070
     0
1002
}
1002
{
1000
BEHIND
1070
     0
1002
}
1002
{
1000
OTHER
1070
     0
1002
}
1002
{
1000
REACTOR
1002
}
  0
CIRCLE
  5
2CE
330
2
100
AcDbEntity
  8
YKK_13
  6
Continuous
100
AcDbCircle
 10
349.80003346
 20
189.39997088
 30
0.0
 40
9.0
  0
LINE
  5
2CF
330
2
100
AcDbEntity
  8
YKK_13
  6
YCENTER_1
100
AcDbLine
 10
349.80003346
 20
175.39997088
 30
0.0
 11
349.80003346
 21
205.53722956
 31
0.0
  0
LINE
  5
2D1
330
2
100
AcDbEntity
  8
YKK_13
  6
YHIDDEN_1
100
AcDbLine
 10
326.70005482
 20
166.14994799
 30
0.0
 11
324.40005482
 21
166.14994799
 31
0.0
  0
ARC
  5
2D2
330
2
100
AcDbEntity
  8
YKK_13
100
AcDbCircle
 10
352.80003346
 20
172.39997088
 30
0.0
 40
1.0
100
AcDbArc
 50
90.0
 51
180.0
1001
GENIUS_GENODEF_13
1002
{
1000
HIER
1070
     0
1002
}
1002
{
1000
MANEDIT
1070
     0
1002
}
1002
{
1000
NOSEL
1070
     0
1002
}
1002
{
1000
BEHIND
1070
     0
1002
}
1002
{
1000
OTHER
1070
     0
1002
}
1002
{
1000
REACTOR
1002
}
1001
GENIUS_GENOBJ-N-FIL_13
1002
{
1000
OWNER
1000
GEN
1002
}
  0
LINE
  5
2D3
330
2
100
AcDbEntity
  8
YKK_12
100
AcDbLine
 10
351.80003346
 20
173.39997088
 30
0.0
 11
352.80003346
 21
173.39997088
 31
0.0
  0
LINE
  5
2D4
330
2
100
AcDbEntity
  8
YKK_13
  6
YCENTER_1
100
AcDbLine
 10
335.80003346
 20
189.39997088
 30
0.0
 11
363.80003346
 21
189.39997088
 31
0.0
  0
LINE
  5
2D5
330
2
100
AcDbEntity
  8
YKK_13
100
AcDbLine
 10
555.40003346
 20
172.79997088
 30
0.0
 11
555.40003346
 21
137.99997088
 31
0.0
  0
LINE
  5
2D6
330
2
100
AcDbEntity
  8
YKK_13
100
AcDbLine
 10
507.80003346
 20
172.79997088
 30
0.0
 11
507.80003346
 21
137.99997088
 31
0.0
  0
LINE
  5
2D7
330
2
100
AcDbEntity
  8
YKK_13
100
AcDbLine
 10
488.80003346
 20
172.79997088
 30
0.0
 11
488.80003346
 21
137.99997088
 31
0.0
  0
LINE
  5
2D8
330
2
100
AcDbEntity
  8
YKK_13
100
AcDbLine
 10
469.80003346
 20
172.79997088
 30
0.0
 11
469.80003346
 21
137.99997088
 31
0.0
  0
LINE
  5
2D9
330
2
100
AcDbEntity
  8
YKK_13
100
AcDbLine
 10
450.80003346
 20
172.79997088
 30
0.0
 11
450.80003346
 21
137.99997088
 31
0.0
  0
LINE
  5
2DA
330
2
100
AcDbEntity
  8
YKK_13
100
AcDbLine
 10
431.80003346
 20
172.79997088
 30
0.0
 11
431.80003346
 21
137.99997088
 31
0.0
  0
LINE
  5
2DB
330
2
100
AcDbEntity
  8
YKK_13
100
AcDbLine
 10
517.40003346
 20
172.79997088
 30
0.0
 11
517.40003346
 21
137.99997088
 31
0.0
  0
LINE
  5
2DC
330
2
100
AcDbEntity
  8
YKK_13
100
AcDbLine
 10
536.40003346
 20
172.79997088
 30
0.0
 11
536.40003346
 21
137.99997088
 31
0.0
  0
LINE
  5
2DD
330
2
100
AcDbEntity
  8
YKK_D
100
AcDbLine
 10
322.80006093
 20
218.39997088
 30
0.0
 11
347.80004855
 21
218.39997088
 31
0.0
  0
TEXT
  5
2DE
330
2
100
AcDbEntity
  8
YKK_D
100
AcDbText
 10
332.21782124
 20
219.39997088
 30
0.0
 40
6.0
  1
25
 41
0.8
100
AcDbText
  0
LWPOLYLINE
  5
2DF
330
2
100
AcDbEntity
  8
YKK_D
  6
ByBlock
100
AcDbPolyline
 90
        2
 70
     1
 43
0.85
 10
322.90631093
 20
218.39997088
 42
1.0
 10
322.69381093
 20
218.39997088
 42
1.0
  0
LINE
  5
2E0
330
2
100
AcDbEntity
  8
YKK_D
100
AcDbLine
 10
349.80003346
 20
218.39997088
 30
0.0
 11
356.80963098
 21
232.02779904
 31
0.0
  0
LINE
  5
2E1
330
2
100
AcDbEntity
  8
YKK_D
100
AcDbLine
 10
351.80003346
 20
218.39997088
 30
0.0
 11
347.80003346
 21
218.39997088
 31
0.0
  0
LWPOLYLINE
  5
2E2
330
2
100
AcDbEntity
  8
YKK_D
  6
ByBlock
100
AcDbPolyline
 90
        2
 70
     1
 43
0.85
 10
347.90628346
 20
218.39997088
 42
1.0
 10
347.69378346
 20
218.39997088
 42
1.0
  0
LWPOLYLINE
  5
2E3
330
2
100
AcDbEntity
  8
YKK_D
  6
ByBlock
100
AcDbPolyline
 90
        2
 70
     1
 43
0.85
 10
347.69379855
 20
218.39997088
 42
1.0
 10
347.90629855
 20
218.39997088
 42
1.0
  0
LWPOLYLINE
  5
2E4
330
2
100
AcDbEntity
  8
YKK_D
  6
ByBlock
100
AcDbPolyline
 90
        2
 70
     1
 43
0.85
 10
351.90628346
 20
218.39997088
 42
1.0
 10
351.69378346
 20
218.39997088
 42
1.0
  0
LWPOLYLINE
  5
2E5
330
2
100
AcDbEntity
  8
YKK_D
  6
ByBlock
100
AcDbPolyline
 90
        2
 70
     1
 43
0.85
 10
351.69378346
 20
218.39997088
 42
1.0
 10
351.90628346
 20
218.39997088
 42
1.0
  0
LINE
  5
2E6
330
2
100
AcDbEntity
  8
YKK_D
100
AcDbLine
 10
356.80963098
 20
232.02779904
 30
0.0
 11
362.00963098
 21
232.02779904
 31
0.0
  0
TEXT
  5
2E7
330
2
100
AcDbEntity
  8
YKK_D
100
AcDbText
 10
357.86242285
 20
233.02779904
 30
0.0
 40
6.0
  1
4
 41
0.8
100
AcDbText
  0
TEXT
  5
2E8
330
2
100
AcDbEntity
  8
YKK_D
100
AcDbText
 10
501.9086629
 20
219.39997088
 30
0.0
 40
6.0
  1
DW=W+22
 41
0.8
100
AcDbText
  0
LINE
  5
2E9
330
2
100
AcDbEntity
  8
YKK_D
100
AcDbLine
 10
673.80003346
 20
179.39996271
 30
0.0
 11
673.80003346
 21
219.39997088
 31
0.0
  0
LINE
  5
2EA
330
2
100
AcDbEntity
  8
YKK_D
100
AcDbLine
 10
677.80003346
 20
179.39996271
 30
0.0
 11
677.80003346
 21
219.39997088
 31
0.0
  0
LINE
  5
2EB
330
2
100
AcDbEntity
  8
YKK_D
100
AcDbLine
 10
677.80003346
 20
179.39996271
 30
0.0
 11
677.80003346
 21
219.39997088
 31
0.0
  0
LINE
  5
2EC
330
2
100
AcDbEntity
  8
YKK_D
100
AcDbLine
 10
702.8000182
 20
179.39996269
 30
0.0
 11
702.8000182
 21
219.39997088
 31
0.0
  0
LINE
  5
2ED
330
2
100
AcDbEntity
  8
YKK_D
100
AcDbLine
 10
673.80003346
 20
179.39996271
 30
0.0
 11
673.80003346
 21
219.39997088
 31
0.0
  0
LINE
  5
2EE
330
2
100
AcDbEntity
  8
YKK_13
100
AcDbLine
 10
673.80003346
 20
172.39997088
 30
0.0
 11
673.80003346
 21
156.59997088
 31
0.0
  0
LINE
  5
2EF
330
2
100
AcDbEntity
  8
YKK_13
100
AcDbLine
 10
673.20003346
 20
156.19997088
 30
0.0
 11
673.20003346
 21
172.79997088
 31
0.0
  0
LINE
  5
2F0
330
2
100
AcDbEntity
  8
YKK_13
100
AcDbLine
 10
612.40003346
 20
172.79997088
 30
0.0
 11
612.40003346
 21
137.99997088
 31
0.0
  0
LINE
  5
2F1
330
2
100
AcDbEntity
  8
YKK_13
100
AcDbLine
 10
631.40003346
 20
172.79997088
 30
0.0
 11
631.40003346
 21
137.99997088
 31
0.0
  0
LINE
  5
2F2
330
2
100
AcDbEntity
  8
YKK_13
100
AcDbLine
 10
574.40003346
 20
172.79997088
 30
0.0
 11
574.40003346
 21
137.99997088
 31
0.0
  0
LINE
  5
2F3
330
2
100
AcDbEntity
  8
YKK_13
100
AcDbLine
 10
593.40003346
 20
172.79997088
 30
0.0
 11
593.40003346
 21
137.99997088
 31
0.0
  0
LINE
  5
2F4
330
2
100
AcDbEntity
  8
YKK_D
100
AcDbLine
 10
620.40003346
 20
173.39997088
 30
0.0
 11
620.40003346
 21
137.39997088
 31
0.0
  0
LINE
  5
2F5
330
2
100
AcDbEntity
  8
YKK_13
100
AcDbLine
 10
650.40003346
 20
172.79997088
 30
0.0
 11
650.40003346
 21
137.99997088
 31
0.0
  0
INSERT
  5
2F6
330
2
100
AcDbEntity
  8
YKK_11
100
AcDbBlockReference
  2
SK-98114
 10
665.40003347
 20
138.29997087
 30
0.0
 50
90.0
  0
TEXT
  5
2F7
330
2
100
AcDbEntity
  8
YKK_D
100
AcDbText
 10
619.40003346
 20
113.82989723
 30
0.0
 40
6.0
  1
35
 50
90.0
 41
0.8
100
AcDbText
  0
TEXT
  5
2F8
330
2
100
AcDbEntity
  8
YKK_D
100
AcDbText
 10
619.40003346
 20
152.31773738
 30
0.0
 40
6.0
  1
36
 50
90.0
 41
0.8
100
AcDbText
  0
TEXT
  5
2F9
330
2
100
AcDbEntity
  8
YKK_D
100
AcDbText
 10
599.40003346
 20
133.26902167
 30
0.0
 40
6.0
  1
80
 50
90.0
 41
0.8
100
AcDbText
  0
ARC
  5
2FA
330
2
100
AcDbEntity
  8
YKK_13
100
AcDbCircle
 10
672.80003346
 20
138.39997088
 30
0.0
 40
1.0
100
AcDbArc
 50
270.0
 51
0.0
1001
GENIUS_GENOBJ-N-FIL_13
1002
{
1000
OWNER
1000
GEN
1002
}
1001
GENIUS_GENODEF_13
1002
{
1000
HIER
1070
     0
1002
}
1002
{
1000
MANEDIT
1070
     0
1002
}
1002
{
1000
NOSEL
1070
     0
1002
}
1002
{
1000
BEHIND
1070
     0
1002
}
1002
{
1000
OTHER
1070
     0
1002
}
1002
{
1000
REACTOR
1002
}
  0
TEXT
  5
2FB
330
2
100
AcDbEntity
  8
YKK_D
100
AcDbText
 10
631.54253512
 20
125.01261905
 30
0.0
 40
6.0
  1
3
 50
90.0
 41
0.8
100
AcDbText
  0
LINE
  5
2FC
330
2
100
AcDbEntity
  8
YKK_D
100
AcDbLine
 10
632.54253512
 20
129.12327895
 30
0.0
 11
632.54253512
 21
123.92327895
 31
0.0
  0
LINE
  5
2FD
330
2
100
AcDbEntity
  8
YKK_D
100
AcDbLine
 10
640.03842986
 20
134.39989459
 30
0.0
 11
619.40003346
 21
134.39989459
 31
0.0
  0
LINE
  5
2FE
330
2
100
AcDbEntity
  8
YKK_D
100
AcDbLine
 10
640.03842986
 20
134.39989459
 30
0.0
 11
619.40003346
 21
134.39989459
 31
0.0
  0
LINE
  5
2FF
330
2
100
AcDbEntity
  8
YKK_D
100
AcDbLine
 10
640.03842986
 20
137.39980268
 30
0.0
 11
619.40003346
 21
137.39980268
 31
0.0
  0
LINE
  5
300
330
2
100
AcDbEntity
  8
YKK_D
100
AcDbLine
 10
640.03842986
 20
137.39997088
 30
0.0
 11
619.40003346
 21
137.39997088
 31
0.0
  0
LINE
  5
301
330
2
100
AcDbEntity
  8
YKK_D
100
AcDbLine
 10
620.40003346
 20
137.39980268
 30
0.0
 11
620.40003346
 21
134.39989459
 31
0.0
  0
LWPOLYLINE
  5
302
330
2
100
AcDbEntity
  8
YKK_D
  6
ByBlock
100
AcDbPolyline
 90
        2
 70
     1
 43
0.85
 10
620.40003346
 20
134.29364459
 42
1.0
 10
620.40003346
 20
134.50614459
 42
1.0
  0
LWPOLYLINE
  5
303
330
2
100
AcDbEntity
  8
YKK_D
  6
ByBlock
100
AcDbPolyline
 90
        2
 70
     1
 43
0.85
 10
620.40003346
 20
134.50614459
 42
1.0
 10
620.40003346
 20
134.29364459
 42
1.0
  0
LWPOLYLINE
  5
304
330
2
100
AcDbEntity
  8
YKK_D
  6
ByBlock
100
AcDbPolyline
 90
        2
 70
     1
 43
0.85
 10
620.40003346
 20
137.50622088
 42
1.0
 10
620.40003346
 20
137.29372088
 42
1.0
  0
LWPOLYLINE
  5
305
330
2
100
AcDbEntity
  8
YKK_D
  6
ByBlock
100
AcDbPolyline
 90
        2
 70
     1
 43
0.85
 10
620.40003346
 20
137.29355268
 42
1.0
 10
620.40003346
 20
137.50605268
 42
1.0
  0
LINE
  5
306
330
2
100
AcDbEntity
  8
YKK_D
100
AcDbLine
 10
620.40003346
 20
135.89984864
 30
0.0
 11
632.54253512
 21
129.12327895
 31
0.0
  0
LINE
  5
307
330
2
100
AcDbEntity
  8
YKK_13
  6
Continuous
100
AcDbLine
 10
675.90006245
 20
124.39994036
 30
0.0
 11
677.64426683
 21
126.47860255
 31
0.0
  0
LINE
  5
308
330
2
100
AcDbEntity
  8
YKK_13
  6
Continuous
100
AcDbLine
 10
674.40005024
 20
125.89993731
 30
0.0
 11
674.40005024
 21
129.59989459
 31
0.0
  0
LINE
  5
309
330
2
100
AcDbEntity
  8
YKK_13
  6
Continuous
100
AcDbLine
 10
667.90004719
 20
124.39994036
 30
0.0
 11
666.15584281
 21
126.47860255
 31
0.0
  0
LINE
  5
30A
330
2
100
AcDbEntity
  8
YKK_13
  6
Continuous
100
AcDbLine
 10
669.4000594
 20
125.89993731
 30
0.0
 11
669.4000594
 21
129.59989459
 31
0.0
  0
LINE
  5
30B
330
2
100
AcDbEntity
  8
YKK_13
  6
Continuous
100
AcDbLine
 10
669.4000594
 20
125.89993731
 30
0.0
 11
674.40005024
 21
125.89993731
 31
0.0
  0
LINE
  5
30C
330
2
100
AcDbEntity
  8
YKK_13
  6
Continuous
100
AcDbLine
 10
675.90006245
 20
124.39994036
 30
0.0
 11
667.90006245
 21
124.39994036
 31
0.0
  0
LINE
  5
30D
330
2
100
AcDbEntity
  8
YKK_13
  6
Continuous
100
AcDbLine
 10
672.8933529
 20
136.72341745
 30
0.0
 11
673.09335291
 21
136.72341745
 31
0.0
  0
LINE
  5
30E
330
2
100
AcDbEntity
  8
YKK_13
  6
Continuous
100
AcDbLine
 10
672.50015962
 20
137.00937619
 30
0.0
 11
672.70015963
 21
137.00937619
 31
0.0
  0
LINE
  5
30F
330
2
100
AcDbEntity
  8
YKK_13
  6
Continuous
100
AcDbLine
 10
672.21420088
 20
136.66980018
 30
0.0
 11
672.41420088
 21
136.66980018
 31
0.0
  0
LINE
  5
310
330
2
100
AcDbEntity
  8
YKK_13
  6
Continuous
100
AcDbLine
 10
671.76739033
 20
137.08086588
 30
0.0
 11
671.96739034
 21
137.08086588
 31
0.0
  0
LINE
  5
311
330
2
100
AcDbEntity
  8
YKK_13
  6
Continuous
100
AcDbLine
 10
677.03123013
 20
134.2051343
 30
0.0
 11
677.23123014
 21
134.2051343
 31
0.0
  0
LINE
  5
312
330
2
100
AcDbEntity
  8
YKK_13
  6
Continuous
100
AcDbLine
 10
677.06701617
 20
133.66834375
 30
0.0
 11
677.26701617
 21
133.66834375
 31
0.0
  0
LINE
  5
313
330
2
100
AcDbEntity
  8
YKK_13
  6
Continuous
100
AcDbLine
 10
676.86422863
 20
133.5251996
 30
0.0
 11
677.06422863
 21
133.5251996
 31
0.0
  0
LINE
  5
314
330
2
100
AcDbEntity
  8
YKK_13
  6
Continuous
100
AcDbLine
 10
676.73301316
 20
134.34827845
 30
0.0
 11
676.93301316
 21
134.34827845
 31
0.0
  0
LINE
  5
315
330
2
100
AcDbEntity
  8
YKK_13
  6
Continuous
100
AcDbLine
 10
676.10079318
 20
136.0182935
 30
0.0
 11
676.30079318
 21
136.0182935
 31
0.0
  0
LINE
  5
316
330
2
100
AcDbEntity
  8
YKK_13
  6
Continuous
100
AcDbLine
 10
676.50636826
 20
135.48150295
 30
0.0
 11
676.70636826
 21
135.48150295
 31
0.0
  0
LINE
  5
317
330
2
100
AcDbEntity
  8
YKK_13
  6
Continuous
100
AcDbLine
 10
676.29165204
 20
135.09978522
 30
0.0
 11
676.49165204
 21
135.09978522
 31
0.0
  0
LINE
  5
318
330
2
100
AcDbEntity
  8
YKK_13
  6
Continuous
100
AcDbLine
 10
676.7091558
 20
134.76578221
 30
0.0
 11
676.90915581
 21
134.76578221
 31
0.0
  0
LINE
  5
319
330
2
100
AcDbEntity
  8
YKK_13
  6
Continuous
100
AcDbLine
 10
673.91208094
 20
136.92001408
 30
0.0
 11
674.11208094
 21
136.92001408
 31
0.0
  0
LINE
  5
31A
330
2
100
AcDbEntity
  8
YKK_13
  6
Continuous
100
AcDbLine
 10
675.62783342
 20
136.70554502
 30
0.0
 11
675.82783343
 21
136.70554502
 31
0.0
  0
LINE
  5
31B
330
2
100
AcDbEntity
  8
YKK_13
  6
Continuous
100
AcDbLine
 10
674.82357445
 20
136.99150377
 30
0.0
 11
675.02357445
 21
136.99150377
 31
0.0
  0
LINE
  5
31C
330
2
100
AcDbEntity
  8
YKK_13
  6
Continuous
100
AcDbLine
 10
673.98357063
 20
136.52682081
 30
0.0
 11
674.18357063
 21
136.52682081
 31
0.0
  0
LINE
  5
31D
330
2
100
AcDbEntity
  8
YKK_13
  6
Continuous
100
AcDbLine
 10
673.32229102
 20
136.86639682
 30
0.0
 11
673.52229103
 21
136.86639682
 31
0.0
  0
LINE
  5
31E
330
2
100
AcDbEntity
  8
YKK_13
  6
Continuous
100
AcDbLine
 10
675.50435923
 20
137.36623422
 30
0.0
 11
675.70435923
 21
137.36623422
 31
0.0
  0
LINE
  5
31F
330
2
100
AcDbEntity
  8
YKK_13
  6
Continuous
100
AcDbLine
 10
675.81450488
 20
136.60279877
 30
0.0
 11
676.01450489
 21
136.60279877
 31
0.0
  0
LINE
  5
320
330
2
100
AcDbEntity
  8
YKK_13
  6
Continuous
100
AcDbLine
 10
675.69521809
 20
136.25686708
 30
0.0
 11
675.8952181
 21
136.25686708
 31
0.0
  0
LINE
  5
321
330
2
100
AcDbEntity
  8
YKK_13
  6
Continuous
100
AcDbLine
 10
676.23200865
 20
136.49544066
 30
0.0
 11
676.43200865
 21
136.49544066
 31
0.0
  0
LINE
  5
322
330
2
100
AcDbEntity
  8
YKK_13
  6
Continuous
100
AcDbLine
 10
675.93379167
 20
137.10380328
 30
0.0
 11
676.13379167
 21
137.10380328
 31
0.0
  0
LINE
  5
323
330
2
100
AcDbEntity
  8
YKK_13
  6
Continuous
100
AcDbLine
 10
666.98728247
 20
133.62062903
 30
0.0
 11
667.18728247
 21
133.62062903
 31
0.0
  0
LINE
  5
324
330
2
100
AcDbEntity
  8
YKK_13
  6
Continuous
100
AcDbLine
 10
667.02306851
 20
134.21706298
 30
0.0
 11
667.22306851
 21
134.21706298
 31
0.0
  0
LINE
  5
325
330
2
100
AcDbEntity
  8
YKK_13
  6
Continuous
100
AcDbLine
 10
666.82028096
 20
134.40792184
 30
0.0
 11
667.02028097
 21
134.40792184
 31
0.0
  0
LINE
  5
326
330
2
100
AcDbEntity
  8
YKK_13
  6
Continuous
100
AcDbLine
 10
666.80835229
 20
133.64448639
 30
0.0
 11
667.00835229
 21
133.64448639
 31
0.0
  0
LINE
  5
327
330
2
100
AcDbEntity
  8
YKK_13
  6
Continuous
100
AcDbLine
 10
666.95149643
 20
134.80156825
 30
0.0
 11
667.15149644
 21
134.80156825
 31
0.0
  0
LINE
  5
328
330
2
100
AcDbEntity
  8
YKK_13
  6
Continuous
100
AcDbLine
 10
667.35707152
 20
135.17135729
 30
0.0
 11
667.55707152
 21
135.17135729
 31
0.0
  0
LINE
  5
329
330
2
100
AcDbEntity
  8
YKK_13
  6
Continuous
100
AcDbLine
 10
667.22585605
 20
134.67035278
 30
0.0
 11
667.42585605
 21
134.67035278
 31
0.0
  0
LINE
  5
32A
330
2
100
AcDbEntity
  8
YKK_13
  6
Continuous
100
AcDbLine
 10
667.39285755
 20
135.40993087
 30
0.0
 11
667.59285756
 21
135.40993087
 31
0.0
  0
LINE
  5
32B
330
2
100
AcDbEntity
  8
YKK_13
  6
Continuous
100
AcDbLine
 10
667.33321416
 20
135.87514935
 30
0.0
 11
667.53321416
 21
135.87514935
 31
0.0
  0
LINE
  5
32C
330
2
100
AcDbEntity
  8
YKK_13
  6
Continuous
100
AcDbLine
 10
667.11849794
 20
135.39800219
 30
0.0
 11
667.31849794
 21
135.39800219
 31
0.0
  0
LINE
  5
32D
330
2
100
AcDbEntity
  8
YKK_13
  6
Continuous
100
AcDbLine
 10
671.42781432
 20
136.66980018
 30
0.0
 11
671.62781433
 21
136.66980018
 31
0.0
  0
LINE
  5
32E
330
2
100
AcDbEntity
  8
YKK_13
  6
Continuous
100
AcDbLine
 10
670.14099996
 20
136.81277955
 30
0.0
 11
670.34099996
 21
136.81277955
 31
0.0
  0
LINE
  5
32F
330
2
100
AcDbEntity
  8
YKK_13
  6
Continuous
100
AcDbLine
 10
670.49844839
 20
137.04512104
 30
0.0
 11
670.6984484
 21
137.04512104
 31
0.0
  0
LINE
  5
330
330
2
100
AcDbEntity
  8
YKK_13
  6
Continuous
100
AcDbLine
 10
670.76653472
 20
136.90214166
 30
0.0
 11
670.96653472
 21
136.90214166
 31
0.0
  0
LINE
  5
331
330
2
100
AcDbEntity
  8
YKK_13
  6
Continuous
100
AcDbLine
 10
669.42610309
 20
137.0987383
 30
0.0
 11
669.62610309
 21
137.0987383
 31
0.0
  0
LINE
  5
332
330
2
100
AcDbEntity
  8
YKK_13
  6
Continuous
100
AcDbLine
 10
669.69418942
 20
136.83065198
 30
0.0
 11
669.89418942
 21
136.83065198
 31
0.0
  0
LINE
  5
333
330
2
100
AcDbEntity
  8
YKK_13
  6
Continuous
100
AcDbLine
 10
668.6933338
 20
136.90214166
 30
0.0
 11
668.8933338
 21
136.90214166
 31
0.0
  0
LINE
  5
334
330
2
100
AcDbEntity
  8
YKK_13
  6
Continuous
100
AcDbLine
 10
668.97929255
 20
136.61618292
 30
0.0
 11
669.17929255
 21
136.61618292
 31
0.0
  0
LINE
  5
335
330
2
100
AcDbEntity
  8
YKK_13
  6
Continuous
100
AcDbLine
 10
668.01314886
 20
136.6982282
 30
0.0
 11
668.21314886
 21
136.6982282
 31
0.0
  0
LINE
  5
336
330
2
100
AcDbEntity
  8
YKK_13
  6
Continuous
100
AcDbLine
 10
667.66721717
 20
136.61472745
 30
0.0
 11
667.86721717
 21
136.61472745
 31
0.0
  0
LINE
  5
337
330
2
100
AcDbEntity
  8
YKK_13
  6
Continuous
100
AcDbLine
 10
667.85807603
 20
136.31651047
 30
0.0
 11
668.05807603
 21
136.31651047
 31
0.0
  0
LINE
  5
338
330
2
100
AcDbEntity
  8
YKK_13
  6
Continuous
100
AcDbLine
 10
667.91771943
 20
137.24694743
 30
0.0
 11
668.11771943
 21
137.24694743
 31
0.0
  0
LINE
  5
339
330
2
100
AcDbEntity
  8
YKK_13
  6
Continuous
100
AcDbLine
 10
668.38075272
 20
136.39980706
 30
0.0
 11
675.41939133
 21
136.39980613
 31
0.0
  0
LINE
  5
33A
330
2
100
AcDbEntity
  8
YKK_13
  6
Continuous
100
AcDbLine
 10
676.14279925
 20
137.39980604
 30
0.0
 11
667.65732738
 21
137.39980715
 31
0.0
  0
LINE
  5
33B
330
2
100
AcDbEntity
  8
YKK_13
  6
Continuous
100
AcDbLine
 10
675.90006245
 20
131.09991096
 30
0.0
 11
671.90006245
 21
131.09992205
 31
0.0
  0
LINE
  5
33C
330
2
100
AcDbEntity
  8
YKK_13
  6
Continuous
100
AcDbLine
 10
675.90004719
 20
129.61907993
 30
0.0
 11
677.24763801
 21
130.52074149
 31
0.0
  0
ARC
  5
33D
330
2
100
AcDbEntity
  8
YKK_13
  6
Continuous
100
AcDbCircle
 10
677.41447658
 20
130.27141616
 30
0.0
 40
0.299999952316284
100
AcDbArc
 50
319.99756266
 51
123.78886001
  0
ARC
  5
33E
330
2
100
AcDbEntity
  8
YKK_13
  6
Continuous
100
AcDbCircle
 10
677.4144775
 20
126.67143536
 30
0.0
 40
0.299999952316284
100
AcDbArc
 50
319.99756266
 51
123.78886001
  0
LINE
  5
33F
330
2
100
AcDbEntity
  8
YKK_13
  6
Continuous
100
AcDbLine
 10
675.90004719
 20
127.99991595
 30
0.0
 11
677.64426591
 21
130.07858336
 31
0.0
  0
LINE
  5
340
330
2
100
AcDbEntity
  8
YKK_13
  6
Continuous
100
AcDbLine
 10
675.90004719
 20
129.61907993
 30
0.0
 11
675.90006245
 21
131.09991096
 31
0.0
  0
ARC
  5
341
330
2
100
AcDbEntity
  8
YKK_13
  6
Continuous
100
AcDbCircle
 10
671.90006285
 20
133.89992205
 30
0.0
 40
4.299999999999998
100
AcDbArc
 50
319.37051226
 51
326.24990353
  0
LINE
  5
342
330
2
100
AcDbEntity
  8
YKK_13
  6
Continuous
100
AcDbLine
 10
676.45865355
 20
133.02419509
 30
0.0
 11
676.65865355
 21
133.02419509
 31
0.0
  0
LINE
  5
343
330
2
100
AcDbEntity
  8
YKK_13
  6
Continuous
100
AcDbLine
 10
677.01930146
 20
132.91683698
 30
0.0
 11
677.21930146
 21
132.91683698
 31
0.0
  0
LINE
  5
344
330
2
100
AcDbEntity
  8
YKK_13
  6
Continuous
100
AcDbLine
 10
676.66187212
 20
132.5030383
 30
0.0
 11
676.86187212
 21
132.5030383
 31
0.0
  0
LINE
  5
345
330
2
100
AcDbEntity
  8
YKK_13
  6
Continuous
100
AcDbLine
 10
676.12230102
 20
131.76406049
 30
0.0
 11
676.32230103
 21
131.76406049
 31
0.0
  0
LINE
  5
346
330
2
100
AcDbEntity
  8
YKK_13
  6
Continuous
100
AcDbLine
 10
676.18095006
 20
131.06027211
 30
0.0
 11
676.38095006
 21
131.06027211
 31
0.0
  0
LINE
  5
347
330
2
100
AcDbEntity
  8
YKK_13
  6
Continuous
100
AcDbLine
 10
676.60322309
 20
131.94000759
 30
0.0
 11
676.80322309
 21
131.94000759
 31
0.0
  0
LINE
  5
348
330
2
100
AcDbEntity
  8
YKK_13
  6
Continuous
100
AcDbLine
 10
675.82905586
 20
131.43562592
 30
0.0
 11
676.02905587
 21
131.43562592
 31
0.0
  0
LINE
  5
349
330
2
100
AcDbEntity
  8
YKK_13
  6
Continuous
100
AcDbLine
 10
675.90005855
 20
126.01910287
 30
0.0
 11
675.9000255
 21
127.99990343
 31
0.0
  0
LINE
  5
34A
330
2
100
AcDbEntity
  8
YKK_13
  6
Continuous
100
AcDbLine
 10
675.90005855
 20
126.01910287
 30
0.0
 11
677.24763893
 21
126.92076068
 31
0.0
  0
LINE
  5
34B
330
2
100
AcDbEntity
  8
YKK_13
  6
Continuous
100
AcDbLine
 10
667.90006245
 20
129.61907993
 30
0.0
 11
667.90006245
 21
131.09992899
 31
0.0
  0
LINE
  5
34C
330
2
100
AcDbEntity
  8
YKK_13
  6
Continuous
100
AcDbLine
 10
667.90006245
 20
129.61907993
 30
0.0
 11
666.55247163
 21
130.52074149
 31
0.0
  0
ARC
  5
34D
330
2
100
AcDbEntity
  8
YKK_13
  6
Continuous
100
AcDbCircle
 10
666.38563306
 20
130.27141616
 30
0.0
 40
0.299999952316284
100
AcDbArc
 50
56.21113999
 51
220.00243734
  0
ARC
  5
34E
330
2
100
AcDbEntity
  8
YKK_13
  6
Continuous
100
AcDbCircle
 10
671.90006285
 20
133.89992205
 30
0.0
 40
4.299999999999998
100
AcDbArc
 50
213.74990353
 51
220.62927877
  0
LINE
  5
34F
330
2
100
AcDbEntity
  8
YKK_13
  6
Continuous
100
AcDbLine
 10
667.38092887
 20
133.09576716
 30
0.0
 11
667.58092888
 21
133.09576716
 31
0.0
  0
LINE
  5
350
330
2
100
AcDbEntity
  8
YKK_13
  6
Continuous
100
AcDbLine
 10
666.61749342
 20
133.01226641
 30
0.0
 11
666.81749343
 21
133.01226641
 31
0.0
  0
LINE
  5
351
330
2
100
AcDbEntity
  8
YKK_13
  6
Continuous
100
AcDbLine
 10
667.15428397
 20
132.92876565
 30
0.0
 11
667.35428398
 21
132.92876565
 31
0.0
  0
ARC
  5
352
330
2
100
AcDbEntity
  8
YKK_13
  6
Continuous
100
AcDbCircle
 10
666.38563214
 20
126.67143536
 30
0.0
 40
0.299999952316284
100
AcDbArc
 50
56.21113999
 51
220.00243734
  0
LINE
  5
353
330
2
100
AcDbEntity
  8
YKK_13
  6
Continuous
100
AcDbLine
 10
667.90006245
 20
127.99991595
 30
0.0
 11
666.15584373
 21
130.07858336
 31
0.0
  0
LINE
  5
354
330
2
100
AcDbEntity
  8
YKK_13
  6
Continuous
100
AcDbLine
 10
667.14899915
 20
132.59687675
 30
0.0
 11
667.34899915
 21
132.59687675
 31
0.0
  0
LINE
  5
355
330
2
100
AcDbEntity
  8
YKK_13
  6
Continuous
100
AcDbLine
 10
667.25456741
 20
131.78752011
 30
0.0
 11
667.45456741
 21
131.78752011
 31
0.0
  0
LINE
  5
356
330
2
100
AcDbEntity
  8
YKK_13
  6
Continuous
100
AcDbLine
 10
667.19591838
 20
132.17460372
 30
0.0
 11
667.39591838
 21
132.17460372
 31
0.0
  0
LINE
  5
357
330
2
100
AcDbEntity
  8
YKK_13
  6
Continuous
100
AcDbLine
 10
667.58300199
 20
131.16584037
 30
0.0
 11
667.78300199
 21
131.16584037
 31
0.0
  0
LINE
  5
358
330
2
100
AcDbEntity
  8
YKK_13
  6
Continuous
100
AcDbLine
 10
667.90005109
 20
126.01910287
 30
0.0
 11
667.90008414
 21
127.99990343
 31
0.0
  0
LINE
  5
359
330
2
100
AcDbEntity
  8
YKK_13
  6
Continuous
100
AcDbLine
 10
667.90005109
 20
126.01910287
 30
0.0
 11
666.55247071
 21
126.92076068
 31
0.0
  0
LINE
  5
35A
330
2
100
AcDbEntity
  8
YKK_13
  6
Continuous
100
AcDbLine
 10
669.4000594
 20
129.59989459
 30
0.0
 11
674.40005024
 21
129.59989459
 31
0.0
  0
LINE
  5
35B
330
2
100
AcDbEntity
  8
YKK_13
  6
Continuous
100
AcDbLine
 10
667.90006245
 20
131.09992899
 30
0.0
 11
671.90006245
 21
131.0999068
 31
0.0
  0
SPLINE
  5
35C
330
2
100
AcDbEntity
  8
YKK_13
  6
Continuous
100
AcDbSpline
210
0.0
220
0.0
230
1.0
 70
  1064
 71
     3
 72
    14
 73
    10
 74
     8
 42
0.000000001
 43
0.0000000001
 44
0.0000000001
 40
0.0
 40
0.0
 40
0.0
 40
0.0
 40
0.9678114310658621
 40
1.935622862131715
 40
2.903434293197227
 40
3.871245724262752
 40
4.839057155328353
 40
5.806868586394052
 40
5.931137194446159
 40
5.931137194446159
 40
5.931137194446159
 40
5.931137194446159
 10
675.4753781618484
 20
131.5109640322363
 30
0.0
 10
675.8329479733901
 20
131.6723057307844
 30
0.0
 10
676.5480875964735
 20
131.9949891278807
 30
0.0
 10
675.7860332068026
 20
133.1168951209303
 30
0.0
 10
677.0124084442804
 20
133.9035897991569
 30
0.0
 10
675.7647101246973
 20
134.6682305253952
 30
0.0
 10
676.6333968750282
 20
135.8563081260401
 30
0.0
 10
675.5848778152012
 20
136.0275664864306
 30
0.0
 10
675.4362983059926
 20
136.3617761613163
 30
0.0
 10
675.4193913320226
 20
136.3998061312891
 30
0.0
 11
675.4753781618484
 21
131.5109640322363
 31
0.0
 11
676.2422936257575
 21
132.1013026107816
 31
0.0
 11
676.1174381446607
 21
133.0610265684599
 31
0.0
 11
676.6000628514369
 21
133.8999141404922
 31
0.0
 11
676.1174409696831
 21
134.7388033377963
 31
0.0
 11
676.2422996827241
 21
135.6985268750084
 31
0.0
 11
675.4753862068309
 21
136.2888680361981
 31
0.0
 11
675.4193913320226
 21
136.3998061312891
 31
0.0
  0
ARC
  5
35D
330
2
100
AcDbEntity
  8
YKK_13
  6
Continuous
100
AcDbCircle
 10
671.90006285
 20
133.89992205
 30
0.0
 40
5.5
100
AcDbArc
 50
316.65823569
 51
39.51962958
  0
SPLINE
  5
35E
330
2
100
AcDbEntity
  8
YKK_13
  6
Continuous
100
AcDbSpline
210
0.0
220
0.0
230
1.0
 70
  1064
 71
     3
 72
    14
 73
    10
 74
     8
 42
0.000000001
 43
0.0000000001
 44
0.0000000001
 40
0.0
 40
0.0
 40
0.0
 40
0.0
 40
0.1242633271988651
 40
1.092074758264297
 40
2.059886189329952
 40
3.027697620395725
 40
3.995509051461478
 40
4.963320482527164
 40
5.931131913592717
 40
5.931131913592717
 40
5.931131913592717
 40
5.931131913592717
 10
668.3807527159155
 20
136.3998070562825
 30
0.0
 10
668.3638419004692
 20
136.3617810026575
 30
0.0
 10
668.2152230351396
 20
136.0275931593379
 30
0.0
 10
667.1667478585354
 20
135.8563178284742
 30
0.0
 10
668.0354148317119
 20
134.6682452111645
 30
0.0
 10
666.7877181639799
 20
133.9036065677178
 30
0.0
 10
668.0140896210714
 20
133.1169083266199
 30
0.0
 10
667.2520317509636
 20
131.9950047506338
 30
0.0
 10
667.9671702476922
 20
131.6723189651468
 30
0.0
 10
668.3247394960566
 20
131.5109760724033
 30
0.0
 11
668.3807527159155
 21
136.3998070562825
 31
0.0
 11
668.324747541039
 21
136.2888800763651
 31
0.0
 11
667.5578320771304
 21
135.6985414978199
 31
0.0
 11
667.682687558227
 21
134.7388175401417
 31
0.0
 11
667.2000628514505
 21
133.8999299681093
 31
0.0
 11
667.6826847332048
 21
133.0610407708052
 31
0.0
 11
667.5578260201636
 21
132.101317233593
 31
0.0
 11
668.3247394960566
 21
131.5109760724033
 31
0.0
  0
ARC
  5
35F
330
2
100
AcDbEntity
  8
YKK_13
  6
Continuous
100
AcDbCircle
 10
671.90006285
 20
133.89992205
 30
0.0
 40
5.5
100
AcDbArc
 50
140.48035536
 51
223.34175214
  0
LINE
  5
360
330
2
100
AcDbEntity
  8
YKK_13
100
AcDbLine
 10
673.80003346
 20
138.39997088
 30
0.0
 11
673.80003346
 21
154.19997088
 31
0.0
  0
LINE
  5
361
330
2
100
AcDbEntity
  8
YKK_13
100
AcDbLine
 10
673.20003346
 20
154.59997088
 30
0.0
 11
673.20003346
 21
137.99997088
 31
0.0
  0
LINE
  5
362
330
2
100
AcDbEntity
  8
YKK_13
100
AcDbLine
 10
665.80003346
 20
154.59997088
 30
0.0
 11
673.20003346
 21
154.59997088
 31
0.0
  0
LINE
  5
363
330
2
100
AcDbEntity
  8
YKK_13
100
AcDbLine
 10
665.80003346
 20
156.19997088
 30
0.0
 11
673.20003346
 21
156.19997088
 31
0.0
  0
LINE
  5
364
330
2
100
AcDbEntity
  8
YKK_13
100
AcDbLine
 10
672.80003346
 20
155.19997088
 30
0.0
 11
665.80003346
 21
155.19997088
 31
0.0
  0
LINE
  5
365
330
2
100
AcDbEntity
  8
YKK_13
100
AcDbLine
 10
672.80003346
 20
155.59997088
 30
0.0
 11
665.80003346
 21
155.59997088
 31
0.0
  0
LINE
  5
366
330
2
100
AcDbEntity
  8
YKK_13
100
AcDbLine
 10
665.80003346
 20
155.19997088
 30
0.0
 11
665.80003346
 21
154.59997088
 31
0.0
  0
LINE
  5
367
330
2
100
AcDbEntity
  8
YKK_13
100
AcDbLine
 10
665.80003346
 20
155.59997088
 30
0.0
 11
665.80003346
 21
156.19997088
 31
0.0
  0
ARC
  5
368
330
2
100
AcDbEntity
  8
YKK_13
100
AcDbCircle
 10
672.80003346
 20
154.19997088
 30
0.0
 40
1.0
100
AcDbArc
 50
0.0
 51
90.0
1001
GENIUS_GENOBJ-N-FIL_13
1002
{
1000
OWNER
1000
GEN
1002
}
1001
GENIUS_GENODEF_13
1002
{
1000
HIER
1070
     0
1002
}
1002
{
1000
MANEDIT
1070
     0
1002
}
1002
{
1000
NOSEL
1070
     0
1002
}
1002
{
1000
BEHIND
1070
     0
1002
}
1002
{
1000
OTHER
1070
     0
1002
}
1002
{
1000
REACTOR
1002
}
  0
ARC
  5
369
330
2
100
AcDbEntity
  8
YKK_13
100
AcDbCircle
 10
672.80003346
 20
156.59997088
 30
0.0
 40
1.0
100
AcDbArc
 50
270.0
 51
0.0
1001
GENIUS_GENOBJ-N-FIL_13
1002
{
1000
OWNER
1000
GEN
1002
}
1001
GENIUS_GENODEF_13
1002
{
1000
HIER
1070
     0
1002
}
1002
{
1000
MANEDIT
1070
     0
1002
}
1002
{
1000
NOSEL
1070
     0
1002
}
1002
{
1000
BEHIND
1070
     0
1002
}
1002
{
1000
OTHER
1070
     0
1002
}
1002
{
1000
REACTOR
1002
}
  0
TEXT
  5
36A
330
2
100
AcDbEntity
  8
YKK_D
100
AcDbText
 10
619.40003346
 20
180.88953987
 30
0.0
 40
6.0
  1
3
 50
90.0
 41
0.8
100
AcDbText
  0
LINE
  5
36B
330
2
100
AcDbEntity
  8
YKK_D
100
AcDbLine
 10
640.03842986
 20
176.39997088
 30
0.0
 11
599.40003346
 21
176.39997088
 31
0.0
  0
LWPOLYLINE
  5
36C
330
2
100
AcDbEntity
  8
YKK_D
  6
ByBlock
100
AcDbPolyline
 90
        2
 70
     1
 43
0.85
 10
600.40003346
 20
176.29372088
 42
1.0
 10
600.40003346
 20
176.50622088
 42
1.0
  0
LWPOLYLINE
  5
36D
330
2
100
AcDbEntity
  8
YKK_D
  6
ByBlock
100
AcDbPolyline
 90
        2
 70
     1
 43
0.85
 10
620.40003346
 20
173.29372088
 42
1.0
 10
620.40003346
 20
173.50622088
 42
1.0
  0
LWPOLYLINE
  5
36E
330
2
100
AcDbEntity
  8
YKK_D
  6
ByBlock
100
AcDbPolyline
 90
        2
 70
     1
 43
0.85
 10
620.40003346
 20
173.50622088
 42
1.0
 10
620.40003346
 20
173.29372088
 42
1.0
  0
LINE
  5
36F
330
2
100
AcDbEntity
  8
YKK_D
100
AcDbLine
 10
620.40003346
 20
173.39997088
 30
0.0
 11
620.40003346
 21
176.40019977
 31
0.0
  0
LINE
  5
370
330
2
100
AcDbEntity
  8
YKK_D
100
AcDbLine
 10
640.03842986
 20
173.39997088
 30
0.0
 11
619.40003346
 21
173.39997088
 31
0.0
  0
LINE
  5
371
330
2
100
AcDbEntity
  8
YKK_D
100
AcDbLine
 10
640.03842986
 20
173.39997088
 30
0.0
 11
619.40003346
 21
173.39997088
 31
0.0
  0
LINE
  5
372
330
2
100
AcDbEntity
  8
YKK_D
100
AcDbLine
 10
640.03842986
 20
176.40019977
 30
0.0
 11
619.40003346
 21
176.40019977
 31
0.0
  0
LWPOLYLINE
  5
373
330
2
100
AcDbEntity
  8
YKK_D
  6
ByBlock
100
AcDbPolyline
 90
        2
 70
     1
 43
0.85
 10
620.40003346
 20
176.29394977
 42
1.0
 10
620.40003346
 20
176.50644977
 42
1.0
  0
LINE
  5
374
330
2
100
AcDbEntity
  8
YKK_D
100
AcDbLine
 10
620.40003346
 20
176.40019977
 30
0.0
 11
620.40003346
 21
185.00019977
 31
0.0
  0
ARC
  5
375
330
2
100
AcDbEntity
  8
YKK_13
100
AcDbCircle
 10
672.80003346
 20
172.39997088
 30
0.0
 40
1.0
100
AcDbArc
 50
0.0
 51
90.0
1001
GENIUS_GENOBJ-N-FIL_13
1002
{
1000
OWNER
1000
GEN
1002
}
1001
GENIUS_GENODEF_13
1002
{
1000
HIER
1070
     0
1002
}
1002
{
1000
MANEDIT
1070
     0
1002
}
1002
{
1000
NOSEL
1070
     0
1002
}
1002
{
1000
BEHIND
1070
     0
1002
}
1002
{
1000
OTHER
1070
     0
1002
}
1002
{
1000
REACTOR
1002
}
  0
LINE
  5
376
330
2
100
AcDbEntity
  8
YKK_12
100
AcDbLine
 10
672.80003346
 20
173.39997088
 30
0.0
 11
677.80003346
 21
173.39997088
 31
0.0
  0
LINE
  5
377
330
2
100
AcDbEntity
  8
YKK_D
100
AcDbLine
 10
722.80000294
 20
158.39995562
 30
0.0
 11
722.80000294
 21
176.39995372
 31
0.0
  0
LINE
  5
378
330
2
100
AcDbEntity
  8
YKK_D
100
AcDbLine
 10
705.80000294
 20
158.39995562
 30
0.0
 11
723.80000294
 21
158.39995562
 31
0.0
  0
LWPOLYLINE
  5
379
330
2
100
AcDbEntity
  8
YKK_D
  6
ByBlock
100
AcDbPolyline
 90
        2
 70
     1
 43
0.85
 10
722.80000294
 20
158.50620562
 42
1.0
 10
722.80000294
 20
158.29370562
 42
1.0
  0
LINE
  5
37A
330
2
100
AcDbEntity
  8
YKK_D
100
AcDbLine
 10
705.80000294
 20
176.39995372
 30
0.0
 11
723.80000294
 21
176.39995372
 31
0.0
  0
LINE
  5
37B
330
2
100
AcDbEntity
  8
YKK_13
  6
YHIDDEN_1
100
AcDbLine
 10
701.2000121
 20
165.53410669
 30
0.0
 11
698.9000121
 21
165.53410669
 31
0.0
  0
TEXT
  5
37C
330
2
100
AcDbEntity
  8
YKK_D
100
AcDbText
 10
721.80000294
 20
164.13498005
 30
0.0
 40
6.0
  1
18
 50
90.0
 41
0.8
100
AcDbText
  0
LWPOLYLINE
  5
37D
330
2
100
AcDbEntity
  8
YKK_D
  6
ByBlock
100
AcDbPolyline
 90
        2
 70
     1
 43
0.85
 10
722.80000294
 20
176.29370372
 42
1.0
 10
722.80000294
 20
176.50620372
 42
1.0
  0
LINE
  5
37E
330
2
100
AcDbEntity
  8
YKK_D
100
AcDbLine
 10
702.8000182
 20
218.39997088
 30
0.0
 11
677.80003346
 21
218.39997088
 31
0.0
  0
TEXT
  5
37F
330
2
100
AcDbEntity
  8
YKK_D
100
AcDbText
 10
664.80970537
 20
229.82205262
 30
0.0
 40
6.0
  1
4
 41
0.8
100
AcDbText
  0
LINE
  5
380
330
2
100
AcDbEntity
  8
YKK_D
100
AcDbLine
 10
675.80003346
 20
218.39997088
 30
0.0
 11
668.95691349
 21
228.82205262
 31
0.0
  0
LWPOLYLINE
  5
381
330
2
100
AcDbEntity
  8
YKK_D
  6
ByBlock
100
AcDbPolyline
 90
        2
 70
     1
 43
0.85
 10
677.90628346
 20
218.39997088
 42
1.0
 10
677.69378346
 20
218.39997088
 42
1.0
  0
LWPOLYLINE
  5
382
330
2
100
AcDbEntity
  8
YKK_D
  6
ByBlock
100
AcDbPolyline
 90
        2
 70
     1
 43
0.85
 10
677.69378346
 20
218.39997088
 42
1.0
 10
677.90628346
 20
218.39997088
 42
1.0
  0
LWPOLYLINE
  5
383
330
2
100
AcDbEntity
  8
YKK_D
  6
ByBlock
100
AcDbPolyline
 90
        2
 70
     1
 43
0.85
 10
673.69378346
 20
218.39997088
 42
1.0
 10
673.90628346
 20
218.39997088
 42
1.0
  0
LWPOLYLINE
  5
384
330
2
100
AcDbEntity
  8
YKK_D
  6
ByBlock
100
AcDbPolyline
 90
        2
 70
     1
 43
0.85
 10
673.90628346
 20
218.39997088
 42
1.0
 10
673.69378346
 20
218.39997088
 42
1.0
  0
LINE
  5
385
330
2
100
AcDbEntity
  8
YKK_D
100
AcDbLine
 10
677.80003346
 20
218.39997088
 30
0.0
 11
673.80003346
 21
218.39997088
 31
0.0
  0
LINE
  5
386
330
2
100
AcDbEntity
  8
YKK_D
100
AcDbLine
 10
668.95691349
 20
228.82205262
 30
0.0
 11
663.75691349
 21
228.82205262
 31
0.0
  0
TEXT
  5
387
330
2
100
AcDbEntity
  8
YKK_D
100
AcDbText
 10
687.21779233
 20
219.39997088
 30
0.0
 40
6.0
  1
25
 41
0.8
100
AcDbText
  0
LWPOLYLINE
  5
388
330
2
100
AcDbEntity
  8
YKK_D
  6
ByBlock
100
AcDbPolyline
 90
        2
 70
     1
 43
0.85
 10
702.6937682
 20
218.39997088
 42
1.0
 10
702.9062682
 20
218.39997088
 42
1.0
  0
INSERT
  5
389
330
2
100
AcDbEntity
  8
YKK_11
100
AcDbBlockReference
  2
SK-90201
 10
172.79995423
 20
501.40000719
 30
0.0
 41
-1.0
 50
90.0
  0
LINE
  5
38A
330
2
100
AcDbEntity
  8
YKK_D
100
AcDbLine
 10
192.79995422
 20
501.39999192
 30
0.0
 11
192.79995422
 21
461.39999192
 31
0.0
  0
LINE
  5
38B
330
2
100
AcDbEntity
  8
YKK_D
100
AcDbLine
 10
72.8
 20
501.40000718
 30
0.0
 11
72.8
 21
476.40002244
 31
0.0
  0
LINE
  5
38C
330
2
100
AcDbEntity
  8
YKK_13
100
AcDbLine
 10
96.4
 20
342.40002244
 30
0.0
 11
131.20006104
 21
342.40002244
 31
0.0
  0
LINE
  5
38D
330
2
100
AcDbEntity
  8
YKK_13
100
AcDbLine
 10
96.4
 20
304.40002244
 30
0.0
 11
130.90006104
 21
304.40002244
 31
0.0
  0
LINE
  5
38E
330
2
100
AcDbEntity
  8
YKK_13
100
AcDbLine
 10
96.4
 20
323.40002244
 30
0.0
 11
130.90006104
 21
323.40002244
 31
0.0
  0
LINE
  5
38F
330
2
100
AcDbEntity
  8
YKK_13
100
AcDbLine
 10
96.4
 20
399.40002244
 30
0.0
 11
130.90006104
 21
399.40002244
 31
0.0
  0
LINE
  5
390
330
2
100
AcDbEntity
  8
YKK_13
100
AcDbLine
 10
96.4
 20
361.40002244
 30
0.0
 11
130.90006104
 21
361.40002244
 31
0.0
  0
LINE
  5
391
330
2
100
AcDbEntity
  8
YKK_13
100
AcDbLine
 10
96.4
 20
380.40002244
 30
0.0
 11
130.90006104
 21
380.40002244
 31
0.0
  0
LINE
  5
392
330
2
100
AcDbEntity
  8
YKK_D
100
AcDbLine
 10
175.79995422
 20
461.39999192
 30
0.0
 11
193.79995422
 21
461.39999192
 31
0.0
  0
LINE
  5
393
330
2
100
AcDbEntity
  8
YKK_D
100
AcDbLine
 10
175.79995422
 20
461.39999192
 30
0.0
 11
193.79995422
 21
461.39999192
 31
0.0
  0
LINE
  5
394
330
2
100
AcDbEntity
  8
YKK_13
100
AcDbLine
 10
96.4
 20
437.40002244
 30
0.0
 11
130.90006104
 21
437.40002244
 31
0.0
  0
LINE
  5
395
330
2
100
AcDbEntity
  8
YKK_13
100
AcDbLine
 10
96.4
 20
418.40002244
 30
0.0
 11
131.20006104
 21
418.40002244
 31
0.0
  0
INSERT
  5
396
330
2
100
AcDbEntity
  8
YKK_11
100
AcDbBlockReference
  2
SK-98114
 10
130.90000001
 20
471.40002245
 30
0.0
 50
180.0
  0
LINE
  5
397
330
2
100
AcDbEntity
  8
YKK_13
100
AcDbLine
 10
96.4
 20
456.40002244
 30
0.0
 11
131.20006104
 21
456.40002244
 31
0.0
  0
TEXT
  5
398
330
2
100
AcDbEntity
  8
YKK_D
100
AcDbText
 10
62.20070849
 20
466.77761613
 30
0.0
 40
6.0
  1
4
 50
90.0
 41
0.8
100
AcDbText
  0
LINE
  5
399
330
2
100
AcDbEntity
  8
YKK_D
100
AcDbLine
 10
63.20070849
 20
470.92482425
 30
0.0
 11
63.20070849
 21
465.72482425
 31
0.0
  0
LINE
  5
39A
330
2
100
AcDbEntity
  8
YKK_D
100
AcDbLine
 10
89.8
 20
476.40002244
 30
0.0
 11
71.8
 21
476.40002244
 31
0.0
  0
LINE
  5
39B
330
2
100
AcDbEntity
  8
YKK_D
100
AcDbLine
 10
89.8
 20
472.40002244
 30
0.0
 11
71.8
 21
472.40002244
 31
0.0
  0
LINE
  5
39C
330
2
100
AcDbEntity
  8
YKK_D
100
AcDbLine
 10
89.8
 20
476.40002244
 30
0.0
 11
71.8
 21
476.40002244
 31
0.0
  0
LINE
  5
39D
330
2
100
AcDbEntity
  8
YKK_D
100
AcDbLine
 10
89.8
 20
472.40002244
 30
0.0
 11
71.8
 21
472.40002244
 31
0.0
  0
LINE
  5
39E
330
2
100
AcDbEntity
  8
YKK_D
100
AcDbLine
 10
72.8
 20
474.40002244
 30
0.0
 11
63.20070849
 21
470.92482425
 31
0.0
  0
LWPOLYLINE
  5
39F
330
2
100
AcDbEntity
  8
YKK_D
  6
ByBlock
100
AcDbPolyline
 90
        2
 70
     1
 43
0.85
 10
72.8
 20
472.29377244
 42
1.0
 10
72.8
 20
472.50627244
 42
1.0
  0
LWPOLYLINE
  5
3A0
330
2
100
AcDbEntity
  8
YKK_D
  6
ByBlock
100
AcDbPolyline
 90
        2
 70
     1
 43
0.85
 10
72.8
 20
476.29377244
 42
1.0
 10
72.8
 20
476.50627244
 42
1.0
  0
LWPOLYLINE
  5
3A1
330
2
100
AcDbEntity
  8
YKK_D
  6
ByBlock
100
AcDbPolyline
 90
        2
 70
     1
 43
0.85
 10
72.8
 20
472.50627244
 42
1.0
 10
72.8
 20
472.29377244
 42
1.0
  0
LWPOLYLINE
  5
3A2
330
2
100
AcDbEntity
  8
YKK_D
  6
ByBlock
100
AcDbPolyline
 90
        2
 70
     1
 43
0.85
 10
72.8
 20
476.50627244
 42
1.0
 10
72.8
 20
476.29377244
 42
1.0
  0
LINE
  5
3A3
330
2
100
AcDbEntity
  8
YKK_D
100
AcDbLine
 10
72.8
 20
476.40002244
 30
0.0
 11
72.8
 21
472.40002244
 31
0.0
  0
TEXT
  5
3A4
330
2
100
AcDbEntity
  8
YKK_D
100
AcDbText
 10
71.8
 20
485.81778131
 30
0.0
 40
6.0
  1
25
 50
90.0
 41
0.8
100
AcDbText
  0
LINE
  5
3A5
330
2
100
AcDbEntity
  8
YKK_13
100
AcDbLine
 10
96.8
 20
472.40002244
 30
0.0
 11
112.7
 21
472.40002244
 31
0.0
  0
LINE
  5
3A6
330
2
100
AcDbEntity
  8
YKK_13
100
AcDbLine
 10
112.7
 20
471.80002244
 30
0.0
 11
96.4
 21
471.80002244
 31
0.0
  0
ARC
  5
3A7
330
2
100
AcDbEntity
  8
YKK_13
100
AcDbCircle
 10
96.8
 20
471.40002244
 30
0.0
 40
1.0
100
AcDbArc
 50
90.0
 51
180.0
1001
GENIUS_GENODEF_13
1002
{
1000
HIER
1070
     0
1002
}
1002
{
1000
MANEDIT
1070
     0
1002
}
1002
{
1000
NOSEL
1070
     0
1002
}
1002
{
1000
BEHIND
1070
     0
1002
}
1002
{
1000
OTHER
1070
     0
1002
}
1002
{
1000
REACTOR
1002
}
1001
GENIUS_GENOBJ-N-FIL_13
1002
{
1000
OWNER
1000
GEN
1002
}
  0
LINE
  5
3A8
330
2
100
AcDbEntity
  8
YKK_13
100
AcDbLine
 10
112.7
 20
472.40002244
 30
0.0
 11
112.7
 21
471.80002244
 31
0.0
  0
LINE
  5
3A9
330
2
100
AcDbEntity
  8
YKK_13
  6
Continuous
100
AcDbLine
 10
143.30001831
 20
468.00004838
 30
0.0
 11
143.30001831
 21
473.00003922
 31
0.0
  0
LINE
  5
3AA
330
2
100
AcDbEntity
  8
YKK_13
  6
Continuous
100
AcDbLine
 10
139.60006104
 20
468.00004838
 30
0.0
 11
139.60006104
 21
473.00003922
 31
0.0
  0
LINE
  5
3AB
330
2
100
AcDbEntity
  8
YKK_13
  6
Continuous
100
AcDbLine
 10
132.80014857
 20
466.98074169
 30
0.0
 11
132.80014949
 21
474.01938031
 31
0.0
  0
LINE
  5
3AC
330
2
100
AcDbEntity
  8
YKK_13
  6
Continuous
100
AcDbLine
 10
138.10004467
 20
474.50005143
 30
0.0
 11
138.10003357
 21
470.50005143
 31
0.0
  0
LINE
  5
3AD
330
2
100
AcDbEntity
  8
YKK_13
  6
Continuous
100
AcDbLine
 10
144.80001526
 20
474.50005143
 30
0.0
 11
144.80001526
 21
466.50005143
 31
0.0
  0
LINE
  5
3AE
330
2
100
AcDbEntity
  8
YKK_13
  6
Continuous
100
AcDbLine
 10
131.80014959
 20
474.74278822
 30
0.0
 11
131.80014847
 21
466.25731636
 31
0.0
  0
LINE
  5
3AF
330
2
100
AcDbEntity
  8
YKK_13
  6
Continuous
100
AcDbLine
 10
143.30001831
 20
468.00004838
 30
0.0
 11
139.60006104
 21
468.00004838
 31
0.0
  0
ARC
  5
3B0
330
2
100
AcDbEntity
  8
YKK_13
  6
Continuous
100
AcDbCircle
 10
135.30003357
 20
470.50005183
 30
0.0
 40
4.299999999999998
100
AcDbArc
 50
303.74990353
 51
310.62927877
  0
LINE
  5
3B1
330
2
100
AcDbEntity
  8
YKK_13
  6
Continuous
100
AcDbLine
 10
132.36930365
 20
468.2941784
 30
0.0
 11
132.36930365
 21
468.4941784
 31
0.0
  0
LINE
  5
3B2
330
2
100
AcDbEntity
  8
YKK_13
  6
Continuous
100
AcDbLine
 10
132.10121732
 20
468.02609207
 30
0.0
 11
132.10121732
 21
468.22609207
 31
0.0
  0
LINE
  5
3B3
330
2
100
AcDbEntity
  8
YKK_13
  6
Continuous
100
AcDbLine
 10
132.29781396
 20
467.29332278
 30
0.0
 11
132.29781396
 21
467.49332278
 31
0.0
  0
LINE
  5
3B4
330
2
100
AcDbEntity
  8
YKK_13
  6
Continuous
100
AcDbLine
 10
132.58377271
 20
467.57928153
 30
0.0
 11
132.58377271
 21
467.77928153
 31
0.0
  0
LINE
  5
3B5
330
2
100
AcDbEntity
  8
YKK_13
  6
Continuous
100
AcDbLine
 10
132.29781396
 20
469.3665237
 30
0.0
 11
132.29781396
 21
469.5665237
 31
0.0
  0
LINE
  5
3B6
330
2
100
AcDbEntity
  8
YKK_13
  6
Continuous
100
AcDbLine
 10
132.38717607
 20
468.74098894
 30
0.0
 11
132.38717607
 21
468.94098894
 31
0.0
  0
LINE
  5
3B7
330
2
100
AcDbEntity
  8
YKK_13
  6
Continuous
100
AcDbLine
 10
132.15483459
 20
469.09843737
 30
0.0
 11
132.15483459
 21
469.29843738
 31
0.0
  0
LINE
  5
3B8
330
2
100
AcDbEntity
  8
YKK_13
  6
Continuous
100
AcDbLine
 10
132.11908974
 20
470.36737931
 30
0.0
 11
132.11908974
 21
470.56737932
 31
0.0
  0
LINE
  5
3B9
330
2
100
AcDbEntity
  8
YKK_13
  6
Continuous
100
AcDbLine
 10
132.53015544
 20
470.0278033
 30
0.0
 11
132.53015544
 21
470.2278033
 31
0.0
  0
LINE
  5
3BA
330
2
100
AcDbEntity
  8
YKK_13
  6
Continuous
100
AcDbLine
 10
143.18085275
 20
466.50004007
 30
0.0
 11
141.2000522
 21
466.50007312
 31
0.0
  0
ARC
  5
3BB
330
2
100
AcDbEntity
  8
YKK_13
  6
Continuous
100
AcDbCircle
 10
142.52852027
 20
464.98562112
 30
0.0
 40
0.299999952316284
100
AcDbArc
 50
146.21113999
 51
310.00243734
  0
LINE
  5
3BC
330
2
100
AcDbEntity
  8
YKK_13
  6
Continuous
100
AcDbLine
 10
143.18085275
 20
466.50004007
 30
0.0
 11
142.27919494
 21
465.15245969
 31
0.0
  0
LINE
  5
3BD
330
2
100
AcDbEntity
  8
YKK_13
  6
Continuous
100
AcDbLine
 10
144.80001526
 20
466.50003617
 30
0.0
 11
142.72135307
 21
464.75583179
 31
0.0
  0
ARC
  5
3BE
330
2
100
AcDbEntity
  8
YKK_13
  6
Continuous
100
AcDbCircle
 10
135.30003357
 20
470.50005183
 30
0.0
 40
5.5
100
AcDbArc
 50
230.48035536
 51
313.34175214
  0
LINE
  5
3BF
330
2
100
AcDbEntity
  8
YKK_13
  6
Continuous
100
AcDbLine
 10
136.60307888
 20
465.74898813
 30
0.0
 11
136.60307888
 21
465.94898813
 31
0.0
  0
LINE
  5
3C0
330
2
100
AcDbEntity
  8
YKK_13
  6
Continuous
100
AcDbLine
 10
137.41243552
 20
465.85455639
 30
0.0
 11
137.41243552
 21
466.05455639
 31
0.0
  0
LINE
  5
3C1
330
2
100
AcDbEntity
  8
YKK_13
  6
Continuous
100
AcDbLine
 10
137.02535191
 20
465.79590735
 30
0.0
 11
137.02535191
 21
465.99590736
 31
0.0
  0
LINE
  5
3C2
330
2
100
AcDbEntity
  8
YKK_13
  6
Continuous
100
AcDbLine
 10
136.10418846
 20
465.98091785
 30
0.0
 11
136.10418846
 21
466.18091786
 31
0.0
  0
LINE
  5
3C3
330
2
100
AcDbEntity
  8
YKK_13
  6
Continuous
100
AcDbLine
 10
135.57932659
 20
465.58727145
 30
0.0
 11
135.57932659
 21
465.78727145
 31
0.0
  0
LINE
  5
3C4
330
2
100
AcDbEntity
  8
YKK_13
  6
Continuous
100
AcDbLine
 10
134.98289264
 20
465.62305748
 30
0.0
 11
134.98289264
 21
465.82305749
 31
0.0
  0
LINE
  5
3C5
330
2
100
AcDbEntity
  8
YKK_13
  6
Continuous
100
AcDbLine
 10
134.39838738
 20
465.55148541
 30
0.0
 11
134.39838738
 21
465.75148541
 31
0.0
  0
LINE
  5
3C6
330
2
100
AcDbEntity
  8
YKK_13
  6
Continuous
100
AcDbLine
 10
134.02859833
 20
465.95706049
 30
0.0
 11
134.02859833
 21
466.1570605
 31
0.0
  0
LINE
  5
3C7
330
2
100
AcDbEntity
  8
YKK_13
  6
Continuous
100
AcDbLine
 10
134.52960284
 20
465.82584503
 30
0.0
 11
134.52960284
 21
466.02584503
 31
0.0
  0
LINE
  5
3C8
330
2
100
AcDbEntity
  8
YKK_13
  6
Continuous
100
AcDbLine
 10
134.79203378
 20
465.42026994
 30
0.0
 11
134.79203378
 21
465.62026995
 31
0.0
  0
LINE
  5
3C9
330
2
100
AcDbEntity
  8
YKK_13
  6
Continuous
100
AcDbLine
 10
136.27118997
 20
465.75427295
 30
0.0
 11
136.27118997
 21
465.95427296
 31
0.0
  0
LINE
  5
3CA
330
2
100
AcDbEntity
  8
YKK_13
  6
Continuous
100
AcDbLine
 10
135.55546923
 20
465.40834126
 30
0.0
 11
135.55546923
 21
465.60834127
 31
0.0
  0
LINE
  5
3CB
330
2
100
AcDbEntity
  8
YKK_13
  6
Continuous
100
AcDbLine
 10
133.79002475
 20
465.99284653
 30
0.0
 11
133.79002475
 21
466.19284653
 31
0.0
  0
LINE
  5
3CC
330
2
100
AcDbEntity
  8
YKK_13
  6
Continuous
100
AcDbLine
 10
133.32480627
 20
465.93320314
 30
0.0
 11
133.32480627
 21
466.13320314
 31
0.0
  0
LINE
  5
3CD
330
2
100
AcDbEntity
  8
YKK_13
  6
Continuous
100
AcDbLine
 10
132.50172743
 20
466.61313784
 30
0.0
 11
132.50172743
 21
466.81313784
 31
0.0
  0
LINE
  5
3CE
330
2
100
AcDbEntity
  8
YKK_13
  6
Continuous
100
AcDbLine
 10
132.58522818
 20
466.26720615
 30
0.0
 11
132.58522818
 21
466.46720615
 31
0.0
  0
LINE
  5
3CF
330
2
100
AcDbEntity
  8
YKK_13
  6
Continuous
100
AcDbLine
 10
132.88344515
 20
466.45806501
 30
0.0
 11
132.88344515
 21
466.65806501
 31
0.0
  0
LINE
  5
3D0
330
2
100
AcDbEntity
  8
YKK_13
  6
Continuous
100
AcDbLine
 10
133.80195343
 20
465.71848692
 30
0.0
 11
133.80195343
 21
465.91848692
 31
0.0
  0
LINE
  5
3D1
330
2
100
AcDbEntity
  8
YKK_13
  6
Continuous
100
AcDbLine
 10
131.95300819
 20
466.5177084
 30
0.0
 11
131.95300819
 21
466.71770841
 31
0.0
  0
LINE
  5
3D2
330
2
100
AcDbEntity
  8
YKK_13
  6
Continuous
100
AcDbLine
 10
136.18768922
 20
465.2174824
 30
0.0
 11
136.18768922
 21
465.4174824
 31
0.0
  0
LINE
  5
3D3
330
2
100
AcDbEntity
  8
YKK_13
  6
Continuous
100
AcDbLine
 10
138.03411525
 20
466.18299096
 30
0.0
 11
138.03411525
 21
466.38299097
 31
0.0
  0
ARC
  5
3D4
330
2
100
AcDbEntity
  8
YKK_13
  6
Continuous
100
AcDbCircle
 10
138.92853946
 20
464.98562204
 30
0.0
 40
0.299999952316284
100
AcDbArc
 50
146.21113999
 51
310.00243734
  0
LINE
  5
3D5
330
2
100
AcDbEntity
  8
YKK_13
  6
Continuous
100
AcDbLine
 10
139.5808757
 20
466.50005143
 30
0.0
 11
138.10002663
 21
466.50005143
 31
0.0
  0
LINE
  5
3D6
330
2
100
AcDbEntity
  8
YKK_13
  6
Continuous
100
AcDbLine
 10
139.5808757
 20
466.50005143
 30
0.0
 11
138.67921414
 21
465.15246061
 31
0.0
  0
LINE
  5
3D7
330
2
100
AcDbEntity
  8
YKK_13
  6
Continuous
100
AcDbLine
 10
141.20003967
 20
466.50005143
 30
0.0
 11
139.12137226
 21
464.75583271
 31
0.0
  0
LINE
  5
3D8
330
2
100
AcDbEntity
  8
YKK_13
  6
Continuous
100
AcDbLine
 10
138.10002663
 20
466.50005143
 30
0.0
 11
138.10004883
 21
470.50005143
 31
0.0
  0
SPLINE
  5
3D9
330
2
100
AcDbEntity
  8
YKK_13
  6
Continuous
100
AcDbSpline
210
0.0
220
0.0
230
1.0
 70
  1064
 71
     3
 72
    14
 73
    10
 74
     8
 42
0.000000001
 43
0.0000000001
 44
0.0000000001
 40
0.0
 40
0.0
 40
0.0
 40
0.0
 40
0.1242633271988651
 40
1.092074758264651
 40
2.059886189330222
 40
3.027697620396101
 40
3.9955090514616
 40
4.96332048252737
 40
5.931131913592854
 40
5.931131913592854
 40
5.931131913592854
 40
5.931131913592854
 10
132.8001485673501
 20
466.9807416942163
 30
0.0
 10
132.8381746209751
 20
466.9638308787702
 30
0.0
 10
133.1723624642948
 20
466.8152120134402
 30
0.0
 10
133.3436377951584
 20
465.7667368368362
 30
0.0
 10
134.5317104124684
 20
466.6354038100126
 30
0.0
 10
135.2963490559149
 20
465.3877071422806
 30
0.0
 10
136.0830472970127
 20
466.6140785993721
 30
0.0
 10
137.2049508729989
 20
465.8520207292641
 30
0.0
 10
137.5276366584859
 20
466.5671592259932
 30
0.0
 10
137.6889795512293
 20
466.9247284743574
 30
0.0
 11
132.8001485673501
 21
466.9807416942163
 31
0.0
 11
132.9110755472675
 21
466.9247365193399
 31
0.0
 11
133.501414125813
 21
466.1578210554311
 31
0.0
 11
134.461138083491
 21
466.2826765365279
 31
0.0
 11
135.3000256555235
 21
465.8000518297512
 31
0.0
 11
136.1389148528274
 21
466.2826737115055
 31
0.0
 11
137.0986383900397
 21
466.1578149984644
 31
0.0
 11
137.6889795512293
 21
466.9247284743574
 31
0.0
  0
LINE
  5
3DA
330
2
100
AcDbEntity
  8
YKK_13
100
AcDbLine
 10
130.80006104
 20
472.40002244
 30
0.0
 11
114.90006104
 21
472.40002244
 31
0.0
  0
LINE
  5
3DB
330
2
100
AcDbEntity
  8
YKK_13
100
AcDbLine
 10
114.90006104
 20
471.80002244
 30
0.0
 11
131.20006104
 21
471.80002244
 31
0.0
  0
LINE
  5
3DC
330
2
100
AcDbEntity
  8
YKK_13
100
AcDbLine
 10
114.90006104
 20
472.40002244
 30
0.0
 11
114.90006104
 21
471.80002244
 31
0.0
  0
LINE
  5
3DD
330
2
100
AcDbEntity
  8
YKK_13
  6
Continuous
100
AcDbLine
 10
143.18085275
 20
474.50004753
 30
0.0
 11
141.2000522
 21
474.50001448
 31
0.0
  0
LINE
  5
3DE
330
2
100
AcDbEntity
  8
YKK_13
  6
Continuous
100
AcDbLine
 10
143.18085275
 20
474.50004753
 30
0.0
 11
142.27919494
 21
475.84762791
 31
0.0
  0
ARC
  5
3DF
330
2
100
AcDbEntity
  8
YKK_13
  6
Continuous
100
AcDbCircle
 10
142.52852027
 20
476.01446648
 30
0.0
 40
0.299999952316284
100
AcDbArc
 50
49.99756266
 51
213.78886001
  0
LINE
  5
3E0
330
2
100
AcDbEntity
  8
YKK_13
  6
Continuous
100
AcDbLine
 10
144.80001526
 20
474.50005143
 30
0.0
 11
142.72135307
 21
476.24425581
 31
0.0
  0
LINE
  5
3E1
330
2
100
AcDbEntity
  8
YKK_13
  6
Continuous
100
AcDbLine
 10
143.30001831
 20
473.00003922
 30
0.0
 11
139.60006104
 21
473.00003922
 31
0.0
  0
ARC
  5
3E2
330
2
100
AcDbEntity
  8
YKK_13
  6
Continuous
100
AcDbCircle
 10
135.30003357
 20
470.50005183
 30
0.0
 40
4.299999999999998
100
AcDbArc
 50
49.37051226
 51
56.24990353
  0
ARC
  5
3E3
330
2
100
AcDbEntity
  8
YKK_13
  6
Continuous
100
AcDbCircle
 10
135.30003357
 20
470.50005183
 30
0.0
 40
5.5
100
AcDbArc
 50
46.65823569
 51
129.51962958
  0
LINE
  5
3E4
330
2
100
AcDbEntity
  8
YKK_13
  6
Continuous
100
AcDbLine
 10
136.69691733
 20
475.2618611
 30
0.0
 11
136.69691733
 21
475.4618611
 31
0.0
  0
LINE
  5
3E5
330
2
100
AcDbEntity
  8
YKK_13
  6
Continuous
100
AcDbLine
 10
137.43589513
 20
474.72229
 30
0.0
 11
137.43589513
 21
474.92229001
 31
0.0
  0
LINE
  5
3E6
330
2
100
AcDbEntity
  8
YKK_13
  6
Continuous
100
AcDbLine
 10
137.25994803
 20
475.20321206
 30
0.0
 11
137.25994803
 21
475.40321207
 31
0.0
  0
LINE
  5
3E7
330
2
100
AcDbEntity
  8
YKK_13
  6
Continuous
100
AcDbLine
 10
137.76432971
 20
474.42904484
 30
0.0
 11
137.76432971
 21
474.62904485
 31
0.0
  0
LINE
  5
3E8
330
2
100
AcDbEntity
  8
YKK_13
  6
Continuous
100
AcDbLine
 10
132.47653818
 20
471.49334188
 30
0.0
 11
132.47653818
 21
471.69334188
 31
0.0
  0
LINE
  5
3E9
330
2
100
AcDbEntity
  8
YKK_13
  6
Continuous
100
AcDbLine
 10
132.27994154
 20
472.51206992
 30
0.0
 11
132.27994154
 21
472.71206992
 31
0.0
  0
LINE
  5
3EA
330
2
100
AcDbEntity
  8
YKK_13
  6
Continuous
100
AcDbLine
 10
132.4944106
 20
474.2278224
 30
0.0
 11
132.4944106
 21
474.4278224
 31
0.0
  0
LINE
  5
3EB
330
2
100
AcDbEntity
  8
YKK_13
  6
Continuous
100
AcDbLine
 10
132.20845185
 20
473.42356342
 30
0.0
 11
132.20845185
 21
473.62356343
 31
0.0
  0
LINE
  5
3EC
330
2
100
AcDbEntity
  8
YKK_13
  6
Continuous
100
AcDbLine
 10
132.67313482
 20
472.5835596
 30
0.0
 11
132.67313482
 21
472.78355961
 31
0.0
  0
LINE
  5
3ED
330
2
100
AcDbEntity
  8
YKK_13
  6
Continuous
100
AcDbLine
 10
132.19057943
 20
471.1001486
 30
0.0
 11
132.19057943
 21
471.30014861
 31
0.0
  0
LINE
  5
3EE
330
2
100
AcDbEntity
  8
YKK_13
  6
Continuous
100
AcDbLine
 10
132.53015544
 20
470.81418986
 30
0.0
 11
132.53015544
 21
471.01418986
 31
0.0
  0
LINE
  5
3EF
330
2
100
AcDbEntity
  8
YKK_13
  6
Continuous
100
AcDbLine
 10
132.3335588
 20
471.92228
 30
0.0
 11
132.3335588
 21
472.12228
 31
0.0
  0
LINE
  5
3F0
330
2
100
AcDbEntity
  8
YKK_13
  6
Continuous
100
AcDbLine
 10
131.83372141
 20
474.10434821
 30
0.0
 11
131.83372141
 21
474.30434821
 31
0.0
  0
LINE
  5
3F1
330
2
100
AcDbEntity
  8
YKK_13
  6
Continuous
100
AcDbLine
 10
132.59715686
 20
474.41449386
 30
0.0
 11
132.59715686
 21
474.61449386
 31
0.0
  0
LINE
  5
3F2
330
2
100
AcDbEntity
  8
YKK_13
  6
Continuous
100
AcDbLine
 10
132.94308855
 20
474.29520707
 30
0.0
 11
132.94308855
 21
474.49520707
 31
0.0
  0
LINE
  5
3F3
330
2
100
AcDbEntity
  8
YKK_13
  6
Continuous
100
AcDbLine
 10
133.18166212
 20
474.70078216
 30
0.0
 11
133.18166212
 21
474.90078216
 31
0.0
  0
LINE
  5
3F4
330
2
100
AcDbEntity
  8
YKK_13
  6
Continuous
100
AcDbLine
 10
133.71845268
 20
475.10635724
 30
0.0
 11
133.71845268
 21
475.30635724
 31
0.0
  0
LINE
  5
3F5
330
2
100
AcDbEntity
  8
YKK_13
  6
Continuous
100
AcDbLine
 10
134.1001704
 20
474.89164102
 30
0.0
 11
134.1001704
 21
475.09164102
 31
0.0
  0
LINE
  5
3F6
330
2
100
AcDbEntity
  8
YKK_13
  6
Continuous
100
AcDbLine
 10
134.43417341
 20
475.30914478
 30
0.0
 11
134.43417341
 21
475.50914478
 31
0.0
  0
LINE
  5
3F7
330
2
100
AcDbEntity
  8
YKK_13
  6
Continuous
100
AcDbLine
 10
134.99482132
 20
475.63121911
 30
0.0
 11
134.99482132
 21
475.83121912
 31
0.0
  0
LINE
  5
3F8
330
2
100
AcDbEntity
  8
YKK_13
  6
Continuous
100
AcDbLine
 10
135.53161188
 20
475.66700515
 30
0.0
 11
135.53161188
 21
475.86700515
 31
0.0
  0
LINE
  5
3F9
330
2
100
AcDbEntity
  8
YKK_13
  6
Continuous
100
AcDbLine
 10
135.67475602
 20
475.46421761
 30
0.0
 11
135.67475602
 21
475.66421761
 31
0.0
  0
LINE
  5
3FA
330
2
100
AcDbEntity
  8
YKK_13
  6
Continuous
100
AcDbLine
 10
136.17576054
 20
475.05864252
 30
0.0
 11
136.17576054
 21
475.25864253
 31
0.0
  0
LINE
  5
3FB
330
2
100
AcDbEntity
  8
YKK_13
  6
Continuous
100
AcDbLine
 10
136.28311865
 20
475.61929043
 30
0.0
 11
136.28311865
 21
475.81929044
 31
0.0
  0
LINE
  5
3FC
330
2
100
AcDbEntity
  8
YKK_13
  6
Continuous
100
AcDbLine
 10
134.85167718
 20
475.33300214
 30
0.0
 11
134.85167718
 21
475.53300214
 31
0.0
  0
LINE
  5
3FD
330
2
100
AcDbEntity
  8
YKK_13
  6
Continuous
100
AcDbLine
 10
132.70451497
 20
474.83199762
 30
0.0
 11
132.70451497
 21
475.03199763
 31
0.0
  0
LINE
  5
3FE
330
2
100
AcDbEntity
  8
YKK_13
  6
Continuous
100
AcDbLine
 10
132.09615234
 20
474.53378065
 30
0.0
 11
132.09615234
 21
474.73378065
 31
0.0
  0
ARC
  5
3FF
330
2
100
AcDbEntity
  8
YKK_13
100
AcDbCircle
 10
130.80006104
 20
471.40002244
 30
0.0
 40
1.0
100
AcDbArc
 50
0.0
 51
90.0
1001
GENIUS_GENODEF_13
1002
{
1000
HIER
1070
     0
1002
}
1002
{
1000
MANEDIT
1070
     0
1002
}
1002
{
1000
NOSEL
1070
     0
1002
}
1002
{
1000
BEHIND
1070
     0
1002
}
1002
{
1000
OTHER
1070
     0
1002
}
1002
{
1000
REACTOR
1002
}
1001
GENIUS_GENOBJ-N-FIL_13
1002
{
1000
OWNER
1000
GEN
1002
}
  0
SPLINE
  5
400
330
2
100
AcDbEntity
  8
YKK_13
  6
Continuous
100
AcDbSpline
210
0.0
220
0.0
230
1.0
 70
  1064
 71
     3
 72
    14
 73
    10
 74
     8
 42
0.000000001
 43
0.0000000001
 44
0.0000000001
 40
0.0
 40
0.0
 40
0.0
 40
0.0
 40
0.9678114310657861
 40
1.935622862131328
 40
2.903434293196953
 40
3.871245724262706
 40
4.839057155328279
 40
5.806868586394082
 40
5.93113719444624
 40
5.93113719444624
 40
5.93113719444624
 40
5.93113719444624
 10
137.6889915913964
 20
474.0753671401493
 30
0.0
 10
137.5276498928482
 20
474.4329369516909
 30
0.0
 10
137.2049664957518
 20
475.1480765747738
 30
0.0
 10
136.0830605027024
 20
474.3860221851035
 30
0.0
 10
135.2963658244758
 20
475.6123974225817
 30
0.0
 10
134.5317250982377
 20
474.3646991029979
 30
0.0
 10
133.3436474975927
 20
475.2333858533293
 30
0.0
 10
133.1723891372023
 20
474.1848667935021
 30
0.0
 10
132.8381794623163
 20
474.0362872842935
 30
0.0
 10
132.8001494923435
 20
474.0193803103236
 30
0.0
 11
137.6889915913964
 21
474.0753671401493
 31
0.0
 11
137.0986530128509
 21
474.8422826040581
 31
0.0
 11
136.1389290551728
 21
474.7174271229615
 31
0.0
 11
135.3000414831406
 21
475.200051829738
 31
0.0
 11
134.4611522858365
 21
474.7174299479837
 31
0.0
 11
133.5014287486244
 21
474.8422886610249
 31
0.0
 11
132.9110875874346
 21
474.0753751851317
 31
0.0
 11
132.8001494923435
 21
474.0193803103236
 31
0.0
  0
ARC
  5
401
330
2
100
AcDbEntity
  8
YKK_13
  6
Continuous
100
AcDbCircle
 10
138.92853946
 20
476.01446556
 30
0.0
 40
0.299999952316284
100
AcDbArc
 50
49.99756266
 51
213.78886001
  0
LINE
  5
402
330
2
100
AcDbEntity
  8
YKK_13
  6
Continuous
100
AcDbLine
 10
138.13968351
 20
474.78093903
 30
0.0
 11
138.13968351
 21
474.98093904
 31
0.0
  0
LINE
  5
403
330
2
100
AcDbEntity
  8
YKK_13
  6
Continuous
100
AcDbLine
 10
139.5808757
 20
474.50003617
 30
0.0
 11
138.67921414
 21
475.84762699
 31
0.0
  0
LINE
  5
404
330
2
100
AcDbEntity
  8
YKK_13
  6
Continuous
100
AcDbLine
 10
141.20003967
 20
474.50003617
 30
0.0
 11
139.12137226
 21
476.24425489
 31
0.0
  0
LINE
  5
405
330
2
100
AcDbEntity
  8
YKK_13
  6
Continuous
100
AcDbLine
 10
139.5808757
 20
474.50003617
 30
0.0
 11
138.10004467
 21
474.50005143
 31
0.0
  0
LINE
  5
406
330
2
100
AcDbEntity
  8
YKK_D
100
AcDbLine
 10
192.79995422
 20
461.39999192
 30
0.0
 11
196.29995422
 21
455.33781409
 31
0.0
  0
LINE
  5
407
330
2
100
AcDbEntity
  8
YKK_D
100
AcDbLine
 10
192.79995422
 20
461.39999192
 30
0.0
 11
189.29995422
 21
455.33781409
 31
0.0
  0
LINE
  5
408
330
2
100
AcDbEntity
  8
YKK_D
100
AcDbLine
 10
192.79995422
 20
461.39999192
 30
0.0
 11
192.79995422
 21
449.27563627
 31
0.0
  0
LINE
  5
409
330
2
100
AcDbEntity
  8
YKK_D
100
AcDbLine
 10
189.29995422
 20
455.33781409
 30
0.0
 11
196.29995422
 21
455.33781409
 31
0.0
  0
TEXT
  5
40A
330
2
100
AcDbEntity
  8
YKK_D
100
AcDbText
 10
191.79995422
 20
478.30557568
 30
0.0
 40
6.0
  1
40
 50
90.0
 41
0.8
100
AcDbText
  0
LINE
  5
40B
330
2
100
AcDbEntity
  8
YKK_D
100
AcDbLine
 10
175.79995422
 20
501.39999192
 30
0.0
 11
193.79995422
 21
501.39999192
 31
0.0
  0
LINE
  5
40C
330
2
100
AcDbEntity
  8
YKK_13
  6
YHIDDEN_1
100
AcDbLine
 10
165.54996948
 20
499.79997056
 30
0.0
 11
105.54996948
 21
499.79997056
 31
0.0
  0
LINE
  5
40D
330
2
100
AcDbEntity
  8
YKK_13
  6
YHIDDEN_1
100
AcDbLine
 10
105.54996948
 20
497.49997056
 30
0.0
 11
165.54996948
 21
497.49997056
 31
0.0
  0
LINE
  5
40E
330
2
100
AcDbEntity
  8
YKK_12
100
AcDbLine
 10
92.8
 20
501.40000718
 30
0.0
 11
172.79995422
 21
501.40000718
 31
0.0
  0
LINE
  5
40F
330
2
100
AcDbEntity
  8
YKK_D
100
AcDbLine
 10
110.8
 20
504.40000718
 30
0.0
 11
110.8
 21
522.40000718
 31
0.0
  0
LINE
  5
410
330
2
100
AcDbEntity
  8
YKK_D
100
AcDbLine
 10
92.8
 20
504.40000718
 30
0.0
 11
92.8
 21
522.40000718
 31
0.0
  0
LINE
  5
411
330
2
100
AcDbEntity
  8
YKK_D
100
AcDbLine
 10
89.8
 20
501.40000718
 30
0.0
 11
71.8
 21
501.40000718
 31
0.0
  0
LWPOLYLINE
  5
412
330
2
100
AcDbEntity
  8
YKK_D
  6
ByBlock
100
AcDbPolyline
 90
        2
 70
     1
 43
0.85
 10
72.8
 20
501.29375718
 42
1.0
 10
72.8
 20
501.50625718
 42
1.0
  0
LINE
  5
413
330
2
100
AcDbEntity
  8
YKK_13
  6
YHIDDEN_1
100
AcDbLine
 10
105.54996948
 20
499.79997056
 30
0.0
 11
105.54996948
 21
497.49997056
 31
0.0
  0
LINE
  5
414
330
2
100
AcDbEntity
  8
YKK_D
100
AcDbLine
 10
92.8
 20
521.40000718
 30
0.0
 11
110.8
 21
521.40000718
 31
0.0
  0
LWPOLYLINE
  5
415
330
2
100
AcDbEntity
  8
YKK_D
  6
ByBlock
100
AcDbPolyline
 90
        2
 70
     1
 43
0.85
 10
92.90625
 20
521.40000718
 42
1.0
 10
92.69375
 20
521.40000718
 42
1.0
  0
LWPOLYLINE
  5
416
330
2
100
AcDbEntity
  8
YKK_D
  6
ByBlock
100
AcDbPolyline
 90
        2
 70
     1
 43
0.85
 10
110.69375
 20
521.40000718
 42
1.0
 10
110.90625
 20
521.40000718
 42
1.0
  0
TEXT
  5
417
330
2
100
AcDbEntity
  8
YKK_D
100
AcDbText
 10
98.53502538
 20
522.40000718
 30
0.0
 40
6.0
  1
18
 41
0.8
100
AcDbText
  0
LINE
  5
418
330
2
100
AcDbEntity
  8
YKK_D
100
AcDbLine
 10
172.79995422
 20
504.40000718
 30
0.0
 11
172.79995422
 21
522.40000718
 31
0.0
  0
LINE
  5
419
330
2
100
AcDbEntity
  8
YKK_D
100
AcDbLine
 10
160.79995422
 20
504.40000718
 30
0.0
 11
160.79995422
 21
522.40000718
 31
0.0
  0
LINE
  5
41A
330
2
100
AcDbEntity
  8
YKK_13
  6
YHIDDEN_1
100
AcDbLine
 10
165.54996948
 20
497.49997056
 30
0.0
 11
165.54996948
 21
499.79997056
 31
0.0
  0
LWPOLYLINE
  5
41B
330
2
100
AcDbEntity
  8
YKK_D
  6
ByBlock
100
AcDbPolyline
 90
        2
 70
     1
 43
0.85
 10
160.90620422
 20
521.40000718
 42
1.0
 10
160.69370422
 20
521.40000718
 42
1.0
  0
LINE
  5
41C
330
2
100
AcDbEntity
  8
YKK_D
100
AcDbLine
 10
160.79995422
 20
521.40000718
 30
0.0
 11
172.79995422
 21
521.40000718
 31
0.0
  0
LWPOLYLINE
  5
41D
330
2
100
AcDbEntity
  8
YKK_D
  6
ByBlock
100
AcDbPolyline
 90
        2
 70
     1
 43
0.85
 10
172.69370422
 20
521.40000718
 42
1.0
 10
172.90620422
 20
521.40000718
 42
1.0
  0
TEXT
  5
41E
330
2
100
AcDbEntity
  8
YKK_D
100
AcDbText
 10
163.54716235
 20
522.40000718
 30
0.0
 40
6.0
  1
12
 41
0.8
100
AcDbText
  0
LWPOLYLINE
  5
41F
330
2
100
AcDbEntity
  8
YKK_D
  6
ByBlock
100
AcDbPolyline
 90
        2
 70
     1
 43
0.85
 10
192.79995422
 20
501.29374192
 42
1.0
 10
192.79995422
 20
501.50624192
 42
1.0
  0
LINE
  5
420
330
2
100
AcDbEntity
  8
YKK_A1
100
AcDbLine
 10
691.90001973
 20
495.77499268
 30
0.0
 11
691.90001973
 21
489.52499268
 31
0.0
1001
ACDBBLOCKREPETAG
1070
     1
1071
       15
1005
420
  0
LINE
  5
423
330
2
100
AcDbEntity
  8
YKK_A1
100
AcDbLine
 10
690.95001973
 20
495.77499268
 30
0.0
 11
690.95001973
 21
489.52499268
 31
0.0
1001
ACDBBLOCKREPETAG
1070
     1
1071
       16
1005
423
  0
LWPOLYLINE
  5
424
330
2
100
AcDbEntity
  8
YKK_A1
100
AcDbPolyline
 90
        6
 70
     0
 43
0.0
 10
691.35001973
 20
495.77499268
 10
691.35001973
 20
499.94999268
 10
650.25001973
 20
499.94999268
 10
650.25001973
 20
403.94999268
 10
691.35001973
 20
403.94999268
 10
691.35001973
 20
408.12499268
1001
GENIUS_GENREC_14
1002
{
1000
PYDIR
1011
650.25001973
1021
499.94999268
1031
0.0
1002
}
1002
{
1000
PXDIR
1011
691.35001973
1021
403.94999268
1031
0.0
1002
}
1002
{
1000
PORI
1011
650.25001973
1021
403.94999268
1031
0.0
1002
}
1002
{
1000
PINS
1011
650.25001973
1021
403.94999268
1031
0.0
1002
}
1002
{
1000
HVAL
1000
1920
1002
}
1002
{
1000
H
1070
     2
1002
}
1002
{
1000
WVAL
1000
822
1002
}
1002
{
1000
W
1070
     2
1002
}
1002
{
1000
C
1070
     1
1002
}
1001
GENIUS_GENODEF_13
1002
{
1000
HIER
1070
     0
1002
}
1002
{
1000
MANEDIT
1070
     0
1002
}
1002
{
1000
NOSEL
1070
     0
1002
}
1002
{
1000
BEHIND
1070
     0
1002
}
1002
{
1000
OTHER
1070
     0
1002
}
1002
{
1000
REACTOR
1002
}
1001
GENIUS_GENOBJ-N-REC_13
1002
{
1000
OWNER
1000
GEN
1002
}
1001
ACDBBLOCKREPETAG
1070
     1
1071
        0
1005
424
  0
LWPOLYLINE
  5
427
330
2
100
AcDbEntity
  8
YKK_A1
100
AcDbPolyline
 90
        4
 70
     1
 43
0.0
 10
648.80002125
 20
501.39999192
 10
692.8000182
 20
501.39999192
 10
692.8000182
 20
402.64999259
 10
648.80002125
 20
402.64999259
1001
GENIUS_GENREC_14
1002
{
1000
PYDIR
1011
648.80002125
1021
402.64999259
1031
0.0
1002
}
1002
{
1000
PXDIR
1011
692.8000182
1021
501.39999192
1031
0.0
1002
}
1002
{
1000
PORI
1011
648.80002125
1021
501.39999192
1031
0.0
1002
}
1002
{
1000
PINS
1011
648.80002125
1021
501.39999192
1031
0.0
1002
}
1002
{
1000
PINS2
1011
692.8000182
1021
402.64999259
1031
0.0
1002
}
1002
{
1000
H
1070
     0
1002
}
1002
{
1000
W
1070
     1
1002
}
1002
{
1000
C
1070
     1
1002
}
1001
GENIUS_GENOBJ-N-REC_13
1002
{
1000
OWNER
1000
GEN
1002
}
1001
GENIUS_GENODEF_13
1002
{
1000
HIER
1070
     0
1002
}
1002
{
1000
MANEDIT
1070
     0
1002
}
1002
{
1000
NOSEL
1070
     0
1002
}
1002
{
1000
BEHIND
1070
     0
1002
}
1002
{
1000
OTHER
1070
     0
1002
}
1002
{
1000
REACTOR
1002
}
1001
ACDBBLOCKREPETAG
1070
     1
1071
        1
1005
427
  0
LWPOLYLINE
  5
428
330
2
100
AcDbEntity
  8
YKK_A1
100
AcDbPolyline
 90
        6
 70
     0
 43
0.0
 10
691.55001973
 20
408.12499268
 10
691.55001973
 20
403.64999232
 10
650.05001973
 20
403.64999232
 10
650.05001973
 20
500.14999268
 10
691.55001973
 20
500.14999268
 10
691.55001973
 20
495.77499268
1001
GENIUS_GENREC_14
1002
{
1000
PYDIR
1011
691.55001973
1021
500.14999268
1031
0.0
1002
}
1002
{
1000
PXDIR
1011
650.05001973
1021
403.64999232
1031
0.0
1002
}
1002
{
1000
PORI
1011
691.55001973
1021
403.64999232
1031
0.0
1002
}
1002
{
1000
PINS
1011
691.55001973
1021
403.64999232
1031
0.0
1002
}
1002
{
1000
PINS2
1011
650.05001973
1021
500.14999268
1031
0.0
1002
}
1002
{
1000
C
1070
     1
1002
}
1001
GENIUS_GENOBJ-N-REC_13
1002
{
1000
OWNER
1000
GEN
1002
}
1001
GENIUS_GENODEF_13
1002
{
1000
HIER
1070
     0
1002
}
1002
{
1000
MANEDIT
1070
     0
1002
}
1002
{
1000
NOSEL
1070
     0
1002
}
1002
{
1000
BEHIND
1070
     0
1002
}
1002
{
1000
OTHER
1070
     0
1002
}
1002
{
1000
REACTOR
1002
}
1001
ACDBBLOCKREPETAG
1070
     1
1071
       29
1005
428
  0
LINE
  5
429
330
2
100
AcDbEntity
  8
YKK_D
100
AcDbLine
 10
702.8000182
 20
499.94999268
 30
0.0
 11
702.8000182
 21
403.94999268
 31
0.0
  0
LINE
  5
42A
330
2
100
AcDbEntity
  8
YKK_D
100
AcDbLine
 10
691.35001973
 20
401.64999259
 30
0.0
 11
691.35001973
 21
391.64999259
 31
0.0
  0
LINE
  5
42B
330
2
100
AcDbEntity
  8
YKK_D
100
AcDbLine
 10
650.25001973
 20
401.64999259
 30
0.0
 11
650.25001973
 21
391.64999259
 31
0.0
  0
TEXT
  5
42C
330
2
100
AcDbEntity
  8
YKK_D
100
AcDbText
 10
667.58377607
 20
393.64999259
 30
0.0
 40
6.0
  1
DW
 41
0.8
100
AcDbText
  0
LINE
  5
42D
330
2
100
AcDbEntity
  8
YKK_D
100
AcDbLine
 10
650.25001973
 20
392.64999259
 30
0.0
 11
691.35001973
 21
392.64999259
 31
0.0
  0
LWPOLYLINE
  5
42E
330
2
100
AcDbEntity
  8
YKK_D
  6
ByBlock
100
AcDbPolyline
 90
        2
 70
     1
 43
0.85
 10
650.35626973
 20
392.64999259
 42
1.0
 10
650.14376973
 20
392.64999259
 42
1.0
  0
LWPOLYLINE
  5
42F
330
2
100
AcDbEntity
  8
YKK_D
  6
ByBlock
100
AcDbPolyline
 90
        2
 70
     1
 43
0.85
 10
691.24376973
 20
392.64999259
 42
1.0
 10
691.45626973
 20
392.64999259
 42
1.0
  0
ARC
  5
436
330
2
100
AcDbEntity
  8
YKK_A1
100
AcDbCircle
 10
658.2500198
 20
451.44999268
 30
0.0
 40
0.5999999642373158
100
AcDbArc
 50
270.0
 51
90.0
1001
ACDBBLOCKREPETAG
1070
     1
1071
        8
1005
436
  0
ARC
  5
437
330
2
100
AcDbEntity
  8
YKK_A1
100
AcDbCircle
 10
653.45001973
 20
451.44999268
 30
0.0
 40
0.5999999642373158
100
AcDbArc
 50
90.0
 51
270.0
1001
ACDBBLOCKREPETAG
1070
     1
1071
        3
1005
437
  0
ARC
  5
438
330
2
100
AcDbEntity
  8
YKK_A1
100
AcDbCircle
 10
653.45001973
 20
451.44999268
 30
0.0
 40
0.5999999642373158
100
AcDbArc
 50
90.0
 51
270.0
1001
ACDBBLOCKREPETAG
1070
     1
1071
        7
1005
438
  0
ARC
  5
439
330
2
100
AcDbEntity
  8
YKK_A1
100
AcDbCircle
 10
653.45001976
 20
451.44999201
 30
0.0
 40
1.224999926984519
100
AcDbArc
 50
29.32720467
 51
330.67286713
1001
ACDBBLOCKREPETAG
1070
     1
1071
        9
1005
439
  0
LINE
  5
43A
330
2
100
AcDbEntity
  8
YKK_A1
100
AcDbLine
 10
653.45001973
 20
450.84999272
 30
0.0
 11
658.2500198
 21
450.84999272
 31
0.0
1001
ACDBBLOCKREPETAG
1070
     1
1071
        6
1005
43A
  0
LINE
  5
43B
330
2
100
AcDbEntity
  8
YKK_A1
100
AcDbLine
 10
658.2500198
 20
452.04999265
 30
0.0
 11
653.45001973
 21
452.04999265
 31
0.0
1001
ACDBBLOCKREPETAG
1070
     1
1071
        5
1005
43B
  0
CIRCLE
  5
43C
330
2
100
AcDbEntity
  8
YKK_A1
100
AcDbCircle
 10
653.45001976
 20
455.44999177
 30
0.0
 40
1.099999934435079
1001
ACDBBLOCKREPETAG
1070
     1
1071
        4
1005
43C
  0
CIRCLE
  5
43D
330
2
100
AcDbEntity
  8
YKK_A1
100
AcDbCircle
 10
653.45001976
 20
455.44999177
 30
0.0
 40
1.099999934435079
1001
ACDBBLOCKREPETAG
1070
     1
1071
       10
1005
43D
  0
CIRCLE
  5
43E
330
2
100
AcDbEntity
  8
YKK_A1
100
AcDbCircle
 10
670.80001973
 20
471.44999268
 30
0.0
 40
0.3749999776483223
1001
ACDBBLOCKREPETAG
1070
     1
1071
       11
1005
43E
  0
LWPOLYLINE
  5
43F
330
2
100
AcDbEntity
  8
YKK_A1
100
AcDbPolyline
 90
        2
 70
     0
 43
0.0
 10
691.55001973
 20
448.82499268
 10
691.55001973
 20
414.37499268
1001
GENIUS_GENREC_14
1002
{
1000
PYDIR
1011
691.55001973
1021
500.14999268
1031
0.0
1002
}
1002
{
1000
PXDIR
1011
650.05001973
1021
403.64999232
1031
0.0
1002
}
1002
{
1000
PORI
1011
691.55001973
1021
403.64999232
1031
0.0
1002
}
1002
{
1000
PINS
1011
691.55001973
1021
403.64999232
1031
0.0
1002
}
1002
{
1000
PINS2
1011
650.05001973
1021
500.14999268
1031
0.0
1002
}
1002
{
1000
C
1070
     1
1002
}
1001
GENIUS_GENOBJ-N-REC_13
1002
{
1000
OWNER
1000
GEN
1002
}
1001
GENIUS_GENODEF_13
1002
{
1000
HIER
1070
     0
1002
}
1002
{
1000
MANEDIT
1070
     0
1002
}
1002
{
1000
NOSEL
1070
     0
1002
}
1002
{
1000
BEHIND
1070
     0
1002
}
1002
{
1000
OTHER
1070
     0
1002
}
1002
{
1000
REACTOR
1002
}
1001
ACDBBLOCKREPETAG
1070
     1
1071
       27
1005
43F
  0
LWPOLYLINE
  5
440
330
2
100
AcDbEntity
  8
YKK_A1
100
AcDbPolyline
 90
        2
 70
     0
 43
0.0
 10
691.35001973
 20
414.37499268
 10
691.35001973
 20
448.82499268
1001
GENIUS_GENREC_14
1002
{
1000
PYDIR
1011
650.25001973
1021
499.94999268
1031
0.0
1002
}
1002
{
1000
PXDIR
1011
691.35001973
1021
403.94999268
1031
0.0
1002
}
1002
{
1000
PORI
1011
650.25001973
1021
403.94999268
1031
0.0
1002
}
1002
{
1000
PINS
1011
650.25001973
1021
403.94999268
1031
0.0
1002
}
1002
{
1000
HVAL
1000
1920
1002
}
1002
{
1000
H
1070
     2
1002
}
1002
{
1000
WVAL
1000
822
1002
}
1002
{
1000
W
1070
     2
1002
}
1002
{
1000
C
1070
     1
1002
}
1001
GENIUS_GENODEF_13
1002
{
1000
HIER
1070
     0
1002
}
1002
{
1000
MANEDIT
1070
     0
1002
}
1002
{
1000
NOSEL
1070
     0
1002
}
1002
{
1000
BEHIND
1070
     0
1002
}
1002
{
1000
OTHER
1070
     0
1002
}
1002
{
1000
REACTOR
1002
}
1001
GENIUS_GENOBJ-N-REC_13
1002
{
1000
OWNER
1000
GEN
1002
}
1001
ACDBBLOCKREPETAG
1070
     1
1071
       30
1005
440
  0
LINE
  5
441
330
2
100
AcDbEntity
  8
YKK_A1
100
AcDbLine
 10
691.90001973
 20
408.12499268
 30
0.0
 11
691.90001973
 21
414.37499268
 31
0.0
1001
ACDBBLOCKREPETAG
1070
     1
1071
       20
1005
441
  0
LINE
  5
442
330
2
100
AcDbEntity
  8
YKK_A1
100
AcDbLine
 10
690.95001973
 20
408.12499268
 30
0.0
 11
690.95001973
 21
414.37499268
 31
0.0
1001
ACDBBLOCKREPETAG
1070
     1
1071
       21
1005
442
  0
LINE
  5
443
330
2
100
AcDbEntity
  8
YKK_D
100
AcDbLine
 10
693.8000182
 20
403.94999268
 30
0.0
 11
703.8000182
 21
403.94999268
 31
0.0
  0
LINE
  5
444
330
2
100
AcDbEntity
  8
YKK_A1
100
AcDbLine
 10
690.95001973
 20
411.24999268
 30
0.0
 11
691.90001973
 21
411.24999268
 31
0.0
1001
ACDBBLOCKREPETAG
1070
     1
1071
       17
1005
444
  0
LINE
  5
445
330
2
100
AcDbEntity
  8
YKK_A1
100
AcDbLine
 10
690.95001973
 20
408.12499268
 30
0.0
 11
691.90001973
 21
408.12499268
 31
0.0
1001
ACDBBLOCKREPETAG
1070
     1
1071
       18
1005
445
  0
LWPOLYLINE
  5
446
330
2
100
AcDbEntity
  8
YKK_D
  6
ByBlock
100
AcDbPolyline
 90
        2
 70
     1
 43
0.85
 10
702.8000182
 20
404.05624268
 42
1.0
 10
702.8000182
 20
403.84374268
 42
1.0
  0
LINE
  5
447
330
2
100
AcDbEntity
  8
YKK_A1
100
AcDbLine
 10
690.95001973
 20
414.37499268
 30
0.0
 11
691.90001973
 21
414.37499268
 31
0.0
1001
ACDBBLOCKREPETAG
1070
     1
1071
       19
1005
447
  0
LWPOLYLINE
  5
448
330
2
100
AcDbEntity
  8
YKK_A1
100
AcDbPolyline
 90
        2
 70
     0
 43
0.0
 10
691.55001973
 20
489.52499268
 10
691.55001973
 20
455.07499268
1001
GENIUS_GENREC_14
1002
{
1000
PYDIR
1011
691.55001973
1021
500.14999268
1031
0.0
1002
}
1002
{
1000
PXDIR
1011
650.05001973
1021
403.64999232
1031
0.0
1002
}
1002
{
1000
PORI
1011
691.55001973
1021
403.64999232
1031
0.0
1002
}
1002
{
1000
PINS
1011
691.55001973
1021
403.64999232
1031
0.0
1002
}
1002
{
1000
PINS2
1011
650.05001973
1021
500.14999268
1031
0.0
1002
}
1002
{
1000
C
1070
     1
1002
}
1001
GENIUS_GENOBJ-N-REC_13
1002
{
1000
OWNER
1000
GEN
1002
}
1001
GENIUS_GENODEF_13
1002
{
1000
HIER
1070
     0
1002
}
1002
{
1000
MANEDIT
1070
     0
1002
}
1002
{
1000
NOSEL
1070
     0
1002
}
1002
{
1000
BEHIND
1070
     0
1002
}
1002
{
1000
OTHER
1070
     0
1002
}
1002
{
1000
REACTOR
1002
}
1001
ACDBBLOCKREPETAG
1070
     1
1071
        2
1005
448
  0
LWPOLYLINE
  5
449
330
2
100
AcDbEntity
  8
YKK_A1
100
AcDbPolyline
 90
        2
 70
     0
 43
0.0
 10
691.35001973
 20
455.07499268
 10
691.35001973
 20
489.52499268
1001
GENIUS_GENREC_14
1002
{
1000
PYDIR
1011
650.25001973
1021
499.94999268
1031
0.0
1002
}
1002
{
1000
PXDIR
1011
691.35001973
1021
403.94999268
1031
0.0
1002
}
1002
{
1000
PORI
1011
650.25001973
1021
403.94999268
1031
0.0
1002
}
1002
{
1000
PINS
1011
650.25001973
1021
403.94999268
1031
0.0
1002
}
1002
{
1000
HVAL
1000
1920
1002
}
1002
{
1000
H
1070
     2
1002
}
1002
{
1000
WVAL
1000
822
1002
}
1002
{
1000
W
1070
     2
1002
}
1002
{
1000
C
1070
     1
1002
}
1001
GENIUS_GENODEF_13
1002
{
1000
HIER
1070
     0
1002
}
1002
{
1000
MANEDIT
1070
     0
1002
}
1002
{
1000
NOSEL
1070
     0
1002
}
1002
{
1000
BEHIND
1070
     0
1002
}
1002
{
1000
OTHER
1070
     0
1002
}
1002
{
1000
REACTOR
1002
}
1001
GENIUS_GENOBJ-N-REC_13
1002
{
1000
OWNER
1000
GEN
1002
}
1001
ACDBBLOCKREPETAG
1070
     1
1071
       28
1005
449
  0
TEXT
  5
44A
330
2
100
AcDbEntity
  8
YKK_D
100
AcDbText
 10
701.8000182
 20
448.8433937
 30
0.0
 40
6.0
  1
DH
 50
90.0
 41
0.8
100
AcDbText
  0
LINE
  5
44B
330
2
100
AcDbEntity
  8
YKK_A1
100
AcDbLine
 10
690.95001973
 20
451.94999268
 30
0.0
 11
691.90001973
 21
451.94999268
 31
0.0
1001
ACDBBLOCKREPETAG
1070
     1
1071
       22
1005
44B
  0
LINE
  5
44C
330
2
100
AcDbEntity
  8
YKK_A1
100
AcDbLine
 10
690.95001973
 20
455.07499268
 30
0.0
 11
691.90001973
 21
455.07499268
 31
0.0
1001
ACDBBLOCKREPETAG
1070
     1
1071
       23
1005
44C
  0
LINE
  5
44D
330
2
100
AcDbEntity
  8
YKK_A1
100
AcDbLine
 10
690.95001973
 20
448.82499268
 30
0.0
 11
691.90001973
 21
448.82499268
 31
0.0
1001
ACDBBLOCKREPETAG
1070
     1
1071
       24
1005
44D
  0
LINE
  5
44E
330
2
100
AcDbEntity
  8
YKK_A1
100
AcDbLine
 10
691.90001973
 20
455.07499268
 30
0.0
 11
691.90001973
 21
448.82499268
 31
0.0
1001
ACDBBLOCKREPETAG
1070
     1
1071
       25
1005
44E
  0
LINE
  5
44F
330
2
100
AcDbEntity
  8
YKK_A1
100
AcDbLine
 10
690.95001973
 20
455.07499268
 30
0.0
 11
690.95001973
 21
448.82499268
 31
0.0
1001
ACDBBLOCKREPETAG
1070
     1
1071
       26
1005
44F
  0
LINE
  5
450
330
2
100
AcDbEntity
  8
YKK_A1
100
AcDbLine
 10
690.95001973
 20
492.64999268
 30
0.0
 11
691.90001973
 21
492.64999268
 31
0.0
1001
ACDBBLOCKREPETAG
1070
     1
1071
       12
1005
450
  0
LINE
  5
451
330
2
100
AcDbEntity
  8
YKK_A1
100
AcDbLine
 10
690.95001973
 20
489.52499268
 30
0.0
 11
691.90001973
 21
489.52499268
 31
0.0
1001
ACDBBLOCKREPETAG
1070
     1
1071
       14
1005
451
  0
LINE
  5
452
330
2
100
AcDbEntity
  8
YKK_D
100
AcDbLine
 10
693.8000182
 20
499.94999268
 30
0.0
 11
703.8000182
 21
499.94999268
 31
0.0
  0
LINE
  5
453
330
2
100
AcDbEntity
  8
YKK_A1
100
AcDbLine
 10
690.95001973
 20
495.77499268
 30
0.0
 11
691.90001973
 21
495.77499268
 31
0.0
1001
ACDBBLOCKREPETAG
1070
     1
1071
       13
1005
453
  0
LWPOLYLINE
  5
454
330
2
100
AcDbEntity
  8
YKK_D
  6
ByBlock
100
AcDbPolyline
 90
        2
 70
     1
 43
0.85
 10
702.8000182
 20
499.84374268
 42
1.0
 10
702.8000182
 20
500.05624268
 42
1.0
  0
ENDSEC
  0
SECTION
  2
OBJECTS
  0
DICTIONARY
  5
1E
330
0
100
AcDbDictionary
281
     1
  3
ACAD_CIP_PREVIOUS_PRODUCT_INFO
350
515
  3
ACAD_COLOR
350
4AA
  3
ACAD_DETAILVIEWSTYLE
350
4C3
  3
ACAD_GROUP
350
1C
  3
ACAD_LAYOUT
350
4C8
  3
ACAD_MATERIAL
350
478
  3
ACAD_MLEADERSTYLE
350
4BF
  3
ACAD_MLINESTYLE
350
1D
  3
ACAD_PLOTSETTINGS
350
4C7
  3
ACAD_PLOTSTYLENAME
350
476
  3
ACAD_SCALELIST
350
4AD
  3
ACAD_SECTIONVIEWSTYLE
350
4C1
  3
ACAD_TABLESTYLE
350
4AB
  3
ACAD_VISUALSTYLE
350
491
  3
ACDB_RECOMPOSE_DATA
350
51B
  3
AcDbVariableDictionary
350
509
  0
DICTIONARY
  5
3
330
2
100
AcDbDictionary
280
     1
281
     1
  3
ACAD_LAYOUTSELFREF
360
4
  0
DICTIONARY
  5
A
330
9
100
AcDbDictionary
280
     1
281
     1
  3
ACAD_LAYOUTSELFREF
360
B
  0
DICTIONARY
  5
13F
330
124
100
AcDbDictionary
280
     1
281
     1
  0
DICTIONARY
  5
218
330
1F9
100
AcDbDictionary
280
     1
281
     1
  0
DICTIONARY
  5
109
330
107
100
AcDbDictionary
280
     1
281
     1
  0
XRECORD
  5
515
102
{ACAD_REACTORS
330
1E
102
}
330
1E
100
AcDbXrecord
280
     1
300
ACD
300
2014
300
86063ACD_2014_0F
  0
DICTIONARY
  5
4AA
102
{ACAD_REACTORS
330
1E
102
}
330
1E
100
AcDbDictionary
281
     1
  0
DICTIONARY
  5
4C3
102
{ACAD_REACTORS
330
1E
102
}
330
1E
100
AcDbDictionary
281
     1
  3
Imperial24
350
4C4
  0
DICTIONARY
  5
1C
102
{ACAD_REACTORS
330
1E
102
}
330
1E
100
AcDbDictionary
281
     1
  0
DICTIONARY
  5
4C8
102
{ACAD_REACTORS
330
1E
102
}
330
1E
100
AcDbDictionary
281
     1
  3
Model
350
4C9
  3
レイアウト1
350
4CA
  0
DICTIONARY
  5
478
102
{ACAD_REACTORS
330
1E
102
}
330
1E
100
AcDbDictionary
281
     1
  3
ByBlock
350
481
  3
ByLayer
350
479
  3
Global
350
489
  0
DICTIONARY
  5
4BF
102
{ACAD_REACTORS
330
1E
102
}
330
1E
100
AcDbDictionary
281
     1
  3
Standard
350
4C0
  0
DICTIONARY
  5
1D
102
{ACAD_REACTORS
330
1E
102
}
330
1E
100
AcDbDictionary
281
     1
  3
STANDARD
350
1F
  0
DICTIONARY
  5
4C7
102
{ACAD_REACTORS
330
1E
102
}
330
1E
100
AcDbDictionary
281
     1
  0
ACDBDICTIONARYWDFLT
  5
476
102
{ACAD_REACTORS
330
1E
102
}
330
1E
100
AcDbDictionary
281
     1
  3
Normal
350
477
100
AcDbDictionaryWithDefault
340
477
  0
DICTIONARY
  5
4AD
102
{ACAD_REACTORS
330
1E
102
}
330
1E
100
AcDbDictionary
281
     1
  3
A0
350
4AE
  3
A1
350
4AF
  3
A2
350
4B0
  3
A3
350
4B1
  3
A4
350
4B2
  3
A5
350
4B3
  3
A6
350
4B4
  3
A7
350
4B5
  3
A8
350
4B6
  3
A9
350
4B7
  3
B0
350
4B8
  3
B1
350
4B9
  3
B2
350
4BA
  3
B3
350
4BB
  3
B4
350
4BC
  3
B5
350
4BD
  3
B6
350
4BE
  0
DICTIONARY
  5
4C1
102
{ACAD_REACTORS
330
1E
102
}
330
1E
100
AcDbDictionary
281
     1
  3
Imperial24
350
4C2
  0
DICTIONARY
  5
4AB
102
{ACAD_REACTORS
330
1E
102
}
330
1E
100
AcDbDictionary
281
     1
  3
Standard
350
4AC
  0
DICTIONARY
  5
491
102
{ACAD_REACTORS
330
1E
102
}
330
1E
100
AcDbDictionary
281
     1
  3
2dWireframe
350
497
  3
Basic
350
496
  3
Brighten
350
49D
  3
ColorChange
350
4A1
  3
Conceptual
350
49A
  3
Dim
350
49C
  3
EdgeColorOff
350
4A9
  3
Facepattern
350
4A0
  3
Flat
350
492
  3
FlatWithEdges
350
493
  3
Gouraud
350
494
  3
GouraudWithEdges
350
495
  3
Hidden
350
499
  3
JitterOff
350
4A7
  3
Linepattern
350
49F
  3
OverhangOff
350
4A8
  3
Realistic
350
49B
  3
Shaded
350
4A6
  3
Shaded with edges
350
4A5
  3
Shades of Gray
350
4A2
  3
Sketchy
350
4A3
  3
Thicken
350
49E
  3
Wireframe
350
498
  3
X-Ray
350
4A4
  0
XRECORD
  5
51B
102
{ACAD_REACTORS
330
1E
102
}
330
1E
100
AcDbXrecord
280
     1
 90
        1
330
4AC
  0
DICTIONARY
  5
509
102
{ACAD_REACTORS
330
1E
102
}
330
1E
100
AcDbDictionary
281
     1
  3
CANNOSCALE
350
50E
  3
CMLEADERSTYLE
350
50B
  3
CTABLESTYLE
350
50A
  3
CVIEWDETAILSTYLE
350
50C
  3
CVIEWSECTIONSTYLE
350
50D
  3
XCLIPFRAME
350
519
  0
XRECORD
  5
4
102
{ACAD_REACTORS
330
3
102
}
330
3
100
AcDbXrecord
280
     1
340
2
  0
XRECORD
  5
B
102
{ACAD_REACTORS
330
A
102
}
330
A
100
AcDbXrecord
280
     1
340
9
  0
ACDBDETAILVIEWSTYLE
  5
4C4
102
{ACAD_XDICTIONARY
360
554
102
}
102
{ACAD_REACTORS
330
4C3
102
}
330
4C3
100
AcDbModelDocViewStyle
 70
     0
  3
Imperial24
290
     0
100
AcDbDetailViewStyle
 70
     0
 71
     0
 90
        3
 71
     1
340
10
 62
   256
 40
0.24
340
0
 62
   256
 40
0.24
300

 40
0.36
280
     3
 71
     2
340
7
 90
       25
 62
   256
 71
     3
340
10
 62
   256
 40
0.24
 90
        1
 40
0.75
 90
        1
300
%<\AcVar ViewType \f "%tc1">% %<\AcVar ViewDetailId>%\PSCALE %<\AcVar ViewScale \f "%sn">%
 71
     4
340
7
 90
       25
 62
   256
340
7
 90
       25
 62
   256
280
     0
  0
LAYOUT
  5
4C9
102
{ACAD_REACTORS
330
4C8
102
}
330
4C8
100
AcDbPlotSettings
  1

  2
C:\ACAD-I\support\plotters\Default Windows System Printer.pc3
  4
A4
  6

 40
3.17499995
 41
3.17499995
 42
3.17500305
 43
3.17498779
 44
209.88865662
 45
297.05300903
 46
0.0
 47
0.0
 48
0.0
 49
0.0
140
0.0
141
0.0
142
1.0
143
80.47735628
 70
 11952
 72
     0
 73
     1
 74
     0
  7
monochrome.ctb
 75
     0
147
0.01242586
 76
     0
 77
     2
 78
   300
148
913.03324828
149
58.24846448
100
AcDbLayout
  1
Model
 70
     1
 71
     0
 10
0.0
 20
0.0
 11
12.0
 21
9.0
 12
0.0
 22
0.0
 32
0.0
 14
0.0
 24
0.0
 34
0.0
 15
0.0
 25
0.0
 35
0.0
146
0.0
 13
0.0
 23
0.0
 33
0.0
 16
1.0
 26
0.0
 36
0.0
 17
0.0
 27
1.0
 37
0.0
 76
     0
330
2
1001
ACAD_PSEXT
1000
C:\ACAD-I\support\plotters\Default Windows System Printer.pc3
1000
Fiery PRO80 65-55C-KM PS3.0jp
1000
IP_10.230.204.212
1000

1070
     0
  0
LAYOUT
  5
4CA
102
{ACAD_REACTORS
330
4C8
102
}
330
4C8
100
AcDbPlotSettings
  1

  2
C:\ACAD-I\support\plotters\Default Windows System Printer.pc3
  4
A4
  6

 40
3.17499995
 41
3.17499995
 42
3.17500305
 43
3.17498779
 44
209.88865662
 45
297.05300903
 46
0.0
 47
0.0
 48
0.0
 49
0.0
140
0.0
141
0.0
142
1.0
143
1.0
 70
 15024
 72
     0
 73
     1
 74
     5
  7
monochrome.ctb
 75
    16
147
1.0
 76
     0
 77
     2
 78
   300
148
0.0
149
0.0
100
AcDbLayout
  1
レイアウト1
 70
     1
 71
     1
 10
0.0
 20
0.0
 11
420.0
 21
297.0
 12
0.0
 22
0.0
 32
0.0
 14
1.00000000E+20
 24
1.00000000E+20
 34
1.00000000E+20
 15
-1.00000000E+20
 25
-1.00000000E+20
 35
-1.00000000E+20
146
0.0
 13
0.0
 23
0.0
 33
0.0
 16
1.0
 26
0.0
 36
0.0
 17
0.0
 27
1.0
 37
0.0
 76
     0
330
9
1001
ACAD_PSEXT
1000
C:\ACAD-I\support\plotters\Default Windows System Printer.pc3
1000
Fiery PRO80 65-55C-KM PS3.0jp
1000
IP_10.230.204.212
1000

1070
     0
  0
MATERIAL
  5
481
102
{ACAD_XDICTIONARY
360
482
102
}
102
{ACAD_REACTORS
330
478
102
}
330
478
100
AcDbMaterial
  1
ByBlock
 72
     0
 43
0.02083333
 43
0.0
 43
0.0
 43
0.0
 43
0.0
 43
0.02083333
 43
0.0
 43
0.0
 43
0.0
 43
0.0
 43
1.0
 43
0.0
 43
0.0
 43
0.0
 43
0.0
 43
1.0
 77
     0
 47
0.02083333
 47
0.0
 47
0.0
 47
0.0
 47
0.0
 47
0.02083333
 47
0.0
 47
0.0
 47
0.0
 47
0.0
 47
1.0
 47
0.0
 47
0.0
 47
0.0
 47
0.0
 47
1.0
171
     0
 49
0.02083333
 49
0.0
 49
0.0
 49
0.0
 49
0.0
 49
0.02083333
 49
0.0
 49
0.0
 49
0.0
 49
0.0
 49
1.0
 49
0.0
 49
0.0
 49
0.0
 49
0.0
 49
1.0
175
     0
142
0.02083333
142
0.0
142
0.0
142
0.0
142
0.0
142
0.02083333
142
0.0
142
0.0
142
0.0
142
0.0
142
1.0
142
0.0
142
0.0
142
0.0
142
0.0
142
1.0
179
     0
144
0.02083333
144
0.0
144
0.0
144
0.0
144
0.0
144
0.02083333
144
0.0
144
0.0
144
0.0
144
0.0
144
1.0
144
0.0
144
0.0
144
0.0
144
0.0
144
1.0
147
0.02083333
147
0.0
147
0.0
147
0.0
147
0.0
147
0.02083333
147
0.0
147
0.0
147
0.0
147
0.0
147
1.0
147
0.0
147
0.0
147
0.0
147
0.0
147
1.0
  0
MATERIAL
  5
479
102
{ACAD_XDICTIONARY
360
47A
102
}
102
{ACAD_REACTORS
330
478
102
}
330
478
100
AcDbMaterial
  1
ByLayer
 72
     0
 43
0.02083333
 43
0.0
 43
0.0
 43
0.0
 43
0.0
 43
0.02083333
 43
0.0
 43
0.0
 43
0.0
 43
0.0
 43
1.0
 43
0.0
 43
0.0
 43
0.0
 43
0.0
 43
1.0
 77
     0
 47
0.02083333
 47
0.0
 47
0.0
 47
0.0
 47
0.0
 47
0.02083333
 47
0.0
 47
0.0
 47
0.0
 47
0.0
 47
1.0
 47
0.0
 47
0.0
 47
0.0
 47
0.0
 47
1.0
171
     0
 49
0.02083333
 49
0.0
 49
0.0
 49
0.0
 49
0.0
 49
0.02083333
 49
0.0
 49
0.0
 49
0.0
 49
0.0
 49
1.0
 49
0.0
 49
0.0
 49
0.0
 49
0.0
 49
1.0
175
     0
142
0.02083333
142
0.0
142
0.0
142
0.0
142
0.0
142
0.02083333
142
0.0
142
0.0
142
0.0
142
0.0
142
1.0
142
0.0
142
0.0
142
0.0
142
0.0
142
1.0
179
     0
144
0.02083333
144
0.0
144
0.0
144
0.0
144
0.0
144
0.02083333
144
0.0
144
0.0
144
0.0
144
0.0
144
1.0
144
0.0
144
0.0
144
0.0
144
0.0
144
1.0
147
0.02083333
147
0.0
147
0.0
147
0.0
147
0.0
147
0.02083333
147
0.0
147
0.0
147
0.0
147
0.0
147
1.0
147
0.0
147
0.0
147
0.0
147
0.0
147
1.0
  0
MATERIAL
  5
489
102
{ACAD_XDICTIONARY
360
48A
102
}
102
{ACAD_REACTORS
330
478
102
}
330
478
100
AcDbMaterial
  1
Global
 72
     0
 43
0.02083333
 43
0.0
 43
0.0
 43
0.0
 43
0.0
 43
0.02083333
 43
0.0
 43
0.0
 43
0.0
 43
0.0
 43
1.0
 43
0.0
 43
0.0
 43
0.0
 43
0.0
 43
1.0
 77
     0
 47
0.02083333
 47
0.0
 47
0.0
 47
0.0
 47
0.0
 47
0.02083333
 47
0.0
 47
0.0
 47
0.0
 47
0.0
 47
1.0
 47
0.0
 47
0.0
 47
0.0
 47
0.0
 47
1.0
171
     0
 49
0.02083333
 49
0.0
 49
0.0
 49
0.0
 49
0.0
 49
0.02083333
 49
0.0
 49
0.0
 49
0.0
 49
0.0
 49
1.0
 49
0.0
 49
0.0
 49
0.0
 49
0.0
 49
1.0
175
     0
142
0.02083333
142
0.0
142
0.0
142
0.0
142
0.0
142
0.02083333
142
0.0
142
0.0
142
0.0
142
0.0
142
1.0
142
0.0
142
0.0
142
0.0
142
0.0
142
1.0
179
     0
144
0.02083333
144
0.0
144
0.0
144
0.0
144
0.0
144
0.02083333
144
0.0
144
0.0
144
0.0
144
0.0
144
1.0
144
0.0
144
0.0
144
0.0
144
0.0
144
1.0
147
0.02083333
147
0.0
147
0.0
147
0.0
147
0.0
147
0.02083333
147
0.0
147
0.0
147
0.0
147
0.0
147
1.0
147
0.0
147
0.0
147
0.0
147
0.0
147
1.0
  0
MLEADERSTYLE
  5
4C0
102
{ACAD_XDICTIONARY
360
550
102
}
102
{ACAD_REACTORS
330
4BF
102
}
330
4BF
100
AcDbMLeaderStyle
170
     2
171
     1
172
     0
 90
        2
 40
0.0
 41
0.0
173
     1
 91
-1056964608
340
12
 92
       -2
290
     1
 42
0.09
291
     1
 43
0.36
  3
Standard
 44
0.18
300

342
10
174
     1
178
     6
175
     1
176
     0
 93
-1056964608
 45
0.18
292
     0
297
     0
 46
0.18
 94
-1056964608
 47
1.0
 49
1.0
140
1.0
293
     1
141
0.0
294
     1
177
     0
142
1.0
295
     0
296
     0
143
0.125
1001
ACAD_MLEADERVER
1070
     2
  0
MLINESTYLE
  5
1F
102
{ACAD_REACTORS
330
1D
102
}
330
1D
100
AcDbMlineStyle
  2
STANDARD
 70
     0
  3

 62
   256
 51
90.0
 52
90.0
 71
     2
 49
0.5
 62
   256
  6
BYLAYER
 49
-0.5
 62
   256
  6
BYLAYER
  0
ACDBPLACEHOLDER
  5
477
102
{ACAD_REACTORS
330
476
102
}
330
476
  0
SCALE
  5
4AE
102
{ACAD_REACTORS
330
4AD
102
}
330
4AD
100
AcDbScale
 70
     0
300
1:1
140
1.0
141
1.0
290
     1
  0
SCALE
  5
4AF
102
{ACAD_REACTORS
330
4AD
102
}
330
4AD
100
AcDbScale
 70
     0
300
1/128" = 1'-0"
140
0.0078125
141
12.0
290
     0
  0
SCALE
  5
4B0
102
{ACAD_REACTORS
330
4AD
102
}
330
4AD
100
AcDbScale
 70
     0
300
1/64" = 1'-0"
140
0.015625
141
12.0
290
     0
  0
SCALE
  5
4B1
102
{ACAD_REACTORS
330
4AD
102
}
330
4AD
100
AcDbScale
 70
     0
300
1/32" = 1'-0"
140
0.03125
141
12.0
290
     0
  0
SCALE
  5
4B2
102
{ACAD_REACTORS
330
4AD
102
}
330
4AD
100
AcDbScale
 70
     0
300
1/16" = 1'-0"
140
0.0625
141
12.0
290
     0
  0
SCALE
  5
4B3
102
{ACAD_REACTORS
330
4AD
102
}
330
4AD
100
AcDbScale
 70
     0
300
3/32" = 1'-0"
140
0.09375
141
12.0
290
     0
  0
SCALE
  5
4B4
102
{ACAD_REACTORS
330
4AD
102
}
330
4AD
100
AcDbScale
 70
     0
300
1/8" = 1'-0"
140
0.125
141
12.0
290
     0
  0
SCALE
  5
4B5
102
{ACAD_REACTORS
330
4AD
102
}
330
4AD
100
AcDbScale
 70
     0
300
3/16" = 1'-0"
140
0.1875
141
12.0
290
     0
  0
SCALE
  5
4B6
102
{ACAD_REACTORS
330
4AD
102
}
330
4AD
100
AcDbScale
 70
     0
300
1/4" = 1'-0"
140
0.25
141
12.0
290
     0
  0
SCALE
  5
4B7
102
{ACAD_REACTORS
330
4AD
102
}
330
4AD
100
AcDbScale
 70
     0
300
3/8" = 1'-0"
140
0.375
141
12.0
290
     0
  0
SCALE
  5
4B8
102
{ACAD_REACTORS
330
4AD
102
}
330
4AD
100
AcDbScale
 70
     0
300
1/2" = 1'-0"
140
0.5
141
12.0
290
     0
  0
SCALE
  5
4B9
102
{ACAD_REACTORS
330
4AD
102
}
330
4AD
100
AcDbScale
 70
     0
300
3/4" = 1'-0"
140
0.75
141
12.0
290
     0
  0
SCALE
  5
4BA
102
{ACAD_REACTORS
330
4AD
102
}
330
4AD
100
AcDbScale
 70
     0
300
1" = 1'-0"
140
1.0
141
12.0
290
     0
  0
SCALE
  5
4BB
102
{ACAD_REACTORS
330
4AD
102
}
330
4AD
100
AcDbScale
 70
     0
300
1-1/2" = 1'-0"
140
1.5
141
12.0
290
     0
  0
SCALE
  5
4BC
102
{ACAD_REACTORS
330
4AD
102
}
330
4AD
100
AcDbScale
 70
     0
300
3" = 1'-0"
140
3.0
141
12.0
290
     0
  0
SCALE
  5
4BD
102
{ACAD_REACTORS
330
4AD
102
}
330
4AD
100
AcDbScale
 70
     0
300
6" = 1'-0"
140
6.0
141
12.0
290
     0
  0
SCALE
  5
4BE
102
{ACAD_REACTORS
330
4AD
102
}
330
4AD
100
AcDbScale
 70
     0
300
1'-0" = 1'-0"
140
12.0
141
12.0
290
     0
  0
ACDBSECTIONVIEWSTYLE
  5
4C2
102
{ACAD_XDICTIONARY
360
552
102
}
102
{ACAD_REACTORS
330
4C1
102
}
330
4C1
100
AcDbModelDocViewStyle
 70
     0
  3
Imperial24
290
     0
100
AcDbSectionViewStyle
 70
     0
 71
     0
 90
      102
 71
     1
340
10
 62
   256
 40
5.0
340
0
340
0
 62
   256
 40
5.0
300
I, O, Q, S, X, Z
 40
10.0
 90
        0
 40
2.5
 90
        0
 71
     2
340
7
 90
       25
 62
   256
340
7
 90
       50
 62
   256
 40
5.0
 40
2.5
 40
5.0
 71
     3
340
10
 62
   256
 40
5.0
 90
        0
 40
15.0
 90
        1
300
%<\AcVar ViewSectionStartId>%-%<\AcVar ViewSectionEndId>% (%<\AcVar ViewScale \f "%sn">%)
 71
     4
 62
   256
 62
   257
300
ANSI31
 40
1.0
 90
        0
290
     0
290
     0
 90
        6
 40
0.0
 40
1.57079633
 40
0.26179939
 40
1.30899694
 40
-0.26179939
 40
1.83259571
  0
TABLESTYLE
  5
4AC
102
{ACAD_XDICTIONARY
360
4CB
102
}
102
{ACAD_REACTORS
330
4AB
102
}
330
4AB
100
AcDbTableStyle
  3
Standard
 70
     0
 71
     0
 40
0.06
 41
0.06
280
     0
281
     0
  7
STANDARD
140
0.18
170
     2
 62
     0
 63
     7
283
     0
274
    -2
284
     1
 64
     0
275
    -2
285
     1
 65
     0
276
    -2
286
     1
 66
     0
277
    -2
287
     1
 67
     0
278
    -2
288
     1
 68
     0
279
    -2
289
     1
 69
     0
  7
STANDARD
140
0.25
170
     5
 62
     0
 63
     7
283
     0
274
    -2
284
     1
 64
     0
275
    -2
285
     1
 65
     0
276
    -2
286
     1
 66
     0
277
    -2
287
     1
 67
     0
278
    -2
288
     1
 68
     0
279
    -2
289
     1
 69
     0
  7
STANDARD
140
0.18
170
     5
 62
     0
 63
     7
283
     0
274
    -2
284
     1
 64
     0
275
    -2
285
     1
 65
     0
276
    -2
286
     1
 66
     0
277
    -2
287
     1
 67
     0
278
    -2
288
     1
 68
     0
279
    -2
289
     1
 69
     0
  0
VISUALSTYLE
  5
497
102
{ACAD_XDICTIONARY
360
529
102
}
102
{ACAD_REACTORS
330
491
102
}
330
491
100
AcDbVisualStyle
  2
2dWireframe
 70
     4
 71
     0
 72
     2
 73
     0
 90
        0
 40
-0.6
 41
-30.0
 62
     5
 63
     7
421
 16777215
 74
     1
 91
        4
 64
     7
 65
   257
 75
     1
175
     1
 42
1.0
 92
        0
 66
   257
 43
1.0
 76
     1
 77
     6
 78
     2
 67
     7
 79
     5
170
     0
171
     0
290
     0
174
     0
 93
        1
 44
0.0
173
     0
291
     0
 45
0.0
1001
ACAD
1000
AcDbSavedByObjectVersion
1070
     0
  0
VISUALSTYLE
  5
496
102
{ACAD_XDICTIONARY
360
527
102
}
102
{ACAD_REACTORS
330
491
102
}
330
491
100
AcDbVisualStyle
  2
Basic
 70
     7
 71
     1
 72
     0
 73
     1
 90
        0
 40
-0.6
 41
-30.0
 62
     5
 63
     7
421
 16777215
 74
     0
 91
        4
 64
     7
 65
   257
 75
     1
175
     1
 42
1.0
 92
        8
 66
     7
 43
1.0
 76
     1
 77
     6
 78
     2
 67
     7
 79
     5
170
     0
171
     0
290
     0
174
     0
 93
        1
 44
0.0
173
     0
291
     1
 45
0.0
1001
ACAD
1000
AcDbSavedByObjectVersion
1070
     0
  0
VISUALSTYLE
  5
49D
102
{ACAD_XDICTIONARY
360
535
102
}
102
{ACAD_REACTORS
330
491
102
}
330
491
100
AcDbVisualStyle
  2
Brighten
 70
    12
 71
     2
 72
     2
 73
     0
 90
        0
 40
-0.6
 41
-30.0
 62
     5
 63
     7
421
 16777215
 74
     1
 91
        4
 64
     7
 65
   257
 75
     1
175
     1
 42
1.0
 92
        8
 66
     7
 43
1.0
 76
     1
 77
     6
 78
     2
 67
     7
 79
     5
170
     0
171
     0
290
     0
174
     0
 93
        1
 44
50.0
173
     0
291
     1
 45
0.0
1001
ACAD
1000
AcDbSavedByObjectVersion
1070
     0
  0
VISUALSTYLE
  5
4A1
102
{ACAD_XDICTIONARY
360
53D
102
}
102
{ACAD_REACTORS
330
491
102
}
330
491
100
AcDbVisualStyle
  2
ColorChange
 70
    16
 71
     2
 72
     2
 73
     3
 90
        0
 40
-0.6
 41
-30.0
 62
     5
 63
     8
421
  8421504
 74
     1
 91
        4
 64
     7
 65
   257
 75
     1
175
     1
 42
1.0
 92
        8
 66
     8
424
  8421504
 43
1.0
 76
     1
 77
     6
 78
     2
 67
     7
 79
     5
170
     0
171
     0
290
     0
174
     0
 93
        1
 44
0.0
173
     0
291
     1
 45
0.0
1001
ACAD
1000
AcDbSavedByObjectVersion
1070
     0
  0
VISUALSTYLE
  5
49A
102
{ACAD_XDICTIONARY
360
52F
102
}
102
{ACAD_REACTORS
330
491
102
}
330
491
100
AcDbVisualStyle
  2
Conceptual
 70
     9
 71
     3
 72
     2
 73
     0
 90
        0
 40
-0.6
 41
-30.0
 62
     5
 63
     7
421
 16777215
 74
     2
 91
        2
 64
     7
 65
   257
 75
     1
175
     1
 42
179.0
 92
        8
 66
     7
 43
1.0
 76
     1
 77
     6
 78
     2
 67
     7
 79
     3
170
     0
171
     0
290
     0
174
     0
 93
        1
 44
0.0
173
     0
291
     0
 45
0.0
1001
ACAD
1000
AcDbSavedByObjectVersion
1070
     0
  0
VISUALSTYLE
  5
49C
102
{ACAD_XDICTIONARY
360
533
102
}
102
{ACAD_REACTORS
330
491
102
}
330
491
100
AcDbVisualStyle
  2
Dim
 70
    11
 71
     2
 72
     2
 73
     0
 90
        0
 40
-0.6
 41
-30.0
 62
     5
 63
     7
421
 16777215
 74
     1
 91
        4
 64
     7
 65
   257
 75
     1
175
     1
 42
1.0
 92
        8
 66
     7
 43
1.0
 76
     1
 77
     6
 78
     2
 67
     7
 79
     5
170
     0
171
     0
290
     0
174
     0
 93
        1
 44
-50.0
173
     0
291
     1
 45
0.0
1001
ACAD
1000
AcDbSavedByObjectVersion
1070
     0
  0
VISUALSTYLE
  5
4A9
102
{ACAD_XDICTIONARY
360
54D
102
}
102
{ACAD_REACTORS
330
491
102
}
330
491
100
AcDbVisualStyle
  2
EdgeColorOff
 70
    22
 71
     2
 72
     2
 73
     0
 90
        0
 40
-0.6
 41
-30.0
 62
     5
 63
     7
421
 16777215
 74
     1
 91
        4
 64
     7
 65
   257
 75
     1
175
     1
 42
1.0
 92
        8
 66
     7
 43
1.0
 76
     1
 77
     6
 78
     2
 67
     7
 79
     5
170
     0
171
     0
290
     0
174
     0
 93
        1
 44
0.0
173
     0
291
     1
 45
0.0
1001
ACAD
1000
AcDbSavedByObjectVersion
1070
     0
  0
VISUALSTYLE
  5
4A0
102
{ACAD_XDICTIONARY
360
53B
102
}
102
{ACAD_REACTORS
330
491
102
}
330
491
100
AcDbVisualStyle
  2
Facepattern
 70
    15
 71
     2
 72
     2
 73
     0
 90
        0
 40
-0.6
 41
-30.0
 62
     5
 63
     7
421
 16777215
 74
     1
 91
        4
 64
     7
 65
   257
 75
     1
175
     1
 42
1.0
 92
        8
 66
     7
 43
1.0
 76
     1
 77
     6
 78
     2
 67
     7
 79
     5
170
     0
171
     0
290
     0
174
     0
 93
        1
 44
0.0
173
     0
291
     1
 45
0.0
1001
ACAD
1000
AcDbSavedByObjectVersion
1070
     0
  0
VISUALSTYLE
  5
492
102
{ACAD_XDICTIONARY
360
51F
102
}
102
{ACAD_REACTORS
330
491
102
}
330
491
100
AcDbVisualStyle
  2
Flat
 70
     0
 71
     2
 72
     1
 73
     1
 90
        2
 40
-0.6
 41
30.0
 62
     5
 63
     7
421
 16777215
 74
     0
 91
        0
 64
     7
 65
   257
 75
     1
175
     1
 42
1.0
 92
        8
 66
     7
 43
1.0
 76
     1
 77
     6
 78
     2
 67
     7
 79
     5
170
     0
171
     0
290
     0
174
     0
 93
       13
 44
0.0
173
     0
291
     1
 45
0.0
1001
ACAD
1000
AcDbSavedByObjectVersion
1070
     0
  0
VISUALSTYLE
  5
493
102
{ACAD_XDICTIONARY
360
521
102
}
102
{ACAD_REACTORS
330
491
102
}
330
491
100
AcDbVisualStyle
  2
FlatWithEdges
 70
     1
 71
     2
 72
     1
 73
     1
 90
        2
 40
-0.6
 41
30.0
 62
     5
 63
     7
421
 16777215
 74
     1
 91
        0
 64
     7
 65
   257
 75
     1
175
     1
 42
1.0
 92
        0
 66
   257
 43
1.0
 76
     1
 77
     6
 78
     2
 67
     7
 79
     5
170
     0
171
     0
290
     0
174
     0
 93
       13
 44
0.0
173
     0
291
     1
 45
0.0
1001
ACAD
1000
AcDbSavedByObjectVersion
1070
     0
  0
VISUALSTYLE
  5
494
102
{ACAD_XDICTIONARY
360
523
102
}
102
{ACAD_REACTORS
330
491
102
}
330
491
100
AcDbVisualStyle
  2
Gouraud
 70
     2
 71
     2
 72
     2
 73
     1
 90
        2
 40
-0.6
 41
30.0
 62
     5
 63
     7
421
 16777215
 74
     0
 91
        0
 64
     7
 65
   257
 75
     1
175
     1
 42
1.0
 92
        0
 66
     7
 43
1.0
 76
     1
 77
     6
 78
     2
 67
     7
 79
     5
170
     0
171
     0
290
     0
174
     0
 93
       13
 44
0.0
173
     0
291
     1
 45
0.0
1001
ACAD
1000
AcDbSavedByObjectVersion
1070
     0
  0
VISUALSTYLE
  5
495
102
{ACAD_XDICTIONARY
360
525
102
}
102
{ACAD_REACTORS
330
491
102
}
330
491
100
AcDbVisualStyle
  2
GouraudWithEdges
 70
     3
 71
     2
 72
     2
 73
     1
 90
        2
 40
-0.6
 41
30.0
 62
     5
 63
     7
421
 16777215
 74
     1
 91
        0
 64
     7
 65
   257
 75
     1
175
     1
 42
1.0
 92
        0
 66
   257
 43
1.0
 76
     1
 77
     6
 78
     2
 67
     7
 79
     5
170
     0
171
     0
290
     0
174
     0
 93
       13
 44
0.0
173
     0
291
     1
 45
0.0
1001
ACAD
1000
AcDbSavedByObjectVersion
1070
     0
  0
VISUALSTYLE
  5
499
102
{ACAD_XDICTIONARY
360
52D
102
}
102
{ACAD_REACTORS
330
491
102
}
330
491
100
AcDbVisualStyle
  2
Hidden
 70
     6
 71
     1
 72
     2
 73
     2
 90
        0
 40
-0.6
 41
-30.0
 62
     5
 63
     7
421
 16777215
 74
     2
 91
        2
 64
     7
 65
   257
 75
     2
175
     1
 42
40.0
 92
        0
 66
   257
 43
1.0
 76
     1
 77
     6
 78
     2
 67
     7
 79
     3
170
     0
171
     0
290
     0
174
     0
 93
        1
 44
0.0
173
     0
291
     0
 45
0.0
1001
ACAD
1000
AcDbSavedByObjectVersion
1070
     0
  0
VISUALSTYLE
  5
4A7
102
{ACAD_XDICTIONARY
360
549
102
}
102
{ACAD_REACTORS
330
491
102
}
330
491
100
AcDbVisualStyle
  2
JitterOff
 70
    20
 71
     2
 72
     2
 73
     0
 90
        0
 40
-0.6
 41
-30.0
 62
     5
 63
     7
421
 16777215
 74
     1
 91
        4
 64
     7
 65
   257
 75
     1
175
     1
 42
1.0
 92
       10
 66
     7
 43
1.0
 76
     1
 77
     6
 78
     2
 67
     7
 79
     5
170
     0
171
     0
290
     0
174
     0
 93
        1
 44
0.0
173
     0
291
     1
 45
0.0
1001
ACAD
1000
AcDbSavedByObjectVersion
1070
     0
  0
VISUALSTYLE
  5
49F
102
{ACAD_XDICTIONARY
360
539
102
}
102
{ACAD_REACTORS
330
491
102
}
330
491
100
AcDbVisualStyle
  2
Linepattern
 70
    14
 71
     2
 72
     2
 73
     0
 90
        0
 40
-0.6
 41
-30.0
 62
     5
 63
     7
421
 16777215
 74
     1
 91
        4
 64
     7
 65
   257
 75
     7
175
     7
 42
1.0
 92
        8
 66
     7
 43
1.0
 76
     1
 77
     6
 78
     2
 67
     7
 79
     5
170
     0
171
     0
290
     0
174
     0
 93
        1
 44
0.0
173
     0
291
     1
 45
0.0
1001
ACAD
1000
AcDbSavedByObjectVersion
1070
     0
  0
VISUALSTYLE
  5
4A8
102
{ACAD_XDICTIONARY
360
54B
102
}
102
{ACAD_REACTORS
330
491
102
}
330
491
100
AcDbVisualStyle
  2
OverhangOff
 70
    21
 71
     2
 72
     2
 73
     0
 90
        0
 40
-0.6
 41
-30.0
 62
     5
 63
     7
421
 16777215
 74
     1
 91
        4
 64
     7
 65
   257
 75
     1
175
     1
 42
1.0
 92
        9
 66
     7
 43
1.0
 76
     1
 77
     6
 78
     2
 67
     7
 79
     5
170
     0
171
     0
290
     0
174
     0
 93
        1
 44
0.0
173
     0
291
     1
 45
0.0
1001
ACAD
1000
AcDbSavedByObjectVersion
1070
     0
  0
VISUALSTYLE
  5
49B
102
{ACAD_XDICTIONARY
360
531
102
}
102
{ACAD_REACTORS
330
491
102
}
330
491
100
AcDbVisualStyle
  2
Realistic
 70
     8
 71
     2
 72
     2
 73
     0
 90
        2
 40
-0.6
 41
30.0
 62
     5
 63
     7
421
 16777215
 74
     0
 91
        0
 64
     7
 65
   257
 75
     1
175
     1
 42
1.0
 92
        8
 66
   257
 43
1.0
 76
     1
 77
     6
 78
     2
 67
     7
 79
     3
170
     0
171
     0
290
     0
174
     0
 93
       13
 44
0.0
173
     0
291
     0
 45
0.0
1001
ACAD
1000
AcDbSavedByObjectVersion
1070
     0
  0
VISUALSTYLE
  5
4A6
102
{ACAD_XDICTIONARY
360
547
102
}
102
{ACAD_REACTORS
330
491
102
}
330
491
100
AcDbVisualStyle
  2
Shaded
 70
    27
 71
     2
 72
     2
 73
     1
 90
        2
 40
-0.6
 41
30.0
 62
     5
 63
     7
421
 16777215
 74
     0
 91
        4
 64
     7
 65
   257
 75
     1
175
     1
 42
1.0
 92
        8
 66
   257
 43
1.0
 76
     1
 77
     6
 78
     2
 67
     8
425
  7895160
 79
     3
170
     0
171
     0
290
     0
174
     0
 93
        5
 44
0.0
173
     0
291
     0
 45
0.0
1001
ACAD
1000
AcDbSavedByObjectVersion
1070
     0
  0
VISUALSTYLE
  5
4A5
102
{ACAD_XDICTIONARY
360
545
102
}
102
{ACAD_REACTORS
330
491
102
}
330
491
100
AcDbVisualStyle
  2
Shaded with edges
 70
    26
 71
     2
 72
     2
 73
     1
 90
        2
 40
-0.6
 41
30.0
 62
     5
 63
     7
421
 16777215
 74
     1
 91
       10
 64
     7
 65
   257
 75
     2
175
     1
 42
1.0
 92
        8
 66
   257
 43
1.0
 76
     1
 77
     6
 78
     2
 67
     7
 79
     3
170
     0
171
     0
290
     0
174
     0
 93
        5
 44
0.0
173
     0
291
     0
 45
0.0
1001
ACAD
1000
AcDbSavedByObjectVersion
1070
     0
  0
VISUALSTYLE
  5
4A2
102
{ACAD_XDICTIONARY
360
53F
102
}
102
{ACAD_REACTORS
330
491
102
}
330
491
100
AcDbVisualStyle
  2
Shades of Gray
 70
    23
 71
     2
 72
     2
 73
     3
 90
        0
 40
-0.6
 41
-30.0
 62
     5
 63
     7
421
 16777215
 74
     2
 91
        2
 64
     7
 65
     7
 75
     1
175
     1
 42
40.0
 92
        8
 66
     7
 43
1.0
 76
     1
 77
     6
 78
     2
 67
     7
 79
     3
170
     0
171
     0
290
     0
174
     0
 93
        1
 44
0.0
173
     0
291
     0
 45
0.0
1001
ACAD
1000
AcDbSavedByObjectVersion
1070
     0
  0
VISUALSTYLE
  5
4A3
102
{ACAD_XDICTIONARY
360
541
102
}
102
{ACAD_REACTORS
330
491
102
}
330
491
100
AcDbVisualStyle
  2
Sketchy
 70
    24
 71
     1
 72
     2
 73
     2
 90
        0
 40
-0.6
 41
-30.0
 62
     5
 63
     7
421
 16777215
 74
     2
 91
        2
 64
     7
 65
     7
 75
     1
175
     1
 42
40.0
 92
       11
 66
     7
 43
1.0
 76
     1
 77
     6
 78
     2
 67
     7
 79
     6
170
     0
171
     0
290
     0
174
     0
 93
        1
 44
0.0
173
     0
291
     0
 45
0.0
1001
ACAD
1000
AcDbSavedByObjectVersion
1070
     0
  0
VISUALSTYLE
  5
49E
102
{ACAD_XDICTIONARY
360
537
102
}
102
{ACAD_REACTORS
330
491
102
}
330
491
100
AcDbVisualStyle
  2
Thicken
 70
    13
 71
     2
 72
     2
 73
     0
 90
        0
 40
-0.6
 41
-30.0
 62
     5
 63
     7
421
 16777215
 74
     1
 91
        4
 64
     7
 65
   257
 75
     1
175
     1
 42
1.0
 92
       12
 66
     7
 43
1.0
 76
     1
 77
     6
 78
     2
 67
     7
 79
     5
170
     0
171
     0
290
     0
174
     0
 93
        1
 44
0.0
173
     0
291
     1
 45
0.0
1001
ACAD
1000
AcDbSavedByObjectVersion
1070
     0
  0
VISUALSTYLE
  5
498
102
{ACAD_XDICTIONARY
360
52B
102
}
102
{ACAD_REACTORS
330
491
102
}
330
491
100
AcDbVisualStyle
  2
Wireframe
 70
     5
 71
     0
 72
     2
 73
     0
 90
        0
 40
-0.6
 41
-30.0
 62
     5
 63
     7
421
 16777215
 74
     1
 91
        4
 64
     7
 65
   257
 75
     1
175
     1
 42
1.0
 92
        0
 66
   257
 43
1.0
 76
     1
 77
     6
 78
     2
 67
     7
 79
     3
170
     0
171
     0
290
     0
174
     0
 93
        1
 44
0.0
173
     0
291
     0
 45
0.0
1001
ACAD
1000
AcDbSavedByObjectVersion
1070
     0
  0
VISUALSTYLE
  5
4A4
102
{ACAD_XDICTIONARY
360
543
102
}
102
{ACAD_REACTORS
330
491
102
}
330
491
100
AcDbVisualStyle
  2
X-Ray
 70
    25
 71
     2
 72
     2
 73
     1
 90
        1
 40
0.5
 41
-30.0
 62
     5
 63
     7
421
 16777215
 74
     1
 91
        0
 64
     7
 65
   257
 75
     1
175
     1
 42
1.0
 92
        8
 66
     7
 43
1.0
 76
     1
 77
     6
 78
     2
 67
     7
 79
     3
170
     0
171
     0
290
     0
174
     0
 93
       13
 44
0.0
173
     0
291
     0
 45
0.0
1001
ACAD
1000
AcDbSavedByObjectVersion
1070
     0
  0
DICTIONARYVAR
  5
50E
102
{ACAD_REACTORS
330
509
102
}
330
509
100
DictionaryVariables
280
     0
  1
1:1
  0
DICTIONARYVAR
  5
50B
102
{ACAD_REACTORS
330
509
102
}
330
509
100
DictionaryVariables
280
     0
  1
STANDARD
  0
DICTIONARYVAR
  5
50A
102
{ACAD_REACTORS
330
509
102
}
330
509
100
DictionaryVariables
280
     0
  1
STANDARD
  0
DICTIONARYVAR
  5
50C
102
{ACAD_REACTORS
330
509
102
}
330
509
100
DictionaryVariables
280
     0
  1
Imperial24
  0
DICTIONARYVAR
  5
50D
102
{ACAD_REACTORS
330
509
102
}
330
509
100
DictionaryVariables
280
     0
  1
Imperial24
  0
DICTIONARYVAR
  5
519
102
{ACAD_REACTORS
330
509
102
}
330
509
100
DictionaryVariables
280
     0
  1
2
  0
DICTIONARY
  5
554
330
4C4
100
AcDbDictionary
280
     1
281
     1
  3
ACAD_XREC_ROUNDTRIP
360
555
  0
DICTIONARY
  5
482
330
481
100
AcDbDictionary
280
     1
281
     1
  3
ACAD_XREC_ROUNDTRIP
360
51D
  3
BUMPTILE
360
484
  3
DIFFUSETILE
360
483
  3
OPACITYTILE
360
487
  3
REFLECTIONTILE
360
486
  3
REFRACTIONTILE
360
488
  3
SPECULARTILE
360
485
  0
DICTIONARY
  5
47A
330
479
100
AcDbDictionary
280
     1
281
     1
  3
ACAD_XREC_ROUNDTRIP
360
51C
  3
BUMPTILE
360
47C
  3
DIFFUSETILE
360
47B
  3
OPACITYTILE
360
47F
  3
REFLECTIONTILE
360
47E
  3
REFRACTIONTILE
360
480
  3
SPECULARTILE
360
47D
  0
DICTIONARY
  5
48A
330
489
100
AcDbDictionary
280
     1
281
     1
  3
ACAD_XREC_ROUNDTRIP
360
51E
  3
BUMPTILE
360
48C
  3
DIFFUSETILE
360
48B
  3
OPACITYTILE
360
48F
  3
REFLECTIONTILE
360
48E
  3
REFRACTIONTILE
360
490
  3
SPECULARTILE
360
48D
  0
DICTIONARY
  5
550
330
4C0
100
AcDbDictionary
280
     1
281
     1
  3
ACAD_XREC_ROUNDTRIP
360
551
  0
DICTIONARY
  5
552
330
4C2
100
AcDbDictionary
280
     1
281
     1
  3
ACAD_XREC_ROUNDTRIP
360
553
  0
DICTIONARY
  5
4CB
330
4AC
100
AcDbDictionary
280
     1
281
     1
  3
ACAD_ROUNDTRIP_2008_TABLESTYLE_CELLSTYLEMAP
360
51A
  3
ACAD_XREC_ROUNDTRIP
360
54F
  0
DICTIONARY
  5
529
330
497
100
AcDbDictionary
280
     1
281
     1
  3
ACAD_XREC_ROUNDTRIP
360
52A
  0
DICTIONARY
  5
527
330
496
100
AcDbDictionary
280
     1
281
     1
  3
ACAD_XREC_ROUNDTRIP
360
528
  0
DICTIONARY
  5
535
330
49D
100
AcDbDictionary
280
     1
281
     1
  3
ACAD_XREC_ROUNDTRIP
360
536
  0
DICTIONARY
  5
53D
330
4A1
100
AcDbDictionary
280
     1
281
     1
  3
ACAD_XREC_ROUNDTRIP
360
53E
  0
DICTIONARY
  5
52F
330
49A
100
AcDbDictionary
280
     1
281
     1
  3
ACAD_XREC_ROUNDTRIP
360
530
  0
DICTIONARY
  5
533
330
49C
100
AcDbDictionary
280
     1
281
     1
  3
ACAD_XREC_ROUNDTRIP
360
534
  0
DICTIONARY
  5
54D
330
4A9
100
AcDbDictionary
280
     1
281
     1
  3
ACAD_XREC_ROUNDTRIP
360
54E
  0
DICTIONARY
  5
53B
330
4A0
100
AcDbDictionary
280
     1
281
     1
  3
ACAD_XREC_ROUNDTRIP
360
53C
  0
DICTIONARY
  5
51F
330
492
100
AcDbDictionary
280
     1
281
     1
  3
ACAD_XREC_ROUNDTRIP
360
520
  0
DICTIONARY
  5
521
330
493
100
AcDbDictionary
280
     1
281
     1
  3
ACAD_XREC_ROUNDTRIP
360
522
  0
DICTIONARY
  5
523
330
494
100
AcDbDictionary
280
     1
281
     1
  3
ACAD_XREC_ROUNDTRIP
360
524
  0
DICTIONARY
  5
525
330
495
100
AcDbDictionary
280
     1
281
     1
  3
ACAD_XREC_ROUNDTRIP
360
526
  0
DICTIONARY
  5
52D
330
499
100
AcDbDictionary
280
     1
281
     1
  3
ACAD_XREC_ROUNDTRIP
360
52E
  0
DICTIONARY
  5
549
330
4A7
100
AcDbDictionary
280
     1
281
     1
  3
ACAD_XREC_ROUNDTRIP
360
54A
  0
DICTIONARY
  5
539
330
49F
100
AcDbDictionary
280
     1
281
     1
  3
ACAD_XREC_ROUNDTRIP
360
53A
  0
DICTIONARY
  5
54B
330
4A8
100
AcDbDictionary
280
     1
281
     1
  3
ACAD_XREC_ROUNDTRIP
360
54C
  0
DICTIONARY
  5
531
330
49B
100
AcDbDictionary
280
     1
281
     1
  3
ACAD_XREC_ROUNDTRIP
360
532
  0
DICTIONARY
  5
547
330
4A6
100
AcDbDictionary
280
     1
281
     1
  3
ACAD_XREC_ROUNDTRIP
360
548
  0
DICTIONARY
  5
545
330
4A5
100
AcDbDictionary
280
     1
281
     1
  3
ACAD_XREC_ROUNDTRIP
360
546
  0
DICTIONARY
  5
53F
330
4A2
100
AcDbDictionary
280
     1
281
     1
  3
ACAD_XREC_ROUNDTRIP
360
540
  0
DICTIONARY
  5
541
330
4A3
100
AcDbDictionary
280
     1
281
     1
  3
ACAD_XREC_ROUNDTRIP
360
542
  0
DICTIONARY
  5
537
330
49E
100
AcDbDictionary
280
     1
281
     1
  3
ACAD_XREC_ROUNDTRIP
360
538
  0
DICTIONARY
  5
52B
330
498
100
AcDbDictionary
280
     1
281
     1
  3
ACAD_XREC_ROUNDTRIP
360
52C
  0
DICTIONARY
  5
543
330
4A4
100
AcDbDictionary
280
     1
281
     1
  3
ACAD_XREC_ROUNDTRIP
360
544
  0
XRECORD
  5
555
102
{ACAD_REACTORS
330
554
102
}
330
554
100
AcDbXrecord
280
     1
102
DISPLAYNAME
  1
Imperial24
102
FLAGS
 90
        0
  0
XRECORD
  5
51D
102
{ACAD_REACTORS
330
482
102
}
330
482
100
AcDbXrecord
280
     1
102
MATERIAL
148
0.0
149
0.0
149
0.0
 93
        0
 94
      127
282
     0
 72
     0
 77
     0
171
     0
175
     0
179
     0
273
     0
  0
XRECORD
  5
484
102
{ACAD_REACTORS
330
482
102
}
330
482
100
AcDbXrecord
280
     1
270
     1
271
     1
  0
XRECORD
  5
483
102
{ACAD_REACTORS
330
482
102
}
330
482
100
AcDbXrecord
280
     1
270
     1
271
     1
  0
XRECORD
  5
487
102
{ACAD_REACTORS
330
482
102
}
330
482
100
AcDbXrecord
280
     1
270
     1
271
     1
  0
XRECORD
  5
486
102
{ACAD_REACTORS
330
482
102
}
330
482
100
AcDbXrecord
280
     1
270
     1
271
     1
  0
XRECORD
  5
488
102
{ACAD_REACTORS
330
482
102
}
330
482
100
AcDbXrecord
280
     1
270
     1
271
     1
  0
XRECORD
  5
485
102
{ACAD_REACTORS
330
482
102
}
330
482
100
AcDbXrecord
280
     1
270
     1
271
     1
  0
XRECORD
  5
51C
102
{ACAD_REACTORS
330
47A
102
}
330
47A
100
AcDbXrecord
280
     1
102
MATERIAL
148
0.0
149
0.0
149
0.0
 93
        0
 94
      127
282
     0
 72
     0
 77
     0
171
     0
175
     0
179
     0
273
     0
  0
XRECORD
  5
47C
102
{ACAD_REACTORS
330
47A
102
}
330
47A
100
AcDbXrecord
280
     1
270
     1
271
     1
  0
XRECORD
  5
47B
102
{ACAD_REACTORS
330
47A
102
}
330
47A
100
AcDbXrecord
280
     1
270
     1
271
     1
  0
XRECORD
  5
47F
102
{ACAD_REACTORS
330
47A
102
}
330
47A
100
AcDbXrecord
280
     1
270
     1
271
     1
  0
XRECORD
  5
47E
102
{ACAD_REACTORS
330
47A
102
}
330
47A
100
AcDbXrecord
280
     1
270
     1
271
     1
  0
XRECORD
  5
480
102
{ACAD_REACTORS
330
47A
102
}
330
47A
100
AcDbXrecord
280
     1
270
     1
271
     1
  0
XRECORD
  5
47D
102
{ACAD_REACTORS
330
47A
102
}
330
47A
100
AcDbXrecord
280
     1
270
     1
271
     1
  0
XRECORD
  5
51E
102
{ACAD_REACTORS
330
48A
102
}
330
48A
100
AcDbXrecord
280
     1
102
MATERIAL
148
0.0
149
0.0
149
0.0
 93
        0
 94
      127
282
     0
 72
     0
 77
     0
171
     0
175
     0
179
     0
273
     0
  0
XRECORD
  5
48C
102
{ACAD_REACTORS
330
48A
102
}
330
48A
100
AcDbXrecord
280
     1
270
     1
271
     1
  0
XRECORD
  5
48B
102
{ACAD_REACTORS
330
48A
102
}
330
48A
100
AcDbXrecord
280
     1
270
     1
271
     1
  0
XRECORD
  5
48F
102
{ACAD_REACTORS
330
48A
102
}
330
48A
100
AcDbXrecord
280
     1
270
     1
271
     1
  0
XRECORD
  5
48E
102
{ACAD_REACTORS
330
48A
102
}
330
48A
100
AcDbXrecord
280
     1
270
     1
271
     1
  0
XRECORD
  5
490
102
{ACAD_REACTORS
330
48A
102
}
330
48A
100
AcDbXrecord
280
     1
270
     1
271
     1
  0
XRECORD
  5
48D
102
{ACAD_REACTORS
330
48A
102
}
330
48A
100
AcDbXrecord
280
     1
270
     1
271
     1
  0
XRECORD
  5
551
102
{ACAD_REACTORS
330
550
102
}
330
550
100
AcDbXrecord
280
     1
102
ACAD_ROUNDTRIP_2012_MLEADER_STYLE
298
     1
  0
XRECORD
  5
553
102
{ACAD_REACTORS
330
552
102
}
330
552
100
AcDbXrecord
280
     1
102
DISPLAYNAME
  1
Imperial24
102
FLAGS
 90
        0
  0
CELLSTYLEMAP
  5
51A
102
{ACAD_REACTORS
330
4CB
102
}
330
4CB
100
AcDbCellStyleMap
 90
        3
300
CELLSTYLE
  1
TABLEFORMAT_BEGIN
 90
        5
170
     1
 91
        0
 92
    32768
 62
   257
 93
        1
300
CONTENTFORMAT
  1
CONTENTFORMAT_BEGIN
 90
        0
 91
        0
 92
      512
 93
        0
300

 40
0.0
140
1.0
 94
        5
 62
     0
340
10
144
0.25
309
CONTENTFORMAT_END
171
     0
 94
        0
309
TABLEFORMAT_END
  1
CELLSTYLE_BEGIN
 90
        1
 91
        1
300
_TITLE
309
CELLSTYLE_END
300
CELLSTYLE
  1
TABLEFORMAT_BEGIN
 90
        5
170
     1
 91
        0
 92
        0
 62
   257
 93
        1
300
CONTENTFORMAT
  1
CONTENTFORMAT_BEGIN
 90
        0
 91
        0
 92
      512
 93
        0
300

 40
0.0
140
1.0
 94
        5
 62
     0
340
10
144
0.18
309
CONTENTFORMAT_END
171
     0
 94
        0
309
TABLEFORMAT_END
  1
CELLSTYLE_BEGIN
 90
        2
 91
        1
300
_HEADER
309
CELLSTYLE_END
300
CELLSTYLE
  1
TABLEFORMAT_BEGIN
 90
        5
170
     1
 91
        0
 92
        0
 62
   257
 93
        1
300
CONTENTFORMAT
  1
CONTENTFORMAT_BEGIN
 90
        0
 91
        0
 92
      512
 93
        0
300

 40
0.0
140
1.0
 94
        2
 62
     0
340
10
144
0.18
309
CONTENTFORMAT_END
171
     0
 94
        0
309
TABLEFORMAT_END
  1
CELLSTYLE_BEGIN
 90
        3
 91
        2
300
_DATA
309
CELLSTYLE_END
  0
XRECORD
  5
54F
102
{ACAD_REACTORS
330
4CB
102
}
330
4CB
100
AcDbXrecord
280
     1
102
ACAD_ROUNDTRIP_PRE2007_TABLESTYLE
 90
      512
 91
        0
  1

 92
      512
 93
        0
  2

 94
      512
 95
        0
  3

  0
XRECORD
  5
52A
102
{ACAD_REACTORS
330
529
102
}
330
529
100
AcDbXrecord
280
     1
102
RTVSPost2010Prop28
280
     1
102
RTVSPost2010PropOp28
 70
     1
102
RTVSPost2010Prop29
280
     1
102
RTVSPost2010PropOp29
 70
     1
102
RTVSPost2010Prop30
280
     0
102
RTVSPost2010PropOp30
 70
     1
102
RTVSPost2010Prop31
280
     0
102
RTVSPost2010PropOp31
 70
     1
102
RTVSPost2010Prop32
280
     0
102
RTVSPost2010PropOp32
 70
     1
102
RTVSPost2010Prop33
280
     0
102
RTVSPost2010PropOp33
 70
     1
102
RTVSPost2010Prop34
280
     0
102
RTVSPost2010PropOp34
 70
     1
102
RTVSPost2010Prop35
280
     0
102
RTVSPost2010PropOp35
 70
     1
102
RTVSPost2010Prop36
280
     0
102
RTVSPost2010PropOp36
 70
     1
102
RTVSPost2010Prop37
 90
       50
102
RTVSPost2010PropOp37
 70
     1
102
RTVSPost2010Prop38
140
0.0
102
RTVSPost2010PropOp38
 70
     1
102
RTVSPost2010Prop39
140
1.0
102
RTVSPost2010PropOp39
 70
     1
102
RTVSPost2010Prop40
 90
        0
102
RTVSPost2010PropOp40
 70
     1
102
RTVSPost2010Prop41ColorIndex
 90
       18
102
RTVSPost2010Prop41ColorRGB
 90
        0
102
RTVSPost2010PropOp41
 70
     1
102
RTVSPost2010Prop42
 90
       50
102
RTVSPost2010PropOp42
 70
     1
102
RTVSPost2010Prop43
 90
        3
102
RTVSPost2010PropOp43
 70
     1
102
RTVSPost2010Prop44ColorIndex
 90
        5
102
RTVSPost2010Prop44ColorRGB
 90
      255
102
RTVSPost2010PropOp44
 70
     1
102
RTVSPost2010Prop45
280
     0
102
RTVSPost2010PropOp45
 70
     1
102
RTVSPost2010Prop46
 90
       50
102
RTVSPost2010PropOp46
 70
     1
102
RTVSPost2010Prop47
 90
       50
102
RTVSPost2010PropOp47
 70
     1
102
RTVSPost2010Prop48
 90
       50
102
RTVSPost2010PropOp48
 70
     1
102
RTVSPost2010Prop49
280
     0
102
RTVSPost2010PropOp49
 70
     1
102
RTVSPost2010Prop50
 90
       50
102
RTVSPost2010PropOp50
 70
     1
102
RTVSPost2010Prop51ColorIndex
 90
      256
102
RTVSPost2010Prop51ColorRGB
 90
-16777216
102
RTVSPost2010PropOp51
 70
     0
102
RTVSPost2010Prop52
140
1.0
102
RTVSPost2010PropOp52
 70
     0
102
RTVSPost2010Prop53
 90
        2
102
RTVSPost2010PropOp53
 70
     1
102
RTVSPost2010Prop54
  1
strokes_ogs.tif
102
RTVSPost2010PropOp54
 70
     1
102
RTVSPost2010Prop55
280
     0
102
RTVSPost2010PropOp55
 70
     1
102
RTVSPost2010Prop56
140
1.0
102
RTVSPost2010PropOp56
 70
     1
102
RTVSPost2010Prop57
140
1.0
102
RTVSPost2010PropOp57
 70
     1
102
RTVSPropertyOp0
 70
     1
102
RTVSPropertyOp1
 70
     1
102
RTVSPropertyOp2
 70
     1
102
RTVSPropertyOp3
 70
     1
102
RTVSPropertyOp4
 70
     1
102
RTVSPropertyOp5
 70
     1
102
RTVSPropertyOp6
 70
     1
102
RTVSPropertyOp7
 70
     1
102
RTVSPropertyOp8
 70
     1
102
RTVSPropertyOp9
 70
     1
102
RTVSPropertyOp10
 70
     1
102
RTVSPropertyOp11
 70
     1
102
RTVSPropertyOp12
 70
     1
102
RTVSPropertyOp13
 70
     1
102
RTVSPropertyOp14
 70
     1
102
RTVSPropertyOp15
 70
     1
102
RTVSPropertyOp16
 70
     1
102
RTVSPropertyOp17
 70
     1
102
RTVSPropertyOp18
 70
     1
102
RTVSPropertyOp19
 70
     1
102
RTVSPropertyOp20
 70
     1
102
RTVSPropertyOp21
 70
     1
102
RTVSPropertyOp22
 70
     1
102
RTVSPropertyOp23
 70
     1
102
RTVSPropertyOp24
 70
     1
102
RTVSPropertyOp25
 70
     1
102
RTVSPropertyOp26
 70
     1
102
RTVSPropertyOp27
 70
     1
102
RTVSPropertyOp28
 70
     1
102
RTVSPropertyOp29
 70
     1
102
RTVSPropertyOp30
 70
     1
102
RTVSPropertyOp31
 70
     1
102
RTVSPropertyOp32
 70
     1
102
RTVSPropertyOp33
 70
     1
102
RTVSPropertyOp34
 70
     1
102
RTVSPropertyOp35
 70
     1
102
RTVSPropertyOp36
 70
     1
102
RTVSPropertyOp37
 70
     1
102
RTVSPropertyOp38
 70
     1
102
RTVSPropertyOp39
 70
     1
102
RTVSPropertyOp40
 70
     1
102
RTVSPropertyOp41
 70
     1
102
RTVSPropertyOp42
 70
     1
102
RTVSPropertyOp43
 70
     1
102
RTVSPropertyOp44
 70
     1
102
RTVSPropertyOp45
 70
     1
102
RTVSPropertyOp46
 70
     1
102
RTVSPropertyOp47
 70
     1
102
RTVSPropertyOp48
 70
     1
102
RTVSPropertyOp49
 70
     1
102
RTVSPropertyOp50
 70
     1
102
RTVSPropertyOp51
 70
     0
102
RTVSPropertyOp52
 70
     0
102
RTVSPropertyOp53
 70
     1
102
RTVSPropertyOp54
 70
     1
102
RTVSPropertyOp55
 70
     1
102
RTVSPropertyOp56
 70
     1
102
RTVSPropertyOp57
 70
     1
102
RTVSPropertyOp58
 70
     1
102
RTVSPropertyOp59
 70
     1
102
RTVSPropertyOp60
 70
     1
102
RTVSPropertyOp61
 70
     1
102
RTVSPropertyOp62
 70
     1
  0
XRECORD
  5
528
102
{ACAD_REACTORS
330
527
102
}
330
527
100
AcDbXrecord
280
     1
102
RTVSPost2010Prop28
280
     0
102
RTVSPost2010PropOp28
 70
     1
102
RTVSPost2010Prop29
280
     1
102
RTVSPost2010PropOp29
 70
     1
102
RTVSPost2010Prop30
280
     1
102
RTVSPost2010PropOp30
 70
     1
102
RTVSPost2010Prop31
280
     0
102
RTVSPost2010PropOp31
 70
     1
102
RTVSPost2010Prop32
280
     0
102
RTVSPost2010PropOp32
 70
     1
102
RTVSPost2010Prop33
280
     0
102
RTVSPost2010PropOp33
 70
     1
102
RTVSPost2010Prop34
280
     0
102
RTVSPost2010PropOp34
 70
     1
102
RTVSPost2010Prop35
280
     0
102
RTVSPost2010PropOp35
 70
     1
102
RTVSPost2010Prop36
280
     0
102
RTVSPost2010PropOp36
 70
     1
102
RTVSPost2010Prop37
 90
       50
102
RTVSPost2010PropOp37
 70
     1
102
RTVSPost2010Prop38
140
0.0
102
RTVSPost2010PropOp38
 70
     1
102
RTVSPost2010Prop39
140
1.0
102
RTVSPost2010PropOp39
 70
     1
102
RTVSPost2010Prop40
 90
        0
102
RTVSPost2010PropOp40
 70
     1
102
RTVSPost2010Prop41ColorIndex
 90
       18
102
RTVSPost2010Prop41ColorRGB
 90
        0
102
RTVSPost2010PropOp41
 70
     1
102
RTVSPost2010Prop42
 90
       50
102
RTVSPost2010PropOp42
 70
     1
102
RTVSPost2010Prop43
 90
        3
102
RTVSPost2010PropOp43
 70
     1
102
RTVSPost2010Prop44ColorIndex
 90
        5
102
RTVSPost2010Prop44ColorRGB
 90
      255
102
RTVSPost2010PropOp44
 70
     1
102
RTVSPost2010Prop45
280
     0
102
RTVSPost2010PropOp45
 70
     1
102
RTVSPost2010Prop46
 90
       50
102
RTVSPost2010PropOp46
 70
     1
102
RTVSPost2010Prop47
 90
       50
102
RTVSPost2010PropOp47
 70
     1
102
RTVSPost2010Prop48
 90
       50
102
RTVSPost2010PropOp48
 70
     1
102
RTVSPost2010Prop49
280
     0
102
RTVSPost2010PropOp49
 70
     1
102
RTVSPost2010Prop50
 90
       50
102
RTVSPost2010PropOp50
 70
     1
102
RTVSPost2010Prop51ColorIndex
 90
      256
102
RTVSPost2010Prop51ColorRGB
 90
-16777216
102
RTVSPost2010PropOp51
 70
     0
102
RTVSPost2010Prop52
140
1.0
102
RTVSPost2010PropOp52
 70
     0
102
RTVSPost2010Prop53
 90
        2
102
RTVSPost2010PropOp53
 70
     1
102
RTVSPost2010Prop54
  1
strokes_ogs.tif
102
RTVSPost2010PropOp54
 70
     1
102
RTVSPost2010Prop55
280
     0
102
RTVSPost2010PropOp55
 70
     1
102
RTVSPost2010Prop56
140
1.0
102
RTVSPost2010PropOp56
 70
     1
102
RTVSPost2010Prop57
140
1.0
102
RTVSPost2010PropOp57
 70
     1
102
RTVSPropertyOp0
 70
     1
102
RTVSPropertyOp1
 70
     1
102
RTVSPropertyOp2
 70
     1
102
RTVSPropertyOp3
 70
     1
102
RTVSPropertyOp4
 70
     1
102
RTVSPropertyOp5
 70
     1
102
RTVSPropertyOp6
 70
     1
102
RTVSPropertyOp7
 70
     1
102
RTVSPropertyOp8
 70
     1
102
RTVSPropertyOp9
 70
     1
102
RTVSPropertyOp10
 70
     1
102
RTVSPropertyOp11
 70
     1
102
RTVSPropertyOp12
 70
     1
102
RTVSPropertyOp13
 70
     1
102
RTVSPropertyOp14
 70
     1
102
RTVSPropertyOp15
 70
     1
102
RTVSPropertyOp16
 70
     1
102
RTVSPropertyOp17
 70
     1
102
RTVSPropertyOp18
 70
     1
102
RTVSPropertyOp19
 70
     1
102
RTVSPropertyOp20
 70
     1
102
RTVSPropertyOp21
 70
     1
102
RTVSPropertyOp22
 70
     1
102
RTVSPropertyOp23
 70
     1
102
RTVSPropertyOp24
 70
     1
102
RTVSPropertyOp25
 70
     1
102
RTVSPropertyOp26
 70
     1
102
RTVSPropertyOp27
 70
     1
102
RTVSPropertyOp28
 70
     1
102
RTVSPropertyOp29
 70
     1
102
RTVSPropertyOp30
 70
     1
102
RTVSPropertyOp31
 70
     1
102
RTVSPropertyOp32
 70
     1
102
RTVSPropertyOp33
 70
     1
102
RTVSPropertyOp34
 70
     1
102
RTVSPropertyOp35
 70
     1
102
RTVSPropertyOp36
 70
     1
102
RTVSPropertyOp37
 70
     1
102
RTVSPropertyOp38
 70
     1
102
RTVSPropertyOp39
 70
     1
102
RTVSPropertyOp40
 70
     1
102
RTVSPropertyOp41
 70
     1
102
RTVSPropertyOp42
 70
     1
102
RTVSPropertyOp43
 70
     1
102
RTVSPropertyOp44
 70
     1
102
RTVSPropertyOp45
 70
     1
102
RTVSPropertyOp46
 70
     1
102
RTVSPropertyOp47
 70
     1
102
RTVSPropertyOp48
 70
     1
102
RTVSPropertyOp49
 70
     1
102
RTVSPropertyOp50
 70
     1
102
RTVSPropertyOp51
 70
     0
102
RTVSPropertyOp52
 70
     0
102
RTVSPropertyOp53
 70
     1
102
RTVSPropertyOp54
 70
     1
102
RTVSPropertyOp55
 70
     1
102
RTVSPropertyOp56
 70
     1
102
RTVSPropertyOp57
 70
     1
102
RTVSPropertyOp58
 70
     1
102
RTVSPropertyOp59
 70
     1
102
RTVSPropertyOp60
 70
     1
102
RTVSPropertyOp61
 70
     1
102
RTVSPropertyOp62
 70
     1
  0
XRECORD
  5
536
102
{ACAD_REACTORS
330
535
102
}
330
535
100
AcDbXrecord
280
     1
102
RTVSPost2010Prop28
280
     0
102
RTVSPost2010PropOp28
 70
     1
102
RTVSPost2010Prop29
280
     1
102
RTVSPost2010PropOp29
 70
     1
102
RTVSPost2010Prop30
280
     1
102
RTVSPost2010PropOp30
 70
     1
102
RTVSPost2010Prop31
280
     0
102
RTVSPost2010PropOp31
 70
     1
102
RTVSPost2010Prop32
280
     0
102
RTVSPost2010PropOp32
 70
     1
102
RTVSPost2010Prop33
280
     0
102
RTVSPost2010PropOp33
 70
     1
102
RTVSPost2010Prop34
280
     0
102
RTVSPost2010PropOp34
 70
     1
102
RTVSPost2010Prop35
280
     0
102
RTVSPost2010PropOp35
 70
     1
102
RTVSPost2010Prop36
280
     0
102
RTVSPost2010PropOp36
 70
     1
102
RTVSPost2010Prop37
 90
       50
102
RTVSPost2010PropOp37
 70
     1
102
RTVSPost2010Prop38
140
0.0
102
RTVSPost2010PropOp38
 70
     1
102
RTVSPost2010Prop39
140
1.0
102
RTVSPost2010PropOp39
 70
     1
102
RTVSPost2010Prop40
 90
        0
102
RTVSPost2010PropOp40
 70
     1
102
RTVSPost2010Prop41ColorIndex
 90
       18
102
RTVSPost2010Prop41ColorRGB
 90
        0
102
RTVSPost2010PropOp41
 70
     1
102
RTVSPost2010Prop42
 90
       50
102
RTVSPost2010PropOp42
 70
     1
102
RTVSPost2010Prop43
 90
        3
102
RTVSPost2010PropOp43
 70
     1
102
RTVSPost2010Prop44ColorIndex
 90
        5
102
RTVSPost2010Prop44ColorRGB
 90
      255
102
RTVSPost2010PropOp44
 70
     1
102
RTVSPost2010Prop45
280
     0
102
RTVSPost2010PropOp45
 70
     1
102
RTVSPost2010Prop46
 90
       50
102
RTVSPost2010PropOp46
 70
     1
102
RTVSPost2010Prop47
 90
       50
102
RTVSPost2010PropOp47
 70
     1
102
RTVSPost2010Prop48
 90
       50
102
RTVSPost2010PropOp48
 70
     1
102
RTVSPost2010Prop49
280
     0
102
RTVSPost2010PropOp49
 70
     1
102
RTVSPost2010Prop50
 90
       50
102
RTVSPost2010PropOp50
 70
     1
102
RTVSPost2010Prop51ColorIndex
 90
      256
102
RTVSPost2010Prop51ColorRGB
 90
-16777216
102
RTVSPost2010PropOp51
 70
     0
102
RTVSPost2010Prop52
140
1.0
102
RTVSPost2010PropOp52
 70
     0
102
RTVSPost2010Prop53
 90
        2
102
RTVSPost2010PropOp53
 70
     1
102
RTVSPost2010Prop54
  1
strokes_ogs.tif
102
RTVSPost2010PropOp54
 70
     1
102
RTVSPost2010Prop55
280
     0
102
RTVSPost2010PropOp55
 70
     1
102
RTVSPost2010Prop56
140
1.0
102
RTVSPost2010PropOp56
 70
     1
102
RTVSPost2010Prop57
140
1.0
102
RTVSPost2010PropOp57
 70
     1
102
RTVSPropertyOp0
 70
     1
102
RTVSPropertyOp1
 70
     1
102
RTVSPropertyOp2
 70
     1
102
RTVSPropertyOp3
 70
     1
102
RTVSPropertyOp4
 70
     1
102
RTVSPropertyOp5
 70
     1
102
RTVSPropertyOp6
 70
     1
102
RTVSPropertyOp7
 70
     1
102
RTVSPropertyOp8
 70
     1
102
RTVSPropertyOp9
 70
     1
102
RTVSPropertyOp10
 70
     1
102
RTVSPropertyOp11
 70
     1
102
RTVSPropertyOp12
 70
     1
102
RTVSPropertyOp13
 70
     1
102
RTVSPropertyOp14
 70
     1
102
RTVSPropertyOp15
 70
     1
102
RTVSPropertyOp16
 70
     1
102
RTVSPropertyOp17
 70
     1
102
RTVSPropertyOp18
 70
     1
102
RTVSPropertyOp19
 70
     1
102
RTVSPropertyOp20
 70
     1
102
RTVSPropertyOp21
 70
     1
102
RTVSPropertyOp22
 70
     1
102
RTVSPropertyOp23
 70
     1
102
RTVSPropertyOp24
 70
     1
102
RTVSPropertyOp25
 70
     1
102
RTVSPropertyOp26
 70
     1
102
RTVSPropertyOp27
 70
     1
102
RTVSPropertyOp28
 70
     1
102
RTVSPropertyOp29
 70
     1
102
RTVSPropertyOp30
 70
     1
102
RTVSPropertyOp31
 70
     1
102
RTVSPropertyOp32
 70
     1
102
RTVSPropertyOp33
 70
     1
102
RTVSPropertyOp34
 70
     1
102
RTVSPropertyOp35
 70
     1
102
RTVSPropertyOp36
 70
     1
102
RTVSPropertyOp37
 70
     1
102
RTVSPropertyOp38
 70
     1
102
RTVSPropertyOp39
 70
     1
102
RTVSPropertyOp40
 70
     1
102
RTVSPropertyOp41
 70
     1
102
RTVSPropertyOp42
 70
     1
102
RTVSPropertyOp43
 70
     1
102
RTVSPropertyOp44
 70
     1
102
RTVSPropertyOp45
 70
     1
102
RTVSPropertyOp46
 70
     1
102
RTVSPropertyOp47
 70
     1
102
RTVSPropertyOp48
 70
     1
102
RTVSPropertyOp49
 70
     1
102
RTVSPropertyOp50
 70
     1
102
RTVSPropertyOp51
 70
     0
102
RTVSPropertyOp52
 70
     0
102
RTVSPropertyOp53
 70
     1
102
RTVSPropertyOp54
 70
     1
102
RTVSPropertyOp55
 70
     1
102
RTVSPropertyOp56
 70
     1
102
RTVSPropertyOp57
 70
     1
102
RTVSPropertyOp58
 70
     1
102
RTVSPropertyOp59
 70
     1
102
RTVSPropertyOp60
 70
     1
102
RTVSPropertyOp61
 70
     1
102
RTVSPropertyOp62
 70
     1
  0
XRECORD
  5
53E
102
{ACAD_REACTORS
330
53D
102
}
330
53D
100
AcDbXrecord
280
     1
102
RTVSPost2010Prop28
280
     0
102
RTVSPost2010PropOp28
 70
     1
102
RTVSPost2010Prop29
280
     1
102
RTVSPost2010PropOp29
 70
     1
102
RTVSPost2010Prop30
280
     1
102
RTVSPost2010PropOp30
 70
     1
102
RTVSPost2010Prop31
280
     0
102
RTVSPost2010PropOp31
 70
     1
102
RTVSPost2010Prop32
280
     0
102
RTVSPost2010PropOp32
 70
     1
102
RTVSPost2010Prop33
280
     0
102
RTVSPost2010PropOp33
 70
     1
102
RTVSPost2010Prop34
280
     0
102
RTVSPost2010PropOp34
 70
     1
102
RTVSPost2010Prop35
280
     0
102
RTVSPost2010PropOp35
 70
     1
102
RTVSPost2010Prop36
280
     0
102
RTVSPost2010PropOp36
 70
     1
102
RTVSPost2010Prop37
 90
       50
102
RTVSPost2010PropOp37
 70
     1
102
RTVSPost2010Prop38
140
0.0
102
RTVSPost2010PropOp38
 70
     1
102
RTVSPost2010Prop39
140
1.0
102
RTVSPost2010PropOp39
 70
     1
102
RTVSPost2010Prop40
 90
        0
102
RTVSPost2010PropOp40
 70
     1
102
RTVSPost2010Prop41ColorIndex
 90
       18
102
RTVSPost2010Prop41ColorRGB
 90
        0
102
RTVSPost2010PropOp41
 70
     1
102
RTVSPost2010Prop42
 90
       50
102
RTVSPost2010PropOp42
 70
     1
102
RTVSPost2010Prop43
 90
        3
102
RTVSPost2010PropOp43
 70
     1
102
RTVSPost2010Prop44ColorIndex
 90
        5
102
RTVSPost2010Prop44ColorRGB
 90
      255
102
RTVSPost2010PropOp44
 70
     1
102
RTVSPost2010Prop45
280
     0
102
RTVSPost2010PropOp45
 70
     1
102
RTVSPost2010Prop46
 90
       50
102
RTVSPost2010PropOp46
 70
     1
102
RTVSPost2010Prop47
 90
       50
102
RTVSPost2010PropOp47
 70
     1
102
RTVSPost2010Prop48
 90
       50
102
RTVSPost2010PropOp48
 70
     1
102
RTVSPost2010Prop49
280
     0
102
RTVSPost2010PropOp49
 70
     1
102
RTVSPost2010Prop50
 90
       50
102
RTVSPost2010PropOp50
 70
     1
102
RTVSPost2010Prop51ColorIndex
 90
      256
102
RTVSPost2010Prop51ColorRGB
 90
-16777216
102
RTVSPost2010PropOp51
 70
     0
102
RTVSPost2010Prop52
140
1.0
102
RTVSPost2010PropOp52
 70
     0
102
RTVSPost2010Prop53
 90
        2
102
RTVSPost2010PropOp53
 70
     1
102
RTVSPost2010Prop54
  1
strokes_ogs.tif
102
RTVSPost2010PropOp54
 70
     1
102
RTVSPost2010Prop55
280
     0
102
RTVSPost2010PropOp55
 70
     1
102
RTVSPost2010Prop56
140
1.0
102
RTVSPost2010PropOp56
 70
     1
102
RTVSPost2010Prop57
140
1.0
102
RTVSPost2010PropOp57
 70
     1
102
RTVSPropertyOp0
 70
     1
102
RTVSPropertyOp1
 70
     1
102
RTVSPropertyOp2
 70
     1
102
RTVSPropertyOp3
 70
     1
102
RTVSPropertyOp4
 70
     1
102
RTVSPropertyOp5
 70
     1
102
RTVSPropertyOp6
 70
     1
102
RTVSPropertyOp7
 70
     1
102
RTVSPropertyOp8
 70
     1
102
RTVSPropertyOp9
 70
     1
102
RTVSPropertyOp10
 70
     1
102
RTVSPropertyOp11
 70
     1
102
RTVSPropertyOp12
 70
     1
102
RTVSPropertyOp13
 70
     1
102
RTVSPropertyOp14
 70
     1
102
RTVSPropertyOp15
 70
     1
102
RTVSPropertyOp16
 70
     1
102
RTVSPropertyOp17
 70
     1
102
RTVSPropertyOp18
 70
     1
102
RTVSPropertyOp19
 70
     1
102
RTVSPropertyOp20
 70
     1
102
RTVSPropertyOp21
 70
     1
102
RTVSPropertyOp22
 70
     1
102
RTVSPropertyOp23
 70
     1
102
RTVSPropertyOp24
 70
     1
102
RTVSPropertyOp25
 70
     1
102
RTVSPropertyOp26
 70
     1
102
RTVSPropertyOp27
 70
     1
102
RTVSPropertyOp28
 70
     1
102
RTVSPropertyOp29
 70
     1
102
RTVSPropertyOp30
 70
     1
102
RTVSPropertyOp31
 70
     1
102
RTVSPropertyOp32
 70
     1
102
RTVSPropertyOp33
 70
     1
102
RTVSPropertyOp34
 70
     1
102
RTVSPropertyOp35
 70
     1
102
RTVSPropertyOp36
 70
     1
102
RTVSPropertyOp37
 70
     1
102
RTVSPropertyOp38
 70
     1
102
RTVSPropertyOp39
 70
     1
102
RTVSPropertyOp40
 70
     1
102
RTVSPropertyOp41
 70
     1
102
RTVSPropertyOp42
 70
     1
102
RTVSPropertyOp43
 70
     1
102
RTVSPropertyOp44
 70
     1
102
RTVSPropertyOp45
 70
     1
102
RTVSPropertyOp46
 70
     1
102
RTVSPropertyOp47
 70
     1
102
RTVSPropertyOp48
 70
     1
102
RTVSPropertyOp49
 70
     1
102
RTVSPropertyOp50
 70
     1
102
RTVSPropertyOp51
 70
     0
102
RTVSPropertyOp52
 70
     0
102
RTVSPropertyOp53
 70
     1
102
RTVSPropertyOp54
 70
     1
102
RTVSPropertyOp55
 70
     1
102
RTVSPropertyOp56
 70
     1
102
RTVSPropertyOp57
 70
     1
102
RTVSPropertyOp58
 70
     1
102
RTVSPropertyOp59
 70
     1
102
RTVSPropertyOp60
 70
     1
102
RTVSPropertyOp61
 70
     1
102
RTVSPropertyOp62
 70
     1
  0
XRECORD
  5
530
102
{ACAD_REACTORS
330
52F
102
}
330
52F
100
AcDbXrecord
280
     1
102
RTVSPost2010Prop28
280
     0
102
RTVSPost2010PropOp28
 70
     1
102
RTVSPost2010Prop29
280
     1
102
RTVSPost2010PropOp29
 70
     1
102
RTVSPost2010Prop30
280
     1
102
RTVSPost2010PropOp30
 70
     1
102
RTVSPost2010Prop31
280
     0
102
RTVSPost2010PropOp31
 70
     1
102
RTVSPost2010Prop32
280
     0
102
RTVSPost2010PropOp32
 70
     1
102
RTVSPost2010Prop33
280
     0
102
RTVSPost2010PropOp33
 70
     1
102
RTVSPost2010Prop34
280
     0
102
RTVSPost2010PropOp34
 70
     1
102
RTVSPost2010Prop35
280
     0
102
RTVSPost2010PropOp35
 70
     1
102
RTVSPost2010Prop36
280
     0
102
RTVSPost2010PropOp36
 70
     1
102
RTVSPost2010Prop37
 90
       50
102
RTVSPost2010PropOp37
 70
     1
102
RTVSPost2010Prop38
140
0.0
102
RTVSPost2010PropOp38
 70
     1
102
RTVSPost2010Prop39
140
1.0
102
RTVSPost2010PropOp39
 70
     1
102
RTVSPost2010Prop40
 90
        0
102
RTVSPost2010PropOp40
 70
     1
102
RTVSPost2010Prop41ColorIndex
 90
       18
102
RTVSPost2010Prop41ColorRGB
 90
        0
102
RTVSPost2010PropOp41
 70
     1
102
RTVSPost2010Prop42
 90
       50
102
RTVSPost2010PropOp42
 70
     1
102
RTVSPost2010Prop43
 90
        3
102
RTVSPost2010PropOp43
 70
     1
102
RTVSPost2010Prop44ColorIndex
 90
        5
102
RTVSPost2010Prop44ColorRGB
 90
      255
102
RTVSPost2010PropOp44
 70
     1
102
RTVSPost2010Prop45
280
     0
102
RTVSPost2010PropOp45
 70
     1
102
RTVSPost2010Prop46
 90
       50
102
RTVSPost2010PropOp46
 70
     1
102
RTVSPost2010Prop47
 90
       50
102
RTVSPost2010PropOp47
 70
     1
102
RTVSPost2010Prop48
 90
       50
102
RTVSPost2010PropOp48
 70
     1
102
RTVSPost2010Prop49
280
     0
102
RTVSPost2010PropOp49
 70
     1
102
RTVSPost2010Prop50
 90
       50
102
RTVSPost2010PropOp50
 70
     1
102
RTVSPost2010Prop51ColorIndex
 90
      256
102
RTVSPost2010Prop51ColorRGB
 90
-16777216
102
RTVSPost2010PropOp51
 70
     0
102
RTVSPost2010Prop52
140
1.0
102
RTVSPost2010PropOp52
 70
     0
102
RTVSPost2010Prop53
 90
        2
102
RTVSPost2010PropOp53
 70
     1
102
RTVSPost2010Prop54
  1
strokes_ogs.tif
102
RTVSPost2010PropOp54
 70
     1
102
RTVSPost2010Prop55
280
     0
102
RTVSPost2010PropOp55
 70
     1
102
RTVSPost2010Prop56
140
1.0
102
RTVSPost2010PropOp56
 70
     1
102
RTVSPost2010Prop57
140
1.0
102
RTVSPost2010PropOp57
 70
     1
102
RTVSPropertyOp0
 70
     1
102
RTVSPropertyOp1
 70
     1
102
RTVSPropertyOp2
 70
     1
102
RTVSPropertyOp3
 70
     1
102
RTVSPropertyOp4
 70
     1
102
RTVSPropertyOp5
 70
     1
102
RTVSPropertyOp6
 70
     1
102
RTVSPropertyOp7
 70
     1
102
RTVSPropertyOp8
 70
     1
102
RTVSPropertyOp9
 70
     1
102
RTVSPropertyOp10
 70
     1
102
RTVSPropertyOp11
 70
     1
102
RTVSPropertyOp12
 70
     1
102
RTVSPropertyOp13
 70
     1
102
RTVSPropertyOp14
 70
     1
102
RTVSPropertyOp15
 70
     1
102
RTVSPropertyOp16
 70
     1
102
RTVSPropertyOp17
 70
     1
102
RTVSPropertyOp18
 70
     1
102
RTVSPropertyOp19
 70
     1
102
RTVSPropertyOp20
 70
     1
102
RTVSPropertyOp21
 70
     1
102
RTVSPropertyOp22
 70
     1
102
RTVSPropertyOp23
 70
     1
102
RTVSPropertyOp24
 70
     1
102
RTVSPropertyOp25
 70
     1
102
RTVSPropertyOp26
 70
     1
102
RTVSPropertyOp27
 70
     1
102
RTVSPropertyOp28
 70
     1
102
RTVSPropertyOp29
 70
     1
102
RTVSPropertyOp30
 70
     1
102
RTVSPropertyOp31
 70
     1
102
RTVSPropertyOp32
 70
     1
102
RTVSPropertyOp33
 70
     1
102
RTVSPropertyOp34
 70
     1
102
RTVSPropertyOp35
 70
     1
102
RTVSPropertyOp36
 70
     1
102
RTVSPropertyOp37
 70
     1
102
RTVSPropertyOp38
 70
     1
102
RTVSPropertyOp39
 70
     1
102
RTVSPropertyOp40
 70
     1
102
RTVSPropertyOp41
 70
     1
102
RTVSPropertyOp42
 70
     1
102
RTVSPropertyOp43
 70
     1
102
RTVSPropertyOp44
 70
     1
102
RTVSPropertyOp45
 70
     1
102
RTVSPropertyOp46
 70
     1
102
RTVSPropertyOp47
 70
     1
102
RTVSPropertyOp48
 70
     1
102
RTVSPropertyOp49
 70
     1
102
RTVSPropertyOp50
 70
     1
102
RTVSPropertyOp51
 70
     0
102
RTVSPropertyOp52
 70
     0
102
RTVSPropertyOp53
 70
     1
102
RTVSPropertyOp54
 70
     1
102
RTVSPropertyOp55
 70
     1
102
RTVSPropertyOp56
 70
     1
102
RTVSPropertyOp57
 70
     1
102
RTVSPropertyOp58
 70
     1
102
RTVSPropertyOp59
 70
     1
102
RTVSPropertyOp60
 70
     1
102
RTVSPropertyOp61
 70
     1
102
RTVSPropertyOp62
 70
     1
  0
XRECORD
  5
534
102
{ACAD_REACTORS
330
533
102
}
330
533
100
AcDbXrecord
280
     1
102
RTVSPost2010Prop28
280
     0
102
RTVSPost2010PropOp28
 70
     1
102
RTVSPost2010Prop29
280
     1
102
RTVSPost2010PropOp29
 70
     1
102
RTVSPost2010Prop30
280
     1
102
RTVSPost2010PropOp30
 70
     1
102
RTVSPost2010Prop31
280
     0
102
RTVSPost2010PropOp31
 70
     1
102
RTVSPost2010Prop32
280
     0
102
RTVSPost2010PropOp32
 70
     1
102
RTVSPost2010Prop33
280
     0
102
RTVSPost2010PropOp33
 70
     1
102
RTVSPost2010Prop34
280
     0
102
RTVSPost2010PropOp34
 70
     1
102
RTVSPost2010Prop35
280
     0
102
RTVSPost2010PropOp35
 70
     1
102
RTVSPost2010Prop36
280
     0
102
RTVSPost2010PropOp36
 70
     1
102
RTVSPost2010Prop37
 90
       50
102
RTVSPost2010PropOp37
 70
     1
102
RTVSPost2010Prop38
140
0.0
102
RTVSPost2010PropOp38
 70
     1
102
RTVSPost2010Prop39
140
1.0
102
RTVSPost2010PropOp39
 70
     1
102
RTVSPost2010Prop40
 90
        0
102
RTVSPost2010PropOp40
 70
     1
102
RTVSPost2010Prop41ColorIndex
 90
       18
102
RTVSPost2010Prop41ColorRGB
 90
        0
102
RTVSPost2010PropOp41
 70
     1
102
RTVSPost2010Prop42
 90
       50
102
RTVSPost2010PropOp42
 70
     1
102
RTVSPost2010Prop43
 90
        3
102
RTVSPost2010PropOp43
 70
     1
102
RTVSPost2010Prop44ColorIndex
 90
        5
102
RTVSPost2010Prop44ColorRGB
 90
      255
102
RTVSPost2010PropOp44
 70
     1
102
RTVSPost2010Prop45
280
     0
102
RTVSPost2010PropOp45
 70
     1
102
RTVSPost2010Prop46
 90
       50
102
RTVSPost2010PropOp46
 70
     1
102
RTVSPost2010Prop47
 90
       50
102
RTVSPost2010PropOp47
 70
     1
102
RTVSPost2010Prop48
 90
       50
102
RTVSPost2010PropOp48
 70
     1
102
RTVSPost2010Prop49
280
     0
102
RTVSPost2010PropOp49
 70
     1
102
RTVSPost2010Prop50
 90
       50
102
RTVSPost2010PropOp50
 70
     1
102
RTVSPost2010Prop51ColorIndex
 90
      256
102
RTVSPost2010Prop51ColorRGB
 90
-16777216
102
RTVSPost2010PropOp51
 70
     0
102
RTVSPost2010Prop52
140
1.0
102
RTVSPost2010PropOp52
 70
     0
102
RTVSPost2010Prop53
 90
        2
102
RTVSPost2010PropOp53
 70
     1
102
RTVSPost2010Prop54
  1
strokes_ogs.tif
102
RTVSPost2010PropOp54
 70
     1
102
RTVSPost2010Prop55
280
     0
102
RTVSPost2010PropOp55
 70
     1
102
RTVSPost2010Prop56
140
1.0
102
RTVSPost2010PropOp56
 70
     1
102
RTVSPost2010Prop57
140
1.0
102
RTVSPost2010PropOp57
 70
     1
102
RTVSPropertyOp0
 70
     1
102
RTVSPropertyOp1
 70
     1
102
RTVSPropertyOp2
 70
     1
102
RTVSPropertyOp3
 70
     1
102
RTVSPropertyOp4
 70
     1
102
RTVSPropertyOp5
 70
     1
102
RTVSPropertyOp6
 70
     1
102
RTVSPropertyOp7
 70
     1
102
RTVSPropertyOp8
 70
     1
102
RTVSPropertyOp9
 70
     1
102
RTVSPropertyOp10
 70
     1
102
RTVSPropertyOp11
 70
     1
102
RTVSPropertyOp12
 70
     1
102
RTVSPropertyOp13
 70
     1
102
RTVSPropertyOp14
 70
     1
102
RTVSPropertyOp15
 70
     1
102
RTVSPropertyOp16
 70
     1
102
RTVSPropertyOp17
 70
     1
102
RTVSPropertyOp18
 70
     1
102
RTVSPropertyOp19
 70
     1
102
RTVSPropertyOp20
 70
     1
102
RTVSPropertyOp21
 70
     1
102
RTVSPropertyOp22
 70
     1
102
RTVSPropertyOp23
 70
     1
102
RTVSPropertyOp24
 70
     1
102
RTVSPropertyOp25
 70
     1
102
RTVSPropertyOp26
 70
     1
102
RTVSPropertyOp27
 70
     1
102
RTVSPropertyOp28
 70
     1
102
RTVSPropertyOp29
 70
     1
102
RTVSPropertyOp30
 70
     1
102
RTVSPropertyOp31
 70
     1
102
RTVSPropertyOp32
 70
     1
102
RTVSPropertyOp33
 70
     1
102
RTVSPropertyOp34
 70
     1
102
RTVSPropertyOp35
 70
     1
102
RTVSPropertyOp36
 70
     1
102
RTVSPropertyOp37
 70
     1
102
RTVSPropertyOp38
 70
     1
102
RTVSPropertyOp39
 70
     1
102
RTVSPropertyOp40
 70
     1
102
RTVSPropertyOp41
 70
     1
102
RTVSPropertyOp42
 70
     1
102
RTVSPropertyOp43
 70
     1
102
RTVSPropertyOp44
 70
     1
102
RTVSPropertyOp45
 70
     1
102
RTVSPropertyOp46
 70
     1
102
RTVSPropertyOp47
 70
     1
102
RTVSPropertyOp48
 70
     1
102
RTVSPropertyOp49
 70
     1
102
RTVSPropertyOp50
 70
     1
102
RTVSPropertyOp51
 70
     0
102
RTVSPropertyOp52
 70
     0
102
RTVSPropertyOp53
 70
     1
102
RTVSPropertyOp54
 70
     1
102
RTVSPropertyOp55
 70
     1
102
RTVSPropertyOp56
 70
     1
102
RTVSPropertyOp57
 70
     1
102
RTVSPropertyOp58
 70
     1
102
RTVSPropertyOp59
 70
     1
102
RTVSPropertyOp60
 70
     1
102
RTVSPropertyOp61
 70
     1
102
RTVSPropertyOp62
 70
     1
  0
XRECORD
  5
54E
102
{ACAD_REACTORS
330
54D
102
}
330
54D
100
AcDbXrecord
280
     1
102
RTVSPost2010Prop28
280
     0
102
RTVSPost2010PropOp28
 70
     0
102
RTVSPost2010Prop29
280
     1
102
RTVSPost2010PropOp29
 70
     0
102
RTVSPost2010Prop30
280
     1
102
RTVSPost2010PropOp30
 70
     0
102
RTVSPost2010Prop31
280
     0
102
RTVSPost2010PropOp31
 70
     0
102
RTVSPost2010Prop32
280
     0
102
RTVSPost2010PropOp32
 70
     0
102
RTVSPost2010Prop33
280
     0
102
RTVSPost2010PropOp33
 70
     0
102
RTVSPost2010Prop34
280
     0
102
RTVSPost2010PropOp34
 70
     0
102
RTVSPost2010Prop35
280
     0
102
RTVSPost2010PropOp35
 70
     0
102
RTVSPost2010Prop36
280
     0
102
RTVSPost2010PropOp36
 70
     0
102
RTVSPost2010Prop37
 90
       50
102
RTVSPost2010PropOp37
 70
     0
102
RTVSPost2010Prop38
140
0.0
102
RTVSPost2010PropOp38
 70
     0
102
RTVSPost2010Prop39
140
1.0
102
RTVSPost2010PropOp39
 70
     0
102
RTVSPost2010Prop40
 90
        0
102
RTVSPost2010PropOp40
 70
     0
102
RTVSPost2010Prop41ColorIndex
 90
       18
102
RTVSPost2010Prop41ColorRGB
 90
        0
102
RTVSPost2010PropOp41
 70
     0
102
RTVSPost2010Prop42
 90
       50
102
RTVSPost2010PropOp42
 70
     0
102
RTVSPost2010Prop43
 90
        3
102
RTVSPost2010PropOp43
 70
     0
102
RTVSPost2010Prop44ColorIndex
 90
        5
102
RTVSPost2010Prop44ColorRGB
 90
      255
102
RTVSPost2010PropOp44
 70
     0
102
RTVSPost2010Prop45
280
     0
102
RTVSPost2010PropOp45
 70
     0
102
RTVSPost2010Prop46
 90
       50
102
RTVSPost2010PropOp46
 70
     0
102
RTVSPost2010Prop47
 90
       50
102
RTVSPost2010PropOp47
 70
     0
102
RTVSPost2010Prop48
 90
       50
102
RTVSPost2010PropOp48
 70
     0
102
RTVSPost2010Prop49
280
     0
102
RTVSPost2010PropOp49
 70
     0
102
RTVSPost2010Prop50
 90
       50
102
RTVSPost2010PropOp50
 70
     0
102
RTVSPost2010Prop51ColorIndex
 90
      256
102
RTVSPost2010Prop51ColorRGB
 90
-16777216
102
RTVSPost2010PropOp51
 70
     0
102
RTVSPost2010Prop52
140
1.0
102
RTVSPost2010PropOp52
 70
     0
102
RTVSPost2010Prop53
 90
        2
102
RTVSPost2010PropOp53
 70
     0
102
RTVSPost2010Prop54
  1
strokes_ogs.tif
102
RTVSPost2010PropOp54
 70
     0
102
RTVSPost2010Prop55
280
     0
102
RTVSPost2010PropOp55
 70
     0
102
RTVSPost2010Prop56
140
1.0
102
RTVSPost2010PropOp56
 70
     0
102
RTVSPost2010Prop57
140
1.0
102
RTVSPost2010PropOp57
 70
     0
102
RTVSPropertyOp0
 70
     0
102
RTVSPropertyOp1
 70
     0
102
RTVSPropertyOp2
 70
     0
102
RTVSPropertyOp3
 70
     0
102
RTVSPropertyOp4
 70
     0
102
RTVSPropertyOp5
 70
     0
102
RTVSPropertyOp6
 70
     0
102
RTVSPropertyOp7
 70
     0
102
RTVSPropertyOp8
 70
     0
102
RTVSPropertyOp9
 70
     0
102
RTVSPropertyOp10
 70
     0
102
RTVSPropertyOp11
 70
     0
102
RTVSPropertyOp12
 70
     0
102
RTVSPropertyOp13
 70
     0
102
RTVSPropertyOp14
 70
     2
102
RTVSPropertyOp15
 70
     0
102
RTVSPropertyOp16
 70
     0
102
RTVSPropertyOp17
 70
     0
102
RTVSPropertyOp18
 70
     0
102
RTVSPropertyOp19
 70
     0
102
RTVSPropertyOp20
 70
     0
102
RTVSPropertyOp21
 70
     0
102
RTVSPropertyOp22
 70
     0
102
RTVSPropertyOp23
 70
     0
102
RTVSPropertyOp24
 70
     0
102
RTVSPropertyOp25
 70
     0
102
RTVSPropertyOp26
 70
     0
102
RTVSPropertyOp27
 70
     0
102
RTVSPropertyOp28
 70
     0
102
RTVSPropertyOp29
 70
     0
102
RTVSPropertyOp30
 70
     0
102
RTVSPropertyOp31
 70
     0
102
RTVSPropertyOp32
 70
     0
102
RTVSPropertyOp33
 70
     0
102
RTVSPropertyOp34
 70
     0
102
RTVSPropertyOp35
 70
     0
102
RTVSPropertyOp36
 70
     0
102
RTVSPropertyOp37
 70
     0
102
RTVSPropertyOp38
 70
     0
102
RTVSPropertyOp39
 70
     0
102
RTVSPropertyOp40
 70
     0
102
RTVSPropertyOp41
 70
     0
102
RTVSPropertyOp42
 70
     0
102
RTVSPropertyOp43
 70
     0
102
RTVSPropertyOp44
 70
     0
102
RTVSPropertyOp45
 70
     0
102
RTVSPropertyOp46
 70
     0
102
RTVSPropertyOp47
 70
     0
102
RTVSPropertyOp48
 70
     0
102
RTVSPropertyOp49
 70
     0
102
RTVSPropertyOp50
 70
     0
102
RTVSPropertyOp51
 70
     0
102
RTVSPropertyOp52
 70
     0
102
RTVSPropertyOp53
 70
     0
102
RTVSPropertyOp54
 70
     0
102
RTVSPropertyOp55
 70
     0
102
RTVSPropertyOp56
 70
     0
102
RTVSPropertyOp57
 70
     0
102
RTVSPropertyOp58
 70
     0
102
RTVSPropertyOp59
 70
     0
102
RTVSPropertyOp60
 70
     0
102
RTVSPropertyOp61
 70
     0
102
RTVSPropertyOp62
 70
     0
  0
XRECORD
  5
53C
102
{ACAD_REACTORS
330
53B
102
}
330
53B
100
AcDbXrecord
280
     1
102
RTVSPost2010Prop28
280
     0
102
RTVSPost2010PropOp28
 70
     1
102
RTVSPost2010Prop29
280
     1
102
RTVSPost2010PropOp29
 70
     1
102
RTVSPost2010Prop30
280
     1
102
RTVSPost2010PropOp30
 70
     1
102
RTVSPost2010Prop31
280
     0
102
RTVSPost2010PropOp31
 70
     1
102
RTVSPost2010Prop32
280
     0
102
RTVSPost2010PropOp32
 70
     1
102
RTVSPost2010Prop33
280
     0
102
RTVSPost2010PropOp33
 70
     1
102
RTVSPost2010Prop34
280
     0
102
RTVSPost2010PropOp34
 70
     1
102
RTVSPost2010Prop35
280
     0
102
RTVSPost2010PropOp35
 70
     1
102
RTVSPost2010Prop36
280
     0
102
RTVSPost2010PropOp36
 70
     1
102
RTVSPost2010Prop37
 90
       50
102
RTVSPost2010PropOp37
 70
     1
102
RTVSPost2010Prop38
140
0.0
102
RTVSPost2010PropOp38
 70
     1
102
RTVSPost2010Prop39
140
1.0
102
RTVSPost2010PropOp39
 70
     1
102
RTVSPost2010Prop40
 90
        0
102
RTVSPost2010PropOp40
 70
     1
102
RTVSPost2010Prop41ColorIndex
 90
       18
102
RTVSPost2010Prop41ColorRGB
 90
        0
102
RTVSPost2010PropOp41
 70
     1
102
RTVSPost2010Prop42
 90
       50
102
RTVSPost2010PropOp42
 70
     1
102
RTVSPost2010Prop43
 90
        3
102
RTVSPost2010PropOp43
 70
     1
102
RTVSPost2010Prop44ColorIndex
 90
        5
102
RTVSPost2010Prop44ColorRGB
 90
      255
102
RTVSPost2010PropOp44
 70
     1
102
RTVSPost2010Prop45
280
     0
102
RTVSPost2010PropOp45
 70
     1
102
RTVSPost2010Prop46
 90
       50
102
RTVSPost2010PropOp46
 70
     1
102
RTVSPost2010Prop47
 90
       50
102
RTVSPost2010PropOp47
 70
     1
102
RTVSPost2010Prop48
 90
       50
102
RTVSPost2010PropOp48
 70
     1
102
RTVSPost2010Prop49
280
     0
102
RTVSPost2010PropOp49
 70
     1
102
RTVSPost2010Prop50
 90
       50
102
RTVSPost2010PropOp50
 70
     1
102
RTVSPost2010Prop51ColorIndex
 90
      256
102
RTVSPost2010Prop51ColorRGB
 90
-16777216
102
RTVSPost2010PropOp51
 70
     0
102
RTVSPost2010Prop52
140
1.0
102
RTVSPost2010PropOp52
 70
     0
102
RTVSPost2010Prop53
 90
        2
102
RTVSPost2010PropOp53
 70
     1
102
RTVSPost2010Prop54
  1
strokes_ogs.tif
102
RTVSPost2010PropOp54
 70
     1
102
RTVSPost2010Prop55
280
     0
102
RTVSPost2010PropOp55
 70
     1
102
RTVSPost2010Prop56
140
1.0
102
RTVSPost2010PropOp56
 70
     1
102
RTVSPost2010Prop57
140
1.0
102
RTVSPost2010PropOp57
 70
     1
102
RTVSPropertyOp0
 70
     1
102
RTVSPropertyOp1
 70
     1
102
RTVSPropertyOp2
 70
     1
102
RTVSPropertyOp3
 70
     1
102
RTVSPropertyOp4
 70
     1
102
RTVSPropertyOp5
 70
     1
102
RTVSPropertyOp6
 70
     1
102
RTVSPropertyOp7
 70
     1
102
RTVSPropertyOp8
 70
     1
102
RTVSPropertyOp9
 70
     1
102
RTVSPropertyOp10
 70
     1
102
RTVSPropertyOp11
 70
     1
102
RTVSPropertyOp12
 70
     1
102
RTVSPropertyOp13
 70
     1
102
RTVSPropertyOp14
 70
     1
102
RTVSPropertyOp15
 70
     1
102
RTVSPropertyOp16
 70
     1
102
RTVSPropertyOp17
 70
     1
102
RTVSPropertyOp18
 70
     1
102
RTVSPropertyOp19
 70
     1
102
RTVSPropertyOp20
 70
     1
102
RTVSPropertyOp21
 70
     1
102
RTVSPropertyOp22
 70
     1
102
RTVSPropertyOp23
 70
     1
102
RTVSPropertyOp24
 70
     1
102
RTVSPropertyOp25
 70
     1
102
RTVSPropertyOp26
 70
     1
102
RTVSPropertyOp27
 70
     1
102
RTVSPropertyOp28
 70
     1
102
RTVSPropertyOp29
 70
     1
102
RTVSPropertyOp30
 70
     1
102
RTVSPropertyOp31
 70
     1
102
RTVSPropertyOp32
 70
     1
102
RTVSPropertyOp33
 70
     1
102
RTVSPropertyOp34
 70
     1
102
RTVSPropertyOp35
 70
     1
102
RTVSPropertyOp36
 70
     1
102
RTVSPropertyOp37
 70
     1
102
RTVSPropertyOp38
 70
     1
102
RTVSPropertyOp39
 70
     1
102
RTVSPropertyOp40
 70
     1
102
RTVSPropertyOp41
 70
     1
102
RTVSPropertyOp42
 70
     1
102
RTVSPropertyOp43
 70
     1
102
RTVSPropertyOp44
 70
     1
102
RTVSPropertyOp45
 70
     1
102
RTVSPropertyOp46
 70
     1
102
RTVSPropertyOp47
 70
     1
102
RTVSPropertyOp48
 70
     1
102
RTVSPropertyOp49
 70
     1
102
RTVSPropertyOp50
 70
     1
102
RTVSPropertyOp51
 70
     0
102
RTVSPropertyOp52
 70
     0
102
RTVSPropertyOp53
 70
     1
102
RTVSPropertyOp54
 70
     1
102
RTVSPropertyOp55
 70
     1
102
RTVSPropertyOp56
 70
     1
102
RTVSPropertyOp57
 70
     1
102
RTVSPropertyOp58
 70
     1
102
RTVSPropertyOp59
 70
     1
102
RTVSPropertyOp60
 70
     1
102
RTVSPropertyOp61
 70
     1
102
RTVSPropertyOp62
 70
     1
  0
XRECORD
  5
520
102
{ACAD_REACTORS
330
51F
102
}
330
51F
100
AcDbXrecord
280
     1
102
RTVSPost2010Prop28
280
     0
102
RTVSPost2010PropOp28
 70
     1
102
RTVSPost2010Prop29
280
     1
102
RTVSPost2010PropOp29
 70
     1
102
RTVSPost2010Prop30
280
     1
102
RTVSPost2010PropOp30
 70
     1
102
RTVSPost2010Prop31
280
     0
102
RTVSPost2010PropOp31
 70
     1
102
RTVSPost2010Prop32
280
     0
102
RTVSPost2010PropOp32
 70
     1
102
RTVSPost2010Prop33
280
     0
102
RTVSPost2010PropOp33
 70
     1
102
RTVSPost2010Prop34
280
     0
102
RTVSPost2010PropOp34
 70
     1
102
RTVSPost2010Prop35
280
     0
102
RTVSPost2010PropOp35
 70
     1
102
RTVSPost2010Prop36
280
     0
102
RTVSPost2010PropOp36
 70
     1
102
RTVSPost2010Prop37
 90
       50
102
RTVSPost2010PropOp37
 70
     1
102
RTVSPost2010Prop38
140
0.0
102
RTVSPost2010PropOp38
 70
     1
102
RTVSPost2010Prop39
140
1.0
102
RTVSPost2010PropOp39
 70
     1
102
RTVSPost2010Prop40
 90
        0
102
RTVSPost2010PropOp40
 70
     1
102
RTVSPost2010Prop41ColorIndex
 90
       18
102
RTVSPost2010Prop41ColorRGB
 90
        0
102
RTVSPost2010PropOp41
 70
     1
102
RTVSPost2010Prop42
 90
       50
102
RTVSPost2010PropOp42
 70
     1
102
RTVSPost2010Prop43
 90
        3
102
RTVSPost2010PropOp43
 70
     1
102
RTVSPost2010Prop44ColorIndex
 90
        5
102
RTVSPost2010Prop44ColorRGB
 90
      255
102
RTVSPost2010PropOp44
 70
     1
102
RTVSPost2010Prop45
280
     0
102
RTVSPost2010PropOp45
 70
     1
102
RTVSPost2010Prop46
 90
       50
102
RTVSPost2010PropOp46
 70
     1
102
RTVSPost2010Prop47
 90
       50
102
RTVSPost2010PropOp47
 70
     1
102
RTVSPost2010Prop48
 90
       50
102
RTVSPost2010PropOp48
 70
     1
102
RTVSPost2010Prop49
280
     0
102
RTVSPost2010PropOp49
 70
     1
102
RTVSPost2010Prop50
 90
       50
102
RTVSPost2010PropOp50
 70
     1
102
RTVSPost2010Prop51ColorIndex
 90
      256
102
RTVSPost2010Prop51ColorRGB
 90
-16777216
102
RTVSPost2010PropOp51
 70
     0
102
RTVSPost2010Prop52
140
1.0
102
RTVSPost2010PropOp52
 70
     0
102
RTVSPost2010Prop53
 90
        2
102
RTVSPost2010PropOp53
 70
     1
102
RTVSPost2010Prop54
  1
strokes_ogs.tif
102
RTVSPost2010PropOp54
 70
     1
102
RTVSPost2010Prop55
280
     0
102
RTVSPost2010PropOp55
 70
     1
102
RTVSPost2010Prop56
140
1.0
102
RTVSPost2010PropOp56
 70
     1
102
RTVSPost2010Prop57
140
1.0
102
RTVSPost2010PropOp57
 70
     1
102
RTVSPropertyOp0
 70
     1
102
RTVSPropertyOp1
 70
     1
102
RTVSPropertyOp2
 70
     1
102
RTVSPropertyOp3
 70
     1
102
RTVSPropertyOp4
 70
     1
102
RTVSPropertyOp5
 70
     1
102
RTVSPropertyOp6
 70
     1
102
RTVSPropertyOp7
 70
     1
102
RTVSPropertyOp8
 70
     1
102
RTVSPropertyOp9
 70
     1
102
RTVSPropertyOp10
 70
     1
102
RTVSPropertyOp11
 70
     1
102
RTVSPropertyOp12
 70
     1
102
RTVSPropertyOp13
 70
     1
102
RTVSPropertyOp14
 70
     1
102
RTVSPropertyOp15
 70
     1
102
RTVSPropertyOp16
 70
     1
102
RTVSPropertyOp17
 70
     1
102
RTVSPropertyOp18
 70
     1
102
RTVSPropertyOp19
 70
     1
102
RTVSPropertyOp20
 70
     1
102
RTVSPropertyOp21
 70
     1
102
RTVSPropertyOp22
 70
     1
102
RTVSPropertyOp23
 70
     1
102
RTVSPropertyOp24
 70
     1
102
RTVSPropertyOp25
 70
     1
102
RTVSPropertyOp26
 70
     1
102
RTVSPropertyOp27
 70
     1
102
RTVSPropertyOp28
 70
     1
102
RTVSPropertyOp29
 70
     1
102
RTVSPropertyOp30
 70
     1
102
RTVSPropertyOp31
 70
     1
102
RTVSPropertyOp32
 70
     1
102
RTVSPropertyOp33
 70
     1
102
RTVSPropertyOp34
 70
     1
102
RTVSPropertyOp35
 70
     1
102
RTVSPropertyOp36
 70
     1
102
RTVSPropertyOp37
 70
     1
102
RTVSPropertyOp38
 70
     1
102
RTVSPropertyOp39
 70
     1
102
RTVSPropertyOp40
 70
     1
102
RTVSPropertyOp41
 70
     1
102
RTVSPropertyOp42
 70
     1
102
RTVSPropertyOp43
 70
     1
102
RTVSPropertyOp44
 70
     1
102
RTVSPropertyOp45
 70
     1
102
RTVSPropertyOp46
 70
     1
102
RTVSPropertyOp47
 70
     1
102
RTVSPropertyOp48
 70
     1
102
RTVSPropertyOp49
 70
     1
102
RTVSPropertyOp50
 70
     1
102
RTVSPropertyOp51
 70
     0
102
RTVSPropertyOp52
 70
     0
102
RTVSPropertyOp53
 70
     1
102
RTVSPropertyOp54
 70
     1
102
RTVSPropertyOp55
 70
     1
102
RTVSPropertyOp56
 70
     1
102
RTVSPropertyOp57
 70
     1
102
RTVSPropertyOp58
 70
     1
102
RTVSPropertyOp59
 70
     1
102
RTVSPropertyOp60
 70
     1
102
RTVSPropertyOp61
 70
     1
102
RTVSPropertyOp62
 70
     1
  0
XRECORD
  5
522
102
{ACAD_REACTORS
330
521
102
}
330
521
100
AcDbXrecord
280
     1
102
RTVSPost2010Prop28
280
     0
102
RTVSPost2010PropOp28
 70
     1
102
RTVSPost2010Prop29
280
     1
102
RTVSPost2010PropOp29
 70
     1
102
RTVSPost2010Prop30
280
     1
102
RTVSPost2010PropOp30
 70
     1
102
RTVSPost2010Prop31
280
     0
102
RTVSPost2010PropOp31
 70
     1
102
RTVSPost2010Prop32
280
     0
102
RTVSPost2010PropOp32
 70
     1
102
RTVSPost2010Prop33
280
     0
102
RTVSPost2010PropOp33
 70
     1
102
RTVSPost2010Prop34
280
     0
102
RTVSPost2010PropOp34
 70
     1
102
RTVSPost2010Prop35
280
     0
102
RTVSPost2010PropOp35
 70
     1
102
RTVSPost2010Prop36
280
     0
102
RTVSPost2010PropOp36
 70
     1
102
RTVSPost2010Prop37
 90
       50
102
RTVSPost2010PropOp37
 70
     1
102
RTVSPost2010Prop38
140
0.0
102
RTVSPost2010PropOp38
 70
     1
102
RTVSPost2010Prop39
140
1.0
102
RTVSPost2010PropOp39
 70
     1
102
RTVSPost2010Prop40
 90
        0
102
RTVSPost2010PropOp40
 70
     1
102
RTVSPost2010Prop41ColorIndex
 90
       18
102
RTVSPost2010Prop41ColorRGB
 90
        0
102
RTVSPost2010PropOp41
 70
     1
102
RTVSPost2010Prop42
 90
       50
102
RTVSPost2010PropOp42
 70
     1
102
RTVSPost2010Prop43
 90
        3
102
RTVSPost2010PropOp43
 70
     1
102
RTVSPost2010Prop44ColorIndex
 90
        5
102
RTVSPost2010Prop44ColorRGB
 90
      255
102
RTVSPost2010PropOp44
 70
     1
102
RTVSPost2010Prop45
280
     0
102
RTVSPost2010PropOp45
 70
     1
102
RTVSPost2010Prop46
 90
       50
102
RTVSPost2010PropOp46
 70
     1
102
RTVSPost2010Prop47
 90
       50
102
RTVSPost2010PropOp47
 70
     1
102
RTVSPost2010Prop48
 90
       50
102
RTVSPost2010PropOp48
 70
     1
102
RTVSPost2010Prop49
280
     0
102
RTVSPost2010PropOp49
 70
     1
102
RTVSPost2010Prop50
 90
       50
102
RTVSPost2010PropOp50
 70
     1
102
RTVSPost2010Prop51ColorIndex
 90
      256
102
RTVSPost2010Prop51ColorRGB
 90
-16777216
102
RTVSPost2010PropOp51
 70
     0
102
RTVSPost2010Prop52
140
1.0
102
RTVSPost2010PropOp52
 70
     0
102
RTVSPost2010Prop53
 90
        2
102
RTVSPost2010PropOp53
 70
     1
102
RTVSPost2010Prop54
  1
strokes_ogs.tif
102
RTVSPost2010PropOp54
 70
     1
102
RTVSPost2010Prop55
280
     0
102
RTVSPost2010PropOp55
 70
     1
102
RTVSPost2010Prop56
140
1.0
102
RTVSPost2010PropOp56
 70
     1
102
RTVSPost2010Prop57
140
1.0
102
RTVSPost2010PropOp57
 70
     1
102
RTVSPropertyOp0
 70
     1
102
RTVSPropertyOp1
 70
     1
102
RTVSPropertyOp2
 70
     1
102
RTVSPropertyOp3
 70
     1
102
RTVSPropertyOp4
 70
     1
102
RTVSPropertyOp5
 70
     1
102
RTVSPropertyOp6
 70
     1
102
RTVSPropertyOp7
 70
     1
102
RTVSPropertyOp8
 70
     1
102
RTVSPropertyOp9
 70
     1
102
RTVSPropertyOp10
 70
     1
102
RTVSPropertyOp11
 70
     1
102
RTVSPropertyOp12
 70
     1
102
RTVSPropertyOp13
 70
     1
102
RTVSPropertyOp14
 70
     1
102
RTVSPropertyOp15
 70
     1
102
RTVSPropertyOp16
 70
     1
102
RTVSPropertyOp17
 70
     1
102
RTVSPropertyOp18
 70
     1
102
RTVSPropertyOp19
 70
     1
102
RTVSPropertyOp20
 70
     1
102
RTVSPropertyOp21
 70
     1
102
RTVSPropertyOp22
 70
     1
102
RTVSPropertyOp23
 70
     1
102
RTVSPropertyOp24
 70
     1
102
RTVSPropertyOp25
 70
     1
102
RTVSPropertyOp26
 70
     1
102
RTVSPropertyOp27
 70
     1
102
RTVSPropertyOp28
 70
     1
102
RTVSPropertyOp29
 70
     1
102
RTVSPropertyOp30
 70
     1
102
RTVSPropertyOp31
 70
     1
102
RTVSPropertyOp32
 70
     1
102
RTVSPropertyOp33
 70
     1
102
RTVSPropertyOp34
 70
     1
102
RTVSPropertyOp35
 70
     1
102
RTVSPropertyOp36
 70
     1
102
RTVSPropertyOp37
 70
     1
102
RTVSPropertyOp38
 70
     1
102
RTVSPropertyOp39
 70
     1
102
RTVSPropertyOp40
 70
     1
102
RTVSPropertyOp41
 70
     1
102
RTVSPropertyOp42
 70
     1
102
RTVSPropertyOp43
 70
     1
102
RTVSPropertyOp44
 70
     1
102
RTVSPropertyOp45
 70
     1
102
RTVSPropertyOp46
 70
     1
102
RTVSPropertyOp47
 70
     1
102
RTVSPropertyOp48
 70
     1
102
RTVSPropertyOp49
 70
     1
102
RTVSPropertyOp50
 70
     1
102
RTVSPropertyOp51
 70
     0
102
RTVSPropertyOp52
 70
     0
102
RTVSPropertyOp53
 70
     1
102
RTVSPropertyOp54
 70
     1
102
RTVSPropertyOp55
 70
     1
102
RTVSPropertyOp56
 70
     1
102
RTVSPropertyOp57
 70
     1
102
RTVSPropertyOp58
 70
     1
102
RTVSPropertyOp59
 70
     1
102
RTVSPropertyOp60
 70
     1
102
RTVSPropertyOp61
 70
     1
102
RTVSPropertyOp62
 70
     1
  0
XRECORD
  5
524
102
{ACAD_REACTORS
330
523
102
}
330
523
100
AcDbXrecord
280
     1
102
RTVSPost2010Prop28
280
     0
102
RTVSPost2010PropOp28
 70
     1
102
RTVSPost2010Prop29
280
     1
102
RTVSPost2010PropOp29
 70
     1
102
RTVSPost2010Prop30
280
     1
102
RTVSPost2010PropOp30
 70
     1
102
RTVSPost2010Prop31
280
     0
102
RTVSPost2010PropOp31
 70
     1
102
RTVSPost2010Prop32
280
     0
102
RTVSPost2010PropOp32
 70
     1
102
RTVSPost2010Prop33
280
     0
102
RTVSPost2010PropOp33
 70
     1
102
RTVSPost2010Prop34
280
     0
102
RTVSPost2010PropOp34
 70
     1
102
RTVSPost2010Prop35
280
     0
102
RTVSPost2010PropOp35
 70
     1
102
RTVSPost2010Prop36
280
     0
102
RTVSPost2010PropOp36
 70
     1
102
RTVSPost2010Prop37
 90
       50
102
RTVSPost2010PropOp37
 70
     1
102
RTVSPost2010Prop38
140
0.0
102
RTVSPost2010PropOp38
 70
     1
102
RTVSPost2010Prop39
140
1.0
102
RTVSPost2010PropOp39
 70
     1
102
RTVSPost2010Prop40
 90
        0
102
RTVSPost2010PropOp40
 70
     1
102
RTVSPost2010Prop41ColorIndex
 90
       18
102
RTVSPost2010Prop41ColorRGB
 90
        0
102
RTVSPost2010PropOp41
 70
     1
102
RTVSPost2010Prop42
 90
       50
102
RTVSPost2010PropOp42
 70
     1
102
RTVSPost2010Prop43
 90
        3
102
RTVSPost2010PropOp43
 70
     1
102
RTVSPost2010Prop44ColorIndex
 90
        5
102
RTVSPost2010Prop44ColorRGB
 90
      255
102
RTVSPost2010PropOp44
 70
     1
102
RTVSPost2010Prop45
280
     0
102
RTVSPost2010PropOp45
 70
     1
102
RTVSPost2010Prop46
 90
       50
102
RTVSPost2010PropOp46
 70
     1
102
RTVSPost2010Prop47
 90
       50
102
RTVSPost2010PropOp47
 70
     1
102
RTVSPost2010Prop48
 90
       50
102
RTVSPost2010PropOp48
 70
     1
102
RTVSPost2010Prop49
280
     0
102
RTVSPost2010PropOp49
 70
     1
102
RTVSPost2010Prop50
 90
       50
102
RTVSPost2010PropOp50
 70
     1
102
RTVSPost2010Prop51ColorIndex
 90
      256
102
RTVSPost2010Prop51ColorRGB
 90
-16777216
102
RTVSPost2010PropOp51
 70
     0
102
RTVSPost2010Prop52
140
1.0
102
RTVSPost2010PropOp52
 70
     0
102
RTVSPost2010Prop53
 90
        2
102
RTVSPost2010PropOp53
 70
     1
102
RTVSPost2010Prop54
  1
strokes_ogs.tif
102
RTVSPost2010PropOp54
 70
     1
102
RTVSPost2010Prop55
280
     0
102
RTVSPost2010PropOp55
 70
     1
102
RTVSPost2010Prop56
140
1.0
102
RTVSPost2010PropOp56
 70
     1
102
RTVSPost2010Prop57
140
1.0
102
RTVSPost2010PropOp57
 70
     1
102
RTVSPropertyOp0
 70
     1
102
RTVSPropertyOp1
 70
     1
102
RTVSPropertyOp2
 70
     1
102
RTVSPropertyOp3
 70
     1
102
RTVSPropertyOp4
 70
     1
102
RTVSPropertyOp5
 70
     1
102
RTVSPropertyOp6
 70
     1
102
RTVSPropertyOp7
 70
     1
102
RTVSPropertyOp8
 70
     1
102
RTVSPropertyOp9
 70
     1
102
RTVSPropertyOp10
 70
     1
102
RTVSPropertyOp11
 70
     1
102
RTVSPropertyOp12
 70
     1
102
RTVSPropertyOp13
 70
     1
102
RTVSPropertyOp14
 70
     1
102
RTVSPropertyOp15
 70
     1
102
RTVSPropertyOp16
 70
     1
102
RTVSPropertyOp17
 70
     1
102
RTVSPropertyOp18
 70
     1
102
RTVSPropertyOp19
 70
     1
102
RTVSPropertyOp20
 70
     1
102
RTVSPropertyOp21
 70
     1
102
RTVSPropertyOp22
 70
     1
102
RTVSPropertyOp23
 70
     1
102
RTVSPropertyOp24
 70
     1
102
RTVSPropertyOp25
 70
     1
102
RTVSPropertyOp26
 70
     1
102
RTVSPropertyOp27
 70
     1
102
RTVSPropertyOp28
 70
     1
102
RTVSPropertyOp29
 70
     1
102
RTVSPropertyOp30
 70
     1
102
RTVSPropertyOp31
 70
     1
102
RTVSPropertyOp32
 70
     1
102
RTVSPropertyOp33
 70
     1
102
RTVSPropertyOp34
 70
     1
102
RTVSPropertyOp35
 70
     1
102
RTVSPropertyOp36
 70
     1
102
RTVSPropertyOp37
 70
     1
102
RTVSPropertyOp38
 70
     1
102
RTVSPropertyOp39
 70
     1
102
RTVSPropertyOp40
 70
     1
102
RTVSPropertyOp41
 70
     1
102
RTVSPropertyOp42
 70
     1
102
RTVSPropertyOp43
 70
     1
102
RTVSPropertyOp44
 70
     1
102
RTVSPropertyOp45
 70
     1
102
RTVSPropertyOp46
 70
     1
102
RTVSPropertyOp47
 70
     1
102
RTVSPropertyOp48
 70
     1
102
RTVSPropertyOp49
 70
     1
102
RTVSPropertyOp50
 70
     1
102
RTVSPropertyOp51
 70
     0
102
RTVSPropertyOp52
 70
     0
102
RTVSPropertyOp53
 70
     1
102
RTVSPropertyOp54
 70
     1
102
RTVSPropertyOp55
 70
     1
102
RTVSPropertyOp56
 70
     1
102
RTVSPropertyOp57
 70
     1
102
RTVSPropertyOp58
 70
     1
102
RTVSPropertyOp59
 70
     1
102
RTVSPropertyOp60
 70
     1
102
RTVSPropertyOp61
 70
     1
102
RTVSPropertyOp62
 70
     1
  0
XRECORD
  5
526
102
{ACAD_REACTORS
330
525
102
}
330
525
100
AcDbXrecord
280
     1
102
RTVSPost2010Prop28
280
     0
102
RTVSPost2010PropOp28
 70
     1
102
RTVSPost2010Prop29
280
     1
102
RTVSPost2010PropOp29
 70
     1
102
RTVSPost2010Prop30
280
     1
102
RTVSPost2010PropOp30
 70
     1
102
RTVSPost2010Prop31
280
     0
102
RTVSPost2010PropOp31
 70
     1
102
RTVSPost2010Prop32
280
     0
102
RTVSPost2010PropOp32
 70
     1
102
RTVSPost2010Prop33
280
     0
102
RTVSPost2010PropOp33
 70
     1
102
RTVSPost2010Prop34
280
     0
102
RTVSPost2010PropOp34
 70
     1
102
RTVSPost2010Prop35
280
     0
102
RTVSPost2010PropOp35
 70
     1
102
RTVSPost2010Prop36
280
     0
102
RTVSPost2010PropOp36
 70
     1
102
RTVSPost2010Prop37
 90
       50
102
RTVSPost2010PropOp37
 70
     1
102
RTVSPost2010Prop38
140
0.0
102
RTVSPost2010PropOp38
 70
     1
102
RTVSPost2010Prop39
140
1.0
102
RTVSPost2010PropOp39
 70
     1
102
RTVSPost2010Prop40
 90
        0
102
RTVSPost2010PropOp40
 70
     1
102
RTVSPost2010Prop41ColorIndex
 90
       18
102
RTVSPost2010Prop41ColorRGB
 90
        0
102
RTVSPost2010PropOp41
 70
     1
102
RTVSPost2010Prop42
 90
       50
102
RTVSPost2010PropOp42
 70
     1
102
RTVSPost2010Prop43
 90
        3
102
RTVSPost2010PropOp43
 70
     1
102
RTVSPost2010Prop44ColorIndex
 90
        5
102
RTVSPost2010Prop44ColorRGB
 90
      255
102
RTVSPost2010PropOp44
 70
     1
102
RTVSPost2010Prop45
280
     0
102
RTVSPost2010PropOp45
 70
     1
102
RTVSPost2010Prop46
 90
       50
102
RTVSPost2010PropOp46
 70
     1
102
RTVSPost2010Prop47
 90
       50
102
RTVSPost2010PropOp47
 70
     1
102
RTVSPost2010Prop48
 90
       50
102
RTVSPost2010PropOp48
 70
     1
102
RTVSPost2010Prop49
280
     0
102
RTVSPost2010PropOp49
 70
     1
102
RTVSPost2010Prop50
 90
       50
102
RTVSPost2010PropOp50
 70
     1
102
RTVSPost2010Prop51ColorIndex
 90
      256
102
RTVSPost2010Prop51ColorRGB
 90
-16777216
102
RTVSPost2010PropOp51
 70
     0
102
RTVSPost2010Prop52
140
1.0
102
RTVSPost2010PropOp52
 70
     0
102
RTVSPost2010Prop53
 90
        2
102
RTVSPost2010PropOp53
 70
     1
102
RTVSPost2010Prop54
  1
strokes_ogs.tif
102
RTVSPost2010PropOp54
 70
     1
102
RTVSPost2010Prop55
280
     0
102
RTVSPost2010PropOp55
 70
     1
102
RTVSPost2010Prop56
140
1.0
102
RTVSPost2010PropOp56
 70
     1
102
RTVSPost2010Prop57
140
1.0
102
RTVSPost2010PropOp57
 70
     1
102
RTVSPropertyOp0
 70
     1
102
RTVSPropertyOp1
 70
     1
102
RTVSPropertyOp2
 70
     1
102
RTVSPropertyOp3
 70
     1
102
RTVSPropertyOp4
 70
     1
102
RTVSPropertyOp5
 70
     1
102
RTVSPropertyOp6
 70
     1
102
RTVSPropertyOp7
 70
     1
102
RTVSPropertyOp8
 70
     1
102
RTVSPropertyOp9
 70
     1
102
RTVSPropertyOp10
 70
     1
102
RTVSPropertyOp11
 70
     1
102
RTVSPropertyOp12
 70
     1
102
RTVSPropertyOp13
 70
     1
102
RTVSPropertyOp14
 70
     1
102
RTVSPropertyOp15
 70
     1
102
RTVSPropertyOp16
 70
     1
102
RTVSPropertyOp17
 70
     1
102
RTVSPropertyOp18
 70
     1
102
RTVSPropertyOp19
 70
     1
102
RTVSPropertyOp20
 70
     1
102
RTVSPropertyOp21
 70
     1
102
RTVSPropertyOp22
 70
     1
102
RTVSPropertyOp23
 70
     1
102
RTVSPropertyOp24
 70
     1
102
RTVSPropertyOp25
 70
     1
102
RTVSPropertyOp26
 70
     1
102
RTVSPropertyOp27
 70
     1
102
RTVSPropertyOp28
 70
     1
102
RTVSPropertyOp29
 70
     1
102
RTVSPropertyOp30
 70
     1
102
RTVSPropertyOp31
 70
     1
102
RTVSPropertyOp32
 70
     1
102
RTVSPropertyOp33
 70
     1
102
RTVSPropertyOp34
 70
     1
102
RTVSPropertyOp35
 70
     1
102
RTVSPropertyOp36
 70
     1
102
RTVSPropertyOp37
 70
     1
102
RTVSPropertyOp38
 70
     1
102
RTVSPropertyOp39
 70
     1
102
RTVSPropertyOp40
 70
     1
102
RTVSPropertyOp41
 70
     1
102
RTVSPropertyOp42
 70
     1
102
RTVSPropertyOp43
 70
     1
102
RTVSPropertyOp44
 70
     1
102
RTVSPropertyOp45
 70
     1
102
RTVSPropertyOp46
 70
     1
102
RTVSPropertyOp47
 70
     1
102
RTVSPropertyOp48
 70
     1
102
RTVSPropertyOp49
 70
     1
102
RTVSPropertyOp50
 70
     1
102
RTVSPropertyOp51
 70
     0
102
RTVSPropertyOp52
 70
     0
102
RTVSPropertyOp53
 70
     1
102
RTVSPropertyOp54
 70
     1
102
RTVSPropertyOp55
 70
     1
102
RTVSPropertyOp56
 70
     1
102
RTVSPropertyOp57
 70
     1
102
RTVSPropertyOp58
 70
     1
102
RTVSPropertyOp59
 70
     1
102
RTVSPropertyOp60
 70
     1
102
RTVSPropertyOp61
 70
     1
102
RTVSPropertyOp62
 70
     1
  0
XRECORD
  5
52E
102
{ACAD_REACTORS
330
52D
102
}
330
52D
100
AcDbXrecord
280
     1
102
RTVSPost2010Prop28
280
     0
102
RTVSPost2010PropOp28
 70
     1
102
RTVSPost2010Prop29
280
     1
102
RTVSPost2010PropOp29
 70
     1
102
RTVSPost2010Prop30
280
     1
102
RTVSPost2010PropOp30
 70
     1
102
RTVSPost2010Prop31
280
     0
102
RTVSPost2010PropOp31
 70
     1
102
RTVSPost2010Prop32
280
     0
102
RTVSPost2010PropOp32
 70
     1
102
RTVSPost2010Prop33
280
     0
102
RTVSPost2010PropOp33
 70
     1
102
RTVSPost2010Prop34
280
     0
102
RTVSPost2010PropOp34
 70
     1
102
RTVSPost2010Prop35
280
     0
102
RTVSPost2010PropOp35
 70
     1
102
RTVSPost2010Prop36
280
     0
102
RTVSPost2010PropOp36
 70
     1
102
RTVSPost2010Prop37
 90
       50
102
RTVSPost2010PropOp37
 70
     1
102
RTVSPost2010Prop38
140
0.0
102
RTVSPost2010PropOp38
 70
     1
102
RTVSPost2010Prop39
140
1.0
102
RTVSPost2010PropOp39
 70
     1
102
RTVSPost2010Prop40
 90
        0
102
RTVSPost2010PropOp40
 70
     1
102
RTVSPost2010Prop41ColorIndex
 90
       18
102
RTVSPost2010Prop41ColorRGB
 90
        0
102
RTVSPost2010PropOp41
 70
     1
102
RTVSPost2010Prop42
 90
       50
102
RTVSPost2010PropOp42
 70
     1
102
RTVSPost2010Prop43
 90
        3
102
RTVSPost2010PropOp43
 70
     1
102
RTVSPost2010Prop44ColorIndex
 90
        5
102
RTVSPost2010Prop44ColorRGB
 90
      255
102
RTVSPost2010PropOp44
 70
     1
102
RTVSPost2010Prop45
280
     0
102
RTVSPost2010PropOp45
 70
     1
102
RTVSPost2010Prop46
 90
       50
102
RTVSPost2010PropOp46
 70
     1
102
RTVSPost2010Prop47
 90
       50
102
RTVSPost2010PropOp47
 70
     1
102
RTVSPost2010Prop48
 90
       50
102
RTVSPost2010PropOp48
 70
     1
102
RTVSPost2010Prop49
280
     0
102
RTVSPost2010PropOp49
 70
     1
102
RTVSPost2010Prop50
 90
       50
102
RTVSPost2010PropOp50
 70
     1
102
RTVSPost2010Prop51ColorIndex
 90
      256
102
RTVSPost2010Prop51ColorRGB
 90
-16777216
102
RTVSPost2010PropOp51
 70
     0
102
RTVSPost2010Prop52
140
1.0
102
RTVSPost2010PropOp52
 70
     0
102
RTVSPost2010Prop53
 90
        2
102
RTVSPost2010PropOp53
 70
     1
102
RTVSPost2010Prop54
  1
strokes_ogs.tif
102
RTVSPost2010PropOp54
 70
     1
102
RTVSPost2010Prop55
280
     0
102
RTVSPost2010PropOp55
 70
     1
102
RTVSPost2010Prop56
140
1.0
102
RTVSPost2010PropOp56
 70
     1
102
RTVSPost2010Prop57
140
1.0
102
RTVSPost2010PropOp57
 70
     1
102
RTVSPropertyOp0
 70
     1
102
RTVSPropertyOp1
 70
     1
102
RTVSPropertyOp2
 70
     1
102
RTVSPropertyOp3
 70
     1
102
RTVSPropertyOp4
 70
     1
102
RTVSPropertyOp5
 70
     1
102
RTVSPropertyOp6
 70
     1
102
RTVSPropertyOp7
 70
     1
102
RTVSPropertyOp8
 70
     1
102
RTVSPropertyOp9
 70
     1
102
RTVSPropertyOp10
 70
     1
102
RTVSPropertyOp11
 70
     1
102
RTVSPropertyOp12
 70
     1
102
RTVSPropertyOp13
 70
     1
102
RTVSPropertyOp14
 70
     1
102
RTVSPropertyOp15
 70
     1
102
RTVSPropertyOp16
 70
     1
102
RTVSPropertyOp17
 70
     1
102
RTVSPropertyOp18
 70
     1
102
RTVSPropertyOp19
 70
     1
102
RTVSPropertyOp20
 70
     1
102
RTVSPropertyOp21
 70
     1
102
RTVSPropertyOp22
 70
     1
102
RTVSPropertyOp23
 70
     1
102
RTVSPropertyOp24
 70
     1
102
RTVSPropertyOp25
 70
     1
102
RTVSPropertyOp26
 70
     1
102
RTVSPropertyOp27
 70
     1
102
RTVSPropertyOp28
 70
     1
102
RTVSPropertyOp29
 70
     1
102
RTVSPropertyOp30
 70
     1
102
RTVSPropertyOp31
 70
     1
102
RTVSPropertyOp32
 70
     1
102
RTVSPropertyOp33
 70
     1
102
RTVSPropertyOp34
 70
     1
102
RTVSPropertyOp35
 70
     1
102
RTVSPropertyOp36
 70
     1
102
RTVSPropertyOp37
 70
     1
102
RTVSPropertyOp38
 70
     1
102
RTVSPropertyOp39
 70
     1
102
RTVSPropertyOp40
 70
     1
102
RTVSPropertyOp41
 70
     1
102
RTVSPropertyOp42
 70
     1
102
RTVSPropertyOp43
 70
     1
102
RTVSPropertyOp44
 70
     1
102
RTVSPropertyOp45
 70
     1
102
RTVSPropertyOp46
 70
     1
102
RTVSPropertyOp47
 70
     1
102
RTVSPropertyOp48
 70
     1
102
RTVSPropertyOp49
 70
     1
102
RTVSPropertyOp50
 70
     1
102
RTVSPropertyOp51
 70
     0
102
RTVSPropertyOp52
 70
     0
102
RTVSPropertyOp53
 70
     1
102
RTVSPropertyOp54
 70
     1
102
RTVSPropertyOp55
 70
     1
102
RTVSPropertyOp56
 70
     1
102
RTVSPropertyOp57
 70
     1
102
RTVSPropertyOp58
 70
     1
102
RTVSPropertyOp59
 70
     1
102
RTVSPropertyOp60
 70
     1
102
RTVSPropertyOp61
 70
     1
102
RTVSPropertyOp62
 70
     1
  0
XRECORD
  5
54A
102
{ACAD_REACTORS
330
549
102
}
330
549
100
AcDbXrecord
280
     1
102
RTVSPost2010Prop28
280
     0
102
RTVSPost2010PropOp28
 70
     0
102
RTVSPost2010Prop29
280
     1
102
RTVSPost2010PropOp29
 70
     0
102
RTVSPost2010Prop30
280
     1
102
RTVSPost2010PropOp30
 70
     0
102
RTVSPost2010Prop31
280
     0
102
RTVSPost2010PropOp31
 70
     0
102
RTVSPost2010Prop32
280
     0
102
RTVSPost2010PropOp32
 70
     0
102
RTVSPost2010Prop33
280
     0
102
RTVSPost2010PropOp33
 70
     0
102
RTVSPost2010Prop34
280
     0
102
RTVSPost2010PropOp34
 70
     0
102
RTVSPost2010Prop35
280
     0
102
RTVSPost2010PropOp35
 70
     0
102
RTVSPost2010Prop36
280
     0
102
RTVSPost2010PropOp36
 70
     0
102
RTVSPost2010Prop37
 90
       50
102
RTVSPost2010PropOp37
 70
     0
102
RTVSPost2010Prop38
140
0.0
102
RTVSPost2010PropOp38
 70
     0
102
RTVSPost2010Prop39
140
1.0
102
RTVSPost2010PropOp39
 70
     0
102
RTVSPost2010Prop40
 90
        0
102
RTVSPost2010PropOp40
 70
     0
102
RTVSPost2010Prop41ColorIndex
 90
       18
102
RTVSPost2010Prop41ColorRGB
 90
        0
102
RTVSPost2010PropOp41
 70
     0
102
RTVSPost2010Prop42
 90
       50
102
RTVSPost2010PropOp42
 70
     0
102
RTVSPost2010Prop43
 90
        3
102
RTVSPost2010PropOp43
 70
     0
102
RTVSPost2010Prop44ColorIndex
 90
        5
102
RTVSPost2010Prop44ColorRGB
 90
      255
102
RTVSPost2010PropOp44
 70
     0
102
RTVSPost2010Prop45
280
     0
102
RTVSPost2010PropOp45
 70
     0
102
RTVSPost2010Prop46
 90
       50
102
RTVSPost2010PropOp46
 70
     0
102
RTVSPost2010Prop47
 90
       50
102
RTVSPost2010PropOp47
 70
     0
102
RTVSPost2010Prop48
 90
       50
102
RTVSPost2010PropOp48
 70
     0
102
RTVSPost2010Prop49
280
     0
102
RTVSPost2010PropOp49
 70
     0
102
RTVSPost2010Prop50
 90
       50
102
RTVSPost2010PropOp50
 70
     0
102
RTVSPost2010Prop51ColorIndex
 90
      256
102
RTVSPost2010Prop51ColorRGB
 90
-16777216
102
RTVSPost2010PropOp51
 70
     0
102
RTVSPost2010Prop52
140
1.0
102
RTVSPost2010PropOp52
 70
     0
102
RTVSPost2010Prop53
 90
        2
102
RTVSPost2010PropOp53
 70
     0
102
RTVSPost2010Prop54
  1
strokes_ogs.tif
102
RTVSPost2010PropOp54
 70
     0
102
RTVSPost2010Prop55
280
     0
102
RTVSPost2010PropOp55
 70
     0
102
RTVSPost2010Prop56
140
1.0
102
RTVSPost2010PropOp56
 70
     0
102
RTVSPost2010Prop57
140
1.0
102
RTVSPost2010PropOp57
 70
     0
102
RTVSPropertyOp0
 70
     0
102
RTVSPropertyOp1
 70
     0
102
RTVSPropertyOp2
 70
     0
102
RTVSPropertyOp3
 70
     0
102
RTVSPropertyOp4
 70
     0
102
RTVSPropertyOp5
 70
     0
102
RTVSPropertyOp6
 70
     0
102
RTVSPropertyOp7
 70
     0
102
RTVSPropertyOp8
 70
     0
102
RTVSPropertyOp9
 70
     0
102
RTVSPropertyOp10
 70
     0
102
RTVSPropertyOp11
 70
     0
102
RTVSPropertyOp12
 70
     0
102
RTVSPropertyOp13
 70
     0
102
RTVSPropertyOp14
 70
     2
102
RTVSPropertyOp15
 70
     0
102
RTVSPropertyOp16
 70
     0
102
RTVSPropertyOp17
 70
     0
102
RTVSPropertyOp18
 70
     0
102
RTVSPropertyOp19
 70
     0
102
RTVSPropertyOp20
 70
     0
102
RTVSPropertyOp21
 70
     0
102
RTVSPropertyOp22
 70
     0
102
RTVSPropertyOp23
 70
     0
102
RTVSPropertyOp24
 70
     0
102
RTVSPropertyOp25
 70
     0
102
RTVSPropertyOp26
 70
     0
102
RTVSPropertyOp27
 70
     0
102
RTVSPropertyOp28
 70
     0
102
RTVSPropertyOp29
 70
     0
102
RTVSPropertyOp30
 70
     0
102
RTVSPropertyOp31
 70
     0
102
RTVSPropertyOp32
 70
     0
102
RTVSPropertyOp33
 70
     0
102
RTVSPropertyOp34
 70
     0
102
RTVSPropertyOp35
 70
     0
102
RTVSPropertyOp36
 70
     0
102
RTVSPropertyOp37
 70
     0
102
RTVSPropertyOp38
 70
     0
102
RTVSPropertyOp39
 70
     0
102
RTVSPropertyOp40
 70
     0
102
RTVSPropertyOp41
 70
     0
102
RTVSPropertyOp42
 70
     0
102
RTVSPropertyOp43
 70
     0
102
RTVSPropertyOp44
 70
     0
102
RTVSPropertyOp45
 70
     0
102
RTVSPropertyOp46
 70
     0
102
RTVSPropertyOp47
 70
     0
102
RTVSPropertyOp48
 70
     0
102
RTVSPropertyOp49
 70
     0
102
RTVSPropertyOp50
 70
     0
102
RTVSPropertyOp51
 70
     0
102
RTVSPropertyOp52
 70
     0
102
RTVSPropertyOp53
 70
     0
102
RTVSPropertyOp54
 70
     0
102
RTVSPropertyOp55
 70
     0
102
RTVSPropertyOp56
 70
     0
102
RTVSPropertyOp57
 70
     0
102
RTVSPropertyOp58
 70
     0
102
RTVSPropertyOp59
 70
     0
102
RTVSPropertyOp60
 70
     0
102
RTVSPropertyOp61
 70
     0
102
RTVSPropertyOp62
 70
     0
  0
XRECORD
  5
53A
102
{ACAD_REACTORS
330
539
102
}
330
539
100
AcDbXrecord
280
     1
102
RTVSPost2010Prop28
280
     0
102
RTVSPost2010PropOp28
 70
     1
102
RTVSPost2010Prop29
280
     1
102
RTVSPost2010PropOp29
 70
     1
102
RTVSPost2010Prop30
280
     1
102
RTVSPost2010PropOp30
 70
     1
102
RTVSPost2010Prop31
280
     0
102
RTVSPost2010PropOp31
 70
     1
102
RTVSPost2010Prop32
280
     0
102
RTVSPost2010PropOp32
 70
     1
102
RTVSPost2010Prop33
280
     0
102
RTVSPost2010PropOp33
 70
     1
102
RTVSPost2010Prop34
280
     0
102
RTVSPost2010PropOp34
 70
     1
102
RTVSPost2010Prop35
280
     0
102
RTVSPost2010PropOp35
 70
     1
102
RTVSPost2010Prop36
280
     0
102
RTVSPost2010PropOp36
 70
     1
102
RTVSPost2010Prop37
 90
       50
102
RTVSPost2010PropOp37
 70
     1
102
RTVSPost2010Prop38
140
0.0
102
RTVSPost2010PropOp38
 70
     1
102
RTVSPost2010Prop39
140
1.0
102
RTVSPost2010PropOp39
 70
     1
102
RTVSPost2010Prop40
 90
        0
102
RTVSPost2010PropOp40
 70
     1
102
RTVSPost2010Prop41ColorIndex
 90
       18
102
RTVSPost2010Prop41ColorRGB
 90
        0
102
RTVSPost2010PropOp41
 70
     1
102
RTVSPost2010Prop42
 90
       50
102
RTVSPost2010PropOp42
 70
     1
102
RTVSPost2010Prop43
 90
        3
102
RTVSPost2010PropOp43
 70
     1
102
RTVSPost2010Prop44ColorIndex
 90
        5
102
RTVSPost2010Prop44ColorRGB
 90
      255
102
RTVSPost2010PropOp44
 70
     1
102
RTVSPost2010Prop45
280
     0
102
RTVSPost2010PropOp45
 70
     1
102
RTVSPost2010Prop46
 90
       50
102
RTVSPost2010PropOp46
 70
     1
102
RTVSPost2010Prop47
 90
       50
102
RTVSPost2010PropOp47
 70
     1
102
RTVSPost2010Prop48
 90
       50
102
RTVSPost2010PropOp48
 70
     1
102
RTVSPost2010Prop49
280
     0
102
RTVSPost2010PropOp49
 70
     1
102
RTVSPost2010Prop50
 90
       50
102
RTVSPost2010PropOp50
 70
     1
102
RTVSPost2010Prop51ColorIndex
 90
      256
102
RTVSPost2010Prop51ColorRGB
 90
-16777216
102
RTVSPost2010PropOp51
 70
     0
102
RTVSPost2010Prop52
140
1.0
102
RTVSPost2010PropOp52
 70
     0
102
RTVSPost2010Prop53
 90
        2
102
RTVSPost2010PropOp53
 70
     1
102
RTVSPost2010Prop54
  1
strokes_ogs.tif
102
RTVSPost2010PropOp54
 70
     1
102
RTVSPost2010Prop55
280
     0
102
RTVSPost2010PropOp55
 70
     1
102
RTVSPost2010Prop56
140
1.0
102
RTVSPost2010PropOp56
 70
     1
102
RTVSPost2010Prop57
140
1.0
102
RTVSPost2010PropOp57
 70
     1
102
RTVSPropertyOp0
 70
     1
102
RTVSPropertyOp1
 70
     1
102
RTVSPropertyOp2
 70
     1
102
RTVSPropertyOp3
 70
     1
102
RTVSPropertyOp4
 70
     1
102
RTVSPropertyOp5
 70
     1
102
RTVSPropertyOp6
 70
     1
102
RTVSPropertyOp7
 70
     1
102
RTVSPropertyOp8
 70
     1
102
RTVSPropertyOp9
 70
     1
102
RTVSPropertyOp10
 70
     1
102
RTVSPropertyOp11
 70
     1
102
RTVSPropertyOp12
 70
     1
102
RTVSPropertyOp13
 70
     1
102
RTVSPropertyOp14
 70
     1
102
RTVSPropertyOp15
 70
     1
102
RTVSPropertyOp16
 70
     1
102
RTVSPropertyOp17
 70
     1
102
RTVSPropertyOp18
 70
     1
102
RTVSPropertyOp19
 70
     1
102
RTVSPropertyOp20
 70
     1
102
RTVSPropertyOp21
 70
     1
102
RTVSPropertyOp22
 70
     1
102
RTVSPropertyOp23
 70
     1
102
RTVSPropertyOp24
 70
     1
102
RTVSPropertyOp25
 70
     1
102
RTVSPropertyOp26
 70
     1
102
RTVSPropertyOp27
 70
     1
102
RTVSPropertyOp28
 70
     1
102
RTVSPropertyOp29
 70
     1
102
RTVSPropertyOp30
 70
     1
102
RTVSPropertyOp31
 70
     1
102
RTVSPropertyOp32
 70
     1
102
RTVSPropertyOp33
 70
     1
102
RTVSPropertyOp34
 70
     1
102
RTVSPropertyOp35
 70
     1
102
RTVSPropertyOp36
 70
     1
102
RTVSPropertyOp37
 70
     1
102
RTVSPropertyOp38
 70
     1
102
RTVSPropertyOp39
 70
     1
102
RTVSPropertyOp40
 70
     1
102
RTVSPropertyOp41
 70
     1
102
RTVSPropertyOp42
 70
     1
102
RTVSPropertyOp43
 70
     1
102
RTVSPropertyOp44
 70
     1
102
RTVSPropertyOp45
 70
     1
102
RTVSPropertyOp46
 70
     1
102
RTVSPropertyOp47
 70
     1
102
RTVSPropertyOp48
 70
     1
102
RTVSPropertyOp49
 70
     1
102
RTVSPropertyOp50
 70
     1
102
RTVSPropertyOp51
 70
     0
102
RTVSPropertyOp52
 70
     0
102
RTVSPropertyOp53
 70
     1
102
RTVSPropertyOp54
 70
     1
102
RTVSPropertyOp55
 70
     1
102
RTVSPropertyOp56
 70
     1
102
RTVSPropertyOp57
 70
     1
102
RTVSPropertyOp58
 70
     1
102
RTVSPropertyOp59
 70
     1
102
RTVSPropertyOp60
 70
     1
102
RTVSPropertyOp61
 70
     1
102
RTVSPropertyOp62
 70
     1
  0
XRECORD
  5
54C
102
{ACAD_REACTORS
330
54B
102
}
330
54B
100
AcDbXrecord
280
     1
102
RTVSPost2010Prop28
280
     0
102
RTVSPost2010PropOp28
 70
     0
102
RTVSPost2010Prop29
280
     1
102
RTVSPost2010PropOp29
 70
     0
102
RTVSPost2010Prop30
280
     1
102
RTVSPost2010PropOp30
 70
     0
102
RTVSPost2010Prop31
280
     0
102
RTVSPost2010PropOp31
 70
     0
102
RTVSPost2010Prop32
280
     0
102
RTVSPost2010PropOp32
 70
     0
102
RTVSPost2010Prop33
280
     0
102
RTVSPost2010PropOp33
 70
     0
102
RTVSPost2010Prop34
280
     0
102
RTVSPost2010PropOp34
 70
     0
102
RTVSPost2010Prop35
280
     0
102
RTVSPost2010PropOp35
 70
     0
102
RTVSPost2010Prop36
280
     0
102
RTVSPost2010PropOp36
 70
     0
102
RTVSPost2010Prop37
 90
       50
102
RTVSPost2010PropOp37
 70
     0
102
RTVSPost2010Prop38
140
0.0
102
RTVSPost2010PropOp38
 70
     0
102
RTVSPost2010Prop39
140
1.0
102
RTVSPost2010PropOp39
 70
     0
102
RTVSPost2010Prop40
 90
        0
102
RTVSPost2010PropOp40
 70
     0
102
RTVSPost2010Prop41ColorIndex
 90
       18
102
RTVSPost2010Prop41ColorRGB
 90
        0
102
RTVSPost2010PropOp41
 70
     0
102
RTVSPost2010Prop42
 90
       50
102
RTVSPost2010PropOp42
 70
     0
102
RTVSPost2010Prop43
 90
        3
102
RTVSPost2010PropOp43
 70
     0
102
RTVSPost2010Prop44ColorIndex
 90
        5
102
RTVSPost2010Prop44ColorRGB
 90
      255
102
RTVSPost2010PropOp44
 70
     0
102
RTVSPost2010Prop45
280
     0
102
RTVSPost2010PropOp45
 70
     0
102
RTVSPost2010Prop46
 90
       50
102
RTVSPost2010PropOp46
 70
     0
102
RTVSPost2010Prop47
 90
       50
102
RTVSPost2010PropOp47
 70
     0
102
RTVSPost2010Prop48
 90
       50
102
RTVSPost2010PropOp48
 70
     0
102
RTVSPost2010Prop49
280
     0
102
RTVSPost2010PropOp49
 70
     0
102
RTVSPost2010Prop50
 90
       50
102
RTVSPost2010PropOp50
 70
     0
102
RTVSPost2010Prop51ColorIndex
 90
      256
102
RTVSPost2010Prop51ColorRGB
 90
-16777216
102
RTVSPost2010PropOp51
 70
     0
102
RTVSPost2010Prop52
140
1.0
102
RTVSPost2010PropOp52
 70
     0
102
RTVSPost2010Prop53
 90
        2
102
RTVSPost2010PropOp53
 70
     0
102
RTVSPost2010Prop54
  1
strokes_ogs.tif
102
RTVSPost2010PropOp54
 70
     0
102
RTVSPost2010Prop55
280
     0
102
RTVSPost2010PropOp55
 70
     0
102
RTVSPost2010Prop56
140
1.0
102
RTVSPost2010PropOp56
 70
     0
102
RTVSPost2010Prop57
140
1.0
102
RTVSPost2010PropOp57
 70
     0
102
RTVSPropertyOp0
 70
     0
102
RTVSPropertyOp1
 70
     0
102
RTVSPropertyOp2
 70
     0
102
RTVSPropertyOp3
 70
     0
102
RTVSPropertyOp4
 70
     0
102
RTVSPropertyOp5
 70
     0
102
RTVSPropertyOp6
 70
     0
102
RTVSPropertyOp7
 70
     0
102
RTVSPropertyOp8
 70
     0
102
RTVSPropertyOp9
 70
     0
102
RTVSPropertyOp10
 70
     0
102
RTVSPropertyOp11
 70
     0
102
RTVSPropertyOp12
 70
     0
102
RTVSPropertyOp13
 70
     0
102
RTVSPropertyOp14
 70
     2
102
RTVSPropertyOp15
 70
     0
102
RTVSPropertyOp16
 70
     0
102
RTVSPropertyOp17
 70
     0
102
RTVSPropertyOp18
 70
     0
102
RTVSPropertyOp19
 70
     0
102
RTVSPropertyOp20
 70
     0
102
RTVSPropertyOp21
 70
     0
102
RTVSPropertyOp22
 70
     0
102
RTVSPropertyOp23
 70
     0
102
RTVSPropertyOp24
 70
     0
102
RTVSPropertyOp25
 70
     0
102
RTVSPropertyOp26
 70
     0
102
RTVSPropertyOp27
 70
     0
102
RTVSPropertyOp28
 70
     0
102
RTVSPropertyOp29
 70
     0
102
RTVSPropertyOp30
 70
     0
102
RTVSPropertyOp31
 70
     0
102
RTVSPropertyOp32
 70
     0
102
RTVSPropertyOp33
 70
     0
102
RTVSPropertyOp34
 70
     0
102
RTVSPropertyOp35
 70
     0
102
RTVSPropertyOp36
 70
     0
102
RTVSPropertyOp37
 70
     0
102
RTVSPropertyOp38
 70
     0
102
RTVSPropertyOp39
 70
     0
102
RTVSPropertyOp40
 70
     0
102
RTVSPropertyOp41
 70
     0
102
RTVSPropertyOp42
 70
     0
102
RTVSPropertyOp43
 70
     0
102
RTVSPropertyOp44
 70
     0
102
RTVSPropertyOp45
 70
     0
102
RTVSPropertyOp46
 70
     0
102
RTVSPropertyOp47
 70
     0
102
RTVSPropertyOp48
 70
     0
102
RTVSPropertyOp49
 70
     0
102
RTVSPropertyOp50
 70
     0
102
RTVSPropertyOp51
 70
     0
102
RTVSPropertyOp52
 70
     0
102
RTVSPropertyOp53
 70
     0
102
RTVSPropertyOp54
 70
     0
102
RTVSPropertyOp55
 70
     0
102
RTVSPropertyOp56
 70
     0
102
RTVSPropertyOp57
 70
     0
102
RTVSPropertyOp58
 70
     0
102
RTVSPropertyOp59
 70
     0
102
RTVSPropertyOp60
 70
     0
102
RTVSPropertyOp61
 70
     0
102
RTVSPropertyOp62
 70
     0
  0
XRECORD
  5
532
102
{ACAD_REACTORS
330
531
102
}
330
531
100
AcDbXrecord
280
     1
102
RTVSPost2010Prop28
280
     0
102
RTVSPost2010PropOp28
 70
     1
102
RTVSPost2010Prop29
280
     1
102
RTVSPost2010PropOp29
 70
     1
102
RTVSPost2010Prop30
280
     1
102
RTVSPost2010PropOp30
 70
     1
102
RTVSPost2010Prop31
280
     0
102
RTVSPost2010PropOp31
 70
     1
102
RTVSPost2010Prop32
280
     0
102
RTVSPost2010PropOp32
 70
     1
102
RTVSPost2010Prop33
280
     0
102
RTVSPost2010PropOp33
 70
     1
102
RTVSPost2010Prop34
280
     0
102
RTVSPost2010PropOp34
 70
     1
102
RTVSPost2010Prop35
280
     0
102
RTVSPost2010PropOp35
 70
     1
102
RTVSPost2010Prop36
280
     0
102
RTVSPost2010PropOp36
 70
     1
102
RTVSPost2010Prop37
 90
       50
102
RTVSPost2010PropOp37
 70
     1
102
RTVSPost2010Prop38
140
0.0
102
RTVSPost2010PropOp38
 70
     1
102
RTVSPost2010Prop39
140
1.0
102
RTVSPost2010PropOp39
 70
     1
102
RTVSPost2010Prop40
 90
        0
102
RTVSPost2010PropOp40
 70
     1
102
RTVSPost2010Prop41ColorIndex
 90
       18
102
RTVSPost2010Prop41ColorRGB
 90
        0
102
RTVSPost2010PropOp41
 70
     1
102
RTVSPost2010Prop42
 90
       50
102
RTVSPost2010PropOp42
 70
     1
102
RTVSPost2010Prop43
 90
        3
102
RTVSPost2010PropOp43
 70
     1
102
RTVSPost2010Prop44ColorIndex
 90
        5
102
RTVSPost2010Prop44ColorRGB
 90
      255
102
RTVSPost2010PropOp44
 70
     1
102
RTVSPost2010Prop45
280
     0
102
RTVSPost2010PropOp45
 70
     1
102
RTVSPost2010Prop46
 90
       50
102
RTVSPost2010PropOp46
 70
     1
102
RTVSPost2010Prop47
 90
       50
102
RTVSPost2010PropOp47
 70
     1
102
RTVSPost2010Prop48
 90
       50
102
RTVSPost2010PropOp48
 70
     1
102
RTVSPost2010Prop49
280
     0
102
RTVSPost2010PropOp49
 70
     1
102
RTVSPost2010Prop50
 90
       50
102
RTVSPost2010PropOp50
 70
     1
102
RTVSPost2010Prop51ColorIndex
 90
      256
102
RTVSPost2010Prop51ColorRGB
 90
-16777216
102
RTVSPost2010PropOp51
 70
     0
102
RTVSPost2010Prop52
140
1.0
102
RTVSPost2010PropOp52
 70
     0
102
RTVSPost2010Prop53
 90
        2
102
RTVSPost2010PropOp53
 70
     1
102
RTVSPost2010Prop54
  1
strokes_ogs.tif
102
RTVSPost2010PropOp54
 70
     1
102
RTVSPost2010Prop55
280
     0
102
RTVSPost2010PropOp55
 70
     1
102
RTVSPost2010Prop56
140
1.0
102
RTVSPost2010PropOp56
 70
     1
102
RTVSPost2010Prop57
140
1.0
102
RTVSPost2010PropOp57
 70
     1
102
RTVSPropertyOp0
 70
     1
102
RTVSPropertyOp1
 70
     1
102
RTVSPropertyOp2
 70
     1
102
RTVSPropertyOp3
 70
     1
102
RTVSPropertyOp4
 70
     1
102
RTVSPropertyOp5
 70
     1
102
RTVSPropertyOp6
 70
     1
102
RTVSPropertyOp7
 70
     1
102
RTVSPropertyOp8
 70
     1
102
RTVSPropertyOp9
 70
     1
102
RTVSPropertyOp10
 70
     1
102
RTVSPropertyOp11
 70
     1
102
RTVSPropertyOp12
 70
     1
102
RTVSPropertyOp13
 70
     1
102
RTVSPropertyOp14
 70
     1
102
RTVSPropertyOp15
 70
     1
102
RTVSPropertyOp16
 70
     1
102
RTVSPropertyOp17
 70
     1
102
RTVSPropertyOp18
 70
     1
102
RTVSPropertyOp19
 70
     1
102
RTVSPropertyOp20
 70
     1
102
RTVSPropertyOp21
 70
     1
102
RTVSPropertyOp22
 70
     1
102
RTVSPropertyOp23
 70
     1
102
RTVSPropertyOp24
 70
     1
102
RTVSPropertyOp25
 70
     1
102
RTVSPropertyOp26
 70
     1
102
RTVSPropertyOp27
 70
     1
102
RTVSPropertyOp28
 70
     1
102
RTVSPropertyOp29
 70
     1
102
RTVSPropertyOp30
 70
     1
102
RTVSPropertyOp31
 70
     1
102
RTVSPropertyOp32
 70
     1
102
RTVSPropertyOp33
 70
     1
102
RTVSPropertyOp34
 70
     1
102
RTVSPropertyOp35
 70
     1
102
RTVSPropertyOp36
 70
     1
102
RTVSPropertyOp37
 70
     1
102
RTVSPropertyOp38
 70
     1
102
RTVSPropertyOp39
 70
     1
102
RTVSPropertyOp40
 70
     1
102
RTVSPropertyOp41
 70
     1
102
RTVSPropertyOp42
 70
     1
102
RTVSPropertyOp43
 70
     1
102
RTVSPropertyOp44
 70
     1
102
RTVSPropertyOp45
 70
     1
102
RTVSPropertyOp46
 70
     1
102
RTVSPropertyOp47
 70
     1
102
RTVSPropertyOp48
 70
     1
102
RTVSPropertyOp49
 70
     1
102
RTVSPropertyOp50
 70
     1
102
RTVSPropertyOp51
 70
     0
102
RTVSPropertyOp52
 70
     0
102
RTVSPropertyOp53
 70
     1
102
RTVSPropertyOp54
 70
     1
102
RTVSPropertyOp55
 70
     1
102
RTVSPropertyOp56
 70
     1
102
RTVSPropertyOp57
 70
     1
102
RTVSPropertyOp58
 70
     1
102
RTVSPropertyOp59
 70
     1
102
RTVSPropertyOp60
 70
     1
102
RTVSPropertyOp61
 70
     1
102
RTVSPropertyOp62
 70
     1
  0
XRECORD
  5
548
102
{ACAD_REACTORS
330
547
102
}
330
547
100
AcDbXrecord
280
     1
102
RTVSPost2010Prop28
280
     0
102
RTVSPost2010PropOp28
 70
     1
102
RTVSPost2010Prop29
280
     1
102
RTVSPost2010PropOp29
 70
     1
102
RTVSPost2010Prop30
280
     1
102
RTVSPost2010PropOp30
 70
     1
102
RTVSPost2010Prop31
280
     0
102
RTVSPost2010PropOp31
 70
     1
102
RTVSPost2010Prop32
280
     0
102
RTVSPost2010PropOp32
 70
     1
102
RTVSPost2010Prop33
280
     0
102
RTVSPost2010PropOp33
 70
     1
102
RTVSPost2010Prop34
280
     0
102
RTVSPost2010PropOp34
 70
     1
102
RTVSPost2010Prop35
280
     0
102
RTVSPost2010PropOp35
 70
     1
102
RTVSPost2010Prop36
280
     0
102
RTVSPost2010PropOp36
 70
     1
102
RTVSPost2010Prop37
 90
       50
102
RTVSPost2010PropOp37
 70
     1
102
RTVSPost2010Prop38
140
0.0
102
RTVSPost2010PropOp38
 70
     1
102
RTVSPost2010Prop39
140
1.0
102
RTVSPost2010PropOp39
 70
     1
102
RTVSPost2010Prop40
 90
        0
102
RTVSPost2010PropOp40
 70
     1
102
RTVSPost2010Prop41ColorIndex
 90
       18
102
RTVSPost2010Prop41ColorRGB
 90
        0
102
RTVSPost2010PropOp41
 70
     1
102
RTVSPost2010Prop42
 90
       50
102
RTVSPost2010PropOp42
 70
     1
102
RTVSPost2010Prop43
 90
        3
102
RTVSPost2010PropOp43
 70
     1
102
RTVSPost2010Prop44ColorIndex
 90
        5
102
RTVSPost2010Prop44ColorRGB
 90
      255
102
RTVSPost2010PropOp44
 70
     1
102
RTVSPost2010Prop45
280
     0
102
RTVSPost2010PropOp45
 70
     1
102
RTVSPost2010Prop46
 90
       50
102
RTVSPost2010PropOp46
 70
     1
102
RTVSPost2010Prop47
 90
       50
102
RTVSPost2010PropOp47
 70
     1
102
RTVSPost2010Prop48
 90
       50
102
RTVSPost2010PropOp48
 70
     1
102
RTVSPost2010Prop49
280
     0
102
RTVSPost2010PropOp49
 70
     1
102
RTVSPost2010Prop50
 90
       50
102
RTVSPost2010PropOp50
 70
     1
102
RTVSPost2010Prop51ColorIndex
 90
      256
102
RTVSPost2010Prop51ColorRGB
 90
-16777216
102
RTVSPost2010PropOp51
 70
     0
102
RTVSPost2010Prop52
140
1.0
102
RTVSPost2010PropOp52
 70
     0
102
RTVSPost2010Prop53
 90
        2
102
RTVSPost2010PropOp53
 70
     1
102
RTVSPost2010Prop54
  1
strokes_ogs.tif
102
RTVSPost2010PropOp54
 70
     1
102
RTVSPost2010Prop55
280
     0
102
RTVSPost2010PropOp55
 70
     1
102
RTVSPost2010Prop56
140
1.0
102
RTVSPost2010PropOp56
 70
     1
102
RTVSPost2010Prop57
140
1.0
102
RTVSPost2010PropOp57
 70
     1
102
RTVSPropertyOp0
 70
     1
102
RTVSPropertyOp1
 70
     1
102
RTVSPropertyOp2
 70
     1
102
RTVSPropertyOp3
 70
     1
102
RTVSPropertyOp4
 70
     1
102
RTVSPropertyOp5
 70
     1
102
RTVSPropertyOp6
 70
     1
102
RTVSPropertyOp7
 70
     1
102
RTVSPropertyOp8
 70
     1
102
RTVSPropertyOp9
 70
     1
102
RTVSPropertyOp10
 70
     1
102
RTVSPropertyOp11
 70
     1
102
RTVSPropertyOp12
 70
     1
102
RTVSPropertyOp13
 70
     1
102
RTVSPropertyOp14
 70
     1
102
RTVSPropertyOp15
 70
     1
102
RTVSPropertyOp16
 70
     1
102
RTVSPropertyOp17
 70
     1
102
RTVSPropertyOp18
 70
     1
102
RTVSPropertyOp19
 70
     1
102
RTVSPropertyOp20
 70
     1
102
RTVSPropertyOp21
 70
     1
102
RTVSPropertyOp22
 70
     1
102
RTVSPropertyOp23
 70
     1
102
RTVSPropertyOp24
 70
     1
102
RTVSPropertyOp25
 70
     1
102
RTVSPropertyOp26
 70
     1
102
RTVSPropertyOp27
 70
     1
102
RTVSPropertyOp28
 70
     1
102
RTVSPropertyOp29
 70
     1
102
RTVSPropertyOp30
 70
     1
102
RTVSPropertyOp31
 70
     1
102
RTVSPropertyOp32
 70
     1
102
RTVSPropertyOp33
 70
     1
102
RTVSPropertyOp34
 70
     1
102
RTVSPropertyOp35
 70
     1
102
RTVSPropertyOp36
 70
     1
102
RTVSPropertyOp37
 70
     1
102
RTVSPropertyOp38
 70
     1
102
RTVSPropertyOp39
 70
     1
102
RTVSPropertyOp40
 70
     1
102
RTVSPropertyOp41
 70
     1
102
RTVSPropertyOp42
 70
     1
102
RTVSPropertyOp43
 70
     1
102
RTVSPropertyOp44
 70
     1
102
RTVSPropertyOp45
 70
     1
102
RTVSPropertyOp46
 70
     1
102
RTVSPropertyOp47
 70
     1
102
RTVSPropertyOp48
 70
     1
102
RTVSPropertyOp49
 70
     1
102
RTVSPropertyOp50
 70
     1
102
RTVSPropertyOp51
 70
     0
102
RTVSPropertyOp52
 70
     0
102
RTVSPropertyOp53
 70
     1
102
RTVSPropertyOp54
 70
     1
102
RTVSPropertyOp55
 70
     1
102
RTVSPropertyOp56
 70
     1
102
RTVSPropertyOp57
 70
     1
102
RTVSPropertyOp58
 70
     1
102
RTVSPropertyOp59
 70
     1
102
RTVSPropertyOp60
 70
     1
102
RTVSPropertyOp61
 70
     1
102
RTVSPropertyOp62
 70
     1
  0
XRECORD
  5
546
102
{ACAD_REACTORS
330
545
102
}
330
545
100
AcDbXrecord
280
     1
102
RTVSPost2010Prop28
280
     0
102
RTVSPost2010PropOp28
 70
     1
102
RTVSPost2010Prop29
280
     1
102
RTVSPost2010PropOp29
 70
     1
102
RTVSPost2010Prop30
280
     1
102
RTVSPost2010PropOp30
 70
     1
102
RTVSPost2010Prop31
280
     0
102
RTVSPost2010PropOp31
 70
     1
102
RTVSPost2010Prop32
280
     0
102
RTVSPost2010PropOp32
 70
     1
102
RTVSPost2010Prop33
280
     0
102
RTVSPost2010PropOp33
 70
     1
102
RTVSPost2010Prop34
280
     0
102
RTVSPost2010PropOp34
 70
     1
102
RTVSPost2010Prop35
280
     0
102
RTVSPost2010PropOp35
 70
     1
102
RTVSPost2010Prop36
280
     0
102
RTVSPost2010PropOp36
 70
     1
102
RTVSPost2010Prop37
 90
       50
102
RTVSPost2010PropOp37
 70
     1
102
RTVSPost2010Prop38
140
0.0
102
RTVSPost2010PropOp38
 70
     1
102
RTVSPost2010Prop39
140
1.0
102
RTVSPost2010PropOp39
 70
     1
102
RTVSPost2010Prop40
 90
        0
102
RTVSPost2010PropOp40
 70
     1
102
RTVSPost2010Prop41ColorIndex
 90
       18
102
RTVSPost2010Prop41ColorRGB
 90
        0
102
RTVSPost2010PropOp41
 70
     1
102
RTVSPost2010Prop42
 90
       50
102
RTVSPost2010PropOp42
 70
     1
102
RTVSPost2010Prop43
 90
        3
102
RTVSPost2010PropOp43
 70
     1
102
RTVSPost2010Prop44ColorIndex
 90
        5
102
RTVSPost2010Prop44ColorRGB
 90
      255
102
RTVSPost2010PropOp44
 70
     1
102
RTVSPost2010Prop45
280
     0
102
RTVSPost2010PropOp45
 70
     1
102
RTVSPost2010Prop46
 90
       50
102
RTVSPost2010PropOp46
 70
     1
102
RTVSPost2010Prop47
 90
       50
102
RTVSPost2010PropOp47
 70
     1
102
RTVSPost2010Prop48
 90
       50
102
RTVSPost2010PropOp48
 70
     1
102
RTVSPost2010Prop49
280
     0
102
RTVSPost2010PropOp49
 70
     1
102
RTVSPost2010Prop50
 90
       50
102
RTVSPost2010PropOp50
 70
     1
102
RTVSPost2010Prop51ColorIndex
 90
      256
102
RTVSPost2010Prop51ColorRGB
 90
-16777216
102
RTVSPost2010PropOp51
 70
     0
102
RTVSPost2010Prop52
140
1.0
102
RTVSPost2010PropOp52
 70
     0
102
RTVSPost2010Prop53
 90
        2
102
RTVSPost2010PropOp53
 70
     1
102
RTVSPost2010Prop54
  1
strokes_ogs.tif
102
RTVSPost2010PropOp54
 70
     1
102
RTVSPost2010Prop55
280
     0
102
RTVSPost2010PropOp55
 70
     1
102
RTVSPost2010Prop56
140
1.0
102
RTVSPost2010PropOp56
 70
     1
102
RTVSPost2010Prop57
140
1.0
102
RTVSPost2010PropOp57
 70
     1
102
RTVSPropertyOp0
 70
     1
102
RTVSPropertyOp1
 70
     1
102
RTVSPropertyOp2
 70
     1
102
RTVSPropertyOp3
 70
     1
102
RTVSPropertyOp4
 70
     1
102
RTVSPropertyOp5
 70
     1
102
RTVSPropertyOp6
 70
     1
102
RTVSPropertyOp7
 70
     1
102
RTVSPropertyOp8
 70
     1
102
RTVSPropertyOp9
 70
     1
102
RTVSPropertyOp10
 70
     1
102
RTVSPropertyOp11
 70
     1
102
RTVSPropertyOp12
 70
     1
102
RTVSPropertyOp13
 70
     1
102
RTVSPropertyOp14
 70
     1
102
RTVSPropertyOp15
 70
     1
102
RTVSPropertyOp16
 70
     1
102
RTVSPropertyOp17
 70
     1
102
RTVSPropertyOp18
 70
     1
102
RTVSPropertyOp19
 70
     1
102
RTVSPropertyOp20
 70
     1
102
RTVSPropertyOp21
 70
     1
102
RTVSPropertyOp22
 70
     1
102
RTVSPropertyOp23
 70
     1
102
RTVSPropertyOp24
 70
     1
102
RTVSPropertyOp25
 70
     1
102
RTVSPropertyOp26
 70
     1
102
RTVSPropertyOp27
 70
     1
102
RTVSPropertyOp28
 70
     1
102
RTVSPropertyOp29
 70
     1
102
RTVSPropertyOp30
 70
     1
102
RTVSPropertyOp31
 70
     1
102
RTVSPropertyOp32
 70
     1
102
RTVSPropertyOp33
 70
     1
102
RTVSPropertyOp34
 70
     1
102
RTVSPropertyOp35
 70
     1
102
RTVSPropertyOp36
 70
     1
102
RTVSPropertyOp37
 70
     1
102
RTVSPropertyOp38
 70
     1
102
RTVSPropertyOp39
 70
     1
102
RTVSPropertyOp40
 70
     1
102
RTVSPropertyOp41
 70
     1
102
RTVSPropertyOp42
 70
     1
102
RTVSPropertyOp43
 70
     1
102
RTVSPropertyOp44
 70
     1
102
RTVSPropertyOp45
 70
     1
102
RTVSPropertyOp46
 70
     1
102
RTVSPropertyOp47
 70
     1
102
RTVSPropertyOp48
 70
     1
102
RTVSPropertyOp49
 70
     1
102
RTVSPropertyOp50
 70
     1
102
RTVSPropertyOp51
 70
     0
102
RTVSPropertyOp52
 70
     0
102
RTVSPropertyOp53
 70
     1
102
RTVSPropertyOp54
 70
     1
102
RTVSPropertyOp55
 70
     1
102
RTVSPropertyOp56
 70
     1
102
RTVSPropertyOp57
 70
     1
102
RTVSPropertyOp58
 70
     1
102
RTVSPropertyOp59
 70
     1
102
RTVSPropertyOp60
 70
     1
102
RTVSPropertyOp61
 70
     1
102
RTVSPropertyOp62
 70
     1
  0
XRECORD
  5
540
102
{ACAD_REACTORS
330
53F
102
}
330
53F
100
AcDbXrecord
280
     1
102
RTVSPost2010Prop28
280
     0
102
RTVSPost2010PropOp28
 70
     1
102
RTVSPost2010Prop29
280
     1
102
RTVSPost2010PropOp29
 70
     1
102
RTVSPost2010Prop30
280
     1
102
RTVSPost2010PropOp30
 70
     1
102
RTVSPost2010Prop31
280
     0
102
RTVSPost2010PropOp31
 70
     1
102
RTVSPost2010Prop32
280
     0
102
RTVSPost2010PropOp32
 70
     1
102
RTVSPost2010Prop33
280
     0
102
RTVSPost2010PropOp33
 70
     1
102
RTVSPost2010Prop34
280
     0
102
RTVSPost2010PropOp34
 70
     1
102
RTVSPost2010Prop35
280
     0
102
RTVSPost2010PropOp35
 70
     1
102
RTVSPost2010Prop36
280
     0
102
RTVSPost2010PropOp36
 70
     1
102
RTVSPost2010Prop37
 90
       50
102
RTVSPost2010PropOp37
 70
     1
102
RTVSPost2010Prop38
140
0.0
102
RTVSPost2010PropOp38
 70
     1
102
RTVSPost2010Prop39
140
1.0
102
RTVSPost2010PropOp39
 70
     1
102
RTVSPost2010Prop40
 90
        0
102
RTVSPost2010PropOp40
 70
     1
102
RTVSPost2010Prop41ColorIndex
 90
       18
102
RTVSPost2010Prop41ColorRGB
 90
        0
102
RTVSPost2010PropOp41
 70
     1
102
RTVSPost2010Prop42
 90
       50
102
RTVSPost2010PropOp42
 70
     1
102
RTVSPost2010Prop43
 90
        3
102
RTVSPost2010PropOp43
 70
     1
102
RTVSPost2010Prop44ColorIndex
 90
        5
102
RTVSPost2010Prop44ColorRGB
 90
      255
102
RTVSPost2010PropOp44
 70
     1
102
RTVSPost2010Prop45
280
     0
102
RTVSPost2010PropOp45
 70
     1
102
RTVSPost2010Prop46
 90
       50
102
RTVSPost2010PropOp46
 70
     1
102
RTVSPost2010Prop47
 90
       50
102
RTVSPost2010PropOp47
 70
     1
102
RTVSPost2010Prop48
 90
       50
102
RTVSPost2010PropOp48
 70
     1
102
RTVSPost2010Prop49
280
     0
102
RTVSPost2010PropOp49
 70
     1
102
RTVSPost2010Prop50
 90
       50
102
RTVSPost2010PropOp50
 70
     1
102
RTVSPost2010Prop51ColorIndex
 90
      256
102
RTVSPost2010Prop51ColorRGB
 90
-16777216
102
RTVSPost2010PropOp51
 70
     0
102
RTVSPost2010Prop52
140
1.0
102
RTVSPost2010PropOp52
 70
     0
102
RTVSPost2010Prop53
 90
        2
102
RTVSPost2010PropOp53
 70
     1
102
RTVSPost2010Prop54
  1
strokes_ogs.tif
102
RTVSPost2010PropOp54
 70
     1
102
RTVSPost2010Prop55
280
     0
102
RTVSPost2010PropOp55
 70
     1
102
RTVSPost2010Prop56
140
1.0
102
RTVSPost2010PropOp56
 70
     1
102
RTVSPost2010Prop57
140
1.0
102
RTVSPost2010PropOp57
 70
     1
102
RTVSPropertyOp0
 70
     1
102
RTVSPropertyOp1
 70
     1
102
RTVSPropertyOp2
 70
     1
102
RTVSPropertyOp3
 70
     1
102
RTVSPropertyOp4
 70
     1
102
RTVSPropertyOp5
 70
     1
102
RTVSPropertyOp6
 70
     1
102
RTVSPropertyOp7
 70
     1
102
RTVSPropertyOp8
 70
     1
102
RTVSPropertyOp9
 70
     1
102
RTVSPropertyOp10
 70
     1
102
RTVSPropertyOp11
 70
     1
102
RTVSPropertyOp12
 70
     1
102
RTVSPropertyOp13
 70
     1
102
RTVSPropertyOp14
 70
     1
102
RTVSPropertyOp15
 70
     1
102
RTVSPropertyOp16
 70
     1
102
RTVSPropertyOp17
 70
     1
102
RTVSPropertyOp18
 70
     1
102
RTVSPropertyOp19
 70
     1
102
RTVSPropertyOp20
 70
     1
102
RTVSPropertyOp21
 70
     1
102
RTVSPropertyOp22
 70
     1
102
RTVSPropertyOp23
 70
     1
102
RTVSPropertyOp24
 70
     1
102
RTVSPropertyOp25
 70
     1
102
RTVSPropertyOp26
 70
     1
102
RTVSPropertyOp27
 70
     1
102
RTVSPropertyOp28
 70
     1
102
RTVSPropertyOp29
 70
     1
102
RTVSPropertyOp30
 70
     1
102
RTVSPropertyOp31
 70
     1
102
RTVSPropertyOp32
 70
     1
102
RTVSPropertyOp33
 70
     1
102
RTVSPropertyOp34
 70
     1
102
RTVSPropertyOp35
 70
     1
102
RTVSPropertyOp36
 70
     1
102
RTVSPropertyOp37
 70
     1
102
RTVSPropertyOp38
 70
     1
102
RTVSPropertyOp39
 70
     1
102
RTVSPropertyOp40
 70
     1
102
RTVSPropertyOp41
 70
     1
102
RTVSPropertyOp42
 70
     1
102
RTVSPropertyOp43
 70
     1
102
RTVSPropertyOp44
 70
     1
102
RTVSPropertyOp45
 70
     1
102
RTVSPropertyOp46
 70
     1
102
RTVSPropertyOp47
 70
     1
102
RTVSPropertyOp48
 70
     1
102
RTVSPropertyOp49
 70
     1
102
RTVSPropertyOp50
 70
     1
102
RTVSPropertyOp51
 70
     0
102
RTVSPropertyOp52
 70
     0
102
RTVSPropertyOp53
 70
     1
102
RTVSPropertyOp54
 70
     1
102
RTVSPropertyOp55
 70
     1
102
RTVSPropertyOp56
 70
     1
102
RTVSPropertyOp57
 70
     1
102
RTVSPropertyOp58
 70
     1
102
RTVSPropertyOp59
 70
     1
102
RTVSPropertyOp60
 70
     1
102
RTVSPropertyOp61
 70
     1
102
RTVSPropertyOp62
 70
     1
  0
XRECORD
  5
542
102
{ACAD_REACTORS
330
541
102
}
330
541
100
AcDbXrecord
280
     1
102
RTVSPost2010Prop28
280
     0
102
RTVSPost2010PropOp28
 70
     1
102
RTVSPost2010Prop29
280
     1
102
RTVSPost2010PropOp29
 70
     1
102
RTVSPost2010Prop30
280
     1
102
RTVSPost2010PropOp30
 70
     1
102
RTVSPost2010Prop31
280
     0
102
RTVSPost2010PropOp31
 70
     1
102
RTVSPost2010Prop32
280
     0
102
RTVSPost2010PropOp32
 70
     1
102
RTVSPost2010Prop33
280
     0
102
RTVSPost2010PropOp33
 70
     1
102
RTVSPost2010Prop34
280
     0
102
RTVSPost2010PropOp34
 70
     1
102
RTVSPost2010Prop35
280
     0
102
RTVSPost2010PropOp35
 70
     1
102
RTVSPost2010Prop36
280
     0
102
RTVSPost2010PropOp36
 70
     1
102
RTVSPost2010Prop37
 90
       50
102
RTVSPost2010PropOp37
 70
     1
102
RTVSPost2010Prop38
140
0.0
102
RTVSPost2010PropOp38
 70
     1
102
RTVSPost2010Prop39
140
1.0
102
RTVSPost2010PropOp39
 70
     1
102
RTVSPost2010Prop40
 90
        0
102
RTVSPost2010PropOp40
 70
     1
102
RTVSPost2010Prop41ColorIndex
 90
       18
102
RTVSPost2010Prop41ColorRGB
 90
        0
102
RTVSPost2010PropOp41
 70
     1
102
RTVSPost2010Prop42
 90
       50
102
RTVSPost2010PropOp42
 70
     1
102
RTVSPost2010Prop43
 90
        3
102
RTVSPost2010PropOp43
 70
     1
102
RTVSPost2010Prop44ColorIndex
 90
        5
102
RTVSPost2010Prop44ColorRGB
 90
      255
102
RTVSPost2010PropOp44
 70
     1
102
RTVSPost2010Prop45
280
     0
102
RTVSPost2010PropOp45
 70
     1
102
RTVSPost2010Prop46
 90
       50
102
RTVSPost2010PropOp46
 70
     1
102
RTVSPost2010Prop47
 90
       50
102
RTVSPost2010PropOp47
 70
     1
102
RTVSPost2010Prop48
 90
       50
102
RTVSPost2010PropOp48
 70
     1
102
RTVSPost2010Prop49
280
     0
102
RTVSPost2010PropOp49
 70
     1
102
RTVSPost2010Prop50
 90
       50
102
RTVSPost2010PropOp50
 70
     1
102
RTVSPost2010Prop51ColorIndex
 90
      256
102
RTVSPost2010Prop51ColorRGB
 90
-16777216
102
RTVSPost2010PropOp51
 70
     0
102
RTVSPost2010Prop52
140
1.0
102
RTVSPost2010PropOp52
 70
     0
102
RTVSPost2010Prop53
 90
        2
102
RTVSPost2010PropOp53
 70
     1
102
RTVSPost2010Prop54
  1
strokes_ogs.tif
102
RTVSPost2010PropOp54
 70
     1
102
RTVSPost2010Prop55
280
     0
102
RTVSPost2010PropOp55
 70
     1
102
RTVSPost2010Prop56
140
1.0
102
RTVSPost2010PropOp56
 70
     1
102
RTVSPost2010Prop57
140
1.0
102
RTVSPost2010PropOp57
 70
     1
102
RTVSPropertyOp0
 70
     1
102
RTVSPropertyOp1
 70
     1
102
RTVSPropertyOp2
 70
     1
102
RTVSPropertyOp3
 70
     1
102
RTVSPropertyOp4
 70
     1
102
RTVSPropertyOp5
 70
     1
102
RTVSPropertyOp6
 70
     1
102
RTVSPropertyOp7
 70
     1
102
RTVSPropertyOp8
 70
     1
102
RTVSPropertyOp9
 70
     1
102
RTVSPropertyOp10
 70
     1
102
RTVSPropertyOp11
 70
     1
102
RTVSPropertyOp12
 70
     1
102
RTVSPropertyOp13
 70
     1
102
RTVSPropertyOp14
 70
     1
102
RTVSPropertyOp15
 70
     1
102
RTVSPropertyOp16
 70
     1
102
RTVSPropertyOp17
 70
     1
102
RTVSPropertyOp18
 70
     1
102
RTVSPropertyOp19
 70
     1
102
RTVSPropertyOp20
 70
     1
102
RTVSPropertyOp21
 70
     1
102
RTVSPropertyOp22
 70
     1
102
RTVSPropertyOp23
 70
     1
102
RTVSPropertyOp24
 70
     1
102
RTVSPropertyOp25
 70
     1
102
RTVSPropertyOp26
 70
     1
102
RTVSPropertyOp27
 70
     1
102
RTVSPropertyOp28
 70
     1
102
RTVSPropertyOp29
 70
     1
102
RTVSPropertyOp30
 70
     1
102
RTVSPropertyOp31
 70
     1
102
RTVSPropertyOp32
 70
     1
102
RTVSPropertyOp33
 70
     1
102
RTVSPropertyOp34
 70
     1
102
RTVSPropertyOp35
 70
     1
102
RTVSPropertyOp36
 70
     1
102
RTVSPropertyOp37
 70
     1
102
RTVSPropertyOp38
 70
     1
102
RTVSPropertyOp39
 70
     1
102
RTVSPropertyOp40
 70
     1
102
RTVSPropertyOp41
 70
     1
102
RTVSPropertyOp42
 70
     1
102
RTVSPropertyOp43
 70
     1
102
RTVSPropertyOp44
 70
     1
102
RTVSPropertyOp45
 70
     1
102
RTVSPropertyOp46
 70
     1
102
RTVSPropertyOp47
 70
     1
102
RTVSPropertyOp48
 70
     1
102
RTVSPropertyOp49
 70
     1
102
RTVSPropertyOp50
 70
     1
102
RTVSPropertyOp51
 70
     0
102
RTVSPropertyOp52
 70
     0
102
RTVSPropertyOp53
 70
     1
102
RTVSPropertyOp54
 70
     1
102
RTVSPropertyOp55
 70
     1
102
RTVSPropertyOp56
 70
     1
102
RTVSPropertyOp57
 70
     1
102
RTVSPropertyOp58
 70
     1
102
RTVSPropertyOp59
 70
     1
102
RTVSPropertyOp60
 70
     1
102
RTVSPropertyOp61
 70
     1
102
RTVSPropertyOp62
 70
     1
  0
XRECORD
  5
538
102
{ACAD_REACTORS
330
537
102
}
330
537
100
AcDbXrecord
280
     1
102
RTVSPost2010Prop28
280
     0
102
RTVSPost2010PropOp28
 70
     1
102
RTVSPost2010Prop29
280
     1
102
RTVSPost2010PropOp29
 70
     1
102
RTVSPost2010Prop30
280
     1
102
RTVSPost2010PropOp30
 70
     1
102
RTVSPost2010Prop31
280
     0
102
RTVSPost2010PropOp31
 70
     1
102
RTVSPost2010Prop32
280
     0
102
RTVSPost2010PropOp32
 70
     1
102
RTVSPost2010Prop33
280
     0
102
RTVSPost2010PropOp33
 70
     1
102
RTVSPost2010Prop34
280
     0
102
RTVSPost2010PropOp34
 70
     1
102
RTVSPost2010Prop35
280
     0
102
RTVSPost2010PropOp35
 70
     1
102
RTVSPost2010Prop36
280
     0
102
RTVSPost2010PropOp36
 70
     1
102
RTVSPost2010Prop37
 90
       50
102
RTVSPost2010PropOp37
 70
     1
102
RTVSPost2010Prop38
140
0.0
102
RTVSPost2010PropOp38
 70
     1
102
RTVSPost2010Prop39
140
1.0
102
RTVSPost2010PropOp39
 70
     1
102
RTVSPost2010Prop40
 90
        0
102
RTVSPost2010PropOp40
 70
     1
102
RTVSPost2010Prop41ColorIndex
 90
       18
102
RTVSPost2010Prop41ColorRGB
 90
        0
102
RTVSPost2010PropOp41
 70
     1
102
RTVSPost2010Prop42
 90
       50
102
RTVSPost2010PropOp42
 70
     1
102
RTVSPost2010Prop43
 90
        3
102
RTVSPost2010PropOp43
 70
     1
102
RTVSPost2010Prop44ColorIndex
 90
        5
102
RTVSPost2010Prop44ColorRGB
 90
      255
102
RTVSPost2010PropOp44
 70
     1
102
RTVSPost2010Prop45
280
     0
102
RTVSPost2010PropOp45
 70
     1
102
RTVSPost2010Prop46
 90
       50
102
RTVSPost2010PropOp46
 70
     1
102
RTVSPost2010Prop47
 90
       50
102
RTVSPost2010PropOp47
 70
     1
102
RTVSPost2010Prop48
 90
       50
102
RTVSPost2010PropOp48
 70
     1
102
RTVSPost2010Prop49
280
     0
102
RTVSPost2010PropOp49
 70
     1
102
RTVSPost2010Prop50
 90
       50
102
RTVSPost2010PropOp50
 70
     1
102
RTVSPost2010Prop51ColorIndex
 90
      256
102
RTVSPost2010Prop51ColorRGB
 90
-16777216
102
RTVSPost2010PropOp51
 70
     0
102
RTVSPost2010Prop52
140
1.0
102
RTVSPost2010PropOp52
 70
     0
102
RTVSPost2010Prop53
 90
        2
102
RTVSPost2010PropOp53
 70
     1
102
RTVSPost2010Prop54
  1
strokes_ogs.tif
102
RTVSPost2010PropOp54
 70
     1
102
RTVSPost2010Prop55
280
     0
102
RTVSPost2010PropOp55
 70
     1
102
RTVSPost2010Prop56
140
1.0
102
RTVSPost2010PropOp56
 70
     1
102
RTVSPost2010Prop57
140
1.0
102
RTVSPost2010PropOp57
 70
     1
102
RTVSPropertyOp0
 70
     1
102
RTVSPropertyOp1
 70
     1
102
RTVSPropertyOp2
 70
     1
102
RTVSPropertyOp3
 70
     1
102
RTVSPropertyOp4
 70
     1
102
RTVSPropertyOp5
 70
     1
102
RTVSPropertyOp6
 70
     1
102
RTVSPropertyOp7
 70
     1
102
RTVSPropertyOp8
 70
     1
102
RTVSPropertyOp9
 70
     1
102
RTVSPropertyOp10
 70
     1
102
RTVSPropertyOp11
 70
     1
102
RTVSPropertyOp12
 70
     1
102
RTVSPropertyOp13
 70
     1
102
RTVSPropertyOp14
 70
     1
102
RTVSPropertyOp15
 70
     1
102
RTVSPropertyOp16
 70
     1
102
RTVSPropertyOp17
 70
     1
102
RTVSPropertyOp18
 70
     1
102
RTVSPropertyOp19
 70
     1
102
RTVSPropertyOp20
 70
     1
102
RTVSPropertyOp21
 70
     1
102
RTVSPropertyOp22
 70
     1
102
RTVSPropertyOp23
 70
     1
102
RTVSPropertyOp24
 70
     1
102
RTVSPropertyOp25
 70
     1
102
RTVSPropertyOp26
 70
     1
102
RTVSPropertyOp27
 70
     1
102
RTVSPropertyOp28
 70
     1
102
RTVSPropertyOp29
 70
     1
102
RTVSPropertyOp30
 70
     1
102
RTVSPropertyOp31
 70
     1
102
RTVSPropertyOp32
 70
     1
102
RTVSPropertyOp33
 70
     1
102
RTVSPropertyOp34
 70
     1
102
RTVSPropertyOp35
 70
     1
102
RTVSPropertyOp36
 70
     1
102
RTVSPropertyOp37
 70
     1
102
RTVSPropertyOp38
 70
     1
102
RTVSPropertyOp39
 70
     1
102
RTVSPropertyOp40
 70
     1
102
RTVSPropertyOp41
 70
     1
102
RTVSPropertyOp42
 70
     1
102
RTVSPropertyOp43
 70
     1
102
RTVSPropertyOp44
 70
     1
102
RTVSPropertyOp45
 70
     1
102
RTVSPropertyOp46
 70
     1
102
RTVSPropertyOp47
 70
     1
102
RTVSPropertyOp48
 70
     1
102
RTVSPropertyOp49
 70
     1
102
RTVSPropertyOp50
 70
     1
102
RTVSPropertyOp51
 70
     0
102
RTVSPropertyOp52
 70
     0
102
RTVSPropertyOp53
 70
     1
102
RTVSPropertyOp54
 70
     1
102
RTVSPropertyOp55
 70
     1
102
RTVSPropertyOp56
 70
     1
102
RTVSPropertyOp57
 70
     1
102
RTVSPropertyOp58
 70
     1
102
RTVSPropertyOp59
 70
     1
102
RTVSPropertyOp60
 70
     1
102
RTVSPropertyOp61
 70
     1
102
RTVSPropertyOp62
 70
     1
  0
XRECORD
  5
52C
102
{ACAD_REACTORS
330
52B
102
}
330
52B
100
AcDbXrecord
280
     1
102
RTVSPost2010Prop28
280
     0
102
RTVSPost2010PropOp28
 70
     1
102
RTVSPost2010Prop29
280
     1
102
RTVSPost2010PropOp29
 70
     1
102
RTVSPost2010Prop30
280
     1
102
RTVSPost2010PropOp30
 70
     1
102
RTVSPost2010Prop31
280
     0
102
RTVSPost2010PropOp31
 70
     1
102
RTVSPost2010Prop32
280
     0
102
RTVSPost2010PropOp32
 70
     1
102
RTVSPost2010Prop33
280
     0
102
RTVSPost2010PropOp33
 70
     1
102
RTVSPost2010Prop34
280
     0
102
RTVSPost2010PropOp34
 70
     1
102
RTVSPost2010Prop35
280
     0
102
RTVSPost2010PropOp35
 70
     1
102
RTVSPost2010Prop36
280
     0
102
RTVSPost2010PropOp36
 70
     1
102
RTVSPost2010Prop37
 90
       50
102
RTVSPost2010PropOp37
 70
     1
102
RTVSPost2010Prop38
140
0.0
102
RTVSPost2010PropOp38
 70
     1
102
RTVSPost2010Prop39
140
1.0
102
RTVSPost2010PropOp39
 70
     1
102
RTVSPost2010Prop40
 90
        0
102
RTVSPost2010PropOp40
 70
     1
102
RTVSPost2010Prop41ColorIndex
 90
       18
102
RTVSPost2010Prop41ColorRGB
 90
        0
102
RTVSPost2010PropOp41
 70
     1
102
RTVSPost2010Prop42
 90
       50
102
RTVSPost2010PropOp42
 70
     1
102
RTVSPost2010Prop43
 90
        3
102
RTVSPost2010PropOp43
 70
     1
102
RTVSPost2010Prop44ColorIndex
 90
        5
102
RTVSPost2010Prop44ColorRGB
 90
      255
102
RTVSPost2010PropOp44
 70
     1
102
RTVSPost2010Prop45
280
     0
102
RTVSPost2010PropOp45
 70
     1
102
RTVSPost2010Prop46
 90
       50
102
RTVSPost2010PropOp46
 70
     1
102
RTVSPost2010Prop47
 90
       50
102
RTVSPost2010PropOp47
 70
     1
102
RTVSPost2010Prop48
 90
       50
102
RTVSPost2010PropOp48
 70
     1
102
RTVSPost2010Prop49
280
     0
102
RTVSPost2010PropOp49
 70
     1
102
RTVSPost2010Prop50
 90
       50
102
RTVSPost2010PropOp50
 70
     1
102
RTVSPost2010Prop51ColorIndex
 90
      256
102
RTVSPost2010Prop51ColorRGB
 90
-16777216
102
RTVSPost2010PropOp51
 70
     0
102
RTVSPost2010Prop52
140
1.0
102
RTVSPost2010PropOp52
 70
     0
102
RTVSPost2010Prop53
 90
        2
102
RTVSPost2010PropOp53
 70
     1
102
RTVSPost2010Prop54
  1
strokes_ogs.tif
102
RTVSPost2010PropOp54
 70
     1
102
RTVSPost2010Prop55
280
     0
102
RTVSPost2010PropOp55
 70
     1
102
RTVSPost2010Prop56
140
1.0
102
RTVSPost2010PropOp56
 70
     1
102
RTVSPost2010Prop57
140
1.0
102
RTVSPost2010PropOp57
 70
     1
102
RTVSPropertyOp0
 70
     1
102
RTVSPropertyOp1
 70
     1
102
RTVSPropertyOp2
 70
     1
102
RTVSPropertyOp3
 70
     1
102
RTVSPropertyOp4
 70
     1
102
RTVSPropertyOp5
 70
     1
102
RTVSPropertyOp6
 70
     1
102
RTVSPropertyOp7
 70
     1
102
RTVSPropertyOp8
 70
     1
102
RTVSPropertyOp9
 70
     1
102
RTVSPropertyOp10
 70
     1
102
RTVSPropertyOp11
 70
     1
102
RTVSPropertyOp12
 70
     1
102
RTVSPropertyOp13
 70
     1
102
RTVSPropertyOp14
 70
     1
102
RTVSPropertyOp15
 70
     1
102
RTVSPropertyOp16
 70
     1
102
RTVSPropertyOp17
 70
     1
102
RTVSPropertyOp18
 70
     1
102
RTVSPropertyOp19
 70
     1
102
RTVSPropertyOp20
 70
     1
102
RTVSPropertyOp21
 70
     1
102
RTVSPropertyOp22
 70
     1
102
RTVSPropertyOp23
 70
     1
102
RTVSPropertyOp24
 70
     1
102
RTVSPropertyOp25
 70
     1
102
RTVSPropertyOp26
 70
     1
102
RTVSPropertyOp27
 70
     1
102
RTVSPropertyOp28
 70
     1
102
RTVSPropertyOp29
 70
     1
102
RTVSPropertyOp30
 70
     1
102
RTVSPropertyOp31
 70
     1
102
RTVSPropertyOp32
 70
     1
102
RTVSPropertyOp33
 70
     1
102
RTVSPropertyOp34
 70
     1
102
RTVSPropertyOp35
 70
     1
102
RTVSPropertyOp36
 70
     1
102
RTVSPropertyOp37
 70
     1
102
RTVSPropertyOp38
 70
     1
102
RTVSPropertyOp39
 70
     1
102
RTVSPropertyOp40
 70
     1
102
RTVSPropertyOp41
 70
     1
102
RTVSPropertyOp42
 70
     1
102
RTVSPropertyOp43
 70
     1
102
RTVSPropertyOp44
 70
     1
102
RTVSPropertyOp45
 70
     1
102
RTVSPropertyOp46
 70
     1
102
RTVSPropertyOp47
 70
     1
102
RTVSPropertyOp48
 70
     1
102
RTVSPropertyOp49
 70
     1
102
RTVSPropertyOp50
 70
     1
102
RTVSPropertyOp51
 70
     0
102
RTVSPropertyOp52
 70
     0
102
RTVSPropertyOp53
 70
     1
102
RTVSPropertyOp54
 70
     1
102
RTVSPropertyOp55
 70
     1
102
RTVSPropertyOp56
 70
     1
102
RTVSPropertyOp57
 70
     1
102
RTVSPropertyOp58
 70
     1
102
RTVSPropertyOp59
 70
     1
102
RTVSPropertyOp60
 70
     1
102
RTVSPropertyOp61
 70
     1
102
RTVSPropertyOp62
 70
     1
  0
XRECORD
  5
544
102
{ACAD_REACTORS
330
543
102
}
330
543
100
AcDbXrecord
280
     1
102
RTVSPost2010Prop28
280
     0
102
RTVSPost2010PropOp28
 70
     1
102
RTVSPost2010Prop29
280
     1
102
RTVSPost2010PropOp29
 70
     1
102
RTVSPost2010Prop30
280
     1
102
RTVSPost2010PropOp30
 70
     1
102
RTVSPost2010Prop31
280
     0
102
RTVSPost2010PropOp31
 70
     1
102
RTVSPost2010Prop32
280
     0
102
RTVSPost2010PropOp32
 70
     1
102
RTVSPost2010Prop33
280
     0
102
RTVSPost2010PropOp33
 70
     1
102
RTVSPost2010Prop34
280
     0
102
RTVSPost2010PropOp34
 70
     1
102
RTVSPost2010Prop35
280
     0
102
RTVSPost2010PropOp35
 70
     1
102
RTVSPost2010Prop36
280
     0
102
RTVSPost2010PropOp36
 70
     1
102
RTVSPost2010Prop37
 90
       50
102
RTVSPost2010PropOp37
 70
     1
102
RTVSPost2010Prop38
140
0.0
102
RTVSPost2010PropOp38
 70
     1
102
RTVSPost2010Prop39
140
1.0
102
RTVSPost2010PropOp39
 70
     1
102
RTVSPost2010Prop40
 90
        0
102
RTVSPost2010PropOp40
 70
     1
102
RTVSPost2010Prop41ColorIndex
 90
       18
102
RTVSPost2010Prop41ColorRGB
 90
        0
102
RTVSPost2010PropOp41
 70
     1
102
RTVSPost2010Prop42
 90
       50
102
RTVSPost2010PropOp42
 70
     1
102
RTVSPost2010Prop43
 90
        3
102
RTVSPost2010PropOp43
 70
     1
102
RTVSPost2010Prop44ColorIndex
 90
        5
102
RTVSPost2010Prop44ColorRGB
 90
      255
102
RTVSPost2010PropOp44
 70
     1
102
RTVSPost2010Prop45
280
     0
102
RTVSPost2010PropOp45
 70
     1
102
RTVSPost2010Prop46
 90
       50
102
RTVSPost2010PropOp46
 70
     1
102
RTVSPost2010Prop47
 90
       50
102
RTVSPost2010PropOp47
 70
     1
102
RTVSPost2010Prop48
 90
       50
102
RTVSPost2010PropOp48
 70
     1
102
RTVSPost2010Prop49
280
     0
102
RTVSPost2010PropOp49
 70
     1
102
RTVSPost2010Prop50
 90
       50
102
RTVSPost2010PropOp50
 70
     1
102
RTVSPost2010Prop51ColorIndex
 90
      256
102
RTVSPost2010Prop51ColorRGB
 90
-16777216
102
RTVSPost2010PropOp51
 70
     0
102
RTVSPost2010Prop52
140
1.0
102
RTVSPost2010PropOp52
 70
     0
102
RTVSPost2010Prop53
 90
        2
102
RTVSPost2010PropOp53
 70
     1
102
RTVSPost2010Prop54
  1
strokes_ogs.tif
102
RTVSPost2010PropOp54
 70
     1
102
RTVSPost2010Prop55
280
     0
102
RTVSPost2010PropOp55
 70
     1
102
RTVSPost2010Prop56
140
1.0
102
RTVSPost2010PropOp56
 70
     1
102
RTVSPost2010Prop57
140
1.0
102
RTVSPost2010PropOp57
 70
     1
102
RTVSPropertyOp0
 70
     1
102
RTVSPropertyOp1
 70
     1
102
RTVSPropertyOp2
 70
     1
102
RTVSPropertyOp3
 70
     1
102
RTVSPropertyOp4
 70
     1
102
RTVSPropertyOp5
 70
     1
102
RTVSPropertyOp6
 70
     1
102
RTVSPropertyOp7
 70
     1
102
RTVSPropertyOp8
 70
     1
102
RTVSPropertyOp9
 70
     1
102
RTVSPropertyOp10
 70
     1
102
RTVSPropertyOp11
 70
     1
102
RTVSPropertyOp12
 70
     1
102
RTVSPropertyOp13
 70
     1
102
RTVSPropertyOp14
 70
     1
102
RTVSPropertyOp15
 70
     1
102
RTVSPropertyOp16
 70
     1
102
RTVSPropertyOp17
 70
     1
102
RTVSPropertyOp18
 70
     1
102
RTVSPropertyOp19
 70
     1
102
RTVSPropertyOp20
 70
     1
102
RTVSPropertyOp21
 70
     1
102
RTVSPropertyOp22
 70
     1
102
RTVSPropertyOp23
 70
     1
102
RTVSPropertyOp24
 70
     1
102
RTVSPropertyOp25
 70
     1
102
RTVSPropertyOp26
 70
     1
102
RTVSPropertyOp27
 70
     1
102
RTVSPropertyOp28
 70
     1
102
RTVSPropertyOp29
 70
     1
102
RTVSPropertyOp30
 70
     1
102
RTVSPropertyOp31
 70
     1
102
RTVSPropertyOp32
 70
     1
102
RTVSPropertyOp33
 70
     1
102
RTVSPropertyOp34
 70
     1
102
RTVSPropertyOp35
 70
     1
102
RTVSPropertyOp36
 70
     1
102
RTVSPropertyOp37
 70
     1
102
RTVSPropertyOp38
 70
     1
102
RTVSPropertyOp39
 70
     1
102
RTVSPropertyOp40
 70
     1
102
RTVSPropertyOp41
 70
     1
102
RTVSPropertyOp42
 70
     1
102
RTVSPropertyOp43
 70
     1
102
RTVSPropertyOp44
 70
     1
102
RTVSPropertyOp45
 70
     1
102
RTVSPropertyOp46
 70
     1
102
RTVSPropertyOp47
 70
     1
102
RTVSPropertyOp48
 70
     1
102
RTVSPropertyOp49
 70
     1
102
RTVSPropertyOp50
 70
     1
102
RTVSPropertyOp51
 70
     0
102
RTVSPropertyOp52
 70
     0
102
RTVSPropertyOp53
 70
     1
102
RTVSPropertyOp54
 70
     1
102
RTVSPropertyOp55
 70
     1
102
RTVSPropertyOp56
 70
     1
102
RTVSPropertyOp57
 70
     1
102
RTVSPropertyOp58
 70
     1
102
RTVSPropertyOp59
 70
     1
102
RTVSPropertyOp60
 70
     1
102
RTVSPropertyOp61
 70
     1
102
RTVSPropertyOp62
 70
     1
  0
ENDSEC
  0
EOF
