  0
SECTION
  2
HEADER
  9
$ACADVER
  1
AC1032
  9
$ACADMAINTVER
 90
        4
  9
$DWGCODEPAGE
  3
ANSI_932
  9
$REQUIREDVERSIONS
160
                 0
  9
$INSBASE
 10
0.0
 20
0.0
 30
0.0
  9
$EXTMIN
 10
-1.270099426619709
 20
-2.000000094994903
 30
-0.0000000000000028
  9
$EXTMAX
 10
3027.317523956299
 20
5054.000377655029
 30
2859.528541564941
  9
$LIMMIN
 10
-1.270099426619709
 20
-2.000000094994903
  9
$LIMMAX
 10
3027.317523956299
 20
5054.000377655029
  9
$ORTHOMODE
 70
     0
  9
$REGENMODE
 70
     1
  9
$FILLMODE
 70
     1
  9
$QTEXTMODE
 70
     0
  9
$MIRRTEXT
 70
     1
  9
$LTSCALE
 40
1.0
  9
$ATTMODE
 70
     1
  9
$TEXTSIZE
 40
0.2
  9
$TRACEWID
 40
0.05
  9
$TEXTSTYLE
  7
Standard
  9
$CLAYER
  8
0
  9
$CELTYPE
  6
ByLayer
  9
$CECOLOR
 62
   256
  9
$CELTSCALE
 40
1.0
  9
$DISPSILH
 70
     0
  9
$DIMSCALE
 40
1.0
  9
$DIMASZ
 40
0.18
  9
$DIMEXO
 40
0.0625
  9
$DIMDLI
 40
0.38
  9
$DIMRND
 40
0.0
  9
$DIMDLE
 40
0.0
  9
$DIMEXE
 40
0.18
  9
$DIMTP
 40
0.0
  9
$DIMTM
 40
0.0
  9
$DIMTXT
 40
0.18
  9
$DIMCEN
 40
0.09
  9
$DIMTSZ
 40
0.0
  9
$DIMTOL
 70
     0
  9
$DIMLIM
 70
     0
  9
$DIMTIH
 70
     1
  9
$DIMTOH
 70
     1
  9
$DIMSE1
 70
     0
  9
$DIMSE2
 70
     0
  9
$DIMTAD
 70
     0
  9
$DIMZIN
 70
     0
  9
$DIMBLK
  1

  9
$DIMASO
 70
     1
  9
$DIMSHO
 70
     1
  9
$DIMPOST
  1

  9
$DIMAPOST
  1

  9
$DIMALT
 70
     0
  9
$DIMALTD
 70
     2
  9
$DIMALTF
 40
25.4
  9
$DIMLFAC
 40
1.0
  9
$DIMTOFL
 70
     0
  9
$DIMTVP
 40
0.0
  9
$DIMTIX
 70
     0
  9
$DIMSOXD
 70
     0
  9
$DIMSAH
 70
     0
  9
$DIMBLK1
  1

  9
$DIMBLK2
  1

  9
$DIMSTYLE
  2
Standard
  9
$DIMCLRD
 70
     0
  9
$DIMCLRE
 70
     0
  9
$DIMCLRT
 70
     0
  9
$DIMTFAC
 40
1.0
  9
$DIMGAP
 40
0.09
  9
$DIMJUST
 70
     0
  9
$DIMSD1
 70
     0
  9
$DIMSD2
 70
     0
  9
$DIMTOLJ
 70
     1
  9
$DIMTZIN
 70
     0
  9
$DIMALTZ
 70
     0
  9
$DIMALTTZ
 70
     0
  9
$DIMUPT
 70
     0
  9
$DIMDEC
 70
     4
  9
$DIMTDEC
 70
     4
  9
$DIMALTU
 70
     2
  9
$DIMALTTD
 70
     2
  9
$DIMTXSTY
  7
Standard
  9
$DIMAUNIT
 70
     0
  9
$DIMADEC
 70
     0
  9
$DIMALTRND
 40
0.0
  9
$DIMAZIN
 70
     0
  9
$DIMDSEP
 70
    46
  9
$DIMATFIT
 70
     3
  9
$DIMFRAC
 70
     0
  9
$DIMLDRBLK
  1

  9
$DIMLUNIT
 70
     2
  9
$DIMLWD
 70
    -2
  9
$DIMLWE
 70
    -2
  9
$DIMTMOVE
 70
     0
  9
$DIMFXL
 40
1.0
  9
$DIMFXLON
 70
     0
  9
$DIMJOGANG
 40
0.7853981633974483
  9
$DIMTFILL
 70
     0
  9
$DIMTFILLCLR
 70
     0
  9
$DIMARCSYM
 70
     0
  9
$DIMLTYPE
  6

  9
$DIMLTEX1
  6

  9
$DIMLTEX2
  6

  9
$DIMTXTDIRECTION
 70
     0
  9
$LUNITS
 70
     2
  9
$LUPREC
 70
     4
  9
$SKETCHINC
 40
0.1
  9
$FILLETRAD
 40
0.5
  9
$AUNITS
 70
     0
  9
$AUPREC
 70
     0
  9
$MENU
  1
.
  9
$ELEVATION
 40
0.0
  9
$PELEVATION
 40
0.0
  9
$THICKNESS
 40
0.0
  9
$LIMCHECK
 70
     0
  9
$CHAMFERA
 40
0.0
  9
$CHAMFERB
 40
0.0
  9
$CHAMFERC
 40
0.0
  9
$CHAMFERD
 40
0.0
  9
$SKPOLY
 70
     0
  9
$TDCREATE
 40
2459744.763816759
  9
$TDUCREATE
 40
2459744.388816759
  9
$TDUPDATE
 40
2459744.763816933
  9
$TDUUPDATE
 40
2459744.388816933
  9
$TDINDWG
 40
0.0000000116
  9
$TDUSRTIMER
 40
0.0000000116
  9
$USRTIMER
 70
     1
  9
$ANGBASE
 50
0.0
  9
$ANGDIR
 70
     0
  9
$PDMODE
 70
     0
  9
$PDSIZE
 40
0.0
  9
$PLINEWID
 40
0.0
  9
$SPLFRAME
 70
     0
  9
$SPLINETYPE
 70
     6
  9
$SPLINESEGS
 70
     8
  9
$HANDSEED
  5
5B2
  9
$SURFTAB1
 70
     6
  9
$SURFTAB2
 70
     6
  9
$SURFTYPE
 70
     6
  9
$SURFU
 70
     6
  9
$SURFV
 70
     6
  9
$UCSBASE
  2

  9
$UCSNAME
  2

  9
$UCSORG
 10
0.0
 20
0.0
 30
0.0
  9
$UCSXDIR
 10
1.0
 20
0.0
 30
0.0
  9
$UCSYDIR
 10
0.0
 20
1.0
 30
0.0
  9
$UCSORTHOREF
  2

  9
$UCSORTHOVIEW
 70
     0
  9
$UCSORGTOP
 10
0.0
 20
0.0
 30
0.0
  9
$UCSORGBOTTOM
 10
0.0
 20
0.0
 30
0.0
  9
$UCSORGLEFT
 10
0.0
 20
0.0
 30
0.0
  9
$UCSORGRIGHT
 10
0.0
 20
0.0
 30
0.0
  9
$UCSORGFRONT
 10
0.0
 20
0.0
 30
0.0
  9
$UCSORGBACK
 10
0.0
 20
0.0
 30
0.0
  9
$PUCSBASE
  2

  9
$PUCSNAME
  2

  9
$PUCSORG
 10
0.0
 20
0.0
 30
0.0
  9
$PUCSXDIR
 10
1.0
 20
0.0
 30
0.0
  9
$PUCSYDIR
 10
0.0
 20
1.0
 30
0.0
  9
$PUCSORTHOREF
  2

  9
$PUCSORTHOVIEW
 70
     0
  9
$PUCSORGTOP
 10
0.0
 20
0.0
 30
0.0
  9
$PUCSORGBOTTOM
 10
0.0
 20
0.0
 30
0.0
  9
$PUCSORGLEFT
 10
0.0
 20
0.0
 30
0.0
  9
$PUCSORGRIGHT
 10
0.0
 20
0.0
 30
0.0
  9
$PUCSORGFRONT
 10
0.0
 20
0.0
 30
0.0
  9
$PUCSORGBACK
 10
0.0
 20
0.0
 30
0.0
  9
$USERI1
 70
     0
  9
$USERI2
 70
     0
  9
$USERI3
 70
     0
  9
$USERI4
 70
     0
  9
$USERI5
 70
     0
  9
$USERR1
 40
0.0
  9
$USERR2
 40
0.0
  9
$USERR3
 40
0.0
  9
$USERR4
 40
0.0
  9
$USERR5
 40
0.0
  9
$WORLDVIEW
 70
     1
  9
$SHADEDGE
 70
     3
  9
$SHADEDIF
 70
    70
  9
$TILEMODE
 70
     1
  9
$MAXACTVP
 70
    64
  9
$PINSBASE
 10
0.0
 20
0.0
 30
0.0
  9
$PLIMCHECK
 70
     0
  9
$PEXTMIN
 10
1.000000000000000E+20
 20
1.000000000000000E+20
 30
1.000000000000000E+20
  9
$PEXTMAX
 10
-1.000000000000000E+20
 20
-1.000000000000000E+20
 30
-1.000000000000000E+20
  9
$PLIMMIN
 10
0.0
 20
0.0
  9
$PLIMMAX
 10
12.0
 20
9.0
  9
$UNITMODE
 70
     0
  9
$VISRETAIN
 70
     1
  9
$PLINEGEN
 70
     0
  9
$PSLTSCALE
 70
     1
  9
$TREEDEPTH
 70
  3020
  9
$CMLSTYLE
  2
Standard
  9
$CMLJUST
 70
     0
  9
$CMLSCALE
 40
1.0
  9
$PROXYGRAPHICS
 70
     1
  9
$MEASUREMENT
 70
     0
  9
$CELWEIGHT
370
    -1
  9
$ENDCAPS
280
     0
  9
$JOINSTYLE
280
     0
  9
$LWDISPLAY
290
     1
  9
$INSUNITS
 70
     4
  9
$HYPERLINKBASE
  1

  9
$STYLESHEET
  1

  9
$XEDIT
290
     1
  9
$CEPSNTYPE
380
     0
  9
$PSTYLEMODE
290
     1
  9
$FINGERPRINTGUID
  2
{0458bc83-bb65-456f-b3e3-bf4d6908ed48}
  9
$VERSIONGUID
  2
{FAEB1C32-E019-11D5-929B-00C0DF256EC4}
  9
$EXTNAMES
290
     1
  9
$PSVPSCALE
 40
0.0
  9
$OLESTARTUP
290
     0
  9
$SORTENTS
280
   127
  9
$INDEXCTL
280
     0
  9
$HIDETEXT
280
     1
  9
$XCLIPFRAME
280
     0
  9
$HALOGAP
280
     0
  9
$OBSCOLOR
 70
   257
  9
$OBSLTYPE
280
     0
  9
$INTERSECTIONDISPLAY
280
     0
  9
$INTERSECTIONCOLOR
 70
   257
  9
$DIMASSOC
280
     2
  9
$PROJECTNAME
  1

  9
$CAMERADISPLAY
290
     0
  9
$LENSLENGTH
 40
50.0
  9
$CAMERAHEIGHT
 40
0.0
  9
$STEPSPERSEC
 40
2.0
  9
$STEPSIZE
 40
6.0
  9
$3DDWFPREC
 40
2.0
  9
$PSOLWIDTH
 40
0.25
  9
$PSOLHEIGHT
 40
4.0
  9
$LOFTANG1
 40
1.570796326794897
  9
$LOFTANG2
 40
1.570796326794897
  9
$LOFTMAG1
 40
0.0
  9
$LOFTMAG2
 40
0.0
  9
$LOFTPARAM
 70
     7
  9
$LOFTNORMALS
280
     1
  9
$LATITUDE
 40
37.795
  9
$LONGITUDE
 40
-122.394
  9
$NORTHDIRECTION
 40
0.0
  9
$TIMEZONE
 70
 -8000
  9
$LIGHTGLYPHDISPLAY
280
     1
  9
$TILEMODELIGHTSYNCH
280
     1
  9
$CMATERIAL
347
44
  9
$SOLIDHIST
280
     0
  9
$SHOWHIST
280
     1
  9
$DWFFRAME
280
     2
  9
$DGNFRAME
280
     2
  9
$REALWORLDSCALE
290
     1
  9
$INTERFERECOLOR
 62
   256
  9
$CSHADOW
280
     0
  9
$SHADOWPLANELOCATION
 40
0.0
  0
ENDSEC
  0
SECTION
  2
CLASSES
  0
CLASS
  1
ACDBDICTIONARYWDFLT
  2
AcDbDictionaryWithDefault
  3
ObjectDBX Classes
 90
        0
 91
        3
280
     0
281
     0
  0
CLASS
  1
VISUALSTYLE
  2
AcDbVisualStyle
  3
ObjectDBX Classes
 90
     4095
 91
        3
280
     0
281
     0
  0
CLASS
  1
MATERIAL
  2
AcDbMaterial
  3
ObjectDBX Classes
 90
     1153
 91
        3
280
     0
281
     0
  0
CLASS
  1
SCALE
  2
AcDbScale
  3
ObjectDBX Classes
 90
     1153
 91
        3
280
     0
281
     0
  0
CLASS
  1
TABLESTYLE
  2
AcDbTableStyle
  3
ObjectDBX Classes
 90
     4095
 91
        3
280
     0
281
     0
  0
CLASS
  1
MLEADERSTYLE
  2
AcDbMLeaderStyle
  3
ACDB_MLEADERSTYLE_CLASS
 90
     4095
 91
        3
280
     0
281
     0
  0
CLASS
  1
SUN
  2
AcDbSun
  3
SCENEOE
 90
     1153
 91
        3
280
     0
281
     0
  0
CLASS
  1
DICTIONARYVAR
  2
AcDbDictionaryVar
  3
ObjectDBX Classes
 90
        0
 91
        3
280
     0
281
     0
  0
CLASS
  1
CELLSTYLEMAP
  2
AcDbCellStyleMap
  3
ObjectDBX Classes
 90
     1152
 91
        3
280
     0
281
     0
  0
ENDSEC
  0
SECTION
  2
TABLES
  0
TABLE
  2
VPORT
  5
8
330
0
100
AcDbSymbolTable
 70
     1
  0
VPORT
  5
29
330
8
100
AcDbSymbolTableRecord
100
AcDbViewportTableRecord
  2
*Active
 70
     0
 10
0.0
 20
0.0
 11
1.0
 21
1.0
 12
1513.02369486064
 22
2526.0
 13
0.0
 23
0.0
 14
0.5
 24
0.5
 15
0.5
 25
0.5
 16
0.0
 26
0.0
 36
1.0
 17
0.0
 27
0.0
 37
0.0
 40
5157.119999999999
 41
0.5990086211317397
 42
50.0
 43
0.0
 44
0.0
 50
0.0
 51
0.0
 71
     0
 72
   100
 73
     1
 74
     3
 75
     0
 76
     0
 77
     0
 78
     0
281
     0
 65
     1
110
0.0
120
0.0
130
0.0
111
1.0
121
0.0
131
0.0
112
0.0
122
1.0
132
0.0
 79
     0
146
0.0
348
2F
 60
     3
 61
     5
292
     1
282
     1
141
0.0
142
0.0
 63
   250
361
6D
  0
ENDTAB
  0
TABLE
  2
LTYPE
  5
5
330
0
100
AcDbSymbolTable
 70
     1
  0
LTYPE
  5
14
330
5
100
AcDbSymbolTableRecord
100
AcDbLinetypeTableRecord
  2
ByBlock
 70
     0
  3

 72
    65
 73
     0
 40
0.0
  0
LTYPE
  5
15
330
5
100
AcDbSymbolTableRecord
100
AcDbLinetypeTableRecord
  2
ByLayer
 70
     0
  3

 72
    65
 73
     0
 40
0.0
  0
LTYPE
  5
16
330
5
100
AcDbSymbolTableRecord
100
AcDbLinetypeTableRecord
  2
Continuous
 70
     0
  3
Solid line
 72
    65
 73
     0
 40
0.0
  0
ENDTAB
  0
TABLE
  2
LAYER
  5
2
330
0
100
AcDbSymbolTable
 70
     2
  0
LAYER
  5
10
330
2
100
AcDbSymbolTableRecord
100
AcDbLayerTableRecord
  2
0
 70
     0
 62
     7
  6
Continuous
370
    -3
390
F
347
46
348
0
  0
LAYER
  5
72
330
2
100
AcDbSymbolTableRecord
100
AcDbLayerTableRecord
  2
D01 金物
 70
     0
 62
     7
  6
Continuous
370
    -3
390
F
347
46
348
0
  0
ENDTAB
  0
TABLE
  2
STYLE
  5
3
330
0
100
AcDbSymbolTable
 70
     1
  0
STYLE
  5
11
330
3
100
AcDbSymbolTableRecord
100
AcDbTextStyleTableRecord
  2
Standard
 70
     0
 40
0.0
 41
1.0
 50
0.0
 71
     0
 42
0.2
  3
txt
  4
EXTFONT.SHX
  0
ENDTAB
  0
TABLE
  2
VIEW
  5
6
330
0
100
AcDbSymbolTable
 70
     0
  0
ENDTAB
  0
TABLE
  2
UCS
  5
7
330
0
100
AcDbSymbolTable
 70
     0
  0
ENDTAB
  0
TABLE
  2
APPID
  5
9
330
0
100
AcDbSymbolTable
 70
     1
  0
APPID
  5
12
330
9
100
AcDbSymbolTableRecord
100
AcDbRegAppTableRecord
  2
ACAD
 70
     0
  0
ENDTAB
  0
TABLE
  2
DIMSTYLE
  5
A
330
0
100
AcDbSymbolTable
 70
     1
100
AcDbDimStyleTable
  0
DIMSTYLE
105
27
330
A
100
AcDbSymbolTableRecord
100
AcDbDimStyleTableRecord
  2
Standard
 70
     0
178
     0
340
11
  0
ENDTAB
  0
TABLE
  2
BLOCK_RECORD
  5
1
330
0
100
AcDbSymbolTable
 70
     2
  0
BLOCK_RECORD
  5
1F
330
1
100
AcDbSymbolTableRecord
100
AcDbBlockTableRecord
  2
*Model_Space
340
22
 70
     0
280
     1
281
     0
  0
BLOCK_RECORD
  5
1B
330
1
100
AcDbSymbolTableRecord
100
AcDbBlockTableRecord
  2
*Paper_Space
340
1E
 70
     0
280
     1
281
     0
  0
BLOCK_RECORD
  5
23
330
1
100
AcDbSymbolTableRecord
100
AcDbBlockTableRecord
  2
*Paper_Space0
340
26
 70
     0
280
     1
281
     0
  0
BLOCK_RECORD
  5
6E
330
1
100
AcDbSymbolTableRecord
100
AcDbBlockTableRecord
  2
オブジェクト_1DB4FF9E-8F32-48E3-80A5-827D9E8811B8
340
0
102
{BLKREFS
331
71
102
}
 70
     0
280
     1
281
     0
  0
ENDTAB
  0
ENDSEC
  0
SECTION
  2
BLOCKS
  0
BLOCK
  5
20
330
1F
100
AcDbEntity
  8
0
100
AcDbBlockBegin
  2
*Model_Space
 70
     0
 10
0.0
 20
0.0
 30
0.0
  3
*Model_Space
  1

  0
ENDBLK
  5
21
330
1F
100
AcDbEntity
  8
0
100
AcDbBlockEnd
  0
BLOCK
  5
1C
330
1B
100
AcDbEntity
 67
     1
  8
0
100
AcDbBlockBegin
  2
*Paper_Space
 70
     0
 10
0.0
 20
0.0
 30
0.0
  3
*Paper_Space
  1

  0
ENDBLK
  5
1D
330
1B
100
AcDbEntity
 67
     1
  8
0
100
AcDbBlockEnd
  0
BLOCK
  5
24
330
23
100
AcDbEntity
  8
0
100
AcDbBlockBegin
  2
*Paper_Space0
 70
     0
 10
0.0
 20
0.0
 30
0.0
  3
*Paper_Space0
  1

  0
ENDBLK
  5
25
330
23
100
AcDbEntity
  8
0
100
AcDbBlockEnd
  0
BLOCK
  5
6F
330
6E
100
AcDbEntity
  8
0
100
AcDbBlockBegin
  2
オブジェクト_1DB4FF9E-8F32-48E3-80A5-827D9E8811B8
 70
     0
 10
0.0
 20
0.0
 30
0.0
  3
オブジェクト_1DB4FF9E-8F32-48E3-80A5-827D9E8811B8
  1

  0
POLYLINE
  5
73
330
6E
100
AcDbEntity
  8
D01 金物
370
     0
100
AcDbPolyFaceMesh
 66
     1
 10
0.0
 20
0.0
 30
0.0
 70
    64
 71
   314
 72
   437
  0
VERTEX
  5
74
330
73
100
AcDbEntity
  8
D01 金物
370
     0
100
AcDbVertex
100
AcDbPolyFaceMeshVertex
 10
2993.179389041597
 20
5043.0
 30
2835.300116485135
 70
   192
  0
VERTEX
  5
75
330
73
100
AcDbEntity
  8
D01 金物
370
     0
100
AcDbVertex
100
AcDbPolyFaceMeshVertex
 10
2993.534797395529
 20
5043.0
 30
2831.918743257886
 70
   192
  0
VERTEX
  5
76
330
73
100
AcDbEntity
  8
D01 金物
370
     0
100
AcDbVertex
100
AcDbPolyFaceMeshVertex
 10
2993.534797395529
 20
9.000000000000341
 30
2831.918743257886
 70
   192
  0
VERTEX
  5
77
330
73
100
AcDbEntity
  8
D01 金物
370
     0
100
AcDbVertex
100
AcDbPolyFaceMeshVertex
 10
2993.179389041597
 20
9.000000000000341
 30
2835.300116485135
 70
   192
  0
VERTEX
  5
78
330
73
100
AcDbEntity
  8
D01 金物
370
     0
100
AcDbVertex
100
AcDbPolyFaceMeshVertex
 10
2988.363285400914
 20
5043.0
 30
2831.375177540107
 70
   192
  0
VERTEX
  5
79
330
73
100
AcDbEntity
  8
D01 金物
370
     0
100
AcDbVertex
100
AcDbPolyFaceMeshVertex
 10
2988.363285400914
 20
9.000000000000341
 30
2831.375177540107
 70
   192
  0
VERTEX
  5
7A
330
73
100
AcDbEntity
  8
D01 金物
370
     0
100
AcDbVertex
100
AcDbPolyFaceMeshVertex
 10
2988.007877046981
 20
5043.0
 30
2834.756550767355
 70
   192
  0
VERTEX
  5
7B
330
73
100
AcDbEntity
  8
D01 金物
370
     0
100
AcDbVertex
100
AcDbPolyFaceMeshVertex
 10
2988.007877046981
 20
9.000000000000341
 30
2834.756550767355
 70
   192
  0
VERTEX
  5
7C
330
73
100
AcDbEntity
  8
D01 金物
370
     0
100
AcDbVertex
100
AcDbPolyFaceMeshVertex
 10
2989.350481122506
 20
5043.0
 30
2834.89766879024
 70
   192
  0
VERTEX
  5
7D
330
73
100
AcDbEntity
  8
D01 金物
370
     0
100
AcDbVertex
100
AcDbPolyFaceMeshVertex
 10
2989.350481122506
 20
9.000000000000341
 30
2834.897668790241
 70
   192
  0
VERTEX
  5
7E
330
73
100
AcDbEntity
  8
D01 金物
370
     0
100
AcDbVertex
100
AcDbPolyFaceMeshVertex
 10
2989.256402440583
 20
5043.0
 30
2835.792738173924
 70
   192
  0
VERTEX
  5
7F
330
73
100
AcDbEntity
  8
D01 金物
370
     0
100
AcDbVertex
100
AcDbPolyFaceMeshVertex
 10
2989.256402440583
 20
9.000000000000341
 30
2835.792738173924
 70
   192
  0
VERTEX
  5
80
330
73
100
AcDbEntity
  8
D01 金物
370
     0
100
AcDbVertex
100
AcDbPolyFaceMeshVertex
 10
2987.021551341832
 20
5043.0
 30
2835.530689387605
 70
   192
  0
VERTEX
  5
81
330
73
100
AcDbEntity
  8
D01 金物
370
     0
100
AcDbVertex
100
AcDbPolyFaceMeshVertex
 10
2987.021551341832
 20
9.000000000000341
 30
2835.530689387605
 70
   192
  0
VERTEX
  5
82
330
73
100
AcDbEntity
  8
D01 金物
370
     0
100
AcDbVertex
100
AcDbPolyFaceMeshVertex
 10
2987.46821601723
 20
5043.0
 30
2831.281098858183
 70
   192
  0
VERTEX
  5
83
330
73
100
AcDbEntity
  8
D01 金物
370
     0
100
AcDbVertex
100
AcDbPolyFaceMeshVertex
 10
2987.46821601723
 20
9.000000000000341
 30
2831.281098858183
 70
   192
  0
VERTEX
  5
84
330
73
100
AcDbEntity
  8
D01 金物
370
     0
100
AcDbVertex
100
AcDbPolyFaceMeshVertex
 10
2973.624476216259
 20
5043.0
 30
2829.826015244435
 70
   192
  0
VERTEX
  5
85
330
73
100
AcDbEntity
  8
D01 金物
370
     0
100
AcDbVertex
100
AcDbPolyFaceMeshVertex
 10
2973.624476216259
 20
9.000000000000341
 30
2829.826015244435
 70
   192
  0
VERTEX
  5
86
330
73
100
AcDbEntity
  8
D01 金物
370
     0
100
AcDbVertex
100
AcDbPolyFaceMeshVertex
 10
2973.343491749724
 20
5043.0
 30
2830.098134206592
 70
   192
  0
VERTEX
  5
87
330
73
100
AcDbEntity
  8
D01 金物
370
     0
100
AcDbVertex
100
AcDbPolyFaceMeshVertex
 10
2973.343491749724
 20
9.000000000000341
 30
2830.098134206593
 70
   192
  0
VERTEX
  5
88
330
73
100
AcDbEntity
  8
D01 金物
370
     0
100
AcDbVertex
100
AcDbPolyFaceMeshVertex
 10
2972.519346990804
 20
5043.0
 30
2830.008493722742
 70
   192
  0
VERTEX
  5
89
330
73
100
AcDbEntity
  8
D01 金物
370
     0
100
AcDbVertex
100
AcDbPolyFaceMeshVertex
 10
2972.519346990804
 20
9.000000000000341
 30
2830.008493722742
 70
   192
  0
VERTEX
  5
8A
330
73
100
AcDbEntity
  8
D01 金物
370
     0
100
AcDbVertex
100
AcDbPolyFaceMeshVertex
 10
2977.076622875042
 20
5043.0
 30
2786.650338255576
 70
   192
  0
VERTEX
  5
8B
330
73
100
AcDbEntity
  8
D01 金物
370
     0
100
AcDbVertex
100
AcDbPolyFaceMeshVertex
 10
2977.076622875042
 20
9.000000000000341
 30
2786.650338255576
 70
   192
  0
VERTEX
  5
8C
330
73
100
AcDbEntity
  8
D01 金物
370
     0
100
AcDbVertex
100
AcDbPolyFaceMeshVertex
 10
2963.153321351077
 20
5043.0
 30
2785.186892092323
 70
   192
  0
VERTEX
  5
8D
330
73
100
AcDbEntity
  8
D01 金物
370
     0
100
AcDbVertex
100
AcDbPolyFaceMeshVertex
 10
2963.153321351077
 20
9.000000000000341
 30
2785.186892092323
 70
   192
  0
VERTEX
  5
8E
330
73
100
AcDbEntity
  8
D01 金物
370
     0
100
AcDbVertex
100
AcDbPolyFaceMeshVertex
 10
2963.299665967402
 20
5043.0
 30
2783.794561939927
 70
   192
  0
VERTEX
  5
8F
330
73
100
AcDbEntity
  8
D01 金物
370
     0
100
AcDbVertex
100
AcDbPolyFaceMeshVertex
 10
2963.299665967402
 20
9.000000000000341
 30
2783.794561939927
 70
   192
  0
VERTEX
  5
90
330
73
100
AcDbEntity
  8
D01 金物
370
     0
100
AcDbVertex
100
AcDbPolyFaceMeshVertex
 10
3011.036699763855
 20
5043.0
 30
2788.812091642508
 70
   192
  0
VERTEX
  5
91
330
73
100
AcDbEntity
  8
D01 金物
370
     0
100
AcDbVertex
100
AcDbPolyFaceMeshVertex
 10
3011.036699763855
 20
9.000000000000341
 30
2788.812091642508
 70
   192
  0
VERTEX
  5
92
330
73
100
AcDbEntity
  8
D01 金物
370
     0
100
AcDbVertex
100
AcDbPolyFaceMeshVertex
 10
3011.245763501463
 20
5043.0
 30
2786.823048567655
 70
   192
  0
VERTEX
  5
93
330
73
100
AcDbEntity
  8
D01 金物
370
     0
100
AcDbVertex
100
AcDbPolyFaceMeshVertex
 10
3011.245763501463
 20
9.000000000000341
 30
2786.823048567656
 70
   192
  0
VERTEX
  5
94
330
73
100
AcDbEntity
  8
D01 金物
370
     0
100
AcDbVertex
100
AcDbPolyFaceMeshVertex
 10
3013.12839277181
 20
5043.0
 30
2787.020927395301
 70
   192
  0
VERTEX
  5
95
330
73
100
AcDbEntity
  8
D01 金物
370
     0
100
AcDbVertex
100
AcDbPolyFaceMeshVertex
 10
3013.12839277181
 20
9.000000000000341
 30
2787.020927395301
 70
   192
  0
VERTEX
  5
96
330
73
100
AcDbEntity
  8
D01 金物
370
     0
100
AcDbVertex
100
AcDbPolyFaceMeshVertex
 10
3013.824557848009
 20
5043.0
 30
2787.094099703464
 70
   192
  0
VERTEX
  5
97
330
73
100
AcDbEntity
  8
D01 金物
370
     0
100
AcDbVertex
100
AcDbPolyFaceMeshVertex
 10
3013.824557848009
 20
9.000000000000341
 30
2787.094099703464
 70
   192
  0
VERTEX
  5
98
330
73
100
AcDbEntity
  8
D01 金物
370
     0
100
AcDbVertex
100
AcDbPolyFaceMeshVertex
 10
3015.170601804
 20
5043.0
 30
2787.479917884139
 70
   192
  0
VERTEX
  5
99
330
73
100
AcDbEntity
  8
D01 金物
370
     0
100
AcDbVertex
100
AcDbPolyFaceMeshVertex
 10
3015.170601804
 20
9.000000000000341
 30
2787.479917884139
 70
   192
  0
VERTEX
  5
9A
330
73
100
AcDbEntity
  8
D01 金物
370
     0
100
AcDbVertex
100
AcDbPolyFaceMeshVertex
 10
3016.428431392427
 20
5043.0
 30
2788.092758586506
 70
   192
  0
VERTEX
  5
9B
330
73
100
AcDbEntity
  8
D01 金物
370
     0
100
AcDbVertex
100
AcDbPolyFaceMeshVertex
 10
3016.428431392427
 20
9.000000000000341
 30
2788.092758586506
 70
   192
  0
VERTEX
  5
9C
330
73
100
AcDbEntity
  8
D01 金物
370
     0
100
AcDbVertex
100
AcDbPolyFaceMeshVertex
 10
3017.560619187625
 20
5043.0
 30
2788.915616287693
 70
   192
  0
VERTEX
  5
9D
330
73
100
AcDbEntity
  8
D01 金物
370
     0
100
AcDbVertex
100
AcDbPolyFaceMeshVertex
 10
3017.560619187625
 20
9.000000000000341
 30
2788.915616287694
 70
   192
  0
VERTEX
  5
9E
330
73
100
AcDbEntity
  8
D01 金物
370
     0
100
AcDbVertex
100
AcDbPolyFaceMeshVertex
 10
3018.53366211536
 20
5043.0
 30
2789.922848366604
 70
   192
  0
VERTEX
  5
9F
330
73
100
AcDbEntity
  8
D01 金物
370
     0
100
AcDbVertex
100
AcDbPolyFaceMeshVertex
 10
3018.53366211536
 20
9.000000000000341
 30
2789.922848366604
 70
   192
  0
VERTEX
  5
A0
330
73
100
AcDbEntity
  8
D01 金物
370
     0
100
AcDbVertex
100
AcDbPolyFaceMeshVertex
 10
3019.315678814148
 20
5043.0
 30
2791.082949604779
 70
   192
  0
VERTEX
  5
A1
330
73
100
AcDbEntity
  8
D01 金物
370
     0
100
AcDbVertex
100
AcDbPolyFaceMeshVertex
 10
3019.315678814148
 20
9.000000000000341
 30
2791.08294960478
 70
   192
  0
VERTEX
  5
A2
330
73
100
AcDbEntity
  8
D01 金物
370
     0
100
AcDbVertex
100
AcDbPolyFaceMeshVertex
 10
3019.781273522313
 20
5043.0
 30
2792.163539058609
 70
   192
  0
VERTEX
  5
A3
330
73
100
AcDbEntity
  8
D01 金物
370
     0
100
AcDbVertex
100
AcDbPolyFaceMeshVertex
 10
3019.781273522313
 20
9.000000000000341
 30
2792.16353905861
 70
   192
  0
VERTEX
  5
A4
330
73
100
AcDbEntity
  8
D01 金物
370
     0
100
AcDbVertex
100
AcDbPolyFaceMeshVertex
 10
3023.257969605198
 20
5043.0
 30
2801.417662968913
 70
   192
  0
VERTEX
  5
A5
330
73
100
AcDbEntity
  8
D01 金物
370
     0
100
AcDbVertex
100
AcDbPolyFaceMeshVertex
 10
3023.257969605198
 20
9.000000000000341
 30
2801.417662968913
 70
   192
  0
VERTEX
  5
A6
330
73
100
AcDbEntity
  8
D01 金物
370
     0
100
AcDbVertex
100
AcDbPolyFaceMeshVertex
 10
3026.892159291674
 20
5043.0
 30
2820.854033034404
 70
   192
  0
VERTEX
  5
A7
330
73
100
AcDbEntity
  8
D01 金物
370
     0
100
AcDbVertex
100
AcDbPolyFaceMeshVertex
 10
3026.892159291674
 20
9.000000000000341
 30
2820.854033034404
 70
   192
  0
VERTEX
  5
A8
330
73
100
AcDbEntity
  8
D01 金物
370
     0
100
AcDbVertex
100
AcDbPolyFaceMeshVertex
 10
3027.096403682719
 20
5043.0
 30
2840.626706936249
 70
   192
  0
VERTEX
  5
A9
330
73
100
AcDbEntity
  8
D01 金物
370
     0
100
AcDbVertex
100
AcDbPolyFaceMeshVertex
 10
3027.096403682719
 20
9.000000000000341
 30
2840.626706936249
 70
   192
  0
VERTEX
  5
AA
330
73
100
AcDbEntity
  8
D01 金物
370
     0
100
AcDbVertex
100
AcDbPolyFaceMeshVertex
 10
3023.818963433721
 20
5043.0
 30
2858.530193563558
 70
   192
  0
VERTEX
  5
AB
330
73
100
AcDbEntity
  8
D01 金物
370
     0
100
AcDbVertex
100
AcDbPolyFaceMeshVertex
 10
3023.818963433721
 20
9.000000000000341
 30
2858.530193563559
 70
   192
  0
VERTEX
  5
AC
330
73
100
AcDbEntity
  8
D01 金物
370
     0
100
AcDbVertex
100
AcDbPolyFaceMeshVertex
 10
3021.331665068618
 20
5043.0
 30
2858.26875935968
 70
   192
  0
VERTEX
  5
AD
330
73
100
AcDbEntity
  8
D01 金物
370
     0
100
AcDbVertex
100
AcDbPolyFaceMeshVertex
 10
3021.331665068618
 20
9.000000000000341
 30
2858.268759359681
 70
   192
  0
VERTEX
  5
AE
330
73
100
AcDbEntity
  8
D01 金物
370
     0
100
AcDbVertex
100
AcDbPolyFaceMeshVertex
 10
3021.437191458959
 20
5043.0
 30
2857.274342354123
 70
   192
  0
VERTEX
  5
AF
330
73
100
AcDbEntity
  8
D01 金物
370
     0
100
AcDbVertex
100
AcDbPolyFaceMeshVertex
 10
3021.437191458959
 20
9.000000000000341
 30
2857.274342354123
 70
   192
  0
VERTEX
  5
B0
330
73
100
AcDbEntity
  8
D01 金物
370
     0
100
AcDbVertex
100
AcDbPolyFaceMeshVertex
 10
3023.044236669139
 20
5043.0
 30
2857.463365348596
 70
   192
  0
VERTEX
  5
B1
330
73
100
AcDbEntity
  8
D01 金物
370
     0
100
AcDbVertex
100
AcDbPolyFaceMeshVertex
 10
3023.044236669139
 20
9.000000000000341
 30
2857.463365348596
 70
   192
  0
VERTEX
  5
B2
330
73
100
AcDbEntity
  8
D01 金物
370
     0
100
AcDbVertex
100
AcDbPolyFaceMeshVertex
 10
3024.676970322004
 20
5043.0
 30
2849.066033580778
 70
   192
  0
VERTEX
  5
B3
330
73
100
AcDbEntity
  8
D01 金物
370
     0
100
AcDbVertex
100
AcDbPolyFaceMeshVertex
 10
3024.676970322004
 20
9.000000000000341
 30
2849.066033580779
 70
   192
  0
VERTEX
  5
B4
330
73
100
AcDbEntity
  8
D01 金物
370
     0
100
AcDbVertex
100
AcDbPolyFaceMeshVertex
 10
3000.94349928913
 20
5043.0
 30
2846.57347410672
 70
   192
  0
VERTEX
  5
B5
330
73
100
AcDbEntity
  8
D01 金物
370
     0
100
AcDbVertex
100
AcDbPolyFaceMeshVertex
 10
3000.94349928913
 20
9.000000000000341
 30
2846.57347410672
 70
   192
  0
VERTEX
  5
B6
330
73
100
AcDbEntity
  8
D01 金物
370
     0
100
AcDbVertex
100
AcDbPolyFaceMeshVertex
 10
3001.037577971053
 20
5043.0
 30
2845.678404723036
 70
   192
  0
VERTEX
  5
B7
330
73
100
AcDbEntity
  8
D01 金物
370
     0
100
AcDbVertex
100
AcDbPolyFaceMeshVertex
 10
3001.037577971053
 20
9.000000000000341
 30
2845.678404723037
 70
   192
  0
VERTEX
  5
B8
330
73
100
AcDbEntity
  8
D01 金物
370
     0
100
AcDbVertex
100
AcDbPolyFaceMeshVertex
 10
3004.021142583332
 20
5043.0
 30
2845.992000329448
 70
   192
  0
VERTEX
  5
B9
330
73
100
AcDbEntity
  8
D01 金物
370
     0
100
AcDbVertex
100
AcDbPolyFaceMeshVertex
 10
3004.021142583332
 20
9.000000000000341
 30
2845.992000329448
 70
   192
  0
VERTEX
  5
BA
330
73
100
AcDbEntity
  8
D01 金物
370
     0
100
AcDbVertex
100
AcDbPolyFaceMeshVertex
 10
3004.449723245427
 20
5043.0
 30
2841.914462026001
 70
   192
  0
VERTEX
  5
BB
330
73
100
AcDbEntity
  8
D01 金物
370
     0
100
AcDbVertex
100
AcDbPolyFaceMeshVertex
 10
3004.449723245427
 20
9.000000000000341
 30
2841.914462026001
 70
   192
  0
VERTEX
  5
BC
330
73
100
AcDbEntity
  8
D01 金物
370
     0
100
AcDbVertex
100
AcDbPolyFaceMeshVertex
 10
3011.41137400741
 20
5043.0
 30
2842.646185107627
 70
   192
  0
VERTEX
  5
BD
330
73
100
AcDbEntity
  8
D01 金物
370
     0
100
AcDbVertex
100
AcDbPolyFaceMeshVertex
 10
3011.41137400741
 20
9.000000000000341
 30
2842.646185107627
 70
   192
  0
VERTEX
  5
BE
330
73
100
AcDbEntity
  8
D01 金物
370
     0
100
AcDbVertex
100
AcDbPolyFaceMeshVertex
 10
3011.014152905955
 20
5043.0
 30
2846.425366949847
 70
   192
  0
VERTEX
  5
BF
330
73
100
AcDbEntity
  8
D01 金物
370
     0
100
AcDbVertex
100
AcDbPolyFaceMeshVertex
 10
3011.014152905955
 20
9.000000000000341
 30
2846.425366949847
 70
   192
  0
VERTEX
  5
C0
330
73
100
AcDbEntity
  8
D01 金物
370
     0
100
AcDbVertex
100
AcDbPolyFaceMeshVertex
 10
3024.655273111748
 20
5043.0
 30
2847.86619224499
 70
   192
  0
VERTEX
  5
C1
330
73
100
AcDbEntity
  8
D01 金物
370
     0
100
AcDbVertex
100
AcDbPolyFaceMeshVertex
 10
3024.655273111748
 20
9.000000000000341
 30
2847.86619224499
 70
   192
  0
VERTEX
  5
C2
330
73
100
AcDbEntity
  8
D01 金物
370
     0
100
AcDbVertex
100
AcDbPolyFaceMeshVertex
 10
3025.786815676026
 20
5043.0
 30
2833.599313945052
 70
   192
  0
VERTEX
  5
C3
330
73
100
AcDbEntity
  8
D01 金物
370
     0
100
AcDbVertex
100
AcDbPolyFaceMeshVertex
 10
3025.786815676026
 20
9.000000000000341
 30
2833.599313945052
 70
   192
  0
VERTEX
  5
C4
330
73
100
AcDbEntity
  8
D01 金物
370
     0
100
AcDbVertex
100
AcDbPolyFaceMeshVertex
 10
2994.60757095618
 20
5043.0
 30
2830.322135326185
 70
   192
  0
VERTEX
  5
C5
330
73
100
AcDbEntity
  8
D01 金物
370
     0
100
AcDbVertex
100
AcDbPolyFaceMeshVertex
 10
2994.60757095618
 20
9.000000000000341
 30
2830.322135326185
 70
   192
  0
VERTEX
  5
C6
330
73
100
AcDbEntity
  8
D01 金物
370
     0
100
AcDbVertex
100
AcDbPolyFaceMeshVertex
 10
2993.980379743357
 20
5043.0
 30
2836.289264550742
 70
   192
  0
VERTEX
  5
C7
330
73
100
AcDbEntity
  8
D01 金物
370
     0
100
AcDbVertex
100
AcDbPolyFaceMeshVertex
 10
2993.980379743357
 20
9.000000000000341
 30
2836.289264550742
 70
   192
  0
VERTEX
  5
C8
330
73
100
AcDbEntity
  8
D01 金物
370
     0
100
AcDbVertex
100
AcDbPolyFaceMeshVertex
 10
2991.742706284148
 20
5043.0
 30
2836.054067845933
 70
   192
  0
VERTEX
  5
C9
330
73
100
AcDbEntity
  8
D01 金物
370
     0
100
AcDbVertex
100
AcDbPolyFaceMeshVertex
 10
2991.742706284148
 20
9.000000000000341
 30
2836.054067845934
 70
   192
  0
VERTEX
  5
CA
330
73
100
AcDbEntity
  8
D01 金物
370
     0
100
AcDbVertex
100
AcDbPolyFaceMeshVertex
 10
2991.836784966071
 20
5043.0
 30
2835.15899846225
 70
   192
  0
VERTEX
  5
CB
330
73
100
AcDbEntity
  8
D01 金物
370
     0
100
AcDbVertex
100
AcDbPolyFaceMeshVertex
 10
2991.836784966071
 20
9.000000000000341
 30
2835.15899846225
 70
   192
  0
VERTEX
  5
CC
330
73
100
AcDbEntity
  8
D01 金物
370
     0
100
AcDbVertex
100
AcDbPolyFaceMeshVertex
 10
3026.813787055865
 20
9.0
 30
2825.177526736568
 70
   192
  0
VERTEX
  5
CD
330
73
100
AcDbEntity
  8
D01 金物
370
     0
100
AcDbVertex
100
AcDbPolyFaceMeshVertex
 10
3026.913024994859
 20
9.0
 30
2827.19897469075
 70
   192
  0
VERTEX
  5
CE
330
73
100
AcDbEntity
  8
D01 金物
370
     0
100
AcDbVertex
100
AcDbPolyFaceMeshVertex
 10
3026.913024994859
 20
-2.0
 30
2827.19897469075
 70
   192
  0
VERTEX
  5
CF
330
73
100
AcDbEntity
  8
D01 金物
370
     0
100
AcDbVertex
100
AcDbPolyFaceMeshVertex
 10
3026.813787055865
 20
-2.0
 30
2825.177526736568
 70
   192
  0
VERTEX
  5
D0
330
73
100
AcDbEntity
  8
D01 金物
370
     0
100
AcDbVertex
100
AcDbPolyFaceMeshVertex
 10
3027.317489081678
 20
9.0
 30
2837.164851762161
 70
   192
  0
VERTEX
  5
D1
330
73
100
AcDbEntity
  8
D01 金物
370
     0
100
AcDbVertex
100
AcDbPolyFaceMeshVertex
 10
3027.317489081678
 20
-2.0
 30
2837.164851762161
 70
   192
  0
VERTEX
  5
D2
330
73
100
AcDbEntity
  8
D01 金物
370
     0
100
AcDbVertex
100
AcDbPolyFaceMeshVertex
 10
3025.820051349472
 20
9.000000000000002
 30
2848.225919442912
 70
   192
  0
VERTEX
  5
D3
330
73
100
AcDbEntity
  8
D01 金物
370
     0
100
AcDbVertex
100
AcDbPolyFaceMeshVertex
 10
3025.820051349472
 20
-1.999999999999998
 30
2848.225919442912
 70
   192
  0
VERTEX
  5
D4
330
73
100
AcDbEntity
  8
D01 金物
370
     0
100
AcDbVertex
100
AcDbPolyFaceMeshVertex
 10
3025.514309958996
 20
9.000000000000002
 30
2850.206811969565
 70
   192
  0
VERTEX
  5
D5
330
73
100
AcDbEntity
  8
D01 金物
370
     0
100
AcDbVertex
100
AcDbPolyFaceMeshVertex
 10
3025.514309958996
 20
-1.999999999999998
 30
2850.206811969565
 70
   192
  0
VERTEX
  5
D6
330
73
100
AcDbEntity
  8
D01 金物
370
     0
100
AcDbVertex
100
AcDbPolyFaceMeshVertex
 10
3023.641171988229
 20
9.000000000000002
 30
2859.312896701351
 70
   192
  0
VERTEX
  5
D7
330
73
100
AcDbEntity
  8
D01 金物
370
     0
100
AcDbVertex
100
AcDbPolyFaceMeshVertex
 10
3023.641171988229
 20
-1.999999999999998
 30
2859.312896701351
 70
   192
  0
VERTEX
  5
D8
330
73
100
AcDbEntity
  8
D01 金物
370
     0
100
AcDbVertex
100
AcDbPolyFaceMeshVertex
 10
3023.614860191467
 20
9.000000000000002
 30
2859.419731570898
 70
   192
  0
VERTEX
  5
D9
330
73
100
AcDbEntity
  8
D01 金物
370
     0
100
AcDbVertex
100
AcDbPolyFaceMeshVertex
 10
3023.614860191467
 20
-1.999999999999998
 30
2859.419731570898
 70
   192
  0
VERTEX
  5
DA
330
73
100
AcDbEntity
  8
D01 金物
370
     0
100
AcDbVertex
100
AcDbPolyFaceMeshVertex
 10
3023.587344809431
 20
9.000000000000002
 30
2859.528450951652
 70
   192
  0
VERTEX
  5
DB
330
73
100
AcDbEntity
  8
D01 金物
370
     0
100
AcDbVertex
100
AcDbPolyFaceMeshVertex
 10
3023.587344809431
 20
-1.999999999999998
 30
2859.528450951652
 70
   192
  0
VERTEX
  5
DC
330
73
100
AcDbEntity
  8
D01 金物
370
     0
100
AcDbVertex
100
AcDbPolyFaceMeshVertex
 10
3019.240291169342
 20
9.000000000000002
 30
2859.071542153111
 70
   192
  0
VERTEX
  5
DD
330
73
100
AcDbEntity
  8
D01 金物
370
     0
100
AcDbVertex
100
AcDbPolyFaceMeshVertex
 10
3019.240291169342
 20
-1.999999999999998
 30
2859.071542153111
 70
   192
  0
VERTEX
  5
DE
330
73
100
AcDbEntity
  8
D01 金物
370
     0
100
AcDbVertex
100
AcDbPolyFaceMeshVertex
 10
3020.181182520445
 20
9.000000000000002
 30
2850.119853794738
 70
   192
  0
VERTEX
  5
DF
330
73
100
AcDbEntity
  8
D01 金物
370
     0
100
AcDbVertex
100
AcDbPolyFaceMeshVertex
 10
3020.181182520445
 20
-1.999999999999998
 30
2850.119853794738
 70
   192
  0
VERTEX
  5
E0
330
73
100
AcDbEntity
  8
D01 金物
370
     0
100
AcDbVertex
100
AcDbPolyFaceMeshVertex
 10
2980.897581792113
 20
9.000000000000002
 30
2845.990844976989
 70
   192
  0
VERTEX
  5
E1
330
73
100
AcDbEntity
  8
D01 金物
370
     0
100
AcDbVertex
100
AcDbPolyFaceMeshVertex
 10
2980.897581792113
 20
-1.999999999999998
 30
2845.990844976989
 70
   192
  0
VERTEX
  5
E2
330
73
100
AcDbEntity
  8
D01 金物
370
     0
100
AcDbVertex
100
AcDbPolyFaceMeshVertex
 10
2987.587516863686
 20
8.999999999999996
 30
2782.342461103256
 70
   192
  0
VERTEX
  5
E3
330
73
100
AcDbEntity
  8
D01 金物
370
     0
100
AcDbVertex
100
AcDbPolyFaceMeshVertex
 10
2987.587516863686
 20
-2.000000000000004
 30
2782.342461103256
 70
   192
  0
VERTEX
  5
E4
330
73
100
AcDbEntity
  8
D01 金物
370
     0
100
AcDbVertex
100
AcDbPolyFaceMeshVertex
 10
3017.151658606752
 20
8.999999999999996
 30
2785.449879967186
 70
   192
  0
VERTEX
  5
E5
330
73
100
AcDbEntity
  8
D01 金物
370
     0
100
AcDbVertex
100
AcDbPolyFaceMeshVertex
 10
3017.151658606752
 20
-2.000000000000004
 30
2785.449879967186
 70
   192
  0
VERTEX
  5
E6
330
73
100
AcDbEntity
  8
D01 金物
370
     0
100
AcDbVertex
100
AcDbPolyFaceMeshVertex
 10
3017.635838566089
 20
8.999999999999998
 30
2786.554544064084
 70
   192
  0
VERTEX
  5
E7
330
73
100
AcDbEntity
  8
D01 金物
370
     0
100
AcDbVertex
100
AcDbPolyFaceMeshVertex
 10
3017.635838566089
 20
-2.000000000000002
 30
2786.554544064084
 70
   192
  0
VERTEX
  5
E8
330
73
100
AcDbEntity
  8
D01 金物
370
     0
100
AcDbVertex
100
AcDbPolyFaceMeshVertex
 10
3021.595744083754
 20
8.999999999999998
 30
2795.707625200574
 70
   192
  0
VERTEX
  5
E9
330
73
100
AcDbEntity
  8
D01 金物
370
     0
100
AcDbVertex
100
AcDbPolyFaceMeshVertex
 10
3021.595744083754
 20
-2.000000000000002
 30
2795.707625200574
 70
   192
  0
VERTEX
  5
EA
330
73
100
AcDbEntity
  8
D01 金物
370
     0
100
AcDbVertex
100
AcDbPolyFaceMeshVertex
 10
3026.216687636122
 20
8.999999999999998
 30
2815.111967026202
 70
   192
  0
VERTEX
  5
EB
330
73
100
AcDbEntity
  8
D01 金物
370
     0
100
AcDbVertex
100
AcDbPolyFaceMeshVertex
 10
3026.216687636122
 20
-2.000000000000002
 30
2815.111967026202
 70
   192
  0
VERTEX
  5
EC
330
73
100
AcDbEntity
  8
D01 金物
370
     0
100
AcDbVertex
100
AcDbPolyFaceMeshVertex
 10
3026.813787055865
 20
5042.999999999999
 30
2825.177526736568
 70
   192
  0
VERTEX
  5
ED
330
73
100
AcDbEntity
  8
D01 金物
370
     0
100
AcDbVertex
100
AcDbPolyFaceMeshVertex
 10
3026.813787055865
 20
5053.999999999999
 30
2825.177526736568
 70
   192
  0
VERTEX
  5
EE
330
73
100
AcDbEntity
  8
D01 金物
370
     0
100
AcDbVertex
100
AcDbPolyFaceMeshVertex
 10
3026.913024994859
 20
5053.999999999999
 30
2827.19897469075
 70
   192
  0
VERTEX
  5
EF
330
73
100
AcDbEntity
  8
D01 金物
370
     0
100
AcDbVertex
100
AcDbPolyFaceMeshVertex
 10
3026.913024994859
 20
5042.999999999999
 30
2827.19897469075
 70
   192
  0
VERTEX
  5
F0
330
73
100
AcDbEntity
  8
D01 金物
370
     0
100
AcDbVertex
100
AcDbPolyFaceMeshVertex
 10
3027.317489081678
 20
5053.999999999999
 30
2837.164851762161
 70
   192
  0
VERTEX
  5
F1
330
73
100
AcDbEntity
  8
D01 金物
370
     0
100
AcDbVertex
100
AcDbPolyFaceMeshVertex
 10
3027.317489081678
 20
5042.999999999999
 30
2837.164851762161
 70
   192
  0
VERTEX
  5
F2
330
73
100
AcDbEntity
  8
D01 金物
370
     0
100
AcDbVertex
100
AcDbPolyFaceMeshVertex
 10
3025.820051349472
 20
5053.999999999999
 30
2848.225919442912
 70
   192
  0
VERTEX
  5
F3
330
73
100
AcDbEntity
  8
D01 金物
370
     0
100
AcDbVertex
100
AcDbPolyFaceMeshVertex
 10
3025.820051349472
 20
5042.999999999999
 30
2848.225919442912
 70
   192
  0
VERTEX
  5
F4
330
73
100
AcDbEntity
  8
D01 金物
370
     0
100
AcDbVertex
100
AcDbPolyFaceMeshVertex
 10
3025.514309958996
 20
5053.999999999999
 30
2850.206811969565
 70
   192
  0
VERTEX
  5
F5
330
73
100
AcDbEntity
  8
D01 金物
370
     0
100
AcDbVertex
100
AcDbPolyFaceMeshVertex
 10
3025.514309958996
 20
5042.999999999999
 30
2850.206811969565
 70
   192
  0
VERTEX
  5
F6
330
73
100
AcDbEntity
  8
D01 金物
370
     0
100
AcDbVertex
100
AcDbPolyFaceMeshVertex
 10
3023.641171988229
 20
5053.999999999999
 30
2859.312896701351
 70
   192
  0
VERTEX
  5
F7
330
73
100
AcDbEntity
  8
D01 金物
370
     0
100
AcDbVertex
100
AcDbPolyFaceMeshVertex
 10
3023.641171988229
 20
5042.999999999999
 30
2859.312896701351
 70
   192
  0
VERTEX
  5
F8
330
73
100
AcDbEntity
  8
D01 金物
370
     0
100
AcDbVertex
100
AcDbPolyFaceMeshVertex
 10
3023.614860191467
 20
5053.999999999999
 30
2859.419731570898
 70
   192
  0
VERTEX
  5
F9
330
73
100
AcDbEntity
  8
D01 金物
370
     0
100
AcDbVertex
100
AcDbPolyFaceMeshVertex
 10
3023.614860191467
 20
5042.999999999999
 30
2859.419731570898
 70
   192
  0
VERTEX
  5
FA
330
73
100
AcDbEntity
  8
D01 金物
370
     0
100
AcDbVertex
100
AcDbPolyFaceMeshVertex
 10
3023.587344809431
 20
5053.999999999999
 30
2859.528450951652
 70
   192
  0
VERTEX
  5
FB
330
73
100
AcDbEntity
  8
D01 金物
370
     0
100
AcDbVertex
100
AcDbPolyFaceMeshVertex
 10
3023.587344809431
 20
5042.999999999999
 30
2859.528450951652
 70
   192
  0
VERTEX
  5
FC
330
73
100
AcDbEntity
  8
D01 金物
370
     0
100
AcDbVertex
100
AcDbPolyFaceMeshVertex
 10
3019.240291169342
 20
5053.999999999999
 30
2859.071542153111
 70
   192
  0
VERTEX
  5
FD
330
73
100
AcDbEntity
  8
D01 金物
370
     0
100
AcDbVertex
100
AcDbPolyFaceMeshVertex
 10
3019.240291169342
 20
5042.999999999999
 30
2859.071542153111
 70
   192
  0
VERTEX
  5
FE
330
73
100
AcDbEntity
  8
D01 金物
370
     0
100
AcDbVertex
100
AcDbPolyFaceMeshVertex
 10
3020.181182520445
 20
5053.999999999999
 30
2850.119853794738
 70
   192
  0
VERTEX
  5
FF
330
73
100
AcDbEntity
  8
D01 金物
370
     0
100
AcDbVertex
100
AcDbPolyFaceMeshVertex
 10
3020.181182520445
 20
5042.999999999999
 30
2850.119853794738
 70
   192
  0
VERTEX
  5
100
330
73
100
AcDbEntity
  8
D01 金物
370
     0
100
AcDbVertex
100
AcDbPolyFaceMeshVertex
 10
2980.897581792113
 20
5053.999999999999
 30
2845.990844976989
 70
   192
  0
VERTEX
  5
101
330
73
100
AcDbEntity
  8
D01 金物
370
     0
100
AcDbVertex
100
AcDbPolyFaceMeshVertex
 10
2980.897581792113
 20
5042.999999999999
 30
2845.990844976989
 70
   192
  0
VERTEX
  5
102
330
73
100
AcDbEntity
  8
D01 金物
370
     0
100
AcDbVertex
100
AcDbPolyFaceMeshVertex
 10
2987.587516863686
 20
5053.999999999999
 30
2782.342461103256
 70
   192
  0
VERTEX
  5
103
330
73
100
AcDbEntity
  8
D01 金物
370
     0
100
AcDbVertex
100
AcDbPolyFaceMeshVertex
 10
2987.587516863686
 20
5042.999999999999
 30
2782.342461103256
 70
   192
  0
VERTEX
  5
104
330
73
100
AcDbEntity
  8
D01 金物
370
     0
100
AcDbVertex
100
AcDbPolyFaceMeshVertex
 10
3017.151658606752
 20
5053.999999999999
 30
2785.449879967186
 70
   192
  0
VERTEX
  5
105
330
73
100
AcDbEntity
  8
D01 金物
370
     0
100
AcDbVertex
100
AcDbPolyFaceMeshVertex
 10
3017.151658606752
 20
5042.999999999999
 30
2785.449879967186
 70
   192
  0
VERTEX
  5
106
330
73
100
AcDbEntity
  8
D01 金物
370
     0
100
AcDbVertex
100
AcDbPolyFaceMeshVertex
 10
3017.635838566089
 20
5053.999999999999
 30
2786.554544064084
 70
   192
  0
VERTEX
  5
107
330
73
100
AcDbEntity
  8
D01 金物
370
     0
100
AcDbVertex
100
AcDbPolyFaceMeshVertex
 10
3017.635838566089
 20
5042.999999999999
 30
2786.554544064084
 70
   192
  0
VERTEX
  5
108
330
73
100
AcDbEntity
  8
D01 金物
370
     0
100
AcDbVertex
100
AcDbPolyFaceMeshVertex
 10
3021.595744083754
 20
5053.999999999999
 30
2795.707625200574
 70
   192
  0
VERTEX
  5
109
330
73
100
AcDbEntity
  8
D01 金物
370
     0
100
AcDbVertex
100
AcDbPolyFaceMeshVertex
 10
3021.595744083754
 20
5042.999999999999
 30
2795.707625200574
 70
   192
  0
VERTEX
  5
10A
330
73
100
AcDbEntity
  8
D01 金物
370
     0
100
AcDbVertex
100
AcDbPolyFaceMeshVertex
 10
3026.216687636122
 20
5053.999999999999
 30
2815.111967026202
 70
   192
  0
VERTEX
  5
10B
330
73
100
AcDbEntity
  8
D01 金物
370
     0
100
AcDbVertex
100
AcDbPolyFaceMeshVertex
 10
3026.216687636122
 20
5042.999999999999
 30
2815.111967026202
 70
   192
  0
VERTEX
  5
10C
330
73
100
AcDbEntity
  8
D01 金物
370
     0
100
AcDbVertex
100
AcDbPolyFaceMeshVertex
 10
81.24307392463405
 20
5043.0
 30
2482.275941900237
 70
   192
  0
VERTEX
  5
10D
330
73
100
AcDbEntity
  8
D01 金物
370
     0
100
AcDbVertex
100
AcDbPolyFaceMeshVertex
 10
76.16282510077058
 20
5043.0
 30
2530.609688619146
 70
   192
  0
VERTEX
  5
10E
330
73
100
AcDbEntity
  8
D01 金物
370
     0
100
AcDbVertex
100
AcDbPolyFaceMeshVertex
 10
76.16282510077055
 20
9.000000000000341
 30
2530.609688619146
 70
   192
  0
VERTEX
  5
10F
330
73
100
AcDbEntity
  8
D01 金物
370
     0
100
AcDbVertex
100
AcDbPolyFaceMeshVertex
 10
81.24307392463402
 20
9.000000000000341
 30
2482.275941900237
 70
   192
  0
VERTEX
  5
110
330
73
100
AcDbEntity
  8
D01 金物
370
     0
100
AcDbVertex
100
AcDbPolyFaceMeshVertex
 10
72.18473895106614
 20
5043.0
 30
2530.191561143931
 70
   192
  0
VERTEX
  5
111
330
73
100
AcDbEntity
  8
D01 金物
370
     0
100
AcDbVertex
100
AcDbPolyFaceMeshVertex
 10
72.18473895106611
 20
9.000000000000341
 30
2530.191561143931
 70
   192
  0
VERTEX
  5
112
330
73
100
AcDbEntity
  8
D01 金物
370
     0
100
AcDbVertex
100
AcDbPolyFaceMeshVertex
 10
72.28927081986991
 20
5043.0
 30
2529.197039606505
 70
   192
  0
VERTEX
  5
113
330
73
100
AcDbEntity
  8
D01 金物
370
     0
100
AcDbVertex
100
AcDbPolyFaceMeshVertex
 10
72.28927081986988
 20
9.000000000000341
 30
2529.197039606505
 70
   192
  0
VERTEX
  5
114
330
73
100
AcDbEntity
  8
D01 金物
370
     0
100
AcDbVertex
100
AcDbPolyFaceMeshVertex
 10
75.27283543214823
 20
5043.0
 30
2529.510635212916
 70
   192
  0
VERTEX
  5
115
330
73
100
AcDbEntity
  8
D01 金物
370
     0
100
AcDbVertex
100
AcDbPolyFaceMeshVertex
 10
75.2728354321482
 20
9.000000000000341
 30
2529.510635212916
 70
   192
  0
VERTEX
  5
116
330
73
100
AcDbEntity
  8
D01 金物
370
     0
100
AcDbVertex
100
AcDbPolyFaceMeshVertex
 10
75.69096290736334
 20
5043.0
 30
2525.532549063211
 70
   192
  0
VERTEX
  5
117
330
73
100
AcDbEntity
  8
D01 金物
370
     0
100
AcDbVertex
100
AcDbPolyFaceMeshVertex
 10
75.69096290736331
 20
9.000000000000341
 30
2525.532549063212
 70
   192
  0
VERTEX
  5
118
330
73
100
AcDbEntity
  8
D01 金物
370
     0
100
AcDbVertex
100
AcDbPolyFaceMeshVertex
 10
65.2484867643892
 20
5043.0
 30
2524.434964440772
 70
   192
  0
VERTEX
  5
119
330
73
100
AcDbEntity
  8
D01 金物
370
     0
100
AcDbVertex
100
AcDbPolyFaceMeshVertex
 10
65.24848676438917
 20
9.000000000000341
 30
2524.434964440773
 70
   192
  0
VERTEX
  5
11A
330
73
100
AcDbEntity
  8
D01 金物
370
     0
100
AcDbVertex
100
AcDbPolyFaceMeshVertex
 10
64.02827825340222
 20
5043.0
 30
2521.694399683333
 70
   192
  0
VERTEX
  5
11B
330
73
100
AcDbEntity
  8
D01 金物
370
     0
100
AcDbVertex
100
AcDbPolyFaceMeshVertex
 10
64.02827825340219
 20
9.000000000000341
 30
2521.694399683334
 70
   192
  0
VERTEX
  5
11C
330
73
100
AcDbEntity
  8
D01 金物
370
     0
100
AcDbVertex
100
AcDbPolyFaceMeshVertex
 10
64.697491277484
 20
5043.0
 30
2515.327472800731
 70
   192
  0
VERTEX
  5
11D
330
73
100
AcDbEntity
  8
D01 金物
370
     0
100
AcDbVertex
100
AcDbPolyFaceMeshVertex
 10
64.69749127748398
 20
9.000000000000341
 30
2515.327472800731
 70
   192
  0
VERTEX
  5
11E
330
73
100
AcDbEntity
  8
D01 金物
370
     0
100
AcDbVertex
100
AcDbPolyFaceMeshVertex
 10
59.04960346644113
 20
5043.0
 30
2514.733836317795
 70
   192
  0
VERTEX
  5
11F
330
73
100
AcDbEntity
  8
D01 金物
370
     0
100
AcDbVertex
100
AcDbPolyFaceMeshVertex
 10
59.0496034664411
 20
9.000000000000341
 30
2514.733836317795
 70
   192
  0
VERTEX
  5
120
330
73
100
AcDbEntity
  8
D01 金物
370
     0
100
AcDbVertex
100
AcDbPolyFaceMeshVertex
 10
41.83301365437165
 20
5043.0
 30
2522.399148134215
 70
   192
  0
VERTEX
  5
121
330
73
100
AcDbEntity
  8
D01 金物
370
     0
100
AcDbVertex
100
AcDbPolyFaceMeshVertex
 10
41.83301365437161
 20
9.000000000000341
 30
2522.399148134215
 70
   192
  0
VERTEX
  5
122
330
73
100
AcDbEntity
  8
D01 金物
370
     0
100
AcDbVertex
100
AcDbPolyFaceMeshVertex
 10
41.3221664115276
 20
5043.0
 30
2527.259374887616
 70
   192
  0
VERTEX
  5
123
330
73
100
AcDbEntity
  8
D01 金物
370
     0
100
AcDbVertex
100
AcDbPolyFaceMeshVertex
 10
41.32216641152757
 20
9.000000000000341
 30
2527.259374887617
 70
   192
  0
VERTEX
  5
124
330
73
100
AcDbEntity
  8
D01 金物
370
     0
100
AcDbVertex
100
AcDbPolyFaceMeshVertex
 10
56.20389868157196
 20
5043.0
 30
2529.333352380917
 70
   192
  0
VERTEX
  5
125
330
73
100
AcDbEntity
  8
D01 金物
370
     0
100
AcDbVertex
100
AcDbPolyFaceMeshVertex
 10
56.20389868157192
 20
9.000000000000341
 30
2529.333352380917
 70
   192
  0
VERTEX
  5
126
330
73
100
AcDbEntity
  8
D01 金物
370
     0
100
AcDbVertex
100
AcDbPolyFaceMeshVertex
 10
56.06644013259674
 20
5043.0
 30
2530.306313915262
 70
   192
  0
VERTEX
  5
127
330
73
100
AcDbEntity
  8
D01 金物
370
     0
100
AcDbVertex
100
AcDbPolyFaceMeshVertex
 10
56.0664401325967
 20
9.000000000000341
 30
2530.306313915262
 70
   192
  0
VERTEX
  5
128
330
73
100
AcDbEntity
  8
D01 金物
370
     0
100
AcDbVertex
100
AcDbPolyFaceMeshVertex
 10
40.02953982312148
 20
5043.0
 30
2528.077737584068
 70
   192
  0
VERTEX
  5
129
330
73
100
AcDbEntity
  8
D01 金物
370
     0
100
AcDbVertex
100
AcDbPolyFaceMeshVertex
 10
40.02953982312145
 20
9.000000000000341
 30
2528.077737584069
 70
   192
  0
VERTEX
  5
12A
330
73
100
AcDbEntity
  8
D01 金物
370
     0
100
AcDbVertex
100
AcDbPolyFaceMeshVertex
 10
40.71202839454133
 20
5043.0
 30
2521.584506466213
 70
   192
  0
VERTEX
  5
12B
330
73
100
AcDbEntity
  8
D01 金物
370
     0
100
AcDbVertex
100
AcDbPolyFaceMeshVertex
 10
40.7120283945413
 20
9.000000000000341
 30
2521.584506466214
 70
   192
  0
VERTEX
  5
12C
330
73
100
AcDbEntity
  8
D01 金物
370
     0
100
AcDbVertex
100
AcDbPolyFaceMeshVertex
 10
58.8558002954919
 20
5043.0
 30
2513.506855742997
 70
   192
  0
VERTEX
  5
12D
330
73
100
AcDbEntity
  8
D01 金物
370
     0
100
AcDbVertex
100
AcDbPolyFaceMeshVertex
 10
58.85580029549186
 20
9.000000000000341
 30
2513.506855742998
 70
   192
  0
VERTEX
  5
12E
330
73
100
AcDbEntity
  8
D01 金物
370
     0
100
AcDbVertex
100
AcDbPolyFaceMeshVertex
 10
64.82292952004853
 20
5043.0
 30
2514.13404695582
 70
   192
  0
VERTEX
  5
12F
330
73
100
AcDbEntity
  8
D01 金物
370
     0
100
AcDbVertex
100
AcDbPolyFaceMeshVertex
 10
64.8229295200485
 20
9.000000000000341
 30
2514.13404695582
 70
   192
  0
VERTEX
  5
130
330
73
100
AcDbEntity
  8
D01 金物
370
     0
100
AcDbVertex
100
AcDbPolyFaceMeshVertex
 10
68.33520031185539
 20
5043.0
 30
2480.718123298303
 70
   192
  0
VERTEX
  5
131
330
73
100
AcDbEntity
  8
D01 金物
370
     0
100
AcDbVertex
100
AcDbPolyFaceMeshVertex
 10
68.33520031185536
 20
9.000000000000341
 30
2480.718123298303
 70
   192
  0
VERTEX
  5
132
330
73
100
AcDbEntity
  8
D01 金物
370
     0
100
AcDbVertex
100
AcDbPolyFaceMeshVertex
 10
34.7153997391658
 20
5043.0
 30
2477.184423473391
 70
   192
  0
VERTEX
  5
133
330
73
100
AcDbEntity
  8
D01 金物
370
     0
100
AcDbVertex
100
AcDbPolyFaceMeshVertex
 10
34.71539973916576
 20
9.000000000000341
 30
2477.184423473391
 70
   192
  0
VERTEX
  5
134
330
73
100
AcDbEntity
  8
D01 金物
370
     0
100
AcDbVertex
100
AcDbPolyFaceMeshVertex
 10
20.35397406036436
 20
5043.0
 30
2480.367635918746
 70
   192
  0
VERTEX
  5
135
330
73
100
AcDbEntity
  8
D01 金物
370
     0
100
AcDbVertex
100
AcDbPolyFaceMeshVertex
 10
20.35397406036433
 20
9.000000000000341
 30
2480.367635918746
 70
   192
  0
VERTEX
  5
136
330
73
100
AcDbEntity
  8
D01 金物
370
     0
100
AcDbVertex
100
AcDbPolyFaceMeshVertex
 10
13.66477443336159
 20
5043.0
 30
2485.481417039415
 70
   192
  0
VERTEX
  5
137
330
73
100
AcDbEntity
  8
D01 金物
370
     0
100
AcDbVertex
100
AcDbPolyFaceMeshVertex
 10
13.66477443336156
 20
9.000000000000341
 30
2485.481417039415
 70
   192
  0
VERTEX
  5
138
330
73
100
AcDbEntity
  8
D01 金物
370
     0
100
AcDbVertex
100
AcDbPolyFaceMeshVertex
 10
9.96964290622874
 20
5043.0
 30
2492.157733987942
 70
   192
  0
VERTEX
  5
139
330
73
100
AcDbEntity
  8
D01 金物
370
     0
100
AcDbVertex
100
AcDbPolyFaceMeshVertex
 10
9.969642906228707
 20
9.000000000000341
 30
2492.157733987942
 70
   192
  0
VERTEX
  5
13A
330
73
100
AcDbEntity
  8
D01 金物
370
     0
100
AcDbVertex
100
AcDbPolyFaceMeshVertex
 10
3.662248537242085
 20
5043.0
 30
2510.676866642418
 70
   192
  0
VERTEX
  5
13B
330
73
100
AcDbEntity
  8
D01 金物
370
     0
100
AcDbVertex
100
AcDbPolyFaceMeshVertex
 10
3.662248537242053
 20
9.000000000000341
 30
2510.676866642418
 70
   192
  0
VERTEX
  5
13C
330
73
100
AcDbEntity
  8
D01 金物
370
     0
100
AcDbVertex
100
AcDbPolyFaceMeshVertex
 10
0.6669441879621034
 20
5043.0
 30
2530.00967595341
 70
   192
  0
VERTEX
  5
13D
330
73
100
AcDbEntity
  8
D01 金物
370
     0
100
AcDbVertex
100
AcDbPolyFaceMeshVertex
 10
0.6669441879620712
 20
9.000000000000341
 30
2530.00967595341
 70
   192
  0
VERTEX
  5
13E
330
73
100
AcDbEntity
  8
D01 金物
370
     0
100
AcDbVertex
100
AcDbPolyFaceMeshVertex
 10
0.8707512845684462
 20
5043.0
 30
2539.789559013414
 70
   192
  0
VERTEX
  5
13F
330
73
100
AcDbEntity
  8
D01 金物
370
     0
100
AcDbVertex
100
AcDbPolyFaceMeshVertex
 10
0.870751284568414
 20
9.000000000000341
 30
2539.789559013415
 70
   192
  0
VERTEX
  5
140
330
73
100
AcDbEntity
  8
D01 金物
370
     0
100
AcDbVertex
100
AcDbPolyFaceMeshVertex
 10
2.28297186771352
 20
5043.0
 30
2539.937994267116
 70
   192
  0
VERTEX
  5
141
330
73
100
AcDbEntity
  8
D01 金物
370
     0
100
AcDbVertex
100
AcDbPolyFaceMeshVertex
 10
2.282971867713488
 20
9.000000000000341
 30
2539.937994267116
 70
   192
  0
VERTEX
  5
142
330
73
100
AcDbEntity
  8
D01 金物
370
     0
100
AcDbVertex
100
AcDbPolyFaceMeshVertex
 10
2.178439998909744
 20
5043.0
 30
2540.932515804542
 70
   192
  0
VERTEX
  5
143
330
73
100
AcDbEntity
  8
D01 金物
370
     0
100
AcDbVertex
100
AcDbPolyFaceMeshVertex
 10
2.178439998909712
 20
9.000000000000341
 30
2540.932515804542
 70
   192
  0
VERTEX
  5
144
330
73
100
AcDbEntity
  8
D01 金物
370
     0
100
AcDbVertex
100
AcDbPolyFaceMeshVertex
 10
-0.3083357068489335
 20
5043.0
 30
2540.666108992977
 70
   192
  0
VERTEX
  5
145
330
73
100
AcDbEntity
  8
D01 金物
370
     0
100
AcDbVertex
100
AcDbPolyFaceMeshVertex
 10
-0.3083357068489657
 20
9.000000000000341
 30
2540.666108992977
 70
   192
  0
VERTEX
  5
146
330
73
100
AcDbEntity
  8
D01 金物
370
     0
100
AcDbVertex
100
AcDbPolyFaceMeshVertex
 10
-0.5889447134125968
 20
5043.0
 30
2530.784641157405
 70
   192
  0
VERTEX
  5
147
330
73
100
AcDbEntity
  8
D01 金物
370
     0
100
AcDbVertex
100
AcDbPolyFaceMeshVertex
 10
-0.588944713412629
 20
9.000000000000341
 30
2530.784641157406
 70
   192
  0
VERTEX
  5
148
330
73
100
AcDbEntity
  8
D01 金物
370
     0
100
AcDbVertex
100
AcDbPolyFaceMeshVertex
 10
2.290700025826772
 20
5043.0
 30
2511.222485264565
 70
   192
  0
VERTEX
  5
149
330
73
100
AcDbEntity
  8
D01 金物
370
     0
100
AcDbVertex
100
AcDbPolyFaceMeshVertex
 10
2.29070002582674
 20
9.000000000000341
 30
2511.222485264565
 70
   192
  0
VERTEX
  5
14A
330
73
100
AcDbEntity
  8
D01 金物
370
     0
100
AcDbVertex
100
AcDbPolyFaceMeshVertex
 10
8.524306283645934
 20
5043.0
 30
2492.458296872246
 70
   192
  0
VERTEX
  5
14B
330
73
100
AcDbEntity
  8
D01 金物
370
     0
100
AcDbVertex
100
AcDbPolyFaceMeshVertex
 10
8.5243062836459
 20
9.000000000000341
 30
2492.458296872246
 70
   192
  0
VERTEX
  5
14C
330
73
100
AcDbEntity
  8
D01 金物
370
     0
100
AcDbVertex
100
AcDbPolyFaceMeshVertex
 10
17.42478843421759
 20
5043.0
 30
2476.618905391278
 70
   192
  0
VERTEX
  5
14D
330
73
100
AcDbEntity
  8
D01 金物
370
     0
100
AcDbVertex
100
AcDbPolyFaceMeshVertex
 10
17.42478843421756
 20
9.000000000000341
 30
2476.618905391278
 70
   192
  0
VERTEX
  5
14E
330
73
100
AcDbEntity
  8
D01 金物
370
     0
100
AcDbVertex
100
AcDbPolyFaceMeshVertex
 10
19.71590425087033
 20
5043.0
 30
2474.135796389505
 70
   192
  0
VERTEX
  5
14F
330
73
100
AcDbEntity
  8
D01 金物
370
     0
100
AcDbVertex
100
AcDbPolyFaceMeshVertex
 10
19.7159042508703
 20
9.000000000000341
 30
2474.135796389505
 70
   192
  0
VERTEX
  5
150
330
73
100
AcDbEntity
  8
D01 金物
370
     0
100
AcDbVertex
100
AcDbPolyFaceMeshVertex
 10
20.7299198751069
 20
5043.0
 30
2475.068905340166
 70
   192
  0
VERTEX
  5
151
330
73
100
AcDbEntity
  8
D01 金物
370
     0
100
AcDbVertex
100
AcDbPolyFaceMeshVertex
 10
20.72991987510688
 20
9.000000000000341
 30
2475.068905340167
 70
   192
  0
VERTEX
  5
152
330
73
100
AcDbEntity
  8
D01 金物
370
     0
100
AcDbVertex
100
AcDbPolyFaceMeshVertex
 10
18.60449244920391
 20
5043.0
 30
2477.372349773449
 70
   192
  0
VERTEX
  5
153
330
73
100
AcDbEntity
  8
D01 金物
370
     0
100
AcDbVertex
100
AcDbPolyFaceMeshVertex
 10
18.60449244920388
 20
9.000000000000341
 30
2477.372349773449
 70
   192
  0
VERTEX
  5
154
330
73
100
AcDbEntity
  8
D01 金物
370
     0
100
AcDbVertex
100
AcDbPolyFaceMeshVertex
 10
17.66627526630745
 20
5043.0
 30
2478.865456105133
 70
   192
  0
VERTEX
  5
155
330
73
100
AcDbEntity
  8
D01 金物
370
     0
100
AcDbVertex
100
AcDbPolyFaceMeshVertex
 10
17.66627526630742
 20
9.000000000000341
 30
2478.865456105134
 70
   192
  0
VERTEX
  5
156
330
73
100
AcDbEntity
  8
D01 金物
370
     0
100
AcDbVertex
100
AcDbPolyFaceMeshVertex
 10
18.20070188279397
 20
5043.0
 30
2479.616434927465
 70
   192
  0
VERTEX
  5
157
330
73
100
AcDbEntity
  8
D01 金物
370
     0
100
AcDbVertex
100
AcDbPolyFaceMeshVertex
 10
18.20070188279394
 20
9.000000000000341
 30
2479.616434927465
 70
   192
  0
VERTEX
  5
158
330
73
100
AcDbEntity
  8
D01 金物
370
     0
100
AcDbVertex
100
AcDbPolyFaceMeshVertex
 10
34.69563783726611
 20
5043.0
 30
2475.975735975635
 70
   192
  0
VERTEX
  5
159
330
73
100
AcDbEntity
  8
D01 金物
370
     0
100
AcDbVertex
100
AcDbPolyFaceMeshVertex
 10
34.69563783726608
 20
9.000000000000341
 30
2475.975735975635
 70
   192
  0
VERTEX
  5
15A
330
73
100
AcDbEntity
  8
D01 金物
370
     0
100
AcDbVertex
100
AcDbPolyFaceMeshVertex
 10
95.31272006492483
 20
5043.0
 30
2482.347057911094
 70
   192
  0
VERTEX
  5
15B
330
73
100
AcDbEntity
  8
D01 金物
370
     0
100
AcDbVertex
100
AcDbPolyFaceMeshVertex
 10
95.3127200649248
 20
9.000000000000341
 30
2482.347057911094
 70
   192
  0
VERTEX
  5
15C
330
73
100
AcDbEntity
  8
D01 金物
370
     0
100
AcDbVertex
100
AcDbPolyFaceMeshVertex
 10
95.16637544859954
 20
5043.0
 30
2483.73938806349
 70
   192
  0
VERTEX
  5
15D
330
73
100
AcDbEntity
  8
D01 金物
370
     0
100
AcDbVertex
100
AcDbPolyFaceMeshVertex
 10
95.16637544859951
 20
9.000000000000341
 30
2483.73938806349
 70
   192
  0
VERTEX
  5
15E
330
73
100
AcDbEntity
  8
D01 金物
370
     0
100
AcDbVertex
100
AcDbPolyFaceMeshVertex
 10
4.026568776987451
 20
9.000000000000002
 30
2532.915784798725
 70
   192
  0
VERTEX
  5
15F
330
73
100
AcDbEntity
  8
D01 金物
370
     0
100
AcDbVertex
100
AcDbPolyFaceMeshVertex
 10
3.085781957753472
 20
9.000000000000002
 30
2541.86647863556
 70
   192
  0
VERTEX
  5
160
330
73
100
AcDbEntity
  8
D01 金物
370
     0
100
AcDbVertex
100
AcDbPolyFaceMeshVertex
 10
3.085781957753472
 20
-1.999999999999998
 30
2541.86647863556
 70
   192
  0
VERTEX
  5
161
330
73
100
AcDbEntity
  8
D01 金物
370
     0
100
AcDbVertex
100
AcDbPolyFaceMeshVertex
 10
4.026568776987451
 20
-1.999999999999998
 30
2532.915784798725
 70
   192
  0
VERTEX
  5
162
330
73
100
AcDbEntity
  8
D01 金物
370
     0
100
AcDbVertex
100
AcDbPolyFaceMeshVertex
 10
-1.262266203873474
 20
9.000000000000002
 30
2541.40946530515
 70
   192
  0
VERTEX
  5
163
330
73
100
AcDbEntity
  8
D01 金物
370
     0
100
AcDbVertex
100
AcDbPolyFaceMeshVertex
 10
-1.262266203873474
 20
-1.999999999999998
 30
2541.40946530515
 70
   192
  0
VERTEX
  5
164
330
73
100
AcDbEntity
  8
D01 金物
370
     0
100
AcDbVertex
100
AcDbPolyFaceMeshVertex
 10
-1.270099360396852
 20
9.000000000000002
 30
2541.187430078983
 70
   192
  0
VERTEX
  5
165
330
73
100
AcDbEntity
  8
D01 金物
370
     0
100
AcDbVertex
100
AcDbPolyFaceMeshVertex
 10
-1.270099360396852
 20
-1.999999999999998
 30
2541.187430078983
 70
   192
  0
VERTEX
  5
166
330
73
100
AcDbEntity
  8
D01 金物
370
     0
100
AcDbVertex
100
AcDbPolyFaceMeshVertex
 10
-1.207985109282082
 20
9.000000000000002
 30
2531.890992814105
 70
   192
  0
VERTEX
  5
167
330
73
100
AcDbEntity
  8
D01 金物
370
     0
100
AcDbVertex
100
AcDbPolyFaceMeshVertex
 10
-1.207985109282082
 20
-1.999999999999998
 30
2531.890992814105
 70
   192
  0
VERTEX
  5
168
330
73
100
AcDbEntity
  8
D01 金物
370
     0
100
AcDbVertex
100
AcDbPolyFaceMeshVertex
 10
-1.095076365198452
 20
9.000000000000002
 30
2529.888826583367
 70
   192
  0
VERTEX
  5
169
330
73
100
AcDbEntity
  8
D01 金物
370
     0
100
AcDbVertex
100
AcDbPolyFaceMeshVertex
 10
-1.095076365198452
 20
-1.999999999999998
 30
2529.888826583367
 70
   192
  0
VERTEX
  5
16A
330
73
100
AcDbEntity
  8
D01 金物
370
     0
100
AcDbVertex
100
AcDbPolyFaceMeshVertex
 10
-0.4472468213895697
 20
9.0
 30
2519.937024842869
 70
   192
  0
VERTEX
  5
16B
330
73
100
AcDbEntity
  8
D01 金物
370
     0
100
AcDbVertex
100
AcDbPolyFaceMeshVertex
 10
-0.4472468213895697
 20
-2.0
 30
2519.937024842869
 70
   192
  0
VERTEX
  5
16C
330
73
100
AcDbEntity
  8
D01 金物
370
     0
100
AcDbVertex
100
AcDbPolyFaceMeshVertex
 10
2.206625082943905
 20
9.0
 30
2509.095041633355
 70
   192
  0
VERTEX
  5
16D
330
73
100
AcDbEntity
  8
D01 金物
370
     0
100
AcDbVertex
100
AcDbPolyFaceMeshVertex
 10
2.206625082943905
 20
-2.0
 30
2509.095041633355
 70
   192
  0
VERTEX
  5
16E
330
73
100
AcDbEntity
  8
D01 金物
370
     0
100
AcDbVertex
100
AcDbPolyFaceMeshVertex
 10
2.724985018690976
 20
9.0
 30
2507.138507969701
 70
   192
  0
VERTEX
  5
16F
330
73
100
AcDbEntity
  8
D01 金物
370
     0
100
AcDbVertex
100
AcDbPolyFaceMeshVertex
 10
2.724985018690976
 20
-2.0
 30
2507.138507969701
 70
   192
  0
VERTEX
  5
170
330
73
100
AcDbEntity
  8
D01 金物
370
     0
100
AcDbVertex
100
AcDbPolyFaceMeshVertex
 10
2.85979624069923
 20
9.0
 30
2506.649923346099
 70
   192
  0
VERTEX
  5
171
330
73
100
AcDbEntity
  8
D01 金物
370
     0
100
AcDbVertex
100
AcDbPolyFaceMeshVertex
 10
2.85979624069923
 20
-2.0
 30
2506.649923346099
 70
   192
  0
VERTEX
  5
172
330
73
100
AcDbEntity
  8
D01 金物
370
     0
100
AcDbVertex
100
AcDbPolyFaceMeshVertex
 10
5.541651955255175
 20
8.999999999999998
 30
2497.04363504487
 70
   192
  0
VERTEX
  5
173
330
73
100
AcDbEntity
  8
D01 金物
370
     0
100
AcDbVertex
100
AcDbPolyFaceMeshVertex
 10
5.541651955255175
 20
-2.000000000000002
 30
2497.04363504487
 70
   192
  0
VERTEX
  5
174
330
73
100
AcDbEntity
  8
D01 金物
370
     0
100
AcDbVertex
100
AcDbPolyFaceMeshVertex
 10
6.696155970035834
 20
8.999999999999998
 30
2495.26255995385
 70
   192
  0
VERTEX
  5
175
330
73
100
AcDbEntity
  8
D01 金物
370
     0
100
AcDbVertex
100
AcDbPolyFaceMeshVertex
 10
6.696155970035834
 20
-2.000000000000002
 30
2495.26255995385
 70
   192
  0
VERTEX
  5
176
330
73
100
AcDbEntity
  8
D01 金物
370
     0
100
AcDbVertex
100
AcDbPolyFaceMeshVertex
 10
6.888544909346
 20
8.999999999999998
 30
2494.781032700176
 70
   192
  0
VERTEX
  5
177
330
73
100
AcDbEntity
  8
D01 金物
370
     0
100
AcDbVertex
100
AcDbPolyFaceMeshVertex
 10
6.888544909346
 20
-2.000000000000002
 30
2494.781032700176
 70
   192
  0
VERTEX
  5
178
330
73
100
AcDbEntity
  8
D01 金物
370
     0
100
AcDbVertex
100
AcDbPolyFaceMeshVertex
 10
7.012287503531375
 20
8.999999999999998
 30
2494.474287251335
 70
   192
  0
VERTEX
  5
179
330
73
100
AcDbEntity
  8
D01 金物
370
     0
100
AcDbVertex
100
AcDbPolyFaceMeshVertex
 10
7.012287503531375
 20
-2.000000000000002
 30
2494.474287251335
 70
   192
  0
VERTEX
  5
17A
330
73
100
AcDbEntity
  8
D01 金物
370
     0
100
AcDbVertex
100
AcDbPolyFaceMeshVertex
 10
8.207769727886602
 20
8.999999999999998
 30
2491.633691142901
 70
   192
  0
VERTEX
  5
17B
330
73
100
AcDbEntity
  8
D01 金物
370
     0
100
AcDbVertex
100
AcDbPolyFaceMeshVertex
 10
8.207769727886602
 20
-2.000000000000002
 30
2491.633691142901
 70
   192
  0
VERTEX
  5
17C
330
73
100
AcDbEntity
  8
D01 金物
370
     0
100
AcDbVertex
100
AcDbPolyFaceMeshVertex
 10
12.20291567268729
 20
8.999999999999998
 30
2482.495246588178
 70
   192
  0
VERTEX
  5
17D
330
73
100
AcDbEntity
  8
D01 金物
370
     0
100
AcDbVertex
100
AcDbPolyFaceMeshVertex
 10
12.20291567268729
 20
-2.000000000000002
 30
2482.495246588178
 70
   192
  0
VERTEX
  5
17E
330
73
100
AcDbEntity
  8
D01 金物
370
     0
100
AcDbVertex
100
AcDbPolyFaceMeshVertex
 10
19.73289314121349
 20
8.999999999999998
 30
2471.266854881283
 70
   192
  0
VERTEX
  5
17F
330
73
100
AcDbEntity
  8
D01 金物
370
     0
100
AcDbVertex
100
AcDbPolyFaceMeshVertex
 10
19.73289314121349
 20
-2.000000000000002
 30
2471.266854881283
 70
   192
  0
VERTEX
  5
180
330
73
100
AcDbEntity
  8
D01 金物
370
     0
100
AcDbVertex
100
AcDbPolyFaceMeshVertex
 10
20.43606736569443
 20
8.999999999999996
 30
2470.287996357273
 70
   192
  0
VERTEX
  5
181
330
73
100
AcDbEntity
  8
D01 金物
370
     0
100
AcDbVertex
100
AcDbPolyFaceMeshVertex
 10
20.43606736569443
 20
-2.000000000000004
 30
2470.287996357273
 70
   192
  0
VERTEX
  5
182
330
73
100
AcDbEntity
  8
D01 金物
370
     0
100
AcDbVertex
100
AcDbPolyFaceMeshVertex
 10
68.89611831985641
 20
8.999999999999996
 30
2475.381520728475
 70
   192
  0
VERTEX
  5
183
330
73
100
AcDbEntity
  8
D01 金物
370
     0
100
AcDbVertex
100
AcDbPolyFaceMeshVertex
 10
68.89611831985641
 20
-2.000000000000004
 30
2475.381520728475
 70
   192
  0
VERTEX
  5
184
330
73
100
AcDbEntity
  8
D01 金物
370
     0
100
AcDbVertex
100
AcDbPolyFaceMeshVertex
 10
62.20607871641479
 20
9.000000000000002
 30
2539.030899123746
 70
   192
  0
VERTEX
  5
185
330
73
100
AcDbEntity
  8
D01 金物
370
     0
100
AcDbVertex
100
AcDbPolyFaceMeshVertex
 10
62.20607871641479
 20
-1.999999999999998
 30
2539.030899123746
 70
   192
  0
VERTEX
  5
186
330
73
100
AcDbEntity
  8
D01 金物
370
     0
100
AcDbVertex
100
AcDbPolyFaceMeshVertex
 10
4.026568776987451
 20
5042.999999999999
 30
2532.915784798725
 70
   192
  0
VERTEX
  5
187
330
73
100
AcDbEntity
  8
D01 金物
370
     0
100
AcDbVertex
100
AcDbPolyFaceMeshVertex
 10
4.026568776987451
 20
5053.999999999999
 30
2532.915784798725
 70
   192
  0
VERTEX
  5
188
330
73
100
AcDbEntity
  8
D01 金物
370
     0
100
AcDbVertex
100
AcDbPolyFaceMeshVertex
 10
3.085781957753472
 20
5053.999999999999
 30
2541.86647863556
 70
   192
  0
VERTEX
  5
189
330
73
100
AcDbEntity
  8
D01 金物
370
     0
100
AcDbVertex
100
AcDbPolyFaceMeshVertex
 10
3.085781957753472
 20
5042.999999999999
 30
2541.86647863556
 70
   192
  0
VERTEX
  5
18A
330
73
100
AcDbEntity
  8
D01 金物
370
     0
100
AcDbVertex
100
AcDbPolyFaceMeshVertex
 10
-1.262266203873474
 20
5053.999999999999
 30
2541.40946530515
 70
   192
  0
VERTEX
  5
18B
330
73
100
AcDbEntity
  8
D01 金物
370
     0
100
AcDbVertex
100
AcDbPolyFaceMeshVertex
 10
-1.262266203873474
 20
5042.999999999999
 30
2541.40946530515
 70
   192
  0
VERTEX
  5
18C
330
73
100
AcDbEntity
  8
D01 金物
370
     0
100
AcDbVertex
100
AcDbPolyFaceMeshVertex
 10
-1.270099360396852
 20
5053.999999999999
 30
2541.187430078983
 70
   192
  0
VERTEX
  5
18D
330
73
100
AcDbEntity
  8
D01 金物
370
     0
100
AcDbVertex
100
AcDbPolyFaceMeshVertex
 10
-1.270099360396852
 20
5042.999999999999
 30
2541.187430078983
 70
   192
  0
VERTEX
  5
18E
330
73
100
AcDbEntity
  8
D01 金物
370
     0
100
AcDbVertex
100
AcDbPolyFaceMeshVertex
 10
-1.207985109282082
 20
5053.999999999999
 30
2531.890992814105
 70
   192
  0
VERTEX
  5
18F
330
73
100
AcDbEntity
  8
D01 金物
370
     0
100
AcDbVertex
100
AcDbPolyFaceMeshVertex
 10
-1.207985109282082
 20
5042.999999999999
 30
2531.890992814105
 70
   192
  0
VERTEX
  5
190
330
73
100
AcDbEntity
  8
D01 金物
370
     0
100
AcDbVertex
100
AcDbPolyFaceMeshVertex
 10
-1.095076365198452
 20
5053.999999999999
 30
2529.888826583367
 70
   192
  0
VERTEX
  5
191
330
73
100
AcDbEntity
  8
D01 金物
370
     0
100
AcDbVertex
100
AcDbPolyFaceMeshVertex
 10
-1.095076365198452
 20
5042.999999999999
 30
2529.888826583367
 70
   192
  0
VERTEX
  5
192
330
73
100
AcDbEntity
  8
D01 金物
370
     0
100
AcDbVertex
100
AcDbPolyFaceMeshVertex
 10
-0.4472468213895697
 20
5053.999999999999
 30
2519.937024842869
 70
   192
  0
VERTEX
  5
193
330
73
100
AcDbEntity
  8
D01 金物
370
     0
100
AcDbVertex
100
AcDbPolyFaceMeshVertex
 10
-0.4472468213895697
 20
5042.999999999999
 30
2519.937024842869
 70
   192
  0
VERTEX
  5
194
330
73
100
AcDbEntity
  8
D01 金物
370
     0
100
AcDbVertex
100
AcDbPolyFaceMeshVertex
 10
2.206625082943905
 20
5053.999999999999
 30
2509.095041633355
 70
   192
  0
VERTEX
  5
195
330
73
100
AcDbEntity
  8
D01 金物
370
     0
100
AcDbVertex
100
AcDbPolyFaceMeshVertex
 10
2.206625082943905
 20
5042.999999999999
 30
2509.095041633355
 70
   192
  0
VERTEX
  5
196
330
73
100
AcDbEntity
  8
D01 金物
370
     0
100
AcDbVertex
100
AcDbPolyFaceMeshVertex
 10
2.724985018690976
 20
5053.999999999999
 30
2507.138507969701
 70
   192
  0
VERTEX
  5
197
330
73
100
AcDbEntity
  8
D01 金物
370
     0
100
AcDbVertex
100
AcDbPolyFaceMeshVertex
 10
2.724985018690976
 20
5042.999999999999
 30
2507.138507969701
 70
   192
  0
VERTEX
  5
198
330
73
100
AcDbEntity
  8
D01 金物
370
     0
100
AcDbVertex
100
AcDbPolyFaceMeshVertex
 10
2.85979624069923
 20
5053.999999999999
 30
2506.649923346099
 70
   192
  0
VERTEX
  5
199
330
73
100
AcDbEntity
  8
D01 金物
370
     0
100
AcDbVertex
100
AcDbPolyFaceMeshVertex
 10
2.85979624069923
 20
5042.999999999999
 30
2506.649923346099
 70
   192
  0
VERTEX
  5
19A
330
73
100
AcDbEntity
  8
D01 金物
370
     0
100
AcDbVertex
100
AcDbPolyFaceMeshVertex
 10
5.541651955255175
 20
5053.999999999999
 30
2497.04363504487
 70
   192
  0
VERTEX
  5
19B
330
73
100
AcDbEntity
  8
D01 金物
370
     0
100
AcDbVertex
100
AcDbPolyFaceMeshVertex
 10
5.541651955255175
 20
5042.999999999999
 30
2497.04363504487
 70
   192
  0
VERTEX
  5
19C
330
73
100
AcDbEntity
  8
D01 金物
370
     0
100
AcDbVertex
100
AcDbPolyFaceMeshVertex
 10
6.696155970035834
 20
5053.999999999999
 30
2495.26255995385
 70
   192
  0
VERTEX
  5
19D
330
73
100
AcDbEntity
  8
D01 金物
370
     0
100
AcDbVertex
100
AcDbPolyFaceMeshVertex
 10
6.696155970035834
 20
5042.999999999999
 30
2495.26255995385
 70
   192
  0
VERTEX
  5
19E
330
73
100
AcDbEntity
  8
D01 金物
370
     0
100
AcDbVertex
100
AcDbPolyFaceMeshVertex
 10
6.888544909346
 20
5053.999999999999
 30
2494.781032700176
 70
   192
  0
VERTEX
  5
19F
330
73
100
AcDbEntity
  8
D01 金物
370
     0
100
AcDbVertex
100
AcDbPolyFaceMeshVertex
 10
6.888544909346
 20
5042.999999999999
 30
2494.781032700176
 70
   192
  0
VERTEX
  5
1A0
330
73
100
AcDbEntity
  8
D01 金物
370
     0
100
AcDbVertex
100
AcDbPolyFaceMeshVertex
 10
7.012287503531375
 20
5053.999999999999
 30
2494.474287251335
 70
   192
  0
VERTEX
  5
1A1
330
73
100
AcDbEntity
  8
D01 金物
370
     0
100
AcDbVertex
100
AcDbPolyFaceMeshVertex
 10
7.012287503531375
 20
5042.999999999999
 30
2494.474287251335
 70
   192
  0
VERTEX
  5
1A2
330
73
100
AcDbEntity
  8
D01 金物
370
     0
100
AcDbVertex
100
AcDbPolyFaceMeshVertex
 10
8.207769727886602
 20
5053.999999999999
 30
2491.633691142901
 70
   192
  0
VERTEX
  5
1A3
330
73
100
AcDbEntity
  8
D01 金物
370
     0
100
AcDbVertex
100
AcDbPolyFaceMeshVertex
 10
8.207769727886602
 20
5042.999999999999
 30
2491.633691142901
 70
   192
  0
VERTEX
  5
1A4
330
73
100
AcDbEntity
  8
D01 金物
370
     0
100
AcDbVertex
100
AcDbPolyFaceMeshVertex
 10
12.20291567268729
 20
5053.999999999999
 30
2482.495246588178
 70
   192
  0
VERTEX
  5
1A5
330
73
100
AcDbEntity
  8
D01 金物
370
     0
100
AcDbVertex
100
AcDbPolyFaceMeshVertex
 10
12.20291567268729
 20
5042.999999999999
 30
2482.495246588178
 70
   192
  0
VERTEX
  5
1A6
330
73
100
AcDbEntity
  8
D01 金物
370
     0
100
AcDbVertex
100
AcDbPolyFaceMeshVertex
 10
19.73289314121349
 20
5053.999999999999
 30
2471.266854881283
 70
   192
  0
VERTEX
  5
1A7
330
73
100
AcDbEntity
  8
D01 金物
370
     0
100
AcDbVertex
100
AcDbPolyFaceMeshVertex
 10
19.73289314121349
 20
5042.999999999999
 30
2471.266854881283
 70
   192
  0
VERTEX
  5
1A8
330
73
100
AcDbEntity
  8
D01 金物
370
     0
100
AcDbVertex
100
AcDbPolyFaceMeshVertex
 10
20.43606736569443
 20
5053.999999999999
 30
2470.287996357273
 70
   192
  0
VERTEX
  5
1A9
330
73
100
AcDbEntity
  8
D01 金物
370
     0
100
AcDbVertex
100
AcDbPolyFaceMeshVertex
 10
20.43606736569443
 20
5042.999999999999
 30
2470.287996357273
 70
   192
  0
VERTEX
  5
1AA
330
73
100
AcDbEntity
  8
D01 金物
370
     0
100
AcDbVertex
100
AcDbPolyFaceMeshVertex
 10
68.89611831985641
 20
5053.999999999999
 30
2475.381520728475
 70
   192
  0
VERTEX
  5
1AB
330
73
100
AcDbEntity
  8
D01 金物
370
     0
100
AcDbVertex
100
AcDbPolyFaceMeshVertex
 10
68.89611831985641
 20
5042.999999999999
 30
2475.381520728475
 70
   192
  0
VERTEX
  5
1AC
330
73
100
AcDbEntity
  8
D01 金物
370
     0
100
AcDbVertex
100
AcDbPolyFaceMeshVertex
 10
62.20607871641479
 20
5053.999999999999
 30
2539.030899123746
 70
   192
  0
VERTEX
  5
1AD
330
73
100
AcDbEntity
  8
D01 金物
370
     0
100
AcDbVertex
100
AcDbPolyFaceMeshVertex
 10
62.20607871641479
 20
5042.999999999999
 30
2539.030899123746
 70
   192
  0
VERTEX
  5
1AE
330
73
100
AcDbEntity
  8
D01 金物
 62
   250
420
  3947580
370
     0
100
AcDbFaceRecord
 10
0.0
 20
0.0
 30
0.0
 70
   128
 71
     1
 72
     2
 73
     3
 74
     4
  0
VERTEX
  5
1AF
330
73
100
AcDbEntity
  8
D01 金物
 62
   250
420
  3947580
370
     0
100
AcDbFaceRecord
 10
0.0
 20
0.0
 30
0.0
 70
   128
 71
     2
 72
     5
 73
     6
 74
     3
  0
VERTEX
  5
1B0
330
73
100
AcDbEntity
  8
D01 金物
 62
   250
420
  3947580
370
     0
100
AcDbFaceRecord
 10
0.0
 20
0.0
 30
0.0
 70
   128
 71
     5
 72
     7
 73
     8
 74
     6
  0
VERTEX
  5
1B1
330
73
100
AcDbEntity
  8
D01 金物
 62
   250
420
  3947580
370
     0
100
AcDbFaceRecord
 10
0.0
 20
0.0
 30
0.0
 70
   128
 71
     7
 72
     9
 73
    10
 74
     8
  0
VERTEX
  5
1B2
330
73
100
AcDbEntity
  8
D01 金物
 62
   250
420
  3947580
370
     0
100
AcDbFaceRecord
 10
0.0
 20
0.0
 30
0.0
 70
   128
 71
     9
 72
    11
 73
    12
 74
    10
  0
VERTEX
  5
1B3
330
73
100
AcDbEntity
  8
D01 金物
 62
   250
420
  3947580
370
     0
100
AcDbFaceRecord
 10
0.0
 20
0.0
 30
0.0
 70
   128
 71
    11
 72
    13
 73
    14
 74
    12
  0
VERTEX
  5
1B4
330
73
100
AcDbEntity
  8
D01 金物
 62
   250
420
  3947580
370
     0
100
AcDbFaceRecord
 10
0.0
 20
0.0
 30
0.0
 70
   128
 71
    13
 72
    15
 73
    16
 74
    14
  0
VERTEX
  5
1B5
330
73
100
AcDbEntity
  8
D01 金物
 62
   250
420
  3947580
370
     0
100
AcDbFaceRecord
 10
0.0
 20
0.0
 30
0.0
 70
   128
 71
    15
 72
    17
 73
    18
 74
    16
  0
VERTEX
  5
1B6
330
73
100
AcDbEntity
  8
D01 金物
 62
   250
420
  3947580
370
     0
100
AcDbFaceRecord
 10
0.0
 20
0.0
 30
0.0
 70
   128
 71
    17
 72
    19
 73
    20
 74
    18
  0
VERTEX
  5
1B7
330
73
100
AcDbEntity
  8
D01 金物
 62
   250
420
  3947580
370
     0
100
AcDbFaceRecord
 10
0.0
 20
0.0
 30
0.0
 70
   128
 71
    19
 72
    21
 73
    22
 74
    20
  0
VERTEX
  5
1B8
330
73
100
AcDbEntity
  8
D01 金物
 62
   250
420
  3947580
370
     0
100
AcDbFaceRecord
 10
0.0
 20
0.0
 30
0.0
 70
   128
 71
    21
 72
    23
 73
    24
 74
    22
  0
VERTEX
  5
1B9
330
73
100
AcDbEntity
  8
D01 金物
 62
   250
420
  3947580
370
     0
100
AcDbFaceRecord
 10
0.0
 20
0.0
 30
0.0
 70
   128
 71
    23
 72
    25
 73
    26
 74
    24
  0
VERTEX
  5
1BA
330
73
100
AcDbEntity
  8
D01 金物
 62
   250
420
  3947580
370
     0
100
AcDbFaceRecord
 10
0.0
 20
0.0
 30
0.0
 70
   128
 71
    25
 72
    27
 73
    28
 74
    26
  0
VERTEX
  5
1BB
330
73
100
AcDbEntity
  8
D01 金物
 62
   250
420
  3947580
370
     0
100
AcDbFaceRecord
 10
0.0
 20
0.0
 30
0.0
 70
   128
 71
    27
 72
    29
 73
    30
 74
    28
  0
VERTEX
  5
1BC
330
73
100
AcDbEntity
  8
D01 金物
 62
   250
420
  3947580
370
     0
100
AcDbFaceRecord
 10
0.0
 20
0.0
 30
0.0
 70
   128
 71
    29
 72
    31
 73
    32
 74
    30
  0
VERTEX
  5
1BD
330
73
100
AcDbEntity
  8
D01 金物
 62
   250
420
  3947580
370
     0
100
AcDbFaceRecord
 10
0.0
 20
0.0
 30
0.0
 70
   128
 71
    31
 72
    33
 73
    34
 74
    32
  0
VERTEX
  5
1BE
330
73
100
AcDbEntity
  8
D01 金物
 62
   250
420
  3947580
370
     0
100
AcDbFaceRecord
 10
0.0
 20
0.0
 30
0.0
 70
   128
 71
    33
 72
    35
 73
    36
 74
    34
  0
VERTEX
  5
1BF
330
73
100
AcDbEntity
  8
D01 金物
 62
   250
420
  3947580
370
     0
100
AcDbFaceRecord
 10
0.0
 20
0.0
 30
0.0
 70
   128
 71
    35
 72
    37
 73
    38
 74
    36
  0
VERTEX
  5
1C0
330
73
100
AcDbEntity
  8
D01 金物
 62
   250
420
  3947580
370
     0
100
AcDbFaceRecord
 10
0.0
 20
0.0
 30
0.0
 70
   128
 71
    37
 72
    39
 73
    40
 74
    38
  0
VERTEX
  5
1C1
330
73
100
AcDbEntity
  8
D01 金物
 62
   250
420
  3947580
370
     0
100
AcDbFaceRecord
 10
0.0
 20
0.0
 30
0.0
 70
   128
 71
    39
 72
    41
 73
    42
 74
    40
  0
VERTEX
  5
1C2
330
73
100
AcDbEntity
  8
D01 金物
 62
   250
420
  3947580
370
     0
100
AcDbFaceRecord
 10
0.0
 20
0.0
 30
0.0
 70
   128
 71
    41
 72
    43
 73
    44
 74
    42
  0
VERTEX
  5
1C3
330
73
100
AcDbEntity
  8
D01 金物
 62
   250
420
  3947580
370
     0
100
AcDbFaceRecord
 10
0.0
 20
0.0
 30
0.0
 70
   128
 71
    43
 72
    45
 73
    46
 74
    44
  0
VERTEX
  5
1C4
330
73
100
AcDbEntity
  8
D01 金物
 62
   250
420
  3947580
370
     0
100
AcDbFaceRecord
 10
0.0
 20
0.0
 30
0.0
 70
   128
 71
    45
 72
    47
 73
    48
 74
    46
  0
VERTEX
  5
1C5
330
73
100
AcDbEntity
  8
D01 金物
 62
   250
420
  3947580
370
     0
100
AcDbFaceRecord
 10
0.0
 20
0.0
 30
0.0
 70
   128
 71
    47
 72
    49
 73
    50
 74
    48
  0
VERTEX
  5
1C6
330
73
100
AcDbEntity
  8
D01 金物
 62
   250
420
  3947580
370
     0
100
AcDbFaceRecord
 10
0.0
 20
0.0
 30
0.0
 70
   128
 71
    49
 72
    51
 73
    52
 74
    50
  0
VERTEX
  5
1C7
330
73
100
AcDbEntity
  8
D01 金物
 62
   250
420
  3947580
370
     0
100
AcDbFaceRecord
 10
0.0
 20
0.0
 30
0.0
 70
   128
 71
    51
 72
    53
 73
    54
 74
    52
  0
VERTEX
  5
1C8
330
73
100
AcDbEntity
  8
D01 金物
 62
   250
420
  3947580
370
     0
100
AcDbFaceRecord
 10
0.0
 20
0.0
 30
0.0
 70
   128
 71
    53
 72
    55
 73
    56
 74
    54
  0
VERTEX
  5
1C9
330
73
100
AcDbEntity
  8
D01 金物
 62
   250
420
  3947580
370
     0
100
AcDbFaceRecord
 10
0.0
 20
0.0
 30
0.0
 70
   128
 71
    55
 72
    57
 73
    58
 74
    56
  0
VERTEX
  5
1CA
330
73
100
AcDbEntity
  8
D01 金物
 62
   250
420
  3947580
370
     0
100
AcDbFaceRecord
 10
0.0
 20
0.0
 30
0.0
 70
   128
 71
    57
 72
    59
 73
    60
 74
    58
  0
VERTEX
  5
1CB
330
73
100
AcDbEntity
  8
D01 金物
 62
   250
420
  3947580
370
     0
100
AcDbFaceRecord
 10
0.0
 20
0.0
 30
0.0
 70
   128
 71
    59
 72
    61
 73
    62
 74
    60
  0
VERTEX
  5
1CC
330
73
100
AcDbEntity
  8
D01 金物
 62
   250
420
  3947580
370
     0
100
AcDbFaceRecord
 10
0.0
 20
0.0
 30
0.0
 70
   128
 71
    61
 72
    63
 73
    64
 74
    62
  0
VERTEX
  5
1CD
330
73
100
AcDbEntity
  8
D01 金物
 62
   250
420
  3947580
370
     0
100
AcDbFaceRecord
 10
0.0
 20
0.0
 30
0.0
 70
   128
 71
    63
 72
    65
 73
    66
 74
    64
  0
VERTEX
  5
1CE
330
73
100
AcDbEntity
  8
D01 金物
 62
   250
420
  3947580
370
     0
100
AcDbFaceRecord
 10
0.0
 20
0.0
 30
0.0
 70
   128
 71
    65
 72
    67
 73
    68
 74
    66
  0
VERTEX
  5
1CF
330
73
100
AcDbEntity
  8
D01 金物
 62
   250
420
  3947580
370
     0
100
AcDbFaceRecord
 10
0.0
 20
0.0
 30
0.0
 70
   128
 71
    67
 72
    69
 73
    70
 74
    68
  0
VERTEX
  5
1D0
330
73
100
AcDbEntity
  8
D01 金物
 62
   250
420
  3947580
370
     0
100
AcDbFaceRecord
 10
0.0
 20
0.0
 30
0.0
 70
   128
 71
    69
 72
    71
 73
    72
 74
    70
  0
VERTEX
  5
1D1
330
73
100
AcDbEntity
  8
D01 金物
 62
   250
420
  3947580
370
     0
100
AcDbFaceRecord
 10
0.0
 20
0.0
 30
0.0
 70
   128
 71
    71
 72
    73
 73
    74
 74
    72
  0
VERTEX
  5
1D2
330
73
100
AcDbEntity
  8
D01 金物
 62
   250
420
  3947580
370
     0
100
AcDbFaceRecord
 10
0.0
 20
0.0
 30
0.0
 70
   128
 71
    73
 72
    75
 73
    76
 74
    74
  0
VERTEX
  5
1D3
330
73
100
AcDbEntity
  8
D01 金物
 62
   250
420
  3947580
370
     0
100
AcDbFaceRecord
 10
0.0
 20
0.0
 30
0.0
 70
   128
 71
    75
 72
    77
 73
    78
 74
    76
  0
VERTEX
  5
1D4
330
73
100
AcDbEntity
  8
D01 金物
 62
   250
420
  3947580
370
     0
100
AcDbFaceRecord
 10
0.0
 20
0.0
 30
0.0
 70
   128
 71
    77
 72
    79
 73
    80
 74
    78
  0
VERTEX
  5
1D5
330
73
100
AcDbEntity
  8
D01 金物
 62
   250
420
  3947580
370
     0
100
AcDbFaceRecord
 10
0.0
 20
0.0
 30
0.0
 70
   128
 71
    79
 72
    81
 73
    82
 74
    80
  0
VERTEX
  5
1D6
330
73
100
AcDbEntity
  8
D01 金物
 62
   250
420
  3947580
370
     0
100
AcDbFaceRecord
 10
0.0
 20
0.0
 30
0.0
 70
   128
 71
    81
 72
    83
 73
    84
 74
    82
  0
VERTEX
  5
1D7
330
73
100
AcDbEntity
  8
D01 金物
 62
   250
420
  3947580
370
     0
100
AcDbFaceRecord
 10
0.0
 20
0.0
 30
0.0
 70
   128
 71
    83
 72
    85
 73
    86
 74
    84
  0
VERTEX
  5
1D8
330
73
100
AcDbEntity
  8
D01 金物
 62
   250
420
  3947580
370
     0
100
AcDbFaceRecord
 10
0.0
 20
0.0
 30
0.0
 70
   128
 71
    85
 72
    87
 73
    88
 74
    86
  0
VERTEX
  5
1D9
330
73
100
AcDbEntity
  8
D01 金物
 62
   250
420
  3947580
370
     0
100
AcDbFaceRecord
 10
0.0
 20
0.0
 30
0.0
 70
   128
 71
    87
 72
     1
 73
     4
 74
    88
  0
VERTEX
  5
1DA
330
73
100
AcDbEntity
  8
D01 金物
 62
   250
420
  3947580
370
     0
100
AcDbFaceRecord
 10
0.0
 20
0.0
 30
0.0
 70
   128
 71
   -61
 72
    57
 73
   -55
  0
VERTEX
  5
1DB
330
73
100
AcDbEntity
  8
D01 金物
 62
   250
420
  3947580
370
     0
100
AcDbFaceRecord
 10
0.0
 20
0.0
 30
0.0
 70
   128
 71
    59
 72
   -57
 73
    61
  0
VERTEX
  5
1DC
330
73
100
AcDbEntity
  8
D01 金物
 62
   250
420
  3947580
370
     0
100
AcDbFaceRecord
 10
0.0
 20
0.0
 30
0.0
 70
   128
 71
    63
 72
   -61
 73
   -55
  0
VERTEX
  5
1DD
330
73
100
AcDbEntity
  8
D01 金物
 62
   250
420
  3947580
370
     0
100
AcDbFaceRecord
 10
0.0
 20
0.0
 30
0.0
 70
   128
 71
    65
 72
   -63
 73
   -77
  0
VERTEX
  5
1DE
330
73
100
AcDbEntity
  8
D01 金物
 62
   250
420
  3947580
370
     0
100
AcDbFaceRecord
 10
0.0
 20
0.0
 30
0.0
 70
   128
 71
   -65
 72
    77
 73
   -75
  0
VERTEX
  5
1DF
330
73
100
AcDbEntity
  8
D01 金物
 62
   250
420
  3947580
370
     0
100
AcDbFaceRecord
 10
0.0
 20
0.0
 30
0.0
 70
   128
 71
   -65
 72
   -75
 73
   -69
  0
VERTEX
  5
1E0
330
73
100
AcDbEntity
  8
D01 金物
 62
   250
420
  3947580
370
     0
100
AcDbFaceRecord
 10
0.0
 20
0.0
 30
0.0
 70
   128
 71
    67
 72
   -65
 73
    69
  0
VERTEX
  5
1E1
330
73
100
AcDbEntity
  8
D01 金物
 62
   250
420
  3947580
370
     0
100
AcDbFaceRecord
 10
0.0
 20
0.0
 30
0.0
 70
   128
 71
   -69
 72
    75
 73
   -73
  0
VERTEX
  5
1E2
330
73
100
AcDbEntity
  8
D01 金物
 62
   250
420
  3947580
370
     0
100
AcDbFaceRecord
 10
0.0
 20
0.0
 30
0.0
 70
   128
 71
    71
 72
   -69
 73
    73
  0
VERTEX
  5
1E3
330
73
100
AcDbEntity
  8
D01 金物
 62
   250
420
  3947580
370
     0
100
AcDbFaceRecord
 10
0.0
 20
0.0
 30
0.0
 70
   128
 71
   -63
 72
    55
 73
   -53
  0
VERTEX
  5
1E4
330
73
100
AcDbEntity
  8
D01 金物
 62
   250
420
  3947580
370
     0
100
AcDbFaceRecord
 10
0.0
 20
0.0
 30
0.0
 70
   128
 71
   -77
 72
   -63
 73
   -53
  0
VERTEX
  5
1E5
330
73
100
AcDbEntity
  8
D01 金物
 62
   250
420
  3947580
370
     0
100
AcDbFaceRecord
 10
0.0
 20
0.0
 30
0.0
 70
   128
 71
    -1
 72
    85
 73
   -83
  0
VERTEX
  5
1E6
330
73
100
AcDbEntity
  8
D01 金物
 62
   250
420
  3947580
370
     0
100
AcDbFaceRecord
 10
0.0
 20
0.0
 30
0.0
 70
   128
 71
    87
 72
   -85
 73
     1
  0
VERTEX
  5
1E7
330
73
100
AcDbEntity
  8
D01 金物
 62
   250
420
  3947580
370
     0
100
AcDbFaceRecord
 10
0.0
 20
0.0
 30
0.0
 70
   128
 71
    13
 72
    11
 73
    -9
  0
VERTEX
  5
1E8
330
73
100
AcDbEntity
  8
D01 金物
 62
   250
420
  3947580
370
     0
100
AcDbFaceRecord
 10
0.0
 20
0.0
 30
0.0
 70
   128
 71
   -13
 72
     9
 73
    -7
  0
VERTEX
  5
1E9
330
73
100
AcDbEntity
  8
D01 金物
 62
   250
420
  3947580
370
     0
100
AcDbFaceRecord
 10
0.0
 20
0.0
 30
0.0
 70
   128
 71
    79
 72
   -77
 73
   -53
  0
VERTEX
  5
1EA
330
73
100
AcDbEntity
  8
D01 金物
 62
   250
420
  3947580
370
     0
100
AcDbFaceRecord
 10
0.0
 20
0.0
 30
0.0
 70
   128
 71
     2
 72
    -1
 73
   -83
  0
VERTEX
  5
1EB
330
73
100
AcDbEntity
  8
D01 金物
 62
   250
420
  3947580
370
     0
100
AcDbFaceRecord
 10
0.0
 20
0.0
 30
0.0
 70
   128
 71
   -13
 72
     7
 73
    -5
  0
VERTEX
  5
1EC
330
73
100
AcDbEntity
  8
D01 金物
 62
   250
420
  3947580
370
     0
100
AcDbFaceRecord
 10
0.0
 20
0.0
 30
0.0
 70
   128
 71
    15
 72
   -13
 73
    -5
  0
VERTEX
  5
1ED
330
73
100
AcDbEntity
  8
D01 金物
 62
   250
420
  3947580
370
     0
100
AcDbFaceRecord
 10
0.0
 20
0.0
 30
0.0
 70
   128
 71
   -15
 72
     5
 73
    -2
  0
VERTEX
  5
1EE
330
73
100
AcDbEntity
  8
D01 金物
 62
   250
420
  3947580
370
     0
100
AcDbFaceRecord
 10
0.0
 20
0.0
 30
0.0
 70
   128
 71
    -2
 72
    83
 73
   -81
  0
VERTEX
  5
1EF
330
73
100
AcDbEntity
  8
D01 金物
 62
   250
420
  3947580
370
     0
100
AcDbFaceRecord
 10
0.0
 20
0.0
 30
0.0
 70
   128
 71
   -15
 72
    -2
 73
   -81
  0
VERTEX
  5
1F0
330
73
100
AcDbEntity
  8
D01 金物
 62
   250
420
  3947580
370
     0
100
AcDbFaceRecord
 10
0.0
 20
0.0
 30
0.0
 70
   128
 71
    21
 72
    19
 73
   -17
  0
VERTEX
  5
1F1
330
73
100
AcDbEntity
  8
D01 金物
 62
   250
420
  3947580
370
     0
100
AcDbFaceRecord
 10
0.0
 20
0.0
 30
0.0
 70
   128
 71
    17
 72
   -15
 73
   -81
  0
VERTEX
  5
1F2
330
73
100
AcDbEntity
  8
D01 金物
 62
   250
420
  3947580
370
     0
100
AcDbFaceRecord
 10
0.0
 20
0.0
 30
0.0
 70
   128
 71
   -79
 72
    53
 73
   -51
  0
VERTEX
  5
1F3
330
73
100
AcDbEntity
  8
D01 金物
 62
   250
420
  3947580
370
     0
100
AcDbFaceRecord
 10
0.0
 20
0.0
 30
0.0
 70
   128
 71
    81
 72
   -79
 73
   -51
  0
VERTEX
  5
1F4
330
73
100
AcDbEntity
  8
D01 金物
 62
   250
420
  3947580
370
     0
100
AcDbFaceRecord
 10
0.0
 20
0.0
 30
0.0
 70
   128
 71
   -17
 72
   -81
 73
   -51
  0
VERTEX
  5
1F5
330
73
100
AcDbEntity
  8
D01 金物
 62
   250
420
  3947580
370
     0
100
AcDbFaceRecord
 10
0.0
 20
0.0
 30
0.0
 70
   128
 71
   -21
 72
   -17
 73
   -51
  0
VERTEX
  5
1F6
330
73
100
AcDbEntity
  8
D01 金物
 62
   250
420
  3947580
370
     0
100
AcDbFaceRecord
 10
0.0
 20
0.0
 30
0.0
 70
   128
 71
   -21
 72
    51
 73
   -49
  0
VERTEX
  5
1F7
330
73
100
AcDbEntity
  8
D01 金物
 62
   250
420
  3947580
370
     0
100
AcDbFaceRecord
 10
0.0
 20
0.0
 30
0.0
 70
   128
 71
   -21
 72
    49
 73
   -47
  0
VERTEX
  5
1F8
330
73
100
AcDbEntity
  8
D01 金物
 62
   250
420
  3947580
370
     0
100
AcDbFaceRecord
 10
0.0
 20
0.0
 30
0.0
 70
   128
 71
   -21
 72
    47
 73
   -45
  0
VERTEX
  5
1F9
330
73
100
AcDbEntity
  8
D01 金物
 62
   250
420
  3947580
370
     0
100
AcDbFaceRecord
 10
0.0
 20
0.0
 30
0.0
 70
   128
 71
   -21
 72
    45
 73
   -43
  0
VERTEX
  5
1FA
330
73
100
AcDbEntity
  8
D01 金物
 62
   250
420
  3947580
370
     0
100
AcDbFaceRecord
 10
0.0
 20
0.0
 30
0.0
 70
   128
 71
   -21
 72
    43
 73
   -41
  0
VERTEX
  5
1FB
330
73
100
AcDbEntity
  8
D01 金物
 62
   250
420
  3947580
370
     0
100
AcDbFaceRecord
 10
0.0
 20
0.0
 30
0.0
 70
   128
 71
   -21
 72
   -41
 73
   -29
  0
VERTEX
  5
1FC
330
73
100
AcDbEntity
  8
D01 金物
 62
   250
420
  3947580
370
     0
100
AcDbFaceRecord
 10
0.0
 20
0.0
 30
0.0
 70
   128
 71
   -29
 72
    41
 73
   -39
  0
VERTEX
  5
1FD
330
73
100
AcDbEntity
  8
D01 金物
 62
   250
420
  3947580
370
     0
100
AcDbFaceRecord
 10
0.0
 20
0.0
 30
0.0
 70
   128
 71
   -29
 72
    39
 73
   -37
  0
VERTEX
  5
1FE
330
73
100
AcDbEntity
  8
D01 金物
 62
   250
420
  3947580
370
     0
100
AcDbFaceRecord
 10
0.0
 20
0.0
 30
0.0
 70
   128
 71
   -29
 72
    37
 73
   -35
  0
VERTEX
  5
1FF
330
73
100
AcDbEntity
  8
D01 金物
 62
   250
420
  3947580
370
     0
100
AcDbFaceRecord
 10
0.0
 20
0.0
 30
0.0
 70
   128
 71
    31
 72
   -29
 73
   -35
  0
VERTEX
  5
200
330
73
100
AcDbEntity
  8
D01 金物
 62
   250
420
  3947580
370
     0
100
AcDbFaceRecord
 10
0.0
 20
0.0
 30
0.0
 70
   128
 71
    23
 72
   -21
 73
   -29
  0
VERTEX
  5
201
330
73
100
AcDbEntity
  8
D01 金物
 62
   250
420
  3947580
370
     0
100
AcDbFaceRecord
 10
0.0
 20
0.0
 30
0.0
 70
   128
 71
    25
 72
   -23
 73
   -29
  0
VERTEX
  5
202
330
73
100
AcDbEntity
  8
D01 金物
 62
   250
420
  3947580
370
     0
100
AcDbFaceRecord
 10
0.0
 20
0.0
 30
0.0
 70
   128
 71
    27
 72
   -25
 73
    29
  0
VERTEX
  5
203
330
73
100
AcDbEntity
  8
D01 金物
 62
   250
420
  3947580
370
     0
100
AcDbFaceRecord
 10
0.0
 20
0.0
 30
0.0
 70
   128
 71
    56
 72
   -58
 73
   -62
  0
VERTEX
  5
204
330
73
100
AcDbEntity
  8
D01 金物
 62
   250
420
  3947580
370
     0
100
AcDbFaceRecord
 10
0.0
 20
0.0
 30
0.0
 70
   128
 71
    60
 72
   -62
 73
    58
  0
VERTEX
  5
205
330
73
100
AcDbEntity
  8
D01 金物
 62
   250
420
  3947580
370
     0
100
AcDbFaceRecord
 10
0.0
 20
0.0
 30
0.0
 70
   128
 71
   -56
 72
    62
 73
   -64
  0
VERTEX
  5
206
330
73
100
AcDbEntity
  8
D01 金物
 62
   250
420
  3947580
370
     0
100
AcDbFaceRecord
 10
0.0
 20
0.0
 30
0.0
 70
   128
 71
   -78
 72
    64
 73
   -66
  0
VERTEX
  5
207
330
73
100
AcDbEntity
  8
D01 金物
 62
   250
420
  3947580
370
     0
100
AcDbFaceRecord
 10
0.0
 20
0.0
 30
0.0
 70
   128
 71
    76
 72
   -78
 73
   -66
  0
VERTEX
  5
208
330
73
100
AcDbEntity
  8
D01 金物
 62
   250
420
  3947580
370
     0
100
AcDbFaceRecord
 10
0.0
 20
0.0
 30
0.0
 70
   128
 71
   -70
 72
   -76
 73
   -66
  0
VERTEX
  5
209
330
73
100
AcDbEntity
  8
D01 金物
 62
   250
420
  3947580
370
     0
100
AcDbFaceRecord
 10
0.0
 20
0.0
 30
0.0
 70
   128
 71
    68
 72
   -70
 73
    66
  0
VERTEX
  5
20A
330
73
100
AcDbEntity
  8
D01 金物
 62
   250
420
  3947580
370
     0
100
AcDbFaceRecord
 10
0.0
 20
0.0
 30
0.0
 70
   128
 71
    74
 72
   -76
 73
   -70
  0
VERTEX
  5
20B
330
73
100
AcDbEntity
  8
D01 金物
 62
   250
420
  3947580
370
     0
100
AcDbFaceRecord
 10
0.0
 20
0.0
 30
0.0
 70
   128
 71
    72
 72
   -74
 73
    70
  0
VERTEX
  5
20C
330
73
100
AcDbEntity
  8
D01 金物
 62
   250
420
  3947580
370
     0
100
AcDbFaceRecord
 10
0.0
 20
0.0
 30
0.0
 70
   128
 71
    54
 72
   -56
 73
   -64
  0
VERTEX
  5
20D
330
73
100
AcDbEntity
  8
D01 金物
 62
   250
420
  3947580
370
     0
100
AcDbFaceRecord
 10
0.0
 20
0.0
 30
0.0
 70
   128
 71
   -54
 72
   -64
 73
   -78
  0
VERTEX
  5
20E
330
73
100
AcDbEntity
  8
D01 金物
 62
   250
420
  3947580
370
     0
100
AcDbFaceRecord
 10
0.0
 20
0.0
 30
0.0
 70
   128
 71
    84
 72
   -86
 73
    -4
  0
VERTEX
  5
20F
330
73
100
AcDbEntity
  8
D01 金物
 62
   250
420
  3947580
370
     0
100
AcDbFaceRecord
 10
0.0
 20
0.0
 30
0.0
 70
   128
 71
    88
 72
    -4
 73
    86
  0
VERTEX
  5
210
330
73
100
AcDbEntity
  8
D01 金物
 62
   250
420
  3947580
370
     0
100
AcDbFaceRecord
 10
0.0
 20
0.0
 30
0.0
 70
   128
 71
    10
 72
    12
 73
   -14
  0
VERTEX
  5
211
330
73
100
AcDbEntity
  8
D01 金物
 62
   250
420
  3947580
370
     0
100
AcDbFaceRecord
 10
0.0
 20
0.0
 30
0.0
 70
   128
 71
     8
 72
   -10
 73
   -14
  0
VERTEX
  5
212
330
73
100
AcDbEntity
  8
D01 金物
 62
   250
420
  3947580
370
     0
100
AcDbFaceRecord
 10
0.0
 20
0.0
 30
0.0
 70
   128
 71
   -54
 72
    78
 73
   -80
  0
VERTEX
  5
213
330
73
100
AcDbEntity
  8
D01 金物
 62
   250
420
  3947580
370
     0
100
AcDbFaceRecord
 10
0.0
 20
0.0
 30
0.0
 70
   128
 71
   -84
 72
     4
 73
    -3
  0
VERTEX
  5
214
330
73
100
AcDbEntity
  8
D01 金物
 62
   250
420
  3947580
370
     0
100
AcDbFaceRecord
 10
0.0
 20
0.0
 30
0.0
 70
   128
 71
     6
 72
    -8
 73
   -14
  0
VERTEX
  5
215
330
73
100
AcDbEntity
  8
D01 金物
 62
   250
420
  3947580
370
     0
100
AcDbFaceRecord
 10
0.0
 20
0.0
 30
0.0
 70
   128
 71
    -6
 72
    14
 73
   -16
  0
VERTEX
  5
216
330
73
100
AcDbEntity
  8
D01 金物
 62
   250
420
  3947580
370
     0
100
AcDbFaceRecord
 10
0.0
 20
0.0
 30
0.0
 70
   128
 71
     3
 72
    -6
 73
   -16
  0
VERTEX
  5
217
330
73
100
AcDbEntity
  8
D01 金物
 62
   250
420
  3947580
370
     0
100
AcDbFaceRecord
 10
0.0
 20
0.0
 30
0.0
 70
   128
 71
    82
 72
   -84
 73
    -3
  0
VERTEX
  5
218
330
73
100
AcDbEntity
  8
D01 金物
 62
   250
420
  3947580
370
     0
100
AcDbFaceRecord
 10
0.0
 20
0.0
 30
0.0
 70
   128
 71
   -82
 72
    -3
 73
   -16
  0
VERTEX
  5
219
330
73
100
AcDbEntity
  8
D01 金物
 62
   250
420
  3947580
370
     0
100
AcDbFaceRecord
 10
0.0
 20
0.0
 30
0.0
 70
   128
 71
   -82
 72
    16
 73
   -18
  0
VERTEX
  5
21A
330
73
100
AcDbEntity
  8
D01 金物
 62
   250
420
  3947580
370
     0
100
AcDbFaceRecord
 10
0.0
 20
0.0
 30
0.0
 70
   128
 71
    18
 72
    20
 73
   -22
  0
VERTEX
  5
21B
330
73
100
AcDbEntity
  8
D01 金物
 62
   250
420
  3947580
370
     0
100
AcDbFaceRecord
 10
0.0
 20
0.0
 30
0.0
 70
   128
 71
    52
 72
   -54
 73
   -80
  0
VERTEX
  5
21C
330
73
100
AcDbEntity
  8
D01 金物
 62
   250
420
  3947580
370
     0
100
AcDbFaceRecord
 10
0.0
 20
0.0
 30
0.0
 70
   128
 71
   -52
 72
    80
 73
   -82
  0
VERTEX
  5
21D
330
73
100
AcDbEntity
  8
D01 金物
 62
   250
420
  3947580
370
     0
100
AcDbFaceRecord
 10
0.0
 20
0.0
 30
0.0
 70
   128
 71
   -52
 72
   -82
 73
   -18
  0
VERTEX
  5
21E
330
73
100
AcDbEntity
  8
D01 金物
 62
   250
420
  3947580
370
     0
100
AcDbFaceRecord
 10
0.0
 20
0.0
 30
0.0
 70
   128
 71
   -52
 72
   -18
 73
   -22
  0
VERTEX
  5
21F
330
73
100
AcDbEntity
  8
D01 金物
 62
   250
420
  3947580
370
     0
100
AcDbFaceRecord
 10
0.0
 20
0.0
 30
0.0
 70
   128
 71
    50
 72
   -52
 73
   -22
  0
VERTEX
  5
220
330
73
100
AcDbEntity
  8
D01 金物
 62
   250
420
  3947580
370
     0
100
AcDbFaceRecord
 10
0.0
 20
0.0
 30
0.0
 70
   128
 71
    48
 72
   -50
 73
   -22
  0
VERTEX
  5
221
330
73
100
AcDbEntity
  8
D01 金物
 62
   250
420
  3947580
370
     0
100
AcDbFaceRecord
 10
0.0
 20
0.0
 30
0.0
 70
   128
 71
    46
 72
   -48
 73
   -22
  0
VERTEX
  5
222
330
73
100
AcDbEntity
  8
D01 金物
 62
   250
420
  3947580
370
     0
100
AcDbFaceRecord
 10
0.0
 20
0.0
 30
0.0
 70
   128
 71
    44
 72
   -46
 73
   -22
  0
VERTEX
  5
223
330
73
100
AcDbEntity
  8
D01 金物
 62
   250
420
  3947580
370
     0
100
AcDbFaceRecord
 10
0.0
 20
0.0
 30
0.0
 70
   128
 71
    42
 72
   -44
 73
   -22
  0
VERTEX
  5
224
330
73
100
AcDbEntity
  8
D01 金物
 62
   250
420
  3947580
370
     0
100
AcDbFaceRecord
 10
0.0
 20
0.0
 30
0.0
 70
   128
 71
   -30
 72
   -42
 73
   -22
  0
VERTEX
  5
225
330
73
100
AcDbEntity
  8
D01 金物
 62
   250
420
  3947580
370
     0
100
AcDbFaceRecord
 10
0.0
 20
0.0
 30
0.0
 70
   128
 71
    40
 72
   -42
 73
   -30
  0
VERTEX
  5
226
330
73
100
AcDbEntity
  8
D01 金物
 62
   250
420
  3947580
370
     0
100
AcDbFaceRecord
 10
0.0
 20
0.0
 30
0.0
 70
   128
 71
    38
 72
   -40
 73
   -30
  0
VERTEX
  5
227
330
73
100
AcDbEntity
  8
D01 金物
 62
   250
420
  3947580
370
     0
100
AcDbFaceRecord
 10
0.0
 20
0.0
 30
0.0
 70
   128
 71
    36
 72
   -38
 73
   -30
  0
VERTEX
  5
228
330
73
100
AcDbEntity
  8
D01 金物
 62
   250
420
  3947580
370
     0
100
AcDbFaceRecord
 10
0.0
 20
0.0
 30
0.0
 70
   128
 71
   -32
 72
   -36
 73
    30
  0
VERTEX
  5
229
330
73
100
AcDbEntity
  8
D01 金物
 62
   250
420
  3947580
370
     0
100
AcDbFaceRecord
 10
0.0
 20
0.0
 30
0.0
 70
   128
 71
   -30
 72
    22
 73
   -24
  0
VERTEX
  5
22A
330
73
100
AcDbEntity
  8
D01 金物
 62
   250
420
  3947580
370
     0
100
AcDbFaceRecord
 10
0.0
 20
0.0
 30
0.0
 70
   128
 71
   -30
 72
    24
 73
   -26
  0
VERTEX
  5
22B
330
73
100
AcDbEntity
  8
D01 金物
 62
   250
420
  3947580
370
     0
100
AcDbFaceRecord
 10
0.0
 20
0.0
 30
0.0
 70
   128
 71
    28
 72
   -30
 73
    26
  0
VERTEX
  5
22C
330
73
100
AcDbEntity
  8
D01 金物
 62
   250
420
  3947580
370
     0
100
AcDbFaceRecord
 10
0.0
 20
0.0
 30
0.0
 70
   128
 71
    89
 72
    90
 73
    91
 74
    92
  0
VERTEX
  5
22D
330
73
100
AcDbEntity
  8
D01 金物
 62
   250
420
  3947580
370
     0
100
AcDbFaceRecord
 10
0.0
 20
0.0
 30
0.0
 70
   128
 71
    90
 72
    93
 73
    94
 74
    91
  0
VERTEX
  5
22E
330
73
100
AcDbEntity
  8
D01 金物
 62
   250
420
  3947580
370
     0
100
AcDbFaceRecord
 10
0.0
 20
0.0
 30
0.0
 70
   128
 71
    93
 72
    95
 73
    96
 74
    94
  0
VERTEX
  5
22F
330
73
100
AcDbEntity
  8
D01 金物
 62
   250
420
  3947580
370
     0
100
AcDbFaceRecord
 10
0.0
 20
0.0
 30
0.0
 70
   128
 71
    95
 72
    97
 73
    98
 74
    96
  0
VERTEX
  5
230
330
73
100
AcDbEntity
  8
D01 金物
 62
   250
420
  3947580
370
     0
100
AcDbFaceRecord
 10
0.0
 20
0.0
 30
0.0
 70
   128
 71
    97
 72
    99
 73
   100
 74
    98
  0
VERTEX
  5
231
330
73
100
AcDbEntity
  8
D01 金物
 62
   250
420
  3947580
370
     0
100
AcDbFaceRecord
 10
0.0
 20
0.0
 30
0.0
 70
   128
 71
    99
 72
   101
 73
   102
 74
   100
  0
VERTEX
  5
232
330
73
100
AcDbEntity
  8
D01 金物
 62
   250
420
  3947580
370
     0
100
AcDbFaceRecord
 10
0.0
 20
0.0
 30
0.0
 70
   128
 71
   101
 72
   103
 73
   104
 74
   102
  0
VERTEX
  5
233
330
73
100
AcDbEntity
  8
D01 金物
 62
   250
420
  3947580
370
     0
100
AcDbFaceRecord
 10
0.0
 20
0.0
 30
0.0
 70
   128
 71
   103
 72
   105
 73
   106
 74
   104
  0
VERTEX
  5
234
330
73
100
AcDbEntity
  8
D01 金物
 62
   250
420
  3947580
370
     0
100
AcDbFaceRecord
 10
0.0
 20
0.0
 30
0.0
 70
   128
 71
   105
 72
   107
 73
   108
 74
   106
  0
VERTEX
  5
235
330
73
100
AcDbEntity
  8
D01 金物
 62
   250
420
  3947580
370
     0
100
AcDbFaceRecord
 10
0.0
 20
0.0
 30
0.0
 70
   128
 71
   107
 72
   109
 73
   110
 74
   108
  0
VERTEX
  5
236
330
73
100
AcDbEntity
  8
D01 金物
 62
   250
420
  3947580
370
     0
100
AcDbFaceRecord
 10
0.0
 20
0.0
 30
0.0
 70
   128
 71
   109
 72
   111
 73
   112
 74
   110
  0
VERTEX
  5
237
330
73
100
AcDbEntity
  8
D01 金物
 62
   250
420
  3947580
370
     0
100
AcDbFaceRecord
 10
0.0
 20
0.0
 30
0.0
 70
   128
 71
   111
 72
   113
 73
   114
 74
   112
  0
VERTEX
  5
238
330
73
100
AcDbEntity
  8
D01 金物
 62
   250
420
  3947580
370
     0
100
AcDbFaceRecord
 10
0.0
 20
0.0
 30
0.0
 70
   128
 71
   113
 72
   115
 73
   116
 74
   114
  0
VERTEX
  5
239
330
73
100
AcDbEntity
  8
D01 金物
 62
   250
420
  3947580
370
     0
100
AcDbFaceRecord
 10
0.0
 20
0.0
 30
0.0
 70
   128
 71
   115
 72
   117
 73
   118
 74
   116
  0
VERTEX
  5
23A
330
73
100
AcDbEntity
  8
D01 金物
 62
   250
420
  3947580
370
     0
100
AcDbFaceRecord
 10
0.0
 20
0.0
 30
0.0
 70
   128
 71
   117
 72
   119
 73
   120
 74
   118
  0
VERTEX
  5
23B
330
73
100
AcDbEntity
  8
D01 金物
 62
   250
420
  3947580
370
     0
100
AcDbFaceRecord
 10
0.0
 20
0.0
 30
0.0
 70
   128
 71
   119
 72
    89
 73
    92
 74
   120
  0
VERTEX
  5
23C
330
73
100
AcDbEntity
  8
D01 金物
 62
   250
420
  3947580
370
     0
100
AcDbFaceRecord
 10
0.0
 20
0.0
 30
0.0
 70
   128
 71
   105
 72
  -103
 73
   -99
  0
VERTEX
  5
23D
330
73
100
AcDbEntity
  8
D01 金物
 62
   250
420
  3947580
370
     0
100
AcDbFaceRecord
 10
0.0
 20
0.0
 30
0.0
 70
   128
 71
  -105
 72
    99
 73
   -97
  0
VERTEX
  5
23E
330
73
100
AcDbEntity
  8
D01 金物
 62
   250
420
  3947580
370
     0
100
AcDbFaceRecord
 10
0.0
 20
0.0
 30
0.0
 70
   128
 71
   107
 72
  -105
 73
   -97
  0
VERTEX
  5
23F
330
73
100
AcDbEntity
  8
D01 金物
 62
   250
420
  3947580
370
     0
100
AcDbFaceRecord
 10
0.0
 20
0.0
 30
0.0
 70
   128
 71
  -107
 72
    97
 73
   -95
  0
VERTEX
  5
240
330
73
100
AcDbEntity
  8
D01 金物
 62
   250
420
  3947580
370
     0
100
AcDbFaceRecord
 10
0.0
 20
0.0
 30
0.0
 70
   128
 71
   109
 72
  -107
 73
   -95
  0
VERTEX
  5
241
330
73
100
AcDbEntity
  8
D01 金物
 62
   250
420
  3947580
370
     0
100
AcDbFaceRecord
 10
0.0
 20
0.0
 30
0.0
 70
   128
 71
  -109
 72
    95
 73
   -93
  0
VERTEX
  5
242
330
73
100
AcDbEntity
  8
D01 金物
 62
   250
420
  3947580
370
     0
100
AcDbFaceRecord
 10
0.0
 20
0.0
 30
0.0
 70
   128
 71
  -109
 72
    93
 73
   -90
  0
VERTEX
  5
243
330
73
100
AcDbEntity
  8
D01 金物
 62
   250
420
  3947580
370
     0
100
AcDbFaceRecord
 10
0.0
 20
0.0
 30
0.0
 70
   128
 71
  -109
 72
    90
 73
   -89
  0
VERTEX
  5
244
330
73
100
AcDbEntity
  8
D01 金物
 62
   250
420
  3947580
370
     0
100
AcDbFaceRecord
 10
0.0
 20
0.0
 30
0.0
 70
   128
 71
  -109
 72
    89
 73
  -119
  0
VERTEX
  5
245
330
73
100
AcDbEntity
  8
D01 金物
 62
   250
420
  3947580
370
     0
100
AcDbFaceRecord
 10
0.0
 20
0.0
 30
0.0
 70
   128
 71
  -109
 72
   119
 73
  -117
  0
VERTEX
  5
246
330
73
100
AcDbEntity
  8
D01 金物
 62
   250
420
  3947580
370
     0
100
AcDbFaceRecord
 10
0.0
 20
0.0
 30
0.0
 70
   128
 71
  -109
 72
   117
 73
  -115
  0
VERTEX
  5
247
330
73
100
AcDbEntity
  8
D01 金物
 62
   250
420
  3947580
370
     0
100
AcDbFaceRecord
 10
0.0
 20
0.0
 30
0.0
 70
   128
 71
  -109
 72
   115
 73
  -113
  0
VERTEX
  5
248
330
73
100
AcDbEntity
  8
D01 金物
 62
   250
420
  3947580
370
     0
100
AcDbFaceRecord
 10
0.0
 20
0.0
 30
0.0
 70
   128
 71
   111
 72
  -109
 73
   113
  0
VERTEX
  5
249
330
73
100
AcDbEntity
  8
D01 金物
 62
   250
420
  3947580
370
     0
100
AcDbFaceRecord
 10
0.0
 20
0.0
 30
0.0
 70
   128
 71
  -100
 72
   104
 73
  -106
  0
VERTEX
  5
24A
330
73
100
AcDbEntity
  8
D01 金物
 62
   250
420
  3947580
370
     0
100
AcDbFaceRecord
 10
0.0
 20
0.0
 30
0.0
 70
   128
 71
    98
 72
  -100
 73
  -106
  0
VERTEX
  5
24B
330
73
100
AcDbEntity
  8
D01 金物
 62
   250
420
  3947580
370
     0
100
AcDbFaceRecord
 10
0.0
 20
0.0
 30
0.0
 70
   128
 71
   -98
 72
   106
 73
  -108
  0
VERTEX
  5
24C
330
73
100
AcDbEntity
  8
D01 金物
 62
   250
420
  3947580
370
     0
100
AcDbFaceRecord
 10
0.0
 20
0.0
 30
0.0
 70
   128
 71
    96
 72
   -98
 73
  -108
  0
VERTEX
  5
24D
330
73
100
AcDbEntity
  8
D01 金物
 62
   250
420
  3947580
370
     0
100
AcDbFaceRecord
 10
0.0
 20
0.0
 30
0.0
 70
   128
 71
   -96
 72
   108
 73
  -110
  0
VERTEX
  5
24E
330
73
100
AcDbEntity
  8
D01 金物
 62
   250
420
  3947580
370
     0
100
AcDbFaceRecord
 10
0.0
 20
0.0
 30
0.0
 70
   128
 71
    94
 72
   -96
 73
  -110
  0
VERTEX
  5
24F
330
73
100
AcDbEntity
  8
D01 金物
 62
   250
420
  3947580
370
     0
100
AcDbFaceRecord
 10
0.0
 20
0.0
 30
0.0
 70
   128
 71
    91
 72
   -94
 73
  -110
  0
VERTEX
  5
250
330
73
100
AcDbEntity
  8
D01 金物
 62
   250
420
  3947580
370
     0
100
AcDbFaceRecord
 10
0.0
 20
0.0
 30
0.0
 70
   128
 71
    92
 72
   -91
 73
  -110
  0
VERTEX
  5
251
330
73
100
AcDbEntity
  8
D01 金物
 62
   250
420
  3947580
370
     0
100
AcDbFaceRecord
 10
0.0
 20
0.0
 30
0.0
 70
   128
 71
   120
 72
   -92
 73
  -110
  0
VERTEX
  5
252
330
73
100
AcDbEntity
  8
D01 金物
 62
   250
420
  3947580
370
     0
100
AcDbFaceRecord
 10
0.0
 20
0.0
 30
0.0
 70
   128
 71
   118
 72
  -120
 73
  -110
  0
VERTEX
  5
253
330
73
100
AcDbEntity
  8
D01 金物
 62
   250
420
  3947580
370
     0
100
AcDbFaceRecord
 10
0.0
 20
0.0
 30
0.0
 70
   128
 71
   116
 72
  -118
 73
  -110
  0
VERTEX
  5
254
330
73
100
AcDbEntity
  8
D01 金物
 62
   250
420
  3947580
370
     0
100
AcDbFaceRecord
 10
0.0
 20
0.0
 30
0.0
 70
   128
 71
   114
 72
  -116
 73
  -110
  0
VERTEX
  5
255
330
73
100
AcDbEntity
  8
D01 金物
 62
   250
420
  3947580
370
     0
100
AcDbFaceRecord
 10
0.0
 20
0.0
 30
0.0
 70
   128
 71
   112
 72
  -114
 73
   110
  0
VERTEX
  5
256
330
73
100
AcDbEntity
  8
D01 金物
 62
   250
420
  3947580
370
     0
100
AcDbFaceRecord
 10
0.0
 20
0.0
 30
0.0
 70
   128
 71
   121
 72
   122
 73
   123
 74
   124
  0
VERTEX
  5
257
330
73
100
AcDbEntity
  8
D01 金物
 62
   250
420
  3947580
370
     0
100
AcDbFaceRecord
 10
0.0
 20
0.0
 30
0.0
 70
   128
 71
   124
 72
   123
 73
   125
 74
   126
  0
VERTEX
  5
258
330
73
100
AcDbEntity
  8
D01 金物
 62
   250
420
  3947580
370
     0
100
AcDbFaceRecord
 10
0.0
 20
0.0
 30
0.0
 70
   128
 71
   126
 72
   125
 73
   127
 74
   128
  0
VERTEX
  5
259
330
73
100
AcDbEntity
  8
D01 金物
 62
   250
420
  3947580
370
     0
100
AcDbFaceRecord
 10
0.0
 20
0.0
 30
0.0
 70
   128
 71
   128
 72
   127
 73
   129
 74
   130
  0
VERTEX
  5
25A
330
73
100
AcDbEntity
  8
D01 金物
 62
   250
420
  3947580
370
     0
100
AcDbFaceRecord
 10
0.0
 20
0.0
 30
0.0
 70
   128
 71
   130
 72
   129
 73
   131
 74
   132
  0
VERTEX
  5
25B
330
73
100
AcDbEntity
  8
D01 金物
 62
   250
420
  3947580
370
     0
100
AcDbFaceRecord
 10
0.0
 20
0.0
 30
0.0
 70
   128
 71
   132
 72
   131
 73
   133
 74
   134
  0
VERTEX
  5
25C
330
73
100
AcDbEntity
  8
D01 金物
 62
   250
420
  3947580
370
     0
100
AcDbFaceRecord
 10
0.0
 20
0.0
 30
0.0
 70
   128
 71
   134
 72
   133
 73
   135
 74
   136
  0
VERTEX
  5
25D
330
73
100
AcDbEntity
  8
D01 金物
 62
   250
420
  3947580
370
     0
100
AcDbFaceRecord
 10
0.0
 20
0.0
 30
0.0
 70
   128
 71
   136
 72
   135
 73
   137
 74
   138
  0
VERTEX
  5
25E
330
73
100
AcDbEntity
  8
D01 金物
 62
   250
420
  3947580
370
     0
100
AcDbFaceRecord
 10
0.0
 20
0.0
 30
0.0
 70
   128
 71
   138
 72
   137
 73
   139
 74
   140
  0
VERTEX
  5
25F
330
73
100
AcDbEntity
  8
D01 金物
 62
   250
420
  3947580
370
     0
100
AcDbFaceRecord
 10
0.0
 20
0.0
 30
0.0
 70
   128
 71
   140
 72
   139
 73
   141
 74
   142
  0
VERTEX
  5
260
330
73
100
AcDbEntity
  8
D01 金物
 62
   250
420
  3947580
370
     0
100
AcDbFaceRecord
 10
0.0
 20
0.0
 30
0.0
 70
   128
 71
   142
 72
   141
 73
   143
 74
   144
  0
VERTEX
  5
261
330
73
100
AcDbEntity
  8
D01 金物
 62
   250
420
  3947580
370
     0
100
AcDbFaceRecord
 10
0.0
 20
0.0
 30
0.0
 70
   128
 71
   144
 72
   143
 73
   145
 74
   146
  0
VERTEX
  5
262
330
73
100
AcDbEntity
  8
D01 金物
 62
   250
420
  3947580
370
     0
100
AcDbFaceRecord
 10
0.0
 20
0.0
 30
0.0
 70
   128
 71
   146
 72
   145
 73
   147
 74
   148
  0
VERTEX
  5
263
330
73
100
AcDbEntity
  8
D01 金物
 62
   250
420
  3947580
370
     0
100
AcDbFaceRecord
 10
0.0
 20
0.0
 30
0.0
 70
   128
 71
   148
 72
   147
 73
   149
 74
   150
  0
VERTEX
  5
264
330
73
100
AcDbEntity
  8
D01 金物
 62
   250
420
  3947580
370
     0
100
AcDbFaceRecord
 10
0.0
 20
0.0
 30
0.0
 70
   128
 71
   150
 72
   149
 73
   151
 74
   152
  0
VERTEX
  5
265
330
73
100
AcDbEntity
  8
D01 金物
 62
   250
420
  3947580
370
     0
100
AcDbFaceRecord
 10
0.0
 20
0.0
 30
0.0
 70
   128
 71
   152
 72
   151
 73
   122
 74
   121
  0
VERTEX
  5
266
330
73
100
AcDbEntity
  8
D01 金物
 62
   250
420
  3947580
370
     0
100
AcDbFaceRecord
 10
0.0
 20
0.0
 30
0.0
 70
   128
 71
  -132
 72
   136
 73
  -138
  0
VERTEX
  5
267
330
73
100
AcDbEntity
  8
D01 金物
 62
   250
420
  3947580
370
     0
100
AcDbFaceRecord
 10
0.0
 20
0.0
 30
0.0
 70
   128
 71
   130
 72
  -132
 73
  -138
  0
VERTEX
  5
268
330
73
100
AcDbEntity
  8
D01 金物
 62
   250
420
  3947580
370
     0
100
AcDbFaceRecord
 10
0.0
 20
0.0
 30
0.0
 70
   128
 71
  -130
 72
   138
 73
  -140
  0
VERTEX
  5
269
330
73
100
AcDbEntity
  8
D01 金物
 62
   250
420
  3947580
370
     0
100
AcDbFaceRecord
 10
0.0
 20
0.0
 30
0.0
 70
   128
 71
   128
 72
  -130
 73
  -140
  0
VERTEX
  5
26A
330
73
100
AcDbEntity
  8
D01 金物
 62
   250
420
  3947580
370
     0
100
AcDbFaceRecord
 10
0.0
 20
0.0
 30
0.0
 70
   128
 71
  -128
 72
   140
 73
  -142
  0
VERTEX
  5
26B
330
73
100
AcDbEntity
  8
D01 金物
 62
   250
420
  3947580
370
     0
100
AcDbFaceRecord
 10
0.0
 20
0.0
 30
0.0
 70
   128
 71
   126
 72
  -128
 73
  -142
  0
VERTEX
  5
26C
330
73
100
AcDbEntity
  8
D01 金物
 62
   250
420
  3947580
370
     0
100
AcDbFaceRecord
 10
0.0
 20
0.0
 30
0.0
 70
   128
 71
   124
 72
  -126
 73
  -142
  0
VERTEX
  5
26D
330
73
100
AcDbEntity
  8
D01 金物
 62
   250
420
  3947580
370
     0
100
AcDbFaceRecord
 10
0.0
 20
0.0
 30
0.0
 70
   128
 71
   121
 72
  -124
 73
  -142
  0
VERTEX
  5
26E
330
73
100
AcDbEntity
  8
D01 金物
 62
   250
420
  3947580
370
     0
100
AcDbFaceRecord
 10
0.0
 20
0.0
 30
0.0
 70
   128
 71
   152
 72
  -121
 73
  -142
  0
VERTEX
  5
26F
330
73
100
AcDbEntity
  8
D01 金物
 62
   250
420
  3947580
370
     0
100
AcDbFaceRecord
 10
0.0
 20
0.0
 30
0.0
 70
   128
 71
   150
 72
  -152
 73
  -142
  0
VERTEX
  5
270
330
73
100
AcDbEntity
  8
D01 金物
 62
   250
420
  3947580
370
     0
100
AcDbFaceRecord
 10
0.0
 20
0.0
 30
0.0
 70
   128
 71
   148
 72
  -150
 73
  -142
  0
VERTEX
  5
271
330
73
100
AcDbEntity
  8
D01 金物
 62
   250
420
  3947580
370
     0
100
AcDbFaceRecord
 10
0.0
 20
0.0
 30
0.0
 70
   128
 71
   146
 72
  -148
 73
  -142
  0
VERTEX
  5
272
330
73
100
AcDbEntity
  8
D01 金物
 62
   250
420
  3947580
370
     0
100
AcDbFaceRecord
 10
0.0
 20
0.0
 30
0.0
 70
   128
 71
   144
 72
  -146
 73
   142
  0
VERTEX
  5
273
330
73
100
AcDbEntity
  8
D01 金物
 62
   250
420
  3947580
370
     0
100
AcDbFaceRecord
 10
0.0
 20
0.0
 30
0.0
 70
   128
 71
   137
 72
  -135
 73
  -131
  0
VERTEX
  5
274
330
73
100
AcDbEntity
  8
D01 金物
 62
   250
420
  3947580
370
     0
100
AcDbFaceRecord
 10
0.0
 20
0.0
 30
0.0
 70
   128
 71
  -137
 72
   131
 73
  -129
  0
VERTEX
  5
275
330
73
100
AcDbEntity
  8
D01 金物
 62
   250
420
  3947580
370
     0
100
AcDbFaceRecord
 10
0.0
 20
0.0
 30
0.0
 70
   128
 71
   139
 72
  -137
 73
  -129
  0
VERTEX
  5
276
330
73
100
AcDbEntity
  8
D01 金物
 62
   250
420
  3947580
370
     0
100
AcDbFaceRecord
 10
0.0
 20
0.0
 30
0.0
 70
   128
 71
  -139
 72
   129
 73
  -127
  0
VERTEX
  5
277
330
73
100
AcDbEntity
  8
D01 金物
 62
   250
420
  3947580
370
     0
100
AcDbFaceRecord
 10
0.0
 20
0.0
 30
0.0
 70
   128
 71
   141
 72
  -139
 73
  -127
  0
VERTEX
  5
278
330
73
100
AcDbEntity
  8
D01 金物
 62
   250
420
  3947580
370
     0
100
AcDbFaceRecord
 10
0.0
 20
0.0
 30
0.0
 70
   128
 71
  -141
 72
   127
 73
  -125
  0
VERTEX
  5
279
330
73
100
AcDbEntity
  8
D01 金物
 62
   250
420
  3947580
370
     0
100
AcDbFaceRecord
 10
0.0
 20
0.0
 30
0.0
 70
   128
 71
  -141
 72
   125
 73
  -123
  0
VERTEX
  5
27A
330
73
100
AcDbEntity
  8
D01 金物
 62
   250
420
  3947580
370
     0
100
AcDbFaceRecord
 10
0.0
 20
0.0
 30
0.0
 70
   128
 71
  -141
 72
   123
 73
  -122
  0
VERTEX
  5
27B
330
73
100
AcDbEntity
  8
D01 金物
 62
   250
420
  3947580
370
     0
100
AcDbFaceRecord
 10
0.0
 20
0.0
 30
0.0
 70
   128
 71
  -141
 72
   122
 73
  -151
  0
VERTEX
  5
27C
330
73
100
AcDbEntity
  8
D01 金物
 62
   250
420
  3947580
370
     0
100
AcDbFaceRecord
 10
0.0
 20
0.0
 30
0.0
 70
   128
 71
  -141
 72
   151
 73
  -149
  0
VERTEX
  5
27D
330
73
100
AcDbEntity
  8
D01 金物
 62
   250
420
  3947580
370
     0
100
AcDbFaceRecord
 10
0.0
 20
0.0
 30
0.0
 70
   128
 71
  -141
 72
   149
 73
  -147
  0
VERTEX
  5
27E
330
73
100
AcDbEntity
  8
D01 金物
 62
   250
420
  3947580
370
     0
100
AcDbFaceRecord
 10
0.0
 20
0.0
 30
0.0
 70
   128
 71
  -141
 72
   147
 73
  -145
  0
VERTEX
  5
27F
330
73
100
AcDbEntity
  8
D01 金物
 62
   250
420
  3947580
370
     0
100
AcDbFaceRecord
 10
0.0
 20
0.0
 30
0.0
 70
   128
 71
   143
 72
  -141
 73
   145
  0
VERTEX
  5
280
330
73
100
AcDbEntity
  8
D01 金物
 62
   250
420
  3947580
370
     0
100
AcDbFaceRecord
 10
0.0
 20
0.0
 30
0.0
 70
   128
 71
   153
 72
   154
 73
   155
 74
   156
  0
VERTEX
  5
281
330
73
100
AcDbEntity
  8
D01 金物
 62
   250
420
  3947580
370
     0
100
AcDbFaceRecord
 10
0.0
 20
0.0
 30
0.0
 70
   128
 71
   154
 72
   157
 73
   158
 74
   155
  0
VERTEX
  5
282
330
73
100
AcDbEntity
  8
D01 金物
 62
   250
420
  3947580
370
     0
100
AcDbFaceRecord
 10
0.0
 20
0.0
 30
0.0
 70
   128
 71
   157
 72
   159
 73
   160
 74
   158
  0
VERTEX
  5
283
330
73
100
AcDbEntity
  8
D01 金物
 62
   250
420
  3947580
370
     0
100
AcDbFaceRecord
 10
0.0
 20
0.0
 30
0.0
 70
   128
 71
   159
 72
   161
 73
   162
 74
   160
  0
VERTEX
  5
284
330
73
100
AcDbEntity
  8
D01 金物
 62
   250
420
  3947580
370
     0
100
AcDbFaceRecord
 10
0.0
 20
0.0
 30
0.0
 70
   128
 71
   161
 72
   163
 73
   164
 74
   162
  0
VERTEX
  5
285
330
73
100
AcDbEntity
  8
D01 金物
 62
   250
420
  3947580
370
     0
100
AcDbFaceRecord
 10
0.0
 20
0.0
 30
0.0
 70
   128
 71
   163
 72
   165
 73
   166
 74
   164
  0
VERTEX
  5
286
330
73
100
AcDbEntity
  8
D01 金物
 62
   250
420
  3947580
370
     0
100
AcDbFaceRecord
 10
0.0
 20
0.0
 30
0.0
 70
   128
 71
   165
 72
   167
 73
   168
 74
   166
  0
VERTEX
  5
287
330
73
100
AcDbEntity
  8
D01 金物
 62
   250
420
  3947580
370
     0
100
AcDbFaceRecord
 10
0.0
 20
0.0
 30
0.0
 70
   128
 71
   167
 72
   169
 73
   170
 74
   168
  0
VERTEX
  5
288
330
73
100
AcDbEntity
  8
D01 金物
 62
   250
420
  3947580
370
     0
100
AcDbFaceRecord
 10
0.0
 20
0.0
 30
0.0
 70
   128
 71
   169
 72
   171
 73
   172
 74
   170
  0
VERTEX
  5
289
330
73
100
AcDbEntity
  8
D01 金物
 62
   250
420
  3947580
370
     0
100
AcDbFaceRecord
 10
0.0
 20
0.0
 30
0.0
 70
   128
 71
   171
 72
   173
 73
   174
 74
   172
  0
VERTEX
  5
28A
330
73
100
AcDbEntity
  8
D01 金物
 62
   250
420
  3947580
370
     0
100
AcDbFaceRecord
 10
0.0
 20
0.0
 30
0.0
 70
   128
 71
   173
 72
   175
 73
   176
 74
   174
  0
VERTEX
  5
28B
330
73
100
AcDbEntity
  8
D01 金物
 62
   250
420
  3947580
370
     0
100
AcDbFaceRecord
 10
0.0
 20
0.0
 30
0.0
 70
   128
 71
   175
 72
   177
 73
   178
 74
   176
  0
VERTEX
  5
28C
330
73
100
AcDbEntity
  8
D01 金物
 62
   250
420
  3947580
370
     0
100
AcDbFaceRecord
 10
0.0
 20
0.0
 30
0.0
 70
   128
 71
   177
 72
   179
 73
   180
 74
   178
  0
VERTEX
  5
28D
330
73
100
AcDbEntity
  8
D01 金物
 62
   250
420
  3947580
370
     0
100
AcDbFaceRecord
 10
0.0
 20
0.0
 30
0.0
 70
   128
 71
   179
 72
   181
 73
   182
 74
   180
  0
VERTEX
  5
28E
330
73
100
AcDbEntity
  8
D01 金物
 62
   250
420
  3947580
370
     0
100
AcDbFaceRecord
 10
0.0
 20
0.0
 30
0.0
 70
   128
 71
   181
 72
   183
 73
   184
 74
   182
  0
VERTEX
  5
28F
330
73
100
AcDbEntity
  8
D01 金物
 62
   250
420
  3947580
370
     0
100
AcDbFaceRecord
 10
0.0
 20
0.0
 30
0.0
 70
   128
 71
   183
 72
   185
 73
   186
 74
   184
  0
VERTEX
  5
290
330
73
100
AcDbEntity
  8
D01 金物
 62
   250
420
  3947580
370
     0
100
AcDbFaceRecord
 10
0.0
 20
0.0
 30
0.0
 70
   128
 71
   185
 72
   187
 73
   188
 74
   186
  0
VERTEX
  5
291
330
73
100
AcDbEntity
  8
D01 金物
 62
   250
420
  3947580
370
     0
100
AcDbFaceRecord
 10
0.0
 20
0.0
 30
0.0
 70
   128
 71
   187
 72
   189
 73
   190
 74
   188
  0
VERTEX
  5
292
330
73
100
AcDbEntity
  8
D01 金物
 62
   250
420
  3947580
370
     0
100
AcDbFaceRecord
 10
0.0
 20
0.0
 30
0.0
 70
   128
 71
   189
 72
   191
 73
   192
 74
   190
  0
VERTEX
  5
293
330
73
100
AcDbEntity
  8
D01 金物
 62
   250
420
  3947580
370
     0
100
AcDbFaceRecord
 10
0.0
 20
0.0
 30
0.0
 70
   128
 71
   191
 72
   193
 73
   194
 74
   192
  0
VERTEX
  5
294
330
73
100
AcDbEntity
  8
D01 金物
 62
   250
420
  3947580
370
     0
100
AcDbFaceRecord
 10
0.0
 20
0.0
 30
0.0
 70
   128
 71
   193
 72
   195
 73
   196
 74
   194
  0
VERTEX
  5
295
330
73
100
AcDbEntity
  8
D01 金物
 62
   250
420
  3947580
370
     0
100
AcDbFaceRecord
 10
0.0
 20
0.0
 30
0.0
 70
   128
 71
   195
 72
   197
 73
   198
 74
   196
  0
VERTEX
  5
296
330
73
100
AcDbEntity
  8
D01 金物
 62
   250
420
  3947580
370
     0
100
AcDbFaceRecord
 10
0.0
 20
0.0
 30
0.0
 70
   128
 71
   197
 72
   199
 73
   200
 74
   198
  0
VERTEX
  5
297
330
73
100
AcDbEntity
  8
D01 金物
 62
   250
420
  3947580
370
     0
100
AcDbFaceRecord
 10
0.0
 20
0.0
 30
0.0
 70
   128
 71
   199
 72
   201
 73
   202
 74
   200
  0
VERTEX
  5
298
330
73
100
AcDbEntity
  8
D01 金物
 62
   250
420
  3947580
370
     0
100
AcDbFaceRecord
 10
0.0
 20
0.0
 30
0.0
 70
   128
 71
   201
 72
   203
 73
   204
 74
   202
  0
VERTEX
  5
299
330
73
100
AcDbEntity
  8
D01 金物
 62
   250
420
  3947580
370
     0
100
AcDbFaceRecord
 10
0.0
 20
0.0
 30
0.0
 70
   128
 71
   203
 72
   205
 73
   206
 74
   204
  0
VERTEX
  5
29A
330
73
100
AcDbEntity
  8
D01 金物
 62
   250
420
  3947580
370
     0
100
AcDbFaceRecord
 10
0.0
 20
0.0
 30
0.0
 70
   128
 71
   205
 72
   207
 73
   208
 74
   206
  0
VERTEX
  5
29B
330
73
100
AcDbEntity
  8
D01 金物
 62
   250
420
  3947580
370
     0
100
AcDbFaceRecord
 10
0.0
 20
0.0
 30
0.0
 70
   128
 71
   207
 72
   209
 73
   210
 74
   208
  0
VERTEX
  5
29C
330
73
100
AcDbEntity
  8
D01 金物
 62
   250
420
  3947580
370
     0
100
AcDbFaceRecord
 10
0.0
 20
0.0
 30
0.0
 70
   128
 71
   209
 72
   211
 73
   212
 74
   210
  0
VERTEX
  5
29D
330
73
100
AcDbEntity
  8
D01 金物
 62
   250
420
  3947580
370
     0
100
AcDbFaceRecord
 10
0.0
 20
0.0
 30
0.0
 70
   128
 71
   211
 72
   213
 73
   214
 74
   212
  0
VERTEX
  5
29E
330
73
100
AcDbEntity
  8
D01 金物
 62
   250
420
  3947580
370
     0
100
AcDbFaceRecord
 10
0.0
 20
0.0
 30
0.0
 70
   128
 71
   213
 72
   215
 73
   216
 74
   214
  0
VERTEX
  5
29F
330
73
100
AcDbEntity
  8
D01 金物
 62
   250
420
  3947580
370
     0
100
AcDbFaceRecord
 10
0.0
 20
0.0
 30
0.0
 70
   128
 71
   215
 72
   217
 73
   218
 74
   216
  0
VERTEX
  5
2A0
330
73
100
AcDbEntity
  8
D01 金物
 62
   250
420
  3947580
370
     0
100
AcDbFaceRecord
 10
0.0
 20
0.0
 30
0.0
 70
   128
 71
   217
 72
   219
 73
   220
 74
   218
  0
VERTEX
  5
2A1
330
73
100
AcDbEntity
  8
D01 金物
 62
   250
420
  3947580
370
     0
100
AcDbFaceRecord
 10
0.0
 20
0.0
 30
0.0
 70
   128
 71
   219
 72
   221
 73
   222
 74
   220
  0
VERTEX
  5
2A2
330
73
100
AcDbEntity
  8
D01 金物
 62
   250
420
  3947580
370
     0
100
AcDbFaceRecord
 10
0.0
 20
0.0
 30
0.0
 70
   128
 71
   221
 72
   223
 73
   224
 74
   222
  0
VERTEX
  5
2A3
330
73
100
AcDbEntity
  8
D01 金物
 62
   250
420
  3947580
370
     0
100
AcDbFaceRecord
 10
0.0
 20
0.0
 30
0.0
 70
   128
 71
   223
 72
   225
 73
   226
 74
   224
  0
VERTEX
  5
2A4
330
73
100
AcDbEntity
  8
D01 金物
 62
   250
420
  3947580
370
     0
100
AcDbFaceRecord
 10
0.0
 20
0.0
 30
0.0
 70
   128
 71
   225
 72
   227
 73
   228
 74
   226
  0
VERTEX
  5
2A5
330
73
100
AcDbEntity
  8
D01 金物
 62
   250
420
  3947580
370
     0
100
AcDbFaceRecord
 10
0.0
 20
0.0
 30
0.0
 70
   128
 71
   227
 72
   229
 73
   230
 74
   228
  0
VERTEX
  5
2A6
330
73
100
AcDbEntity
  8
D01 金物
 62
   250
420
  3947580
370
     0
100
AcDbFaceRecord
 10
0.0
 20
0.0
 30
0.0
 70
   128
 71
   229
 72
   231
 73
   232
 74
   230
  0
VERTEX
  5
2A7
330
73
100
AcDbEntity
  8
D01 金物
 62
   250
420
  3947580
370
     0
100
AcDbFaceRecord
 10
0.0
 20
0.0
 30
0.0
 70
   128
 71
   231
 72
   233
 73
   234
 74
   232
  0
VERTEX
  5
2A8
330
73
100
AcDbEntity
  8
D01 金物
 62
   250
420
  3947580
370
     0
100
AcDbFaceRecord
 10
0.0
 20
0.0
 30
0.0
 70
   128
 71
   233
 72
   153
 73
   156
 74
   234
  0
VERTEX
  5
2A9
330
73
100
AcDbEntity
  8
D01 金物
 62
   250
420
  3947580
370
     0
100
AcDbFaceRecord
 10
0.0
 20
0.0
 30
0.0
 70
   128
 71
   209
 72
   207
 73
  -205
  0
VERTEX
  5
2AA
330
73
100
AcDbEntity
  8
D01 金物
 62
   250
420
  3947580
370
     0
100
AcDbFaceRecord
 10
0.0
 20
0.0
 30
0.0
 70
   128
 71
  -209
 72
   205
 73
  -203
  0
VERTEX
  5
2AB
330
73
100
AcDbEntity
  8
D01 金物
 62
   250
420
  3947580
370
     0
100
AcDbFaceRecord
 10
0.0
 20
0.0
 30
0.0
 70
   128
 71
   211
 72
  -209
 73
  -203
  0
VERTEX
  5
2AC
330
73
100
AcDbEntity
  8
D01 金物
 62
   250
420
  3947580
370
     0
100
AcDbFaceRecord
 10
0.0
 20
0.0
 30
0.0
 70
   128
 71
  -211
 72
   203
 73
  -201
  0
VERTEX
  5
2AD
330
73
100
AcDbEntity
  8
D01 金物
 62
   250
420
  3947580
370
     0
100
AcDbFaceRecord
 10
0.0
 20
0.0
 30
0.0
 70
   128
 71
  -161
 72
   157
 73
  -154
  0
VERTEX
  5
2AE
330
73
100
AcDbEntity
  8
D01 金物
 62
   250
420
  3947580
370
     0
100
AcDbFaceRecord
 10
0.0
 20
0.0
 30
0.0
 70
   128
 71
   159
 72
  -157
 73
   161
  0
VERTEX
  5
2AF
330
73
100
AcDbEntity
  8
D01 金物
 62
   250
420
  3947580
370
     0
100
AcDbFaceRecord
 10
0.0
 20
0.0
 30
0.0
 70
   128
 71
   181
 72
   179
 73
  -177
  0
VERTEX
  5
2B0
330
73
100
AcDbEntity
  8
D01 金物
 62
   250
420
  3947580
370
     0
100
AcDbFaceRecord
 10
0.0
 20
0.0
 30
0.0
 70
   128
 71
  -181
 72
   177
 73
  -175
  0
VERTEX
  5
2B1
330
73
100
AcDbEntity
  8
D01 金物
 62
   250
420
  3947580
370
     0
100
AcDbFaceRecord
 10
0.0
 20
0.0
 30
0.0
 70
   128
 71
   163
 72
  -161
 73
  -154
  0
VERTEX
  5
2B2
330
73
100
AcDbEntity
  8
D01 金物
 62
   250
420
  3947580
370
     0
100
AcDbFaceRecord
 10
0.0
 20
0.0
 30
0.0
 70
   128
 71
  -181
 72
   175
 73
  -173
  0
VERTEX
  5
2B3
330
73
100
AcDbEntity
  8
D01 金物
 62
   250
420
  3947580
370
     0
100
AcDbFaceRecord
 10
0.0
 20
0.0
 30
0.0
 70
   128
 71
   167
 72
   165
 73
  -163
  0
VERTEX
  5
2B4
330
73
100
AcDbEntity
  8
D01 金物
 62
   250
420
  3947580
370
     0
100
AcDbFaceRecord
 10
0.0
 20
0.0
 30
0.0
 70
   128
 71
   183
 72
  -181
 73
  -173
  0
VERTEX
  5
2B5
330
73
100
AcDbEntity
  8
D01 金物
 62
   250
420
  3947580
370
     0
100
AcDbFaceRecord
 10
0.0
 20
0.0
 30
0.0
 70
   128
 71
   169
 72
  -167
 73
  -163
  0
VERTEX
  5
2B6
330
73
100
AcDbEntity
  8
D01 金物
 62
   250
420
  3947580
370
     0
100
AcDbFaceRecord
 10
0.0
 20
0.0
 30
0.0
 70
   128
 71
  -183
 72
   173
 73
  -171
  0
VERTEX
  5
2B7
330
73
100
AcDbEntity
  8
D01 金物
 62
   250
420
  3947580
370
     0
100
AcDbFaceRecord
 10
0.0
 20
0.0
 30
0.0
 70
   128
 71
  -187
 72
   171
 73
  -169
  0
VERTEX
  5
2B8
330
73
100
AcDbEntity
  8
D01 金物
 62
   250
420
  3947580
370
     0
100
AcDbFaceRecord
 10
0.0
 20
0.0
 30
0.0
 70
   128
 71
  -187
 72
  -169
 73
  -163
  0
VERTEX
  5
2B9
330
73
100
AcDbEntity
  8
D01 金物
 62
   250
420
  3947580
370
     0
100
AcDbFaceRecord
 10
0.0
 20
0.0
 30
0.0
 70
   128
 71
   185
 72
  -183
 73
  -171
  0
VERTEX
  5
2BA
330
73
100
AcDbEntity
  8
D01 金物
 62
   250
420
  3947580
370
     0
100
AcDbFaceRecord
 10
0.0
 20
0.0
 30
0.0
 70
   128
 71
  -185
 72
  -171
 73
   187
  0
VERTEX
  5
2BB
330
73
100
AcDbEntity
  8
D01 金物
 62
   250
420
  3947580
370
     0
100
AcDbFaceRecord
 10
0.0
 20
0.0
 30
0.0
 70
   128
 71
   213
 72
  -211
 73
  -201
  0
VERTEX
  5
2BC
330
73
100
AcDbEntity
  8
D01 金物
 62
   250
420
  3947580
370
     0
100
AcDbFaceRecord
 10
0.0
 20
0.0
 30
0.0
 70
   128
 71
  -213
 72
   201
 73
  -199
  0
VERTEX
  5
2BD
330
73
100
AcDbEntity
  8
D01 金物
 62
   250
420
  3947580
370
     0
100
AcDbFaceRecord
 10
0.0
 20
0.0
 30
0.0
 70
   128
 71
   215
 72
  -213
 73
  -199
  0
VERTEX
  5
2BE
330
73
100
AcDbEntity
  8
D01 金物
 62
   250
420
  3947580
370
     0
100
AcDbFaceRecord
 10
0.0
 20
0.0
 30
0.0
 70
   128
 71
  -215
 72
   199
 73
  -197
  0
VERTEX
  5
2BF
330
73
100
AcDbEntity
  8
D01 金物
 62
   250
420
  3947580
370
     0
100
AcDbFaceRecord
 10
0.0
 20
0.0
 30
0.0
 70
   128
 71
  -215
 72
   197
 73
  -195
  0
VERTEX
  5
2C0
330
73
100
AcDbEntity
  8
D01 金物
 62
   250
420
  3947580
370
     0
100
AcDbFaceRecord
 10
0.0
 20
0.0
 30
0.0
 70
   128
 71
  -163
 72
   154
 73
  -153
  0
VERTEX
  5
2C1
330
73
100
AcDbEntity
  8
D01 金物
 62
   250
420
  3947580
370
     0
100
AcDbFaceRecord
 10
0.0
 20
0.0
 30
0.0
 70
   128
 71
  -187
 72
  -163
 73
  -153
  0
VERTEX
  5
2C2
330
73
100
AcDbEntity
  8
D01 金物
 62
   250
420
  3947580
370
     0
100
AcDbFaceRecord
 10
0.0
 20
0.0
 30
0.0
 70
   128
 71
   153
 72
   233
 73
  -231
  0
VERTEX
  5
2C3
330
73
100
AcDbEntity
  8
D01 金物
 62
   250
420
  3947580
370
     0
100
AcDbFaceRecord
 10
0.0
 20
0.0
 30
0.0
 70
   128
 71
   189
 72
  -187
 73
  -153
  0
VERTEX
  5
2C4
330
73
100
AcDbEntity
  8
D01 金物
 62
   250
420
  3947580
370
     0
100
AcDbFaceRecord
 10
0.0
 20
0.0
 30
0.0
 70
   128
 71
  -189
 72
  -153
 73
  -231
  0
VERTEX
  5
2C5
330
73
100
AcDbEntity
  8
D01 金物
 62
   250
420
  3947580
370
     0
100
AcDbFaceRecord
 10
0.0
 20
0.0
 30
0.0
 70
   128
 71
   195
 72
  -193
 73
  -227
  0
VERTEX
  5
2C6
330
73
100
AcDbEntity
  8
D01 金物
 62
   250
420
  3947580
370
     0
100
AcDbFaceRecord
 10
0.0
 20
0.0
 30
0.0
 70
   128
 71
  -195
 72
   227
 73
  -225
  0
VERTEX
  5
2C7
330
73
100
AcDbEntity
  8
D01 金物
 62
   250
420
  3947580
370
     0
100
AcDbFaceRecord
 10
0.0
 20
0.0
 30
0.0
 70
   128
 71
  -215
 72
  -195
 73
  -225
  0
VERTEX
  5
2C8
330
73
100
AcDbEntity
  8
D01 金物
 62
   250
420
  3947580
370
     0
100
AcDbFaceRecord
 10
0.0
 20
0.0
 30
0.0
 70
   128
 71
  -215
 72
   225
 73
  -223
  0
VERTEX
  5
2C9
330
73
100
AcDbEntity
  8
D01 金物
 62
   250
420
  3947580
370
     0
100
AcDbFaceRecord
 10
0.0
 20
0.0
 30
0.0
 70
   128
 71
  -227
 72
   193
 73
  -191
  0
VERTEX
  5
2CA
330
73
100
AcDbEntity
  8
D01 金物
 62
   250
420
  3947580
370
     0
100
AcDbFaceRecord
 10
0.0
 20
0.0
 30
0.0
 70
   128
 71
   191
 72
  -189
 73
  -231
  0
VERTEX
  5
2CB
330
73
100
AcDbEntity
  8
D01 金物
 62
   250
420
  3947580
370
     0
100
AcDbFaceRecord
 10
0.0
 20
0.0
 30
0.0
 70
   128
 71
   217
 72
  -215
 73
  -223
  0
VERTEX
  5
2CC
330
73
100
AcDbEntity
  8
D01 金物
 62
   250
420
  3947580
370
     0
100
AcDbFaceRecord
 10
0.0
 20
0.0
 30
0.0
 70
   128
 71
   229
 72
  -227
 73
  -191
  0
VERTEX
  5
2CD
330
73
100
AcDbEntity
  8
D01 金物
 62
   250
420
  3947580
370
     0
100
AcDbFaceRecord
 10
0.0
 20
0.0
 30
0.0
 70
   128
 71
  -229
 72
  -191
 73
   231
  0
VERTEX
  5
2CE
330
73
100
AcDbEntity
  8
D01 金物
 62
   250
420
  3947580
370
     0
100
AcDbFaceRecord
 10
0.0
 20
0.0
 30
0.0
 70
   128
 71
  -217
 72
   223
 73
  -221
  0
VERTEX
  5
2CF
330
73
100
AcDbEntity
  8
D01 金物
 62
   250
420
  3947580
370
     0
100
AcDbFaceRecord
 10
0.0
 20
0.0
 30
0.0
 70
   128
 71
   219
 72
  -217
 73
   221
  0
VERTEX
  5
2D0
330
73
100
AcDbEntity
  8
D01 金物
 62
   250
420
  3947580
370
     0
100
AcDbFaceRecord
 10
0.0
 20
0.0
 30
0.0
 70
   128
 71
   206
 72
   208
 73
  -210
  0
VERTEX
  5
2D1
330
73
100
AcDbEntity
  8
D01 金物
 62
   250
420
  3947580
370
     0
100
AcDbFaceRecord
 10
0.0
 20
0.0
 30
0.0
 70
   128
 71
   204
 72
  -206
 73
  -210
  0
VERTEX
  5
2D2
330
73
100
AcDbEntity
  8
D01 金物
 62
   250
420
  3947580
370
     0
100
AcDbFaceRecord
 10
0.0
 20
0.0
 30
0.0
 70
   128
 71
  -204
 72
   210
 73
  -212
  0
VERTEX
  5
2D3
330
73
100
AcDbEntity
  8
D01 金物
 62
   250
420
  3947580
370
     0
100
AcDbFaceRecord
 10
0.0
 20
0.0
 30
0.0
 70
   128
 71
   202
 72
  -204
 73
  -212
  0
VERTEX
  5
2D4
330
73
100
AcDbEntity
  8
D01 金物
 62
   250
420
  3947580
370
     0
100
AcDbFaceRecord
 10
0.0
 20
0.0
 30
0.0
 70
   128
 71
   155
 72
  -158
 73
  -162
  0
VERTEX
  5
2D5
330
73
100
AcDbEntity
  8
D01 金物
 62
   250
420
  3947580
370
     0
100
AcDbFaceRecord
 10
0.0
 20
0.0
 30
0.0
 70
   128
 71
   160
 72
  -162
 73
   158
  0
VERTEX
  5
2D6
330
73
100
AcDbEntity
  8
D01 金物
 62
   250
420
  3947580
370
     0
100
AcDbFaceRecord
 10
0.0
 20
0.0
 30
0.0
 70
   128
 71
   178
 72
   180
 73
  -182
  0
VERTEX
  5
2D7
330
73
100
AcDbEntity
  8
D01 金物
 62
   250
420
  3947580
370
     0
100
AcDbFaceRecord
 10
0.0
 20
0.0
 30
0.0
 70
   128
 71
   176
 72
  -178
 73
  -182
  0
VERTEX
  5
2D8
330
73
100
AcDbEntity
  8
D01 金物
 62
   250
420
  3947580
370
     0
100
AcDbFaceRecord
 10
0.0
 20
0.0
 30
0.0
 70
   128
 71
  -155
 72
   162
 73
  -164
  0
VERTEX
  5
2D9
330
73
100
AcDbEntity
  8
D01 金物
 62
   250
420
  3947580
370
     0
100
AcDbFaceRecord
 10
0.0
 20
0.0
 30
0.0
 70
   128
 71
   174
 72
  -176
 73
  -182
  0
VERTEX
  5
2DA
330
73
100
AcDbEntity
  8
D01 金物
 62
   250
420
  3947580
370
     0
100
AcDbFaceRecord
 10
0.0
 20
0.0
 30
0.0
 70
   128
 71
   164
 72
   166
 73
  -168
  0
VERTEX
  5
2DB
330
73
100
AcDbEntity
  8
D01 金物
 62
   250
420
  3947580
370
     0
100
AcDbFaceRecord
 10
0.0
 20
0.0
 30
0.0
 70
   128
 71
  -174
 72
   182
 73
  -184
  0
VERTEX
  5
2DC
330
73
100
AcDbEntity
  8
D01 金物
 62
   250
420
  3947580
370
     0
100
AcDbFaceRecord
 10
0.0
 20
0.0
 30
0.0
 70
   128
 71
  -164
 72
   168
 73
  -170
  0
VERTEX
  5
2DD
330
73
100
AcDbEntity
  8
D01 金物
 62
   250
420
  3947580
370
     0
100
AcDbFaceRecord
 10
0.0
 20
0.0
 30
0.0
 70
   128
 71
   172
 72
  -174
 73
  -184
  0
VERTEX
  5
2DE
330
73
100
AcDbEntity
  8
D01 金物
 62
   250
420
  3947580
370
     0
100
AcDbFaceRecord
 10
0.0
 20
0.0
 30
0.0
 70
   128
 71
   170
 72
  -172
 73
  -188
  0
VERTEX
  5
2DF
330
73
100
AcDbEntity
  8
D01 金物
 62
   250
420
  3947580
370
     0
100
AcDbFaceRecord
 10
0.0
 20
0.0
 30
0.0
 70
   128
 71
  -164
 72
  -170
 73
  -188
  0
VERTEX
  5
2E0
330
73
100
AcDbEntity
  8
D01 金物
 62
   250
420
  3947580
370
     0
100
AcDbFaceRecord
 10
0.0
 20
0.0
 30
0.0
 70
   128
 71
   186
 72
  -188
 73
  -172
  0
VERTEX
  5
2E1
330
73
100
AcDbEntity
  8
D01 金物
 62
   250
420
  3947580
370
     0
100
AcDbFaceRecord
 10
0.0
 20
0.0
 30
0.0
 70
   128
 71
  -186
 72
  -172
 73
   184
  0
VERTEX
  5
2E2
330
73
100
AcDbEntity
  8
D01 金物
 62
   250
420
  3947580
370
     0
100
AcDbFaceRecord
 10
0.0
 20
0.0
 30
0.0
 70
   128
 71
  -202
 72
   212
 73
  -214
  0
VERTEX
  5
2E3
330
73
100
AcDbEntity
  8
D01 金物
 62
   250
420
  3947580
370
     0
100
AcDbFaceRecord
 10
0.0
 20
0.0
 30
0.0
 70
   128
 71
   200
 72
  -202
 73
  -214
  0
VERTEX
  5
2E4
330
73
100
AcDbEntity
  8
D01 金物
 62
   250
420
  3947580
370
     0
100
AcDbFaceRecord
 10
0.0
 20
0.0
 30
0.0
 70
   128
 71
  -200
 72
   214
 73
  -216
  0
VERTEX
  5
2E5
330
73
100
AcDbEntity
  8
D01 金物
 62
   250
420
  3947580
370
     0
100
AcDbFaceRecord
 10
0.0
 20
0.0
 30
0.0
 70
   128
 71
   198
 72
  -200
 73
  -216
  0
VERTEX
  5
2E6
330
73
100
AcDbEntity
  8
D01 金物
 62
   250
420
  3947580
370
     0
100
AcDbFaceRecord
 10
0.0
 20
0.0
 30
0.0
 70
   128
 71
   196
 72
  -198
 73
  -216
  0
VERTEX
  5
2E7
330
73
100
AcDbEntity
  8
D01 金物
 62
   250
420
  3947580
370
     0
100
AcDbFaceRecord
 10
0.0
 20
0.0
 30
0.0
 70
   128
 71
   232
 72
   234
 73
  -156
  0
VERTEX
  5
2E8
330
73
100
AcDbEntity
  8
D01 金物
 62
   250
420
  3947580
370
     0
100
AcDbFaceRecord
 10
0.0
 20
0.0
 30
0.0
 70
   128
 71
   156
 72
  -155
 73
  -164
  0
VERTEX
  5
2E9
330
73
100
AcDbEntity
  8
D01 金物
 62
   250
420
  3947580
370
     0
100
AcDbFaceRecord
 10
0.0
 20
0.0
 30
0.0
 70
   128
 71
  -156
 72
  -164
 73
  -188
  0
VERTEX
  5
2EA
330
73
100
AcDbEntity
  8
D01 金物
 62
   250
420
  3947580
370
     0
100
AcDbFaceRecord
 10
0.0
 20
0.0
 30
0.0
 70
   128
 71
  -156
 72
   188
 73
  -190
  0
VERTEX
  5
2EB
330
73
100
AcDbEntity
  8
D01 金物
 62
   250
420
  3947580
370
     0
100
AcDbFaceRecord
 10
0.0
 20
0.0
 30
0.0
 70
   128
 71
  -232
 72
  -156
 73
  -190
  0
VERTEX
  5
2EC
330
73
100
AcDbEntity
  8
D01 金物
 62
   250
420
  3947580
370
     0
100
AcDbFaceRecord
 10
0.0
 20
0.0
 30
0.0
 70
   128
 71
  -228
 72
   194
 73
  -196
  0
VERTEX
  5
2ED
330
73
100
AcDbEntity
  8
D01 金物
 62
   250
420
  3947580
370
     0
100
AcDbFaceRecord
 10
0.0
 20
0.0
 30
0.0
 70
   128
 71
   226
 72
  -228
 73
  -196
  0
VERTEX
  5
2EE
330
73
100
AcDbEntity
  8
D01 金物
 62
   250
420
  3947580
370
     0
100
AcDbFaceRecord
 10
0.0
 20
0.0
 30
0.0
 70
   128
 71
  -226
 72
  -196
 73
  -216
  0
VERTEX
  5
2EF
330
73
100
AcDbEntity
  8
D01 金物
 62
   250
420
  3947580
370
     0
100
AcDbFaceRecord
 10
0.0
 20
0.0
 30
0.0
 70
   128
 71
   224
 72
  -226
 73
  -216
  0
VERTEX
  5
2F0
330
73
100
AcDbEntity
  8
D01 金物
 62
   250
420
  3947580
370
     0
100
AcDbFaceRecord
 10
0.0
 20
0.0
 30
0.0
 70
   128
 71
  -232
 72
   190
 73
  -192
  0
VERTEX
  5
2F1
330
73
100
AcDbEntity
  8
D01 金物
 62
   250
420
  3947580
370
     0
100
AcDbFaceRecord
 10
0.0
 20
0.0
 30
0.0
 70
   128
 71
   192
 72
  -194
 73
  -228
  0
VERTEX
  5
2F2
330
73
100
AcDbEntity
  8
D01 金物
 62
   250
420
  3947580
370
     0
100
AcDbFaceRecord
 10
0.0
 20
0.0
 30
0.0
 70
   128
 71
  -224
 72
   216
 73
  -218
  0
VERTEX
  5
2F3
330
73
100
AcDbEntity
  8
D01 金物
 62
   250
420
  3947580
370
     0
100
AcDbFaceRecord
 10
0.0
 20
0.0
 30
0.0
 70
   128
 71
   230
 72
  -232
 73
  -192
  0
VERTEX
  5
2F4
330
73
100
AcDbEntity
  8
D01 金物
 62
   250
420
  3947580
370
     0
100
AcDbFaceRecord
 10
0.0
 20
0.0
 30
0.0
 70
   128
 71
  -230
 72
  -192
 73
   228
  0
VERTEX
  5
2F5
330
73
100
AcDbEntity
  8
D01 金物
 62
   250
420
  3947580
370
     0
100
AcDbFaceRecord
 10
0.0
 20
0.0
 30
0.0
 70
   128
 71
   222
 72
  -224
 73
  -218
  0
VERTEX
  5
2F6
330
73
100
AcDbEntity
  8
D01 金物
 62
   250
420
  3947580
370
     0
100
AcDbFaceRecord
 10
0.0
 20
0.0
 30
0.0
 70
   128
 71
   220
 72
  -222
 73
   218
  0
VERTEX
  5
2F7
330
73
100
AcDbEntity
  8
D01 金物
 62
   250
420
  3947580
370
     0
100
AcDbFaceRecord
 10
0.0
 20
0.0
 30
0.0
 70
   128
 71
   235
 72
   236
 73
   237
 74
   238
  0
VERTEX
  5
2F8
330
73
100
AcDbEntity
  8
D01 金物
 62
   250
420
  3947580
370
     0
100
AcDbFaceRecord
 10
0.0
 20
0.0
 30
0.0
 70
   128
 71
   236
 72
   239
 73
   240
 74
   237
  0
VERTEX
  5
2F9
330
73
100
AcDbEntity
  8
D01 金物
 62
   250
420
  3947580
370
     0
100
AcDbFaceRecord
 10
0.0
 20
0.0
 30
0.0
 70
   128
 71
   239
 72
   241
 73
   242
 74
   240
  0
VERTEX
  5
2FA
330
73
100
AcDbEntity
  8
D01 金物
 62
   250
420
  3947580
370
     0
100
AcDbFaceRecord
 10
0.0
 20
0.0
 30
0.0
 70
   128
 71
   241
 72
   243
 73
   244
 74
   242
  0
VERTEX
  5
2FB
330
73
100
AcDbEntity
  8
D01 金物
 62
   250
420
  3947580
370
     0
100
AcDbFaceRecord
 10
0.0
 20
0.0
 30
0.0
 70
   128
 71
   243
 72
   245
 73
   246
 74
   244
  0
VERTEX
  5
2FC
330
73
100
AcDbEntity
  8
D01 金物
 62
   250
420
  3947580
370
     0
100
AcDbFaceRecord
 10
0.0
 20
0.0
 30
0.0
 70
   128
 71
   245
 72
   247
 73
   248
 74
   246
  0
VERTEX
  5
2FD
330
73
100
AcDbEntity
  8
D01 金物
 62
   250
420
  3947580
370
     0
100
AcDbFaceRecord
 10
0.0
 20
0.0
 30
0.0
 70
   128
 71
   247
 72
   249
 73
   250
 74
   248
  0
VERTEX
  5
2FE
330
73
100
AcDbEntity
  8
D01 金物
 62
   250
420
  3947580
370
     0
100
AcDbFaceRecord
 10
0.0
 20
0.0
 30
0.0
 70
   128
 71
   249
 72
   251
 73
   252
 74
   250
  0
VERTEX
  5
2FF
330
73
100
AcDbEntity
  8
D01 金物
 62
   250
420
  3947580
370
     0
100
AcDbFaceRecord
 10
0.0
 20
0.0
 30
0.0
 70
   128
 71
   251
 72
   253
 73
   254
 74
   252
  0
VERTEX
  5
300
330
73
100
AcDbEntity
  8
D01 金物
 62
   250
420
  3947580
370
     0
100
AcDbFaceRecord
 10
0.0
 20
0.0
 30
0.0
 70
   128
 71
   253
 72
   255
 73
   256
 74
   254
  0
VERTEX
  5
301
330
73
100
AcDbEntity
  8
D01 金物
 62
   250
420
  3947580
370
     0
100
AcDbFaceRecord
 10
0.0
 20
0.0
 30
0.0
 70
   128
 71
   255
 72
   257
 73
   258
 74
   256
  0
VERTEX
  5
302
330
73
100
AcDbEntity
  8
D01 金物
 62
   250
420
  3947580
370
     0
100
AcDbFaceRecord
 10
0.0
 20
0.0
 30
0.0
 70
   128
 71
   257
 72
   259
 73
   260
 74
   258
  0
VERTEX
  5
303
330
73
100
AcDbEntity
  8
D01 金物
 62
   250
420
  3947580
370
     0
100
AcDbFaceRecord
 10
0.0
 20
0.0
 30
0.0
 70
   128
 71
   259
 72
   261
 73
   262
 74
   260
  0
VERTEX
  5
304
330
73
100
AcDbEntity
  8
D01 金物
 62
   250
420
  3947580
370
     0
100
AcDbFaceRecord
 10
0.0
 20
0.0
 30
0.0
 70
   128
 71
   261
 72
   263
 73
   264
 74
   262
  0
VERTEX
  5
305
330
73
100
AcDbEntity
  8
D01 金物
 62
   250
420
  3947580
370
     0
100
AcDbFaceRecord
 10
0.0
 20
0.0
 30
0.0
 70
   128
 71
   263
 72
   265
 73
   266
 74
   264
  0
VERTEX
  5
306
330
73
100
AcDbEntity
  8
D01 金物
 62
   250
420
  3947580
370
     0
100
AcDbFaceRecord
 10
0.0
 20
0.0
 30
0.0
 70
   128
 71
   265
 72
   267
 73
   268
 74
   266
  0
VERTEX
  5
307
330
73
100
AcDbEntity
  8
D01 金物
 62
   250
420
  3947580
370
     0
100
AcDbFaceRecord
 10
0.0
 20
0.0
 30
0.0
 70
   128
 71
   267
 72
   269
 73
   270
 74
   268
  0
VERTEX
  5
308
330
73
100
AcDbEntity
  8
D01 金物
 62
   250
420
  3947580
370
     0
100
AcDbFaceRecord
 10
0.0
 20
0.0
 30
0.0
 70
   128
 71
   269
 72
   271
 73
   272
 74
   270
  0
VERTEX
  5
309
330
73
100
AcDbEntity
  8
D01 金物
 62
   250
420
  3947580
370
     0
100
AcDbFaceRecord
 10
0.0
 20
0.0
 30
0.0
 70
   128
 71
   271
 72
   273
 73
   274
 74
   272
  0
VERTEX
  5
30A
330
73
100
AcDbEntity
  8
D01 金物
 62
   250
420
  3947580
370
     0
100
AcDbFaceRecord
 10
0.0
 20
0.0
 30
0.0
 70
   128
 71
   273
 72
   235
 73
   238
 74
   274
  0
VERTEX
  5
30B
330
73
100
AcDbEntity
  8
D01 金物
 62
   250
420
  3947580
370
     0
100
AcDbFaceRecord
 10
0.0
 20
0.0
 30
0.0
 70
   128
 71
   241
 72
   239
 73
  -236
  0
VERTEX
  5
30C
330
73
100
AcDbEntity
  8
D01 金物
 62
   250
420
  3947580
370
     0
100
AcDbFaceRecord
 10
0.0
 20
0.0
 30
0.0
 70
   128
 71
  -241
 72
   236
 73
  -235
  0
VERTEX
  5
30D
330
73
100
AcDbEntity
  8
D01 金物
 62
   250
420
  3947580
370
     0
100
AcDbFaceRecord
 10
0.0
 20
0.0
 30
0.0
 70
   128
 71
   243
 72
  -241
 73
  -235
  0
VERTEX
  5
30E
330
73
100
AcDbEntity
  8
D01 金物
 62
   250
420
  3947580
370
     0
100
AcDbFaceRecord
 10
0.0
 20
0.0
 30
0.0
 70
   128
 71
  -243
 72
   235
 73
  -273
  0
VERTEX
  5
30F
330
73
100
AcDbEntity
  8
D01 金物
 62
   250
420
  3947580
370
     0
100
AcDbFaceRecord
 10
0.0
 20
0.0
 30
0.0
 70
   128
 71
   245
 72
  -243
 73
  -273
  0
VERTEX
  5
310
330
73
100
AcDbEntity
  8
D01 金物
 62
   250
420
  3947580
370
     0
100
AcDbFaceRecord
 10
0.0
 20
0.0
 30
0.0
 70
   128
 71
   247
 72
  -245
 73
  -273
  0
VERTEX
  5
311
330
73
100
AcDbEntity
  8
D01 金物
 62
   250
420
  3947580
370
     0
100
AcDbFaceRecord
 10
0.0
 20
0.0
 30
0.0
 70
   128
 71
   249
 72
  -247
 73
  -273
  0
VERTEX
  5
312
330
73
100
AcDbEntity
  8
D01 金物
 62
   250
420
  3947580
370
     0
100
AcDbFaceRecord
 10
0.0
 20
0.0
 30
0.0
 70
   128
 71
   251
 72
  -249
 73
  -273
  0
VERTEX
  5
313
330
73
100
AcDbEntity
  8
D01 金物
 62
   250
420
  3947580
370
     0
100
AcDbFaceRecord
 10
0.0
 20
0.0
 30
0.0
 70
   128
 71
   253
 72
  -251
 73
  -273
  0
VERTEX
  5
314
330
73
100
AcDbEntity
  8
D01 金物
 62
   250
420
  3947580
370
     0
100
AcDbFaceRecord
 10
0.0
 20
0.0
 30
0.0
 70
   128
 71
   255
 72
  -253
 73
  -273
  0
VERTEX
  5
315
330
73
100
AcDbEntity
  8
D01 金物
 62
   250
420
  3947580
370
     0
100
AcDbFaceRecord
 10
0.0
 20
0.0
 30
0.0
 70
   128
 71
   257
 72
  -255
 73
  -273
  0
VERTEX
  5
316
330
73
100
AcDbEntity
  8
D01 金物
 62
   250
420
  3947580
370
     0
100
AcDbFaceRecord
 10
0.0
 20
0.0
 30
0.0
 70
   128
 71
  -261
 72
  -257
 73
  -273
  0
VERTEX
  5
317
330
73
100
AcDbEntity
  8
D01 金物
 62
   250
420
  3947580
370
     0
100
AcDbFaceRecord
 10
0.0
 20
0.0
 30
0.0
 70
   128
 71
   263
 72
  -261
 73
  -273
  0
VERTEX
  5
318
330
73
100
AcDbEntity
  8
D01 金物
 62
   250
420
  3947580
370
     0
100
AcDbFaceRecord
 10
0.0
 20
0.0
 30
0.0
 70
   128
 71
   265
 72
  -263
 73
  -273
  0
VERTEX
  5
319
330
73
100
AcDbEntity
  8
D01 金物
 62
   250
420
  3947580
370
     0
100
AcDbFaceRecord
 10
0.0
 20
0.0
 30
0.0
 70
   128
 71
  -265
 72
   273
 73
  -271
  0
VERTEX
  5
31A
330
73
100
AcDbEntity
  8
D01 金物
 62
   250
420
  3947580
370
     0
100
AcDbFaceRecord
 10
0.0
 20
0.0
 30
0.0
 70
   128
 71
   267
 72
  -265
 73
  -271
  0
VERTEX
  5
31B
330
73
100
AcDbEntity
  8
D01 金物
 62
   250
420
  3947580
370
     0
100
AcDbFaceRecord
 10
0.0
 20
0.0
 30
0.0
 70
   128
 71
   269
 72
  -267
 73
   271
  0
VERTEX
  5
31C
330
73
100
AcDbEntity
  8
D01 金物
 62
   250
420
  3947580
370
     0
100
AcDbFaceRecord
 10
0.0
 20
0.0
 30
0.0
 70
   128
 71
   237
 72
   240
 73
  -242
  0
VERTEX
  5
31D
330
73
100
AcDbEntity
  8
D01 金物
 62
   250
420
  3947580
370
     0
100
AcDbFaceRecord
 10
0.0
 20
0.0
 30
0.0
 70
   128
 71
   238
 72
  -237
 73
  -242
  0
VERTEX
  5
31E
330
73
100
AcDbEntity
  8
D01 金物
 62
   250
420
  3947580
370
     0
100
AcDbFaceRecord
 10
0.0
 20
0.0
 30
0.0
 70
   128
 71
  -238
 72
   242
 73
  -244
  0
VERTEX
  5
31F
330
73
100
AcDbEntity
  8
D01 金物
 62
   250
420
  3947580
370
     0
100
AcDbFaceRecord
 10
0.0
 20
0.0
 30
0.0
 70
   128
 71
   274
 72
  -238
 73
  -244
  0
VERTEX
  5
320
330
73
100
AcDbEntity
  8
D01 金物
 62
   250
420
  3947580
370
     0
100
AcDbFaceRecord
 10
0.0
 20
0.0
 30
0.0
 70
   128
 71
  -274
 72
   244
 73
  -246
  0
VERTEX
  5
321
330
73
100
AcDbEntity
  8
D01 金物
 62
   250
420
  3947580
370
     0
100
AcDbFaceRecord
 10
0.0
 20
0.0
 30
0.0
 70
   128
 71
  -274
 72
   246
 73
  -248
  0
VERTEX
  5
322
330
73
100
AcDbEntity
  8
D01 金物
 62
   250
420
  3947580
370
     0
100
AcDbFaceRecord
 10
0.0
 20
0.0
 30
0.0
 70
   128
 71
  -274
 72
   248
 73
  -250
  0
VERTEX
  5
323
330
73
100
AcDbEntity
  8
D01 金物
 62
   250
420
  3947580
370
     0
100
AcDbFaceRecord
 10
0.0
 20
0.0
 30
0.0
 70
   128
 71
  -274
 72
   250
 73
  -252
  0
VERTEX
  5
324
330
73
100
AcDbEntity
  8
D01 金物
 62
   250
420
  3947580
370
     0
100
AcDbFaceRecord
 10
0.0
 20
0.0
 30
0.0
 70
   128
 71
  -274
 72
   252
 73
  -254
  0
VERTEX
  5
325
330
73
100
AcDbEntity
  8
D01 金物
 62
   250
420
  3947580
370
     0
100
AcDbFaceRecord
 10
0.0
 20
0.0
 30
0.0
 70
   128
 71
  -274
 72
   254
 73
  -256
  0
VERTEX
  5
326
330
73
100
AcDbEntity
  8
D01 金物
 62
   250
420
  3947580
370
     0
100
AcDbFaceRecord
 10
0.0
 20
0.0
 30
0.0
 70
   128
 71
  -274
 72
   256
 73
  -258
  0
VERTEX
  5
327
330
73
100
AcDbEntity
  8
D01 金物
 62
   250
420
  3947580
370
     0
100
AcDbFaceRecord
 10
0.0
 20
0.0
 30
0.0
 70
   128
 71
  -274
 72
  -258
 73
  -262
  0
VERTEX
  5
328
330
73
100
AcDbEntity
  8
D01 金物
 62
   250
420
  3947580
370
     0
100
AcDbFaceRecord
 10
0.0
 20
0.0
 30
0.0
 70
   128
 71
  -274
 72
   262
 73
  -264
  0
VERTEX
  5
329
330
73
100
AcDbEntity
  8
D01 金物
 62
   250
420
  3947580
370
     0
100
AcDbFaceRecord
 10
0.0
 20
0.0
 30
0.0
 70
   128
 71
  -274
 72
   264
 73
  -266
  0
VERTEX
  5
32A
330
73
100
AcDbEntity
  8
D01 金物
 62
   250
420
  3947580
370
     0
100
AcDbFaceRecord
 10
0.0
 20
0.0
 30
0.0
 70
   128
 71
   272
 72
  -274
 73
  -266
  0
VERTEX
  5
32B
330
73
100
AcDbEntity
  8
D01 金物
 62
   250
420
  3947580
370
     0
100
AcDbFaceRecord
 10
0.0
 20
0.0
 30
0.0
 70
   128
 71
  -272
 72
   266
 73
  -268
  0
VERTEX
  5
32C
330
73
100
AcDbEntity
  8
D01 金物
 62
   250
420
  3947580
370
     0
100
AcDbFaceRecord
 10
0.0
 20
0.0
 30
0.0
 70
   128
 71
   270
 72
  -272
 73
   268
  0
VERTEX
  5
32D
330
73
100
AcDbEntity
  8
D01 金物
 62
   250
420
  3947580
370
     0
100
AcDbFaceRecord
 10
0.0
 20
0.0
 30
0.0
 70
   128
 71
   275
 72
   276
 73
   277
 74
   278
  0
VERTEX
  5
32E
330
73
100
AcDbEntity
  8
D01 金物
 62
   250
420
  3947580
370
     0
100
AcDbFaceRecord
 10
0.0
 20
0.0
 30
0.0
 70
   128
 71
   278
 72
   277
 73
   279
 74
   280
  0
VERTEX
  5
32F
330
73
100
AcDbEntity
  8
D01 金物
 62
   250
420
  3947580
370
     0
100
AcDbFaceRecord
 10
0.0
 20
0.0
 30
0.0
 70
   128
 71
   280
 72
   279
 73
   281
 74
   282
  0
VERTEX
  5
330
330
73
100
AcDbEntity
  8
D01 金物
 62
   250
420
  3947580
370
     0
100
AcDbFaceRecord
 10
0.0
 20
0.0
 30
0.0
 70
   128
 71
   282
 72
   281
 73
   283
 74
   284
  0
VERTEX
  5
331
330
73
100
AcDbEntity
  8
D01 金物
 62
   250
420
  3947580
370
     0
100
AcDbFaceRecord
 10
0.0
 20
0.0
 30
0.0
 70
   128
 71
   284
 72
   283
 73
   285
 74
   286
  0
VERTEX
  5
332
330
73
100
AcDbEntity
  8
D01 金物
 62
   250
420
  3947580
370
     0
100
AcDbFaceRecord
 10
0.0
 20
0.0
 30
0.0
 70
   128
 71
   286
 72
   285
 73
   287
 74
   288
  0
VERTEX
  5
333
330
73
100
AcDbEntity
  8
D01 金物
 62
   250
420
  3947580
370
     0
100
AcDbFaceRecord
 10
0.0
 20
0.0
 30
0.0
 70
   128
 71
   288
 72
   287
 73
   289
 74
   290
  0
VERTEX
  5
334
330
73
100
AcDbEntity
  8
D01 金物
 62
   250
420
  3947580
370
     0
100
AcDbFaceRecord
 10
0.0
 20
0.0
 30
0.0
 70
   128
 71
   290
 72
   289
 73
   291
 74
   292
  0
VERTEX
  5
335
330
73
100
AcDbEntity
  8
D01 金物
 62
   250
420
  3947580
370
     0
100
AcDbFaceRecord
 10
0.0
 20
0.0
 30
0.0
 70
   128
 71
   292
 72
   291
 73
   293
 74
   294
  0
VERTEX
  5
336
330
73
100
AcDbEntity
  8
D01 金物
 62
   250
420
  3947580
370
     0
100
AcDbFaceRecord
 10
0.0
 20
0.0
 30
0.0
 70
   128
 71
   294
 72
   293
 73
   295
 74
   296
  0
VERTEX
  5
337
330
73
100
AcDbEntity
  8
D01 金物
 62
   250
420
  3947580
370
     0
100
AcDbFaceRecord
 10
0.0
 20
0.0
 30
0.0
 70
   128
 71
   296
 72
   295
 73
   297
 74
   298
  0
VERTEX
  5
338
330
73
100
AcDbEntity
  8
D01 金物
 62
   250
420
  3947580
370
     0
100
AcDbFaceRecord
 10
0.0
 20
0.0
 30
0.0
 70
   128
 71
   298
 72
   297
 73
   299
 74
   300
  0
VERTEX
  5
339
330
73
100
AcDbEntity
  8
D01 金物
 62
   250
420
  3947580
370
     0
100
AcDbFaceRecord
 10
0.0
 20
0.0
 30
0.0
 70
   128
 71
   300
 72
   299
 73
   301
 74
   302
  0
VERTEX
  5
33A
330
73
100
AcDbEntity
  8
D01 金物
 62
   250
420
  3947580
370
     0
100
AcDbFaceRecord
 10
0.0
 20
0.0
 30
0.0
 70
   128
 71
   302
 72
   301
 73
   303
 74
   304
  0
VERTEX
  5
33B
330
73
100
AcDbEntity
  8
D01 金物
 62
   250
420
  3947580
370
     0
100
AcDbFaceRecord
 10
0.0
 20
0.0
 30
0.0
 70
   128
 71
   304
 72
   303
 73
   305
 74
   306
  0
VERTEX
  5
33C
330
73
100
AcDbEntity
  8
D01 金物
 62
   250
420
  3947580
370
     0
100
AcDbFaceRecord
 10
0.0
 20
0.0
 30
0.0
 70
   128
 71
   306
 72
   305
 73
   307
 74
   308
  0
VERTEX
  5
33D
330
73
100
AcDbEntity
  8
D01 金物
 62
   250
420
  3947580
370
     0
100
AcDbFaceRecord
 10
0.0
 20
0.0
 30
0.0
 70
   128
 71
   308
 72
   307
 73
   309
 74
   310
  0
VERTEX
  5
33E
330
73
100
AcDbEntity
  8
D01 金物
 62
   250
420
  3947580
370
     0
100
AcDbFaceRecord
 10
0.0
 20
0.0
 30
0.0
 70
   128
 71
   310
 72
   309
 73
   311
 74
   312
  0
VERTEX
  5
33F
330
73
100
AcDbEntity
  8
D01 金物
 62
   250
420
  3947580
370
     0
100
AcDbFaceRecord
 10
0.0
 20
0.0
 30
0.0
 70
   128
 71
   312
 72
   311
 73
   313
 74
   314
  0
VERTEX
  5
340
330
73
100
AcDbEntity
  8
D01 金物
 62
   250
420
  3947580
370
     0
100
AcDbFaceRecord
 10
0.0
 20
0.0
 30
0.0
 70
   128
 71
   314
 72
   313
 73
   276
 74
   275
  0
VERTEX
  5
341
330
73
100
AcDbEntity
  8
D01 金物
 62
   250
420
  3947580
370
     0
100
AcDbFaceRecord
 10
0.0
 20
0.0
 30
0.0
 70
   128
 71
   278
 72
   280
 73
  -282
  0
VERTEX
  5
342
330
73
100
AcDbEntity
  8
D01 金物
 62
   250
420
  3947580
370
     0
100
AcDbFaceRecord
 10
0.0
 20
0.0
 30
0.0
 70
   128
 71
   275
 72
  -278
 73
  -282
  0
VERTEX
  5
343
330
73
100
AcDbEntity
  8
D01 金物
 62
   250
420
  3947580
370
     0
100
AcDbFaceRecord
 10
0.0
 20
0.0
 30
0.0
 70
   128
 71
  -275
 72
   282
 73
  -284
  0
VERTEX
  5
344
330
73
100
AcDbEntity
  8
D01 金物
 62
   250
420
  3947580
370
     0
100
AcDbFaceRecord
 10
0.0
 20
0.0
 30
0.0
 70
   128
 71
   314
 72
  -275
 73
  -284
  0
VERTEX
  5
345
330
73
100
AcDbEntity
  8
D01 金物
 62
   250
420
  3947580
370
     0
100
AcDbFaceRecord
 10
0.0
 20
0.0
 30
0.0
 70
   128
 71
  -314
 72
   284
 73
  -286
  0
VERTEX
  5
346
330
73
100
AcDbEntity
  8
D01 金物
 62
   250
420
  3947580
370
     0
100
AcDbFaceRecord
 10
0.0
 20
0.0
 30
0.0
 70
   128
 71
  -314
 72
   286
 73
  -288
  0
VERTEX
  5
347
330
73
100
AcDbEntity
  8
D01 金物
 62
   250
420
  3947580
370
     0
100
AcDbFaceRecord
 10
0.0
 20
0.0
 30
0.0
 70
   128
 71
  -314
 72
   288
 73
  -290
  0
VERTEX
  5
348
330
73
100
AcDbEntity
  8
D01 金物
 62
   250
420
  3947580
370
     0
100
AcDbFaceRecord
 10
0.0
 20
0.0
 30
0.0
 70
   128
 71
  -314
 72
   290
 73
  -292
  0
VERTEX
  5
349
330
73
100
AcDbEntity
  8
D01 金物
 62
   250
420
  3947580
370
     0
100
AcDbFaceRecord
 10
0.0
 20
0.0
 30
0.0
 70
   128
 71
  -314
 72
   292
 73
  -294
  0
VERTEX
  5
34A
330
73
100
AcDbEntity
  8
D01 金物
 62
   250
420
  3947580
370
     0
100
AcDbFaceRecord
 10
0.0
 20
0.0
 30
0.0
 70
   128
 71
  -314
 72
   294
 73
  -296
  0
VERTEX
  5
34B
330
73
100
AcDbEntity
  8
D01 金物
 62
   250
420
  3947580
370
     0
100
AcDbFaceRecord
 10
0.0
 20
0.0
 30
0.0
 70
   128
 71
  -314
 72
   296
 73
  -298
  0
VERTEX
  5
34C
330
73
100
AcDbEntity
  8
D01 金物
 62
   250
420
  3947580
370
     0
100
AcDbFaceRecord
 10
0.0
 20
0.0
 30
0.0
 70
   128
 71
  -314
 72
  -298
 73
  -302
  0
VERTEX
  5
34D
330
73
100
AcDbEntity
  8
D01 金物
 62
   250
420
  3947580
370
     0
100
AcDbFaceRecord
 10
0.0
 20
0.0
 30
0.0
 70
   128
 71
  -314
 72
   302
 73
  -304
  0
VERTEX
  5
34E
330
73
100
AcDbEntity
  8
D01 金物
 62
   250
420
  3947580
370
     0
100
AcDbFaceRecord
 10
0.0
 20
0.0
 30
0.0
 70
   128
 71
  -314
 72
   304
 73
  -306
  0
VERTEX
  5
34F
330
73
100
AcDbEntity
  8
D01 金物
 62
   250
420
  3947580
370
     0
100
AcDbFaceRecord
 10
0.0
 20
0.0
 30
0.0
 70
   128
 71
   312
 72
  -314
 73
  -306
  0
VERTEX
  5
350
330
73
100
AcDbEntity
  8
D01 金物
 62
   250
420
  3947580
370
     0
100
AcDbFaceRecord
 10
0.0
 20
0.0
 30
0.0
 70
   128
 71
  -312
 72
   306
 73
  -308
  0
VERTEX
  5
351
330
73
100
AcDbEntity
  8
D01 金物
 62
   250
420
  3947580
370
     0
100
AcDbFaceRecord
 10
0.0
 20
0.0
 30
0.0
 70
   128
 71
   310
 72
  -312
 73
   308
  0
VERTEX
  5
352
330
73
100
AcDbEntity
  8
D01 金物
 62
   250
420
  3947580
370
     0
100
AcDbFaceRecord
 10
0.0
 20
0.0
 30
0.0
 70
   128
 71
   281
 72
   279
 73
  -277
  0
VERTEX
  5
353
330
73
100
AcDbEntity
  8
D01 金物
 62
   250
420
  3947580
370
     0
100
AcDbFaceRecord
 10
0.0
 20
0.0
 30
0.0
 70
   128
 71
  -281
 72
   277
 73
  -276
  0
VERTEX
  5
354
330
73
100
AcDbEntity
  8
D01 金物
 62
   250
420
  3947580
370
     0
100
AcDbFaceRecord
 10
0.0
 20
0.0
 30
0.0
 70
   128
 71
   283
 72
  -281
 73
  -276
  0
VERTEX
  5
355
330
73
100
AcDbEntity
  8
D01 金物
 62
   250
420
  3947580
370
     0
100
AcDbFaceRecord
 10
0.0
 20
0.0
 30
0.0
 70
   128
 71
  -283
 72
   276
 73
  -313
  0
VERTEX
  5
356
330
73
100
AcDbEntity
  8
D01 金物
 62
   250
420
  3947580
370
     0
100
AcDbFaceRecord
 10
0.0
 20
0.0
 30
0.0
 70
   128
 71
   285
 72
  -283
 73
  -313
  0
VERTEX
  5
357
330
73
100
AcDbEntity
  8
D01 金物
 62
   250
420
  3947580
370
     0
100
AcDbFaceRecord
 10
0.0
 20
0.0
 30
0.0
 70
   128
 71
   287
 72
  -285
 73
  -313
  0
VERTEX
  5
358
330
73
100
AcDbEntity
  8
D01 金物
 62
   250
420
  3947580
370
     0
100
AcDbFaceRecord
 10
0.0
 20
0.0
 30
0.0
 70
   128
 71
   289
 72
  -287
 73
  -313
  0
VERTEX
  5
359
330
73
100
AcDbEntity
  8
D01 金物
 62
   250
420
  3947580
370
     0
100
AcDbFaceRecord
 10
0.0
 20
0.0
 30
0.0
 70
   128
 71
   291
 72
  -289
 73
  -313
  0
VERTEX
  5
35A
330
73
100
AcDbEntity
  8
D01 金物
 62
   250
420
  3947580
370
     0
100
AcDbFaceRecord
 10
0.0
 20
0.0
 30
0.0
 70
   128
 71
   293
 72
  -291
 73
  -313
  0
VERTEX
  5
35B
330
73
100
AcDbEntity
  8
D01 金物
 62
   250
420
  3947580
370
     0
100
AcDbFaceRecord
 10
0.0
 20
0.0
 30
0.0
 70
   128
 71
   295
 72
  -293
 73
  -313
  0
VERTEX
  5
35C
330
73
100
AcDbEntity
  8
D01 金物
 62
   250
420
  3947580
370
     0
100
AcDbFaceRecord
 10
0.0
 20
0.0
 30
0.0
 70
   128
 71
   297
 72
  -295
 73
  -313
  0
VERTEX
  5
35D
330
73
100
AcDbEntity
  8
D01 金物
 62
   250
420
  3947580
370
     0
100
AcDbFaceRecord
 10
0.0
 20
0.0
 30
0.0
 70
   128
 71
  -301
 72
  -297
 73
  -313
  0
VERTEX
  5
35E
330
73
100
AcDbEntity
  8
D01 金物
 62
   250
420
  3947580
370
     0
100
AcDbFaceRecord
 10
0.0
 20
0.0
 30
0.0
 70
   128
 71
   303
 72
  -301
 73
  -313
  0
VERTEX
  5
35F
330
73
100
AcDbEntity
  8
D01 金物
 62
   250
420
  3947580
370
     0
100
AcDbFaceRecord
 10
0.0
 20
0.0
 30
0.0
 70
   128
 71
   305
 72
  -303
 73
  -313
  0
VERTEX
  5
360
330
73
100
AcDbEntity
  8
D01 金物
 62
   250
420
  3947580
370
     0
100
AcDbFaceRecord
 10
0.0
 20
0.0
 30
0.0
 70
   128
 71
  -305
 72
   313
 73
  -311
  0
VERTEX
  5
361
330
73
100
AcDbEntity
  8
D01 金物
 62
   250
420
  3947580
370
     0
100
AcDbFaceRecord
 10
0.0
 20
0.0
 30
0.0
 70
   128
 71
   307
 72
  -305
 73
  -311
  0
VERTEX
  5
362
330
73
100
AcDbEntity
  8
D01 金物
 62
   250
420
  3947580
370
     0
100
AcDbFaceRecord
 10
0.0
 20
0.0
 30
0.0
 70
   128
 71
   309
 72
  -307
 73
   311
  0
SEQEND
  5
363
330
73
100
AcDbEntity
  8
D01 金物
370
     0
  0
POLYLINE
  5
364
330
6E
100
AcDbEntity
  8
D01 金物
370
     0
100
AcDbPolyFaceMesh
 66
     1
 10
0.0
 20
0.0
 30
0.0
 70
    64
 71
    16
 72
    20
  0
VERTEX
  5
365
330
364
100
AcDbEntity
  8
D01 金物
370
     0
100
AcDbVertex
100
AcDbPolyFaceMeshVertex
 10
3004.278396091036
 20
0.0
 30
2825.846525288319
 70
   192
  0
VERTEX
  5
366
330
364
100
AcDbEntity
  8
D01 金物
370
     0
100
AcDbVertex
100
AcDbPolyFaceMeshVertex
 10
3004.278396091034
 20
5.000000000000001
 30
2825.846525288319
 70
   192
  0
VERTEX
  5
367
330
364
100
AcDbEntity
  8
D01 金物
370
     0
100
AcDbVertex
100
AcDbPolyFaceMeshVertex
 10
3006.36903346711
 20
5.000000000000001
 30
2805.956094539797
 70
   192
  0
VERTEX
  5
368
330
364
100
AcDbEntity
  8
D01 金物
370
     0
100
AcDbVertex
100
AcDbPolyFaceMeshVertex
 10
3006.369033467109
 20
0.0
 30
2805.956094539797
 70
   192
  0
VERTEX
  5
369
330
364
100
AcDbEntity
  8
D01 金物
370
     0
100
AcDbVertex
100
AcDbPolyFaceMeshVertex
 10
3008.459670843185
 20
-0.0000000000000069
 30
2786.065663791274
 70
   192
  0
VERTEX
  5
36A
330
364
100
AcDbEntity
  8
D01 金物
370
     0
100
AcDbVertex
100
AcDbPolyFaceMeshVertex
 10
3008.459670843185
 20
44.99999999999999
 30
2786.065663791274
 70
   192
  0
VERTEX
  5
36B
330
364
100
AcDbEntity
  8
D01 金物
370
     0
100
AcDbVertex
100
AcDbPolyFaceMeshVertex
 10
3002.187758714959
 20
45.0
 30
2845.736956036841
 70
   192
  0
VERTEX
  5
36C
330
364
100
AcDbEntity
  8
D01 金物
370
     0
100
AcDbVertex
100
AcDbPolyFaceMeshVertex
 10
3002.187758714959
 20
0.0
 30
2845.736956036841
 70
   192
  0
VERTEX
  5
36D
330
364
100
AcDbEntity
  8
D01 金物
370
     0
100
AcDbVertex
100
AcDbPolyFaceMeshVertex
 10
44.90586063600976
 20
0.0
 30
2514.793692366975
 70
   192
  0
VERTEX
  5
36E
330
364
100
AcDbEntity
  8
D01 金物
370
     0
100
AcDbVertex
100
AcDbPolyFaceMeshVertex
 10
44.90586063600976
 20
5.000000000000001
 30
2514.793692366975
 70
   192
  0
VERTEX
  5
36F
330
364
100
AcDbEntity
  8
D01 金物
370
     0
100
AcDbVertex
100
AcDbPolyFaceMeshVertex
 10
46.99649801208538
 20
5.000000000000001
 30
2494.903261618453
 70
   192
  0
VERTEX
  5
370
330
364
100
AcDbEntity
  8
D01 金物
370
     0
100
AcDbVertex
100
AcDbPolyFaceMeshVertex
 10
46.99649801208516
 20
0.0
 30
2494.903261618453
 70
   192
  0
VERTEX
  5
371
330
364
100
AcDbEntity
  8
D01 金物
370
     0
100
AcDbVertex
100
AcDbPolyFaceMeshVertex
 10
49.08713538816079
 20
-0.0000000000000069
 30
2475.012830869931
 70
   192
  0
VERTEX
  5
372
330
364
100
AcDbEntity
  8
D01 金物
370
     0
100
AcDbVertex
100
AcDbPolyFaceMeshVertex
 10
49.08713538816079
 20
44.99999999999999
 30
2475.012830869931
 70
   192
  0
VERTEX
  5
373
330
364
100
AcDbEntity
  8
D01 金物
370
     0
100
AcDbVertex
100
AcDbPolyFaceMeshVertex
 10
42.81522325993436
 20
45.0
 30
2534.684123115498
 70
   192
  0
VERTEX
  5
374
330
364
100
AcDbEntity
  8
D01 金物
370
     0
100
AcDbVertex
100
AcDbPolyFaceMeshVertex
 10
42.81522325993436
 20
0.0
 30
2534.684123115498
 70
   192
  0
VERTEX
  5
375
330
364
100
AcDbEntity
  8
D01 金物
 62
   250
420
  3947580
370
     0
100
AcDbFaceRecord
 10
0.0
 20
0.0
 30
0.0
 70
   128
 71
     7
 72
     8
 73
    -1
  0
VERTEX
  5
376
330
364
100
AcDbEntity
  8
D01 金物
 62
   250
420
  3947580
370
     0
100
AcDbFaceRecord
 10
0.0
 20
0.0
 30
0.0
 70
   128
 71
    -7
 72
     1
 73
    -2
  0
VERTEX
  5
377
330
364
100
AcDbEntity
  8
D01 金物
 62
   250
420
  3947580
370
     0
100
AcDbFaceRecord
 10
0.0
 20
0.0
 30
0.0
 70
   128
 71
    -7
 72
     2
 73
    -3
  0
VERTEX
  5
378
330
364
100
AcDbEntity
  8
D01 金物
 62
   250
420
  3947580
370
     0
100
AcDbFaceRecord
 10
0.0
 20
0.0
 30
0.0
 70
   128
 71
     6
 72
    -7
 73
    -3
  0
VERTEX
  5
379
330
364
100
AcDbEntity
  8
D01 金物
 62
   250
420
  3947580
370
     0
100
AcDbFaceRecord
 10
0.0
 20
0.0
 30
0.0
 70
   128
 71
    -6
 72
    -3
 73
     5
  0
VERTEX
  5
37A
330
364
100
AcDbEntity
  8
D01 金物
 62
   250
420
  3947580
370
     0
100
AcDbFaceRecord
 10
0.0
 20
0.0
 30
0.0
 70
   128
 71
    -5
 72
     3
 73
     4
  0
VERTEX
  5
37B
330
364
100
AcDbEntity
  8
D01 金物
 62
   250
420
  3947580
370
     0
100
AcDbFaceRecord
 10
0.0
 20
0.0
 30
0.0
 70
   128
 71
     2
 72
     1
 73
     9
 74
    10
  0
VERTEX
  5
37C
330
364
100
AcDbEntity
  8
D01 金物
 62
   250
420
  3947580
370
     0
100
AcDbFaceRecord
 10
0.0
 20
0.0
 30
0.0
 70
   128
 71
     3
 72
     2
 73
    10
 74
    11
  0
VERTEX
  5
37D
330
364
100
AcDbEntity
  8
D01 金物
 62
   250
420
  3947580
370
     0
100
AcDbFaceRecord
 10
0.0
 20
0.0
 30
0.0
 70
   128
 71
     4
 72
     3
 73
    11
 74
    12
  0
VERTEX
  5
37E
330
364
100
AcDbEntity
  8
D01 金物
 62
   250
420
  3947580
370
     0
100
AcDbFaceRecord
 10
0.0
 20
0.0
 30
0.0
 70
   128
 71
     4
 72
    12
 73
    13
 74
     5
  0
VERTEX
  5
37F
330
364
100
AcDbEntity
  8
D01 金物
 62
   250
420
  3947580
370
     0
100
AcDbFaceRecord
 10
0.0
 20
0.0
 30
0.0
 70
   128
 71
     6
 72
     5
 73
    13
 74
    14
  0
VERTEX
  5
380
330
364
100
AcDbEntity
  8
D01 金物
 62
   250
420
  3947580
370
     0
100
AcDbFaceRecord
 10
0.0
 20
0.0
 30
0.0
 70
   128
 71
     7
 72
     6
 73
    14
 74
    15
  0
VERTEX
  5
381
330
364
100
AcDbEntity
  8
D01 金物
 62
   250
420
  3947580
370
     0
100
AcDbFaceRecord
 10
0.0
 20
0.0
 30
0.0
 70
   128
 71
    15
 72
    16
 73
     8
 74
     7
  0
VERTEX
  5
382
330
364
100
AcDbEntity
  8
D01 金物
 62
   250
420
  3947580
370
     0
100
AcDbFaceRecord
 10
0.0
 20
0.0
 30
0.0
 70
   128
 71
     9
 72
     1
 73
     8
 74
    16
  0
VERTEX
  5
383
330
364
100
AcDbEntity
  8
D01 金物
 62
   250
420
  3947580
370
     0
100
AcDbFaceRecord
 10
0.0
 20
0.0
 30
0.0
 70
   128
 71
    10
 72
     9
 73
   -16
  0
VERTEX
  5
384
330
364
100
AcDbEntity
  8
D01 金物
 62
   250
420
  3947580
370
     0
100
AcDbFaceRecord
 10
0.0
 20
0.0
 30
0.0
 70
   128
 71
   -10
 72
    16
 73
   -15
  0
VERTEX
  5
385
330
364
100
AcDbEntity
  8
D01 金物
 62
   250
420
  3947580
370
     0
100
AcDbFaceRecord
 10
0.0
 20
0.0
 30
0.0
 70
   128
 71
    11
 72
   -10
 73
   -15
  0
VERTEX
  5
386
330
364
100
AcDbEntity
  8
D01 金物
 62
   250
420
  3947580
370
     0
100
AcDbFaceRecord
 10
0.0
 20
0.0
 30
0.0
 70
   128
 71
    13
 72
    12
 73
   -11
  0
VERTEX
  5
387
330
364
100
AcDbEntity
  8
D01 金物
 62
   250
420
  3947580
370
     0
100
AcDbFaceRecord
 10
0.0
 20
0.0
 30
0.0
 70
   128
 71
   -13
 72
   -11
 73
    14
  0
VERTEX
  5
388
330
364
100
AcDbEntity
  8
D01 金物
 62
   250
420
  3947580
370
     0
100
AcDbFaceRecord
 10
0.0
 20
0.0
 30
0.0
 70
   128
 71
   -14
 72
   -11
 73
    15
  0
SEQEND
  5
389
330
364
100
AcDbEntity
  8
D01 金物
370
     0
  0
POLYLINE
  5
38A
330
6E
100
AcDbEntity
  8
D01 金物
370
     0
100
AcDbPolyFaceMesh
 66
     1
 10
0.0
 20
0.0
 30
0.0
 70
    64
 71
     8
 72
     6
  0
VERTEX
  5
38B
330
38A
100
AcDbEntity
  8
D01 金物
370
     0
100
AcDbVertex
100
AcDbPolyFaceMeshVertex
 10
46.99649801208533
 20
4.0
 30
2494.903261618454
 70
   192
  0
VERTEX
  5
38C
330
38A
100
AcDbEntity
  8
D01 金物
370
     0
100
AcDbVertex
100
AcDbPolyFaceMeshVertex
 10
3006.36903346711
 20
4.0
 30
2805.956094539797
 70
   192
  0
VERTEX
  5
38D
330
38A
100
AcDbEntity
  8
D01 金物
370
     0
100
AcDbVertex
100
AcDbPolyFaceMeshVertex
 10
3004.278396091035
 20
4.0
 30
2825.846525288318
 70
   192
  0
VERTEX
  5
38E
330
38A
100
AcDbEntity
  8
D01 金物
370
     0
100
AcDbVertex
100
AcDbPolyFaceMeshVertex
 10
44.90586063600981
 20
4.0
 30
2514.793692366975
 70
   192
  0
VERTEX
  5
38F
330
38A
100
AcDbEntity
  8
D01 金物
370
     0
100
AcDbVertex
100
AcDbPolyFaceMeshVertex
 10
3006.36903346711
 20
5.0
 30
2805.956094539797
 70
   192
  0
VERTEX
  5
390
330
38A
100
AcDbEntity
  8
D01 金物
370
     0
100
AcDbVertex
100
AcDbPolyFaceMeshVertex
 10
3004.278396091035
 20
5.0
 30
2825.846525288318
 70
   192
  0
VERTEX
  5
391
330
38A
100
AcDbEntity
  8
D01 金物
370
     0
100
AcDbVertex
100
AcDbPolyFaceMeshVertex
 10
46.99649801208533
 20
5.0
 30
2494.903261618454
 70
   192
  0
VERTEX
  5
392
330
38A
100
AcDbEntity
  8
D01 金物
370
     0
100
AcDbVertex
100
AcDbPolyFaceMeshVertex
 10
44.90586063600981
 20
5.0
 30
2514.793692366975
 70
   192
  0
VERTEX
  5
393
330
38A
100
AcDbEntity
  8
D01 金物
 62
    39
420
  6043682
370
     0
100
AcDbFaceRecord
 10
0.0
 20
0.0
 30
0.0
 70
   128
 71
     1
 72
     2
 73
     3
 74
     4
  0
VERTEX
  5
394
330
38A
100
AcDbEntity
  8
D01 金物
 62
    39
420
  6043682
370
     0
100
AcDbFaceRecord
 10
0.0
 20
0.0
 30
0.0
 70
   128
 71
     2
 72
     5
 73
     6
 74
     3
  0
VERTEX
  5
395
330
38A
100
AcDbEntity
  8
D01 金物
 62
    39
420
  6043682
370
     0
100
AcDbFaceRecord
 10
0.0
 20
0.0
 30
0.0
 70
   128
 71
     5
 72
     7
 73
     8
 74
     6
  0
VERTEX
  5
396
330
38A
100
AcDbEntity
  8
D01 金物
 62
    39
420
  6043682
370
     0
100
AcDbFaceRecord
 10
0.0
 20
0.0
 30
0.0
 70
   128
 71
     7
 72
     1
 73
     4
 74
     8
  0
VERTEX
  5
397
330
38A
100
AcDbEntity
  8
D01 金物
 62
    39
420
  6043682
370
     0
100
AcDbFaceRecord
 10
0.0
 20
0.0
 30
0.0
 70
   128
 71
     1
 72
     7
 73
     5
 74
     2
  0
VERTEX
  5
398
330
38A
100
AcDbEntity
  8
D01 金物
 62
    39
420
  6043682
370
     0
100
AcDbFaceRecord
 10
0.0
 20
0.0
 30
0.0
 70
   128
 71
     4
 72
     3
 73
     6
 74
     8
  0
SEQEND
  5
399
330
38A
100
AcDbEntity
  8
D01 金物
370
     0
  0
POLYLINE
  5
39A
330
6E
100
AcDbEntity
  8
D01 金物
370
     0
100
AcDbPolyFaceMesh
 66
     1
 10
0.0
 20
0.0
 30
0.0
 70
    64
 71
    16
 72
    20
  0
VERTEX
  5
39B
330
39A
100
AcDbEntity
  8
D01 金物
370
     0
100
AcDbVertex
100
AcDbPolyFaceMeshVertex
 10
46.99649801208538
 20
5052.0
 30
2494.903261618453
 70
   192
  0
VERTEX
  5
39C
330
39A
100
AcDbEntity
  8
D01 金物
370
     0
100
AcDbVertex
100
AcDbPolyFaceMeshVertex
 10
3006.369033467109
 20
5052.0
 30
2805.956094539797
 70
   192
  0
VERTEX
  5
39D
330
39A
100
AcDbEntity
  8
D01 金物
370
     0
100
AcDbVertex
100
AcDbPolyFaceMeshVertex
 10
3008.459670843185
 20
5052.0
 30
2786.065663791274
 70
   192
  0
VERTEX
  5
39E
330
39A
100
AcDbEntity
  8
D01 金物
370
     0
100
AcDbVertex
100
AcDbPolyFaceMeshVertex
 10
49.08713538816079
 20
5052.0
 30
2475.012830869931
 70
   192
  0
VERTEX
  5
39F
330
39A
100
AcDbEntity
  8
D01 金物
370
     0
100
AcDbVertex
100
AcDbPolyFaceMeshVertex
 10
3006.36903346711
 20
5047.0
 30
2805.956094539797
 70
   192
  0
VERTEX
  5
3A0
330
39A
100
AcDbEntity
  8
D01 金物
370
     0
100
AcDbVertex
100
AcDbPolyFaceMeshVertex
 10
46.99649801208538
 20
5047.0
 30
2494.903261618453
 70
   192
  0
VERTEX
  5
3A1
330
39A
100
AcDbEntity
  8
D01 金物
370
     0
100
AcDbVertex
100
AcDbPolyFaceMeshVertex
 10
3004.278396091034
 20
5047.0
 30
2825.846525288319
 70
   192
  0
VERTEX
  5
3A2
330
39A
100
AcDbEntity
  8
D01 金物
370
     0
100
AcDbVertex
100
AcDbPolyFaceMeshVertex
 10
3004.278396091035
 20
5052.0
 30
2825.846525288319
 70
   192
  0
VERTEX
  5
3A3
330
39A
100
AcDbEntity
  8
D01 金物
370
     0
100
AcDbVertex
100
AcDbPolyFaceMeshVertex
 10
3002.187758714959
 20
5052.0
 30
2845.736956036841
 70
   192
  0
VERTEX
  5
3A4
330
39A
100
AcDbEntity
  8
D01 金物
370
     0
100
AcDbVertex
100
AcDbPolyFaceMeshVertex
 10
3002.187758714959
 20
5007.0
 30
2845.736956036841
 70
   192
  0
VERTEX
  5
3A5
330
39A
100
AcDbEntity
  8
D01 金物
370
     0
100
AcDbVertex
100
AcDbPolyFaceMeshVertex
 10
3008.459670843185
 20
5007.0
 30
2786.065663791274
 70
   192
  0
VERTEX
  5
3A6
330
39A
100
AcDbEntity
  8
D01 金物
370
     0
100
AcDbVertex
100
AcDbPolyFaceMeshVertex
 10
49.08713538816079
 20
5007.0
 30
2475.012830869931
 70
   192
  0
VERTEX
  5
3A7
330
39A
100
AcDbEntity
  8
D01 金物
370
     0
100
AcDbVertex
100
AcDbPolyFaceMeshVertex
 10
42.81522325993436
 20
5007.0
 30
2534.684123115498
 70
   192
  0
VERTEX
  5
3A8
330
39A
100
AcDbEntity
  8
D01 金物
370
     0
100
AcDbVertex
100
AcDbPolyFaceMeshVertex
 10
42.81522325993436
 20
5052.0
 30
2534.684123115498
 70
   192
  0
VERTEX
  5
3A9
330
39A
100
AcDbEntity
  8
D01 金物
370
     0
100
AcDbVertex
100
AcDbPolyFaceMeshVertex
 10
44.90586063600976
 20
5052.0
 30
2514.793692366975
 70
   192
  0
VERTEX
  5
3AA
330
39A
100
AcDbEntity
  8
D01 金物
370
     0
100
AcDbVertex
100
AcDbPolyFaceMeshVertex
 10
44.90586063600954
 20
5047.0
 30
2514.793692366975
 70
   192
  0
VERTEX
  5
3AB
330
39A
100
AcDbEntity
  8
D01 金物
 62
   250
420
  3947580
370
     0
100
AcDbFaceRecord
 10
0.0
 20
0.0
 30
0.0
 70
   128
 71
     1
 72
     2
 73
     3
 74
     4
  0
VERTEX
  5
3AC
330
39A
100
AcDbEntity
  8
D01 金物
 62
    39
420
  6043682
370
     0
100
AcDbFaceRecord
 10
0.0
 20
0.0
 30
0.0
 70
   128
 71
     5
 72
     2
 73
     1
 74
     6
  0
VERTEX
  5
3AD
330
39A
100
AcDbEntity
  8
D01 金物
 62
   250
420
  3947580
370
     0
100
AcDbFaceRecord
 10
0.0
 20
0.0
 30
0.0
 70
   128
 71
     7
 72
     8
 73
    -9
  0
VERTEX
  5
3AE
330
39A
100
AcDbEntity
  8
D01 金物
 62
   250
420
  3947580
370
     0
100
AcDbFaceRecord
 10
0.0
 20
0.0
 30
0.0
 70
   128
 71
    -7
 72
     9
 73
   -10
  0
VERTEX
  5
3AF
330
39A
100
AcDbEntity
  8
D01 金物
 62
   250
420
  3947580
370
     0
100
AcDbFaceRecord
 10
0.0
 20
0.0
 30
0.0
 70
   128
 71
     5
 72
    -7
 73
   -10
  0
VERTEX
  5
3B0
330
39A
100
AcDbEntity
  8
D01 金物
 62
   250
420
  3947580
370
     0
100
AcDbFaceRecord
 10
0.0
 20
0.0
 30
0.0
 70
   128
 71
     3
 72
     2
 73
    -5
  0
VERTEX
  5
3B1
330
39A
100
AcDbEntity
  8
D01 金物
 62
   250
420
  3947580
370
     0
100
AcDbFaceRecord
 10
0.0
 20
0.0
 30
0.0
 70
   128
 71
    -3
 72
    -5
 73
    11
  0
VERTEX
  5
3B2
330
39A
100
AcDbEntity
  8
D01 金物
 62
   250
420
  3947580
370
     0
100
AcDbFaceRecord
 10
0.0
 20
0.0
 30
0.0
 70
   128
 71
   -11
 72
    -5
 73
    10
  0
VERTEX
  5
3B3
330
39A
100
AcDbEntity
  8
D01 金物
 62
   250
420
  3947580
370
     0
100
AcDbFaceRecord
 10
0.0
 20
0.0
 30
0.0
 70
   128
 71
     4
 72
     3
 73
    11
 74
    12
  0
VERTEX
  5
3B4
330
39A
100
AcDbEntity
  8
D01 金物
 62
   250
420
  3947580
370
     0
100
AcDbFaceRecord
 10
0.0
 20
0.0
 30
0.0
 70
   128
 71
    13
 72
    14
 73
   -15
  0
VERTEX
  5
3B5
330
39A
100
AcDbEntity
  8
D01 金物
 62
   250
420
  3947580
370
     0
100
AcDbFaceRecord
 10
0.0
 20
0.0
 30
0.0
 70
   128
 71
   -13
 72
    15
 73
   -16
  0
VERTEX
  5
3B6
330
39A
100
AcDbEntity
  8
D01 金物
 62
   250
420
  3947580
370
     0
100
AcDbFaceRecord
 10
0.0
 20
0.0
 30
0.0
 70
   128
 71
   -13
 72
    16
 73
    -6
  0
VERTEX
  5
3B7
330
39A
100
AcDbEntity
  8
D01 金物
 62
   250
420
  3947580
370
     0
100
AcDbFaceRecord
 10
0.0
 20
0.0
 30
0.0
 70
   128
 71
    12
 72
   -13
 73
    -6
  0
VERTEX
  5
3B8
330
39A
100
AcDbEntity
  8
D01 金物
 62
   250
420
  3947580
370
     0
100
AcDbFaceRecord
 10
0.0
 20
0.0
 30
0.0
 70
   128
 71
   -12
 72
    -6
 73
     4
  0
VERTEX
  5
3B9
330
39A
100
AcDbEntity
  8
D01 金物
 62
   250
420
  3947580
370
     0
100
AcDbFaceRecord
 10
0.0
 20
0.0
 30
0.0
 70
   128
 71
    -4
 72
     6
 73
     1
  0
VERTEX
  5
3BA
330
39A
100
AcDbEntity
  8
D01 金物
 62
    39
420
  6043682
370
     0
100
AcDbFaceRecord
 10
0.0
 20
0.0
 30
0.0
 70
   128
 71
     7
 72
     5
 73
     6
 74
    16
  0
VERTEX
  5
3BB
330
39A
100
AcDbEntity
  8
D01 金物
 62
    39
420
  6043682
370
     0
100
AcDbFaceRecord
 10
0.0
 20
0.0
 30
0.0
 70
   128
 71
    15
 72
     8
 73
     7
 74
    16
  0
VERTEX
  5
3BC
330
39A
100
AcDbEntity
  8
D01 金物
 62
   250
420
  3947580
370
     0
100
AcDbFaceRecord
 10
0.0
 20
0.0
 30
0.0
 70
   128
 71
     8
 72
    15
 73
    14
 74
     9
  0
VERTEX
  5
3BD
330
39A
100
AcDbEntity
  8
D01 金物
 62
   250
420
  3947580
370
     0
100
AcDbFaceRecord
 10
0.0
 20
0.0
 30
0.0
 70
   128
 71
     9
 72
    14
 73
    13
 74
    10
  0
VERTEX
  5
3BE
330
39A
100
AcDbEntity
  8
D01 金物
 62
   250
420
  3947580
370
     0
100
AcDbFaceRecord
 10
0.0
 20
0.0
 30
0.0
 70
   128
 71
    12
 72
    11
 73
    10
 74
    13
  0
SEQEND
  5
3BF
330
39A
100
AcDbEntity
  8
D01 金物
370
     0
  0
POLYLINE
  5
3C0
330
6E
100
AcDbEntity
  8
D01 金物
370
     0
100
AcDbPolyFaceMesh
 66
     1
 10
0.0
 20
0.0
 30
0.0
 70
    64
 71
   140
 72
   156
  0
VERTEX
  5
3C1
330
3C0
100
AcDbEntity
  8
D01 金物
370
     0
100
AcDbVertex
100
AcDbPolyFaceMeshVertex
 10
46.99649801208533
 20
5048.0
 30
2494.903261618454
 70
   192
  0
VERTEX
  5
3C2
330
3C0
100
AcDbEntity
  8
D01 金物
370
     0
100
AcDbVertex
100
AcDbPolyFaceMeshVertex
 10
44.90586063600981
 20
5048.0
 30
2514.793692366975
 70
   192
  0
VERTEX
  5
3C3
330
3C0
100
AcDbEntity
  8
D01 金物
370
     0
100
AcDbVertex
100
AcDbPolyFaceMeshVertex
 10
3004.278396091035
 20
5048.0
 30
2825.846525288318
 70
   192
  0
VERTEX
  5
3C4
330
3C0
100
AcDbEntity
  8
D01 金物
370
     0
100
AcDbVertex
100
AcDbPolyFaceMeshVertex
 10
3006.36903346711
 20
5048.0
 30
2805.956094539797
 70
   192
  0
VERTEX
  5
3C5
330
3C0
100
AcDbEntity
  8
D01 金物
370
     0
100
AcDbVertex
100
AcDbPolyFaceMeshVertex
 10
3004.278396091035
 20
5047.0
 30
2825.846525288318
 70
   192
  0
VERTEX
  5
3C6
330
3C0
100
AcDbEntity
  8
D01 金物
370
     0
100
AcDbVertex
100
AcDbPolyFaceMeshVertex
 10
3006.36903346711
 20
5047.0
 30
2805.956094539797
 70
   192
  0
VERTEX
  5
3C7
330
3C0
100
AcDbEntity
  8
D01 金物
370
     0
100
AcDbVertex
100
AcDbPolyFaceMeshVertex
 10
44.90586063600981
 20
5047.0
 30
2514.793692366975
 70
   192
  0
VERTEX
  5
3C8
330
3C0
100
AcDbEntity
  8
D01 金物
370
     0
100
AcDbVertex
100
AcDbPolyFaceMeshVertex
 10
46.99649801208533
 20
5047.0
 30
2494.903261618454
 70
   192
  0
VERTEX
  5
3C9
330
3C0
100
AcDbEntity
  8
D01 金物
370
     0
100
AcDbVertex
100
AcDbPolyFaceMeshVertex
 10
793.4991748617274
 20
5043.0
 30
2557.139540621825
 70
   192
  0
VERTEX
  5
3CA
330
3C0
100
AcDbEntity
  8
D01 金物
370
     0
100
AcDbVertex
100
AcDbPolyFaceMeshVertex
 10
788.4189260378639
 20
5043.0
 30
2605.473287340734
 70
   192
  0
VERTEX
  5
3CB
330
3C0
100
AcDbEntity
  8
D01 金物
370
     0
100
AcDbVertex
100
AcDbPolyFaceMeshVertex
 10
788.4189260378639
 20
9.000000000000341
 30
2605.473287340734
 70
   192
  0
VERTEX
  5
3CC
330
3C0
100
AcDbEntity
  8
D01 金物
370
     0
100
AcDbVertex
100
AcDbPolyFaceMeshVertex
 10
793.4991748617274
 20
9.000000000000341
 30
2557.139540621825
 70
   192
  0
VERTEX
  5
3CD
330
3C0
100
AcDbEntity
  8
D01 金物
370
     0
100
AcDbVertex
100
AcDbPolyFaceMeshVertex
 10
784.4408398881595
 20
5043.0
 30
2605.055159865519
 70
   192
  0
VERTEX
  5
3CE
330
3C0
100
AcDbEntity
  8
D01 金物
370
     0
100
AcDbVertex
100
AcDbPolyFaceMeshVertex
 10
784.4408398881595
 20
9.000000000000341
 30
2605.055159865519
 70
   192
  0
VERTEX
  5
3CF
330
3C0
100
AcDbEntity
  8
D01 金物
370
     0
100
AcDbVertex
100
AcDbPolyFaceMeshVertex
 10
784.5976376913651
 20
5043.0
 30
2603.56337755938
 70
   192
  0
VERTEX
  5
3D0
330
3C0
100
AcDbEntity
  8
D01 金物
370
     0
100
AcDbVertex
100
AcDbPolyFaceMeshVertex
 10
784.5976376913651
 20
9.000000000000341
 30
2603.56337755938
 70
   192
  0
VERTEX
  5
3D1
330
3C0
100
AcDbEntity
  8
D01 金物
370
     0
100
AcDbVertex
100
AcDbPolyFaceMeshVertex
 10
787.0839415349304
 20
5043.0
 30
2603.824707231389
 70
   192
  0
VERTEX
  5
3D2
330
3C0
100
AcDbEntity
  8
D01 金物
370
     0
100
AcDbVertex
100
AcDbPolyFaceMeshVertex
 10
787.0839415349303
 20
9.000000000000341
 30
2603.824707231389
 70
   192
  0
VERTEX
  5
3D3
330
3C0
100
AcDbEntity
  8
D01 金物
370
     0
100
AcDbVertex
100
AcDbPolyFaceMeshVertex
 10
787.4498030757436
 20
5043.0
 30
2600.343881850398
 70
   192
  0
VERTEX
  5
3D4
330
3C0
100
AcDbEntity
  8
D01 金物
370
     0
100
AcDbVertex
100
AcDbPolyFaceMeshVertex
 10
787.4498030757435
 20
9.000000000000341
 30
2600.343881850398
 70
   192
  0
VERTEX
  5
3D5
330
3C0
100
AcDbEntity
  8
D01 金物
370
     0
100
AcDbVertex
100
AcDbPolyFaceMeshVertex
 10
759.1059392590995
 20
5043.0
 30
2597.36472358949
 70
   192
  0
VERTEX
  5
3D6
330
3C0
100
AcDbEntity
  8
D01 金物
370
     0
100
AcDbVertex
100
AcDbPolyFaceMeshVertex
 10
759.1059392590995
 20
9.000000000000341
 30
2597.36472358949
 70
   192
  0
VERTEX
  5
3D7
330
3C0
100
AcDbEntity
  8
D01 金物
370
     0
100
AcDbVertex
100
AcDbPolyFaceMeshVertex
 10
759.3515891507884
 20
5043.0
 30
2595.027597976538
 70
   192
  0
VERTEX
  5
3D8
330
3C0
100
AcDbEntity
  8
D01 金物
370
     0
100
AcDbVertex
100
AcDbPolyFaceMeshVertex
 10
759.3515891507884
 20
9.000000000000341
 30
2595.027597976539
 70
   192
  0
VERTEX
  5
3D9
330
3C0
100
AcDbEntity
  8
D01 金物
370
     0
100
AcDbVertex
100
AcDbPolyFaceMeshVertex
 10
759.6729426231531
 20
5043.0
 30
2594.840162798946
 70
   192
  0
VERTEX
  5
3DA
330
3C0
100
AcDbEntity
  8
D01 金物
370
     0
100
AcDbVertex
100
AcDbPolyFaceMeshVertex
 10
759.672942623153
 20
9.000000000000341
 30
2594.840162798946
 70
   192
  0
VERTEX
  5
3DB
330
3C0
100
AcDbEntity
  8
D01 金物
370
     0
100
AcDbVertex
100
AcDbPolyFaceMeshVertex
 10
763.8394783818028
 20
5043.0
 30
2555.199528838679
 70
   192
  0
VERTEX
  5
3DC
330
3C0
100
AcDbEntity
  8
D01 金物
370
     0
100
AcDbVertex
100
AcDbPolyFaceMeshVertex
 10
763.8394783818027
 20
9.000000000000341
 30
2555.199528838679
 70
   192
  0
VERTEX
  5
3DD
330
3C0
100
AcDbEntity
  8
D01 金物
370
     0
100
AcDbVertex
100
AcDbPolyFaceMeshVertex
 10
763.5645370591869
 20
5043.0
 30
2554.945396453654
 70
   192
  0
VERTEX
  5
3DE
330
3C0
100
AcDbEntity
  8
D01 金物
370
     0
100
AcDbVertex
100
AcDbPolyFaceMeshVertex
 10
763.5645370591869
 20
9.000000000000341
 30
2554.945396453654
 70
   192
  0
VERTEX
  5
3DF
330
3C0
100
AcDbEntity
  8
D01 金物
370
     0
100
AcDbVertex
100
AcDbPolyFaceMeshVertex
 10
763.8098733552694
 20
5043.0
 30
2552.611254405315
 70
   192
  0
VERTEX
  5
3E0
330
3C0
100
AcDbEntity
  8
D01 金物
370
     0
100
AcDbVertex
100
AcDbPolyFaceMeshVertex
 10
763.8098733552694
 20
9.000000000000341
 30
2552.611254405316
 70
   192
  0
VERTEX
  5
3E1
330
3C0
100
AcDbEntity
  8
D01 金物
370
     0
100
AcDbVertex
100
AcDbPolyFaceMeshVertex
 10
807.5688210020182
 20
5043.0
 30
2557.210656632681
 70
   192
  0
VERTEX
  5
3E2
330
3C0
100
AcDbEntity
  8
D01 金物
370
     0
100
AcDbVertex
100
AcDbPolyFaceMeshVertex
 10
807.5688210020181
 20
9.000000000000341
 30
2557.210656632682
 70
   192
  0
VERTEX
  5
3E3
330
3C0
100
AcDbEntity
  8
D01 金物
370
     0
100
AcDbVertex
100
AcDbPolyFaceMeshVertex
 10
807.4224763856929
 20
5043.0
 30
2558.602986785078
 70
   192
  0
VERTEX
  5
3E4
330
3C0
100
AcDbEntity
  8
D01 金物
370
     0
100
AcDbVertex
100
AcDbPolyFaceMeshVertex
 10
807.4224763856929
 20
9.000000000000341
 30
2558.602986785078
 70
   192
  0
VERTEX
  5
3E5
330
3C0
100
AcDbEntity
  8
D01 金物
370
     0
100
AcDbVertex
100
AcDbPolyFaceMeshVertex
 10
1550.249174861727
 20
5043.0
 30
2636.679790621825
 70
   192
  0
VERTEX
  5
3E6
330
3C0
100
AcDbEntity
  8
D01 金物
370
     0
100
AcDbVertex
100
AcDbPolyFaceMeshVertex
 10
1545.168926037864
 20
5043.0
 30
2685.013537340734
 70
   192
  0
VERTEX
  5
3E7
330
3C0
100
AcDbEntity
  8
D01 金物
370
     0
100
AcDbVertex
100
AcDbPolyFaceMeshVertex
 10
1545.168926037864
 20
9.000000000000341
 30
2685.013537340734
 70
   192
  0
VERTEX
  5
3E8
330
3C0
100
AcDbEntity
  8
D01 金物
370
     0
100
AcDbVertex
100
AcDbPolyFaceMeshVertex
 10
1550.249174861727
 20
9.000000000000341
 30
2636.679790621825
 70
   192
  0
VERTEX
  5
3E9
330
3C0
100
AcDbEntity
  8
D01 金物
370
     0
100
AcDbVertex
100
AcDbPolyFaceMeshVertex
 10
1541.190839888159
 20
5043.0
 30
2684.595409865519
 70
   192
  0
VERTEX
  5
3EA
330
3C0
100
AcDbEntity
  8
D01 金物
370
     0
100
AcDbVertex
100
AcDbPolyFaceMeshVertex
 10
1541.190839888159
 20
9.000000000000341
 30
2684.595409865519
 70
   192
  0
VERTEX
  5
3EB
330
3C0
100
AcDbEntity
  8
D01 金物
370
     0
100
AcDbVertex
100
AcDbPolyFaceMeshVertex
 10
1541.347637691365
 20
5043.0
 30
2683.10362755938
 70
   192
  0
VERTEX
  5
3EC
330
3C0
100
AcDbEntity
  8
D01 金物
370
     0
100
AcDbVertex
100
AcDbPolyFaceMeshVertex
 10
1541.347637691365
 20
9.000000000000341
 30
2683.10362755938
 70
   192
  0
VERTEX
  5
3ED
330
3C0
100
AcDbEntity
  8
D01 金物
370
     0
100
AcDbVertex
100
AcDbPolyFaceMeshVertex
 10
1543.833941534931
 20
5043.0
 30
2683.364957231389
 70
   192
  0
VERTEX
  5
3EE
330
3C0
100
AcDbEntity
  8
D01 金物
370
     0
100
AcDbVertex
100
AcDbPolyFaceMeshVertex
 10
1543.833941534931
 20
9.000000000000341
 30
2683.364957231389
 70
   192
  0
VERTEX
  5
3EF
330
3C0
100
AcDbEntity
  8
D01 金物
370
     0
100
AcDbVertex
100
AcDbPolyFaceMeshVertex
 10
1544.199803075744
 20
5043.0
 30
2679.884131850398
 70
   192
  0
VERTEX
  5
3F0
330
3C0
100
AcDbEntity
  8
D01 金物
370
     0
100
AcDbVertex
100
AcDbPolyFaceMeshVertex
 10
1544.199803075744
 20
9.000000000000341
 30
2679.884131850398
 70
   192
  0
VERTEX
  5
3F1
330
3C0
100
AcDbEntity
  8
D01 金物
370
     0
100
AcDbVertex
100
AcDbPolyFaceMeshVertex
 10
1515.8559392591
 20
5043.0
 30
2676.90497358949
 70
   192
  0
VERTEX
  5
3F2
330
3C0
100
AcDbEntity
  8
D01 金物
370
     0
100
AcDbVertex
100
AcDbPolyFaceMeshVertex
 10
1515.8559392591
 20
9.000000000000341
 30
2676.904973589491
 70
   192
  0
VERTEX
  5
3F3
330
3C0
100
AcDbEntity
  8
D01 金物
370
     0
100
AcDbVertex
100
AcDbPolyFaceMeshVertex
 10
1516.101589150788
 20
5043.0
 30
2674.567847976538
 70
   192
  0
VERTEX
  5
3F4
330
3C0
100
AcDbEntity
  8
D01 金物
370
     0
100
AcDbVertex
100
AcDbPolyFaceMeshVertex
 10
1516.101589150788
 20
9.000000000000341
 30
2674.567847976539
 70
   192
  0
VERTEX
  5
3F5
330
3C0
100
AcDbEntity
  8
D01 金物
370
     0
100
AcDbVertex
100
AcDbPolyFaceMeshVertex
 10
1516.422942623153
 20
5043.0
 30
2674.380412798946
 70
   192
  0
VERTEX
  5
3F6
330
3C0
100
AcDbEntity
  8
D01 金物
370
     0
100
AcDbVertex
100
AcDbPolyFaceMeshVertex
 10
1516.422942623153
 20
9.000000000000341
 30
2674.380412798947
 70
   192
  0
VERTEX
  5
3F7
330
3C0
100
AcDbEntity
  8
D01 金物
370
     0
100
AcDbVertex
100
AcDbPolyFaceMeshVertex
 10
1520.589478381803
 20
5043.0
 30
2634.739778838679
 70
   192
  0
VERTEX
  5
3F8
330
3C0
100
AcDbEntity
  8
D01 金物
370
     0
100
AcDbVertex
100
AcDbPolyFaceMeshVertex
 10
1520.589478381803
 20
9.000000000000341
 30
2634.739778838679
 70
   192
  0
VERTEX
  5
3F9
330
3C0
100
AcDbEntity
  8
D01 金物
370
     0
100
AcDbVertex
100
AcDbPolyFaceMeshVertex
 10
1520.314537059187
 20
5043.0
 30
2634.485646453654
 70
   192
  0
VERTEX
  5
3FA
330
3C0
100
AcDbEntity
  8
D01 金物
370
     0
100
AcDbVertex
100
AcDbPolyFaceMeshVertex
 10
1520.314537059187
 20
9.000000000000341
 30
2634.485646453654
 70
   192
  0
VERTEX
  5
3FB
330
3C0
100
AcDbEntity
  8
D01 金物
370
     0
100
AcDbVertex
100
AcDbPolyFaceMeshVertex
 10
1520.559873355269
 20
5043.0
 30
2632.151504405315
 70
   192
  0
VERTEX
  5
3FC
330
3C0
100
AcDbEntity
  8
D01 金物
370
     0
100
AcDbVertex
100
AcDbPolyFaceMeshVertex
 10
1520.559873355269
 20
9.000000000000341
 30
2632.151504405316
 70
   192
  0
VERTEX
  5
3FD
330
3C0
100
AcDbEntity
  8
D01 金物
370
     0
100
AcDbVertex
100
AcDbPolyFaceMeshVertex
 10
1564.318821002018
 20
5043.0
 30
2636.750906632681
 70
   192
  0
VERTEX
  5
3FE
330
3C0
100
AcDbEntity
  8
D01 金物
370
     0
100
AcDbVertex
100
AcDbPolyFaceMeshVertex
 10
1564.318821002018
 20
9.000000000000341
 30
2636.750906632682
 70
   192
  0
VERTEX
  5
3FF
330
3C0
100
AcDbEntity
  8
D01 金物
370
     0
100
AcDbVertex
100
AcDbPolyFaceMeshVertex
 10
1564.172476385693
 20
5043.0
 30
2638.143236785078
 70
   192
  0
VERTEX
  5
400
330
3C0
100
AcDbEntity
  8
D01 金物
370
     0
100
AcDbVertex
100
AcDbPolyFaceMeshVertex
 10
1564.172476385693
 20
9.000000000000341
 30
2638.143236785078
 70
   192
  0
VERTEX
  5
401
330
3C0
100
AcDbEntity
  8
D01 金物
370
     0
100
AcDbVertex
100
AcDbPolyFaceMeshVertex
 10
2306.999174861728
 20
5043.0
 30
2716.220040621825
 70
   192
  0
VERTEX
  5
402
330
3C0
100
AcDbEntity
  8
D01 金物
370
     0
100
AcDbVertex
100
AcDbPolyFaceMeshVertex
 10
2301.918926037864
 20
5043.0
 30
2764.553787340734
 70
   192
  0
VERTEX
  5
403
330
3C0
100
AcDbEntity
  8
D01 金物
370
     0
100
AcDbVertex
100
AcDbPolyFaceMeshVertex
 10
2301.918926037864
 20
9.000000000000341
 30
2764.553787340734
 70
   192
  0
VERTEX
  5
404
330
3C0
100
AcDbEntity
  8
D01 金物
370
     0
100
AcDbVertex
100
AcDbPolyFaceMeshVertex
 10
2306.999174861728
 20
9.000000000000341
 30
2716.220040621825
 70
   192
  0
VERTEX
  5
405
330
3C0
100
AcDbEntity
  8
D01 金物
370
     0
100
AcDbVertex
100
AcDbPolyFaceMeshVertex
 10
2297.94083988816
 20
5043.0
 30
2764.135659865519
 70
   192
  0
VERTEX
  5
406
330
3C0
100
AcDbEntity
  8
D01 金物
370
     0
100
AcDbVertex
100
AcDbPolyFaceMeshVertex
 10
2297.94083988816
 20
9.000000000000341
 30
2764.135659865519
 70
   192
  0
VERTEX
  5
407
330
3C0
100
AcDbEntity
  8
D01 金物
370
     0
100
AcDbVertex
100
AcDbPolyFaceMeshVertex
 10
2298.097637691365
 20
5043.0
 30
2762.64387755938
 70
   192
  0
VERTEX
  5
408
330
3C0
100
AcDbEntity
  8
D01 金物
370
     0
100
AcDbVertex
100
AcDbPolyFaceMeshVertex
 10
2298.097637691365
 20
9.000000000000341
 30
2762.64387755938
 70
   192
  0
VERTEX
  5
409
330
3C0
100
AcDbEntity
  8
D01 金物
370
     0
100
AcDbVertex
100
AcDbPolyFaceMeshVertex
 10
2300.583941534931
 20
5043.0
 30
2762.905207231389
 70
   192
  0
VERTEX
  5
40A
330
3C0
100
AcDbEntity
  8
D01 金物
370
     0
100
AcDbVertex
100
AcDbPolyFaceMeshVertex
 10
2300.583941534931
 20
9.000000000000341
 30
2762.905207231389
 70
   192
  0
VERTEX
  5
40B
330
3C0
100
AcDbEntity
  8
D01 金物
370
     0
100
AcDbVertex
100
AcDbPolyFaceMeshVertex
 10
2300.949803075744
 20
5043.0
 30
2759.424381850398
 70
   192
  0
VERTEX
  5
40C
330
3C0
100
AcDbEntity
  8
D01 金物
370
     0
100
AcDbVertex
100
AcDbPolyFaceMeshVertex
 10
2300.949803075744
 20
9.000000000000341
 30
2759.424381850398
 70
   192
  0
VERTEX
  5
40D
330
3C0
100
AcDbEntity
  8
D01 金物
370
     0
100
AcDbVertex
100
AcDbPolyFaceMeshVertex
 10
2272.6059392591
 20
5043.0
 30
2756.44522358949
 70
   192
  0
VERTEX
  5
40E
330
3C0
100
AcDbEntity
  8
D01 金物
370
     0
100
AcDbVertex
100
AcDbPolyFaceMeshVertex
 10
2272.6059392591
 20
9.000000000000341
 30
2756.44522358949
 70
   192
  0
VERTEX
  5
40F
330
3C0
100
AcDbEntity
  8
D01 金物
370
     0
100
AcDbVertex
100
AcDbPolyFaceMeshVertex
 10
2272.851589150789
 20
5043.0
 30
2754.108097976538
 70
   192
  0
VERTEX
  5
410
330
3C0
100
AcDbEntity
  8
D01 金物
370
     0
100
AcDbVertex
100
AcDbPolyFaceMeshVertex
 10
2272.851589150789
 20
9.000000000000341
 30
2754.108097976539
 70
   192
  0
VERTEX
  5
411
330
3C0
100
AcDbEntity
  8
D01 金物
370
     0
100
AcDbVertex
100
AcDbPolyFaceMeshVertex
 10
2273.172942623154
 20
5043.0
 30
2753.920662798946
 70
   192
  0
VERTEX
  5
412
330
3C0
100
AcDbEntity
  8
D01 金物
370
     0
100
AcDbVertex
100
AcDbPolyFaceMeshVertex
 10
2273.172942623154
 20
9.000000000000341
 30
2753.920662798947
 70
   192
  0
VERTEX
  5
413
330
3C0
100
AcDbEntity
  8
D01 金物
370
     0
100
AcDbVertex
100
AcDbPolyFaceMeshVertex
 10
2277.339478381803
 20
5043.0
 30
2714.280028838678
 70
   192
  0
VERTEX
  5
414
330
3C0
100
AcDbEntity
  8
D01 金物
370
     0
100
AcDbVertex
100
AcDbPolyFaceMeshVertex
 10
2277.339478381803
 20
9.000000000000341
 30
2714.280028838679
 70
   192
  0
VERTEX
  5
415
330
3C0
100
AcDbEntity
  8
D01 金物
370
     0
100
AcDbVertex
100
AcDbPolyFaceMeshVertex
 10
2277.064537059187
 20
5043.0
 30
2714.025896453654
 70
   192
  0
VERTEX
  5
416
330
3C0
100
AcDbEntity
  8
D01 金物
370
     0
100
AcDbVertex
100
AcDbPolyFaceMeshVertex
 10
2277.064537059187
 20
9.000000000000341
 30
2714.025896453654
 70
   192
  0
VERTEX
  5
417
330
3C0
100
AcDbEntity
  8
D01 金物
370
     0
100
AcDbVertex
100
AcDbPolyFaceMeshVertex
 10
2277.30987335527
 20
5043.0
 30
2711.691754405315
 70
   192
  0
VERTEX
  5
418
330
3C0
100
AcDbEntity
  8
D01 金物
370
     0
100
AcDbVertex
100
AcDbPolyFaceMeshVertex
 10
2277.30987335527
 20
9.000000000000341
 30
2711.691754405316
 70
   192
  0
VERTEX
  5
419
330
3C0
100
AcDbEntity
  8
D01 金物
370
     0
100
AcDbVertex
100
AcDbPolyFaceMeshVertex
 10
2321.068821002018
 20
5043.0
 30
2716.291156632681
 70
   192
  0
VERTEX
  5
41A
330
3C0
100
AcDbEntity
  8
D01 金物
370
     0
100
AcDbVertex
100
AcDbPolyFaceMeshVertex
 10
2321.068821002018
 20
9.000000000000341
 30
2716.291156632682
 70
   192
  0
VERTEX
  5
41B
330
3C0
100
AcDbEntity
  8
D01 金物
370
     0
100
AcDbVertex
100
AcDbPolyFaceMeshVertex
 10
2320.922476385693
 20
5043.0
 30
2717.683486785078
 70
   192
  0
VERTEX
  5
41C
330
3C0
100
AcDbEntity
  8
D01 金物
370
     0
100
AcDbVertex
100
AcDbPolyFaceMeshVertex
 10
2320.922476385693
 20
9.000000000000341
 30
2717.683486785078
 70
   192
  0
VERTEX
  5
41D
330
3C0
100
AcDbEntity
  8
D01 金物
370
     0
100
AcDbVertex
100
AcDbPolyFaceMeshVertex
 10
43.02428699754186
 20
760.9999999999995
 30
2532.695080040646
 70
   192
  0
VERTEX
  5
41E
330
3C0
100
AcDbEntity
  8
D01 金物
370
     0
100
AcDbVertex
100
AcDbPolyFaceMeshVertex
 10
43.75601007916829
 20
760.9999999999995
 30
2525.733429278663
 70
   192
  0
VERTEX
  5
41F
330
3C0
100
AcDbEntity
  8
D01 金物
370
     0
100
AcDbVertex
100
AcDbPolyFaceMeshVertex
 10
43.75601007916829
 20
710.9999999999995
 30
2525.733429278663
 70
   192
  0
VERTEX
  5
420
330
3C0
100
AcDbEntity
  8
D01 金物
370
     0
100
AcDbVertex
100
AcDbPolyFaceMeshVertex
 10
43.02428699754186
 20
710.9999999999995
 30
2532.695080040646
 70
   192
  0
VERTEX
  5
421
330
3C0
100
AcDbEntity
  8
D01 金物
370
     0
100
AcDbVertex
100
AcDbPolyFaceMeshVertex
 10
3003.128545534193
 20
760.9999999999995
 30
2836.786262200006
 70
   192
  0
VERTEX
  5
422
330
3C0
100
AcDbEntity
  8
D01 金物
370
     0
100
AcDbVertex
100
AcDbPolyFaceMeshVertex
 10
3003.128545534193
 20
710.9999999999995
 30
2836.786262200006
 70
   192
  0
VERTEX
  5
423
330
3C0
100
AcDbEntity
  8
D01 金物
370
     0
100
AcDbVertex
100
AcDbPolyFaceMeshVertex
 10
3002.396822452567
 20
760.9999999999995
 30
2843.747912961989
 70
   192
  0
VERTEX
  5
424
330
3C0
100
AcDbEntity
  8
D01 金物
370
     0
100
AcDbVertex
100
AcDbPolyFaceMeshVertex
 10
3002.396822452567
 20
710.9999999999995
 30
2843.747912961989
 70
   192
  0
VERTEX
  5
425
330
3C0
100
AcDbEntity
  8
D01 金物
370
     0
100
AcDbVertex
100
AcDbPolyFaceMeshVertex
 10
43.02428699754186
 20
1476.999999999999
 30
2532.695080040646
 70
   192
  0
VERTEX
  5
426
330
3C0
100
AcDbEntity
  8
D01 金物
370
     0
100
AcDbVertex
100
AcDbPolyFaceMeshVertex
 10
43.75601007916829
 20
1476.999999999999
 30
2525.733429278663
 70
   192
  0
VERTEX
  5
427
330
3C0
100
AcDbEntity
  8
D01 金物
370
     0
100
AcDbVertex
100
AcDbPolyFaceMeshVertex
 10
43.75601007916829
 20
1426.999999999999
 30
2525.733429278663
 70
   192
  0
VERTEX
  5
428
330
3C0
100
AcDbEntity
  8
D01 金物
370
     0
100
AcDbVertex
100
AcDbPolyFaceMeshVertex
 10
43.02428699754186
 20
1426.999999999999
 30
2532.695080040646
 70
   192
  0
VERTEX
  5
429
330
3C0
100
AcDbEntity
  8
D01 金物
370
     0
100
AcDbVertex
100
AcDbPolyFaceMeshVertex
 10
3003.128545534193
 20
1476.999999999999
 30
2836.786262200006
 70
   192
  0
VERTEX
  5
42A
330
3C0
100
AcDbEntity
  8
D01 金物
370
     0
100
AcDbVertex
100
AcDbPolyFaceMeshVertex
 10
3003.128545534193
 20
1426.999999999999
 30
2836.786262200006
 70
   192
  0
VERTEX
  5
42B
330
3C0
100
AcDbEntity
  8
D01 金物
370
     0
100
AcDbVertex
100
AcDbPolyFaceMeshVertex
 10
3002.396822452567
 20
1476.999999999999
 30
2843.747912961989
 70
   192
  0
VERTEX
  5
42C
330
3C0
100
AcDbEntity
  8
D01 金物
370
     0
100
AcDbVertex
100
AcDbPolyFaceMeshVertex
 10
3002.396822452567
 20
1426.999999999999
 30
2843.747912961989
 70
   192
  0
VERTEX
  5
42D
330
3C0
100
AcDbEntity
  8
D01 金物
370
     0
100
AcDbVertex
100
AcDbPolyFaceMeshVertex
 10
43.02428699754186
 20
2193.0
 30
2532.695080040646
 70
   192
  0
VERTEX
  5
42E
330
3C0
100
AcDbEntity
  8
D01 金物
370
     0
100
AcDbVertex
100
AcDbPolyFaceMeshVertex
 10
43.75601007916829
 20
2193.0
 30
2525.733429278663
 70
   192
  0
VERTEX
  5
42F
330
3C0
100
AcDbEntity
  8
D01 金物
370
     0
100
AcDbVertex
100
AcDbPolyFaceMeshVertex
 10
43.75601007916829
 20
2143.0
 30
2525.733429278663
 70
   192
  0
VERTEX
  5
430
330
3C0
100
AcDbEntity
  8
D01 金物
370
     0
100
AcDbVertex
100
AcDbPolyFaceMeshVertex
 10
43.02428699754186
 20
2143.0
 30
2532.695080040646
 70
   192
  0
VERTEX
  5
431
330
3C0
100
AcDbEntity
  8
D01 金物
370
     0
100
AcDbVertex
100
AcDbPolyFaceMeshVertex
 10
3003.128545534193
 20
2193.0
 30
2836.786262200006
 70
   192
  0
VERTEX
  5
432
330
3C0
100
AcDbEntity
  8
D01 金物
370
     0
100
AcDbVertex
100
AcDbPolyFaceMeshVertex
 10
3003.128545534193
 20
2143.0
 30
2836.786262200006
 70
   192
  0
VERTEX
  5
433
330
3C0
100
AcDbEntity
  8
D01 金物
370
     0
100
AcDbVertex
100
AcDbPolyFaceMeshVertex
 10
3002.396822452567
 20
2193.0
 30
2843.747912961989
 70
   192
  0
VERTEX
  5
434
330
3C0
100
AcDbEntity
  8
D01 金物
370
     0
100
AcDbVertex
100
AcDbPolyFaceMeshVertex
 10
3002.396822452567
 20
2143.0
 30
2843.747912961989
 70
   192
  0
VERTEX
  5
435
330
3C0
100
AcDbEntity
  8
D01 金物
370
     0
100
AcDbVertex
100
AcDbPolyFaceMeshVertex
 10
43.02428699754186
 20
2909.0
 30
2532.695080040646
 70
   192
  0
VERTEX
  5
436
330
3C0
100
AcDbEntity
  8
D01 金物
370
     0
100
AcDbVertex
100
AcDbPolyFaceMeshVertex
 10
43.75601007916829
 20
2909.0
 30
2525.733429278663
 70
   192
  0
VERTEX
  5
437
330
3C0
100
AcDbEntity
  8
D01 金物
370
     0
100
AcDbVertex
100
AcDbPolyFaceMeshVertex
 10
43.75601007916829
 20
2859.0
 30
2525.733429278663
 70
   192
  0
VERTEX
  5
438
330
3C0
100
AcDbEntity
  8
D01 金物
370
     0
100
AcDbVertex
100
AcDbPolyFaceMeshVertex
 10
43.02428699754186
 20
2859.0
 30
2532.695080040646
 70
   192
  0
VERTEX
  5
439
330
3C0
100
AcDbEntity
  8
D01 金物
370
     0
100
AcDbVertex
100
AcDbPolyFaceMeshVertex
 10
3003.128545534193
 20
2909.0
 30
2836.786262200006
 70
   192
  0
VERTEX
  5
43A
330
3C0
100
AcDbEntity
  8
D01 金物
370
     0
100
AcDbVertex
100
AcDbPolyFaceMeshVertex
 10
3003.128545534193
 20
2859.0
 30
2836.786262200006
 70
   192
  0
VERTEX
  5
43B
330
3C0
100
AcDbEntity
  8
D01 金物
370
     0
100
AcDbVertex
100
AcDbPolyFaceMeshVertex
 10
3002.396822452567
 20
2909.0
 30
2843.747912961989
 70
   192
  0
VERTEX
  5
43C
330
3C0
100
AcDbEntity
  8
D01 金物
370
     0
100
AcDbVertex
100
AcDbPolyFaceMeshVertex
 10
3002.396822452567
 20
2859.0
 30
2843.747912961989
 70
   192
  0
VERTEX
  5
43D
330
3C0
100
AcDbEntity
  8
D01 金物
370
     0
100
AcDbVertex
100
AcDbPolyFaceMeshVertex
 10
43.02428699754186
 20
3625.0
 30
2532.695080040646
 70
   192
  0
VERTEX
  5
43E
330
3C0
100
AcDbEntity
  8
D01 金物
370
     0
100
AcDbVertex
100
AcDbPolyFaceMeshVertex
 10
43.75601007916829
 20
3625.0
 30
2525.733429278663
 70
   192
  0
VERTEX
  5
43F
330
3C0
100
AcDbEntity
  8
D01 金物
370
     0
100
AcDbVertex
100
AcDbPolyFaceMeshVertex
 10
43.75601007916829
 20
3575.0
 30
2525.733429278663
 70
   192
  0
VERTEX
  5
440
330
3C0
100
AcDbEntity
  8
D01 金物
370
     0
100
AcDbVertex
100
AcDbPolyFaceMeshVertex
 10
43.02428699754186
 20
3575.0
 30
2532.695080040646
 70
   192
  0
VERTEX
  5
441
330
3C0
100
AcDbEntity
  8
D01 金物
370
     0
100
AcDbVertex
100
AcDbPolyFaceMeshVertex
 10
3003.128545534193
 20
3625.0
 30
2836.786262200006
 70
   192
  0
VERTEX
  5
442
330
3C0
100
AcDbEntity
  8
D01 金物
370
     0
100
AcDbVertex
100
AcDbPolyFaceMeshVertex
 10
3003.128545534193
 20
3575.0
 30
2836.786262200006
 70
   192
  0
VERTEX
  5
443
330
3C0
100
AcDbEntity
  8
D01 金物
370
     0
100
AcDbVertex
100
AcDbPolyFaceMeshVertex
 10
3002.396822452567
 20
3625.0
 30
2843.747912961989
 70
   192
  0
VERTEX
  5
444
330
3C0
100
AcDbEntity
  8
D01 金物
370
     0
100
AcDbVertex
100
AcDbPolyFaceMeshVertex
 10
3002.396822452567
 20
3575.0
 30
2843.747912961989
 70
   192
  0
VERTEX
  5
445
330
3C0
100
AcDbEntity
  8
D01 金物
370
     0
100
AcDbVertex
100
AcDbPolyFaceMeshVertex
 10
43.02428699754186
 20
4341.0
 30
2532.695080040646
 70
   192
  0
VERTEX
  5
446
330
3C0
100
AcDbEntity
  8
D01 金物
370
     0
100
AcDbVertex
100
AcDbPolyFaceMeshVertex
 10
43.75601007916829
 20
4341.0
 30
2525.733429278663
 70
   192
  0
VERTEX
  5
447
330
3C0
100
AcDbEntity
  8
D01 金物
370
     0
100
AcDbVertex
100
AcDbPolyFaceMeshVertex
 10
43.75601007916829
 20
4291.0
 30
2525.733429278663
 70
   192
  0
VERTEX
  5
448
330
3C0
100
AcDbEntity
  8
D01 金物
370
     0
100
AcDbVertex
100
AcDbPolyFaceMeshVertex
 10
43.02428699754186
 20
4291.0
 30
2532.695080040646
 70
   192
  0
VERTEX
  5
449
330
3C0
100
AcDbEntity
  8
D01 金物
370
     0
100
AcDbVertex
100
AcDbPolyFaceMeshVertex
 10
3003.128545534193
 20
4341.0
 30
2836.786262200006
 70
   192
  0
VERTEX
  5
44A
330
3C0
100
AcDbEntity
  8
D01 金物
370
     0
100
AcDbVertex
100
AcDbPolyFaceMeshVertex
 10
3003.128545534193
 20
4291.0
 30
2836.786262200006
 70
   192
  0
VERTEX
  5
44B
330
3C0
100
AcDbEntity
  8
D01 金物
370
     0
100
AcDbVertex
100
AcDbPolyFaceMeshVertex
 10
3002.396822452567
 20
4341.0
 30
2843.747912961989
 70
   192
  0
VERTEX
  5
44C
330
3C0
100
AcDbEntity
  8
D01 金物
370
     0
100
AcDbVertex
100
AcDbPolyFaceMeshVertex
 10
3002.396822452567
 20
4291.0
 30
2843.747912961989
 70
   192
  0
VERTEX
  5
44D
330
3C0
100
AcDbEntity
  8
D01 金物
 62
    39
420
  6043682
370
     0
100
AcDbFaceRecord
 10
0.0
 20
0.0
 30
0.0
 70
   128
 71
     1
 72
     2
 73
     3
 74
     4
  0
VERTEX
  5
44E
330
3C0
100
AcDbEntity
  8
D01 金物
 62
    39
420
  6043682
370
     0
100
AcDbFaceRecord
 10
0.0
 20
0.0
 30
0.0
 70
   128
 71
     4
 72
     3
 73
     5
 74
     6
  0
VERTEX
  5
44F
330
3C0
100
AcDbEntity
  8
D01 金物
 62
    39
420
  6043682
370
     0
100
AcDbFaceRecord
 10
0.0
 20
0.0
 30
0.0
 70
   128
 71
     6
 72
     5
 73
     7
 74
     8
  0
VERTEX
  5
450
330
3C0
100
AcDbEntity
  8
D01 金物
 62
    39
420
  6043682
370
     0
100
AcDbFaceRecord
 10
0.0
 20
0.0
 30
0.0
 70
   128
 71
     8
 72
     7
 73
     2
 74
     1
  0
VERTEX
  5
451
330
3C0
100
AcDbEntity
  8
D01 金物
 62
    39
420
  6043682
370
     0
100
AcDbFaceRecord
 10
0.0
 20
0.0
 30
0.0
 70
   128
 71
     1
 72
     4
 73
     6
 74
     8
  0
VERTEX
  5
452
330
3C0
100
AcDbEntity
  8
D01 金物
 62
    39
420
  6043682
370
     0
100
AcDbFaceRecord
 10
0.0
 20
0.0
 30
0.0
 70
   128
 71
     2
 72
     7
 73
     5
 74
     3
  0
VERTEX
  5
453
330
3C0
100
AcDbEntity
  8
D01 金物
 62
   250
420
  3947580
370
     0
100
AcDbFaceRecord
 10
0.0
 20
0.0
 30
0.0
 70
   128
 71
     9
 72
    10
 73
    11
 74
    12
  0
VERTEX
  5
454
330
3C0
100
AcDbEntity
  8
D01 金物
 62
   250
420
  3947580
370
     0
100
AcDbFaceRecord
 10
0.0
 20
0.0
 30
0.0
 70
   128
 71
    10
 72
    13
 73
    14
 74
    11
  0
VERTEX
  5
455
330
3C0
100
AcDbEntity
  8
D01 金物
 62
   250
420
  3947580
370
     0
100
AcDbFaceRecord
 10
0.0
 20
0.0
 30
0.0
 70
   128
 71
    13
 72
    15
 73
    16
 74
    14
  0
VERTEX
  5
456
330
3C0
100
AcDbEntity
  8
D01 金物
 62
   250
420
  3947580
370
     0
100
AcDbFaceRecord
 10
0.0
 20
0.0
 30
0.0
 70
   128
 71
    15
 72
    17
 73
    18
 74
    16
  0
VERTEX
  5
457
330
3C0
100
AcDbEntity
  8
D01 金物
 62
   250
420
  3947580
370
     0
100
AcDbFaceRecord
 10
0.0
 20
0.0
 30
0.0
 70
   128
 71
    17
 72
    19
 73
    20
 74
    18
  0
VERTEX
  5
458
330
3C0
100
AcDbEntity
  8
D01 金物
 62
   250
420
  3947580
370
     0
100
AcDbFaceRecord
 10
0.0
 20
0.0
 30
0.0
 70
   128
 71
    19
 72
    21
 73
    22
 74
    20
  0
VERTEX
  5
459
330
3C0
100
AcDbEntity
  8
D01 金物
 62
   250
420
  3947580
370
     0
100
AcDbFaceRecord
 10
0.0
 20
0.0
 30
0.0
 70
   128
 71
    21
 72
    23
 73
    24
 74
    22
  0
VERTEX
  5
45A
330
3C0
100
AcDbEntity
  8
D01 金物
 62
   250
420
  3947580
370
     0
100
AcDbFaceRecord
 10
0.0
 20
0.0
 30
0.0
 70
   128
 71
    23
 72
    25
 73
    26
 74
    24
  0
VERTEX
  5
45B
330
3C0
100
AcDbEntity
  8
D01 金物
 62
   250
420
  3947580
370
     0
100
AcDbFaceRecord
 10
0.0
 20
0.0
 30
0.0
 70
   128
 71
    25
 72
    27
 73
    28
 74
    26
  0
VERTEX
  5
45C
330
3C0
100
AcDbEntity
  8
D01 金物
 62
   250
420
  3947580
370
     0
100
AcDbFaceRecord
 10
0.0
 20
0.0
 30
0.0
 70
   128
 71
    27
 72
    29
 73
    30
 74
    28
  0
VERTEX
  5
45D
330
3C0
100
AcDbEntity
  8
D01 金物
 62
   250
420
  3947580
370
     0
100
AcDbFaceRecord
 10
0.0
 20
0.0
 30
0.0
 70
   128
 71
    29
 72
    31
 73
    32
 74
    30
  0
VERTEX
  5
45E
330
3C0
100
AcDbEntity
  8
D01 金物
 62
   250
420
  3947580
370
     0
100
AcDbFaceRecord
 10
0.0
 20
0.0
 30
0.0
 70
   128
 71
    31
 72
    33
 73
    34
 74
    32
  0
VERTEX
  5
45F
330
3C0
100
AcDbEntity
  8
D01 金物
 62
   250
420
  3947580
370
     0
100
AcDbFaceRecord
 10
0.0
 20
0.0
 30
0.0
 70
   128
 71
    33
 72
    35
 73
    36
 74
    34
  0
VERTEX
  5
460
330
3C0
100
AcDbEntity
  8
D01 金物
 62
   250
420
  3947580
370
     0
100
AcDbFaceRecord
 10
0.0
 20
0.0
 30
0.0
 70
   128
 71
    35
 72
     9
 73
    12
 74
    36
  0
VERTEX
  5
461
330
3C0
100
AcDbEntity
  8
D01 金物
 62
   250
420
  3947580
370
     0
100
AcDbFaceRecord
 10
0.0
 20
0.0
 30
0.0
 70
   128
 71
   -17
 72
    13
 73
   -10
  0
VERTEX
  5
462
330
3C0
100
AcDbEntity
  8
D01 金物
 62
   250
420
  3947580
370
     0
100
AcDbFaceRecord
 10
0.0
 20
0.0
 30
0.0
 70
   128
 71
    15
 72
   -13
 73
    17
  0
VERTEX
  5
463
330
3C0
100
AcDbEntity
  8
D01 金物
 62
   250
420
  3947580
370
     0
100
AcDbFaceRecord
 10
0.0
 20
0.0
 30
0.0
 70
   128
 71
    19
 72
   -17
 73
   -10
  0
VERTEX
  5
464
330
3C0
100
AcDbEntity
  8
D01 金物
 62
   250
420
  3947580
370
     0
100
AcDbFaceRecord
 10
0.0
 20
0.0
 30
0.0
 70
   128
 71
    23
 72
    21
 73
   -19
  0
VERTEX
  5
465
330
3C0
100
AcDbEntity
  8
D01 金物
 62
   250
420
  3947580
370
     0
100
AcDbFaceRecord
 10
0.0
 20
0.0
 30
0.0
 70
   128
 71
    25
 72
   -23
 73
   -19
  0
VERTEX
  5
466
330
3C0
100
AcDbEntity
  8
D01 金物
 62
   250
420
  3947580
370
     0
100
AcDbFaceRecord
 10
0.0
 20
0.0
 30
0.0
 70
   128
 71
   -19
 72
    10
 73
    -9
  0
VERTEX
  5
467
330
3C0
100
AcDbEntity
  8
D01 金物
 62
   250
420
  3947580
370
     0
100
AcDbFaceRecord
 10
0.0
 20
0.0
 30
0.0
 70
   128
 71
   -25
 72
   -19
 73
    -9
  0
VERTEX
  5
468
330
3C0
100
AcDbEntity
  8
D01 金物
 62
   250
420
  3947580
370
     0
100
AcDbFaceRecord
 10
0.0
 20
0.0
 30
0.0
 70
   128
 71
     9
 72
    35
 73
   -33
  0
VERTEX
  5
469
330
3C0
100
AcDbEntity
  8
D01 金物
 62
   250
420
  3947580
370
     0
100
AcDbFaceRecord
 10
0.0
 20
0.0
 30
0.0
 70
   128
 71
    27
 72
   -25
 73
    -9
  0
VERTEX
  5
46A
330
3C0
100
AcDbEntity
  8
D01 金物
 62
   250
420
  3947580
370
     0
100
AcDbFaceRecord
 10
0.0
 20
0.0
 30
0.0
 70
   128
 71
   -27
 72
    -9
 73
   -33
  0
VERTEX
  5
46B
330
3C0
100
AcDbEntity
  8
D01 金物
 62
   250
420
  3947580
370
     0
100
AcDbFaceRecord
 10
0.0
 20
0.0
 30
0.0
 70
   128
 71
    29
 72
   -27
 73
   -33
  0
VERTEX
  5
46C
330
3C0
100
AcDbEntity
  8
D01 金物
 62
   250
420
  3947580
370
     0
100
AcDbFaceRecord
 10
0.0
 20
0.0
 30
0.0
 70
   128
 71
    31
 72
   -29
 73
    33
  0
VERTEX
  5
46D
330
3C0
100
AcDbEntity
  8
D01 金物
 62
   250
420
  3947580
370
     0
100
AcDbFaceRecord
 10
0.0
 20
0.0
 30
0.0
 70
   128
 71
    11
 72
   -14
 73
   -18
  0
VERTEX
  5
46E
330
3C0
100
AcDbEntity
  8
D01 金物
 62
   250
420
  3947580
370
     0
100
AcDbFaceRecord
 10
0.0
 20
0.0
 30
0.0
 70
   128
 71
    16
 72
   -18
 73
    14
  0
VERTEX
  5
46F
330
3C0
100
AcDbEntity
  8
D01 金物
 62
   250
420
  3947580
370
     0
100
AcDbFaceRecord
 10
0.0
 20
0.0
 30
0.0
 70
   128
 71
   -11
 72
    18
 73
   -20
  0
VERTEX
  5
470
330
3C0
100
AcDbEntity
  8
D01 金物
 62
   250
420
  3947580
370
     0
100
AcDbFaceRecord
 10
0.0
 20
0.0
 30
0.0
 70
   128
 71
    20
 72
    22
 73
   -24
  0
VERTEX
  5
471
330
3C0
100
AcDbEntity
  8
D01 金物
 62
   250
420
  3947580
370
     0
100
AcDbFaceRecord
 10
0.0
 20
0.0
 30
0.0
 70
   128
 71
   -20
 72
    24
 73
   -26
  0
VERTEX
  5
472
330
3C0
100
AcDbEntity
  8
D01 金物
 62
   250
420
  3947580
370
     0
100
AcDbFaceRecord
 10
0.0
 20
0.0
 30
0.0
 70
   128
 71
    34
 72
    36
 73
   -12
  0
VERTEX
  5
473
330
3C0
100
AcDbEntity
  8
D01 金物
 62
   250
420
  3947580
370
     0
100
AcDbFaceRecord
 10
0.0
 20
0.0
 30
0.0
 70
   128
 71
    12
 72
   -11
 73
   -20
  0
VERTEX
  5
474
330
3C0
100
AcDbEntity
  8
D01 金物
 62
   250
420
  3947580
370
     0
100
AcDbFaceRecord
 10
0.0
 20
0.0
 30
0.0
 70
   128
 71
   -12
 72
   -20
 73
   -26
  0
VERTEX
  5
475
330
3C0
100
AcDbEntity
  8
D01 金物
 62
   250
420
  3947580
370
     0
100
AcDbFaceRecord
 10
0.0
 20
0.0
 30
0.0
 70
   128
 71
   -12
 72
    26
 73
   -28
  0
VERTEX
  5
476
330
3C0
100
AcDbEntity
  8
D01 金物
 62
   250
420
  3947580
370
     0
100
AcDbFaceRecord
 10
0.0
 20
0.0
 30
0.0
 70
   128
 71
   -34
 72
   -12
 73
   -28
  0
VERTEX
  5
477
330
3C0
100
AcDbEntity
  8
D01 金物
 62
   250
420
  3947580
370
     0
100
AcDbFaceRecord
 10
0.0
 20
0.0
 30
0.0
 70
   128
 71
   -34
 72
    28
 73
   -30
  0
VERTEX
  5
478
330
3C0
100
AcDbEntity
  8
D01 金物
 62
   250
420
  3947580
370
     0
100
AcDbFaceRecord
 10
0.0
 20
0.0
 30
0.0
 70
   128
 71
    32
 72
   -34
 73
    30
  0
VERTEX
  5
479
330
3C0
100
AcDbEntity
  8
D01 金物
 62
   250
420
  3947580
370
     0
100
AcDbFaceRecord
 10
0.0
 20
0.0
 30
0.0
 70
   128
 71
    37
 72
    38
 73
    39
 74
    40
  0
VERTEX
  5
47A
330
3C0
100
AcDbEntity
  8
D01 金物
 62
   250
420
  3947580
370
     0
100
AcDbFaceRecord
 10
0.0
 20
0.0
 30
0.0
 70
   128
 71
    38
 72
    41
 73
    42
 74
    39
  0
VERTEX
  5
47B
330
3C0
100
AcDbEntity
  8
D01 金物
 62
   250
420
  3947580
370
     0
100
AcDbFaceRecord
 10
0.0
 20
0.0
 30
0.0
 70
   128
 71
    41
 72
    43
 73
    44
 74
    42
  0
VERTEX
  5
47C
330
3C0
100
AcDbEntity
  8
D01 金物
 62
   250
420
  3947580
370
     0
100
AcDbFaceRecord
 10
0.0
 20
0.0
 30
0.0
 70
   128
 71
    43
 72
    45
 73
    46
 74
    44
  0
VERTEX
  5
47D
330
3C0
100
AcDbEntity
  8
D01 金物
 62
   250
420
  3947580
370
     0
100
AcDbFaceRecord
 10
0.0
 20
0.0
 30
0.0
 70
   128
 71
    45
 72
    47
 73
    48
 74
    46
  0
VERTEX
  5
47E
330
3C0
100
AcDbEntity
  8
D01 金物
 62
   250
420
  3947580
370
     0
100
AcDbFaceRecord
 10
0.0
 20
0.0
 30
0.0
 70
   128
 71
    47
 72
    49
 73
    50
 74
    48
  0
VERTEX
  5
47F
330
3C0
100
AcDbEntity
  8
D01 金物
 62
   250
420
  3947580
370
     0
100
AcDbFaceRecord
 10
0.0
 20
0.0
 30
0.0
 70
   128
 71
    49
 72
    51
 73
    52
 74
    50
  0
VERTEX
  5
480
330
3C0
100
AcDbEntity
  8
D01 金物
 62
   250
420
  3947580
370
     0
100
AcDbFaceRecord
 10
0.0
 20
0.0
 30
0.0
 70
   128
 71
    51
 72
    53
 73
    54
 74
    52
  0
VERTEX
  5
481
330
3C0
100
AcDbEntity
  8
D01 金物
 62
   250
420
  3947580
370
     0
100
AcDbFaceRecord
 10
0.0
 20
0.0
 30
0.0
 70
   128
 71
    53
 72
    55
 73
    56
 74
    54
  0
VERTEX
  5
482
330
3C0
100
AcDbEntity
  8
D01 金物
 62
   250
420
  3947580
370
     0
100
AcDbFaceRecord
 10
0.0
 20
0.0
 30
0.0
 70
   128
 71
    55
 72
    57
 73
    58
 74
    56
  0
VERTEX
  5
483
330
3C0
100
AcDbEntity
  8
D01 金物
 62
   250
420
  3947580
370
     0
100
AcDbFaceRecord
 10
0.0
 20
0.0
 30
0.0
 70
   128
 71
    57
 72
    59
 73
    60
 74
    58
  0
VERTEX
  5
484
330
3C0
100
AcDbEntity
  8
D01 金物
 62
   250
420
  3947580
370
     0
100
AcDbFaceRecord
 10
0.0
 20
0.0
 30
0.0
 70
   128
 71
    59
 72
    61
 73
    62
 74
    60
  0
VERTEX
  5
485
330
3C0
100
AcDbEntity
  8
D01 金物
 62
   250
420
  3947580
370
     0
100
AcDbFaceRecord
 10
0.0
 20
0.0
 30
0.0
 70
   128
 71
    61
 72
    63
 73
    64
 74
    62
  0
VERTEX
  5
486
330
3C0
100
AcDbEntity
  8
D01 金物
 62
   250
420
  3947580
370
     0
100
AcDbFaceRecord
 10
0.0
 20
0.0
 30
0.0
 70
   128
 71
    63
 72
    37
 73
    40
 74
    64
  0
VERTEX
  5
487
330
3C0
100
AcDbEntity
  8
D01 金物
 62
   250
420
  3947580
370
     0
100
AcDbFaceRecord
 10
0.0
 20
0.0
 30
0.0
 70
   128
 71
   -45
 72
    41
 73
   -38
  0
VERTEX
  5
488
330
3C0
100
AcDbEntity
  8
D01 金物
 62
   250
420
  3947580
370
     0
100
AcDbFaceRecord
 10
0.0
 20
0.0
 30
0.0
 70
   128
 71
    43
 72
   -41
 73
    45
  0
VERTEX
  5
489
330
3C0
100
AcDbEntity
  8
D01 金物
 62
   250
420
  3947580
370
     0
100
AcDbFaceRecord
 10
0.0
 20
0.0
 30
0.0
 70
   128
 71
    47
 72
   -45
 73
   -38
  0
VERTEX
  5
48A
330
3C0
100
AcDbEntity
  8
D01 金物
 62
   250
420
  3947580
370
     0
100
AcDbFaceRecord
 10
0.0
 20
0.0
 30
0.0
 70
   128
 71
    51
 72
    49
 73
   -47
  0
VERTEX
  5
48B
330
3C0
100
AcDbEntity
  8
D01 金物
 62
   250
420
  3947580
370
     0
100
AcDbFaceRecord
 10
0.0
 20
0.0
 30
0.0
 70
   128
 71
    53
 72
   -51
 73
   -47
  0
VERTEX
  5
48C
330
3C0
100
AcDbEntity
  8
D01 金物
 62
   250
420
  3947580
370
     0
100
AcDbFaceRecord
 10
0.0
 20
0.0
 30
0.0
 70
   128
 71
   -47
 72
    38
 73
   -37
  0
VERTEX
  5
48D
330
3C0
100
AcDbEntity
  8
D01 金物
 62
   250
420
  3947580
370
     0
100
AcDbFaceRecord
 10
0.0
 20
0.0
 30
0.0
 70
   128
 71
   -53
 72
   -47
 73
   -37
  0
VERTEX
  5
48E
330
3C0
100
AcDbEntity
  8
D01 金物
 62
   250
420
  3947580
370
     0
100
AcDbFaceRecord
 10
0.0
 20
0.0
 30
0.0
 70
   128
 71
    37
 72
    63
 73
   -61
  0
VERTEX
  5
48F
330
3C0
100
AcDbEntity
  8
D01 金物
 62
   250
420
  3947580
370
     0
100
AcDbFaceRecord
 10
0.0
 20
0.0
 30
0.0
 70
   128
 71
    55
 72
   -53
 73
   -37
  0
VERTEX
  5
490
330
3C0
100
AcDbEntity
  8
D01 金物
 62
   250
420
  3947580
370
     0
100
AcDbFaceRecord
 10
0.0
 20
0.0
 30
0.0
 70
   128
 71
   -55
 72
   -37
 73
   -61
  0
VERTEX
  5
491
330
3C0
100
AcDbEntity
  8
D01 金物
 62
   250
420
  3947580
370
     0
100
AcDbFaceRecord
 10
0.0
 20
0.0
 30
0.0
 70
   128
 71
    57
 72
   -55
 73
   -61
  0
VERTEX
  5
492
330
3C0
100
AcDbEntity
  8
D01 金物
 62
   250
420
  3947580
370
     0
100
AcDbFaceRecord
 10
0.0
 20
0.0
 30
0.0
 70
   128
 71
    59
 72
   -57
 73
    61
  0
VERTEX
  5
493
330
3C0
100
AcDbEntity
  8
D01 金物
 62
   250
420
  3947580
370
     0
100
AcDbFaceRecord
 10
0.0
 20
0.0
 30
0.0
 70
   128
 71
    39
 72
   -42
 73
   -46
  0
VERTEX
  5
494
330
3C0
100
AcDbEntity
  8
D01 金物
 62
   250
420
  3947580
370
     0
100
AcDbFaceRecord
 10
0.0
 20
0.0
 30
0.0
 70
   128
 71
    44
 72
   -46
 73
    42
  0
VERTEX
  5
495
330
3C0
100
AcDbEntity
  8
D01 金物
 62
   250
420
  3947580
370
     0
100
AcDbFaceRecord
 10
0.0
 20
0.0
 30
0.0
 70
   128
 71
   -39
 72
    46
 73
   -48
  0
VERTEX
  5
496
330
3C0
100
AcDbEntity
  8
D01 金物
 62
   250
420
  3947580
370
     0
100
AcDbFaceRecord
 10
0.0
 20
0.0
 30
0.0
 70
   128
 71
    48
 72
    50
 73
   -52
  0
VERTEX
  5
497
330
3C0
100
AcDbEntity
  8
D01 金物
 62
   250
420
  3947580
370
     0
100
AcDbFaceRecord
 10
0.0
 20
0.0
 30
0.0
 70
   128
 71
   -48
 72
    52
 73
   -54
  0
VERTEX
  5
498
330
3C0
100
AcDbEntity
  8
D01 金物
 62
   250
420
  3947580
370
     0
100
AcDbFaceRecord
 10
0.0
 20
0.0
 30
0.0
 70
   128
 71
    62
 72
    64
 73
   -40
  0
VERTEX
  5
499
330
3C0
100
AcDbEntity
  8
D01 金物
 62
   250
420
  3947580
370
     0
100
AcDbFaceRecord
 10
0.0
 20
0.0
 30
0.0
 70
   128
 71
    40
 72
   -39
 73
   -48
  0
VERTEX
  5
49A
330
3C0
100
AcDbEntity
  8
D01 金物
 62
   250
420
  3947580
370
     0
100
AcDbFaceRecord
 10
0.0
 20
0.0
 30
0.0
 70
   128
 71
   -40
 72
   -48
 73
   -54
  0
VERTEX
  5
49B
330
3C0
100
AcDbEntity
  8
D01 金物
 62
   250
420
  3947580
370
     0
100
AcDbFaceRecord
 10
0.0
 20
0.0
 30
0.0
 70
   128
 71
   -40
 72
    54
 73
   -56
  0
VERTEX
  5
49C
330
3C0
100
AcDbEntity
  8
D01 金物
 62
   250
420
  3947580
370
     0
100
AcDbFaceRecord
 10
0.0
 20
0.0
 30
0.0
 70
   128
 71
   -62
 72
   -40
 73
   -56
  0
VERTEX
  5
49D
330
3C0
100
AcDbEntity
  8
D01 金物
 62
   250
420
  3947580
370
     0
100
AcDbFaceRecord
 10
0.0
 20
0.0
 30
0.0
 70
   128
 71
   -62
 72
    56
 73
   -58
  0
VERTEX
  5
49E
330
3C0
100
AcDbEntity
  8
D01 金物
 62
   250
420
  3947580
370
     0
100
AcDbFaceRecord
 10
0.0
 20
0.0
 30
0.0
 70
   128
 71
    60
 72
   -62
 73
    58
  0
VERTEX
  5
49F
330
3C0
100
AcDbEntity
  8
D01 金物
 62
   250
420
  3947580
370
     0
100
AcDbFaceRecord
 10
0.0
 20
0.0
 30
0.0
 70
   128
 71
    65
 72
    66
 73
    67
 74
    68
  0
VERTEX
  5
4A0
330
3C0
100
AcDbEntity
  8
D01 金物
 62
   250
420
  3947580
370
     0
100
AcDbFaceRecord
 10
0.0
 20
0.0
 30
0.0
 70
   128
 71
    66
 72
    69
 73
    70
 74
    67
  0
VERTEX
  5
4A1
330
3C0
100
AcDbEntity
  8
D01 金物
 62
   250
420
  3947580
370
     0
100
AcDbFaceRecord
 10
0.0
 20
0.0
 30
0.0
 70
   128
 71
    69
 72
    71
 73
    72
 74
    70
  0
VERTEX
  5
4A2
330
3C0
100
AcDbEntity
  8
D01 金物
 62
   250
420
  3947580
370
     0
100
AcDbFaceRecord
 10
0.0
 20
0.0
 30
0.0
 70
   128
 71
    71
 72
    73
 73
    74
 74
    72
  0
VERTEX
  5
4A3
330
3C0
100
AcDbEntity
  8
D01 金物
 62
   250
420
  3947580
370
     0
100
AcDbFaceRecord
 10
0.0
 20
0.0
 30
0.0
 70
   128
 71
    73
 72
    75
 73
    76
 74
    74
  0
VERTEX
  5
4A4
330
3C0
100
AcDbEntity
  8
D01 金物
 62
   250
420
  3947580
370
     0
100
AcDbFaceRecord
 10
0.0
 20
0.0
 30
0.0
 70
   128
 71
    75
 72
    77
 73
    78
 74
    76
  0
VERTEX
  5
4A5
330
3C0
100
AcDbEntity
  8
D01 金物
 62
   250
420
  3947580
370
     0
100
AcDbFaceRecord
 10
0.0
 20
0.0
 30
0.0
 70
   128
 71
    77
 72
    79
 73
    80
 74
    78
  0
VERTEX
  5
4A6
330
3C0
100
AcDbEntity
  8
D01 金物
 62
   250
420
  3947580
370
     0
100
AcDbFaceRecord
 10
0.0
 20
0.0
 30
0.0
 70
   128
 71
    79
 72
    81
 73
    82
 74
    80
  0
VERTEX
  5
4A7
330
3C0
100
AcDbEntity
  8
D01 金物
 62
   250
420
  3947580
370
     0
100
AcDbFaceRecord
 10
0.0
 20
0.0
 30
0.0
 70
   128
 71
    81
 72
    83
 73
    84
 74
    82
  0
VERTEX
  5
4A8
330
3C0
100
AcDbEntity
  8
D01 金物
 62
   250
420
  3947580
370
     0
100
AcDbFaceRecord
 10
0.0
 20
0.0
 30
0.0
 70
   128
 71
    83
 72
    85
 73
    86
 74
    84
  0
VERTEX
  5
4A9
330
3C0
100
AcDbEntity
  8
D01 金物
 62
   250
420
  3947580
370
     0
100
AcDbFaceRecord
 10
0.0
 20
0.0
 30
0.0
 70
   128
 71
    85
 72
    87
 73
    88
 74
    86
  0
VERTEX
  5
4AA
330
3C0
100
AcDbEntity
  8
D01 金物
 62
   250
420
  3947580
370
     0
100
AcDbFaceRecord
 10
0.0
 20
0.0
 30
0.0
 70
   128
 71
    87
 72
    89
 73
    90
 74
    88
  0
VERTEX
  5
4AB
330
3C0
100
AcDbEntity
  8
D01 金物
 62
   250
420
  3947580
370
     0
100
AcDbFaceRecord
 10
0.0
 20
0.0
 30
0.0
 70
   128
 71
    89
 72
    91
 73
    92
 74
    90
  0
VERTEX
  5
4AC
330
3C0
100
AcDbEntity
  8
D01 金物
 62
   250
420
  3947580
370
     0
100
AcDbFaceRecord
 10
0.0
 20
0.0
 30
0.0
 70
   128
 71
    91
 72
    65
 73
    68
 74
    92
  0
VERTEX
  5
4AD
330
3C0
100
AcDbEntity
  8
D01 金物
 62
   250
420
  3947580
370
     0
100
AcDbFaceRecord
 10
0.0
 20
0.0
 30
0.0
 70
   128
 71
   -73
 72
    69
 73
   -66
  0
VERTEX
  5
4AE
330
3C0
100
AcDbEntity
  8
D01 金物
 62
   250
420
  3947580
370
     0
100
AcDbFaceRecord
 10
0.0
 20
0.0
 30
0.0
 70
   128
 71
    71
 72
   -69
 73
    73
  0
VERTEX
  5
4AF
330
3C0
100
AcDbEntity
  8
D01 金物
 62
   250
420
  3947580
370
     0
100
AcDbFaceRecord
 10
0.0
 20
0.0
 30
0.0
 70
   128
 71
    75
 72
   -73
 73
   -66
  0
VERTEX
  5
4B0
330
3C0
100
AcDbEntity
  8
D01 金物
 62
   250
420
  3947580
370
     0
100
AcDbFaceRecord
 10
0.0
 20
0.0
 30
0.0
 70
   128
 71
    79
 72
    77
 73
   -75
  0
VERTEX
  5
4B1
330
3C0
100
AcDbEntity
  8
D01 金物
 62
   250
420
  3947580
370
     0
100
AcDbFaceRecord
 10
0.0
 20
0.0
 30
0.0
 70
   128
 71
    81
 72
   -79
 73
   -75
  0
VERTEX
  5
4B2
330
3C0
100
AcDbEntity
  8
D01 金物
 62
   250
420
  3947580
370
     0
100
AcDbFaceRecord
 10
0.0
 20
0.0
 30
0.0
 70
   128
 71
   -75
 72
    66
 73
   -65
  0
VERTEX
  5
4B3
330
3C0
100
AcDbEntity
  8
D01 金物
 62
   250
420
  3947580
370
     0
100
AcDbFaceRecord
 10
0.0
 20
0.0
 30
0.0
 70
   128
 71
   -81
 72
   -75
 73
   -65
  0
VERTEX
  5
4B4
330
3C0
100
AcDbEntity
  8
D01 金物
 62
   250
420
  3947580
370
     0
100
AcDbFaceRecord
 10
0.0
 20
0.0
 30
0.0
 70
   128
 71
    65
 72
    91
 73
   -89
  0
VERTEX
  5
4B5
330
3C0
100
AcDbEntity
  8
D01 金物
 62
   250
420
  3947580
370
     0
100
AcDbFaceRecord
 10
0.0
 20
0.0
 30
0.0
 70
   128
 71
    83
 72
   -81
 73
   -65
  0
VERTEX
  5
4B6
330
3C0
100
AcDbEntity
  8
D01 金物
 62
   250
420
  3947580
370
     0
100
AcDbFaceRecord
 10
0.0
 20
0.0
 30
0.0
 70
   128
 71
   -83
 72
   -65
 73
   -89
  0
VERTEX
  5
4B7
330
3C0
100
AcDbEntity
  8
D01 金物
 62
   250
420
  3947580
370
     0
100
AcDbFaceRecord
 10
0.0
 20
0.0
 30
0.0
 70
   128
 71
    85
 72
   -83
 73
   -89
  0
VERTEX
  5
4B8
330
3C0
100
AcDbEntity
  8
D01 金物
 62
   250
420
  3947580
370
     0
100
AcDbFaceRecord
 10
0.0
 20
0.0
 30
0.0
 70
   128
 71
    87
 72
   -85
 73
    89
  0
VERTEX
  5
4B9
330
3C0
100
AcDbEntity
  8
D01 金物
 62
   250
420
  3947580
370
     0
100
AcDbFaceRecord
 10
0.0
 20
0.0
 30
0.0
 70
   128
 71
    67
 72
   -70
 73
   -74
  0
VERTEX
  5
4BA
330
3C0
100
AcDbEntity
  8
D01 金物
 62
   250
420
  3947580
370
     0
100
AcDbFaceRecord
 10
0.0
 20
0.0
 30
0.0
 70
   128
 71
    72
 72
   -74
 73
    70
  0
VERTEX
  5
4BB
330
3C0
100
AcDbEntity
  8
D01 金物
 62
   250
420
  3947580
370
     0
100
AcDbFaceRecord
 10
0.0
 20
0.0
 30
0.0
 70
   128
 71
   -67
 72
    74
 73
   -76
  0
VERTEX
  5
4BC
330
3C0
100
AcDbEntity
  8
D01 金物
 62
   250
420
  3947580
370
     0
100
AcDbFaceRecord
 10
0.0
 20
0.0
 30
0.0
 70
   128
 71
    76
 72
    78
 73
   -80
  0
VERTEX
  5
4BD
330
3C0
100
AcDbEntity
  8
D01 金物
 62
   250
420
  3947580
370
     0
100
AcDbFaceRecord
 10
0.0
 20
0.0
 30
0.0
 70
   128
 71
   -76
 72
    80
 73
   -82
  0
VERTEX
  5
4BE
330
3C0
100
AcDbEntity
  8
D01 金物
 62
   250
420
  3947580
370
     0
100
AcDbFaceRecord
 10
0.0
 20
0.0
 30
0.0
 70
   128
 71
    90
 72
    92
 73
   -68
  0
VERTEX
  5
4BF
330
3C0
100
AcDbEntity
  8
D01 金物
 62
   250
420
  3947580
370
     0
100
AcDbFaceRecord
 10
0.0
 20
0.0
 30
0.0
 70
   128
 71
    68
 72
   -67
 73
   -76
  0
VERTEX
  5
4C0
330
3C0
100
AcDbEntity
  8
D01 金物
 62
   250
420
  3947580
370
     0
100
AcDbFaceRecord
 10
0.0
 20
0.0
 30
0.0
 70
   128
 71
   -68
 72
   -76
 73
   -82
  0
VERTEX
  5
4C1
330
3C0
100
AcDbEntity
  8
D01 金物
 62
   250
420
  3947580
370
     0
100
AcDbFaceRecord
 10
0.0
 20
0.0
 30
0.0
 70
   128
 71
   -68
 72
    82
 73
   -84
  0
VERTEX
  5
4C2
330
3C0
100
AcDbEntity
  8
D01 金物
 62
   250
420
  3947580
370
     0
100
AcDbFaceRecord
 10
0.0
 20
0.0
 30
0.0
 70
   128
 71
   -90
 72
   -68
 73
   -84
  0
VERTEX
  5
4C3
330
3C0
100
AcDbEntity
  8
D01 金物
 62
   250
420
  3947580
370
     0
100
AcDbFaceRecord
 10
0.0
 20
0.0
 30
0.0
 70
   128
 71
   -90
 72
    84
 73
   -86
  0
VERTEX
  5
4C4
330
3C0
100
AcDbEntity
  8
D01 金物
 62
   250
420
  3947580
370
     0
100
AcDbFaceRecord
 10
0.0
 20
0.0
 30
0.0
 70
   128
 71
    88
 72
   -90
 73
    86
  0
VERTEX
  5
4C5
330
3C0
100
AcDbEntity
  8
D01 金物
 62
   250
420
  3947580
370
     0
100
AcDbFaceRecord
 10
0.0
 20
0.0
 30
0.0
 70
   128
 71
    93
 72
    94
 73
    95
 74
    96
  0
VERTEX
  5
4C6
330
3C0
100
AcDbEntity
  8
D01 金物
 62
   250
420
  3947580
370
     0
100
AcDbFaceRecord
 10
0.0
 20
0.0
 30
0.0
 70
   128
 71
    94
 72
    97
 73
    98
 74
    95
  0
VERTEX
  5
4C7
330
3C0
100
AcDbEntity
  8
D01 金物
 62
   250
420
  3947580
370
     0
100
AcDbFaceRecord
 10
0.0
 20
0.0
 30
0.0
 70
   128
 71
    97
 72
    99
 73
   100
 74
    98
  0
VERTEX
  5
4C8
330
3C0
100
AcDbEntity
  8
D01 金物
 62
   250
420
  3947580
370
     0
100
AcDbFaceRecord
 10
0.0
 20
0.0
 30
0.0
 70
   128
 71
    99
 72
    93
 73
    96
 74
   100
  0
VERTEX
  5
4C9
330
3C0
100
AcDbEntity
  8
D01 金物
 62
   250
420
  3947580
370
     0
100
AcDbFaceRecord
 10
0.0
 20
0.0
 30
0.0
 70
   128
 71
    93
 72
    99
 73
    97
 74
    94
  0
VERTEX
  5
4CA
330
3C0
100
AcDbEntity
  8
D01 金物
 62
   250
420
  3947580
370
     0
100
AcDbFaceRecord
 10
0.0
 20
0.0
 30
0.0
 70
   128
 71
    96
 72
    95
 73
    98
 74
   100
  0
VERTEX
  5
4CB
330
3C0
100
AcDbEntity
  8
D01 金物
 62
   250
420
  3947580
370
     0
100
AcDbFaceRecord
 10
0.0
 20
0.0
 30
0.0
 70
   128
 71
   101
 72
   102
 73
   103
 74
   104
  0
VERTEX
  5
4CC
330
3C0
100
AcDbEntity
  8
D01 金物
 62
   250
420
  3947580
370
     0
100
AcDbFaceRecord
 10
0.0
 20
0.0
 30
0.0
 70
   128
 71
   102
 72
   105
 73
   106
 74
   103
  0
VERTEX
  5
4CD
330
3C0
100
AcDbEntity
  8
D01 金物
 62
   250
420
  3947580
370
     0
100
AcDbFaceRecord
 10
0.0
 20
0.0
 30
0.0
 70
   128
 71
   105
 72
   107
 73
   108
 74
   106
  0
VERTEX
  5
4CE
330
3C0
100
AcDbEntity
  8
D01 金物
 62
   250
420
  3947580
370
     0
100
AcDbFaceRecord
 10
0.0
 20
0.0
 30
0.0
 70
   128
 71
   107
 72
   101
 73
   104
 74
   108
  0
VERTEX
  5
4CF
330
3C0
100
AcDbEntity
  8
D01 金物
 62
   250
420
  3947580
370
     0
100
AcDbFaceRecord
 10
0.0
 20
0.0
 30
0.0
 70
   128
 71
   101
 72
   107
 73
   105
 74
   102
  0
VERTEX
  5
4D0
330
3C0
100
AcDbEntity
  8
D01 金物
 62
   250
420
  3947580
370
     0
100
AcDbFaceRecord
 10
0.0
 20
0.0
 30
0.0
 70
   128
 71
   104
 72
   103
 73
   106
 74
   108
  0
VERTEX
  5
4D1
330
3C0
100
AcDbEntity
  8
D01 金物
 62
   250
420
  3947580
370
     0
100
AcDbFaceRecord
 10
0.0
 20
0.0
 30
0.0
 70
   128
 71
   109
 72
   110
 73
   111
 74
   112
  0
VERTEX
  5
4D2
330
3C0
100
AcDbEntity
  8
D01 金物
 62
   250
420
  3947580
370
     0
100
AcDbFaceRecord
 10
0.0
 20
0.0
 30
0.0
 70
   128
 71
   110
 72
   113
 73
   114
 74
   111
  0
VERTEX
  5
4D3
330
3C0
100
AcDbEntity
  8
D01 金物
 62
   250
420
  3947580
370
     0
100
AcDbFaceRecord
 10
0.0
 20
0.0
 30
0.0
 70
   128
 71
   113
 72
   115
 73
   116
 74
   114
  0
VERTEX
  5
4D4
330
3C0
100
AcDbEntity
  8
D01 金物
 62
   250
420
  3947580
370
     0
100
AcDbFaceRecord
 10
0.0
 20
0.0
 30
0.0
 70
   128
 71
   115
 72
   109
 73
   112
 74
   116
  0
VERTEX
  5
4D5
330
3C0
100
AcDbEntity
  8
D01 金物
 62
   250
420
  3947580
370
     0
100
AcDbFaceRecord
 10
0.0
 20
0.0
 30
0.0
 70
   128
 71
   109
 72
   115
 73
   113
 74
   110
  0
VERTEX
  5
4D6
330
3C0
100
AcDbEntity
  8
D01 金物
 62
   250
420
  3947580
370
     0
100
AcDbFaceRecord
 10
0.0
 20
0.0
 30
0.0
 70
   128
 71
   112
 72
   111
 73
   114
 74
   116
  0
VERTEX
  5
4D7
330
3C0
100
AcDbEntity
  8
D01 金物
 62
   250
420
  3947580
370
     0
100
AcDbFaceRecord
 10
0.0
 20
0.0
 30
0.0
 70
   128
 71
   117
 72
   118
 73
   119
 74
   120
  0
VERTEX
  5
4D8
330
3C0
100
AcDbEntity
  8
D01 金物
 62
   250
420
  3947580
370
     0
100
AcDbFaceRecord
 10
0.0
 20
0.0
 30
0.0
 70
   128
 71
   118
 72
   121
 73
   122
 74
   119
  0
VERTEX
  5
4D9
330
3C0
100
AcDbEntity
  8
D01 金物
 62
   250
420
  3947580
370
     0
100
AcDbFaceRecord
 10
0.0
 20
0.0
 30
0.0
 70
   128
 71
   121
 72
   123
 73
   124
 74
   122
  0
VERTEX
  5
4DA
330
3C0
100
AcDbEntity
  8
D01 金物
 62
   250
420
  3947580
370
     0
100
AcDbFaceRecord
 10
0.0
 20
0.0
 30
0.0
 70
   128
 71
   123
 72
   117
 73
   120
 74
   124
  0
VERTEX
  5
4DB
330
3C0
100
AcDbEntity
  8
D01 金物
 62
   250
420
  3947580
370
     0
100
AcDbFaceRecord
 10
0.0
 20
0.0
 30
0.0
 70
   128
 71
   117
 72
   123
 73
   121
 74
   118
  0
VERTEX
  5
4DC
330
3C0
100
AcDbEntity
  8
D01 金物
 62
   250
420
  3947580
370
     0
100
AcDbFaceRecord
 10
0.0
 20
0.0
 30
0.0
 70
   128
 71
   120
 72
   119
 73
   122
 74
   124
  0
VERTEX
  5
4DD
330
3C0
100
AcDbEntity
  8
D01 金物
 62
   250
420
  3947580
370
     0
100
AcDbFaceRecord
 10
0.0
 20
0.0
 30
0.0
 70
   128
 71
   125
 72
   126
 73
   127
 74
   128
  0
VERTEX
  5
4DE
330
3C0
100
AcDbEntity
  8
D01 金物
 62
   250
420
  3947580
370
     0
100
AcDbFaceRecord
 10
0.0
 20
0.0
 30
0.0
 70
   128
 71
   126
 72
   129
 73
   130
 74
   127
  0
VERTEX
  5
4DF
330
3C0
100
AcDbEntity
  8
D01 金物
 62
   250
420
  3947580
370
     0
100
AcDbFaceRecord
 10
0.0
 20
0.0
 30
0.0
 70
   128
 71
   129
 72
   131
 73
   132
 74
   130
  0
VERTEX
  5
4E0
330
3C0
100
AcDbEntity
  8
D01 金物
 62
   250
420
  3947580
370
     0
100
AcDbFaceRecord
 10
0.0
 20
0.0
 30
0.0
 70
   128
 71
   131
 72
   125
 73
   128
 74
   132
  0
VERTEX
  5
4E1
330
3C0
100
AcDbEntity
  8
D01 金物
 62
   250
420
  3947580
370
     0
100
AcDbFaceRecord
 10
0.0
 20
0.0
 30
0.0
 70
   128
 71
   125
 72
   131
 73
   129
 74
   126
  0
VERTEX
  5
4E2
330
3C0
100
AcDbEntity
  8
D01 金物
 62
   250
420
  3947580
370
     0
100
AcDbFaceRecord
 10
0.0
 20
0.0
 30
0.0
 70
   128
 71
   128
 72
   127
 73
   130
 74
   132
  0
VERTEX
  5
4E3
330
3C0
100
AcDbEntity
  8
D01 金物
 62
   250
420
  3947580
370
     0
100
AcDbFaceRecord
 10
0.0
 20
0.0
 30
0.0
 70
   128
 71
   133
 72
   134
 73
   135
 74
   136
  0
VERTEX
  5
4E4
330
3C0
100
AcDbEntity
  8
D01 金物
 62
   250
420
  3947580
370
     0
100
AcDbFaceRecord
 10
0.0
 20
0.0
 30
0.0
 70
   128
 71
   134
 72
   137
 73
   138
 74
   135
  0
VERTEX
  5
4E5
330
3C0
100
AcDbEntity
  8
D01 金物
 62
   250
420
  3947580
370
     0
100
AcDbFaceRecord
 10
0.0
 20
0.0
 30
0.0
 70
   128
 71
   137
 72
   139
 73
   140
 74
   138
  0
VERTEX
  5
4E6
330
3C0
100
AcDbEntity
  8
D01 金物
 62
   250
420
  3947580
370
     0
100
AcDbFaceRecord
 10
0.0
 20
0.0
 30
0.0
 70
   128
 71
   139
 72
   133
 73
   136
 74
   140
  0
VERTEX
  5
4E7
330
3C0
100
AcDbEntity
  8
D01 金物
 62
   250
420
  3947580
370
     0
100
AcDbFaceRecord
 10
0.0
 20
0.0
 30
0.0
 70
   128
 71
   133
 72
   139
 73
   137
 74
   134
  0
VERTEX
  5
4E8
330
3C0
100
AcDbEntity
  8
D01 金物
 62
   250
420
  3947580
370
     0
100
AcDbFaceRecord
 10
0.0
 20
0.0
 30
0.0
 70
   128
 71
   136
 72
   135
 73
   138
 74
   140
  0
SEQEND
  5
4E9
330
3C0
100
AcDbEntity
  8
D01 金物
370
     0
  0
POLYLINE
  5
4EA
330
6E
100
AcDbEntity
  8
D01 金物
370
     0
100
AcDbPolyFaceMesh
 66
     1
 10
0.0
 20
0.0
 30
0.0
 70
    64
 71
     8
 72
     6
  0
VERTEX
  5
4EB
330
4EA
100
AcDbEntity
  8
D01 金物
370
     0
100
AcDbVertex
100
AcDbPolyFaceMeshVertex
 10
56.58025819690392
 20
9.000000000000002
 30
2528.086865110538
 70
   192
  0
VERTEX
  5
4EC
330
4EA
100
AcDbEntity
  8
D01 金物
370
     0
100
AcDbVertex
100
AcDbPolyFaceMeshVertex
 10
3018.936358264207
 20
9.000000000000002
 30
2839.453293638293
 70
   192
  0
VERTEX
  5
4ED
330
4EA
100
AcDbEntity
  8
D01 金物
370
     0
100
AcDbVertex
100
AcDbPolyFaceMeshVertex
 10
3018.7272945266
 20
9.000000000000002
 30
2841.442336713145
 70
   192
  0
VERTEX
  5
4EE
330
4EA
100
AcDbEntity
  8
D01 金物
370
     0
100
AcDbVertex
100
AcDbPolyFaceMeshVertex
 10
56.37119445929636
 20
9.000000000000002
 30
2530.07590818539
 70
   192
  0
VERTEX
  5
4EF
330
4EA
100
AcDbEntity
  8
D01 金物
370
     0
100
AcDbVertex
100
AcDbPolyFaceMeshVertex
 10
3018.936358264207
 20
5042.999999999999
 30
2839.453293638293
 70
   192
  0
VERTEX
  5
4F0
330
4EA
100
AcDbEntity
  8
D01 金物
370
     0
100
AcDbVertex
100
AcDbPolyFaceMeshVertex
 10
3018.7272945266
 20
5042.999999999999
 30
2841.442336713145
 70
   192
  0
VERTEX
  5
4F1
330
4EA
100
AcDbEntity
  8
D01 金物
370
     0
100
AcDbVertex
100
AcDbPolyFaceMeshVertex
 10
56.58025819690392
 20
5042.999999999999
 30
2528.086865110538
 70
   192
  0
VERTEX
  5
4F2
330
4EA
100
AcDbEntity
  8
D01 金物
370
     0
100
AcDbVertex
100
AcDbPolyFaceMeshVertex
 10
56.37119445929636
 20
5042.999999999999
 30
2530.07590818539
 70
   192
  0
VERTEX
  5
4F3
330
4EA
100
AcDbEntity
  8
D01 金物
 62
     7
420
 15724536
370
     0
100
AcDbFaceRecord
 10
0.0
 20
0.0
 30
0.0
 70
   128
 71
     1
 72
     2
 73
     3
 74
     4
  0
VERTEX
  5
4F4
330
4EA
100
AcDbEntity
  8
D01 金物
 62
     7
420
 15724536
370
     0
100
AcDbFaceRecord
 10
0.0
 20
0.0
 30
0.0
 70
   128
 71
     2
 72
     5
 73
     6
 74
     3
  0
VERTEX
  5
4F5
330
4EA
100
AcDbEntity
  8
D01 金物
 62
     7
420
 15724536
370
     0
100
AcDbFaceRecord
 10
0.0
 20
0.0
 30
0.0
 70
   128
 71
     5
 72
     7
 73
     8
 74
     6
  0
VERTEX
  5
4F6
330
4EA
100
AcDbEntity
  8
D01 金物
 62
     7
420
 15724536
370
     0
100
AcDbFaceRecord
 10
0.0
 20
0.0
 30
0.0
 70
   128
 71
     7
 72
     1
 73
     4
 74
     8
  0
VERTEX
  5
4F7
330
4EA
100
AcDbEntity
  8
D01 金物
 62
     7
420
 15724536
370
     0
100
AcDbFaceRecord
 10
0.0
 20
0.0
 30
0.0
 70
   128
 71
     1
 72
     7
 73
     5
 74
     2
  0
VERTEX
  5
4F8
330
4EA
100
AcDbEntity
  8
D01 金物
 62
     7
420
 15724536
370
     0
100
AcDbFaceRecord
 10
0.0
 20
0.0
 30
0.0
 70
   128
 71
     4
 72
     3
 73
     6
 74
     8
  0
SEQEND
  5
4F9
330
4EA
100
AcDbEntity
  8
D01 金物
370
     0
  0
POLYLINE
  5
4FA
330
6E
100
AcDbEntity
  8
D01 金物
370
     0
100
AcDbPolyFaceMesh
 66
     1
 10
0.0
 20
0.0
 30
0.0
 70
    64
 71
     8
 72
     6
  0
VERTEX
  5
4FB
330
4FA
100
AcDbEntity
  8
D01 金物
370
     0
100
AcDbVertex
100
AcDbPolyFaceMeshVertex
 10
30.90793181230139
 20
1103.5
 30
2341.843964094143
 70
   192
  0
VERTEX
  5
4FC
330
4FA
100
AcDbEntity
  8
D01 金物
370
     0
100
AcDbVertex
100
AcDbPolyFaceMeshVertex
 10
2991.125810574138
 20
1103.5
 30
2652.98564910397
 70
   192
  0
VERTEX
  5
4FD
330
4FA
100
AcDbEntity
  8
D01 金物
370
     0
100
AcDbVertex
100
AcDbPolyFaceMeshVertex
 10
2991.125810574138
 20
1048.5
 30
2652.98564910397
 70
   192
  0
VERTEX
  5
4FE
330
4FA
100
AcDbEntity
  8
D01 金物
370
     0
100
AcDbVertex
100
AcDbPolyFaceMeshVertex
 10
30.90793181230139
 20
1048.5
 30
2341.843964094143
 70
   192
  0
VERTEX
  5
4FF
330
4FA
100
AcDbEntity
  8
D01 金物
370
     0
100
AcDbVertex
100
AcDbPolyFaceMeshVertex
 10
2977.222967491367
 20
1103.5
 30
2785.25800810318
 70
   192
  0
VERTEX
  5
500
330
4FA
100
AcDbEntity
  8
D01 金物
370
     0
100
AcDbVertex
100
AcDbPolyFaceMeshVertex
 10
2977.222967491367
 20
1048.5
 30
2785.25800810318
 70
   192
  0
VERTEX
  5
501
330
4FA
100
AcDbEntity
  8
D01 金物
370
     0
100
AcDbVertex
100
AcDbPolyFaceMeshVertex
 10
17.00508872953047
 20
1103.5
 30
2474.116323093353
 70
   192
  0
VERTEX
  5
502
330
4FA
100
AcDbEntity
  8
D01 金物
370
     0
100
AcDbVertex
100
AcDbPolyFaceMeshVertex
 10
17.00508872953047
 20
1048.5
 30
2474.116323093353
 70
   192
  0
VERTEX
  5
503
330
4FA
100
AcDbEntity
  8
D01 金物
 62
   250
420
  3947580
370
     0
100
AcDbFaceRecord
 10
0.0
 20
0.0
 30
0.0
 70
   128
 71
     1
 72
     2
 73
     3
 74
     4
  0
VERTEX
  5
504
330
4FA
100
AcDbEntity
  8
D01 金物
 62
   250
420
  3947580
370
     0
100
AcDbFaceRecord
 10
0.0
 20
0.0
 30
0.0
 70
   128
 71
     2
 72
     5
 73
     6
 74
     3
  0
VERTEX
  5
505
330
4FA
100
AcDbEntity
  8
D01 金物
 62
   250
420
  3947580
370
     0
100
AcDbFaceRecord
 10
0.0
 20
0.0
 30
0.0
 70
   128
 71
     5
 72
     7
 73
     8
 74
     6
  0
VERTEX
  5
506
330
4FA
100
AcDbEntity
  8
D01 金物
 62
   250
420
  3947580
370
     0
100
AcDbFaceRecord
 10
0.0
 20
0.0
 30
0.0
 70
   128
 71
     7
 72
     1
 73
     4
 74
     8
  0
VERTEX
  5
507
330
4FA
100
AcDbEntity
  8
D01 金物
 62
   250
420
  3947580
370
     0
100
AcDbFaceRecord
 10
0.0
 20
0.0
 30
0.0
 70
   128
 71
     1
 72
     7
 73
     5
 74
     2
  0
VERTEX
  5
508
330
4FA
100
AcDbEntity
  8
D01 金物
 62
   250
420
  3947580
370
     0
100
AcDbFaceRecord
 10
0.0
 20
0.0
 30
0.0
 70
   128
 71
     4
 72
     3
 73
     6
 74
     8
  0
SEQEND
  5
509
330
4FA
100
AcDbEntity
  8
D01 金物
370
     0
  0
POLYLINE
  5
50A
330
6E
100
AcDbEntity
  8
D01 金物
370
     0
100
AcDbPolyFaceMesh
 66
     1
 10
0.0
 20
0.0
 30
0.0
 70
    64
 71
    28
 72
    24
  0
VERTEX
  5
50B
330
50A
100
AcDbEntity
  8
D01 金物
370
     0
100
AcDbVertex
100
AcDbPolyFaceMeshVertex
 10
2977.222967491367
 20
1103.5
 30
2785.25800810318
 70
   192
  0
VERTEX
  5
50C
330
50A
100
AcDbEntity
  8
D01 金物
370
     0
100
AcDbVertex
100
AcDbPolyFaceMeshVertex
 10
2991.125810574138
 20
1103.5
 30
2652.98564910397
 70
   192
  0
VERTEX
  5
50D
330
50A
100
AcDbEntity
  8
D01 金物
370
     0
100
AcDbVertex
100
AcDbPolyFaceMeshVertex
 10
2991.125810574138
 20
1048.5
 30
2652.98564910397
 70
   192
  0
VERTEX
  5
50E
330
50A
100
AcDbEntity
  8
D01 金物
370
     0
100
AcDbVertex
100
AcDbPolyFaceMeshVertex
 10
2977.222967491367
 20
1048.5
 30
2785.25800810318
 70
   192
  0
VERTEX
  5
50F
330
50A
100
AcDbEntity
  8
D01 金物
370
     0
100
AcDbVertex
100
AcDbPolyFaceMeshVertex
 10
2993.177833851725
 20
1103.5
 30
2653.274734676495
 70
   192
  0
VERTEX
  5
510
330
50A
100
AcDbEntity
  8
D01 金物
370
     0
100
AcDbVertex
100
AcDbPolyFaceMeshVertex
 10
2993.177833851725
 20
1048.5
 30
2653.274734676495
 70
   192
  0
VERTEX
  5
511
330
50A
100
AcDbEntity
  8
D01 金物
370
     0
100
AcDbVertex
100
AcDbPolyFaceMeshVertex
 10
2993.437457707711
 20
1103.5
 30
2653.311072719958
 70
   192
  0
VERTEX
  5
512
330
50A
100
AcDbEntity
  8
D01 金物
370
     0
100
AcDbVertex
100
AcDbPolyFaceMeshVertex
 10
2993.437457707711
 20
1048.5
 30
2653.311072719958
 70
   192
  0
VERTEX
  5
513
330
50A
100
AcDbEntity
  8
D01 金物
370
     0
100
AcDbVertex
100
AcDbPolyFaceMeshVertex
 10
2993.937247804249
 20
1103.5
 30
2653.473204948103
 70
   192
  0
VERTEX
  5
514
330
50A
100
AcDbEntity
  8
D01 金物
370
     0
100
AcDbVertex
100
AcDbPolyFaceMeshVertex
 10
2993.937247804249
 20
1048.5
 30
2653.473204948103
 70
   192
  0
VERTEX
  5
515
330
50A
100
AcDbEntity
  8
D01 金物
370
     0
100
AcDbVertex
100
AcDbPolyFaceMeshVertex
 10
2994.399992493284
 20
1103.5
 30
2653.719928179214
 70
   192
  0
VERTEX
  5
516
330
50A
100
AcDbEntity
  8
D01 金物
370
     0
100
AcDbVertex
100
AcDbPolyFaceMeshVertex
 10
2994.399992493284
 20
1048.5
 30
2653.719928179214
 70
   192
  0
VERTEX
  5
517
330
50A
100
AcDbEntity
  8
D01 金物
370
     0
100
AcDbVertex
100
AcDbPolyFaceMeshVertex
 10
2994.814489239448
 20
1103.5
 30
2654.043026380105
 70
   192
  0
VERTEX
  5
518
330
50A
100
AcDbEntity
  8
D01 金物
370
     0
100
AcDbVertex
100
AcDbPolyFaceMeshVertex
 10
2994.814489239448
 20
1048.5
 30
2654.043026380105
 70
   192
  0
VERTEX
  5
519
330
50A
100
AcDbEntity
  8
D01 金物
370
     0
100
AcDbVertex
100
AcDbPolyFaceMeshVertex
 10
2995.165661953094
 20
1103.5
 30
2654.432870868575
 70
   192
  0
VERTEX
  5
51A
330
50A
100
AcDbEntity
  8
D01 金物
370
     0
100
AcDbVertex
100
AcDbPolyFaceMeshVertex
 10
2995.165661953094
 20
1048.5
 30
2654.432870868575
 70
   192
  0
VERTEX
  5
51B
330
50A
100
AcDbEntity
  8
D01 金物
370
     0
100
AcDbVertex
100
AcDbPolyFaceMeshVertex
 10
2995.443616215998
 20
1103.5
 30
2654.878366578693
 70
   192
  0
VERTEX
  5
51C
330
50A
100
AcDbEntity
  8
D01 金物
370
     0
100
AcDbVertex
100
AcDbPolyFaceMeshVertex
 10
2995.443616215998
 20
1048.5
 30
2654.878366578693
 70
   192
  0
VERTEX
  5
51D
330
50A
100
AcDbEntity
  8
D01 金物
370
     0
100
AcDbVertex
100
AcDbPolyFaceMeshVertex
 10
2995.639870258949
 20
1103.5
 30
2655.364544890247
 70
   192
  0
VERTEX
  5
51E
330
50A
100
AcDbEntity
  8
D01 金物
370
     0
100
AcDbVertex
100
AcDbPolyFaceMeshVertex
 10
2995.639870258949
 20
1048.5
 30
2655.364544890247
 70
   192
  0
VERTEX
  5
51F
330
50A
100
AcDbEntity
  8
D01 金物
370
     0
100
AcDbVertex
100
AcDbPolyFaceMeshVertex
 10
2995.749815867016
 20
1103.5
 30
2655.877849832038
 70
   192
  0
VERTEX
  5
520
330
50A
100
AcDbEntity
  8
D01 金物
370
     0
100
AcDbVertex
100
AcDbPolyFaceMeshVertex
 10
2995.749815867016
 20
1048.5
 30
2655.877849832038
 70
   192
  0
VERTEX
  5
521
330
50A
100
AcDbEntity
  8
D01 金物
370
     0
100
AcDbVertex
100
AcDbPolyFaceMeshVertex
 10
2995.757338365501
 20
1103.5
 30
2656.121973595766
 70
   192
  0
VERTEX
  5
522
330
50A
100
AcDbEntity
  8
D01 金物
370
     0
100
AcDbVertex
100
AcDbPolyFaceMeshVertex
 10
2995.757338365501
 20
1048.5
 30
2656.121973595766
 70
   192
  0
VERTEX
  5
523
330
50A
100
AcDbEntity
  8
D01 金物
370
     0
100
AcDbVertex
100
AcDbPolyFaceMeshVertex
 10
2997.733252659359
 20
1103.5
 30
2704.04908650384
 70
   192
  0
VERTEX
  5
524
330
50A
100
AcDbEntity
  8
D01 金物
370
     0
100
AcDbVertex
100
AcDbPolyFaceMeshVertex
 10
2997.733252659359
 20
1048.5
 30
2704.04908650384
 70
   192
  0
VERTEX
  5
525
330
50A
100
AcDbEntity
  8
D01 金物
370
     0
100
AcDbVertex
100
AcDbPolyFaceMeshVertex
 10
2991.642535262509
 20
1103.5
 30
2786.773615668966
 70
   192
  0
VERTEX
  5
526
330
50A
100
AcDbEntity
  8
D01 金物
370
     0
100
AcDbVertex
100
AcDbPolyFaceMeshVertex
 10
2991.642535262509
 20
1048.5
 30
2786.773615668966
 70
   192
  0
VERTEX
  5
527
330
50A
100
AcDbEntity
  8
D01 金物
 62
   250
420
  3947580
370
     0
100
AcDbFaceRecord
 10
0.0
 20
0.0
 30
0.0
 70
   128
 71
     1
 72
     2
 73
     3
 74
     4
  0
VERTEX
  5
528
330
50A
100
AcDbEntity
  8
D01 金物
 62
   250
420
  3947580
370
     0
100
AcDbFaceRecord
 10
0.0
 20
0.0
 30
0.0
 70
   128
 71
     2
 72
     5
 73
     6
 74
     3
  0
VERTEX
  5
529
330
50A
100
AcDbEntity
  8
D01 金物
 62
   250
420
  3947580
370
     0
100
AcDbFaceRecord
 10
0.0
 20
0.0
 30
0.0
 70
   128
 71
     5
 72
     7
 73
     8
 74
     6
  0
VERTEX
  5
52A
330
50A
100
AcDbEntity
  8
D01 金物
 62
   250
420
  3947580
370
     0
100
AcDbFaceRecord
 10
0.0
 20
0.0
 30
0.0
 70
   128
 71
     7
 72
     9
 73
    10
 74
     8
  0
VERTEX
  5
52B
330
50A
100
AcDbEntity
  8
D01 金物
 62
   250
420
  3947580
370
     0
100
AcDbFaceRecord
 10
0.0
 20
0.0
 30
0.0
 70
   128
 71
     9
 72
    11
 73
    12
 74
    10
  0
VERTEX
  5
52C
330
50A
100
AcDbEntity
  8
D01 金物
 62
   250
420
  3947580
370
     0
100
AcDbFaceRecord
 10
0.0
 20
0.0
 30
0.0
 70
   128
 71
    11
 72
    13
 73
    14
 74
    12
  0
VERTEX
  5
52D
330
50A
100
AcDbEntity
  8
D01 金物
 62
   250
420
  3947580
370
     0
100
AcDbFaceRecord
 10
0.0
 20
0.0
 30
0.0
 70
   128
 71
    13
 72
    15
 73
    16
 74
    14
  0
VERTEX
  5
52E
330
50A
100
AcDbEntity
  8
D01 金物
 62
   250
420
  3947580
370
     0
100
AcDbFaceRecord
 10
0.0
 20
0.0
 30
0.0
 70
   128
 71
    15
 72
    17
 73
    18
 74
    16
  0
VERTEX
  5
52F
330
50A
100
AcDbEntity
  8
D01 金物
 62
   250
420
  3947580
370
     0
100
AcDbFaceRecord
 10
0.0
 20
0.0
 30
0.0
 70
   128
 71
    17
 72
    19
 73
    20
 74
    18
  0
VERTEX
  5
530
330
50A
100
AcDbEntity
  8
D01 金物
 62
   250
420
  3947580
370
     0
100
AcDbFaceRecord
 10
0.0
 20
0.0
 30
0.0
 70
   128
 71
    19
 72
    21
 73
    22
 74
    20
  0
VERTEX
  5
531
330
50A
100
AcDbEntity
  8
D01 金物
 62
   250
420
  3947580
370
     0
100
AcDbFaceRecord
 10
0.0
 20
0.0
 30
0.0
 70
   128
 71
    21
 72
    23
 73
    24
 74
    22
  0
VERTEX
  5
532
330
50A
100
AcDbEntity
  8
D01 金物
 62
   250
420
  3947580
370
     0
100
AcDbFaceRecord
 10
0.0
 20
0.0
 30
0.0
 70
   128
 71
    23
 72
    25
 73
    26
 74
    24
  0
VERTEX
  5
533
330
50A
100
AcDbEntity
  8
D01 金物
 62
   250
420
  3947580
370
     0
100
AcDbFaceRecord
 10
0.0
 20
0.0
 30
0.0
 70
   128
 71
    25
 72
    27
 73
    28
 74
    26
  0
VERTEX
  5
534
330
50A
100
AcDbEntity
  8
D01 金物
 62
   250
420
  3947580
370
     0
100
AcDbFaceRecord
 10
0.0
 20
0.0
 30
0.0
 70
   128
 71
    27
 72
     1
 73
     4
 74
    28
  0
VERTEX
  5
535
330
50A
100
AcDbEntity
  8
D01 金物
 62
   250
420
  3947580
370
     0
100
AcDbFaceRecord
 10
0.0
 20
0.0
 30
0.0
 70
   128
 71
     1
 72
    27
 73
   -25
 74
   -21
  0
VERTEX
  5
536
330
50A
100
AcDbEntity
  8
D01 金物
 62
   250
420
  3947580
370
     0
100
AcDbFaceRecord
 10
0.0
 20
0.0
 30
0.0
 70
   128
 71
    -1
 72
    21
 73
    19
 74
   -17
  0
VERTEX
  5
537
330
50A
100
AcDbEntity
  8
D01 金物
 62
   250
420
  3947580
370
     0
100
AcDbFaceRecord
 10
0.0
 20
0.0
 30
0.0
 70
   128
 71
    -1
 72
    17
 73
    15
 74
   -13
  0
VERTEX
  5
538
330
50A
100
AcDbEntity
  8
D01 金物
 62
   250
420
  3947580
370
     0
100
AcDbFaceRecord
 10
0.0
 20
0.0
 30
0.0
 70
   128
 71
    -1
 72
    13
 73
    11
 74
    -9
  0
VERTEX
  5
539
330
50A
100
AcDbEntity
  8
D01 金物
 62
   250
420
  3947580
370
     0
100
AcDbFaceRecord
 10
0.0
 20
0.0
 30
0.0
 70
   128
 71
    -1
 72
     9
 73
    -7
 74
     2
  0
VERTEX
  5
53A
330
50A
100
AcDbEntity
  8
D01 金物
 62
   250
420
  3947580
370
     0
100
AcDbFaceRecord
 10
0.0
 20
0.0
 30
0.0
 70
   128
 71
     4
 72
    -3
 73
     8
 74
   -10
  0
VERTEX
  5
53B
330
50A
100
AcDbEntity
  8
D01 金物
 62
   250
420
  3947580
370
     0
100
AcDbFaceRecord
 10
0.0
 20
0.0
 30
0.0
 70
   128
 71
    -4
 72
    10
 73
    12
 74
   -14
  0
VERTEX
  5
53C
330
50A
100
AcDbEntity
  8
D01 金物
 62
   250
420
  3947580
370
     0
100
AcDbFaceRecord
 10
0.0
 20
0.0
 30
0.0
 70
   128
 71
    -4
 72
    14
 73
    16
 74
   -18
  0
VERTEX
  5
53D
330
50A
100
AcDbEntity
  8
D01 金物
 62
   250
420
  3947580
370
     0
100
AcDbFaceRecord
 10
0.0
 20
0.0
 30
0.0
 70
   128
 71
    -4
 72
    18
 73
    20
 74
   -22
  0
VERTEX
  5
53E
330
50A
100
AcDbEntity
  8
D01 金物
 62
   250
420
  3947580
370
     0
100
AcDbFaceRecord
 10
0.0
 20
0.0
 30
0.0
 70
   128
 71
    -4
 72
   -22
 73
    26
 74
    28
  0
SEQEND
  5
53F
330
50A
100
AcDbEntity
  8
D01 金物
370
     0
  0
POLYLINE
  5
540
330
6E
100
AcDbEntity
  8
D01 金物
370
     0
100
AcDbPolyFaceMesh
 66
     1
 10
0.0
 20
0.0
 30
0.0
 70
    64
 71
     8
 72
     6
  0
VERTEX
  5
541
330
540
100
AcDbEntity
  8
D01 金物
370
     0
100
AcDbVertex
100
AcDbPolyFaceMeshVertex
 10
156.0
 20
1121.0
 30
2488.681
 70
   192
  0
VERTEX
  5
542
330
540
100
AcDbEntity
  8
D01 金物
370
     0
100
AcDbVertex
100
AcDbPolyFaceMeshVertex
 10
0.0
 20
1121.0
 30
2472.337
 70
   192
  0
VERTEX
  5
543
330
540
100
AcDbEntity
  8
D01 金物
370
     0
100
AcDbVertex
100
AcDbPolyFaceMeshVertex
 10
0.0
 20
1031.0
 30
2472.337
 70
   192
  0
VERTEX
  5
544
330
540
100
AcDbEntity
  8
D01 金物
370
     0
100
AcDbVertex
100
AcDbPolyFaceMeshVertex
 10
156.0
 20
1031.0
 30
2488.681
 70
   192
  0
VERTEX
  5
545
330
540
100
AcDbEntity
  8
D01 金物
370
     0
100
AcDbVertex
100
AcDbPolyFaceMeshVertex
 10
0.0
 20
1121.0
 30
-0.0000000000000028
 70
   192
  0
VERTEX
  5
546
330
540
100
AcDbEntity
  8
D01 金物
370
     0
100
AcDbVertex
100
AcDbPolyFaceMeshVertex
 10
0.0
 20
1031.0
 30
0.0000000000000028
 70
   192
  0
VERTEX
  5
547
330
540
100
AcDbEntity
  8
D01 金物
370
     0
100
AcDbVertex
100
AcDbPolyFaceMeshVertex
 10
156.0
 20
1121.0
 30
-0.0000000000000028
 70
   192
  0
VERTEX
  5
548
330
540
100
AcDbEntity
  8
D01 金物
370
     0
100
AcDbVertex
100
AcDbPolyFaceMeshVertex
 10
156.0
 20
1031.0
 30
0.0000000000000028
 70
   192
  0
VERTEX
  5
549
330
540
100
AcDbEntity
  8
D01 金物
 62
   250
420
  3947580
370
     0
100
AcDbFaceRecord
 10
0.0
 20
0.0
 30
0.0
 70
   128
 71
     1
 72
     2
 73
     3
 74
     4
  0
VERTEX
  5
54A
330
540
100
AcDbEntity
  8
D01 金物
 62
   250
420
  3947580
370
     0
100
AcDbFaceRecord
 10
0.0
 20
0.0
 30
0.0
 70
   128
 71
     2
 72
     5
 73
     6
 74
     3
  0
VERTEX
  5
54B
330
540
100
AcDbEntity
  8
D01 金物
 62
   250
420
  3947580
370
     0
100
AcDbFaceRecord
 10
0.0
 20
0.0
 30
0.0
 70
   128
 71
     5
 72
     7
 73
     8
 74
     6
  0
VERTEX
  5
54C
330
540
100
AcDbEntity
  8
D01 金物
 62
   250
420
  3947580
370
     0
100
AcDbFaceRecord
 10
0.0
 20
0.0
 30
0.0
 70
   128
 71
     7
 72
     1
 73
     4
 74
     8
  0
VERTEX
  5
54D
330
540
100
AcDbEntity
  8
D01 金物
 62
   250
420
  3947580
370
     0
100
AcDbFaceRecord
 10
0.0
 20
0.0
 30
0.0
 70
   128
 71
     1
 72
     7
 73
     5
 74
     2
  0
VERTEX
  5
54E
330
540
100
AcDbEntity
  8
D01 金物
 62
   250
420
  3947580
370
     0
100
AcDbFaceRecord
 10
0.0
 20
0.0
 30
0.0
 70
   128
 71
     4
 72
     3
 73
     6
 74
     8
  0
SEQEND
  5
54F
330
540
100
AcDbEntity
  8
D01 金物
370
     0
  0
POLYLINE
  5
550
330
6E
100
AcDbEntity
  8
D01 金物
370
     0
100
AcDbPolyFaceMesh
 66
     1
 10
0.0
 20
0.0
 30
0.0
 70
    64
 71
     8
 72
     6
  0
VERTEX
  5
551
330
550
100
AcDbEntity
  8
D01 金物
370
     0
100
AcDbVertex
100
AcDbPolyFaceMeshVertex
 10
30.90793181230139
 20
4003.5
 30
2341.843964094143
 70
   192
  0
VERTEX
  5
552
330
550
100
AcDbEntity
  8
D01 金物
370
     0
100
AcDbVertex
100
AcDbPolyFaceMeshVertex
 10
2991.125810574138
 20
4003.5
 30
2652.98564910397
 70
   192
  0
VERTEX
  5
553
330
550
100
AcDbEntity
  8
D01 金物
370
     0
100
AcDbVertex
100
AcDbPolyFaceMeshVertex
 10
2991.125810574138
 20
3948.5
 30
2652.98564910397
 70
   192
  0
VERTEX
  5
554
330
550
100
AcDbEntity
  8
D01 金物
370
     0
100
AcDbVertex
100
AcDbPolyFaceMeshVertex
 10
30.90793181230139
 20
3948.5
 30
2341.843964094143
 70
   192
  0
VERTEX
  5
555
330
550
100
AcDbEntity
  8
D01 金物
370
     0
100
AcDbVertex
100
AcDbPolyFaceMeshVertex
 10
2977.222967491367
 20
4003.5
 30
2785.25800810318
 70
   192
  0
VERTEX
  5
556
330
550
100
AcDbEntity
  8
D01 金物
370
     0
100
AcDbVertex
100
AcDbPolyFaceMeshVertex
 10
2977.222967491367
 20
3948.5
 30
2785.25800810318
 70
   192
  0
VERTEX
  5
557
330
550
100
AcDbEntity
  8
D01 金物
370
     0
100
AcDbVertex
100
AcDbPolyFaceMeshVertex
 10
17.00508872953047
 20
4003.5
 30
2474.116323093353
 70
   192
  0
VERTEX
  5
558
330
550
100
AcDbEntity
  8
D01 金物
370
     0
100
AcDbVertex
100
AcDbPolyFaceMeshVertex
 10
17.00508872953047
 20
3948.5
 30
2474.116323093353
 70
   192
  0
VERTEX
  5
559
330
550
100
AcDbEntity
  8
D01 金物
 62
   250
420
  3947580
370
     0
100
AcDbFaceRecord
 10
0.0
 20
0.0
 30
0.0
 70
   128
 71
     1
 72
     2
 73
     3
 74
     4
  0
VERTEX
  5
55A
330
550
100
AcDbEntity
  8
D01 金物
 62
   250
420
  3947580
370
     0
100
AcDbFaceRecord
 10
0.0
 20
0.0
 30
0.0
 70
   128
 71
     2
 72
     5
 73
     6
 74
     3
  0
VERTEX
  5
55B
330
550
100
AcDbEntity
  8
D01 金物
 62
   250
420
  3947580
370
     0
100
AcDbFaceRecord
 10
0.0
 20
0.0
 30
0.0
 70
   128
 71
     5
 72
     7
 73
     8
 74
     6
  0
VERTEX
  5
55C
330
550
100
AcDbEntity
  8
D01 金物
 62
   250
420
  3947580
370
     0
100
AcDbFaceRecord
 10
0.0
 20
0.0
 30
0.0
 70
   128
 71
     7
 72
     1
 73
     4
 74
     8
  0
VERTEX
  5
55D
330
550
100
AcDbEntity
  8
D01 金物
 62
   250
420
  3947580
370
     0
100
AcDbFaceRecord
 10
0.0
 20
0.0
 30
0.0
 70
   128
 71
     1
 72
     7
 73
     5
 74
     2
  0
VERTEX
  5
55E
330
550
100
AcDbEntity
  8
D01 金物
 62
   250
420
  3947580
370
     0
100
AcDbFaceRecord
 10
0.0
 20
0.0
 30
0.0
 70
   128
 71
     4
 72
     3
 73
     6
 74
     8
  0
SEQEND
  5
55F
330
550
100
AcDbEntity
  8
D01 金物
370
     0
  0
POLYLINE
  5
560
330
6E
100
AcDbEntity
  8
D01 金物
370
     0
100
AcDbPolyFaceMesh
 66
     1
 10
0.0
 20
0.0
 30
0.0
 70
    64
 71
    28
 72
    24
  0
VERTEX
  5
561
330
560
100
AcDbEntity
  8
D01 金物
370
     0
100
AcDbVertex
100
AcDbPolyFaceMeshVertex
 10
2977.222967491367
 20
4003.5
 30
2785.25800810318
 70
   192
  0
VERTEX
  5
562
330
560
100
AcDbEntity
  8
D01 金物
370
     0
100
AcDbVertex
100
AcDbPolyFaceMeshVertex
 10
2991.125810574138
 20
4003.5
 30
2652.98564910397
 70
   192
  0
VERTEX
  5
563
330
560
100
AcDbEntity
  8
D01 金物
370
     0
100
AcDbVertex
100
AcDbPolyFaceMeshVertex
 10
2991.125810574138
 20
3948.5
 30
2652.98564910397
 70
   192
  0
VERTEX
  5
564
330
560
100
AcDbEntity
  8
D01 金物
370
     0
100
AcDbVertex
100
AcDbPolyFaceMeshVertex
 10
2977.222967491367
 20
3948.5
 30
2785.25800810318
 70
   192
  0
VERTEX
  5
565
330
560
100
AcDbEntity
  8
D01 金物
370
     0
100
AcDbVertex
100
AcDbPolyFaceMeshVertex
 10
2993.177833851725
 20
4003.5
 30
2653.274734676495
 70
   192
  0
VERTEX
  5
566
330
560
100
AcDbEntity
  8
D01 金物
370
     0
100
AcDbVertex
100
AcDbPolyFaceMeshVertex
 10
2993.177833851725
 20
3948.5
 30
2653.274734676495
 70
   192
  0
VERTEX
  5
567
330
560
100
AcDbEntity
  8
D01 金物
370
     0
100
AcDbVertex
100
AcDbPolyFaceMeshVertex
 10
2993.437457707711
 20
4003.5
 30
2653.311072719958
 70
   192
  0
VERTEX
  5
568
330
560
100
AcDbEntity
  8
D01 金物
370
     0
100
AcDbVertex
100
AcDbPolyFaceMeshVertex
 10
2993.437457707711
 20
3948.5
 30
2653.311072719958
 70
   192
  0
VERTEX
  5
569
330
560
100
AcDbEntity
  8
D01 金物
370
     0
100
AcDbVertex
100
AcDbPolyFaceMeshVertex
 10
2993.937247804249
 20
4003.5
 30
2653.473204948103
 70
   192
  0
VERTEX
  5
56A
330
560
100
AcDbEntity
  8
D01 金物
370
     0
100
AcDbVertex
100
AcDbPolyFaceMeshVertex
 10
2993.937247804249
 20
3948.5
 30
2653.473204948103
 70
   192
  0
VERTEX
  5
56B
330
560
100
AcDbEntity
  8
D01 金物
370
     0
100
AcDbVertex
100
AcDbPolyFaceMeshVertex
 10
2994.399992493284
 20
4003.5
 30
2653.719928179214
 70
   192
  0
VERTEX
  5
56C
330
560
100
AcDbEntity
  8
D01 金物
370
     0
100
AcDbVertex
100
AcDbPolyFaceMeshVertex
 10
2994.399992493284
 20
3948.5
 30
2653.719928179214
 70
   192
  0
VERTEX
  5
56D
330
560
100
AcDbEntity
  8
D01 金物
370
     0
100
AcDbVertex
100
AcDbPolyFaceMeshVertex
 10
2994.814489239448
 20
4003.5
 30
2654.043026380105
 70
   192
  0
VERTEX
  5
56E
330
560
100
AcDbEntity
  8
D01 金物
370
     0
100
AcDbVertex
100
AcDbPolyFaceMeshVertex
 10
2994.814489239448
 20
3948.5
 30
2654.043026380105
 70
   192
  0
VERTEX
  5
56F
330
560
100
AcDbEntity
  8
D01 金物
370
     0
100
AcDbVertex
100
AcDbPolyFaceMeshVertex
 10
2995.165661953094
 20
4003.5
 30
2654.432870868575
 70
   192
  0
VERTEX
  5
570
330
560
100
AcDbEntity
  8
D01 金物
370
     0
100
AcDbVertex
100
AcDbPolyFaceMeshVertex
 10
2995.165661953094
 20
3948.5
 30
2654.432870868575
 70
   192
  0
VERTEX
  5
571
330
560
100
AcDbEntity
  8
D01 金物
370
     0
100
AcDbVertex
100
AcDbPolyFaceMeshVertex
 10
2995.443616215998
 20
4003.5
 30
2654.878366578693
 70
   192
  0
VERTEX
  5
572
330
560
100
AcDbEntity
  8
D01 金物
370
     0
100
AcDbVertex
100
AcDbPolyFaceMeshVertex
 10
2995.443616215998
 20
3948.5
 30
2654.878366578693
 70
   192
  0
VERTEX
  5
573
330
560
100
AcDbEntity
  8
D01 金物
370
     0
100
AcDbVertex
100
AcDbPolyFaceMeshVertex
 10
2995.639870258949
 20
4003.5
 30
2655.364544890247
 70
   192
  0
VERTEX
  5
574
330
560
100
AcDbEntity
  8
D01 金物
370
     0
100
AcDbVertex
100
AcDbPolyFaceMeshVertex
 10
2995.639870258949
 20
3948.5
 30
2655.364544890247
 70
   192
  0
VERTEX
  5
575
330
560
100
AcDbEntity
  8
D01 金物
370
     0
100
AcDbVertex
100
AcDbPolyFaceMeshVertex
 10
2995.749815867016
 20
4003.5
 30
2655.877849832038
 70
   192
  0
VERTEX
  5
576
330
560
100
AcDbEntity
  8
D01 金物
370
     0
100
AcDbVertex
100
AcDbPolyFaceMeshVertex
 10
2995.749815867016
 20
3948.5
 30
2655.877849832038
 70
   192
  0
VERTEX
  5
577
330
560
100
AcDbEntity
  8
D01 金物
370
     0
100
AcDbVertex
100
AcDbPolyFaceMeshVertex
 10
2995.757338365501
 20
4003.5
 30
2656.121973595766
 70
   192
  0
VERTEX
  5
578
330
560
100
AcDbEntity
  8
D01 金物
370
     0
100
AcDbVertex
100
AcDbPolyFaceMeshVertex
 10
2995.757338365501
 20
3948.5
 30
2656.121973595766
 70
   192
  0
VERTEX
  5
579
330
560
100
AcDbEntity
  8
D01 金物
370
     0
100
AcDbVertex
100
AcDbPolyFaceMeshVertex
 10
2997.733252659359
 20
4003.5
 30
2704.04908650384
 70
   192
  0
VERTEX
  5
57A
330
560
100
AcDbEntity
  8
D01 金物
370
     0
100
AcDbVertex
100
AcDbPolyFaceMeshVertex
 10
2997.733252659359
 20
3948.5
 30
2704.04908650384
 70
   192
  0
VERTEX
  5
57B
330
560
100
AcDbEntity
  8
D01 金物
370
     0
100
AcDbVertex
100
AcDbPolyFaceMeshVertex
 10
2991.642535262509
 20
4003.5
 30
2786.773615668966
 70
   192
  0
VERTEX
  5
57C
330
560
100
AcDbEntity
  8
D01 金物
370
     0
100
AcDbVertex
100
AcDbPolyFaceMeshVertex
 10
2991.642535262509
 20
3948.5
 30
2786.773615668966
 70
   192
  0
VERTEX
  5
57D
330
560
100
AcDbEntity
  8
D01 金物
 62
   250
420
  3947580
370
     0
100
AcDbFaceRecord
 10
0.0
 20
0.0
 30
0.0
 70
   128
 71
     1
 72
     2
 73
     3
 74
     4
  0
VERTEX
  5
57E
330
560
100
AcDbEntity
  8
D01 金物
 62
   250
420
  3947580
370
     0
100
AcDbFaceRecord
 10
0.0
 20
0.0
 30
0.0
 70
   128
 71
     2
 72
     5
 73
     6
 74
     3
  0
VERTEX
  5
57F
330
560
100
AcDbEntity
  8
D01 金物
 62
   250
420
  3947580
370
     0
100
AcDbFaceRecord
 10
0.0
 20
0.0
 30
0.0
 70
   128
 71
     5
 72
     7
 73
     8
 74
     6
  0
VERTEX
  5
580
330
560
100
AcDbEntity
  8
D01 金物
 62
   250
420
  3947580
370
     0
100
AcDbFaceRecord
 10
0.0
 20
0.0
 30
0.0
 70
   128
 71
     7
 72
     9
 73
    10
 74
     8
  0
VERTEX
  5
581
330
560
100
AcDbEntity
  8
D01 金物
 62
   250
420
  3947580
370
     0
100
AcDbFaceRecord
 10
0.0
 20
0.0
 30
0.0
 70
   128
 71
     9
 72
    11
 73
    12
 74
    10
  0
VERTEX
  5
582
330
560
100
AcDbEntity
  8
D01 金物
 62
   250
420
  3947580
370
     0
100
AcDbFaceRecord
 10
0.0
 20
0.0
 30
0.0
 70
   128
 71
    11
 72
    13
 73
    14
 74
    12
  0
VERTEX
  5
583
330
560
100
AcDbEntity
  8
D01 金物
 62
   250
420
  3947580
370
     0
100
AcDbFaceRecord
 10
0.0
 20
0.0
 30
0.0
 70
   128
 71
    13
 72
    15
 73
    16
 74
    14
  0
VERTEX
  5
584
330
560
100
AcDbEntity
  8
D01 金物
 62
   250
420
  3947580
370
     0
100
AcDbFaceRecord
 10
0.0
 20
0.0
 30
0.0
 70
   128
 71
    15
 72
    17
 73
    18
 74
    16
  0
VERTEX
  5
585
330
560
100
AcDbEntity
  8
D01 金物
 62
   250
420
  3947580
370
     0
100
AcDbFaceRecord
 10
0.0
 20
0.0
 30
0.0
 70
   128
 71
    17
 72
    19
 73
    20
 74
    18
  0
VERTEX
  5
586
330
560
100
AcDbEntity
  8
D01 金物
 62
   250
420
  3947580
370
     0
100
AcDbFaceRecord
 10
0.0
 20
0.0
 30
0.0
 70
   128
 71
    19
 72
    21
 73
    22
 74
    20
  0
VERTEX
  5
587
330
560
100
AcDbEntity
  8
D01 金物
 62
   250
420
  3947580
370
     0
100
AcDbFaceRecord
 10
0.0
 20
0.0
 30
0.0
 70
   128
 71
    21
 72
    23
 73
    24
 74
    22
  0
VERTEX
  5
588
330
560
100
AcDbEntity
  8
D01 金物
 62
   250
420
  3947580
370
     0
100
AcDbFaceRecord
 10
0.0
 20
0.0
 30
0.0
 70
   128
 71
    23
 72
    25
 73
    26
 74
    24
  0
VERTEX
  5
589
330
560
100
AcDbEntity
  8
D01 金物
 62
   250
420
  3947580
370
     0
100
AcDbFaceRecord
 10
0.0
 20
0.0
 30
0.0
 70
   128
 71
    25
 72
    27
 73
    28
 74
    26
  0
VERTEX
  5
58A
330
560
100
AcDbEntity
  8
D01 金物
 62
   250
420
  3947580
370
     0
100
AcDbFaceRecord
 10
0.0
 20
0.0
 30
0.0
 70
   128
 71
    27
 72
     1
 73
     4
 74
    28
  0
VERTEX
  5
58B
330
560
100
AcDbEntity
  8
D01 金物
 62
   250
420
  3947580
370
     0
100
AcDbFaceRecord
 10
0.0
 20
0.0
 30
0.0
 70
   128
 71
     1
 72
    27
 73
   -25
 74
   -21
  0
VERTEX
  5
58C
330
560
100
AcDbEntity
  8
D01 金物
 62
   250
420
  3947580
370
     0
100
AcDbFaceRecord
 10
0.0
 20
0.0
 30
0.0
 70
   128
 71
    -1
 72
    21
 73
    19
 74
   -17
  0
VERTEX
  5
58D
330
560
100
AcDbEntity
  8
D01 金物
 62
   250
420
  3947580
370
     0
100
AcDbFaceRecord
 10
0.0
 20
0.0
 30
0.0
 70
   128
 71
    -1
 72
    17
 73
    15
 74
   -13
  0
VERTEX
  5
58E
330
560
100
AcDbEntity
  8
D01 金物
 62
   250
420
  3947580
370
     0
100
AcDbFaceRecord
 10
0.0
 20
0.0
 30
0.0
 70
   128
 71
    -1
 72
    13
 73
    11
 74
    -9
  0
VERTEX
  5
58F
330
560
100
AcDbEntity
  8
D01 金物
 62
   250
420
  3947580
370
     0
100
AcDbFaceRecord
 10
0.0
 20
0.0
 30
0.0
 70
   128
 71
    -1
 72
     9
 73
    -7
 74
     2
  0
VERTEX
  5
590
330
560
100
AcDbEntity
  8
D01 金物
 62
   250
420
  3947580
370
     0
100
AcDbFaceRecord
 10
0.0
 20
0.0
 30
0.0
 70
   128
 71
     4
 72
    -3
 73
     8
 74
   -10
  0
VERTEX
  5
591
330
560
100
AcDbEntity
  8
D01 金物
 62
   250
420
  3947580
370
     0
100
AcDbFaceRecord
 10
0.0
 20
0.0
 30
0.0
 70
   128
 71
    -4
 72
    10
 73
    12
 74
   -14
  0
VERTEX
  5
592
330
560
100
AcDbEntity
  8
D01 金物
 62
   250
420
  3947580
370
     0
100
AcDbFaceRecord
 10
0.0
 20
0.0
 30
0.0
 70
   128
 71
    -4
 72
    14
 73
    16
 74
   -18
  0
VERTEX
  5
593
330
560
100
AcDbEntity
  8
D01 金物
 62
   250
420
  3947580
370
     0
100
AcDbFaceRecord
 10
0.0
 20
0.0
 30
0.0
 70
   128
 71
    -4
 72
    18
 73
    20
 74
   -22
  0
VERTEX
  5
594
330
560
100
AcDbEntity
  8
D01 金物
 62
   250
420
  3947580
370
     0
100
AcDbFaceRecord
 10
0.0
 20
0.0
 30
0.0
 70
   128
 71
    -4
 72
   -22
 73
    26
 74
    28
  0
SEQEND
  5
595
330
560
100
AcDbEntity
  8
D01 金物
370
     0
  0
POLYLINE
  5
596
330
6E
100
AcDbEntity
  8
D01 金物
370
     0
100
AcDbPolyFaceMesh
 66
     1
 10
0.0
 20
0.0
 30
0.0
 70
    64
 71
     8
 72
     6
  0
VERTEX
  5
597
330
596
100
AcDbEntity
  8
D01 金物
370
     0
100
AcDbVertex
100
AcDbPolyFaceMeshVertex
 10
156.0
 20
4021.0
 30
2488.681
 70
   192
  0
VERTEX
  5
598
330
596
100
AcDbEntity
  8
D01 金物
370
     0
100
AcDbVertex
100
AcDbPolyFaceMeshVertex
 10
0.0
 20
4021.0
 30
2472.337
 70
   192
  0
VERTEX
  5
599
330
596
100
AcDbEntity
  8
D01 金物
370
     0
100
AcDbVertex
100
AcDbPolyFaceMeshVertex
 10
0.0
 20
3931.0
 30
2472.337
 70
   192
  0
VERTEX
  5
59A
330
596
100
AcDbEntity
  8
D01 金物
370
     0
100
AcDbVertex
100
AcDbPolyFaceMeshVertex
 10
156.0
 20
3931.0
 30
2488.681
 70
   192
  0
VERTEX
  5
59B
330
596
100
AcDbEntity
  8
D01 金物
370
     0
100
AcDbVertex
100
AcDbPolyFaceMeshVertex
 10
0.0
 20
4021.0
 30
-0.0000000000000028
 70
   192
  0
VERTEX
  5
59C
330
596
100
AcDbEntity
  8
D01 金物
370
     0
100
AcDbVertex
100
AcDbPolyFaceMeshVertex
 10
0.0
 20
3931.0
 30
0.0000000000000028
 70
   192
  0
VERTEX
  5
59D
330
596
100
AcDbEntity
  8
D01 金物
370
     0
100
AcDbVertex
100
AcDbPolyFaceMeshVertex
 10
156.0
 20
4021.0
 30
-0.0000000000000028
 70
   192
  0
VERTEX
  5
59E
330
596
100
AcDbEntity
  8
D01 金物
370
     0
100
AcDbVertex
100
AcDbPolyFaceMeshVertex
 10
156.0
 20
3931.0
 30
0.0000000000000028
 70
   192
  0
VERTEX
  5
59F
330
596
100
AcDbEntity
  8
D01 金物
 62
   250
420
  3947580
370
     0
100
AcDbFaceRecord
 10
0.0
 20
0.0
 30
0.0
 70
   128
 71
     1
 72
     2
 73
     3
 74
     4
  0
VERTEX
  5
5A0
330
596
100
AcDbEntity
  8
D01 金物
 62
   250
420
  3947580
370
     0
100
AcDbFaceRecord
 10
0.0
 20
0.0
 30
0.0
 70
   128
 71
     2
 72
     5
 73
     6
 74
     3
  0
VERTEX
  5
5A1
330
596
100
AcDbEntity
  8
D01 金物
 62
   250
420
  3947580
370
     0
100
AcDbFaceRecord
 10
0.0
 20
0.0
 30
0.0
 70
   128
 71
     5
 72
     7
 73
     8
 74
     6
  0
VERTEX
  5
5A2
330
596
100
AcDbEntity
  8
D01 金物
 62
   250
420
  3947580
370
     0
100
AcDbFaceRecord
 10
0.0
 20
0.0
 30
0.0
 70
   128
 71
     7
 72
     1
 73
     4
 74
     8
  0
VERTEX
  5
5A3
330
596
100
AcDbEntity
  8
D01 金物
 62
   250
420
  3947580
370
     0
100
AcDbFaceRecord
 10
0.0
 20
0.0
 30
0.0
 70
   128
 71
     1
 72
     7
 73
     5
 74
     2
  0
VERTEX
  5
5A4
330
596
100
AcDbEntity
  8
D01 金物
 62
   250
420
  3947580
370
     0
100
AcDbFaceRecord
 10
0.0
 20
0.0
 30
0.0
 70
   128
 71
     4
 72
     3
 73
     6
 74
     8
  0
SEQEND
  5
5A5
330
596
100
AcDbEntity
  8
D01 金物
370
     0
  0
ENDBLK
  5
70
330
6E
100
AcDbEntity
  8
0
100
AcDbBlockEnd
  0
ENDSEC
  0
SECTION
  2
ENTITIES
  0
INSERT
  5
71
330
1F
100
AcDbEntity
  8
D01 金物
  6
Continuous
 62
     7
370
    13
100
AcDbBlockReference
  2
オブジェクト_1DB4FF9E-8F32-48E3-80A5-827D9E8811B8
 10
0.0
 20
0.0
 30
0.0
  0
ENDSEC
  0
SECTION
  2
OBJECTS
  0
DICTIONARY
  5
C
330
0
100
AcDbDictionary
281
     1
  3
ACAD_DETAILVIEWSTYLE
350
5B0
  3
ACAD_GROUP
350
D
  3
ACAD_LAYOUT
350
1A
  3
ACAD_MATERIAL
350
43
  3
ACAD_MLEADERSTYLE
350
6B
  3
ACAD_MLINESTYLE
350
17
  3
ACAD_PLOTSETTINGS
350
19
  3
ACAD_PLOTSTYLENAME
350
E
  3
ACAD_SCALELIST
350
47
  3
ACAD_SECTIONVIEWSTYLE
350
5B1
  3
ACAD_TABLESTYLE
350
69
  3
ACAD_VISUALSTYLE
350
2A
  3
ACDB_RECOMPOSE_DATA
350
5AC
  3
AcDbVariableDictionary
350
5A8
  3
WATERMARKS
350
5A6
  0
SUN
  5
6D
330
29
100
AcDbSun
 90
        1
290
     0
 63
     7
421
 16777215
 40
1.0
291
     1
 91
  2455826
 92
 54000000
292
     0
 70
     2
 71
   256
280
     1
  0
DICTIONARY
  5
5B0
102
{ACAD_REACTORS
330
C
102
}
330
C
100
AcDbDictionary
281
     1
  0
DICTIONARY
  5
D
102
{ACAD_REACTORS
330
C
102
}
330
C
100
AcDbDictionary
281
     1
  0
DICTIONARY
  5
1A
102
{ACAD_REACTORS
330
C
102
}
330
C
100
AcDbDictionary
281
     1
  3
Layout1
350
1E
  3
Layout2
350
26
  3
Model
350
22
  0
DICTIONARY
  5
43
102
{ACAD_REACTORS
330
C
102
}
330
C
100
AcDbDictionary
281
     1
  3
ByBlock
350
45
  3
ByLayer
350
44
  3
Global
350
46
  0
DICTIONARY
  5
6B
102
{ACAD_REACTORS
330
C
102
}
330
C
100
AcDbDictionary
281
     1
  3
Standard
350
6C
  0
DICTIONARY
  5
17
102
{ACAD_REACTORS
330
C
102
}
330
C
100
AcDbDictionary
281
     1
  3
Standard
350
18
  0
DICTIONARY
  5
19
102
{ACAD_REACTORS
330
C
102
}
330
C
100
AcDbDictionary
281
     1
  0
ACDBDICTIONARYWDFLT
  5
E
102
{ACAD_REACTORS
330
C
102
}
330
C
100
AcDbDictionary
281
     1
  3
Normal
350
F
100
AcDbDictionaryWithDefault
340
F
  0
DICTIONARY
  5
47
102
{ACAD_REACTORS
330
C
102
}
330
C
100
AcDbDictionary
281
     1
  3
A0
350
48
  3
A1
350
49
  3
A2
350
4A
  3
A3
350
4B
  3
A4
350
4C
  3
A5
350
4D
  3
A6
350
4E
  3
A7
350
4F
  3
A8
350
50
  3
A9
350
51
  3
B0
350
52
  3
B1
350
53
  3
B2
350
54
  3
B3
350
55
  3
B4
350
56
  3
B5
350
57
  3
B6
350
58
  3
B7
350
59
  3
B8
350
5A
  3
B9
350
5B
  3
C0
350
5C
  3
C1
350
5D
  3
C2
350
5E
  3
C3
350
5F
  3
C4
350
60
  3
C5
350
61
  3
C6
350
62
  3
C7
350
63
  3
C8
350
64
  3
C9
350
65
  3
D0
350
66
  3
D1
350
67
  3
D2
350
68
  0
DICTIONARY
  5
5B1
102
{ACAD_REACTORS
330
C
102
}
330
C
100
AcDbDictionary
281
     1
  0
DICTIONARY
  5
69
102
{ACAD_REACTORS
330
C
102
}
330
C
100
AcDbDictionary
281
     1
  3
Standard
350
6A
  0
DICTIONARY
  5
2A
102
{ACAD_REACTORS
330
C
102
}
330
C
100
AcDbDictionary
281
     1
  3
2dWireframe
350
2F
  3
Basic
350
32
  3
Brighten
350
36
  3
ColorChange
350
3A
  3
Conceptual
350
34
  3
Dim
350
35
  3
EdgeColorOff
350
3D
  3
Facepattern
350
39
  3
Flat
350
2B
  3
FlatWithEdges
350
2C
  3
Gouraud
350
2D
  3
GouraudWithEdges
350
2E
  3
Hidden
350
31
  3
JitterOff
350
3B
  3
Linepattern
350
38
  3
OverhangOff
350
3C
  3
Realistic
350
33
  3
Shaded
350
42
  3
Shaded with edges
350
41
  3
Shades of Gray
350
3E
  3
Sketchy
350
3F
  3
Thicken
350
37
  3
Wireframe
350
30
  3
X-Ray
350
40
  0
XRECORD
  5
5AC
102
{ACAD_REACTORS
330
C
102
}
330
C
100
AcDbXrecord
280
     1
 90
        1
330
6A
  0
DICTIONARY
  5
5A8
102
{ACAD_REACTORS
330
C
102
}
330
C
100
AcDbDictionary
281
     1
  3
CANNOSCALE
350
5A9
  3
CMLEADERSTYLE
350
5AE
  3
CTABLESTYLE
350
5AD
  3
XCLIPFRAME
350
5AF
  0
DICTIONARY
  5
5A6
102
{ACAD_REACTORS
330
C
102
}
330
C
100
AcDbDictionary
281
     1
  3
AC_WATERMARK
350
5A7
  0
LAYOUT
  5
1E
102
{ACAD_REACTORS
330
1A
102
}
330
1A
100
AcDbPlotSettings
  1

  2
none_device
  4

  6

 40
0.0
 41
0.0
 42
0.0
 43
0.0
 44
0.0
 45
0.0
 46
0.0
 47
0.0
 48
0.0
 49
0.0
140
0.0
141
0.0
142
1.0
143
1.0
 70
   688
 72
     0
 73
     0
 74
     5
  7

 75
    16
 76
     0
 77
     2
 78
   300
147
1.0
148
0.0
149
0.0
100
AcDbLayout
  1
Layout1
 70
     1
 71
     1
 10
0.0
 20
0.0
 11
12.0
 21
9.0
 12
0.0
 22
0.0
 32
0.0
 14
1.000000000000000E+20
 24
1.000000000000000E+20
 34
1.000000000000000E+20
 15
-1.000000000000000E+20
 25
-1.000000000000000E+20
 35
-1.000000000000000E+20
146
0.0
 13
0.0
 23
0.0
 33
0.0
 16
1.0
 26
0.0
 36
0.0
 17
0.0
 27
1.0
 37
0.0
 76
     0
330
1B
  0
LAYOUT
  5
26
102
{ACAD_REACTORS
330
1A
102
}
330
1A
100
AcDbPlotSettings
  1

  2
none_device
  4

  6

 40
0.0
 41
0.0
 42
0.0
 43
0.0
 44
0.0
 45
0.0
 46
0.0
 47
0.0
 48
0.0
 49
0.0
140
0.0
141
0.0
142
1.0
143
1.0
 70
   688
 72
     0
 73
     0
 74
     5
  7

 75
    16
 76
     0
 77
     2
 78
   300
147
1.0
148
0.0
149
0.0
100
AcDbLayout
  1
Layout2
 70
     1
 71
     2
 10
0.0
 20
0.0
 11
0.0
 21
0.0
 12
0.0
 22
0.0
 32
0.0
 14
0.0
 24
0.0
 34
0.0
 15
0.0
 25
0.0
 35
0.0
146
0.0
 13
0.0
 23
0.0
 33
0.0
 16
1.0
 26
0.0
 36
0.0
 17
0.0
 27
1.0
 37
0.0
 76
     0
330
23
  0
LAYOUT
  5
22
102
{ACAD_REACTORS
330
1A
102
}
330
1A
100
AcDbPlotSettings
  1

  2
none_device
  4
Letter_(8.50_x_11.00_Inches)
  6

 40
6.35
 41
6.35
 42
6.35000508
 43
6.35000508
 44
215.9
 45
279.4
 46
0.0
 47
0.0
 48
0.0
 49
0.0
140
0.0
141
0.0
142
1.0
143
1.0
 70
  1712
 72
     0
 73
     0
 74
     0
  7

 75
     0
 76
     0
 77
     2
 78
   300
147
1.0
148
0.0
149
0.0
100
AcDbLayout
  1
Model
 70
     1
 71
     0
 10
-1.270099426619709
 20
-2.000000094994903
 11
3027.317523956299
 21
5054.000377655029
 12
0.0
 22
0.0
 32
0.0
 14
-1.270099426619709
 24
-2.000000094994903
 34
-0.0000000000000028
 15
3027.317523956299
 25
5054.000377655029
 35
2859.528541564941
146
0.0
 13
0.0
 23
0.0
 33
0.0
 16
1.0
 26
0.0
 36
0.0
 17
0.0
 27
1.0
 37
0.0
 76
     0
330
1F
331
29
  0
MATERIAL
  5
45
102
{ACAD_REACTORS
330
43
102
}
330
43
100
AcDbMaterial
  1
ByBlock
 72
     1
 94
      127
  0
MATERIAL
  5
44
102
{ACAD_REACTORS
330
43
102
}
330
43
100
AcDbMaterial
  1
ByLayer
 72
     1
 94
      127
  0
MATERIAL
  5
46
102
{ACAD_REACTORS
330
43
102
}
330
43
100
AcDbMaterial
  1
Global
 72
     1
 94
      127
  0
MLEADERSTYLE
  5
6C
102
{ACAD_REACTORS
330
6B
102
}
330
6B
100
AcDbMLeaderStyle
179
     2
170
     2
171
     1
172
     0
 90
        2
 40
0.0
 41
0.0
173
     1
 91
-1056964608
340
14
 92
       -2
290
     1
 42
0.09
291
     1
 43
0.36
  3
Standard
341
0
 44
0.18
300

342
11
174
     1
178
     6
175
     1
176
     0
 93
-1056964608
 45
0.18
292
     0
297
     0
 46
0.18
343
0
 94
-1056964608
 47
1.0
 49
1.0
140
1.0
293
     1
141
0.0
294
     1
177
     0
142
1.0
295
     0
296
     0
143
0.125
271
     0
272
     9
273
     9
298
     0
  0
MLINESTYLE
  5
18
102
{ACAD_REACTORS
330
17
102
}
330
17
100
AcDbMlineStyle
  2
Standard
 70
     0
  3

 62
   256
 51
90.0
 52
90.0
 71
     2
 49
0.5
 62
   256
  6
BYLAYER
 49
-0.5
 62
   256
  6
BYLAYER
  0
ACDBPLACEHOLDER
  5
F
102
{ACAD_REACTORS
330
E
102
}
330
E
  0
SCALE
  5
48
102
{ACAD_REACTORS
330
47
102
}
330
47
100
AcDbScale
 70
     0
300
1:1
140
1.0
141
1.0
290
     1
  0
SCALE
  5
49
102
{ACAD_REACTORS
330
47
102
}
330
47
100
AcDbScale
 70
     0
300
1:2
140
1.0
141
2.0
290
     0
  0
SCALE
  5
4A
102
{ACAD_REACTORS
330
47
102
}
330
47
100
AcDbScale
 70
     0
300
1:4
140
1.0
141
4.0
290
     0
  0
SCALE
  5
4B
102
{ACAD_REACTORS
330
47
102
}
330
47
100
AcDbScale
 70
     0
300
1:5
140
1.0
141
5.0
290
     0
  0
SCALE
  5
4C
102
{ACAD_REACTORS
330
47
102
}
330
47
100
AcDbScale
 70
     0
300
1:8
140
1.0
141
8.0
290
     0
  0
SCALE
  5
4D
102
{ACAD_REACTORS
330
47
102
}
330
47
100
AcDbScale
 70
     0
300
1:10
140
1.0
141
10.0
290
     0
  0
SCALE
  5
4E
102
{ACAD_REACTORS
330
47
102
}
330
47
100
AcDbScale
 70
     0
300
1:16
140
1.0
141
16.0
290
     0
  0
SCALE
  5
4F
102
{ACAD_REACTORS
330
47
102
}
330
47
100
AcDbScale
 70
     0
300
1:20
140
1.0
141
20.0
290
     0
  0
SCALE
  5
50
102
{ACAD_REACTORS
330
47
102
}
330
47
100
AcDbScale
 70
     0
300
1:30
140
1.0
141
30.0
290
     0
  0
SCALE
  5
51
102
{ACAD_REACTORS
330
47
102
}
330
47
100
AcDbScale
 70
     0
300
1:40
140
1.0
141
40.0
290
     0
  0
SCALE
  5
52
102
{ACAD_REACTORS
330
47
102
}
330
47
100
AcDbScale
 70
     0
300
1:50
140
1.0
141
50.0
290
     0
  0
SCALE
  5
53
102
{ACAD_REACTORS
330
47
102
}
330
47
100
AcDbScale
 70
     0
300
1:100
140
1.0
141
100.0
290
     0
  0
SCALE
  5
54
102
{ACAD_REACTORS
330
47
102
}
330
47
100
AcDbScale
 70
     0
300
2:1
140
2.0
141
1.0
290
     0
  0
SCALE
  5
55
102
{ACAD_REACTORS
330
47
102
}
330
47
100
AcDbScale
 70
     0
300
4:1
140
4.0
141
1.0
290
     0
  0
SCALE
  5
56
102
{ACAD_REACTORS
330
47
102
}
330
47
100
AcDbScale
 70
     0
300
8:1
140
8.0
141
1.0
290
     0
  0
SCALE
  5
57
102
{ACAD_REACTORS
330
47
102
}
330
47
100
AcDbScale
 70
     0
300
10:1
140
10.0
141
1.0
290
     0
  0
SCALE
  5
58
102
{ACAD_REACTORS
330
47
102
}
330
47
100
AcDbScale
 70
     0
300
100:1
140
100.0
141
1.0
290
     0
  0
SCALE
  5
59
102
{ACAD_REACTORS
330
47
102
}
330
47
100
AcDbScale
 70
     0
300
1/128" = 1'-0"
140
0.0078125
141
12.0
290
     0
  0
SCALE
  5
5A
102
{ACAD_REACTORS
330
47
102
}
330
47
100
AcDbScale
 70
     0
300
1/64" = 1'-0"
140
0.015625
141
12.0
290
     0
  0
SCALE
  5
5B
102
{ACAD_REACTORS
330
47
102
}
330
47
100
AcDbScale
 70
     0
300
1/32" = 1'-0"
140
0.03125
141
12.0
290
     0
  0
SCALE
  5
5C
102
{ACAD_REACTORS
330
47
102
}
330
47
100
AcDbScale
 70
     0
300
1/16" = 1'-0"
140
0.0625
141
12.0
290
     0
  0
SCALE
  5
5D
102
{ACAD_REACTORS
330
47
102
}
330
47
100
AcDbScale
 70
     0
300
3/32" = 1'-0"
140
0.09375
141
12.0
290
     0
  0
SCALE
  5
5E
102
{ACAD_REACTORS
330
47
102
}
330
47
100
AcDbScale
 70
     0
300
1/8" = 1'-0"
140
0.125
141
12.0
290
     0
  0
SCALE
  5
5F
102
{ACAD_REACTORS
330
47
102
}
330
47
100
AcDbScale
 70
     0
300
3/16" = 1'-0"
140
0.1875
141
12.0
290
     0
  0
SCALE
  5
60
102
{ACAD_REACTORS
330
47
102
}
330
47
100
AcDbScale
 70
     0
300
1/4" = 1'-0"
140
0.25
141
12.0
290
     0
  0
SCALE
  5
61
102
{ACAD_REACTORS
330
47
102
}
330
47
100
AcDbScale
 70
     0
300
3/8" = 1'-0"
140
0.375
141
12.0
290
     0
  0
SCALE
  5
62
102
{ACAD_REACTORS
330
47
102
}
330
47
100
AcDbScale
 70
     0
300
1/2" = 1'-0"
140
0.5
141
12.0
290
     0
  0
SCALE
  5
63
102
{ACAD_REACTORS
330
47
102
}
330
47
100
AcDbScale
 70
     0
300
3/4" = 1'-0"
140
0.75
141
12.0
290
     0
  0
SCALE
  5
64
102
{ACAD_REACTORS
330
47
102
}
330
47
100
AcDbScale
 70
     0
300
1" = 1'-0"
140
1.0
141
12.0
290
     0
  0
SCALE
  5
65
102
{ACAD_REACTORS
330
47
102
}
330
47
100
AcDbScale
 70
     0
300
1-1/2" = 1'-0"
140
1.5
141
12.0
290
     0
  0
SCALE
  5
66
102
{ACAD_REACTORS
330
47
102
}
330
47
100
AcDbScale
 70
     0
300
3" = 1'-0"
140
3.0
141
12.0
290
     0
  0
SCALE
  5
67
102
{ACAD_REACTORS
330
47
102
}
330
47
100
AcDbScale
 70
     0
300
6" = 1'-0"
140
6.0
141
12.0
290
     0
  0
SCALE
  5
68
102
{ACAD_REACTORS
330
47
102
}
330
47
100
AcDbScale
 70
     0
300
1'-0" = 1'-0"
140
12.0
141
12.0
290
     0
  0
TABLESTYLE
  5
6A
102
{ACAD_REACTORS
330
69
102
}
102
{ACAD_XDICTIONARY
360
5AA
102
}
330
69
100
AcDbTableStyle
  3
Standard
 70
     0
 71
     0
 40
0.06
 41
0.06
280
     0
281
     0
  7
Standard
140
0.18
170
     2
 62
     0
 63
   257
283
     0
 90
        4
 91
        0
  1

274
    -2
284
     1
 64
     0
275
    -2
285
     1
 65
     0
276
    -2
286
     1
 66
     0
277
    -2
287
     1
 67
     0
278
    -2
288
     1
 68
     0
279
    -2
289
     1
 69
     0
  7
Standard
140
0.25
170
     5
 62
     0
 63
   257
283
     0
 90
        4
 91
        0
  1

274
    -2
284
     1
 64
     0
275
    -2
285
     1
 65
     0
276
    -2
286
     1
 66
     0
277
    -2
287
     1
 67
     0
278
    -2
288
     1
 68
     0
279
    -2
289
     1
 69
     0
  7
Standard
140
0.18
170
     5
 62
     0
 63
   257
283
     0
 90
        4
 91
        0
  1

274
    -2
284
     1
 64
     0
275
    -2
285
     1
 65
     0
276
    -2
286
     1
 66
     0
277
    -2
287
     1
 67
     0
278
    -2
288
     1
 68
     0
279
    -2
289
     1
 69
     0
  0
VISUALSTYLE
  5
2F
102
{ACAD_REACTORS
330
2A
102
}
330
2A
100
AcDbVisualStyle
  2
2dWireframe
 70
     4
177
     3
291
     0
 70
    58
 90
        0
176
     1
 90
        2
176
     1
 90
        0
176
     1
 90
        0
176
     1
 40
0.6
176
     1
 40
30.0
176
     1
 62
     7
420
 16777215
176
     1
 90
        1
176
     1
 90
        4
176
     1
 62
     7
176
     1
 62
   257
176
     1
 90
        1
176
     1
 90
        1
176
     1
 40
1.0
176
     1
 90
        0
176
     1
 62
   257
176
     1
 40
1.0
176
     1
 90
        1
176
     1
 90
        6
176
     1
 90
        2
176
     1
 62
     7
176
     1
 90
        5
176
     1
 90
        0
176
     1
 90
        0
176
     1
290
     0
176
     1
 90
        1
176
     1
 40
0.0
176
     1
 90
        0
176
     1
290
     1
176
     1
290
     1
176
     1
290
     0
176
     1
290
     0
176
     1
290
     0
176
     1
290
     0
176
     1
290
     0
176
     1
290
     0
176
     1
290
     0
176
     1
 90
       50
176
     1
 40
0.0
176
     1
 40
1.0
176
     1
 90
        0
176
     1
 62
    18
420
        0
176
     1
 90
       50
176
     1
 90
        3
176
     1
 62
     5
420
      255
176
     1
290
     0
176
     1
 90
       50
176
     1
 90
       50
176
     1
 90
       50
176
     1
290
     0
176
     1
 90
       50
176
     1
 62
   256
176
     0
 40
1.0
176
     0
 90
        2
176
     1
  1
strokes_ogs.tif
176
     1
290
     0
176
     1
 40
1.0
176
     1
 40
1.0
176
     1
  0
VISUALSTYLE
  5
32
102
{ACAD_REACTORS
330
2A
102
}
330
2A
100
AcDbVisualStyle
  2
Basic
 70
     7
177
     3
291
     1
 70
    58
 90
        1
176
     1
 90
        0
176
     1
 90
        1
176
     1
 90
        0
176
     1
 40
0.6
176
     1
 40
30.0
176
     1
 62
     7
420
 16777215
176
     1
 90
        0
176
     1
 90
        4
176
     1
 62
     7
176
     1
 62
   257
176
     1
 90
        1
176
     1
 90
        1
176
     1
 40
1.0
176
     1
 90
        8
176
     1
 62
     7
176
     1
 40
1.0
176
     1
 90
        1
176
     1
 90
        6
176
     1
 90
        2
176
     1
 62
     7
176
     1
 90
        5
176
     1
 90
        0
176
     1
 90
        0
176
     1
290
     0
176
     1
 90
        1
176
     1
 40
0.0
176
     1
 90
        0
176
     1
290
     0
176
     1
290
     1
176
     1
290
     1
176
     1
290
     0
176
     1
290
     0
176
     1
290
     0
176
     1
290
     0
176
     1
290
     0
176
     1
290
     0
176
     1
 90
       50
176
     1
 40
0.0
176
     1
 40
1.0
176
     1
 90
        0
176
     1
 62
    18
420
        0
176
     1
 90
       50
176
     1
 90
        3
176
     1
 62
     5
420
      255
176
     1
290
     0
176
     1
 90
       50
176
     1
 90
       50
176
     1
 90
       50
176
     1
290
     0
176
     1
 90
       50
176
     1
 62
   256
176
     0
 40
1.0
176
     0
 90
        2
176
     1
  1
strokes_ogs.tif
176
     1
290
     0
176
     1
 40
1.0
176
     1
 40
1.0
176
     1
  0
VISUALSTYLE
  5
36
102
{ACAD_REACTORS
330
2A
102
}
330
2A
100
AcDbVisualStyle
  2
Brighten
 70
    12
177
     3
291
     1
 70
    58
 90
        2
176
     1
 90
        2
176
     1
 90
        0
176
     1
 90
        0
176
     1
 40
0.6
176
     1
 40
30.0
176
     1
 62
     7
420
 16777215
176
     1
 90
        1
176
     1
 90
        4
176
     1
 62
     7
176
     1
 62
   257
176
     1
 90
        1
176
     1
 90
        1
176
     1
 40
1.0
176
     1
 90
        8
176
     1
 62
     7
176
     1
 40
1.0
176
     1
 90
        1
176
     1
 90
        6
176
     1
 90
        2
176
     1
 62
     7
176
     1
 90
        5
176
     1
 90
        0
176
     1
 90
        0
176
     1
290
     0
176
     1
 90
        1
176
     1
 40
50.0
176
     1
 90
        0
176
     1
290
     0
176
     1
290
     1
176
     1
290
     1
176
     1
290
     0
176
     1
290
     0
176
     1
290
     0
176
     1
290
     0
176
     1
290
     0
176
     1
290
     0
176
     1
 90
       50
176
     1
 40
0.0
176
     1
 40
1.0
176
     1
 90
        0
176
     1
 62
    18
420
        0
176
     1
 90
       50
176
     1
 90
        3
176
     1
 62
     5
420
      255
176
     1
290
     0
176
     1
 90
       50
176
     1
 90
       50
176
     1
 90
       50
176
     1
290
     0
176
     1
 90
       50
176
     1
 62
   256
176
     0
 40
1.0
176
     0
 90
        2
176
     1
  1
strokes_ogs.tif
176
     1
290
     0
176
     1
 40
1.0
176
     1
 40
1.0
176
     1
  0
VISUALSTYLE
  5
3A
102
{ACAD_REACTORS
330
2A
102
}
330
2A
100
AcDbVisualStyle
  2
ColorChange
 70
    16
177
     3
291
     1
 70
    58
 90
        2
176
     1
 90
        2
176
     1
 90
        3
176
     1
 90
        0
176
     1
 40
0.6
176
     1
 40
30.0
176
     1
 62
     8
420
  8421504
176
     1
 90
        1
176
     1
 90
        4
176
     1
 62
     7
176
     1
 62
   257
176
     1
 90
        1
176
     1
 90
        1
176
     1
 40
1.0
176
     1
 90
        8
176
     1
 62
     8
420
  8421504
176
     1
 40
1.0
176
     1
 90
        1
176
     1
 90
        6
176
     1
 90
        2
176
     1
 62
     7
176
     1
 90
        5
176
     1
 90
        0
176
     1
 90
        0
176
     1
290
     0
176
     1
 90
        1
176
     1
 40
0.0
176
     1
 90
        0
176
     1
290
     0
176
     1
290
     1
176
     1
290
     1
176
     1
290
     0
176
     1
290
     0
176
     1
290
     0
176
     1
290
     0
176
     1
290
     0
176
     1
290
     0
176
     1
 90
       50
176
     1
 40
0.0
176
     1
 40
1.0
176
     1
 90
        0
176
     1
 62
    18
420
        0
176
     1
 90
       50
176
     1
 90
        3
176
     1
 62
     5
420
      255
176
     1
290
     0
176
     1
 90
       50
176
     1
 90
       50
176
     1
 90
       50
176
     1
290
     0
176
     1
 90
       50
176
     1
 62
   256
176
     0
 40
1.0
176
     0
 90
        2
176
     1
  1
strokes_ogs.tif
176
     1
290
     0
176
     1
 40
1.0
176
     1
 40
1.0
176
     1
  0
VISUALSTYLE
  5
34
102
{ACAD_REACTORS
330
2A
102
}
330
2A
100
AcDbVisualStyle
  2
Conceptual
 70
     9
177
     3
291
     0
 70
    58
 90
        3
176
     1
 90
        2
176
     1
 90
        0
176
     1
 90
        0
176
     1
 40
0.6
176
     1
 40
30.0
176
     1
 62
     7
420
 16777215
176
     1
 90
        2
176
     1
 90
        2
176
     1
 62
     7
176
     1
 62
   257
176
     1
 90
        1
176
     1
 90
        1
176
     1
 40
179.0
176
     1
 90
        8
176
     1
 62
     7
176
     1
 40
1.0
176
     1
 90
        1
176
     1
 90
        6
176
     1
 90
        2
176
     1
 62
     7
176
     1
 90
        3
176
     1
 90
        0
176
     1
 90
        0
176
     1
290
     0
176
     1
 90
        1
176
     1
 40
0.0
176
     1
 90
        0
176
     1
290
     0
176
     1
290
     1
176
     1
290
     1
176
     1
290
     0
176
     1
290
     0
176
     1
290
     0
176
     1
290
     0
176
     1
290
     0
176
     1
290
     0
176
     1
 90
       50
176
     1
 40
0.0
176
     1
 40
1.0
176
     1
 90
        0
176
     1
 62
    18
420
        0
176
     1
 90
       50
176
     1
 90
        3
176
     1
 62
     5
420
      255
176
     1
290
     0
176
     1
 90
       50
176
     1
 90
       50
176
     1
 90
       50
176
     1
290
     0
176
     1
 90
       50
176
     1
 62
   256
176
     0
 40
1.0
176
     0
 90
        2
176
     1
  1
strokes_ogs.tif
176
     1
290
     0
176
     1
 40
1.0
176
     1
 40
1.0
176
     1
  0
VISUALSTYLE
  5
35
102
{ACAD_REACTORS
330
2A
102
}
330
2A
100
AcDbVisualStyle
  2
Dim
 70
    11
177
     3
291
     1
 70
    58
 90
        2
176
     1
 90
        2
176
     1
 90
        0
176
     1
 90
        0
176
     1
 40
0.6
176
     1
 40
30.0
176
     1
 62
     7
420
 16777215
176
     1
 90
        1
176
     1
 90
        4
176
     1
 62
     7
176
     1
 62
   257
176
     1
 90
        1
176
     1
 90
        1
176
     1
 40
1.0
176
     1
 90
        8
176
     1
 62
     7
176
     1
 40
1.0
176
     1
 90
        1
176
     1
 90
        6
176
     1
 90
        2
176
     1
 62
     7
176
     1
 90
        5
176
     1
 90
        0
176
     1
 90
        0
176
     1
290
     0
176
     1
 90
        1
176
     1
 40
-50.0
176
     1
 90
        0
176
     1
290
     0
176
     1
290
     1
176
     1
290
     1
176
     1
290
     0
176
     1
290
     0
176
     1
290
     0
176
     1
290
     0
176
     1
290
     0
176
     1
290
     0
176
     1
 90
       50
176
     1
 40
0.0
176
     1
 40
1.0
176
     1
 90
        0
176
     1
 62
    18
420
        0
176
     1
 90
       50
176
     1
 90
        3
176
     1
 62
     5
420
      255
176
     1
290
     0
176
     1
 90
       50
176
     1
 90
       50
176
     1
 90
       50
176
     1
290
     0
176
     1
 90
       50
176
     1
 62
   256
176
     0
 40
1.0
176
     0
 90
        2
176
     1
  1
strokes_ogs.tif
176
     1
290
     0
176
     1
 40
1.0
176
     1
 40
1.0
176
     1
  0
VISUALSTYLE
  5
3D
102
{ACAD_REACTORS
330
2A
102
}
330
2A
100
AcDbVisualStyle
  2
EdgeColorOff
 70
    22
177
     3
291
     1
 70
    58
 90
        2
176
     0
 90
        2
176
     0
 90
        0
176
     0
 90
        0
176
     0
 40
0.6
176
     0
 40
30.0
176
     0
 62
     7
420
 16777215
176
     0
 90
        1
176
     0
 90
        4
176
     0
 62
     7
176
     0
 62
   257
176
     0
 90
        1
176
     0
 90
        1
176
     0
 40
1.0
176
     0
 90
        8
176
     2
 62
     7
176
     0
 40
1.0
176
     0
 90
        1
176
     0
 90
        6
176
     0
 90
        2
176
     0
 62
     7
176
     0
 90
        5
176
     0
 90
        0
176
     0
 90
        0
176
     0
290
     0
176
     0
 90
        1
176
     0
 40
0.0
176
     0
 90
        0
176
     0
290
     0
176
     0
290
     1
176
     0
290
     1
176
     0
290
     0
176
     0
290
     0
176
     0
290
     0
176
     0
290
     0
176
     0
290
     0
176
     0
290
     0
176
     0
 90
       50
176
     0
 40
0.0
176
     0
 40
1.0
176
     0
 90
        0
176
     0
 62
    18
420
        0
176
     0
 90
       50
176
     0
 90
        3
176
     0
 62
     5
420
      255
176
     0
290
     0
176
     0
 90
       50
176
     0
 90
       50
176
     0
 90
       50
176
     0
290
     0
176
     0
 90
       50
176
     0
 62
   256
176
     0
 40
1.0
176
     0
 90
        2
176
     0
  1
strokes_ogs.tif
176
     0
290
     0
176
     0
 40
1.0
176
     0
 40
1.0
176
     0
  0
VISUALSTYLE
  5
39
102
{ACAD_REACTORS
330
2A
102
}
330
2A
100
AcDbVisualStyle
  2
Facepattern
 70
    15
177
     3
291
     1
 70
    58
 90
        2
176
     1
 90
        2
176
     1
 90
        0
176
     1
 90
        0
176
     1
 40
0.6
176
     1
 40
30.0
176
     1
 62
     7
420
 16777215
176
     1
 90
        1
176
     1
 90
        4
176
     1
 62
     7
176
     1
 62
   257
176
     1
 90
        1
176
     1
 90
        1
176
     1
 40
1.0
176
     1
 90
        8
176
     1
 62
     7
176
     1
 40
1.0
176
     1
 90
        1
176
     1
 90
        6
176
     1
 90
        2
176
     1
 62
     7
176
     1
 90
        5
176
     1
 90
        0
176
     1
 90
        0
176
     1
290
     0
176
     1
 90
        1
176
     1
 40
0.0
176
     1
 90
        0
176
     1
290
     0
176
     1
290
     1
176
     1
290
     1
176
     1
290
     0
176
     1
290
     0
176
     1
290
     0
176
     1
290
     0
176
     1
290
     0
176
     1
290
     0
176
     1
 90
       50
176
     1
 40
0.0
176
     1
 40
1.0
176
     1
 90
        0
176
     1
 62
    18
420
        0
176
     1
 90
       50
176
     1
 90
        3
176
     1
 62
     5
420
      255
176
     1
290
     0
176
     1
 90
       50
176
     1
 90
       50
176
     1
 90
       50
176
     1
290
     0
176
     1
 90
       50
176
     1
 62
   256
176
     0
 40
1.0
176
     0
 90
        2
176
     1
  1
strokes_ogs.tif
176
     1
290
     0
176
     1
 40
1.0
176
     1
 40
1.0
176
     1
  0
VISUALSTYLE
  5
2B
102
{ACAD_REACTORS
330
2A
102
}
330
2A
100
AcDbVisualStyle
  2
Flat
 70
     0
177
     3
291
     1
 70
    58
 90
        2
176
     1
 90
        1
176
     1
 90
        1
176
     1
 90
        2
176
     1
 40
0.6
176
     1
 40
30.0
176
     1
 62
     7
420
 16777215
176
     1
 90
        0
176
     1
 90
        0
176
     1
 62
     7
176
     1
 62
   257
176
     1
 90
        1
176
     1
 90
        1
176
     1
 40
1.0
176
     1
 90
        8
176
     1
 62
     7
176
     1
 40
1.0
176
     1
 90
        1
176
     1
 90
        6
176
     1
 90
        2
176
     1
 62
     7
176
     1
 90
        5
176
     1
 90
        0
176
     1
 90
        0
176
     1
290
     0
176
     1
 90
       13
176
     1
 40
0.0
176
     1
 90
        0
176
     1
290
     0
176
     1
290
     1
176
     1
290
     1
176
     1
290
     0
176
     1
290
     0
176
     1
290
     0
176
     1
290
     0
176
     1
290
     0
176
     1
290
     0
176
     1
 90
       50
176
     1
 40
0.0
176
     1
 40
1.0
176
     1
 90
        0
176
     1
 62
    18
420
        0
176
     1
 90
       50
176
     1
 90
        3
176
     1
 62
     5
420
      255
176
     1
290
     0
176
     1
 90
       50
176
     1
 90
       50
176
     1
 90
       50
176
     1
290
     0
176
     1
 90
       50
176
     1
 62
   256
176
     0
 40
1.0
176
     0
 90
        2
176
     1
  1
strokes_ogs.tif
176
     1
290
     0
176
     1
 40
1.0
176
     1
 40
1.0
176
     1
  0
VISUALSTYLE
  5
2C
102
{ACAD_REACTORS
330
2A
102
}
330
2A
100
AcDbVisualStyle
  2
FlatWithEdges
 70
     1
177
     3
291
     1
 70
    58
 90
        2
176
     1
 90
        1
176
     1
 90
        1
176
     1
 90
        2
176
     1
 40
0.6
176
     1
 40
30.0
176
     1
 62
     7
420
 16777215
176
     1
 90
        1
176
     1
 90
        0
176
     1
 62
     7
176
     1
 62
   257
176
     1
 90
        1
176
     1
 90
        1
176
     1
 40
1.0
176
     1
 90
        0
176
     1
 62
   257
176
     1
 40
1.0
176
     1
 90
        1
176
     1
 90
        6
176
     1
 90
        2
176
     1
 62
     7
176
     1
 90
        5
176
     1
 90
        0
176
     1
 90
        0
176
     1
290
     0
176
     1
 90
       13
176
     1
 40
0.0
176
     1
 90
        0
176
     1
290
     0
176
     1
290
     1
176
     1
290
     1
176
     1
290
     0
176
     1
290
     0
176
     1
290
     0
176
     1
290
     0
176
     1
290
     0
176
     1
290
     0
176
     1
 90
       50
176
     1
 40
0.0
176
     1
 40
1.0
176
     1
 90
        0
176
     1
 62
    18
420
        0
176
     1
 90
       50
176
     1
 90
        3
176
     1
 62
     5
420
      255
176
     1
290
     0
176
     1
 90
       50
176
     1
 90
       50
176
     1
 90
       50
176
     1
290
     0
176
     1
 90
       50
176
     1
 62
   256
176
     0
 40
1.0
176
     0
 90
        2
176
     1
  1
strokes_ogs.tif
176
     1
290
     0
176
     1
 40
1.0
176
     1
 40
1.0
176
     1
  0
VISUALSTYLE
  5
2D
102
{ACAD_REACTORS
330
2A
102
}
330
2A
100
AcDbVisualStyle
  2
Gouraud
 70
     2
177
     3
291
     1
 70
    58
 90
        2
176
     1
 90
        2
176
     1
 90
        1
176
     1
 90
        2
176
     1
 40
0.6
176
     1
 40
30.0
176
     1
 62
     7
420
 16777215
176
     1
 90
        0
176
     1
 90
        0
176
     1
 62
     7
176
     1
 62
   257
176
     1
 90
        1
176
     1
 90
        1
176
     1
 40
1.0
176
     1
 90
        0
176
     1
 62
     7
176
     1
 40
1.0
176
     1
 90
        1
176
     1
 90
        6
176
     1
 90
        2
176
     1
 62
     7
176
     1
 90
        5
176
     1
 90
        0
176
     1
 90
        0
176
     1
290
     0
176
     1
 90
       13
176
     1
 40
0.0
176
     1
 90
        0
176
     1
290
     0
176
     1
290
     1
176
     1
290
     1
176
     1
290
     0
176
     1
290
     0
176
     1
290
     0
176
     1
290
     0
176
     1
290
     0
176
     1
290
     0
176
     1
 90
       50
176
     1
 40
0.0
176
     1
 40
1.0
176
     1
 90
        0
176
     1
 62
    18
420
        0
176
     1
 90
       50
176
     1
 90
        3
176
     1
 62
     5
420
      255
176
     1
290
     0
176
     1
 90
       50
176
     1
 90
       50
176
     1
 90
       50
176
     1
290
     0
176
     1
 90
       50
176
     1
 62
   256
176
     0
 40
1.0
176
     0
 90
        2
176
     1
  1
strokes_ogs.tif
176
     1
290
     0
176
     1
 40
1.0
176
     1
 40
1.0
176
     1
  0
VISUALSTYLE
  5
2E
102
{ACAD_REACTORS
330
2A
102
}
330
2A
100
AcDbVisualStyle
  2
GouraudWithEdges
 70
     3
177
     3
291
     1
 70
    58
 90
        2
176
     1
 90
        2
176
     1
 90
        1
176
     1
 90
        2
176
     1
 40
0.6
176
     1
 40
30.0
176
     1
 62
     7
420
 16777215
176
     1
 90
        1
176
     1
 90
        0
176
     1
 62
     7
176
     1
 62
   257
176
     1
 90
        1
176
     1
 90
        1
176
     1
 40
1.0
176
     1
 90
        0
176
     1
 62
   257
176
     1
 40
1.0
176
     1
 90
        1
176
     1
 90
        6
176
     1
 90
        2
176
     1
 62
     7
176
     1
 90
        5
176
     1
 90
        0
176
     1
 90
        0
176
     1
290
     0
176
     1
 90
       13
176
     1
 40
0.0
176
     1
 90
        0
176
     1
290
     0
176
     1
290
     1
176
     1
290
     1
176
     1
290
     0
176
     1
290
     0
176
     1
290
     0
176
     1
290
     0
176
     1
290
     0
176
     1
290
     0
176
     1
 90
       50
176
     1
 40
0.0
176
     1
 40
1.0
176
     1
 90
        0
176
     1
 62
    18
420
        0
176
     1
 90
       50
176
     1
 90
        3
176
     1
 62
     5
420
      255
176
     1
290
     0
176
     1
 90
       50
176
     1
 90
       50
176
     1
 90
       50
176
     1
290
     0
176
     1
 90
       50
176
     1
 62
   256
176
     0
 40
1.0
176
     0
 90
        2
176
     1
  1
strokes_ogs.tif
176
     1
290
     0
176
     1
 40
1.0
176
     1
 40
1.0
176
     1
  0
VISUALSTYLE
  5
31
102
{ACAD_REACTORS
330
2A
102
}
330
2A
100
AcDbVisualStyle
  2
Hidden
 70
     6
177
     3
291
     0
 70
    58
 90
        1
176
     1
 90
        2
176
     1
 90
        2
176
     1
 90
        0
176
     1
 40
0.6
176
     1
 40
30.0
176
     1
 62
     7
420
 16777215
176
     1
 90
        2
176
     1
 90
        2
176
     1
 62
     7
176
     1
 62
   257
176
     1
 90
        2
176
     1
 90
        1
176
     1
 40
40.0
176
     1
 90
        0
176
     1
 62
   257
176
     1
 40
1.0
176
     1
 90
        1
176
     1
 90
        6
176
     1
 90
        2
176
     1
 62
     7
176
     1
 90
        3
176
     1
 90
        0
176
     1
 90
        0
176
     1
290
     0
176
     1
 90
        1
176
     1
 40
0.0
176
     1
 90
        0
176
     1
290
     0
176
     1
290
     1
176
     1
290
     1
176
     1
290
     0
176
     1
290
     0
176
     1
290
     0
176
     1
290
     0
176
     1
290
     0
176
     1
290
     0
176
     1
 90
       50
176
     1
 40
0.0
176
     1
 40
1.0
176
     1
 90
        0
176
     1
 62
    18
420
        0
176
     1
 90
       50
176
     1
 90
        3
176
     1
 62
     5
420
      255
176
     1
290
     0
176
     1
 90
       50
176
     1
 90
       50
176
     1
 90
       50
176
     1
290
     0
176
     1
 90
       50
176
     1
 62
   256
176
     0
 40
1.0
176
     0
 90
        2
176
     1
  1
strokes_ogs.tif
176
     1
290
     0
176
     1
 40
1.0
176
     1
 40
1.0
176
     1
  0
VISUALSTYLE
  5
3B
102
{ACAD_REACTORS
330
2A
102
}
330
2A
100
AcDbVisualStyle
  2
JitterOff
 70
    20
177
     3
291
     1
 70
    58
 90
        2
176
     0
 90
        2
176
     0
 90
        0
176
     0
 90
        0
176
     0
 40
0.6
176
     0
 40
30.0
176
     0
 62
     7
420
 16777215
176
     0
 90
        1
176
     0
 90
        4
176
     0
 62
     7
176
     0
 62
   257
176
     0
 90
        1
176
     0
 90
        1
176
     0
 40
1.0
176
     0
 90
       10
176
     2
 62
     7
176
     0
 40
1.0
176
     0
 90
        1
176
     0
 90
        6
176
     0
 90
        2
176
     0
 62
     7
176
     0
 90
        5
176
     0
 90
        0
176
     0
 90
        0
176
     0
290
     0
176
     0
 90
        1
176
     0
 40
0.0
176
     0
 90
        0
176
     0
290
     0
176
     0
290
     1
176
     0
290
     1
176
     0
290
     0
176
     0
290
     0
176
     0
290
     0
176
     0
290
     0
176
     0
290
     0
176
     0
290
     0
176
     0
 90
       50
176
     0
 40
0.0
176
     0
 40
1.0
176
     0
 90
        0
176
     0
 62
    18
420
        0
176
     0
 90
       50
176
     0
 90
        3
176
     0
 62
     5
420
      255
176
     0
290
     0
176
     0
 90
       50
176
     0
 90
       50
176
     0
 90
       50
176
     0
290
     0
176
     0
 90
       50
176
     0
 62
   256
176
     0
 40
1.0
176
     0
 90
        2
176
     0
  1
strokes_ogs.tif
176
     0
290
     0
176
     0
 40
1.0
176
     0
 40
1.0
176
     0
  0
VISUALSTYLE
  5
38
102
{ACAD_REACTORS
330
2A
102
}
330
2A
100
AcDbVisualStyle
  2
Linepattern
 70
    14
177
     3
291
     1
 70
    58
 90
        2
176
     1
 90
        2
176
     1
 90
        0
176
     1
 90
        0
176
     1
 40
0.6
176
     1
 40
30.0
176
     1
 62
     7
420
 16777215
176
     1
 90
        1
176
     1
 90
        4
176
     1
 62
     7
176
     1
 62
   257
176
     1
 90
        7
176
     1
 90
        7
176
     1
 40
1.0
176
     1
 90
        8
176
     1
 62
     7
176
     1
 40
1.0
176
     1
 90
        1
176
     1
 90
        6
176
     1
 90
        2
176
     1
 62
     7
176
     1
 90
        5
176
     1
 90
        0
176
     1
 90
        0
176
     1
290
     0
176
     1
 90
        1
176
     1
 40
0.0
176
     1
 90
        0
176
     1
290
     0
176
     1
290
     1
176
     1
290
     1
176
     1
290
     0
176
     1
290
     0
176
     1
290
     0
176
     1
290
     0
176
     1
290
     0
176
     1
290
     0
176
     1
 90
       50
176
     1
 40
0.0
176
     1
 40
1.0
176
     1
 90
        0
176
     1
 62
    18
420
        0
176
     1
 90
       50
176
     1
 90
        3
176
     1
 62
     5
420
      255
176
     1
290
     0
176
     1
 90
       50
176
     1
 90
       50
176
     1
 90
       50
176
     1
290
     0
176
     1
 90
       50
176
     1
 62
   256
176
     0
 40
1.0
176
     0
 90
        2
176
     1
  1
strokes_ogs.tif
176
     1
290
     0
176
     1
 40
1.0
176
     1
 40
1.0
176
     1
  0
VISUALSTYLE
  5
3C
102
{ACAD_REACTORS
330
2A
102
}
330
2A
100
AcDbVisualStyle
  2
OverhangOff
 70
    21
177
     3
291
     1
 70
    58
 90
        2
176
     0
 90
        2
176
     0
 90
        0
176
     0
 90
        0
176
     0
 40
0.6
176
     0
 40
30.0
176
     0
 62
     7
420
 16777215
176
     0
 90
        1
176
     0
 90
        4
176
     0
 62
     7
176
     0
 62
   257
176
     0
 90
        1
176
     0
 90
        1
176
     0
 40
1.0
176
     0
 90
        9
176
     2
 62
     7
176
     0
 40
1.0
176
     0
 90
        1
176
     0
 90
        6
176
     0
 90
        2
176
     0
 62
     7
176
     0
 90
        5
176
     0
 90
        0
176
     0
 90
        0
176
     0
290
     0
176
     0
 90
        1
176
     0
 40
0.0
176
     0
 90
        0
176
     0
290
     0
176
     0
290
     1
176
     0
290
     1
176
     0
290
     0
176
     0
290
     0
176
     0
290
     0
176
     0
290
     0
176
     0
290
     0
176
     0
290
     0
176
     0
 90
       50
176
     0
 40
0.0
176
     0
 40
1.0
176
     0
 90
        0
176
     0
 62
    18
420
        0
176
     0
 90
       50
176
     0
 90
        3
176
     0
 62
     5
420
      255
176
     0
290
     0
176
     0
 90
       50
176
     0
 90
       50
176
     0
 90
       50
176
     0
290
     0
176
     0
 90
       50
176
     0
 62
   256
176
     0
 40
1.0
176
     0
 90
        2
176
     0
  1
strokes_ogs.tif
176
     0
290
     0
176
     0
 40
1.0
176
     0
 40
1.0
176
     0
  0
VISUALSTYLE
  5
33
102
{ACAD_REACTORS
330
2A
102
}
330
2A
100
AcDbVisualStyle
  2
Realistic
 70
     8
177
     3
291
     0
 70
    58
 90
        2
176
     1
 90
        3
176
     1
 90
        0
176
     1
 90
        2
176
     1
 40
0.6
176
     1
 40
30.0
176
     1
 62
     7
420
 16777215
176
     1
 90
        0
176
     1
 90
        0
176
     1
 62
     7
176
     1
 62
   257
176
     1
 90
        1
176
     1
 90
        1
176
     1
 40
1.0
176
     1
 90
        8
176
     1
 62
   257
176
     1
 40
1.0
176
     1
 90
        1
176
     1
 90
        6
176
     1
 90
        2
176
     1
 62
     7
176
     1
 90
        3
176
     1
 90
        0
176
     1
 90
        0
176
     1
290
     0
176
     1
 90
       13
176
     1
 40
0.0
176
     1
 90
        0
176
     1
290
     0
176
     1
290
     1
176
     1
290
     1
176
     1
290
     0
176
     1
290
     0
176
     1
290
     0
176
     1
290
     0
176
     1
290
     0
176
     1
290
     0
176
     1
 90
       50
176
     1
 40
0.0
176
     1
 40
1.0
176
     1
 90
        0
176
     1
 62
    18
420
        0
176
     1
 90
       50
176
     1
 90
        3
176
     1
 62
     5
420
      255
176
     1
290
     0
176
     1
 90
       50
176
     1
 90
       50
176
     1
 90
       50
176
     1
290
     0
176
     1
 90
       50
176
     1
 62
   256
176
     0
 40
1.0
176
     0
 90
        2
176
     1
  1
strokes_ogs.tif
176
     1
290
     0
176
     1
 40
1.0
176
     1
 40
1.0
176
     1
  0
VISUALSTYLE
  5
42
102
{ACAD_REACTORS
330
2A
102
}
330
2A
100
AcDbVisualStyle
  2
Shaded
 70
    27
177
     3
291
     0
 70
    58
 90
        2
176
     1
 90
        2
176
     1
 90
        1
176
     1
 90
        2
176
     1
 40
0.6
176
     1
 40
30.0
176
     1
 62
     7
420
 16777215
176
     1
 90
        0
176
     1
 90
        4
176
     1
 62
     7
176
     1
 62
   257
176
     1
 90
        1
176
     1
 90
        1
176
     1
 40
1.0
176
     1
 90
        8
176
     1
 62
   257
176
     1
 40
1.0
176
     1
 90
        1
176
     1
 90
        6
176
     1
 90
        2
176
     1
 62
     8
420
  7895160
176
     1
 90
        3
176
     1
 90
        0
176
     1
 90
        0
176
     1
290
     0
176
     1
 90
        5
176
     1
 40
0.0
176
     1
 90
        0
176
     1
290
     0
176
     1
290
     1
176
     1
290
     1
176
     1
290
     0
176
     1
290
     0
176
     1
290
     0
176
     1
290
     0
176
     1
290
     0
176
     1
290
     0
176
     1
 90
       50
176
     1
 40
0.0
176
     1
 40
1.0
176
     1
 90
        0
176
     1
 62
    18
420
        0
176
     1
 90
       50
176
     1
 90
        3
176
     1
 62
     5
420
      255
176
     1
290
     0
176
     1
 90
       50
176
     1
 90
       50
176
     1
 90
       50
176
     1
290
     0
176
     1
 90
       50
176
     1
 62
   256
176
     0
 40
1.0
176
     0
 90
        2
176
     1
  1
strokes_ogs.tif
176
     1
290
     0
176
     1
 40
1.0
176
     1
 40
1.0
176
     1
  0
VISUALSTYLE
  5
41
102
{ACAD_REACTORS
330
2A
102
}
330
2A
100
AcDbVisualStyle
  2
Shaded with edges
 70
    26
177
     3
291
     0
 70
    58
 90
        2
176
     1
 90
        2
176
     1
 90
        1
176
     1
 90
        2
176
     1
 40
0.6
176
     1
 40
30.0
176
     1
 62
     7
420
 16777215
176
     1
 90
        1
176
     1
 90
       10
176
     1
 62
     7
176
     1
 62
   257
176
     1
 90
        2
176
     1
 90
        1
176
     1
 40
1.0
176
     1
 90
        8
176
     1
 62
   257
176
     1
 40
1.0
176
     1
 90
        1
176
     1
 90
        6
176
     1
 90
        2
176
     1
 62
     7
176
     1
 90
        3
176
     1
 90
        0
176
     1
 90
        0
176
     1
290
     0
176
     1
 90
        5
176
     1
 40
0.0
176
     1
 90
        0
176
     1
290
     0
176
     1
290
     1
176
     1
290
     1
176
     1
290
     0
176
     1
290
     0
176
     1
290
     0
176
     1
290
     0
176
     1
290
     0
176
     1
290
     0
176
     1
 90
       50
176
     1
 40
0.0
176
     1
 40
1.0
176
     1
 90
        0
176
     1
 62
    18
420
        0
176
     1
 90
       50
176
     1
 90
        3
176
     1
 62
     5
420
      255
176
     1
290
     0
176
     1
 90
       50
176
     1
 90
       50
176
     1
 90
       50
176
     1
290
     0
176
     1
 90
       50
176
     1
 62
   256
176
     0
 40
1.0
176
     0
 90
        2
176
     1
  1
strokes_ogs.tif
176
     1
290
     0
176
     1
 40
1.0
176
     1
 40
1.0
176
     1
  0
VISUALSTYLE
  5
3E
102
{ACAD_REACTORS
330
2A
102
}
330
2A
100
AcDbVisualStyle
  2
Shades of Gray
 70
    23
177
     3
291
     0
 70
    58
 90
        2
176
     1
 90
        2
176
     1
 90
        3
176
     1
 90
        0
176
     1
 40
0.6
176
     1
 40
30.0
176
     1
 62
     7
420
 16777215
176
     1
 90
        2
176
     1
 90
        2
176
     1
 62
     7
176
     1
 62
     7
176
     1
 90
        1
176
     1
 90
        1
176
     1
 40
40.0
176
     1
 90
        8
176
     1
 62
     7
176
     1
 40
1.0
176
     1
 90
        1
176
     1
 90
        6
176
     1
 90
        2
176
     1
 62
     7
176
     1
 90
        3
176
     1
 90
        0
176
     1
 90
        0
176
     1
290
     0
176
     1
 90
        1
176
     1
 40
0.0
176
     1
 90
        0
176
     1
290
     0
176
     1
290
     1
176
     1
290
     1
176
     1
290
     0
176
     1
290
     0
176
     1
290
     0
176
     1
290
     0
176
     1
290
     0
176
     1
290
     0
176
     1
 90
       50
176
     1
 40
0.0
176
     1
 40
1.0
176
     1
 90
        0
176
     1
 62
    18
420
        0
176
     1
 90
       50
176
     1
 90
        3
176
     1
 62
     5
420
      255
176
     1
290
     0
176
     1
 90
       50
176
     1
 90
       50
176
     1
 90
       50
176
     1
290
     0
176
     1
 90
       50
176
     1
 62
   256
176
     0
 40
1.0
176
     0
 90
        2
176
     1
  1
strokes_ogs.tif
176
     1
290
     0
176
     1
 40
1.0
176
     1
 40
1.0
176
     1
  0
VISUALSTYLE
  5
3F
102
{ACAD_REACTORS
330
2A
102
}
330
2A
100
AcDbVisualStyle
  2
Sketchy
 70
    24
177
     3
291
     0
 70
    58
 90
        1
176
     1
 90
        2
176
     1
 90
        2
176
     1
 90
        0
176
     1
 40
0.6
176
     1
 40
30.0
176
     1
 62
     7
420
 16777215
176
     1
 90
        2
176
     1
 90
        2
176
     1
 62
     7
176
     1
 62
     7
176
     1
 90
        1
176
     1
 90
        1
176
     1
 40
40.0
176
     1
 90
       11
176
     1
 62
     7
176
     1
 40
1.0
176
     1
 90
        1
176
     1
 90
        6
176
     1
 90
        2
176
     1
 62
     7
176
     1
 90
        6
176
     1
 90
        0
176
     1
 90
        0
176
     1
290
     0
176
     1
 90
        1
176
     1
 40
0.0
176
     1
 90
        0
176
     1
290
     0
176
     1
290
     1
176
     1
290
     1
176
     1
290
     0
176
     1
290
     0
176
     1
290
     0
176
     1
290
     0
176
     1
290
     0
176
     1
290
     0
176
     1
 90
       50
176
     1
 40
0.0
176
     1
 40
1.0
176
     1
 90
        0
176
     1
 62
    18
420
        0
176
     1
 90
       50
176
     1
 90
        3
176
     1
 62
     5
420
      255
176
     1
290
     0
176
     1
 90
       50
176
     1
 90
       50
176
     1
 90
       50
176
     1
290
     0
176
     1
 90
       50
176
     1
 62
   256
176
     0
 40
1.0
176
     0
 90
        2
176
     1
  1
strokes_ogs.tif
176
     1
290
     0
176
     1
 40
1.0
176
     1
 40
1.0
176
     1
  0
VISUALSTYLE
  5
37
102
{ACAD_REACTORS
330
2A
102
}
330
2A
100
AcDbVisualStyle
  2
Thicken
 70
    13
177
     3
291
     1
 70
    58
 90
        2
176
     1
 90
        2
176
     1
 90
        0
176
     1
 90
        0
176
     1
 40
0.6
176
     1
 40
30.0
176
     1
 62
     7
420
 16777215
176
     1
 90
        1
176
     1
 90
        4
176
     1
 62
     7
176
     1
 62
   257
176
     1
 90
        1
176
     1
 90
        1
176
     1
 40
1.0
176
     1
 90
       12
176
     1
 62
     7
176
     1
 40
1.0
176
     1
 90
        1
176
     1
 90
        6
176
     1
 90
        2
176
     1
 62
     7
176
     1
 90
        5
176
     1
 90
        0
176
     1
 90
        0
176
     1
290
     0
176
     1
 90
        1
176
     1
 40
0.0
176
     1
 90
        0
176
     1
290
     0
176
     1
290
     1
176
     1
290
     1
176
     1
290
     0
176
     1
290
     0
176
     1
290
     0
176
     1
290
     0
176
     1
290
     0
176
     1
290
     0
176
     1
 90
       50
176
     1
 40
0.0
176
     1
 40
1.0
176
     1
 90
        0
176
     1
 62
    18
420
        0
176
     1
 90
       50
176
     1
 90
        3
176
     1
 62
     5
420
      255
176
     1
290
     0
176
     1
 90
       50
176
     1
 90
       50
176
     1
 90
       50
176
     1
290
     0
176
     1
 90
       50
176
     1
 62
   256
176
     0
 40
1.0
176
     0
 90
        2
176
     1
  1
strokes_ogs.tif
176
     1
290
     0
176
     1
 40
1.0
176
     1
 40
1.0
176
     1
  0
VISUALSTYLE
  5
30
102
{ACAD_REACTORS
330
2A
102
}
330
2A
100
AcDbVisualStyle
  2
Wireframe
 70
     5
177
     3
291
     0
 70
    58
 90
        0
176
     1
 90
        2
176
     1
 90
        0
176
     1
 90
        0
176
     1
 40
0.6
176
     1
 40
30.0
176
     1
 62
     7
420
 16777215
176
     1
 90
        1
176
     1
 90
        4
176
     1
 62
     7
176
     1
 62
   257
176
     1
 90
        1
176
     1
 90
        1
176
     1
 40
1.0
176
     1
 90
        0
176
     1
 62
   257
176
     1
 40
1.0
176
     1
 90
        1
176
     1
 90
        6
176
     1
 90
        2
176
     1
 62
     7
176
     1
 90
        3
176
     1
 90
        0
176
     1
 90
        0
176
     1
290
     0
176
     1
 90
        1
176
     1
 40
0.0
176
     1
 90
        0
176
     1
290
     0
176
     1
290
     1
176
     1
290
     1
176
     1
290
     0
176
     1
290
     0
176
     1
290
     0
176
     1
290
     0
176
     1
290
     0
176
     1
290
     0
176
     1
 90
       50
176
     1
 40
0.0
176
     1
 40
1.0
176
     1
 90
        0
176
     1
 62
    18
420
        0
176
     1
 90
       50
176
     1
 90
        3
176
     1
 62
     5
420
      255
176
     1
290
     0
176
     1
 90
       50
176
     1
 90
       50
176
     1
 90
       50
176
     1
290
     0
176
     1
 90
       50
176
     1
 62
   256
176
     0
 40
1.0
176
     0
 90
        2
176
     1
  1
strokes_ogs.tif
176
     1
290
     0
176
     1
 40
1.0
176
     1
 40
1.0
176
     1
  0
VISUALSTYLE
  5
40
102
{ACAD_REACTORS
330
2A
102
}
330
2A
100
AcDbVisualStyle
  2
X-Ray
 70
    25
177
     3
291
     0
 70
    58
 90
        2
176
     1
 90
        2
176
     1
 90
        1
176
     1
 90
        1
176
     1
 40
0.5
176
     1
 40
30.0
176
     1
 62
     7
420
 16777215
176
     1
 90
        1
176
     1
 90
        0
176
     1
 62
     7
176
     1
 62
   257
176
     1
 90
        1
176
     1
 90
        1
176
     1
 40
1.0
176
     1
 90
        8
176
     1
 62
     7
176
     1
 40
1.0
176
     1
 90
        1
176
     1
 90
        6
176
     1
 90
        2
176
     1
 62
     7
176
     1
 90
        3
176
     1
 90
        0
176
     1
 90
        0
176
     1
290
     0
176
     1
 90
       13
176
     1
 40
0.0
176
     1
 90
        0
176
     1
290
     0
176
     1
290
     1
176
     1
290
     1
176
     1
290
     0
176
     1
290
     0
176
     1
290
     0
176
     1
290
     0
176
     1
290
     0
176
     1
290
     0
176
     1
 90
       50
176
     1
 40
0.0
176
     1
 40
1.0
176
     1
 90
        0
176
     1
 62
    18
420
        0
176
     1
 90
       50
176
     1
 90
        3
176
     1
 62
     5
420
      255
176
     1
290
     0
176
     1
 90
       50
176
     1
 90
       50
176
     1
 90
       50
176
     1
290
     0
176
     1
 90
       50
176
     1
 62
   256
176
     0
 40
1.0
176
     0
 90
        2
176
     1
  1
strokes_ogs.tif
176
     1
290
     0
176
     1
 40
1.0
176
     1
 40
1.0
176
     1
  0
DICTIONARYVAR
  5
5A9
102
{ACAD_REACTORS
330
5A8
102
}
330
5A8
100
DictionaryVariables
280
     0
  1
1:1
  0
DICTIONARYVAR
  5
5AE
102
{ACAD_REACTORS
330
5A8
102
}
330
5A8
100
DictionaryVariables
280
     0
  1
Standard
  0
DICTIONARYVAR
  5
5AD
102
{ACAD_REACTORS
330
5A8
102
}
330
5A8
100
DictionaryVariables
280
     0
  1
Standard
  0
DICTIONARYVAR
  5
5AF
102
{ACAD_REACTORS
330
5A8
102
}
330
5A8
100
DictionaryVariables
280
     0
  1
0
  0
XRECORD
  5
5A7
102
{ACAD_REACTORS
330
5A6
102
}
330
5A6
100
AcDbXrecord
280
     1
1000
このDWGファイルはRIKCAD(TM)®で作成されました。
  0
DICTIONARY
  5
5AA
330
6A
100
AcDbDictionary
280
     1
281
     1
  3
ACAD_ROUNDTRIP_2008_TABLESTYLE_CELLSTYLEMAP
360
5AB
  0
CELLSTYLEMAP
  5
5AB
102
{ACAD_REACTORS
330
5AA
102
}
330
5AA
100
AcDbCellStyleMap
 90
        3
300
CELLSTYLE
  1
TABLEFORMAT_BEGIN
 90
        5
170
     1
 91
        0
 92
    32768
 62
   257
 93
        1
300
CONTENTFORMAT
  1
CONTENTFORMAT_BEGIN
 90
        0
 91
        0
 92
        4
 93
        0
300

 40
0.0
140
1.0
 94
        5
 62
     0
340
11
144
0.25
309
CONTENTFORMAT_END
171
     1
301
MARGIN
  1
CELLMARGIN_BEGIN
 40
0.06
 40
0.06
 40
0.06
 40
0.06
 40
0.06
 40
0.06
309
CELLMARGIN_END
 94
        6
 95
        1
302
GRIDFORMAT
  1
GRIDFORMAT_BEGIN
 90
        0
 91
        1
 62
     0
 92
       -2
340
14
 93
        0
 40
0.045
309
GRIDFORMAT_END
 95
        2
302
GRIDFORMAT
  1
GRIDFORMAT_BEGIN
 90
        0
 91
        1
 62
     0
 92
       -2
340
14
 93
        0
 40
0.045
309
GRIDFORMAT_END
 95
        4
302
GRIDFORMAT
  1
GRIDFORMAT_BEGIN
 90
        0
 91
        1
 62
     0
 92
       -2
340
14
 93
        0
 40
0.045
309
GRIDFORMAT_END
 95
        8
302
GRIDFORMAT
  1
GRIDFORMAT_BEGIN
 90
        0
 91
        1
 62
     0
 92
       -2
340
14
 93
        0
 40
0.045
309
GRIDFORMAT_END
 95
       16
302
GRIDFORMAT
  1
GRIDFORMAT_BEGIN
 90
        0
 91
        1
 62
     0
 92
       -2
340
14
 93
        0
 40
0.045
309
GRIDFORMAT_END
 95
       32
302
GRIDFORMAT
  1
GRIDFORMAT_BEGIN
 90
        0
 91
        1
 62
     0
 92
       -2
340
14
 93
        0
 40
0.045
309
GRIDFORMAT_END
309
TABLEFORMAT_END
  1
CELLSTYLE_BEGIN
 90
        1
 91
        1
300
_TITLE
309
CELLSTYLE_END
300
CELLSTYLE
  1
TABLEFORMAT_BEGIN
 90
        5
170
     1
 91
        0
 92
        0
 62
   257
 93
        1
300
CONTENTFORMAT
  1
CONTENTFORMAT_BEGIN
 90
        0
 91
        0
 92
        4
 93
        0
300

 40
0.0
140
1.0
 94
        5
 62
     0
340
11
144
0.18
309
CONTENTFORMAT_END
171
     1
301
MARGIN
  1
CELLMARGIN_BEGIN
 40
0.06
 40
0.06
 40
0.06
 40
0.06
 40
0.06
 40
0.06
309
CELLMARGIN_END
 94
        6
 95
        1
302
GRIDFORMAT
  1
GRIDFORMAT_BEGIN
 90
        0
 91
        1
 62
     0
 92
       -2
340
14
 93
        0
 40
0.045
309
GRIDFORMAT_END
 95
        2
302
GRIDFORMAT
  1
GRIDFORMAT_BEGIN
 90
        0
 91
        1
 62
     0
 92
       -2
340
14
 93
        0
 40
0.045
309
GRIDFORMAT_END
 95
        4
302
GRIDFORMAT
  1
GRIDFORMAT_BEGIN
 90
        0
 91
        1
 62
     0
 92
       -2
340
14
 93
        0
 40
0.045
309
GRIDFORMAT_END
 95
        8
302
GRIDFORMAT
  1
GRIDFORMAT_BEGIN
 90
        0
 91
        1
 62
     0
 92
       -2
340
14
 93
        0
 40
0.045
309
GRIDFORMAT_END
 95
       16
302
GRIDFORMAT
  1
GRIDFORMAT_BEGIN
 90
        0
 91
        1
 62
     0
 92
       -2
340
14
 93
        0
 40
0.045
309
GRIDFORMAT_END
 95
       32
302
GRIDFORMAT
  1
GRIDFORMAT_BEGIN
 90
        0
 91
        1
 62
     0
 92
       -2
340
14
 93
        0
 40
0.045
309
GRIDFORMAT_END
309
TABLEFORMAT_END
  1
CELLSTYLE_BEGIN
 90
        2
 91
        1
300
_HEADER
309
CELLSTYLE_END
300
CELLSTYLE
  1
TABLEFORMAT_BEGIN
 90
        5
170
     1
 91
        0
 92
        0
 62
   257
 93
        1
300
CONTENTFORMAT
  1
CONTENTFORMAT_BEGIN
 90
        0
 91
        0
 92
        4
 93
        0
300

 40
0.0
140
1.0
 94
        2
 62
     0
340
11
144
0.18
309
CONTENTFORMAT_END
171
     1
301
MARGIN
  1
CELLMARGIN_BEGIN
 40
0.06
 40
0.06
 40
0.06
 40
0.06
 40
0.06
 40
0.06
309
CELLMARGIN_END
 94
        6
 95
        1
302
GRIDFORMAT
  1
GRIDFORMAT_BEGIN
 90
        0
 91
        1
 62
     0
 92
       -2
340
14
 93
        0
 40
0.045
309
GRIDFORMAT_END
 95
        2
302
GRIDFORMAT
  1
GRIDFORMAT_BEGIN
 90
        0
 91
        1
 62
     0
 92
       -2
340
14
 93
        0
 40
0.045
309
GRIDFORMAT_END
 95
        4
302
GRIDFORMAT
  1
GRIDFORMAT_BEGIN
 90
        0
 91
        1
 62
     0
 92
       -2
340
14
 93
        0
 40
0.045
309
GRIDFORMAT_END
 95
        8
302
GRIDFORMAT
  1
GRIDFORMAT_BEGIN
 90
        0
 91
        1
 62
     0
 92
       -2
340
14
 93
        0
 40
0.045
309
GRIDFORMAT_END
 95
       16
302
GRIDFORMAT
  1
GRIDFORMAT_BEGIN
 90
        0
 91
        1
 62
     0
 92
       -2
340
14
 93
        0
 40
0.045
309
GRIDFORMAT_END
 95
       32
302
GRIDFORMAT
  1
GRIDFORMAT_BEGIN
 90
        0
 91
        1
 62
     0
 92
       -2
340
14
 93
        0
 40
0.045
309
GRIDFORMAT_END
309
TABLEFORMAT_END
  1
CELLSTYLE_BEGIN
 90
        3
 91
        2
300
_DATA
309
CELLSTYLE_END
  0
ENDSEC
  0
EOF
