  0
SECTION
  2
HEADER
  9
$ACADVER
  1
AC1015
  9
$ACADMAINTVER
 70
     6
  9
$DWGCODEPAGE
  3
ANSI_932
  9
$INSBASE
 10
0.0
 20
0.0
 30
0.0
  9
$EXTMIN
 10
1.000000000000000E+20
 20
1.000000000000000E+20
 30
1.000000000000000E+20
  9
$EXTMAX
 10
-1.000000000000000E+20
 20
-1.000000000000000E+20
 30
-1.000000000000000E+20
  9
$LIMMIN
 10
0.0
 20
0.0
  9
$LIMMAX
 10
12.0
 20
9.0
  9
$ORTHOMODE
 70
     0
  9
$REGENMODE
 70
     1
  9
$FILLMODE
 70
     1
  9
$QTEXTMODE
 70
     0
  9
$MIRRTEXT
 70
     1
  9
$LTSCALE
 40
1.0
  9
$ATTMODE
 70
     1
  9
$TEXTSIZE
 40
0.2
  9
$TRACEWID
 40
0.05
  9
$TEXTSTYLE
  7
Standard
  9
$CLAYER
  8
0
  9
$CELTYPE
  6
ByLayer
  9
$CECOLOR
 62
   256
  9
$CELTSCALE
 40
1.0
  9
$DISPSILH
 70
     0
  9
$DIMSCALE
 40
1.0
  9
$DIMASZ
 40
0.18
  9
$DIMEXO
 40
0.0625
  9
$DIMDLI
 40
0.38
  9
$DIMRND
 40
0.0
  9
$DIMDLE
 40
0.0
  9
$DIMEXE
 40
0.18
  9
$DIMTP
 40
0.0
  9
$DIMTM
 40
0.0
  9
$DIMTXT
 40
0.18
  9
$DIMCEN
 40
0.09
  9
$DIMTSZ
 40
0.0
  9
$DIMTOL
 70
     0
  9
$DIMLIM
 70
     0
  9
$DIMTIH
 70
     1
  9
$DIMTOH
 70
     1
  9
$DIMSE1
 70
     0
  9
$DIMSE2
 70
     0
  9
$DIMTAD
 70
     0
  9
$DIMZIN
 70
     0
  9
$DIMBLK
  1

  9
$DIMASO
 70
     1
  9
$DIMSHO
 70
     1
  9
$DIMPOST
  1

  9
$DIMAPOST
  1

  9
$DIMALT
 70
     0
  9
$DIMALTD
 70
     2
  9
$DIMALTF
 40
25.4
  9
$DIMLFAC
 40
1.0
  9
$DIMTOFL
 70
     0
  9
$DIMTVP
 40
0.0
  9
$DIMTIX
 70
     0
  9
$DIMSOXD
 70
     0
  9
$DIMSAH
 70
     0
  9
$DIMBLK1
  1

  9
$DIMBLK2
  1

  9
$DIMSTYLE
  2
Standard
  9
$DIMCLRD
 70
     0
  9
$DIMCLRE
 70
     0
  9
$DIMCLRT
 70
     0
  9
$DIMTFAC
 40
1.0
  9
$DIMGAP
 40
0.09
  9
$DIMJUST
 70
     0
  9
$DIMSD1
 70
     0
  9
$DIMSD2
 70
     0
  9
$DIMTOLJ
 70
     1
  9
$DIMTZIN
 70
     0
  9
$DIMALTZ
 70
     0
  9
$DIMALTTZ
 70
     0
  9
$DIMUPT
 70
     0
  9
$DIMDEC
 70
     4
  9
$DIMTDEC
 70
     4
  9
$DIMALTU
 70
     2
  9
$DIMALTTD
 70
     2
  9
$DIMTXSTY
  7
Standard
  9
$DIMAUNIT
 70
     0
  9
$DIMADEC
 70
     0
  9
$DIMALTRND
 40
0.0
  9
$DIMAZIN
 70
     0
  9
$DIMDSEP
 70
    46
  9
$DIMATFIT
 70
     3
  9
$DIMFRAC
 70
     0
  9
$DIMLDRBLK
  1

  9
$DIMLUNIT
 70
     2
  9
$DIMLWD
 70
    -2
  9
$DIMLWE
 70
    -2
  9
$DIMTMOVE
 70
     0
  9
$LUNITS
 70
     2
  9
$LUPREC
 70
     4
  9
$SKETCHINC
 40
0.1
  9
$FILLETRAD
 40
0.5
  9
$AUNITS
 70
     0
  9
$AUPREC
 70
     0
  9
$MENU
  1
.
  9
$ELEVATION
 40
0.0
  9
$PELEVATION
 40
0.0
  9
$THICKNESS
 40
0.0
  9
$LIMCHECK
 70
     0
  9
$CHAMFERA
 40
0.5
  9
$CHAMFERB
 40
0.5
  9
$CHAMFERC
 40
1.0
  9
$CHAMFERD
 40
0.0
  9
$SKPOLY
 70
     0
  9
$TDCREATE
 40
2458198.661721169
  9
$TDUCREATE
 40
2458198.286721169
  9
$TDUPDATE
 40
2458198.661721181
  9
$TDUUPDATE
 40
2458198.286721181
  9
$TDINDWG
 40
0.0000000116
  9
$TDUSRTIMER
 40
0.0000000116
  9
$USRTIMER
 70
     1
  9
$ANGBASE
 50
0.0
  9
$ANGDIR
 70
     0
  9
$PDMODE
 70
     0
  9
$PDSIZE
 40
0.0
  9
$PLINEWID
 40
0.0
  9
$SPLFRAME
 70
     0
  9
$SPLINETYPE
 70
     6
  9
$SPLINESEGS
 70
     8
  9
$HANDSEED
  5
6E5
  9
$SURFTAB1
 70
     6
  9
$SURFTAB2
 70
     6
  9
$SURFTYPE
 70
     6
  9
$SURFU
 70
     6
  9
$SURFV
 70
     6
  9
$UCSBASE
  2

  9
$UCSNAME
  2

  9
$UCSORG
 10
0.0
 20
0.0
 30
0.0
  9
$UCSXDIR
 10
1.0
 20
0.0
 30
0.0
  9
$UCSYDIR
 10
0.0
 20
1.0
 30
0.0
  9
$UCSORTHOREF
  2

  9
$UCSORTHOVIEW
 70
     0
  9
$UCSORGTOP
 10
0.0
 20
0.0
 30
0.0
  9
$UCSORGBOTTOM
 10
0.0
 20
0.0
 30
0.0
  9
$UCSORGLEFT
 10
0.0
 20
0.0
 30
0.0
  9
$UCSORGRIGHT
 10
0.0
 20
0.0
 30
0.0
  9
$UCSORGFRONT
 10
0.0
 20
0.0
 30
0.0
  9
$UCSORGBACK
 10
0.0
 20
0.0
 30
0.0
  9
$PUCSBASE
  2

  9
$PUCSNAME
  2

  9
$PUCSORG
 10
0.0
 20
0.0
 30
0.0
  9
$PUCSXDIR
 10
1.0
 20
0.0
 30
0.0
  9
$PUCSYDIR
 10
0.0
 20
1.0
 30
0.0
  9
$PUCSORTHOREF
  2

  9
$PUCSORTHOVIEW
 70
     0
  9
$PUCSORGTOP
 10
0.0
 20
0.0
 30
0.0
  9
$PUCSORGBOTTOM
 10
0.0
 20
0.0
 30
0.0
  9
$PUCSORGLEFT
 10
0.0
 20
0.0
 30
0.0
  9
$PUCSORGRIGHT
 10
0.0
 20
0.0
 30
0.0
  9
$PUCSORGFRONT
 10
0.0
 20
0.0
 30
0.0
  9
$PUCSORGBACK
 10
0.0
 20
0.0
 30
0.0
  9
$USERI1
 70
     0
  9
$USERI2
 70
     0
  9
$USERI3
 70
     0
  9
$USERI4
 70
     0
  9
$USERI5
 70
     0
  9
$USERR1
 40
0.0
  9
$USERR2
 40
0.0
  9
$USERR3
 40
0.0
  9
$USERR4
 40
0.0
  9
$USERR5
 40
0.0
  9
$WORLDVIEW
 70
     1
  9
$SHADEDGE
 70
     3
  9
$SHADEDIF
 70
    70
  9
$TILEMODE
 70
     1
  9
$MAXACTVP
 70
    64
  9
$PINSBASE
 10
0.0
 20
0.0
 30
0.0
  9
$PLIMCHECK
 70
     0
  9
$PEXTMIN
 10
1.000000000000000E+20
 20
1.000000000000000E+20
 30
1.000000000000000E+20
  9
$PEXTMAX
 10
-1.000000000000000E+20
 20
-1.000000000000000E+20
 30
-1.000000000000000E+20
  9
$PLIMMIN
 10
0.0
 20
0.0
  9
$PLIMMAX
 10
12.0
 20
9.0
  9
$UNITMODE
 70
     0
  9
$VISRETAIN
 70
     1
  9
$PLINEGEN
 70
     0
  9
$PSLTSCALE
 70
     1
  9
$TREEDEPTH
 70
  3020
  9
$CMLSTYLE
  2
Standard
  9
$CMLJUST
 70
     0
  9
$CMLSCALE
 40
1.0
  9
$PROXYGRAPHICS
 70
     1
  9
$MEASUREMENT
 70
     0
  9
$CELWEIGHT
370
    -1
  9
$ENDCAPS
280
     0
  9
$JOINSTYLE
280
     0
  9
$LWDISPLAY
290
     1
  9
$INSUNITS
 70
     0
  9
$HYPERLINKBASE
  1

  9
$STYLESHEET
  1

  9
$XEDIT
290
     1
  9
$CEPSNTYPE
380
     0
  9
$PSTYLEMODE
290
     1
  9
$FINGERPRINTGUID
  2
{81587F62-8920-428D-BD23-24D97ACD8E98}
  9
$VERSIONGUID
  2
{FAEB1C32-E019-11D5-929B-00C0DF256EC4}
  9
$EXTNAMES
290
     1
  9
$PSVPSCALE
 40
0.0
  9
$OLESTARTUP
290
     0
  0
ENDSEC
  0
SECTION
  2
CLASSES
  0
CLASS
  1
ACDBDICTIONARYWDFLT
  2
AcDbDictionaryWithDefault
  3
ObjectDBX Classes
 90
        0
280
     0
281
     0
  0
CLASS
  1
VISUALSTYLE
  2
AcDbVisualStyle
  3
ObjectDBX Classes
 90
     4095
280
     0
281
     0
  0
CLASS
  1
ACDBPLACEHOLDER
  2
AcDbPlaceHolder
  3
ObjectDBX Classes
 90
        0
280
     0
281
     0
  0
CLASS
  1
LAYOUT
  2
AcDbLayout
  3
ObjectDBX Classes
 90
        0
280
     0
281
     0
  0
ENDSEC
  0
SECTION
  2
TABLES
  0
TABLE
  2
VPORT
  5
8
330
0
100
AcDbSymbolTable
 70
     1
  0
VPORT
  5
29
330
8
100
AcDbSymbolTableRecord
100
AcDbViewportTableRecord
  2
*Active
 70
     0
 10
0.0
 20
0.0
 11
1.0
 21
1.0
 12
10.42990654205607
 22
4.5
 13
0.0
 23
0.0
 14
0.5
 24
0.5
 15
0.5
 25
0.5
 16
0.0
 26
0.0
 36
1.0
 17
0.0
 27
0.0
 37
0.0
 40
9.0
 41
1.972972972850329
 42
50.0
 43
0.0
 44
0.0
 50
0.0
 51
0.0
 71
     0
 72
   100
 73
     1
 74
     3
 75
     0
 76
     0
 77
     0
 78
     0
281
     0
 65
     1
110
0.0
120
0.0
130
0.0
111
1.0
121
0.0
131
0.0
112
0.0
122
1.0
132
0.0
 79
     0
146
0.0
  0
ENDTAB
  0
TABLE
  2
LTYPE
  5
5
330
0
100
AcDbSymbolTable
 70
     1
  0
LTYPE
  5
14
330
5
100
AcDbSymbolTableRecord
100
AcDbLinetypeTableRecord
  2
ByBlock
 70
     0
  3

 72
    65
 73
     0
 40
0.0
  0
LTYPE
  5
15
330
5
100
AcDbSymbolTableRecord
100
AcDbLinetypeTableRecord
  2
ByLayer
 70
     0
  3

 72
    65
 73
     0
 40
0.0
  0
LTYPE
  5
16
330
5
100
AcDbSymbolTableRecord
100
AcDbLinetypeTableRecord
  2
Continuous
 70
     0
  3
Solid line
 72
    65
 73
     0
 40
0.0
  0
ENDTAB
  0
TABLE
  2
LAYER
  5
2
330
0
100
AcDbSymbolTable
 70
     2
  0
LAYER
  5
10
330
2
100
AcDbSymbolTableRecord
100
AcDbLayerTableRecord
  2
0
 70
     0
 62
     7
  6
Continuous
370
    -3
390
F
  0
LAYER
  5
3B
330
2
100
AcDbSymbolTableRecord
100
AcDbLayerTableRecord
  2
ｴｸｽﾃﾘｱ商品
 70
     0
 62
     7
  6
Continuous
370
    -3
390
F
  0
ENDTAB
  0
TABLE
  2
STYLE
  5
3
330
0
100
AcDbSymbolTable
 70
     1
  0
STYLE
  5
11
330
3
100
AcDbSymbolTableRecord
100
AcDbTextStyleTableRecord
  2
Standard
 70
     0
 40
0.0
 41
1.0
 50
0.0
 71
     0
 42
0.2
  3
txt
  4
EXTFONT.SHX
  0
ENDTAB
  0
TABLE
  2
VIEW
  5
6
330
0
100
AcDbSymbolTable
 70
     0
  0
ENDTAB
  0
TABLE
  2
UCS
  5
7
330
0
100
AcDbSymbolTable
 70
     0
  0
ENDTAB
  0
TABLE
  2
APPID
  5
9
330
0
100
AcDbSymbolTable
 70
     1
  0
APPID
  5
12
330
9
100
AcDbSymbolTableRecord
100
AcDbRegAppTableRecord
  2
ACAD
 70
     0
  0
ENDTAB
  0
TABLE
  2
DIMSTYLE
  5
A
330
0
100
AcDbSymbolTable
 70
     1
100
AcDbDimStyleTable
  0
DIMSTYLE
105
27
330
A
100
AcDbSymbolTableRecord
100
AcDbDimStyleTableRecord
  2
Standard
 70
     0
340
11
  0
ENDTAB
  0
TABLE
  2
BLOCK_RECORD
  5
1
330
0
100
AcDbSymbolTable
 70
     2
  0
BLOCK_RECORD
  5
1F
330
1
100
AcDbSymbolTableRecord
100
AcDbBlockTableRecord
  2
*Model_Space
340
22
  0
BLOCK_RECORD
  5
1B
330
1
100
AcDbSymbolTableRecord
100
AcDbBlockTableRecord
  2
*Paper_Space
340
1E
  0
BLOCK_RECORD
  5
23
330
1
100
AcDbSymbolTableRecord
100
AcDbBlockTableRecord
  2
*Paper_Space0
340
26
  0
BLOCK_RECORD
  5
3C
330
1
100
AcDbSymbolTableRecord
100
AcDbBlockTableRecord
  2
オブジェクト_45
340
0
102
{BLKREFS
331
6E1
102
}
  0
ENDTAB
  0
ENDSEC
  0
SECTION
  2
BLOCKS
  0
BLOCK
  5
20
330
1F
100
AcDbEntity
  8
0
100
AcDbBlockBegin
  2
*Model_Space
 70
     0
 71
     0
 10
0.0
 20
0.0
 30
0.0
  3
*Model_Space
  1

  0
ENDBLK
  5
21
330
1F
100
AcDbEntity
  8
0
100
AcDbBlockEnd
  0
BLOCK
  5
1C
330
1B
100
AcDbEntity
 67
     1
  8
0
100
AcDbBlockBegin
  2
*Paper_Space
 70
     0
 71
     0
 10
0.0
 20
0.0
 30
0.0
  3
*Paper_Space
  1

  0
ENDBLK
  5
1D
330
1B
100
AcDbEntity
 67
     1
  8
0
100
AcDbBlockEnd
  0
BLOCK
  5
24
330
23
100
AcDbEntity
  8
0
100
AcDbBlockBegin
  2
*Paper_Space0
 70
     0
 71
     0
 10
0.0
 20
0.0
 30
0.0
  3
*Paper_Space0
  1

  0
ENDBLK
  5
25
330
23
100
AcDbEntity
  8
0
100
AcDbBlockEnd
  0
BLOCK
  5
3D
330
3C
100
AcDbEntity
  8
0
100
AcDbBlockBegin
  2
オブジェクト_45
 70
     0
 71
     0
 10
0.0
 20
0.0
 30
0.0
  3
オブジェクト_45
  1

  0
POLYLINE
  5
3F
330
3C
100
AcDbEntity
  8
ｴｸｽﾃﾘｱ商品
 62
   250
370
    20
100
AcDbPolyFaceMesh
 66
     1
 10
0.0
 20
0.0
 30
0.0
 70
    64
 71
   292
 72
   282
  0
VERTEX
  5
41
330
3F
100
AcDbEntity
  8
ｴｸｽﾃﾘｱ商品
 62
   250
370
    20
100
AcDbVertex
100
AcDbPolyFaceMeshVertex
 10
806.0
 20
0.0
 30
0.0
 70
   192
  0
VERTEX
  5
42
330
3F
100
AcDbEntity
  8
ｴｸｽﾃﾘｱ商品
 62
   250
370
    20
100
AcDbVertex
100
AcDbPolyFaceMeshVertex
 10
806.0
 20
75.00000000000001
 30
0.0
 70
   192
  0
VERTEX
  5
43
330
3F
100
AcDbEntity
  8
ｴｸｽﾃﾘｱ商品
 62
   250
370
    20
100
AcDbVertex
100
AcDbPolyFaceMeshVertex
 10
881.0
 20
75.00000000000001
 30
0.0
 70
   192
  0
VERTEX
  5
44
330
3F
100
AcDbEntity
  8
ｴｸｽﾃﾘｱ商品
 62
   250
370
    20
100
AcDbVertex
100
AcDbPolyFaceMeshVertex
 10
881.0
 20
0.0
 30
0.0
 70
   192
  0
VERTEX
  5
45
330
3F
100
AcDbEntity
  8
ｴｸｽﾃﾘｱ商品
 62
   250
370
    20
100
AcDbVertex
100
AcDbPolyFaceMeshVertex
 10
881.0
 20
0.0
 30
1300.0
 70
   192
  0
VERTEX
  5
46
330
3F
100
AcDbEntity
  8
ｴｸｽﾃﾘｱ商品
 62
   250
370
    20
100
AcDbVertex
100
AcDbPolyFaceMeshVertex
 10
881.0
 20
75.00000000000001
 30
1300.0
 70
   192
  0
VERTEX
  5
47
330
3F
100
AcDbEntity
  8
ｴｸｽﾃﾘｱ商品
 62
   250
370
    20
100
AcDbVertex
100
AcDbPolyFaceMeshVertex
 10
806.0
 20
75.00000000000001
 30
1300.0
 70
   192
  0
VERTEX
  5
48
330
3F
100
AcDbEntity
  8
ｴｸｽﾃﾘｱ商品
 62
   250
370
    20
100
AcDbVertex
100
AcDbPolyFaceMeshVertex
 10
806.0
 20
0.0
 30
1300.0
 70
   192
  0
VERTEX
  5
49
330
3F
100
AcDbEntity
  8
ｴｸｽﾃﾘｱ商品
 62
   250
370
    20
100
AcDbVertex
100
AcDbPolyFaceMeshVertex
 10
74.9999999999999
 20
0.0
 30
0.0
 70
   192
  0
VERTEX
  5
4A
330
3F
100
AcDbEntity
  8
ｴｸｽﾃﾘｱ商品
 62
   250
370
    20
100
AcDbVertex
100
AcDbPolyFaceMeshVertex
 10
-0.000000000000111
 20
0.0
 30
0.0
 70
   192
  0
VERTEX
  5
4B
330
3F
100
AcDbEntity
  8
ｴｸｽﾃﾘｱ商品
 62
   250
370
    20
100
AcDbVertex
100
AcDbPolyFaceMeshVertex
 10
-0.000000000000111
 20
75.00000000000001
 30
0.0
 70
   192
  0
VERTEX
  5
4C
330
3F
100
AcDbEntity
  8
ｴｸｽﾃﾘｱ商品
 62
   250
370
    20
100
AcDbVertex
100
AcDbPolyFaceMeshVertex
 10
74.9999999999999
 20
75.00000000000001
 30
0.0
 70
   192
  0
VERTEX
  5
4D
330
3F
100
AcDbEntity
  8
ｴｸｽﾃﾘｱ商品
 62
   250
370
    20
100
AcDbVertex
100
AcDbPolyFaceMeshVertex
 10
-0.000000000000111
 20
0.0
 30
1300.0
 70
   192
  0
VERTEX
  5
4E
330
3F
100
AcDbEntity
  8
ｴｸｽﾃﾘｱ商品
 62
   250
370
    20
100
AcDbVertex
100
AcDbPolyFaceMeshVertex
 10
74.9999999999999
 20
0.0
 30
1300.0
 70
   192
  0
VERTEX
  5
4F
330
3F
100
AcDbEntity
  8
ｴｸｽﾃﾘｱ商品
 62
   250
370
    20
100
AcDbVertex
100
AcDbPolyFaceMeshVertex
 10
74.9999999999999
 20
75.00000000000001
 30
1300.0
 70
   192
  0
VERTEX
  5
50
330
3F
100
AcDbEntity
  8
ｴｸｽﾃﾘｱ商品
 62
   250
370
    20
100
AcDbVertex
100
AcDbPolyFaceMeshVertex
 10
-0.000000000000111
 20
75.00000000000001
 30
1300.0
 70
   192
  0
VERTEX
  5
51
330
3F
100
AcDbEntity
  8
ｴｸｽﾃﾘｱ商品
 62
   250
370
    20
100
AcDbVertex
100
AcDbPolyFaceMeshVertex
 10
773.1671147168657
 20
93.0898700456638
 30
1114.0
 70
   192
  0
VERTEX
  5
52
330
3F
100
AcDbEntity
  8
ｴｸｽﾃﾘｱ商品
 62
   250
370
    20
100
AcDbVertex
100
AcDbPolyFaceMeshVertex
 10
773.0
 20
95.00000000000003
 30
1114.0
 70
   192
  0
VERTEX
  5
53
330
3F
100
AcDbEntity
  8
ｴｸｽﾃﾘｱ商品
 62
   250
370
    20
100
AcDbVertex
100
AcDbPolyFaceMeshVertex
 10
773.1671147168657
 20
96.91012995433626
 30
1114.0
 70
   192
  0
VERTEX
  5
54
330
3F
100
AcDbEntity
  8
ｴｸｽﾃﾘｱ商品
 62
   250
370
    20
100
AcDbVertex
100
AcDbPolyFaceMeshVertex
 10
773.663381171355
 20
98.76222157658239
 30
1114.0
 70
   192
  0
VERTEX
  5
55
330
3F
100
AcDbEntity
  8
ｴｸｽﾃﾘｱ商品
 62
   250
370
    20
100
AcDbVertex
100
AcDbPolyFaceMeshVertex
 10
774.4737205583712
 20
100.5
 30
1114.0
 70
   192
  0
VERTEX
  5
56
330
3F
100
AcDbEntity
  8
ｴｸｽﾃﾘｱ商品
 62
   250
370
    20
100
AcDbVertex
100
AcDbPolyFaceMeshVertex
 10
775.5735111256913
 20
102.070663706552
 30
1114.0
 70
   192
  0
VERTEX
  5
57
330
3F
100
AcDbEntity
  8
ｴｸｽﾃﾘｱ商品
 62
   250
370
    20
100
AcDbVertex
100
AcDbPolyFaceMeshVertex
 10
776.929336293448
 20
103.4264888743088
 30
1114.0
 70
   192
  0
VERTEX
  5
58
330
3F
100
AcDbEntity
  8
ｴｸｽﾃﾘｱ商品
 62
   250
370
    20
100
AcDbVertex
100
AcDbPolyFaceMeshVertex
 10
778.5000000000001
 20
104.5262794416289
 30
1114.0
 70
   192
  0
VERTEX
  5
59
330
3F
100
AcDbEntity
  8
ｴｸｽﾃﾘｱ商品
 62
   250
370
    20
100
AcDbVertex
100
AcDbPolyFaceMeshVertex
 10
780.2377784234177
 20
105.336618828645
 30
1114.0
 70
   192
  0
VERTEX
  5
5A
330
3F
100
AcDbEntity
  8
ｴｸｽﾃﾘｱ商品
 62
   250
370
    20
100
AcDbVertex
100
AcDbPolyFaceMeshVertex
 10
782.0898700456638
 20
105.8328852831343
 30
1114.0
 70
   192
  0
VERTEX
  5
5B
330
3F
100
AcDbEntity
  8
ｴｸｽﾃﾘｱ商品
 62
   250
370
    20
100
AcDbVertex
100
AcDbPolyFaceMeshVertex
 10
784.0
 20
106.0
 30
1114.0
 70
   192
  0
VERTEX
  5
5C
330
3F
100
AcDbEntity
  8
ｴｸｽﾃﾘｱ商品
 62
   250
370
    20
100
AcDbVertex
100
AcDbPolyFaceMeshVertex
 10
785.9101299543363
 20
105.8328852831343
 30
1114.0
 70
   192
  0
VERTEX
  5
5D
330
3F
100
AcDbEntity
  8
ｴｸｽﾃﾘｱ商品
 62
   250
370
    20
100
AcDbVertex
100
AcDbPolyFaceMeshVertex
 10
787.7622215765824
 20
105.336618828645
 30
1114.0
 70
   192
  0
VERTEX
  5
5E
330
3F
100
AcDbEntity
  8
ｴｸｽﾃﾘｱ商品
 62
   250
370
    20
100
AcDbVertex
100
AcDbPolyFaceMeshVertex
 10
789.5
 20
104.5262794416289
 30
1114.0
 70
   192
  0
VERTEX
  5
5F
330
3F
100
AcDbEntity
  8
ｴｸｽﾃﾘｱ商品
 62
   250
370
    20
100
AcDbVertex
100
AcDbPolyFaceMeshVertex
 10
791.070663706552
 20
103.4264888743088
 30
1114.0
 70
   192
  0
VERTEX
  5
60
330
3F
100
AcDbEntity
  8
ｴｸｽﾃﾘｱ商品
 62
   250
370
    20
100
AcDbVertex
100
AcDbPolyFaceMeshVertex
 10
792.4264888743088
 20
102.070663706552
 30
1114.0
 70
   192
  0
VERTEX
  5
61
330
3F
100
AcDbEntity
  8
ｴｸｽﾃﾘｱ商品
 62
   250
370
    20
100
AcDbVertex
100
AcDbPolyFaceMeshVertex
 10
793.526279441629
 20
100.5
 30
1114.0
 70
   192
  0
VERTEX
  5
62
330
3F
100
AcDbEntity
  8
ｴｸｽﾃﾘｱ商品
 62
   250
370
    20
100
AcDbVertex
100
AcDbPolyFaceMeshVertex
 10
794.336618828645
 20
98.76222157658239
 30
1114.0
 70
   192
  0
VERTEX
  5
63
330
3F
100
AcDbEntity
  8
ｴｸｽﾃﾘｱ商品
 62
   250
370
    20
100
AcDbVertex
100
AcDbPolyFaceMeshVertex
 10
794.8328852831344
 20
96.91012995433626
 30
1114.0
 70
   192
  0
VERTEX
  5
64
330
3F
100
AcDbEntity
  8
ｴｸｽﾃﾘｱ商品
 62
   250
370
    20
100
AcDbVertex
100
AcDbPolyFaceMeshVertex
 10
795.0
 20
95.00000000000003
 30
1114.0
 70
   192
  0
VERTEX
  5
65
330
3F
100
AcDbEntity
  8
ｴｸｽﾃﾘｱ商品
 62
   250
370
    20
100
AcDbVertex
100
AcDbPolyFaceMeshVertex
 10
794.8328852831344
 20
93.0898700456638
 30
1114.0
 70
   192
  0
VERTEX
  5
66
330
3F
100
AcDbEntity
  8
ｴｸｽﾃﾘｱ商品
 62
   250
370
    20
100
AcDbVertex
100
AcDbPolyFaceMeshVertex
 10
794.336618828645
 20
91.23777842341768
 30
1114.0
 70
   192
  0
VERTEX
  5
67
330
3F
100
AcDbEntity
  8
ｴｸｽﾃﾘｱ商品
 62
   250
370
    20
100
AcDbVertex
100
AcDbPolyFaceMeshVertex
 10
793.526279441629
 20
89.50000000000004
 30
1114.0
 70
   192
  0
VERTEX
  5
68
330
3F
100
AcDbEntity
  8
ｴｸｽﾃﾘｱ商品
 62
   250
370
    20
100
AcDbVertex
100
AcDbPolyFaceMeshVertex
 10
792.4264888743088
 20
87.92933629344812
 30
1114.0
 70
   192
  0
VERTEX
  5
69
330
3F
100
AcDbEntity
  8
ｴｸｽﾃﾘｱ商品
 62
   250
370
    20
100
AcDbVertex
100
AcDbPolyFaceMeshVertex
 10
791.070663706552
 20
86.57351112569128
 30
1114.0
 70
   192
  0
VERTEX
  5
6A
330
3F
100
AcDbEntity
  8
ｴｸｽﾃﾘｱ商品
 62
   250
370
    20
100
AcDbVertex
100
AcDbPolyFaceMeshVertex
 10
789.5
 20
85.47372055837121
 30
1114.0
 70
   192
  0
VERTEX
  5
6B
330
3F
100
AcDbEntity
  8
ｴｸｽﾃﾘｱ商品
 62
   250
370
    20
100
AcDbVertex
100
AcDbPolyFaceMeshVertex
 10
787.7622215765824
 20
84.66338117135506
 30
1114.0
 70
   192
  0
VERTEX
  5
6C
330
3F
100
AcDbEntity
  8
ｴｸｽﾃﾘｱ商品
 62
   250
370
    20
100
AcDbVertex
100
AcDbPolyFaceMeshVertex
 10
785.9101299543363
 20
84.16711471686575
 30
1114.0
 70
   192
  0
VERTEX
  5
6D
330
3F
100
AcDbEntity
  8
ｴｸｽﾃﾘｱ商品
 62
   250
370
    20
100
AcDbVertex
100
AcDbPolyFaceMeshVertex
 10
784.0
 20
84.00000000000004
 30
1114.0
 70
   192
  0
VERTEX
  5
6E
330
3F
100
AcDbEntity
  8
ｴｸｽﾃﾘｱ商品
 62
   250
370
    20
100
AcDbVertex
100
AcDbPolyFaceMeshVertex
 10
782.0898700456638
 20
84.16711471686575
 30
1114.0
 70
   192
  0
VERTEX
  5
6F
330
3F
100
AcDbEntity
  8
ｴｸｽﾃﾘｱ商品
 62
   250
370
    20
100
AcDbVertex
100
AcDbPolyFaceMeshVertex
 10
780.2377784234177
 20
84.66338117135506
 30
1114.0
 70
   192
  0
VERTEX
  5
70
330
3F
100
AcDbEntity
  8
ｴｸｽﾃﾘｱ商品
 62
   250
370
    20
100
AcDbVertex
100
AcDbPolyFaceMeshVertex
 10
778.5000000000001
 20
85.47372055837121
 30
1114.0
 70
   192
  0
VERTEX
  5
71
330
3F
100
AcDbEntity
  8
ｴｸｽﾃﾘｱ商品
 62
   250
370
    20
100
AcDbVertex
100
AcDbPolyFaceMeshVertex
 10
776.929336293448
 20
86.57351112569128
 30
1114.0
 70
   192
  0
VERTEX
  5
72
330
3F
100
AcDbEntity
  8
ｴｸｽﾃﾘｱ商品
 62
   250
370
    20
100
AcDbVertex
100
AcDbPolyFaceMeshVertex
 10
775.5735111256913
 20
87.92933629344812
 30
1114.0
 70
   192
  0
VERTEX
  5
73
330
3F
100
AcDbEntity
  8
ｴｸｽﾃﾘｱ商品
 62
   250
370
    20
100
AcDbVertex
100
AcDbPolyFaceMeshVertex
 10
774.4737205583713
 20
89.50000000000004
 30
1114.0
 70
   192
  0
VERTEX
  5
74
330
3F
100
AcDbEntity
  8
ｴｸｽﾃﾘｱ商品
 62
   250
370
    20
100
AcDbVertex
100
AcDbPolyFaceMeshVertex
 10
773.663381171355
 20
91.23777842341768
 30
1114.0
 70
   192
  0
VERTEX
  5
75
330
3F
100
AcDbEntity
  8
ｴｸｽﾃﾘｱ商品
 62
   250
370
    20
100
AcDbVertex
100
AcDbPolyFaceMeshVertex
 10
773.1671147168657
 20
93.0898700456638
 30
1155.0
 70
   192
  0
VERTEX
  5
76
330
3F
100
AcDbEntity
  8
ｴｸｽﾃﾘｱ商品
 62
   250
370
    20
100
AcDbVertex
100
AcDbPolyFaceMeshVertex
 10
773.663381171355
 20
91.23777842341768
 30
1155.0
 70
   192
  0
VERTEX
  5
77
330
3F
100
AcDbEntity
  8
ｴｸｽﾃﾘｱ商品
 62
   250
370
    20
100
AcDbVertex
100
AcDbPolyFaceMeshVertex
 10
774.4737205583713
 20
89.50000000000004
 30
1155.0
 70
   192
  0
VERTEX
  5
78
330
3F
100
AcDbEntity
  8
ｴｸｽﾃﾘｱ商品
 62
   250
370
    20
100
AcDbVertex
100
AcDbPolyFaceMeshVertex
 10
775.5735111256913
 20
87.92933629344812
 30
1155.0
 70
   192
  0
VERTEX
  5
79
330
3F
100
AcDbEntity
  8
ｴｸｽﾃﾘｱ商品
 62
   250
370
    20
100
AcDbVertex
100
AcDbPolyFaceMeshVertex
 10
776.929336293448
 20
86.57351112569128
 30
1155.0
 70
   192
  0
VERTEX
  5
7A
330
3F
100
AcDbEntity
  8
ｴｸｽﾃﾘｱ商品
 62
   250
370
    20
100
AcDbVertex
100
AcDbPolyFaceMeshVertex
 10
778.5000000000001
 20
85.47372055837121
 30
1155.0
 70
   192
  0
VERTEX
  5
7B
330
3F
100
AcDbEntity
  8
ｴｸｽﾃﾘｱ商品
 62
   250
370
    20
100
AcDbVertex
100
AcDbPolyFaceMeshVertex
 10
780.2377784234177
 20
84.66338117135506
 30
1155.0
 70
   192
  0
VERTEX
  5
7C
330
3F
100
AcDbEntity
  8
ｴｸｽﾃﾘｱ商品
 62
   250
370
    20
100
AcDbVertex
100
AcDbPolyFaceMeshVertex
 10
782.0898700456638
 20
84.16711471686575
 30
1155.0
 70
   192
  0
VERTEX
  5
7D
330
3F
100
AcDbEntity
  8
ｴｸｽﾃﾘｱ商品
 62
   250
370
    20
100
AcDbVertex
100
AcDbPolyFaceMeshVertex
 10
784.0
 20
84.00000000000004
 30
1155.0
 70
   192
  0
VERTEX
  5
7E
330
3F
100
AcDbEntity
  8
ｴｸｽﾃﾘｱ商品
 62
   250
370
    20
100
AcDbVertex
100
AcDbPolyFaceMeshVertex
 10
785.9101299543363
 20
84.16711471686575
 30
1155.0
 70
   192
  0
VERTEX
  5
7F
330
3F
100
AcDbEntity
  8
ｴｸｽﾃﾘｱ商品
 62
   250
370
    20
100
AcDbVertex
100
AcDbPolyFaceMeshVertex
 10
787.7622215765824
 20
84.66338117135506
 30
1155.0
 70
   192
  0
VERTEX
  5
80
330
3F
100
AcDbEntity
  8
ｴｸｽﾃﾘｱ商品
 62
   250
370
    20
100
AcDbVertex
100
AcDbPolyFaceMeshVertex
 10
789.5
 20
85.47372055837121
 30
1155.0
 70
   192
  0
VERTEX
  5
81
330
3F
100
AcDbEntity
  8
ｴｸｽﾃﾘｱ商品
 62
   250
370
    20
100
AcDbVertex
100
AcDbPolyFaceMeshVertex
 10
791.070663706552
 20
86.57351112569128
 30
1155.0
 70
   192
  0
VERTEX
  5
82
330
3F
100
AcDbEntity
  8
ｴｸｽﾃﾘｱ商品
 62
   250
370
    20
100
AcDbVertex
100
AcDbPolyFaceMeshVertex
 10
792.4264888743088
 20
87.92933629344812
 30
1155.0
 70
   192
  0
VERTEX
  5
83
330
3F
100
AcDbEntity
  8
ｴｸｽﾃﾘｱ商品
 62
   250
370
    20
100
AcDbVertex
100
AcDbPolyFaceMeshVertex
 10
793.526279441629
 20
89.50000000000004
 30
1155.0
 70
   192
  0
VERTEX
  5
84
330
3F
100
AcDbEntity
  8
ｴｸｽﾃﾘｱ商品
 62
   250
370
    20
100
AcDbVertex
100
AcDbPolyFaceMeshVertex
 10
794.336618828645
 20
91.23777842341768
 30
1155.0
 70
   192
  0
VERTEX
  5
85
330
3F
100
AcDbEntity
  8
ｴｸｽﾃﾘｱ商品
 62
   250
370
    20
100
AcDbVertex
100
AcDbPolyFaceMeshVertex
 10
794.8328852831344
 20
93.0898700456638
 30
1155.0
 70
   192
  0
VERTEX
  5
86
330
3F
100
AcDbEntity
  8
ｴｸｽﾃﾘｱ商品
 62
   250
370
    20
100
AcDbVertex
100
AcDbPolyFaceMeshVertex
 10
795.0
 20
95.00000000000003
 30
1155.0
 70
   192
  0
VERTEX
  5
87
330
3F
100
AcDbEntity
  8
ｴｸｽﾃﾘｱ商品
 62
   250
370
    20
100
AcDbVertex
100
AcDbPolyFaceMeshVertex
 10
794.8328852831344
 20
96.91012995433626
 30
1155.0
 70
   192
  0
VERTEX
  5
88
330
3F
100
AcDbEntity
  8
ｴｸｽﾃﾘｱ商品
 62
   250
370
    20
100
AcDbVertex
100
AcDbPolyFaceMeshVertex
 10
794.336618828645
 20
98.76222157658239
 30
1155.0
 70
   192
  0
VERTEX
  5
89
330
3F
100
AcDbEntity
  8
ｴｸｽﾃﾘｱ商品
 62
   250
370
    20
100
AcDbVertex
100
AcDbPolyFaceMeshVertex
 10
793.526279441629
 20
100.5
 30
1155.0
 70
   192
  0
VERTEX
  5
8A
330
3F
100
AcDbEntity
  8
ｴｸｽﾃﾘｱ商品
 62
   250
370
    20
100
AcDbVertex
100
AcDbPolyFaceMeshVertex
 10
792.4264888743088
 20
102.070663706552
 30
1155.0
 70
   192
  0
VERTEX
  5
8B
330
3F
100
AcDbEntity
  8
ｴｸｽﾃﾘｱ商品
 62
   250
370
    20
100
AcDbVertex
100
AcDbPolyFaceMeshVertex
 10
791.070663706552
 20
103.4264888743088
 30
1155.0
 70
   192
  0
VERTEX
  5
8C
330
3F
100
AcDbEntity
  8
ｴｸｽﾃﾘｱ商品
 62
   250
370
    20
100
AcDbVertex
100
AcDbPolyFaceMeshVertex
 10
789.5
 20
104.5262794416289
 30
1155.0
 70
   192
  0
VERTEX
  5
8D
330
3F
100
AcDbEntity
  8
ｴｸｽﾃﾘｱ商品
 62
   250
370
    20
100
AcDbVertex
100
AcDbPolyFaceMeshVertex
 10
787.7622215765824
 20
105.336618828645
 30
1155.0
 70
   192
  0
VERTEX
  5
8E
330
3F
100
AcDbEntity
  8
ｴｸｽﾃﾘｱ商品
 62
   250
370
    20
100
AcDbVertex
100
AcDbPolyFaceMeshVertex
 10
785.9101299543363
 20
105.8328852831343
 30
1155.0
 70
   192
  0
VERTEX
  5
8F
330
3F
100
AcDbEntity
  8
ｴｸｽﾃﾘｱ商品
 62
   250
370
    20
100
AcDbVertex
100
AcDbPolyFaceMeshVertex
 10
784.0
 20
106.0
 30
1155.0
 70
   192
  0
VERTEX
  5
90
330
3F
100
AcDbEntity
  8
ｴｸｽﾃﾘｱ商品
 62
   250
370
    20
100
AcDbVertex
100
AcDbPolyFaceMeshVertex
 10
782.0898700456638
 20
105.8328852831343
 30
1155.0
 70
   192
  0
VERTEX
  5
91
330
3F
100
AcDbEntity
  8
ｴｸｽﾃﾘｱ商品
 62
   250
370
    20
100
AcDbVertex
100
AcDbPolyFaceMeshVertex
 10
780.2377784234177
 20
105.336618828645
 30
1155.0
 70
   192
  0
VERTEX
  5
92
330
3F
100
AcDbEntity
  8
ｴｸｽﾃﾘｱ商品
 62
   250
370
    20
100
AcDbVertex
100
AcDbPolyFaceMeshVertex
 10
778.5000000000001
 20
104.5262794416289
 30
1155.0
 70
   192
  0
VERTEX
  5
93
330
3F
100
AcDbEntity
  8
ｴｸｽﾃﾘｱ商品
 62
   250
370
    20
100
AcDbVertex
100
AcDbPolyFaceMeshVertex
 10
776.929336293448
 20
103.4264888743088
 30
1155.0
 70
   192
  0
VERTEX
  5
94
330
3F
100
AcDbEntity
  8
ｴｸｽﾃﾘｱ商品
 62
   250
370
    20
100
AcDbVertex
100
AcDbPolyFaceMeshVertex
 10
775.5735111256913
 20
102.070663706552
 30
1155.0
 70
   192
  0
VERTEX
  5
95
330
3F
100
AcDbEntity
  8
ｴｸｽﾃﾘｱ商品
 62
   250
370
    20
100
AcDbVertex
100
AcDbPolyFaceMeshVertex
 10
774.4737205583712
 20
100.5
 30
1155.0
 70
   192
  0
VERTEX
  5
96
330
3F
100
AcDbEntity
  8
ｴｸｽﾃﾘｱ商品
 62
   250
370
    20
100
AcDbVertex
100
AcDbPolyFaceMeshVertex
 10
773.663381171355
 20
98.76222157658239
 30
1155.0
 70
   192
  0
VERTEX
  5
97
330
3F
100
AcDbEntity
  8
ｴｸｽﾃﾘｱ商品
 62
   250
370
    20
100
AcDbVertex
100
AcDbPolyFaceMeshVertex
 10
773.1671147168657
 20
96.91012995433626
 30
1155.0
 70
   192
  0
VERTEX
  5
98
330
3F
100
AcDbEntity
  8
ｴｸｽﾃﾘｱ商品
 62
   250
370
    20
100
AcDbVertex
100
AcDbPolyFaceMeshVertex
 10
773.0
 20
95.00000000000003
 30
1155.0
 70
   192
  0
VERTEX
  5
99
330
3F
100
AcDbEntity
  8
ｴｸｽﾃﾘｱ商品
 62
   250
370
    20
100
AcDbVertex
100
AcDbPolyFaceMeshVertex
 10
809.0
 20
103.5
 30
1114.0
 70
   192
  0
VERTEX
  5
9A
330
3F
100
AcDbEntity
  8
ｴｸｽﾃﾘｱ商品
 62
   250
370
    20
100
AcDbVertex
100
AcDbPolyFaceMeshVertex
 10
809.0
 20
103.5
 30
1152.0
 70
   192
  0
VERTEX
  5
9B
330
3F
100
AcDbEntity
  8
ｴｸｽﾃﾘｱ商品
 62
   250
370
    20
100
AcDbVertex
100
AcDbPolyFaceMeshVertex
 10
809.0
 20
86.50000000000003
 30
1152.0
 70
   192
  0
VERTEX
  5
9C
330
3F
100
AcDbEntity
  8
ｴｸｽﾃﾘｱ商品
 62
   250
370
    20
100
AcDbVertex
100
AcDbPolyFaceMeshVertex
 10
809.0
 20
86.50000000000003
 30
1114.0
 70
   192
  0
VERTEX
  5
9D
330
3F
100
AcDbEntity
  8
ｴｸｽﾃﾘｱ商品
 62
   250
370
    20
100
AcDbVertex
100
AcDbPolyFaceMeshVertex
 10
802.0
 20
86.50000000000003
 30
1152.0
 70
   192
  0
VERTEX
  5
9E
330
3F
100
AcDbEntity
  8
ｴｸｽﾃﾘｱ商品
 62
   250
370
    20
100
AcDbVertex
100
AcDbPolyFaceMeshVertex
 10
802.0
 20
86.50000000000003
 30
1114.0
 70
   192
  0
VERTEX
  5
9F
330
3F
100
AcDbEntity
  8
ｴｸｽﾃﾘｱ商品
 62
   250
370
    20
100
AcDbVertex
100
AcDbPolyFaceMeshVertex
 10
799.5
 20
89.00000000000003
 30
1152.0
 70
   192
  0
VERTEX
  5
A0
330
3F
100
AcDbEntity
  8
ｴｸｽﾃﾘｱ商品
 62
   250
370
    20
100
AcDbVertex
100
AcDbPolyFaceMeshVertex
 10
799.5
 20
89.00000000000003
 30
1114.0
 70
   192
  0
VERTEX
  5
A1
330
3F
100
AcDbEntity
  8
ｴｸｽﾃﾘｱ商品
 62
   250
370
    20
100
AcDbVertex
100
AcDbPolyFaceMeshVertex
 10
793.811
 20
89.00000000000003
 30
1152.0
 70
   192
  0
VERTEX
  5
A2
330
3F
100
AcDbEntity
  8
ｴｸｽﾃﾘｱ商品
 62
   250
370
    20
100
AcDbVertex
100
AcDbPolyFaceMeshVertex
 10
793.811
 20
89.00000000000003
 30
1114.0
 70
   192
  0
VERTEX
  5
A3
330
3F
100
AcDbEntity
  8
ｴｸｽﾃﾘｱ商品
 62
   250
370
    20
100
AcDbVertex
100
AcDbPolyFaceMeshVertex
 10
793.701
 20
101.046
 30
1152.0
 70
   192
  0
VERTEX
  5
A4
330
3F
100
AcDbEntity
  8
ｴｸｽﾃﾘｱ商品
 62
   250
370
    20
100
AcDbVertex
100
AcDbPolyFaceMeshVertex
 10
793.701
 20
101.046
 30
1114.0
 70
   192
  0
VERTEX
  5
A5
330
3F
100
AcDbEntity
  8
ｴｸｽﾃﾘｱ商品
 62
   250
370
    20
100
AcDbVertex
100
AcDbPolyFaceMeshVertex
 10
799.5
 20
101.0
 30
1152.0
 70
   192
  0
VERTEX
  5
A6
330
3F
100
AcDbEntity
  8
ｴｸｽﾃﾘｱ商品
 62
   250
370
    20
100
AcDbVertex
100
AcDbPolyFaceMeshVertex
 10
799.5
 20
101.0
 30
1114.0
 70
   192
  0
VERTEX
  5
A7
330
3F
100
AcDbEntity
  8
ｴｸｽﾃﾘｱ商品
 62
   250
370
    20
100
AcDbVertex
100
AcDbPolyFaceMeshVertex
 10
802.0
 20
103.5
 30
1152.0
 70
   192
  0
VERTEX
  5
A8
330
3F
100
AcDbEntity
  8
ｴｸｽﾃﾘｱ商品
 62
   250
370
    20
100
AcDbVertex
100
AcDbPolyFaceMeshVertex
 10
802.0
 20
103.5
 30
1114.0
 70
   192
  0
VERTEX
  5
A9
330
3F
100
AcDbEntity
  8
ｴｸｽﾃﾘｱ商品
 62
   250
370
    20
100
AcDbVertex
100
AcDbPolyFaceMeshVertex
 10
874.0000000000001
 20
75.00000000000003
 30
1177.0
 70
   192
  0
VERTEX
  5
AA
330
3F
100
AcDbEntity
  8
ｴｸｽﾃﾘｱ商品
 62
   250
370
    20
100
AcDbVertex
100
AcDbPolyFaceMeshVertex
 10
807.0
 20
75.00000000000003
 30
1177.0
 70
   192
  0
VERTEX
  5
AB
330
3F
100
AcDbEntity
  8
ｴｸｽﾃﾘｱ商品
 62
   250
370
    20
100
AcDbVertex
100
AcDbPolyFaceMeshVertex
 10
807.0
 20
75.00000000000001
 30
1089.0
 70
   192
  0
VERTEX
  5
AC
330
3F
100
AcDbEntity
  8
ｴｸｽﾃﾘｱ商品
 62
   250
370
    20
100
AcDbVertex
100
AcDbPolyFaceMeshVertex
 10
874.0000000000001
 20
75.00000000000003
 30
1089.0
 70
   192
  0
VERTEX
  5
AD
330
3F
100
AcDbEntity
  8
ｴｸｽﾃﾘｱ商品
 62
   250
370
    20
100
AcDbVertex
100
AcDbPolyFaceMeshVertex
 10
807.0
 20
82.66500000000002
 30
1089.0
 70
   192
  0
VERTEX
  5
AE
330
3F
100
AcDbEntity
  8
ｴｸｽﾃﾘｱ商品
 62
   250
370
    20
100
AcDbVertex
100
AcDbPolyFaceMeshVertex
 10
874.0000000000001
 20
82.66500000000002
 30
1089.0
 70
   192
  0
VERTEX
  5
AF
330
3F
100
AcDbEntity
  8
ｴｸｽﾃﾘｱ商品
 62
   250
370
    20
100
AcDbVertex
100
AcDbPolyFaceMeshVertex
 10
807.0
 20
102.638
 30
1095.74
 70
   192
  0
VERTEX
  5
B0
330
3F
100
AcDbEntity
  8
ｴｸｽﾃﾘｱ商品
 62
   250
370
    20
100
AcDbVertex
100
AcDbPolyFaceMeshVertex
 10
874.0000000000001
 20
102.638
 30
1095.74
 70
   192
  0
VERTEX
  5
B1
330
3F
100
AcDbEntity
  8
ｴｸｽﾃﾘｱ商品
 62
   250
370
    20
100
AcDbVertex
100
AcDbPolyFaceMeshVertex
 10
807.0
 20
109.138
 30
1098.109
 70
   192
  0
VERTEX
  5
B2
330
3F
100
AcDbEntity
  8
ｴｸｽﾃﾘｱ商品
 62
   250
370
    20
100
AcDbVertex
100
AcDbPolyFaceMeshVertex
 10
874.0000000000001
 20
109.138
 30
1098.109
 70
   192
  0
VERTEX
  5
B3
330
3F
100
AcDbEntity
  8
ｴｸｽﾃﾘｱ商品
 62
   250
370
    20
100
AcDbVertex
100
AcDbPolyFaceMeshVertex
 10
807.0
 20
109.931
 30
1099.258
 70
   192
  0
VERTEX
  5
B4
330
3F
100
AcDbEntity
  8
ｴｸｽﾃﾘｱ商品
 62
   250
370
    20
100
AcDbVertex
100
AcDbPolyFaceMeshVertex
 10
874.0000000000001
 20
109.931
 30
1099.258
 70
   192
  0
VERTEX
  5
B5
330
3F
100
AcDbEntity
  8
ｴｸｽﾃﾘｱ商品
 62
   250
370
    20
100
AcDbVertex
100
AcDbPolyFaceMeshVertex
 10
807.0
 20
115.586
 30
1112.681
 70
   192
  0
VERTEX
  5
B6
330
3F
100
AcDbEntity
  8
ｴｸｽﾃﾘｱ商品
 62
   250
370
    20
100
AcDbVertex
100
AcDbPolyFaceMeshVertex
 10
874.0000000000001
 20
115.586
 30
1112.681
 70
   192
  0
VERTEX
  5
B7
330
3F
100
AcDbEntity
  8
ｴｸｽﾃﾘｱ商品
 62
   250
370
    20
100
AcDbVertex
100
AcDbPolyFaceMeshVertex
 10
807.0
 20
117.455
 30
1120.388
 70
   192
  0
VERTEX
  5
B8
330
3F
100
AcDbEntity
  8
ｴｸｽﾃﾘｱ商品
 62
   250
370
    20
100
AcDbVertex
100
AcDbPolyFaceMeshVertex
 10
874.0000000000001
 20
117.455
 30
1120.388
 70
   192
  0
VERTEX
  5
B9
330
3F
100
AcDbEntity
  8
ｴｸｽﾃﾘｱ商品
 62
   250
370
    20
100
AcDbVertex
100
AcDbPolyFaceMeshVertex
 10
807.0
 20
118.485
 30
1129.842
 70
   192
  0
VERTEX
  5
BA
330
3F
100
AcDbEntity
  8
ｴｸｽﾃﾘｱ商品
 62
   250
370
    20
100
AcDbVertex
100
AcDbPolyFaceMeshVertex
 10
874.0000000000001
 20
118.485
 30
1129.842
 70
   192
  0
VERTEX
  5
BB
330
3F
100
AcDbEntity
  8
ｴｸｽﾃﾘｱ商品
 62
   250
370
    20
100
AcDbVertex
100
AcDbPolyFaceMeshVertex
 10
807.0
 20
118.343
 30
1138.219
 70
   192
  0
VERTEX
  5
BC
330
3F
100
AcDbEntity
  8
ｴｸｽﾃﾘｱ商品
 62
   250
370
    20
100
AcDbVertex
100
AcDbPolyFaceMeshVertex
 10
874.0000000000001
 20
118.343
 30
1138.219
 70
   192
  0
VERTEX
  5
BD
330
3F
100
AcDbEntity
  8
ｴｸｽﾃﾘｱ商品
 62
   250
370
    20
100
AcDbVertex
100
AcDbPolyFaceMeshVertex
 10
807.0
 20
117.856
 30
1143.179
 70
   192
  0
VERTEX
  5
BE
330
3F
100
AcDbEntity
  8
ｴｸｽﾃﾘｱ商品
 62
   250
370
    20
100
AcDbVertex
100
AcDbPolyFaceMeshVertex
 10
874.0000000000001
 20
117.856
 30
1143.179
 70
   192
  0
VERTEX
  5
BF
330
3F
100
AcDbEntity
  8
ｴｸｽﾃﾘｱ商品
 62
   250
370
    20
100
AcDbVertex
100
AcDbPolyFaceMeshVertex
 10
807.0
 20
117.011
 30
1147.83
 70
   192
  0
VERTEX
  5
C0
330
3F
100
AcDbEntity
  8
ｴｸｽﾃﾘｱ商品
 62
   250
370
    20
100
AcDbVertex
100
AcDbPolyFaceMeshVertex
 10
874.0000000000001
 20
117.011
 30
1147.83
 70
   192
  0
VERTEX
  5
C1
330
3F
100
AcDbEntity
  8
ｴｸｽﾃﾘｱ商品
 62
   250
370
    20
100
AcDbVertex
100
AcDbPolyFaceMeshVertex
 10
807.0
 20
115.314
 30
1154.195
 70
   192
  0
VERTEX
  5
C2
330
3F
100
AcDbEntity
  8
ｴｸｽﾃﾘｱ商品
 62
   250
370
    20
100
AcDbVertex
100
AcDbPolyFaceMeshVertex
 10
874.0000000000001
 20
115.314
 30
1154.195
 70
   192
  0
VERTEX
  5
C3
330
3F
100
AcDbEntity
  8
ｴｸｽﾃﾘｱ商品
 62
   250
370
    20
100
AcDbVertex
100
AcDbPolyFaceMeshVertex
 10
807.0
 20
113.649
 30
1158.858
 70
   192
  0
VERTEX
  5
C4
330
3F
100
AcDbEntity
  8
ｴｸｽﾃﾘｱ商品
 62
   250
370
    20
100
AcDbVertex
100
AcDbPolyFaceMeshVertex
 10
874.0000000000001
 20
113.649
 30
1158.858
 70
   192
  0
VERTEX
  5
C5
330
3F
100
AcDbEntity
  8
ｴｸｽﾃﾘｱ商品
 62
   250
370
    20
100
AcDbVertex
100
AcDbPolyFaceMeshVertex
 10
807.0
 20
111.259
 30
1164.207
 70
   192
  0
VERTEX
  5
C6
330
3F
100
AcDbEntity
  8
ｴｸｽﾃﾘｱ商品
 62
   250
370
    20
100
AcDbVertex
100
AcDbPolyFaceMeshVertex
 10
874.0000000000001
 20
111.259
 30
1164.207
 70
   192
  0
VERTEX
  5
C7
330
3F
100
AcDbEntity
  8
ｴｸｽﾃﾘｱ商品
 62
   250
370
    20
100
AcDbVertex
100
AcDbPolyFaceMeshVertex
 10
807.0
 20
109.018
 30
1167.983
 70
   192
  0
VERTEX
  5
C8
330
3F
100
AcDbEntity
  8
ｴｸｽﾃﾘｱ商品
 62
   250
370
    20
100
AcDbVertex
100
AcDbPolyFaceMeshVertex
 10
874.0000000000001
 20
109.018
 30
1167.983
 70
   192
  0
VERTEX
  5
C9
330
3F
100
AcDbEntity
  8
ｴｸｽﾃﾘｱ商品
 62
   250
370
    20
100
AcDbVertex
100
AcDbPolyFaceMeshVertex
 10
807.0
 20
82.66500000000003
 30
1177.0
 70
   192
  0
VERTEX
  5
CA
330
3F
100
AcDbEntity
  8
ｴｸｽﾃﾘｱ商品
 62
   250
370
    20
100
AcDbVertex
100
AcDbPolyFaceMeshVertex
 10
874.0000000000001
 20
82.66500000000003
 30
1177.0
 70
   192
  0
VERTEX
  5
CB
330
3F
100
AcDbEntity
  8
ｴｸｽﾃﾘｱ商品
 62
   250
370
    20
100
AcDbVertex
100
AcDbPolyFaceMeshVertex
 10
773.1671147168657
 20
93.0898700456638
 30
114.0
 70
   192
  0
VERTEX
  5
CC
330
3F
100
AcDbEntity
  8
ｴｸｽﾃﾘｱ商品
 62
   250
370
    20
100
AcDbVertex
100
AcDbPolyFaceMeshVertex
 10
773.0
 20
95.00000000000003
 30
114.0
 70
   192
  0
VERTEX
  5
CD
330
3F
100
AcDbEntity
  8
ｴｸｽﾃﾘｱ商品
 62
   250
370
    20
100
AcDbVertex
100
AcDbPolyFaceMeshVertex
 10
773.1671147168657
 20
96.91012995433626
 30
114.0
 70
   192
  0
VERTEX
  5
CE
330
3F
100
AcDbEntity
  8
ｴｸｽﾃﾘｱ商品
 62
   250
370
    20
100
AcDbVertex
100
AcDbPolyFaceMeshVertex
 10
773.663381171355
 20
98.76222157658239
 30
114.0
 70
   192
  0
VERTEX
  5
CF
330
3F
100
AcDbEntity
  8
ｴｸｽﾃﾘｱ商品
 62
   250
370
    20
100
AcDbVertex
100
AcDbPolyFaceMeshVertex
 10
774.4737205583712
 20
100.5
 30
114.0
 70
   192
  0
VERTEX
  5
D0
330
3F
100
AcDbEntity
  8
ｴｸｽﾃﾘｱ商品
 62
   250
370
    20
100
AcDbVertex
100
AcDbPolyFaceMeshVertex
 10
775.5735111256913
 20
102.070663706552
 30
114.0
 70
   192
  0
VERTEX
  5
D1
330
3F
100
AcDbEntity
  8
ｴｸｽﾃﾘｱ商品
 62
   250
370
    20
100
AcDbVertex
100
AcDbPolyFaceMeshVertex
 10
776.929336293448
 20
103.4264888743088
 30
114.0
 70
   192
  0
VERTEX
  5
D2
330
3F
100
AcDbEntity
  8
ｴｸｽﾃﾘｱ商品
 62
   250
370
    20
100
AcDbVertex
100
AcDbPolyFaceMeshVertex
 10
778.5000000000001
 20
104.5262794416289
 30
114.0
 70
   192
  0
VERTEX
  5
D3
330
3F
100
AcDbEntity
  8
ｴｸｽﾃﾘｱ商品
 62
   250
370
    20
100
AcDbVertex
100
AcDbPolyFaceMeshVertex
 10
780.2377784234177
 20
105.336618828645
 30
114.0
 70
   192
  0
VERTEX
  5
D4
330
3F
100
AcDbEntity
  8
ｴｸｽﾃﾘｱ商品
 62
   250
370
    20
100
AcDbVertex
100
AcDbPolyFaceMeshVertex
 10
782.0898700456638
 20
105.8328852831343
 30
114.0
 70
   192
  0
VERTEX
  5
D5
330
3F
100
AcDbEntity
  8
ｴｸｽﾃﾘｱ商品
 62
   250
370
    20
100
AcDbVertex
100
AcDbPolyFaceMeshVertex
 10
784.0
 20
106.0
 30
114.0
 70
   192
  0
VERTEX
  5
D6
330
3F
100
AcDbEntity
  8
ｴｸｽﾃﾘｱ商品
 62
   250
370
    20
100
AcDbVertex
100
AcDbPolyFaceMeshVertex
 10
785.9101299543363
 20
105.8328852831343
 30
114.0
 70
   192
  0
VERTEX
  5
D7
330
3F
100
AcDbEntity
  8
ｴｸｽﾃﾘｱ商品
 62
   250
370
    20
100
AcDbVertex
100
AcDbPolyFaceMeshVertex
 10
787.7622215765824
 20
105.336618828645
 30
114.0
 70
   192
  0
VERTEX
  5
D8
330
3F
100
AcDbEntity
  8
ｴｸｽﾃﾘｱ商品
 62
   250
370
    20
100
AcDbVertex
100
AcDbPolyFaceMeshVertex
 10
789.5
 20
104.5262794416289
 30
114.0
 70
   192
  0
VERTEX
  5
D9
330
3F
100
AcDbEntity
  8
ｴｸｽﾃﾘｱ商品
 62
   250
370
    20
100
AcDbVertex
100
AcDbPolyFaceMeshVertex
 10
791.070663706552
 20
103.4264888743088
 30
114.0
 70
   192
  0
VERTEX
  5
DA
330
3F
100
AcDbEntity
  8
ｴｸｽﾃﾘｱ商品
 62
   250
370
    20
100
AcDbVertex
100
AcDbPolyFaceMeshVertex
 10
792.4264888743088
 20
102.070663706552
 30
114.0
 70
   192
  0
VERTEX
  5
DB
330
3F
100
AcDbEntity
  8
ｴｸｽﾃﾘｱ商品
 62
   250
370
    20
100
AcDbVertex
100
AcDbPolyFaceMeshVertex
 10
793.526279441629
 20
100.5
 30
114.0
 70
   192
  0
VERTEX
  5
DC
330
3F
100
AcDbEntity
  8
ｴｸｽﾃﾘｱ商品
 62
   250
370
    20
100
AcDbVertex
100
AcDbPolyFaceMeshVertex
 10
794.336618828645
 20
98.76222157658239
 30
114.0
 70
   192
  0
VERTEX
  5
DD
330
3F
100
AcDbEntity
  8
ｴｸｽﾃﾘｱ商品
 62
   250
370
    20
100
AcDbVertex
100
AcDbPolyFaceMeshVertex
 10
794.8328852831344
 20
96.91012995433626
 30
114.0
 70
   192
  0
VERTEX
  5
DE
330
3F
100
AcDbEntity
  8
ｴｸｽﾃﾘｱ商品
 62
   250
370
    20
100
AcDbVertex
100
AcDbPolyFaceMeshVertex
 10
795.0
 20
95.00000000000003
 30
114.0
 70
   192
  0
VERTEX
  5
DF
330
3F
100
AcDbEntity
  8
ｴｸｽﾃﾘｱ商品
 62
   250
370
    20
100
AcDbVertex
100
AcDbPolyFaceMeshVertex
 10
794.8328852831344
 20
93.0898700456638
 30
114.0
 70
   192
  0
VERTEX
  5
E0
330
3F
100
AcDbEntity
  8
ｴｸｽﾃﾘｱ商品
 62
   250
370
    20
100
AcDbVertex
100
AcDbPolyFaceMeshVertex
 10
794.336618828645
 20
91.23777842341768
 30
114.0
 70
   192
  0
VERTEX
  5
E1
330
3F
100
AcDbEntity
  8
ｴｸｽﾃﾘｱ商品
 62
   250
370
    20
100
AcDbVertex
100
AcDbPolyFaceMeshVertex
 10
793.526279441629
 20
89.50000000000004
 30
114.0
 70
   192
  0
VERTEX
  5
E2
330
3F
100
AcDbEntity
  8
ｴｸｽﾃﾘｱ商品
 62
   250
370
    20
100
AcDbVertex
100
AcDbPolyFaceMeshVertex
 10
792.4264888743088
 20
87.92933629344812
 30
114.0
 70
   192
  0
VERTEX
  5
E3
330
3F
100
AcDbEntity
  8
ｴｸｽﾃﾘｱ商品
 62
   250
370
    20
100
AcDbVertex
100
AcDbPolyFaceMeshVertex
 10
791.070663706552
 20
86.57351112569128
 30
114.0
 70
   192
  0
VERTEX
  5
E4
330
3F
100
AcDbEntity
  8
ｴｸｽﾃﾘｱ商品
 62
   250
370
    20
100
AcDbVertex
100
AcDbPolyFaceMeshVertex
 10
789.5
 20
85.47372055837121
 30
114.0
 70
   192
  0
VERTEX
  5
E5
330
3F
100
AcDbEntity
  8
ｴｸｽﾃﾘｱ商品
 62
   250
370
    20
100
AcDbVertex
100
AcDbPolyFaceMeshVertex
 10
787.7622215765824
 20
84.66338117135506
 30
114.0
 70
   192
  0
VERTEX
  5
E6
330
3F
100
AcDbEntity
  8
ｴｸｽﾃﾘｱ商品
 62
   250
370
    20
100
AcDbVertex
100
AcDbPolyFaceMeshVertex
 10
785.9101299543363
 20
84.16711471686575
 30
114.0
 70
   192
  0
VERTEX
  5
E7
330
3F
100
AcDbEntity
  8
ｴｸｽﾃﾘｱ商品
 62
   250
370
    20
100
AcDbVertex
100
AcDbPolyFaceMeshVertex
 10
784.0
 20
84.00000000000004
 30
114.0
 70
   192
  0
VERTEX
  5
E8
330
3F
100
AcDbEntity
  8
ｴｸｽﾃﾘｱ商品
 62
   250
370
    20
100
AcDbVertex
100
AcDbPolyFaceMeshVertex
 10
782.0898700456638
 20
84.16711471686575
 30
114.0
 70
   192
  0
VERTEX
  5
E9
330
3F
100
AcDbEntity
  8
ｴｸｽﾃﾘｱ商品
 62
   250
370
    20
100
AcDbVertex
100
AcDbPolyFaceMeshVertex
 10
780.2377784234177
 20
84.66338117135506
 30
114.0
 70
   192
  0
VERTEX
  5
EA
330
3F
100
AcDbEntity
  8
ｴｸｽﾃﾘｱ商品
 62
   250
370
    20
100
AcDbVertex
100
AcDbPolyFaceMeshVertex
 10
778.5000000000001
 20
85.47372055837121
 30
114.0
 70
   192
  0
VERTEX
  5
EB
330
3F
100
AcDbEntity
  8
ｴｸｽﾃﾘｱ商品
 62
   250
370
    20
100
AcDbVertex
100
AcDbPolyFaceMeshVertex
 10
776.929336293448
 20
86.57351112569128
 30
114.0
 70
   192
  0
VERTEX
  5
EC
330
3F
100
AcDbEntity
  8
ｴｸｽﾃﾘｱ商品
 62
   250
370
    20
100
AcDbVertex
100
AcDbPolyFaceMeshVertex
 10
775.5735111256913
 20
87.92933629344812
 30
114.0
 70
   192
  0
VERTEX
  5
ED
330
3F
100
AcDbEntity
  8
ｴｸｽﾃﾘｱ商品
 62
   250
370
    20
100
AcDbVertex
100
AcDbPolyFaceMeshVertex
 10
774.4737205583713
 20
89.50000000000004
 30
114.0
 70
   192
  0
VERTEX
  5
EE
330
3F
100
AcDbEntity
  8
ｴｸｽﾃﾘｱ商品
 62
   250
370
    20
100
AcDbVertex
100
AcDbPolyFaceMeshVertex
 10
773.663381171355
 20
91.23777842341768
 30
114.0
 70
   192
  0
VERTEX
  5
EF
330
3F
100
AcDbEntity
  8
ｴｸｽﾃﾘｱ商品
 62
   250
370
    20
100
AcDbVertex
100
AcDbPolyFaceMeshVertex
 10
773.1671147168657
 20
93.0898700456638
 30
155.0
 70
   192
  0
VERTEX
  5
F0
330
3F
100
AcDbEntity
  8
ｴｸｽﾃﾘｱ商品
 62
   250
370
    20
100
AcDbVertex
100
AcDbPolyFaceMeshVertex
 10
773.663381171355
 20
91.23777842341768
 30
155.0
 70
   192
  0
VERTEX
  5
F1
330
3F
100
AcDbEntity
  8
ｴｸｽﾃﾘｱ商品
 62
   250
370
    20
100
AcDbVertex
100
AcDbPolyFaceMeshVertex
 10
774.4737205583713
 20
89.50000000000004
 30
155.0
 70
   192
  0
VERTEX
  5
F2
330
3F
100
AcDbEntity
  8
ｴｸｽﾃﾘｱ商品
 62
   250
370
    20
100
AcDbVertex
100
AcDbPolyFaceMeshVertex
 10
775.5735111256913
 20
87.92933629344812
 30
155.0
 70
   192
  0
VERTEX
  5
F3
330
3F
100
AcDbEntity
  8
ｴｸｽﾃﾘｱ商品
 62
   250
370
    20
100
AcDbVertex
100
AcDbPolyFaceMeshVertex
 10
776.929336293448
 20
86.57351112569128
 30
155.0
 70
   192
  0
VERTEX
  5
F4
330
3F
100
AcDbEntity
  8
ｴｸｽﾃﾘｱ商品
 62
   250
370
    20
100
AcDbVertex
100
AcDbPolyFaceMeshVertex
 10
778.5000000000001
 20
85.47372055837121
 30
155.0
 70
   192
  0
VERTEX
  5
F5
330
3F
100
AcDbEntity
  8
ｴｸｽﾃﾘｱ商品
 62
   250
370
    20
100
AcDbVertex
100
AcDbPolyFaceMeshVertex
 10
780.2377784234177
 20
84.66338117135506
 30
155.0
 70
   192
  0
VERTEX
  5
F6
330
3F
100
AcDbEntity
  8
ｴｸｽﾃﾘｱ商品
 62
   250
370
    20
100
AcDbVertex
100
AcDbPolyFaceMeshVertex
 10
782.0898700456638
 20
84.16711471686575
 30
155.0
 70
   192
  0
VERTEX
  5
F7
330
3F
100
AcDbEntity
  8
ｴｸｽﾃﾘｱ商品
 62
   250
370
    20
100
AcDbVertex
100
AcDbPolyFaceMeshVertex
 10
784.0
 20
84.00000000000004
 30
155.0
 70
   192
  0
VERTEX
  5
F8
330
3F
100
AcDbEntity
  8
ｴｸｽﾃﾘｱ商品
 62
   250
370
    20
100
AcDbVertex
100
AcDbPolyFaceMeshVertex
 10
785.9101299543363
 20
84.16711471686575
 30
155.0
 70
   192
  0
VERTEX
  5
F9
330
3F
100
AcDbEntity
  8
ｴｸｽﾃﾘｱ商品
 62
   250
370
    20
100
AcDbVertex
100
AcDbPolyFaceMeshVertex
 10
787.7622215765824
 20
84.66338117135506
 30
155.0
 70
   192
  0
VERTEX
  5
FA
330
3F
100
AcDbEntity
  8
ｴｸｽﾃﾘｱ商品
 62
   250
370
    20
100
AcDbVertex
100
AcDbPolyFaceMeshVertex
 10
789.5
 20
85.47372055837121
 30
155.0
 70
   192
  0
VERTEX
  5
FB
330
3F
100
AcDbEntity
  8
ｴｸｽﾃﾘｱ商品
 62
   250
370
    20
100
AcDbVertex
100
AcDbPolyFaceMeshVertex
 10
791.070663706552
 20
86.57351112569128
 30
155.0
 70
   192
  0
VERTEX
  5
FC
330
3F
100
AcDbEntity
  8
ｴｸｽﾃﾘｱ商品
 62
   250
370
    20
100
AcDbVertex
100
AcDbPolyFaceMeshVertex
 10
792.4264888743088
 20
87.92933629344812
 30
155.0
 70
   192
  0
VERTEX
  5
FD
330
3F
100
AcDbEntity
  8
ｴｸｽﾃﾘｱ商品
 62
   250
370
    20
100
AcDbVertex
100
AcDbPolyFaceMeshVertex
 10
793.526279441629
 20
89.50000000000004
 30
155.0
 70
   192
  0
VERTEX
  5
FE
330
3F
100
AcDbEntity
  8
ｴｸｽﾃﾘｱ商品
 62
   250
370
    20
100
AcDbVertex
100
AcDbPolyFaceMeshVertex
 10
794.336618828645
 20
91.23777842341768
 30
155.0
 70
   192
  0
VERTEX
  5
FF
330
3F
100
AcDbEntity
  8
ｴｸｽﾃﾘｱ商品
 62
   250
370
    20
100
AcDbVertex
100
AcDbPolyFaceMeshVertex
 10
794.8328852831344
 20
93.0898700456638
 30
155.0
 70
   192
  0
VERTEX
  5
100
330
3F
100
AcDbEntity
  8
ｴｸｽﾃﾘｱ商品
 62
   250
370
    20
100
AcDbVertex
100
AcDbPolyFaceMeshVertex
 10
795.0
 20
95.00000000000003
 30
155.0
 70
   192
  0
VERTEX
  5
101
330
3F
100
AcDbEntity
  8
ｴｸｽﾃﾘｱ商品
 62
   250
370
    20
100
AcDbVertex
100
AcDbPolyFaceMeshVertex
 10
794.8328852831344
 20
96.91012995433626
 30
155.0
 70
   192
  0
VERTEX
  5
102
330
3F
100
AcDbEntity
  8
ｴｸｽﾃﾘｱ商品
 62
   250
370
    20
100
AcDbVertex
100
AcDbPolyFaceMeshVertex
 10
794.336618828645
 20
98.76222157658239
 30
155.0
 70
   192
  0
VERTEX
  5
103
330
3F
100
AcDbEntity
  8
ｴｸｽﾃﾘｱ商品
 62
   250
370
    20
100
AcDbVertex
100
AcDbPolyFaceMeshVertex
 10
793.526279441629
 20
100.5
 30
155.0
 70
   192
  0
VERTEX
  5
104
330
3F
100
AcDbEntity
  8
ｴｸｽﾃﾘｱ商品
 62
   250
370
    20
100
AcDbVertex
100
AcDbPolyFaceMeshVertex
 10
792.4264888743088
 20
102.070663706552
 30
155.0
 70
   192
  0
VERTEX
  5
105
330
3F
100
AcDbEntity
  8
ｴｸｽﾃﾘｱ商品
 62
   250
370
    20
100
AcDbVertex
100
AcDbPolyFaceMeshVertex
 10
791.070663706552
 20
103.4264888743088
 30
155.0
 70
   192
  0
VERTEX
  5
106
330
3F
100
AcDbEntity
  8
ｴｸｽﾃﾘｱ商品
 62
   250
370
    20
100
AcDbVertex
100
AcDbPolyFaceMeshVertex
 10
789.5
 20
104.5262794416289
 30
155.0
 70
   192
  0
VERTEX
  5
107
330
3F
100
AcDbEntity
  8
ｴｸｽﾃﾘｱ商品
 62
   250
370
    20
100
AcDbVertex
100
AcDbPolyFaceMeshVertex
 10
787.7622215765824
 20
105.336618828645
 30
155.0
 70
   192
  0
VERTEX
  5
108
330
3F
100
AcDbEntity
  8
ｴｸｽﾃﾘｱ商品
 62
   250
370
    20
100
AcDbVertex
100
AcDbPolyFaceMeshVertex
 10
785.9101299543363
 20
105.8328852831343
 30
155.0
 70
   192
  0
VERTEX
  5
109
330
3F
100
AcDbEntity
  8
ｴｸｽﾃﾘｱ商品
 62
   250
370
    20
100
AcDbVertex
100
AcDbPolyFaceMeshVertex
 10
784.0
 20
106.0
 30
155.0
 70
   192
  0
VERTEX
  5
10A
330
3F
100
AcDbEntity
  8
ｴｸｽﾃﾘｱ商品
 62
   250
370
    20
100
AcDbVertex
100
AcDbPolyFaceMeshVertex
 10
782.0898700456638
 20
105.8328852831343
 30
155.0
 70
   192
  0
VERTEX
  5
10B
330
3F
100
AcDbEntity
  8
ｴｸｽﾃﾘｱ商品
 62
   250
370
    20
100
AcDbVertex
100
AcDbPolyFaceMeshVertex
 10
780.2377784234177
 20
105.336618828645
 30
155.0
 70
   192
  0
VERTEX
  5
10C
330
3F
100
AcDbEntity
  8
ｴｸｽﾃﾘｱ商品
 62
   250
370
    20
100
AcDbVertex
100
AcDbPolyFaceMeshVertex
 10
778.5000000000001
 20
104.5262794416289
 30
155.0
 70
   192
  0
VERTEX
  5
10D
330
3F
100
AcDbEntity
  8
ｴｸｽﾃﾘｱ商品
 62
   250
370
    20
100
AcDbVertex
100
AcDbPolyFaceMeshVertex
 10
776.929336293448
 20
103.4264888743088
 30
155.0
 70
   192
  0
VERTEX
  5
10E
330
3F
100
AcDbEntity
  8
ｴｸｽﾃﾘｱ商品
 62
   250
370
    20
100
AcDbVertex
100
AcDbPolyFaceMeshVertex
 10
775.5735111256913
 20
102.070663706552
 30
155.0
 70
   192
  0
VERTEX
  5
10F
330
3F
100
AcDbEntity
  8
ｴｸｽﾃﾘｱ商品
 62
   250
370
    20
100
AcDbVertex
100
AcDbPolyFaceMeshVertex
 10
774.4737205583712
 20
100.5
 30
155.0
 70
   192
  0
VERTEX
  5
110
330
3F
100
AcDbEntity
  8
ｴｸｽﾃﾘｱ商品
 62
   250
370
    20
100
AcDbVertex
100
AcDbPolyFaceMeshVertex
 10
773.663381171355
 20
98.76222157658239
 30
155.0
 70
   192
  0
VERTEX
  5
111
330
3F
100
AcDbEntity
  8
ｴｸｽﾃﾘｱ商品
 62
   250
370
    20
100
AcDbVertex
100
AcDbPolyFaceMeshVertex
 10
773.1671147168657
 20
96.91012995433626
 30
155.0
 70
   192
  0
VERTEX
  5
112
330
3F
100
AcDbEntity
  8
ｴｸｽﾃﾘｱ商品
 62
   250
370
    20
100
AcDbVertex
100
AcDbPolyFaceMeshVertex
 10
773.0
 20
95.00000000000003
 30
155.0
 70
   192
  0
VERTEX
  5
113
330
3F
100
AcDbEntity
  8
ｴｸｽﾃﾘｱ商品
 62
   250
370
    20
100
AcDbVertex
100
AcDbPolyFaceMeshVertex
 10
809.0
 20
103.5
 30
114.0
 70
   192
  0
VERTEX
  5
114
330
3F
100
AcDbEntity
  8
ｴｸｽﾃﾘｱ商品
 62
   250
370
    20
100
AcDbVertex
100
AcDbPolyFaceMeshVertex
 10
809.0
 20
103.5
 30
152.0
 70
   192
  0
VERTEX
  5
115
330
3F
100
AcDbEntity
  8
ｴｸｽﾃﾘｱ商品
 62
   250
370
    20
100
AcDbVertex
100
AcDbPolyFaceMeshVertex
 10
809.0
 20
86.50000000000003
 30
152.0
 70
   192
  0
VERTEX
  5
116
330
3F
100
AcDbEntity
  8
ｴｸｽﾃﾘｱ商品
 62
   250
370
    20
100
AcDbVertex
100
AcDbPolyFaceMeshVertex
 10
809.0
 20
86.50000000000003
 30
114.0
 70
   192
  0
VERTEX
  5
117
330
3F
100
AcDbEntity
  8
ｴｸｽﾃﾘｱ商品
 62
   250
370
    20
100
AcDbVertex
100
AcDbPolyFaceMeshVertex
 10
802.0
 20
86.50000000000003
 30
152.0
 70
   192
  0
VERTEX
  5
118
330
3F
100
AcDbEntity
  8
ｴｸｽﾃﾘｱ商品
 62
   250
370
    20
100
AcDbVertex
100
AcDbPolyFaceMeshVertex
 10
802.0
 20
86.50000000000003
 30
114.0
 70
   192
  0
VERTEX
  5
119
330
3F
100
AcDbEntity
  8
ｴｸｽﾃﾘｱ商品
 62
   250
370
    20
100
AcDbVertex
100
AcDbPolyFaceMeshVertex
 10
799.5
 20
89.00000000000003
 30
152.0
 70
   192
  0
VERTEX
  5
11A
330
3F
100
AcDbEntity
  8
ｴｸｽﾃﾘｱ商品
 62
   250
370
    20
100
AcDbVertex
100
AcDbPolyFaceMeshVertex
 10
799.5
 20
89.00000000000003
 30
114.0
 70
   192
  0
VERTEX
  5
11B
330
3F
100
AcDbEntity
  8
ｴｸｽﾃﾘｱ商品
 62
   250
370
    20
100
AcDbVertex
100
AcDbPolyFaceMeshVertex
 10
793.811
 20
89.00000000000003
 30
152.0
 70
   192
  0
VERTEX
  5
11C
330
3F
100
AcDbEntity
  8
ｴｸｽﾃﾘｱ商品
 62
   250
370
    20
100
AcDbVertex
100
AcDbPolyFaceMeshVertex
 10
793.811
 20
89.00000000000003
 30
114.0
 70
   192
  0
VERTEX
  5
11D
330
3F
100
AcDbEntity
  8
ｴｸｽﾃﾘｱ商品
 62
   250
370
    20
100
AcDbVertex
100
AcDbPolyFaceMeshVertex
 10
793.701
 20
101.046
 30
152.0
 70
   192
  0
VERTEX
  5
11E
330
3F
100
AcDbEntity
  8
ｴｸｽﾃﾘｱ商品
 62
   250
370
    20
100
AcDbVertex
100
AcDbPolyFaceMeshVertex
 10
793.701
 20
101.046
 30
114.0
 70
   192
  0
VERTEX
  5
11F
330
3F
100
AcDbEntity
  8
ｴｸｽﾃﾘｱ商品
 62
   250
370
    20
100
AcDbVertex
100
AcDbPolyFaceMeshVertex
 10
799.5
 20
101.0
 30
152.0
 70
   192
  0
VERTEX
  5
120
330
3F
100
AcDbEntity
  8
ｴｸｽﾃﾘｱ商品
 62
   250
370
    20
100
AcDbVertex
100
AcDbPolyFaceMeshVertex
 10
799.5
 20
101.0
 30
114.0
 70
   192
  0
VERTEX
  5
121
330
3F
100
AcDbEntity
  8
ｴｸｽﾃﾘｱ商品
 62
   250
370
    20
100
AcDbVertex
100
AcDbPolyFaceMeshVertex
 10
802.0
 20
103.5
 30
152.0
 70
   192
  0
VERTEX
  5
122
330
3F
100
AcDbEntity
  8
ｴｸｽﾃﾘｱ商品
 62
   250
370
    20
100
AcDbVertex
100
AcDbPolyFaceMeshVertex
 10
802.0
 20
103.5
 30
114.0
 70
   192
  0
VERTEX
  5
123
330
3F
100
AcDbEntity
  8
ｴｸｽﾃﾘｱ商品
 62
   250
370
    20
100
AcDbVertex
100
AcDbPolyFaceMeshVertex
 10
874.0000000000001
 20
75.00000000000003
 30
177.0000000000001
 70
   192
  0
VERTEX
  5
124
330
3F
100
AcDbEntity
  8
ｴｸｽﾃﾘｱ商品
 62
   250
370
    20
100
AcDbVertex
100
AcDbPolyFaceMeshVertex
 10
807.0
 20
75.00000000000003
 30
177.0000000000001
 70
   192
  0
VERTEX
  5
125
330
3F
100
AcDbEntity
  8
ｴｸｽﾃﾘｱ商品
 62
   250
370
    20
100
AcDbVertex
100
AcDbPolyFaceMeshVertex
 10
807.0
 20
75.00000000000001
 30
89.00000000000001
 70
   192
  0
VERTEX
  5
126
330
3F
100
AcDbEntity
  8
ｴｸｽﾃﾘｱ商品
 62
   250
370
    20
100
AcDbVertex
100
AcDbPolyFaceMeshVertex
 10
874.0000000000001
 20
75.00000000000003
 30
89.00000000000001
 70
   192
  0
VERTEX
  5
127
330
3F
100
AcDbEntity
  8
ｴｸｽﾃﾘｱ商品
 62
   250
370
    20
100
AcDbVertex
100
AcDbPolyFaceMeshVertex
 10
807.0
 20
82.66500000000002
 30
89.00000000000001
 70
   192
  0
VERTEX
  5
128
330
3F
100
AcDbEntity
  8
ｴｸｽﾃﾘｱ商品
 62
   250
370
    20
100
AcDbVertex
100
AcDbPolyFaceMeshVertex
 10
874.0000000000001
 20
82.66500000000002
 30
89.00000000000001
 70
   192
  0
VERTEX
  5
129
330
3F
100
AcDbEntity
  8
ｴｸｽﾃﾘｱ商品
 62
   250
370
    20
100
AcDbVertex
100
AcDbPolyFaceMeshVertex
 10
807.0
 20
102.638
 30
95.74000000000002
 70
   192
  0
VERTEX
  5
12A
330
3F
100
AcDbEntity
  8
ｴｸｽﾃﾘｱ商品
 62
   250
370
    20
100
AcDbVertex
100
AcDbPolyFaceMeshVertex
 10
874.0000000000001
 20
102.638
 30
95.74000000000002
 70
   192
  0
VERTEX
  5
12B
330
3F
100
AcDbEntity
  8
ｴｸｽﾃﾘｱ商品
 62
   250
370
    20
100
AcDbVertex
100
AcDbPolyFaceMeshVertex
 10
807.0
 20
109.138
 30
98.10900000000001
 70
   192
  0
VERTEX
  5
12C
330
3F
100
AcDbEntity
  8
ｴｸｽﾃﾘｱ商品
 62
   250
370
    20
100
AcDbVertex
100
AcDbPolyFaceMeshVertex
 10
874.0000000000001
 20
109.138
 30
98.10900000000001
 70
   192
  0
VERTEX
  5
12D
330
3F
100
AcDbEntity
  8
ｴｸｽﾃﾘｱ商品
 62
   250
370
    20
100
AcDbVertex
100
AcDbPolyFaceMeshVertex
 10
807.0
 20
109.931
 30
99.25800000000001
 70
   192
  0
VERTEX
  5
12E
330
3F
100
AcDbEntity
  8
ｴｸｽﾃﾘｱ商品
 62
   250
370
    20
100
AcDbVertex
100
AcDbPolyFaceMeshVertex
 10
874.0000000000001
 20
109.931
 30
99.25800000000001
 70
   192
  0
VERTEX
  5
12F
330
3F
100
AcDbEntity
  8
ｴｸｽﾃﾘｱ商品
 62
   250
370
    20
100
AcDbVertex
100
AcDbPolyFaceMeshVertex
 10
807.0
 20
115.586
 30
112.681
 70
   192
  0
VERTEX
  5
130
330
3F
100
AcDbEntity
  8
ｴｸｽﾃﾘｱ商品
 62
   250
370
    20
100
AcDbVertex
100
AcDbPolyFaceMeshVertex
 10
874.0000000000001
 20
115.586
 30
112.681
 70
   192
  0
VERTEX
  5
131
330
3F
100
AcDbEntity
  8
ｴｸｽﾃﾘｱ商品
 62
   250
370
    20
100
AcDbVertex
100
AcDbPolyFaceMeshVertex
 10
807.0
 20
117.455
 30
120.388
 70
   192
  0
VERTEX
  5
132
330
3F
100
AcDbEntity
  8
ｴｸｽﾃﾘｱ商品
 62
   250
370
    20
100
AcDbVertex
100
AcDbPolyFaceMeshVertex
 10
874.0000000000001
 20
117.455
 30
120.388
 70
   192
  0
VERTEX
  5
133
330
3F
100
AcDbEntity
  8
ｴｸｽﾃﾘｱ商品
 62
   250
370
    20
100
AcDbVertex
100
AcDbPolyFaceMeshVertex
 10
807.0
 20
118.485
 30
129.842
 70
   192
  0
VERTEX
  5
134
330
3F
100
AcDbEntity
  8
ｴｸｽﾃﾘｱ商品
 62
   250
370
    20
100
AcDbVertex
100
AcDbPolyFaceMeshVertex
 10
874.0000000000001
 20
118.485
 30
129.842
 70
   192
  0
VERTEX
  5
135
330
3F
100
AcDbEntity
  8
ｴｸｽﾃﾘｱ商品
 62
   250
370
    20
100
AcDbVertex
100
AcDbPolyFaceMeshVertex
 10
807.0
 20
118.343
 30
138.219
 70
   192
  0
VERTEX
  5
136
330
3F
100
AcDbEntity
  8
ｴｸｽﾃﾘｱ商品
 62
   250
370
    20
100
AcDbVertex
100
AcDbPolyFaceMeshVertex
 10
874.0000000000001
 20
118.343
 30
138.219
 70
   192
  0
VERTEX
  5
137
330
3F
100
AcDbEntity
  8
ｴｸｽﾃﾘｱ商品
 62
   250
370
    20
100
AcDbVertex
100
AcDbPolyFaceMeshVertex
 10
807.0
 20
117.856
 30
143.179
 70
   192
  0
VERTEX
  5
138
330
3F
100
AcDbEntity
  8
ｴｸｽﾃﾘｱ商品
 62
   250
370
    20
100
AcDbVertex
100
AcDbPolyFaceMeshVertex
 10
874.0000000000001
 20
117.856
 30
143.179
 70
   192
  0
VERTEX
  5
139
330
3F
100
AcDbEntity
  8
ｴｸｽﾃﾘｱ商品
 62
   250
370
    20
100
AcDbVertex
100
AcDbPolyFaceMeshVertex
 10
807.0
 20
117.011
 30
147.83
 70
   192
  0
VERTEX
  5
13A
330
3F
100
AcDbEntity
  8
ｴｸｽﾃﾘｱ商品
 62
   250
370
    20
100
AcDbVertex
100
AcDbPolyFaceMeshVertex
 10
874.0000000000001
 20
117.011
 30
147.83
 70
   192
  0
VERTEX
  5
13B
330
3F
100
AcDbEntity
  8
ｴｸｽﾃﾘｱ商品
 62
   250
370
    20
100
AcDbVertex
100
AcDbPolyFaceMeshVertex
 10
807.0
 20
115.314
 30
154.195
 70
   192
  0
VERTEX
  5
13C
330
3F
100
AcDbEntity
  8
ｴｸｽﾃﾘｱ商品
 62
   250
370
    20
100
AcDbVertex
100
AcDbPolyFaceMeshVertex
 10
874.0000000000001
 20
115.314
 30
154.195
 70
   192
  0
VERTEX
  5
13D
330
3F
100
AcDbEntity
  8
ｴｸｽﾃﾘｱ商品
 62
   250
370
    20
100
AcDbVertex
100
AcDbPolyFaceMeshVertex
 10
807.0
 20
113.649
 30
158.858
 70
   192
  0
VERTEX
  5
13E
330
3F
100
AcDbEntity
  8
ｴｸｽﾃﾘｱ商品
 62
   250
370
    20
100
AcDbVertex
100
AcDbPolyFaceMeshVertex
 10
874.0000000000001
 20
113.649
 30
158.858
 70
   192
  0
VERTEX
  5
13F
330
3F
100
AcDbEntity
  8
ｴｸｽﾃﾘｱ商品
 62
   250
370
    20
100
AcDbVertex
100
AcDbPolyFaceMeshVertex
 10
807.0
 20
111.259
 30
164.207
 70
   192
  0
VERTEX
  5
140
330
3F
100
AcDbEntity
  8
ｴｸｽﾃﾘｱ商品
 62
   250
370
    20
100
AcDbVertex
100
AcDbPolyFaceMeshVertex
 10
874.0000000000001
 20
111.259
 30
164.207
 70
   192
  0
VERTEX
  5
141
330
3F
100
AcDbEntity
  8
ｴｸｽﾃﾘｱ商品
 62
   250
370
    20
100
AcDbVertex
100
AcDbPolyFaceMeshVertex
 10
807.0
 20
109.018
 30
167.983
 70
   192
  0
VERTEX
  5
142
330
3F
100
AcDbEntity
  8
ｴｸｽﾃﾘｱ商品
 62
   250
370
    20
100
AcDbVertex
100
AcDbPolyFaceMeshVertex
 10
874.0000000000001
 20
109.018
 30
167.983
 70
   192
  0
VERTEX
  5
143
330
3F
100
AcDbEntity
  8
ｴｸｽﾃﾘｱ商品
 62
   250
370
    20
100
AcDbVertex
100
AcDbPolyFaceMeshVertex
 10
807.0
 20
82.66500000000003
 30
177.0000000000001
 70
   192
  0
VERTEX
  5
144
330
3F
100
AcDbEntity
  8
ｴｸｽﾃﾘｱ商品
 62
   250
370
    20
100
AcDbVertex
100
AcDbPolyFaceMeshVertex
 10
874.0000000000001
 20
82.66500000000003
 30
177.0000000000001
 70
   192
  0
VERTEX
  5
145
330
3F
100
AcDbEntity
  8
ｴｸｽﾃﾘｱ商品
 62
   250
370
    20
100
AcDbVertex
100
AcDbPolyFaceMeshVertex
 10
696.0
 20
40.00000000000002
 30
80.00000000000001
 70
   192
  0
VERTEX
  5
146
330
3F
100
AcDbEntity
  8
ｴｸｽﾃﾘｱ商品
 62
   250
370
    20
100
AcDbVertex
100
AcDbPolyFaceMeshVertex
 10
696.0
 20
75.00000000000003
 30
80.00000000000001
 70
   192
  0
VERTEX
  5
147
330
3F
100
AcDbEntity
  8
ｴｸｽﾃﾘｱ商品
 62
   250
370
    20
100
AcDbVertex
100
AcDbPolyFaceMeshVertex
 10
781.0
 20
75.00000000000003
 30
80.00000000000001
 70
   192
  0
VERTEX
  5
148
330
3F
100
AcDbEntity
  8
ｴｸｽﾃﾘｱ商品
 62
   250
370
    20
100
AcDbVertex
100
AcDbPolyFaceMeshVertex
 10
781.0
 20
40.00000000000002
 30
80.00000000000001
 70
   192
  0
VERTEX
  5
149
330
3F
100
AcDbEntity
  8
ｴｸｽﾃﾘｱ商品
 62
   250
370
    20
100
AcDbVertex
100
AcDbPolyFaceMeshVertex
 10
781.0
 20
40.00000000000002
 30
1280.0
 70
   192
  0
VERTEX
  5
14A
330
3F
100
AcDbEntity
  8
ｴｸｽﾃﾘｱ商品
 62
   250
370
    20
100
AcDbVertex
100
AcDbPolyFaceMeshVertex
 10
781.0
 20
75.00000000000003
 30
1280.0
 70
   192
  0
VERTEX
  5
14B
330
3F
100
AcDbEntity
  8
ｴｸｽﾃﾘｱ商品
 62
   250
370
    20
100
AcDbVertex
100
AcDbPolyFaceMeshVertex
 10
696.0
 20
75.00000000000003
 30
1280.0
 70
   192
  0
VERTEX
  5
14C
330
3F
100
AcDbEntity
  8
ｴｸｽﾃﾘｱ商品
 62
   250
370
    20
100
AcDbVertex
100
AcDbPolyFaceMeshVertex
 10
696.0
 20
40.00000000000002
 30
1280.0
 70
   192
  0
VERTEX
  5
14D
330
3F
100
AcDbEntity
  8
ｴｸｽﾃﾘｱ商品
 62
   250
370
    20
100
AcDbVertex
100
AcDbPolyFaceMeshVertex
 10
81.00000000000001
 20
40.00000000000002
 30
80.00000000000001
 70
   192
  0
VERTEX
  5
14E
330
3F
100
AcDbEntity
  8
ｴｸｽﾃﾘｱ商品
 62
   250
370
    20
100
AcDbVertex
100
AcDbPolyFaceMeshVertex
 10
81.00000000000001
 20
75.00000000000003
 30
80.00000000000001
 70
   192
  0
VERTEX
  5
14F
330
3F
100
AcDbEntity
  8
ｴｸｽﾃﾘｱ商品
 62
   250
370
    20
100
AcDbVertex
100
AcDbPolyFaceMeshVertex
 10
166.0
 20
75.00000000000003
 30
80.00000000000001
 70
   192
  0
VERTEX
  5
150
330
3F
100
AcDbEntity
  8
ｴｸｽﾃﾘｱ商品
 62
   250
370
    20
100
AcDbVertex
100
AcDbPolyFaceMeshVertex
 10
166.0
 20
40.00000000000002
 30
80.00000000000001
 70
   192
  0
VERTEX
  5
151
330
3F
100
AcDbEntity
  8
ｴｸｽﾃﾘｱ商品
 62
   250
370
    20
100
AcDbVertex
100
AcDbPolyFaceMeshVertex
 10
166.0
 20
40.00000000000002
 30
1280.0
 70
   192
  0
VERTEX
  5
152
330
3F
100
AcDbEntity
  8
ｴｸｽﾃﾘｱ商品
 62
   250
370
    20
100
AcDbVertex
100
AcDbPolyFaceMeshVertex
 10
166.0
 20
75.00000000000003
 30
1280.0
 70
   192
  0
VERTEX
  5
153
330
3F
100
AcDbEntity
  8
ｴｸｽﾃﾘｱ商品
 62
   250
370
    20
100
AcDbVertex
100
AcDbPolyFaceMeshVertex
 10
81.00000000000001
 20
75.00000000000003
 30
1280.0
 70
   192
  0
VERTEX
  5
154
330
3F
100
AcDbEntity
  8
ｴｸｽﾃﾘｱ商品
 62
   250
370
    20
100
AcDbVertex
100
AcDbPolyFaceMeshVertex
 10
81.00000000000001
 20
40.00000000000002
 30
1280.0
 70
   192
  0
VERTEX
  5
155
330
3F
100
AcDbEntity
  8
ｴｸｽﾃﾘｱ商品
 62
   250
370
    20
100
AcDbVertex
100
AcDbPolyFaceMeshVertex
 10
165.9999999999999
 20
44.00000000000002
 30
80.00000000000001
 70
   192
  0
VERTEX
  5
156
330
3F
100
AcDbEntity
  8
ｴｸｽﾃﾘｱ商品
 62
   250
370
    20
100
AcDbVertex
100
AcDbPolyFaceMeshVertex
 10
165.9999999999999
 20
71.00000000000003
 30
80.00000000000001
 70
   192
  0
VERTEX
  5
157
330
3F
100
AcDbEntity
  8
ｴｸｽﾃﾘｱ商品
 62
   250
370
    20
100
AcDbVertex
100
AcDbPolyFaceMeshVertex
 10
696.0
 20
71.00000000000003
 30
80.00000000000001
 70
   192
  0
VERTEX
  5
158
330
3F
100
AcDbEntity
  8
ｴｸｽﾃﾘｱ商品
 62
   250
370
    20
100
AcDbVertex
100
AcDbPolyFaceMeshVertex
 10
696.0
 20
44.00000000000002
 30
80.00000000000001
 70
   192
  0
VERTEX
  5
159
330
3F
100
AcDbEntity
  8
ｴｸｽﾃﾘｱ商品
 62
   250
370
    20
100
AcDbVertex
100
AcDbPolyFaceMeshVertex
 10
696.0
 20
44.00000000000002
 30
160.0
 70
   192
  0
VERTEX
  5
15A
330
3F
100
AcDbEntity
  8
ｴｸｽﾃﾘｱ商品
 62
   250
370
    20
100
AcDbVertex
100
AcDbPolyFaceMeshVertex
 10
696.0
 20
71.00000000000003
 30
160.0
 70
   192
  0
VERTEX
  5
15B
330
3F
100
AcDbEntity
  8
ｴｸｽﾃﾘｱ商品
 62
   250
370
    20
100
AcDbVertex
100
AcDbPolyFaceMeshVertex
 10
165.9999999999999
 20
71.00000000000003
 30
160.0
 70
   192
  0
VERTEX
  5
15C
330
3F
100
AcDbEntity
  8
ｴｸｽﾃﾘｱ商品
 62
   250
370
    20
100
AcDbVertex
100
AcDbPolyFaceMeshVertex
 10
165.9999999999999
 20
44.00000000000002
 30
160.0
 70
   192
  0
VERTEX
  5
15D
330
3F
100
AcDbEntity
  8
ｴｸｽﾃﾘｱ商品
 62
   250
370
    20
100
AcDbVertex
100
AcDbPolyFaceMeshVertex
 10
165.9999999999999
 20
44.00000000000002
 30
1200.0
 70
   192
  0
VERTEX
  5
15E
330
3F
100
AcDbEntity
  8
ｴｸｽﾃﾘｱ商品
 62
   250
370
    20
100
AcDbVertex
100
AcDbPolyFaceMeshVertex
 10
165.9999999999999
 20
71.00000000000003
 30
1200.0
 70
   192
  0
VERTEX
  5
15F
330
3F
100
AcDbEntity
  8
ｴｸｽﾃﾘｱ商品
 62
   250
370
    20
100
AcDbVertex
100
AcDbPolyFaceMeshVertex
 10
696.0
 20
71.00000000000003
 30
1200.0
 70
   192
  0
VERTEX
  5
160
330
3F
100
AcDbEntity
  8
ｴｸｽﾃﾘｱ商品
 62
   250
370
    20
100
AcDbVertex
100
AcDbPolyFaceMeshVertex
 10
696.0
 20
44.00000000000002
 30
1200.0
 70
   192
  0
VERTEX
  5
161
330
3F
100
AcDbEntity
  8
ｴｸｽﾃﾘｱ商品
 62
   250
370
    20
100
AcDbVertex
100
AcDbPolyFaceMeshVertex
 10
696.0
 20
44.00000000000002
 30
1280.0
 70
   192
  0
VERTEX
  5
162
330
3F
100
AcDbEntity
  8
ｴｸｽﾃﾘｱ商品
 62
   250
370
    20
100
AcDbVertex
100
AcDbPolyFaceMeshVertex
 10
696.0
 20
71.00000000000003
 30
1280.0
 70
   192
  0
VERTEX
  5
163
330
3F
100
AcDbEntity
  8
ｴｸｽﾃﾘｱ商品
 62
   250
370
    20
100
AcDbVertex
100
AcDbPolyFaceMeshVertex
 10
165.9999999999999
 20
71.00000000000003
 30
1280.0
 70
   192
  0
VERTEX
  5
164
330
3F
100
AcDbEntity
  8
ｴｸｽﾃﾘｱ商品
 62
   250
370
    20
100
AcDbVertex
100
AcDbPolyFaceMeshVertex
 10
165.9999999999999
 20
44.00000000000002
 30
1280.0
 70
   192
  0
VERTEX
  5
165
330
3F
100
AcDbEntity
  8
ｴｸｽﾃﾘｱ商品
 62
   250
370
    20
100
AcDbFaceRecord
 10
0.0
 20
0.0
 30
0.0
 70
   128
 71
     1
 72
     2
 73
     3
 74
     4
  0
VERTEX
  5
166
330
3F
100
AcDbEntity
  8
ｴｸｽﾃﾘｱ商品
 62
   250
370
    20
100
AcDbFaceRecord
 10
0.0
 20
0.0
 30
0.0
 70
   128
 71
     5
 72
     6
 73
     7
 74
     8
  0
VERTEX
  5
167
330
3F
100
AcDbEntity
  8
ｴｸｽﾃﾘｱ商品
 62
   250
370
    20
100
AcDbFaceRecord
 10
0.0
 20
0.0
 30
0.0
 70
   128
 71
     4
 72
     5
 73
     8
 74
     1
  0
VERTEX
  5
168
330
3F
100
AcDbEntity
  8
ｴｸｽﾃﾘｱ商品
 62
   250
370
    20
100
AcDbFaceRecord
 10
0.0
 20
0.0
 30
0.0
 70
   128
 71
     1
 72
     8
 73
     7
 74
     2
  0
VERTEX
  5
169
330
3F
100
AcDbEntity
  8
ｴｸｽﾃﾘｱ商品
 62
   250
370
    20
100
AcDbFaceRecord
 10
0.0
 20
0.0
 30
0.0
 70
   128
 71
     2
 72
     7
 73
     6
 74
     3
  0
VERTEX
  5
16A
330
3F
100
AcDbEntity
  8
ｴｸｽﾃﾘｱ商品
 62
   250
370
    20
100
AcDbFaceRecord
 10
0.0
 20
0.0
 30
0.0
 70
   128
 71
     3
 72
     6
 73
     5
 74
     4
  0
VERTEX
  5
16B
330
3F
100
AcDbEntity
  8
ｴｸｽﾃﾘｱ商品
 62
   250
370
    20
100
AcDbFaceRecord
 10
0.0
 20
0.0
 30
0.0
 70
   128
 71
     9
 72
    10
 73
    11
 74
    12
  0
VERTEX
  5
16C
330
3F
100
AcDbEntity
  8
ｴｸｽﾃﾘｱ商品
 62
   250
370
    20
100
AcDbFaceRecord
 10
0.0
 20
0.0
 30
0.0
 70
   128
 71
    13
 72
    14
 73
    15
 74
    16
  0
VERTEX
  5
16D
330
3F
100
AcDbEntity
  8
ｴｸｽﾃﾘｱ商品
 62
   250
370
    20
100
AcDbFaceRecord
 10
0.0
 20
0.0
 30
0.0
 70
   128
 71
    10
 72
     9
 73
    14
 74
    13
  0
VERTEX
  5
16E
330
3F
100
AcDbEntity
  8
ｴｸｽﾃﾘｱ商品
 62
   250
370
    20
100
AcDbFaceRecord
 10
0.0
 20
0.0
 30
0.0
 70
   128
 71
     9
 72
    12
 73
    15
 74
    14
  0
VERTEX
  5
16F
330
3F
100
AcDbEntity
  8
ｴｸｽﾃﾘｱ商品
 62
   250
370
    20
100
AcDbFaceRecord
 10
0.0
 20
0.0
 30
0.0
 70
   128
 71
    12
 72
    11
 73
    16
 74
    15
  0
VERTEX
  5
170
330
3F
100
AcDbEntity
  8
ｴｸｽﾃﾘｱ商品
 62
   250
370
    20
100
AcDbFaceRecord
 10
0.0
 20
0.0
 30
0.0
 70
   128
 71
    11
 72
    10
 73
    13
 74
    16
  0
VERTEX
  5
171
330
3F
100
AcDbEntity
  8
ｴｸｽﾃﾘｱ商品
 62
   250
370
    20
100
AcDbFaceRecord
 10
0.0
 20
0.0
 30
0.0
 70
   128
 71
    17
 72
    18
 73
    19
 74
    20
  0
VERTEX
  5
172
330
3F
100
AcDbEntity
  8
ｴｸｽﾃﾘｱ商品
 62
   250
370
    20
100
AcDbFaceRecord
 10
0.0
 20
0.0
 30
0.0
 70
   128
 71
    17
 72
    20
 73
    21
 74
    22
  0
VERTEX
  5
173
330
3F
100
AcDbEntity
  8
ｴｸｽﾃﾘｱ商品
 62
   250
370
    20
100
AcDbFaceRecord
 10
0.0
 20
0.0
 30
0.0
 70
   128
 71
    17
 72
    22
 73
    23
 74
    24
  0
VERTEX
  5
174
330
3F
100
AcDbEntity
  8
ｴｸｽﾃﾘｱ商品
 62
   250
370
    20
100
AcDbFaceRecord
 10
0.0
 20
0.0
 30
0.0
 70
   128
 71
    17
 72
    24
 73
    25
 74
    26
  0
VERTEX
  5
175
330
3F
100
AcDbEntity
  8
ｴｸｽﾃﾘｱ商品
 62
   250
370
    20
100
AcDbFaceRecord
 10
0.0
 20
0.0
 30
0.0
 70
   128
 71
    17
 72
    26
 73
    27
 74
    28
  0
VERTEX
  5
176
330
3F
100
AcDbEntity
  8
ｴｸｽﾃﾘｱ商品
 62
   250
370
    20
100
AcDbFaceRecord
 10
0.0
 20
0.0
 30
0.0
 70
   128
 71
    17
 72
    28
 73
    29
 74
    30
  0
VERTEX
  5
177
330
3F
100
AcDbEntity
  8
ｴｸｽﾃﾘｱ商品
 62
   250
370
    20
100
AcDbFaceRecord
 10
0.0
 20
0.0
 30
0.0
 70
   128
 71
    17
 72
    30
 73
    31
 74
    32
  0
VERTEX
  5
178
330
3F
100
AcDbEntity
  8
ｴｸｽﾃﾘｱ商品
 62
   250
370
    20
100
AcDbFaceRecord
 10
0.0
 20
0.0
 30
0.0
 70
   128
 71
    17
 72
    32
 73
    33
 74
    34
  0
VERTEX
  5
179
330
3F
100
AcDbEntity
  8
ｴｸｽﾃﾘｱ商品
 62
   250
370
    20
100
AcDbFaceRecord
 10
0.0
 20
0.0
 30
0.0
 70
   128
 71
    17
 72
    34
 73
    35
 74
    36
  0
VERTEX
  5
17A
330
3F
100
AcDbEntity
  8
ｴｸｽﾃﾘｱ商品
 62
   250
370
    20
100
AcDbFaceRecord
 10
0.0
 20
0.0
 30
0.0
 70
   128
 71
    17
 72
    36
 73
    37
 74
    38
  0
VERTEX
  5
17B
330
3F
100
AcDbEntity
  8
ｴｸｽﾃﾘｱ商品
 62
   250
370
    20
100
AcDbFaceRecord
 10
0.0
 20
0.0
 30
0.0
 70
   128
 71
    17
 72
    38
 73
    39
 74
    40
  0
VERTEX
  5
17C
330
3F
100
AcDbEntity
  8
ｴｸｽﾃﾘｱ商品
 62
   250
370
    20
100
AcDbFaceRecord
 10
0.0
 20
0.0
 30
0.0
 70
   128
 71
    17
 72
    40
 73
    41
 74
    42
  0
VERTEX
  5
17D
330
3F
100
AcDbEntity
  8
ｴｸｽﾃﾘｱ商品
 62
   250
370
    20
100
AcDbFaceRecord
 10
0.0
 20
0.0
 30
0.0
 70
   128
 71
    17
 72
    42
 73
    43
 74
    44
  0
VERTEX
  5
17E
330
3F
100
AcDbEntity
  8
ｴｸｽﾃﾘｱ商品
 62
   250
370
    20
100
AcDbFaceRecord
 10
0.0
 20
0.0
 30
0.0
 70
   128
 71
    17
 72
    44
 73
    45
 74
    46
  0
VERTEX
  5
17F
330
3F
100
AcDbEntity
  8
ｴｸｽﾃﾘｱ商品
 62
   250
370
    20
100
AcDbFaceRecord
 10
0.0
 20
0.0
 30
0.0
 70
   128
 71
    17
 72
    46
 73
    47
 74
    48
  0
VERTEX
  5
180
330
3F
100
AcDbEntity
  8
ｴｸｽﾃﾘｱ商品
 62
   250
370
    20
100
AcDbFaceRecord
 10
0.0
 20
0.0
 30
0.0
 70
   128
 71
    17
 72
    48
 73
    49
 74
    50
  0
VERTEX
  5
181
330
3F
100
AcDbEntity
  8
ｴｸｽﾃﾘｱ商品
 62
   250
370
    20
100
AcDbFaceRecord
 10
0.0
 20
0.0
 30
0.0
 70
   128
 71
    17
 72
    50
 73
    51
 74
    52
  0
VERTEX
  5
182
330
3F
100
AcDbEntity
  8
ｴｸｽﾃﾘｱ商品
 62
   250
370
    20
100
AcDbFaceRecord
 10
0.0
 20
0.0
 30
0.0
 70
   128
 71
    53
 72
    54
 73
    55
 74
    56
  0
VERTEX
  5
183
330
3F
100
AcDbEntity
  8
ｴｸｽﾃﾘｱ商品
 62
   250
370
    20
100
AcDbFaceRecord
 10
0.0
 20
0.0
 30
0.0
 70
   128
 71
    53
 72
    56
 73
    57
 74
    58
  0
VERTEX
  5
184
330
3F
100
AcDbEntity
  8
ｴｸｽﾃﾘｱ商品
 62
   250
370
    20
100
AcDbFaceRecord
 10
0.0
 20
0.0
 30
0.0
 70
   128
 71
    53
 72
    58
 73
    59
 74
    60
  0
VERTEX
  5
185
330
3F
100
AcDbEntity
  8
ｴｸｽﾃﾘｱ商品
 62
   250
370
    20
100
AcDbFaceRecord
 10
0.0
 20
0.0
 30
0.0
 70
   128
 71
    53
 72
    60
 73
    61
 74
    62
  0
VERTEX
  5
186
330
3F
100
AcDbEntity
  8
ｴｸｽﾃﾘｱ商品
 62
   250
370
    20
100
AcDbFaceRecord
 10
0.0
 20
0.0
 30
0.0
 70
   128
 71
    53
 72
    62
 73
    63
 74
    64
  0
VERTEX
  5
187
330
3F
100
AcDbEntity
  8
ｴｸｽﾃﾘｱ商品
 62
   250
370
    20
100
AcDbFaceRecord
 10
0.0
 20
0.0
 30
0.0
 70
   128
 71
    53
 72
    64
 73
    65
 74
    66
  0
VERTEX
  5
188
330
3F
100
AcDbEntity
  8
ｴｸｽﾃﾘｱ商品
 62
   250
370
    20
100
AcDbFaceRecord
 10
0.0
 20
0.0
 30
0.0
 70
   128
 71
    53
 72
    66
 73
    67
 74
    68
  0
VERTEX
  5
189
330
3F
100
AcDbEntity
  8
ｴｸｽﾃﾘｱ商品
 62
   250
370
    20
100
AcDbFaceRecord
 10
0.0
 20
0.0
 30
0.0
 70
   128
 71
    53
 72
    68
 73
    69
 74
    70
  0
VERTEX
  5
18A
330
3F
100
AcDbEntity
  8
ｴｸｽﾃﾘｱ商品
 62
   250
370
    20
100
AcDbFaceRecord
 10
0.0
 20
0.0
 30
0.0
 70
   128
 71
    53
 72
    70
 73
    71
 74
    72
  0
VERTEX
  5
18B
330
3F
100
AcDbEntity
  8
ｴｸｽﾃﾘｱ商品
 62
   250
370
    20
100
AcDbFaceRecord
 10
0.0
 20
0.0
 30
0.0
 70
   128
 71
    53
 72
    72
 73
    73
 74
    74
  0
VERTEX
  5
18C
330
3F
100
AcDbEntity
  8
ｴｸｽﾃﾘｱ商品
 62
   250
370
    20
100
AcDbFaceRecord
 10
0.0
 20
0.0
 30
0.0
 70
   128
 71
    53
 72
    74
 73
    75
 74
    76
  0
VERTEX
  5
18D
330
3F
100
AcDbEntity
  8
ｴｸｽﾃﾘｱ商品
 62
   250
370
    20
100
AcDbFaceRecord
 10
0.0
 20
0.0
 30
0.0
 70
   128
 71
    53
 72
    76
 73
    77
 74
    78
  0
VERTEX
  5
18E
330
3F
100
AcDbEntity
  8
ｴｸｽﾃﾘｱ商品
 62
   250
370
    20
100
AcDbFaceRecord
 10
0.0
 20
0.0
 30
0.0
 70
   128
 71
    53
 72
    78
 73
    79
 74
    80
  0
VERTEX
  5
18F
330
3F
100
AcDbEntity
  8
ｴｸｽﾃﾘｱ商品
 62
   250
370
    20
100
AcDbFaceRecord
 10
0.0
 20
0.0
 30
0.0
 70
   128
 71
    53
 72
    80
 73
    81
 74
    82
  0
VERTEX
  5
190
330
3F
100
AcDbEntity
  8
ｴｸｽﾃﾘｱ商品
 62
   250
370
    20
100
AcDbFaceRecord
 10
0.0
 20
0.0
 30
0.0
 70
   128
 71
    53
 72
    82
 73
    83
 74
    84
  0
VERTEX
  5
191
330
3F
100
AcDbEntity
  8
ｴｸｽﾃﾘｱ商品
 62
   250
370
    20
100
AcDbFaceRecord
 10
0.0
 20
0.0
 30
0.0
 70
   128
 71
    53
 72
    84
 73
    85
 74
    86
  0
VERTEX
  5
192
330
3F
100
AcDbEntity
  8
ｴｸｽﾃﾘｱ商品
 62
   250
370
    20
100
AcDbFaceRecord
 10
0.0
 20
0.0
 30
0.0
 70
   128
 71
    53
 72
    86
 73
    87
 74
    88
  0
VERTEX
  5
193
330
3F
100
AcDbEntity
  8
ｴｸｽﾃﾘｱ商品
 62
   250
370
    20
100
AcDbFaceRecord
 10
0.0
 20
0.0
 30
0.0
 70
   128
 71
    17
 72
    53
 73
    88
 74
    18
  0
VERTEX
  5
194
330
3F
100
AcDbEntity
  8
ｴｸｽﾃﾘｱ商品
 62
   250
370
    20
100
AcDbFaceRecord
 10
0.0
 20
0.0
 30
0.0
 70
   128
 71
    18
 72
    88
 73
    87
 74
    19
  0
VERTEX
  5
195
330
3F
100
AcDbEntity
  8
ｴｸｽﾃﾘｱ商品
 62
   250
370
    20
100
AcDbFaceRecord
 10
0.0
 20
0.0
 30
0.0
 70
   128
 71
    19
 72
    87
 73
    86
 74
    20
  0
VERTEX
  5
196
330
3F
100
AcDbEntity
  8
ｴｸｽﾃﾘｱ商品
 62
   250
370
    20
100
AcDbFaceRecord
 10
0.0
 20
0.0
 30
0.0
 70
   128
 71
    20
 72
    86
 73
    85
 74
    21
  0
VERTEX
  5
197
330
3F
100
AcDbEntity
  8
ｴｸｽﾃﾘｱ商品
 62
   250
370
    20
100
AcDbFaceRecord
 10
0.0
 20
0.0
 30
0.0
 70
   128
 71
    21
 72
    85
 73
    84
 74
    22
  0
VERTEX
  5
198
330
3F
100
AcDbEntity
  8
ｴｸｽﾃﾘｱ商品
 62
   250
370
    20
100
AcDbFaceRecord
 10
0.0
 20
0.0
 30
0.0
 70
   128
 71
    22
 72
    84
 73
    83
 74
    23
  0
VERTEX
  5
199
330
3F
100
AcDbEntity
  8
ｴｸｽﾃﾘｱ商品
 62
   250
370
    20
100
AcDbFaceRecord
 10
0.0
 20
0.0
 30
0.0
 70
   128
 71
    23
 72
    83
 73
    82
 74
    24
  0
VERTEX
  5
19A
330
3F
100
AcDbEntity
  8
ｴｸｽﾃﾘｱ商品
 62
   250
370
    20
100
AcDbFaceRecord
 10
0.0
 20
0.0
 30
0.0
 70
   128
 71
    24
 72
    82
 73
    81
 74
    25
  0
VERTEX
  5
19B
330
3F
100
AcDbEntity
  8
ｴｸｽﾃﾘｱ商品
 62
   250
370
    20
100
AcDbFaceRecord
 10
0.0
 20
0.0
 30
0.0
 70
   128
 71
    25
 72
    81
 73
    80
 74
    26
  0
VERTEX
  5
19C
330
3F
100
AcDbEntity
  8
ｴｸｽﾃﾘｱ商品
 62
   250
370
    20
100
AcDbFaceRecord
 10
0.0
 20
0.0
 30
0.0
 70
   128
 71
    26
 72
    80
 73
    79
 74
    27
  0
VERTEX
  5
19D
330
3F
100
AcDbEntity
  8
ｴｸｽﾃﾘｱ商品
 62
   250
370
    20
100
AcDbFaceRecord
 10
0.0
 20
0.0
 30
0.0
 70
   128
 71
    27
 72
    79
 73
    78
 74
    28
  0
VERTEX
  5
19E
330
3F
100
AcDbEntity
  8
ｴｸｽﾃﾘｱ商品
 62
   250
370
    20
100
AcDbFaceRecord
 10
0.0
 20
0.0
 30
0.0
 70
   128
 71
    28
 72
    78
 73
    77
 74
    29
  0
VERTEX
  5
19F
330
3F
100
AcDbEntity
  8
ｴｸｽﾃﾘｱ商品
 62
   250
370
    20
100
AcDbFaceRecord
 10
0.0
 20
0.0
 30
0.0
 70
   128
 71
    29
 72
    77
 73
    76
 74
    30
  0
VERTEX
  5
1A0
330
3F
100
AcDbEntity
  8
ｴｸｽﾃﾘｱ商品
 62
   250
370
    20
100
AcDbFaceRecord
 10
0.0
 20
0.0
 30
0.0
 70
   128
 71
    30
 72
    76
 73
    75
 74
    31
  0
VERTEX
  5
1A1
330
3F
100
AcDbEntity
  8
ｴｸｽﾃﾘｱ商品
 62
   250
370
    20
100
AcDbFaceRecord
 10
0.0
 20
0.0
 30
0.0
 70
   128
 71
    31
 72
    75
 73
    74
 74
    32
  0
VERTEX
  5
1A2
330
3F
100
AcDbEntity
  8
ｴｸｽﾃﾘｱ商品
 62
   250
370
    20
100
AcDbFaceRecord
 10
0.0
 20
0.0
 30
0.0
 70
   128
 71
    32
 72
    74
 73
    73
 74
    33
  0
VERTEX
  5
1A3
330
3F
100
AcDbEntity
  8
ｴｸｽﾃﾘｱ商品
 62
   250
370
    20
100
AcDbFaceRecord
 10
0.0
 20
0.0
 30
0.0
 70
   128
 71
    33
 72
    73
 73
    72
 74
    34
  0
VERTEX
  5
1A4
330
3F
100
AcDbEntity
  8
ｴｸｽﾃﾘｱ商品
 62
   250
370
    20
100
AcDbFaceRecord
 10
0.0
 20
0.0
 30
0.0
 70
   128
 71
    34
 72
    72
 73
    71
 74
    35
  0
VERTEX
  5
1A5
330
3F
100
AcDbEntity
  8
ｴｸｽﾃﾘｱ商品
 62
   250
370
    20
100
AcDbFaceRecord
 10
0.0
 20
0.0
 30
0.0
 70
   128
 71
    35
 72
    71
 73
    70
 74
    36
  0
VERTEX
  5
1A6
330
3F
100
AcDbEntity
  8
ｴｸｽﾃﾘｱ商品
 62
   250
370
    20
100
AcDbFaceRecord
 10
0.0
 20
0.0
 30
0.0
 70
   128
 71
    36
 72
    70
 73
    69
 74
    37
  0
VERTEX
  5
1A7
330
3F
100
AcDbEntity
  8
ｴｸｽﾃﾘｱ商品
 62
   250
370
    20
100
AcDbFaceRecord
 10
0.0
 20
0.0
 30
0.0
 70
   128
 71
    37
 72
    69
 73
    68
 74
    38
  0
VERTEX
  5
1A8
330
3F
100
AcDbEntity
  8
ｴｸｽﾃﾘｱ商品
 62
   250
370
    20
100
AcDbFaceRecord
 10
0.0
 20
0.0
 30
0.0
 70
   128
 71
    38
 72
    68
 73
    67
 74
    39
  0
VERTEX
  5
1A9
330
3F
100
AcDbEntity
  8
ｴｸｽﾃﾘｱ商品
 62
   250
370
    20
100
AcDbFaceRecord
 10
0.0
 20
0.0
 30
0.0
 70
   128
 71
    39
 72
    67
 73
    66
 74
    40
  0
VERTEX
  5
1AA
330
3F
100
AcDbEntity
  8
ｴｸｽﾃﾘｱ商品
 62
   250
370
    20
100
AcDbFaceRecord
 10
0.0
 20
0.0
 30
0.0
 70
   128
 71
    40
 72
    66
 73
    65
 74
    41
  0
VERTEX
  5
1AB
330
3F
100
AcDbEntity
  8
ｴｸｽﾃﾘｱ商品
 62
   250
370
    20
100
AcDbFaceRecord
 10
0.0
 20
0.0
 30
0.0
 70
   128
 71
    41
 72
    65
 73
    64
 74
    42
  0
VERTEX
  5
1AC
330
3F
100
AcDbEntity
  8
ｴｸｽﾃﾘｱ商品
 62
   250
370
    20
100
AcDbFaceRecord
 10
0.0
 20
0.0
 30
0.0
 70
   128
 71
    42
 72
    64
 73
    63
 74
    43
  0
VERTEX
  5
1AD
330
3F
100
AcDbEntity
  8
ｴｸｽﾃﾘｱ商品
 62
   250
370
    20
100
AcDbFaceRecord
 10
0.0
 20
0.0
 30
0.0
 70
   128
 71
    43
 72
    63
 73
    62
 74
    44
  0
VERTEX
  5
1AE
330
3F
100
AcDbEntity
  8
ｴｸｽﾃﾘｱ商品
 62
   250
370
    20
100
AcDbFaceRecord
 10
0.0
 20
0.0
 30
0.0
 70
   128
 71
    44
 72
    62
 73
    61
 74
    45
  0
VERTEX
  5
1AF
330
3F
100
AcDbEntity
  8
ｴｸｽﾃﾘｱ商品
 62
   250
370
    20
100
AcDbFaceRecord
 10
0.0
 20
0.0
 30
0.0
 70
   128
 71
    45
 72
    61
 73
    60
 74
    46
  0
VERTEX
  5
1B0
330
3F
100
AcDbEntity
  8
ｴｸｽﾃﾘｱ商品
 62
   250
370
    20
100
AcDbFaceRecord
 10
0.0
 20
0.0
 30
0.0
 70
   128
 71
    46
 72
    60
 73
    59
 74
    47
  0
VERTEX
  5
1B1
330
3F
100
AcDbEntity
  8
ｴｸｽﾃﾘｱ商品
 62
   250
370
    20
100
AcDbFaceRecord
 10
0.0
 20
0.0
 30
0.0
 70
   128
 71
    47
 72
    59
 73
    58
 74
    48
  0
VERTEX
  5
1B2
330
3F
100
AcDbEntity
  8
ｴｸｽﾃﾘｱ商品
 62
   250
370
    20
100
AcDbFaceRecord
 10
0.0
 20
0.0
 30
0.0
 70
   128
 71
    48
 72
    58
 73
    57
 74
    49
  0
VERTEX
  5
1B3
330
3F
100
AcDbEntity
  8
ｴｸｽﾃﾘｱ商品
 62
   250
370
    20
100
AcDbFaceRecord
 10
0.0
 20
0.0
 30
0.0
 70
   128
 71
    49
 72
    57
 73
    56
 74
    50
  0
VERTEX
  5
1B4
330
3F
100
AcDbEntity
  8
ｴｸｽﾃﾘｱ商品
 62
   250
370
    20
100
AcDbFaceRecord
 10
0.0
 20
0.0
 30
0.0
 70
   128
 71
    50
 72
    56
 73
    55
 74
    51
  0
VERTEX
  5
1B5
330
3F
100
AcDbEntity
  8
ｴｸｽﾃﾘｱ商品
 62
   250
370
    20
100
AcDbFaceRecord
 10
0.0
 20
0.0
 30
0.0
 70
   128
 71
    51
 72
    55
 73
    54
 74
    52
  0
VERTEX
  5
1B6
330
3F
100
AcDbEntity
  8
ｴｸｽﾃﾘｱ商品
 62
   250
370
    20
100
AcDbFaceRecord
 10
0.0
 20
0.0
 30
0.0
 70
   128
 71
    52
 72
    54
 73
    53
 74
    17
  0
VERTEX
  5
1B7
330
3F
100
AcDbEntity
  8
ｴｸｽﾃﾘｱ商品
 62
   250
370
    20
100
AcDbFaceRecord
 10
0.0
 20
0.0
 30
0.0
 70
   128
 71
    89
 72
    90
 73
    91
 74
    92
  0
VERTEX
  5
1B8
330
3F
100
AcDbEntity
  8
ｴｸｽﾃﾘｱ商品
 62
   250
370
    20
100
AcDbFaceRecord
 10
0.0
 20
0.0
 30
0.0
 70
   128
 71
    92
 72
    91
 73
    93
 74
    94
  0
VERTEX
  5
1B9
330
3F
100
AcDbEntity
  8
ｴｸｽﾃﾘｱ商品
 62
   250
370
    20
100
AcDbFaceRecord
 10
0.0
 20
0.0
 30
0.0
 70
   128
 71
    94
 72
    93
 73
    95
 74
    96
  0
VERTEX
  5
1BA
330
3F
100
AcDbEntity
  8
ｴｸｽﾃﾘｱ商品
 62
   250
370
    20
100
AcDbFaceRecord
 10
0.0
 20
0.0
 30
0.0
 70
   128
 71
    96
 72
    95
 73
    97
 74
    98
  0
VERTEX
  5
1BB
330
3F
100
AcDbEntity
  8
ｴｸｽﾃﾘｱ商品
 62
   250
370
    20
100
AcDbFaceRecord
 10
0.0
 20
0.0
 30
0.0
 70
   128
 71
    98
 72
    97
 73
    99
 74
   100
  0
VERTEX
  5
1BC
330
3F
100
AcDbEntity
  8
ｴｸｽﾃﾘｱ商品
 62
   250
370
    20
100
AcDbFaceRecord
 10
0.0
 20
0.0
 30
0.0
 70
   128
 71
   100
 72
    99
 73
   101
 74
   102
  0
VERTEX
  5
1BD
330
3F
100
AcDbEntity
  8
ｴｸｽﾃﾘｱ商品
 62
   250
370
    20
100
AcDbFaceRecord
 10
0.0
 20
0.0
 30
0.0
 70
   128
 71
   102
 72
   101
 73
   103
 74
   104
  0
VERTEX
  5
1BE
330
3F
100
AcDbEntity
  8
ｴｸｽﾃﾘｱ商品
 62
   250
370
    20
100
AcDbFaceRecord
 10
0.0
 20
0.0
 30
0.0
 70
   128
 71
   104
 72
   103
 73
    90
 74
    89
  0
VERTEX
  5
1BF
330
3F
100
AcDbEntity
  8
ｴｸｽﾃﾘｱ商品
 62
   250
370
    20
100
AcDbFaceRecord
 10
0.0
 20
0.0
 30
0.0
 70
   128
 71
    96
 72
    98
 73
   100
  0
VERTEX
  5
1C0
330
3F
100
AcDbEntity
  8
ｴｸｽﾃﾘｱ商品
 62
   250
370
    20
100
AcDbFaceRecord
 10
0.0
 20
0.0
 30
0.0
 70
   128
 71
    96
 72
   100
 73
   102
  0
VERTEX
  5
1C1
330
3F
100
AcDbEntity
  8
ｴｸｽﾃﾘｱ商品
 62
   250
370
    20
100
AcDbFaceRecord
 10
0.0
 20
0.0
 30
0.0
 70
   128
 71
    94
 72
    96
 73
   102
  0
VERTEX
  5
1C2
330
3F
100
AcDbEntity
  8
ｴｸｽﾃﾘｱ商品
 62
   250
370
    20
100
AcDbFaceRecord
 10
0.0
 20
0.0
 30
0.0
 70
   128
 71
    94
 72
   102
 73
   104
  0
VERTEX
  5
1C3
330
3F
100
AcDbEntity
  8
ｴｸｽﾃﾘｱ商品
 62
   250
370
    20
100
AcDbFaceRecord
 10
0.0
 20
0.0
 30
0.0
 70
   128
 71
    92
 72
    94
 73
   104
  0
VERTEX
  5
1C4
330
3F
100
AcDbEntity
  8
ｴｸｽﾃﾘｱ商品
 62
   250
370
    20
100
AcDbFaceRecord
 10
0.0
 20
0.0
 30
0.0
 70
   128
 71
    92
 72
   104
 73
    89
  0
VERTEX
  5
1C5
330
3F
100
AcDbEntity
  8
ｴｸｽﾃﾘｱ商品
 62
   250
370
    20
100
AcDbFaceRecord
 10
0.0
 20
0.0
 30
0.0
 70
   128
 71
   101
 72
    99
 73
    97
  0
VERTEX
  5
1C6
330
3F
100
AcDbEntity
  8
ｴｸｽﾃﾘｱ商品
 62
   250
370
    20
100
AcDbFaceRecord
 10
0.0
 20
0.0
 30
0.0
 70
   128
 71
   101
 72
    97
 73
    95
  0
VERTEX
  5
1C7
330
3F
100
AcDbEntity
  8
ｴｸｽﾃﾘｱ商品
 62
   250
370
    20
100
AcDbFaceRecord
 10
0.0
 20
0.0
 30
0.0
 70
   128
 71
   103
 72
   101
 73
    95
  0
VERTEX
  5
1C8
330
3F
100
AcDbEntity
  8
ｴｸｽﾃﾘｱ商品
 62
   250
370
    20
100
AcDbFaceRecord
 10
0.0
 20
0.0
 30
0.0
 70
   128
 71
   103
 72
    95
 73
    93
  0
VERTEX
  5
1C9
330
3F
100
AcDbEntity
  8
ｴｸｽﾃﾘｱ商品
 62
   250
370
    20
100
AcDbFaceRecord
 10
0.0
 20
0.0
 30
0.0
 70
   128
 71
    90
 72
   103
 73
    93
  0
VERTEX
  5
1CA
330
3F
100
AcDbEntity
  8
ｴｸｽﾃﾘｱ商品
 62
   250
370
    20
100
AcDbFaceRecord
 10
0.0
 20
0.0
 30
0.0
 70
   128
 71
    90
 72
    93
 73
    91
  0
VERTEX
  5
1CB
330
3F
100
AcDbEntity
  8
ｴｸｽﾃﾘｱ商品
 62
   250
370
    20
100
AcDbFaceRecord
 10
0.0
 20
0.0
 30
0.0
 70
   128
 71
   105
 72
   106
 73
   107
 74
   108
  0
VERTEX
  5
1CC
330
3F
100
AcDbEntity
  8
ｴｸｽﾃﾘｱ商品
 62
   250
370
    20
100
AcDbFaceRecord
 10
0.0
 20
0.0
 30
0.0
 70
   128
 71
   108
 72
   107
 73
   109
 74
   110
  0
VERTEX
  5
1CD
330
3F
100
AcDbEntity
  8
ｴｸｽﾃﾘｱ商品
 62
   250
370
    20
100
AcDbFaceRecord
 10
0.0
 20
0.0
 30
0.0
 70
   128
 71
   110
 72
   109
 73
   111
 74
   112
  0
VERTEX
  5
1CE
330
3F
100
AcDbEntity
  8
ｴｸｽﾃﾘｱ商品
 62
   250
370
    20
100
AcDbFaceRecord
 10
0.0
 20
0.0
 30
0.0
 70
   128
 71
   112
 72
   111
 73
   113
 74
   114
  0
VERTEX
  5
1CF
330
3F
100
AcDbEntity
  8
ｴｸｽﾃﾘｱ商品
 62
   250
370
    20
100
AcDbFaceRecord
 10
0.0
 20
0.0
 30
0.0
 70
   128
 71
   114
 72
   113
 73
   115
 74
   116
  0
VERTEX
  5
1D0
330
3F
100
AcDbEntity
  8
ｴｸｽﾃﾘｱ商品
 62
   250
370
    20
100
AcDbFaceRecord
 10
0.0
 20
0.0
 30
0.0
 70
   128
 71
   116
 72
   115
 73
   117
 74
   118
  0
VERTEX
  5
1D1
330
3F
100
AcDbEntity
  8
ｴｸｽﾃﾘｱ商品
 62
   250
370
    20
100
AcDbFaceRecord
 10
0.0
 20
0.0
 30
0.0
 70
   128
 71
   118
 72
   117
 73
   119
 74
   120
  0
VERTEX
  5
1D2
330
3F
100
AcDbEntity
  8
ｴｸｽﾃﾘｱ商品
 62
   250
370
    20
100
AcDbFaceRecord
 10
0.0
 20
0.0
 30
0.0
 70
   128
 71
   120
 72
   119
 73
   121
 74
   122
  0
VERTEX
  5
1D3
330
3F
100
AcDbEntity
  8
ｴｸｽﾃﾘｱ商品
 62
   250
370
    20
100
AcDbFaceRecord
 10
0.0
 20
0.0
 30
0.0
 70
   128
 71
   122
 72
   121
 73
   123
 74
   124
  0
VERTEX
  5
1D4
330
3F
100
AcDbEntity
  8
ｴｸｽﾃﾘｱ商品
 62
   250
370
    20
100
AcDbFaceRecord
 10
0.0
 20
0.0
 30
0.0
 70
   128
 71
   124
 72
   123
 73
   125
 74
   126
  0
VERTEX
  5
1D5
330
3F
100
AcDbEntity
  8
ｴｸｽﾃﾘｱ商品
 62
   250
370
    20
100
AcDbFaceRecord
 10
0.0
 20
0.0
 30
0.0
 70
   128
 71
   126
 72
   125
 73
   127
 74
   128
  0
VERTEX
  5
1D6
330
3F
100
AcDbEntity
  8
ｴｸｽﾃﾘｱ商品
 62
   250
370
    20
100
AcDbFaceRecord
 10
0.0
 20
0.0
 30
0.0
 70
   128
 71
   128
 72
   127
 73
   129
 74
   130
  0
VERTEX
  5
1D7
330
3F
100
AcDbEntity
  8
ｴｸｽﾃﾘｱ商品
 62
   250
370
    20
100
AcDbFaceRecord
 10
0.0
 20
0.0
 30
0.0
 70
   128
 71
   130
 72
   129
 73
   131
 74
   132
  0
VERTEX
  5
1D8
330
3F
100
AcDbEntity
  8
ｴｸｽﾃﾘｱ商品
 62
   250
370
    20
100
AcDbFaceRecord
 10
0.0
 20
0.0
 30
0.0
 70
   128
 71
   132
 72
   131
 73
   133
 74
   134
  0
VERTEX
  5
1D9
330
3F
100
AcDbEntity
  8
ｴｸｽﾃﾘｱ商品
 62
   250
370
    20
100
AcDbFaceRecord
 10
0.0
 20
0.0
 30
0.0
 70
   128
 71
   134
 72
   133
 73
   135
 74
   136
  0
VERTEX
  5
1DA
330
3F
100
AcDbEntity
  8
ｴｸｽﾃﾘｱ商品
 62
   250
370
    20
100
AcDbFaceRecord
 10
0.0
 20
0.0
 30
0.0
 70
   128
 71
   136
 72
   135
 73
   137
 74
   138
  0
VERTEX
  5
1DB
330
3F
100
AcDbEntity
  8
ｴｸｽﾃﾘｱ商品
 62
   250
370
    20
100
AcDbFaceRecord
 10
0.0
 20
0.0
 30
0.0
 70
   128
 71
   138
 72
   137
 73
   106
 74
   105
  0
VERTEX
  5
1DC
330
3F
100
AcDbEntity
  8
ｴｸｽﾃﾘｱ商品
 62
   250
370
    20
100
AcDbFaceRecord
 10
0.0
 20
0.0
 30
0.0
 70
   128
 71
   105
 72
   108
 73
   110
 74
   112
  0
VERTEX
  5
1DD
330
3F
100
AcDbEntity
  8
ｴｸｽﾃﾘｱ商品
 62
   250
370
    20
100
AcDbFaceRecord
 10
0.0
 20
0.0
 30
0.0
 70
   128
 71
   105
 72
   112
 73
   114
 74
   116
  0
VERTEX
  5
1DE
330
3F
100
AcDbEntity
  8
ｴｸｽﾃﾘｱ商品
 62
   250
370
    20
100
AcDbFaceRecord
 10
0.0
 20
0.0
 30
0.0
 70
   128
 71
   105
 72
   116
 73
   118
 74
   120
  0
VERTEX
  5
1DF
330
3F
100
AcDbEntity
  8
ｴｸｽﾃﾘｱ商品
 62
   250
370
    20
100
AcDbFaceRecord
 10
0.0
 20
0.0
 30
0.0
 70
   128
 71
   105
 72
   120
 73
   122
 74
   124
  0
VERTEX
  5
1E0
330
3F
100
AcDbEntity
  8
ｴｸｽﾃﾘｱ商品
 62
   250
370
    20
100
AcDbFaceRecord
 10
0.0
 20
0.0
 30
0.0
 70
   128
 71
   105
 72
   124
 73
   126
 74
   128
  0
VERTEX
  5
1E1
330
3F
100
AcDbEntity
  8
ｴｸｽﾃﾘｱ商品
 62
   250
370
    20
100
AcDbFaceRecord
 10
0.0
 20
0.0
 30
0.0
 70
   128
 71
   105
 72
   128
 73
   130
 74
   132
  0
VERTEX
  5
1E2
330
3F
100
AcDbEntity
  8
ｴｸｽﾃﾘｱ商品
 62
   250
370
    20
100
AcDbFaceRecord
 10
0.0
 20
0.0
 30
0.0
 70
   128
 71
   105
 72
   132
 73
   134
 74
   136
  0
VERTEX
  5
1E3
330
3F
100
AcDbEntity
  8
ｴｸｽﾃﾘｱ商品
 62
   250
370
    20
100
AcDbFaceRecord
 10
0.0
 20
0.0
 30
0.0
 70
   128
 71
   105
 72
   136
 73
   138
  0
VERTEX
  5
1E4
330
3F
100
AcDbEntity
  8
ｴｸｽﾃﾘｱ商品
 62
   250
370
    20
100
AcDbFaceRecord
 10
0.0
 20
0.0
 30
0.0
 70
   128
 71
   106
 72
   137
 73
   135
 74
   133
  0
VERTEX
  5
1E5
330
3F
100
AcDbEntity
  8
ｴｸｽﾃﾘｱ商品
 62
   250
370
    20
100
AcDbFaceRecord
 10
0.0
 20
0.0
 30
0.0
 70
   128
 71
   106
 72
   133
 73
   131
 74
   129
  0
VERTEX
  5
1E6
330
3F
100
AcDbEntity
  8
ｴｸｽﾃﾘｱ商品
 62
   250
370
    20
100
AcDbFaceRecord
 10
0.0
 20
0.0
 30
0.0
 70
   128
 71
   106
 72
   129
 73
   127
 74
   125
  0
VERTEX
  5
1E7
330
3F
100
AcDbEntity
  8
ｴｸｽﾃﾘｱ商品
 62
   250
370
    20
100
AcDbFaceRecord
 10
0.0
 20
0.0
 30
0.0
 70
   128
 71
   106
 72
   125
 73
   123
 74
   121
  0
VERTEX
  5
1E8
330
3F
100
AcDbEntity
  8
ｴｸｽﾃﾘｱ商品
 62
   250
370
    20
100
AcDbFaceRecord
 10
0.0
 20
0.0
 30
0.0
 70
   128
 71
   106
 72
   121
 73
   119
 74
   117
  0
VERTEX
  5
1E9
330
3F
100
AcDbEntity
  8
ｴｸｽﾃﾘｱ商品
 62
   250
370
    20
100
AcDbFaceRecord
 10
0.0
 20
0.0
 30
0.0
 70
   128
 71
   106
 72
   117
 73
   115
 74
   113
  0
VERTEX
  5
1EA
330
3F
100
AcDbEntity
  8
ｴｸｽﾃﾘｱ商品
 62
   250
370
    20
100
AcDbFaceRecord
 10
0.0
 20
0.0
 30
0.0
 70
   128
 71
   106
 72
   113
 73
   111
 74
   109
  0
VERTEX
  5
1EB
330
3F
100
AcDbEntity
  8
ｴｸｽﾃﾘｱ商品
 62
   250
370
    20
100
AcDbFaceRecord
 10
0.0
 20
0.0
 30
0.0
 70
   128
 71
   106
 72
   109
 73
   107
  0
VERTEX
  5
1EC
330
3F
100
AcDbEntity
  8
ｴｸｽﾃﾘｱ商品
 62
   250
370
    20
100
AcDbFaceRecord
 10
0.0
 20
0.0
 30
0.0
 70
   128
 71
   139
 72
   140
 73
   141
 74
   142
  0
VERTEX
  5
1ED
330
3F
100
AcDbEntity
  8
ｴｸｽﾃﾘｱ商品
 62
   250
370
    20
100
AcDbFaceRecord
 10
0.0
 20
0.0
 30
0.0
 70
   128
 71
   139
 72
   142
 73
   143
 74
   144
  0
VERTEX
  5
1EE
330
3F
100
AcDbEntity
  8
ｴｸｽﾃﾘｱ商品
 62
   250
370
    20
100
AcDbFaceRecord
 10
0.0
 20
0.0
 30
0.0
 70
   128
 71
   139
 72
   144
 73
   145
 74
   146
  0
VERTEX
  5
1EF
330
3F
100
AcDbEntity
  8
ｴｸｽﾃﾘｱ商品
 62
   250
370
    20
100
AcDbFaceRecord
 10
0.0
 20
0.0
 30
0.0
 70
   128
 71
   139
 72
   146
 73
   147
 74
   148
  0
VERTEX
  5
1F0
330
3F
100
AcDbEntity
  8
ｴｸｽﾃﾘｱ商品
 62
   250
370
    20
100
AcDbFaceRecord
 10
0.0
 20
0.0
 30
0.0
 70
   128
 71
   139
 72
   148
 73
   149
 74
   150
  0
VERTEX
  5
1F1
330
3F
100
AcDbEntity
  8
ｴｸｽﾃﾘｱ商品
 62
   250
370
    20
100
AcDbFaceRecord
 10
0.0
 20
0.0
 30
0.0
 70
   128
 71
   139
 72
   150
 73
   151
 74
   152
  0
VERTEX
  5
1F2
330
3F
100
AcDbEntity
  8
ｴｸｽﾃﾘｱ商品
 62
   250
370
    20
100
AcDbFaceRecord
 10
0.0
 20
0.0
 30
0.0
 70
   128
 71
   139
 72
   152
 73
   153
 74
   154
  0
VERTEX
  5
1F3
330
3F
100
AcDbEntity
  8
ｴｸｽﾃﾘｱ商品
 62
   250
370
    20
100
AcDbFaceRecord
 10
0.0
 20
0.0
 30
0.0
 70
   128
 71
   139
 72
   154
 73
   155
 74
   156
  0
VERTEX
  5
1F4
330
3F
100
AcDbEntity
  8
ｴｸｽﾃﾘｱ商品
 62
   250
370
    20
100
AcDbFaceRecord
 10
0.0
 20
0.0
 30
0.0
 70
   128
 71
   139
 72
   156
 73
   157
 74
   158
  0
VERTEX
  5
1F5
330
3F
100
AcDbEntity
  8
ｴｸｽﾃﾘｱ商品
 62
   250
370
    20
100
AcDbFaceRecord
 10
0.0
 20
0.0
 30
0.0
 70
   128
 71
   139
 72
   158
 73
   159
 74
   160
  0
VERTEX
  5
1F6
330
3F
100
AcDbEntity
  8
ｴｸｽﾃﾘｱ商品
 62
   250
370
    20
100
AcDbFaceRecord
 10
0.0
 20
0.0
 30
0.0
 70
   128
 71
   139
 72
   160
 73
   161
 74
   162
  0
VERTEX
  5
1F7
330
3F
100
AcDbEntity
  8
ｴｸｽﾃﾘｱ商品
 62
   250
370
    20
100
AcDbFaceRecord
 10
0.0
 20
0.0
 30
0.0
 70
   128
 71
   139
 72
   162
 73
   163
 74
   164
  0
VERTEX
  5
1F8
330
3F
100
AcDbEntity
  8
ｴｸｽﾃﾘｱ商品
 62
   250
370
    20
100
AcDbFaceRecord
 10
0.0
 20
0.0
 30
0.0
 70
   128
 71
   139
 72
   164
 73
   165
 74
   166
  0
VERTEX
  5
1F9
330
3F
100
AcDbEntity
  8
ｴｸｽﾃﾘｱ商品
 62
   250
370
    20
100
AcDbFaceRecord
 10
0.0
 20
0.0
 30
0.0
 70
   128
 71
   139
 72
   166
 73
   167
 74
   168
  0
VERTEX
  5
1FA
330
3F
100
AcDbEntity
  8
ｴｸｽﾃﾘｱ商品
 62
   250
370
    20
100
AcDbFaceRecord
 10
0.0
 20
0.0
 30
0.0
 70
   128
 71
   139
 72
   168
 73
   169
 74
   170
  0
VERTEX
  5
1FB
330
3F
100
AcDbEntity
  8
ｴｸｽﾃﾘｱ商品
 62
   250
370
    20
100
AcDbFaceRecord
 10
0.0
 20
0.0
 30
0.0
 70
   128
 71
   139
 72
   170
 73
   171
 74
   172
  0
VERTEX
  5
1FC
330
3F
100
AcDbEntity
  8
ｴｸｽﾃﾘｱ商品
 62
   250
370
    20
100
AcDbFaceRecord
 10
0.0
 20
0.0
 30
0.0
 70
   128
 71
   139
 72
   172
 73
   173
 74
   174
  0
VERTEX
  5
1FD
330
3F
100
AcDbEntity
  8
ｴｸｽﾃﾘｱ商品
 62
   250
370
    20
100
AcDbFaceRecord
 10
0.0
 20
0.0
 30
0.0
 70
   128
 71
   175
 72
   176
 73
   177
 74
   178
  0
VERTEX
  5
1FE
330
3F
100
AcDbEntity
  8
ｴｸｽﾃﾘｱ商品
 62
   250
370
    20
100
AcDbFaceRecord
 10
0.0
 20
0.0
 30
0.0
 70
   128
 71
   175
 72
   178
 73
   179
 74
   180
  0
VERTEX
  5
1FF
330
3F
100
AcDbEntity
  8
ｴｸｽﾃﾘｱ商品
 62
   250
370
    20
100
AcDbFaceRecord
 10
0.0
 20
0.0
 30
0.0
 70
   128
 71
   175
 72
   180
 73
   181
 74
   182
  0
VERTEX
  5
200
330
3F
100
AcDbEntity
  8
ｴｸｽﾃﾘｱ商品
 62
   250
370
    20
100
AcDbFaceRecord
 10
0.0
 20
0.0
 30
0.0
 70
   128
 71
   175
 72
   182
 73
   183
 74
   184
  0
VERTEX
  5
201
330
3F
100
AcDbEntity
  8
ｴｸｽﾃﾘｱ商品
 62
   250
370
    20
100
AcDbFaceRecord
 10
0.0
 20
0.0
 30
0.0
 70
   128
 71
   175
 72
   184
 73
   185
 74
   186
  0
VERTEX
  5
202
330
3F
100
AcDbEntity
  8
ｴｸｽﾃﾘｱ商品
 62
   250
370
    20
100
AcDbFaceRecord
 10
0.0
 20
0.0
 30
0.0
 70
   128
 71
   175
 72
   186
 73
   187
 74
   188
  0
VERTEX
  5
203
330
3F
100
AcDbEntity
  8
ｴｸｽﾃﾘｱ商品
 62
   250
370
    20
100
AcDbFaceRecord
 10
0.0
 20
0.0
 30
0.0
 70
   128
 71
   175
 72
   188
 73
   189
 74
   190
  0
VERTEX
  5
204
330
3F
100
AcDbEntity
  8
ｴｸｽﾃﾘｱ商品
 62
   250
370
    20
100
AcDbFaceRecord
 10
0.0
 20
0.0
 30
0.0
 70
   128
 71
   175
 72
   190
 73
   191
 74
   192
  0
VERTEX
  5
205
330
3F
100
AcDbEntity
  8
ｴｸｽﾃﾘｱ商品
 62
   250
370
    20
100
AcDbFaceRecord
 10
0.0
 20
0.0
 30
0.0
 70
   128
 71
   175
 72
   192
 73
   193
 74
   194
  0
VERTEX
  5
206
330
3F
100
AcDbEntity
  8
ｴｸｽﾃﾘｱ商品
 62
   250
370
    20
100
AcDbFaceRecord
 10
0.0
 20
0.0
 30
0.0
 70
   128
 71
   175
 72
   194
 73
   195
 74
   196
  0
VERTEX
  5
207
330
3F
100
AcDbEntity
  8
ｴｸｽﾃﾘｱ商品
 62
   250
370
    20
100
AcDbFaceRecord
 10
0.0
 20
0.0
 30
0.0
 70
   128
 71
   175
 72
   196
 73
   197
 74
   198
  0
VERTEX
  5
208
330
3F
100
AcDbEntity
  8
ｴｸｽﾃﾘｱ商品
 62
   250
370
    20
100
AcDbFaceRecord
 10
0.0
 20
0.0
 30
0.0
 70
   128
 71
   175
 72
   198
 73
   199
 74
   200
  0
VERTEX
  5
209
330
3F
100
AcDbEntity
  8
ｴｸｽﾃﾘｱ商品
 62
   250
370
    20
100
AcDbFaceRecord
 10
0.0
 20
0.0
 30
0.0
 70
   128
 71
   175
 72
   200
 73
   201
 74
   202
  0
VERTEX
  5
20A
330
3F
100
AcDbEntity
  8
ｴｸｽﾃﾘｱ商品
 62
   250
370
    20
100
AcDbFaceRecord
 10
0.0
 20
0.0
 30
0.0
 70
   128
 71
   175
 72
   202
 73
   203
 74
   204
  0
VERTEX
  5
20B
330
3F
100
AcDbEntity
  8
ｴｸｽﾃﾘｱ商品
 62
   250
370
    20
100
AcDbFaceRecord
 10
0.0
 20
0.0
 30
0.0
 70
   128
 71
   175
 72
   204
 73
   205
 74
   206
  0
VERTEX
  5
20C
330
3F
100
AcDbEntity
  8
ｴｸｽﾃﾘｱ商品
 62
   250
370
    20
100
AcDbFaceRecord
 10
0.0
 20
0.0
 30
0.0
 70
   128
 71
   175
 72
   206
 73
   207
 74
   208
  0
VERTEX
  5
20D
330
3F
100
AcDbEntity
  8
ｴｸｽﾃﾘｱ商品
 62
   250
370
    20
100
AcDbFaceRecord
 10
0.0
 20
0.0
 30
0.0
 70
   128
 71
   175
 72
   208
 73
   209
 74
   210
  0
VERTEX
  5
20E
330
3F
100
AcDbEntity
  8
ｴｸｽﾃﾘｱ商品
 62
   250
370
    20
100
AcDbFaceRecord
 10
0.0
 20
0.0
 30
0.0
 70
   128
 71
   139
 72
   175
 73
   210
 74
   140
  0
VERTEX
  5
20F
330
3F
100
AcDbEntity
  8
ｴｸｽﾃﾘｱ商品
 62
   250
370
    20
100
AcDbFaceRecord
 10
0.0
 20
0.0
 30
0.0
 70
   128
 71
   140
 72
   210
 73
   209
 74
   141
  0
VERTEX
  5
210
330
3F
100
AcDbEntity
  8
ｴｸｽﾃﾘｱ商品
 62
   250
370
    20
100
AcDbFaceRecord
 10
0.0
 20
0.0
 30
0.0
 70
   128
 71
   141
 72
   209
 73
   208
 74
   142
  0
VERTEX
  5
211
330
3F
100
AcDbEntity
  8
ｴｸｽﾃﾘｱ商品
 62
   250
370
    20
100
AcDbFaceRecord
 10
0.0
 20
0.0
 30
0.0
 70
   128
 71
   142
 72
   208
 73
   207
 74
   143
  0
VERTEX
  5
212
330
3F
100
AcDbEntity
  8
ｴｸｽﾃﾘｱ商品
 62
   250
370
    20
100
AcDbFaceRecord
 10
0.0
 20
0.0
 30
0.0
 70
   128
 71
   143
 72
   207
 73
   206
 74
   144
  0
VERTEX
  5
213
330
3F
100
AcDbEntity
  8
ｴｸｽﾃﾘｱ商品
 62
   250
370
    20
100
AcDbFaceRecord
 10
0.0
 20
0.0
 30
0.0
 70
   128
 71
   144
 72
   206
 73
   205
 74
   145
  0
VERTEX
  5
214
330
3F
100
AcDbEntity
  8
ｴｸｽﾃﾘｱ商品
 62
   250
370
    20
100
AcDbFaceRecord
 10
0.0
 20
0.0
 30
0.0
 70
   128
 71
   145
 72
   205
 73
   204
 74
   146
  0
VERTEX
  5
215
330
3F
100
AcDbEntity
  8
ｴｸｽﾃﾘｱ商品
 62
   250
370
    20
100
AcDbFaceRecord
 10
0.0
 20
0.0
 30
0.0
 70
   128
 71
   146
 72
   204
 73
   203
 74
   147
  0
VERTEX
  5
216
330
3F
100
AcDbEntity
  8
ｴｸｽﾃﾘｱ商品
 62
   250
370
    20
100
AcDbFaceRecord
 10
0.0
 20
0.0
 30
0.0
 70
   128
 71
   147
 72
   203
 73
   202
 74
   148
  0
VERTEX
  5
217
330
3F
100
AcDbEntity
  8
ｴｸｽﾃﾘｱ商品
 62
   250
370
    20
100
AcDbFaceRecord
 10
0.0
 20
0.0
 30
0.0
 70
   128
 71
   148
 72
   202
 73
   201
 74
   149
  0
VERTEX
  5
218
330
3F
100
AcDbEntity
  8
ｴｸｽﾃﾘｱ商品
 62
   250
370
    20
100
AcDbFaceRecord
 10
0.0
 20
0.0
 30
0.0
 70
   128
 71
   149
 72
   201
 73
   200
 74
   150
  0
VERTEX
  5
219
330
3F
100
AcDbEntity
  8
ｴｸｽﾃﾘｱ商品
 62
   250
370
    20
100
AcDbFaceRecord
 10
0.0
 20
0.0
 30
0.0
 70
   128
 71
   150
 72
   200
 73
   199
 74
   151
  0
VERTEX
  5
21A
330
3F
100
AcDbEntity
  8
ｴｸｽﾃﾘｱ商品
 62
   250
370
    20
100
AcDbFaceRecord
 10
0.0
 20
0.0
 30
0.0
 70
   128
 71
   151
 72
   199
 73
   198
 74
   152
  0
VERTEX
  5
21B
330
3F
100
AcDbEntity
  8
ｴｸｽﾃﾘｱ商品
 62
   250
370
    20
100
AcDbFaceRecord
 10
0.0
 20
0.0
 30
0.0
 70
   128
 71
   152
 72
   198
 73
   197
 74
   153
  0
VERTEX
  5
21C
330
3F
100
AcDbEntity
  8
ｴｸｽﾃﾘｱ商品
 62
   250
370
    20
100
AcDbFaceRecord
 10
0.0
 20
0.0
 30
0.0
 70
   128
 71
   153
 72
   197
 73
   196
 74
   154
  0
VERTEX
  5
21D
330
3F
100
AcDbEntity
  8
ｴｸｽﾃﾘｱ商品
 62
   250
370
    20
100
AcDbFaceRecord
 10
0.0
 20
0.0
 30
0.0
 70
   128
 71
   154
 72
   196
 73
   195
 74
   155
  0
VERTEX
  5
21E
330
3F
100
AcDbEntity
  8
ｴｸｽﾃﾘｱ商品
 62
   250
370
    20
100
AcDbFaceRecord
 10
0.0
 20
0.0
 30
0.0
 70
   128
 71
   155
 72
   195
 73
   194
 74
   156
  0
VERTEX
  5
21F
330
3F
100
AcDbEntity
  8
ｴｸｽﾃﾘｱ商品
 62
   250
370
    20
100
AcDbFaceRecord
 10
0.0
 20
0.0
 30
0.0
 70
   128
 71
   156
 72
   194
 73
   193
 74
   157
  0
VERTEX
  5
220
330
3F
100
AcDbEntity
  8
ｴｸｽﾃﾘｱ商品
 62
   250
370
    20
100
AcDbFaceRecord
 10
0.0
 20
0.0
 30
0.0
 70
   128
 71
   157
 72
   193
 73
   192
 74
   158
  0
VERTEX
  5
221
330
3F
100
AcDbEntity
  8
ｴｸｽﾃﾘｱ商品
 62
   250
370
    20
100
AcDbFaceRecord
 10
0.0
 20
0.0
 30
0.0
 70
   128
 71
   158
 72
   192
 73
   191
 74
   159
  0
VERTEX
  5
222
330
3F
100
AcDbEntity
  8
ｴｸｽﾃﾘｱ商品
 62
   250
370
    20
100
AcDbFaceRecord
 10
0.0
 20
0.0
 30
0.0
 70
   128
 71
   159
 72
   191
 73
   190
 74
   160
  0
VERTEX
  5
223
330
3F
100
AcDbEntity
  8
ｴｸｽﾃﾘｱ商品
 62
   250
370
    20
100
AcDbFaceRecord
 10
0.0
 20
0.0
 30
0.0
 70
   128
 71
   160
 72
   190
 73
   189
 74
   161
  0
VERTEX
  5
224
330
3F
100
AcDbEntity
  8
ｴｸｽﾃﾘｱ商品
 62
   250
370
    20
100
AcDbFaceRecord
 10
0.0
 20
0.0
 30
0.0
 70
   128
 71
   161
 72
   189
 73
   188
 74
   162
  0
VERTEX
  5
225
330
3F
100
AcDbEntity
  8
ｴｸｽﾃﾘｱ商品
 62
   250
370
    20
100
AcDbFaceRecord
 10
0.0
 20
0.0
 30
0.0
 70
   128
 71
   162
 72
   188
 73
   187
 74
   163
  0
VERTEX
  5
226
330
3F
100
AcDbEntity
  8
ｴｸｽﾃﾘｱ商品
 62
   250
370
    20
100
AcDbFaceRecord
 10
0.0
 20
0.0
 30
0.0
 70
   128
 71
   163
 72
   187
 73
   186
 74
   164
  0
VERTEX
  5
227
330
3F
100
AcDbEntity
  8
ｴｸｽﾃﾘｱ商品
 62
   250
370
    20
100
AcDbFaceRecord
 10
0.0
 20
0.0
 30
0.0
 70
   128
 71
   164
 72
   186
 73
   185
 74
   165
  0
VERTEX
  5
228
330
3F
100
AcDbEntity
  8
ｴｸｽﾃﾘｱ商品
 62
   250
370
    20
100
AcDbFaceRecord
 10
0.0
 20
0.0
 30
0.0
 70
   128
 71
   165
 72
   185
 73
   184
 74
   166
  0
VERTEX
  5
229
330
3F
100
AcDbEntity
  8
ｴｸｽﾃﾘｱ商品
 62
   250
370
    20
100
AcDbFaceRecord
 10
0.0
 20
0.0
 30
0.0
 70
   128
 71
   166
 72
   184
 73
   183
 74
   167
  0
VERTEX
  5
22A
330
3F
100
AcDbEntity
  8
ｴｸｽﾃﾘｱ商品
 62
   250
370
    20
100
AcDbFaceRecord
 10
0.0
 20
0.0
 30
0.0
 70
   128
 71
   167
 72
   183
 73
   182
 74
   168
  0
VERTEX
  5
22B
330
3F
100
AcDbEntity
  8
ｴｸｽﾃﾘｱ商品
 62
   250
370
    20
100
AcDbFaceRecord
 10
0.0
 20
0.0
 30
0.0
 70
   128
 71
   168
 72
   182
 73
   181
 74
   169
  0
VERTEX
  5
22C
330
3F
100
AcDbEntity
  8
ｴｸｽﾃﾘｱ商品
 62
   250
370
    20
100
AcDbFaceRecord
 10
0.0
 20
0.0
 30
0.0
 70
   128
 71
   169
 72
   181
 73
   180
 74
   170
  0
VERTEX
  5
22D
330
3F
100
AcDbEntity
  8
ｴｸｽﾃﾘｱ商品
 62
   250
370
    20
100
AcDbFaceRecord
 10
0.0
 20
0.0
 30
0.0
 70
   128
 71
   170
 72
   180
 73
   179
 74
   171
  0
VERTEX
  5
22E
330
3F
100
AcDbEntity
  8
ｴｸｽﾃﾘｱ商品
 62
   250
370
    20
100
AcDbFaceRecord
 10
0.0
 20
0.0
 30
0.0
 70
   128
 71
   171
 72
   179
 73
   178
 74
   172
  0
VERTEX
  5
22F
330
3F
100
AcDbEntity
  8
ｴｸｽﾃﾘｱ商品
 62
   250
370
    20
100
AcDbFaceRecord
 10
0.0
 20
0.0
 30
0.0
 70
   128
 71
   172
 72
   178
 73
   177
 74
   173
  0
VERTEX
  5
230
330
3F
100
AcDbEntity
  8
ｴｸｽﾃﾘｱ商品
 62
   250
370
    20
100
AcDbFaceRecord
 10
0.0
 20
0.0
 30
0.0
 70
   128
 71
   173
 72
   177
 73
   176
 74
   174
  0
VERTEX
  5
231
330
3F
100
AcDbEntity
  8
ｴｸｽﾃﾘｱ商品
 62
   250
370
    20
100
AcDbFaceRecord
 10
0.0
 20
0.0
 30
0.0
 70
   128
 71
   174
 72
   176
 73
   175
 74
   139
  0
VERTEX
  5
232
330
3F
100
AcDbEntity
  8
ｴｸｽﾃﾘｱ商品
 62
   250
370
    20
100
AcDbFaceRecord
 10
0.0
 20
0.0
 30
0.0
 70
   128
 71
   211
 72
   212
 73
   213
 74
   214
  0
VERTEX
  5
233
330
3F
100
AcDbEntity
  8
ｴｸｽﾃﾘｱ商品
 62
   250
370
    20
100
AcDbFaceRecord
 10
0.0
 20
0.0
 30
0.0
 70
   128
 71
   214
 72
   213
 73
   215
 74
   216
  0
VERTEX
  5
234
330
3F
100
AcDbEntity
  8
ｴｸｽﾃﾘｱ商品
 62
   250
370
    20
100
AcDbFaceRecord
 10
0.0
 20
0.0
 30
0.0
 70
   128
 71
   216
 72
   215
 73
   217
 74
   218
  0
VERTEX
  5
235
330
3F
100
AcDbEntity
  8
ｴｸｽﾃﾘｱ商品
 62
   250
370
    20
100
AcDbFaceRecord
 10
0.0
 20
0.0
 30
0.0
 70
   128
 71
   218
 72
   217
 73
   219
 74
   220
  0
VERTEX
  5
236
330
3F
100
AcDbEntity
  8
ｴｸｽﾃﾘｱ商品
 62
   250
370
    20
100
AcDbFaceRecord
 10
0.0
 20
0.0
 30
0.0
 70
   128
 71
   220
 72
   219
 73
   221
 74
   222
  0
VERTEX
  5
237
330
3F
100
AcDbEntity
  8
ｴｸｽﾃﾘｱ商品
 62
   250
370
    20
100
AcDbFaceRecord
 10
0.0
 20
0.0
 30
0.0
 70
   128
 71
   222
 72
   221
 73
   223
 74
   224
  0
VERTEX
  5
238
330
3F
100
AcDbEntity
  8
ｴｸｽﾃﾘｱ商品
 62
   250
370
    20
100
AcDbFaceRecord
 10
0.0
 20
0.0
 30
0.0
 70
   128
 71
   224
 72
   223
 73
   225
 74
   226
  0
VERTEX
  5
239
330
3F
100
AcDbEntity
  8
ｴｸｽﾃﾘｱ商品
 62
   250
370
    20
100
AcDbFaceRecord
 10
0.0
 20
0.0
 30
0.0
 70
   128
 71
   226
 72
   225
 73
   212
 74
   211
  0
VERTEX
  5
23A
330
3F
100
AcDbEntity
  8
ｴｸｽﾃﾘｱ商品
 62
   250
370
    20
100
AcDbFaceRecord
 10
0.0
 20
0.0
 30
0.0
 70
   128
 71
   218
 72
   220
 73
   222
  0
VERTEX
  5
23B
330
3F
100
AcDbEntity
  8
ｴｸｽﾃﾘｱ商品
 62
   250
370
    20
100
AcDbFaceRecord
 10
0.0
 20
0.0
 30
0.0
 70
   128
 71
   218
 72
   222
 73
   224
  0
VERTEX
  5
23C
330
3F
100
AcDbEntity
  8
ｴｸｽﾃﾘｱ商品
 62
   250
370
    20
100
AcDbFaceRecord
 10
0.0
 20
0.0
 30
0.0
 70
   128
 71
   216
 72
   218
 73
   224
  0
VERTEX
  5
23D
330
3F
100
AcDbEntity
  8
ｴｸｽﾃﾘｱ商品
 62
   250
370
    20
100
AcDbFaceRecord
 10
0.0
 20
0.0
 30
0.0
 70
   128
 71
   216
 72
   224
 73
   226
  0
VERTEX
  5
23E
330
3F
100
AcDbEntity
  8
ｴｸｽﾃﾘｱ商品
 62
   250
370
    20
100
AcDbFaceRecord
 10
0.0
 20
0.0
 30
0.0
 70
   128
 71
   214
 72
   216
 73
   226
  0
VERTEX
  5
23F
330
3F
100
AcDbEntity
  8
ｴｸｽﾃﾘｱ商品
 62
   250
370
    20
100
AcDbFaceRecord
 10
0.0
 20
0.0
 30
0.0
 70
   128
 71
   214
 72
   226
 73
   211
  0
VERTEX
  5
240
330
3F
100
AcDbEntity
  8
ｴｸｽﾃﾘｱ商品
 62
   250
370
    20
100
AcDbFaceRecord
 10
0.0
 20
0.0
 30
0.0
 70
   128
 71
   223
 72
   221
 73
   219
  0
VERTEX
  5
241
330
3F
100
AcDbEntity
  8
ｴｸｽﾃﾘｱ商品
 62
   250
370
    20
100
AcDbFaceRecord
 10
0.0
 20
0.0
 30
0.0
 70
   128
 71
   223
 72
   219
 73
   217
  0
VERTEX
  5
242
330
3F
100
AcDbEntity
  8
ｴｸｽﾃﾘｱ商品
 62
   250
370
    20
100
AcDbFaceRecord
 10
0.0
 20
0.0
 30
0.0
 70
   128
 71
   225
 72
   223
 73
   217
  0
VERTEX
  5
243
330
3F
100
AcDbEntity
  8
ｴｸｽﾃﾘｱ商品
 62
   250
370
    20
100
AcDbFaceRecord
 10
0.0
 20
0.0
 30
0.0
 70
   128
 71
   225
 72
   217
 73
   215
  0
VERTEX
  5
244
330
3F
100
AcDbEntity
  8
ｴｸｽﾃﾘｱ商品
 62
   250
370
    20
100
AcDbFaceRecord
 10
0.0
 20
0.0
 30
0.0
 70
   128
 71
   212
 72
   225
 73
   215
  0
VERTEX
  5
245
330
3F
100
AcDbEntity
  8
ｴｸｽﾃﾘｱ商品
 62
   250
370
    20
100
AcDbFaceRecord
 10
0.0
 20
0.0
 30
0.0
 70
   128
 71
   212
 72
   215
 73
   213
  0
VERTEX
  5
246
330
3F
100
AcDbEntity
  8
ｴｸｽﾃﾘｱ商品
 62
   250
370
    20
100
AcDbFaceRecord
 10
0.0
 20
0.0
 30
0.0
 70
   128
 71
   227
 72
   228
 73
   229
 74
   230
  0
VERTEX
  5
247
330
3F
100
AcDbEntity
  8
ｴｸｽﾃﾘｱ商品
 62
   250
370
    20
100
AcDbFaceRecord
 10
0.0
 20
0.0
 30
0.0
 70
   128
 71
   230
 72
   229
 73
   231
 74
   232
  0
VERTEX
  5
248
330
3F
100
AcDbEntity
  8
ｴｸｽﾃﾘｱ商品
 62
   250
370
    20
100
AcDbFaceRecord
 10
0.0
 20
0.0
 30
0.0
 70
   128
 71
   232
 72
   231
 73
   233
 74
   234
  0
VERTEX
  5
249
330
3F
100
AcDbEntity
  8
ｴｸｽﾃﾘｱ商品
 62
   250
370
    20
100
AcDbFaceRecord
 10
0.0
 20
0.0
 30
0.0
 70
   128
 71
   234
 72
   233
 73
   235
 74
   236
  0
VERTEX
  5
24A
330
3F
100
AcDbEntity
  8
ｴｸｽﾃﾘｱ商品
 62
   250
370
    20
100
AcDbFaceRecord
 10
0.0
 20
0.0
 30
0.0
 70
   128
 71
   236
 72
   235
 73
   237
 74
   238
  0
VERTEX
  5
24B
330
3F
100
AcDbEntity
  8
ｴｸｽﾃﾘｱ商品
 62
   250
370
    20
100
AcDbFaceRecord
 10
0.0
 20
0.0
 30
0.0
 70
   128
 71
   238
 72
   237
 73
   239
 74
   240
  0
VERTEX
  5
24C
330
3F
100
AcDbEntity
  8
ｴｸｽﾃﾘｱ商品
 62
   250
370
    20
100
AcDbFaceRecord
 10
0.0
 20
0.0
 30
0.0
 70
   128
 71
   240
 72
   239
 73
   241
 74
   242
  0
VERTEX
  5
24D
330
3F
100
AcDbEntity
  8
ｴｸｽﾃﾘｱ商品
 62
   250
370
    20
100
AcDbFaceRecord
 10
0.0
 20
0.0
 30
0.0
 70
   128
 71
   242
 72
   241
 73
   243
 74
   244
  0
VERTEX
  5
24E
330
3F
100
AcDbEntity
  8
ｴｸｽﾃﾘｱ商品
 62
   250
370
    20
100
AcDbFaceRecord
 10
0.0
 20
0.0
 30
0.0
 70
   128
 71
   244
 72
   243
 73
   245
 74
   246
  0
VERTEX
  5
24F
330
3F
100
AcDbEntity
  8
ｴｸｽﾃﾘｱ商品
 62
   250
370
    20
100
AcDbFaceRecord
 10
0.0
 20
0.0
 30
0.0
 70
   128
 71
   246
 72
   245
 73
   247
 74
   248
  0
VERTEX
  5
250
330
3F
100
AcDbEntity
  8
ｴｸｽﾃﾘｱ商品
 62
   250
370
    20
100
AcDbFaceRecord
 10
0.0
 20
0.0
 30
0.0
 70
   128
 71
   248
 72
   247
 73
   249
 74
   250
  0
VERTEX
  5
251
330
3F
100
AcDbEntity
  8
ｴｸｽﾃﾘｱ商品
 62
   250
370
    20
100
AcDbFaceRecord
 10
0.0
 20
0.0
 30
0.0
 70
   128
 71
   250
 72
   249
 73
   251
 74
   252
  0
VERTEX
  5
252
330
3F
100
AcDbEntity
  8
ｴｸｽﾃﾘｱ商品
 62
   250
370
    20
100
AcDbFaceRecord
 10
0.0
 20
0.0
 30
0.0
 70
   128
 71
   252
 72
   251
 73
   253
 74
   254
  0
VERTEX
  5
253
330
3F
100
AcDbEntity
  8
ｴｸｽﾃﾘｱ商品
 62
   250
370
    20
100
AcDbFaceRecord
 10
0.0
 20
0.0
 30
0.0
 70
   128
 71
   254
 72
   253
 73
   255
 74
   256
  0
VERTEX
  5
254
330
3F
100
AcDbEntity
  8
ｴｸｽﾃﾘｱ商品
 62
   250
370
    20
100
AcDbFaceRecord
 10
0.0
 20
0.0
 30
0.0
 70
   128
 71
   256
 72
   255
 73
   257
 74
   258
  0
VERTEX
  5
255
330
3F
100
AcDbEntity
  8
ｴｸｽﾃﾘｱ商品
 62
   250
370
    20
100
AcDbFaceRecord
 10
0.0
 20
0.0
 30
0.0
 70
   128
 71
   258
 72
   257
 73
   259
 74
   260
  0
VERTEX
  5
256
330
3F
100
AcDbEntity
  8
ｴｸｽﾃﾘｱ商品
 62
   250
370
    20
100
AcDbFaceRecord
 10
0.0
 20
0.0
 30
0.0
 70
   128
 71
   260
 72
   259
 73
   228
 74
   227
  0
VERTEX
  5
257
330
3F
100
AcDbEntity
  8
ｴｸｽﾃﾘｱ商品
 62
   250
370
    20
100
AcDbFaceRecord
 10
0.0
 20
0.0
 30
0.0
 70
   128
 71
   227
 72
   230
 73
   232
 74
   234
  0
VERTEX
  5
258
330
3F
100
AcDbEntity
  8
ｴｸｽﾃﾘｱ商品
 62
   250
370
    20
100
AcDbFaceRecord
 10
0.0
 20
0.0
 30
0.0
 70
   128
 71
   227
 72
   234
 73
   236
 74
   238
  0
VERTEX
  5
259
330
3F
100
AcDbEntity
  8
ｴｸｽﾃﾘｱ商品
 62
   250
370
    20
100
AcDbFaceRecord
 10
0.0
 20
0.0
 30
0.0
 70
   128
 71
   227
 72
   238
 73
   240
 74
   242
  0
VERTEX
  5
25A
330
3F
100
AcDbEntity
  8
ｴｸｽﾃﾘｱ商品
 62
   250
370
    20
100
AcDbFaceRecord
 10
0.0
 20
0.0
 30
0.0
 70
   128
 71
   227
 72
   242
 73
   244
 74
   246
  0
VERTEX
  5
25B
330
3F
100
AcDbEntity
  8
ｴｸｽﾃﾘｱ商品
 62
   250
370
    20
100
AcDbFaceRecord
 10
0.0
 20
0.0
 30
0.0
 70
   128
 71
   227
 72
   246
 73
   248
 74
   250
  0
VERTEX
  5
25C
330
3F
100
AcDbEntity
  8
ｴｸｽﾃﾘｱ商品
 62
   250
370
    20
100
AcDbFaceRecord
 10
0.0
 20
0.0
 30
0.0
 70
   128
 71
   227
 72
   250
 73
   252
 74
   254
  0
VERTEX
  5
25D
330
3F
100
AcDbEntity
  8
ｴｸｽﾃﾘｱ商品
 62
   250
370
    20
100
AcDbFaceRecord
 10
0.0
 20
0.0
 30
0.0
 70
   128
 71
   227
 72
   254
 73
   256
 74
   258
  0
VERTEX
  5
25E
330
3F
100
AcDbEntity
  8
ｴｸｽﾃﾘｱ商品
 62
   250
370
    20
100
AcDbFaceRecord
 10
0.0
 20
0.0
 30
0.0
 70
   128
 71
   227
 72
   258
 73
   260
  0
VERTEX
  5
25F
330
3F
100
AcDbEntity
  8
ｴｸｽﾃﾘｱ商品
 62
   250
370
    20
100
AcDbFaceRecord
 10
0.0
 20
0.0
 30
0.0
 70
   128
 71
   228
 72
   259
 73
   257
 74
   255
  0
VERTEX
  5
260
330
3F
100
AcDbEntity
  8
ｴｸｽﾃﾘｱ商品
 62
   250
370
    20
100
AcDbFaceRecord
 10
0.0
 20
0.0
 30
0.0
 70
   128
 71
   228
 72
   255
 73
   253
 74
   251
  0
VERTEX
  5
261
330
3F
100
AcDbEntity
  8
ｴｸｽﾃﾘｱ商品
 62
   250
370
    20
100
AcDbFaceRecord
 10
0.0
 20
0.0
 30
0.0
 70
   128
 71
   228
 72
   251
 73
   249
 74
   247
  0
VERTEX
  5
262
330
3F
100
AcDbEntity
  8
ｴｸｽﾃﾘｱ商品
 62
   250
370
    20
100
AcDbFaceRecord
 10
0.0
 20
0.0
 30
0.0
 70
   128
 71
   228
 72
   247
 73
   245
 74
   243
  0
VERTEX
  5
263
330
3F
100
AcDbEntity
  8
ｴｸｽﾃﾘｱ商品
 62
   250
370
    20
100
AcDbFaceRecord
 10
0.0
 20
0.0
 30
0.0
 70
   128
 71
   228
 72
   243
 73
   241
 74
   239
  0
VERTEX
  5
264
330
3F
100
AcDbEntity
  8
ｴｸｽﾃﾘｱ商品
 62
   250
370
    20
100
AcDbFaceRecord
 10
0.0
 20
0.0
 30
0.0
 70
   128
 71
   228
 72
   239
 73
   237
 74
   235
  0
VERTEX
  5
265
330
3F
100
AcDbEntity
  8
ｴｸｽﾃﾘｱ商品
 62
   250
370
    20
100
AcDbFaceRecord
 10
0.0
 20
0.0
 30
0.0
 70
   128
 71
   228
 72
   235
 73
   233
 74
   231
  0
VERTEX
  5
266
330
3F
100
AcDbEntity
  8
ｴｸｽﾃﾘｱ商品
 62
   250
370
    20
100
AcDbFaceRecord
 10
0.0
 20
0.0
 30
0.0
 70
   128
 71
   228
 72
   231
 73
   229
  0
VERTEX
  5
267
330
3F
100
AcDbEntity
  8
ｴｸｽﾃﾘｱ商品
 62
   250
370
    20
100
AcDbFaceRecord
 10
0.0
 20
0.0
 30
0.0
 70
   128
 71
   261
 72
   262
 73
   263
 74
   264
  0
VERTEX
  5
268
330
3F
100
AcDbEntity
  8
ｴｸｽﾃﾘｱ商品
 62
   250
370
    20
100
AcDbFaceRecord
 10
0.0
 20
0.0
 30
0.0
 70
   128
 71
   265
 72
   266
 73
   267
 74
   268
  0
VERTEX
  5
269
330
3F
100
AcDbEntity
  8
ｴｸｽﾃﾘｱ商品
 62
   250
370
    20
100
AcDbFaceRecord
 10
0.0
 20
0.0
 30
0.0
 70
   128
 71
   264
 72
   265
 73
   268
 74
   261
  0
VERTEX
  5
26A
330
3F
100
AcDbEntity
  8
ｴｸｽﾃﾘｱ商品
 62
   250
370
    20
100
AcDbFaceRecord
 10
0.0
 20
0.0
 30
0.0
 70
   128
 71
   261
 72
   268
 73
   267
 74
   262
  0
VERTEX
  5
26B
330
3F
100
AcDbEntity
  8
ｴｸｽﾃﾘｱ商品
 62
   250
370
    20
100
AcDbFaceRecord
 10
0.0
 20
0.0
 30
0.0
 70
   128
 71
   262
 72
   267
 73
   266
 74
   263
  0
VERTEX
  5
26C
330
3F
100
AcDbEntity
  8
ｴｸｽﾃﾘｱ商品
 62
   250
370
    20
100
AcDbFaceRecord
 10
0.0
 20
0.0
 30
0.0
 70
   128
 71
   263
 72
   266
 73
   265
 74
   264
  0
VERTEX
  5
26D
330
3F
100
AcDbEntity
  8
ｴｸｽﾃﾘｱ商品
 62
   250
370
    20
100
AcDbFaceRecord
 10
0.0
 20
0.0
 30
0.0
 70
   128
 71
   269
 72
   270
 73
   271
 74
   272
  0
VERTEX
  5
26E
330
3F
100
AcDbEntity
  8
ｴｸｽﾃﾘｱ商品
 62
   250
370
    20
100
AcDbFaceRecord
 10
0.0
 20
0.0
 30
0.0
 70
   128
 71
   273
 72
   274
 73
   275
 74
   276
  0
VERTEX
  5
26F
330
3F
100
AcDbEntity
  8
ｴｸｽﾃﾘｱ商品
 62
   250
370
    20
100
AcDbFaceRecord
 10
0.0
 20
0.0
 30
0.0
 70
   128
 71
   272
 72
   273
 73
   276
 74
   269
  0
VERTEX
  5
270
330
3F
100
AcDbEntity
  8
ｴｸｽﾃﾘｱ商品
 62
   250
370
    20
100
AcDbFaceRecord
 10
0.0
 20
0.0
 30
0.0
 70
   128
 71
   269
 72
   276
 73
   275
 74
   270
  0
VERTEX
  5
271
330
3F
100
AcDbEntity
  8
ｴｸｽﾃﾘｱ商品
 62
   250
370
    20
100
AcDbFaceRecord
 10
0.0
 20
0.0
 30
0.0
 70
   128
 71
   270
 72
   275
 73
   274
 74
   271
  0
VERTEX
  5
272
330
3F
100
AcDbEntity
  8
ｴｸｽﾃﾘｱ商品
 62
   250
370
    20
100
AcDbFaceRecord
 10
0.0
 20
0.0
 30
0.0
 70
   128
 71
   271
 72
   274
 73
   273
 74
   272
  0
VERTEX
  5
273
330
3F
100
AcDbEntity
  8
ｴｸｽﾃﾘｱ商品
 62
   250
370
    20
100
AcDbFaceRecord
 10
0.0
 20
0.0
 30
0.0
 70
   128
 71
   277
 72
   278
 73
   279
 74
   280
  0
VERTEX
  5
274
330
3F
100
AcDbEntity
  8
ｴｸｽﾃﾘｱ商品
 62
   250
370
    20
100
AcDbFaceRecord
 10
0.0
 20
0.0
 30
0.0
 70
   128
 71
   281
 72
   282
 73
   283
 74
   284
  0
VERTEX
  5
275
330
3F
100
AcDbEntity
  8
ｴｸｽﾃﾘｱ商品
 62
   250
370
    20
100
AcDbFaceRecord
 10
0.0
 20
0.0
 30
0.0
 70
   128
 71
   280
 72
   281
 73
   284
 74
   277
  0
VERTEX
  5
276
330
3F
100
AcDbEntity
  8
ｴｸｽﾃﾘｱ商品
 62
   250
370
    20
100
AcDbFaceRecord
 10
0.0
 20
0.0
 30
0.0
 70
   128
 71
   277
 72
   284
 73
   283
 74
   278
  0
VERTEX
  5
277
330
3F
100
AcDbEntity
  8
ｴｸｽﾃﾘｱ商品
 62
   250
370
    20
100
AcDbFaceRecord
 10
0.0
 20
0.0
 30
0.0
 70
   128
 71
   278
 72
   283
 73
   282
 74
   279
  0
VERTEX
  5
278
330
3F
100
AcDbEntity
  8
ｴｸｽﾃﾘｱ商品
 62
   250
370
    20
100
AcDbFaceRecord
 10
0.0
 20
0.0
 30
0.0
 70
   128
 71
   279
 72
   282
 73
   281
 74
   280
  0
VERTEX
  5
279
330
3F
100
AcDbEntity
  8
ｴｸｽﾃﾘｱ商品
 62
   250
370
    20
100
AcDbFaceRecord
 10
0.0
 20
0.0
 30
0.0
 70
   128
 71
   285
 72
   286
 73
   287
 74
   288
  0
VERTEX
  5
27A
330
3F
100
AcDbEntity
  8
ｴｸｽﾃﾘｱ商品
 62
   250
370
    20
100
AcDbFaceRecord
 10
0.0
 20
0.0
 30
0.0
 70
   128
 71
   289
 72
   290
 73
   291
 74
   292
  0
VERTEX
  5
27B
330
3F
100
AcDbEntity
  8
ｴｸｽﾃﾘｱ商品
 62
   250
370
    20
100
AcDbFaceRecord
 10
0.0
 20
0.0
 30
0.0
 70
   128
 71
   288
 72
   289
 73
   292
 74
   285
  0
VERTEX
  5
27C
330
3F
100
AcDbEntity
  8
ｴｸｽﾃﾘｱ商品
 62
   250
370
    20
100
AcDbFaceRecord
 10
0.0
 20
0.0
 30
0.0
 70
   128
 71
   285
 72
   292
 73
   291
 74
   286
  0
VERTEX
  5
27D
330
3F
100
AcDbEntity
  8
ｴｸｽﾃﾘｱ商品
 62
   250
370
    20
100
AcDbFaceRecord
 10
0.0
 20
0.0
 30
0.0
 70
   128
 71
   286
 72
   291
 73
   290
 74
   287
  0
VERTEX
  5
27E
330
3F
100
AcDbEntity
  8
ｴｸｽﾃﾘｱ商品
 62
   250
370
    20
100
AcDbFaceRecord
 10
0.0
 20
0.0
 30
0.0
 70
   128
 71
   287
 72
   290
 73
   289
 74
   288
  0
SEQEND
  5
40
330
3F
100
AcDbEntity
  8
ｴｸｽﾃﾘｱ商品
370
    20
  0
POLYLINE
  5
27F
330
3C
100
AcDbEntity
  8
ｴｸｽﾃﾘｱ商品
 62
   250
370
    20
100
AcDbPolyFaceMesh
 66
     1
 10
0.0
 20
0.0
 30
0.0
 70
    64
 71
     8
 72
     6
  0
VERTEX
  5
281
330
27F
100
AcDbEntity
  8
ｴｸｽﾃﾘｱ商品
 62
   250
370
    20
100
AcDbVertex
100
AcDbPolyFaceMeshVertex
 10
680.9999999999999
 20
50.00000000000002
 30
160.0
 70
   192
  0
VERTEX
  5
282
330
27F
100
AcDbEntity
  8
ｴｸｽﾃﾘｱ商品
 62
   250
370
    20
100
AcDbVertex
100
AcDbPolyFaceMeshVertex
 10
680.9999999999999
 20
65.00000000000003
 30
160.0
 70
   192
  0
VERTEX
  5
283
330
27F
100
AcDbEntity
  8
ｴｸｽﾃﾘｱ商品
 62
   250
370
    20
100
AcDbVertex
100
AcDbPolyFaceMeshVertex
 10
696.0
 20
65.00000000000003
 30
160.0
 70
   192
  0
VERTEX
  5
284
330
27F
100
AcDbEntity
  8
ｴｸｽﾃﾘｱ商品
 62
   250
370
    20
100
AcDbVertex
100
AcDbPolyFaceMeshVertex
 10
696.0
 20
50.00000000000002
 30
160.0
 70
   192
  0
VERTEX
  5
285
330
27F
100
AcDbEntity
  8
ｴｸｽﾃﾘｱ商品
 62
   250
370
    20
100
AcDbVertex
100
AcDbPolyFaceMeshVertex
 10
696.0
 20
50.00000000000002
 30
1200.0
 70
   192
  0
VERTEX
  5
286
330
27F
100
AcDbEntity
  8
ｴｸｽﾃﾘｱ商品
 62
   250
370
    20
100
AcDbVertex
100
AcDbPolyFaceMeshVertex
 10
696.0
 20
65.00000000000003
 30
1200.0
 70
   192
  0
VERTEX
  5
287
330
27F
100
AcDbEntity
  8
ｴｸｽﾃﾘｱ商品
 62
   250
370
    20
100
AcDbVertex
100
AcDbPolyFaceMeshVertex
 10
680.9999999999999
 20
65.00000000000003
 30
1200.0
 70
   192
  0
VERTEX
  5
288
330
27F
100
AcDbEntity
  8
ｴｸｽﾃﾘｱ商品
 62
   250
370
    20
100
AcDbVertex
100
AcDbPolyFaceMeshVertex
 10
680.9999999999999
 20
50.00000000000002
 30
1200.0
 70
   192
  0
VERTEX
  5
289
330
27F
100
AcDbEntity
  8
ｴｸｽﾃﾘｱ商品
 62
   250
370
    20
100
AcDbFaceRecord
 10
0.0
 20
0.0
 30
0.0
 70
   128
 71
     1
 72
     2
 73
     3
 74
     4
  0
VERTEX
  5
28A
330
27F
100
AcDbEntity
  8
ｴｸｽﾃﾘｱ商品
 62
   250
370
    20
100
AcDbFaceRecord
 10
0.0
 20
0.0
 30
0.0
 70
   128
 71
     5
 72
     6
 73
     7
 74
     8
  0
VERTEX
  5
28B
330
27F
100
AcDbEntity
  8
ｴｸｽﾃﾘｱ商品
 62
   250
370
    20
100
AcDbFaceRecord
 10
0.0
 20
0.0
 30
0.0
 70
   128
 71
     4
 72
     5
 73
     8
 74
     1
  0
VERTEX
  5
28C
330
27F
100
AcDbEntity
  8
ｴｸｽﾃﾘｱ商品
 62
   250
370
    20
100
AcDbFaceRecord
 10
0.0
 20
0.0
 30
0.0
 70
   128
 71
     1
 72
     8
 73
     7
 74
     2
  0
VERTEX
  5
28D
330
27F
100
AcDbEntity
  8
ｴｸｽﾃﾘｱ商品
 62
   250
370
    20
100
AcDbFaceRecord
 10
0.0
 20
0.0
 30
0.0
 70
   128
 71
     2
 72
     7
 73
     6
 74
     3
  0
VERTEX
  5
28E
330
27F
100
AcDbEntity
  8
ｴｸｽﾃﾘｱ商品
 62
   250
370
    20
100
AcDbFaceRecord
 10
0.0
 20
0.0
 30
0.0
 70
   128
 71
     3
 72
     6
 73
     5
 74
     4
  0
SEQEND
  5
280
330
27F
100
AcDbEntity
  8
ｴｸｽﾃﾘｱ商品
370
    20
  0
POLYLINE
  5
28F
330
3C
100
AcDbEntity
  8
ｴｸｽﾃﾘｱ商品
 62
   250
370
    20
100
AcDbPolyFaceMesh
 66
     1
 10
0.0
 20
0.0
 30
0.0
 70
    64
 71
     8
 72
     6
  0
VERTEX
  5
291
330
28F
100
AcDbEntity
  8
ｴｸｽﾃﾘｱ商品
 62
   250
370
    20
100
AcDbVertex
100
AcDbPolyFaceMeshVertex
 10
166.0
 20
50.00000000000002
 30
160.0
 70
   192
  0
VERTEX
  5
292
330
28F
100
AcDbEntity
  8
ｴｸｽﾃﾘｱ商品
 62
   250
370
    20
100
AcDbVertex
100
AcDbPolyFaceMeshVertex
 10
166.0
 20
65.00000000000003
 30
160.0
 70
   192
  0
VERTEX
  5
293
330
28F
100
AcDbEntity
  8
ｴｸｽﾃﾘｱ商品
 62
   250
370
    20
100
AcDbVertex
100
AcDbPolyFaceMeshVertex
 10
181.0000000000001
 20
65.00000000000003
 30
160.0
 70
   192
  0
VERTEX
  5
294
330
28F
100
AcDbEntity
  8
ｴｸｽﾃﾘｱ商品
 62
   250
370
    20
100
AcDbVertex
100
AcDbPolyFaceMeshVertex
 10
181.0000000000001
 20
50.00000000000002
 30
160.0
 70
   192
  0
VERTEX
  5
295
330
28F
100
AcDbEntity
  8
ｴｸｽﾃﾘｱ商品
 62
   250
370
    20
100
AcDbVertex
100
AcDbPolyFaceMeshVertex
 10
181.0000000000001
 20
50.00000000000002
 30
1200.0
 70
   192
  0
VERTEX
  5
296
330
28F
100
AcDbEntity
  8
ｴｸｽﾃﾘｱ商品
 62
   250
370
    20
100
AcDbVertex
100
AcDbPolyFaceMeshVertex
 10
181.0000000000001
 20
65.00000000000003
 30
1200.0
 70
   192
  0
VERTEX
  5
297
330
28F
100
AcDbEntity
  8
ｴｸｽﾃﾘｱ商品
 62
   250
370
    20
100
AcDbVertex
100
AcDbPolyFaceMeshVertex
 10
166.0
 20
65.00000000000003
 30
1200.0
 70
   192
  0
VERTEX
  5
298
330
28F
100
AcDbEntity
  8
ｴｸｽﾃﾘｱ商品
 62
   250
370
    20
100
AcDbVertex
100
AcDbPolyFaceMeshVertex
 10
166.0
 20
50.00000000000002
 30
1200.0
 70
   192
  0
VERTEX
  5
299
330
28F
100
AcDbEntity
  8
ｴｸｽﾃﾘｱ商品
 62
   250
370
    20
100
AcDbFaceRecord
 10
0.0
 20
0.0
 30
0.0
 70
   128
 71
     1
 72
     2
 73
     3
 74
     4
  0
VERTEX
  5
29A
330
28F
100
AcDbEntity
  8
ｴｸｽﾃﾘｱ商品
 62
   250
370
    20
100
AcDbFaceRecord
 10
0.0
 20
0.0
 30
0.0
 70
   128
 71
     5
 72
     6
 73
     7
 74
     8
  0
VERTEX
  5
29B
330
28F
100
AcDbEntity
  8
ｴｸｽﾃﾘｱ商品
 62
   250
370
    20
100
AcDbFaceRecord
 10
0.0
 20
0.0
 30
0.0
 70
   128
 71
     4
 72
     5
 73
     8
 74
     1
  0
VERTEX
  5
29C
330
28F
100
AcDbEntity
  8
ｴｸｽﾃﾘｱ商品
 62
   250
370
    20
100
AcDbFaceRecord
 10
0.0
 20
0.0
 30
0.0
 70
   128
 71
     1
 72
     8
 73
     7
 74
     2
  0
VERTEX
  5
29D
330
28F
100
AcDbEntity
  8
ｴｸｽﾃﾘｱ商品
 62
   250
370
    20
100
AcDbFaceRecord
 10
0.0
 20
0.0
 30
0.0
 70
   128
 71
     2
 72
     7
 73
     6
 74
     3
  0
VERTEX
  5
29E
330
28F
100
AcDbEntity
  8
ｴｸｽﾃﾘｱ商品
 62
   250
370
    20
100
AcDbFaceRecord
 10
0.0
 20
0.0
 30
0.0
 70
   128
 71
     3
 72
     6
 73
     5
 74
     4
  0
SEQEND
  5
290
330
28F
100
AcDbEntity
  8
ｴｸｽﾃﾘｱ商品
370
    20
  0
POLYLINE
  5
29F
330
3C
100
AcDbEntity
  8
ｴｸｽﾃﾘｱ商品
 62
   250
370
    20
100
AcDbPolyFaceMesh
 66
     1
 10
0.0
 20
0.0
 30
0.0
 70
    64
 71
     8
 72
     6
  0
VERTEX
  5
2A1
330
29F
100
AcDbEntity
  8
ｴｸｽﾃﾘｱ商品
 62
   250
370
    20
100
AcDbVertex
100
AcDbPolyFaceMeshVertex
 10
383.5
 20
50.00000000000002
 30
160.0
 70
   192
  0
VERTEX
  5
2A2
330
29F
100
AcDbEntity
  8
ｴｸｽﾃﾘｱ商品
 62
   250
370
    20
100
AcDbVertex
100
AcDbPolyFaceMeshVertex
 10
383.5
 20
65.00000000000003
 30
160.0
 70
   192
  0
VERTEX
  5
2A3
330
29F
100
AcDbEntity
  8
ｴｸｽﾃﾘｱ商品
 62
   250
370
    20
100
AcDbVertex
100
AcDbPolyFaceMeshVertex
 10
398.5
 20
65.00000000000003
 30
160.0
 70
   192
  0
VERTEX
  5
2A4
330
29F
100
AcDbEntity
  8
ｴｸｽﾃﾘｱ商品
 62
   250
370
    20
100
AcDbVertex
100
AcDbPolyFaceMeshVertex
 10
398.5
 20
50.00000000000002
 30
160.0
 70
   192
  0
VERTEX
  5
2A5
330
29F
100
AcDbEntity
  8
ｴｸｽﾃﾘｱ商品
 62
   250
370
    20
100
AcDbVertex
100
AcDbPolyFaceMeshVertex
 10
398.5
 20
50.00000000000002
 30
1200.0
 70
   192
  0
VERTEX
  5
2A6
330
29F
100
AcDbEntity
  8
ｴｸｽﾃﾘｱ商品
 62
   250
370
    20
100
AcDbVertex
100
AcDbPolyFaceMeshVertex
 10
398.5
 20
65.00000000000003
 30
1200.0
 70
   192
  0
VERTEX
  5
2A7
330
29F
100
AcDbEntity
  8
ｴｸｽﾃﾘｱ商品
 62
   250
370
    20
100
AcDbVertex
100
AcDbPolyFaceMeshVertex
 10
383.5
 20
65.00000000000003
 30
1200.0
 70
   192
  0
VERTEX
  5
2A8
330
29F
100
AcDbEntity
  8
ｴｸｽﾃﾘｱ商品
 62
   250
370
    20
100
AcDbVertex
100
AcDbPolyFaceMeshVertex
 10
383.5
 20
50.00000000000002
 30
1200.0
 70
   192
  0
VERTEX
  5
2A9
330
29F
100
AcDbEntity
  8
ｴｸｽﾃﾘｱ商品
 62
   250
370
    20
100
AcDbFaceRecord
 10
0.0
 20
0.0
 30
0.0
 70
   128
 71
     1
 72
     2
 73
     3
 74
     4
  0
VERTEX
  5
2AA
330
29F
100
AcDbEntity
  8
ｴｸｽﾃﾘｱ商品
 62
   250
370
    20
100
AcDbFaceRecord
 10
0.0
 20
0.0
 30
0.0
 70
   128
 71
     5
 72
     6
 73
     7
 74
     8
  0
VERTEX
  5
2AB
330
29F
100
AcDbEntity
  8
ｴｸｽﾃﾘｱ商品
 62
   250
370
    20
100
AcDbFaceRecord
 10
0.0
 20
0.0
 30
0.0
 70
   128
 71
     4
 72
     5
 73
     8
 74
     1
  0
VERTEX
  5
2AC
330
29F
100
AcDbEntity
  8
ｴｸｽﾃﾘｱ商品
 62
   250
370
    20
100
AcDbFaceRecord
 10
0.0
 20
0.0
 30
0.0
 70
   128
 71
     1
 72
     8
 73
     7
 74
     2
  0
VERTEX
  5
2AD
330
29F
100
AcDbEntity
  8
ｴｸｽﾃﾘｱ商品
 62
   250
370
    20
100
AcDbFaceRecord
 10
0.0
 20
0.0
 30
0.0
 70
   128
 71
     2
 72
     7
 73
     6
 74
     3
  0
VERTEX
  5
2AE
330
29F
100
AcDbEntity
  8
ｴｸｽﾃﾘｱ商品
 62
   250
370
    20
100
AcDbFaceRecord
 10
0.0
 20
0.0
 30
0.0
 70
   128
 71
     3
 72
     6
 73
     5
 74
     4
  0
SEQEND
  5
2A0
330
29F
100
AcDbEntity
  8
ｴｸｽﾃﾘｱ商品
370
    20
  0
POLYLINE
  5
2AF
330
3C
100
AcDbEntity
  8
ｴｸｽﾃﾘｱ商品
 62
   250
370
    20
100
AcDbPolyFaceMesh
 66
     1
 10
0.0
 20
0.0
 30
0.0
 70
    64
 71
     8
 72
     6
  0
VERTEX
  5
2B1
330
2AF
100
AcDbEntity
  8
ｴｸｽﾃﾘｱ商品
 62
   250
370
    20
100
AcDbVertex
100
AcDbPolyFaceMeshVertex
 10
303.5
 20
50.00000000000002
 30
160.0
 70
   192
  0
VERTEX
  5
2B2
330
2AF
100
AcDbEntity
  8
ｴｸｽﾃﾘｱ商品
 62
   250
370
    20
100
AcDbVertex
100
AcDbPolyFaceMeshVertex
 10
303.5
 20
65.00000000000003
 30
160.0
 70
   192
  0
VERTEX
  5
2B3
330
2AF
100
AcDbEntity
  8
ｴｸｽﾃﾘｱ商品
 62
   250
370
    20
100
AcDbVertex
100
AcDbPolyFaceMeshVertex
 10
318.5
 20
65.00000000000003
 30
160.0
 70
   192
  0
VERTEX
  5
2B4
330
2AF
100
AcDbEntity
  8
ｴｸｽﾃﾘｱ商品
 62
   250
370
    20
100
AcDbVertex
100
AcDbPolyFaceMeshVertex
 10
318.5
 20
50.00000000000002
 30
160.0
 70
   192
  0
VERTEX
  5
2B5
330
2AF
100
AcDbEntity
  8
ｴｸｽﾃﾘｱ商品
 62
   250
370
    20
100
AcDbVertex
100
AcDbPolyFaceMeshVertex
 10
318.5
 20
50.00000000000002
 30
1200.0
 70
   192
  0
VERTEX
  5
2B6
330
2AF
100
AcDbEntity
  8
ｴｸｽﾃﾘｱ商品
 62
   250
370
    20
100
AcDbVertex
100
AcDbPolyFaceMeshVertex
 10
318.5
 20
65.00000000000003
 30
1200.0
 70
   192
  0
VERTEX
  5
2B7
330
2AF
100
AcDbEntity
  8
ｴｸｽﾃﾘｱ商品
 62
   250
370
    20
100
AcDbVertex
100
AcDbPolyFaceMeshVertex
 10
303.5
 20
65.00000000000003
 30
1200.0
 70
   192
  0
VERTEX
  5
2B8
330
2AF
100
AcDbEntity
  8
ｴｸｽﾃﾘｱ商品
 62
   250
370
    20
100
AcDbVertex
100
AcDbPolyFaceMeshVertex
 10
303.5
 20
50.00000000000002
 30
1200.0
 70
   192
  0
VERTEX
  5
2B9
330
2AF
100
AcDbEntity
  8
ｴｸｽﾃﾘｱ商品
 62
   250
370
    20
100
AcDbFaceRecord
 10
0.0
 20
0.0
 30
0.0
 70
   128
 71
     1
 72
     2
 73
     3
 74
     4
  0
VERTEX
  5
2BA
330
2AF
100
AcDbEntity
  8
ｴｸｽﾃﾘｱ商品
 62
   250
370
    20
100
AcDbFaceRecord
 10
0.0
 20
0.0
 30
0.0
 70
   128
 71
     5
 72
     6
 73
     7
 74
     8
  0
VERTEX
  5
2BB
330
2AF
100
AcDbEntity
  8
ｴｸｽﾃﾘｱ商品
 62
   250
370
    20
100
AcDbFaceRecord
 10
0.0
 20
0.0
 30
0.0
 70
   128
 71
     4
 72
     5
 73
     8
 74
     1
  0
VERTEX
  5
2BC
330
2AF
100
AcDbEntity
  8
ｴｸｽﾃﾘｱ商品
 62
   250
370
    20
100
AcDbFaceRecord
 10
0.0
 20
0.0
 30
0.0
 70
   128
 71
     1
 72
     8
 73
     7
 74
     2
  0
VERTEX
  5
2BD
330
2AF
100
AcDbEntity
  8
ｴｸｽﾃﾘｱ商品
 62
   250
370
    20
100
AcDbFaceRecord
 10
0.0
 20
0.0
 30
0.0
 70
   128
 71
     2
 72
     7
 73
     6
 74
     3
  0
VERTEX
  5
2BE
330
2AF
100
AcDbEntity
  8
ｴｸｽﾃﾘｱ商品
 62
   250
370
    20
100
AcDbFaceRecord
 10
0.0
 20
0.0
 30
0.0
 70
   128
 71
     3
 72
     6
 73
     5
 74
     4
  0
SEQEND
  5
2B0
330
2AF
100
AcDbEntity
  8
ｴｸｽﾃﾘｱ商品
370
    20
  0
POLYLINE
  5
2BF
330
3C
100
AcDbEntity
  8
ｴｸｽﾃﾘｱ商品
 62
   250
370
    20
100
AcDbPolyFaceMesh
 66
     1
 10
0.0
 20
0.0
 30
0.0
 70
    64
 71
     8
 72
     6
  0
VERTEX
  5
2C1
330
2BF
100
AcDbEntity
  8
ｴｸｽﾃﾘｱ商品
 62
   250
370
    20
100
AcDbVertex
100
AcDbPolyFaceMeshVertex
 10
223.5
 20
50.00000000000002
 30
160.0
 70
   192
  0
VERTEX
  5
2C2
330
2BF
100
AcDbEntity
  8
ｴｸｽﾃﾘｱ商品
 62
   250
370
    20
100
AcDbVertex
100
AcDbPolyFaceMeshVertex
 10
223.5
 20
65.00000000000003
 30
160.0
 70
   192
  0
VERTEX
  5
2C3
330
2BF
100
AcDbEntity
  8
ｴｸｽﾃﾘｱ商品
 62
   250
370
    20
100
AcDbVertex
100
AcDbPolyFaceMeshVertex
 10
238.5
 20
65.00000000000003
 30
160.0
 70
   192
  0
VERTEX
  5
2C4
330
2BF
100
AcDbEntity
  8
ｴｸｽﾃﾘｱ商品
 62
   250
370
    20
100
AcDbVertex
100
AcDbPolyFaceMeshVertex
 10
238.5
 20
50.00000000000002
 30
160.0
 70
   192
  0
VERTEX
  5
2C5
330
2BF
100
AcDbEntity
  8
ｴｸｽﾃﾘｱ商品
 62
   250
370
    20
100
AcDbVertex
100
AcDbPolyFaceMeshVertex
 10
238.5
 20
50.00000000000002
 30
1200.0
 70
   192
  0
VERTEX
  5
2C6
330
2BF
100
AcDbEntity
  8
ｴｸｽﾃﾘｱ商品
 62
   250
370
    20
100
AcDbVertex
100
AcDbPolyFaceMeshVertex
 10
238.5
 20
65.00000000000003
 30
1200.0
 70
   192
  0
VERTEX
  5
2C7
330
2BF
100
AcDbEntity
  8
ｴｸｽﾃﾘｱ商品
 62
   250
370
    20
100
AcDbVertex
100
AcDbPolyFaceMeshVertex
 10
223.5
 20
65.00000000000003
 30
1200.0
 70
   192
  0
VERTEX
  5
2C8
330
2BF
100
AcDbEntity
  8
ｴｸｽﾃﾘｱ商品
 62
   250
370
    20
100
AcDbVertex
100
AcDbPolyFaceMeshVertex
 10
223.5
 20
50.00000000000002
 30
1200.0
 70
   192
  0
VERTEX
  5
2C9
330
2BF
100
AcDbEntity
  8
ｴｸｽﾃﾘｱ商品
 62
   250
370
    20
100
AcDbFaceRecord
 10
0.0
 20
0.0
 30
0.0
 70
   128
 71
     1
 72
     2
 73
     3
 74
     4
  0
VERTEX
  5
2CA
330
2BF
100
AcDbEntity
  8
ｴｸｽﾃﾘｱ商品
 62
   250
370
    20
100
AcDbFaceRecord
 10
0.0
 20
0.0
 30
0.0
 70
   128
 71
     5
 72
     6
 73
     7
 74
     8
  0
VERTEX
  5
2CB
330
2BF
100
AcDbEntity
  8
ｴｸｽﾃﾘｱ商品
 62
   250
370
    20
100
AcDbFaceRecord
 10
0.0
 20
0.0
 30
0.0
 70
   128
 71
     4
 72
     5
 73
     8
 74
     1
  0
VERTEX
  5
2CC
330
2BF
100
AcDbEntity
  8
ｴｸｽﾃﾘｱ商品
 62
   250
370
    20
100
AcDbFaceRecord
 10
0.0
 20
0.0
 30
0.0
 70
   128
 71
     1
 72
     8
 73
     7
 74
     2
  0
VERTEX
  5
2CD
330
2BF
100
AcDbEntity
  8
ｴｸｽﾃﾘｱ商品
 62
   250
370
    20
100
AcDbFaceRecord
 10
0.0
 20
0.0
 30
0.0
 70
   128
 71
     2
 72
     7
 73
     6
 74
     3
  0
VERTEX
  5
2CE
330
2BF
100
AcDbEntity
  8
ｴｸｽﾃﾘｱ商品
 62
   250
370
    20
100
AcDbFaceRecord
 10
0.0
 20
0.0
 30
0.0
 70
   128
 71
     3
 72
     6
 73
     5
 74
     4
  0
SEQEND
  5
2C0
330
2BF
100
AcDbEntity
  8
ｴｸｽﾃﾘｱ商品
370
    20
  0
POLYLINE
  5
2CF
330
3C
100
AcDbEntity
  8
ｴｸｽﾃﾘｱ商品
 62
   250
370
    20
100
AcDbPolyFaceMesh
 66
     1
 10
0.0
 20
0.0
 30
0.0
 70
    64
 71
     8
 72
     6
  0
VERTEX
  5
2D1
330
2CF
100
AcDbEntity
  8
ｴｸｽﾃﾘｱ商品
 62
   250
370
    20
100
AcDbVertex
100
AcDbPolyFaceMeshVertex
 10
463.4999999999999
 20
50.00000000000002
 30
160.0
 70
   192
  0
VERTEX
  5
2D2
330
2CF
100
AcDbEntity
  8
ｴｸｽﾃﾘｱ商品
 62
   250
370
    20
100
AcDbVertex
100
AcDbPolyFaceMeshVertex
 10
463.4999999999999
 20
65.00000000000003
 30
160.0
 70
   192
  0
VERTEX
  5
2D3
330
2CF
100
AcDbEntity
  8
ｴｸｽﾃﾘｱ商品
 62
   250
370
    20
100
AcDbVertex
100
AcDbPolyFaceMeshVertex
 10
478.5
 20
65.00000000000003
 30
160.0
 70
   192
  0
VERTEX
  5
2D4
330
2CF
100
AcDbEntity
  8
ｴｸｽﾃﾘｱ商品
 62
   250
370
    20
100
AcDbVertex
100
AcDbPolyFaceMeshVertex
 10
478.5
 20
50.00000000000002
 30
160.0
 70
   192
  0
VERTEX
  5
2D5
330
2CF
100
AcDbEntity
  8
ｴｸｽﾃﾘｱ商品
 62
   250
370
    20
100
AcDbVertex
100
AcDbPolyFaceMeshVertex
 10
478.5
 20
50.00000000000002
 30
1200.0
 70
   192
  0
VERTEX
  5
2D6
330
2CF
100
AcDbEntity
  8
ｴｸｽﾃﾘｱ商品
 62
   250
370
    20
100
AcDbVertex
100
AcDbPolyFaceMeshVertex
 10
478.5
 20
65.00000000000003
 30
1200.0
 70
   192
  0
VERTEX
  5
2D7
330
2CF
100
AcDbEntity
  8
ｴｸｽﾃﾘｱ商品
 62
   250
370
    20
100
AcDbVertex
100
AcDbPolyFaceMeshVertex
 10
463.4999999999999
 20
65.00000000000003
 30
1200.0
 70
   192
  0
VERTEX
  5
2D8
330
2CF
100
AcDbEntity
  8
ｴｸｽﾃﾘｱ商品
 62
   250
370
    20
100
AcDbVertex
100
AcDbPolyFaceMeshVertex
 10
463.4999999999999
 20
50.00000000000002
 30
1200.0
 70
   192
  0
VERTEX
  5
2D9
330
2CF
100
AcDbEntity
  8
ｴｸｽﾃﾘｱ商品
 62
   250
370
    20
100
AcDbFaceRecord
 10
0.0
 20
0.0
 30
0.0
 70
   128
 71
     1
 72
     2
 73
     3
 74
     4
  0
VERTEX
  5
2DA
330
2CF
100
AcDbEntity
  8
ｴｸｽﾃﾘｱ商品
 62
   250
370
    20
100
AcDbFaceRecord
 10
0.0
 20
0.0
 30
0.0
 70
   128
 71
     5
 72
     6
 73
     7
 74
     8
  0
VERTEX
  5
2DB
330
2CF
100
AcDbEntity
  8
ｴｸｽﾃﾘｱ商品
 62
   250
370
    20
100
AcDbFaceRecord
 10
0.0
 20
0.0
 30
0.0
 70
   128
 71
     4
 72
     5
 73
     8
 74
     1
  0
VERTEX
  5
2DC
330
2CF
100
AcDbEntity
  8
ｴｸｽﾃﾘｱ商品
 62
   250
370
    20
100
AcDbFaceRecord
 10
0.0
 20
0.0
 30
0.0
 70
   128
 71
     1
 72
     8
 73
     7
 74
     2
  0
VERTEX
  5
2DD
330
2CF
100
AcDbEntity
  8
ｴｸｽﾃﾘｱ商品
 62
   250
370
    20
100
AcDbFaceRecord
 10
0.0
 20
0.0
 30
0.0
 70
   128
 71
     2
 72
     7
 73
     6
 74
     3
  0
VERTEX
  5
2DE
330
2CF
100
AcDbEntity
  8
ｴｸｽﾃﾘｱ商品
 62
   250
370
    20
100
AcDbFaceRecord
 10
0.0
 20
0.0
 30
0.0
 70
   128
 71
     3
 72
     6
 73
     5
 74
     4
  0
SEQEND
  5
2D0
330
2CF
100
AcDbEntity
  8
ｴｸｽﾃﾘｱ商品
370
    20
  0
POLYLINE
  5
2DF
330
3C
100
AcDbEntity
  8
ｴｸｽﾃﾘｱ商品
 62
   250
370
    20
100
AcDbPolyFaceMesh
 66
     1
 10
0.0
 20
0.0
 30
0.0
 70
    64
 71
     8
 72
     6
  0
VERTEX
  5
2E1
330
2DF
100
AcDbEntity
  8
ｴｸｽﾃﾘｱ商品
 62
   250
370
    20
100
AcDbVertex
100
AcDbPolyFaceMeshVertex
 10
543.5
 20
50.00000000000002
 30
160.0
 70
   192
  0
VERTEX
  5
2E2
330
2DF
100
AcDbEntity
  8
ｴｸｽﾃﾘｱ商品
 62
   250
370
    20
100
AcDbVertex
100
AcDbPolyFaceMeshVertex
 10
543.5
 20
65.00000000000003
 30
160.0
 70
   192
  0
VERTEX
  5
2E3
330
2DF
100
AcDbEntity
  8
ｴｸｽﾃﾘｱ商品
 62
   250
370
    20
100
AcDbVertex
100
AcDbPolyFaceMeshVertex
 10
558.5
 20
65.00000000000003
 30
160.0
 70
   192
  0
VERTEX
  5
2E4
330
2DF
100
AcDbEntity
  8
ｴｸｽﾃﾘｱ商品
 62
   250
370
    20
100
AcDbVertex
100
AcDbPolyFaceMeshVertex
 10
558.5
 20
50.00000000000002
 30
160.0
 70
   192
  0
VERTEX
  5
2E5
330
2DF
100
AcDbEntity
  8
ｴｸｽﾃﾘｱ商品
 62
   250
370
    20
100
AcDbVertex
100
AcDbPolyFaceMeshVertex
 10
558.5
 20
50.00000000000002
 30
1200.0
 70
   192
  0
VERTEX
  5
2E6
330
2DF
100
AcDbEntity
  8
ｴｸｽﾃﾘｱ商品
 62
   250
370
    20
100
AcDbVertex
100
AcDbPolyFaceMeshVertex
 10
558.5
 20
65.00000000000003
 30
1200.0
 70
   192
  0
VERTEX
  5
2E7
330
2DF
100
AcDbEntity
  8
ｴｸｽﾃﾘｱ商品
 62
   250
370
    20
100
AcDbVertex
100
AcDbPolyFaceMeshVertex
 10
543.5
 20
65.00000000000003
 30
1200.0
 70
   192
  0
VERTEX
  5
2E8
330
2DF
100
AcDbEntity
  8
ｴｸｽﾃﾘｱ商品
 62
   250
370
    20
100
AcDbVertex
100
AcDbPolyFaceMeshVertex
 10
543.5
 20
50.00000000000002
 30
1200.0
 70
   192
  0
VERTEX
  5
2E9
330
2DF
100
AcDbEntity
  8
ｴｸｽﾃﾘｱ商品
 62
   250
370
    20
100
AcDbFaceRecord
 10
0.0
 20
0.0
 30
0.0
 70
   128
 71
     1
 72
     2
 73
     3
 74
     4
  0
VERTEX
  5
2EA
330
2DF
100
AcDbEntity
  8
ｴｸｽﾃﾘｱ商品
 62
   250
370
    20
100
AcDbFaceRecord
 10
0.0
 20
0.0
 30
0.0
 70
   128
 71
     5
 72
     6
 73
     7
 74
     8
  0
VERTEX
  5
2EB
330
2DF
100
AcDbEntity
  8
ｴｸｽﾃﾘｱ商品
 62
   250
370
    20
100
AcDbFaceRecord
 10
0.0
 20
0.0
 30
0.0
 70
   128
 71
     4
 72
     5
 73
     8
 74
     1
  0
VERTEX
  5
2EC
330
2DF
100
AcDbEntity
  8
ｴｸｽﾃﾘｱ商品
 62
   250
370
    20
100
AcDbFaceRecord
 10
0.0
 20
0.0
 30
0.0
 70
   128
 71
     1
 72
     8
 73
     7
 74
     2
  0
VERTEX
  5
2ED
330
2DF
100
AcDbEntity
  8
ｴｸｽﾃﾘｱ商品
 62
   250
370
    20
100
AcDbFaceRecord
 10
0.0
 20
0.0
 30
0.0
 70
   128
 71
     2
 72
     7
 73
     6
 74
     3
  0
VERTEX
  5
2EE
330
2DF
100
AcDbEntity
  8
ｴｸｽﾃﾘｱ商品
 62
   250
370
    20
100
AcDbFaceRecord
 10
0.0
 20
0.0
 30
0.0
 70
   128
 71
     3
 72
     6
 73
     5
 74
     4
  0
SEQEND
  5
2E0
330
2DF
100
AcDbEntity
  8
ｴｸｽﾃﾘｱ商品
370
    20
  0
POLYLINE
  5
2EF
330
3C
100
AcDbEntity
  8
ｴｸｽﾃﾘｱ商品
 62
   250
370
    20
100
AcDbPolyFaceMesh
 66
     1
 10
0.0
 20
0.0
 30
0.0
 70
    64
 71
     8
 72
     6
  0
VERTEX
  5
2F1
330
2EF
100
AcDbEntity
  8
ｴｸｽﾃﾘｱ商品
 62
   250
370
    20
100
AcDbVertex
100
AcDbPolyFaceMeshVertex
 10
623.5
 20
50.00000000000002
 30
160.0
 70
   192
  0
VERTEX
  5
2F2
330
2EF
100
AcDbEntity
  8
ｴｸｽﾃﾘｱ商品
 62
   250
370
    20
100
AcDbVertex
100
AcDbPolyFaceMeshVertex
 10
623.5
 20
65.00000000000003
 30
160.0
 70
   192
  0
VERTEX
  5
2F3
330
2EF
100
AcDbEntity
  8
ｴｸｽﾃﾘｱ商品
 62
   250
370
    20
100
AcDbVertex
100
AcDbPolyFaceMeshVertex
 10
638.5000000000001
 20
65.00000000000003
 30
160.0
 70
   192
  0
VERTEX
  5
2F4
330
2EF
100
AcDbEntity
  8
ｴｸｽﾃﾘｱ商品
 62
   250
370
    20
100
AcDbVertex
100
AcDbPolyFaceMeshVertex
 10
638.5000000000001
 20
50.00000000000002
 30
160.0
 70
   192
  0
VERTEX
  5
2F5
330
2EF
100
AcDbEntity
  8
ｴｸｽﾃﾘｱ商品
 62
   250
370
    20
100
AcDbVertex
100
AcDbPolyFaceMeshVertex
 10
638.5000000000001
 20
50.00000000000002
 30
1200.0
 70
   192
  0
VERTEX
  5
2F6
330
2EF
100
AcDbEntity
  8
ｴｸｽﾃﾘｱ商品
 62
   250
370
    20
100
AcDbVertex
100
AcDbPolyFaceMeshVertex
 10
638.5000000000001
 20
65.00000000000003
 30
1200.0
 70
   192
  0
VERTEX
  5
2F7
330
2EF
100
AcDbEntity
  8
ｴｸｽﾃﾘｱ商品
 62
   250
370
    20
100
AcDbVertex
100
AcDbPolyFaceMeshVertex
 10
623.5
 20
65.00000000000003
 30
1200.0
 70
   192
  0
VERTEX
  5
2F8
330
2EF
100
AcDbEntity
  8
ｴｸｽﾃﾘｱ商品
 62
   250
370
    20
100
AcDbVertex
100
AcDbPolyFaceMeshVertex
 10
623.5
 20
50.00000000000002
 30
1200.0
 70
   192
  0
VERTEX
  5
2F9
330
2EF
100
AcDbEntity
  8
ｴｸｽﾃﾘｱ商品
 62
   250
370
    20
100
AcDbFaceRecord
 10
0.0
 20
0.0
 30
0.0
 70
   128
 71
     1
 72
     2
 73
     3
 74
     4
  0
VERTEX
  5
2FA
330
2EF
100
AcDbEntity
  8
ｴｸｽﾃﾘｱ商品
 62
   250
370
    20
100
AcDbFaceRecord
 10
0.0
 20
0.0
 30
0.0
 70
   128
 71
     5
 72
     6
 73
     7
 74
     8
  0
VERTEX
  5
2FB
330
2EF
100
AcDbEntity
  8
ｴｸｽﾃﾘｱ商品
 62
   250
370
    20
100
AcDbFaceRecord
 10
0.0
 20
0.0
 30
0.0
 70
   128
 71
     4
 72
     5
 73
     8
 74
     1
  0
VERTEX
  5
2FC
330
2EF
100
AcDbEntity
  8
ｴｸｽﾃﾘｱ商品
 62
   250
370
    20
100
AcDbFaceRecord
 10
0.0
 20
0.0
 30
0.0
 70
   128
 71
     1
 72
     8
 73
     7
 74
     2
  0
VERTEX
  5
2FD
330
2EF
100
AcDbEntity
  8
ｴｸｽﾃﾘｱ商品
 62
   250
370
    20
100
AcDbFaceRecord
 10
0.0
 20
0.0
 30
0.0
 70
   128
 71
     2
 72
     7
 73
     6
 74
     3
  0
VERTEX
  5
2FE
330
2EF
100
AcDbEntity
  8
ｴｸｽﾃﾘｱ商品
 62
   250
370
    20
100
AcDbFaceRecord
 10
0.0
 20
0.0
 30
0.0
 70
   128
 71
     3
 72
     6
 73
     5
 74
     4
  0
SEQEND
  5
2F0
330
2EF
100
AcDbEntity
  8
ｴｸｽﾃﾘｱ商品
370
    20
  0
POLYLINE
  5
2FF
330
3C
100
AcDbEntity
  8
ｴｸｽﾃﾘｱ商品
 62
   250
370
    20
100
AcDbPolyFaceMesh
 66
     1
 10
0.0
 20
0.0
 30
0.0
 70
    64
 71
   496
 72
   496
  0
VERTEX
  5
301
330
2FF
100
AcDbEntity
  8
ｴｸｽﾃﾘｱ商品
 62
   250
370
    20
100
AcDbVertex
100
AcDbPolyFaceMeshVertex
 10
91.0
 20
32.00000000000002
 30
830.0000000000001
 70
   192
  0
VERTEX
  5
302
330
2FF
100
AcDbEntity
  8
ｴｸｽﾃﾘｱ商品
 62
   250
370
    20
100
AcDbVertex
100
AcDbPolyFaceMeshVertex
 10
91.0
 20
40.00000000000002
 30
830.0000000000001
 70
   192
  0
VERTEX
  5
303
330
2FF
100
AcDbEntity
  8
ｴｸｽﾃﾘｱ商品
 62
   250
370
    20
100
AcDbVertex
100
AcDbPolyFaceMeshVertex
 10
131.0
 20
40.00000000000002
 30
830.0000000000001
 70
   192
  0
VERTEX
  5
304
330
2FF
100
AcDbEntity
  8
ｴｸｽﾃﾘｱ商品
 62
   250
370
    20
100
AcDbVertex
100
AcDbPolyFaceMeshVertex
 10
131.0
 20
32.00000000000002
 30
830.0000000000001
 70
   192
  0
VERTEX
  5
305
330
2FF
100
AcDbEntity
  8
ｴｸｽﾃﾘｱ商品
 62
   250
370
    20
100
AcDbVertex
100
AcDbPolyFaceMeshVertex
 10
131.0
 20
32.00000000000002
 30
930.0
 70
   192
  0
VERTEX
  5
306
330
2FF
100
AcDbEntity
  8
ｴｸｽﾃﾘｱ商品
 62
   250
370
    20
100
AcDbVertex
100
AcDbPolyFaceMeshVertex
 10
131.0
 20
40.00000000000002
 30
930.0
 70
   192
  0
VERTEX
  5
307
330
2FF
100
AcDbEntity
  8
ｴｸｽﾃﾘｱ商品
 62
   250
370
    20
100
AcDbVertex
100
AcDbPolyFaceMeshVertex
 10
91.0
 20
40.00000000000002
 30
930.0
 70
   192
  0
VERTEX
  5
308
330
2FF
100
AcDbEntity
  8
ｴｸｽﾃﾘｱ商品
 62
   250
370
    20
100
AcDbVertex
100
AcDbPolyFaceMeshVertex
 10
91.0
 20
32.00000000000002
 30
930.0
 70
   192
  0
VERTEX
  5
309
330
2FF
100
AcDbEntity
  8
ｴｸｽﾃﾘｱ商品
 62
   250
370
    20
100
AcDbVertex
100
AcDbPolyFaceMeshVertex
 10
95.18230696385352
 20
32.00000000000001
 30
877.916221867997
 70
   192
  0
VERTEX
  5
30A
330
2FF
100
AcDbEntity
  8
ｴｸｽﾃﾘｱ商品
 62
   250
370
    20
100
AcDbVertex
100
AcDbPolyFaceMeshVertex
 10
95.0
 20
32.00000000000001
 30
880.0000000000001
 70
   192
  0
VERTEX
  5
30B
330
2FF
100
AcDbEntity
  8
ｴｸｽﾃﾘｱ商品
 62
   250
370
    20
100
AcDbVertex
100
AcDbPolyFaceMeshVertex
 10
95.1823069638535
 20
32.00000000000001
 30
882.0837781320032
 70
   192
  0
VERTEX
  5
30C
330
2FF
100
AcDbEntity
  8
ｴｸｽﾃﾘｱ商品
 62
   250
370
    20
100
AcDbVertex
100
AcDbPolyFaceMeshVertex
 10
95.7236885505691
 20
32.00000000000001
 30
884.1042417199081
 70
   192
  0
VERTEX
  5
30D
330
2FF
100
AcDbEntity
  8
ｴｸｽﾃﾘｱ商品
 62
   250
370
    20
100
AcDbVertex
100
AcDbPolyFaceMeshVertex
 10
96.60769515458672
 20
32.00000000000001
 30
886.0000000000001
 70
   192
  0
VERTEX
  5
30E
330
2FF
100
AcDbEntity
  8
ｴｸｽﾃﾘｱ商品
 62
   250
370
    20
100
AcDbVertex
100
AcDbPolyFaceMeshVertex
 10
97.80746668257225
 20
32.00000000000001
 30
887.7134513162385
 70
   192
  0
VERTEX
  5
30F
330
2FF
100
AcDbEntity
  8
ｴｸｽﾃﾘｱ商品
 62
   250
370
    20
100
AcDbVertex
100
AcDbPolyFaceMeshVertex
 10
99.28654868376152
 20
32.00000000000001
 30
889.1925333174279
 70
   192
  0
VERTEX
  5
310
330
2FF
100
AcDbEntity
  8
ｴｸｽﾃﾘｱ商品
 62
   250
370
    20
100
AcDbVertex
100
AcDbPolyFaceMeshVertex
 10
101.0
 20
32.00000000000001
 30
890.3923048454134
 70
   192
  0
VERTEX
  5
311
330
2FF
100
AcDbEntity
  8
ｴｸｽﾃﾘｱ商品
 62
   250
370
    20
100
AcDbVertex
100
AcDbPolyFaceMeshVertex
 10
102.895758280092
 20
32.00000000000001
 30
891.276311449431
 70
   192
  0
VERTEX
  5
312
330
2FF
100
AcDbEntity
  8
ｴｸｽﾃﾘｱ商品
 62
   250
370
    20
100
AcDbVertex
100
AcDbPolyFaceMeshVertex
 10
104.9162218679968
 20
32.00000000000001
 30
891.8176930361467
 70
   192
  0
VERTEX
  5
313
330
2FF
100
AcDbEntity
  8
ｴｸｽﾃﾘｱ商品
 62
   250
370
    20
100
AcDbVertex
100
AcDbPolyFaceMeshVertex
 10
107.0
 20
32.00000000000001
 30
892.0000000000001
 70
   192
  0
VERTEX
  5
314
330
2FF
100
AcDbEntity
  8
ｴｸｽﾃﾘｱ商品
 62
   250
370
    20
100
AcDbVertex
100
AcDbPolyFaceMeshVertex
 10
109.0837781320032
 20
32.00000000000001
 30
891.8176930361467
 70
   192
  0
VERTEX
  5
315
330
2FF
100
AcDbEntity
  8
ｴｸｽﾃﾘｱ商品
 62
   250
370
    20
100
AcDbVertex
100
AcDbPolyFaceMeshVertex
 10
111.104241719908
 20
32.00000000000001
 30
891.276311449431
 70
   192
  0
VERTEX
  5
316
330
2FF
100
AcDbEntity
  8
ｴｸｽﾃﾘｱ商品
 62
   250
370
    20
100
AcDbVertex
100
AcDbPolyFaceMeshVertex
 10
113.0
 20
32.00000000000001
 30
890.3923048454134
 70
   192
  0
VERTEX
  5
317
330
2FF
100
AcDbEntity
  8
ｴｸｽﾃﾘｱ商品
 62
   250
370
    20
100
AcDbVertex
100
AcDbPolyFaceMeshVertex
 10
114.7134513162385
 20
32.00000000000001
 30
889.1925333174279
 70
   192
  0
VERTEX
  5
318
330
2FF
100
AcDbEntity
  8
ｴｸｽﾃﾘｱ商品
 62
   250
370
    20
100
AcDbVertex
100
AcDbPolyFaceMeshVertex
 10
116.1925333174277
 20
32.00000000000001
 30
887.7134513162385
 70
   192
  0
VERTEX
  5
319
330
2FF
100
AcDbEntity
  8
ｴｸｽﾃﾘｱ商品
 62
   250
370
    20
100
AcDbVertex
100
AcDbPolyFaceMeshVertex
 10
117.3923048454132
 20
32.00000000000001
 30
886.0000000000001
 70
   192
  0
VERTEX
  5
31A
330
2FF
100
AcDbEntity
  8
ｴｸｽﾃﾘｱ商品
 62
   250
370
    20
100
AcDbVertex
100
AcDbPolyFaceMeshVertex
 10
118.2763114494309
 20
32.00000000000001
 30
884.1042417199081
 70
   192
  0
VERTEX
  5
31B
330
2FF
100
AcDbEntity
  8
ｴｸｽﾃﾘｱ商品
 62
   250
370
    20
100
AcDbVertex
100
AcDbPolyFaceMeshVertex
 10
118.8176930361465
 20
32.00000000000001
 30
882.0837781320032
 70
   192
  0
VERTEX
  5
31C
330
2FF
100
AcDbEntity
  8
ｴｸｽﾃﾘｱ商品
 62
   250
370
    20
100
AcDbVertex
100
AcDbPolyFaceMeshVertex
 10
119.0
 20
32.00000000000001
 30
880.0000000000001
 70
   192
  0
VERTEX
  5
31D
330
2FF
100
AcDbEntity
  8
ｴｸｽﾃﾘｱ商品
 62
   250
370
    20
100
AcDbVertex
100
AcDbPolyFaceMeshVertex
 10
118.8176930361465
 20
32.00000000000001
 30
877.916221867997
 70
   192
  0
VERTEX
  5
31E
330
2FF
100
AcDbEntity
  8
ｴｸｽﾃﾘｱ商品
 62
   250
370
    20
100
AcDbVertex
100
AcDbPolyFaceMeshVertex
 10
118.2763114494309
 20
32.00000000000001
 30
875.8957582800922
 70
   192
  0
VERTEX
  5
31F
330
2FF
100
AcDbEntity
  8
ｴｸｽﾃﾘｱ商品
 62
   250
370
    20
100
AcDbVertex
100
AcDbPolyFaceMeshVertex
 10
117.3923048454132
 20
32.00000000000001
 30
874.0000000000001
 70
   192
  0
VERTEX
  5
320
330
2FF
100
AcDbEntity
  8
ｴｸｽﾃﾘｱ商品
 62
   250
370
    20
100
AcDbVertex
100
AcDbPolyFaceMeshVertex
 10
116.1925333174277
 20
32.00000000000001
 30
872.2865486837617
 70
   192
  0
VERTEX
  5
321
330
2FF
100
AcDbEntity
  8
ｴｸｽﾃﾘｱ商品
 62
   250
370
    20
100
AcDbVertex
100
AcDbPolyFaceMeshVertex
 10
114.7134513162385
 20
32.00000000000001
 30
870.8074666825723
 70
   192
  0
VERTEX
  5
322
330
2FF
100
AcDbEntity
  8
ｴｸｽﾃﾘｱ商品
 62
   250
370
    20
100
AcDbVertex
100
AcDbPolyFaceMeshVertex
 10
113.0
 20
32.00000000000001
 30
869.607695154587
 70
   192
  0
VERTEX
  5
323
330
2FF
100
AcDbEntity
  8
ｴｸｽﾃﾘｱ商品
 62
   250
370
    20
100
AcDbVertex
100
AcDbPolyFaceMeshVertex
 10
111.104241719908
 20
32.00000000000001
 30
868.7236885505692
 70
   192
  0
VERTEX
  5
324
330
2FF
100
AcDbEntity
  8
ｴｸｽﾃﾘｱ商品
 62
   250
370
    20
100
AcDbVertex
100
AcDbPolyFaceMeshVertex
 10
109.0837781320032
 20
32.00000000000001
 30
868.1823069638536
 70
   192
  0
VERTEX
  5
325
330
2FF
100
AcDbEntity
  8
ｴｸｽﾃﾘｱ商品
 62
   250
370
    20
100
AcDbVertex
100
AcDbPolyFaceMeshVertex
 10
107.0
 20
32.00000000000001
 30
868.0000000000001
 70
   192
  0
VERTEX
  5
326
330
2FF
100
AcDbEntity
  8
ｴｸｽﾃﾘｱ商品
 62
   250
370
    20
100
AcDbVertex
100
AcDbPolyFaceMeshVertex
 10
104.9162218679968
 20
32.00000000000001
 30
868.1823069638536
 70
   192
  0
VERTEX
  5
327
330
2FF
100
AcDbEntity
  8
ｴｸｽﾃﾘｱ商品
 62
   250
370
    20
100
AcDbVertex
100
AcDbPolyFaceMeshVertex
 10
102.895758280092
 20
32.00000000000001
 30
868.7236885505692
 70
   192
  0
VERTEX
  5
328
330
2FF
100
AcDbEntity
  8
ｴｸｽﾃﾘｱ商品
 62
   250
370
    20
100
AcDbVertex
100
AcDbPolyFaceMeshVertex
 10
101.0
 20
32.00000000000001
 30
869.607695154587
 70
   192
  0
VERTEX
  5
329
330
2FF
100
AcDbEntity
  8
ｴｸｽﾃﾘｱ商品
 62
   250
370
    20
100
AcDbVertex
100
AcDbPolyFaceMeshVertex
 10
99.28654868376154
 20
32.00000000000001
 30
870.8074666825723
 70
   192
  0
VERTEX
  5
32A
330
2FF
100
AcDbEntity
  8
ｴｸｽﾃﾘｱ商品
 62
   250
370
    20
100
AcDbVertex
100
AcDbPolyFaceMeshVertex
 10
97.80746668257227
 20
32.00000000000001
 30
872.2865486837617
 70
   192
  0
VERTEX
  5
32B
330
2FF
100
AcDbEntity
  8
ｴｸｽﾃﾘｱ商品
 62
   250
370
    20
100
AcDbVertex
100
AcDbPolyFaceMeshVertex
 10
96.60769515458675
 20
32.00000000000001
 30
874.0000000000001
 70
   192
  0
VERTEX
  5
32C
330
2FF
100
AcDbEntity
  8
ｴｸｽﾃﾘｱ商品
 62
   250
370
    20
100
AcDbVertex
100
AcDbPolyFaceMeshVertex
 10
95.72368855056912
 20
32.00000000000001
 30
875.8957582800922
 70
   192
  0
VERTEX
  5
32D
330
2FF
100
AcDbEntity
  8
ｴｸｽﾃﾘｱ商品
 62
   250
370
    20
100
AcDbVertex
100
AcDbPolyFaceMeshVertex
 10
95.18230696385352
 20
12.00000000000001
 30
877.916221867997
 70
   192
  0
VERTEX
  5
32E
330
2FF
100
AcDbEntity
  8
ｴｸｽﾃﾘｱ商品
 62
   250
370
    20
100
AcDbVertex
100
AcDbPolyFaceMeshVertex
 10
95.72368855056912
 20
12.00000000000001
 30
875.8957582800922
 70
   192
  0
VERTEX
  5
32F
330
2FF
100
AcDbEntity
  8
ｴｸｽﾃﾘｱ商品
 62
   250
370
    20
100
AcDbVertex
100
AcDbPolyFaceMeshVertex
 10
96.60769515458675
 20
12.00000000000001
 30
874.0000000000001
 70
   192
  0
VERTEX
  5
330
330
2FF
100
AcDbEntity
  8
ｴｸｽﾃﾘｱ商品
 62
   250
370
    20
100
AcDbVertex
100
AcDbPolyFaceMeshVertex
 10
97.80746668257227
 20
12.00000000000001
 30
872.2865486837617
 70
   192
  0
VERTEX
  5
331
330
2FF
100
AcDbEntity
  8
ｴｸｽﾃﾘｱ商品
 62
   250
370
    20
100
AcDbVertex
100
AcDbPolyFaceMeshVertex
 10
99.28654868376154
 20
12.00000000000001
 30
870.8074666825723
 70
   192
  0
VERTEX
  5
332
330
2FF
100
AcDbEntity
  8
ｴｸｽﾃﾘｱ商品
 62
   250
370
    20
100
AcDbVertex
100
AcDbPolyFaceMeshVertex
 10
101.0
 20
12.00000000000001
 30
869.607695154587
 70
   192
  0
VERTEX
  5
333
330
2FF
100
AcDbEntity
  8
ｴｸｽﾃﾘｱ商品
 62
   250
370
    20
100
AcDbVertex
100
AcDbPolyFaceMeshVertex
 10
102.895758280092
 20
12.00000000000001
 30
868.7236885505692
 70
   192
  0
VERTEX
  5
334
330
2FF
100
AcDbEntity
  8
ｴｸｽﾃﾘｱ商品
 62
   250
370
    20
100
AcDbVertex
100
AcDbPolyFaceMeshVertex
 10
104.9162218679968
 20
12.00000000000001
 30
868.1823069638536
 70
   192
  0
VERTEX
  5
335
330
2FF
100
AcDbEntity
  8
ｴｸｽﾃﾘｱ商品
 62
   250
370
    20
100
AcDbVertex
100
AcDbPolyFaceMeshVertex
 10
107.0
 20
12.00000000000001
 30
868.0000000000001
 70
   192
  0
VERTEX
  5
336
330
2FF
100
AcDbEntity
  8
ｴｸｽﾃﾘｱ商品
 62
   250
370
    20
100
AcDbVertex
100
AcDbPolyFaceMeshVertex
 10
109.0837781320032
 20
12.00000000000001
 30
868.1823069638536
 70
   192
  0
VERTEX
  5
337
330
2FF
100
AcDbEntity
  8
ｴｸｽﾃﾘｱ商品
 62
   250
370
    20
100
AcDbVertex
100
AcDbPolyFaceMeshVertex
 10
111.104241719908
 20
12.00000000000001
 30
868.7236885505692
 70
   192
  0
VERTEX
  5
338
330
2FF
100
AcDbEntity
  8
ｴｸｽﾃﾘｱ商品
 62
   250
370
    20
100
AcDbVertex
100
AcDbPolyFaceMeshVertex
 10
113.0
 20
12.00000000000001
 30
869.607695154587
 70
   192
  0
VERTEX
  5
339
330
2FF
100
AcDbEntity
  8
ｴｸｽﾃﾘｱ商品
 62
   250
370
    20
100
AcDbVertex
100
AcDbPolyFaceMeshVertex
 10
114.7134513162385
 20
12.00000000000001
 30
870.8074666825723
 70
   192
  0
VERTEX
  5
33A
330
2FF
100
AcDbEntity
  8
ｴｸｽﾃﾘｱ商品
 62
   250
370
    20
100
AcDbVertex
100
AcDbPolyFaceMeshVertex
 10
116.1925333174277
 20
12.00000000000001
 30
872.2865486837617
 70
   192
  0
VERTEX
  5
33B
330
2FF
100
AcDbEntity
  8
ｴｸｽﾃﾘｱ商品
 62
   250
370
    20
100
AcDbVertex
100
AcDbPolyFaceMeshVertex
 10
117.3923048454132
 20
12.00000000000001
 30
874.0000000000001
 70
   192
  0
VERTEX
  5
33C
330
2FF
100
AcDbEntity
  8
ｴｸｽﾃﾘｱ商品
 62
   250
370
    20
100
AcDbVertex
100
AcDbPolyFaceMeshVertex
 10
118.2763114494309
 20
12.00000000000001
 30
875.8957582800922
 70
   192
  0
VERTEX
  5
33D
330
2FF
100
AcDbEntity
  8
ｴｸｽﾃﾘｱ商品
 62
   250
370
    20
100
AcDbVertex
100
AcDbPolyFaceMeshVertex
 10
118.8176930361465
 20
12.00000000000001
 30
877.916221867997
 70
   192
  0
VERTEX
  5
33E
330
2FF
100
AcDbEntity
  8
ｴｸｽﾃﾘｱ商品
 62
   250
370
    20
100
AcDbVertex
100
AcDbPolyFaceMeshVertex
 10
119.0
 20
12.00000000000001
 30
880.0000000000001
 70
   192
  0
VERTEX
  5
33F
330
2FF
100
AcDbEntity
  8
ｴｸｽﾃﾘｱ商品
 62
   250
370
    20
100
AcDbVertex
100
AcDbPolyFaceMeshVertex
 10
118.8176930361465
 20
12.00000000000001
 30
882.0837781320032
 70
   192
  0
VERTEX
  5
340
330
2FF
100
AcDbEntity
  8
ｴｸｽﾃﾘｱ商品
 62
   250
370
    20
100
AcDbVertex
100
AcDbPolyFaceMeshVertex
 10
118.2763114494309
 20
12.00000000000001
 30
884.1042417199081
 70
   192
  0
VERTEX
  5
341
330
2FF
100
AcDbEntity
  8
ｴｸｽﾃﾘｱ商品
 62
   250
370
    20
100
AcDbVertex
100
AcDbPolyFaceMeshVertex
 10
117.3923048454132
 20
12.00000000000001
 30
886.0000000000001
 70
   192
  0
VERTEX
  5
342
330
2FF
100
AcDbEntity
  8
ｴｸｽﾃﾘｱ商品
 62
   250
370
    20
100
AcDbVertex
100
AcDbPolyFaceMeshVertex
 10
116.1925333174277
 20
12.00000000000001
 30
887.7134513162385
 70
   192
  0
VERTEX
  5
343
330
2FF
100
AcDbEntity
  8
ｴｸｽﾃﾘｱ商品
 62
   250
370
    20
100
AcDbVertex
100
AcDbPolyFaceMeshVertex
 10
114.7134513162385
 20
12.00000000000001
 30
889.1925333174279
 70
   192
  0
VERTEX
  5
344
330
2FF
100
AcDbEntity
  8
ｴｸｽﾃﾘｱ商品
 62
   250
370
    20
100
AcDbVertex
100
AcDbPolyFaceMeshVertex
 10
113.0
 20
12.00000000000001
 30
890.3923048454134
 70
   192
  0
VERTEX
  5
345
330
2FF
100
AcDbEntity
  8
ｴｸｽﾃﾘｱ商品
 62
   250
370
    20
100
AcDbVertex
100
AcDbPolyFaceMeshVertex
 10
111.104241719908
 20
12.00000000000001
 30
891.276311449431
 70
   192
  0
VERTEX
  5
346
330
2FF
100
AcDbEntity
  8
ｴｸｽﾃﾘｱ商品
 62
   250
370
    20
100
AcDbVertex
100
AcDbPolyFaceMeshVertex
 10
109.0837781320032
 20
12.00000000000001
 30
891.8176930361467
 70
   192
  0
VERTEX
  5
347
330
2FF
100
AcDbEntity
  8
ｴｸｽﾃﾘｱ商品
 62
   250
370
    20
100
AcDbVertex
100
AcDbPolyFaceMeshVertex
 10
107.0
 20
12.00000000000001
 30
892.0000000000001
 70
   192
  0
VERTEX
  5
348
330
2FF
100
AcDbEntity
  8
ｴｸｽﾃﾘｱ商品
 62
   250
370
    20
100
AcDbVertex
100
AcDbPolyFaceMeshVertex
 10
104.9162218679968
 20
12.00000000000001
 30
891.8176930361467
 70
   192
  0
VERTEX
  5
349
330
2FF
100
AcDbEntity
  8
ｴｸｽﾃﾘｱ商品
 62
   250
370
    20
100
AcDbVertex
100
AcDbPolyFaceMeshVertex
 10
102.895758280092
 20
12.00000000000001
 30
891.276311449431
 70
   192
  0
VERTEX
  5
34A
330
2FF
100
AcDbEntity
  8
ｴｸｽﾃﾘｱ商品
 62
   250
370
    20
100
AcDbVertex
100
AcDbPolyFaceMeshVertex
 10
101.0
 20
12.00000000000001
 30
890.3923048454134
 70
   192
  0
VERTEX
  5
34B
330
2FF
100
AcDbEntity
  8
ｴｸｽﾃﾘｱ商品
 62
   250
370
    20
100
AcDbVertex
100
AcDbPolyFaceMeshVertex
 10
99.28654868376152
 20
12.00000000000001
 30
889.1925333174279
 70
   192
  0
VERTEX
  5
34C
330
2FF
100
AcDbEntity
  8
ｴｸｽﾃﾘｱ商品
 62
   250
370
    20
100
AcDbVertex
100
AcDbPolyFaceMeshVertex
 10
97.80746668257225
 20
12.00000000000001
 30
887.7134513162385
 70
   192
  0
VERTEX
  5
34D
330
2FF
100
AcDbEntity
  8
ｴｸｽﾃﾘｱ商品
 62
   250
370
    20
100
AcDbVertex
100
AcDbPolyFaceMeshVertex
 10
96.60769515458672
 20
12.00000000000001
 30
886.0000000000001
 70
   192
  0
VERTEX
  5
34E
330
2FF
100
AcDbEntity
  8
ｴｸｽﾃﾘｱ商品
 62
   250
370
    20
100
AcDbVertex
100
AcDbPolyFaceMeshVertex
 10
95.7236885505691
 20
12.00000000000001
 30
884.1042417199081
 70
   192
  0
VERTEX
  5
34F
330
2FF
100
AcDbEntity
  8
ｴｸｽﾃﾘｱ商品
 62
   250
370
    20
100
AcDbVertex
100
AcDbPolyFaceMeshVertex
 10
95.1823069638535
 20
12.00000000000001
 30
882.0837781320032
 70
   192
  0
VERTEX
  5
350
330
2FF
100
AcDbEntity
  8
ｴｸｽﾃﾘｱ商品
 62
   250
370
    20
100
AcDbVertex
100
AcDbPolyFaceMeshVertex
 10
95.0
 20
12.00000000000001
 30
880.0000000000001
 70
   192
  0
VERTEX
  5
351
330
2FF
100
AcDbEntity
  8
ｴｸｽﾃﾘｱ商品
 62
   250
370
    20
100
AcDbVertex
100
AcDbPolyFaceMeshVertex
 10
106.469
 20
12.00000000000001
 30
862.5000000000001
 70
   192
  0
VERTEX
  5
352
330
2FF
100
AcDbEntity
  8
ｴｸｽﾃﾘｱ商品
 62
   250
370
    20
100
AcDbVertex
100
AcDbPolyFaceMeshVertex
 10
106.469
 20
-2.999999999999994
 30
862.5000000000001
 70
   192
  0
VERTEX
  5
353
330
2FF
100
AcDbEntity
  8
ｴｸｽﾃﾘｱ商品
 62
   250
370
    20
100
AcDbVertex
100
AcDbPolyFaceMeshVertex
 10
104.938
 20
-2.999999999999994
 30
862.705
 70
   192
  0
VERTEX
  5
354
330
2FF
100
AcDbEntity
  8
ｴｸｽﾃﾘｱ商品
 62
   250
370
    20
100
AcDbVertex
100
AcDbPolyFaceMeshVertex
 10
104.938
 20
12.00000000000001
 30
862.705
 70
   192
  0
VERTEX
  5
355
330
2FF
100
AcDbEntity
  8
ｴｸｽﾃﾘｱ商品
 62
   250
370
    20
100
AcDbVertex
100
AcDbPolyFaceMeshVertex
 10
101.993
 20
-2.999999999999994
 30
863.6410000000001
 70
   192
  0
VERTEX
  5
356
330
2FF
100
AcDbEntity
  8
ｴｸｽﾃﾘｱ商品
 62
   250
370
    20
100
AcDbVertex
100
AcDbPolyFaceMeshVertex
 10
101.993
 20
12.00000000000001
 30
863.6410000000001
 70
   192
  0
VERTEX
  5
357
330
2FF
100
AcDbEntity
  8
ｴｸｽﾃﾘｱ商品
 62
   250
370
    20
100
AcDbVertex
100
AcDbPolyFaceMeshVertex
 10
99.256
 20
-2.999999999999994
 30
865.0730000000001
 70
   192
  0
VERTEX
  5
358
330
2FF
100
AcDbEntity
  8
ｴｸｽﾃﾘｱ商品
 62
   250
370
    20
100
AcDbVertex
100
AcDbPolyFaceMeshVertex
 10
99.256
 20
12.00000000000001
 30
865.0730000000001
 70
   192
  0
VERTEX
  5
359
330
2FF
100
AcDbEntity
  8
ｴｸｽﾃﾘｱ商品
 62
   250
370
    20
100
AcDbVertex
100
AcDbPolyFaceMeshVertex
 10
96.80900000000001
 20
-2.999999999999992
 30
866.96
 70
   192
  0
VERTEX
  5
35A
330
2FF
100
AcDbEntity
  8
ｴｸｽﾃﾘｱ商品
 62
   250
370
    20
100
AcDbVertex
100
AcDbPolyFaceMeshVertex
 10
96.80900000000001
 20
12.00000000000001
 30
866.96
 70
   192
  0
VERTEX
  5
35B
330
2FF
100
AcDbEntity
  8
ｴｸｽﾃﾘｱ商品
 62
   250
370
    20
100
AcDbVertex
100
AcDbPolyFaceMeshVertex
 10
94.727
 20
-2.999999999999992
 30
869.2420000000001
 70
   192
  0
VERTEX
  5
35C
330
2FF
100
AcDbEntity
  8
ｴｸｽﾃﾘｱ商品
 62
   250
370
    20
100
AcDbVertex
100
AcDbPolyFaceMeshVertex
 10
94.727
 20
12.00000000000001
 30
869.2420000000001
 70
   192
  0
VERTEX
  5
35D
330
2FF
100
AcDbEntity
  8
ｴｸｽﾃﾘｱ商品
 62
   250
370
    20
100
AcDbVertex
100
AcDbPolyFaceMeshVertex
 10
93.07300000000002
 20
-2.999999999999992
 30
871.8510000000001
 70
   192
  0
VERTEX
  5
35E
330
2FF
100
AcDbEntity
  8
ｴｸｽﾃﾘｱ商品
 62
   250
370
    20
100
AcDbVertex
100
AcDbPolyFaceMeshVertex
 10
93.07300000000002
 20
12.00000000000001
 30
871.8510000000001
 70
   192
  0
VERTEX
  5
35F
330
2FF
100
AcDbEntity
  8
ｴｸｽﾃﾘｱ商品
 62
   250
370
    20
100
AcDbVertex
100
AcDbPolyFaceMeshVertex
 10
91.89700000000003
 20
-2.999999999999992
 30
874.7080000000002
 70
   192
  0
VERTEX
  5
360
330
2FF
100
AcDbEntity
  8
ｴｸｽﾃﾘｱ商品
 62
   250
370
    20
100
AcDbVertex
100
AcDbPolyFaceMeshVertex
 10
91.89700000000003
 20
12.00000000000001
 30
874.7080000000002
 70
   192
  0
VERTEX
  5
361
330
2FF
100
AcDbEntity
  8
ｴｸｽﾃﾘｱ商品
 62
   250
370
    20
100
AcDbVertex
100
AcDbPolyFaceMeshVertex
 10
91.23500000000001
 20
-2.999999999999992
 30
877.7260000000001
 70
   192
  0
VERTEX
  5
362
330
2FF
100
AcDbEntity
  8
ｴｸｽﾃﾘｱ商品
 62
   250
370
    20
100
AcDbVertex
100
AcDbPolyFaceMeshVertex
 10
91.23500000000001
 20
12.00000000000001
 30
877.7260000000001
 70
   192
  0
VERTEX
  5
363
330
2FF
100
AcDbEntity
  8
ｴｸｽﾃﾘｱ商品
 62
   250
370
    20
100
AcDbVertex
100
AcDbPolyFaceMeshVertex
 10
91.10700000000003
 20
-2.999999999999992
 30
880.8130000000001
 70
   192
  0
VERTEX
  5
364
330
2FF
100
AcDbEntity
  8
ｴｸｽﾃﾘｱ商品
 62
   250
370
    20
100
AcDbVertex
100
AcDbPolyFaceMeshVertex
 10
91.10700000000003
 20
12.00000000000001
 30
880.8130000000001
 70
   192
  0
VERTEX
  5
365
330
2FF
100
AcDbEntity
  8
ｴｸｽﾃﾘｱ商品
 62
   250
370
    20
100
AcDbVertex
100
AcDbPolyFaceMeshVertex
 10
91.51800000000001
 20
-2.999999999999992
 30
883.8750000000001
 70
   192
  0
VERTEX
  5
366
330
2FF
100
AcDbEntity
  8
ｴｸｽﾃﾘｱ商品
 62
   250
370
    20
100
AcDbVertex
100
AcDbPolyFaceMeshVertex
 10
91.51800000000001
 20
12.00000000000001
 30
883.8750000000001
 70
   192
  0
VERTEX
  5
367
330
2FF
100
AcDbEntity
  8
ｴｸｽﾃﾘｱ商品
 62
   250
370
    20
100
AcDbVertex
100
AcDbPolyFaceMeshVertex
 10
92.45300000000002
 20
-2.999999999999992
 30
886.8190000000002
 70
   192
  0
VERTEX
  5
368
330
2FF
100
AcDbEntity
  8
ｴｸｽﾃﾘｱ商品
 62
   250
370
    20
100
AcDbVertex
100
AcDbPolyFaceMeshVertex
 10
92.45300000000002
 20
12.00000000000001
 30
886.8190000000002
 70
   192
  0
VERTEX
  5
369
330
2FF
100
AcDbEntity
  8
ｴｸｽﾃﾘｱ商品
 62
   250
370
    20
100
AcDbVertex
100
AcDbPolyFaceMeshVertex
 10
93.88600000000001
 20
-2.999999999999992
 30
889.5560000000002
 70
   192
  0
VERTEX
  5
36A
330
2FF
100
AcDbEntity
  8
ｴｸｽﾃﾘｱ商品
 62
   250
370
    20
100
AcDbVertex
100
AcDbPolyFaceMeshVertex
 10
93.88600000000001
 20
12.00000000000001
 30
889.5560000000002
 70
   192
  0
VERTEX
  5
36B
330
2FF
100
AcDbEntity
  8
ｴｸｽﾃﾘｱ商品
 62
   250
370
    20
100
AcDbVertex
100
AcDbPolyFaceMeshVertex
 10
95.772
 20
-2.999999999999992
 30
892.0030000000002
 70
   192
  0
VERTEX
  5
36C
330
2FF
100
AcDbEntity
  8
ｴｸｽﾃﾘｱ商品
 62
   250
370
    20
100
AcDbVertex
100
AcDbPolyFaceMeshVertex
 10
95.772
 20
12.00000000000001
 30
892.0030000000002
 70
   192
  0
VERTEX
  5
36D
330
2FF
100
AcDbEntity
  8
ｴｸｽﾃﾘｱ商品
 62
   250
370
    20
100
AcDbVertex
100
AcDbPolyFaceMeshVertex
 10
98.054
 20
-2.999999999999992
 30
894.0850000000002
 70
   192
  0
VERTEX
  5
36E
330
2FF
100
AcDbEntity
  8
ｴｸｽﾃﾘｱ商品
 62
   250
370
    20
100
AcDbVertex
100
AcDbPolyFaceMeshVertex
 10
98.054
 20
12.00000000000001
 30
894.0850000000002
 70
   192
  0
VERTEX
  5
36F
330
2FF
100
AcDbEntity
  8
ｴｸｽﾃﾘｱ商品
 62
   250
370
    20
100
AcDbVertex
100
AcDbPolyFaceMeshVertex
 10
100.664
 20
-2.999999999999991
 30
895.739
 70
   192
  0
VERTEX
  5
370
330
2FF
100
AcDbEntity
  8
ｴｸｽﾃﾘｱ商品
 62
   250
370
    20
100
AcDbVertex
100
AcDbPolyFaceMeshVertex
 10
100.664
 20
12.00000000000001
 30
895.739
 70
   192
  0
VERTEX
  5
371
330
2FF
100
AcDbEntity
  8
ｴｸｽﾃﾘｱ商品
 62
   250
370
    20
100
AcDbVertex
100
AcDbPolyFaceMeshVertex
 10
103.521
 20
-2.999999999999991
 30
896.9150000000001
 70
   192
  0
VERTEX
  5
372
330
2FF
100
AcDbEntity
  8
ｴｸｽﾃﾘｱ商品
 62
   250
370
    20
100
AcDbVertex
100
AcDbPolyFaceMeshVertex
 10
103.521
 20
12.00000000000001
 30
896.9150000000001
 70
   192
  0
VERTEX
  5
373
330
2FF
100
AcDbEntity
  8
ｴｸｽﾃﾘｱ商品
 62
   250
370
    20
100
AcDbVertex
100
AcDbPolyFaceMeshVertex
 10
106.469
 20
-2.999999999999991
 30
897.5000000000001
 70
   192
  0
VERTEX
  5
374
330
2FF
100
AcDbEntity
  8
ｴｸｽﾃﾘｱ商品
 62
   250
370
    20
100
AcDbVertex
100
AcDbPolyFaceMeshVertex
 10
106.469
 20
12.00000000000001
 30
897.5000000000001
 70
   192
  0
VERTEX
  5
375
330
2FF
100
AcDbEntity
  8
ｴｸｽﾃﾘｱ商品
 62
   250
370
    20
100
AcDbVertex
100
AcDbPolyFaceMeshVertex
 10
219.3440000000001
 20
-2.999999999999991
 30
897.5000000000001
 70
   192
  0
VERTEX
  5
376
330
2FF
100
AcDbEntity
  8
ｴｸｽﾃﾘｱ商品
 62
   250
370
    20
100
AcDbVertex
100
AcDbPolyFaceMeshVertex
 10
219.3440000000001
 20
12.00000000000001
 30
897.5000000000001
 70
   192
  0
VERTEX
  5
377
330
2FF
100
AcDbEntity
  8
ｴｸｽﾃﾘｱ商品
 62
   250
370
    20
100
AcDbVertex
100
AcDbPolyFaceMeshVertex
 10
220.875
 20
-2.999999999999991
 30
897.2950000000002
 70
   192
  0
VERTEX
  5
378
330
2FF
100
AcDbEntity
  8
ｴｸｽﾃﾘｱ商品
 62
   250
370
    20
100
AcDbVertex
100
AcDbPolyFaceMeshVertex
 10
220.875
 20
12.00000000000001
 30
897.2950000000002
 70
   192
  0
VERTEX
  5
379
330
2FF
100
AcDbEntity
  8
ｴｸｽﾃﾘｱ商品
 62
   250
370
    20
100
AcDbVertex
100
AcDbPolyFaceMeshVertex
 10
223.819
 20
-2.999999999999991
 30
896.3590000000002
 70
   192
  0
VERTEX
  5
37A
330
2FF
100
AcDbEntity
  8
ｴｸｽﾃﾘｱ商品
 62
   250
370
    20
100
AcDbVertex
100
AcDbPolyFaceMeshVertex
 10
223.819
 20
12.00000000000001
 30
896.3590000000002
 70
   192
  0
VERTEX
  5
37B
330
2FF
100
AcDbEntity
  8
ｴｸｽﾃﾘｱ商品
 62
   250
370
    20
100
AcDbVertex
100
AcDbPolyFaceMeshVertex
 10
226.556
 20
-2.999999999999991
 30
894.9270000000001
 70
   192
  0
VERTEX
  5
37C
330
2FF
100
AcDbEntity
  8
ｴｸｽﾃﾘｱ商品
 62
   250
370
    20
100
AcDbVertex
100
AcDbPolyFaceMeshVertex
 10
226.556
 20
12.00000000000001
 30
894.9270000000001
 70
   192
  0
VERTEX
  5
37D
330
2FF
100
AcDbEntity
  8
ｴｸｽﾃﾘｱ商品
 62
   250
370
    20
100
AcDbVertex
100
AcDbPolyFaceMeshVertex
 10
229.003
 20
-2.999999999999992
 30
893.0400000000002
 70
   192
  0
VERTEX
  5
37E
330
2FF
100
AcDbEntity
  8
ｴｸｽﾃﾘｱ商品
 62
   250
370
    20
100
AcDbVertex
100
AcDbPolyFaceMeshVertex
 10
229.003
 20
12.00000000000001
 30
893.0400000000002
 70
   192
  0
VERTEX
  5
37F
330
2FF
100
AcDbEntity
  8
ｴｸｽﾃﾘｱ商品
 62
   250
370
    20
100
AcDbVertex
100
AcDbPolyFaceMeshVertex
 10
231.085
 20
-2.999999999999992
 30
890.7580000000002
 70
   192
  0
VERTEX
  5
380
330
2FF
100
AcDbEntity
  8
ｴｸｽﾃﾘｱ商品
 62
   250
370
    20
100
AcDbVertex
100
AcDbPolyFaceMeshVertex
 10
231.085
 20
12.00000000000001
 30
890.7580000000002
 70
   192
  0
VERTEX
  5
381
330
2FF
100
AcDbEntity
  8
ｴｸｽﾃﾘｱ商品
 62
   250
370
    20
100
AcDbVertex
100
AcDbPolyFaceMeshVertex
 10
232.739
 20
-2.999999999999992
 30
888.1490000000001
 70
   192
  0
VERTEX
  5
382
330
2FF
100
AcDbEntity
  8
ｴｸｽﾃﾘｱ商品
 62
   250
370
    20
100
AcDbVertex
100
AcDbPolyFaceMeshVertex
 10
232.739
 20
12.00000000000001
 30
888.1490000000001
 70
   192
  0
VERTEX
  5
383
330
2FF
100
AcDbEntity
  8
ｴｸｽﾃﾘｱ商品
 62
   250
370
    20
100
AcDbVertex
100
AcDbPolyFaceMeshVertex
 10
233.915
 20
-2.999999999999992
 30
885.292
 70
   192
  0
VERTEX
  5
384
330
2FF
100
AcDbEntity
  8
ｴｸｽﾃﾘｱ商品
 62
   250
370
    20
100
AcDbVertex
100
AcDbPolyFaceMeshVertex
 10
233.915
 20
12.00000000000001
 30
885.292
 70
   192
  0
VERTEX
  5
385
330
2FF
100
AcDbEntity
  8
ｴｸｽﾃﾘｱ商品
 62
   250
370
    20
100
AcDbVertex
100
AcDbPolyFaceMeshVertex
 10
234.577
 20
-2.999999999999992
 30
882.2740000000001
 70
   192
  0
VERTEX
  5
386
330
2FF
100
AcDbEntity
  8
ｴｸｽﾃﾘｱ商品
 62
   250
370
    20
100
AcDbVertex
100
AcDbPolyFaceMeshVertex
 10
234.577
 20
12.00000000000001
 30
882.2740000000001
 70
   192
  0
VERTEX
  5
387
330
2FF
100
AcDbEntity
  8
ｴｸｽﾃﾘｱ商品
 62
   250
370
    20
100
AcDbVertex
100
AcDbPolyFaceMeshVertex
 10
234.705
 20
-2.999999999999992
 30
879.1870000000001
 70
   192
  0
VERTEX
  5
388
330
2FF
100
AcDbEntity
  8
ｴｸｽﾃﾘｱ商品
 62
   250
370
    20
100
AcDbVertex
100
AcDbPolyFaceMeshVertex
 10
234.705
 20
12.00000000000001
 30
879.1870000000001
 70
   192
  0
VERTEX
  5
389
330
2FF
100
AcDbEntity
  8
ｴｸｽﾃﾘｱ商品
 62
   250
370
    20
100
AcDbVertex
100
AcDbPolyFaceMeshVertex
 10
234.295
 20
-2.999999999999992
 30
876.1250000000001
 70
   192
  0
VERTEX
  5
38A
330
2FF
100
AcDbEntity
  8
ｴｸｽﾃﾘｱ商品
 62
   250
370
    20
100
AcDbVertex
100
AcDbPolyFaceMeshVertex
 10
234.295
 20
12.00000000000001
 30
876.1250000000001
 70
   192
  0
VERTEX
  5
38B
330
2FF
100
AcDbEntity
  8
ｴｸｽﾃﾘｱ商品
 62
   250
370
    20
100
AcDbVertex
100
AcDbPolyFaceMeshVertex
 10
233.359
 20
-2.999999999999992
 30
873.181
 70
   192
  0
VERTEX
  5
38C
330
2FF
100
AcDbEntity
  8
ｴｸｽﾃﾘｱ商品
 62
   250
370
    20
100
AcDbVertex
100
AcDbPolyFaceMeshVertex
 10
233.359
 20
12.00000000000001
 30
873.181
 70
   192
  0
VERTEX
  5
38D
330
2FF
100
AcDbEntity
  8
ｴｸｽﾃﾘｱ商品
 62
   250
370
    20
100
AcDbVertex
100
AcDbPolyFaceMeshVertex
 10
231.927
 20
-2.999999999999992
 30
870.4440000000001
 70
   192
  0
VERTEX
  5
38E
330
2FF
100
AcDbEntity
  8
ｴｸｽﾃﾘｱ商品
 62
   250
370
    20
100
AcDbVertex
100
AcDbPolyFaceMeshVertex
 10
231.927
 20
12.00000000000001
 30
870.4440000000001
 70
   192
  0
VERTEX
  5
38F
330
2FF
100
AcDbEntity
  8
ｴｸｽﾃﾘｱ商品
 62
   250
370
    20
100
AcDbVertex
100
AcDbPolyFaceMeshVertex
 10
230.04
 20
-2.999999999999992
 30
867.9970000000002
 70
   192
  0
VERTEX
  5
390
330
2FF
100
AcDbEntity
  8
ｴｸｽﾃﾘｱ商品
 62
   250
370
    20
100
AcDbVertex
100
AcDbPolyFaceMeshVertex
 10
230.04
 20
12.00000000000001
 30
867.9970000000002
 70
   192
  0
VERTEX
  5
391
330
2FF
100
AcDbEntity
  8
ｴｸｽﾃﾘｱ商品
 62
   250
370
    20
100
AcDbVertex
100
AcDbPolyFaceMeshVertex
 10
227.758
 20
-2.999999999999992
 30
865.9150000000001
 70
   192
  0
VERTEX
  5
392
330
2FF
100
AcDbEntity
  8
ｴｸｽﾃﾘｱ商品
 62
   250
370
    20
100
AcDbVertex
100
AcDbPolyFaceMeshVertex
 10
227.758
 20
12.00000000000001
 30
865.9150000000001
 70
   192
  0
VERTEX
  5
393
330
2FF
100
AcDbEntity
  8
ｴｸｽﾃﾘｱ商品
 62
   250
370
    20
100
AcDbVertex
100
AcDbPolyFaceMeshVertex
 10
225.149
 20
-2.999999999999994
 30
864.2610000000002
 70
   192
  0
VERTEX
  5
394
330
2FF
100
AcDbEntity
  8
ｴｸｽﾃﾘｱ商品
 62
   250
370
    20
100
AcDbVertex
100
AcDbPolyFaceMeshVertex
 10
225.149
 20
12.00000000000001
 30
864.2610000000002
 70
   192
  0
VERTEX
  5
395
330
2FF
100
AcDbEntity
  8
ｴｸｽﾃﾘｱ商品
 62
   250
370
    20
100
AcDbVertex
100
AcDbPolyFaceMeshVertex
 10
222.292
 20
-2.999999999999994
 30
863.0850000000002
 70
   192
  0
VERTEX
  5
396
330
2FF
100
AcDbEntity
  8
ｴｸｽﾃﾘｱ商品
 62
   250
370
    20
100
AcDbVertex
100
AcDbPolyFaceMeshVertex
 10
222.292
 20
12.00000000000001
 30
863.0850000000002
 70
   192
  0
VERTEX
  5
397
330
2FF
100
AcDbEntity
  8
ｴｸｽﾃﾘｱ商品
 62
   250
370
    20
100
AcDbVertex
100
AcDbPolyFaceMeshVertex
 10
219.3440000000001
 20
-2.999999999999994
 30
862.5000000000001
 70
   192
  0
VERTEX
  5
398
330
2FF
100
AcDbEntity
  8
ｴｸｽﾃﾘｱ商品
 62
   250
370
    20
100
AcDbVertex
100
AcDbPolyFaceMeshVertex
 10
219.3440000000001
 20
12.00000000000001
 30
862.5000000000001
 70
   192
  0
VERTEX
  5
399
330
2FF
100
AcDbEntity
  8
ｴｸｽﾃﾘｱ商品
 62
   250
370
    20
100
AcDbVertex
100
AcDbPolyFaceMeshVertex
 10
91.0
 20
83.00000000000001
 30
830.0000000000001
 70
   192
  0
VERTEX
  5
39A
330
2FF
100
AcDbEntity
  8
ｴｸｽﾃﾘｱ商品
 62
   250
370
    20
100
AcDbVertex
100
AcDbPolyFaceMeshVertex
 10
131.0
 20
83.00000000000001
 30
830.0000000000001
 70
   192
  0
VERTEX
  5
39B
330
2FF
100
AcDbEntity
  8
ｴｸｽﾃﾘｱ商品
 62
   250
370
    20
100
AcDbVertex
100
AcDbPolyFaceMeshVertex
 10
131.0
 20
75.00000000000001
 30
830.0000000000001
 70
   192
  0
VERTEX
  5
39C
330
2FF
100
AcDbEntity
  8
ｴｸｽﾃﾘｱ商品
 62
   250
370
    20
100
AcDbVertex
100
AcDbPolyFaceMeshVertex
 10
91.0
 20
75.00000000000001
 30
830.0000000000001
 70
   192
  0
VERTEX
  5
39D
330
2FF
100
AcDbEntity
  8
ｴｸｽﾃﾘｱ商品
 62
   250
370
    20
100
AcDbVertex
100
AcDbPolyFaceMeshVertex
 10
131.0
 20
83.00000000000001
 30
930.0
 70
   192
  0
VERTEX
  5
39E
330
2FF
100
AcDbEntity
  8
ｴｸｽﾃﾘｱ商品
 62
   250
370
    20
100
AcDbVertex
100
AcDbPolyFaceMeshVertex
 10
91.0
 20
83.00000000000001
 30
930.0
 70
   192
  0
VERTEX
  5
39F
330
2FF
100
AcDbEntity
  8
ｴｸｽﾃﾘｱ商品
 62
   250
370
    20
100
AcDbVertex
100
AcDbPolyFaceMeshVertex
 10
91.0
 20
75.00000000000001
 30
930.0
 70
   192
  0
VERTEX
  5
3A0
330
2FF
100
AcDbEntity
  8
ｴｸｽﾃﾘｱ商品
 62
   250
370
    20
100
AcDbVertex
100
AcDbPolyFaceMeshVertex
 10
131.0
 20
75.00000000000001
 30
930.0
 70
   192
  0
VERTEX
  5
3A1
330
2FF
100
AcDbEntity
  8
ｴｸｽﾃﾘｱ商品
 62
   250
370
    20
100
AcDbVertex
100
AcDbPolyFaceMeshVertex
 10
95.18230696385352
 20
83.00000000000001
 30
877.916221867997
 70
   192
  0
VERTEX
  5
3A2
330
2FF
100
AcDbEntity
  8
ｴｸｽﾃﾘｱ商品
 62
   250
370
    20
100
AcDbVertex
100
AcDbPolyFaceMeshVertex
 10
95.72368855056912
 20
83.00000000000001
 30
875.8957582800922
 70
   192
  0
VERTEX
  5
3A3
330
2FF
100
AcDbEntity
  8
ｴｸｽﾃﾘｱ商品
 62
   250
370
    20
100
AcDbVertex
100
AcDbPolyFaceMeshVertex
 10
96.60769515458675
 20
83.00000000000001
 30
874.0000000000001
 70
   192
  0
VERTEX
  5
3A4
330
2FF
100
AcDbEntity
  8
ｴｸｽﾃﾘｱ商品
 62
   250
370
    20
100
AcDbVertex
100
AcDbPolyFaceMeshVertex
 10
97.80746668257227
 20
83.00000000000001
 30
872.2865486837617
 70
   192
  0
VERTEX
  5
3A5
330
2FF
100
AcDbEntity
  8
ｴｸｽﾃﾘｱ商品
 62
   250
370
    20
100
AcDbVertex
100
AcDbPolyFaceMeshVertex
 10
99.28654868376154
 20
83.00000000000001
 30
870.8074666825723
 70
   192
  0
VERTEX
  5
3A6
330
2FF
100
AcDbEntity
  8
ｴｸｽﾃﾘｱ商品
 62
   250
370
    20
100
AcDbVertex
100
AcDbPolyFaceMeshVertex
 10
101.0
 20
83.00000000000001
 30
869.607695154587
 70
   192
  0
VERTEX
  5
3A7
330
2FF
100
AcDbEntity
  8
ｴｸｽﾃﾘｱ商品
 62
   250
370
    20
100
AcDbVertex
100
AcDbPolyFaceMeshVertex
 10
102.895758280092
 20
83.00000000000001
 30
868.7236885505692
 70
   192
  0
VERTEX
  5
3A8
330
2FF
100
AcDbEntity
  8
ｴｸｽﾃﾘｱ商品
 62
   250
370
    20
100
AcDbVertex
100
AcDbPolyFaceMeshVertex
 10
104.9162218679968
 20
83.00000000000001
 30
868.1823069638536
 70
   192
  0
VERTEX
  5
3A9
330
2FF
100
AcDbEntity
  8
ｴｸｽﾃﾘｱ商品
 62
   250
370
    20
100
AcDbVertex
100
AcDbPolyFaceMeshVertex
 10
107.0
 20
83.00000000000001
 30
868.0000000000001
 70
   192
  0
VERTEX
  5
3AA
330
2FF
100
AcDbEntity
  8
ｴｸｽﾃﾘｱ商品
 62
   250
370
    20
100
AcDbVertex
100
AcDbPolyFaceMeshVertex
 10
109.0837781320032
 20
83.00000000000001
 30
868.1823069638536
 70
   192
  0
VERTEX
  5
3AB
330
2FF
100
AcDbEntity
  8
ｴｸｽﾃﾘｱ商品
 62
   250
370
    20
100
AcDbVertex
100
AcDbPolyFaceMeshVertex
 10
111.104241719908
 20
83.00000000000001
 30
868.7236885505692
 70
   192
  0
VERTEX
  5
3AC
330
2FF
100
AcDbEntity
  8
ｴｸｽﾃﾘｱ商品
 62
   250
370
    20
100
AcDbVertex
100
AcDbPolyFaceMeshVertex
 10
113.0
 20
83.00000000000001
 30
869.607695154587
 70
   192
  0
VERTEX
  5
3AD
330
2FF
100
AcDbEntity
  8
ｴｸｽﾃﾘｱ商品
 62
   250
370
    20
100
AcDbVertex
100
AcDbPolyFaceMeshVertex
 10
114.7134513162385
 20
83.00000000000001
 30
870.8074666825723
 70
   192
  0
VERTEX
  5
3AE
330
2FF
100
AcDbEntity
  8
ｴｸｽﾃﾘｱ商品
 62
   250
370
    20
100
AcDbVertex
100
AcDbPolyFaceMeshVertex
 10
116.1925333174277
 20
83.00000000000001
 30
872.2865486837617
 70
   192
  0
VERTEX
  5
3AF
330
2FF
100
AcDbEntity
  8
ｴｸｽﾃﾘｱ商品
 62
   250
370
    20
100
AcDbVertex
100
AcDbPolyFaceMeshVertex
 10
117.3923048454132
 20
83.00000000000001
 30
874.0000000000001
 70
   192
  0
VERTEX
  5
3B0
330
2FF
100
AcDbEntity
  8
ｴｸｽﾃﾘｱ商品
 62
   250
370
    20
100
AcDbVertex
100
AcDbPolyFaceMeshVertex
 10
118.2763114494309
 20
83.00000000000001
 30
875.8957582800922
 70
   192
  0
VERTEX
  5
3B1
330
2FF
100
AcDbEntity
  8
ｴｸｽﾃﾘｱ商品
 62
   250
370
    20
100
AcDbVertex
100
AcDbPolyFaceMeshVertex
 10
118.8176930361465
 20
83.00000000000001
 30
877.916221867997
 70
   192
  0
VERTEX
  5
3B2
330
2FF
100
AcDbEntity
  8
ｴｸｽﾃﾘｱ商品
 62
   250
370
    20
100
AcDbVertex
100
AcDbPolyFaceMeshVertex
 10
119.0
 20
83.00000000000001
 30
880.0000000000001
 70
   192
  0
VERTEX
  5
3B3
330
2FF
100
AcDbEntity
  8
ｴｸｽﾃﾘｱ商品
 62
   250
370
    20
100
AcDbVertex
100
AcDbPolyFaceMeshVertex
 10
118.8176930361465
 20
83.00000000000001
 30
882.0837781320032
 70
   192
  0
VERTEX
  5
3B4
330
2FF
100
AcDbEntity
  8
ｴｸｽﾃﾘｱ商品
 62
   250
370
    20
100
AcDbVertex
100
AcDbPolyFaceMeshVertex
 10
118.2763114494309
 20
83.00000000000001
 30
884.1042417199081
 70
   192
  0
VERTEX
  5
3B5
330
2FF
100
AcDbEntity
  8
ｴｸｽﾃﾘｱ商品
 62
   250
370
    20
100
AcDbVertex
100
AcDbPolyFaceMeshVertex
 10
117.3923048454132
 20
83.00000000000001
 30
886.0000000000001
 70
   192
  0
VERTEX
  5
3B6
330
2FF
100
AcDbEntity
  8
ｴｸｽﾃﾘｱ商品
 62
   250
370
    20
100
AcDbVertex
100
AcDbPolyFaceMeshVertex
 10
116.1925333174277
 20
83.00000000000001
 30
887.7134513162385
 70
   192
  0
VERTEX
  5
3B7
330
2FF
100
AcDbEntity
  8
ｴｸｽﾃﾘｱ商品
 62
   250
370
    20
100
AcDbVertex
100
AcDbPolyFaceMeshVertex
 10
114.7134513162385
 20
83.00000000000001
 30
889.1925333174279
 70
   192
  0
VERTEX
  5
3B8
330
2FF
100
AcDbEntity
  8
ｴｸｽﾃﾘｱ商品
 62
   250
370
    20
100
AcDbVertex
100
AcDbPolyFaceMeshVertex
 10
113.0
 20
83.00000000000001
 30
890.3923048454134
 70
   192
  0
VERTEX
  5
3B9
330
2FF
100
AcDbEntity
  8
ｴｸｽﾃﾘｱ商品
 62
   250
370
    20
100
AcDbVertex
100
AcDbPolyFaceMeshVertex
 10
111.104241719908
 20
83.00000000000001
 30
891.276311449431
 70
   192
  0
VERTEX
  5
3BA
330
2FF
100
AcDbEntity
  8
ｴｸｽﾃﾘｱ商品
 62
   250
370
    20
100
AcDbVertex
100
AcDbPolyFaceMeshVertex
 10
109.0837781320032
 20
83.00000000000001
 30
891.8176930361467
 70
   192
  0
VERTEX
  5
3BB
330
2FF
100
AcDbEntity
  8
ｴｸｽﾃﾘｱ商品
 62
   250
370
    20
100
AcDbVertex
100
AcDbPolyFaceMeshVertex
 10
107.0
 20
83.00000000000001
 30
892.0000000000001
 70
   192
  0
VERTEX
  5
3BC
330
2FF
100
AcDbEntity
  8
ｴｸｽﾃﾘｱ商品
 62
   250
370
    20
100
AcDbVertex
100
AcDbPolyFaceMeshVertex
 10
104.9162218679968
 20
83.00000000000001
 30
891.8176930361467
 70
   192
  0
VERTEX
  5
3BD
330
2FF
100
AcDbEntity
  8
ｴｸｽﾃﾘｱ商品
 62
   250
370
    20
100
AcDbVertex
100
AcDbPolyFaceMeshVertex
 10
102.895758280092
 20
83.00000000000001
 30
891.276311449431
 70
   192
  0
VERTEX
  5
3BE
330
2FF
100
AcDbEntity
  8
ｴｸｽﾃﾘｱ商品
 62
   250
370
    20
100
AcDbVertex
100
AcDbPolyFaceMeshVertex
 10
101.0
 20
83.00000000000001
 30
890.3923048454134
 70
   192
  0
VERTEX
  5
3BF
330
2FF
100
AcDbEntity
  8
ｴｸｽﾃﾘｱ商品
 62
   250
370
    20
100
AcDbVertex
100
AcDbPolyFaceMeshVertex
 10
99.28654868376152
 20
83.00000000000001
 30
889.1925333174279
 70
   192
  0
VERTEX
  5
3C0
330
2FF
100
AcDbEntity
  8
ｴｸｽﾃﾘｱ商品
 62
   250
370
    20
100
AcDbVertex
100
AcDbPolyFaceMeshVertex
 10
97.80746668257225
 20
83.00000000000001
 30
887.7134513162385
 70
   192
  0
VERTEX
  5
3C1
330
2FF
100
AcDbEntity
  8
ｴｸｽﾃﾘｱ商品
 62
   250
370
    20
100
AcDbVertex
100
AcDbPolyFaceMeshVertex
 10
96.60769515458672
 20
83.00000000000001
 30
886.0000000000001
 70
   192
  0
VERTEX
  5
3C2
330
2FF
100
AcDbEntity
  8
ｴｸｽﾃﾘｱ商品
 62
   250
370
    20
100
AcDbVertex
100
AcDbPolyFaceMeshVertex
 10
95.7236885505691
 20
83.00000000000001
 30
884.1042417199081
 70
   192
  0
VERTEX
  5
3C3
330
2FF
100
AcDbEntity
  8
ｴｸｽﾃﾘｱ商品
 62
   250
370
    20
100
AcDbVertex
100
AcDbPolyFaceMeshVertex
 10
95.1823069638535
 20
83.00000000000001
 30
882.0837781320032
 70
   192
  0
VERTEX
  5
3C4
330
2FF
100
AcDbEntity
  8
ｴｸｽﾃﾘｱ商品
 62
   250
370
    20
100
AcDbVertex
100
AcDbPolyFaceMeshVertex
 10
95.0
 20
83.00000000000001
 30
880.0000000000001
 70
   192
  0
VERTEX
  5
3C5
330
2FF
100
AcDbEntity
  8
ｴｸｽﾃﾘｱ商品
 62
   250
370
    20
100
AcDbVertex
100
AcDbPolyFaceMeshVertex
 10
95.18230696385352
 20
103.0
 30
877.916221867997
 70
   192
  0
VERTEX
  5
3C6
330
2FF
100
AcDbEntity
  8
ｴｸｽﾃﾘｱ商品
 62
   250
370
    20
100
AcDbVertex
100
AcDbPolyFaceMeshVertex
 10
95.0
 20
103.0
 30
880.0000000000001
 70
   192
  0
VERTEX
  5
3C7
330
2FF
100
AcDbEntity
  8
ｴｸｽﾃﾘｱ商品
 62
   250
370
    20
100
AcDbVertex
100
AcDbPolyFaceMeshVertex
 10
95.1823069638535
 20
103.0
 30
882.0837781320032
 70
   192
  0
VERTEX
  5
3C8
330
2FF
100
AcDbEntity
  8
ｴｸｽﾃﾘｱ商品
 62
   250
370
    20
100
AcDbVertex
100
AcDbPolyFaceMeshVertex
 10
95.7236885505691
 20
103.0
 30
884.1042417199081
 70
   192
  0
VERTEX
  5
3C9
330
2FF
100
AcDbEntity
  8
ｴｸｽﾃﾘｱ商品
 62
   250
370
    20
100
AcDbVertex
100
AcDbPolyFaceMeshVertex
 10
96.60769515458672
 20
103.0
 30
886.0000000000001
 70
   192
  0
VERTEX
  5
3CA
330
2FF
100
AcDbEntity
  8
ｴｸｽﾃﾘｱ商品
 62
   250
370
    20
100
AcDbVertex
100
AcDbPolyFaceMeshVertex
 10
97.80746668257225
 20
103.0
 30
887.7134513162385
 70
   192
  0
VERTEX
  5
3CB
330
2FF
100
AcDbEntity
  8
ｴｸｽﾃﾘｱ商品
 62
   250
370
    20
100
AcDbVertex
100
AcDbPolyFaceMeshVertex
 10
99.28654868376152
 20
103.0
 30
889.1925333174279
 70
   192
  0
VERTEX
  5
3CC
330
2FF
100
AcDbEntity
  8
ｴｸｽﾃﾘｱ商品
 62
   250
370
    20
100
AcDbVertex
100
AcDbPolyFaceMeshVertex
 10
101.0
 20
103.0
 30
890.3923048454134
 70
   192
  0
VERTEX
  5
3CD
330
2FF
100
AcDbEntity
  8
ｴｸｽﾃﾘｱ商品
 62
   250
370
    20
100
AcDbVertex
100
AcDbPolyFaceMeshVertex
 10
102.895758280092
 20
103.0
 30
891.276311449431
 70
   192
  0
VERTEX
  5
3CE
330
2FF
100
AcDbEntity
  8
ｴｸｽﾃﾘｱ商品
 62
   250
370
    20
100
AcDbVertex
100
AcDbPolyFaceMeshVertex
 10
104.9162218679968
 20
103.0
 30
891.8176930361467
 70
   192
  0
VERTEX
  5
3CF
330
2FF
100
AcDbEntity
  8
ｴｸｽﾃﾘｱ商品
 62
   250
370
    20
100
AcDbVertex
100
AcDbPolyFaceMeshVertex
 10
107.0
 20
103.0
 30
892.0000000000001
 70
   192
  0
VERTEX
  5
3D0
330
2FF
100
AcDbEntity
  8
ｴｸｽﾃﾘｱ商品
 62
   250
370
    20
100
AcDbVertex
100
AcDbPolyFaceMeshVertex
 10
109.0837781320032
 20
103.0
 30
891.8176930361467
 70
   192
  0
VERTEX
  5
3D1
330
2FF
100
AcDbEntity
  8
ｴｸｽﾃﾘｱ商品
 62
   250
370
    20
100
AcDbVertex
100
AcDbPolyFaceMeshVertex
 10
111.104241719908
 20
103.0
 30
891.276311449431
 70
   192
  0
VERTEX
  5
3D2
330
2FF
100
AcDbEntity
  8
ｴｸｽﾃﾘｱ商品
 62
   250
370
    20
100
AcDbVertex
100
AcDbPolyFaceMeshVertex
 10
113.0
 20
103.0
 30
890.3923048454134
 70
   192
  0
VERTEX
  5
3D3
330
2FF
100
AcDbEntity
  8
ｴｸｽﾃﾘｱ商品
 62
   250
370
    20
100
AcDbVertex
100
AcDbPolyFaceMeshVertex
 10
114.7134513162385
 20
103.0
 30
889.1925333174279
 70
   192
  0
VERTEX
  5
3D4
330
2FF
100
AcDbEntity
  8
ｴｸｽﾃﾘｱ商品
 62
   250
370
    20
100
AcDbVertex
100
AcDbPolyFaceMeshVertex
 10
116.1925333174277
 20
103.0
 30
887.7134513162385
 70
   192
  0
VERTEX
  5
3D5
330
2FF
100
AcDbEntity
  8
ｴｸｽﾃﾘｱ商品
 62
   250
370
    20
100
AcDbVertex
100
AcDbPolyFaceMeshVertex
 10
117.3923048454132
 20
103.0
 30
886.0000000000001
 70
   192
  0
VERTEX
  5
3D6
330
2FF
100
AcDbEntity
  8
ｴｸｽﾃﾘｱ商品
 62
   250
370
    20
100
AcDbVertex
100
AcDbPolyFaceMeshVertex
 10
118.2763114494309
 20
103.0
 30
884.1042417199081
 70
   192
  0
VERTEX
  5
3D7
330
2FF
100
AcDbEntity
  8
ｴｸｽﾃﾘｱ商品
 62
   250
370
    20
100
AcDbVertex
100
AcDbPolyFaceMeshVertex
 10
118.8176930361465
 20
103.0
 30
882.0837781320032
 70
   192
  0
VERTEX
  5
3D8
330
2FF
100
AcDbEntity
  8
ｴｸｽﾃﾘｱ商品
 62
   250
370
    20
100
AcDbVertex
100
AcDbPolyFaceMeshVertex
 10
119.0
 20
103.0
 30
880.0000000000001
 70
   192
  0
VERTEX
  5
3D9
330
2FF
100
AcDbEntity
  8
ｴｸｽﾃﾘｱ商品
 62
   250
370
    20
100
AcDbVertex
100
AcDbPolyFaceMeshVertex
 10
118.8176930361465
 20
103.0
 30
877.916221867997
 70
   192
  0
VERTEX
  5
3DA
330
2FF
100
AcDbEntity
  8
ｴｸｽﾃﾘｱ商品
 62
   250
370
    20
100
AcDbVertex
100
AcDbPolyFaceMeshVertex
 10
118.2763114494309
 20
103.0
 30
875.8957582800922
 70
   192
  0
VERTEX
  5
3DB
330
2FF
100
AcDbEntity
  8
ｴｸｽﾃﾘｱ商品
 62
   250
370
    20
100
AcDbVertex
100
AcDbPolyFaceMeshVertex
 10
117.3923048454132
 20
103.0
 30
874.0000000000001
 70
   192
  0
VERTEX
  5
3DC
330
2FF
100
AcDbEntity
  8
ｴｸｽﾃﾘｱ商品
 62
   250
370
    20
100
AcDbVertex
100
AcDbPolyFaceMeshVertex
 10
116.1925333174277
 20
103.0
 30
872.2865486837617
 70
   192
  0
VERTEX
  5
3DD
330
2FF
100
AcDbEntity
  8
ｴｸｽﾃﾘｱ商品
 62
   250
370
    20
100
AcDbVertex
100
AcDbPolyFaceMeshVertex
 10
114.7134513162385
 20
103.0
 30
870.8074666825723
 70
   192
  0
VERTEX
  5
3DE
330
2FF
100
AcDbEntity
  8
ｴｸｽﾃﾘｱ商品
 62
   250
370
    20
100
AcDbVertex
100
AcDbPolyFaceMeshVertex
 10
113.0
 20
103.0
 30
869.607695154587
 70
   192
  0
VERTEX
  5
3DF
330
2FF
100
AcDbEntity
  8
ｴｸｽﾃﾘｱ商品
 62
   250
370
    20
100
AcDbVertex
100
AcDbPolyFaceMeshVertex
 10
111.104241719908
 20
103.0
 30
868.7236885505692
 70
   192
  0
VERTEX
  5
3E0
330
2FF
100
AcDbEntity
  8
ｴｸｽﾃﾘｱ商品
 62
   250
370
    20
100
AcDbVertex
100
AcDbPolyFaceMeshVertex
 10
109.0837781320032
 20
103.0
 30
868.1823069638536
 70
   192
  0
VERTEX
  5
3E1
330
2FF
100
AcDbEntity
  8
ｴｸｽﾃﾘｱ商品
 62
   250
370
    20
100
AcDbVertex
100
AcDbPolyFaceMeshVertex
 10
107.0
 20
103.0
 30
868.0000000000001
 70
   192
  0
VERTEX
  5
3E2
330
2FF
100
AcDbEntity
  8
ｴｸｽﾃﾘｱ商品
 62
   250
370
    20
100
AcDbVertex
100
AcDbPolyFaceMeshVertex
 10
104.9162218679968
 20
103.0
 30
868.1823069638536
 70
   192
  0
VERTEX
  5
3E3
330
2FF
100
AcDbEntity
  8
ｴｸｽﾃﾘｱ商品
 62
   250
370
    20
100
AcDbVertex
100
AcDbPolyFaceMeshVertex
 10
102.895758280092
 20
103.0
 30
868.7236885505692
 70
   192
  0
VERTEX
  5
3E4
330
2FF
100
AcDbEntity
  8
ｴｸｽﾃﾘｱ商品
 62
   250
370
    20
100
AcDbVertex
100
AcDbPolyFaceMeshVertex
 10
101.0
 20
103.0
 30
869.607695154587
 70
   192
  0
VERTEX
  5
3E5
330
2FF
100
AcDbEntity
  8
ｴｸｽﾃﾘｱ商品
 62
   250
370
    20
100
AcDbVertex
100
AcDbPolyFaceMeshVertex
 10
99.28654868376154
 20
103.0
 30
870.8074666825723
 70
   192
  0
VERTEX
  5
3E6
330
2FF
100
AcDbEntity
  8
ｴｸｽﾃﾘｱ商品
 62
   250
370
    20
100
AcDbVertex
100
AcDbPolyFaceMeshVertex
 10
97.80746668257227
 20
103.0
 30
872.2865486837617
 70
   192
  0
VERTEX
  5
3E7
330
2FF
100
AcDbEntity
  8
ｴｸｽﾃﾘｱ商品
 62
   250
370
    20
100
AcDbVertex
100
AcDbPolyFaceMeshVertex
 10
96.60769515458675
 20
103.0
 30
874.0000000000001
 70
   192
  0
VERTEX
  5
3E8
330
2FF
100
AcDbEntity
  8
ｴｸｽﾃﾘｱ商品
 62
   250
370
    20
100
AcDbVertex
100
AcDbPolyFaceMeshVertex
 10
95.72368855056912
 20
103.0
 30
875.8957582800922
 70
   192
  0
VERTEX
  5
3E9
330
2FF
100
AcDbEntity
  8
ｴｸｽﾃﾘｱ商品
 62
   250
370
    20
100
AcDbVertex
100
AcDbPolyFaceMeshVertex
 10
106.469
 20
103.0
 30
862.5000000000001
 70
   192
  0
VERTEX
  5
3EA
330
2FF
100
AcDbEntity
  8
ｴｸｽﾃﾘｱ商品
 62
   250
370
    20
100
AcDbVertex
100
AcDbPolyFaceMeshVertex
 10
104.938
 20
103.0
 30
862.705
 70
   192
  0
VERTEX
  5
3EB
330
2FF
100
AcDbEntity
  8
ｴｸｽﾃﾘｱ商品
 62
   250
370
    20
100
AcDbVertex
100
AcDbPolyFaceMeshVertex
 10
104.938
 20
118.0
 30
862.705
 70
   192
  0
VERTEX
  5
3EC
330
2FF
100
AcDbEntity
  8
ｴｸｽﾃﾘｱ商品
 62
   250
370
    20
100
AcDbVertex
100
AcDbPolyFaceMeshVertex
 10
106.469
 20
118.0
 30
862.5000000000001
 70
   192
  0
VERTEX
  5
3ED
330
2FF
100
AcDbEntity
  8
ｴｸｽﾃﾘｱ商品
 62
   250
370
    20
100
AcDbVertex
100
AcDbPolyFaceMeshVertex
 10
101.993
 20
103.0
 30
863.6410000000001
 70
   192
  0
VERTEX
  5
3EE
330
2FF
100
AcDbEntity
  8
ｴｸｽﾃﾘｱ商品
 62
   250
370
    20
100
AcDbVertex
100
AcDbPolyFaceMeshVertex
 10
101.993
 20
118.0
 30
863.6410000000001
 70
   192
  0
VERTEX
  5
3EF
330
2FF
100
AcDbEntity
  8
ｴｸｽﾃﾘｱ商品
 62
   250
370
    20
100
AcDbVertex
100
AcDbPolyFaceMeshVertex
 10
99.256
 20
103.0
 30
865.0730000000001
 70
   192
  0
VERTEX
  5
3F0
330
2FF
100
AcDbEntity
  8
ｴｸｽﾃﾘｱ商品
 62
   250
370
    20
100
AcDbVertex
100
AcDbPolyFaceMeshVertex
 10
99.256
 20
118.0
 30
865.0730000000001
 70
   192
  0
VERTEX
  5
3F1
330
2FF
100
AcDbEntity
  8
ｴｸｽﾃﾘｱ商品
 62
   250
370
    20
100
AcDbVertex
100
AcDbPolyFaceMeshVertex
 10
96.80900000000001
 20
103.0
 30
866.96
 70
   192
  0
VERTEX
  5
3F2
330
2FF
100
AcDbEntity
  8
ｴｸｽﾃﾘｱ商品
 62
   250
370
    20
100
AcDbVertex
100
AcDbPolyFaceMeshVertex
 10
96.80900000000001
 20
118.0
 30
866.96
 70
   192
  0
VERTEX
  5
3F3
330
2FF
100
AcDbEntity
  8
ｴｸｽﾃﾘｱ商品
 62
   250
370
    20
100
AcDbVertex
100
AcDbPolyFaceMeshVertex
 10
94.727
 20
103.0
 30
869.2420000000001
 70
   192
  0
VERTEX
  5
3F4
330
2FF
100
AcDbEntity
  8
ｴｸｽﾃﾘｱ商品
 62
   250
370
    20
100
AcDbVertex
100
AcDbPolyFaceMeshVertex
 10
94.727
 20
118.0
 30
869.2420000000001
 70
   192
  0
VERTEX
  5
3F5
330
2FF
100
AcDbEntity
  8
ｴｸｽﾃﾘｱ商品
 62
   250
370
    20
100
AcDbVertex
100
AcDbPolyFaceMeshVertex
 10
93.07300000000002
 20
103.0
 30
871.8510000000001
 70
   192
  0
VERTEX
  5
3F6
330
2FF
100
AcDbEntity
  8
ｴｸｽﾃﾘｱ商品
 62
   250
370
    20
100
AcDbVertex
100
AcDbPolyFaceMeshVertex
 10
93.07300000000002
 20
118.0
 30
871.8510000000001
 70
   192
  0
VERTEX
  5
3F7
330
2FF
100
AcDbEntity
  8
ｴｸｽﾃﾘｱ商品
 62
   250
370
    20
100
AcDbVertex
100
AcDbPolyFaceMeshVertex
 10
91.89700000000003
 20
103.0
 30
874.7080000000002
 70
   192
  0
VERTEX
  5
3F8
330
2FF
100
AcDbEntity
  8
ｴｸｽﾃﾘｱ商品
 62
   250
370
    20
100
AcDbVertex
100
AcDbPolyFaceMeshVertex
 10
91.89700000000003
 20
118.0
 30
874.7080000000002
 70
   192
  0
VERTEX
  5
3F9
330
2FF
100
AcDbEntity
  8
ｴｸｽﾃﾘｱ商品
 62
   250
370
    20
100
AcDbVertex
100
AcDbPolyFaceMeshVertex
 10
91.23500000000001
 20
103.0
 30
877.7260000000001
 70
   192
  0
VERTEX
  5
3FA
330
2FF
100
AcDbEntity
  8
ｴｸｽﾃﾘｱ商品
 62
   250
370
    20
100
AcDbVertex
100
AcDbPolyFaceMeshVertex
 10
91.23500000000001
 20
118.0
 30
877.7260000000001
 70
   192
  0
VERTEX
  5
3FB
330
2FF
100
AcDbEntity
  8
ｴｸｽﾃﾘｱ商品
 62
   250
370
    20
100
AcDbVertex
100
AcDbPolyFaceMeshVertex
 10
91.10700000000003
 20
103.0
 30
880.8130000000001
 70
   192
  0
VERTEX
  5
3FC
330
2FF
100
AcDbEntity
  8
ｴｸｽﾃﾘｱ商品
 62
   250
370
    20
100
AcDbVertex
100
AcDbPolyFaceMeshVertex
 10
91.10700000000003
 20
118.0
 30
880.8130000000001
 70
   192
  0
VERTEX
  5
3FD
330
2FF
100
AcDbEntity
  8
ｴｸｽﾃﾘｱ商品
 62
   250
370
    20
100
AcDbVertex
100
AcDbPolyFaceMeshVertex
 10
91.51800000000001
 20
103.0
 30
883.8750000000001
 70
   192
  0
VERTEX
  5
3FE
330
2FF
100
AcDbEntity
  8
ｴｸｽﾃﾘｱ商品
 62
   250
370
    20
100
AcDbVertex
100
AcDbPolyFaceMeshVertex
 10
91.51800000000001
 20
118.0
 30
883.8750000000001
 70
   192
  0
VERTEX
  5
3FF
330
2FF
100
AcDbEntity
  8
ｴｸｽﾃﾘｱ商品
 62
   250
370
    20
100
AcDbVertex
100
AcDbPolyFaceMeshVertex
 10
92.45300000000002
 20
103.0
 30
886.8190000000002
 70
   192
  0
VERTEX
  5
400
330
2FF
100
AcDbEntity
  8
ｴｸｽﾃﾘｱ商品
 62
   250
370
    20
100
AcDbVertex
100
AcDbPolyFaceMeshVertex
 10
92.45300000000002
 20
118.0
 30
886.8190000000002
 70
   192
  0
VERTEX
  5
401
330
2FF
100
AcDbEntity
  8
ｴｸｽﾃﾘｱ商品
 62
   250
370
    20
100
AcDbVertex
100
AcDbPolyFaceMeshVertex
 10
93.88600000000001
 20
103.0
 30
889.5560000000002
 70
   192
  0
VERTEX
  5
402
330
2FF
100
AcDbEntity
  8
ｴｸｽﾃﾘｱ商品
 62
   250
370
    20
100
AcDbVertex
100
AcDbPolyFaceMeshVertex
 10
93.88600000000001
 20
118.0
 30
889.5560000000002
 70
   192
  0
VERTEX
  5
403
330
2FF
100
AcDbEntity
  8
ｴｸｽﾃﾘｱ商品
 62
   250
370
    20
100
AcDbVertex
100
AcDbPolyFaceMeshVertex
 10
95.772
 20
103.0
 30
892.0030000000002
 70
   192
  0
VERTEX
  5
404
330
2FF
100
AcDbEntity
  8
ｴｸｽﾃﾘｱ商品
 62
   250
370
    20
100
AcDbVertex
100
AcDbPolyFaceMeshVertex
 10
95.772
 20
118.0
 30
892.0030000000002
 70
   192
  0
VERTEX
  5
405
330
2FF
100
AcDbEntity
  8
ｴｸｽﾃﾘｱ商品
 62
   250
370
    20
100
AcDbVertex
100
AcDbPolyFaceMeshVertex
 10
98.054
 20
103.0
 30
894.0850000000002
 70
   192
  0
VERTEX
  5
406
330
2FF
100
AcDbEntity
  8
ｴｸｽﾃﾘｱ商品
 62
   250
370
    20
100
AcDbVertex
100
AcDbPolyFaceMeshVertex
 10
98.054
 20
118.0
 30
894.0850000000002
 70
   192
  0
VERTEX
  5
407
330
2FF
100
AcDbEntity
  8
ｴｸｽﾃﾘｱ商品
 62
   250
370
    20
100
AcDbVertex
100
AcDbPolyFaceMeshVertex
 10
100.664
 20
103.0
 30
895.739
 70
   192
  0
VERTEX
  5
408
330
2FF
100
AcDbEntity
  8
ｴｸｽﾃﾘｱ商品
 62
   250
370
    20
100
AcDbVertex
100
AcDbPolyFaceMeshVertex
 10
100.664
 20
118.0
 30
895.739
 70
   192
  0
VERTEX
  5
409
330
2FF
100
AcDbEntity
  8
ｴｸｽﾃﾘｱ商品
 62
   250
370
    20
100
AcDbVertex
100
AcDbPolyFaceMeshVertex
 10
103.521
 20
103.0
 30
896.9150000000001
 70
   192
  0
VERTEX
  5
40A
330
2FF
100
AcDbEntity
  8
ｴｸｽﾃﾘｱ商品
 62
   250
370
    20
100
AcDbVertex
100
AcDbPolyFaceMeshVertex
 10
103.521
 20
118.0
 30
896.9150000000001
 70
   192
  0
VERTEX
  5
40B
330
2FF
100
AcDbEntity
  8
ｴｸｽﾃﾘｱ商品
 62
   250
370
    20
100
AcDbVertex
100
AcDbPolyFaceMeshVertex
 10
106.469
 20
103.0
 30
897.5000000000001
 70
   192
  0
VERTEX
  5
40C
330
2FF
100
AcDbEntity
  8
ｴｸｽﾃﾘｱ商品
 62
   250
370
    20
100
AcDbVertex
100
AcDbPolyFaceMeshVertex
 10
106.469
 20
118.0
 30
897.5000000000001
 70
   192
  0
VERTEX
  5
40D
330
2FF
100
AcDbEntity
  8
ｴｸｽﾃﾘｱ商品
 62
   250
370
    20
100
AcDbVertex
100
AcDbPolyFaceMeshVertex
 10
219.3440000000001
 20
103.0
 30
897.5000000000001
 70
   192
  0
VERTEX
  5
40E
330
2FF
100
AcDbEntity
  8
ｴｸｽﾃﾘｱ商品
 62
   250
370
    20
100
AcDbVertex
100
AcDbPolyFaceMeshVertex
 10
219.3440000000001
 20
118.0
 30
897.5000000000001
 70
   192
  0
VERTEX
  5
40F
330
2FF
100
AcDbEntity
  8
ｴｸｽﾃﾘｱ商品
 62
   250
370
    20
100
AcDbVertex
100
AcDbPolyFaceMeshVertex
 10
220.875
 20
103.0
 30
897.2950000000002
 70
   192
  0
VERTEX
  5
410
330
2FF
100
AcDbEntity
  8
ｴｸｽﾃﾘｱ商品
 62
   250
370
    20
100
AcDbVertex
100
AcDbPolyFaceMeshVertex
 10
220.875
 20
118.0
 30
897.2950000000002
 70
   192
  0
VERTEX
  5
411
330
2FF
100
AcDbEntity
  8
ｴｸｽﾃﾘｱ商品
 62
   250
370
    20
100
AcDbVertex
100
AcDbPolyFaceMeshVertex
 10
223.819
 20
103.0
 30
896.3590000000002
 70
   192
  0
VERTEX
  5
412
330
2FF
100
AcDbEntity
  8
ｴｸｽﾃﾘｱ商品
 62
   250
370
    20
100
AcDbVertex
100
AcDbPolyFaceMeshVertex
 10
223.819
 20
118.0
 30
896.3590000000002
 70
   192
  0
VERTEX
  5
413
330
2FF
100
AcDbEntity
  8
ｴｸｽﾃﾘｱ商品
 62
   250
370
    20
100
AcDbVertex
100
AcDbPolyFaceMeshVertex
 10
226.556
 20
103.0
 30
894.9270000000001
 70
   192
  0
VERTEX
  5
414
330
2FF
100
AcDbEntity
  8
ｴｸｽﾃﾘｱ商品
 62
   250
370
    20
100
AcDbVertex
100
AcDbPolyFaceMeshVertex
 10
226.556
 20
118.0
 30
894.9270000000001
 70
   192
  0
VERTEX
  5
415
330
2FF
100
AcDbEntity
  8
ｴｸｽﾃﾘｱ商品
 62
   250
370
    20
100
AcDbVertex
100
AcDbPolyFaceMeshVertex
 10
229.003
 20
103.0
 30
893.0400000000002
 70
   192
  0
VERTEX
  5
416
330
2FF
100
AcDbEntity
  8
ｴｸｽﾃﾘｱ商品
 62
   250
370
    20
100
AcDbVertex
100
AcDbPolyFaceMeshVertex
 10
229.003
 20
118.0
 30
893.0400000000002
 70
   192
  0
VERTEX
  5
417
330
2FF
100
AcDbEntity
  8
ｴｸｽﾃﾘｱ商品
 62
   250
370
    20
100
AcDbVertex
100
AcDbPolyFaceMeshVertex
 10
231.085
 20
103.0
 30
890.7580000000002
 70
   192
  0
VERTEX
  5
418
330
2FF
100
AcDbEntity
  8
ｴｸｽﾃﾘｱ商品
 62
   250
370
    20
100
AcDbVertex
100
AcDbPolyFaceMeshVertex
 10
231.085
 20
118.0
 30
890.7580000000002
 70
   192
  0
VERTEX
  5
419
330
2FF
100
AcDbEntity
  8
ｴｸｽﾃﾘｱ商品
 62
   250
370
    20
100
AcDbVertex
100
AcDbPolyFaceMeshVertex
 10
232.739
 20
103.0
 30
888.1490000000001
 70
   192
  0
VERTEX
  5
41A
330
2FF
100
AcDbEntity
  8
ｴｸｽﾃﾘｱ商品
 62
   250
370
    20
100
AcDbVertex
100
AcDbPolyFaceMeshVertex
 10
232.739
 20
118.0
 30
888.1490000000001
 70
   192
  0
VERTEX
  5
41B
330
2FF
100
AcDbEntity
  8
ｴｸｽﾃﾘｱ商品
 62
   250
370
    20
100
AcDbVertex
100
AcDbPolyFaceMeshVertex
 10
233.915
 20
103.0
 30
885.292
 70
   192
  0
VERTEX
  5
41C
330
2FF
100
AcDbEntity
  8
ｴｸｽﾃﾘｱ商品
 62
   250
370
    20
100
AcDbVertex
100
AcDbPolyFaceMeshVertex
 10
233.915
 20
118.0
 30
885.292
 70
   192
  0
VERTEX
  5
41D
330
2FF
100
AcDbEntity
  8
ｴｸｽﾃﾘｱ商品
 62
   250
370
    20
100
AcDbVertex
100
AcDbPolyFaceMeshVertex
 10
234.577
 20
103.0
 30
882.2740000000001
 70
   192
  0
VERTEX
  5
41E
330
2FF
100
AcDbEntity
  8
ｴｸｽﾃﾘｱ商品
 62
   250
370
    20
100
AcDbVertex
100
AcDbPolyFaceMeshVertex
 10
234.577
 20
118.0
 30
882.2740000000001
 70
   192
  0
VERTEX
  5
41F
330
2FF
100
AcDbEntity
  8
ｴｸｽﾃﾘｱ商品
 62
   250
370
    20
100
AcDbVertex
100
AcDbPolyFaceMeshVertex
 10
234.705
 20
103.0
 30
879.1870000000001
 70
   192
  0
VERTEX
  5
420
330
2FF
100
AcDbEntity
  8
ｴｸｽﾃﾘｱ商品
 62
   250
370
    20
100
AcDbVertex
100
AcDbPolyFaceMeshVertex
 10
234.705
 20
118.0
 30
879.1870000000001
 70
   192
  0
VERTEX
  5
421
330
2FF
100
AcDbEntity
  8
ｴｸｽﾃﾘｱ商品
 62
   250
370
    20
100
AcDbVertex
100
AcDbPolyFaceMeshVertex
 10
234.295
 20
103.0
 30
876.1250000000001
 70
   192
  0
VERTEX
  5
422
330
2FF
100
AcDbEntity
  8
ｴｸｽﾃﾘｱ商品
 62
   250
370
    20
100
AcDbVertex
100
AcDbPolyFaceMeshVertex
 10
234.295
 20
118.0
 30
876.1250000000001
 70
   192
  0
VERTEX
  5
423
330
2FF
100
AcDbEntity
  8
ｴｸｽﾃﾘｱ商品
 62
   250
370
    20
100
AcDbVertex
100
AcDbPolyFaceMeshVertex
 10
233.359
 20
103.0
 30
873.181
 70
   192
  0
VERTEX
  5
424
330
2FF
100
AcDbEntity
  8
ｴｸｽﾃﾘｱ商品
 62
   250
370
    20
100
AcDbVertex
100
AcDbPolyFaceMeshVertex
 10
233.359
 20
118.0
 30
873.181
 70
   192
  0
VERTEX
  5
425
330
2FF
100
AcDbEntity
  8
ｴｸｽﾃﾘｱ商品
 62
   250
370
    20
100
AcDbVertex
100
AcDbPolyFaceMeshVertex
 10
231.927
 20
103.0
 30
870.4440000000001
 70
   192
  0
VERTEX
  5
426
330
2FF
100
AcDbEntity
  8
ｴｸｽﾃﾘｱ商品
 62
   250
370
    20
100
AcDbVertex
100
AcDbPolyFaceMeshVertex
 10
231.927
 20
118.0
 30
870.4440000000001
 70
   192
  0
VERTEX
  5
427
330
2FF
100
AcDbEntity
  8
ｴｸｽﾃﾘｱ商品
 62
   250
370
    20
100
AcDbVertex
100
AcDbPolyFaceMeshVertex
 10
230.04
 20
103.0
 30
867.9970000000002
 70
   192
  0
VERTEX
  5
428
330
2FF
100
AcDbEntity
  8
ｴｸｽﾃﾘｱ商品
 62
   250
370
    20
100
AcDbVertex
100
AcDbPolyFaceMeshVertex
 10
230.04
 20
118.0
 30
867.9970000000002
 70
   192
  0
VERTEX
  5
429
330
2FF
100
AcDbEntity
  8
ｴｸｽﾃﾘｱ商品
 62
   250
370
    20
100
AcDbVertex
100
AcDbPolyFaceMeshVertex
 10
227.758
 20
103.0
 30
865.9150000000001
 70
   192
  0
VERTEX
  5
42A
330
2FF
100
AcDbEntity
  8
ｴｸｽﾃﾘｱ商品
 62
   250
370
    20
100
AcDbVertex
100
AcDbPolyFaceMeshVertex
 10
227.758
 20
118.0
 30
865.9150000000001
 70
   192
  0
VERTEX
  5
42B
330
2FF
100
AcDbEntity
  8
ｴｸｽﾃﾘｱ商品
 62
   250
370
    20
100
AcDbVertex
100
AcDbPolyFaceMeshVertex
 10
225.149
 20
103.0
 30
864.2610000000002
 70
   192
  0
VERTEX
  5
42C
330
2FF
100
AcDbEntity
  8
ｴｸｽﾃﾘｱ商品
 62
   250
370
    20
100
AcDbVertex
100
AcDbPolyFaceMeshVertex
 10
225.149
 20
118.0
 30
864.2610000000002
 70
   192
  0
VERTEX
  5
42D
330
2FF
100
AcDbEntity
  8
ｴｸｽﾃﾘｱ商品
 62
   250
370
    20
100
AcDbVertex
100
AcDbPolyFaceMeshVertex
 10
222.292
 20
103.0
 30
863.0850000000002
 70
   192
  0
VERTEX
  5
42E
330
2FF
100
AcDbEntity
  8
ｴｸｽﾃﾘｱ商品
 62
   250
370
    20
100
AcDbVertex
100
AcDbPolyFaceMeshVertex
 10
222.292
 20
118.0
 30
863.0850000000002
 70
   192
  0
VERTEX
  5
42F
330
2FF
100
AcDbEntity
  8
ｴｸｽﾃﾘｱ商品
 62
   250
370
    20
100
AcDbVertex
100
AcDbPolyFaceMeshVertex
 10
219.3440000000001
 20
103.0
 30
862.5000000000001
 70
   192
  0
VERTEX
  5
430
330
2FF
100
AcDbEntity
  8
ｴｸｽﾃﾘｱ商品
 62
   250
370
    20
100
AcDbVertex
100
AcDbPolyFaceMeshVertex
 10
219.3440000000001
 20
118.0
 30
862.5000000000001
 70
   192
  0
VERTEX
  5
431
330
2FF
100
AcDbEntity
  8
ｴｸｽﾃﾘｱ商品
 62
   250
370
    20
100
AcDbVertex
100
AcDbPolyFaceMeshVertex
 10
773.1671147168657
 20
93.0898700456638
 30
1155.0
 70
   192
  0
VERTEX
  5
432
330
2FF
100
AcDbEntity
  8
ｴｸｽﾃﾘｱ商品
 62
   250
370
    20
100
AcDbVertex
100
AcDbPolyFaceMeshVertex
 10
773.0
 20
95.00000000000003
 30
1155.0
 70
   192
  0
VERTEX
  5
433
330
2FF
100
AcDbEntity
  8
ｴｸｽﾃﾘｱ商品
 62
   250
370
    20
100
AcDbVertex
100
AcDbPolyFaceMeshVertex
 10
773.1671147168657
 20
96.91012995433626
 30
1155.0
 70
   192
  0
VERTEX
  5
434
330
2FF
100
AcDbEntity
  8
ｴｸｽﾃﾘｱ商品
 62
   250
370
    20
100
AcDbVertex
100
AcDbPolyFaceMeshVertex
 10
773.663381171355
 20
98.76222157658239
 30
1155.0
 70
   192
  0
VERTEX
  5
435
330
2FF
100
AcDbEntity
  8
ｴｸｽﾃﾘｱ商品
 62
   250
370
    20
100
AcDbVertex
100
AcDbPolyFaceMeshVertex
 10
774.4737205583712
 20
100.5
 30
1155.0
 70
   192
  0
VERTEX
  5
436
330
2FF
100
AcDbEntity
  8
ｴｸｽﾃﾘｱ商品
 62
   250
370
    20
100
AcDbVertex
100
AcDbPolyFaceMeshVertex
 10
775.5735111256913
 20
102.070663706552
 30
1155.0
 70
   192
  0
VERTEX
  5
437
330
2FF
100
AcDbEntity
  8
ｴｸｽﾃﾘｱ商品
 62
   250
370
    20
100
AcDbVertex
100
AcDbPolyFaceMeshVertex
 10
776.929336293448
 20
103.4264888743088
 30
1155.0
 70
   192
  0
VERTEX
  5
438
330
2FF
100
AcDbEntity
  8
ｴｸｽﾃﾘｱ商品
 62
   250
370
    20
100
AcDbVertex
100
AcDbPolyFaceMeshVertex
 10
778.5000000000001
 20
104.5262794416289
 30
1155.0
 70
   192
  0
VERTEX
  5
439
330
2FF
100
AcDbEntity
  8
ｴｸｽﾃﾘｱ商品
 62
   250
370
    20
100
AcDbVertex
100
AcDbPolyFaceMeshVertex
 10
780.2377784234177
 20
105.336618828645
 30
1155.0
 70
   192
  0
VERTEX
  5
43A
330
2FF
100
AcDbEntity
  8
ｴｸｽﾃﾘｱ商品
 62
   250
370
    20
100
AcDbVertex
100
AcDbPolyFaceMeshVertex
 10
782.0898700456638
 20
105.8328852831343
 30
1155.0
 70
   192
  0
VERTEX
  5
43B
330
2FF
100
AcDbEntity
  8
ｴｸｽﾃﾘｱ商品
 62
   250
370
    20
100
AcDbVertex
100
AcDbPolyFaceMeshVertex
 10
784.0
 20
106.0
 30
1155.0
 70
   192
  0
VERTEX
  5
43C
330
2FF
100
AcDbEntity
  8
ｴｸｽﾃﾘｱ商品
 62
   250
370
    20
100
AcDbVertex
100
AcDbPolyFaceMeshVertex
 10
785.9101299543363
 20
105.8328852831343
 30
1155.0
 70
   192
  0
VERTEX
  5
43D
330
2FF
100
AcDbEntity
  8
ｴｸｽﾃﾘｱ商品
 62
   250
370
    20
100
AcDbVertex
100
AcDbPolyFaceMeshVertex
 10
787.7622215765824
 20
105.336618828645
 30
1155.0
 70
   192
  0
VERTEX
  5
43E
330
2FF
100
AcDbEntity
  8
ｴｸｽﾃﾘｱ商品
 62
   250
370
    20
100
AcDbVertex
100
AcDbPolyFaceMeshVertex
 10
789.5
 20
104.5262794416289
 30
1155.0
 70
   192
  0
VERTEX
  5
43F
330
2FF
100
AcDbEntity
  8
ｴｸｽﾃﾘｱ商品
 62
   250
370
    20
100
AcDbVertex
100
AcDbPolyFaceMeshVertex
 10
791.070663706552
 20
103.4264888743088
 30
1155.0
 70
   192
  0
VERTEX
  5
440
330
2FF
100
AcDbEntity
  8
ｴｸｽﾃﾘｱ商品
 62
   250
370
    20
100
AcDbVertex
100
AcDbPolyFaceMeshVertex
 10
792.4264888743088
 20
102.070663706552
 30
1155.0
 70
   192
  0
VERTEX
  5
441
330
2FF
100
AcDbEntity
  8
ｴｸｽﾃﾘｱ商品
 62
   250
370
    20
100
AcDbVertex
100
AcDbPolyFaceMeshVertex
 10
793.526279441629
 20
100.5
 30
1155.0
 70
   192
  0
VERTEX
  5
442
330
2FF
100
AcDbEntity
  8
ｴｸｽﾃﾘｱ商品
 62
   250
370
    20
100
AcDbVertex
100
AcDbPolyFaceMeshVertex
 10
794.336618828645
 20
98.76222157658239
 30
1155.0
 70
   192
  0
VERTEX
  5
443
330
2FF
100
AcDbEntity
  8
ｴｸｽﾃﾘｱ商品
 62
   250
370
    20
100
AcDbVertex
100
AcDbPolyFaceMeshVertex
 10
794.8328852831344
 20
96.91012995433626
 30
1155.0
 70
   192
  0
VERTEX
  5
444
330
2FF
100
AcDbEntity
  8
ｴｸｽﾃﾘｱ商品
 62
   250
370
    20
100
AcDbVertex
100
AcDbPolyFaceMeshVertex
 10
795.0
 20
95.00000000000003
 30
1155.0
 70
   192
  0
VERTEX
  5
445
330
2FF
100
AcDbEntity
  8
ｴｸｽﾃﾘｱ商品
 62
   250
370
    20
100
AcDbVertex
100
AcDbPolyFaceMeshVertex
 10
794.8328852831344
 20
93.0898700456638
 30
1155.0
 70
   192
  0
VERTEX
  5
446
330
2FF
100
AcDbEntity
  8
ｴｸｽﾃﾘｱ商品
 62
   250
370
    20
100
AcDbVertex
100
AcDbPolyFaceMeshVertex
 10
794.336618828645
 20
91.23777842341768
 30
1155.0
 70
   192
  0
VERTEX
  5
447
330
2FF
100
AcDbEntity
  8
ｴｸｽﾃﾘｱ商品
 62
   250
370
    20
100
AcDbVertex
100
AcDbPolyFaceMeshVertex
 10
793.526279441629
 20
89.50000000000004
 30
1155.0
 70
   192
  0
VERTEX
  5
448
330
2FF
100
AcDbEntity
  8
ｴｸｽﾃﾘｱ商品
 62
   250
370
    20
100
AcDbVertex
100
AcDbPolyFaceMeshVertex
 10
792.4264888743088
 20
87.92933629344812
 30
1155.0
 70
   192
  0
VERTEX
  5
449
330
2FF
100
AcDbEntity
  8
ｴｸｽﾃﾘｱ商品
 62
   250
370
    20
100
AcDbVertex
100
AcDbPolyFaceMeshVertex
 10
791.070663706552
 20
86.57351112569128
 30
1155.0
 70
   192
  0
VERTEX
  5
44A
330
2FF
100
AcDbEntity
  8
ｴｸｽﾃﾘｱ商品
 62
   250
370
    20
100
AcDbVertex
100
AcDbPolyFaceMeshVertex
 10
789.5
 20
85.47372055837121
 30
1155.0
 70
   192
  0
VERTEX
  5
44B
330
2FF
100
AcDbEntity
  8
ｴｸｽﾃﾘｱ商品
 62
   250
370
    20
100
AcDbVertex
100
AcDbPolyFaceMeshVertex
 10
787.7622215765824
 20
84.66338117135506
 30
1155.0
 70
   192
  0
VERTEX
  5
44C
330
2FF
100
AcDbEntity
  8
ｴｸｽﾃﾘｱ商品
 62
   250
370
    20
100
AcDbVertex
100
AcDbPolyFaceMeshVertex
 10
785.9101299543363
 20
84.16711471686575
 30
1155.0
 70
   192
  0
VERTEX
  5
44D
330
2FF
100
AcDbEntity
  8
ｴｸｽﾃﾘｱ商品
 62
   250
370
    20
100
AcDbVertex
100
AcDbPolyFaceMeshVertex
 10
784.0
 20
84.00000000000004
 30
1155.0
 70
   192
  0
VERTEX
  5
44E
330
2FF
100
AcDbEntity
  8
ｴｸｽﾃﾘｱ商品
 62
   250
370
    20
100
AcDbVertex
100
AcDbPolyFaceMeshVertex
 10
782.0898700456638
 20
84.16711471686575
 30
1155.0
 70
   192
  0
VERTEX
  5
44F
330
2FF
100
AcDbEntity
  8
ｴｸｽﾃﾘｱ商品
 62
   250
370
    20
100
AcDbVertex
100
AcDbPolyFaceMeshVertex
 10
780.2377784234177
 20
84.66338117135506
 30
1155.0
 70
   192
  0
VERTEX
  5
450
330
2FF
100
AcDbEntity
  8
ｴｸｽﾃﾘｱ商品
 62
   250
370
    20
100
AcDbVertex
100
AcDbPolyFaceMeshVertex
 10
778.5000000000001
 20
85.47372055837121
 30
1155.0
 70
   192
  0
VERTEX
  5
451
330
2FF
100
AcDbEntity
  8
ｴｸｽﾃﾘｱ商品
 62
   250
370
    20
100
AcDbVertex
100
AcDbPolyFaceMeshVertex
 10
776.929336293448
 20
86.57351112569128
 30
1155.0
 70
   192
  0
VERTEX
  5
452
330
2FF
100
AcDbEntity
  8
ｴｸｽﾃﾘｱ商品
 62
   250
370
    20
100
AcDbVertex
100
AcDbPolyFaceMeshVertex
 10
775.5735111256913
 20
87.92933629344812
 30
1155.0
 70
   192
  0
VERTEX
  5
453
330
2FF
100
AcDbEntity
  8
ｴｸｽﾃﾘｱ商品
 62
   250
370
    20
100
AcDbVertex
100
AcDbPolyFaceMeshVertex
 10
774.4737205583713
 20
89.50000000000004
 30
1155.0
 70
   192
  0
VERTEX
  5
454
330
2FF
100
AcDbEntity
  8
ｴｸｽﾃﾘｱ商品
 62
   250
370
    20
100
AcDbVertex
100
AcDbPolyFaceMeshVertex
 10
773.663381171355
 20
91.23777842341768
 30
1155.0
 70
   192
  0
VERTEX
  5
455
330
2FF
100
AcDbEntity
  8
ｴｸｽﾃﾘｱ商品
 62
   250
370
    20
100
AcDbVertex
100
AcDbPolyFaceMeshVertex
 10
773.1671147168657
 20
93.0898700456638
 30
1208.0
 70
   192
  0
VERTEX
  5
456
330
2FF
100
AcDbEntity
  8
ｴｸｽﾃﾘｱ商品
 62
   250
370
    20
100
AcDbVertex
100
AcDbPolyFaceMeshVertex
 10
773.663381171355
 20
91.23777842341768
 30
1208.0
 70
   192
  0
VERTEX
  5
457
330
2FF
100
AcDbEntity
  8
ｴｸｽﾃﾘｱ商品
 62
   250
370
    20
100
AcDbVertex
100
AcDbPolyFaceMeshVertex
 10
774.4737205583713
 20
89.50000000000004
 30
1208.0
 70
   192
  0
VERTEX
  5
458
330
2FF
100
AcDbEntity
  8
ｴｸｽﾃﾘｱ商品
 62
   250
370
    20
100
AcDbVertex
100
AcDbPolyFaceMeshVertex
 10
775.5735111256913
 20
87.92933629344812
 30
1208.0
 70
   192
  0
VERTEX
  5
459
330
2FF
100
AcDbEntity
  8
ｴｸｽﾃﾘｱ商品
 62
   250
370
    20
100
AcDbVertex
100
AcDbPolyFaceMeshVertex
 10
776.929336293448
 20
86.57351112569128
 30
1208.0
 70
   192
  0
VERTEX
  5
45A
330
2FF
100
AcDbEntity
  8
ｴｸｽﾃﾘｱ商品
 62
   250
370
    20
100
AcDbVertex
100
AcDbPolyFaceMeshVertex
 10
778.5000000000001
 20
85.47372055837121
 30
1208.0
 70
   192
  0
VERTEX
  5
45B
330
2FF
100
AcDbEntity
  8
ｴｸｽﾃﾘｱ商品
 62
   250
370
    20
100
AcDbVertex
100
AcDbPolyFaceMeshVertex
 10
780.2377784234177
 20
84.66338117135506
 30
1208.0
 70
   192
  0
VERTEX
  5
45C
330
2FF
100
AcDbEntity
  8
ｴｸｽﾃﾘｱ商品
 62
   250
370
    20
100
AcDbVertex
100
AcDbPolyFaceMeshVertex
 10
782.0898700456638
 20
84.16711471686575
 30
1208.0
 70
   192
  0
VERTEX
  5
45D
330
2FF
100
AcDbEntity
  8
ｴｸｽﾃﾘｱ商品
 62
   250
370
    20
100
AcDbVertex
100
AcDbPolyFaceMeshVertex
 10
784.0
 20
84.00000000000004
 30
1208.0
 70
   192
  0
VERTEX
  5
45E
330
2FF
100
AcDbEntity
  8
ｴｸｽﾃﾘｱ商品
 62
   250
370
    20
100
AcDbVertex
100
AcDbPolyFaceMeshVertex
 10
785.9101299543363
 20
84.16711471686575
 30
1208.0
 70
   192
  0
VERTEX
  5
45F
330
2FF
100
AcDbEntity
  8
ｴｸｽﾃﾘｱ商品
 62
   250
370
    20
100
AcDbVertex
100
AcDbPolyFaceMeshVertex
 10
787.7622215765824
 20
84.66338117135506
 30
1208.0
 70
   192
  0
VERTEX
  5
460
330
2FF
100
AcDbEntity
  8
ｴｸｽﾃﾘｱ商品
 62
   250
370
    20
100
AcDbVertex
100
AcDbPolyFaceMeshVertex
 10
789.5
 20
85.47372055837121
 30
1208.0
 70
   192
  0
VERTEX
  5
461
330
2FF
100
AcDbEntity
  8
ｴｸｽﾃﾘｱ商品
 62
   250
370
    20
100
AcDbVertex
100
AcDbPolyFaceMeshVertex
 10
791.070663706552
 20
86.57351112569128
 30
1208.0
 70
   192
  0
VERTEX
  5
462
330
2FF
100
AcDbEntity
  8
ｴｸｽﾃﾘｱ商品
 62
   250
370
    20
100
AcDbVertex
100
AcDbPolyFaceMeshVertex
 10
792.4264888743088
 20
87.92933629344812
 30
1208.0
 70
   192
  0
VERTEX
  5
463
330
2FF
100
AcDbEntity
  8
ｴｸｽﾃﾘｱ商品
 62
   250
370
    20
100
AcDbVertex
100
AcDbPolyFaceMeshVertex
 10
793.526279441629
 20
89.50000000000004
 30
1208.0
 70
   192
  0
VERTEX
  5
464
330
2FF
100
AcDbEntity
  8
ｴｸｽﾃﾘｱ商品
 62
   250
370
    20
100
AcDbVertex
100
AcDbPolyFaceMeshVertex
 10
794.336618828645
 20
91.23777842341768
 30
1208.0
 70
   192
  0
VERTEX
  5
465
330
2FF
100
AcDbEntity
  8
ｴｸｽﾃﾘｱ商品
 62
   250
370
    20
100
AcDbVertex
100
AcDbPolyFaceMeshVertex
 10
794.8328852831344
 20
93.0898700456638
 30
1208.0
 70
   192
  0
VERTEX
  5
466
330
2FF
100
AcDbEntity
  8
ｴｸｽﾃﾘｱ商品
 62
   250
370
    20
100
AcDbVertex
100
AcDbPolyFaceMeshVertex
 10
795.0
 20
95.00000000000003
 30
1208.0
 70
   192
  0
VERTEX
  5
467
330
2FF
100
AcDbEntity
  8
ｴｸｽﾃﾘｱ商品
 62
   250
370
    20
100
AcDbVertex
100
AcDbPolyFaceMeshVertex
 10
794.8328852831344
 20
96.91012995433626
 30
1208.0
 70
   192
  0
VERTEX
  5
468
330
2FF
100
AcDbEntity
  8
ｴｸｽﾃﾘｱ商品
 62
   250
370
    20
100
AcDbVertex
100
AcDbPolyFaceMeshVertex
 10
794.336618828645
 20
98.76222157658239
 30
1208.0
 70
   192
  0
VERTEX
  5
469
330
2FF
100
AcDbEntity
  8
ｴｸｽﾃﾘｱ商品
 62
   250
370
    20
100
AcDbVertex
100
AcDbPolyFaceMeshVertex
 10
793.526279441629
 20
100.5
 30
1208.0
 70
   192
  0
VERTEX
  5
46A
330
2FF
100
AcDbEntity
  8
ｴｸｽﾃﾘｱ商品
 62
   250
370
    20
100
AcDbVertex
100
AcDbPolyFaceMeshVertex
 10
792.4264888743088
 20
102.070663706552
 30
1208.0
 70
   192
  0
VERTEX
  5
46B
330
2FF
100
AcDbEntity
  8
ｴｸｽﾃﾘｱ商品
 62
   250
370
    20
100
AcDbVertex
100
AcDbPolyFaceMeshVertex
 10
791.070663706552
 20
103.4264888743088
 30
1208.0
 70
   192
  0
VERTEX
  5
46C
330
2FF
100
AcDbEntity
  8
ｴｸｽﾃﾘｱ商品
 62
   250
370
    20
100
AcDbVertex
100
AcDbPolyFaceMeshVertex
 10
789.5
 20
104.5262794416289
 30
1208.0
 70
   192
  0
VERTEX
  5
46D
330
2FF
100
AcDbEntity
  8
ｴｸｽﾃﾘｱ商品
 62
   250
370
    20
100
AcDbVertex
100
AcDbPolyFaceMeshVertex
 10
787.7622215765824
 20
105.336618828645
 30
1208.0
 70
   192
  0
VERTEX
  5
46E
330
2FF
100
AcDbEntity
  8
ｴｸｽﾃﾘｱ商品
 62
   250
370
    20
100
AcDbVertex
100
AcDbPolyFaceMeshVertex
 10
785.9101299543363
 20
105.8328852831343
 30
1208.0
 70
   192
  0
VERTEX
  5
46F
330
2FF
100
AcDbEntity
  8
ｴｸｽﾃﾘｱ商品
 62
   250
370
    20
100
AcDbVertex
100
AcDbPolyFaceMeshVertex
 10
784.0
 20
106.0
 30
1208.0
 70
   192
  0
VERTEX
  5
470
330
2FF
100
AcDbEntity
  8
ｴｸｽﾃﾘｱ商品
 62
   250
370
    20
100
AcDbVertex
100
AcDbPolyFaceMeshVertex
 10
782.0898700456638
 20
105.8328852831343
 30
1208.0
 70
   192
  0
VERTEX
  5
471
330
2FF
100
AcDbEntity
  8
ｴｸｽﾃﾘｱ商品
 62
   250
370
    20
100
AcDbVertex
100
AcDbPolyFaceMeshVertex
 10
780.2377784234177
 20
105.336618828645
 30
1208.0
 70
   192
  0
VERTEX
  5
472
330
2FF
100
AcDbEntity
  8
ｴｸｽﾃﾘｱ商品
 62
   250
370
    20
100
AcDbVertex
100
AcDbPolyFaceMeshVertex
 10
778.5000000000001
 20
104.5262794416289
 30
1208.0
 70
   192
  0
VERTEX
  5
473
330
2FF
100
AcDbEntity
  8
ｴｸｽﾃﾘｱ商品
 62
   250
370
    20
100
AcDbVertex
100
AcDbPolyFaceMeshVertex
 10
776.929336293448
 20
103.4264888743088
 30
1208.0
 70
   192
  0
VERTEX
  5
474
330
2FF
100
AcDbEntity
  8
ｴｸｽﾃﾘｱ商品
 62
   250
370
    20
100
AcDbVertex
100
AcDbPolyFaceMeshVertex
 10
775.5735111256913
 20
102.070663706552
 30
1208.0
 70
   192
  0
VERTEX
  5
475
330
2FF
100
AcDbEntity
  8
ｴｸｽﾃﾘｱ商品
 62
   250
370
    20
100
AcDbVertex
100
AcDbPolyFaceMeshVertex
 10
774.4737205583712
 20
100.5
 30
1208.0
 70
   192
  0
VERTEX
  5
476
330
2FF
100
AcDbEntity
  8
ｴｸｽﾃﾘｱ商品
 62
   250
370
    20
100
AcDbVertex
100
AcDbPolyFaceMeshVertex
 10
773.663381171355
 20
98.76222157658239
 30
1208.0
 70
   192
  0
VERTEX
  5
477
330
2FF
100
AcDbEntity
  8
ｴｸｽﾃﾘｱ商品
 62
   250
370
    20
100
AcDbVertex
100
AcDbPolyFaceMeshVertex
 10
773.1671147168657
 20
96.91012995433626
 30
1208.0
 70
   192
  0
VERTEX
  5
478
330
2FF
100
AcDbEntity
  8
ｴｸｽﾃﾘｱ商品
 62
   250
370
    20
100
AcDbVertex
100
AcDbPolyFaceMeshVertex
 10
773.0
 20
95.00000000000003
 30
1208.0
 70
   192
  0
VERTEX
  5
479
330
2FF
100
AcDbEntity
  8
ｴｸｽﾃﾘｱ商品
 62
   250
370
    20
100
AcDbVertex
100
AcDbPolyFaceMeshVertex
 10
786.0
 20
39.50000000000002
 30
1155.0
 70
   192
  0
VERTEX
  5
47A
330
2FF
100
AcDbEntity
  8
ｴｸｽﾃﾘｱ商品
 62
   250
370
    20
100
AcDbVertex
100
AcDbPolyFaceMeshVertex
 10
786.0
 20
80.05800000000004
 30
1155.0
 70
   192
  0
VERTEX
  5
47B
330
2FF
100
AcDbEntity
  8
ｴｸｽﾃﾘｱ商品
 62
   250
370
    20
100
AcDbVertex
100
AcDbPolyFaceMeshVertex
 10
786.0
 20
80.05800000000004
 30
1205.0
 70
   192
  0
VERTEX
  5
47C
330
2FF
100
AcDbEntity
  8
ｴｸｽﾃﾘｱ商品
 62
   250
370
    20
100
AcDbVertex
100
AcDbPolyFaceMeshVertex
 10
786.0
 20
39.50000000000002
 30
1205.0
 70
   192
  0
VERTEX
  5
47D
330
2FF
100
AcDbEntity
  8
ｴｸｽﾃﾘｱ商品
 62
   250
370
    20
100
AcDbVertex
100
AcDbPolyFaceMeshVertex
 10
786.235
 20
81.57300000000004
 30
1155.0
 70
   192
  0
VERTEX
  5
47E
330
2FF
100
AcDbEntity
  8
ｴｸｽﾃﾘｱ商品
 62
   250
370
    20
100
AcDbVertex
100
AcDbPolyFaceMeshVertex
 10
786.235
 20
81.57300000000004
 30
1205.0
 70
   192
  0
VERTEX
  5
47F
330
2FF
100
AcDbEntity
  8
ｴｸｽﾃﾘｱ商品
 62
   250
370
    20
100
AcDbVertex
100
AcDbPolyFaceMeshVertex
 10
786.7810000000001
 20
82.74100000000003
 30
1155.0
 70
   192
  0
VERTEX
  5
480
330
2FF
100
AcDbEntity
  8
ｴｸｽﾃﾘｱ商品
 62
   250
370
    20
100
AcDbVertex
100
AcDbPolyFaceMeshVertex
 10
786.7810000000001
 20
82.74100000000003
 30
1205.0
 70
   192
  0
VERTEX
  5
481
330
2FF
100
AcDbEntity
  8
ｴｸｽﾃﾘｱ商品
 62
   250
370
    20
100
AcDbVertex
100
AcDbPolyFaceMeshVertex
 10
787.3090000000001
 20
83.43100000000004
 30
1155.0
 70
   192
  0
VERTEX
  5
482
330
2FF
100
AcDbEntity
  8
ｴｸｽﾃﾘｱ商品
 62
   250
370
    20
100
AcDbVertex
100
AcDbPolyFaceMeshVertex
 10
787.3090000000001
 20
83.43100000000004
 30
1205.0
 70
   192
  0
VERTEX
  5
483
330
2FF
100
AcDbEntity
  8
ｴｸｽﾃﾘｱ商品
 62
   250
370
    20
100
AcDbVertex
100
AcDbPolyFaceMeshVertex
 10
788.879
 20
84.58600000000003
 30
1155.0
 70
   192
  0
VERTEX
  5
484
330
2FF
100
AcDbEntity
  8
ｴｸｽﾃﾘｱ商品
 62
   250
370
    20
100
AcDbVertex
100
AcDbPolyFaceMeshVertex
 10
788.879
 20
84.58600000000003
 30
1205.0
 70
   192
  0
VERTEX
  5
485
330
2FF
100
AcDbEntity
  8
ｴｸｽﾃﾘｱ商品
 62
   250
370
    20
100
AcDbVertex
100
AcDbPolyFaceMeshVertex
 10
775.417
 20
87.18200000000002
 30
1155.0
 70
   192
  0
VERTEX
  5
486
330
2FF
100
AcDbEntity
  8
ｴｸｽﾃﾘｱ商品
 62
   250
370
    20
100
AcDbVertex
100
AcDbPolyFaceMeshVertex
 10
775.417
 20
87.18200000000002
 30
1205.0
 70
   192
  0
VERTEX
  5
487
330
2FF
100
AcDbEntity
  8
ｴｸｽﾃﾘｱ商品
 62
   250
370
    20
100
AcDbVertex
100
AcDbPolyFaceMeshVertex
 10
776.0
 20
84.83900000000003
 30
1155.0
 70
   192
  0
VERTEX
  5
488
330
2FF
100
AcDbEntity
  8
ｴｸｽﾃﾘｱ商品
 62
   250
370
    20
100
AcDbVertex
100
AcDbPolyFaceMeshVertex
 10
776.0
 20
84.83900000000003
 30
1205.0
 70
   192
  0
VERTEX
  5
489
330
2FF
100
AcDbEntity
  8
ｴｸｽﾃﾘｱ商品
 62
   250
370
    20
100
AcDbVertex
100
AcDbPolyFaceMeshVertex
 10
776.0
 20
38.85000000000002
 30
1155.0
 70
   192
  0
VERTEX
  5
48A
330
2FF
100
AcDbEntity
  8
ｴｸｽﾃﾘｱ商品
 62
   250
370
    20
100
AcDbVertex
100
AcDbPolyFaceMeshVertex
 10
776.0
 20
38.85000000000002
 30
1205.0
 70
   192
  0
VERTEX
  5
48B
330
2FF
100
AcDbEntity
  8
ｴｸｽﾃﾘｱ商品
 62
   250
370
    20
100
AcDbVertex
100
AcDbPolyFaceMeshVertex
 10
776.636
 20
37.56800000000002
 30
1155.0
 70
   192
  0
VERTEX
  5
48C
330
2FF
100
AcDbEntity
  8
ｴｸｽﾃﾘｱ商品
 62
   250
370
    20
100
AcDbVertex
100
AcDbPolyFaceMeshVertex
 10
776.636
 20
37.56800000000002
 30
1205.0
 70
   192
  0
VERTEX
  5
48D
330
2FF
100
AcDbEntity
  8
ｴｸｽﾃﾘｱ商品
 62
   250
370
    20
100
AcDbVertex
100
AcDbPolyFaceMeshVertex
 10
784.0
 20
37.50000000000002
 30
1155.0
 70
   192
  0
VERTEX
  5
48E
330
2FF
100
AcDbEntity
  8
ｴｸｽﾃﾘｱ商品
 62
   250
370
    20
100
AcDbVertex
100
AcDbPolyFaceMeshVertex
 10
784.0
 20
37.50000000000002
 30
1205.0
 70
   192
  0
VERTEX
  5
48F
330
2FF
100
AcDbEntity
  8
ｴｸｽﾃﾘｱ商品
 62
   250
370
    20
100
AcDbVertex
100
AcDbPolyFaceMeshVertex
 10
785.4140000000001
 20
38.08600000000002
 30
1155.0
 70
   192
  0
VERTEX
  5
490
330
2FF
100
AcDbEntity
  8
ｴｸｽﾃﾘｱ商品
 62
   250
370
    20
100
AcDbVertex
100
AcDbPolyFaceMeshVertex
 10
785.4140000000001
 20
38.08600000000002
 30
1205.0
 70
   192
  0
VERTEX
  5
491
330
2FF
100
AcDbEntity
  8
ｴｸｽﾃﾘｱ商品
 62
   250
370
    20
100
AcDbVertex
100
AcDbPolyFaceMeshVertex
 10
773.1671147168657
 20
93.0898700456638
 30
155.0
 70
   192
  0
VERTEX
  5
492
330
2FF
100
AcDbEntity
  8
ｴｸｽﾃﾘｱ商品
 62
   250
370
    20
100
AcDbVertex
100
AcDbPolyFaceMeshVertex
 10
773.0
 20
95.00000000000003
 30
155.0
 70
   192
  0
VERTEX
  5
493
330
2FF
100
AcDbEntity
  8
ｴｸｽﾃﾘｱ商品
 62
   250
370
    20
100
AcDbVertex
100
AcDbPolyFaceMeshVertex
 10
773.1671147168657
 20
96.91012995433626
 30
155.0
 70
   192
  0
VERTEX
  5
494
330
2FF
100
AcDbEntity
  8
ｴｸｽﾃﾘｱ商品
 62
   250
370
    20
100
AcDbVertex
100
AcDbPolyFaceMeshVertex
 10
773.663381171355
 20
98.76222157658239
 30
155.0
 70
   192
  0
VERTEX
  5
495
330
2FF
100
AcDbEntity
  8
ｴｸｽﾃﾘｱ商品
 62
   250
370
    20
100
AcDbVertex
100
AcDbPolyFaceMeshVertex
 10
774.4737205583712
 20
100.5
 30
155.0
 70
   192
  0
VERTEX
  5
496
330
2FF
100
AcDbEntity
  8
ｴｸｽﾃﾘｱ商品
 62
   250
370
    20
100
AcDbVertex
100
AcDbPolyFaceMeshVertex
 10
775.5735111256913
 20
102.070663706552
 30
155.0
 70
   192
  0
VERTEX
  5
497
330
2FF
100
AcDbEntity
  8
ｴｸｽﾃﾘｱ商品
 62
   250
370
    20
100
AcDbVertex
100
AcDbPolyFaceMeshVertex
 10
776.929336293448
 20
103.4264888743088
 30
155.0
 70
   192
  0
VERTEX
  5
498
330
2FF
100
AcDbEntity
  8
ｴｸｽﾃﾘｱ商品
 62
   250
370
    20
100
AcDbVertex
100
AcDbPolyFaceMeshVertex
 10
778.5000000000001
 20
104.5262794416289
 30
155.0
 70
   192
  0
VERTEX
  5
499
330
2FF
100
AcDbEntity
  8
ｴｸｽﾃﾘｱ商品
 62
   250
370
    20
100
AcDbVertex
100
AcDbPolyFaceMeshVertex
 10
780.2377784234177
 20
105.336618828645
 30
155.0
 70
   192
  0
VERTEX
  5
49A
330
2FF
100
AcDbEntity
  8
ｴｸｽﾃﾘｱ商品
 62
   250
370
    20
100
AcDbVertex
100
AcDbPolyFaceMeshVertex
 10
782.0898700456638
 20
105.8328852831343
 30
155.0
 70
   192
  0
VERTEX
  5
49B
330
2FF
100
AcDbEntity
  8
ｴｸｽﾃﾘｱ商品
 62
   250
370
    20
100
AcDbVertex
100
AcDbPolyFaceMeshVertex
 10
784.0
 20
106.0
 30
155.0
 70
   192
  0
VERTEX
  5
49C
330
2FF
100
AcDbEntity
  8
ｴｸｽﾃﾘｱ商品
 62
   250
370
    20
100
AcDbVertex
100
AcDbPolyFaceMeshVertex
 10
785.9101299543363
 20
105.8328852831343
 30
155.0
 70
   192
  0
VERTEX
  5
49D
330
2FF
100
AcDbEntity
  8
ｴｸｽﾃﾘｱ商品
 62
   250
370
    20
100
AcDbVertex
100
AcDbPolyFaceMeshVertex
 10
787.7622215765824
 20
105.336618828645
 30
155.0
 70
   192
  0
VERTEX
  5
49E
330
2FF
100
AcDbEntity
  8
ｴｸｽﾃﾘｱ商品
 62
   250
370
    20
100
AcDbVertex
100
AcDbPolyFaceMeshVertex
 10
789.5
 20
104.5262794416289
 30
155.0
 70
   192
  0
VERTEX
  5
49F
330
2FF
100
AcDbEntity
  8
ｴｸｽﾃﾘｱ商品
 62
   250
370
    20
100
AcDbVertex
100
AcDbPolyFaceMeshVertex
 10
791.070663706552
 20
103.4264888743088
 30
155.0
 70
   192
  0
VERTEX
  5
4A0
330
2FF
100
AcDbEntity
  8
ｴｸｽﾃﾘｱ商品
 62
   250
370
    20
100
AcDbVertex
100
AcDbPolyFaceMeshVertex
 10
792.4264888743088
 20
102.070663706552
 30
155.0
 70
   192
  0
VERTEX
  5
4A1
330
2FF
100
AcDbEntity
  8
ｴｸｽﾃﾘｱ商品
 62
   250
370
    20
100
AcDbVertex
100
AcDbPolyFaceMeshVertex
 10
793.526279441629
 20
100.5
 30
155.0
 70
   192
  0
VERTEX
  5
4A2
330
2FF
100
AcDbEntity
  8
ｴｸｽﾃﾘｱ商品
 62
   250
370
    20
100
AcDbVertex
100
AcDbPolyFaceMeshVertex
 10
794.336618828645
 20
98.76222157658239
 30
155.0
 70
   192
  0
VERTEX
  5
4A3
330
2FF
100
AcDbEntity
  8
ｴｸｽﾃﾘｱ商品
 62
   250
370
    20
100
AcDbVertex
100
AcDbPolyFaceMeshVertex
 10
794.8328852831344
 20
96.91012995433626
 30
155.0
 70
   192
  0
VERTEX
  5
4A4
330
2FF
100
AcDbEntity
  8
ｴｸｽﾃﾘｱ商品
 62
   250
370
    20
100
AcDbVertex
100
AcDbPolyFaceMeshVertex
 10
795.0
 20
95.00000000000003
 30
155.0
 70
   192
  0
VERTEX
  5
4A5
330
2FF
100
AcDbEntity
  8
ｴｸｽﾃﾘｱ商品
 62
   250
370
    20
100
AcDbVertex
100
AcDbPolyFaceMeshVertex
 10
794.8328852831344
 20
93.0898700456638
 30
155.0
 70
   192
  0
VERTEX
  5
4A6
330
2FF
100
AcDbEntity
  8
ｴｸｽﾃﾘｱ商品
 62
   250
370
    20
100
AcDbVertex
100
AcDbPolyFaceMeshVertex
 10
794.336618828645
 20
91.23777842341768
 30
155.0
 70
   192
  0
VERTEX
  5
4A7
330
2FF
100
AcDbEntity
  8
ｴｸｽﾃﾘｱ商品
 62
   250
370
    20
100
AcDbVertex
100
AcDbPolyFaceMeshVertex
 10
793.526279441629
 20
89.50000000000004
 30
155.0
 70
   192
  0
VERTEX
  5
4A8
330
2FF
100
AcDbEntity
  8
ｴｸｽﾃﾘｱ商品
 62
   250
370
    20
100
AcDbVertex
100
AcDbPolyFaceMeshVertex
 10
792.4264888743088
 20
87.92933629344812
 30
155.0
 70
   192
  0
VERTEX
  5
4A9
330
2FF
100
AcDbEntity
  8
ｴｸｽﾃﾘｱ商品
 62
   250
370
    20
100
AcDbVertex
100
AcDbPolyFaceMeshVertex
 10
791.070663706552
 20
86.57351112569128
 30
155.0
 70
   192
  0
VERTEX
  5
4AA
330
2FF
100
AcDbEntity
  8
ｴｸｽﾃﾘｱ商品
 62
   250
370
    20
100
AcDbVertex
100
AcDbPolyFaceMeshVertex
 10
789.5
 20
85.47372055837121
 30
155.0
 70
   192
  0
VERTEX
  5
4AB
330
2FF
100
AcDbEntity
  8
ｴｸｽﾃﾘｱ商品
 62
   250
370
    20
100
AcDbVertex
100
AcDbPolyFaceMeshVertex
 10
787.7622215765824
 20
84.66338117135506
 30
155.0
 70
   192
  0
VERTEX
  5
4AC
330
2FF
100
AcDbEntity
  8
ｴｸｽﾃﾘｱ商品
 62
   250
370
    20
100
AcDbVertex
100
AcDbPolyFaceMeshVertex
 10
785.9101299543363
 20
84.16711471686575
 30
155.0
 70
   192
  0
VERTEX
  5
4AD
330
2FF
100
AcDbEntity
  8
ｴｸｽﾃﾘｱ商品
 62
   250
370
    20
100
AcDbVertex
100
AcDbPolyFaceMeshVertex
 10
784.0
 20
84.00000000000004
 30
155.0
 70
   192
  0
VERTEX
  5
4AE
330
2FF
100
AcDbEntity
  8
ｴｸｽﾃﾘｱ商品
 62
   250
370
    20
100
AcDbVertex
100
AcDbPolyFaceMeshVertex
 10
782.0898700456638
 20
84.16711471686575
 30
155.0
 70
   192
  0
VERTEX
  5
4AF
330
2FF
100
AcDbEntity
  8
ｴｸｽﾃﾘｱ商品
 62
   250
370
    20
100
AcDbVertex
100
AcDbPolyFaceMeshVertex
 10
780.2377784234177
 20
84.66338117135506
 30
155.0
 70
   192
  0
VERTEX
  5
4B0
330
2FF
100
AcDbEntity
  8
ｴｸｽﾃﾘｱ商品
 62
   250
370
    20
100
AcDbVertex
100
AcDbPolyFaceMeshVertex
 10
778.5000000000001
 20
85.47372055837121
 30
155.0
 70
   192
  0
VERTEX
  5
4B1
330
2FF
100
AcDbEntity
  8
ｴｸｽﾃﾘｱ商品
 62
   250
370
    20
100
AcDbVertex
100
AcDbPolyFaceMeshVertex
 10
776.929336293448
 20
86.57351112569128
 30
155.0
 70
   192
  0
VERTEX
  5
4B2
330
2FF
100
AcDbEntity
  8
ｴｸｽﾃﾘｱ商品
 62
   250
370
    20
100
AcDbVertex
100
AcDbPolyFaceMeshVertex
 10
775.5735111256913
 20
87.92933629344812
 30
155.0
 70
   192
  0
VERTEX
  5
4B3
330
2FF
100
AcDbEntity
  8
ｴｸｽﾃﾘｱ商品
 62
   250
370
    20
100
AcDbVertex
100
AcDbPolyFaceMeshVertex
 10
774.4737205583713
 20
89.50000000000004
 30
155.0
 70
   192
  0
VERTEX
  5
4B4
330
2FF
100
AcDbEntity
  8
ｴｸｽﾃﾘｱ商品
 62
   250
370
    20
100
AcDbVertex
100
AcDbPolyFaceMeshVertex
 10
773.663381171355
 20
91.23777842341768
 30
155.0
 70
   192
  0
VERTEX
  5
4B5
330
2FF
100
AcDbEntity
  8
ｴｸｽﾃﾘｱ商品
 62
   250
370
    20
100
AcDbVertex
100
AcDbPolyFaceMeshVertex
 10
773.1671147168657
 20
93.0898700456638
 30
208.0000000000001
 70
   192
  0
VERTEX
  5
4B6
330
2FF
100
AcDbEntity
  8
ｴｸｽﾃﾘｱ商品
 62
   250
370
    20
100
AcDbVertex
100
AcDbPolyFaceMeshVertex
 10
773.663381171355
 20
91.23777842341768
 30
208.0000000000001
 70
   192
  0
VERTEX
  5
4B7
330
2FF
100
AcDbEntity
  8
ｴｸｽﾃﾘｱ商品
 62
   250
370
    20
100
AcDbVertex
100
AcDbPolyFaceMeshVertex
 10
774.4737205583713
 20
89.50000000000004
 30
208.0000000000001
 70
   192
  0
VERTEX
  5
4B8
330
2FF
100
AcDbEntity
  8
ｴｸｽﾃﾘｱ商品
 62
   250
370
    20
100
AcDbVertex
100
AcDbPolyFaceMeshVertex
 10
775.5735111256913
 20
87.92933629344812
 30
208.0000000000001
 70
   192
  0
VERTEX
  5
4B9
330
2FF
100
AcDbEntity
  8
ｴｸｽﾃﾘｱ商品
 62
   250
370
    20
100
AcDbVertex
100
AcDbPolyFaceMeshVertex
 10
776.929336293448
 20
86.57351112569128
 30
208.0000000000001
 70
   192
  0
VERTEX
  5
4BA
330
2FF
100
AcDbEntity
  8
ｴｸｽﾃﾘｱ商品
 62
   250
370
    20
100
AcDbVertex
100
AcDbPolyFaceMeshVertex
 10
778.5000000000001
 20
85.47372055837121
 30
208.0000000000001
 70
   192
  0
VERTEX
  5
4BB
330
2FF
100
AcDbEntity
  8
ｴｸｽﾃﾘｱ商品
 62
   250
370
    20
100
AcDbVertex
100
AcDbPolyFaceMeshVertex
 10
780.2377784234177
 20
84.66338117135506
 30
208.0000000000001
 70
   192
  0
VERTEX
  5
4BC
330
2FF
100
AcDbEntity
  8
ｴｸｽﾃﾘｱ商品
 62
   250
370
    20
100
AcDbVertex
100
AcDbPolyFaceMeshVertex
 10
782.0898700456638
 20
84.16711471686575
 30
208.0000000000001
 70
   192
  0
VERTEX
  5
4BD
330
2FF
100
AcDbEntity
  8
ｴｸｽﾃﾘｱ商品
 62
   250
370
    20
100
AcDbVertex
100
AcDbPolyFaceMeshVertex
 10
784.0
 20
84.00000000000004
 30
208.0000000000001
 70
   192
  0
VERTEX
  5
4BE
330
2FF
100
AcDbEntity
  8
ｴｸｽﾃﾘｱ商品
 62
   250
370
    20
100
AcDbVertex
100
AcDbPolyFaceMeshVertex
 10
785.9101299543363
 20
84.16711471686575
 30
208.0000000000001
 70
   192
  0
VERTEX
  5
4BF
330
2FF
100
AcDbEntity
  8
ｴｸｽﾃﾘｱ商品
 62
   250
370
    20
100
AcDbVertex
100
AcDbPolyFaceMeshVertex
 10
787.7622215765824
 20
84.66338117135506
 30
208.0000000000001
 70
   192
  0
VERTEX
  5
4C0
330
2FF
100
AcDbEntity
  8
ｴｸｽﾃﾘｱ商品
 62
   250
370
    20
100
AcDbVertex
100
AcDbPolyFaceMeshVertex
 10
789.5
 20
85.47372055837121
 30
208.0000000000001
 70
   192
  0
VERTEX
  5
4C1
330
2FF
100
AcDbEntity
  8
ｴｸｽﾃﾘｱ商品
 62
   250
370
    20
100
AcDbVertex
100
AcDbPolyFaceMeshVertex
 10
791.070663706552
 20
86.57351112569128
 30
208.0000000000001
 70
   192
  0
VERTEX
  5
4C2
330
2FF
100
AcDbEntity
  8
ｴｸｽﾃﾘｱ商品
 62
   250
370
    20
100
AcDbVertex
100
AcDbPolyFaceMeshVertex
 10
792.4264888743088
 20
87.92933629344812
 30
208.0000000000001
 70
   192
  0
VERTEX
  5
4C3
330
2FF
100
AcDbEntity
  8
ｴｸｽﾃﾘｱ商品
 62
   250
370
    20
100
AcDbVertex
100
AcDbPolyFaceMeshVertex
 10
793.526279441629
 20
89.50000000000004
 30
208.0000000000001
 70
   192
  0
VERTEX
  5
4C4
330
2FF
100
AcDbEntity
  8
ｴｸｽﾃﾘｱ商品
 62
   250
370
    20
100
AcDbVertex
100
AcDbPolyFaceMeshVertex
 10
794.336618828645
 20
91.23777842341768
 30
208.0000000000001
 70
   192
  0
VERTEX
  5
4C5
330
2FF
100
AcDbEntity
  8
ｴｸｽﾃﾘｱ商品
 62
   250
370
    20
100
AcDbVertex
100
AcDbPolyFaceMeshVertex
 10
794.8328852831344
 20
93.0898700456638
 30
208.0000000000001
 70
   192
  0
VERTEX
  5
4C6
330
2FF
100
AcDbEntity
  8
ｴｸｽﾃﾘｱ商品
 62
   250
370
    20
100
AcDbVertex
100
AcDbPolyFaceMeshVertex
 10
795.0
 20
95.00000000000003
 30
208.0000000000001
 70
   192
  0
VERTEX
  5
4C7
330
2FF
100
AcDbEntity
  8
ｴｸｽﾃﾘｱ商品
 62
   250
370
    20
100
AcDbVertex
100
AcDbPolyFaceMeshVertex
 10
794.8328852831344
 20
96.91012995433626
 30
208.0000000000001
 70
   192
  0
VERTEX
  5
4C8
330
2FF
100
AcDbEntity
  8
ｴｸｽﾃﾘｱ商品
 62
   250
370
    20
100
AcDbVertex
100
AcDbPolyFaceMeshVertex
 10
794.336618828645
 20
98.76222157658239
 30
208.0000000000001
 70
   192
  0
VERTEX
  5
4C9
330
2FF
100
AcDbEntity
  8
ｴｸｽﾃﾘｱ商品
 62
   250
370
    20
100
AcDbVertex
100
AcDbPolyFaceMeshVertex
 10
793.526279441629
 20
100.5
 30
208.0000000000001
 70
   192
  0
VERTEX
  5
4CA
330
2FF
100
AcDbEntity
  8
ｴｸｽﾃﾘｱ商品
 62
   250
370
    20
100
AcDbVertex
100
AcDbPolyFaceMeshVertex
 10
792.4264888743088
 20
102.070663706552
 30
208.0000000000001
 70
   192
  0
VERTEX
  5
4CB
330
2FF
100
AcDbEntity
  8
ｴｸｽﾃﾘｱ商品
 62
   250
370
    20
100
AcDbVertex
100
AcDbPolyFaceMeshVertex
 10
791.070663706552
 20
103.4264888743088
 30
208.0000000000001
 70
   192
  0
VERTEX
  5
4CC
330
2FF
100
AcDbEntity
  8
ｴｸｽﾃﾘｱ商品
 62
   250
370
    20
100
AcDbVertex
100
AcDbPolyFaceMeshVertex
 10
789.5
 20
104.5262794416289
 30
208.0000000000001
 70
   192
  0
VERTEX
  5
4CD
330
2FF
100
AcDbEntity
  8
ｴｸｽﾃﾘｱ商品
 62
   250
370
    20
100
AcDbVertex
100
AcDbPolyFaceMeshVertex
 10
787.7622215765824
 20
105.336618828645
 30
208.0000000000001
 70
   192
  0
VERTEX
  5
4CE
330
2FF
100
AcDbEntity
  8
ｴｸｽﾃﾘｱ商品
 62
   250
370
    20
100
AcDbVertex
100
AcDbPolyFaceMeshVertex
 10
785.9101299543363
 20
105.8328852831343
 30
208.0000000000001
 70
   192
  0
VERTEX
  5
4CF
330
2FF
100
AcDbEntity
  8
ｴｸｽﾃﾘｱ商品
 62
   250
370
    20
100
AcDbVertex
100
AcDbPolyFaceMeshVertex
 10
784.0
 20
106.0
 30
208.0000000000001
 70
   192
  0
VERTEX
  5
4D0
330
2FF
100
AcDbEntity
  8
ｴｸｽﾃﾘｱ商品
 62
   250
370
    20
100
AcDbVertex
100
AcDbPolyFaceMeshVertex
 10
782.0898700456638
 20
105.8328852831343
 30
208.0000000000001
 70
   192
  0
VERTEX
  5
4D1
330
2FF
100
AcDbEntity
  8
ｴｸｽﾃﾘｱ商品
 62
   250
370
    20
100
AcDbVertex
100
AcDbPolyFaceMeshVertex
 10
780.2377784234177
 20
105.336618828645
 30
208.0000000000001
 70
   192
  0
VERTEX
  5
4D2
330
2FF
100
AcDbEntity
  8
ｴｸｽﾃﾘｱ商品
 62
   250
370
    20
100
AcDbVertex
100
AcDbPolyFaceMeshVertex
 10
778.5000000000001
 20
104.5262794416289
 30
208.0000000000001
 70
   192
  0
VERTEX
  5
4D3
330
2FF
100
AcDbEntity
  8
ｴｸｽﾃﾘｱ商品
 62
   250
370
    20
100
AcDbVertex
100
AcDbPolyFaceMeshVertex
 10
776.929336293448
 20
103.4264888743088
 30
208.0000000000001
 70
   192
  0
VERTEX
  5
4D4
330
2FF
100
AcDbEntity
  8
ｴｸｽﾃﾘｱ商品
 62
   250
370
    20
100
AcDbVertex
100
AcDbPolyFaceMeshVertex
 10
775.5735111256913
 20
102.070663706552
 30
208.0000000000001
 70
   192
  0
VERTEX
  5
4D5
330
2FF
100
AcDbEntity
  8
ｴｸｽﾃﾘｱ商品
 62
   250
370
    20
100
AcDbVertex
100
AcDbPolyFaceMeshVertex
 10
774.4737205583712
 20
100.5
 30
208.0000000000001
 70
   192
  0
VERTEX
  5
4D6
330
2FF
100
AcDbEntity
  8
ｴｸｽﾃﾘｱ商品
 62
   250
370
    20
100
AcDbVertex
100
AcDbPolyFaceMeshVertex
 10
773.663381171355
 20
98.76222157658239
 30
208.0000000000001
 70
   192
  0
VERTEX
  5
4D7
330
2FF
100
AcDbEntity
  8
ｴｸｽﾃﾘｱ商品
 62
   250
370
    20
100
AcDbVertex
100
AcDbPolyFaceMeshVertex
 10
773.1671147168657
 20
96.91012995433626
 30
208.0000000000001
 70
   192
  0
VERTEX
  5
4D8
330
2FF
100
AcDbEntity
  8
ｴｸｽﾃﾘｱ商品
 62
   250
370
    20
100
AcDbVertex
100
AcDbPolyFaceMeshVertex
 10
773.0
 20
95.00000000000003
 30
208.0000000000001
 70
   192
  0
VERTEX
  5
4D9
330
2FF
100
AcDbEntity
  8
ｴｸｽﾃﾘｱ商品
 62
   250
370
    20
100
AcDbVertex
100
AcDbPolyFaceMeshVertex
 10
786.0
 20
39.50000000000002
 30
155.0
 70
   192
  0
VERTEX
  5
4DA
330
2FF
100
AcDbEntity
  8
ｴｸｽﾃﾘｱ商品
 62
   250
370
    20
100
AcDbVertex
100
AcDbPolyFaceMeshVertex
 10
786.0
 20
80.05800000000004
 30
155.0
 70
   192
  0
VERTEX
  5
4DB
330
2FF
100
AcDbEntity
  8
ｴｸｽﾃﾘｱ商品
 62
   250
370
    20
100
AcDbVertex
100
AcDbPolyFaceMeshVertex
 10
786.0
 20
80.05800000000004
 30
205.0000000000001
 70
   192
  0
VERTEX
  5
4DC
330
2FF
100
AcDbEntity
  8
ｴｸｽﾃﾘｱ商品
 62
   250
370
    20
100
AcDbVertex
100
AcDbPolyFaceMeshVertex
 10
786.0
 20
39.50000000000002
 30
205.0000000000001
 70
   192
  0
VERTEX
  5
4DD
330
2FF
100
AcDbEntity
  8
ｴｸｽﾃﾘｱ商品
 62
   250
370
    20
100
AcDbVertex
100
AcDbPolyFaceMeshVertex
 10
786.235
 20
81.57300000000004
 30
155.0
 70
   192
  0
VERTEX
  5
4DE
330
2FF
100
AcDbEntity
  8
ｴｸｽﾃﾘｱ商品
 62
   250
370
    20
100
AcDbVertex
100
AcDbPolyFaceMeshVertex
 10
786.235
 20
81.57300000000004
 30
205.0000000000001
 70
   192
  0
VERTEX
  5
4DF
330
2FF
100
AcDbEntity
  8
ｴｸｽﾃﾘｱ商品
 62
   250
370
    20
100
AcDbVertex
100
AcDbPolyFaceMeshVertex
 10
786.7810000000001
 20
82.74100000000003
 30
155.0
 70
   192
  0
VERTEX
  5
4E0
330
2FF
100
AcDbEntity
  8
ｴｸｽﾃﾘｱ商品
 62
   250
370
    20
100
AcDbVertex
100
AcDbPolyFaceMeshVertex
 10
786.7810000000001
 20
82.74100000000003
 30
205.0000000000001
 70
   192
  0
VERTEX
  5
4E1
330
2FF
100
AcDbEntity
  8
ｴｸｽﾃﾘｱ商品
 62
   250
370
    20
100
AcDbVertex
100
AcDbPolyFaceMeshVertex
 10
787.3090000000001
 20
83.43100000000004
 30
155.0
 70
   192
  0
VERTEX
  5
4E2
330
2FF
100
AcDbEntity
  8
ｴｸｽﾃﾘｱ商品
 62
   250
370
    20
100
AcDbVertex
100
AcDbPolyFaceMeshVertex
 10
787.3090000000001
 20
83.43100000000004
 30
205.0000000000001
 70
   192
  0
VERTEX
  5
4E3
330
2FF
100
AcDbEntity
  8
ｴｸｽﾃﾘｱ商品
 62
   250
370
    20
100
AcDbVertex
100
AcDbPolyFaceMeshVertex
 10
788.879
 20
84.58600000000003
 30
155.0
 70
   192
  0
VERTEX
  5
4E4
330
2FF
100
AcDbEntity
  8
ｴｸｽﾃﾘｱ商品
 62
   250
370
    20
100
AcDbVertex
100
AcDbPolyFaceMeshVertex
 10
788.879
 20
84.58600000000003
 30
205.0000000000001
 70
   192
  0
VERTEX
  5
4E5
330
2FF
100
AcDbEntity
  8
ｴｸｽﾃﾘｱ商品
 62
   250
370
    20
100
AcDbVertex
100
AcDbPolyFaceMeshVertex
 10
775.417
 20
87.18200000000002
 30
155.0
 70
   192
  0
VERTEX
  5
4E6
330
2FF
100
AcDbEntity
  8
ｴｸｽﾃﾘｱ商品
 62
   250
370
    20
100
AcDbVertex
100
AcDbPolyFaceMeshVertex
 10
775.417
 20
87.18200000000002
 30
205.0000000000001
 70
   192
  0
VERTEX
  5
4E7
330
2FF
100
AcDbEntity
  8
ｴｸｽﾃﾘｱ商品
 62
   250
370
    20
100
AcDbVertex
100
AcDbPolyFaceMeshVertex
 10
776.0
 20
84.83900000000003
 30
155.0
 70
   192
  0
VERTEX
  5
4E8
330
2FF
100
AcDbEntity
  8
ｴｸｽﾃﾘｱ商品
 62
   250
370
    20
100
AcDbVertex
100
AcDbPolyFaceMeshVertex
 10
776.0
 20
84.83900000000003
 30
205.0000000000001
 70
   192
  0
VERTEX
  5
4E9
330
2FF
100
AcDbEntity
  8
ｴｸｽﾃﾘｱ商品
 62
   250
370
    20
100
AcDbVertex
100
AcDbPolyFaceMeshVertex
 10
776.0
 20
38.85000000000002
 30
155.0
 70
   192
  0
VERTEX
  5
4EA
330
2FF
100
AcDbEntity
  8
ｴｸｽﾃﾘｱ商品
 62
   250
370
    20
100
AcDbVertex
100
AcDbPolyFaceMeshVertex
 10
776.0
 20
38.85000000000002
 30
205.0000000000001
 70
   192
  0
VERTEX
  5
4EB
330
2FF
100
AcDbEntity
  8
ｴｸｽﾃﾘｱ商品
 62
   250
370
    20
100
AcDbVertex
100
AcDbPolyFaceMeshVertex
 10
776.636
 20
37.56800000000002
 30
155.0
 70
   192
  0
VERTEX
  5
4EC
330
2FF
100
AcDbEntity
  8
ｴｸｽﾃﾘｱ商品
 62
   250
370
    20
100
AcDbVertex
100
AcDbPolyFaceMeshVertex
 10
776.636
 20
37.56800000000002
 30
205.0000000000001
 70
   192
  0
VERTEX
  5
4ED
330
2FF
100
AcDbEntity
  8
ｴｸｽﾃﾘｱ商品
 62
   250
370
    20
100
AcDbVertex
100
AcDbPolyFaceMeshVertex
 10
784.0
 20
37.50000000000002
 30
155.0
 70
   192
  0
VERTEX
  5
4EE
330
2FF
100
AcDbEntity
  8
ｴｸｽﾃﾘｱ商品
 62
   250
370
    20
100
AcDbVertex
100
AcDbPolyFaceMeshVertex
 10
784.0
 20
37.50000000000002
 30
205.0000000000001
 70
   192
  0
VERTEX
  5
4EF
330
2FF
100
AcDbEntity
  8
ｴｸｽﾃﾘｱ商品
 62
   250
370
    20
100
AcDbVertex
100
AcDbPolyFaceMeshVertex
 10
785.4140000000001
 20
38.08600000000002
 30
155.0
 70
   192
  0
VERTEX
  5
4F0
330
2FF
100
AcDbEntity
  8
ｴｸｽﾃﾘｱ商品
 62
   250
370
    20
100
AcDbVertex
100
AcDbPolyFaceMeshVertex
 10
785.4140000000001
 20
38.08600000000002
 30
205.0000000000001
 70
   192
  0
VERTEX
  5
4F1
330
2FF
100
AcDbEntity
  8
ｴｸｽﾃﾘｱ商品
 62
   250
370
    20
100
AcDbFaceRecord
 10
0.0
 20
0.0
 30
0.0
 70
   128
 71
     1
 72
     2
 73
     3
 74
     4
  0
VERTEX
  5
4F2
330
2FF
100
AcDbEntity
  8
ｴｸｽﾃﾘｱ商品
 62
   250
370
    20
100
AcDbFaceRecord
 10
0.0
 20
0.0
 30
0.0
 70
   128
 71
     5
 72
     6
 73
     7
 74
     8
  0
VERTEX
  5
4F3
330
2FF
100
AcDbEntity
  8
ｴｸｽﾃﾘｱ商品
 62
   250
370
    20
100
AcDbFaceRecord
 10
0.0
 20
0.0
 30
0.0
 70
   128
 71
     4
 72
     5
 73
     8
 74
     1
  0
VERTEX
  5
4F4
330
2FF
100
AcDbEntity
  8
ｴｸｽﾃﾘｱ商品
 62
   250
370
    20
100
AcDbFaceRecord
 10
0.0
 20
0.0
 30
0.0
 70
   128
 71
     1
 72
     8
 73
     7
 74
     2
  0
VERTEX
  5
4F5
330
2FF
100
AcDbEntity
  8
ｴｸｽﾃﾘｱ商品
 62
   250
370
    20
100
AcDbFaceRecord
 10
0.0
 20
0.0
 30
0.0
 70
   128
 71
     2
 72
     7
 73
     6
 74
     3
  0
VERTEX
  5
4F6
330
2FF
100
AcDbEntity
  8
ｴｸｽﾃﾘｱ商品
 62
   250
370
    20
100
AcDbFaceRecord
 10
0.0
 20
0.0
 30
0.0
 70
   128
 71
     3
 72
     6
 73
     5
 74
     4
  0
VERTEX
  5
4F7
330
2FF
100
AcDbEntity
  8
ｴｸｽﾃﾘｱ商品
 62
   250
370
    20
100
AcDbFaceRecord
 10
0.0
 20
0.0
 30
0.0
 70
   128
 71
     9
 72
    10
 73
    11
 74
    12
  0
VERTEX
  5
4F8
330
2FF
100
AcDbEntity
  8
ｴｸｽﾃﾘｱ商品
 62
   250
370
    20
100
AcDbFaceRecord
 10
0.0
 20
0.0
 30
0.0
 70
   128
 71
     9
 72
    12
 73
    13
 74
    14
  0
VERTEX
  5
4F9
330
2FF
100
AcDbEntity
  8
ｴｸｽﾃﾘｱ商品
 62
   250
370
    20
100
AcDbFaceRecord
 10
0.0
 20
0.0
 30
0.0
 70
   128
 71
     9
 72
    14
 73
    15
 74
    16
  0
VERTEX
  5
4FA
330
2FF
100
AcDbEntity
  8
ｴｸｽﾃﾘｱ商品
 62
   250
370
    20
100
AcDbFaceRecord
 10
0.0
 20
0.0
 30
0.0
 70
   128
 71
     9
 72
    16
 73
    17
 74
    18
  0
VERTEX
  5
4FB
330
2FF
100
AcDbEntity
  8
ｴｸｽﾃﾘｱ商品
 62
   250
370
    20
100
AcDbFaceRecord
 10
0.0
 20
0.0
 30
0.0
 70
   128
 71
     9
 72
    18
 73
    19
 74
    20
  0
VERTEX
  5
4FC
330
2FF
100
AcDbEntity
  8
ｴｸｽﾃﾘｱ商品
 62
   250
370
    20
100
AcDbFaceRecord
 10
0.0
 20
0.0
 30
0.0
 70
   128
 71
     9
 72
    20
 73
    21
 74
    22
  0
VERTEX
  5
4FD
330
2FF
100
AcDbEntity
  8
ｴｸｽﾃﾘｱ商品
 62
   250
370
    20
100
AcDbFaceRecord
 10
0.0
 20
0.0
 30
0.0
 70
   128
 71
     9
 72
    22
 73
    23
 74
    24
  0
VERTEX
  5
4FE
330
2FF
100
AcDbEntity
  8
ｴｸｽﾃﾘｱ商品
 62
   250
370
    20
100
AcDbFaceRecord
 10
0.0
 20
0.0
 30
0.0
 70
   128
 71
     9
 72
    24
 73
    25
 74
    26
  0
VERTEX
  5
4FF
330
2FF
100
AcDbEntity
  8
ｴｸｽﾃﾘｱ商品
 62
   250
370
    20
100
AcDbFaceRecord
 10
0.0
 20
0.0
 30
0.0
 70
   128
 71
     9
 72
    26
 73
    27
 74
    28
  0
VERTEX
  5
500
330
2FF
100
AcDbEntity
  8
ｴｸｽﾃﾘｱ商品
 62
   250
370
    20
100
AcDbFaceRecord
 10
0.0
 20
0.0
 30
0.0
 70
   128
 71
     9
 72
    28
 73
    29
 74
    30
  0
VERTEX
  5
501
330
2FF
100
AcDbEntity
  8
ｴｸｽﾃﾘｱ商品
 62
   250
370
    20
100
AcDbFaceRecord
 10
0.0
 20
0.0
 30
0.0
 70
   128
 71
     9
 72
    30
 73
    31
 74
    32
  0
VERTEX
  5
502
330
2FF
100
AcDbEntity
  8
ｴｸｽﾃﾘｱ商品
 62
   250
370
    20
100
AcDbFaceRecord
 10
0.0
 20
0.0
 30
0.0
 70
   128
 71
     9
 72
    32
 73
    33
 74
    34
  0
VERTEX
  5
503
330
2FF
100
AcDbEntity
  8
ｴｸｽﾃﾘｱ商品
 62
   250
370
    20
100
AcDbFaceRecord
 10
0.0
 20
0.0
 30
0.0
 70
   128
 71
     9
 72
    34
 73
    35
 74
    36
  0
VERTEX
  5
504
330
2FF
100
AcDbEntity
  8
ｴｸｽﾃﾘｱ商品
 62
   250
370
    20
100
AcDbFaceRecord
 10
0.0
 20
0.0
 30
0.0
 70
   128
 71
     9
 72
    36
 73
    37
 74
    38
  0
VERTEX
  5
505
330
2FF
100
AcDbEntity
  8
ｴｸｽﾃﾘｱ商品
 62
   250
370
    20
100
AcDbFaceRecord
 10
0.0
 20
0.0
 30
0.0
 70
   128
 71
     9
 72
    38
 73
    39
 74
    40
  0
VERTEX
  5
506
330
2FF
100
AcDbEntity
  8
ｴｸｽﾃﾘｱ商品
 62
   250
370
    20
100
AcDbFaceRecord
 10
0.0
 20
0.0
 30
0.0
 70
   128
 71
     9
 72
    40
 73
    41
 74
    42
  0
VERTEX
  5
507
330
2FF
100
AcDbEntity
  8
ｴｸｽﾃﾘｱ商品
 62
   250
370
    20
100
AcDbFaceRecord
 10
0.0
 20
0.0
 30
0.0
 70
   128
 71
     9
 72
    42
 73
    43
 74
    44
  0
VERTEX
  5
508
330
2FF
100
AcDbEntity
  8
ｴｸｽﾃﾘｱ商品
 62
   250
370
    20
100
AcDbFaceRecord
 10
0.0
 20
0.0
 30
0.0
 70
   128
 71
    45
 72
    46
 73
    47
 74
    48
  0
VERTEX
  5
509
330
2FF
100
AcDbEntity
  8
ｴｸｽﾃﾘｱ商品
 62
   250
370
    20
100
AcDbFaceRecord
 10
0.0
 20
0.0
 30
0.0
 70
   128
 71
    45
 72
    48
 73
    49
 74
    50
  0
VERTEX
  5
50A
330
2FF
100
AcDbEntity
  8
ｴｸｽﾃﾘｱ商品
 62
   250
370
    20
100
AcDbFaceRecord
 10
0.0
 20
0.0
 30
0.0
 70
   128
 71
    45
 72
    50
 73
    51
 74
    52
  0
VERTEX
  5
50B
330
2FF
100
AcDbEntity
  8
ｴｸｽﾃﾘｱ商品
 62
   250
370
    20
100
AcDbFaceRecord
 10
0.0
 20
0.0
 30
0.0
 70
   128
 71
    45
 72
    52
 73
    53
 74
    54
  0
VERTEX
  5
50C
330
2FF
100
AcDbEntity
  8
ｴｸｽﾃﾘｱ商品
 62
   250
370
    20
100
AcDbFaceRecord
 10
0.0
 20
0.0
 30
0.0
 70
   128
 71
    45
 72
    54
 73
    55
 74
    56
  0
VERTEX
  5
50D
330
2FF
100
AcDbEntity
  8
ｴｸｽﾃﾘｱ商品
 62
   250
370
    20
100
AcDbFaceRecord
 10
0.0
 20
0.0
 30
0.0
 70
   128
 71
    45
 72
    56
 73
    57
 74
    58
  0
VERTEX
  5
50E
330
2FF
100
AcDbEntity
  8
ｴｸｽﾃﾘｱ商品
 62
   250
370
    20
100
AcDbFaceRecord
 10
0.0
 20
0.0
 30
0.0
 70
   128
 71
    45
 72
    58
 73
    59
 74
    60
  0
VERTEX
  5
50F
330
2FF
100
AcDbEntity
  8
ｴｸｽﾃﾘｱ商品
 62
   250
370
    20
100
AcDbFaceRecord
 10
0.0
 20
0.0
 30
0.0
 70
   128
 71
    45
 72
    60
 73
    61
 74
    62
  0
VERTEX
  5
510
330
2FF
100
AcDbEntity
  8
ｴｸｽﾃﾘｱ商品
 62
   250
370
    20
100
AcDbFaceRecord
 10
0.0
 20
0.0
 30
0.0
 70
   128
 71
    45
 72
    62
 73
    63
 74
    64
  0
VERTEX
  5
511
330
2FF
100
AcDbEntity
  8
ｴｸｽﾃﾘｱ商品
 62
   250
370
    20
100
AcDbFaceRecord
 10
0.0
 20
0.0
 30
0.0
 70
   128
 71
    45
 72
    64
 73
    65
 74
    66
  0
VERTEX
  5
512
330
2FF
100
AcDbEntity
  8
ｴｸｽﾃﾘｱ商品
 62
   250
370
    20
100
AcDbFaceRecord
 10
0.0
 20
0.0
 30
0.0
 70
   128
 71
    45
 72
    66
 73
    67
 74
    68
  0
VERTEX
  5
513
330
2FF
100
AcDbEntity
  8
ｴｸｽﾃﾘｱ商品
 62
   250
370
    20
100
AcDbFaceRecord
 10
0.0
 20
0.0
 30
0.0
 70
   128
 71
    45
 72
    68
 73
    69
 74
    70
  0
VERTEX
  5
514
330
2FF
100
AcDbEntity
  8
ｴｸｽﾃﾘｱ商品
 62
   250
370
    20
100
AcDbFaceRecord
 10
0.0
 20
0.0
 30
0.0
 70
   128
 71
    45
 72
    70
 73
    71
 74
    72
  0
VERTEX
  5
515
330
2FF
100
AcDbEntity
  8
ｴｸｽﾃﾘｱ商品
 62
   250
370
    20
100
AcDbFaceRecord
 10
0.0
 20
0.0
 30
0.0
 70
   128
 71
    45
 72
    72
 73
    73
 74
    74
  0
VERTEX
  5
516
330
2FF
100
AcDbEntity
  8
ｴｸｽﾃﾘｱ商品
 62
   250
370
    20
100
AcDbFaceRecord
 10
0.0
 20
0.0
 30
0.0
 70
   128
 71
    45
 72
    74
 73
    75
 74
    76
  0
VERTEX
  5
517
330
2FF
100
AcDbEntity
  8
ｴｸｽﾃﾘｱ商品
 62
   250
370
    20
100
AcDbFaceRecord
 10
0.0
 20
0.0
 30
0.0
 70
   128
 71
    45
 72
    76
 73
    77
 74
    78
  0
VERTEX
  5
518
330
2FF
100
AcDbEntity
  8
ｴｸｽﾃﾘｱ商品
 62
   250
370
    20
100
AcDbFaceRecord
 10
0.0
 20
0.0
 30
0.0
 70
   128
 71
    45
 72
    78
 73
    79
 74
    80
  0
VERTEX
  5
519
330
2FF
100
AcDbEntity
  8
ｴｸｽﾃﾘｱ商品
 62
   250
370
    20
100
AcDbFaceRecord
 10
0.0
 20
0.0
 30
0.0
 70
   128
 71
     9
 72
    45
 73
    80
 74
    10
  0
VERTEX
  5
51A
330
2FF
100
AcDbEntity
  8
ｴｸｽﾃﾘｱ商品
 62
   250
370
    20
100
AcDbFaceRecord
 10
0.0
 20
0.0
 30
0.0
 70
   128
 71
    10
 72
    80
 73
    79
 74
    11
  0
VERTEX
  5
51B
330
2FF
100
AcDbEntity
  8
ｴｸｽﾃﾘｱ商品
 62
   250
370
    20
100
AcDbFaceRecord
 10
0.0
 20
0.0
 30
0.0
 70
   128
 71
    11
 72
    79
 73
    78
 74
    12
  0
VERTEX
  5
51C
330
2FF
100
AcDbEntity
  8
ｴｸｽﾃﾘｱ商品
 62
   250
370
    20
100
AcDbFaceRecord
 10
0.0
 20
0.0
 30
0.0
 70
   128
 71
    12
 72
    78
 73
    77
 74
    13
  0
VERTEX
  5
51D
330
2FF
100
AcDbEntity
  8
ｴｸｽﾃﾘｱ商品
 62
   250
370
    20
100
AcDbFaceRecord
 10
0.0
 20
0.0
 30
0.0
 70
   128
 71
    13
 72
    77
 73
    76
 74
    14
  0
VERTEX
  5
51E
330
2FF
100
AcDbEntity
  8
ｴｸｽﾃﾘｱ商品
 62
   250
370
    20
100
AcDbFaceRecord
 10
0.0
 20
0.0
 30
0.0
 70
   128
 71
    14
 72
    76
 73
    75
 74
    15
  0
VERTEX
  5
51F
330
2FF
100
AcDbEntity
  8
ｴｸｽﾃﾘｱ商品
 62
   250
370
    20
100
AcDbFaceRecord
 10
0.0
 20
0.0
 30
0.0
 70
   128
 71
    15
 72
    75
 73
    74
 74
    16
  0
VERTEX
  5
520
330
2FF
100
AcDbEntity
  8
ｴｸｽﾃﾘｱ商品
 62
   250
370
    20
100
AcDbFaceRecord
 10
0.0
 20
0.0
 30
0.0
 70
   128
 71
    16
 72
    74
 73
    73
 74
    17
  0
VERTEX
  5
521
330
2FF
100
AcDbEntity
  8
ｴｸｽﾃﾘｱ商品
 62
   250
370
    20
100
AcDbFaceRecord
 10
0.0
 20
0.0
 30
0.0
 70
   128
 71
    17
 72
    73
 73
    72
 74
    18
  0
VERTEX
  5
522
330
2FF
100
AcDbEntity
  8
ｴｸｽﾃﾘｱ商品
 62
   250
370
    20
100
AcDbFaceRecord
 10
0.0
 20
0.0
 30
0.0
 70
   128
 71
    18
 72
    72
 73
    71
 74
    19
  0
VERTEX
  5
523
330
2FF
100
AcDbEntity
  8
ｴｸｽﾃﾘｱ商品
 62
   250
370
    20
100
AcDbFaceRecord
 10
0.0
 20
0.0
 30
0.0
 70
   128
 71
    19
 72
    71
 73
    70
 74
    20
  0
VERTEX
  5
524
330
2FF
100
AcDbEntity
  8
ｴｸｽﾃﾘｱ商品
 62
   250
370
    20
100
AcDbFaceRecord
 10
0.0
 20
0.0
 30
0.0
 70
   128
 71
    20
 72
    70
 73
    69
 74
    21
  0
VERTEX
  5
525
330
2FF
100
AcDbEntity
  8
ｴｸｽﾃﾘｱ商品
 62
   250
370
    20
100
AcDbFaceRecord
 10
0.0
 20
0.0
 30
0.0
 70
   128
 71
    21
 72
    69
 73
    68
 74
    22
  0
VERTEX
  5
526
330
2FF
100
AcDbEntity
  8
ｴｸｽﾃﾘｱ商品
 62
   250
370
    20
100
AcDbFaceRecord
 10
0.0
 20
0.0
 30
0.0
 70
   128
 71
    22
 72
    68
 73
    67
 74
    23
  0
VERTEX
  5
527
330
2FF
100
AcDbEntity
  8
ｴｸｽﾃﾘｱ商品
 62
   250
370
    20
100
AcDbFaceRecord
 10
0.0
 20
0.0
 30
0.0
 70
   128
 71
    23
 72
    67
 73
    66
 74
    24
  0
VERTEX
  5
528
330
2FF
100
AcDbEntity
  8
ｴｸｽﾃﾘｱ商品
 62
   250
370
    20
100
AcDbFaceRecord
 10
0.0
 20
0.0
 30
0.0
 70
   128
 71
    24
 72
    66
 73
    65
 74
    25
  0
VERTEX
  5
529
330
2FF
100
AcDbEntity
  8
ｴｸｽﾃﾘｱ商品
 62
   250
370
    20
100
AcDbFaceRecord
 10
0.0
 20
0.0
 30
0.0
 70
   128
 71
    25
 72
    65
 73
    64
 74
    26
  0
VERTEX
  5
52A
330
2FF
100
AcDbEntity
  8
ｴｸｽﾃﾘｱ商品
 62
   250
370
    20
100
AcDbFaceRecord
 10
0.0
 20
0.0
 30
0.0
 70
   128
 71
    26
 72
    64
 73
    63
 74
    27
  0
VERTEX
  5
52B
330
2FF
100
AcDbEntity
  8
ｴｸｽﾃﾘｱ商品
 62
   250
370
    20
100
AcDbFaceRecord
 10
0.0
 20
0.0
 30
0.0
 70
   128
 71
    27
 72
    63
 73
    62
 74
    28
  0
VERTEX
  5
52C
330
2FF
100
AcDbEntity
  8
ｴｸｽﾃﾘｱ商品
 62
   250
370
    20
100
AcDbFaceRecord
 10
0.0
 20
0.0
 30
0.0
 70
   128
 71
    28
 72
    62
 73
    61
 74
    29
  0
VERTEX
  5
52D
330
2FF
100
AcDbEntity
  8
ｴｸｽﾃﾘｱ商品
 62
   250
370
    20
100
AcDbFaceRecord
 10
0.0
 20
0.0
 30
0.0
 70
   128
 71
    29
 72
    61
 73
    60
 74
    30
  0
VERTEX
  5
52E
330
2FF
100
AcDbEntity
  8
ｴｸｽﾃﾘｱ商品
 62
   250
370
    20
100
AcDbFaceRecord
 10
0.0
 20
0.0
 30
0.0
 70
   128
 71
    30
 72
    60
 73
    59
 74
    31
  0
VERTEX
  5
52F
330
2FF
100
AcDbEntity
  8
ｴｸｽﾃﾘｱ商品
 62
   250
370
    20
100
AcDbFaceRecord
 10
0.0
 20
0.0
 30
0.0
 70
   128
 71
    31
 72
    59
 73
    58
 74
    32
  0
VERTEX
  5
530
330
2FF
100
AcDbEntity
  8
ｴｸｽﾃﾘｱ商品
 62
   250
370
    20
100
AcDbFaceRecord
 10
0.0
 20
0.0
 30
0.0
 70
   128
 71
    32
 72
    58
 73
    57
 74
    33
  0
VERTEX
  5
531
330
2FF
100
AcDbEntity
  8
ｴｸｽﾃﾘｱ商品
 62
   250
370
    20
100
AcDbFaceRecord
 10
0.0
 20
0.0
 30
0.0
 70
   128
 71
    33
 72
    57
 73
    56
 74
    34
  0
VERTEX
  5
532
330
2FF
100
AcDbEntity
  8
ｴｸｽﾃﾘｱ商品
 62
   250
370
    20
100
AcDbFaceRecord
 10
0.0
 20
0.0
 30
0.0
 70
   128
 71
    34
 72
    56
 73
    55
 74
    35
  0
VERTEX
  5
533
330
2FF
100
AcDbEntity
  8
ｴｸｽﾃﾘｱ商品
 62
   250
370
    20
100
AcDbFaceRecord
 10
0.0
 20
0.0
 30
0.0
 70
   128
 71
    35
 72
    55
 73
    54
 74
    36
  0
VERTEX
  5
534
330
2FF
100
AcDbEntity
  8
ｴｸｽﾃﾘｱ商品
 62
   250
370
    20
100
AcDbFaceRecord
 10
0.0
 20
0.0
 30
0.0
 70
   128
 71
    36
 72
    54
 73
    53
 74
    37
  0
VERTEX
  5
535
330
2FF
100
AcDbEntity
  8
ｴｸｽﾃﾘｱ商品
 62
   250
370
    20
100
AcDbFaceRecord
 10
0.0
 20
0.0
 30
0.0
 70
   128
 71
    37
 72
    53
 73
    52
 74
    38
  0
VERTEX
  5
536
330
2FF
100
AcDbEntity
  8
ｴｸｽﾃﾘｱ商品
 62
   250
370
    20
100
AcDbFaceRecord
 10
0.0
 20
0.0
 30
0.0
 70
   128
 71
    38
 72
    52
 73
    51
 74
    39
  0
VERTEX
  5
537
330
2FF
100
AcDbEntity
  8
ｴｸｽﾃﾘｱ商品
 62
   250
370
    20
100
AcDbFaceRecord
 10
0.0
 20
0.0
 30
0.0
 70
   128
 71
    39
 72
    51
 73
    50
 74
    40
  0
VERTEX
  5
538
330
2FF
100
AcDbEntity
  8
ｴｸｽﾃﾘｱ商品
 62
   250
370
    20
100
AcDbFaceRecord
 10
0.0
 20
0.0
 30
0.0
 70
   128
 71
    40
 72
    50
 73
    49
 74
    41
  0
VERTEX
  5
539
330
2FF
100
AcDbEntity
  8
ｴｸｽﾃﾘｱ商品
 62
   250
370
    20
100
AcDbFaceRecord
 10
0.0
 20
0.0
 30
0.0
 70
   128
 71
    41
 72
    49
 73
    48
 74
    42
  0
VERTEX
  5
53A
330
2FF
100
AcDbEntity
  8
ｴｸｽﾃﾘｱ商品
 62
   250
370
    20
100
AcDbFaceRecord
 10
0.0
 20
0.0
 30
0.0
 70
   128
 71
    42
 72
    48
 73
    47
 74
    43
  0
VERTEX
  5
53B
330
2FF
100
AcDbEntity
  8
ｴｸｽﾃﾘｱ商品
 62
   250
370
    20
100
AcDbFaceRecord
 10
0.0
 20
0.0
 30
0.0
 70
   128
 71
    43
 72
    47
 73
    46
 74
    44
  0
VERTEX
  5
53C
330
2FF
100
AcDbEntity
  8
ｴｸｽﾃﾘｱ商品
 62
   250
370
    20
100
AcDbFaceRecord
 10
0.0
 20
0.0
 30
0.0
 70
   128
 71
    44
 72
    46
 73
    45
 74
     9
  0
VERTEX
  5
53D
330
2FF
100
AcDbEntity
  8
ｴｸｽﾃﾘｱ商品
 62
   250
370
    20
100
AcDbFaceRecord
 10
0.0
 20
0.0
 30
0.0
 70
   128
 71
    81
 72
    82
 73
    83
 74
    84
  0
VERTEX
  5
53E
330
2FF
100
AcDbEntity
  8
ｴｸｽﾃﾘｱ商品
 62
   250
370
    20
100
AcDbFaceRecord
 10
0.0
 20
0.0
 30
0.0
 70
   128
 71
    84
 72
    83
 73
    85
 74
    86
  0
VERTEX
  5
53F
330
2FF
100
AcDbEntity
  8
ｴｸｽﾃﾘｱ商品
 62
   250
370
    20
100
AcDbFaceRecord
 10
0.0
 20
0.0
 30
0.0
 70
   128
 71
    86
 72
    85
 73
    87
 74
    88
  0
VERTEX
  5
540
330
2FF
100
AcDbEntity
  8
ｴｸｽﾃﾘｱ商品
 62
   250
370
    20
100
AcDbFaceRecord
 10
0.0
 20
0.0
 30
0.0
 70
   128
 71
    88
 72
    87
 73
    89
 74
    90
  0
VERTEX
  5
541
330
2FF
100
AcDbEntity
  8
ｴｸｽﾃﾘｱ商品
 62
   250
370
    20
100
AcDbFaceRecord
 10
0.0
 20
0.0
 30
0.0
 70
   128
 71
    90
 72
    89
 73
    91
 74
    92
  0
VERTEX
  5
542
330
2FF
100
AcDbEntity
  8
ｴｸｽﾃﾘｱ商品
 62
   250
370
    20
100
AcDbFaceRecord
 10
0.0
 20
0.0
 30
0.0
 70
   128
 71
    92
 72
    91
 73
    93
 74
    94
  0
VERTEX
  5
543
330
2FF
100
AcDbEntity
  8
ｴｸｽﾃﾘｱ商品
 62
   250
370
    20
100
AcDbFaceRecord
 10
0.0
 20
0.0
 30
0.0
 70
   128
 71
    94
 72
    93
 73
    95
 74
    96
  0
VERTEX
  5
544
330
2FF
100
AcDbEntity
  8
ｴｸｽﾃﾘｱ商品
 62
   250
370
    20
100
AcDbFaceRecord
 10
0.0
 20
0.0
 30
0.0
 70
   128
 71
    96
 72
    95
 73
    97
 74
    98
  0
VERTEX
  5
545
330
2FF
100
AcDbEntity
  8
ｴｸｽﾃﾘｱ商品
 62
   250
370
    20
100
AcDbFaceRecord
 10
0.0
 20
0.0
 30
0.0
 70
   128
 71
    98
 72
    97
 73
    99
 74
   100
  0
VERTEX
  5
546
330
2FF
100
AcDbEntity
  8
ｴｸｽﾃﾘｱ商品
 62
   250
370
    20
100
AcDbFaceRecord
 10
0.0
 20
0.0
 30
0.0
 70
   128
 71
   100
 72
    99
 73
   101
 74
   102
  0
VERTEX
  5
547
330
2FF
100
AcDbEntity
  8
ｴｸｽﾃﾘｱ商品
 62
   250
370
    20
100
AcDbFaceRecord
 10
0.0
 20
0.0
 30
0.0
 70
   128
 71
   102
 72
   101
 73
   103
 74
   104
  0
VERTEX
  5
548
330
2FF
100
AcDbEntity
  8
ｴｸｽﾃﾘｱ商品
 62
   250
370
    20
100
AcDbFaceRecord
 10
0.0
 20
0.0
 30
0.0
 70
   128
 71
   104
 72
   103
 73
   105
 74
   106
  0
VERTEX
  5
549
330
2FF
100
AcDbEntity
  8
ｴｸｽﾃﾘｱ商品
 62
   250
370
    20
100
AcDbFaceRecord
 10
0.0
 20
0.0
 30
0.0
 70
   128
 71
   106
 72
   105
 73
   107
 74
   108
  0
VERTEX
  5
54A
330
2FF
100
AcDbEntity
  8
ｴｸｽﾃﾘｱ商品
 62
   250
370
    20
100
AcDbFaceRecord
 10
0.0
 20
0.0
 30
0.0
 70
   128
 71
   108
 72
   107
 73
   109
 74
   110
  0
VERTEX
  5
54B
330
2FF
100
AcDbEntity
  8
ｴｸｽﾃﾘｱ商品
 62
   250
370
    20
100
AcDbFaceRecord
 10
0.0
 20
0.0
 30
0.0
 70
   128
 71
   110
 72
   109
 73
   111
 74
   112
  0
VERTEX
  5
54C
330
2FF
100
AcDbEntity
  8
ｴｸｽﾃﾘｱ商品
 62
   250
370
    20
100
AcDbFaceRecord
 10
0.0
 20
0.0
 30
0.0
 70
   128
 71
   112
 72
   111
 73
   113
 74
   114
  0
VERTEX
  5
54D
330
2FF
100
AcDbEntity
  8
ｴｸｽﾃﾘｱ商品
 62
   250
370
    20
100
AcDbFaceRecord
 10
0.0
 20
0.0
 30
0.0
 70
   128
 71
   114
 72
   113
 73
   115
 74
   116
  0
VERTEX
  5
54E
330
2FF
100
AcDbEntity
  8
ｴｸｽﾃﾘｱ商品
 62
   250
370
    20
100
AcDbFaceRecord
 10
0.0
 20
0.0
 30
0.0
 70
   128
 71
   116
 72
   115
 73
   117
 74
   118
  0
VERTEX
  5
54F
330
2FF
100
AcDbEntity
  8
ｴｸｽﾃﾘｱ商品
 62
   250
370
    20
100
AcDbFaceRecord
 10
0.0
 20
0.0
 30
0.0
 70
   128
 71
   118
 72
   117
 73
   119
 74
   120
  0
VERTEX
  5
550
330
2FF
100
AcDbEntity
  8
ｴｸｽﾃﾘｱ商品
 62
   250
370
    20
100
AcDbFaceRecord
 10
0.0
 20
0.0
 30
0.0
 70
   128
 71
   120
 72
   119
 73
   121
 74
   122
  0
VERTEX
  5
551
330
2FF
100
AcDbEntity
  8
ｴｸｽﾃﾘｱ商品
 62
   250
370
    20
100
AcDbFaceRecord
 10
0.0
 20
0.0
 30
0.0
 70
   128
 71
   122
 72
   121
 73
   123
 74
   124
  0
VERTEX
  5
552
330
2FF
100
AcDbEntity
  8
ｴｸｽﾃﾘｱ商品
 62
   250
370
    20
100
AcDbFaceRecord
 10
0.0
 20
0.0
 30
0.0
 70
   128
 71
   124
 72
   123
 73
   125
 74
   126
  0
VERTEX
  5
553
330
2FF
100
AcDbEntity
  8
ｴｸｽﾃﾘｱ商品
 62
   250
370
    20
100
AcDbFaceRecord
 10
0.0
 20
0.0
 30
0.0
 70
   128
 71
   126
 72
   125
 73
   127
 74
   128
  0
VERTEX
  5
554
330
2FF
100
AcDbEntity
  8
ｴｸｽﾃﾘｱ商品
 62
   250
370
    20
100
AcDbFaceRecord
 10
0.0
 20
0.0
 30
0.0
 70
   128
 71
   128
 72
   127
 73
   129
 74
   130
  0
VERTEX
  5
555
330
2FF
100
AcDbEntity
  8
ｴｸｽﾃﾘｱ商品
 62
   250
370
    20
100
AcDbFaceRecord
 10
0.0
 20
0.0
 30
0.0
 70
   128
 71
   130
 72
   129
 73
   131
 74
   132
  0
VERTEX
  5
556
330
2FF
100
AcDbEntity
  8
ｴｸｽﾃﾘｱ商品
 62
   250
370
    20
100
AcDbFaceRecord
 10
0.0
 20
0.0
 30
0.0
 70
   128
 71
   132
 72
   131
 73
   133
 74
   134
  0
VERTEX
  5
557
330
2FF
100
AcDbEntity
  8
ｴｸｽﾃﾘｱ商品
 62
   250
370
    20
100
AcDbFaceRecord
 10
0.0
 20
0.0
 30
0.0
 70
   128
 71
   134
 72
   133
 73
   135
 74
   136
  0
VERTEX
  5
558
330
2FF
100
AcDbEntity
  8
ｴｸｽﾃﾘｱ商品
 62
   250
370
    20
100
AcDbFaceRecord
 10
0.0
 20
0.0
 30
0.0
 70
   128
 71
   136
 72
   135
 73
   137
 74
   138
  0
VERTEX
  5
559
330
2FF
100
AcDbEntity
  8
ｴｸｽﾃﾘｱ商品
 62
   250
370
    20
100
AcDbFaceRecord
 10
0.0
 20
0.0
 30
0.0
 70
   128
 71
   138
 72
   137
 73
   139
 74
   140
  0
VERTEX
  5
55A
330
2FF
100
AcDbEntity
  8
ｴｸｽﾃﾘｱ商品
 62
   250
370
    20
100
AcDbFaceRecord
 10
0.0
 20
0.0
 30
0.0
 70
   128
 71
   140
 72
   139
 73
   141
 74
   142
  0
VERTEX
  5
55B
330
2FF
100
AcDbEntity
  8
ｴｸｽﾃﾘｱ商品
 62
   250
370
    20
100
AcDbFaceRecord
 10
0.0
 20
0.0
 30
0.0
 70
   128
 71
   142
 72
   141
 73
   143
 74
   144
  0
VERTEX
  5
55C
330
2FF
100
AcDbEntity
  8
ｴｸｽﾃﾘｱ商品
 62
   250
370
    20
100
AcDbFaceRecord
 10
0.0
 20
0.0
 30
0.0
 70
   128
 71
   144
 72
   143
 73
   145
 74
   146
  0
VERTEX
  5
55D
330
2FF
100
AcDbEntity
  8
ｴｸｽﾃﾘｱ商品
 62
   250
370
    20
100
AcDbFaceRecord
 10
0.0
 20
0.0
 30
0.0
 70
   128
 71
   146
 72
   145
 73
   147
 74
   148
  0
VERTEX
  5
55E
330
2FF
100
AcDbEntity
  8
ｴｸｽﾃﾘｱ商品
 62
   250
370
    20
100
AcDbFaceRecord
 10
0.0
 20
0.0
 30
0.0
 70
   128
 71
   148
 72
   147
 73
   149
 74
   150
  0
VERTEX
  5
55F
330
2FF
100
AcDbEntity
  8
ｴｸｽﾃﾘｱ商品
 62
   250
370
    20
100
AcDbFaceRecord
 10
0.0
 20
0.0
 30
0.0
 70
   128
 71
   150
 72
   149
 73
   151
 74
   152
  0
VERTEX
  5
560
330
2FF
100
AcDbEntity
  8
ｴｸｽﾃﾘｱ商品
 62
   250
370
    20
100
AcDbFaceRecord
 10
0.0
 20
0.0
 30
0.0
 70
   128
 71
   152
 72
   151
 73
    82
 74
    81
  0
VERTEX
  5
561
330
2FF
100
AcDbEntity
  8
ｴｸｽﾃﾘｱ商品
 62
   250
370
    20
100
AcDbFaceRecord
 10
0.0
 20
0.0
 30
0.0
 70
   128
 71
    81
 72
    84
 73
    86
 74
    88
  0
VERTEX
  5
562
330
2FF
100
AcDbEntity
  8
ｴｸｽﾃﾘｱ商品
 62
   250
370
    20
100
AcDbFaceRecord
 10
0.0
 20
0.0
 30
0.0
 70
   128
 71
    81
 72
    88
 73
    90
 74
    92
  0
VERTEX
  5
563
330
2FF
100
AcDbEntity
  8
ｴｸｽﾃﾘｱ商品
 62
   250
370
    20
100
AcDbFaceRecord
 10
0.0
 20
0.0
 30
0.0
 70
   128
 71
    81
 72
    92
 73
    94
 74
    96
  0
VERTEX
  5
564
330
2FF
100
AcDbEntity
  8
ｴｸｽﾃﾘｱ商品
 62
   250
370
    20
100
AcDbFaceRecord
 10
0.0
 20
0.0
 30
0.0
 70
   128
 71
    81
 72
    96
 73
    98
 74
   100
  0
VERTEX
  5
565
330
2FF
100
AcDbEntity
  8
ｴｸｽﾃﾘｱ商品
 62
   250
370
    20
100
AcDbFaceRecord
 10
0.0
 20
0.0
 30
0.0
 70
   128
 71
    81
 72
   100
 73
   102
 74
   104
  0
VERTEX
  5
566
330
2FF
100
AcDbEntity
  8
ｴｸｽﾃﾘｱ商品
 62
   250
370
    20
100
AcDbFaceRecord
 10
0.0
 20
0.0
 30
0.0
 70
   128
 71
    81
 72
   104
 73
   106
 74
   108
  0
VERTEX
  5
567
330
2FF
100
AcDbEntity
  8
ｴｸｽﾃﾘｱ商品
 62
   250
370
    20
100
AcDbFaceRecord
 10
0.0
 20
0.0
 30
0.0
 70
   128
 71
    81
 72
   108
 73
   110
 74
   112
  0
VERTEX
  5
568
330
2FF
100
AcDbEntity
  8
ｴｸｽﾃﾘｱ商品
 62
   250
370
    20
100
AcDbFaceRecord
 10
0.0
 20
0.0
 30
0.0
 70
   128
 71
    81
 72
   112
 73
   114
 74
   116
  0
VERTEX
  5
569
330
2FF
100
AcDbEntity
  8
ｴｸｽﾃﾘｱ商品
 62
   250
370
    20
100
AcDbFaceRecord
 10
0.0
 20
0.0
 30
0.0
 70
   128
 71
    81
 72
   116
 73
   118
 74
   120
  0
VERTEX
  5
56A
330
2FF
100
AcDbEntity
  8
ｴｸｽﾃﾘｱ商品
 62
   250
370
    20
100
AcDbFaceRecord
 10
0.0
 20
0.0
 30
0.0
 70
   128
 71
    81
 72
   120
 73
   122
 74
   124
  0
VERTEX
  5
56B
330
2FF
100
AcDbEntity
  8
ｴｸｽﾃﾘｱ商品
 62
   250
370
    20
100
AcDbFaceRecord
 10
0.0
 20
0.0
 30
0.0
 70
   128
 71
    81
 72
   124
 73
   126
 74
   128
  0
VERTEX
  5
56C
330
2FF
100
AcDbEntity
  8
ｴｸｽﾃﾘｱ商品
 62
   250
370
    20
100
AcDbFaceRecord
 10
0.0
 20
0.0
 30
0.0
 70
   128
 71
    81
 72
   128
 73
   130
 74
   132
  0
VERTEX
  5
56D
330
2FF
100
AcDbEntity
  8
ｴｸｽﾃﾘｱ商品
 62
   250
370
    20
100
AcDbFaceRecord
 10
0.0
 20
0.0
 30
0.0
 70
   128
 71
    81
 72
   132
 73
   134
 74
   136
  0
VERTEX
  5
56E
330
2FF
100
AcDbEntity
  8
ｴｸｽﾃﾘｱ商品
 62
   250
370
    20
100
AcDbFaceRecord
 10
0.0
 20
0.0
 30
0.0
 70
   128
 71
    81
 72
   136
 73
   138
 74
   140
  0
VERTEX
  5
56F
330
2FF
100
AcDbEntity
  8
ｴｸｽﾃﾘｱ商品
 62
   250
370
    20
100
AcDbFaceRecord
 10
0.0
 20
0.0
 30
0.0
 70
   128
 71
    81
 72
   140
 73
   142
 74
   144
  0
VERTEX
  5
570
330
2FF
100
AcDbEntity
  8
ｴｸｽﾃﾘｱ商品
 62
   250
370
    20
100
AcDbFaceRecord
 10
0.0
 20
0.0
 30
0.0
 70
   128
 71
    81
 72
   144
 73
   146
 74
   148
  0
VERTEX
  5
571
330
2FF
100
AcDbEntity
  8
ｴｸｽﾃﾘｱ商品
 62
   250
370
    20
100
AcDbFaceRecord
 10
0.0
 20
0.0
 30
0.0
 70
   128
 71
    81
 72
   148
 73
   150
 74
   152
  0
VERTEX
  5
572
330
2FF
100
AcDbEntity
  8
ｴｸｽﾃﾘｱ商品
 62
   250
370
    20
100
AcDbFaceRecord
 10
0.0
 20
0.0
 30
0.0
 70
   128
 71
    82
 72
   151
 73
   149
 74
   147
  0
VERTEX
  5
573
330
2FF
100
AcDbEntity
  8
ｴｸｽﾃﾘｱ商品
 62
   250
370
    20
100
AcDbFaceRecord
 10
0.0
 20
0.0
 30
0.0
 70
   128
 71
    82
 72
   147
 73
   145
 74
   143
  0
VERTEX
  5
574
330
2FF
100
AcDbEntity
  8
ｴｸｽﾃﾘｱ商品
 62
   250
370
    20
100
AcDbFaceRecord
 10
0.0
 20
0.0
 30
0.0
 70
   128
 71
    82
 72
   143
 73
   141
 74
   139
  0
VERTEX
  5
575
330
2FF
100
AcDbEntity
  8
ｴｸｽﾃﾘｱ商品
 62
   250
370
    20
100
AcDbFaceRecord
 10
0.0
 20
0.0
 30
0.0
 70
   128
 71
    82
 72
   139
 73
   137
 74
   135
  0
VERTEX
  5
576
330
2FF
100
AcDbEntity
  8
ｴｸｽﾃﾘｱ商品
 62
   250
370
    20
100
AcDbFaceRecord
 10
0.0
 20
0.0
 30
0.0
 70
   128
 71
    82
 72
   135
 73
   133
 74
   131
  0
VERTEX
  5
577
330
2FF
100
AcDbEntity
  8
ｴｸｽﾃﾘｱ商品
 62
   250
370
    20
100
AcDbFaceRecord
 10
0.0
 20
0.0
 30
0.0
 70
   128
 71
    82
 72
   131
 73
   129
 74
   127
  0
VERTEX
  5
578
330
2FF
100
AcDbEntity
  8
ｴｸｽﾃﾘｱ商品
 62
   250
370
    20
100
AcDbFaceRecord
 10
0.0
 20
0.0
 30
0.0
 70
   128
 71
    82
 72
   127
 73
   125
 74
   123
  0
VERTEX
  5
579
330
2FF
100
AcDbEntity
  8
ｴｸｽﾃﾘｱ商品
 62
   250
370
    20
100
AcDbFaceRecord
 10
0.0
 20
0.0
 30
0.0
 70
   128
 71
    82
 72
   123
 73
   121
 74
   119
  0
VERTEX
  5
57A
330
2FF
100
AcDbEntity
  8
ｴｸｽﾃﾘｱ商品
 62
   250
370
    20
100
AcDbFaceRecord
 10
0.0
 20
0.0
 30
0.0
 70
   128
 71
    82
 72
   119
 73
   117
 74
   115
  0
VERTEX
  5
57B
330
2FF
100
AcDbEntity
  8
ｴｸｽﾃﾘｱ商品
 62
   250
370
    20
100
AcDbFaceRecord
 10
0.0
 20
0.0
 30
0.0
 70
   128
 71
    82
 72
   115
 73
   113
 74
   111
  0
VERTEX
  5
57C
330
2FF
100
AcDbEntity
  8
ｴｸｽﾃﾘｱ商品
 62
   250
370
    20
100
AcDbFaceRecord
 10
0.0
 20
0.0
 30
0.0
 70
   128
 71
    82
 72
   111
 73
   109
 74
   107
  0
VERTEX
  5
57D
330
2FF
100
AcDbEntity
  8
ｴｸｽﾃﾘｱ商品
 62
   250
370
    20
100
AcDbFaceRecord
 10
0.0
 20
0.0
 30
0.0
 70
   128
 71
    82
 72
   107
 73
   105
 74
   103
  0
VERTEX
  5
57E
330
2FF
100
AcDbEntity
  8
ｴｸｽﾃﾘｱ商品
 62
   250
370
    20
100
AcDbFaceRecord
 10
0.0
 20
0.0
 30
0.0
 70
   128
 71
    82
 72
   103
 73
   101
 74
    99
  0
VERTEX
  5
57F
330
2FF
100
AcDbEntity
  8
ｴｸｽﾃﾘｱ商品
 62
   250
370
    20
100
AcDbFaceRecord
 10
0.0
 20
0.0
 30
0.0
 70
   128
 71
    82
 72
    99
 73
    97
 74
    95
  0
VERTEX
  5
580
330
2FF
100
AcDbEntity
  8
ｴｸｽﾃﾘｱ商品
 62
   250
370
    20
100
AcDbFaceRecord
 10
0.0
 20
0.0
 30
0.0
 70
   128
 71
    82
 72
    95
 73
    93
 74
    91
  0
VERTEX
  5
581
330
2FF
100
AcDbEntity
  8
ｴｸｽﾃﾘｱ商品
 62
   250
370
    20
100
AcDbFaceRecord
 10
0.0
 20
0.0
 30
0.0
 70
   128
 71
    82
 72
    91
 73
    89
 74
    87
  0
VERTEX
  5
582
330
2FF
100
AcDbEntity
  8
ｴｸｽﾃﾘｱ商品
 62
   250
370
    20
100
AcDbFaceRecord
 10
0.0
 20
0.0
 30
0.0
 70
   128
 71
    82
 72
    87
 73
    85
 74
    83
  0
VERTEX
  5
583
330
2FF
100
AcDbEntity
  8
ｴｸｽﾃﾘｱ商品
 62
   250
370
    20
100
AcDbFaceRecord
 10
0.0
 20
0.0
 30
0.0
 70
   128
 71
   153
 72
   154
 73
   155
 74
   156
  0
VERTEX
  5
584
330
2FF
100
AcDbEntity
  8
ｴｸｽﾃﾘｱ商品
 62
   250
370
    20
100
AcDbFaceRecord
 10
0.0
 20
0.0
 30
0.0
 70
   128
 71
   157
 72
   158
 73
   159
 74
   160
  0
VERTEX
  5
585
330
2FF
100
AcDbEntity
  8
ｴｸｽﾃﾘｱ商品
 62
   250
370
    20
100
AcDbFaceRecord
 10
0.0
 20
0.0
 30
0.0
 70
   128
 71
   154
 72
   153
 73
   158
 74
   157
  0
VERTEX
  5
586
330
2FF
100
AcDbEntity
  8
ｴｸｽﾃﾘｱ商品
 62
   250
370
    20
100
AcDbFaceRecord
 10
0.0
 20
0.0
 30
0.0
 70
   128
 71
   153
 72
   156
 73
   159
 74
   158
  0
VERTEX
  5
587
330
2FF
100
AcDbEntity
  8
ｴｸｽﾃﾘｱ商品
 62
   250
370
    20
100
AcDbFaceRecord
 10
0.0
 20
0.0
 30
0.0
 70
   128
 71
   156
 72
   155
 73
   160
 74
   159
  0
VERTEX
  5
588
330
2FF
100
AcDbEntity
  8
ｴｸｽﾃﾘｱ商品
 62
   250
370
    20
100
AcDbFaceRecord
 10
0.0
 20
0.0
 30
0.0
 70
   128
 71
   155
 72
   154
 73
   157
 74
   160
  0
VERTEX
  5
589
330
2FF
100
AcDbEntity
  8
ｴｸｽﾃﾘｱ商品
 62
   250
370
    20
100
AcDbFaceRecord
 10
0.0
 20
0.0
 30
0.0
 70
   128
 71
   161
 72
   162
 73
   163
 74
   164
  0
VERTEX
  5
58A
330
2FF
100
AcDbEntity
  8
ｴｸｽﾃﾘｱ商品
 62
   250
370
    20
100
AcDbFaceRecord
 10
0.0
 20
0.0
 30
0.0
 70
   128
 71
   161
 72
   164
 73
   165
 74
   166
  0
VERTEX
  5
58B
330
2FF
100
AcDbEntity
  8
ｴｸｽﾃﾘｱ商品
 62
   250
370
    20
100
AcDbFaceRecord
 10
0.0
 20
0.0
 30
0.0
 70
   128
 71
   161
 72
   166
 73
   167
 74
   168
  0
VERTEX
  5
58C
330
2FF
100
AcDbEntity
  8
ｴｸｽﾃﾘｱ商品
 62
   250
370
    20
100
AcDbFaceRecord
 10
0.0
 20
0.0
 30
0.0
 70
   128
 71
   161
 72
   168
 73
   169
 74
   170
  0
VERTEX
  5
58D
330
2FF
100
AcDbEntity
  8
ｴｸｽﾃﾘｱ商品
 62
   250
370
    20
100
AcDbFaceRecord
 10
0.0
 20
0.0
 30
0.0
 70
   128
 71
   161
 72
   170
 73
   171
 74
   172
  0
VERTEX
  5
58E
330
2FF
100
AcDbEntity
  8
ｴｸｽﾃﾘｱ商品
 62
   250
370
    20
100
AcDbFaceRecord
 10
0.0
 20
0.0
 30
0.0
 70
   128
 71
   161
 72
   172
 73
   173
 74
   174
  0
VERTEX
  5
58F
330
2FF
100
AcDbEntity
  8
ｴｸｽﾃﾘｱ商品
 62
   250
370
    20
100
AcDbFaceRecord
 10
0.0
 20
0.0
 30
0.0
 70
   128
 71
   161
 72
   174
 73
   175
 74
   176
  0
VERTEX
  5
590
330
2FF
100
AcDbEntity
  8
ｴｸｽﾃﾘｱ商品
 62
   250
370
    20
100
AcDbFaceRecord
 10
0.0
 20
0.0
 30
0.0
 70
   128
 71
   161
 72
   176
 73
   177
 74
   178
  0
VERTEX
  5
591
330
2FF
100
AcDbEntity
  8
ｴｸｽﾃﾘｱ商品
 62
   250
370
    20
100
AcDbFaceRecord
 10
0.0
 20
0.0
 30
0.0
 70
   128
 71
   161
 72
   178
 73
   179
 74
   180
  0
VERTEX
  5
592
330
2FF
100
AcDbEntity
  8
ｴｸｽﾃﾘｱ商品
 62
   250
370
    20
100
AcDbFaceRecord
 10
0.0
 20
0.0
 30
0.0
 70
   128
 71
   161
 72
   180
 73
   181
 74
   182
  0
VERTEX
  5
593
330
2FF
100
AcDbEntity
  8
ｴｸｽﾃﾘｱ商品
 62
   250
370
    20
100
AcDbFaceRecord
 10
0.0
 20
0.0
 30
0.0
 70
   128
 71
   161
 72
   182
 73
   183
 74
   184
  0
VERTEX
  5
594
330
2FF
100
AcDbEntity
  8
ｴｸｽﾃﾘｱ商品
 62
   250
370
    20
100
AcDbFaceRecord
 10
0.0
 20
0.0
 30
0.0
 70
   128
 71
   161
 72
   184
 73
   185
 74
   186
  0
VERTEX
  5
595
330
2FF
100
AcDbEntity
  8
ｴｸｽﾃﾘｱ商品
 62
   250
370
    20
100
AcDbFaceRecord
 10
0.0
 20
0.0
 30
0.0
 70
   128
 71
   161
 72
   186
 73
   187
 74
   188
  0
VERTEX
  5
596
330
2FF
100
AcDbEntity
  8
ｴｸｽﾃﾘｱ商品
 62
   250
370
    20
100
AcDbFaceRecord
 10
0.0
 20
0.0
 30
0.0
 70
   128
 71
   161
 72
   188
 73
   189
 74
   190
  0
VERTEX
  5
597
330
2FF
100
AcDbEntity
  8
ｴｸｽﾃﾘｱ商品
 62
   250
370
    20
100
AcDbFaceRecord
 10
0.0
 20
0.0
 30
0.0
 70
   128
 71
   161
 72
   190
 73
   191
 74
   192
  0
VERTEX
  5
598
330
2FF
100
AcDbEntity
  8
ｴｸｽﾃﾘｱ商品
 62
   250
370
    20
100
AcDbFaceRecord
 10
0.0
 20
0.0
 30
0.0
 70
   128
 71
   161
 72
   192
 73
   193
 74
   194
  0
VERTEX
  5
599
330
2FF
100
AcDbEntity
  8
ｴｸｽﾃﾘｱ商品
 62
   250
370
    20
100
AcDbFaceRecord
 10
0.0
 20
0.0
 30
0.0
 70
   128
 71
   161
 72
   194
 73
   195
 74
   196
  0
VERTEX
  5
59A
330
2FF
100
AcDbEntity
  8
ｴｸｽﾃﾘｱ商品
 62
   250
370
    20
100
AcDbFaceRecord
 10
0.0
 20
0.0
 30
0.0
 70
   128
 71
   197
 72
   198
 73
   199
 74
   200
  0
VERTEX
  5
59B
330
2FF
100
AcDbEntity
  8
ｴｸｽﾃﾘｱ商品
 62
   250
370
    20
100
AcDbFaceRecord
 10
0.0
 20
0.0
 30
0.0
 70
   128
 71
   197
 72
   200
 73
   201
 74
   202
  0
VERTEX
  5
59C
330
2FF
100
AcDbEntity
  8
ｴｸｽﾃﾘｱ商品
 62
   250
370
    20
100
AcDbFaceRecord
 10
0.0
 20
0.0
 30
0.0
 70
   128
 71
   197
 72
   202
 73
   203
 74
   204
  0
VERTEX
  5
59D
330
2FF
100
AcDbEntity
  8
ｴｸｽﾃﾘｱ商品
 62
   250
370
    20
100
AcDbFaceRecord
 10
0.0
 20
0.0
 30
0.0
 70
   128
 71
   197
 72
   204
 73
   205
 74
   206
  0
VERTEX
  5
59E
330
2FF
100
AcDbEntity
  8
ｴｸｽﾃﾘｱ商品
 62
   250
370
    20
100
AcDbFaceRecord
 10
0.0
 20
0.0
 30
0.0
 70
   128
 71
   197
 72
   206
 73
   207
 74
   208
  0
VERTEX
  5
59F
330
2FF
100
AcDbEntity
  8
ｴｸｽﾃﾘｱ商品
 62
   250
370
    20
100
AcDbFaceRecord
 10
0.0
 20
0.0
 30
0.0
 70
   128
 71
   197
 72
   208
 73
   209
 74
   210
  0
VERTEX
  5
5A0
330
2FF
100
AcDbEntity
  8
ｴｸｽﾃﾘｱ商品
 62
   250
370
    20
100
AcDbFaceRecord
 10
0.0
 20
0.0
 30
0.0
 70
   128
 71
   197
 72
   210
 73
   211
 74
   212
  0
VERTEX
  5
5A1
330
2FF
100
AcDbEntity
  8
ｴｸｽﾃﾘｱ商品
 62
   250
370
    20
100
AcDbFaceRecord
 10
0.0
 20
0.0
 30
0.0
 70
   128
 71
   197
 72
   212
 73
   213
 74
   214
  0
VERTEX
  5
5A2
330
2FF
100
AcDbEntity
  8
ｴｸｽﾃﾘｱ商品
 62
   250
370
    20
100
AcDbFaceRecord
 10
0.0
 20
0.0
 30
0.0
 70
   128
 71
   197
 72
   214
 73
   215
 74
   216
  0
VERTEX
  5
5A3
330
2FF
100
AcDbEntity
  8
ｴｸｽﾃﾘｱ商品
 62
   250
370
    20
100
AcDbFaceRecord
 10
0.0
 20
0.0
 30
0.0
 70
   128
 71
   197
 72
   216
 73
   217
 74
   218
  0
VERTEX
  5
5A4
330
2FF
100
AcDbEntity
  8
ｴｸｽﾃﾘｱ商品
 62
   250
370
    20
100
AcDbFaceRecord
 10
0.0
 20
0.0
 30
0.0
 70
   128
 71
   197
 72
   218
 73
   219
 74
   220
  0
VERTEX
  5
5A5
330
2FF
100
AcDbEntity
  8
ｴｸｽﾃﾘｱ商品
 62
   250
370
    20
100
AcDbFaceRecord
 10
0.0
 20
0.0
 30
0.0
 70
   128
 71
   197
 72
   220
 73
   221
 74
   222
  0
VERTEX
  5
5A6
330
2FF
100
AcDbEntity
  8
ｴｸｽﾃﾘｱ商品
 62
   250
370
    20
100
AcDbFaceRecord
 10
0.0
 20
0.0
 30
0.0
 70
   128
 71
   197
 72
   222
 73
   223
 74
   224
  0
VERTEX
  5
5A7
330
2FF
100
AcDbEntity
  8
ｴｸｽﾃﾘｱ商品
 62
   250
370
    20
100
AcDbFaceRecord
 10
0.0
 20
0.0
 30
0.0
 70
   128
 71
   197
 72
   224
 73
   225
 74
   226
  0
VERTEX
  5
5A8
330
2FF
100
AcDbEntity
  8
ｴｸｽﾃﾘｱ商品
 62
   250
370
    20
100
AcDbFaceRecord
 10
0.0
 20
0.0
 30
0.0
 70
   128
 71
   197
 72
   226
 73
   227
 74
   228
  0
VERTEX
  5
5A9
330
2FF
100
AcDbEntity
  8
ｴｸｽﾃﾘｱ商品
 62
   250
370
    20
100
AcDbFaceRecord
 10
0.0
 20
0.0
 30
0.0
 70
   128
 71
   197
 72
   228
 73
   229
 74
   230
  0
VERTEX
  5
5AA
330
2FF
100
AcDbEntity
  8
ｴｸｽﾃﾘｱ商品
 62
   250
370
    20
100
AcDbFaceRecord
 10
0.0
 20
0.0
 30
0.0
 70
   128
 71
   197
 72
   230
 73
   231
 74
   232
  0
VERTEX
  5
5AB
330
2FF
100
AcDbEntity
  8
ｴｸｽﾃﾘｱ商品
 62
   250
370
    20
100
AcDbFaceRecord
 10
0.0
 20
0.0
 30
0.0
 70
   128
 71
   161
 72
   196
 73
   198
 74
   197
  0
VERTEX
  5
5AC
330
2FF
100
AcDbEntity
  8
ｴｸｽﾃﾘｱ商品
 62
   250
370
    20
100
AcDbFaceRecord
 10
0.0
 20
0.0
 30
0.0
 70
   128
 71
   196
 72
   195
 73
   199
 74
   198
  0
VERTEX
  5
5AD
330
2FF
100
AcDbEntity
  8
ｴｸｽﾃﾘｱ商品
 62
   250
370
    20
100
AcDbFaceRecord
 10
0.0
 20
0.0
 30
0.0
 70
   128
 71
   195
 72
   194
 73
   200
 74
   199
  0
VERTEX
  5
5AE
330
2FF
100
AcDbEntity
  8
ｴｸｽﾃﾘｱ商品
 62
   250
370
    20
100
AcDbFaceRecord
 10
0.0
 20
0.0
 30
0.0
 70
   128
 71
   194
 72
   193
 73
   201
 74
   200
  0
VERTEX
  5
5AF
330
2FF
100
AcDbEntity
  8
ｴｸｽﾃﾘｱ商品
 62
   250
370
    20
100
AcDbFaceRecord
 10
0.0
 20
0.0
 30
0.0
 70
   128
 71
   193
 72
   192
 73
   202
 74
   201
  0
VERTEX
  5
5B0
330
2FF
100
AcDbEntity
  8
ｴｸｽﾃﾘｱ商品
 62
   250
370
    20
100
AcDbFaceRecord
 10
0.0
 20
0.0
 30
0.0
 70
   128
 71
   192
 72
   191
 73
   203
 74
   202
  0
VERTEX
  5
5B1
330
2FF
100
AcDbEntity
  8
ｴｸｽﾃﾘｱ商品
 62
   250
370
    20
100
AcDbFaceRecord
 10
0.0
 20
0.0
 30
0.0
 70
   128
 71
   191
 72
   190
 73
   204
 74
   203
  0
VERTEX
  5
5B2
330
2FF
100
AcDbEntity
  8
ｴｸｽﾃﾘｱ商品
 62
   250
370
    20
100
AcDbFaceRecord
 10
0.0
 20
0.0
 30
0.0
 70
   128
 71
   190
 72
   189
 73
   205
 74
   204
  0
VERTEX
  5
5B3
330
2FF
100
AcDbEntity
  8
ｴｸｽﾃﾘｱ商品
 62
   250
370
    20
100
AcDbFaceRecord
 10
0.0
 20
0.0
 30
0.0
 70
   128
 71
   189
 72
   188
 73
   206
 74
   205
  0
VERTEX
  5
5B4
330
2FF
100
AcDbEntity
  8
ｴｸｽﾃﾘｱ商品
 62
   250
370
    20
100
AcDbFaceRecord
 10
0.0
 20
0.0
 30
0.0
 70
   128
 71
   188
 72
   187
 73
   207
 74
   206
  0
VERTEX
  5
5B5
330
2FF
100
AcDbEntity
  8
ｴｸｽﾃﾘｱ商品
 62
   250
370
    20
100
AcDbFaceRecord
 10
0.0
 20
0.0
 30
0.0
 70
   128
 71
   187
 72
   186
 73
   208
 74
   207
  0
VERTEX
  5
5B6
330
2FF
100
AcDbEntity
  8
ｴｸｽﾃﾘｱ商品
 62
   250
370
    20
100
AcDbFaceRecord
 10
0.0
 20
0.0
 30
0.0
 70
   128
 71
   186
 72
   185
 73
   209
 74
   208
  0
VERTEX
  5
5B7
330
2FF
100
AcDbEntity
  8
ｴｸｽﾃﾘｱ商品
 62
   250
370
    20
100
AcDbFaceRecord
 10
0.0
 20
0.0
 30
0.0
 70
   128
 71
   185
 72
   184
 73
   210
 74
   209
  0
VERTEX
  5
5B8
330
2FF
100
AcDbEntity
  8
ｴｸｽﾃﾘｱ商品
 62
   250
370
    20
100
AcDbFaceRecord
 10
0.0
 20
0.0
 30
0.0
 70
   128
 71
   184
 72
   183
 73
   211
 74
   210
  0
VERTEX
  5
5B9
330
2FF
100
AcDbEntity
  8
ｴｸｽﾃﾘｱ商品
 62
   250
370
    20
100
AcDbFaceRecord
 10
0.0
 20
0.0
 30
0.0
 70
   128
 71
   183
 72
   182
 73
   212
 74
   211
  0
VERTEX
  5
5BA
330
2FF
100
AcDbEntity
  8
ｴｸｽﾃﾘｱ商品
 62
   250
370
    20
100
AcDbFaceRecord
 10
0.0
 20
0.0
 30
0.0
 70
   128
 71
   182
 72
   181
 73
   213
 74
   212
  0
VERTEX
  5
5BB
330
2FF
100
AcDbEntity
  8
ｴｸｽﾃﾘｱ商品
 62
   250
370
    20
100
AcDbFaceRecord
 10
0.0
 20
0.0
 30
0.0
 70
   128
 71
   181
 72
   180
 73
   214
 74
   213
  0
VERTEX
  5
5BC
330
2FF
100
AcDbEntity
  8
ｴｸｽﾃﾘｱ商品
 62
   250
370
    20
100
AcDbFaceRecord
 10
0.0
 20
0.0
 30
0.0
 70
   128
 71
   180
 72
   179
 73
   215
 74
   214
  0
VERTEX
  5
5BD
330
2FF
100
AcDbEntity
  8
ｴｸｽﾃﾘｱ商品
 62
   250
370
    20
100
AcDbFaceRecord
 10
0.0
 20
0.0
 30
0.0
 70
   128
 71
   179
 72
   178
 73
   216
 74
   215
  0
VERTEX
  5
5BE
330
2FF
100
AcDbEntity
  8
ｴｸｽﾃﾘｱ商品
 62
   250
370
    20
100
AcDbFaceRecord
 10
0.0
 20
0.0
 30
0.0
 70
   128
 71
   178
 72
   177
 73
   217
 74
   216
  0
VERTEX
  5
5BF
330
2FF
100
AcDbEntity
  8
ｴｸｽﾃﾘｱ商品
 62
   250
370
    20
100
AcDbFaceRecord
 10
0.0
 20
0.0
 30
0.0
 70
   128
 71
   177
 72
   176
 73
   218
 74
   217
  0
VERTEX
  5
5C0
330
2FF
100
AcDbEntity
  8
ｴｸｽﾃﾘｱ商品
 62
   250
370
    20
100
AcDbFaceRecord
 10
0.0
 20
0.0
 30
0.0
 70
   128
 71
   176
 72
   175
 73
   219
 74
   218
  0
VERTEX
  5
5C1
330
2FF
100
AcDbEntity
  8
ｴｸｽﾃﾘｱ商品
 62
   250
370
    20
100
AcDbFaceRecord
 10
0.0
 20
0.0
 30
0.0
 70
   128
 71
   175
 72
   174
 73
   220
 74
   219
  0
VERTEX
  5
5C2
330
2FF
100
AcDbEntity
  8
ｴｸｽﾃﾘｱ商品
 62
   250
370
    20
100
AcDbFaceRecord
 10
0.0
 20
0.0
 30
0.0
 70
   128
 71
   174
 72
   173
 73
   221
 74
   220
  0
VERTEX
  5
5C3
330
2FF
100
AcDbEntity
  8
ｴｸｽﾃﾘｱ商品
 62
   250
370
    20
100
AcDbFaceRecord
 10
0.0
 20
0.0
 30
0.0
 70
   128
 71
   173
 72
   172
 73
   222
 74
   221
  0
VERTEX
  5
5C4
330
2FF
100
AcDbEntity
  8
ｴｸｽﾃﾘｱ商品
 62
   250
370
    20
100
AcDbFaceRecord
 10
0.0
 20
0.0
 30
0.0
 70
   128
 71
   172
 72
   171
 73
   223
 74
   222
  0
VERTEX
  5
5C5
330
2FF
100
AcDbEntity
  8
ｴｸｽﾃﾘｱ商品
 62
   250
370
    20
100
AcDbFaceRecord
 10
0.0
 20
0.0
 30
0.0
 70
   128
 71
   171
 72
   170
 73
   224
 74
   223
  0
VERTEX
  5
5C6
330
2FF
100
AcDbEntity
  8
ｴｸｽﾃﾘｱ商品
 62
   250
370
    20
100
AcDbFaceRecord
 10
0.0
 20
0.0
 30
0.0
 70
   128
 71
   170
 72
   169
 73
   225
 74
   224
  0
VERTEX
  5
5C7
330
2FF
100
AcDbEntity
  8
ｴｸｽﾃﾘｱ商品
 62
   250
370
    20
100
AcDbFaceRecord
 10
0.0
 20
0.0
 30
0.0
 70
   128
 71
   169
 72
   168
 73
   226
 74
   225
  0
VERTEX
  5
5C8
330
2FF
100
AcDbEntity
  8
ｴｸｽﾃﾘｱ商品
 62
   250
370
    20
100
AcDbFaceRecord
 10
0.0
 20
0.0
 30
0.0
 70
   128
 71
   168
 72
   167
 73
   227
 74
   226
  0
VERTEX
  5
5C9
330
2FF
100
AcDbEntity
  8
ｴｸｽﾃﾘｱ商品
 62
   250
370
    20
100
AcDbFaceRecord
 10
0.0
 20
0.0
 30
0.0
 70
   128
 71
   167
 72
   166
 73
   228
 74
   227
  0
VERTEX
  5
5CA
330
2FF
100
AcDbEntity
  8
ｴｸｽﾃﾘｱ商品
 62
   250
370
    20
100
AcDbFaceRecord
 10
0.0
 20
0.0
 30
0.0
 70
   128
 71
   166
 72
   165
 73
   229
 74
   228
  0
VERTEX
  5
5CB
330
2FF
100
AcDbEntity
  8
ｴｸｽﾃﾘｱ商品
 62
   250
370
    20
100
AcDbFaceRecord
 10
0.0
 20
0.0
 30
0.0
 70
   128
 71
   165
 72
   164
 73
   230
 74
   229
  0
VERTEX
  5
5CC
330
2FF
100
AcDbEntity
  8
ｴｸｽﾃﾘｱ商品
 62
   250
370
    20
100
AcDbFaceRecord
 10
0.0
 20
0.0
 30
0.0
 70
   128
 71
   164
 72
   163
 73
   231
 74
   230
  0
VERTEX
  5
5CD
330
2FF
100
AcDbEntity
  8
ｴｸｽﾃﾘｱ商品
 62
   250
370
    20
100
AcDbFaceRecord
 10
0.0
 20
0.0
 30
0.0
 70
   128
 71
   163
 72
   162
 73
   232
 74
   231
  0
VERTEX
  5
5CE
330
2FF
100
AcDbEntity
  8
ｴｸｽﾃﾘｱ商品
 62
   250
370
    20
100
AcDbFaceRecord
 10
0.0
 20
0.0
 30
0.0
 70
   128
 71
   162
 72
   161
 73
   197
 74
   232
  0
VERTEX
  5
5CF
330
2FF
100
AcDbEntity
  8
ｴｸｽﾃﾘｱ商品
 62
   250
370
    20
100
AcDbFaceRecord
 10
0.0
 20
0.0
 30
0.0
 70
   128
 71
   233
 72
   234
 73
   235
 74
   236
  0
VERTEX
  5
5D0
330
2FF
100
AcDbEntity
  8
ｴｸｽﾃﾘｱ商品
 62
   250
370
    20
100
AcDbFaceRecord
 10
0.0
 20
0.0
 30
0.0
 70
   128
 71
   234
 72
   237
 73
   238
 74
   235
  0
VERTEX
  5
5D1
330
2FF
100
AcDbEntity
  8
ｴｸｽﾃﾘｱ商品
 62
   250
370
    20
100
AcDbFaceRecord
 10
0.0
 20
0.0
 30
0.0
 70
   128
 71
   237
 72
   239
 73
   240
 74
   238
  0
VERTEX
  5
5D2
330
2FF
100
AcDbEntity
  8
ｴｸｽﾃﾘｱ商品
 62
   250
370
    20
100
AcDbFaceRecord
 10
0.0
 20
0.0
 30
0.0
 70
   128
 71
   239
 72
   241
 73
   242
 74
   240
  0
VERTEX
  5
5D3
330
2FF
100
AcDbEntity
  8
ｴｸｽﾃﾘｱ商品
 62
   250
370
    20
100
AcDbFaceRecord
 10
0.0
 20
0.0
 30
0.0
 70
   128
 71
   241
 72
   243
 73
   244
 74
   242
  0
VERTEX
  5
5D4
330
2FF
100
AcDbEntity
  8
ｴｸｽﾃﾘｱ商品
 62
   250
370
    20
100
AcDbFaceRecord
 10
0.0
 20
0.0
 30
0.0
 70
   128
 71
   243
 72
   245
 73
   246
 74
   244
  0
VERTEX
  5
5D5
330
2FF
100
AcDbEntity
  8
ｴｸｽﾃﾘｱ商品
 62
   250
370
    20
100
AcDbFaceRecord
 10
0.0
 20
0.0
 30
0.0
 70
   128
 71
   245
 72
   247
 73
   248
 74
   246
  0
VERTEX
  5
5D6
330
2FF
100
AcDbEntity
  8
ｴｸｽﾃﾘｱ商品
 62
   250
370
    20
100
AcDbFaceRecord
 10
0.0
 20
0.0
 30
0.0
 70
   128
 71
   247
 72
   249
 73
   250
 74
   248
  0
VERTEX
  5
5D7
330
2FF
100
AcDbEntity
  8
ｴｸｽﾃﾘｱ商品
 62
   250
370
    20
100
AcDbFaceRecord
 10
0.0
 20
0.0
 30
0.0
 70
   128
 71
   249
 72
   251
 73
   252
 74
   250
  0
VERTEX
  5
5D8
330
2FF
100
AcDbEntity
  8
ｴｸｽﾃﾘｱ商品
 62
   250
370
    20
100
AcDbFaceRecord
 10
0.0
 20
0.0
 30
0.0
 70
   128
 71
   251
 72
   253
 73
   254
 74
   252
  0
VERTEX
  5
5D9
330
2FF
100
AcDbEntity
  8
ｴｸｽﾃﾘｱ商品
 62
   250
370
    20
100
AcDbFaceRecord
 10
0.0
 20
0.0
 30
0.0
 70
   128
 71
   253
 72
   255
 73
   256
 74
   254
  0
VERTEX
  5
5DA
330
2FF
100
AcDbEntity
  8
ｴｸｽﾃﾘｱ商品
 62
   250
370
    20
100
AcDbFaceRecord
 10
0.0
 20
0.0
 30
0.0
 70
   128
 71
   255
 72
   257
 73
   258
 74
   256
  0
VERTEX
  5
5DB
330
2FF
100
AcDbEntity
  8
ｴｸｽﾃﾘｱ商品
 62
   250
370
    20
100
AcDbFaceRecord
 10
0.0
 20
0.0
 30
0.0
 70
   128
 71
   257
 72
   259
 73
   260
 74
   258
  0
VERTEX
  5
5DC
330
2FF
100
AcDbEntity
  8
ｴｸｽﾃﾘｱ商品
 62
   250
370
    20
100
AcDbFaceRecord
 10
0.0
 20
0.0
 30
0.0
 70
   128
 71
   259
 72
   261
 73
   262
 74
   260
  0
VERTEX
  5
5DD
330
2FF
100
AcDbEntity
  8
ｴｸｽﾃﾘｱ商品
 62
   250
370
    20
100
AcDbFaceRecord
 10
0.0
 20
0.0
 30
0.0
 70
   128
 71
   261
 72
   263
 73
   264
 74
   262
  0
VERTEX
  5
5DE
330
2FF
100
AcDbEntity
  8
ｴｸｽﾃﾘｱ商品
 62
   250
370
    20
100
AcDbFaceRecord
 10
0.0
 20
0.0
 30
0.0
 70
   128
 71
   263
 72
   265
 73
   266
 74
   264
  0
VERTEX
  5
5DF
330
2FF
100
AcDbEntity
  8
ｴｸｽﾃﾘｱ商品
 62
   250
370
    20
100
AcDbFaceRecord
 10
0.0
 20
0.0
 30
0.0
 70
   128
 71
   265
 72
   267
 73
   268
 74
   266
  0
VERTEX
  5
5E0
330
2FF
100
AcDbEntity
  8
ｴｸｽﾃﾘｱ商品
 62
   250
370
    20
100
AcDbFaceRecord
 10
0.0
 20
0.0
 30
0.0
 70
   128
 71
   267
 72
   269
 73
   270
 74
   268
  0
VERTEX
  5
5E1
330
2FF
100
AcDbEntity
  8
ｴｸｽﾃﾘｱ商品
 62
   250
370
    20
100
AcDbFaceRecord
 10
0.0
 20
0.0
 30
0.0
 70
   128
 71
   269
 72
   271
 73
   272
 74
   270
  0
VERTEX
  5
5E2
330
2FF
100
AcDbEntity
  8
ｴｸｽﾃﾘｱ商品
 62
   250
370
    20
100
AcDbFaceRecord
 10
0.0
 20
0.0
 30
0.0
 70
   128
 71
   271
 72
   273
 73
   274
 74
   272
  0
VERTEX
  5
5E3
330
2FF
100
AcDbEntity
  8
ｴｸｽﾃﾘｱ商品
 62
   250
370
    20
100
AcDbFaceRecord
 10
0.0
 20
0.0
 30
0.0
 70
   128
 71
   273
 72
   275
 73
   276
 74
   274
  0
VERTEX
  5
5E4
330
2FF
100
AcDbEntity
  8
ｴｸｽﾃﾘｱ商品
 62
   250
370
    20
100
AcDbFaceRecord
 10
0.0
 20
0.0
 30
0.0
 70
   128
 71
   275
 72
   277
 73
   278
 74
   276
  0
VERTEX
  5
5E5
330
2FF
100
AcDbEntity
  8
ｴｸｽﾃﾘｱ商品
 62
   250
370
    20
100
AcDbFaceRecord
 10
0.0
 20
0.0
 30
0.0
 70
   128
 71
   277
 72
   279
 73
   280
 74
   278
  0
VERTEX
  5
5E6
330
2FF
100
AcDbEntity
  8
ｴｸｽﾃﾘｱ商品
 62
   250
370
    20
100
AcDbFaceRecord
 10
0.0
 20
0.0
 30
0.0
 70
   128
 71
   279
 72
   281
 73
   282
 74
   280
  0
VERTEX
  5
5E7
330
2FF
100
AcDbEntity
  8
ｴｸｽﾃﾘｱ商品
 62
   250
370
    20
100
AcDbFaceRecord
 10
0.0
 20
0.0
 30
0.0
 70
   128
 71
   281
 72
   283
 73
   284
 74
   282
  0
VERTEX
  5
5E8
330
2FF
100
AcDbEntity
  8
ｴｸｽﾃﾘｱ商品
 62
   250
370
    20
100
AcDbFaceRecord
 10
0.0
 20
0.0
 30
0.0
 70
   128
 71
   283
 72
   285
 73
   286
 74
   284
  0
VERTEX
  5
5E9
330
2FF
100
AcDbEntity
  8
ｴｸｽﾃﾘｱ商品
 62
   250
370
    20
100
AcDbFaceRecord
 10
0.0
 20
0.0
 30
0.0
 70
   128
 71
   285
 72
   287
 73
   288
 74
   286
  0
VERTEX
  5
5EA
330
2FF
100
AcDbEntity
  8
ｴｸｽﾃﾘｱ商品
 62
   250
370
    20
100
AcDbFaceRecord
 10
0.0
 20
0.0
 30
0.0
 70
   128
 71
   287
 72
   289
 73
   290
 74
   288
  0
VERTEX
  5
5EB
330
2FF
100
AcDbEntity
  8
ｴｸｽﾃﾘｱ商品
 62
   250
370
    20
100
AcDbFaceRecord
 10
0.0
 20
0.0
 30
0.0
 70
   128
 71
   289
 72
   291
 73
   292
 74
   290
  0
VERTEX
  5
5EC
330
2FF
100
AcDbEntity
  8
ｴｸｽﾃﾘｱ商品
 62
   250
370
    20
100
AcDbFaceRecord
 10
0.0
 20
0.0
 30
0.0
 70
   128
 71
   291
 72
   293
 73
   294
 74
   292
  0
VERTEX
  5
5ED
330
2FF
100
AcDbEntity
  8
ｴｸｽﾃﾘｱ商品
 62
   250
370
    20
100
AcDbFaceRecord
 10
0.0
 20
0.0
 30
0.0
 70
   128
 71
   293
 72
   295
 73
   296
 74
   294
  0
VERTEX
  5
5EE
330
2FF
100
AcDbEntity
  8
ｴｸｽﾃﾘｱ商品
 62
   250
370
    20
100
AcDbFaceRecord
 10
0.0
 20
0.0
 30
0.0
 70
   128
 71
   295
 72
   297
 73
   298
 74
   296
  0
VERTEX
  5
5EF
330
2FF
100
AcDbEntity
  8
ｴｸｽﾃﾘｱ商品
 62
   250
370
    20
100
AcDbFaceRecord
 10
0.0
 20
0.0
 30
0.0
 70
   128
 71
   297
 72
   299
 73
   300
 74
   298
  0
VERTEX
  5
5F0
330
2FF
100
AcDbEntity
  8
ｴｸｽﾃﾘｱ商品
 62
   250
370
    20
100
AcDbFaceRecord
 10
0.0
 20
0.0
 30
0.0
 70
   128
 71
   299
 72
   301
 73
   302
 74
   300
  0
VERTEX
  5
5F1
330
2FF
100
AcDbEntity
  8
ｴｸｽﾃﾘｱ商品
 62
   250
370
    20
100
AcDbFaceRecord
 10
0.0
 20
0.0
 30
0.0
 70
   128
 71
   301
 72
   303
 73
   304
 74
   302
  0
VERTEX
  5
5F2
330
2FF
100
AcDbEntity
  8
ｴｸｽﾃﾘｱ商品
 62
   250
370
    20
100
AcDbFaceRecord
 10
0.0
 20
0.0
 30
0.0
 70
   128
 71
   303
 72
   233
 73
   236
 74
   304
  0
VERTEX
  5
5F3
330
2FF
100
AcDbEntity
  8
ｴｸｽﾃﾘｱ商品
 62
   250
370
    20
100
AcDbFaceRecord
 10
0.0
 20
0.0
 30
0.0
 70
   128
 71
   233
 72
   303
 73
   301
 74
   299
  0
VERTEX
  5
5F4
330
2FF
100
AcDbEntity
  8
ｴｸｽﾃﾘｱ商品
 62
   250
370
    20
100
AcDbFaceRecord
 10
0.0
 20
0.0
 30
0.0
 70
   128
 71
   233
 72
   299
 73
   297
 74
   295
  0
VERTEX
  5
5F5
330
2FF
100
AcDbEntity
  8
ｴｸｽﾃﾘｱ商品
 62
   250
370
    20
100
AcDbFaceRecord
 10
0.0
 20
0.0
 30
0.0
 70
   128
 71
   233
 72
   295
 73
   293
 74
   291
  0
VERTEX
  5
5F6
330
2FF
100
AcDbEntity
  8
ｴｸｽﾃﾘｱ商品
 62
   250
370
    20
100
AcDbFaceRecord
 10
0.0
 20
0.0
 30
0.0
 70
   128
 71
   233
 72
   291
 73
   289
 74
   287
  0
VERTEX
  5
5F7
330
2FF
100
AcDbEntity
  8
ｴｸｽﾃﾘｱ商品
 62
   250
370
    20
100
AcDbFaceRecord
 10
0.0
 20
0.0
 30
0.0
 70
   128
 71
   233
 72
   287
 73
   285
 74
   283
  0
VERTEX
  5
5F8
330
2FF
100
AcDbEntity
  8
ｴｸｽﾃﾘｱ商品
 62
   250
370
    20
100
AcDbFaceRecord
 10
0.0
 20
0.0
 30
0.0
 70
   128
 71
   233
 72
   283
 73
   281
 74
   279
  0
VERTEX
  5
5F9
330
2FF
100
AcDbEntity
  8
ｴｸｽﾃﾘｱ商品
 62
   250
370
    20
100
AcDbFaceRecord
 10
0.0
 20
0.0
 30
0.0
 70
   128
 71
   233
 72
   279
 73
   277
 74
   275
  0
VERTEX
  5
5FA
330
2FF
100
AcDbEntity
  8
ｴｸｽﾃﾘｱ商品
 62
   250
370
    20
100
AcDbFaceRecord
 10
0.0
 20
0.0
 30
0.0
 70
   128
 71
   233
 72
   275
 73
   273
 74
   271
  0
VERTEX
  5
5FB
330
2FF
100
AcDbEntity
  8
ｴｸｽﾃﾘｱ商品
 62
   250
370
    20
100
AcDbFaceRecord
 10
0.0
 20
0.0
 30
0.0
 70
   128
 71
   233
 72
   271
 73
   269
 74
   267
  0
VERTEX
  5
5FC
330
2FF
100
AcDbEntity
  8
ｴｸｽﾃﾘｱ商品
 62
   250
370
    20
100
AcDbFaceRecord
 10
0.0
 20
0.0
 30
0.0
 70
   128
 71
   233
 72
   267
 73
   265
 74
   263
  0
VERTEX
  5
5FD
330
2FF
100
AcDbEntity
  8
ｴｸｽﾃﾘｱ商品
 62
   250
370
    20
100
AcDbFaceRecord
 10
0.0
 20
0.0
 30
0.0
 70
   128
 71
   233
 72
   263
 73
   261
 74
   259
  0
VERTEX
  5
5FE
330
2FF
100
AcDbEntity
  8
ｴｸｽﾃﾘｱ商品
 62
   250
370
    20
100
AcDbFaceRecord
 10
0.0
 20
0.0
 30
0.0
 70
   128
 71
   233
 72
   259
 73
   257
 74
   255
  0
VERTEX
  5
5FF
330
2FF
100
AcDbEntity
  8
ｴｸｽﾃﾘｱ商品
 62
   250
370
    20
100
AcDbFaceRecord
 10
0.0
 20
0.0
 30
0.0
 70
   128
 71
   233
 72
   255
 73
   253
 74
   251
  0
VERTEX
  5
600
330
2FF
100
AcDbEntity
  8
ｴｸｽﾃﾘｱ商品
 62
   250
370
    20
100
AcDbFaceRecord
 10
0.0
 20
0.0
 30
0.0
 70
   128
 71
   233
 72
   251
 73
   249
 74
   247
  0
VERTEX
  5
601
330
2FF
100
AcDbEntity
  8
ｴｸｽﾃﾘｱ商品
 62
   250
370
    20
100
AcDbFaceRecord
 10
0.0
 20
0.0
 30
0.0
 70
   128
 71
   233
 72
   247
 73
   245
 74
   243
  0
VERTEX
  5
602
330
2FF
100
AcDbEntity
  8
ｴｸｽﾃﾘｱ商品
 62
   250
370
    20
100
AcDbFaceRecord
 10
0.0
 20
0.0
 30
0.0
 70
   128
 71
   233
 72
   243
 73
   241
 74
   239
  0
VERTEX
  5
603
330
2FF
100
AcDbEntity
  8
ｴｸｽﾃﾘｱ商品
 62
   250
370
    20
100
AcDbFaceRecord
 10
0.0
 20
0.0
 30
0.0
 70
   128
 71
   233
 72
   239
 73
   237
 74
   234
  0
VERTEX
  5
604
330
2FF
100
AcDbEntity
  8
ｴｸｽﾃﾘｱ商品
 62
   250
370
    20
100
AcDbFaceRecord
 10
0.0
 20
0.0
 30
0.0
 70
   128
 71
   236
 72
   235
 73
   238
 74
   240
  0
VERTEX
  5
605
330
2FF
100
AcDbEntity
  8
ｴｸｽﾃﾘｱ商品
 62
   250
370
    20
100
AcDbFaceRecord
 10
0.0
 20
0.0
 30
0.0
 70
   128
 71
   236
 72
   240
 73
   242
 74
   244
  0
VERTEX
  5
606
330
2FF
100
AcDbEntity
  8
ｴｸｽﾃﾘｱ商品
 62
   250
370
    20
100
AcDbFaceRecord
 10
0.0
 20
0.0
 30
0.0
 70
   128
 71
   236
 72
   244
 73
   246
 74
   248
  0
VERTEX
  5
607
330
2FF
100
AcDbEntity
  8
ｴｸｽﾃﾘｱ商品
 62
   250
370
    20
100
AcDbFaceRecord
 10
0.0
 20
0.0
 30
0.0
 70
   128
 71
   236
 72
   248
 73
   250
 74
   252
  0
VERTEX
  5
608
330
2FF
100
AcDbEntity
  8
ｴｸｽﾃﾘｱ商品
 62
   250
370
    20
100
AcDbFaceRecord
 10
0.0
 20
0.0
 30
0.0
 70
   128
 71
   236
 72
   252
 73
   254
 74
   256
  0
VERTEX
  5
609
330
2FF
100
AcDbEntity
  8
ｴｸｽﾃﾘｱ商品
 62
   250
370
    20
100
AcDbFaceRecord
 10
0.0
 20
0.0
 30
0.0
 70
   128
 71
   236
 72
   256
 73
   258
 74
   260
  0
VERTEX
  5
60A
330
2FF
100
AcDbEntity
  8
ｴｸｽﾃﾘｱ商品
 62
   250
370
    20
100
AcDbFaceRecord
 10
0.0
 20
0.0
 30
0.0
 70
   128
 71
   236
 72
   260
 73
   262
 74
   264
  0
VERTEX
  5
60B
330
2FF
100
AcDbEntity
  8
ｴｸｽﾃﾘｱ商品
 62
   250
370
    20
100
AcDbFaceRecord
 10
0.0
 20
0.0
 30
0.0
 70
   128
 71
   236
 72
   264
 73
   266
 74
   268
  0
VERTEX
  5
60C
330
2FF
100
AcDbEntity
  8
ｴｸｽﾃﾘｱ商品
 62
   250
370
    20
100
AcDbFaceRecord
 10
0.0
 20
0.0
 30
0.0
 70
   128
 71
   236
 72
   268
 73
   270
 74
   272
  0
VERTEX
  5
60D
330
2FF
100
AcDbEntity
  8
ｴｸｽﾃﾘｱ商品
 62
   250
370
    20
100
AcDbFaceRecord
 10
0.0
 20
0.0
 30
0.0
 70
   128
 71
   236
 72
   272
 73
   274
 74
   276
  0
VERTEX
  5
60E
330
2FF
100
AcDbEntity
  8
ｴｸｽﾃﾘｱ商品
 62
   250
370
    20
100
AcDbFaceRecord
 10
0.0
 20
0.0
 30
0.0
 70
   128
 71
   236
 72
   276
 73
   278
 74
   280
  0
VERTEX
  5
60F
330
2FF
100
AcDbEntity
  8
ｴｸｽﾃﾘｱ商品
 62
   250
370
    20
100
AcDbFaceRecord
 10
0.0
 20
0.0
 30
0.0
 70
   128
 71
   236
 72
   280
 73
   282
 74
   284
  0
VERTEX
  5
610
330
2FF
100
AcDbEntity
  8
ｴｸｽﾃﾘｱ商品
 62
   250
370
    20
100
AcDbFaceRecord
 10
0.0
 20
0.0
 30
0.0
 70
   128
 71
   236
 72
   284
 73
   286
 74
   288
  0
VERTEX
  5
611
330
2FF
100
AcDbEntity
  8
ｴｸｽﾃﾘｱ商品
 62
   250
370
    20
100
AcDbFaceRecord
 10
0.0
 20
0.0
 30
0.0
 70
   128
 71
   236
 72
   288
 73
   290
 74
   292
  0
VERTEX
  5
612
330
2FF
100
AcDbEntity
  8
ｴｸｽﾃﾘｱ商品
 62
   250
370
    20
100
AcDbFaceRecord
 10
0.0
 20
0.0
 30
0.0
 70
   128
 71
   236
 72
   292
 73
   294
 74
   296
  0
VERTEX
  5
613
330
2FF
100
AcDbEntity
  8
ｴｸｽﾃﾘｱ商品
 62
   250
370
    20
100
AcDbFaceRecord
 10
0.0
 20
0.0
 30
0.0
 70
   128
 71
   236
 72
   296
 73
   298
 74
   300
  0
VERTEX
  5
614
330
2FF
100
AcDbEntity
  8
ｴｸｽﾃﾘｱ商品
 62
   250
370
    20
100
AcDbFaceRecord
 10
0.0
 20
0.0
 30
0.0
 70
   128
 71
   236
 72
   300
 73
   302
 74
   304
  0
VERTEX
  5
615
330
2FF
100
AcDbEntity
  8
ｴｸｽﾃﾘｱ商品
 62
   250
370
    20
100
AcDbFaceRecord
 10
0.0
 20
0.0
 30
0.0
 70
   128
 71
   305
 72
   306
 73
   307
 74
   308
  0
VERTEX
  5
616
330
2FF
100
AcDbEntity
  8
ｴｸｽﾃﾘｱ商品
 62
   250
370
    20
100
AcDbFaceRecord
 10
0.0
 20
0.0
 30
0.0
 70
   128
 71
   305
 72
   308
 73
   309
 74
   310
  0
VERTEX
  5
617
330
2FF
100
AcDbEntity
  8
ｴｸｽﾃﾘｱ商品
 62
   250
370
    20
100
AcDbFaceRecord
 10
0.0
 20
0.0
 30
0.0
 70
   128
 71
   305
 72
   310
 73
   311
 74
   312
  0
VERTEX
  5
618
330
2FF
100
AcDbEntity
  8
ｴｸｽﾃﾘｱ商品
 62
   250
370
    20
100
AcDbFaceRecord
 10
0.0
 20
0.0
 30
0.0
 70
   128
 71
   305
 72
   312
 73
   313
 74
   314
  0
VERTEX
  5
619
330
2FF
100
AcDbEntity
  8
ｴｸｽﾃﾘｱ商品
 62
   250
370
    20
100
AcDbFaceRecord
 10
0.0
 20
0.0
 30
0.0
 70
   128
 71
   305
 72
   314
 73
   315
 74
   316
  0
VERTEX
  5
61A
330
2FF
100
AcDbEntity
  8
ｴｸｽﾃﾘｱ商品
 62
   250
370
    20
100
AcDbFaceRecord
 10
0.0
 20
0.0
 30
0.0
 70
   128
 71
   305
 72
   316
 73
   317
 74
   318
  0
VERTEX
  5
61B
330
2FF
100
AcDbEntity
  8
ｴｸｽﾃﾘｱ商品
 62
   250
370
    20
100
AcDbFaceRecord
 10
0.0
 20
0.0
 30
0.0
 70
   128
 71
   305
 72
   318
 73
   319
 74
   320
  0
VERTEX
  5
61C
330
2FF
100
AcDbEntity
  8
ｴｸｽﾃﾘｱ商品
 62
   250
370
    20
100
AcDbFaceRecord
 10
0.0
 20
0.0
 30
0.0
 70
   128
 71
   305
 72
   320
 73
   321
 74
   322
  0
VERTEX
  5
61D
330
2FF
100
AcDbEntity
  8
ｴｸｽﾃﾘｱ商品
 62
   250
370
    20
100
AcDbFaceRecord
 10
0.0
 20
0.0
 30
0.0
 70
   128
 71
   305
 72
   322
 73
   323
 74
   324
  0
VERTEX
  5
61E
330
2FF
100
AcDbEntity
  8
ｴｸｽﾃﾘｱ商品
 62
   250
370
    20
100
AcDbFaceRecord
 10
0.0
 20
0.0
 30
0.0
 70
   128
 71
   305
 72
   324
 73
   325
 74
   326
  0
VERTEX
  5
61F
330
2FF
100
AcDbEntity
  8
ｴｸｽﾃﾘｱ商品
 62
   250
370
    20
100
AcDbFaceRecord
 10
0.0
 20
0.0
 30
0.0
 70
   128
 71
   305
 72
   326
 73
   327
 74
   328
  0
VERTEX
  5
620
330
2FF
100
AcDbEntity
  8
ｴｸｽﾃﾘｱ商品
 62
   250
370
    20
100
AcDbFaceRecord
 10
0.0
 20
0.0
 30
0.0
 70
   128
 71
   305
 72
   328
 73
   329
 74
   330
  0
VERTEX
  5
621
330
2FF
100
AcDbEntity
  8
ｴｸｽﾃﾘｱ商品
 62
   250
370
    20
100
AcDbFaceRecord
 10
0.0
 20
0.0
 30
0.0
 70
   128
 71
   305
 72
   330
 73
   331
 74
   332
  0
VERTEX
  5
622
330
2FF
100
AcDbEntity
  8
ｴｸｽﾃﾘｱ商品
 62
   250
370
    20
100
AcDbFaceRecord
 10
0.0
 20
0.0
 30
0.0
 70
   128
 71
   305
 72
   332
 73
   333
 74
   334
  0
VERTEX
  5
623
330
2FF
100
AcDbEntity
  8
ｴｸｽﾃﾘｱ商品
 62
   250
370
    20
100
AcDbFaceRecord
 10
0.0
 20
0.0
 30
0.0
 70
   128
 71
   305
 72
   334
 73
   335
 74
   336
  0
VERTEX
  5
624
330
2FF
100
AcDbEntity
  8
ｴｸｽﾃﾘｱ商品
 62
   250
370
    20
100
AcDbFaceRecord
 10
0.0
 20
0.0
 30
0.0
 70
   128
 71
   305
 72
   336
 73
   337
 74
   338
  0
VERTEX
  5
625
330
2FF
100
AcDbEntity
  8
ｴｸｽﾃﾘｱ商品
 62
   250
370
    20
100
AcDbFaceRecord
 10
0.0
 20
0.0
 30
0.0
 70
   128
 71
   305
 72
   338
 73
   339
 74
   340
  0
VERTEX
  5
626
330
2FF
100
AcDbEntity
  8
ｴｸｽﾃﾘｱ商品
 62
   250
370
    20
100
AcDbFaceRecord
 10
0.0
 20
0.0
 30
0.0
 70
   128
 71
   341
 72
   342
 73
   343
 74
   344
  0
VERTEX
  5
627
330
2FF
100
AcDbEntity
  8
ｴｸｽﾃﾘｱ商品
 62
   250
370
    20
100
AcDbFaceRecord
 10
0.0
 20
0.0
 30
0.0
 70
   128
 71
   341
 72
   344
 73
   345
 74
   346
  0
VERTEX
  5
628
330
2FF
100
AcDbEntity
  8
ｴｸｽﾃﾘｱ商品
 62
   250
370
    20
100
AcDbFaceRecord
 10
0.0
 20
0.0
 30
0.0
 70
   128
 71
   341
 72
   346
 73
   347
 74
   348
  0
VERTEX
  5
629
330
2FF
100
AcDbEntity
  8
ｴｸｽﾃﾘｱ商品
 62
   250
370
    20
100
AcDbFaceRecord
 10
0.0
 20
0.0
 30
0.0
 70
   128
 71
   341
 72
   348
 73
   349
 74
   350
  0
VERTEX
  5
62A
330
2FF
100
AcDbEntity
  8
ｴｸｽﾃﾘｱ商品
 62
   250
370
    20
100
AcDbFaceRecord
 10
0.0
 20
0.0
 30
0.0
 70
   128
 71
   341
 72
   350
 73
   351
 74
   352
  0
VERTEX
  5
62B
330
2FF
100
AcDbEntity
  8
ｴｸｽﾃﾘｱ商品
 62
   250
370
    20
100
AcDbFaceRecord
 10
0.0
 20
0.0
 30
0.0
 70
   128
 71
   341
 72
   352
 73
   353
 74
   354
  0
VERTEX
  5
62C
330
2FF
100
AcDbEntity
  8
ｴｸｽﾃﾘｱ商品
 62
   250
370
    20
100
AcDbFaceRecord
 10
0.0
 20
0.0
 30
0.0
 70
   128
 71
   341
 72
   354
 73
   355
 74
   356
  0
VERTEX
  5
62D
330
2FF
100
AcDbEntity
  8
ｴｸｽﾃﾘｱ商品
 62
   250
370
    20
100
AcDbFaceRecord
 10
0.0
 20
0.0
 30
0.0
 70
   128
 71
   341
 72
   356
 73
   357
 74
   358
  0
VERTEX
  5
62E
330
2FF
100
AcDbEntity
  8
ｴｸｽﾃﾘｱ商品
 62
   250
370
    20
100
AcDbFaceRecord
 10
0.0
 20
0.0
 30
0.0
 70
   128
 71
   341
 72
   358
 73
   359
 74
   360
  0
VERTEX
  5
62F
330
2FF
100
AcDbEntity
  8
ｴｸｽﾃﾘｱ商品
 62
   250
370
    20
100
AcDbFaceRecord
 10
0.0
 20
0.0
 30
0.0
 70
   128
 71
   341
 72
   360
 73
   361
 74
   362
  0
VERTEX
  5
630
330
2FF
100
AcDbEntity
  8
ｴｸｽﾃﾘｱ商品
 62
   250
370
    20
100
AcDbFaceRecord
 10
0.0
 20
0.0
 30
0.0
 70
   128
 71
   341
 72
   362
 73
   363
 74
   364
  0
VERTEX
  5
631
330
2FF
100
AcDbEntity
  8
ｴｸｽﾃﾘｱ商品
 62
   250
370
    20
100
AcDbFaceRecord
 10
0.0
 20
0.0
 30
0.0
 70
   128
 71
   341
 72
   364
 73
   365
 74
   366
  0
VERTEX
  5
632
330
2FF
100
AcDbEntity
  8
ｴｸｽﾃﾘｱ商品
 62
   250
370
    20
100
AcDbFaceRecord
 10
0.0
 20
0.0
 30
0.0
 70
   128
 71
   341
 72
   366
 73
   367
 74
   368
  0
VERTEX
  5
633
330
2FF
100
AcDbEntity
  8
ｴｸｽﾃﾘｱ商品
 62
   250
370
    20
100
AcDbFaceRecord
 10
0.0
 20
0.0
 30
0.0
 70
   128
 71
   341
 72
   368
 73
   369
 74
   370
  0
VERTEX
  5
634
330
2FF
100
AcDbEntity
  8
ｴｸｽﾃﾘｱ商品
 62
   250
370
    20
100
AcDbFaceRecord
 10
0.0
 20
0.0
 30
0.0
 70
   128
 71
   341
 72
   370
 73
   371
 74
   372
  0
VERTEX
  5
635
330
2FF
100
AcDbEntity
  8
ｴｸｽﾃﾘｱ商品
 62
   250
370
    20
100
AcDbFaceRecord
 10
0.0
 20
0.0
 30
0.0
 70
   128
 71
   341
 72
   372
 73
   373
 74
   374
  0
VERTEX
  5
636
330
2FF
100
AcDbEntity
  8
ｴｸｽﾃﾘｱ商品
 62
   250
370
    20
100
AcDbFaceRecord
 10
0.0
 20
0.0
 30
0.0
 70
   128
 71
   341
 72
   374
 73
   375
 74
   376
  0
VERTEX
  5
637
330
2FF
100
AcDbEntity
  8
ｴｸｽﾃﾘｱ商品
 62
   250
370
    20
100
AcDbFaceRecord
 10
0.0
 20
0.0
 30
0.0
 70
   128
 71
   305
 72
   341
 73
   376
 74
   306
  0
VERTEX
  5
638
330
2FF
100
AcDbEntity
  8
ｴｸｽﾃﾘｱ商品
 62
   250
370
    20
100
AcDbFaceRecord
 10
0.0
 20
0.0
 30
0.0
 70
   128
 71
   306
 72
   376
 73
   375
 74
   307
  0
VERTEX
  5
639
330
2FF
100
AcDbEntity
  8
ｴｸｽﾃﾘｱ商品
 62
   250
370
    20
100
AcDbFaceRecord
 10
0.0
 20
0.0
 30
0.0
 70
   128
 71
   307
 72
   375
 73
   374
 74
   308
  0
VERTEX
  5
63A
330
2FF
100
AcDbEntity
  8
ｴｸｽﾃﾘｱ商品
 62
   250
370
    20
100
AcDbFaceRecord
 10
0.0
 20
0.0
 30
0.0
 70
   128
 71
   308
 72
   374
 73
   373
 74
   309
  0
VERTEX
  5
63B
330
2FF
100
AcDbEntity
  8
ｴｸｽﾃﾘｱ商品
 62
   250
370
    20
100
AcDbFaceRecord
 10
0.0
 20
0.0
 30
0.0
 70
   128
 71
   309
 72
   373
 73
   372
 74
   310
  0
VERTEX
  5
63C
330
2FF
100
AcDbEntity
  8
ｴｸｽﾃﾘｱ商品
 62
   250
370
    20
100
AcDbFaceRecord
 10
0.0
 20
0.0
 30
0.0
 70
   128
 71
   310
 72
   372
 73
   371
 74
   311
  0
VERTEX
  5
63D
330
2FF
100
AcDbEntity
  8
ｴｸｽﾃﾘｱ商品
 62
   250
370
    20
100
AcDbFaceRecord
 10
0.0
 20
0.0
 30
0.0
 70
   128
 71
   311
 72
   371
 73
   370
 74
   312
  0
VERTEX
  5
63E
330
2FF
100
AcDbEntity
  8
ｴｸｽﾃﾘｱ商品
 62
   250
370
    20
100
AcDbFaceRecord
 10
0.0
 20
0.0
 30
0.0
 70
   128
 71
   312
 72
   370
 73
   369
 74
   313
  0
VERTEX
  5
63F
330
2FF
100
AcDbEntity
  8
ｴｸｽﾃﾘｱ商品
 62
   250
370
    20
100
AcDbFaceRecord
 10
0.0
 20
0.0
 30
0.0
 70
   128
 71
   313
 72
   369
 73
   368
 74
   314
  0
VERTEX
  5
640
330
2FF
100
AcDbEntity
  8
ｴｸｽﾃﾘｱ商品
 62
   250
370
    20
100
AcDbFaceRecord
 10
0.0
 20
0.0
 30
0.0
 70
   128
 71
   314
 72
   368
 73
   367
 74
   315
  0
VERTEX
  5
641
330
2FF
100
AcDbEntity
  8
ｴｸｽﾃﾘｱ商品
 62
   250
370
    20
100
AcDbFaceRecord
 10
0.0
 20
0.0
 30
0.0
 70
   128
 71
   315
 72
   367
 73
   366
 74
   316
  0
VERTEX
  5
642
330
2FF
100
AcDbEntity
  8
ｴｸｽﾃﾘｱ商品
 62
   250
370
    20
100
AcDbFaceRecord
 10
0.0
 20
0.0
 30
0.0
 70
   128
 71
   316
 72
   366
 73
   365
 74
   317
  0
VERTEX
  5
643
330
2FF
100
AcDbEntity
  8
ｴｸｽﾃﾘｱ商品
 62
   250
370
    20
100
AcDbFaceRecord
 10
0.0
 20
0.0
 30
0.0
 70
   128
 71
   317
 72
   365
 73
   364
 74
   318
  0
VERTEX
  5
644
330
2FF
100
AcDbEntity
  8
ｴｸｽﾃﾘｱ商品
 62
   250
370
    20
100
AcDbFaceRecord
 10
0.0
 20
0.0
 30
0.0
 70
   128
 71
   318
 72
   364
 73
   363
 74
   319
  0
VERTEX
  5
645
330
2FF
100
AcDbEntity
  8
ｴｸｽﾃﾘｱ商品
 62
   250
370
    20
100
AcDbFaceRecord
 10
0.0
 20
0.0
 30
0.0
 70
   128
 71
   319
 72
   363
 73
   362
 74
   320
  0
VERTEX
  5
646
330
2FF
100
AcDbEntity
  8
ｴｸｽﾃﾘｱ商品
 62
   250
370
    20
100
AcDbFaceRecord
 10
0.0
 20
0.0
 30
0.0
 70
   128
 71
   320
 72
   362
 73
   361
 74
   321
  0
VERTEX
  5
647
330
2FF
100
AcDbEntity
  8
ｴｸｽﾃﾘｱ商品
 62
   250
370
    20
100
AcDbFaceRecord
 10
0.0
 20
0.0
 30
0.0
 70
   128
 71
   321
 72
   361
 73
   360
 74
   322
  0
VERTEX
  5
648
330
2FF
100
AcDbEntity
  8
ｴｸｽﾃﾘｱ商品
 62
   250
370
    20
100
AcDbFaceRecord
 10
0.0
 20
0.0
 30
0.0
 70
   128
 71
   322
 72
   360
 73
   359
 74
   323
  0
VERTEX
  5
649
330
2FF
100
AcDbEntity
  8
ｴｸｽﾃﾘｱ商品
 62
   250
370
    20
100
AcDbFaceRecord
 10
0.0
 20
0.0
 30
0.0
 70
   128
 71
   323
 72
   359
 73
   358
 74
   324
  0
VERTEX
  5
64A
330
2FF
100
AcDbEntity
  8
ｴｸｽﾃﾘｱ商品
 62
   250
370
    20
100
AcDbFaceRecord
 10
0.0
 20
0.0
 30
0.0
 70
   128
 71
   324
 72
   358
 73
   357
 74
   325
  0
VERTEX
  5
64B
330
2FF
100
AcDbEntity
  8
ｴｸｽﾃﾘｱ商品
 62
   250
370
    20
100
AcDbFaceRecord
 10
0.0
 20
0.0
 30
0.0
 70
   128
 71
   325
 72
   357
 73
   356
 74
   326
  0
VERTEX
  5
64C
330
2FF
100
AcDbEntity
  8
ｴｸｽﾃﾘｱ商品
 62
   250
370
    20
100
AcDbFaceRecord
 10
0.0
 20
0.0
 30
0.0
 70
   128
 71
   326
 72
   356
 73
   355
 74
   327
  0
VERTEX
  5
64D
330
2FF
100
AcDbEntity
  8
ｴｸｽﾃﾘｱ商品
 62
   250
370
    20
100
AcDbFaceRecord
 10
0.0
 20
0.0
 30
0.0
 70
   128
 71
   327
 72
   355
 73
   354
 74
   328
  0
VERTEX
  5
64E
330
2FF
100
AcDbEntity
  8
ｴｸｽﾃﾘｱ商品
 62
   250
370
    20
100
AcDbFaceRecord
 10
0.0
 20
0.0
 30
0.0
 70
   128
 71
   328
 72
   354
 73
   353
 74
   329
  0
VERTEX
  5
64F
330
2FF
100
AcDbEntity
  8
ｴｸｽﾃﾘｱ商品
 62
   250
370
    20
100
AcDbFaceRecord
 10
0.0
 20
0.0
 30
0.0
 70
   128
 71
   329
 72
   353
 73
   352
 74
   330
  0
VERTEX
  5
650
330
2FF
100
AcDbEntity
  8
ｴｸｽﾃﾘｱ商品
 62
   250
370
    20
100
AcDbFaceRecord
 10
0.0
 20
0.0
 30
0.0
 70
   128
 71
   330
 72
   352
 73
   351
 74
   331
  0
VERTEX
  5
651
330
2FF
100
AcDbEntity
  8
ｴｸｽﾃﾘｱ商品
 62
   250
370
    20
100
AcDbFaceRecord
 10
0.0
 20
0.0
 30
0.0
 70
   128
 71
   331
 72
   351
 73
   350
 74
   332
  0
VERTEX
  5
652
330
2FF
100
AcDbEntity
  8
ｴｸｽﾃﾘｱ商品
 62
   250
370
    20
100
AcDbFaceRecord
 10
0.0
 20
0.0
 30
0.0
 70
   128
 71
   332
 72
   350
 73
   349
 74
   333
  0
VERTEX
  5
653
330
2FF
100
AcDbEntity
  8
ｴｸｽﾃﾘｱ商品
 62
   250
370
    20
100
AcDbFaceRecord
 10
0.0
 20
0.0
 30
0.0
 70
   128
 71
   333
 72
   349
 73
   348
 74
   334
  0
VERTEX
  5
654
330
2FF
100
AcDbEntity
  8
ｴｸｽﾃﾘｱ商品
 62
   250
370
    20
100
AcDbFaceRecord
 10
0.0
 20
0.0
 30
0.0
 70
   128
 71
   334
 72
   348
 73
   347
 74
   335
  0
VERTEX
  5
655
330
2FF
100
AcDbEntity
  8
ｴｸｽﾃﾘｱ商品
 62
   250
370
    20
100
AcDbFaceRecord
 10
0.0
 20
0.0
 30
0.0
 70
   128
 71
   335
 72
   347
 73
   346
 74
   336
  0
VERTEX
  5
656
330
2FF
100
AcDbEntity
  8
ｴｸｽﾃﾘｱ商品
 62
   250
370
    20
100
AcDbFaceRecord
 10
0.0
 20
0.0
 30
0.0
 70
   128
 71
   336
 72
   346
 73
   345
 74
   337
  0
VERTEX
  5
657
330
2FF
100
AcDbEntity
  8
ｴｸｽﾃﾘｱ商品
 62
   250
370
    20
100
AcDbFaceRecord
 10
0.0
 20
0.0
 30
0.0
 70
   128
 71
   337
 72
   345
 73
   344
 74
   338
  0
VERTEX
  5
658
330
2FF
100
AcDbEntity
  8
ｴｸｽﾃﾘｱ商品
 62
   250
370
    20
100
AcDbFaceRecord
 10
0.0
 20
0.0
 30
0.0
 70
   128
 71
   338
 72
   344
 73
   343
 74
   339
  0
VERTEX
  5
659
330
2FF
100
AcDbEntity
  8
ｴｸｽﾃﾘｱ商品
 62
   250
370
    20
100
AcDbFaceRecord
 10
0.0
 20
0.0
 30
0.0
 70
   128
 71
   339
 72
   343
 73
   342
 74
   340
  0
VERTEX
  5
65A
330
2FF
100
AcDbEntity
  8
ｴｸｽﾃﾘｱ商品
 62
   250
370
    20
100
AcDbFaceRecord
 10
0.0
 20
0.0
 30
0.0
 70
   128
 71
   340
 72
   342
 73
   341
 74
   305
  0
VERTEX
  5
65B
330
2FF
100
AcDbEntity
  8
ｴｸｽﾃﾘｱ商品
 62
   250
370
    20
100
AcDbFaceRecord
 10
0.0
 20
0.0
 30
0.0
 70
   128
 71
   377
 72
   378
 73
   379
 74
   380
  0
VERTEX
  5
65C
330
2FF
100
AcDbEntity
  8
ｴｸｽﾃﾘｱ商品
 62
   250
370
    20
100
AcDbFaceRecord
 10
0.0
 20
0.0
 30
0.0
 70
   128
 71
   378
 72
   381
 73
   382
 74
   379
  0
VERTEX
  5
65D
330
2FF
100
AcDbEntity
  8
ｴｸｽﾃﾘｱ商品
 62
   250
370
    20
100
AcDbFaceRecord
 10
0.0
 20
0.0
 30
0.0
 70
   128
 71
   381
 72
   383
 73
   384
 74
   382
  0
VERTEX
  5
65E
330
2FF
100
AcDbEntity
  8
ｴｸｽﾃﾘｱ商品
 62
   250
370
    20
100
AcDbFaceRecord
 10
0.0
 20
0.0
 30
0.0
 70
   128
 71
   383
 72
   385
 73
   386
 74
   384
  0
VERTEX
  5
65F
330
2FF
100
AcDbEntity
  8
ｴｸｽﾃﾘｱ商品
 62
   250
370
    20
100
AcDbFaceRecord
 10
0.0
 20
0.0
 30
0.0
 70
   128
 71
   385
 72
   387
 73
   388
 74
   386
  0
VERTEX
  5
660
330
2FF
100
AcDbEntity
  8
ｴｸｽﾃﾘｱ商品
 62
   250
370
    20
100
AcDbFaceRecord
 10
0.0
 20
0.0
 30
0.0
 70
   128
 71
   387
 72
   389
 73
   390
 74
   388
  0
VERTEX
  5
661
330
2FF
100
AcDbEntity
  8
ｴｸｽﾃﾘｱ商品
 62
   250
370
    20
100
AcDbFaceRecord
 10
0.0
 20
0.0
 30
0.0
 70
   128
 71
   389
 72
   391
 73
   392
 74
   390
  0
VERTEX
  5
662
330
2FF
100
AcDbEntity
  8
ｴｸｽﾃﾘｱ商品
 62
   250
370
    20
100
AcDbFaceRecord
 10
0.0
 20
0.0
 30
0.0
 70
   128
 71
   391
 72
   393
 73
   394
 74
   392
  0
VERTEX
  5
663
330
2FF
100
AcDbEntity
  8
ｴｸｽﾃﾘｱ商品
 62
   250
370
    20
100
AcDbFaceRecord
 10
0.0
 20
0.0
 30
0.0
 70
   128
 71
   393
 72
   395
 73
   396
 74
   394
  0
VERTEX
  5
664
330
2FF
100
AcDbEntity
  8
ｴｸｽﾃﾘｱ商品
 62
   250
370
    20
100
AcDbFaceRecord
 10
0.0
 20
0.0
 30
0.0
 70
   128
 71
   395
 72
   397
 73
   398
 74
   396
  0
VERTEX
  5
665
330
2FF
100
AcDbEntity
  8
ｴｸｽﾃﾘｱ商品
 62
   250
370
    20
100
AcDbFaceRecord
 10
0.0
 20
0.0
 30
0.0
 70
   128
 71
   397
 72
   399
 73
   400
 74
   398
  0
VERTEX
  5
666
330
2FF
100
AcDbEntity
  8
ｴｸｽﾃﾘｱ商品
 62
   250
370
    20
100
AcDbFaceRecord
 10
0.0
 20
0.0
 30
0.0
 70
   128
 71
   399
 72
   377
 73
   380
 74
   400
  0
VERTEX
  5
667
330
2FF
100
AcDbEntity
  8
ｴｸｽﾃﾘｱ商品
 62
   250
370
    20
100
AcDbFaceRecord
 10
0.0
 20
0.0
 30
0.0
 70
   128
 71
   395
 72
   393
 73
   391
  0
VERTEX
  5
668
330
2FF
100
AcDbEntity
  8
ｴｸｽﾃﾘｱ商品
 62
   250
370
    20
100
AcDbFaceRecord
 10
0.0
 20
0.0
 30
0.0
 70
   128
 71
   397
 72
   395
 73
   391
  0
VERTEX
  5
669
330
2FF
100
AcDbEntity
  8
ｴｸｽﾃﾘｱ商品
 62
   250
370
    20
100
AcDbFaceRecord
 10
0.0
 20
0.0
 30
0.0
 70
   128
 71
   399
 72
   397
 73
   391
  0
VERTEX
  5
66A
330
2FF
100
AcDbEntity
  8
ｴｸｽﾃﾘｱ商品
 62
   250
370
    20
100
AcDbFaceRecord
 10
0.0
 20
0.0
 30
0.0
 70
   128
 71
   378
 72
   377
 73
   399
  0
VERTEX
  5
66B
330
2FF
100
AcDbEntity
  8
ｴｸｽﾃﾘｱ商品
 62
   250
370
    20
100
AcDbFaceRecord
 10
0.0
 20
0.0
 30
0.0
 70
   128
 71
   378
 72
   399
 73
   391
  0
VERTEX
  5
66C
330
2FF
100
AcDbEntity
  8
ｴｸｽﾃﾘｱ商品
 62
   250
370
    20
100
AcDbFaceRecord
 10
0.0
 20
0.0
 30
0.0
 70
   128
 71
   378
 72
   391
 73
   389
  0
VERTEX
  5
66D
330
2FF
100
AcDbEntity
  8
ｴｸｽﾃﾘｱ商品
 62
   250
370
    20
100
AcDbFaceRecord
 10
0.0
 20
0.0
 30
0.0
 70
   128
 71
   381
 72
   378
 73
   389
  0
VERTEX
  5
66E
330
2FF
100
AcDbEntity
  8
ｴｸｽﾃﾘｱ商品
 62
   250
370
    20
100
AcDbFaceRecord
 10
0.0
 20
0.0
 30
0.0
 70
   128
 71
   383
 72
   381
 73
   389
  0
VERTEX
  5
66F
330
2FF
100
AcDbEntity
  8
ｴｸｽﾃﾘｱ商品
 62
   250
370
    20
100
AcDbFaceRecord
 10
0.0
 20
0.0
 30
0.0
 70
   128
 71
   385
 72
   383
 73
   389
  0
VERTEX
  5
670
330
2FF
100
AcDbEntity
  8
ｴｸｽﾃﾘｱ商品
 62
   250
370
    20
100
AcDbFaceRecord
 10
0.0
 20
0.0
 30
0.0
 70
   128
 71
   387
 72
   385
 73
   389
  0
VERTEX
  5
671
330
2FF
100
AcDbEntity
  8
ｴｸｽﾃﾘｱ商品
 62
   250
370
    20
100
AcDbFaceRecord
 10
0.0
 20
0.0
 30
0.0
 70
   128
 71
   392
 72
   394
 73
   396
  0
VERTEX
  5
672
330
2FF
100
AcDbEntity
  8
ｴｸｽﾃﾘｱ商品
 62
   250
370
    20
100
AcDbFaceRecord
 10
0.0
 20
0.0
 30
0.0
 70
   128
 71
   392
 72
   396
 73
   398
  0
VERTEX
  5
673
330
2FF
100
AcDbEntity
  8
ｴｸｽﾃﾘｱ商品
 62
   250
370
    20
100
AcDbFaceRecord
 10
0.0
 20
0.0
 30
0.0
 70
   128
 71
   392
 72
   398
 73
   400
  0
VERTEX
  5
674
330
2FF
100
AcDbEntity
  8
ｴｸｽﾃﾘｱ商品
 62
   250
370
    20
100
AcDbFaceRecord
 10
0.0
 20
0.0
 30
0.0
 70
   128
 71
   400
 72
   380
 73
   379
  0
VERTEX
  5
675
330
2FF
100
AcDbEntity
  8
ｴｸｽﾃﾘｱ商品
 62
   250
370
    20
100
AcDbFaceRecord
 10
0.0
 20
0.0
 30
0.0
 70
   128
 71
   392
 72
   400
 73
   379
  0
VERTEX
  5
676
330
2FF
100
AcDbEntity
  8
ｴｸｽﾃﾘｱ商品
 62
   250
370
    20
100
AcDbFaceRecord
 10
0.0
 20
0.0
 30
0.0
 70
   128
 71
   390
 72
   392
 73
   379
  0
VERTEX
  5
677
330
2FF
100
AcDbEntity
  8
ｴｸｽﾃﾘｱ商品
 62
   250
370
    20
100
AcDbFaceRecord
 10
0.0
 20
0.0
 30
0.0
 70
   128
 71
   390
 72
   379
 73
   382
  0
VERTEX
  5
678
330
2FF
100
AcDbEntity
  8
ｴｸｽﾃﾘｱ商品
 62
   250
370
    20
100
AcDbFaceRecord
 10
0.0
 20
0.0
 30
0.0
 70
   128
 71
   390
 72
   382
 73
   384
  0
VERTEX
  5
679
330
2FF
100
AcDbEntity
  8
ｴｸｽﾃﾘｱ商品
 62
   250
370
    20
100
AcDbFaceRecord
 10
0.0
 20
0.0
 30
0.0
 70
   128
 71
   390
 72
   384
 73
   386
  0
VERTEX
  5
67A
330
2FF
100
AcDbEntity
  8
ｴｸｽﾃﾘｱ商品
 62
   250
370
    20
100
AcDbFaceRecord
 10
0.0
 20
0.0
 30
0.0
 70
   128
 71
   388
 72
   390
 73
   386
  0
VERTEX
  5
67B
330
2FF
100
AcDbEntity
  8
ｴｸｽﾃﾘｱ商品
 62
   250
370
    20
100
AcDbFaceRecord
 10
0.0
 20
0.0
 30
0.0
 70
   128
 71
   401
 72
   402
 73
   403
 74
   404
  0
VERTEX
  5
67C
330
2FF
100
AcDbEntity
  8
ｴｸｽﾃﾘｱ商品
 62
   250
370
    20
100
AcDbFaceRecord
 10
0.0
 20
0.0
 30
0.0
 70
   128
 71
   401
 72
   404
 73
   405
 74
   406
  0
VERTEX
  5
67D
330
2FF
100
AcDbEntity
  8
ｴｸｽﾃﾘｱ商品
 62
   250
370
    20
100
AcDbFaceRecord
 10
0.0
 20
0.0
 30
0.0
 70
   128
 71
   401
 72
   406
 73
   407
 74
   408
  0
VERTEX
  5
67E
330
2FF
100
AcDbEntity
  8
ｴｸｽﾃﾘｱ商品
 62
   250
370
    20
100
AcDbFaceRecord
 10
0.0
 20
0.0
 30
0.0
 70
   128
 71
   401
 72
   408
 73
   409
 74
   410
  0
VERTEX
  5
67F
330
2FF
100
AcDbEntity
  8
ｴｸｽﾃﾘｱ商品
 62
   250
370
    20
100
AcDbFaceRecord
 10
0.0
 20
0.0
 30
0.0
 70
   128
 71
   401
 72
   410
 73
   411
 74
   412
  0
VERTEX
  5
680
330
2FF
100
AcDbEntity
  8
ｴｸｽﾃﾘｱ商品
 62
   250
370
    20
100
AcDbFaceRecord
 10
0.0
 20
0.0
 30
0.0
 70
   128
 71
   401
 72
   412
 73
   413
 74
   414
  0
VERTEX
  5
681
330
2FF
100
AcDbEntity
  8
ｴｸｽﾃﾘｱ商品
 62
   250
370
    20
100
AcDbFaceRecord
 10
0.0
 20
0.0
 30
0.0
 70
   128
 71
   401
 72
   414
 73
   415
 74
   416
  0
VERTEX
  5
682
330
2FF
100
AcDbEntity
  8
ｴｸｽﾃﾘｱ商品
 62
   250
370
    20
100
AcDbFaceRecord
 10
0.0
 20
0.0
 30
0.0
 70
   128
 71
   401
 72
   416
 73
   417
 74
   418
  0
VERTEX
  5
683
330
2FF
100
AcDbEntity
  8
ｴｸｽﾃﾘｱ商品
 62
   250
370
    20
100
AcDbFaceRecord
 10
0.0
 20
0.0
 30
0.0
 70
   128
 71
   401
 72
   418
 73
   419
 74
   420
  0
VERTEX
  5
684
330
2FF
100
AcDbEntity
  8
ｴｸｽﾃﾘｱ商品
 62
   250
370
    20
100
AcDbFaceRecord
 10
0.0
 20
0.0
 30
0.0
 70
   128
 71
   401
 72
   420
 73
   421
 74
   422
  0
VERTEX
  5
685
330
2FF
100
AcDbEntity
  8
ｴｸｽﾃﾘｱ商品
 62
   250
370
    20
100
AcDbFaceRecord
 10
0.0
 20
0.0
 30
0.0
 70
   128
 71
   401
 72
   422
 73
   423
 74
   424
  0
VERTEX
  5
686
330
2FF
100
AcDbEntity
  8
ｴｸｽﾃﾘｱ商品
 62
   250
370
    20
100
AcDbFaceRecord
 10
0.0
 20
0.0
 30
0.0
 70
   128
 71
   401
 72
   424
 73
   425
 74
   426
  0
VERTEX
  5
687
330
2FF
100
AcDbEntity
  8
ｴｸｽﾃﾘｱ商品
 62
   250
370
    20
100
AcDbFaceRecord
 10
0.0
 20
0.0
 30
0.0
 70
   128
 71
   401
 72
   426
 73
   427
 74
   428
  0
VERTEX
  5
688
330
2FF
100
AcDbEntity
  8
ｴｸｽﾃﾘｱ商品
 62
   250
370
    20
100
AcDbFaceRecord
 10
0.0
 20
0.0
 30
0.0
 70
   128
 71
   401
 72
   428
 73
   429
 74
   430
  0
VERTEX
  5
689
330
2FF
100
AcDbEntity
  8
ｴｸｽﾃﾘｱ商品
 62
   250
370
    20
100
AcDbFaceRecord
 10
0.0
 20
0.0
 30
0.0
 70
   128
 71
   401
 72
   430
 73
   431
 74
   432
  0
VERTEX
  5
68A
330
2FF
100
AcDbEntity
  8
ｴｸｽﾃﾘｱ商品
 62
   250
370
    20
100
AcDbFaceRecord
 10
0.0
 20
0.0
 30
0.0
 70
   128
 71
   401
 72
   432
 73
   433
 74
   434
  0
VERTEX
  5
68B
330
2FF
100
AcDbEntity
  8
ｴｸｽﾃﾘｱ商品
 62
   250
370
    20
100
AcDbFaceRecord
 10
0.0
 20
0.0
 30
0.0
 70
   128
 71
   401
 72
   434
 73
   435
 74
   436
  0
VERTEX
  5
68C
330
2FF
100
AcDbEntity
  8
ｴｸｽﾃﾘｱ商品
 62
   250
370
    20
100
AcDbFaceRecord
 10
0.0
 20
0.0
 30
0.0
 70
   128
 71
   437
 72
   438
 73
   439
 74
   440
  0
VERTEX
  5
68D
330
2FF
100
AcDbEntity
  8
ｴｸｽﾃﾘｱ商品
 62
   250
370
    20
100
AcDbFaceRecord
 10
0.0
 20
0.0
 30
0.0
 70
   128
 71
   437
 72
   440
 73
   441
 74
   442
  0
VERTEX
  5
68E
330
2FF
100
AcDbEntity
  8
ｴｸｽﾃﾘｱ商品
 62
   250
370
    20
100
AcDbFaceRecord
 10
0.0
 20
0.0
 30
0.0
 70
   128
 71
   437
 72
   442
 73
   443
 74
   444
  0
VERTEX
  5
68F
330
2FF
100
AcDbEntity
  8
ｴｸｽﾃﾘｱ商品
 62
   250
370
    20
100
AcDbFaceRecord
 10
0.0
 20
0.0
 30
0.0
 70
   128
 71
   437
 72
   444
 73
   445
 74
   446
  0
VERTEX
  5
690
330
2FF
100
AcDbEntity
  8
ｴｸｽﾃﾘｱ商品
 62
   250
370
    20
100
AcDbFaceRecord
 10
0.0
 20
0.0
 30
0.0
 70
   128
 71
   437
 72
   446
 73
   447
 74
   448
  0
VERTEX
  5
691
330
2FF
100
AcDbEntity
  8
ｴｸｽﾃﾘｱ商品
 62
   250
370
    20
100
AcDbFaceRecord
 10
0.0
 20
0.0
 30
0.0
 70
   128
 71
   437
 72
   448
 73
   449
 74
   450
  0
VERTEX
  5
692
330
2FF
100
AcDbEntity
  8
ｴｸｽﾃﾘｱ商品
 62
   250
370
    20
100
AcDbFaceRecord
 10
0.0
 20
0.0
 30
0.0
 70
   128
 71
   437
 72
   450
 73
   451
 74
   452
  0
VERTEX
  5
693
330
2FF
100
AcDbEntity
  8
ｴｸｽﾃﾘｱ商品
 62
   250
370
    20
100
AcDbFaceRecord
 10
0.0
 20
0.0
 30
0.0
 70
   128
 71
   437
 72
   452
 73
   453
 74
   454
  0
VERTEX
  5
694
330
2FF
100
AcDbEntity
  8
ｴｸｽﾃﾘｱ商品
 62
   250
370
    20
100
AcDbFaceRecord
 10
0.0
 20
0.0
 30
0.0
 70
   128
 71
   437
 72
   454
 73
   455
 74
   456
  0
VERTEX
  5
695
330
2FF
100
AcDbEntity
  8
ｴｸｽﾃﾘｱ商品
 62
   250
370
    20
100
AcDbFaceRecord
 10
0.0
 20
0.0
 30
0.0
 70
   128
 71
   437
 72
   456
 73
   457
 74
   458
  0
VERTEX
  5
696
330
2FF
100
AcDbEntity
  8
ｴｸｽﾃﾘｱ商品
 62
   250
370
    20
100
AcDbFaceRecord
 10
0.0
 20
0.0
 30
0.0
 70
   128
 71
   437
 72
   458
 73
   459
 74
   460
  0
VERTEX
  5
697
330
2FF
100
AcDbEntity
  8
ｴｸｽﾃﾘｱ商品
 62
   250
370
    20
100
AcDbFaceRecord
 10
0.0
 20
0.0
 30
0.0
 70
   128
 71
   437
 72
   460
 73
   461
 74
   462
  0
VERTEX
  5
698
330
2FF
100
AcDbEntity
  8
ｴｸｽﾃﾘｱ商品
 62
   250
370
    20
100
AcDbFaceRecord
 10
0.0
 20
0.0
 30
0.0
 70
   128
 71
   437
 72
   462
 73
   463
 74
   464
  0
VERTEX
  5
699
330
2FF
100
AcDbEntity
  8
ｴｸｽﾃﾘｱ商品
 62
   250
370
    20
100
AcDbFaceRecord
 10
0.0
 20
0.0
 30
0.0
 70
   128
 71
   437
 72
   464
 73
   465
 74
   466
  0
VERTEX
  5
69A
330
2FF
100
AcDbEntity
  8
ｴｸｽﾃﾘｱ商品
 62
   250
370
    20
100
AcDbFaceRecord
 10
0.0
 20
0.0
 30
0.0
 70
   128
 71
   437
 72
   466
 73
   467
 74
   468
  0
VERTEX
  5
69B
330
2FF
100
AcDbEntity
  8
ｴｸｽﾃﾘｱ商品
 62
   250
370
    20
100
AcDbFaceRecord
 10
0.0
 20
0.0
 30
0.0
 70
   128
 71
   437
 72
   468
 73
   469
 74
   470
  0
VERTEX
  5
69C
330
2FF
100
AcDbEntity
  8
ｴｸｽﾃﾘｱ商品
 62
   250
370
    20
100
AcDbFaceRecord
 10
0.0
 20
0.0
 30
0.0
 70
   128
 71
   437
 72
   470
 73
   471
 74
   472
  0
VERTEX
  5
69D
330
2FF
100
AcDbEntity
  8
ｴｸｽﾃﾘｱ商品
 62
   250
370
    20
100
AcDbFaceRecord
 10
0.0
 20
0.0
 30
0.0
 70
   128
 71
   401
 72
   437
 73
   472
 74
   402
  0
VERTEX
  5
69E
330
2FF
100
AcDbEntity
  8
ｴｸｽﾃﾘｱ商品
 62
   250
370
    20
100
AcDbFaceRecord
 10
0.0
 20
0.0
 30
0.0
 70
   128
 71
   402
 72
   472
 73
   471
 74
   403
  0
VERTEX
  5
69F
330
2FF
100
AcDbEntity
  8
ｴｸｽﾃﾘｱ商品
 62
   250
370
    20
100
AcDbFaceRecord
 10
0.0
 20
0.0
 30
0.0
 70
   128
 71
   403
 72
   471
 73
   470
 74
   404
  0
VERTEX
  5
6A0
330
2FF
100
AcDbEntity
  8
ｴｸｽﾃﾘｱ商品
 62
   250
370
    20
100
AcDbFaceRecord
 10
0.0
 20
0.0
 30
0.0
 70
   128
 71
   404
 72
   470
 73
   469
 74
   405
  0
VERTEX
  5
6A1
330
2FF
100
AcDbEntity
  8
ｴｸｽﾃﾘｱ商品
 62
   250
370
    20
100
AcDbFaceRecord
 10
0.0
 20
0.0
 30
0.0
 70
   128
 71
   405
 72
   469
 73
   468
 74
   406
  0
VERTEX
  5
6A2
330
2FF
100
AcDbEntity
  8
ｴｸｽﾃﾘｱ商品
 62
   250
370
    20
100
AcDbFaceRecord
 10
0.0
 20
0.0
 30
0.0
 70
   128
 71
   406
 72
   468
 73
   467
 74
   407
  0
VERTEX
  5
6A3
330
2FF
100
AcDbEntity
  8
ｴｸｽﾃﾘｱ商品
 62
   250
370
    20
100
AcDbFaceRecord
 10
0.0
 20
0.0
 30
0.0
 70
   128
 71
   407
 72
   467
 73
   466
 74
   408
  0
VERTEX
  5
6A4
330
2FF
100
AcDbEntity
  8
ｴｸｽﾃﾘｱ商品
 62
   250
370
    20
100
AcDbFaceRecord
 10
0.0
 20
0.0
 30
0.0
 70
   128
 71
   408
 72
   466
 73
   465
 74
   409
  0
VERTEX
  5
6A5
330
2FF
100
AcDbEntity
  8
ｴｸｽﾃﾘｱ商品
 62
   250
370
    20
100
AcDbFaceRecord
 10
0.0
 20
0.0
 30
0.0
 70
   128
 71
   409
 72
   465
 73
   464
 74
   410
  0
VERTEX
  5
6A6
330
2FF
100
AcDbEntity
  8
ｴｸｽﾃﾘｱ商品
 62
   250
370
    20
100
AcDbFaceRecord
 10
0.0
 20
0.0
 30
0.0
 70
   128
 71
   410
 72
   464
 73
   463
 74
   411
  0
VERTEX
  5
6A7
330
2FF
100
AcDbEntity
  8
ｴｸｽﾃﾘｱ商品
 62
   250
370
    20
100
AcDbFaceRecord
 10
0.0
 20
0.0
 30
0.0
 70
   128
 71
   411
 72
   463
 73
   462
 74
   412
  0
VERTEX
  5
6A8
330
2FF
100
AcDbEntity
  8
ｴｸｽﾃﾘｱ商品
 62
   250
370
    20
100
AcDbFaceRecord
 10
0.0
 20
0.0
 30
0.0
 70
   128
 71
   412
 72
   462
 73
   461
 74
   413
  0
VERTEX
  5
6A9
330
2FF
100
AcDbEntity
  8
ｴｸｽﾃﾘｱ商品
 62
   250
370
    20
100
AcDbFaceRecord
 10
0.0
 20
0.0
 30
0.0
 70
   128
 71
   413
 72
   461
 73
   460
 74
   414
  0
VERTEX
  5
6AA
330
2FF
100
AcDbEntity
  8
ｴｸｽﾃﾘｱ商品
 62
   250
370
    20
100
AcDbFaceRecord
 10
0.0
 20
0.0
 30
0.0
 70
   128
 71
   414
 72
   460
 73
   459
 74
   415
  0
VERTEX
  5
6AB
330
2FF
100
AcDbEntity
  8
ｴｸｽﾃﾘｱ商品
 62
   250
370
    20
100
AcDbFaceRecord
 10
0.0
 20
0.0
 30
0.0
 70
   128
 71
   415
 72
   459
 73
   458
 74
   416
  0
VERTEX
  5
6AC
330
2FF
100
AcDbEntity
  8
ｴｸｽﾃﾘｱ商品
 62
   250
370
    20
100
AcDbFaceRecord
 10
0.0
 20
0.0
 30
0.0
 70
   128
 71
   416
 72
   458
 73
   457
 74
   417
  0
VERTEX
  5
6AD
330
2FF
100
AcDbEntity
  8
ｴｸｽﾃﾘｱ商品
 62
   250
370
    20
100
AcDbFaceRecord
 10
0.0
 20
0.0
 30
0.0
 70
   128
 71
   417
 72
   457
 73
   456
 74
   418
  0
VERTEX
  5
6AE
330
2FF
100
AcDbEntity
  8
ｴｸｽﾃﾘｱ商品
 62
   250
370
    20
100
AcDbFaceRecord
 10
0.0
 20
0.0
 30
0.0
 70
   128
 71
   418
 72
   456
 73
   455
 74
   419
  0
VERTEX
  5
6AF
330
2FF
100
AcDbEntity
  8
ｴｸｽﾃﾘｱ商品
 62
   250
370
    20
100
AcDbFaceRecord
 10
0.0
 20
0.0
 30
0.0
 70
   128
 71
   419
 72
   455
 73
   454
 74
   420
  0
VERTEX
  5
6B0
330
2FF
100
AcDbEntity
  8
ｴｸｽﾃﾘｱ商品
 62
   250
370
    20
100
AcDbFaceRecord
 10
0.0
 20
0.0
 30
0.0
 70
   128
 71
   420
 72
   454
 73
   453
 74
   421
  0
VERTEX
  5
6B1
330
2FF
100
AcDbEntity
  8
ｴｸｽﾃﾘｱ商品
 62
   250
370
    20
100
AcDbFaceRecord
 10
0.0
 20
0.0
 30
0.0
 70
   128
 71
   421
 72
   453
 73
   452
 74
   422
  0
VERTEX
  5
6B2
330
2FF
100
AcDbEntity
  8
ｴｸｽﾃﾘｱ商品
 62
   250
370
    20
100
AcDbFaceRecord
 10
0.0
 20
0.0
 30
0.0
 70
   128
 71
   422
 72
   452
 73
   451
 74
   423
  0
VERTEX
  5
6B3
330
2FF
100
AcDbEntity
  8
ｴｸｽﾃﾘｱ商品
 62
   250
370
    20
100
AcDbFaceRecord
 10
0.0
 20
0.0
 30
0.0
 70
   128
 71
   423
 72
   451
 73
   450
 74
   424
  0
VERTEX
  5
6B4
330
2FF
100
AcDbEntity
  8
ｴｸｽﾃﾘｱ商品
 62
   250
370
    20
100
AcDbFaceRecord
 10
0.0
 20
0.0
 30
0.0
 70
   128
 71
   424
 72
   450
 73
   449
 74
   425
  0
VERTEX
  5
6B5
330
2FF
100
AcDbEntity
  8
ｴｸｽﾃﾘｱ商品
 62
   250
370
    20
100
AcDbFaceRecord
 10
0.0
 20
0.0
 30
0.0
 70
   128
 71
   425
 72
   449
 73
   448
 74
   426
  0
VERTEX
  5
6B6
330
2FF
100
AcDbEntity
  8
ｴｸｽﾃﾘｱ商品
 62
   250
370
    20
100
AcDbFaceRecord
 10
0.0
 20
0.0
 30
0.0
 70
   128
 71
   426
 72
   448
 73
   447
 74
   427
  0
VERTEX
  5
6B7
330
2FF
100
AcDbEntity
  8
ｴｸｽﾃﾘｱ商品
 62
   250
370
    20
100
AcDbFaceRecord
 10
0.0
 20
0.0
 30
0.0
 70
   128
 71
   427
 72
   447
 73
   446
 74
   428
  0
VERTEX
  5
6B8
330
2FF
100
AcDbEntity
  8
ｴｸｽﾃﾘｱ商品
 62
   250
370
    20
100
AcDbFaceRecord
 10
0.0
 20
0.0
 30
0.0
 70
   128
 71
   428
 72
   446
 73
   445
 74
   429
  0
VERTEX
  5
6B9
330
2FF
100
AcDbEntity
  8
ｴｸｽﾃﾘｱ商品
 62
   250
370
    20
100
AcDbFaceRecord
 10
0.0
 20
0.0
 30
0.0
 70
   128
 71
   429
 72
   445
 73
   444
 74
   430
  0
VERTEX
  5
6BA
330
2FF
100
AcDbEntity
  8
ｴｸｽﾃﾘｱ商品
 62
   250
370
    20
100
AcDbFaceRecord
 10
0.0
 20
0.0
 30
0.0
 70
   128
 71
   430
 72
   444
 73
   443
 74
   431
  0
VERTEX
  5
6BB
330
2FF
100
AcDbEntity
  8
ｴｸｽﾃﾘｱ商品
 62
   250
370
    20
100
AcDbFaceRecord
 10
0.0
 20
0.0
 30
0.0
 70
   128
 71
   431
 72
   443
 73
   442
 74
   432
  0
VERTEX
  5
6BC
330
2FF
100
AcDbEntity
  8
ｴｸｽﾃﾘｱ商品
 62
   250
370
    20
100
AcDbFaceRecord
 10
0.0
 20
0.0
 30
0.0
 70
   128
 71
   432
 72
   442
 73
   441
 74
   433
  0
VERTEX
  5
6BD
330
2FF
100
AcDbEntity
  8
ｴｸｽﾃﾘｱ商品
 62
   250
370
    20
100
AcDbFaceRecord
 10
0.0
 20
0.0
 30
0.0
 70
   128
 71
   433
 72
   441
 73
   440
 74
   434
  0
VERTEX
  5
6BE
330
2FF
100
AcDbEntity
  8
ｴｸｽﾃﾘｱ商品
 62
   250
370
    20
100
AcDbFaceRecord
 10
0.0
 20
0.0
 30
0.0
 70
   128
 71
   434
 72
   440
 73
   439
 74
   435
  0
VERTEX
  5
6BF
330
2FF
100
AcDbEntity
  8
ｴｸｽﾃﾘｱ商品
 62
   250
370
    20
100
AcDbFaceRecord
 10
0.0
 20
0.0
 30
0.0
 70
   128
 71
   435
 72
   439
 73
   438
 74
   436
  0
VERTEX
  5
6C0
330
2FF
100
AcDbEntity
  8
ｴｸｽﾃﾘｱ商品
 62
   250
370
    20
100
AcDbFaceRecord
 10
0.0
 20
0.0
 30
0.0
 70
   128
 71
   436
 72
   438
 73
   437
 74
   401
  0
VERTEX
  5
6C1
330
2FF
100
AcDbEntity
  8
ｴｸｽﾃﾘｱ商品
 62
   250
370
    20
100
AcDbFaceRecord
 10
0.0
 20
0.0
 30
0.0
 70
   128
 71
   473
 72
   474
 73
   475
 74
   476
  0
VERTEX
  5
6C2
330
2FF
100
AcDbEntity
  8
ｴｸｽﾃﾘｱ商品
 62
   250
370
    20
100
AcDbFaceRecord
 10
0.0
 20
0.0
 30
0.0
 70
   128
 71
   474
 72
   477
 73
   478
 74
   475
  0
VERTEX
  5
6C3
330
2FF
100
AcDbEntity
  8
ｴｸｽﾃﾘｱ商品
 62
   250
370
    20
100
AcDbFaceRecord
 10
0.0
 20
0.0
 30
0.0
 70
   128
 71
   477
 72
   479
 73
   480
 74
   478
  0
VERTEX
  5
6C4
330
2FF
100
AcDbEntity
  8
ｴｸｽﾃﾘｱ商品
 62
   250
370
    20
100
AcDbFaceRecord
 10
0.0
 20
0.0
 30
0.0
 70
   128
 71
   479
 72
   481
 73
   482
 74
   480
  0
VERTEX
  5
6C5
330
2FF
100
AcDbEntity
  8
ｴｸｽﾃﾘｱ商品
 62
   250
370
    20
100
AcDbFaceRecord
 10
0.0
 20
0.0
 30
0.0
 70
   128
 71
   481
 72
   483
 73
   484
 74
   482
  0
VERTEX
  5
6C6
330
2FF
100
AcDbEntity
  8
ｴｸｽﾃﾘｱ商品
 62
   250
370
    20
100
AcDbFaceRecord
 10
0.0
 20
0.0
 30
0.0
 70
   128
 71
   483
 72
   485
 73
   486
 74
   484
  0
VERTEX
  5
6C7
330
2FF
100
AcDbEntity
  8
ｴｸｽﾃﾘｱ商品
 62
   250
370
    20
100
AcDbFaceRecord
 10
0.0
 20
0.0
 30
0.0
 70
   128
 71
   485
 72
   487
 73
   488
 74
   486
  0
VERTEX
  5
6C8
330
2FF
100
AcDbEntity
  8
ｴｸｽﾃﾘｱ商品
 62
   250
370
    20
100
AcDbFaceRecord
 10
0.0
 20
0.0
 30
0.0
 70
   128
 71
   487
 72
   489
 73
   490
 74
   488
  0
VERTEX
  5
6C9
330
2FF
100
AcDbEntity
  8
ｴｸｽﾃﾘｱ商品
 62
   250
370
    20
100
AcDbFaceRecord
 10
0.0
 20
0.0
 30
0.0
 70
   128
 71
   489
 72
   491
 73
   492
 74
   490
  0
VERTEX
  5
6CA
330
2FF
100
AcDbEntity
  8
ｴｸｽﾃﾘｱ商品
 62
   250
370
    20
100
AcDbFaceRecord
 10
0.0
 20
0.0
 30
0.0
 70
   128
 71
   491
 72
   493
 73
   494
 74
   492
  0
VERTEX
  5
6CB
330
2FF
100
AcDbEntity
  8
ｴｸｽﾃﾘｱ商品
 62
   250
370
    20
100
AcDbFaceRecord
 10
0.0
 20
0.0
 30
0.0
 70
   128
 71
   493
 72
   495
 73
   496
 74
   494
  0
VERTEX
  5
6CC
330
2FF
100
AcDbEntity
  8
ｴｸｽﾃﾘｱ商品
 62
   250
370
    20
100
AcDbFaceRecord
 10
0.0
 20
0.0
 30
0.0
 70
   128
 71
   495
 72
   473
 73
   476
 74
   496
  0
VERTEX
  5
6CD
330
2FF
100
AcDbEntity
  8
ｴｸｽﾃﾘｱ商品
 62
   250
370
    20
100
AcDbFaceRecord
 10
0.0
 20
0.0
 30
0.0
 70
   128
 71
   491
 72
   489
 73
   487
  0
VERTEX
  5
6CE
330
2FF
100
AcDbEntity
  8
ｴｸｽﾃﾘｱ商品
 62
   250
370
    20
100
AcDbFaceRecord
 10
0.0
 20
0.0
 30
0.0
 70
   128
 71
   493
 72
   491
 73
   487
  0
VERTEX
  5
6CF
330
2FF
100
AcDbEntity
  8
ｴｸｽﾃﾘｱ商品
 62
   250
370
    20
100
AcDbFaceRecord
 10
0.0
 20
0.0
 30
0.0
 70
   128
 71
   495
 72
   493
 73
   487
  0
VERTEX
  5
6D0
330
2FF
100
AcDbEntity
  8
ｴｸｽﾃﾘｱ商品
 62
   250
370
    20
100
AcDbFaceRecord
 10
0.0
 20
0.0
 30
0.0
 70
   128
 71
   474
 72
   473
 73
   495
  0
VERTEX
  5
6D1
330
2FF
100
AcDbEntity
  8
ｴｸｽﾃﾘｱ商品
 62
   250
370
    20
100
AcDbFaceRecord
 10
0.0
 20
0.0
 30
0.0
 70
   128
 71
   474
 72
   495
 73
   487
  0
VERTEX
  5
6D2
330
2FF
100
AcDbEntity
  8
ｴｸｽﾃﾘｱ商品
 62
   250
370
    20
100
AcDbFaceRecord
 10
0.0
 20
0.0
 30
0.0
 70
   128
 71
   474
 72
   487
 73
   485
  0
VERTEX
  5
6D3
330
2FF
100
AcDbEntity
  8
ｴｸｽﾃﾘｱ商品
 62
   250
370
    20
100
AcDbFaceRecord
 10
0.0
 20
0.0
 30
0.0
 70
   128
 71
   477
 72
   474
 73
   485
  0
VERTEX
  5
6D4
330
2FF
100
AcDbEntity
  8
ｴｸｽﾃﾘｱ商品
 62
   250
370
    20
100
AcDbFaceRecord
 10
0.0
 20
0.0
 30
0.0
 70
   128
 71
   479
 72
   477
 73
   485
  0
VERTEX
  5
6D5
330
2FF
100
AcDbEntity
  8
ｴｸｽﾃﾘｱ商品
 62
   250
370
    20
100
AcDbFaceRecord
 10
0.0
 20
0.0
 30
0.0
 70
   128
 71
   481
 72
   479
 73
   485
  0
VERTEX
  5
6D6
330
2FF
100
AcDbEntity
  8
ｴｸｽﾃﾘｱ商品
 62
   250
370
    20
100
AcDbFaceRecord
 10
0.0
 20
0.0
 30
0.0
 70
   128
 71
   483
 72
   481
 73
   485
  0
VERTEX
  5
6D7
330
2FF
100
AcDbEntity
  8
ｴｸｽﾃﾘｱ商品
 62
   250
370
    20
100
AcDbFaceRecord
 10
0.0
 20
0.0
 30
0.0
 70
   128
 71
   488
 72
   490
 73
   492
  0
VERTEX
  5
6D8
330
2FF
100
AcDbEntity
  8
ｴｸｽﾃﾘｱ商品
 62
   250
370
    20
100
AcDbFaceRecord
 10
0.0
 20
0.0
 30
0.0
 70
   128
 71
   488
 72
   492
 73
   494
  0
VERTEX
  5
6D9
330
2FF
100
AcDbEntity
  8
ｴｸｽﾃﾘｱ商品
 62
   250
370
    20
100
AcDbFaceRecord
 10
0.0
 20
0.0
 30
0.0
 70
   128
 71
   488
 72
   494
 73
   496
  0
VERTEX
  5
6DA
330
2FF
100
AcDbEntity
  8
ｴｸｽﾃﾘｱ商品
 62
   250
370
    20
100
AcDbFaceRecord
 10
0.0
 20
0.0
 30
0.0
 70
   128
 71
   496
 72
   476
 73
   475
  0
VERTEX
  5
6DB
330
2FF
100
AcDbEntity
  8
ｴｸｽﾃﾘｱ商品
 62
   250
370
    20
100
AcDbFaceRecord
 10
0.0
 20
0.0
 30
0.0
 70
   128
 71
   488
 72
   496
 73
   475
  0
VERTEX
  5
6DC
330
2FF
100
AcDbEntity
  8
ｴｸｽﾃﾘｱ商品
 62
   250
370
    20
100
AcDbFaceRecord
 10
0.0
 20
0.0
 30
0.0
 70
   128
 71
   486
 72
   488
 73
   475
  0
VERTEX
  5
6DD
330
2FF
100
AcDbEntity
  8
ｴｸｽﾃﾘｱ商品
 62
   250
370
    20
100
AcDbFaceRecord
 10
0.0
 20
0.0
 30
0.0
 70
   128
 71
   486
 72
   475
 73
   478
  0
VERTEX
  5
6DE
330
2FF
100
AcDbEntity
  8
ｴｸｽﾃﾘｱ商品
 62
   250
370
    20
100
AcDbFaceRecord
 10
0.0
 20
0.0
 30
0.0
 70
   128
 71
   486
 72
   478
 73
   480
  0
VERTEX
  5
6DF
330
2FF
100
AcDbEntity
  8
ｴｸｽﾃﾘｱ商品
 62
   250
370
    20
100
AcDbFaceRecord
 10
0.0
 20
0.0
 30
0.0
 70
   128
 71
   486
 72
   480
 73
   482
  0
VERTEX
  5
6E0
330
2FF
100
AcDbEntity
  8
ｴｸｽﾃﾘｱ商品
 62
   250
370
    20
100
AcDbFaceRecord
 10
0.0
 20
0.0
 30
0.0
 70
   128
 71
   484
 72
   486
 73
   482
  0
SEQEND
  5
300
330
2FF
100
AcDbEntity
  8
ｴｸｽﾃﾘｱ商品
370
    20
  0
ENDBLK
  5
3E
330
3C
100
AcDbEntity
  8
0
100
AcDbBlockEnd
  0
ENDSEC
  0
SECTION
  2
ENTITIES
  0
INSERT
  5
6E1
330
1F
100
AcDbEntity
  8
ｴｸｽﾃﾘｱ商品
  6
Continuous
370
     0
100
AcDbBlockReference
  2
オブジェクト_45
 10
0.0
 20
0.0
 30
0.0
  0
ENDSEC
  0
SECTION
  2
OBJECTS
  0
DICTIONARY
  5
C
330
0
100
AcDbDictionary
281
     1
  3
ACAD_GROUP
350
D
  3
ACAD_LAYOUT
350
1A
  3
ACAD_MLINESTYLE
350
17
  3
ACAD_PLOTSETTINGS
350
19
  3
ACAD_PLOTSTYLENAME
350
E
  3
ACAD_TABLESTYLE
350
6E4
  3
ACAD_VISUALSTYLE
350
2A
  3
WATERMARKS
350
6E2
  0
DICTIONARY
  5
D
102
{ACAD_REACTORS
330
C
102
}
330
C
100
AcDbDictionary
281
     1
  0
DICTIONARY
  5
1A
102
{ACAD_REACTORS
330
C
102
}
330
C
100
AcDbDictionary
281
     1
  3
Layout1
350
1E
  3
Layout2
350
26
  3
Model
350
22
  0
DICTIONARY
  5
17
102
{ACAD_REACTORS
330
C
102
}
330
C
100
AcDbDictionary
281
     1
  3
Standard
350
18
  0
DICTIONARY
  5
19
102
{ACAD_REACTORS
330
C
102
}
330
C
100
AcDbDictionary
281
     1
  0
ACDBDICTIONARYWDFLT
  5
E
102
{ACAD_REACTORS
330
C
102
}
330
C
100
AcDbDictionary
281
     1
  3
Normal
350
F
100
AcDbDictionaryWithDefault
340
F
  0
DICTIONARY
  5
6E4
102
{ACAD_REACTORS
330
C
102
}
330
C
100
AcDbDictionary
281
     1
  0
DICTIONARY
  5
2A
102
{ACAD_REACTORS
330
C
102
}
330
C
100
AcDbDictionary
281
     1
  3
2dWireframe
350
2F
  3
3D Hidden
350
31
  3
3dWireframe
350
30
  3
Basic
350
32
  3
Brighten
350
36
  3
ColorChange
350
3A
  3
Conceptual
350
34
  3
Dim
350
35
  3
Facepattern
350
39
  3
Flat
350
2B
  3
FlatWithEdges
350
2C
  3
Gouraud
350
2D
  3
GouraudWithEdges
350
2E
  3
Linepattern
350
38
  3
Realistic
350
33
  3
Thicken
350
37
  0
DICTIONARY
  5
6E2
102
{ACAD_REACTORS
330
C
102
}
330
C
100
AcDbDictionary
281
     1
  3
AC_WATERMARK
350
6E3
  0
LAYOUT
  5
1E
102
{ACAD_REACTORS
330
1A
102
}
330
1A
100
AcDbPlotSettings
  1

  2
none_device
  4

  6

 40
0.0
 41
0.0
 42
0.0
 43
0.0
 44
0.0
 45
0.0
 46
0.0
 47
0.0
 48
0.0
 49
0.0
140
0.0
141
0.0
142
1.0
143
1.0
 70
   688
 72
     0
 73
     0
 74
     5
  7

 75
    16
147
1.0
148
0.0
149
0.0
100
AcDbLayout
  1
Layout1
 70
     1
 71
     1
 10
0.0
 20
0.0
 11
12.0
 21
9.0
 12
0.0
 22
0.0
 32
0.0
 14
1.000000000000000E+20
 24
1.000000000000000E+20
 34
1.000000000000000E+20
 15
-1.000000000000000E+20
 25
-1.000000000000000E+20
 35
-1.000000000000000E+20
146
0.0
 13
0.0
 23
0.0
 33
0.0
 16
1.0
 26
0.0
 36
0.0
 17
0.0
 27
1.0
 37
0.0
 76
     0
330
1B
  0
LAYOUT
  5
26
102
{ACAD_REACTORS
330
1A
102
}
330
1A
100
AcDbPlotSettings
  1

  2
none_device
  4

  6

 40
0.0
 41
0.0
 42
0.0
 43
0.0
 44
0.0
 45
0.0
 46
0.0
 47
0.0
 48
0.0
 49
0.0
140
0.0
141
0.0
142
1.0
143
1.0
 70
   688
 72
     0
 73
     0
 74
     5
  7

 75
    16
147
1.0
148
0.0
149
0.0
100
AcDbLayout
  1
Layout2
 70
     1
 71
     2
 10
0.0
 20
0.0
 11
0.0
 21
0.0
 12
0.0
 22
0.0
 32
0.0
 14
0.0
 24
0.0
 34
0.0
 15
0.0
 25
0.0
 35
0.0
146
0.0
 13
0.0
 23
0.0
 33
0.0
 16
1.0
 26
0.0
 36
0.0
 17
0.0
 27
1.0
 37
0.0
 76
     0
330
23
  0
LAYOUT
  5
22
102
{ACAD_REACTORS
330
1A
102
}
330
1A
100
AcDbPlotSettings
  1

  2
none_device
  4

  6

 40
0.0
 41
0.0
 42
0.0
 43
0.0
 44
0.0
 45
0.0
 46
0.0
 47
0.0
 48
0.0
 49
0.0
140
0.0
141
0.0
142
1.0
143
1.0
 70
  1712
 72
     0
 73
     0
 74
     0
  7

 75
     0
147
1.0
148
0.0
149
0.0
100
AcDbLayout
  1
Model
 70
     1
 71
     0
 10
0.0
 20
0.0
 11
12.0
 21
9.0
 12
0.0
 22
0.0
 32
0.0
 14
1.000000000000000E+20
 24
1.000000000000000E+20
 34
1.000000000000000E+20
 15
-1.000000000000000E+20
 25
-1.000000000000000E+20
 35
-1.000000000000000E+20
146
0.0
 13
0.0
 23
0.0
 33
0.0
 16
1.0
 26
0.0
 36
0.0
 17
0.0
 27
1.0
 37
0.0
 76
     0
330
1F
331
29
  0
MLINESTYLE
  5
18
102
{ACAD_REACTORS
330
17
102
}
330
17
100
AcDbMlineStyle
  2
Standard
 70
     0
  3

 62
   256
 51
90.0
 52
90.0
 71
     2
 49
0.5
 62
   256
  6
BYLAYER
 49
-0.5
 62
   256
  6
BYLAYER
  0
ACDBPLACEHOLDER
  5
F
102
{ACAD_REACTORS
330
E
102
}
330
E
  0
VISUALSTYLE
  5
2F
102
{ACAD_REACTORS
330
2A
102
}
330
2A
100
AcDbVisualStyle
  2
2dWireframe
 70
     4
 71
     0
 72
     2
 73
     0
 90
        0
 40
-0.6
 41
-30.0
 62
     5
 63
     7
 74
     1
 91
        4
 64
     7
 65
   257
 75
     1
175
     1
 42
1.0
 92
        0
 66
   257
 43
1.0
 76
     1
 77
     6
 78
     2
 67
     7
 79
     5
170
     0
171
     0
290
     0
174
     0
 93
        1
 44
0.0
173
     0
291
     0
 45
0.0
1001
ACAD
1000
AcDbSavedByObjectVersion
1070
     0
  0
VISUALSTYLE
  5
31
102
{ACAD_REACTORS
330
2A
102
}
330
2A
100
AcDbVisualStyle
  2
3D Hidden
 70
     6
 71
     1
 72
     2
 73
     2
 90
        0
 40
-0.6
 41
-30.0
 62
     5
 63
     7
 74
     2
 91
        2
 64
     7
 65
   257
 75
     2
175
     1
 42
40.0
 92
        0
 66
   257
 43
1.0
 76
     1
 77
     6
 78
     2
 67
     7
 79
     3
170
     0
171
     0
290
     0
174
     0
 93
        1
 44
0.0
173
     0
291
     0
 45
0.0
1001
ACAD
1000
AcDbSavedByObjectVersion
1070
     0
  0
VISUALSTYLE
  5
30
102
{ACAD_REACTORS
330
2A
102
}
330
2A
100
AcDbVisualStyle
  2
3dWireframe
 70
     5
 71
     0
 72
     2
 73
     0
 90
        0
 40
-0.6
 41
-30.0
 62
     5
 63
     7
 74
     1
 91
        4
 64
     7
 65
   257
 75
     1
175
     1
 42
1.0
 92
        0
 66
   257
 43
1.0
 76
     1
 77
     6
 78
     2
 67
     7
 79
     5
170
     0
171
     0
290
     0
174
     0
 93
        1
 44
0.0
173
     0
291
     0
 45
0.0
1001
ACAD
1000
AcDbSavedByObjectVersion
1070
     0
  0
VISUALSTYLE
  5
32
102
{ACAD_REACTORS
330
2A
102
}
330
2A
100
AcDbVisualStyle
  2
Basic
 70
     7
 71
     1
 72
     0
 73
     1
 90
        0
 40
-0.6
 41
-30.0
 62
     5
 63
     7
 74
     0
 91
        4
 64
     7
 65
   257
 75
     1
175
     1
 42
1.0
 92
        8
 66
     7
 43
1.0
 76
     1
 77
     6
 78
     2
 67
     7
 79
     5
170
     0
171
     0
290
     0
174
     0
 93
        1
 44
0.0
173
     0
291
     1
 45
0.0
1001
ACAD
1000
AcDbSavedByObjectVersion
1070
     0
  0
VISUALSTYLE
  5
36
102
{ACAD_REACTORS
330
2A
102
}
330
2A
100
AcDbVisualStyle
  2
Brighten
 70
    12
 71
     2
 72
     2
 73
     0
 90
        0
 40
-0.6
 41
-30.0
 62
     5
 63
     7
 74
     1
 91
        4
 64
     7
 65
   257
 75
     1
175
     1
 42
1.0
 92
        8
 66
     7
 43
1.0
 76
     1
 77
     6
 78
     2
 67
     7
 79
     5
170
     0
171
     0
290
     0
174
     0
 93
        1
 44
50.0
173
     0
291
     1
 45
0.0
1001
ACAD
1000
AcDbSavedByObjectVersion
1070
     0
  0
VISUALSTYLE
  5
3A
102
{ACAD_REACTORS
330
2A
102
}
330
2A
100
AcDbVisualStyle
  2
ColorChange
 70
    16
 71
     2
 72
     2
 73
     3
 90
        0
 40
-0.6
 41
-30.0
 62
     5
 63
     8
 74
     1
 91
        4
 64
     7
 65
   257
 75
     1
175
     1
 42
1.0
 92
        8
 66
     8
 43
1.0
 76
     1
 77
     6
 78
     2
 67
     7
 79
     5
170
     0
171
     0
290
     0
174
     0
 93
        1
 44
0.0
173
     0
291
     1
 45
0.0
1001
ACAD
1000
AcDbSavedByObjectVersion
1070
     0
  0
VISUALSTYLE
  5
34
102
{ACAD_REACTORS
330
2A
102
}
330
2A
100
AcDbVisualStyle
  2
Conceptual
 70
     9
 71
     3
 72
     2
 73
     0
 90
        0
 40
-0.6
 41
-30.0
 62
     5
 63
     7
 74
     2
 91
        2
 64
     7
 65
   257
 75
     1
175
     1
 42
40.0
 92
        8
 66
     7
 43
1.0
 76
     1
 77
     6
 78
     2
 67
     7
 79
     3
170
     0
171
     0
290
     0
174
     0
 93
        1
 44
0.0
173
     0
291
     0
 45
0.0
1001
ACAD
1000
AcDbSavedByObjectVersion
1070
     0
  0
VISUALSTYLE
  5
35
102
{ACAD_REACTORS
330
2A
102
}
330
2A
100
AcDbVisualStyle
  2
Dim
 70
    11
 71
     2
 72
     2
 73
     0
 90
        0
 40
-0.6
 41
-30.0
 62
     5
 63
     7
 74
     1
 91
        4
 64
     7
 65
   257
 75
     1
175
     1
 42
1.0
 92
        8
 66
     7
 43
1.0
 76
     1
 77
     6
 78
     2
 67
     7
 79
     5
170
     0
171
     0
290
     0
174
     0
 93
        1
 44
-50.0
173
     0
291
     1
 45
0.0
1001
ACAD
1000
AcDbSavedByObjectVersion
1070
     0
  0
VISUALSTYLE
  5
39
102
{ACAD_REACTORS
330
2A
102
}
330
2A
100
AcDbVisualStyle
  2
Facepattern
 70
    15
 71
     2
 72
     2
 73
     0
 90
        0
 40
-0.6
 41
-30.0
 62
     5
 63
     7
 74
     1
 91
        4
 64
     7
 65
   257
 75
     1
175
     1
 42
1.0
 92
        8
 66
     7
 43
1.0
 76
     1
 77
     6
 78
     2
 67
     7
 79
     5
170
     0
171
     0
290
     0
174
     0
 93
        1
 44
0.0
173
     0
291
     1
 45
0.0
1001
ACAD
1000
AcDbSavedByObjectVersion
1070
     0
  0
VISUALSTYLE
  5
2B
102
{ACAD_REACTORS
330
2A
102
}
330
2A
100
AcDbVisualStyle
  2
Flat
 70
     0
 71
     2
 72
     1
 73
     1
 90
        2
 40
-0.6
 41
30.0
 62
     5
 63
     7
 74
     0
 91
        4
 64
     7
 65
   257
 75
     1
175
     1
 42
1.0
 92
        8
 66
     7
 43
1.0
 76
     1
 77
     6
 78
     2
 67
     7
 79
     5
170
     0
171
     0
290
     0
174
     0
 93
       13
 44
0.0
173
     0
291
     1
 45
0.0
1001
ACAD
1000
AcDbSavedByObjectVersion
1070
     0
  0
VISUALSTYLE
  5
2C
102
{ACAD_REACTORS
330
2A
102
}
330
2A
100
AcDbVisualStyle
  2
FlatWithEdges
 70
     1
 71
     2
 72
     1
 73
     1
 90
        2
 40
-0.6
 41
30.0
 62
     5
 63
     7
 74
     1
 91
        4
 64
     7
 65
   257
 75
     1
175
     1
 42
1.0
 92
        0
 66
   257
 43
1.0
 76
     1
 77
     6
 78
     2
 67
     7
 79
     5
170
     0
171
     0
290
     0
174
     0
 93
       13
 44
0.0
173
     0
291
     1
 45
0.0
1001
ACAD
1000
AcDbSavedByObjectVersion
1070
     0
  0
VISUALSTYLE
  5
2D
102
{ACAD_REACTORS
330
2A
102
}
330
2A
100
AcDbVisualStyle
  2
Gouraud
 70
     2
 71
     2
 72
     2
 73
     1
 90
        2
 40
-0.6
 41
30.0
 62
     5
 63
     7
 74
     0
 91
        4
 64
     7
 65
   257
 75
     1
175
     1
 42
1.0
 92
        0
 66
     7
 43
1.0
 76
     1
 77
     6
 78
     2
 67
     7
 79
     5
170
     0
171
     0
290
     0
174
     0
 93
       13
 44
0.0
173
     0
291
     1
 45
0.0
1001
ACAD
1000
AcDbSavedByObjectVersion
1070
     0
  0
VISUALSTYLE
  5
2E
102
{ACAD_REACTORS
330
2A
102
}
330
2A
100
AcDbVisualStyle
  2
GouraudWithEdges
 70
     3
 71
     2
 72
     2
 73
     1
 90
        2
 40
-0.6
 41
30.0
 62
     5
 63
     7
 74
     1
 91
        4
 64
     7
 65
   257
 75
     1
175
     1
 42
1.0
 92
        0
 66
   257
 43
1.0
 76
     1
 77
     6
 78
     2
 67
     7
 79
     5
170
     0
171
     0
290
     0
174
     0
 93
       13
 44
0.0
173
     0
291
     1
 45
0.0
1001
ACAD
1000
AcDbSavedByObjectVersion
1070
     0
  0
VISUALSTYLE
  5
38
102
{ACAD_REACTORS
330
2A
102
}
330
2A
100
AcDbVisualStyle
  2
Linepattern
 70
    14
 71
     2
 72
     2
 73
     0
 90
        0
 40
-0.6
 41
-30.0
 62
     5
 63
     7
 74
     1
 91
        4
 64
     7
 65
   257
 75
     7
175
     7
 42
1.0
 92
        8
 66
     7
 43
1.0
 76
     1
 77
     6
 78
     2
 67
     7
 79
     5
170
     0
171
     0
290
     0
174
     0
 93
        1
 44
0.0
173
     0
291
     1
 45
0.0
1001
ACAD
1000
AcDbSavedByObjectVersion
1070
     0
  0
VISUALSTYLE
  5
33
102
{ACAD_REACTORS
330
2A
102
}
330
2A
100
AcDbVisualStyle
  2
Realistic
 70
     8
 71
     2
 72
     2
 73
     0
 90
        0
 40
-0.6
 41
-30.0
 62
     5
 63
     7
 74
     1
 91
        0
 64
     7
 65
   257
 75
     1
175
     1
 42
1.0
 92
        8
 66
     8
 43
1.0
 76
     1
 77
     6
 78
     2
 67
     7
 79
     5
170
     0
171
     0
290
     0
174
     0
 93
       13
 44
0.0
173
     0
291
     0
 45
0.0
1001
ACAD
1000
AcDbSavedByObjectVersion
1070
     0
  0
VISUALSTYLE
  5
37
102
{ACAD_REACTORS
330
2A
102
}
330
2A
100
AcDbVisualStyle
  2
Thicken
 70
    13
 71
     2
 72
     2
 73
     0
 90
        0
 40
-0.6
 41
-30.0
 62
     5
 63
     7
 74
     1
 91
        4
 64
     7
 65
   257
 75
     1
175
     1
 42
1.0
 92
       12
 66
     7
 43
1.0
 76
     1
 77
     6
 78
     2
 67
     7
 79
     5
170
     0
171
     0
290
     0
174
     0
 93
        1
 44
0.0
173
     0
291
     1
 45
0.0
1001
ACAD
1000
AcDbSavedByObjectVersion
1070
     0
  0
XRECORD
  5
6E3
102
{ACAD_REACTORS
330
6E2
102
}
330
6E2
100
AcDbXrecord
280
     1
1000
・ｱ・ﾌDWG・t・@・C・・・ﾍRIKCAD21(TM)(R)・ﾅ・・・ｬ・ｳ・・・ﾜ・ｵ・ｽ・B
  0
ENDSEC
  0
EOF
