  0
SECTION
  2
HEADER
  9
$ACADVER
  1
AC1015
  9
$ACADMAINTVER
 70
     6
  9
$DWGCODEPAGE
  3
ANSI_932
  9
$INSBASE
 10
0.0
 20
0.0
 30
0.0
  9
$EXTMIN
 10
1.000000000000000E+20
 20
1.000000000000000E+20
 30
1.000000000000000E+20
  9
$EXTMAX
 10
-1.000000000000000E+20
 20
-1.000000000000000E+20
 30
-1.000000000000000E+20
  9
$LIMMIN
 10
0.0
 20
0.0
  9
$LIMMAX
 10
12.0
 20
9.0
  9
$ORTHOMODE
 70
     0
  9
$REGENMODE
 70
     1
  9
$FILLMODE
 70
     1
  9
$QTEXTMODE
 70
     0
  9
$MIRRTEXT
 70
     1
  9
$LTSCALE
 40
1.0
  9
$ATTMODE
 70
     1
  9
$TEXTSIZE
 40
0.2
  9
$TRACEWID
 40
0.05
  9
$TEXTSTYLE
  7
Standard
  9
$CLAYER
  8
0
  9
$CELTYPE
  6
ByLayer
  9
$CECOLOR
 62
   256
  9
$CELTSCALE
 40
1.0
  9
$DISPSILH
 70
     0
  9
$DIMSCALE
 40
1.0
  9
$DIMASZ
 40
0.18
  9
$DIMEXO
 40
0.0625
  9
$DIMDLI
 40
0.38
  9
$DIMRND
 40
0.0
  9
$DIMDLE
 40
0.0
  9
$DIMEXE
 40
0.18
  9
$DIMTP
 40
0.0
  9
$DIMTM
 40
0.0
  9
$DIMTXT
 40
0.18
  9
$DIMCEN
 40
0.09
  9
$DIMTSZ
 40
0.0
  9
$DIMTOL
 70
     0
  9
$DIMLIM
 70
     0
  9
$DIMTIH
 70
     1
  9
$DIMTOH
 70
     1
  9
$DIMSE1
 70
     0
  9
$DIMSE2
 70
     0
  9
$DIMTAD
 70
     0
  9
$DIMZIN
 70
     0
  9
$DIMBLK
  1

  9
$DIMASO
 70
     1
  9
$DIMSHO
 70
     1
  9
$DIMPOST
  1

  9
$DIMAPOST
  1

  9
$DIMALT
 70
     0
  9
$DIMALTD
 70
     2
  9
$DIMALTF
 40
25.4
  9
$DIMLFAC
 40
1.0
  9
$DIMTOFL
 70
     0
  9
$DIMTVP
 40
0.0
  9
$DIMTIX
 70
     0
  9
$DIMSOXD
 70
     0
  9
$DIMSAH
 70
     0
  9
$DIMBLK1
  1

  9
$DIMBLK2
  1

  9
$DIMSTYLE
  2
Standard
  9
$DIMCLRD
 70
     0
  9
$DIMCLRE
 70
     0
  9
$DIMCLRT
 70
     0
  9
$DIMTFAC
 40
1.0
  9
$DIMGAP
 40
0.09
  9
$DIMJUST
 70
     0
  9
$DIMSD1
 70
     0
  9
$DIMSD2
 70
     0
  9
$DIMTOLJ
 70
     1
  9
$DIMTZIN
 70
     0
  9
$DIMALTZ
 70
     0
  9
$DIMALTTZ
 70
     0
  9
$DIMUPT
 70
     0
  9
$DIMDEC
 70
     4
  9
$DIMTDEC
 70
     4
  9
$DIMALTU
 70
     2
  9
$DIMALTTD
 70
     2
  9
$DIMTXSTY
  7
Standard
  9
$DIMAUNIT
 70
     0
  9
$DIMADEC
 70
     0
  9
$DIMALTRND
 40
0.0
  9
$DIMAZIN
 70
     0
  9
$DIMDSEP
 70
    46
  9
$DIMATFIT
 70
     3
  9
$DIMFRAC
 70
     0
  9
$DIMLDRBLK
  1

  9
$DIMLUNIT
 70
     2
  9
$DIMLWD
 70
    -2
  9
$DIMLWE
 70
    -2
  9
$DIMTMOVE
 70
     0
  9
$LUNITS
 70
     2
  9
$LUPREC
 70
     4
  9
$SKETCHINC
 40
0.1
  9
$FILLETRAD
 40
0.5
  9
$AUNITS
 70
     0
  9
$AUPREC
 70
     0
  9
$MENU
  1
.
  9
$ELEVATION
 40
0.0
  9
$PELEVATION
 40
0.0
  9
$THICKNESS
 40
0.0
  9
$LIMCHECK
 70
     0
  9
$CHAMFERA
 40
0.5
  9
$CHAMFERB
 40
0.5
  9
$CHAMFERC
 40
1.0
  9
$CHAMFERD
 40
0.0
  9
$SKPOLY
 70
     0
  9
$TDCREATE
 40
2458621.432105856
  9
$TDUCREATE
 40
2458621.057105856
  9
$TDUPDATE
 40
2458621.432105868
  9
$TDUUPDATE
 40
2458621.057105868
  9
$TDINDWG
 40
0.0000000116
  9
$TDUSRTIMER
 40
0.0000000116
  9
$USRTIMER
 70
     1
  9
$ANGBASE
 50
0.0
  9
$ANGDIR
 70
     0
  9
$PDMODE
 70
     0
  9
$PDSIZE
 40
0.0
  9
$PLINEWID
 40
0.0
  9
$SPLFRAME
 70
     0
  9
$SPLINETYPE
 70
     6
  9
$SPLINESEGS
 70
     8
  9
$HANDSEED
  5
49F
  9
$SURFTAB1
 70
     6
  9
$SURFTAB2
 70
     6
  9
$SURFTYPE
 70
     6
  9
$SURFU
 70
     6
  9
$SURFV
 70
     6
  9
$UCSBASE
  2

  9
$UCSNAME
  2

  9
$UCSORG
 10
0.0
 20
0.0
 30
0.0
  9
$UCSXDIR
 10
1.0
 20
0.0
 30
0.0
  9
$UCSYDIR
 10
0.0
 20
1.0
 30
0.0
  9
$UCSORTHOREF
  2

  9
$UCSORTHOVIEW
 70
     0
  9
$UCSORGTOP
 10
0.0
 20
0.0
 30
0.0
  9
$UCSORGBOTTOM
 10
0.0
 20
0.0
 30
0.0
  9
$UCSORGLEFT
 10
0.0
 20
0.0
 30
0.0
  9
$UCSORGRIGHT
 10
0.0
 20
0.0
 30
0.0
  9
$UCSORGFRONT
 10
0.0
 20
0.0
 30
0.0
  9
$UCSORGBACK
 10
0.0
 20
0.0
 30
0.0
  9
$PUCSBASE
  2

  9
$PUCSNAME
  2

  9
$PUCSORG
 10
0.0
 20
0.0
 30
0.0
  9
$PUCSXDIR
 10
1.0
 20
0.0
 30
0.0
  9
$PUCSYDIR
 10
0.0
 20
1.0
 30
0.0
  9
$PUCSORTHOREF
  2

  9
$PUCSORTHOVIEW
 70
     0
  9
$PUCSORGTOP
 10
0.0
 20
0.0
 30
0.0
  9
$PUCSORGBOTTOM
 10
0.0
 20
0.0
 30
0.0
  9
$PUCSORGLEFT
 10
0.0
 20
0.0
 30
0.0
  9
$PUCSORGRIGHT
 10
0.0
 20
0.0
 30
0.0
  9
$PUCSORGFRONT
 10
0.0
 20
0.0
 30
0.0
  9
$PUCSORGBACK
 10
0.0
 20
0.0
 30
0.0
  9
$USERI1
 70
     0
  9
$USERI2
 70
     0
  9
$USERI3
 70
     0
  9
$USERI4
 70
     0
  9
$USERI5
 70
     0
  9
$USERR1
 40
0.0
  9
$USERR2
 40
0.0
  9
$USERR3
 40
0.0
  9
$USERR4
 40
0.0
  9
$USERR5
 40
0.0
  9
$WORLDVIEW
 70
     1
  9
$SHADEDGE
 70
     3
  9
$SHADEDIF
 70
    70
  9
$TILEMODE
 70
     1
  9
$MAXACTVP
 70
    64
  9
$PINSBASE
 10
0.0
 20
0.0
 30
0.0
  9
$PLIMCHECK
 70
     0
  9
$PEXTMIN
 10
1.000000000000000E+20
 20
1.000000000000000E+20
 30
1.000000000000000E+20
  9
$PEXTMAX
 10
-1.000000000000000E+20
 20
-1.000000000000000E+20
 30
-1.000000000000000E+20
  9
$PLIMMIN
 10
0.0
 20
0.0
  9
$PLIMMAX
 10
12.0
 20
9.0
  9
$UNITMODE
 70
     0
  9
$VISRETAIN
 70
     1
  9
$PLINEGEN
 70
     0
  9
$PSLTSCALE
 70
     1
  9
$TREEDEPTH
 70
  3020
  9
$CMLSTYLE
  2
Standard
  9
$CMLJUST
 70
     0
  9
$CMLSCALE
 40
1.0
  9
$PROXYGRAPHICS
 70
     1
  9
$MEASUREMENT
 70
     0
  9
$CELWEIGHT
370
    -1
  9
$ENDCAPS
280
     0
  9
$JOINSTYLE
280
     0
  9
$LWDISPLAY
290
     1
  9
$INSUNITS
 70
     0
  9
$HYPERLINKBASE
  1

  9
$STYLESHEET
  1

  9
$XEDIT
290
     1
  9
$CEPSNTYPE
380
     0
  9
$PSTYLEMODE
290
     1
  9
$FINGERPRINTGUID
  2
{FBDBD118-6A8D-4E53-BA18-F779B5879209}
  9
$VERSIONGUID
  2
{FAEB1C32-E019-11D5-929B-00C0DF256EC4}
  9
$EXTNAMES
290
     1
  9
$PSVPSCALE
 40
0.0
  9
$OLESTARTUP
290
     0
  0
ENDSEC
  0
SECTION
  2
CLASSES
  0
CLASS
  1
ACDBDICTIONARYWDFLT
  2
AcDbDictionaryWithDefault
  3
ObjectDBX Classes
 90
        0
280
     0
281
     0
  0
CLASS
  1
VISUALSTYLE
  2
AcDbVisualStyle
  3
ObjectDBX Classes
 90
     4095
280
     0
281
     0
  0
CLASS
  1
ACDBPLACEHOLDER
  2
AcDbPlaceHolder
  3
ObjectDBX Classes
 90
        0
280
     0
281
     0
  0
CLASS
  1
LAYOUT
  2
AcDbLayout
  3
ObjectDBX Classes
 90
        0
280
     0
281
     0
  0
ENDSEC
  0
SECTION
  2
TABLES
  0
TABLE
  2
VPORT
  5
8
330
0
100
AcDbSymbolTable
 70
     1
  0
VPORT
  5
29
330
8
100
AcDbSymbolTableRecord
100
AcDbViewportTableRecord
  2
*Active
 70
     0
 10
0.0
 20
0.0
 11
1.0
 21
1.0
 12
10.42990654205607
 22
4.5
 13
0.0
 23
0.0
 14
0.5
 24
0.5
 15
0.5
 25
0.5
 16
0.0
 26
0.0
 36
1.0
 17
0.0
 27
0.0
 37
0.0
 40
9.0
 41
1.972972972850329
 42
50.0
 43
0.0
 44
0.0
 50
0.0
 51
0.0
 71
     0
 72
   100
 73
     1
 74
     3
 75
     0
 76
     0
 77
     0
 78
     0
281
     0
 65
     1
110
0.0
120
0.0
130
0.0
111
1.0
121
0.0
131
0.0
112
0.0
122
1.0
132
0.0
 79
     0
146
0.0
  0
ENDTAB
  0
TABLE
  2
LTYPE
  5
5
330
0
100
AcDbSymbolTable
 70
     1
  0
LTYPE
  5
14
330
5
100
AcDbSymbolTableRecord
100
AcDbLinetypeTableRecord
  2
ByBlock
 70
     0
  3

 72
    65
 73
     0
 40
0.0
  0
LTYPE
  5
15
330
5
100
AcDbSymbolTableRecord
100
AcDbLinetypeTableRecord
  2
ByLayer
 70
     0
  3

 72
    65
 73
     0
 40
0.0
  0
LTYPE
  5
16
330
5
100
AcDbSymbolTableRecord
100
AcDbLinetypeTableRecord
  2
Continuous
 70
     0
  3
Solid line
 72
    65
 73
     0
 40
0.0
  0
ENDTAB
  0
TABLE
  2
LAYER
  5
2
330
0
100
AcDbSymbolTable
 70
     2
  0
LAYER
  5
10
330
2
100
AcDbSymbolTableRecord
100
AcDbLayerTableRecord
  2
0
 70
     0
 62
     7
  6
Continuous
370
    -3
390
F
  0
LAYER
  5
3B
330
2
100
AcDbSymbolTableRecord
100
AcDbLayerTableRecord
  2
ｴｸｽﾃﾘｱ商品
 70
     0
 62
     7
  6
Continuous
370
    -3
390
F
  0
ENDTAB
  0
TABLE
  2
STYLE
  5
3
330
0
100
AcDbSymbolTable
 70
     1
  0
STYLE
  5
11
330
3
100
AcDbSymbolTableRecord
100
AcDbTextStyleTableRecord
  2
Standard
 70
     0
 40
0.0
 41
1.0
 50
0.0
 71
     0
 42
0.2
  3
txt
  4
EXTFONT.SHX
  0
ENDTAB
  0
TABLE
  2
VIEW
  5
6
330
0
100
AcDbSymbolTable
 70
     0
  0
ENDTAB
  0
TABLE
  2
UCS
  5
7
330
0
100
AcDbSymbolTable
 70
     0
  0
ENDTAB
  0
TABLE
  2
APPID
  5
9
330
0
100
AcDbSymbolTable
 70
     1
  0
APPID
  5
12
330
9
100
AcDbSymbolTableRecord
100
AcDbRegAppTableRecord
  2
ACAD
 70
     0
  0
ENDTAB
  0
TABLE
  2
DIMSTYLE
  5
A
330
0
100
AcDbSymbolTable
 70
     1
100
AcDbDimStyleTable
  0
DIMSTYLE
105
27
330
A
100
AcDbSymbolTableRecord
100
AcDbDimStyleTableRecord
  2
Standard
 70
     0
340
11
  0
ENDTAB
  0
TABLE
  2
BLOCK_RECORD
  5
1
330
0
100
AcDbSymbolTable
 70
     2
  0
BLOCK_RECORD
  5
1F
330
1
100
AcDbSymbolTableRecord
100
AcDbBlockTableRecord
  2
*Model_Space
340
22
  0
BLOCK_RECORD
  5
1B
330
1
100
AcDbSymbolTableRecord
100
AcDbBlockTableRecord
  2
*Paper_Space
340
1E
  0
BLOCK_RECORD
  5
23
330
1
100
AcDbSymbolTableRecord
100
AcDbBlockTableRecord
  2
*Paper_Space0
340
26
  0
BLOCK_RECORD
  5
3C
330
1
100
AcDbSymbolTableRecord
100
AcDbBlockTableRecord
  2
オブジェクト_66
340
0
102
{BLKREFS
331
49B
102
}
  0
ENDTAB
  0
ENDSEC
  0
SECTION
  2
BLOCKS
  0
BLOCK
  5
20
330
1F
100
AcDbEntity
  8
0
100
AcDbBlockBegin
  2
*Model_Space
 70
     0
 71
     0
 10
0.0
 20
0.0
 30
0.0
  3
*Model_Space
  1

  0
ENDBLK
  5
21
330
1F
100
AcDbEntity
  8
0
100
AcDbBlockEnd
  0
BLOCK
  5
1C
330
1B
100
AcDbEntity
 67
     1
  8
0
100
AcDbBlockBegin
  2
*Paper_Space
 70
     0
 71
     0
 10
0.0
 20
0.0
 30
0.0
  3
*Paper_Space
  1

  0
ENDBLK
  5
1D
330
1B
100
AcDbEntity
 67
     1
  8
0
100
AcDbBlockEnd
  0
BLOCK
  5
24
330
23
100
AcDbEntity
  8
0
100
AcDbBlockBegin
  2
*Paper_Space0
 70
     0
 71
     0
 10
0.0
 20
0.0
 30
0.0
  3
*Paper_Space0
  1

  0
ENDBLK
  5
25
330
23
100
AcDbEntity
  8
0
100
AcDbBlockEnd
  0
BLOCK
  5
3D
330
3C
100
AcDbEntity
  8
0
100
AcDbBlockBegin
  2
オブジェクト_66
 70
     0
 71
     0
 10
-225.0
 20
-60.00000000000001
 30
0.0
  3
オブジェクト_66
  1

  0
POLYLINE
  5
3F
330
3C
100
AcDbEntity
  8
ｴｸｽﾃﾘｱ商品
 62
   253
370
    20
100
AcDbPolyFaceMesh
 66
     1
 10
0.0
 20
0.0
 30
0.0
 70
    64
 71
     8
 72
     6
  0
VERTEX
  5
41
330
3F
100
AcDbEntity
  8
ｴｸｽﾃﾘｱ商品
 62
   253
370
    20
100
AcDbVertex
100
AcDbPolyFaceMeshVertex
 10
-195.5
 20
-60.00000000000001
 30
0.0
 70
   192
  0
VERTEX
  5
42
330
3F
100
AcDbEntity
  8
ｴｸｽﾃﾘｱ商品
 62
   253
370
    20
100
AcDbVertex
100
AcDbPolyFaceMeshVertex
 10
-225.0
 20
-60.00000000000001
 30
0.0
 70
   192
  0
VERTEX
  5
43
330
3F
100
AcDbEntity
  8
ｴｸｽﾃﾘｱ商品
 62
   253
370
    20
100
AcDbVertex
100
AcDbPolyFaceMeshVertex
 10
-225.0
 20
60.00000000000002
 30
0.0
 70
   192
  0
VERTEX
  5
44
330
3F
100
AcDbEntity
  8
ｴｸｽﾃﾘｱ商品
 62
   253
370
    20
100
AcDbVertex
100
AcDbPolyFaceMeshVertex
 10
-195.5
 20
60.00000000000002
 30
0.0
 70
   192
  0
VERTEX
  5
45
330
3F
100
AcDbEntity
  8
ｴｸｽﾃﾘｱ商品
 62
   253
370
    20
100
AcDbVertex
100
AcDbPolyFaceMeshVertex
 10
-225.0
 20
-60.00000000000001
 30
1163.5
 70
   192
  0
VERTEX
  5
46
330
3F
100
AcDbEntity
  8
ｴｸｽﾃﾘｱ商品
 62
   253
370
    20
100
AcDbVertex
100
AcDbPolyFaceMeshVertex
 10
-195.5
 20
-60.00000000000001
 30
1163.5
 70
   192
  0
VERTEX
  5
47
330
3F
100
AcDbEntity
  8
ｴｸｽﾃﾘｱ商品
 62
   253
370
    20
100
AcDbVertex
100
AcDbPolyFaceMeshVertex
 10
-195.5
 20
60.00000000000002
 30
1163.5
 70
   192
  0
VERTEX
  5
48
330
3F
100
AcDbEntity
  8
ｴｸｽﾃﾘｱ商品
 62
   253
370
    20
100
AcDbVertex
100
AcDbPolyFaceMeshVertex
 10
-225.0
 20
60.00000000000002
 30
1163.5
 70
   192
  0
VERTEX
  5
49
330
3F
100
AcDbEntity
  8
ｴｸｽﾃﾘｱ商品
 62
   253
370
    20
100
AcDbFaceRecord
 10
0.0
 20
0.0
 30
0.0
 70
   128
 71
     1
 72
     2
 73
     3
 74
     4
  0
VERTEX
  5
4A
330
3F
100
AcDbEntity
  8
ｴｸｽﾃﾘｱ商品
 62
   253
370
    20
100
AcDbFaceRecord
 10
0.0
 20
0.0
 30
0.0
 70
   128
 71
     5
 72
     6
 73
     7
 74
     8
  0
VERTEX
  5
4B
330
3F
100
AcDbEntity
  8
ｴｸｽﾃﾘｱ商品
 62
   253
370
    20
100
AcDbFaceRecord
 10
0.0
 20
0.0
 30
0.0
 70
   128
 71
     2
 72
     1
 73
     6
 74
     5
  0
VERTEX
  5
4C
330
3F
100
AcDbEntity
  8
ｴｸｽﾃﾘｱ商品
 62
   253
370
    20
100
AcDbFaceRecord
 10
0.0
 20
0.0
 30
0.0
 70
   128
 71
     1
 72
     4
 73
     7
 74
     6
  0
VERTEX
  5
4D
330
3F
100
AcDbEntity
  8
ｴｸｽﾃﾘｱ商品
 62
   253
370
    20
100
AcDbFaceRecord
 10
0.0
 20
0.0
 30
0.0
 70
   128
 71
     4
 72
     3
 73
     8
 74
     7
  0
VERTEX
  5
4E
330
3F
100
AcDbEntity
  8
ｴｸｽﾃﾘｱ商品
 62
   253
370
    20
100
AcDbFaceRecord
 10
0.0
 20
0.0
 30
0.0
 70
   128
 71
     3
 72
     2
 73
     5
 74
     8
  0
SEQEND
  5
40
330
3F
100
AcDbEntity
  8
ｴｸｽﾃﾘｱ商品
370
    20
  0
POLYLINE
  5
4F
330
3C
100
AcDbEntity
  8
ｴｸｽﾃﾘｱ商品
 62
   253
370
    20
100
AcDbPolyFaceMesh
 66
     1
 10
0.0
 20
0.0
 30
0.0
 70
    64
 71
     8
 72
     6
  0
VERTEX
  5
51
330
4F
100
AcDbEntity
  8
ｴｸｽﾃﾘｱ商品
 62
   253
370
    20
100
AcDbVertex
100
AcDbPolyFaceMeshVertex
 10
225.0
 20
-60.00000000000001
 30
0.0
 70
   192
  0
VERTEX
  5
52
330
4F
100
AcDbEntity
  8
ｴｸｽﾃﾘｱ商品
 62
   253
370
    20
100
AcDbVertex
100
AcDbPolyFaceMeshVertex
 10
195.5
 20
-60.00000000000001
 30
0.0
 70
   192
  0
VERTEX
  5
53
330
4F
100
AcDbEntity
  8
ｴｸｽﾃﾘｱ商品
 62
   253
370
    20
100
AcDbVertex
100
AcDbPolyFaceMeshVertex
 10
195.5
 20
60.00000000000002
 30
0.0
 70
   192
  0
VERTEX
  5
54
330
4F
100
AcDbEntity
  8
ｴｸｽﾃﾘｱ商品
 62
   253
370
    20
100
AcDbVertex
100
AcDbPolyFaceMeshVertex
 10
225.0
 20
60.00000000000002
 30
0.0
 70
   192
  0
VERTEX
  5
55
330
4F
100
AcDbEntity
  8
ｴｸｽﾃﾘｱ商品
 62
   253
370
    20
100
AcDbVertex
100
AcDbPolyFaceMeshVertex
 10
195.5
 20
-60.00000000000001
 30
1163.5
 70
   192
  0
VERTEX
  5
56
330
4F
100
AcDbEntity
  8
ｴｸｽﾃﾘｱ商品
 62
   253
370
    20
100
AcDbVertex
100
AcDbPolyFaceMeshVertex
 10
225.0
 20
-60.00000000000001
 30
1163.5
 70
   192
  0
VERTEX
  5
57
330
4F
100
AcDbEntity
  8
ｴｸｽﾃﾘｱ商品
 62
   253
370
    20
100
AcDbVertex
100
AcDbPolyFaceMeshVertex
 10
225.0
 20
60.00000000000002
 30
1163.5
 70
   192
  0
VERTEX
  5
58
330
4F
100
AcDbEntity
  8
ｴｸｽﾃﾘｱ商品
 62
   253
370
    20
100
AcDbVertex
100
AcDbPolyFaceMeshVertex
 10
195.5
 20
60.00000000000002
 30
1163.5
 70
   192
  0
VERTEX
  5
59
330
4F
100
AcDbEntity
  8
ｴｸｽﾃﾘｱ商品
 62
   253
370
    20
100
AcDbFaceRecord
 10
0.0
 20
0.0
 30
0.0
 70
   128
 71
     1
 72
     2
 73
     3
 74
     4
  0
VERTEX
  5
5A
330
4F
100
AcDbEntity
  8
ｴｸｽﾃﾘｱ商品
 62
   253
370
    20
100
AcDbFaceRecord
 10
0.0
 20
0.0
 30
0.0
 70
   128
 71
     5
 72
     6
 73
     7
 74
     8
  0
VERTEX
  5
5B
330
4F
100
AcDbEntity
  8
ｴｸｽﾃﾘｱ商品
 62
   253
370
    20
100
AcDbFaceRecord
 10
0.0
 20
0.0
 30
0.0
 70
   128
 71
     2
 72
     1
 73
     6
 74
     5
  0
VERTEX
  5
5C
330
4F
100
AcDbEntity
  8
ｴｸｽﾃﾘｱ商品
 62
   253
370
    20
100
AcDbFaceRecord
 10
0.0
 20
0.0
 30
0.0
 70
   128
 71
     1
 72
     4
 73
     7
 74
     6
  0
VERTEX
  5
5D
330
4F
100
AcDbEntity
  8
ｴｸｽﾃﾘｱ商品
 62
   253
370
    20
100
AcDbFaceRecord
 10
0.0
 20
0.0
 30
0.0
 70
   128
 71
     4
 72
     3
 73
     8
 74
     7
  0
VERTEX
  5
5E
330
4F
100
AcDbEntity
  8
ｴｸｽﾃﾘｱ商品
 62
   253
370
    20
100
AcDbFaceRecord
 10
0.0
 20
0.0
 30
0.0
 70
   128
 71
     3
 72
     2
 73
     5
 74
     8
  0
SEQEND
  5
50
330
4F
100
AcDbEntity
  8
ｴｸｽﾃﾘｱ商品
370
    20
  0
POLYLINE
  5
5F
330
3C
100
AcDbEntity
  8
ｴｸｽﾃﾘｱ商品
 62
   253
370
    20
100
AcDbPolyFaceMesh
 66
     1
 10
0.0
 20
0.0
 30
0.0
 70
    64
 71
    36
 72
    28
  0
VERTEX
  5
61
330
5F
100
AcDbEntity
  8
ｴｸｽﾃﾘｱ商品
 62
   253
370
    20
100
AcDbVertex
100
AcDbPolyFaceMeshVertex
 10
-191.5
 20
-64.0
 30
1163.5
 70
   192
  0
VERTEX
  5
62
330
5F
100
AcDbEntity
  8
ｴｸｽﾃﾘｱ商品
 62
   253
370
    20
100
AcDbVertex
100
AcDbPolyFaceMeshVertex
 10
-229.0
 20
-64.0
 30
1163.5
 70
   192
  0
VERTEX
  5
63
330
5F
100
AcDbEntity
  8
ｴｸｽﾃﾘｱ商品
 62
   253
370
    20
100
AcDbVertex
100
AcDbPolyFaceMeshVertex
 10
-229.0
 20
64.00000000000003
 30
1163.5
 70
   192
  0
VERTEX
  5
64
330
5F
100
AcDbEntity
  8
ｴｸｽﾃﾘｱ商品
 62
   253
370
    20
100
AcDbVertex
100
AcDbPolyFaceMeshVertex
 10
-191.5
 20
64.00000000000003
 30
1163.5
 70
   192
  0
VERTEX
  5
65
330
5F
100
AcDbEntity
  8
ｴｸｽﾃﾘｱ商品
 62
   253
370
    20
100
AcDbVertex
100
AcDbPolyFaceMeshVertex
 10
-229.0
 20
-64.0
 30
1170.0
 70
   192
  0
VERTEX
  5
66
330
5F
100
AcDbEntity
  8
ｴｸｽﾃﾘｱ商品
 62
   253
370
    20
100
AcDbVertex
100
AcDbPolyFaceMeshVertex
 10
-191.5
 20
-64.0
 30
1170.0
 70
   192
  0
VERTEX
  5
67
330
5F
100
AcDbEntity
  8
ｴｸｽﾃﾘｱ商品
 62
   253
370
    20
100
AcDbVertex
100
AcDbPolyFaceMeshVertex
 10
-191.5
 20
64.00000000000003
 30
1170.0
 70
   192
  0
VERTEX
  5
68
330
5F
100
AcDbEntity
  8
ｴｸｽﾃﾘｱ商品
 62
   253
370
    20
100
AcDbVertex
100
AcDbPolyFaceMeshVertex
 10
-229.0
 20
64.00000000000003
 30
1170.0
 70
   192
  0
VERTEX
  5
69
330
5F
100
AcDbEntity
  8
ｴｸｽﾃﾘｱ商品
 62
   253
370
    20
100
AcDbVertex
100
AcDbPolyFaceMeshVertex
 10
229.0
 20
-64.0
 30
1163.5
 70
   192
  0
VERTEX
  5
6A
330
5F
100
AcDbEntity
  8
ｴｸｽﾃﾘｱ商品
 62
   253
370
    20
100
AcDbVertex
100
AcDbPolyFaceMeshVertex
 10
191.5
 20
-64.0
 30
1163.5
 70
   192
  0
VERTEX
  5
6B
330
5F
100
AcDbEntity
  8
ｴｸｽﾃﾘｱ商品
 62
   253
370
    20
100
AcDbVertex
100
AcDbPolyFaceMeshVertex
 10
191.5
 20
64.00000000000003
 30
1163.5
 70
   192
  0
VERTEX
  5
6C
330
5F
100
AcDbEntity
  8
ｴｸｽﾃﾘｱ商品
 62
   253
370
    20
100
AcDbVertex
100
AcDbPolyFaceMeshVertex
 10
229.0
 20
64.00000000000003
 30
1163.5
 70
   192
  0
VERTEX
  5
6D
330
5F
100
AcDbEntity
  8
ｴｸｽﾃﾘｱ商品
 62
   253
370
    20
100
AcDbVertex
100
AcDbPolyFaceMeshVertex
 10
191.5
 20
-64.0
 30
1170.0
 70
   192
  0
VERTEX
  5
6E
330
5F
100
AcDbEntity
  8
ｴｸｽﾃﾘｱ商品
 62
   253
370
    20
100
AcDbVertex
100
AcDbPolyFaceMeshVertex
 10
229.0
 20
-64.0
 30
1170.0
 70
   192
  0
VERTEX
  5
6F
330
5F
100
AcDbEntity
  8
ｴｸｽﾃﾘｱ商品
 62
   253
370
    20
100
AcDbVertex
100
AcDbPolyFaceMeshVertex
 10
229.0
 20
64.00000000000003
 30
1170.0
 70
   192
  0
VERTEX
  5
70
330
5F
100
AcDbEntity
  8
ｴｸｽﾃﾘｱ商品
 62
   253
370
    20
100
AcDbVertex
100
AcDbPolyFaceMeshVertex
 10
191.5
 20
64.00000000000003
 30
1170.0
 70
   192
  0
VERTEX
  5
71
330
5F
100
AcDbEntity
  8
ｴｸｽﾃﾘｱ商品
 62
   253
370
    20
100
AcDbVertex
100
AcDbPolyFaceMeshVertex
 10
195.5000000000001
 20
-30.0
 30
439.0000000000001
 70
   192
  0
VERTEX
  5
72
330
5F
100
AcDbEntity
  8
ｴｸｽﾃﾘｱ商品
 62
   253
370
    20
100
AcDbVertex
100
AcDbPolyFaceMeshVertex
 10
-195.5
 20
-30.0
 30
439.0000000000001
 70
   192
  0
VERTEX
  5
73
330
5F
100
AcDbEntity
  8
ｴｸｽﾃﾘｱ商品
 62
   253
370
    20
100
AcDbVertex
100
AcDbPolyFaceMeshVertex
 10
-195.5
 20
367.0000000000001
 30
439.0000000000001
 70
   192
  0
VERTEX
  5
74
330
5F
100
AcDbEntity
  8
ｴｸｽﾃﾘｱ商品
 62
   253
370
    20
100
AcDbVertex
100
AcDbPolyFaceMeshVertex
 10
195.5000000000001
 20
367.0000000000001
 30
439.0000000000001
 70
   192
  0
VERTEX
  5
75
330
5F
100
AcDbEntity
  8
ｴｸｽﾃﾘｱ商品
 62
   253
370
    20
100
AcDbVertex
100
AcDbPolyFaceMeshVertex
 10
-195.5
 20
-30.0
 30
1162.0
 70
   192
  0
VERTEX
  5
76
330
5F
100
AcDbEntity
  8
ｴｸｽﾃﾘｱ商品
 62
   253
370
    20
100
AcDbVertex
100
AcDbPolyFaceMeshVertex
 10
195.5000000000001
 20
-30.0
 30
1162.0
 70
   192
  0
VERTEX
  5
77
330
5F
100
AcDbEntity
  8
ｴｸｽﾃﾘｱ商品
 62
   253
370
    20
100
AcDbVertex
100
AcDbPolyFaceMeshVertex
 10
195.5000000000001
 20
367.0000000000001
 30
1162.0
 70
   192
  0
VERTEX
  5
78
330
5F
100
AcDbEntity
  8
ｴｸｽﾃﾘｱ商品
 62
   253
370
    20
100
AcDbVertex
100
AcDbPolyFaceMeshVertex
 10
-195.5
 20
367.0000000000001
 30
1162.0
 70
   192
  0
VERTEX
  5
79
330
5F
100
AcDbEntity
  8
ｴｸｽﾃﾘｱ商品
 62
   253
370
    20
100
AcDbVertex
100
AcDbPolyFaceMeshVertex
 10
-193.5
 20
-30.0
 30
1077.0
 70
   192
  0
VERTEX
  5
7A
330
5F
100
AcDbEntity
  8
ｴｸｽﾃﾘｱ商品
 62
   253
370
    20
100
AcDbVertex
100
AcDbPolyFaceMeshVertex
 10
-193.5
 20
-29.99999999999999
 30
1162.0
 70
   192
  0
VERTEX
  5
7B
330
5F
100
AcDbEntity
  8
ｴｸｽﾃﾘｱ商品
 62
   253
370
    20
100
AcDbVertex
100
AcDbPolyFaceMeshVertex
 10
192.5000000000001
 20
-30.00000000000002
 30
1162.0
 70
   192
  0
VERTEX
  5
7C
330
5F
100
AcDbEntity
  8
ｴｸｽﾃﾘｱ商品
 62
   253
370
    20
100
AcDbVertex
100
AcDbPolyFaceMeshVertex
 10
192.5000000000001
 20
-30.00000000000002
 30
1077.0
 70
   192
  0
VERTEX
  5
7D
330
5F
100
AcDbEntity
  8
ｴｸｽﾃﾘｱ商品
 62
   253
370
    20
100
AcDbVertex
100
AcDbPolyFaceMeshVertex
 10
-193.5
 20
-51.00000000000001
 30
1159.0
 70
   192
  0
VERTEX
  5
7E
330
5F
100
AcDbEntity
  8
ｴｸｽﾃﾘｱ商品
 62
   253
370
    20
100
AcDbVertex
100
AcDbPolyFaceMeshVertex
 10
192.5000000000001
 20
-51.00000000000002
 30
1159.0
 70
   192
  0
VERTEX
  5
7F
330
5F
100
AcDbEntity
  8
ｴｸｽﾃﾘｱ商品
 62
   253
370
    20
100
AcDbVertex
100
AcDbPolyFaceMeshVertex
 10
-193.5
 20
-52.00000000000001
 30
1158.0
 70
   192
  0
VERTEX
  5
80
330
5F
100
AcDbEntity
  8
ｴｸｽﾃﾘｱ商品
 62
   253
370
    20
100
AcDbVertex
100
AcDbPolyFaceMeshVertex
 10
192.5000000000001
 20
-52.00000000000003
 30
1158.0
 70
   192
  0
VERTEX
  5
81
330
5F
100
AcDbEntity
  8
ｴｸｽﾃﾘｱ商品
 62
   253
370
    20
100
AcDbVertex
100
AcDbPolyFaceMeshVertex
 10
-193.5
 20
-52.00000000000001
 30
1078.0
 70
   192
  0
VERTEX
  5
82
330
5F
100
AcDbEntity
  8
ｴｸｽﾃﾘｱ商品
 62
   253
370
    20
100
AcDbVertex
100
AcDbPolyFaceMeshVertex
 10
192.5000000000001
 20
-52.00000000000004
 30
1078.0
 70
   192
  0
VERTEX
  5
83
330
5F
100
AcDbEntity
  8
ｴｸｽﾃﾘｱ商品
 62
   253
370
    20
100
AcDbVertex
100
AcDbPolyFaceMeshVertex
 10
-193.5
 20
-51.00000000000001
 30
1077.0
 70
   192
  0
VERTEX
  5
84
330
5F
100
AcDbEntity
  8
ｴｸｽﾃﾘｱ商品
 62
   253
370
    20
100
AcDbVertex
100
AcDbPolyFaceMeshVertex
 10
192.5000000000001
 20
-51.00000000000003
 30
1077.0
 70
   192
  0
VERTEX
  5
85
330
5F
100
AcDbEntity
  8
ｴｸｽﾃﾘｱ商品
 62
   253
370
    20
100
AcDbFaceRecord
 10
0.0
 20
0.0
 30
0.0
 70
   128
 71
     1
 72
     2
 73
     3
 74
     4
  0
VERTEX
  5
86
330
5F
100
AcDbEntity
  8
ｴｸｽﾃﾘｱ商品
 62
   253
370
    20
100
AcDbFaceRecord
 10
0.0
 20
0.0
 30
0.0
 70
   128
 71
     5
 72
     6
 73
     7
 74
     8
  0
VERTEX
  5
87
330
5F
100
AcDbEntity
  8
ｴｸｽﾃﾘｱ商品
 62
   253
370
    20
100
AcDbFaceRecord
 10
0.0
 20
0.0
 30
0.0
 70
   128
 71
     2
 72
     1
 73
     6
 74
     5
  0
VERTEX
  5
88
330
5F
100
AcDbEntity
  8
ｴｸｽﾃﾘｱ商品
 62
   253
370
    20
100
AcDbFaceRecord
 10
0.0
 20
0.0
 30
0.0
 70
   128
 71
     1
 72
     4
 73
     7
 74
     6
  0
VERTEX
  5
89
330
5F
100
AcDbEntity
  8
ｴｸｽﾃﾘｱ商品
 62
   253
370
    20
100
AcDbFaceRecord
 10
0.0
 20
0.0
 30
0.0
 70
   128
 71
     4
 72
     3
 73
     8
 74
     7
  0
VERTEX
  5
8A
330
5F
100
AcDbEntity
  8
ｴｸｽﾃﾘｱ商品
 62
   253
370
    20
100
AcDbFaceRecord
 10
0.0
 20
0.0
 30
0.0
 70
   128
 71
     3
 72
     2
 73
     5
 74
     8
  0
VERTEX
  5
8B
330
5F
100
AcDbEntity
  8
ｴｸｽﾃﾘｱ商品
 62
   253
370
    20
100
AcDbFaceRecord
 10
0.0
 20
0.0
 30
0.0
 70
   128
 71
     9
 72
    10
 73
    11
 74
    12
  0
VERTEX
  5
8C
330
5F
100
AcDbEntity
  8
ｴｸｽﾃﾘｱ商品
 62
   253
370
    20
100
AcDbFaceRecord
 10
0.0
 20
0.0
 30
0.0
 70
   128
 71
    13
 72
    14
 73
    15
 74
    16
  0
VERTEX
  5
8D
330
5F
100
AcDbEntity
  8
ｴｸｽﾃﾘｱ商品
 62
   253
370
    20
100
AcDbFaceRecord
 10
0.0
 20
0.0
 30
0.0
 70
   128
 71
    10
 72
     9
 73
    14
 74
    13
  0
VERTEX
  5
8E
330
5F
100
AcDbEntity
  8
ｴｸｽﾃﾘｱ商品
 62
   253
370
    20
100
AcDbFaceRecord
 10
0.0
 20
0.0
 30
0.0
 70
   128
 71
     9
 72
    12
 73
    15
 74
    14
  0
VERTEX
  5
8F
330
5F
100
AcDbEntity
  8
ｴｸｽﾃﾘｱ商品
 62
   253
370
    20
100
AcDbFaceRecord
 10
0.0
 20
0.0
 30
0.0
 70
   128
 71
    12
 72
    11
 73
    16
 74
    15
  0
VERTEX
  5
90
330
5F
100
AcDbEntity
  8
ｴｸｽﾃﾘｱ商品
 62
   253
370
    20
100
AcDbFaceRecord
 10
0.0
 20
0.0
 30
0.0
 70
   128
 71
    11
 72
    10
 73
    13
 74
    16
  0
VERTEX
  5
91
330
5F
100
AcDbEntity
  8
ｴｸｽﾃﾘｱ商品
 62
   254
370
     0
100
AcDbFaceRecord
 10
0.0
 20
0.0
 30
0.0
 70
   128
 71
    17
 72
    18
 73
    19
 74
    20
  0
VERTEX
  5
92
330
5F
100
AcDbEntity
  8
ｴｸｽﾃﾘｱ商品
 62
   254
370
     0
100
AcDbFaceRecord
 10
0.0
 20
0.0
 30
0.0
 70
   128
 71
    21
 72
    22
 73
    23
 74
    24
  0
VERTEX
  5
93
330
5F
100
AcDbEntity
  8
ｴｸｽﾃﾘｱ商品
 62
   254
370
     0
100
AcDbFaceRecord
 10
0.0
 20
0.0
 30
0.0
 70
   128
 71
    18
 72
    17
 73
    22
 74
    21
  0
VERTEX
  5
94
330
5F
100
AcDbEntity
  8
ｴｸｽﾃﾘｱ商品
 62
   254
370
     0
100
AcDbFaceRecord
 10
0.0
 20
0.0
 30
0.0
 70
   128
 71
    17
 72
    20
 73
    23
 74
    22
  0
VERTEX
  5
95
330
5F
100
AcDbEntity
  8
ｴｸｽﾃﾘｱ商品
 62
   254
370
     0
100
AcDbFaceRecord
 10
0.0
 20
0.0
 30
0.0
 70
   128
 71
    20
 72
    19
 73
    24
 74
    23
  0
VERTEX
  5
96
330
5F
100
AcDbEntity
  8
ｴｸｽﾃﾘｱ商品
 62
   254
370
     0
100
AcDbFaceRecord
 10
0.0
 20
0.0
 30
0.0
 70
   128
 71
    19
 72
    18
 73
    21
 74
    24
  0
VERTEX
  5
97
330
5F
100
AcDbEntity
  8
ｴｸｽﾃﾘｱ商品
 62
    37
370
    35
100
AcDbFaceRecord
 10
0.0
 20
0.0
 30
0.0
 70
   128
 71
    25
 72
    26
 73
    27
 74
    28
  0
VERTEX
  5
98
330
5F
100
AcDbEntity
  8
ｴｸｽﾃﾘｱ商品
 62
    37
370
    35
100
AcDbFaceRecord
 10
0.0
 20
0.0
 30
0.0
 70
   128
 71
    26
 72
    29
 73
    30
 74
    27
  0
VERTEX
  5
99
330
5F
100
AcDbEntity
  8
ｴｸｽﾃﾘｱ商品
 62
    37
370
    35
100
AcDbFaceRecord
 10
0.0
 20
0.0
 30
0.0
 70
   128
 71
    29
 72
    31
 73
    32
 74
    30
  0
VERTEX
  5
9A
330
5F
100
AcDbEntity
  8
ｴｸｽﾃﾘｱ商品
 62
    37
370
    35
100
AcDbFaceRecord
 10
0.0
 20
0.0
 30
0.0
 70
   128
 71
    31
 72
    33
 73
    34
 74
    32
  0
VERTEX
  5
9B
330
5F
100
AcDbEntity
  8
ｴｸｽﾃﾘｱ商品
 62
    37
370
    35
100
AcDbFaceRecord
 10
0.0
 20
0.0
 30
0.0
 70
   128
 71
    33
 72
    35
 73
    36
 74
    34
  0
VERTEX
  5
9C
330
5F
100
AcDbEntity
  8
ｴｸｽﾃﾘｱ商品
 62
    37
370
    35
100
AcDbFaceRecord
 10
0.0
 20
0.0
 30
0.0
 70
   128
 71
    35
 72
    25
 73
    28
 74
    36
  0
VERTEX
  5
9D
330
5F
100
AcDbEntity
  8
ｴｸｽﾃﾘｱ商品
 62
    37
370
    35
100
AcDbFaceRecord
 10
0.0
 20
0.0
 30
0.0
 70
   128
 71
    25
 72
    35
 73
    33
 74
    31
  0
VERTEX
  5
9E
330
5F
100
AcDbEntity
  8
ｴｸｽﾃﾘｱ商品
 62
    37
370
    35
100
AcDbFaceRecord
 10
0.0
 20
0.0
 30
0.0
 70
   128
 71
    25
 72
    31
 73
    29
 74
    26
  0
VERTEX
  5
9F
330
5F
100
AcDbEntity
  8
ｴｸｽﾃﾘｱ商品
 62
    37
370
    35
100
AcDbFaceRecord
 10
0.0
 20
0.0
 30
0.0
 70
   128
 71
    28
 72
    27
 73
    30
 74
    32
  0
VERTEX
  5
A0
330
5F
100
AcDbEntity
  8
ｴｸｽﾃﾘｱ商品
 62
    37
370
    35
100
AcDbFaceRecord
 10
0.0
 20
0.0
 30
0.0
 70
   128
 71
    28
 72
    32
 73
    34
 74
    36
  0
SEQEND
  5
60
330
5F
100
AcDbEntity
  8
ｴｸｽﾃﾘｱ商品
370
    20
  0
POLYLINE
  5
A1
330
3C
100
AcDbEntity
  8
ｴｸｽﾃﾘｱ商品
 62
   254
370
     0
100
AcDbPolyFaceMesh
 66
     1
 10
0.0
 20
0.0
 30
0.0
 70
    64
 71
    36
 72
    30
  0
VERTEX
  5
A3
330
A1
100
AcDbEntity
  8
ｴｸｽﾃﾘｱ商品
 62
   254
370
     0
100
AcDbVertex
100
AcDbPolyFaceMeshVertex
 10
-194.5
 20
-30.0
 30
1077.0
 70
   192
  0
VERTEX
  5
A4
330
A1
100
AcDbEntity
  8
ｴｸｽﾃﾘｱ商品
 62
   254
370
     0
100
AcDbVertex
100
AcDbPolyFaceMeshVertex
 10
-194.5
 20
-29.99999999999999
 30
1162.0
 70
   192
  0
VERTEX
  5
A5
330
A1
100
AcDbEntity
  8
ｴｸｽﾃﾘｱ商品
 62
   254
370
     0
100
AcDbVertex
100
AcDbPolyFaceMeshVertex
 10
-193.5
 20
-30.0
 30
1162.0
 70
   192
  0
VERTEX
  5
A6
330
A1
100
AcDbEntity
  8
ｴｸｽﾃﾘｱ商品
 62
   254
370
     0
100
AcDbVertex
100
AcDbPolyFaceMeshVertex
 10
-193.5
 20
-30.0
 30
1077.0
 70
   192
  0
VERTEX
  5
A7
330
A1
100
AcDbEntity
  8
ｴｸｽﾃﾘｱ商品
 62
   254
370
     0
100
AcDbVertex
100
AcDbPolyFaceMeshVertex
 10
-194.5
 20
-51.00000000000001
 30
1159.0
 70
   192
  0
VERTEX
  5
A8
330
A1
100
AcDbEntity
  8
ｴｸｽﾃﾘｱ商品
 62
   254
370
     0
100
AcDbVertex
100
AcDbPolyFaceMeshVertex
 10
-193.5
 20
-51.00000000000001
 30
1159.0
 70
   192
  0
VERTEX
  5
A9
330
A1
100
AcDbEntity
  8
ｴｸｽﾃﾘｱ商品
 62
   254
370
     0
100
AcDbVertex
100
AcDbPolyFaceMeshVertex
 10
-194.5
 20
-52.00000000000001
 30
1158.0
 70
   192
  0
VERTEX
  5
AA
330
A1
100
AcDbEntity
  8
ｴｸｽﾃﾘｱ商品
 62
   254
370
     0
100
AcDbVertex
100
AcDbPolyFaceMeshVertex
 10
-193.5
 20
-52.00000000000001
 30
1158.0
 70
   192
  0
VERTEX
  5
AB
330
A1
100
AcDbEntity
  8
ｴｸｽﾃﾘｱ商品
 62
   254
370
     0
100
AcDbVertex
100
AcDbPolyFaceMeshVertex
 10
-194.5
 20
-52.00000000000001
 30
1078.0
 70
   192
  0
VERTEX
  5
AC
330
A1
100
AcDbEntity
  8
ｴｸｽﾃﾘｱ商品
 62
   254
370
     0
100
AcDbVertex
100
AcDbPolyFaceMeshVertex
 10
-193.5
 20
-52.00000000000001
 30
1078.0
 70
   192
  0
VERTEX
  5
AD
330
A1
100
AcDbEntity
  8
ｴｸｽﾃﾘｱ商品
 62
   254
370
     0
100
AcDbVertex
100
AcDbPolyFaceMeshVertex
 10
-194.5
 20
-51.00000000000001
 30
1077.0
 70
   192
  0
VERTEX
  5
AE
330
A1
100
AcDbEntity
  8
ｴｸｽﾃﾘｱ商品
 62
   254
370
     0
100
AcDbVertex
100
AcDbPolyFaceMeshVertex
 10
-193.5
 20
-51.00000000000001
 30
1077.0
 70
   192
  0
VERTEX
  5
AF
330
A1
100
AcDbEntity
  8
ｴｸｽﾃﾘｱ商品
 62
   254
370
     0
100
AcDbVertex
100
AcDbPolyFaceMeshVertex
 10
192.5000000000001
 20
-30.0
 30
1077.0
 70
   192
  0
VERTEX
  5
B0
330
A1
100
AcDbEntity
  8
ｴｸｽﾃﾘｱ商品
 62
   254
370
     0
100
AcDbVertex
100
AcDbPolyFaceMeshVertex
 10
192.5000000000001
 20
-29.99999999999999
 30
1162.0
 70
   192
  0
VERTEX
  5
B1
330
A1
100
AcDbEntity
  8
ｴｸｽﾃﾘｱ商品
 62
   254
370
     0
100
AcDbVertex
100
AcDbPolyFaceMeshVertex
 10
193.5000000000001
 20
-30.0
 30
1162.0
 70
   192
  0
VERTEX
  5
B2
330
A1
100
AcDbEntity
  8
ｴｸｽﾃﾘｱ商品
 62
   254
370
     0
100
AcDbVertex
100
AcDbPolyFaceMeshVertex
 10
193.5000000000001
 20
-30.0
 30
1077.0
 70
   192
  0
VERTEX
  5
B3
330
A1
100
AcDbEntity
  8
ｴｸｽﾃﾘｱ商品
 62
   254
370
     0
100
AcDbVertex
100
AcDbPolyFaceMeshVertex
 10
192.5000000000001
 20
-51.00000000000001
 30
1159.0
 70
   192
  0
VERTEX
  5
B4
330
A1
100
AcDbEntity
  8
ｴｸｽﾃﾘｱ商品
 62
   254
370
     0
100
AcDbVertex
100
AcDbPolyFaceMeshVertex
 10
193.5000000000001
 20
-51.00000000000001
 30
1159.0
 70
   192
  0
VERTEX
  5
B5
330
A1
100
AcDbEntity
  8
ｴｸｽﾃﾘｱ商品
 62
   254
370
     0
100
AcDbVertex
100
AcDbPolyFaceMeshVertex
 10
192.5000000000001
 20
-52.00000000000001
 30
1158.0
 70
   192
  0
VERTEX
  5
B6
330
A1
100
AcDbEntity
  8
ｴｸｽﾃﾘｱ商品
 62
   254
370
     0
100
AcDbVertex
100
AcDbPolyFaceMeshVertex
 10
193.5000000000001
 20
-52.00000000000001
 30
1158.0
 70
   192
  0
VERTEX
  5
B7
330
A1
100
AcDbEntity
  8
ｴｸｽﾃﾘｱ商品
 62
   254
370
     0
100
AcDbVertex
100
AcDbPolyFaceMeshVertex
 10
192.5000000000001
 20
-52.00000000000001
 30
1078.0
 70
   192
  0
VERTEX
  5
B8
330
A1
100
AcDbEntity
  8
ｴｸｽﾃﾘｱ商品
 62
   254
370
     0
100
AcDbVertex
100
AcDbPolyFaceMeshVertex
 10
193.5000000000001
 20
-52.00000000000001
 30
1078.0
 70
   192
  0
VERTEX
  5
B9
330
A1
100
AcDbEntity
  8
ｴｸｽﾃﾘｱ商品
 62
   254
370
     0
100
AcDbVertex
100
AcDbPolyFaceMeshVertex
 10
192.5000000000001
 20
-51.00000000000001
 30
1077.0
 70
   192
  0
VERTEX
  5
BA
330
A1
100
AcDbEntity
  8
ｴｸｽﾃﾘｱ商品
 62
   254
370
     0
100
AcDbVertex
100
AcDbPolyFaceMeshVertex
 10
193.5000000000001
 20
-51.00000000000001
 30
1077.0
 70
   192
  0
VERTEX
  5
BB
330
A1
100
AcDbEntity
  8
ｴｸｽﾃﾘｱ商品
 62
   254
370
     0
100
AcDbVertex
100
AcDbPolyFaceMeshVertex
 10
-193.5
 20
-30.0
 30
977.0000000000001
 70
   192
  0
VERTEX
  5
BC
330
A1
100
AcDbEntity
  8
ｴｸｽﾃﾘｱ商品
 62
   254
370
     0
100
AcDbVertex
100
AcDbPolyFaceMeshVertex
 10
-193.5
 20
-29.99999999999999
 30
1062.0
 70
   192
  0
VERTEX
  5
BD
330
A1
100
AcDbEntity
  8
ｴｸｽﾃﾘｱ商品
 62
   254
370
     0
100
AcDbVertex
100
AcDbPolyFaceMeshVertex
 10
192.5000000000001
 20
-30.00000000000002
 30
1062.0
 70
   192
  0
VERTEX
  5
BE
330
A1
100
AcDbEntity
  8
ｴｸｽﾃﾘｱ商品
 62
   254
370
     0
100
AcDbVertex
100
AcDbPolyFaceMeshVertex
 10
192.5000000000001
 20
-30.00000000000002
 30
977.0000000000001
 70
   192
  0
VERTEX
  5
BF
330
A1
100
AcDbEntity
  8
ｴｸｽﾃﾘｱ商品
 62
   254
370
     0
100
AcDbVertex
100
AcDbPolyFaceMeshVertex
 10
-193.5
 20
-51.00000000000001
 30
1059.0
 70
   192
  0
VERTEX
  5
C0
330
A1
100
AcDbEntity
  8
ｴｸｽﾃﾘｱ商品
 62
   254
370
     0
100
AcDbVertex
100
AcDbPolyFaceMeshVertex
 10
192.5000000000001
 20
-51.00000000000002
 30
1059.0
 70
   192
  0
VERTEX
  5
C1
330
A1
100
AcDbEntity
  8
ｴｸｽﾃﾘｱ商品
 62
   254
370
     0
100
AcDbVertex
100
AcDbPolyFaceMeshVertex
 10
-193.5
 20
-52.00000000000001
 30
1058.0
 70
   192
  0
VERTEX
  5
C2
330
A1
100
AcDbEntity
  8
ｴｸｽﾃﾘｱ商品
 62
   254
370
     0
100
AcDbVertex
100
AcDbPolyFaceMeshVertex
 10
192.5000000000001
 20
-52.00000000000003
 30
1058.0
 70
   192
  0
VERTEX
  5
C3
330
A1
100
AcDbEntity
  8
ｴｸｽﾃﾘｱ商品
 62
   254
370
     0
100
AcDbVertex
100
AcDbPolyFaceMeshVertex
 10
-193.5
 20
-52.00000000000001
 30
978.0000000000001
 70
   192
  0
VERTEX
  5
C4
330
A1
100
AcDbEntity
  8
ｴｸｽﾃﾘｱ商品
 62
   254
370
     0
100
AcDbVertex
100
AcDbPolyFaceMeshVertex
 10
192.5000000000001
 20
-52.00000000000004
 30
978.0000000000001
 70
   192
  0
VERTEX
  5
C5
330
A1
100
AcDbEntity
  8
ｴｸｽﾃﾘｱ商品
 62
   254
370
     0
100
AcDbVertex
100
AcDbPolyFaceMeshVertex
 10
-193.5
 20
-51.00000000000001
 30
977.0000000000001
 70
   192
  0
VERTEX
  5
C6
330
A1
100
AcDbEntity
  8
ｴｸｽﾃﾘｱ商品
 62
   254
370
     0
100
AcDbVertex
100
AcDbPolyFaceMeshVertex
 10
192.5000000000001
 20
-51.00000000000003
 30
977.0000000000001
 70
   192
  0
VERTEX
  5
C7
330
A1
100
AcDbEntity
  8
ｴｸｽﾃﾘｱ商品
 62
   254
370
     0
100
AcDbFaceRecord
 10
0.0
 20
0.0
 30
0.0
 70
   128
 71
     1
 72
     2
 73
     3
 74
     4
  0
VERTEX
  5
C8
330
A1
100
AcDbEntity
  8
ｴｸｽﾃﾘｱ商品
 62
   254
370
     0
100
AcDbFaceRecord
 10
0.0
 20
0.0
 30
0.0
 70
   128
 71
     2
 72
     5
 73
     6
 74
     3
  0
VERTEX
  5
C9
330
A1
100
AcDbEntity
  8
ｴｸｽﾃﾘｱ商品
 62
   254
370
     0
100
AcDbFaceRecord
 10
0.0
 20
0.0
 30
0.0
 70
   128
 71
     5
 72
     7
 73
     8
 74
     6
  0
VERTEX
  5
CA
330
A1
100
AcDbEntity
  8
ｴｸｽﾃﾘｱ商品
 62
   254
370
     0
100
AcDbFaceRecord
 10
0.0
 20
0.0
 30
0.0
 70
   128
 71
     7
 72
     9
 73
    10
 74
     8
  0
VERTEX
  5
CB
330
A1
100
AcDbEntity
  8
ｴｸｽﾃﾘｱ商品
 62
   254
370
     0
100
AcDbFaceRecord
 10
0.0
 20
0.0
 30
0.0
 70
   128
 71
     9
 72
    11
 73
    12
 74
    10
  0
VERTEX
  5
CC
330
A1
100
AcDbEntity
  8
ｴｸｽﾃﾘｱ商品
 62
   254
370
     0
100
AcDbFaceRecord
 10
0.0
 20
0.0
 30
0.0
 70
   128
 71
    11
 72
     1
 73
     4
 74
    12
  0
VERTEX
  5
CD
330
A1
100
AcDbEntity
  8
ｴｸｽﾃﾘｱ商品
 62
   254
370
     0
100
AcDbFaceRecord
 10
0.0
 20
0.0
 30
0.0
 70
   128
 71
     1
 72
    11
 73
     9
 74
     7
  0
VERTEX
  5
CE
330
A1
100
AcDbEntity
  8
ｴｸｽﾃﾘｱ商品
 62
   254
370
     0
100
AcDbFaceRecord
 10
0.0
 20
0.0
 30
0.0
 70
   128
 71
     1
 72
     7
 73
     5
 74
     2
  0
VERTEX
  5
CF
330
A1
100
AcDbEntity
  8
ｴｸｽﾃﾘｱ商品
 62
   254
370
     0
100
AcDbFaceRecord
 10
0.0
 20
0.0
 30
0.0
 70
   128
 71
     4
 72
     3
 73
     6
 74
     8
  0
VERTEX
  5
D0
330
A1
100
AcDbEntity
  8
ｴｸｽﾃﾘｱ商品
 62
   254
370
     0
100
AcDbFaceRecord
 10
0.0
 20
0.0
 30
0.0
 70
   128
 71
     4
 72
     8
 73
    10
 74
    12
  0
VERTEX
  5
D1
330
A1
100
AcDbEntity
  8
ｴｸｽﾃﾘｱ商品
 62
   254
370
     0
100
AcDbFaceRecord
 10
0.0
 20
0.0
 30
0.0
 70
   128
 71
    13
 72
    14
 73
    15
 74
    16
  0
VERTEX
  5
D2
330
A1
100
AcDbEntity
  8
ｴｸｽﾃﾘｱ商品
 62
   254
370
     0
100
AcDbFaceRecord
 10
0.0
 20
0.0
 30
0.0
 70
   128
 71
    14
 72
    17
 73
    18
 74
    15
  0
VERTEX
  5
D3
330
A1
100
AcDbEntity
  8
ｴｸｽﾃﾘｱ商品
 62
   254
370
     0
100
AcDbFaceRecord
 10
0.0
 20
0.0
 30
0.0
 70
   128
 71
    17
 72
    19
 73
    20
 74
    18
  0
VERTEX
  5
D4
330
A1
100
AcDbEntity
  8
ｴｸｽﾃﾘｱ商品
 62
   254
370
     0
100
AcDbFaceRecord
 10
0.0
 20
0.0
 30
0.0
 70
   128
 71
    19
 72
    21
 73
    22
 74
    20
  0
VERTEX
  5
D5
330
A1
100
AcDbEntity
  8
ｴｸｽﾃﾘｱ商品
 62
   254
370
     0
100
AcDbFaceRecord
 10
0.0
 20
0.0
 30
0.0
 70
   128
 71
    21
 72
    23
 73
    24
 74
    22
  0
VERTEX
  5
D6
330
A1
100
AcDbEntity
  8
ｴｸｽﾃﾘｱ商品
 62
   254
370
     0
100
AcDbFaceRecord
 10
0.0
 20
0.0
 30
0.0
 70
   128
 71
    23
 72
    13
 73
    16
 74
    24
  0
VERTEX
  5
D7
330
A1
100
AcDbEntity
  8
ｴｸｽﾃﾘｱ商品
 62
   254
370
     0
100
AcDbFaceRecord
 10
0.0
 20
0.0
 30
0.0
 70
   128
 71
    13
 72
    23
 73
    21
 74
    19
  0
VERTEX
  5
D8
330
A1
100
AcDbEntity
  8
ｴｸｽﾃﾘｱ商品
 62
   254
370
     0
100
AcDbFaceRecord
 10
0.0
 20
0.0
 30
0.0
 70
   128
 71
    13
 72
    19
 73
    17
 74
    14
  0
VERTEX
  5
D9
330
A1
100
AcDbEntity
  8
ｴｸｽﾃﾘｱ商品
 62
   254
370
     0
100
AcDbFaceRecord
 10
0.0
 20
0.0
 30
0.0
 70
   128
 71
    16
 72
    15
 73
    18
 74
    20
  0
VERTEX
  5
DA
330
A1
100
AcDbEntity
  8
ｴｸｽﾃﾘｱ商品
 62
   254
370
     0
100
AcDbFaceRecord
 10
0.0
 20
0.0
 30
0.0
 70
   128
 71
    16
 72
    20
 73
    22
 74
    24
  0
VERTEX
  5
DB
330
A1
100
AcDbEntity
  8
ｴｸｽﾃﾘｱ商品
 62
    37
370
    35
100
AcDbFaceRecord
 10
0.0
 20
0.0
 30
0.0
 70
   128
 71
    25
 72
    26
 73
    27
 74
    28
  0
VERTEX
  5
DC
330
A1
100
AcDbEntity
  8
ｴｸｽﾃﾘｱ商品
 62
    37
370
    35
100
AcDbFaceRecord
 10
0.0
 20
0.0
 30
0.0
 70
   128
 71
    26
 72
    29
 73
    30
 74
    27
  0
VERTEX
  5
DD
330
A1
100
AcDbEntity
  8
ｴｸｽﾃﾘｱ商品
 62
    37
370
    35
100
AcDbFaceRecord
 10
0.0
 20
0.0
 30
0.0
 70
   128
 71
    29
 72
    31
 73
    32
 74
    30
  0
VERTEX
  5
DE
330
A1
100
AcDbEntity
  8
ｴｸｽﾃﾘｱ商品
 62
    37
370
    35
100
AcDbFaceRecord
 10
0.0
 20
0.0
 30
0.0
 70
   128
 71
    31
 72
    33
 73
    34
 74
    32
  0
VERTEX
  5
DF
330
A1
100
AcDbEntity
  8
ｴｸｽﾃﾘｱ商品
 62
    37
370
    35
100
AcDbFaceRecord
 10
0.0
 20
0.0
 30
0.0
 70
   128
 71
    33
 72
    35
 73
    36
 74
    34
  0
VERTEX
  5
E0
330
A1
100
AcDbEntity
  8
ｴｸｽﾃﾘｱ商品
 62
    37
370
    35
100
AcDbFaceRecord
 10
0.0
 20
0.0
 30
0.0
 70
   128
 71
    35
 72
    25
 73
    28
 74
    36
  0
VERTEX
  5
E1
330
A1
100
AcDbEntity
  8
ｴｸｽﾃﾘｱ商品
 62
    37
370
    35
100
AcDbFaceRecord
 10
0.0
 20
0.0
 30
0.0
 70
   128
 71
    25
 72
    35
 73
    33
 74
    31
  0
VERTEX
  5
E2
330
A1
100
AcDbEntity
  8
ｴｸｽﾃﾘｱ商品
 62
    37
370
    35
100
AcDbFaceRecord
 10
0.0
 20
0.0
 30
0.0
 70
   128
 71
    25
 72
    31
 73
    29
 74
    26
  0
VERTEX
  5
E3
330
A1
100
AcDbEntity
  8
ｴｸｽﾃﾘｱ商品
 62
    37
370
    35
100
AcDbFaceRecord
 10
0.0
 20
0.0
 30
0.0
 70
   128
 71
    28
 72
    27
 73
    30
 74
    32
  0
VERTEX
  5
E4
330
A1
100
AcDbEntity
  8
ｴｸｽﾃﾘｱ商品
 62
    37
370
    35
100
AcDbFaceRecord
 10
0.0
 20
0.0
 30
0.0
 70
   128
 71
    28
 72
    32
 73
    34
 74
    36
  0
SEQEND
  5
A2
330
A1
100
AcDbEntity
  8
ｴｸｽﾃﾘｱ商品
370
     0
  0
POLYLINE
  5
E5
330
3C
100
AcDbEntity
  8
ｴｸｽﾃﾘｱ商品
 62
   254
370
     0
100
AcDbPolyFaceMesh
 66
     1
 10
0.0
 20
0.0
 30
0.0
 70
    64
 71
    48
 72
    38
  0
VERTEX
  5
E7
330
E5
100
AcDbEntity
  8
ｴｸｽﾃﾘｱ商品
 62
   254
370
     0
100
AcDbVertex
100
AcDbPolyFaceMeshVertex
 10
-194.5
 20
-30.0
 30
977.0000000000001
 70
   192
  0
VERTEX
  5
E8
330
E5
100
AcDbEntity
  8
ｴｸｽﾃﾘｱ商品
 62
   254
370
     0
100
AcDbVertex
100
AcDbPolyFaceMeshVertex
 10
-194.5
 20
-29.99999999999999
 30
1062.0
 70
   192
  0
VERTEX
  5
E9
330
E5
100
AcDbEntity
  8
ｴｸｽﾃﾘｱ商品
 62
   254
370
     0
100
AcDbVertex
100
AcDbPolyFaceMeshVertex
 10
-193.5
 20
-30.0
 30
1062.0
 70
   192
  0
VERTEX
  5
EA
330
E5
100
AcDbEntity
  8
ｴｸｽﾃﾘｱ商品
 62
   254
370
     0
100
AcDbVertex
100
AcDbPolyFaceMeshVertex
 10
-193.5
 20
-30.0
 30
977.0000000000001
 70
   192
  0
VERTEX
  5
EB
330
E5
100
AcDbEntity
  8
ｴｸｽﾃﾘｱ商品
 62
   254
370
     0
100
AcDbVertex
100
AcDbPolyFaceMeshVertex
 10
-194.5
 20
-51.00000000000001
 30
1059.0
 70
   192
  0
VERTEX
  5
EC
330
E5
100
AcDbEntity
  8
ｴｸｽﾃﾘｱ商品
 62
   254
370
     0
100
AcDbVertex
100
AcDbPolyFaceMeshVertex
 10
-193.5
 20
-51.00000000000001
 30
1059.0
 70
   192
  0
VERTEX
  5
ED
330
E5
100
AcDbEntity
  8
ｴｸｽﾃﾘｱ商品
 62
   254
370
     0
100
AcDbVertex
100
AcDbPolyFaceMeshVertex
 10
-194.5
 20
-52.00000000000001
 30
1058.0
 70
   192
  0
VERTEX
  5
EE
330
E5
100
AcDbEntity
  8
ｴｸｽﾃﾘｱ商品
 62
   254
370
     0
100
AcDbVertex
100
AcDbPolyFaceMeshVertex
 10
-193.5
 20
-52.00000000000001
 30
1058.0
 70
   192
  0
VERTEX
  5
EF
330
E5
100
AcDbEntity
  8
ｴｸｽﾃﾘｱ商品
 62
   254
370
     0
100
AcDbVertex
100
AcDbPolyFaceMeshVertex
 10
-194.5
 20
-52.00000000000001
 30
978.0000000000001
 70
   192
  0
VERTEX
  5
F0
330
E5
100
AcDbEntity
  8
ｴｸｽﾃﾘｱ商品
 62
   254
370
     0
100
AcDbVertex
100
AcDbPolyFaceMeshVertex
 10
-193.5
 20
-52.00000000000001
 30
978.0000000000001
 70
   192
  0
VERTEX
  5
F1
330
E5
100
AcDbEntity
  8
ｴｸｽﾃﾘｱ商品
 62
   254
370
     0
100
AcDbVertex
100
AcDbPolyFaceMeshVertex
 10
-194.5
 20
-51.00000000000001
 30
977.0000000000001
 70
   192
  0
VERTEX
  5
F2
330
E5
100
AcDbEntity
  8
ｴｸｽﾃﾘｱ商品
 62
   254
370
     0
100
AcDbVertex
100
AcDbPolyFaceMeshVertex
 10
-193.5
 20
-51.00000000000001
 30
977.0000000000001
 70
   192
  0
VERTEX
  5
F3
330
E5
100
AcDbEntity
  8
ｴｸｽﾃﾘｱ商品
 62
   254
370
     0
100
AcDbVertex
100
AcDbPolyFaceMeshVertex
 10
192.5000000000001
 20
-30.0
 30
977.0000000000001
 70
   192
  0
VERTEX
  5
F4
330
E5
100
AcDbEntity
  8
ｴｸｽﾃﾘｱ商品
 62
   254
370
     0
100
AcDbVertex
100
AcDbPolyFaceMeshVertex
 10
192.5000000000001
 20
-29.99999999999999
 30
1062.0
 70
   192
  0
VERTEX
  5
F5
330
E5
100
AcDbEntity
  8
ｴｸｽﾃﾘｱ商品
 62
   254
370
     0
100
AcDbVertex
100
AcDbPolyFaceMeshVertex
 10
193.5000000000001
 20
-30.0
 30
1062.0
 70
   192
  0
VERTEX
  5
F6
330
E5
100
AcDbEntity
  8
ｴｸｽﾃﾘｱ商品
 62
   254
370
     0
100
AcDbVertex
100
AcDbPolyFaceMeshVertex
 10
193.5000000000001
 20
-30.0
 30
977.0000000000001
 70
   192
  0
VERTEX
  5
F7
330
E5
100
AcDbEntity
  8
ｴｸｽﾃﾘｱ商品
 62
   254
370
     0
100
AcDbVertex
100
AcDbPolyFaceMeshVertex
 10
192.5000000000001
 20
-51.00000000000001
 30
1059.0
 70
   192
  0
VERTEX
  5
F8
330
E5
100
AcDbEntity
  8
ｴｸｽﾃﾘｱ商品
 62
   254
370
     0
100
AcDbVertex
100
AcDbPolyFaceMeshVertex
 10
193.5000000000001
 20
-51.00000000000001
 30
1059.0
 70
   192
  0
VERTEX
  5
F9
330
E5
100
AcDbEntity
  8
ｴｸｽﾃﾘｱ商品
 62
   254
370
     0
100
AcDbVertex
100
AcDbPolyFaceMeshVertex
 10
192.5000000000001
 20
-52.00000000000001
 30
1058.0
 70
   192
  0
VERTEX
  5
FA
330
E5
100
AcDbEntity
  8
ｴｸｽﾃﾘｱ商品
 62
   254
370
     0
100
AcDbVertex
100
AcDbPolyFaceMeshVertex
 10
193.5000000000001
 20
-52.00000000000001
 30
1058.0
 70
   192
  0
VERTEX
  5
FB
330
E5
100
AcDbEntity
  8
ｴｸｽﾃﾘｱ商品
 62
   254
370
     0
100
AcDbVertex
100
AcDbPolyFaceMeshVertex
 10
192.5000000000001
 20
-52.00000000000001
 30
978.0000000000001
 70
   192
  0
VERTEX
  5
FC
330
E5
100
AcDbEntity
  8
ｴｸｽﾃﾘｱ商品
 62
   254
370
     0
100
AcDbVertex
100
AcDbPolyFaceMeshVertex
 10
193.5000000000001
 20
-52.00000000000001
 30
978.0000000000001
 70
   192
  0
VERTEX
  5
FD
330
E5
100
AcDbEntity
  8
ｴｸｽﾃﾘｱ商品
 62
   254
370
     0
100
AcDbVertex
100
AcDbPolyFaceMeshVertex
 10
192.5000000000001
 20
-51.00000000000001
 30
977.0000000000001
 70
   192
  0
VERTEX
  5
FE
330
E5
100
AcDbEntity
  8
ｴｸｽﾃﾘｱ商品
 62
   254
370
     0
100
AcDbVertex
100
AcDbPolyFaceMeshVertex
 10
193.5000000000001
 20
-51.00000000000001
 30
977.0000000000001
 70
   192
  0
VERTEX
  5
FF
330
E5
100
AcDbEntity
  8
ｴｸｽﾃﾘｱ商品
 62
   254
370
     0
100
AcDbVertex
100
AcDbPolyFaceMeshVertex
 10
108.5000000000001
 20
-24.8
 30
633.8249999999999
 70
   192
  0
VERTEX
  5
100
330
E5
100
AcDbEntity
  8
ｴｸｽﾃﾘｱ商品
 62
   254
370
     0
100
AcDbVertex
100
AcDbPolyFaceMeshVertex
 10
108.5000000000001
 20
-52.8
 30
633.8249999999999
 70
   192
  0
VERTEX
  5
101
330
E5
100
AcDbEntity
  8
ｴｸｽﾃﾘｱ商品
 62
   254
370
     0
100
AcDbVertex
100
AcDbPolyFaceMeshVertex
 10
108.5000000000001
 20
-52.8
 30
633.925
 70
   192
  0
VERTEX
  5
102
330
E5
100
AcDbEntity
  8
ｴｸｽﾃﾘｱ商品
 62
   254
370
     0
100
AcDbVertex
100
AcDbPolyFaceMeshVertex
 10
108.5000000000001
 20
-24.8
 30
633.925
 70
   192
  0
VERTEX
  5
103
330
E5
100
AcDbEntity
  8
ｴｸｽﾃﾘｱ商品
 62
   254
370
     0
100
AcDbVertex
100
AcDbPolyFaceMeshVertex
 10
138.5000000000001
 20
-52.8
 30
633.8249999999999
 70
   192
  0
VERTEX
  5
104
330
E5
100
AcDbEntity
  8
ｴｸｽﾃﾘｱ商品
 62
   254
370
     0
100
AcDbVertex
100
AcDbPolyFaceMeshVertex
 10
138.5000000000001
 20
-52.8
 30
633.925
 70
   192
  0
VERTEX
  5
105
330
E5
100
AcDbEntity
  8
ｴｸｽﾃﾘｱ商品
 62
   254
370
     0
100
AcDbVertex
100
AcDbPolyFaceMeshVertex
 10
138.5000000000001
 20
-24.8
 30
633.8249999999999
 70
   192
  0
VERTEX
  5
106
330
E5
100
AcDbEntity
  8
ｴｸｽﾃﾘｱ商品
 62
   254
370
     0
100
AcDbVertex
100
AcDbPolyFaceMeshVertex
 10
138.5000000000001
 20
-24.8
 30
633.925
 70
   192
  0
VERTEX
  5
107
330
E5
100
AcDbEntity
  8
ｴｸｽﾃﾘｱ商品
 62
   254
370
     0
100
AcDbVertex
100
AcDbPolyFaceMeshVertex
 10
108.5000000000001
 20
-50.8
 30
743.8249999999999
 70
   192
  0
VERTEX
  5
108
330
E5
100
AcDbEntity
  8
ｴｸｽﾃﾘｱ商品
 62
   254
370
     0
100
AcDbVertex
100
AcDbPolyFaceMeshVertex
 10
108.5000000000001
 20
-53.8
 30
743.8249999999999
 70
   192
  0
VERTEX
  5
109
330
E5
100
AcDbEntity
  8
ｴｸｽﾃﾘｱ商品
 62
   254
370
     0
100
AcDbVertex
100
AcDbPolyFaceMeshVertex
 10
108.5000000000001
 20
-53.8
 30
746.8249999999999
 70
   192
  0
VERTEX
  5
10A
330
E5
100
AcDbEntity
  8
ｴｸｽﾃﾘｱ商品
 62
   254
370
     0
100
AcDbVertex
100
AcDbPolyFaceMeshVertex
 10
108.5000000000001
 20
-50.8
 30
746.8249999999999
 70
   192
  0
VERTEX
  5
10B
330
E5
100
AcDbEntity
  8
ｴｸｽﾃﾘｱ商品
 62
   254
370
     0
100
AcDbVertex
100
AcDbPolyFaceMeshVertex
 10
138.5000000000001
 20
-53.8
 30
743.8249999999999
 70
   192
  0
VERTEX
  5
10C
330
E5
100
AcDbEntity
  8
ｴｸｽﾃﾘｱ商品
 62
   254
370
     0
100
AcDbVertex
100
AcDbPolyFaceMeshVertex
 10
138.5000000000001
 20
-53.8
 30
746.8249999999999
 70
   192
  0
VERTEX
  5
10D
330
E5
100
AcDbEntity
  8
ｴｸｽﾃﾘｱ商品
 62
   254
370
     0
100
AcDbVertex
100
AcDbPolyFaceMeshVertex
 10
138.5000000000001
 20
-50.8
 30
743.8249999999999
 70
   192
  0
VERTEX
  5
10E
330
E5
100
AcDbEntity
  8
ｴｸｽﾃﾘｱ商品
 62
   254
370
     0
100
AcDbVertex
100
AcDbPolyFaceMeshVertex
 10
138.5000000000001
 20
-50.8
 30
746.8249999999999
 70
   192
  0
VERTEX
  5
10F
330
E5
100
AcDbEntity
  8
ｴｸｽﾃﾘｱ商品
 62
   254
370
     0
100
AcDbVertex
100
AcDbPolyFaceMeshVertex
 10
107.5000000000001
 20
-51.8
 30
747.3250000000002
 70
   192
  0
VERTEX
  5
110
330
E5
100
AcDbEntity
  8
ｴｸｽﾃﾘｱ商品
 62
   254
370
     0
100
AcDbVertex
100
AcDbPolyFaceMeshVertex
 10
107.5000000000001
 20
-51.8
 30
729.8250000000002
 70
   192
  0
VERTEX
  5
111
330
E5
100
AcDbEntity
  8
ｴｸｽﾃﾘｱ商品
 62
   254
370
     0
100
AcDbVertex
100
AcDbPolyFaceMeshVertex
 10
107.5000000000001
 20
-51.9
 30
729.8250000000002
 70
   192
  0
VERTEX
  5
112
330
E5
100
AcDbEntity
  8
ｴｸｽﾃﾘｱ商品
 62
   254
370
     0
100
AcDbVertex
100
AcDbPolyFaceMeshVertex
 10
107.5000000000001
 20
-51.89999999999999
 30
747.3250000000002
 70
   192
  0
VERTEX
  5
113
330
E5
100
AcDbEntity
  8
ｴｸｽﾃﾘｱ商品
 62
   254
370
     0
100
AcDbVertex
100
AcDbPolyFaceMeshVertex
 10
139.5000000000001
 20
-51.8
 30
729.8250000000002
 70
   192
  0
VERTEX
  5
114
330
E5
100
AcDbEntity
  8
ｴｸｽﾃﾘｱ商品
 62
   254
370
     0
100
AcDbVertex
100
AcDbPolyFaceMeshVertex
 10
139.5000000000001
 20
-51.9
 30
729.8250000000002
 70
   192
  0
VERTEX
  5
115
330
E5
100
AcDbEntity
  8
ｴｸｽﾃﾘｱ商品
 62
   254
370
     0
100
AcDbVertex
100
AcDbPolyFaceMeshVertex
 10
139.5000000000001
 20
-51.8
 30
747.3250000000002
 70
   192
  0
VERTEX
  5
116
330
E5
100
AcDbEntity
  8
ｴｸｽﾃﾘｱ商品
 62
   254
370
     0
100
AcDbVertex
100
AcDbPolyFaceMeshVertex
 10
139.5000000000001
 20
-51.89999999999999
 30
747.3250000000002
 70
   192
  0
VERTEX
  5
117
330
E5
100
AcDbEntity
  8
ｴｸｽﾃﾘｱ商品
 62
   254
370
     0
100
AcDbFaceRecord
 10
0.0
 20
0.0
 30
0.0
 70
   128
 71
     1
 72
     2
 73
     3
 74
     4
  0
VERTEX
  5
118
330
E5
100
AcDbEntity
  8
ｴｸｽﾃﾘｱ商品
 62
   254
370
     0
100
AcDbFaceRecord
 10
0.0
 20
0.0
 30
0.0
 70
   128
 71
     2
 72
     5
 73
     6
 74
     3
  0
VERTEX
  5
119
330
E5
100
AcDbEntity
  8
ｴｸｽﾃﾘｱ商品
 62
   254
370
     0
100
AcDbFaceRecord
 10
0.0
 20
0.0
 30
0.0
 70
   128
 71
     5
 72
     7
 73
     8
 74
     6
  0
VERTEX
  5
11A
330
E5
100
AcDbEntity
  8
ｴｸｽﾃﾘｱ商品
 62
   254
370
     0
100
AcDbFaceRecord
 10
0.0
 20
0.0
 30
0.0
 70
   128
 71
     7
 72
     9
 73
    10
 74
     8
  0
VERTEX
  5
11B
330
E5
100
AcDbEntity
  8
ｴｸｽﾃﾘｱ商品
 62
   254
370
     0
100
AcDbFaceRecord
 10
0.0
 20
0.0
 30
0.0
 70
   128
 71
     9
 72
    11
 73
    12
 74
    10
  0
VERTEX
  5
11C
330
E5
100
AcDbEntity
  8
ｴｸｽﾃﾘｱ商品
 62
   254
370
     0
100
AcDbFaceRecord
 10
0.0
 20
0.0
 30
0.0
 70
   128
 71
    11
 72
     1
 73
     4
 74
    12
  0
VERTEX
  5
11D
330
E5
100
AcDbEntity
  8
ｴｸｽﾃﾘｱ商品
 62
   254
370
     0
100
AcDbFaceRecord
 10
0.0
 20
0.0
 30
0.0
 70
   128
 71
     1
 72
    11
 73
     9
 74
     7
  0
VERTEX
  5
11E
330
E5
100
AcDbEntity
  8
ｴｸｽﾃﾘｱ商品
 62
   254
370
     0
100
AcDbFaceRecord
 10
0.0
 20
0.0
 30
0.0
 70
   128
 71
     1
 72
     7
 73
     5
 74
     2
  0
VERTEX
  5
11F
330
E5
100
AcDbEntity
  8
ｴｸｽﾃﾘｱ商品
 62
   254
370
     0
100
AcDbFaceRecord
 10
0.0
 20
0.0
 30
0.0
 70
   128
 71
     4
 72
     3
 73
     6
 74
     8
  0
VERTEX
  5
120
330
E5
100
AcDbEntity
  8
ｴｸｽﾃﾘｱ商品
 62
   254
370
     0
100
AcDbFaceRecord
 10
0.0
 20
0.0
 30
0.0
 70
   128
 71
     4
 72
     8
 73
    10
 74
    12
  0
VERTEX
  5
121
330
E5
100
AcDbEntity
  8
ｴｸｽﾃﾘｱ商品
 62
   254
370
     0
100
AcDbFaceRecord
 10
0.0
 20
0.0
 30
0.0
 70
   128
 71
    13
 72
    14
 73
    15
 74
    16
  0
VERTEX
  5
122
330
E5
100
AcDbEntity
  8
ｴｸｽﾃﾘｱ商品
 62
   254
370
     0
100
AcDbFaceRecord
 10
0.0
 20
0.0
 30
0.0
 70
   128
 71
    14
 72
    17
 73
    18
 74
    15
  0
VERTEX
  5
123
330
E5
100
AcDbEntity
  8
ｴｸｽﾃﾘｱ商品
 62
   254
370
     0
100
AcDbFaceRecord
 10
0.0
 20
0.0
 30
0.0
 70
   128
 71
    17
 72
    19
 73
    20
 74
    18
  0
VERTEX
  5
124
330
E5
100
AcDbEntity
  8
ｴｸｽﾃﾘｱ商品
 62
   254
370
     0
100
AcDbFaceRecord
 10
0.0
 20
0.0
 30
0.0
 70
   128
 71
    19
 72
    21
 73
    22
 74
    20
  0
VERTEX
  5
125
330
E5
100
AcDbEntity
  8
ｴｸｽﾃﾘｱ商品
 62
   254
370
     0
100
AcDbFaceRecord
 10
0.0
 20
0.0
 30
0.0
 70
   128
 71
    21
 72
    23
 73
    24
 74
    22
  0
VERTEX
  5
126
330
E5
100
AcDbEntity
  8
ｴｸｽﾃﾘｱ商品
 62
   254
370
     0
100
AcDbFaceRecord
 10
0.0
 20
0.0
 30
0.0
 70
   128
 71
    23
 72
    13
 73
    16
 74
    24
  0
VERTEX
  5
127
330
E5
100
AcDbEntity
  8
ｴｸｽﾃﾘｱ商品
 62
   254
370
     0
100
AcDbFaceRecord
 10
0.0
 20
0.0
 30
0.0
 70
   128
 71
    13
 72
    23
 73
    21
 74
    19
  0
VERTEX
  5
128
330
E5
100
AcDbEntity
  8
ｴｸｽﾃﾘｱ商品
 62
   254
370
     0
100
AcDbFaceRecord
 10
0.0
 20
0.0
 30
0.0
 70
   128
 71
    13
 72
    19
 73
    17
 74
    14
  0
VERTEX
  5
129
330
E5
100
AcDbEntity
  8
ｴｸｽﾃﾘｱ商品
 62
   254
370
     0
100
AcDbFaceRecord
 10
0.0
 20
0.0
 30
0.0
 70
   128
 71
    16
 72
    15
 73
    18
 74
    20
  0
VERTEX
  5
12A
330
E5
100
AcDbEntity
  8
ｴｸｽﾃﾘｱ商品
 62
   254
370
     0
100
AcDbFaceRecord
 10
0.0
 20
0.0
 30
0.0
 70
   128
 71
    16
 72
    20
 73
    22
 74
    24
  0
VERTEX
  5
12B
330
E5
100
AcDbEntity
  8
ｴｸｽﾃﾘｱ商品
 62
   105
370
     0
100
AcDbFaceRecord
 10
0.0
 20
0.0
 30
0.0
 70
   128
 71
    25
 72
    26
 73
    27
 74
    28
  0
VERTEX
  5
12C
330
E5
100
AcDbEntity
  8
ｴｸｽﾃﾘｱ商品
 62
   105
370
     0
100
AcDbFaceRecord
 10
0.0
 20
0.0
 30
0.0
 70
   128
 71
    26
 72
    29
 73
    30
 74
    27
  0
VERTEX
  5
12D
330
E5
100
AcDbEntity
  8
ｴｸｽﾃﾘｱ商品
 62
   105
370
     0
100
AcDbFaceRecord
 10
0.0
 20
0.0
 30
0.0
 70
   128
 71
    29
 72
    31
 73
    32
 74
    30
  0
VERTEX
  5
12E
330
E5
100
AcDbEntity
  8
ｴｸｽﾃﾘｱ商品
 62
   105
370
     0
100
AcDbFaceRecord
 10
0.0
 20
0.0
 30
0.0
 70
   128
 71
    31
 72
    25
 73
    28
 74
    32
  0
VERTEX
  5
12F
330
E5
100
AcDbEntity
  8
ｴｸｽﾃﾘｱ商品
 62
   105
370
     0
100
AcDbFaceRecord
 10
0.0
 20
0.0
 30
0.0
 70
   128
 71
    25
 72
    31
 73
    29
 74
    26
  0
VERTEX
  5
130
330
E5
100
AcDbEntity
  8
ｴｸｽﾃﾘｱ商品
 62
   105
370
     0
100
AcDbFaceRecord
 10
0.0
 20
0.0
 30
0.0
 70
   128
 71
    28
 72
    27
 73
    30
 74
    32
  0
VERTEX
  5
131
330
E5
100
AcDbEntity
  8
ｴｸｽﾃﾘｱ商品
 62
   105
370
     0
100
AcDbFaceRecord
 10
0.0
 20
0.0
 30
0.0
 70
   128
 71
    33
 72
    34
 73
    35
 74
    36
  0
VERTEX
  5
132
330
E5
100
AcDbEntity
  8
ｴｸｽﾃﾘｱ商品
 62
   105
370
     0
100
AcDbFaceRecord
 10
0.0
 20
0.0
 30
0.0
 70
   128
 71
    34
 72
    37
 73
    38
 74
    35
  0
VERTEX
  5
133
330
E5
100
AcDbEntity
  8
ｴｸｽﾃﾘｱ商品
 62
   105
370
     0
100
AcDbFaceRecord
 10
0.0
 20
0.0
 30
0.0
 70
   128
 71
    37
 72
    39
 73
    40
 74
    38
  0
VERTEX
  5
134
330
E5
100
AcDbEntity
  8
ｴｸｽﾃﾘｱ商品
 62
   105
370
     0
100
AcDbFaceRecord
 10
0.0
 20
0.0
 30
0.0
 70
   128
 71
    39
 72
    33
 73
    36
 74
    40
  0
VERTEX
  5
135
330
E5
100
AcDbEntity
  8
ｴｸｽﾃﾘｱ商品
 62
   105
370
     0
100
AcDbFaceRecord
 10
0.0
 20
0.0
 30
0.0
 70
   128
 71
    33
 72
    39
 73
    37
 74
    34
  0
VERTEX
  5
136
330
E5
100
AcDbEntity
  8
ｴｸｽﾃﾘｱ商品
 62
   105
370
     0
100
AcDbFaceRecord
 10
0.0
 20
0.0
 30
0.0
 70
   128
 71
    36
 72
    35
 73
    38
 74
    40
  0
VERTEX
  5
137
330
E5
100
AcDbEntity
  8
ｴｸｽﾃﾘｱ商品
 62
   105
370
     0
100
AcDbFaceRecord
 10
0.0
 20
0.0
 30
0.0
 70
   128
 71
    41
 72
    42
 73
    43
 74
    44
  0
VERTEX
  5
138
330
E5
100
AcDbEntity
  8
ｴｸｽﾃﾘｱ商品
 62
   105
370
     0
100
AcDbFaceRecord
 10
0.0
 20
0.0
 30
0.0
 70
   128
 71
    42
 72
    45
 73
    46
 74
    43
  0
VERTEX
  5
139
330
E5
100
AcDbEntity
  8
ｴｸｽﾃﾘｱ商品
 62
   105
370
     0
100
AcDbFaceRecord
 10
0.0
 20
0.0
 30
0.0
 70
   128
 71
    45
 72
    47
 73
    48
 74
    46
  0
VERTEX
  5
13A
330
E5
100
AcDbEntity
  8
ｴｸｽﾃﾘｱ商品
 62
   105
370
     0
100
AcDbFaceRecord
 10
0.0
 20
0.0
 30
0.0
 70
   128
 71
    47
 72
    41
 73
    44
 74
    48
  0
VERTEX
  5
13B
330
E5
100
AcDbEntity
  8
ｴｸｽﾃﾘｱ商品
 62
   105
370
     0
100
AcDbFaceRecord
 10
0.0
 20
0.0
 30
0.0
 70
   128
 71
    41
 72
    47
 73
    45
 74
    42
  0
VERTEX
  5
13C
330
E5
100
AcDbEntity
  8
ｴｸｽﾃﾘｱ商品
 62
   105
370
     0
100
AcDbFaceRecord
 10
0.0
 20
0.0
 30
0.0
 70
   128
 71
    44
 72
    43
 73
    46
 74
    48
  0
SEQEND
  5
E6
330
E5
100
AcDbEntity
  8
ｴｸｽﾃﾘｱ商品
370
     0
  0
POLYLINE
  5
13D
330
3C
100
AcDbEntity
  8
ｴｸｽﾃﾘｱ商品
 62
    37
370
    35
100
AcDbPolyFaceMesh
 66
     1
 10
0.0
 20
0.0
 30
0.0
 70
    64
 71
    48
 72
    72
  0
VERTEX
  5
13F
330
13D
100
AcDbEntity
  8
ｴｸｽﾃﾘｱ商品
 62
    37
370
    35
100
AcDbVertex
100
AcDbPolyFaceMeshVertex
 10
195.5000000000001
 20
-52.00000000000004
 30
442.0000000000001
 70
   192
  0
VERTEX
  5
140
330
13D
100
AcDbEntity
  8
ｴｸｽﾃﾘｱ商品
 62
    37
370
    35
100
AcDbVertex
100
AcDbPolyFaceMeshVertex
 10
195.5000000000001
 20
-52.0
 30
971.0000000000001
 70
   192
  0
VERTEX
  5
141
330
13D
100
AcDbEntity
  8
ｴｸｽﾃﾘｱ商品
 62
    37
370
    35
100
AcDbVertex
100
AcDbPolyFaceMeshVertex
 10
-195.5
 20
-51.99999999999998
 30
971.0000000000001
 70
   192
  0
VERTEX
  5
142
330
13D
100
AcDbEntity
  8
ｴｸｽﾃﾘｱ商品
 62
    37
370
    35
100
AcDbVertex
100
AcDbPolyFaceMeshVertex
 10
-195.5
 20
-52.00000000000001
 30
442.0000000000001
 70
   192
  0
VERTEX
  5
143
330
13D
100
AcDbEntity
  8
ｴｸｽﾃﾘｱ商品
 62
    37
370
    35
100
AcDbVertex
100
AcDbPolyFaceMeshVertex
 10
107.1290322580646
 20
-52.00000000000001
 30
747.325
 70
   192
  0
VERTEX
  5
144
330
13D
100
AcDbEntity
  8
ｴｸｽﾃﾘｱ商品
 62
    37
370
    35
100
AcDbVertex
100
AcDbPolyFaceMeshVertex
 10
139.8709677419356
 20
-52.00000000000001
 30
747.325
 70
   192
  0
VERTEX
  5
145
330
13D
100
AcDbEntity
  8
ｴｸｽﾃﾘｱ商品
 62
    37
370
    35
100
AcDbVertex
100
AcDbPolyFaceMeshVertex
 10
141.0000000000001
 20
-52.00000000000001
 30
746.3250000000002
 70
   192
  0
VERTEX
  5
146
330
13D
100
AcDbEntity
  8
ｴｸｽﾃﾘｱ商品
 62
    37
370
    35
100
AcDbVertex
100
AcDbPolyFaceMeshVertex
 10
141.0000000000001
 20
-52.00000000000001
 30
730.825
 70
   192
  0
VERTEX
  5
147
330
13D
100
AcDbEntity
  8
ｴｸｽﾃﾘｱ商品
 62
    37
370
    35
100
AcDbVertex
100
AcDbPolyFaceMeshVertex
 10
139.8709677419356
 20
-52.00000000000001
 30
729.825
 70
   192
  0
VERTEX
  5
148
330
13D
100
AcDbEntity
  8
ｴｸｽﾃﾘｱ商品
 62
    37
370
    35
100
AcDbVertex
100
AcDbPolyFaceMeshVertex
 10
107.1290322580646
 20
-52.00000000000001
 30
729.825
 70
   192
  0
VERTEX
  5
149
330
13D
100
AcDbEntity
  8
ｴｸｽﾃﾘｱ商品
 62
    37
370
    35
100
AcDbVertex
100
AcDbPolyFaceMeshVertex
 10
106.0000000000001
 20
-52.00000000000001
 30
730.825
 70
   192
  0
VERTEX
  5
14A
330
13D
100
AcDbEntity
  8
ｴｸｽﾃﾘｱ商品
 62
    37
370
    35
100
AcDbVertex
100
AcDbPolyFaceMeshVertex
 10
106.0000000000001
 20
-52.00000000000001
 30
746.3250000000002
 70
   192
  0
VERTEX
  5
14B
330
13D
100
AcDbEntity
  8
ｴｸｽﾃﾘｱ商品
 62
    37
370
    35
100
AcDbVertex
100
AcDbPolyFaceMeshVertex
 10
107.1290322580646
 20
-52.00000000000002
 30
694.825
 70
   192
  0
VERTEX
  5
14C
330
13D
100
AcDbEntity
  8
ｴｸｽﾃﾘｱ商品
 62
    37
370
    35
100
AcDbVertex
100
AcDbPolyFaceMeshVertex
 10
108.2580645161291
 20
-52.00000000000002
 30
695.8250000000002
 70
   192
  0
VERTEX
  5
14D
330
13D
100
AcDbEntity
  8
ｴｸｽﾃﾘｱ商品
 62
    37
370
    35
100
AcDbVertex
100
AcDbPolyFaceMeshVertex
 10
138.741935483871
 20
-52.00000000000002
 30
695.8250000000002
 70
   192
  0
VERTEX
  5
14E
330
13D
100
AcDbEntity
  8
ｴｸｽﾃﾘｱ商品
 62
    37
370
    35
100
AcDbVertex
100
AcDbPolyFaceMeshVertex
 10
139.8709677419356
 20
-52.00000000000002
 30
694.825
 70
   192
  0
VERTEX
  5
14F
330
13D
100
AcDbEntity
  8
ｴｸｽﾃﾘｱ商品
 62
    37
370
    35
100
AcDbVertex
100
AcDbPolyFaceMeshVertex
 10
139.8709677419356
 20
-52.00000000000002
 30
634.825
 70
   192
  0
VERTEX
  5
150
330
13D
100
AcDbEntity
  8
ｴｸｽﾃﾘｱ商品
 62
    37
370
    35
100
AcDbVertex
100
AcDbPolyFaceMeshVertex
 10
138.741935483871
 20
-52.00000000000002
 30
633.825
 70
   192
  0
VERTEX
  5
151
330
13D
100
AcDbEntity
  8
ｴｸｽﾃﾘｱ商品
 62
    37
370
    35
100
AcDbVertex
100
AcDbPolyFaceMeshVertex
 10
108.2580645161291
 20
-52.00000000000002
 30
633.825
 70
   192
  0
VERTEX
  5
152
330
13D
100
AcDbEntity
  8
ｴｸｽﾃﾘｱ商品
 62
    37
370
    35
100
AcDbVertex
100
AcDbPolyFaceMeshVertex
 10
107.1290322580646
 20
-52.00000000000002
 30
634.825
 70
   192
  0
VERTEX
  5
153
330
13D
100
AcDbEntity
  8
ｴｸｽﾃﾘｱ商品
 62
    37
370
    35
100
AcDbVertex
100
AcDbPolyFaceMeshVertex
 10
107.1290322580646
 20
-32.0
 30
747.325
 70
   192
  0
VERTEX
  5
154
330
13D
100
AcDbEntity
  8
ｴｸｽﾃﾘｱ商品
 62
    37
370
    35
100
AcDbVertex
100
AcDbPolyFaceMeshVertex
 10
139.8709677419356
 20
-32.0
 30
747.325
 70
   192
  0
VERTEX
  5
155
330
13D
100
AcDbEntity
  8
ｴｸｽﾃﾘｱ商品
 62
    37
370
    35
100
AcDbVertex
100
AcDbPolyFaceMeshVertex
 10
141.0000000000001
 20
-32.0
 30
746.3250000000002
 70
   192
  0
VERTEX
  5
156
330
13D
100
AcDbEntity
  8
ｴｸｽﾃﾘｱ商品
 62
    37
370
    35
100
AcDbVertex
100
AcDbPolyFaceMeshVertex
 10
141.0000000000001
 20
-32.0
 30
730.825
 70
   192
  0
VERTEX
  5
157
330
13D
100
AcDbEntity
  8
ｴｸｽﾃﾘｱ商品
 62
    37
370
    35
100
AcDbVertex
100
AcDbPolyFaceMeshVertex
 10
139.8709677419356
 20
-32.0
 30
729.825
 70
   192
  0
VERTEX
  5
158
330
13D
100
AcDbEntity
  8
ｴｸｽﾃﾘｱ商品
 62
    37
370
    35
100
AcDbVertex
100
AcDbPolyFaceMeshVertex
 10
107.1290322580646
 20
-32.0
 30
729.825
 70
   192
  0
VERTEX
  5
159
330
13D
100
AcDbEntity
  8
ｴｸｽﾃﾘｱ商品
 62
    37
370
    35
100
AcDbVertex
100
AcDbPolyFaceMeshVertex
 10
106.0000000000001
 20
-32.0
 30
730.825
 70
   192
  0
VERTEX
  5
15A
330
13D
100
AcDbEntity
  8
ｴｸｽﾃﾘｱ商品
 62
    37
370
    35
100
AcDbVertex
100
AcDbPolyFaceMeshVertex
 10
106.0000000000001
 20
-32.0
 30
746.3250000000002
 70
   192
  0
VERTEX
  5
15B
330
13D
100
AcDbEntity
  8
ｴｸｽﾃﾘｱ商品
 62
    37
370
    35
100
AcDbVertex
100
AcDbPolyFaceMeshVertex
 10
107.1290322580646
 20
-32.00000000000001
 30
694.825
 70
   192
  0
VERTEX
  5
15C
330
13D
100
AcDbEntity
  8
ｴｸｽﾃﾘｱ商品
 62
    37
370
    35
100
AcDbVertex
100
AcDbPolyFaceMeshVertex
 10
108.2580645161291
 20
-32.00000000000001
 30
695.8250000000002
 70
   192
  0
VERTEX
  5
15D
330
13D
100
AcDbEntity
  8
ｴｸｽﾃﾘｱ商品
 62
    37
370
    35
100
AcDbVertex
100
AcDbPolyFaceMeshVertex
 10
138.741935483871
 20
-32.00000000000001
 30
695.8250000000002
 70
   192
  0
VERTEX
  5
15E
330
13D
100
AcDbEntity
  8
ｴｸｽﾃﾘｱ商品
 62
    37
370
    35
100
AcDbVertex
100
AcDbPolyFaceMeshVertex
 10
139.8709677419356
 20
-32.00000000000001
 30
694.825
 70
   192
  0
VERTEX
  5
15F
330
13D
100
AcDbEntity
  8
ｴｸｽﾃﾘｱ商品
 62
    37
370
    35
100
AcDbVertex
100
AcDbPolyFaceMeshVertex
 10
139.8709677419356
 20
-32.00000000000001
 30
634.825
 70
   192
  0
VERTEX
  5
160
330
13D
100
AcDbEntity
  8
ｴｸｽﾃﾘｱ商品
 62
    37
370
    35
100
AcDbVertex
100
AcDbPolyFaceMeshVertex
 10
138.741935483871
 20
-32.00000000000001
 30
633.825
 70
   192
  0
VERTEX
  5
161
330
13D
100
AcDbEntity
  8
ｴｸｽﾃﾘｱ商品
 62
    37
370
    35
100
AcDbVertex
100
AcDbPolyFaceMeshVertex
 10
108.2580645161291
 20
-32.00000000000001
 30
633.825
 70
   192
  0
VERTEX
  5
162
330
13D
100
AcDbEntity
  8
ｴｸｽﾃﾘｱ商品
 62
    37
370
    35
100
AcDbVertex
100
AcDbPolyFaceMeshVertex
 10
107.1290322580646
 20
-32.00000000000001
 30
634.825
 70
   192
  0
VERTEX
  5
163
330
13D
100
AcDbEntity
  8
ｴｸｽﾃﾘｱ商品
 62
    37
370
    35
100
AcDbVertex
100
AcDbPolyFaceMeshVertex
 10
195.5000000000001
 20
-51.00000000000003
 30
441.0000000000001
 70
   192
  0
VERTEX
  5
164
330
13D
100
AcDbEntity
  8
ｴｸｽﾃﾘｱ商品
 62
    37
370
    35
100
AcDbVertex
100
AcDbPolyFaceMeshVertex
 10
195.5000000000001
 20
-33.00000000000002
 30
441.0000000000001
 70
   192
  0
VERTEX
  5
165
330
13D
100
AcDbEntity
  8
ｴｸｽﾃﾘｱ商品
 62
    37
370
    35
100
AcDbVertex
100
AcDbPolyFaceMeshVertex
 10
195.5000000000001
 20
-32.00000000000002
 30
442.0000000000001
 70
   192
  0
VERTEX
  5
166
330
13D
100
AcDbEntity
  8
ｴｸｽﾃﾘｱ商品
 62
    37
370
    35
100
AcDbVertex
100
AcDbPolyFaceMeshVertex
 10
195.5000000000001
 20
-31.99999999999999
 30
971.0000000000001
 70
   192
  0
VERTEX
  5
167
330
13D
100
AcDbEntity
  8
ｴｸｽﾃﾘｱ商品
 62
    37
370
    35
100
AcDbVertex
100
AcDbPolyFaceMeshVertex
 10
195.5000000000001
 20
-32.99999999999999
 30
972.0000000000001
 70
   192
  0
VERTEX
  5
168
330
13D
100
AcDbEntity
  8
ｴｸｽﾃﾘｱ商品
 62
    37
370
    35
100
AcDbVertex
100
AcDbPolyFaceMeshVertex
 10
195.5000000000001
 20
-51.0
 30
972.0000000000001
 70
   192
  0
VERTEX
  5
169
330
13D
100
AcDbEntity
  8
ｴｸｽﾃﾘｱ商品
 62
    37
370
    35
100
AcDbVertex
100
AcDbPolyFaceMeshVertex
 10
-195.5
 20
-50.99999999999998
 30
972.0000000000001
 70
   192
  0
VERTEX
  5
16A
330
13D
100
AcDbEntity
  8
ｴｸｽﾃﾘｱ商品
 62
    37
370
    35
100
AcDbVertex
100
AcDbPolyFaceMeshVertex
 10
-195.5
 20
-32.99999999999996
 30
972.0000000000001
 70
   192
  0
VERTEX
  5
16B
330
13D
100
AcDbEntity
  8
ｴｸｽﾃﾘｱ商品
 62
    37
370
    35
100
AcDbVertex
100
AcDbPolyFaceMeshVertex
 10
-195.5
 20
-31.99999999999996
 30
971.0000000000001
 70
   192
  0
VERTEX
  5
16C
330
13D
100
AcDbEntity
  8
ｴｸｽﾃﾘｱ商品
 62
    37
370
    35
100
AcDbVertex
100
AcDbPolyFaceMeshVertex
 10
-195.5
 20
-32.0
 30
442.0000000000001
 70
   192
  0
VERTEX
  5
16D
330
13D
100
AcDbEntity
  8
ｴｸｽﾃﾘｱ商品
 62
    37
370
    35
100
AcDbVertex
100
AcDbPolyFaceMeshVertex
 10
-195.5
 20
-33.0
 30
441.0000000000001
 70
   192
  0
VERTEX
  5
16E
330
13D
100
AcDbEntity
  8
ｴｸｽﾃﾘｱ商品
 62
    37
370
    35
100
AcDbVertex
100
AcDbPolyFaceMeshVertex
 10
-195.5
 20
-51.00000000000001
 30
441.0000000000001
 70
   192
  0
VERTEX
  5
16F
330
13D
100
AcDbEntity
  8
ｴｸｽﾃﾘｱ商品
 62
    37
370
    35
100
AcDbFaceRecord
 10
0.0
 20
0.0
 30
0.0
 70
   128
 71
     5
 72
     6
 73
     2
  0
VERTEX
  5
170
330
13D
100
AcDbEntity
  8
ｴｸｽﾃﾘｱ商品
 62
    37
370
    35
100
AcDbFaceRecord
 10
0.0
 20
0.0
 30
0.0
 70
   128
 71
     5
 72
     2
 73
     3
  0
VERTEX
  5
171
330
13D
100
AcDbEntity
  8
ｴｸｽﾃﾘｱ商品
 62
    37
370
    35
100
AcDbFaceRecord
 10
0.0
 20
0.0
 30
0.0
 70
   128
 71
     2
 72
     6
 73
     7
  0
VERTEX
  5
172
330
13D
100
AcDbEntity
  8
ｴｸｽﾃﾘｱ商品
 62
    37
370
    35
100
AcDbFaceRecord
 10
0.0
 20
0.0
 30
0.0
 70
   128
 71
    12
 72
     5
 73
     3
  0
VERTEX
  5
173
330
13D
100
AcDbEntity
  8
ｴｸｽﾃﾘｱ商品
 62
    37
370
    35
100
AcDbFaceRecord
 10
0.0
 20
0.0
 30
0.0
 70
   128
 71
     2
 72
     7
 73
     8
  0
VERTEX
  5
174
330
13D
100
AcDbEntity
  8
ｴｸｽﾃﾘｱ商品
 62
    37
370
    35
100
AcDbFaceRecord
 10
0.0
 20
0.0
 30
0.0
 70
   128
 71
    11
 72
    12
 73
     3
  0
VERTEX
  5
175
330
13D
100
AcDbEntity
  8
ｴｸｽﾃﾘｱ商品
 62
    37
370
    35
100
AcDbFaceRecord
 10
0.0
 20
0.0
 30
0.0
 70
   128
 71
    10
 72
    11
 73
     3
  0
VERTEX
  5
176
330
13D
100
AcDbEntity
  8
ｴｸｽﾃﾘｱ商品
 62
    37
370
    35
100
AcDbFaceRecord
 10
0.0
 20
0.0
 30
0.0
 70
   128
 71
    14
 72
    15
 73
     9
  0
VERTEX
  5
177
330
13D
100
AcDbEntity
  8
ｴｸｽﾃﾘｱ商品
 62
    37
370
    35
100
AcDbFaceRecord
 10
0.0
 20
0.0
 30
0.0
 70
   128
 71
     8
 72
     9
 73
    15
  0
VERTEX
  5
178
330
13D
100
AcDbEntity
  8
ｴｸｽﾃﾘｱ商品
 62
    37
370
    35
100
AcDbFaceRecord
 10
0.0
 20
0.0
 30
0.0
 70
   128
 71
     2
 72
     8
 73
    15
  0
VERTEX
  5
179
330
13D
100
AcDbEntity
  8
ｴｸｽﾃﾘｱ商品
 62
    37
370
    35
100
AcDbFaceRecord
 10
0.0
 20
0.0
 30
0.0
 70
   128
 71
    14
 72
     9
 73
    10
  0
VERTEX
  5
17A
330
13D
100
AcDbEntity
  8
ｴｸｽﾃﾘｱ商品
 62
    37
370
    35
100
AcDbFaceRecord
 10
0.0
 20
0.0
 30
0.0
 70
   128
 71
    14
 72
    10
 73
     3
  0
VERTEX
  5
17B
330
13D
100
AcDbEntity
  8
ｴｸｽﾃﾘｱ商品
 62
    37
370
    35
100
AcDbFaceRecord
 10
0.0
 20
0.0
 30
0.0
 70
   128
 71
     2
 72
    15
 73
    16
  0
VERTEX
  5
17C
330
13D
100
AcDbEntity
  8
ｴｸｽﾃﾘｱ商品
 62
    37
370
    35
100
AcDbFaceRecord
 10
0.0
 20
0.0
 30
0.0
 70
   128
 71
    13
 72
    14
 73
     3
  0
VERTEX
  5
17D
330
13D
100
AcDbEntity
  8
ｴｸｽﾃﾘｱ商品
 62
    37
370
    35
100
AcDbFaceRecord
 10
0.0
 20
0.0
 30
0.0
 70
   128
 71
     2
 72
    16
 73
    17
  0
VERTEX
  5
17E
330
13D
100
AcDbEntity
  8
ｴｸｽﾃﾘｱ商品
 62
    37
370
    35
100
AcDbFaceRecord
 10
0.0
 20
0.0
 30
0.0
 70
   128
 71
    20
 72
    13
 73
     3
  0
VERTEX
  5
17F
330
13D
100
AcDbEntity
  8
ｴｸｽﾃﾘｱ商品
 62
    37
370
    35
100
AcDbFaceRecord
 10
0.0
 20
0.0
 30
0.0
 70
   128
 71
     1
 72
     2
 73
    17
  0
VERTEX
  5
180
330
13D
100
AcDbEntity
  8
ｴｸｽﾃﾘｱ商品
 62
    37
370
    35
100
AcDbFaceRecord
 10
0.0
 20
0.0
 30
0.0
 70
   128
 71
     1
 72
    17
 73
    18
  0
VERTEX
  5
181
330
13D
100
AcDbEntity
  8
ｴｸｽﾃﾘｱ商品
 62
    37
370
    35
100
AcDbFaceRecord
 10
0.0
 20
0.0
 30
0.0
 70
   128
 71
     1
 72
    18
 73
     4
  0
VERTEX
  5
182
330
13D
100
AcDbEntity
  8
ｴｸｽﾃﾘｱ商品
 62
    37
370
    35
100
AcDbFaceRecord
 10
0.0
 20
0.0
 30
0.0
 70
   128
 71
     4
 72
    18
 73
    19
  0
VERTEX
  5
183
330
13D
100
AcDbEntity
  8
ｴｸｽﾃﾘｱ商品
 62
    37
370
    35
100
AcDbFaceRecord
 10
0.0
 20
0.0
 30
0.0
 70
   128
 71
     4
 72
    19
 73
    20
  0
VERTEX
  5
184
330
13D
100
AcDbEntity
  8
ｴｸｽﾃﾘｱ商品
 62
    37
370
    35
100
AcDbFaceRecord
 10
0.0
 20
0.0
 30
0.0
 70
   128
 71
     4
 72
    20
 73
     3
  0
VERTEX
  5
185
330
13D
100
AcDbEntity
  8
ｴｸｽﾃﾘｱ商品
 62
    37
370
    35
100
AcDbFaceRecord
 10
0.0
 20
0.0
 30
0.0
 70
   128
 71
    21
 72
    22
 73
     6
 74
     5
  0
VERTEX
  5
186
330
13D
100
AcDbEntity
  8
ｴｸｽﾃﾘｱ商品
 62
    37
370
    35
100
AcDbFaceRecord
 10
0.0
 20
0.0
 30
0.0
 70
   128
 71
    22
 72
    23
 73
     7
 74
     6
  0
VERTEX
  5
187
330
13D
100
AcDbEntity
  8
ｴｸｽﾃﾘｱ商品
 62
    37
370
    35
100
AcDbFaceRecord
 10
0.0
 20
0.0
 30
0.0
 70
   128
 71
    23
 72
    24
 73
     8
 74
     7
  0
VERTEX
  5
188
330
13D
100
AcDbEntity
  8
ｴｸｽﾃﾘｱ商品
 62
    37
370
    35
100
AcDbFaceRecord
 10
0.0
 20
0.0
 30
0.0
 70
   128
 71
    24
 72
    25
 73
     9
 74
     8
  0
VERTEX
  5
189
330
13D
100
AcDbEntity
  8
ｴｸｽﾃﾘｱ商品
 62
    37
370
    35
100
AcDbFaceRecord
 10
0.0
 20
0.0
 30
0.0
 70
   128
 71
    25
 72
    26
 73
    10
 74
     9
  0
VERTEX
  5
18A
330
13D
100
AcDbEntity
  8
ｴｸｽﾃﾘｱ商品
 62
    37
370
    35
100
AcDbFaceRecord
 10
0.0
 20
0.0
 30
0.0
 70
   128
 71
    26
 72
    27
 73
    11
 74
    10
  0
VERTEX
  5
18B
330
13D
100
AcDbEntity
  8
ｴｸｽﾃﾘｱ商品
 62
    37
370
    35
100
AcDbFaceRecord
 10
0.0
 20
0.0
 30
0.0
 70
   128
 71
    27
 72
    28
 73
    12
 74
    11
  0
VERTEX
  5
18C
330
13D
100
AcDbEntity
  8
ｴｸｽﾃﾘｱ商品
 62
    37
370
    35
100
AcDbFaceRecord
 10
0.0
 20
0.0
 30
0.0
 70
   128
 71
    28
 72
    21
 73
     5
 74
    12
  0
VERTEX
  5
18D
330
13D
100
AcDbEntity
  8
ｴｸｽﾃﾘｱ商品
 62
    37
370
    35
100
AcDbFaceRecord
 10
0.0
 20
0.0
 30
0.0
 70
   128
 71
    13
 72
    29
 73
    30
 74
    14
  0
VERTEX
  5
18E
330
13D
100
AcDbEntity
  8
ｴｸｽﾃﾘｱ商品
 62
    37
370
    35
100
AcDbFaceRecord
 10
0.0
 20
0.0
 30
0.0
 70
   128
 71
    14
 72
    30
 73
    31
 74
    15
  0
VERTEX
  5
18F
330
13D
100
AcDbEntity
  8
ｴｸｽﾃﾘｱ商品
 62
    37
370
    35
100
AcDbFaceRecord
 10
0.0
 20
0.0
 30
0.0
 70
   128
 71
    15
 72
    31
 73
    32
 74
    16
  0
VERTEX
  5
190
330
13D
100
AcDbEntity
  8
ｴｸｽﾃﾘｱ商品
 62
    37
370
    35
100
AcDbFaceRecord
 10
0.0
 20
0.0
 30
0.0
 70
   128
 71
    16
 72
    32
 73
    33
 74
    17
  0
VERTEX
  5
191
330
13D
100
AcDbEntity
  8
ｴｸｽﾃﾘｱ商品
 62
    37
370
    35
100
AcDbFaceRecord
 10
0.0
 20
0.0
 30
0.0
 70
   128
 71
    17
 72
    33
 73
    34
 74
    18
  0
VERTEX
  5
192
330
13D
100
AcDbEntity
  8
ｴｸｽﾃﾘｱ商品
 62
    37
370
    35
100
AcDbFaceRecord
 10
0.0
 20
0.0
 30
0.0
 70
   128
 71
    18
 72
    34
 73
    35
 74
    19
  0
VERTEX
  5
193
330
13D
100
AcDbEntity
  8
ｴｸｽﾃﾘｱ商品
 62
    37
370
    35
100
AcDbFaceRecord
 10
0.0
 20
0.0
 30
0.0
 70
   128
 71
    19
 72
    35
 73
    36
 74
    20
  0
VERTEX
  5
194
330
13D
100
AcDbEntity
  8
ｴｸｽﾃﾘｱ商品
 62
    37
370
    35
100
AcDbFaceRecord
 10
0.0
 20
0.0
 30
0.0
 70
   128
 71
    20
 72
    36
 73
    29
 74
    13
  0
VERTEX
  5
195
330
13D
100
AcDbEntity
  8
ｴｸｽﾃﾘｱ商品
 62
    37
370
    35
100
AcDbFaceRecord
 10
0.0
 20
0.0
 30
0.0
 70
   128
 71
    37
 72
    38
 73
    39
 74
    40
  0
VERTEX
  5
196
330
13D
100
AcDbEntity
  8
ｴｸｽﾃﾘｱ商品
 62
    37
370
    35
100
AcDbFaceRecord
 10
0.0
 20
0.0
 30
0.0
 70
   128
 71
    37
 72
    40
 73
    41
 74
    42
  0
VERTEX
  5
197
330
13D
100
AcDbEntity
  8
ｴｸｽﾃﾘｱ商品
 62
    37
370
    35
100
AcDbFaceRecord
 10
0.0
 20
0.0
 30
0.0
 70
   128
 71
    37
 72
    42
 73
     2
 74
     1
  0
VERTEX
  5
198
330
13D
100
AcDbEntity
  8
ｴｸｽﾃﾘｱ商品
 62
    37
370
    35
100
AcDbFaceRecord
 10
0.0
 20
0.0
 30
0.0
 70
   128
 71
     2
 72
    42
 73
    43
 74
     3
  0
VERTEX
  5
199
330
13D
100
AcDbEntity
  8
ｴｸｽﾃﾘｱ商品
 62
    37
370
    35
100
AcDbFaceRecord
 10
0.0
 20
0.0
 30
0.0
 70
   128
 71
    44
 72
    45
 73
    46
 74
    47
  0
VERTEX
  5
19A
330
13D
100
AcDbEntity
  8
ｴｸｽﾃﾘｱ商品
 62
    37
370
    35
100
AcDbFaceRecord
 10
0.0
 20
0.0
 30
0.0
 70
   128
 71
    44
 72
    47
 73
    48
 74
     4
  0
VERTEX
  5
19B
330
13D
100
AcDbEntity
  8
ｴｸｽﾃﾘｱ商品
 62
    37
370
    35
100
AcDbFaceRecord
 10
0.0
 20
0.0
 30
0.0
 70
   128
 71
    44
 72
     4
 73
     3
 74
    43
  0
VERTEX
  5
19C
330
13D
100
AcDbEntity
  8
ｴｸｽﾃﾘｱ商品
 62
    37
370
    35
100
AcDbFaceRecord
 10
0.0
 20
0.0
 30
0.0
 70
   128
 71
    37
 72
     1
 73
     4
 74
    48
  0
VERTEX
  5
19D
330
13D
100
AcDbEntity
  8
ｴｸｽﾃﾘｱ商品
 62
    37
370
    35
100
AcDbFaceRecord
 10
0.0
 20
0.0
 30
0.0
 70
   128
 71
    22
 72
    21
 73
    45
  0
VERTEX
  5
19E
330
13D
100
AcDbEntity
  8
ｴｸｽﾃﾘｱ商品
 62
    37
370
    35
100
AcDbFaceRecord
 10
0.0
 20
0.0
 30
0.0
 70
   128
 71
    22
 72
    45
 73
    40
  0
VERTEX
  5
19F
330
13D
100
AcDbEntity
  8
ｴｸｽﾃﾘｱ商品
 62
    37
370
    35
100
AcDbFaceRecord
 10
0.0
 20
0.0
 30
0.0
 70
   128
 71
    45
 72
    21
 73
    28
  0
VERTEX
  5
1A0
330
13D
100
AcDbEntity
  8
ｴｸｽﾃﾘｱ商品
 62
    37
370
    35
100
AcDbFaceRecord
 10
0.0
 20
0.0
 30
0.0
 70
   128
 71
    23
 72
    22
 73
    40
  0
VERTEX
  5
1A1
330
13D
100
AcDbEntity
  8
ｴｸｽﾃﾘｱ商品
 62
    37
370
    35
100
AcDbFaceRecord
 10
0.0
 20
0.0
 30
0.0
 70
   128
 71
    45
 72
    28
 73
    27
  0
VERTEX
  5
1A2
330
13D
100
AcDbEntity
  8
ｴｸｽﾃﾘｱ商品
 62
    37
370
    35
100
AcDbFaceRecord
 10
0.0
 20
0.0
 30
0.0
 70
   128
 71
    24
 72
    23
 73
    40
  0
VERTEX
  5
1A3
330
13D
100
AcDbEntity
  8
ｴｸｽﾃﾘｱ商品
 62
    37
370
    35
100
AcDbFaceRecord
 10
0.0
 20
0.0
 30
0.0
 70
   128
 71
    45
 72
    27
 73
    26
  0
VERTEX
  5
1A4
330
13D
100
AcDbEntity
  8
ｴｸｽﾃﾘｱ商品
 62
    37
370
    35
100
AcDbFaceRecord
 10
0.0
 20
0.0
 30
0.0
 70
   128
 71
    31
 72
    30
 73
    26
  0
VERTEX
  5
1A5
330
13D
100
AcDbEntity
  8
ｴｸｽﾃﾘｱ商品
 62
    37
370
    35
100
AcDbFaceRecord
 10
0.0
 20
0.0
 30
0.0
 70
   128
 71
    45
 72
    26
 73
    30
  0
VERTEX
  5
1A6
330
13D
100
AcDbEntity
  8
ｴｸｽﾃﾘｱ商品
 62
    37
370
    35
100
AcDbFaceRecord
 10
0.0
 20
0.0
 30
0.0
 70
   128
 71
    31
 72
    26
 73
    25
  0
VERTEX
  5
1A7
330
13D
100
AcDbEntity
  8
ｴｸｽﾃﾘｱ商品
 62
    37
370
    35
100
AcDbFaceRecord
 10
0.0
 20
0.0
 30
0.0
 70
   128
 71
    31
 72
    25
 73
    24
  0
VERTEX
  5
1A8
330
13D
100
AcDbEntity
  8
ｴｸｽﾃﾘｱ商品
 62
    37
370
    35
100
AcDbFaceRecord
 10
0.0
 20
0.0
 30
0.0
 70
   128
 71
    31
 72
    24
 73
    40
  0
VERTEX
  5
1A9
330
13D
100
AcDbEntity
  8
ｴｸｽﾃﾘｱ商品
 62
    37
370
    35
100
AcDbFaceRecord
 10
0.0
 20
0.0
 30
0.0
 70
   128
 71
    45
 72
    30
 73
    29
  0
VERTEX
  5
1AA
330
13D
100
AcDbEntity
  8
ｴｸｽﾃﾘｱ商品
 62
    37
370
    35
100
AcDbFaceRecord
 10
0.0
 20
0.0
 30
0.0
 70
   128
 71
    32
 72
    31
 73
    40
  0
VERTEX
  5
1AB
330
13D
100
AcDbEntity
  8
ｴｸｽﾃﾘｱ商品
 62
    37
370
    35
100
AcDbFaceRecord
 10
0.0
 20
0.0
 30
0.0
 70
   128
 71
    45
 72
    29
 73
    36
  0
VERTEX
  5
1AC
330
13D
100
AcDbEntity
  8
ｴｸｽﾃﾘｱ商品
 62
    37
370
    35
100
AcDbFaceRecord
 10
0.0
 20
0.0
 30
0.0
 70
   128
 71
    33
 72
    32
 73
    40
  0
VERTEX
  5
1AD
330
13D
100
AcDbEntity
  8
ｴｸｽﾃﾘｱ商品
 62
    37
370
    35
100
AcDbFaceRecord
 10
0.0
 20
0.0
 30
0.0
 70
   128
 71
    46
 72
    45
 73
    36
  0
VERTEX
  5
1AE
330
13D
100
AcDbEntity
  8
ｴｸｽﾃﾘｱ商品
 62
    37
370
    35
100
AcDbFaceRecord
 10
0.0
 20
0.0
 30
0.0
 70
   128
 71
    46
 72
    36
 73
    35
  0
VERTEX
  5
1AF
330
13D
100
AcDbEntity
  8
ｴｸｽﾃﾘｱ商品
 62
    37
370
    35
100
AcDbFaceRecord
 10
0.0
 20
0.0
 30
0.0
 70
   128
 71
    46
 72
    35
 73
    39
  0
VERTEX
  5
1B0
330
13D
100
AcDbEntity
  8
ｴｸｽﾃﾘｱ商品
 62
    37
370
    35
100
AcDbFaceRecord
 10
0.0
 20
0.0
 30
0.0
 70
   128
 71
    39
 72
    35
 73
    34
  0
VERTEX
  5
1B1
330
13D
100
AcDbEntity
  8
ｴｸｽﾃﾘｱ商品
 62
    37
370
    35
100
AcDbFaceRecord
 10
0.0
 20
0.0
 30
0.0
 70
   128
 71
    39
 72
    34
 73
    33
  0
VERTEX
  5
1B2
330
13D
100
AcDbEntity
  8
ｴｸｽﾃﾘｱ商品
 62
    37
370
    35
100
AcDbFaceRecord
 10
0.0
 20
0.0
 30
0.0
 70
   128
 71
    39
 72
    33
 73
    40
  0
VERTEX
  5
1B3
330
13D
100
AcDbEntity
  8
ｴｸｽﾃﾘｱ商品
 62
    37
370
    35
100
AcDbFaceRecord
 10
0.0
 20
0.0
 30
0.0
 70
   128
 71
    38
 72
    37
 73
    48
 74
    47
  0
VERTEX
  5
1B4
330
13D
100
AcDbEntity
  8
ｴｸｽﾃﾘｱ商品
 62
    37
370
    35
100
AcDbFaceRecord
 10
0.0
 20
0.0
 30
0.0
 70
   128
 71
    39
 72
    38
 73
    47
 74
    46
  0
VERTEX
  5
1B5
330
13D
100
AcDbEntity
  8
ｴｸｽﾃﾘｱ商品
 62
    37
370
    35
100
AcDbFaceRecord
 10
0.0
 20
0.0
 30
0.0
 70
   128
 71
    41
 72
    40
 73
    45
 74
    44
  0
VERTEX
  5
1B6
330
13D
100
AcDbEntity
  8
ｴｸｽﾃﾘｱ商品
 62
    37
370
    35
100
AcDbFaceRecord
 10
0.0
 20
0.0
 30
0.0
 70
   128
 71
    42
 72
    41
 73
    44
 74
    43
  0
SEQEND
  5
13E
330
13D
100
AcDbEntity
  8
ｴｸｽﾃﾘｱ商品
370
    35
  0
POLYLINE
  5
1B7
330
3C
100
AcDbEntity
  8
ｴｸｽﾃﾘｱ商品
 62
   254
370
     0
100
AcDbPolyFaceMesh
 66
     1
 10
0.0
 20
0.0
 30
0.0
 70
    64
 71
    48
 72
    76
  0
VERTEX
  5
1B9
330
1B7
100
AcDbEntity
  8
ｴｸｽﾃﾘｱ商品
 62
   254
370
     0
100
AcDbVertex
100
AcDbPolyFaceMeshVertex
 10
150.0000000000001
 20
-53.0
 30
617.75
 70
   192
  0
VERTEX
  5
1BA
330
1B7
100
AcDbEntity
  8
ｴｸｽﾃﾘｱ商品
 62
   254
370
     0
100
AcDbVertex
100
AcDbPolyFaceMeshVertex
 10
151.0000000000001
 20
-53.0
 30
618.75
 70
   192
  0
VERTEX
  5
1BB
330
1B7
100
AcDbEntity
  8
ｴｸｽﾃﾘｱ商品
 62
   254
370
     0
100
AcDbVertex
100
AcDbPolyFaceMeshVertex
 10
151.0000000000001
 20
-52.99999999999999
 30
790.25
 70
   192
  0
VERTEX
  5
1BC
330
1B7
100
AcDbEntity
  8
ｴｸｽﾃﾘｱ商品
 62
   254
370
     0
100
AcDbVertex
100
AcDbPolyFaceMeshVertex
 10
150.0000000000001
 20
-52.99999999999999
 30
791.25
 70
   192
  0
VERTEX
  5
1BD
330
1B7
100
AcDbEntity
  8
ｴｸｽﾃﾘｱ商品
 62
   254
370
     0
100
AcDbVertex
100
AcDbPolyFaceMeshVertex
 10
95.00000000000007
 20
-52.99999999999999
 30
791.25
 70
   192
  0
VERTEX
  5
1BE
330
1B7
100
AcDbEntity
  8
ｴｸｽﾃﾘｱ商品
 62
   254
370
     0
100
AcDbVertex
100
AcDbPolyFaceMeshVertex
 10
94.00000000000009
 20
-52.99999999999999
 30
790.25
 70
   192
  0
VERTEX
  5
1BF
330
1B7
100
AcDbEntity
  8
ｴｸｽﾃﾘｱ商品
 62
   254
370
     0
100
AcDbVertex
100
AcDbPolyFaceMeshVertex
 10
94.00000000000009
 20
-53.0
 30
618.75
 70
   192
  0
VERTEX
  5
1C0
330
1B7
100
AcDbEntity
  8
ｴｸｽﾃﾘｱ商品
 62
   254
370
     0
100
AcDbVertex
100
AcDbPolyFaceMeshVertex
 10
95.12300000000008
 20
-53.0
 30
617.75
 70
   192
  0
VERTEX
  5
1C1
330
1B7
100
AcDbEntity
  8
ｴｸｽﾃﾘｱ商品
 62
   254
370
     0
100
AcDbVertex
100
AcDbPolyFaceMeshVertex
 10
108.0000000000001
 20
-52.99999999999999
 30
747.25
 70
   192
  0
VERTEX
  5
1C2
330
1B7
100
AcDbEntity
  8
ｴｸｽﾃﾘｱ商品
 62
   254
370
     0
100
AcDbVertex
100
AcDbPolyFaceMeshVertex
 10
137.0000000000001
 20
-52.99999999999999
 30
747.25
 70
   192
  0
VERTEX
  5
1C3
330
1B7
100
AcDbEntity
  8
ｴｸｽﾃﾘｱ商品
 62
   254
370
     0
100
AcDbVertex
100
AcDbPolyFaceMeshVertex
 10
138.0000000000001
 20
-52.99999999999999
 30
746.2500000000001
 70
   192
  0
VERTEX
  5
1C4
330
1B7
100
AcDbEntity
  8
ｴｸｽﾃﾘｱ商品
 62
   254
370
     0
100
AcDbVertex
100
AcDbPolyFaceMeshVertex
 10
138.0000000000001
 20
-53.0
 30
730.75
 70
   192
  0
VERTEX
  5
1C5
330
1B7
100
AcDbEntity
  8
ｴｸｽﾃﾘｱ商品
 62
   254
370
     0
100
AcDbVertex
100
AcDbPolyFaceMeshVertex
 10
137.0000000000001
 20
-53.0
 30
729.75
 70
   192
  0
VERTEX
  5
1C6
330
1B7
100
AcDbEntity
  8
ｴｸｽﾃﾘｱ商品
 62
   254
370
     0
100
AcDbVertex
100
AcDbPolyFaceMeshVertex
 10
108.0000000000001
 20
-53.0
 30
729.75
 70
   192
  0
VERTEX
  5
1C7
330
1B7
100
AcDbEntity
  8
ｴｸｽﾃﾘｱ商品
 62
   254
370
     0
100
AcDbVertex
100
AcDbPolyFaceMeshVertex
 10
107.0000000000001
 20
-53.0
 30
730.75
 70
   192
  0
VERTEX
  5
1C8
330
1B7
100
AcDbEntity
  8
ｴｸｽﾃﾘｱ商品
 62
   254
370
     0
100
AcDbVertex
100
AcDbPolyFaceMeshVertex
 10
107.0000000000001
 20
-52.99999999999999
 30
746.2500000000001
 70
   192
  0
VERTEX
  5
1C9
330
1B7
100
AcDbEntity
  8
ｴｸｽﾃﾘｱ商品
 62
   254
370
     0
100
AcDbVertex
100
AcDbPolyFaceMeshVertex
 10
108.0000000000001
 20
-53.0
 30
694.75
 70
   192
  0
VERTEX
  5
1CA
330
1B7
100
AcDbEntity
  8
ｴｸｽﾃﾘｱ商品
 62
   254
370
     0
100
AcDbVertex
100
AcDbPolyFaceMeshVertex
 10
109.0000000000001
 20
-53.0
 30
695.7500000000001
 70
   192
  0
VERTEX
  5
1CB
330
1B7
100
AcDbEntity
  8
ｴｸｽﾃﾘｱ商品
 62
   254
370
     0
100
AcDbVertex
100
AcDbPolyFaceMeshVertex
 10
136.0000000000001
 20
-53.0
 30
695.7500000000001
 70
   192
  0
VERTEX
  5
1CC
330
1B7
100
AcDbEntity
  8
ｴｸｽﾃﾘｱ商品
 62
   254
370
     0
100
AcDbVertex
100
AcDbPolyFaceMeshVertex
 10
137.0000000000001
 20
-53.0
 30
694.75
 70
   192
  0
VERTEX
  5
1CD
330
1B7
100
AcDbEntity
  8
ｴｸｽﾃﾘｱ商品
 62
   254
370
     0
100
AcDbVertex
100
AcDbPolyFaceMeshVertex
 10
137.0000000000001
 20
-53.0
 30
634.75
 70
   192
  0
VERTEX
  5
1CE
330
1B7
100
AcDbEntity
  8
ｴｸｽﾃﾘｱ商品
 62
   254
370
     0
100
AcDbVertex
100
AcDbPolyFaceMeshVertex
 10
136.0000000000001
 20
-53.0
 30
633.75
 70
   192
  0
VERTEX
  5
1CF
330
1B7
100
AcDbEntity
  8
ｴｸｽﾃﾘｱ商品
 62
   254
370
     0
100
AcDbVertex
100
AcDbPolyFaceMeshVertex
 10
109.0000000000001
 20
-53.0
 30
633.75
 70
   192
  0
VERTEX
  5
1D0
330
1B7
100
AcDbEntity
  8
ｴｸｽﾃﾘｱ商品
 62
   254
370
     0
100
AcDbVertex
100
AcDbPolyFaceMeshVertex
 10
108.0000000000001
 20
-53.0
 30
634.75
 70
   192
  0
VERTEX
  5
1D1
330
1B7
100
AcDbEntity
  8
ｴｸｽﾃﾘｱ商品
 62
   254
370
     0
100
AcDbVertex
100
AcDbPolyFaceMeshVertex
 10
108.0000000000001
 20
-24.79999999999999
 30
747.25
 70
   192
  0
VERTEX
  5
1D2
330
1B7
100
AcDbEntity
  8
ｴｸｽﾃﾘｱ商品
 62
   254
370
     0
100
AcDbVertex
100
AcDbPolyFaceMeshVertex
 10
137.0000000000001
 20
-24.79999999999999
 30
747.25
 70
   192
  0
VERTEX
  5
1D3
330
1B7
100
AcDbEntity
  8
ｴｸｽﾃﾘｱ商品
 62
   254
370
     0
100
AcDbVertex
100
AcDbPolyFaceMeshVertex
 10
138.0000000000001
 20
-24.79999999999999
 30
746.2500000000001
 70
   192
  0
VERTEX
  5
1D4
330
1B7
100
AcDbEntity
  8
ｴｸｽﾃﾘｱ商品
 62
   254
370
     0
100
AcDbVertex
100
AcDbPolyFaceMeshVertex
 10
138.0000000000001
 20
-24.79999999999999
 30
730.75
 70
   192
  0
VERTEX
  5
1D5
330
1B7
100
AcDbEntity
  8
ｴｸｽﾃﾘｱ商品
 62
   254
370
     0
100
AcDbVertex
100
AcDbPolyFaceMeshVertex
 10
137.0000000000001
 20
-24.79999999999999
 30
729.75
 70
   192
  0
VERTEX
  5
1D6
330
1B7
100
AcDbEntity
  8
ｴｸｽﾃﾘｱ商品
 62
   254
370
     0
100
AcDbVertex
100
AcDbPolyFaceMeshVertex
 10
108.0000000000001
 20
-24.79999999999999
 30
729.75
 70
   192
  0
VERTEX
  5
1D7
330
1B7
100
AcDbEntity
  8
ｴｸｽﾃﾘｱ商品
 62
   254
370
     0
100
AcDbVertex
100
AcDbPolyFaceMeshVertex
 10
107.0000000000001
 20
-24.79999999999999
 30
730.75
 70
   192
  0
VERTEX
  5
1D8
330
1B7
100
AcDbEntity
  8
ｴｸｽﾃﾘｱ商品
 62
   254
370
     0
100
AcDbVertex
100
AcDbPolyFaceMeshVertex
 10
107.0000000000001
 20
-24.79999999999999
 30
746.2500000000001
 70
   192
  0
VERTEX
  5
1D9
330
1B7
100
AcDbEntity
  8
ｴｸｽﾃﾘｱ商品
 62
   254
370
     0
100
AcDbVertex
100
AcDbPolyFaceMeshVertex
 10
108.0000000000001
 20
-24.79999999999999
 30
694.75
 70
   192
  0
VERTEX
  5
1DA
330
1B7
100
AcDbEntity
  8
ｴｸｽﾃﾘｱ商品
 62
   254
370
     0
100
AcDbVertex
100
AcDbPolyFaceMeshVertex
 10
109.0000000000001
 20
-24.79999999999999
 30
695.7500000000001
 70
   192
  0
VERTEX
  5
1DB
330
1B7
100
AcDbEntity
  8
ｴｸｽﾃﾘｱ商品
 62
   254
370
     0
100
AcDbVertex
100
AcDbPolyFaceMeshVertex
 10
136.0000000000001
 20
-24.79999999999999
 30
695.7500000000001
 70
   192
  0
VERTEX
  5
1DC
330
1B7
100
AcDbEntity
  8
ｴｸｽﾃﾘｱ商品
 62
   254
370
     0
100
AcDbVertex
100
AcDbPolyFaceMeshVertex
 10
137.0000000000001
 20
-24.79999999999999
 30
694.75
 70
   192
  0
VERTEX
  5
1DD
330
1B7
100
AcDbEntity
  8
ｴｸｽﾃﾘｱ商品
 62
   254
370
     0
100
AcDbVertex
100
AcDbPolyFaceMeshVertex
 10
137.0000000000001
 20
-24.8
 30
634.75
 70
   192
  0
VERTEX
  5
1DE
330
1B7
100
AcDbEntity
  8
ｴｸｽﾃﾘｱ商品
 62
   254
370
     0
100
AcDbVertex
100
AcDbPolyFaceMeshVertex
 10
136.0000000000001
 20
-24.8
 30
633.75
 70
   192
  0
VERTEX
  5
1DF
330
1B7
100
AcDbEntity
  8
ｴｸｽﾃﾘｱ商品
 62
   254
370
     0
100
AcDbVertex
100
AcDbPolyFaceMeshVertex
 10
109.0000000000001
 20
-24.8
 30
633.75
 70
   192
  0
VERTEX
  5
1E0
330
1B7
100
AcDbEntity
  8
ｴｸｽﾃﾘｱ商品
 62
   254
370
     0
100
AcDbVertex
100
AcDbPolyFaceMeshVertex
 10
108.0000000000001
 20
-24.8
 30
634.75
 70
   192
  0
VERTEX
  5
1E1
330
1B7
100
AcDbEntity
  8
ｴｸｽﾃﾘｱ商品
 62
   254
370
     0
100
AcDbVertex
100
AcDbPolyFaceMeshVertex
 10
150.0000000000001
 20
-24.8
 30
617.75
 70
   192
  0
VERTEX
  5
1E2
330
1B7
100
AcDbEntity
  8
ｴｸｽﾃﾘｱ商品
 62
   254
370
     0
100
AcDbVertex
100
AcDbPolyFaceMeshVertex
 10
151.0000000000001
 20
-24.8
 30
618.75
 70
   192
  0
VERTEX
  5
1E3
330
1B7
100
AcDbEntity
  8
ｴｸｽﾃﾘｱ商品
 62
   254
370
     0
100
AcDbVertex
100
AcDbPolyFaceMeshVertex
 10
151.0000000000001
 20
-24.79999999999999
 30
790.25
 70
   192
  0
VERTEX
  5
1E4
330
1B7
100
AcDbEntity
  8
ｴｸｽﾃﾘｱ商品
 62
   254
370
     0
100
AcDbVertex
100
AcDbPolyFaceMeshVertex
 10
150.0000000000001
 20
-24.79999999999999
 30
791.25
 70
   192
  0
VERTEX
  5
1E5
330
1B7
100
AcDbEntity
  8
ｴｸｽﾃﾘｱ商品
 62
   254
370
     0
100
AcDbVertex
100
AcDbPolyFaceMeshVertex
 10
95.00000000000007
 20
-24.79999999999999
 30
791.25
 70
   192
  0
VERTEX
  5
1E6
330
1B7
100
AcDbEntity
  8
ｴｸｽﾃﾘｱ商品
 62
   254
370
     0
100
AcDbVertex
100
AcDbPolyFaceMeshVertex
 10
94.00000000000009
 20
-24.79999999999999
 30
790.25
 70
   192
  0
VERTEX
  5
1E7
330
1B7
100
AcDbEntity
  8
ｴｸｽﾃﾘｱ商品
 62
   254
370
     0
100
AcDbVertex
100
AcDbPolyFaceMeshVertex
 10
94.00000000000009
 20
-24.8
 30
618.75
 70
   192
  0
VERTEX
  5
1E8
330
1B7
100
AcDbEntity
  8
ｴｸｽﾃﾘｱ商品
 62
   254
370
     0
100
AcDbVertex
100
AcDbPolyFaceMeshVertex
 10
95.12300000000008
 20
-24.8
 30
617.75
 70
   192
  0
VERTEX
  5
1E9
330
1B7
100
AcDbEntity
  8
ｴｸｽﾃﾘｱ商品
 62
   254
370
     0
100
AcDbFaceRecord
 10
0.0
 20
0.0
 30
0.0
 70
   128
 71
     3
 72
     4
 73
     5
  0
VERTEX
  5
1EA
330
1B7
100
AcDbEntity
  8
ｴｸｽﾃﾘｱ商品
 62
   254
370
     0
100
AcDbFaceRecord
 10
0.0
 20
0.0
 30
0.0
 70
   128
 71
     3
 72
     5
 73
     6
  0
VERTEX
  5
1EB
330
1B7
100
AcDbEntity
  8
ｴｸｽﾃﾘｱ商品
 62
   254
370
     0
100
AcDbFaceRecord
 10
0.0
 20
0.0
 30
0.0
 70
   128
 71
     9
 72
    10
 73
     6
  0
VERTEX
  5
1EC
330
1B7
100
AcDbEntity
  8
ｴｸｽﾃﾘｱ商品
 62
   254
370
     0
100
AcDbFaceRecord
 10
0.0
 20
0.0
 30
0.0
 70
   128
 71
     3
 72
     6
 73
    10
  0
VERTEX
  5
1ED
330
1B7
100
AcDbEntity
  8
ｴｸｽﾃﾘｱ商品
 62
   254
370
     0
100
AcDbFaceRecord
 10
0.0
 20
0.0
 30
0.0
 70
   128
 71
     3
 72
    10
 73
    11
  0
VERTEX
  5
1EE
330
1B7
100
AcDbEntity
  8
ｴｸｽﾃﾘｱ商品
 62
   254
370
     0
100
AcDbFaceRecord
 10
0.0
 20
0.0
 30
0.0
 70
   128
 71
    16
 72
     9
 73
     6
  0
VERTEX
  5
1EF
330
1B7
100
AcDbEntity
  8
ｴｸｽﾃﾘｱ商品
 62
   254
370
     0
100
AcDbFaceRecord
 10
0.0
 20
0.0
 30
0.0
 70
   128
 71
     3
 72
    11
 73
    12
  0
VERTEX
  5
1F0
330
1B7
100
AcDbEntity
  8
ｴｸｽﾃﾘｱ商品
 62
   254
370
     0
100
AcDbFaceRecord
 10
0.0
 20
0.0
 30
0.0
 70
   128
 71
    15
 72
    16
 73
     6
  0
VERTEX
  5
1F1
330
1B7
100
AcDbEntity
  8
ｴｸｽﾃﾘｱ商品
 62
   254
370
     0
100
AcDbFaceRecord
 10
0.0
 20
0.0
 30
0.0
 70
   128
 71
    18
 72
    19
 73
    13
  0
VERTEX
  5
1F2
330
1B7
100
AcDbEntity
  8
ｴｸｽﾃﾘｱ商品
 62
   254
370
     0
100
AcDbFaceRecord
 10
0.0
 20
0.0
 30
0.0
 70
   128
 71
    12
 72
    13
 73
    19
  0
VERTEX
  5
1F3
330
1B7
100
AcDbEntity
  8
ｴｸｽﾃﾘｱ商品
 62
   254
370
     0
100
AcDbFaceRecord
 10
0.0
 20
0.0
 30
0.0
 70
   128
 71
     3
 72
    12
 73
    19
  0
VERTEX
  5
1F4
330
1B7
100
AcDbEntity
  8
ｴｸｽﾃﾘｱ商品
 62
   254
370
     0
100
AcDbFaceRecord
 10
0.0
 20
0.0
 30
0.0
 70
   128
 71
    18
 72
    13
 73
    14
  0
VERTEX
  5
1F5
330
1B7
100
AcDbEntity
  8
ｴｸｽﾃﾘｱ商品
 62
   254
370
     0
100
AcDbFaceRecord
 10
0.0
 20
0.0
 30
0.0
 70
   128
 71
    18
 72
    14
 73
    15
  0
VERTEX
  5
1F6
330
1B7
100
AcDbEntity
  8
ｴｸｽﾃﾘｱ商品
 62
   254
370
     0
100
AcDbFaceRecord
 10
0.0
 20
0.0
 30
0.0
 70
   128
 71
    18
 72
    15
 73
     6
  0
VERTEX
  5
1F7
330
1B7
100
AcDbEntity
  8
ｴｸｽﾃﾘｱ商品
 62
   254
370
     0
100
AcDbFaceRecord
 10
0.0
 20
0.0
 30
0.0
 70
   128
 71
     3
 72
    19
 73
    20
  0
VERTEX
  5
1F8
330
1B7
100
AcDbEntity
  8
ｴｸｽﾃﾘｱ商品
 62
   254
370
     0
100
AcDbFaceRecord
 10
0.0
 20
0.0
 30
0.0
 70
   128
 71
    17
 72
    18
 73
     6
  0
VERTEX
  5
1F9
330
1B7
100
AcDbEntity
  8
ｴｸｽﾃﾘｱ商品
 62
   254
370
     0
100
AcDbFaceRecord
 10
0.0
 20
0.0
 30
0.0
 70
   128
 71
     3
 72
    20
 73
    21
  0
VERTEX
  5
1FA
330
1B7
100
AcDbEntity
  8
ｴｸｽﾃﾘｱ商品
 62
   254
370
     0
100
AcDbFaceRecord
 10
0.0
 20
0.0
 30
0.0
 70
   128
 71
    24
 72
    17
 73
     6
  0
VERTEX
  5
1FB
330
1B7
100
AcDbEntity
  8
ｴｸｽﾃﾘｱ商品
 62
   254
370
     0
100
AcDbFaceRecord
 10
0.0
 20
0.0
 30
0.0
 70
   128
 71
     2
 72
     3
 73
    21
  0
VERTEX
  5
1FC
330
1B7
100
AcDbEntity
  8
ｴｸｽﾃﾘｱ商品
 62
   254
370
     0
100
AcDbFaceRecord
 10
0.0
 20
0.0
 30
0.0
 70
   128
 71
     2
 72
    21
 73
    22
  0
VERTEX
  5
1FD
330
1B7
100
AcDbEntity
  8
ｴｸｽﾃﾘｱ商品
 62
   254
370
     0
100
AcDbFaceRecord
 10
0.0
 20
0.0
 30
0.0
 70
   128
 71
     2
 72
    22
 73
    23
  0
VERTEX
  5
1FE
330
1B7
100
AcDbEntity
  8
ｴｸｽﾃﾘｱ商品
 62
   254
370
     0
100
AcDbFaceRecord
 10
0.0
 20
0.0
 30
0.0
 70
   128
 71
    24
 72
     6
 73
     7
  0
VERTEX
  5
1FF
330
1B7
100
AcDbEntity
  8
ｴｸｽﾃﾘｱ商品
 62
   254
370
     0
100
AcDbFaceRecord
 10
0.0
 20
0.0
 30
0.0
 70
   128
 71
    23
 72
    24
 73
     7
  0
VERTEX
  5
200
330
1B7
100
AcDbEntity
  8
ｴｸｽﾃﾘｱ商品
 62
   254
370
     0
100
AcDbFaceRecord
 10
0.0
 20
0.0
 30
0.0
 70
   128
 71
     2
 72
    23
 73
     7
  0
VERTEX
  5
201
330
1B7
100
AcDbEntity
  8
ｴｸｽﾃﾘｱ商品
 62
   254
370
     0
100
AcDbFaceRecord
 10
0.0
 20
0.0
 30
0.0
 70
   128
 71
     1
 72
     2
 73
     7
  0
VERTEX
  5
202
330
1B7
100
AcDbEntity
  8
ｴｸｽﾃﾘｱ商品
 62
   254
370
     0
100
AcDbFaceRecord
 10
0.0
 20
0.0
 30
0.0
 70
   128
 71
     1
 72
     7
 73
     8
  0
VERTEX
  5
203
330
1B7
100
AcDbEntity
  8
ｴｸｽﾃﾘｱ商品
 62
   254
370
     0
100
AcDbFaceRecord
 10
0.0
 20
0.0
 30
0.0
 70
   128
 71
    25
 72
    26
 73
    10
 74
     9
  0
VERTEX
  5
204
330
1B7
100
AcDbEntity
  8
ｴｸｽﾃﾘｱ商品
 62
   254
370
     0
100
AcDbFaceRecord
 10
0.0
 20
0.0
 30
0.0
 70
   128
 71
    26
 72
    27
 73
    11
 74
    10
  0
VERTEX
  5
205
330
1B7
100
AcDbEntity
  8
ｴｸｽﾃﾘｱ商品
 62
   254
370
     0
100
AcDbFaceRecord
 10
0.0
 20
0.0
 30
0.0
 70
   128
 71
    27
 72
    28
 73
    12
 74
    11
  0
VERTEX
  5
206
330
1B7
100
AcDbEntity
  8
ｴｸｽﾃﾘｱ商品
 62
   254
370
     0
100
AcDbFaceRecord
 10
0.0
 20
0.0
 30
0.0
 70
   128
 71
    28
 72
    29
 73
    13
 74
    12
  0
VERTEX
  5
207
330
1B7
100
AcDbEntity
  8
ｴｸｽﾃﾘｱ商品
 62
   254
370
     0
100
AcDbFaceRecord
 10
0.0
 20
0.0
 30
0.0
 70
   128
 71
    29
 72
    30
 73
    14
 74
    13
  0
VERTEX
  5
208
330
1B7
100
AcDbEntity
  8
ｴｸｽﾃﾘｱ商品
 62
   254
370
     0
100
AcDbFaceRecord
 10
0.0
 20
0.0
 30
0.0
 70
   128
 71
    30
 72
    31
 73
    15
 74
    14
  0
VERTEX
  5
209
330
1B7
100
AcDbEntity
  8
ｴｸｽﾃﾘｱ商品
 62
   254
370
     0
100
AcDbFaceRecord
 10
0.0
 20
0.0
 30
0.0
 70
   128
 71
    31
 72
    32
 73
    16
 74
    15
  0
VERTEX
  5
20A
330
1B7
100
AcDbEntity
  8
ｴｸｽﾃﾘｱ商品
 62
   254
370
     0
100
AcDbFaceRecord
 10
0.0
 20
0.0
 30
0.0
 70
   128
 71
    32
 72
    25
 73
     9
 74
    16
  0
VERTEX
  5
20B
330
1B7
100
AcDbEntity
  8
ｴｸｽﾃﾘｱ商品
 62
   254
370
     0
100
AcDbFaceRecord
 10
0.0
 20
0.0
 30
0.0
 70
   128
 71
    17
 72
    33
 73
    34
 74
    18
  0
VERTEX
  5
20C
330
1B7
100
AcDbEntity
  8
ｴｸｽﾃﾘｱ商品
 62
   254
370
     0
100
AcDbFaceRecord
 10
0.0
 20
0.0
 30
0.0
 70
   128
 71
    18
 72
    34
 73
    35
 74
    19
  0
VERTEX
  5
20D
330
1B7
100
AcDbEntity
  8
ｴｸｽﾃﾘｱ商品
 62
   254
370
     0
100
AcDbFaceRecord
 10
0.0
 20
0.0
 30
0.0
 70
   128
 71
    19
 72
    35
 73
    36
 74
    20
  0
VERTEX
  5
20E
330
1B7
100
AcDbEntity
  8
ｴｸｽﾃﾘｱ商品
 62
   254
370
     0
100
AcDbFaceRecord
 10
0.0
 20
0.0
 30
0.0
 70
   128
 71
    20
 72
    36
 73
    37
 74
    21
  0
VERTEX
  5
20F
330
1B7
100
AcDbEntity
  8
ｴｸｽﾃﾘｱ商品
 62
   254
370
     0
100
AcDbFaceRecord
 10
0.0
 20
0.0
 30
0.0
 70
   128
 71
    21
 72
    37
 73
    38
 74
    22
  0
VERTEX
  5
210
330
1B7
100
AcDbEntity
  8
ｴｸｽﾃﾘｱ商品
 62
   254
370
     0
100
AcDbFaceRecord
 10
0.0
 20
0.0
 30
0.0
 70
   128
 71
    22
 72
    38
 73
    39
 74
    23
  0
VERTEX
  5
211
330
1B7
100
AcDbEntity
  8
ｴｸｽﾃﾘｱ商品
 62
   254
370
     0
100
AcDbFaceRecord
 10
0.0
 20
0.0
 30
0.0
 70
   128
 71
    23
 72
    39
 73
    40
 74
    24
  0
VERTEX
  5
212
330
1B7
100
AcDbEntity
  8
ｴｸｽﾃﾘｱ商品
 62
   254
370
     0
100
AcDbFaceRecord
 10
0.0
 20
0.0
 30
0.0
 70
   128
 71
    24
 72
    40
 73
    33
 74
    17
  0
VERTEX
  5
213
330
1B7
100
AcDbEntity
  8
ｴｸｽﾃﾘｱ商品
 62
   254
370
     0
100
AcDbFaceRecord
 10
0.0
 20
0.0
 30
0.0
 70
   128
 71
     2
 72
     1
 73
    41
 74
    42
  0
VERTEX
  5
214
330
1B7
100
AcDbEntity
  8
ｴｸｽﾃﾘｱ商品
 62
   254
370
     0
100
AcDbFaceRecord
 10
0.0
 20
0.0
 30
0.0
 70
   128
 71
     3
 72
     2
 73
    42
 74
    43
  0
VERTEX
  5
215
330
1B7
100
AcDbEntity
  8
ｴｸｽﾃﾘｱ商品
 62
   254
370
     0
100
AcDbFaceRecord
 10
0.0
 20
0.0
 30
0.0
 70
   128
 71
     4
 72
     3
 73
    43
 74
    44
  0
VERTEX
  5
216
330
1B7
100
AcDbEntity
  8
ｴｸｽﾃﾘｱ商品
 62
   254
370
     0
100
AcDbFaceRecord
 10
0.0
 20
0.0
 30
0.0
 70
   128
 71
     5
 72
     4
 73
    44
 74
    45
  0
VERTEX
  5
217
330
1B7
100
AcDbEntity
  8
ｴｸｽﾃﾘｱ商品
 62
   254
370
     0
100
AcDbFaceRecord
 10
0.0
 20
0.0
 30
0.0
 70
   128
 71
     6
 72
     5
 73
    45
 74
    46
  0
VERTEX
  5
218
330
1B7
100
AcDbEntity
  8
ｴｸｽﾃﾘｱ商品
 62
   254
370
     0
100
AcDbFaceRecord
 10
0.0
 20
0.0
 30
0.0
 70
   128
 71
     7
 72
     6
 73
    46
 74
    47
  0
VERTEX
  5
219
330
1B7
100
AcDbEntity
  8
ｴｸｽﾃﾘｱ商品
 62
   254
370
     0
100
AcDbFaceRecord
 10
0.0
 20
0.0
 30
0.0
 70
   128
 71
     8
 72
     7
 73
    47
 74
    48
  0
VERTEX
  5
21A
330
1B7
100
AcDbEntity
  8
ｴｸｽﾃﾘｱ商品
 62
   254
370
     0
100
AcDbFaceRecord
 10
0.0
 20
0.0
 30
0.0
 70
   128
 71
     1
 72
     8
 73
    48
 74
    41
  0
VERTEX
  5
21B
330
1B7
100
AcDbEntity
  8
ｴｸｽﾃﾘｱ商品
 62
   254
370
     0
100
AcDbFaceRecord
 10
0.0
 20
0.0
 30
0.0
 70
   128
 71
    46
 72
    45
 73
    44
  0
VERTEX
  5
21C
330
1B7
100
AcDbEntity
  8
ｴｸｽﾃﾘｱ商品
 62
   254
370
     0
100
AcDbFaceRecord
 10
0.0
 20
0.0
 30
0.0
 70
   128
 71
    46
 72
    44
 73
    43
  0
VERTEX
  5
21D
330
1B7
100
AcDbEntity
  8
ｴｸｽﾃﾘｱ商品
 62
   254
370
     0
100
AcDbFaceRecord
 10
0.0
 20
0.0
 30
0.0
 70
   128
 71
    26
 72
    25
 73
    43
  0
VERTEX
  5
21E
330
1B7
100
AcDbEntity
  8
ｴｸｽﾃﾘｱ商品
 62
   254
370
     0
100
AcDbFaceRecord
 10
0.0
 20
0.0
 30
0.0
 70
   128
 71
    46
 72
    43
 73
    25
  0
VERTEX
  5
21F
330
1B7
100
AcDbEntity
  8
ｴｸｽﾃﾘｱ商品
 62
   254
370
     0
100
AcDbFaceRecord
 10
0.0
 20
0.0
 30
0.0
 70
   128
 71
    46
 72
    25
 73
    32
  0
VERTEX
  5
220
330
1B7
100
AcDbEntity
  8
ｴｸｽﾃﾘｱ商品
 62
   254
370
     0
100
AcDbFaceRecord
 10
0.0
 20
0.0
 30
0.0
 70
   128
 71
    27
 72
    26
 73
    43
  0
VERTEX
  5
221
330
1B7
100
AcDbEntity
  8
ｴｸｽﾃﾘｱ商品
 62
   254
370
     0
100
AcDbFaceRecord
 10
0.0
 20
0.0
 30
0.0
 70
   128
 71
    46
 72
    32
 73
    31
  0
VERTEX
  5
222
330
1B7
100
AcDbEntity
  8
ｴｸｽﾃﾘｱ商品
 62
   254
370
     0
100
AcDbFaceRecord
 10
0.0
 20
0.0
 30
0.0
 70
   128
 71
    28
 72
    27
 73
    43
  0
VERTEX
  5
223
330
1B7
100
AcDbEntity
  8
ｴｸｽﾃﾘｱ商品
 62
   254
370
     0
100
AcDbFaceRecord
 10
0.0
 20
0.0
 30
0.0
 70
   128
 71
    35
 72
    34
 73
    30
  0
VERTEX
  5
224
330
1B7
100
AcDbEntity
  8
ｴｸｽﾃﾘｱ商品
 62
   254
370
     0
100
AcDbFaceRecord
 10
0.0
 20
0.0
 30
0.0
 70
   128
 71
    31
 72
    30
 73
    34
  0
VERTEX
  5
225
330
1B7
100
AcDbEntity
  8
ｴｸｽﾃﾘｱ商品
 62
   254
370
     0
100
AcDbFaceRecord
 10
0.0
 20
0.0
 30
0.0
 70
   128
 71
    46
 72
    31
 73
    34
  0
VERTEX
  5
226
330
1B7
100
AcDbEntity
  8
ｴｸｽﾃﾘｱ商品
 62
   254
370
     0
100
AcDbFaceRecord
 10
0.0
 20
0.0
 30
0.0
 70
   128
 71
    35
 72
    30
 73
    29
  0
VERTEX
  5
227
330
1B7
100
AcDbEntity
  8
ｴｸｽﾃﾘｱ商品
 62
   254
370
     0
100
AcDbFaceRecord
 10
0.0
 20
0.0
 30
0.0
 70
   128
 71
    35
 72
    29
 73
    28
  0
VERTEX
  5
228
330
1B7
100
AcDbEntity
  8
ｴｸｽﾃﾘｱ商品
 62
   254
370
     0
100
AcDbFaceRecord
 10
0.0
 20
0.0
 30
0.0
 70
   128
 71
    35
 72
    28
 73
    43
  0
VERTEX
  5
229
330
1B7
100
AcDbEntity
  8
ｴｸｽﾃﾘｱ商品
 62
   254
370
     0
100
AcDbFaceRecord
 10
0.0
 20
0.0
 30
0.0
 70
   128
 71
    46
 72
    34
 73
    33
  0
VERTEX
  5
22A
330
1B7
100
AcDbEntity
  8
ｴｸｽﾃﾘｱ商品
 62
   254
370
     0
100
AcDbFaceRecord
 10
0.0
 20
0.0
 30
0.0
 70
   128
 71
    36
 72
    35
 73
    43
  0
VERTEX
  5
22B
330
1B7
100
AcDbEntity
  8
ｴｸｽﾃﾘｱ商品
 62
   254
370
     0
100
AcDbFaceRecord
 10
0.0
 20
0.0
 30
0.0
 70
   128
 71
    46
 72
    33
 73
    40
  0
VERTEX
  5
22C
330
1B7
100
AcDbEntity
  8
ｴｸｽﾃﾘｱ商品
 62
   254
370
     0
100
AcDbFaceRecord
 10
0.0
 20
0.0
 30
0.0
 70
   128
 71
    37
 72
    36
 73
    43
  0
VERTEX
  5
22D
330
1B7
100
AcDbEntity
  8
ｴｸｽﾃﾘｱ商品
 62
   254
370
     0
100
AcDbFaceRecord
 10
0.0
 20
0.0
 30
0.0
 70
   128
 71
    47
 72
    46
 73
    40
  0
VERTEX
  5
22E
330
1B7
100
AcDbEntity
  8
ｴｸｽﾃﾘｱ商品
 62
   254
370
     0
100
AcDbFaceRecord
 10
0.0
 20
0.0
 30
0.0
 70
   128
 71
    47
 72
    40
 73
    39
  0
VERTEX
  5
22F
330
1B7
100
AcDbEntity
  8
ｴｸｽﾃﾘｱ商品
 62
   254
370
     0
100
AcDbFaceRecord
 10
0.0
 20
0.0
 30
0.0
 70
   128
 71
    47
 72
    39
 73
    38
  0
VERTEX
  5
230
330
1B7
100
AcDbEntity
  8
ｴｸｽﾃﾘｱ商品
 62
   254
370
     0
100
AcDbFaceRecord
 10
0.0
 20
0.0
 30
0.0
 70
   128
 71
    37
 72
    43
 73
    42
  0
VERTEX
  5
231
330
1B7
100
AcDbEntity
  8
ｴｸｽﾃﾘｱ商品
 62
   254
370
     0
100
AcDbFaceRecord
 10
0.0
 20
0.0
 30
0.0
 70
   128
 71
    38
 72
    37
 73
    42
  0
VERTEX
  5
232
330
1B7
100
AcDbEntity
  8
ｴｸｽﾃﾘｱ商品
 62
   254
370
     0
100
AcDbFaceRecord
 10
0.0
 20
0.0
 30
0.0
 70
   128
 71
    47
 72
    38
 73
    42
  0
VERTEX
  5
233
330
1B7
100
AcDbEntity
  8
ｴｸｽﾃﾘｱ商品
 62
   254
370
     0
100
AcDbFaceRecord
 10
0.0
 20
0.0
 30
0.0
 70
   128
 71
    48
 72
    47
 73
    42
  0
VERTEX
  5
234
330
1B7
100
AcDbEntity
  8
ｴｸｽﾃﾘｱ商品
 62
   254
370
     0
100
AcDbFaceRecord
 10
0.0
 20
0.0
 30
0.0
 70
   128
 71
    48
 72
    42
 73
    41
  0
SEQEND
  5
1B8
330
1B7
100
AcDbEntity
  8
ｴｸｽﾃﾘｱ商品
370
     0
  0
POLYLINE
  5
235
330
3C
100
AcDbEntity
  8
ｴｸｽﾃﾘｱ商品
 62
   254
370
     0
100
AcDbPolyFaceMesh
 66
     1
 10
0.0
 20
0.0
 30
0.0
 70
    64
 71
   248
 72
   316
  0
VERTEX
  5
237
330
235
100
AcDbEntity
  8
ｴｸｽﾃﾘｱ商品
 62
   254
370
     0
100
AcDbVertex
100
AcDbPolyFaceMeshVertex
 10
74.34807753012213
 20
-52.00000000000001
 30
632.2635182233308
 70
   192
  0
VERTEX
  5
238
330
235
100
AcDbEntity
  8
ｴｸｽﾃﾘｱ商品
 62
   254
370
     0
100
AcDbVertex
100
AcDbPolyFaceMeshVertex
 10
73.89692620785912
 20
-52.00000000000001
 30
630.5797985667434
 70
   192
  0
VERTEX
  5
239
330
235
100
AcDbEntity
  8
ｴｸｽﾃﾘｱ商品
 62
   254
370
     0
100
AcDbVertex
100
AcDbPolyFaceMeshVertex
 10
73.16025403784442
 20
-52.00000000000001
 30
629.0000000000001
 70
   192
  0
VERTEX
  5
23A
330
235
100
AcDbEntity
  8
ｴｸｽﾃﾘｱ商品
 62
   254
370
     0
100
AcDbVertex
100
AcDbPolyFaceMeshVertex
 10
72.16044443118983
 20
-52.00000000000001
 30
627.5721239031348
 70
   192
  0
VERTEX
  5
23B
330
235
100
AcDbEntity
  8
ｴｸｽﾃﾘｱ商品
 62
   254
370
     0
100
AcDbVertex
100
AcDbPolyFaceMeshVertex
 10
70.92787609686543
 20
-52.00000000000001
 30
626.3395555688104
 70
   192
  0
VERTEX
  5
23C
330
235
100
AcDbEntity
  8
ｴｸｽﾃﾘｱ商品
 62
   254
370
     0
100
AcDbVertex
100
AcDbPolyFaceMeshVertex
 10
69.50000000000004
 20
-52.00000000000001
 30
625.3397459621557
 70
   192
  0
VERTEX
  5
23D
330
235
100
AcDbEntity
  8
ｴｸｽﾃﾘｱ商品
 62
   254
370
     0
100
AcDbVertex
100
AcDbPolyFaceMeshVertex
 10
67.92020143325674
 20
-52.00000000000001
 30
624.6030737921411
 70
   192
  0
VERTEX
  5
23E
330
235
100
AcDbEntity
  8
ｴｸｽﾃﾘｱ商品
 62
   254
370
     0
100
AcDbVertex
100
AcDbPolyFaceMeshVertex
 10
66.23648177666935
 20
-52.00000000000001
 30
624.1519224698781
 70
   192
  0
VERTEX
  5
23F
330
235
100
AcDbEntity
  8
ｴｸｽﾃﾘｱ商品
 62
   254
370
     0
100
AcDbVertex
100
AcDbPolyFaceMeshVertex
 10
64.50000000000006
 20
-52.00000000000001
 30
624.0000000000001
 70
   192
  0
VERTEX
  5
240
330
235
100
AcDbEntity
  8
ｴｸｽﾃﾘｱ商品
 62
   254
370
     0
100
AcDbVertex
100
AcDbPolyFaceMeshVertex
 10
62.76351822333076
 20
-52.00000000000001
 30
624.1519224698781
 70
   192
  0
VERTEX
  5
241
330
235
100
AcDbEntity
  8
ｴｸｽﾃﾘｱ商品
 62
   254
370
     0
100
AcDbVertex
100
AcDbPolyFaceMeshVertex
 10
61.07979856674337
 20
-52.00000000000001
 30
624.6030737921411
 70
   192
  0
VERTEX
  5
242
330
235
100
AcDbEntity
  8
ｴｸｽﾃﾘｱ商品
 62
   254
370
     0
100
AcDbVertex
100
AcDbPolyFaceMeshVertex
 10
59.50000000000006
 20
-52.00000000000001
 30
625.3397459621557
 70
   192
  0
VERTEX
  5
243
330
235
100
AcDbEntity
  8
ｴｸｽﾃﾘｱ商品
 62
   254
370
     0
100
AcDbVertex
100
AcDbPolyFaceMeshVertex
 10
58.07212390313467
 20
-52.00000000000001
 30
626.3395555688104
 70
   192
  0
VERTEX
  5
244
330
235
100
AcDbEntity
  8
ｴｸｽﾃﾘｱ商品
 62
   254
370
     0
100
AcDbVertex
100
AcDbPolyFaceMeshVertex
 10
56.83955556881028
 20
-52.00000000000001
 30
627.5721239031348
 70
   192
  0
VERTEX
  5
245
330
235
100
AcDbEntity
  8
ｴｸｽﾃﾘｱ商品
 62
   254
370
     0
100
AcDbVertex
100
AcDbPolyFaceMeshVertex
 10
55.83974596215567
 20
-52.00000000000001
 30
629.0000000000001
 70
   192
  0
VERTEX
  5
246
330
235
100
AcDbEntity
  8
ｴｸｽﾃﾘｱ商品
 62
   254
370
     0
100
AcDbVertex
100
AcDbPolyFaceMeshVertex
 10
55.10307379214098
 20
-52.00000000000001
 30
630.5797985667434
 70
   192
  0
VERTEX
  5
247
330
235
100
AcDbEntity
  8
ｴｸｽﾃﾘｱ商品
 62
   254
370
     0
100
AcDbVertex
100
AcDbPolyFaceMeshVertex
 10
54.65192246987798
 20
-52.00000000000001
 30
632.2635182233308
 70
   192
  0
VERTEX
  5
248
330
235
100
AcDbEntity
  8
ｴｸｽﾃﾘｱ商品
 62
   254
370
     0
100
AcDbVertex
100
AcDbPolyFaceMeshVertex
 10
54.50000000000006
 20
-52.00000000000001
 30
634.0000000000001
 70
   192
  0
VERTEX
  5
249
330
235
100
AcDbEntity
  8
ｴｸｽﾃﾘｱ商品
 62
   254
370
     0
100
AcDbVertex
100
AcDbPolyFaceMeshVertex
 10
54.65192246987798
 20
-52.00000000000001
 30
635.7364817766694
 70
   192
  0
VERTEX
  5
24A
330
235
100
AcDbEntity
  8
ｴｸｽﾃﾘｱ商品
 62
   254
370
     0
100
AcDbVertex
100
AcDbPolyFaceMeshVertex
 10
55.10307379214098
 20
-52.00000000000001
 30
637.4202014332568
 70
   192
  0
VERTEX
  5
24B
330
235
100
AcDbEntity
  8
ｴｸｽﾃﾘｱ商品
 62
   254
370
     0
100
AcDbVertex
100
AcDbPolyFaceMeshVertex
 10
55.83974596215567
 20
-52.00000000000001
 30
639.0000000000001
 70
   192
  0
VERTEX
  5
24C
330
235
100
AcDbEntity
  8
ｴｸｽﾃﾘｱ商品
 62
   254
370
     0
100
AcDbVertex
100
AcDbPolyFaceMeshVertex
 10
56.83955556881028
 20
-52.00000000000001
 30
640.4278760968655
 70
   192
  0
VERTEX
  5
24D
330
235
100
AcDbEntity
  8
ｴｸｽﾃﾘｱ商品
 62
   254
370
     0
100
AcDbVertex
100
AcDbPolyFaceMeshVertex
 10
58.07212390313467
 20
-52.00000000000001
 30
641.6604444311898
 70
   192
  0
VERTEX
  5
24E
330
235
100
AcDbEntity
  8
ｴｸｽﾃﾘｱ商品
 62
   254
370
     0
100
AcDbVertex
100
AcDbPolyFaceMeshVertex
 10
59.50000000000006
 20
-52.00000000000001
 30
642.6602540378445
 70
   192
  0
VERTEX
  5
24F
330
235
100
AcDbEntity
  8
ｴｸｽﾃﾘｱ商品
 62
   254
370
     0
100
AcDbVertex
100
AcDbPolyFaceMeshVertex
 10
61.07979856674337
 20
-52.00000000000001
 30
643.3969262078591
 70
   192
  0
VERTEX
  5
250
330
235
100
AcDbEntity
  8
ｴｸｽﾃﾘｱ商品
 62
   254
370
     0
100
AcDbVertex
100
AcDbPolyFaceMeshVertex
 10
62.76351822333076
 20
-52.00000000000001
 30
643.8480775301222
 70
   192
  0
VERTEX
  5
251
330
235
100
AcDbEntity
  8
ｴｸｽﾃﾘｱ商品
 62
   254
370
     0
100
AcDbVertex
100
AcDbPolyFaceMeshVertex
 10
64.50000000000006
 20
-52.00000000000001
 30
644.0000000000001
 70
   192
  0
VERTEX
  5
252
330
235
100
AcDbEntity
  8
ｴｸｽﾃﾘｱ商品
 62
   254
370
     0
100
AcDbVertex
100
AcDbPolyFaceMeshVertex
 10
66.23648177666936
 20
-52.00000000000001
 30
643.8480775301222
 70
   192
  0
VERTEX
  5
253
330
235
100
AcDbEntity
  8
ｴｸｽﾃﾘｱ商品
 62
   254
370
     0
100
AcDbVertex
100
AcDbPolyFaceMeshVertex
 10
67.92020143325675
 20
-52.00000000000001
 30
643.3969262078591
 70
   192
  0
VERTEX
  5
254
330
235
100
AcDbEntity
  8
ｴｸｽﾃﾘｱ商品
 62
   254
370
     0
100
AcDbVertex
100
AcDbPolyFaceMeshVertex
 10
69.50000000000006
 20
-52.00000000000001
 30
642.6602540378445
 70
   192
  0
VERTEX
  5
255
330
235
100
AcDbEntity
  8
ｴｸｽﾃﾘｱ商品
 62
   254
370
     0
100
AcDbVertex
100
AcDbPolyFaceMeshVertex
 10
70.92787609686545
 20
-52.00000000000001
 30
641.6604444311898
 70
   192
  0
VERTEX
  5
256
330
235
100
AcDbEntity
  8
ｴｸｽﾃﾘｱ商品
 62
   254
370
     0
100
AcDbVertex
100
AcDbPolyFaceMeshVertex
 10
72.16044443118984
 20
-52.00000000000001
 30
640.4278760968655
 70
   192
  0
VERTEX
  5
257
330
235
100
AcDbEntity
  8
ｴｸｽﾃﾘｱ商品
 62
   254
370
     0
100
AcDbVertex
100
AcDbPolyFaceMeshVertex
 10
73.16025403784444
 20
-52.00000000000001
 30
639.0000000000001
 70
   192
  0
VERTEX
  5
258
330
235
100
AcDbEntity
  8
ｴｸｽﾃﾘｱ商品
 62
   254
370
     0
100
AcDbVertex
100
AcDbPolyFaceMeshVertex
 10
73.89692620785915
 20
-52.00000000000001
 30
637.4202014332568
 70
   192
  0
VERTEX
  5
259
330
235
100
AcDbEntity
  8
ｴｸｽﾃﾘｱ商品
 62
   254
370
     0
100
AcDbVertex
100
AcDbPolyFaceMeshVertex
 10
74.34807753012214
 20
-52.00000000000001
 30
635.7364817766694
 70
   192
  0
VERTEX
  5
25A
330
235
100
AcDbEntity
  8
ｴｸｽﾃﾘｱ商品
 62
   254
370
     0
100
AcDbVertex
100
AcDbPolyFaceMeshVertex
 10
74.50000000000007
 20
-52.00000000000001
 30
634.0000000000001
 70
   192
  0
VERTEX
  5
25B
330
235
100
AcDbEntity
  8
ｴｸｽﾃﾘｱ商品
 62
   254
370
     0
100
AcDbVertex
100
AcDbPolyFaceMeshVertex
 10
74.34807753012213
 20
-62.00000000000001
 30
632.2635182233308
 70
   192
  0
VERTEX
  5
25C
330
235
100
AcDbEntity
  8
ｴｸｽﾃﾘｱ商品
 62
   254
370
     0
100
AcDbVertex
100
AcDbPolyFaceMeshVertex
 10
74.50000000000007
 20
-62.00000000000001
 30
634.0000000000001
 70
   192
  0
VERTEX
  5
25D
330
235
100
AcDbEntity
  8
ｴｸｽﾃﾘｱ商品
 62
   254
370
     0
100
AcDbVertex
100
AcDbPolyFaceMeshVertex
 10
74.34807753012214
 20
-62.00000000000001
 30
635.7364817766694
 70
   192
  0
VERTEX
  5
25E
330
235
100
AcDbEntity
  8
ｴｸｽﾃﾘｱ商品
 62
   254
370
     0
100
AcDbVertex
100
AcDbPolyFaceMeshVertex
 10
73.89692620785915
 20
-62.00000000000001
 30
637.4202014332568
 70
   192
  0
VERTEX
  5
25F
330
235
100
AcDbEntity
  8
ｴｸｽﾃﾘｱ商品
 62
   254
370
     0
100
AcDbVertex
100
AcDbPolyFaceMeshVertex
 10
73.16025403784444
 20
-62.00000000000001
 30
639.0000000000001
 70
   192
  0
VERTEX
  5
260
330
235
100
AcDbEntity
  8
ｴｸｽﾃﾘｱ商品
 62
   254
370
     0
100
AcDbVertex
100
AcDbPolyFaceMeshVertex
 10
72.16044443118984
 20
-62.00000000000001
 30
640.4278760968655
 70
   192
  0
VERTEX
  5
261
330
235
100
AcDbEntity
  8
ｴｸｽﾃﾘｱ商品
 62
   254
370
     0
100
AcDbVertex
100
AcDbPolyFaceMeshVertex
 10
70.92787609686545
 20
-62.00000000000001
 30
641.6604444311898
 70
   192
  0
VERTEX
  5
262
330
235
100
AcDbEntity
  8
ｴｸｽﾃﾘｱ商品
 62
   254
370
     0
100
AcDbVertex
100
AcDbPolyFaceMeshVertex
 10
69.50000000000006
 20
-62.00000000000001
 30
642.6602540378445
 70
   192
  0
VERTEX
  5
263
330
235
100
AcDbEntity
  8
ｴｸｽﾃﾘｱ商品
 62
   254
370
     0
100
AcDbVertex
100
AcDbPolyFaceMeshVertex
 10
67.92020143325675
 20
-62.00000000000001
 30
643.3969262078591
 70
   192
  0
VERTEX
  5
264
330
235
100
AcDbEntity
  8
ｴｸｽﾃﾘｱ商品
 62
   254
370
     0
100
AcDbVertex
100
AcDbPolyFaceMeshVertex
 10
66.23648177666936
 20
-62.00000000000001
 30
643.8480775301222
 70
   192
  0
VERTEX
  5
265
330
235
100
AcDbEntity
  8
ｴｸｽﾃﾘｱ商品
 62
   254
370
     0
100
AcDbVertex
100
AcDbPolyFaceMeshVertex
 10
64.50000000000006
 20
-62.00000000000001
 30
644.0000000000001
 70
   192
  0
VERTEX
  5
266
330
235
100
AcDbEntity
  8
ｴｸｽﾃﾘｱ商品
 62
   254
370
     0
100
AcDbVertex
100
AcDbPolyFaceMeshVertex
 10
62.76351822333076
 20
-62.00000000000001
 30
643.8480775301222
 70
   192
  0
VERTEX
  5
267
330
235
100
AcDbEntity
  8
ｴｸｽﾃﾘｱ商品
 62
   254
370
     0
100
AcDbVertex
100
AcDbPolyFaceMeshVertex
 10
61.07979856674337
 20
-62.00000000000001
 30
643.3969262078591
 70
   192
  0
VERTEX
  5
268
330
235
100
AcDbEntity
  8
ｴｸｽﾃﾘｱ商品
 62
   254
370
     0
100
AcDbVertex
100
AcDbPolyFaceMeshVertex
 10
59.50000000000006
 20
-62.00000000000001
 30
642.6602540378445
 70
   192
  0
VERTEX
  5
269
330
235
100
AcDbEntity
  8
ｴｸｽﾃﾘｱ商品
 62
   254
370
     0
100
AcDbVertex
100
AcDbPolyFaceMeshVertex
 10
58.07212390313467
 20
-62.00000000000001
 30
641.6604444311898
 70
   192
  0
VERTEX
  5
26A
330
235
100
AcDbEntity
  8
ｴｸｽﾃﾘｱ商品
 62
   254
370
     0
100
AcDbVertex
100
AcDbPolyFaceMeshVertex
 10
56.83955556881028
 20
-62.00000000000001
 30
640.4278760968655
 70
   192
  0
VERTEX
  5
26B
330
235
100
AcDbEntity
  8
ｴｸｽﾃﾘｱ商品
 62
   254
370
     0
100
AcDbVertex
100
AcDbPolyFaceMeshVertex
 10
55.83974596215567
 20
-62.00000000000001
 30
639.0000000000001
 70
   192
  0
VERTEX
  5
26C
330
235
100
AcDbEntity
  8
ｴｸｽﾃﾘｱ商品
 62
   254
370
     0
100
AcDbVertex
100
AcDbPolyFaceMeshVertex
 10
55.10307379214098
 20
-62.00000000000001
 30
637.4202014332568
 70
   192
  0
VERTEX
  5
26D
330
235
100
AcDbEntity
  8
ｴｸｽﾃﾘｱ商品
 62
   254
370
     0
100
AcDbVertex
100
AcDbPolyFaceMeshVertex
 10
54.65192246987798
 20
-62.00000000000001
 30
635.7364817766694
 70
   192
  0
VERTEX
  5
26E
330
235
100
AcDbEntity
  8
ｴｸｽﾃﾘｱ商品
 62
   254
370
     0
100
AcDbVertex
100
AcDbPolyFaceMeshVertex
 10
54.50000000000006
 20
-62.00000000000001
 30
634.0000000000001
 70
   192
  0
VERTEX
  5
26F
330
235
100
AcDbEntity
  8
ｴｸｽﾃﾘｱ商品
 62
   254
370
     0
100
AcDbVertex
100
AcDbPolyFaceMeshVertex
 10
54.65192246987798
 20
-62.00000000000001
 30
632.2635182233308
 70
   192
  0
VERTEX
  5
270
330
235
100
AcDbEntity
  8
ｴｸｽﾃﾘｱ商品
 62
   254
370
     0
100
AcDbVertex
100
AcDbPolyFaceMeshVertex
 10
55.10307379214098
 20
-62.00000000000001
 30
630.5797985667434
 70
   192
  0
VERTEX
  5
271
330
235
100
AcDbEntity
  8
ｴｸｽﾃﾘｱ商品
 62
   254
370
     0
100
AcDbVertex
100
AcDbPolyFaceMeshVertex
 10
55.83974596215567
 20
-62.00000000000001
 30
629.0000000000001
 70
   192
  0
VERTEX
  5
272
330
235
100
AcDbEntity
  8
ｴｸｽﾃﾘｱ商品
 62
   254
370
     0
100
AcDbVertex
100
AcDbPolyFaceMeshVertex
 10
56.83955556881028
 20
-62.00000000000001
 30
627.5721239031348
 70
   192
  0
VERTEX
  5
273
330
235
100
AcDbEntity
  8
ｴｸｽﾃﾘｱ商品
 62
   254
370
     0
100
AcDbVertex
100
AcDbPolyFaceMeshVertex
 10
58.07212390313467
 20
-62.00000000000001
 30
626.3395555688104
 70
   192
  0
VERTEX
  5
274
330
235
100
AcDbEntity
  8
ｴｸｽﾃﾘｱ商品
 62
   254
370
     0
100
AcDbVertex
100
AcDbPolyFaceMeshVertex
 10
59.50000000000006
 20
-62.00000000000001
 30
625.3397459621557
 70
   192
  0
VERTEX
  5
275
330
235
100
AcDbEntity
  8
ｴｸｽﾃﾘｱ商品
 62
   254
370
     0
100
AcDbVertex
100
AcDbPolyFaceMeshVertex
 10
61.07979856674337
 20
-62.00000000000001
 30
624.6030737921411
 70
   192
  0
VERTEX
  5
276
330
235
100
AcDbEntity
  8
ｴｸｽﾃﾘｱ商品
 62
   254
370
     0
100
AcDbVertex
100
AcDbPolyFaceMeshVertex
 10
62.76351822333076
 20
-62.00000000000001
 30
624.1519224698781
 70
   192
  0
VERTEX
  5
277
330
235
100
AcDbEntity
  8
ｴｸｽﾃﾘｱ商品
 62
   254
370
     0
100
AcDbVertex
100
AcDbPolyFaceMeshVertex
 10
64.50000000000006
 20
-62.00000000000001
 30
624.0000000000001
 70
   192
  0
VERTEX
  5
278
330
235
100
AcDbEntity
  8
ｴｸｽﾃﾘｱ商品
 62
   254
370
     0
100
AcDbVertex
100
AcDbPolyFaceMeshVertex
 10
66.23648177666935
 20
-62.00000000000001
 30
624.1519224698781
 70
   192
  0
VERTEX
  5
279
330
235
100
AcDbEntity
  8
ｴｸｽﾃﾘｱ商品
 62
   254
370
     0
100
AcDbVertex
100
AcDbPolyFaceMeshVertex
 10
67.92020143325674
 20
-62.00000000000001
 30
624.6030737921411
 70
   192
  0
VERTEX
  5
27A
330
235
100
AcDbEntity
  8
ｴｸｽﾃﾘｱ商品
 62
   254
370
     0
100
AcDbVertex
100
AcDbPolyFaceMeshVertex
 10
69.50000000000004
 20
-62.00000000000001
 30
625.3397459621557
 70
   192
  0
VERTEX
  5
27B
330
235
100
AcDbEntity
  8
ｴｸｽﾃﾘｱ商品
 62
   254
370
     0
100
AcDbVertex
100
AcDbPolyFaceMeshVertex
 10
70.92787609686543
 20
-62.00000000000001
 30
626.3395555688104
 70
   192
  0
VERTEX
  5
27C
330
235
100
AcDbEntity
  8
ｴｸｽﾃﾘｱ商品
 62
   254
370
     0
100
AcDbVertex
100
AcDbPolyFaceMeshVertex
 10
72.16044443118983
 20
-62.00000000000001
 30
627.5721239031348
 70
   192
  0
VERTEX
  5
27D
330
235
100
AcDbEntity
  8
ｴｸｽﾃﾘｱ商品
 62
   254
370
     0
100
AcDbVertex
100
AcDbPolyFaceMeshVertex
 10
73.16025403784442
 20
-62.00000000000001
 30
629.0000000000001
 70
   192
  0
VERTEX
  5
27E
330
235
100
AcDbEntity
  8
ｴｸｽﾃﾘｱ商品
 62
   254
370
     0
100
AcDbVertex
100
AcDbPolyFaceMeshVertex
 10
73.89692620785912
 20
-62.00000000000001
 30
630.5797985667434
 70
   192
  0
VERTEX
  5
27F
330
235
100
AcDbEntity
  8
ｴｸｽﾃﾘｱ商品
 62
   254
370
     0
100
AcDbVertex
100
AcDbPolyFaceMeshVertex
 10
110.1750000000001
 20
-53.00000000000001
 30
777.4030000000001
 70
   192
  0
VERTEX
  5
280
330
235
100
AcDbEntity
  8
ｴｸｽﾃﾘｱ商品
 62
   254
370
     0
100
AcDbVertex
100
AcDbPolyFaceMeshVertex
 10
105.357
 20
-53.00000000000001
 30
761.9230000000001
 70
   192
  0
VERTEX
  5
281
330
235
100
AcDbEntity
  8
ｴｸｽﾃﾘｱ商品
 62
   254
370
     0
100
AcDbVertex
100
AcDbPolyFaceMeshVertex
 10
105.357
 20
-53.10000000000001
 30
761.9230000000001
 70
   192
  0
VERTEX
  5
282
330
235
100
AcDbEntity
  8
ｴｸｽﾃﾘｱ商品
 62
   254
370
     0
100
AcDbVertex
100
AcDbPolyFaceMeshVertex
 10
110.1750000000001
 20
-53.10000000000001
 30
777.4030000000001
 70
   192
  0
VERTEX
  5
283
330
235
100
AcDbEntity
  8
ｴｸｽﾃﾘｱ商品
 62
   254
370
     0
100
AcDbVertex
100
AcDbPolyFaceMeshVertex
 10
113.8650000000001
 20
-53.00000000000001
 30
759.4630000000001
 70
   192
  0
VERTEX
  5
284
330
235
100
AcDbEntity
  8
ｴｸｽﾃﾘｱ商品
 62
   254
370
     0
100
AcDbVertex
100
AcDbPolyFaceMeshVertex
 10
113.8650000000001
 20
-53.10000000000001
 30
759.4630000000001
 70
   192
  0
VERTEX
  5
285
330
235
100
AcDbEntity
  8
ｴｸｽﾃﾘｱ商品
 62
   254
370
     0
100
AcDbVertex
100
AcDbPolyFaceMeshVertex
 10
116.3260000000001
 20
-53.00000000000001
 30
761.1030000000001
 70
   192
  0
VERTEX
  5
286
330
235
100
AcDbEntity
  8
ｴｸｽﾃﾘｱ商品
 62
   254
370
     0
100
AcDbVertex
100
AcDbPolyFaceMeshVertex
 10
116.3260000000001
 20
-53.10000000000001
 30
761.1030000000001
 70
   192
  0
VERTEX
  5
287
330
235
100
AcDbEntity
  8
ｴｸｽﾃﾘｱ商品
 62
   254
370
     0
100
AcDbVertex
100
AcDbPolyFaceMeshVertex
 10
118.786
 20
-53.00000000000001
 30
761.3080000000001
 70
   192
  0
VERTEX
  5
288
330
235
100
AcDbEntity
  8
ｴｸｽﾃﾘｱ商品
 62
   254
370
     0
100
AcDbVertex
100
AcDbPolyFaceMeshVertex
 10
118.786
 20
-53.10000000000001
 30
761.3080000000001
 70
   192
  0
VERTEX
  5
289
330
235
100
AcDbEntity
  8
ｴｸｽﾃﾘｱ商品
 62
   254
370
     0
100
AcDbVertex
100
AcDbPolyFaceMeshVertex
 10
122.067
 20
-53.00000000000001
 30
762.3330000000002
 70
   192
  0
VERTEX
  5
28A
330
235
100
AcDbEntity
  8
ｴｸｽﾃﾘｱ商品
 62
   254
370
     0
100
AcDbVertex
100
AcDbPolyFaceMeshVertex
 10
122.067
 20
-53.10000000000001
 30
762.3330000000002
 70
   192
  0
VERTEX
  5
28B
330
235
100
AcDbEntity
  8
ｴｸｽﾃﾘｱ商品
 62
   254
370
     0
100
AcDbVertex
100
AcDbPolyFaceMeshVertex
 10
125.552
 20
-53.00000000000001
 30
772.4830000000002
 70
   192
  0
VERTEX
  5
28C
330
235
100
AcDbEntity
  8
ｴｸｽﾃﾘｱ商品
 62
   254
370
     0
100
AcDbVertex
100
AcDbPolyFaceMeshVertex
 10
125.552
 20
-53.10000000000001
 30
772.4830000000002
 70
   192
  0
VERTEX
  5
28D
330
235
100
AcDbEntity
  8
ｴｸｽﾃﾘｱ商品
 62
   254
370
     0
100
AcDbVertex
100
AcDbPolyFaceMeshVertex
 10
121.896
 20
-53.00000000000001
 30
781.8050000000001
 70
   192
  0
VERTEX
  5
28E
330
235
100
AcDbEntity
  8
ｴｸｽﾃﾘｱ商品
 62
   254
370
     0
100
AcDbVertex
100
AcDbPolyFaceMeshVertex
 10
121.5590000000001
 20
-53.00000000000001
 30
780.9290000000001
 70
   192
  0
VERTEX
  5
28F
330
235
100
AcDbEntity
  8
ｴｸｽﾃﾘｱ商品
 62
   254
370
     0
100
AcDbVertex
100
AcDbPolyFaceMeshVertex
 10
121.5590000000001
 20
-53.1
 30
780.9290000000001
 70
   192
  0
VERTEX
  5
290
330
235
100
AcDbEntity
  8
ｴｸｽﾃﾘｱ商品
 62
   254
370
     0
100
AcDbVertex
100
AcDbPolyFaceMeshVertex
 10
121.896
 20
-53.1
 30
781.8050000000001
 70
   192
  0
VERTEX
  5
291
330
235
100
AcDbEntity
  8
ｴｸｽﾃﾘｱ商品
 62
   254
370
     0
100
AcDbVertex
100
AcDbPolyFaceMeshVertex
 10
121.896
 20
-53.00000000000001
 30
779.8510000000002
 70
   192
  0
VERTEX
  5
292
330
235
100
AcDbEntity
  8
ｴｸｽﾃﾘｱ商品
 62
   254
370
     0
100
AcDbVertex
100
AcDbPolyFaceMeshVertex
 10
121.896
 20
-53.1
 30
779.8510000000002
 70
   192
  0
VERTEX
  5
293
330
235
100
AcDbEntity
  8
ｴｸｽﾃﾘｱ商品
 62
   254
370
     0
100
AcDbVertex
100
AcDbPolyFaceMeshVertex
 10
122.7380000000001
 20
-53.00000000000001
 30
779.6150000000001
 70
   192
  0
VERTEX
  5
294
330
235
100
AcDbEntity
  8
ｴｸｽﾃﾘｱ商品
 62
   254
370
     0
100
AcDbVertex
100
AcDbPolyFaceMeshVertex
 10
122.7380000000001
 20
-53.1
 30
779.6150000000001
 70
   192
  0
VERTEX
  5
295
330
235
100
AcDbEntity
  8
ｴｸｽﾃﾘｱ商品
 62
   254
370
     0
100
AcDbVertex
100
AcDbPolyFaceMeshVertex
 10
125.1300000000001
 20
-53.00000000000001
 30
779.6830000000001
 70
   192
  0
VERTEX
  5
296
330
235
100
AcDbEntity
  8
ｴｸｽﾃﾘｱ商品
 62
   254
370
     0
100
AcDbVertex
100
AcDbPolyFaceMeshVertex
 10
125.1300000000001
 20
-53.1
 30
779.6830000000001
 70
   192
  0
VERTEX
  5
297
330
235
100
AcDbEntity
  8
ｴｸｽﾃﾘｱ商品
 62
   254
370
     0
100
AcDbVertex
100
AcDbPolyFaceMeshVertex
 10
125.096
 20
-53.00000000000001
 30
777.998
 70
   192
  0
VERTEX
  5
298
330
235
100
AcDbEntity
  8
ｴｸｽﾃﾘｱ商品
 62
   254
370
     0
100
AcDbVertex
100
AcDbPolyFaceMeshVertex
 10
125.096
 20
-53.10000000000001
 30
777.998
 70
   192
  0
VERTEX
  5
299
330
235
100
AcDbEntity
  8
ｴｸｽﾃﾘｱ商品
 62
   254
370
     0
100
AcDbVertex
100
AcDbPolyFaceMeshVertex
 10
125.635
 20
-53.00000000000001
 30
776.3130000000001
 70
   192
  0
VERTEX
  5
29A
330
235
100
AcDbEntity
  8
ｴｸｽﾃﾘｱ商品
 62
   254
370
     0
100
AcDbVertex
100
AcDbPolyFaceMeshVertex
 10
125.635
 20
-53.10000000000001
 30
776.3130000000001
 70
   192
  0
VERTEX
  5
29B
330
235
100
AcDbEntity
  8
ｴｸｽﾃﾘｱ商品
 62
   254
370
     0
100
AcDbVertex
100
AcDbPolyFaceMeshVertex
 10
126.9160000000001
 20
-53.00000000000001
 30
774.8980000000001
 70
   192
  0
VERTEX
  5
29C
330
235
100
AcDbEntity
  8
ｴｸｽﾃﾘｱ商品
 62
   254
370
     0
100
AcDbVertex
100
AcDbPolyFaceMeshVertex
 10
126.9160000000001
 20
-53.10000000000001
 30
774.8980000000001
 70
   192
  0
VERTEX
  5
29D
330
235
100
AcDbEntity
  8
ｴｸｽﾃﾘｱ商品
 62
   254
370
     0
100
AcDbVertex
100
AcDbPolyFaceMeshVertex
 10
128.129
 20
-53.00000000000001
 30
774.2240000000002
 70
   192
  0
VERTEX
  5
29E
330
235
100
AcDbEntity
  8
ｴｸｽﾃﾘｱ商品
 62
   254
370
     0
100
AcDbVertex
100
AcDbPolyFaceMeshVertex
 10
128.129
 20
-53.10000000000001
 30
774.2240000000002
 70
   192
  0
VERTEX
  5
29F
330
235
100
AcDbEntity
  8
ｴｸｽﾃﾘｱ商品
 62
   254
370
     0
100
AcDbVertex
100
AcDbPolyFaceMeshVertex
 10
131.0600000000001
 20
-53.00000000000001
 30
773.7860000000001
 70
   192
  0
VERTEX
  5
2A0
330
235
100
AcDbEntity
  8
ｴｸｽﾃﾘｱ商品
 62
   254
370
     0
100
AcDbVertex
100
AcDbPolyFaceMeshVertex
 10
131.0600000000001
 20
-53.10000000000001
 30
773.7860000000001
 70
   192
  0
VERTEX
  5
2A1
330
235
100
AcDbEntity
  8
ｴｸｽﾃﾘｱ商品
 62
   254
370
     0
100
AcDbVertex
100
AcDbPolyFaceMeshVertex
 10
132.677
 20
-53.00000000000001
 30
774.5950000000001
 70
   192
  0
VERTEX
  5
2A2
330
235
100
AcDbEntity
  8
ｴｸｽﾃﾘｱ商品
 62
   254
370
     0
100
AcDbVertex
100
AcDbPolyFaceMeshVertex
 10
132.677
 20
-53.10000000000001
 30
774.5950000000001
 70
   192
  0
VERTEX
  5
2A3
330
235
100
AcDbEntity
  8
ｴｸｽﾃﾘｱ商品
 62
   254
370
     0
100
AcDbVertex
100
AcDbPolyFaceMeshVertex
 10
133.924
 20
-53.00000000000001
 30
775.7070000000001
 70
   192
  0
VERTEX
  5
2A4
330
235
100
AcDbEntity
  8
ｴｸｽﾃﾘｱ商品
 62
   254
370
     0
100
AcDbVertex
100
AcDbPolyFaceMeshVertex
 10
133.924
 20
-53.10000000000001
 30
775.7070000000001
 70
   192
  0
VERTEX
  5
2A5
330
235
100
AcDbEntity
  8
ｴｸｽﾃﾘｱ商品
 62
   254
370
     0
100
AcDbVertex
100
AcDbPolyFaceMeshVertex
 10
134.6310000000001
 20
-53.00000000000001
 30
777.0880000000001
 70
   192
  0
VERTEX
  5
2A6
330
235
100
AcDbEntity
  8
ｴｸｽﾃﾘｱ商品
 62
   254
370
     0
100
AcDbVertex
100
AcDbPolyFaceMeshVertex
 10
134.6310000000001
 20
-53.10000000000001
 30
777.0880000000001
 70
   192
  0
VERTEX
  5
2A7
330
235
100
AcDbEntity
  8
ｴｸｽﾃﾘｱ商品
 62
   254
370
     0
100
AcDbVertex
100
AcDbPolyFaceMeshVertex
 10
134.901
 20
-53.00000000000001
 30
779.0090000000001
 70
   192
  0
VERTEX
  5
2A8
330
235
100
AcDbEntity
  8
ｴｸｽﾃﾘｱ商品
 62
   254
370
     0
100
AcDbVertex
100
AcDbPolyFaceMeshVertex
 10
134.901
 20
-53.10000000000001
 30
779.0090000000001
 70
   192
  0
VERTEX
  5
2A9
330
235
100
AcDbEntity
  8
ｴｸｽﾃﾘｱ商品
 62
   254
370
     0
100
AcDbVertex
100
AcDbPolyFaceMeshVertex
 10
134.867
 20
-53.00000000000001
 30
780.9970000000002
 70
   192
  0
VERTEX
  5
2AA
330
235
100
AcDbEntity
  8
ｴｸｽﾃﾘｱ商品
 62
   254
370
     0
100
AcDbVertex
100
AcDbPolyFaceMeshVertex
 10
134.867
 20
-53.1
 30
780.9970000000002
 70
   192
  0
VERTEX
  5
2AB
330
235
100
AcDbEntity
  8
ｴｸｽﾃﾘｱ商品
 62
   254
370
     0
100
AcDbVertex
100
AcDbPolyFaceMeshVertex
 10
134.227
 20
-53.00000000000001
 30
782.8160000000001
 70
   192
  0
VERTEX
  5
2AC
330
235
100
AcDbEntity
  8
ｴｸｽﾃﾘｱ商品
 62
   254
370
     0
100
AcDbVertex
100
AcDbPolyFaceMeshVertex
 10
134.227
 20
-53.1
 30
782.8160000000001
 70
   192
  0
VERTEX
  5
2AD
330
235
100
AcDbEntity
  8
ｴｸｽﾃﾘｱ商品
 62
   254
370
     0
100
AcDbVertex
100
AcDbPolyFaceMeshVertex
 10
133.3510000000001
 20
-53.00000000000001
 30
783.6250000000001
 70
   192
  0
VERTEX
  5
2AE
330
235
100
AcDbEntity
  8
ｴｸｽﾃﾘｱ商品
 62
   254
370
     0
100
AcDbVertex
100
AcDbPolyFaceMeshVertex
 10
133.3510000000001
 20
-53.1
 30
783.6250000000001
 70
   192
  0
VERTEX
  5
2AF
330
235
100
AcDbEntity
  8
ｴｸｽﾃﾘｱ商品
 62
   254
370
     0
100
AcDbVertex
100
AcDbPolyFaceMeshVertex
 10
132.2390000000001
 20
-53.00000000000001
 30
784.6690000000002
 70
   192
  0
VERTEX
  5
2B0
330
235
100
AcDbEntity
  8
ｴｸｽﾃﾘｱ商品
 62
   254
370
     0
100
AcDbVertex
100
AcDbPolyFaceMeshVertex
 10
132.2390000000001
 20
-53.1
 30
784.6690000000002
 70
   192
  0
VERTEX
  5
2B1
330
235
100
AcDbEntity
  8
ｴｸｽﾃﾘｱ商品
 62
   254
370
     0
100
AcDbVertex
100
AcDbPolyFaceMeshVertex
 10
130.925
 20
-53.00000000000001
 30
785.2080000000001
 70
   192
  0
VERTEX
  5
2B2
330
235
100
AcDbEntity
  8
ｴｸｽﾃﾘｱ商品
 62
   254
370
     0
100
AcDbVertex
100
AcDbPolyFaceMeshVertex
 10
130.925
 20
-53.1
 30
785.2080000000001
 70
   192
  0
VERTEX
  5
2B3
330
235
100
AcDbEntity
  8
ｴｸｽﾃﾘｱ商品
 62
   254
370
     0
100
AcDbVertex
100
AcDbPolyFaceMeshVertex
 10
129.4430000000001
 20
-53.00000000000001
 30
785.2420000000001
 70
   192
  0
VERTEX
  5
2B4
330
235
100
AcDbEntity
  8
ｴｸｽﾃﾘｱ商品
 62
   254
370
     0
100
AcDbVertex
100
AcDbPolyFaceMeshVertex
 10
129.4430000000001
 20
-53.1
 30
785.2420000000001
 70
   192
  0
VERTEX
  5
2B5
330
235
100
AcDbEntity
  8
ｴｸｽﾃﾘｱ商品
 62
   254
370
     0
100
AcDbVertex
100
AcDbPolyFaceMeshVertex
 10
128.2300000000001
 20
-53.00000000000001
 30
785.0400000000002
 70
   192
  0
VERTEX
  5
2B6
330
235
100
AcDbEntity
  8
ｴｸｽﾃﾘｱ商品
 62
   254
370
     0
100
AcDbVertex
100
AcDbPolyFaceMeshVertex
 10
128.2300000000001
 20
-53.1
 30
785.0400000000002
 70
   192
  0
VERTEX
  5
2B7
330
235
100
AcDbEntity
  8
ｴｸｽﾃﾘｱ商品
 62
   254
370
     0
100
AcDbVertex
100
AcDbPolyFaceMeshVertex
 10
126.9490000000001
 20
-53.00000000000001
 30
784.4000000000001
 70
   192
  0
VERTEX
  5
2B8
330
235
100
AcDbEntity
  8
ｴｸｽﾃﾘｱ商品
 62
   254
370
     0
100
AcDbVertex
100
AcDbPolyFaceMeshVertex
 10
126.9490000000001
 20
-53.1
 30
784.4000000000001
 70
   192
  0
VERTEX
  5
2B9
330
235
100
AcDbEntity
  8
ｴｸｽﾃﾘｱ商品
 62
   254
370
     0
100
AcDbVertex
100
AcDbPolyFaceMeshVertex
 10
125.8380000000001
 20
-53.00000000000001
 30
783.3890000000001
 70
   192
  0
VERTEX
  5
2BA
330
235
100
AcDbEntity
  8
ｴｸｽﾃﾘｱ商品
 62
   254
370
     0
100
AcDbVertex
100
AcDbPolyFaceMeshVertex
 10
125.8380000000001
 20
-53.1
 30
783.3890000000001
 70
   192
  0
VERTEX
  5
2BB
330
235
100
AcDbEntity
  8
ｴｸｽﾃﾘｱ商品
 62
   254
370
     0
100
AcDbVertex
100
AcDbPolyFaceMeshVertex
 10
125.2310000000001
 20
-53.00000000000001
 30
782.2100000000002
 70
   192
  0
VERTEX
  5
2BC
330
235
100
AcDbEntity
  8
ｴｸｽﾃﾘｱ商品
 62
   254
370
     0
100
AcDbVertex
100
AcDbPolyFaceMeshVertex
 10
125.2310000000001
 20
-53.1
 30
782.2100000000002
 70
   192
  0
VERTEX
  5
2BD
330
235
100
AcDbEntity
  8
ｴｸｽﾃﾘｱ商品
 62
   254
370
     0
100
AcDbVertex
100
AcDbPolyFaceMeshVertex
 10
123.9850000000001
 20
-53.00000000000001
 30
782.1420000000002
 70
   192
  0
VERTEX
  5
2BE
330
235
100
AcDbEntity
  8
ｴｸｽﾃﾘｱ商品
 62
   254
370
     0
100
AcDbVertex
100
AcDbPolyFaceMeshVertex
 10
123.9850000000001
 20
-53.1
 30
782.1420000000002
 70
   192
  0
VERTEX
  5
2BF
330
235
100
AcDbEntity
  8
ｴｸｽﾃﾘｱ商品
 62
   254
370
     0
100
AcDbVertex
100
AcDbPolyFaceMeshVertex
 10
125.939
 20
-53.00000000000001
 30
781.4350000000001
 70
   192
  0
VERTEX
  5
2C0
330
235
100
AcDbEntity
  8
ｴｸｽﾃﾘｱ商品
 62
   254
370
     0
100
AcDbVertex
100
AcDbPolyFaceMeshVertex
 10
126.3430000000001
 20
-53.00000000000001
 30
782.5470000000001
 70
   192
  0
VERTEX
  5
2C1
330
235
100
AcDbEntity
  8
ｴｸｽﾃﾘｱ商品
 62
   254
370
     0
100
AcDbVertex
100
AcDbPolyFaceMeshVertex
 10
126.3430000000001
 20
-53.1
 30
782.5470000000001
 70
   192
  0
VERTEX
  5
2C2
330
235
100
AcDbEntity
  8
ｴｸｽﾃﾘｱ商品
 62
   254
370
     0
100
AcDbVertex
100
AcDbPolyFaceMeshVertex
 10
125.939
 20
-53.1
 30
781.4350000000001
 70
   192
  0
VERTEX
  5
2C3
330
235
100
AcDbEntity
  8
ｴｸｽﾃﾘｱ商品
 62
   254
370
     0
100
AcDbVertex
100
AcDbPolyFaceMeshVertex
 10
127.825
 20
-53.00000000000001
 30
783.8270000000001
 70
   192
  0
VERTEX
  5
2C4
330
235
100
AcDbEntity
  8
ｴｸｽﾃﾘｱ商品
 62
   254
370
     0
100
AcDbVertex
100
AcDbPolyFaceMeshVertex
 10
127.825
 20
-53.1
 30
783.8270000000001
 70
   192
  0
VERTEX
  5
2C5
330
235
100
AcDbEntity
  8
ｴｸｽﾃﾘｱ商品
 62
   254
370
     0
100
AcDbVertex
100
AcDbPolyFaceMeshVertex
 10
129.1060000000001
 20
-53.00000000000001
 30
784.4330000000001
 70
   192
  0
VERTEX
  5
2C6
330
235
100
AcDbEntity
  8
ｴｸｽﾃﾘｱ商品
 62
   254
370
     0
100
AcDbVertex
100
AcDbPolyFaceMeshVertex
 10
129.1060000000001
 20
-53.1
 30
784.4330000000001
 70
   192
  0
VERTEX
  5
2C7
330
235
100
AcDbEntity
  8
ｴｸｽﾃﾘｱ商品
 62
   254
370
     0
100
AcDbVertex
100
AcDbPolyFaceMeshVertex
 10
130.8910000000001
 20
-53.00000000000001
 30
784.4330000000001
 70
   192
  0
VERTEX
  5
2C8
330
235
100
AcDbEntity
  8
ｴｸｽﾃﾘｱ商品
 62
   254
370
     0
100
AcDbVertex
100
AcDbPolyFaceMeshVertex
 10
130.8910000000001
 20
-53.1
 30
784.4330000000001
 70
   192
  0
VERTEX
  5
2C9
330
235
100
AcDbEntity
  8
ｴｸｽﾃﾘｱ商品
 62
   254
370
     0
100
AcDbVertex
100
AcDbPolyFaceMeshVertex
 10
132.6100000000001
 20
-53.00000000000001
 30
783.2880000000001
 70
   192
  0
VERTEX
  5
2CA
330
235
100
AcDbEntity
  8
ｴｸｽﾃﾘｱ商品
 62
   254
370
     0
100
AcDbVertex
100
AcDbPolyFaceMeshVertex
 10
132.6100000000001
 20
-53.1
 30
783.2880000000001
 70
   192
  0
VERTEX
  5
2CB
330
235
100
AcDbEntity
  8
ｴｸｽﾃﾘｱ商品
 62
   254
370
     0
100
AcDbVertex
100
AcDbPolyFaceMeshVertex
 10
133.688
 20
-53.00000000000001
 30
781.6710000000002
 70
   192
  0
VERTEX
  5
2CC
330
235
100
AcDbEntity
  8
ｴｸｽﾃﾘｱ商品
 62
   254
370
     0
100
AcDbVertex
100
AcDbPolyFaceMeshVertex
 10
133.688
 20
-53.1
 30
781.6710000000002
 70
   192
  0
VERTEX
  5
2CD
330
235
100
AcDbEntity
  8
ｴｸｽﾃﾘｱ商品
 62
   254
370
     0
100
AcDbVertex
100
AcDbPolyFaceMeshVertex
 10
133.924
 20
-53.00000000000001
 30
780.4240000000001
 70
   192
  0
VERTEX
  5
2CE
330
235
100
AcDbEntity
  8
ｴｸｽﾃﾘｱ商品
 62
   254
370
     0
100
AcDbVertex
100
AcDbPolyFaceMeshVertex
 10
133.924
 20
-53.1
 30
780.4240000000001
 70
   192
  0
VERTEX
  5
2CF
330
235
100
AcDbEntity
  8
ｴｸｽﾃﾘｱ商品
 62
   254
370
     0
100
AcDbVertex
100
AcDbPolyFaceMeshVertex
 10
122.6370000000001
 20
-53.00000000000001
 30
780.2550000000001
 70
   192
  0
VERTEX
  5
2D0
330
235
100
AcDbEntity
  8
ｴｸｽﾃﾘｱ商品
 62
   254
370
     0
100
AcDbVertex
100
AcDbPolyFaceMeshVertex
 10
122.6370000000001
 20
-53.1
 30
780.2550000000001
 70
   192
  0
VERTEX
  5
2D1
330
235
100
AcDbEntity
  8
ｴｸｽﾃﾘｱ商品
 62
   254
370
     0
100
AcDbVertex
100
AcDbPolyFaceMeshVertex
 10
122.232
 20
-53.00000000000001
 30
780.7610000000002
 70
   192
  0
VERTEX
  5
2D2
330
235
100
AcDbEntity
  8
ｴｸｽﾃﾘｱ商品
 62
   254
370
     0
100
AcDbVertex
100
AcDbPolyFaceMeshVertex
 10
122.232
 20
-53.1
 30
780.7610000000002
 70
   192
  0
VERTEX
  5
2D3
330
235
100
AcDbEntity
  8
ｴｸｽﾃﾘｱ商品
 62
   254
370
     0
100
AcDbVertex
100
AcDbPolyFaceMeshVertex
 10
122.6700000000001
 20
-53.00000000000001
 30
781.4350000000001
 70
   192
  0
VERTEX
  5
2D4
330
235
100
AcDbEntity
  8
ｴｸｽﾃﾘｱ商品
 62
   254
370
     0
100
AcDbVertex
100
AcDbPolyFaceMeshVertex
 10
122.6700000000001
 20
-53.1
 30
781.4350000000001
 70
   192
  0
VERTEX
  5
2D5
330
235
100
AcDbEntity
  8
ｴｸｽﾃﾘｱ商品
 62
   254
370
     0
100
AcDbVertex
100
AcDbPolyFaceMeshVertex
 10
131.1100000000001
 20
-53.00000000000001
 30
772.9990000000001
 70
   192
  0
VERTEX
  5
2D6
330
235
100
AcDbEntity
  8
ｴｸｽﾃﾘｱ商品
 62
   254
370
     0
100
AcDbVertex
100
AcDbPolyFaceMeshVertex
 10
128.349
 20
-53.00000000000001
 30
772.8020000000001
 70
   192
  0
VERTEX
  5
2D7
330
235
100
AcDbEntity
  8
ｴｸｽﾃﾘｱ商品
 62
   254
370
     0
100
AcDbVertex
100
AcDbPolyFaceMeshVertex
 10
128.349
 20
-53.10000000000001
 30
772.8020000000001
 70
   192
  0
VERTEX
  5
2D8
330
235
100
AcDbEntity
  8
ｴｸｽﾃﾘｱ商品
 62
   254
370
     0
100
AcDbVertex
100
AcDbPolyFaceMeshVertex
 10
131.1100000000001
 20
-53.10000000000001
 30
772.9990000000001
 70
   192
  0
VERTEX
  5
2D9
330
235
100
AcDbEntity
  8
ｴｸｽﾃﾘｱ商品
 62
   254
370
     0
100
AcDbVertex
100
AcDbPolyFaceMeshVertex
 10
127.264
 20
-53.00000000000001
 30
771.9150000000001
 70
   192
  0
VERTEX
  5
2DA
330
235
100
AcDbEntity
  8
ｴｸｽﾃﾘｱ商品
 62
   254
370
     0
100
AcDbVertex
100
AcDbPolyFaceMeshVertex
 10
127.264
 20
-53.10000000000001
 30
771.9150000000001
 70
   192
  0
VERTEX
  5
2DB
330
235
100
AcDbEntity
  8
ｴｸｽﾃﾘｱ商品
 62
   254
370
     0
100
AcDbVertex
100
AcDbPolyFaceMeshVertex
 10
125.539
 20
-53.00000000000001
 30
769.7950000000001
 70
   192
  0
VERTEX
  5
2DC
330
235
100
AcDbEntity
  8
ｴｸｽﾃﾘｱ商品
 62
   254
370
     0
100
AcDbVertex
100
AcDbPolyFaceMeshVertex
 10
125.539
 20
-53.10000000000001
 30
769.7950000000001
 70
   192
  0
VERTEX
  5
2DD
330
235
100
AcDbEntity
  8
ｴｸｽﾃﾘｱ商品
 62
   254
370
     0
100
AcDbVertex
100
AcDbPolyFaceMeshVertex
 10
125.539
 20
-53.00000000000001
 30
765.6530000000001
 70
   192
  0
VERTEX
  5
2DE
330
235
100
AcDbEntity
  8
ｴｸｽﾃﾘｱ商品
 62
   254
370
     0
100
AcDbVertex
100
AcDbPolyFaceMeshVertex
 10
125.539
 20
-53.10000000000001
 30
765.6530000000001
 70
   192
  0
VERTEX
  5
2DF
330
235
100
AcDbEntity
  8
ｴｸｽﾃﾘｱ商品
 62
   254
370
     0
100
AcDbVertex
100
AcDbPolyFaceMeshVertex
 10
126.377
 20
-53.00000000000001
 30
767.1810000000002
 70
   192
  0
VERTEX
  5
2E0
330
235
100
AcDbEntity
  8
ｴｸｽﾃﾘｱ商品
 62
   254
370
     0
100
AcDbVertex
100
AcDbPolyFaceMeshVertex
 10
126.377
 20
-53.10000000000001
 30
767.1810000000002
 70
   192
  0
VERTEX
  5
2E1
330
235
100
AcDbEntity
  8
ｴｸｽﾃﾘｱ商品
 62
   254
370
     0
100
AcDbVertex
100
AcDbPolyFaceMeshVertex
 10
126.6730000000001
 20
-53.00000000000001
 30
769.5970000000001
 70
   192
  0
VERTEX
  5
2E2
330
235
100
AcDbEntity
  8
ｴｸｽﾃﾘｱ商品
 62
   254
370
     0
100
AcDbVertex
100
AcDbPolyFaceMeshVertex
 10
126.6730000000001
 20
-53.10000000000001
 30
769.5970000000001
 70
   192
  0
VERTEX
  5
2E3
330
235
100
AcDbEntity
  8
ｴｸｽﾃﾘｱ商品
 62
   254
370
     0
100
AcDbVertex
100
AcDbPolyFaceMeshVertex
 10
127.462
 20
-53.00000000000001
 30
770.8300000000002
 70
   192
  0
VERTEX
  5
2E4
330
235
100
AcDbEntity
  8
ｴｸｽﾃﾘｱ商品
 62
   254
370
     0
100
AcDbVertex
100
AcDbPolyFaceMeshVertex
 10
127.462
 20
-53.10000000000001
 30
770.8300000000002
 70
   192
  0
VERTEX
  5
2E5
330
235
100
AcDbEntity
  8
ｴｸｽﾃﾘｱ商品
 62
   254
370
     0
100
AcDbVertex
100
AcDbPolyFaceMeshVertex
 10
128.99
 20
-53.00000000000001
 30
771.6680000000001
 70
   192
  0
VERTEX
  5
2E6
330
235
100
AcDbEntity
  8
ｴｸｽﾃﾘｱ商品
 62
   254
370
     0
100
AcDbVertex
100
AcDbPolyFaceMeshVertex
 10
128.99
 20
-53.10000000000001
 30
771.6680000000001
 70
   192
  0
VERTEX
  5
2E7
330
235
100
AcDbEntity
  8
ｴｸｽﾃﾘｱ商品
 62
   254
370
     0
100
AcDbVertex
100
AcDbPolyFaceMeshVertex
 10
130.2230000000001
 20
-53.00000000000001
 30
771.5200000000001
 70
   192
  0
VERTEX
  5
2E8
330
235
100
AcDbEntity
  8
ｴｸｽﾃﾘｱ商品
 62
   254
370
     0
100
AcDbVertex
100
AcDbPolyFaceMeshVertex
 10
130.2230000000001
 20
-53.10000000000001
 30
771.5200000000001
 70
   192
  0
VERTEX
  5
2E9
330
235
100
AcDbEntity
  8
ｴｸｽﾃﾘｱ商品
 62
   254
370
     0
100
AcDbVertex
100
AcDbPolyFaceMeshVertex
 10
131.653
 20
-53.00000000000001
 30
771.0270000000002
 70
   192
  0
VERTEX
  5
2EA
330
235
100
AcDbEntity
  8
ｴｸｽﾃﾘｱ商品
 62
   254
370
     0
100
AcDbVertex
100
AcDbPolyFaceMeshVertex
 10
131.653
 20
-53.10000000000001
 30
771.0270000000002
 70
   192
  0
VERTEX
  5
2EB
330
235
100
AcDbEntity
  8
ｴｸｽﾃﾘｱ商品
 62
   254
370
     0
100
AcDbVertex
100
AcDbPolyFaceMeshVertex
 10
132.688
 20
-53.00000000000001
 30
769.647
 70
   192
  0
VERTEX
  5
2EC
330
235
100
AcDbEntity
  8
ｴｸｽﾃﾘｱ商品
 62
   254
370
     0
100
AcDbVertex
100
AcDbPolyFaceMeshVertex
 10
132.688
 20
-53.10000000000001
 30
769.647
 70
   192
  0
VERTEX
  5
2ED
330
235
100
AcDbEntity
  8
ｴｸｽﾃﾘｱ商品
 62
   254
370
     0
100
AcDbVertex
100
AcDbPolyFaceMeshVertex
 10
133.1320000000001
 20
-53.00000000000001
 30
767.5760000000001
 70
   192
  0
VERTEX
  5
2EE
330
235
100
AcDbEntity
  8
ｴｸｽﾃﾘｱ商品
 62
   254
370
     0
100
AcDbVertex
100
AcDbPolyFaceMeshVertex
 10
133.1320000000001
 20
-53.10000000000001
 30
767.5760000000001
 70
   192
  0
VERTEX
  5
2EF
330
235
100
AcDbEntity
  8
ｴｸｽﾃﾘｱ商品
 62
   254
370
     0
100
AcDbVertex
100
AcDbPolyFaceMeshVertex
 10
132.343
 20
-53.00000000000001
 30
764.5190000000001
 70
   192
  0
VERTEX
  5
2F0
330
235
100
AcDbEntity
  8
ｴｸｽﾃﾘｱ商品
 62
   254
370
     0
100
AcDbVertex
100
AcDbPolyFaceMeshVertex
 10
132.343
 20
-53.10000000000001
 30
764.5190000000001
 70
   192
  0
VERTEX
  5
2F1
330
235
100
AcDbEntity
  8
ｴｸｽﾃﾘｱ商品
 62
   254
370
     0
100
AcDbVertex
100
AcDbPolyFaceMeshVertex
 10
130.962
 20
-53.00000000000001
 30
761.5600000000002
 70
   192
  0
VERTEX
  5
2F2
330
235
100
AcDbEntity
  8
ｴｸｽﾃﾘｱ商品
 62
   254
370
     0
100
AcDbVertex
100
AcDbPolyFaceMeshVertex
 10
130.962
 20
-53.10000000000001
 30
761.5600000000002
 70
   192
  0
VERTEX
  5
2F3
330
235
100
AcDbEntity
  8
ｴｸｽﾃﾘｱ商品
 62
   254
370
     0
100
AcDbVertex
100
AcDbPolyFaceMeshVertex
 10
128.7440000000001
 20
-53.00000000000001
 30
759.0460000000002
 70
   192
  0
VERTEX
  5
2F4
330
235
100
AcDbEntity
  8
ｴｸｽﾃﾘｱ商品
 62
   254
370
     0
100
AcDbVertex
100
AcDbPolyFaceMeshVertex
 10
128.7440000000001
 20
-53.10000000000001
 30
759.0460000000002
 70
   192
  0
VERTEX
  5
2F5
330
235
100
AcDbEntity
  8
ｴｸｽﾃﾘｱ商品
 62
   254
370
     0
100
AcDbVertex
100
AcDbPolyFaceMeshVertex
 10
125.489
 20
-53.00000000000001
 30
756.5310000000002
 70
   192
  0
VERTEX
  5
2F6
330
235
100
AcDbEntity
  8
ｴｸｽﾃﾘｱ商品
 62
   254
370
     0
100
AcDbVertex
100
AcDbPolyFaceMeshVertex
 10
125.489
 20
-53.10000000000001
 30
756.5310000000002
 70
   192
  0
VERTEX
  5
2F7
330
235
100
AcDbEntity
  8
ｴｸｽﾃﾘｱ商品
 62
   254
370
     0
100
AcDbVertex
100
AcDbPolyFaceMeshVertex
 10
125.539
 20
-53.00000000000001
 30
754.0170000000002
 70
   192
  0
VERTEX
  5
2F8
330
235
100
AcDbEntity
  8
ｴｸｽﾃﾘｱ商品
 62
   254
370
     0
100
AcDbVertex
100
AcDbPolyFaceMeshVertex
 10
125.539
 20
-53.10000000000001
 30
754.0170000000002
 70
   192
  0
VERTEX
  5
2F9
330
235
100
AcDbEntity
  8
ｴｸｽﾃﾘｱ商品
 62
   254
370
     0
100
AcDbVertex
100
AcDbPolyFaceMeshVertex
 10
135.0050000000001
 20
-53.00000000000001
 30
754.0660000000001
 70
   192
  0
VERTEX
  5
2FA
330
235
100
AcDbEntity
  8
ｴｸｽﾃﾘｱ商品
 62
   254
370
     0
100
AcDbVertex
100
AcDbPolyFaceMeshVertex
 10
135.0050000000001
 20
-53.10000000000001
 30
754.0660000000001
 70
   192
  0
VERTEX
  5
2FB
330
235
100
AcDbEntity
  8
ｴｸｽﾃﾘｱ商品
 62
   254
370
     0
100
AcDbVertex
100
AcDbPolyFaceMeshVertex
 10
134.6600000000001
 20
-53.00000000000001
 30
769.2520000000002
 70
   192
  0
VERTEX
  5
2FC
330
235
100
AcDbEntity
  8
ｴｸｽﾃﾘｱ商品
 62
   254
370
     0
100
AcDbVertex
100
AcDbPolyFaceMeshVertex
 10
134.6600000000001
 20
-53.10000000000001
 30
769.2520000000002
 70
   192
  0
VERTEX
  5
2FD
330
235
100
AcDbEntity
  8
ｴｸｽﾃﾘｱ商品
 62
   254
370
     0
100
AcDbVertex
100
AcDbPolyFaceMeshVertex
 10
134.5120000000001
 20
-53.00000000000001
 30
770.041
 70
   192
  0
VERTEX
  5
2FE
330
235
100
AcDbEntity
  8
ｴｸｽﾃﾘｱ商品
 62
   254
370
     0
100
AcDbVertex
100
AcDbPolyFaceMeshVertex
 10
134.5120000000001
 20
-53.10000000000001
 30
770.041
 70
   192
  0
VERTEX
  5
2FF
330
235
100
AcDbEntity
  8
ｴｸｽﾃﾘｱ商品
 62
   254
370
     0
100
AcDbVertex
100
AcDbPolyFaceMeshVertex
 10
133.4280000000001
 20
-53.00000000000001
 30
771.7170000000001
 70
   192
  0
VERTEX
  5
300
330
235
100
AcDbEntity
  8
ｴｸｽﾃﾘｱ商品
 62
   254
370
     0
100
AcDbVertex
100
AcDbPolyFaceMeshVertex
 10
133.4280000000001
 20
-53.10000000000001
 30
771.7170000000001
 70
   192
  0
VERTEX
  5
301
330
235
100
AcDbEntity
  8
ｴｸｽﾃﾘｱ商品
 62
   254
370
     0
100
AcDbVertex
100
AcDbPolyFaceMeshVertex
 10
121.0410000000001
 20
-53.00000000000001
 30
760.5910000000001
 70
   192
  0
VERTEX
  5
302
330
235
100
AcDbEntity
  8
ｴｸｽﾃﾘｱ商品
 62
   254
370
     0
100
AcDbVertex
100
AcDbPolyFaceMeshVertex
 10
119.622
 20
-53.00000000000001
 30
760.1310000000001
 70
   192
  0
VERTEX
  5
303
330
235
100
AcDbEntity
  8
ｴｸｽﾃﾘｱ商品
 62
   254
370
     0
100
AcDbVertex
100
AcDbPolyFaceMeshVertex
 10
119.622
 20
-53.10000000000001
 30
760.1310000000001
 70
   192
  0
VERTEX
  5
304
330
235
100
AcDbEntity
  8
ｴｸｽﾃﾘｱ商品
 62
   254
370
     0
100
AcDbVertex
100
AcDbPolyFaceMeshVertex
 10
121.0410000000001
 20
-53.10000000000001
 30
760.5910000000001
 70
   192
  0
VERTEX
  5
305
330
235
100
AcDbEntity
  8
ｴｸｽﾃﾘｱ商品
 62
   254
370
     0
100
AcDbVertex
100
AcDbPolyFaceMeshVertex
 10
116.072
 20
-53.00000000000001
 30
759.9330000000001
 70
   192
  0
VERTEX
  5
306
330
235
100
AcDbEntity
  8
ｴｸｽﾃﾘｱ商品
 62
   254
370
     0
100
AcDbVertex
100
AcDbPolyFaceMeshVertex
 10
116.072
 20
-53.10000000000001
 30
759.9330000000001
 70
   192
  0
VERTEX
  5
307
330
235
100
AcDbEntity
  8
ｴｸｽﾃﾘｱ商品
 62
   254
370
     0
100
AcDbVertex
100
AcDbPolyFaceMeshVertex
 10
115.1350000000001
 20
-53.00000000000001
 30
759.2430000000002
 70
   192
  0
VERTEX
  5
308
330
235
100
AcDbEntity
  8
ｴｸｽﾃﾘｱ商品
 62
   254
370
     0
100
AcDbVertex
100
AcDbPolyFaceMeshVertex
 10
115.1350000000001
 20
-53.10000000000001
 30
759.2430000000002
 70
   192
  0
VERTEX
  5
309
330
235
100
AcDbEntity
  8
ｴｸｽﾃﾘｱ商品
 62
   254
370
     0
100
AcDbVertex
100
AcDbPolyFaceMeshVertex
 10
114.6420000000001
 20
-53.00000000000001
 30
757.9610000000001
 70
   192
  0
VERTEX
  5
30A
330
235
100
AcDbEntity
  8
ｴｸｽﾃﾘｱ商品
 62
   254
370
     0
100
AcDbVertex
100
AcDbPolyFaceMeshVertex
 10
114.6420000000001
 20
-53.10000000000001
 30
757.9610000000001
 70
   192
  0
VERTEX
  5
30B
330
235
100
AcDbEntity
  8
ｴｸｽﾃﾘｱ商品
 62
   254
370
     0
100
AcDbVertex
100
AcDbPolyFaceMeshVertex
 10
115.1840000000001
 20
-53.00000000000001
 30
756.8760000000001
 70
   192
  0
VERTEX
  5
30C
330
235
100
AcDbEntity
  8
ｴｸｽﾃﾘｱ商品
 62
   254
370
     0
100
AcDbVertex
100
AcDbPolyFaceMeshVertex
 10
115.1840000000001
 20
-53.10000000000001
 30
756.8760000000001
 70
   192
  0
VERTEX
  5
30D
330
235
100
AcDbEntity
  8
ｴｸｽﾃﾘｱ商品
 62
   254
370
     0
100
AcDbVertex
100
AcDbPolyFaceMeshVertex
 10
116.417
 20
-53.00000000000001
 30
755.8410000000001
 70
   192
  0
VERTEX
  5
30E
330
235
100
AcDbEntity
  8
ｴｸｽﾃﾘｱ商品
 62
   254
370
     0
100
AcDbVertex
100
AcDbPolyFaceMeshVertex
 10
116.417
 20
-53.10000000000001
 30
755.8410000000001
 70
   192
  0
VERTEX
  5
30F
330
235
100
AcDbEntity
  8
ｴｸｽﾃﾘｱ商品
 62
   254
370
     0
100
AcDbVertex
100
AcDbPolyFaceMeshVertex
 10
120.9040000000001
 20
-53.00000000000001
 30
755.7420000000002
 70
   192
  0
VERTEX
  5
310
330
235
100
AcDbEntity
  8
ｴｸｽﾃﾘｱ商品
 62
   254
370
     0
100
AcDbVertex
100
AcDbPolyFaceMeshVertex
 10
120.9040000000001
 20
-53.10000000000001
 30
755.7420000000002
 70
   192
  0
VERTEX
  5
311
330
235
100
AcDbEntity
  8
ｴｸｽﾃﾘｱ商品
 62
   254
370
     0
100
AcDbVertex
100
AcDbPolyFaceMeshVertex
 10
125.292
 20
-53.00000000000001
 30
757.3690000000001
 70
   192
  0
VERTEX
  5
312
330
235
100
AcDbEntity
  8
ｴｸｽﾃﾘｱ商品
 62
   254
370
     0
100
AcDbVertex
100
AcDbPolyFaceMeshVertex
 10
125.292
 20
-53.10000000000001
 30
757.3690000000001
 70
   192
  0
VERTEX
  5
313
330
235
100
AcDbEntity
  8
ｴｸｽﾃﾘｱ商品
 62
   254
370
     0
100
AcDbVertex
100
AcDbPolyFaceMeshVertex
 10
128.891
 20
-53.00000000000001
 30
760.4760000000001
 70
   192
  0
VERTEX
  5
314
330
235
100
AcDbEntity
  8
ｴｸｽﾃﾘｱ商品
 62
   254
370
     0
100
AcDbVertex
100
AcDbPolyFaceMeshVertex
 10
128.891
 20
-53.10000000000001
 30
760.4760000000001
 70
   192
  0
VERTEX
  5
315
330
235
100
AcDbEntity
  8
ｴｸｽﾃﾘｱ商品
 62
   254
370
     0
100
AcDbVertex
100
AcDbPolyFaceMeshVertex
 10
130.814
 20
-53.00000000000001
 30
763.7790000000001
 70
   192
  0
VERTEX
  5
316
330
235
100
AcDbEntity
  8
ｴｸｽﾃﾘｱ商品
 62
   254
370
     0
100
AcDbVertex
100
AcDbPolyFaceMeshVertex
 10
130.814
 20
-53.10000000000001
 30
763.7790000000001
 70
   192
  0
VERTEX
  5
317
330
235
100
AcDbEntity
  8
ｴｸｽﾃﾘｱ商品
 62
   254
370
     0
100
AcDbVertex
100
AcDbPolyFaceMeshVertex
 10
131.8990000000001
 20
-53.00000000000001
 30
767.7730000000001
 70
   192
  0
VERTEX
  5
318
330
235
100
AcDbEntity
  8
ｴｸｽﾃﾘｱ商品
 62
   254
370
     0
100
AcDbVertex
100
AcDbPolyFaceMeshVertex
 10
131.8990000000001
 20
-53.10000000000001
 30
767.7730000000001
 70
   192
  0
VERTEX
  5
319
330
235
100
AcDbEntity
  8
ｴｸｽﾃﾘｱ商品
 62
   254
370
     0
100
AcDbVertex
100
AcDbPolyFaceMeshVertex
 10
131.7020000000001
 20
-53.00000000000001
 30
769.5480000000001
 70
   192
  0
VERTEX
  5
31A
330
235
100
AcDbEntity
  8
ｴｸｽﾃﾘｱ商品
 62
   254
370
     0
100
AcDbVertex
100
AcDbPolyFaceMeshVertex
 10
131.7020000000001
 20
-53.10000000000001
 30
769.5480000000001
 70
   192
  0
VERTEX
  5
31B
330
235
100
AcDbEntity
  8
ｴｸｽﾃﾘｱ商品
 62
   254
370
     0
100
AcDbVertex
100
AcDbPolyFaceMeshVertex
 10
130.568
 20
-53.00000000000001
 30
770.5340000000002
 70
   192
  0
VERTEX
  5
31C
330
235
100
AcDbEntity
  8
ｴｸｽﾃﾘｱ商品
 62
   254
370
     0
100
AcDbVertex
100
AcDbPolyFaceMeshVertex
 10
130.568
 20
-53.10000000000001
 30
770.5340000000002
 70
   192
  0
VERTEX
  5
31D
330
235
100
AcDbEntity
  8
ｴｸｽﾃﾘｱ商品
 62
   254
370
     0
100
AcDbVertex
100
AcDbPolyFaceMeshVertex
 10
128.793
 20
-53.00000000000001
 30
770.5340000000002
 70
   192
  0
VERTEX
  5
31E
330
235
100
AcDbEntity
  8
ｴｸｽﾃﾘｱ商品
 62
   254
370
     0
100
AcDbVertex
100
AcDbPolyFaceMeshVertex
 10
128.793
 20
-53.10000000000001
 30
770.5340000000002
 70
   192
  0
VERTEX
  5
31F
330
235
100
AcDbEntity
  8
ｴｸｽﾃﾘｱ商品
 62
   254
370
     0
100
AcDbVertex
100
AcDbPolyFaceMeshVertex
 10
127.7570000000001
 20
-53.00000000000001
 30
769.2030000000001
 70
   192
  0
VERTEX
  5
320
330
235
100
AcDbEntity
  8
ｴｸｽﾃﾘｱ商品
 62
   254
370
     0
100
AcDbVertex
100
AcDbPolyFaceMeshVertex
 10
127.7570000000001
 20
-53.10000000000001
 30
769.2030000000001
 70
   192
  0
VERTEX
  5
321
330
235
100
AcDbEntity
  8
ｴｸｽﾃﾘｱ商品
 62
   254
370
     0
100
AcDbVertex
100
AcDbPolyFaceMeshVertex
 10
127.264
 20
-53.00000000000001
 30
766.5400000000001
 70
   192
  0
VERTEX
  5
322
330
235
100
AcDbEntity
  8
ｴｸｽﾃﾘｱ商品
 62
   254
370
     0
100
AcDbVertex
100
AcDbPolyFaceMeshVertex
 10
127.264
 20
-53.10000000000001
 30
766.5400000000001
 70
   192
  0
VERTEX
  5
323
330
235
100
AcDbEntity
  8
ｴｸｽﾃﾘｱ商品
 62
   254
370
     0
100
AcDbVertex
100
AcDbPolyFaceMeshVertex
 10
125.8350000000001
 20
-53.00000000000001
 30
763.7790000000001
 70
   192
  0
VERTEX
  5
324
330
235
100
AcDbEntity
  8
ｴｸｽﾃﾘｱ商品
 62
   254
370
     0
100
AcDbVertex
100
AcDbPolyFaceMeshVertex
 10
125.8350000000001
 20
-53.10000000000001
 30
763.7790000000001
 70
   192
  0
VERTEX
  5
325
330
235
100
AcDbEntity
  8
ｴｸｽﾃﾘｱ商品
 62
   254
370
     0
100
AcDbVertex
100
AcDbPolyFaceMeshVertex
 10
124.3060000000001
 20
-53.00000000000001
 30
762.0530000000001
 70
   192
  0
VERTEX
  5
326
330
235
100
AcDbEntity
  8
ｴｸｽﾃﾘｱ商品
 62
   254
370
     0
100
AcDbVertex
100
AcDbPolyFaceMeshVertex
 10
124.3060000000001
 20
-53.10000000000001
 30
762.0530000000001
 70
   192
  0
VERTEX
  5
327
330
235
100
AcDbEntity
  8
ｴｸｽﾃﾘｱ商品
 62
   254
370
     0
100
AcDbVertex
100
AcDbPolyFaceMeshVertex
 10
-130.5
 20
-52.10000000000001
 30
1144.0
 70
   192
  0
VERTEX
  5
328
330
235
100
AcDbEntity
  8
ｴｸｽﾃﾘｱ商品
 62
   254
370
     0
100
AcDbVertex
100
AcDbPolyFaceMeshVertex
 10
-190.5
 20
-52.10000000000001
 30
1144.0
 70
   192
  0
VERTEX
  5
329
330
235
100
AcDbEntity
  8
ｴｸｽﾃﾘｱ商品
 62
   254
370
     0
100
AcDbVertex
100
AcDbPolyFaceMeshVertex
 10
-190.5
 20
-51.10000000000001
 30
1144.0
 70
   192
  0
VERTEX
  5
32A
330
235
100
AcDbEntity
  8
ｴｸｽﾃﾘｱ商品
 62
   254
370
     0
100
AcDbVertex
100
AcDbPolyFaceMeshVertex
 10
-130.5
 20
-51.10000000000001
 30
1144.0
 70
   192
  0
VERTEX
  5
32B
330
235
100
AcDbEntity
  8
ｴｸｽﾃﾘｱ商品
 62
   254
370
     0
100
AcDbVertex
100
AcDbPolyFaceMeshVertex
 10
-190.5
 20
-52.10000000000001
 30
1154.0
 70
   192
  0
VERTEX
  5
32C
330
235
100
AcDbEntity
  8
ｴｸｽﾃﾘｱ商品
 62
   254
370
     0
100
AcDbVertex
100
AcDbPolyFaceMeshVertex
 10
-130.5
 20
-52.10000000000001
 30
1154.0
 70
   192
  0
VERTEX
  5
32D
330
235
100
AcDbEntity
  8
ｴｸｽﾃﾘｱ商品
 62
   254
370
     0
100
AcDbVertex
100
AcDbPolyFaceMeshVertex
 10
-130.5
 20
-51.10000000000001
 30
1154.0
 70
   192
  0
VERTEX
  5
32E
330
235
100
AcDbEntity
  8
ｴｸｽﾃﾘｱ商品
 62
   254
370
     0
100
AcDbVertex
100
AcDbPolyFaceMeshVertex
 10
-190.5
 20
-51.10000000000001
 30
1154.0
 70
   192
  0
VERTEX
  5
32F
330
235
100
AcDbEntity
  8
ｴｸｽﾃﾘｱ商品
 62
   254
370
     0
100
AcDbFaceRecord
 10
0.0
 20
0.0
 30
0.0
 70
   128
 71
     1
 72
     2
 73
     3
 74
     4
  0
VERTEX
  5
330
330
235
100
AcDbEntity
  8
ｴｸｽﾃﾘｱ商品
 62
   254
370
     0
100
AcDbFaceRecord
 10
0.0
 20
0.0
 30
0.0
 70
   128
 71
     1
 72
     4
 73
     5
 74
     6
  0
VERTEX
  5
331
330
235
100
AcDbEntity
  8
ｴｸｽﾃﾘｱ商品
 62
   254
370
     0
100
AcDbFaceRecord
 10
0.0
 20
0.0
 30
0.0
 70
   128
 71
     1
 72
     6
 73
     7
 74
     8
  0
VERTEX
  5
332
330
235
100
AcDbEntity
  8
ｴｸｽﾃﾘｱ商品
 62
   254
370
     0
100
AcDbFaceRecord
 10
0.0
 20
0.0
 30
0.0
 70
   128
 71
     1
 72
     8
 73
     9
 74
    10
  0
VERTEX
  5
333
330
235
100
AcDbEntity
  8
ｴｸｽﾃﾘｱ商品
 62
   254
370
     0
100
AcDbFaceRecord
 10
0.0
 20
0.0
 30
0.0
 70
   128
 71
     1
 72
    10
 73
    11
 74
    12
  0
VERTEX
  5
334
330
235
100
AcDbEntity
  8
ｴｸｽﾃﾘｱ商品
 62
   254
370
     0
100
AcDbFaceRecord
 10
0.0
 20
0.0
 30
0.0
 70
   128
 71
     1
 72
    12
 73
    13
 74
    14
  0
VERTEX
  5
335
330
235
100
AcDbEntity
  8
ｴｸｽﾃﾘｱ商品
 62
   254
370
     0
100
AcDbFaceRecord
 10
0.0
 20
0.0
 30
0.0
 70
   128
 71
     1
 72
    14
 73
    15
 74
    16
  0
VERTEX
  5
336
330
235
100
AcDbEntity
  8
ｴｸｽﾃﾘｱ商品
 62
   254
370
     0
100
AcDbFaceRecord
 10
0.0
 20
0.0
 30
0.0
 70
   128
 71
     1
 72
    16
 73
    17
 74
    18
  0
VERTEX
  5
337
330
235
100
AcDbEntity
  8
ｴｸｽﾃﾘｱ商品
 62
   254
370
     0
100
AcDbFaceRecord
 10
0.0
 20
0.0
 30
0.0
 70
   128
 71
     1
 72
    18
 73
    19
 74
    20
  0
VERTEX
  5
338
330
235
100
AcDbEntity
  8
ｴｸｽﾃﾘｱ商品
 62
   254
370
     0
100
AcDbFaceRecord
 10
0.0
 20
0.0
 30
0.0
 70
   128
 71
     1
 72
    20
 73
    21
 74
    22
  0
VERTEX
  5
339
330
235
100
AcDbEntity
  8
ｴｸｽﾃﾘｱ商品
 62
   254
370
     0
100
AcDbFaceRecord
 10
0.0
 20
0.0
 30
0.0
 70
   128
 71
     1
 72
    22
 73
    23
 74
    24
  0
VERTEX
  5
33A
330
235
100
AcDbEntity
  8
ｴｸｽﾃﾘｱ商品
 62
   254
370
     0
100
AcDbFaceRecord
 10
0.0
 20
0.0
 30
0.0
 70
   128
 71
     1
 72
    24
 73
    25
 74
    26
  0
VERTEX
  5
33B
330
235
100
AcDbEntity
  8
ｴｸｽﾃﾘｱ商品
 62
   254
370
     0
100
AcDbFaceRecord
 10
0.0
 20
0.0
 30
0.0
 70
   128
 71
     1
 72
    26
 73
    27
 74
    28
  0
VERTEX
  5
33C
330
235
100
AcDbEntity
  8
ｴｸｽﾃﾘｱ商品
 62
   254
370
     0
100
AcDbFaceRecord
 10
0.0
 20
0.0
 30
0.0
 70
   128
 71
     1
 72
    28
 73
    29
 74
    30
  0
VERTEX
  5
33D
330
235
100
AcDbEntity
  8
ｴｸｽﾃﾘｱ商品
 62
   254
370
     0
100
AcDbFaceRecord
 10
0.0
 20
0.0
 30
0.0
 70
   128
 71
     1
 72
    30
 73
    31
 74
    32
  0
VERTEX
  5
33E
330
235
100
AcDbEntity
  8
ｴｸｽﾃﾘｱ商品
 62
   254
370
     0
100
AcDbFaceRecord
 10
0.0
 20
0.0
 30
0.0
 70
   128
 71
     1
 72
    32
 73
    33
 74
    34
  0
VERTEX
  5
33F
330
235
100
AcDbEntity
  8
ｴｸｽﾃﾘｱ商品
 62
   254
370
     0
100
AcDbFaceRecord
 10
0.0
 20
0.0
 30
0.0
 70
   128
 71
     1
 72
    34
 73
    35
 74
    36
  0
VERTEX
  5
340
330
235
100
AcDbEntity
  8
ｴｸｽﾃﾘｱ商品
 62
   254
370
     0
100
AcDbFaceRecord
 10
0.0
 20
0.0
 30
0.0
 70
   128
 71
    37
 72
    38
 73
    39
 74
    40
  0
VERTEX
  5
341
330
235
100
AcDbEntity
  8
ｴｸｽﾃﾘｱ商品
 62
   254
370
     0
100
AcDbFaceRecord
 10
0.0
 20
0.0
 30
0.0
 70
   128
 71
    37
 72
    40
 73
    41
 74
    42
  0
VERTEX
  5
342
330
235
100
AcDbEntity
  8
ｴｸｽﾃﾘｱ商品
 62
   254
370
     0
100
AcDbFaceRecord
 10
0.0
 20
0.0
 30
0.0
 70
   128
 71
    37
 72
    42
 73
    43
 74
    44
  0
VERTEX
  5
343
330
235
100
AcDbEntity
  8
ｴｸｽﾃﾘｱ商品
 62
   254
370
     0
100
AcDbFaceRecord
 10
0.0
 20
0.0
 30
0.0
 70
   128
 71
    37
 72
    44
 73
    45
 74
    46
  0
VERTEX
  5
344
330
235
100
AcDbEntity
  8
ｴｸｽﾃﾘｱ商品
 62
   254
370
     0
100
AcDbFaceRecord
 10
0.0
 20
0.0
 30
0.0
 70
   128
 71
    37
 72
    46
 73
    47
 74
    48
  0
VERTEX
  5
345
330
235
100
AcDbEntity
  8
ｴｸｽﾃﾘｱ商品
 62
   254
370
     0
100
AcDbFaceRecord
 10
0.0
 20
0.0
 30
0.0
 70
   128
 71
    37
 72
    48
 73
    49
 74
    50
  0
VERTEX
  5
346
330
235
100
AcDbEntity
  8
ｴｸｽﾃﾘｱ商品
 62
   254
370
     0
100
AcDbFaceRecord
 10
0.0
 20
0.0
 30
0.0
 70
   128
 71
    37
 72
    50
 73
    51
 74
    52
  0
VERTEX
  5
347
330
235
100
AcDbEntity
  8
ｴｸｽﾃﾘｱ商品
 62
   254
370
     0
100
AcDbFaceRecord
 10
0.0
 20
0.0
 30
0.0
 70
   128
 71
    37
 72
    52
 73
    53
 74
    54
  0
VERTEX
  5
348
330
235
100
AcDbEntity
  8
ｴｸｽﾃﾘｱ商品
 62
   254
370
     0
100
AcDbFaceRecord
 10
0.0
 20
0.0
 30
0.0
 70
   128
 71
    37
 72
    54
 73
    55
 74
    56
  0
VERTEX
  5
349
330
235
100
AcDbEntity
  8
ｴｸｽﾃﾘｱ商品
 62
   254
370
     0
100
AcDbFaceRecord
 10
0.0
 20
0.0
 30
0.0
 70
   128
 71
    37
 72
    56
 73
    57
 74
    58
  0
VERTEX
  5
34A
330
235
100
AcDbEntity
  8
ｴｸｽﾃﾘｱ商品
 62
   254
370
     0
100
AcDbFaceRecord
 10
0.0
 20
0.0
 30
0.0
 70
   128
 71
    37
 72
    58
 73
    59
 74
    60
  0
VERTEX
  5
34B
330
235
100
AcDbEntity
  8
ｴｸｽﾃﾘｱ商品
 62
   254
370
     0
100
AcDbFaceRecord
 10
0.0
 20
0.0
 30
0.0
 70
   128
 71
    37
 72
    60
 73
    61
 74
    62
  0
VERTEX
  5
34C
330
235
100
AcDbEntity
  8
ｴｸｽﾃﾘｱ商品
 62
   254
370
     0
100
AcDbFaceRecord
 10
0.0
 20
0.0
 30
0.0
 70
   128
 71
    37
 72
    62
 73
    63
 74
    64
  0
VERTEX
  5
34D
330
235
100
AcDbEntity
  8
ｴｸｽﾃﾘｱ商品
 62
   254
370
     0
100
AcDbFaceRecord
 10
0.0
 20
0.0
 30
0.0
 70
   128
 71
    37
 72
    64
 73
    65
 74
    66
  0
VERTEX
  5
34E
330
235
100
AcDbEntity
  8
ｴｸｽﾃﾘｱ商品
 62
   254
370
     0
100
AcDbFaceRecord
 10
0.0
 20
0.0
 30
0.0
 70
   128
 71
    37
 72
    66
 73
    67
 74
    68
  0
VERTEX
  5
34F
330
235
100
AcDbEntity
  8
ｴｸｽﾃﾘｱ商品
 62
   254
370
     0
100
AcDbFaceRecord
 10
0.0
 20
0.0
 30
0.0
 70
   128
 71
    37
 72
    68
 73
    69
 74
    70
  0
VERTEX
  5
350
330
235
100
AcDbEntity
  8
ｴｸｽﾃﾘｱ商品
 62
   254
370
     0
100
AcDbFaceRecord
 10
0.0
 20
0.0
 30
0.0
 70
   128
 71
    37
 72
    70
 73
    71
 74
    72
  0
VERTEX
  5
351
330
235
100
AcDbEntity
  8
ｴｸｽﾃﾘｱ商品
 62
   254
370
     0
100
AcDbFaceRecord
 10
0.0
 20
0.0
 30
0.0
 70
   128
 71
     1
 72
    36
 73
    38
 74
    37
  0
VERTEX
  5
352
330
235
100
AcDbEntity
  8
ｴｸｽﾃﾘｱ商品
 62
   254
370
     0
100
AcDbFaceRecord
 10
0.0
 20
0.0
 30
0.0
 70
   128
 71
    36
 72
    35
 73
    39
 74
    38
  0
VERTEX
  5
353
330
235
100
AcDbEntity
  8
ｴｸｽﾃﾘｱ商品
 62
   254
370
     0
100
AcDbFaceRecord
 10
0.0
 20
0.0
 30
0.0
 70
   128
 71
    35
 72
    34
 73
    40
 74
    39
  0
VERTEX
  5
354
330
235
100
AcDbEntity
  8
ｴｸｽﾃﾘｱ商品
 62
   254
370
     0
100
AcDbFaceRecord
 10
0.0
 20
0.0
 30
0.0
 70
   128
 71
    34
 72
    33
 73
    41
 74
    40
  0
VERTEX
  5
355
330
235
100
AcDbEntity
  8
ｴｸｽﾃﾘｱ商品
 62
   254
370
     0
100
AcDbFaceRecord
 10
0.0
 20
0.0
 30
0.0
 70
   128
 71
    33
 72
    32
 73
    42
 74
    41
  0
VERTEX
  5
356
330
235
100
AcDbEntity
  8
ｴｸｽﾃﾘｱ商品
 62
   254
370
     0
100
AcDbFaceRecord
 10
0.0
 20
0.0
 30
0.0
 70
   128
 71
    32
 72
    31
 73
    43
 74
    42
  0
VERTEX
  5
357
330
235
100
AcDbEntity
  8
ｴｸｽﾃﾘｱ商品
 62
   254
370
     0
100
AcDbFaceRecord
 10
0.0
 20
0.0
 30
0.0
 70
   128
 71
    31
 72
    30
 73
    44
 74
    43
  0
VERTEX
  5
358
330
235
100
AcDbEntity
  8
ｴｸｽﾃﾘｱ商品
 62
   254
370
     0
100
AcDbFaceRecord
 10
0.0
 20
0.0
 30
0.0
 70
   128
 71
    30
 72
    29
 73
    45
 74
    44
  0
VERTEX
  5
359
330
235
100
AcDbEntity
  8
ｴｸｽﾃﾘｱ商品
 62
   254
370
     0
100
AcDbFaceRecord
 10
0.0
 20
0.0
 30
0.0
 70
   128
 71
    29
 72
    28
 73
    46
 74
    45
  0
VERTEX
  5
35A
330
235
100
AcDbEntity
  8
ｴｸｽﾃﾘｱ商品
 62
   254
370
     0
100
AcDbFaceRecord
 10
0.0
 20
0.0
 30
0.0
 70
   128
 71
    28
 72
    27
 73
    47
 74
    46
  0
VERTEX
  5
35B
330
235
100
AcDbEntity
  8
ｴｸｽﾃﾘｱ商品
 62
   254
370
     0
100
AcDbFaceRecord
 10
0.0
 20
0.0
 30
0.0
 70
   128
 71
    27
 72
    26
 73
    48
 74
    47
  0
VERTEX
  5
35C
330
235
100
AcDbEntity
  8
ｴｸｽﾃﾘｱ商品
 62
   254
370
     0
100
AcDbFaceRecord
 10
0.0
 20
0.0
 30
0.0
 70
   128
 71
    26
 72
    25
 73
    49
 74
    48
  0
VERTEX
  5
35D
330
235
100
AcDbEntity
  8
ｴｸｽﾃﾘｱ商品
 62
   254
370
     0
100
AcDbFaceRecord
 10
0.0
 20
0.0
 30
0.0
 70
   128
 71
    25
 72
    24
 73
    50
 74
    49
  0
VERTEX
  5
35E
330
235
100
AcDbEntity
  8
ｴｸｽﾃﾘｱ商品
 62
   254
370
     0
100
AcDbFaceRecord
 10
0.0
 20
0.0
 30
0.0
 70
   128
 71
    24
 72
    23
 73
    51
 74
    50
  0
VERTEX
  5
35F
330
235
100
AcDbEntity
  8
ｴｸｽﾃﾘｱ商品
 62
   254
370
     0
100
AcDbFaceRecord
 10
0.0
 20
0.0
 30
0.0
 70
   128
 71
    23
 72
    22
 73
    52
 74
    51
  0
VERTEX
  5
360
330
235
100
AcDbEntity
  8
ｴｸｽﾃﾘｱ商品
 62
   254
370
     0
100
AcDbFaceRecord
 10
0.0
 20
0.0
 30
0.0
 70
   128
 71
    22
 72
    21
 73
    53
 74
    52
  0
VERTEX
  5
361
330
235
100
AcDbEntity
  8
ｴｸｽﾃﾘｱ商品
 62
   254
370
     0
100
AcDbFaceRecord
 10
0.0
 20
0.0
 30
0.0
 70
   128
 71
    21
 72
    20
 73
    54
 74
    53
  0
VERTEX
  5
362
330
235
100
AcDbEntity
  8
ｴｸｽﾃﾘｱ商品
 62
   254
370
     0
100
AcDbFaceRecord
 10
0.0
 20
0.0
 30
0.0
 70
   128
 71
    20
 72
    19
 73
    55
 74
    54
  0
VERTEX
  5
363
330
235
100
AcDbEntity
  8
ｴｸｽﾃﾘｱ商品
 62
   254
370
     0
100
AcDbFaceRecord
 10
0.0
 20
0.0
 30
0.0
 70
   128
 71
    19
 72
    18
 73
    56
 74
    55
  0
VERTEX
  5
364
330
235
100
AcDbEntity
  8
ｴｸｽﾃﾘｱ商品
 62
   254
370
     0
100
AcDbFaceRecord
 10
0.0
 20
0.0
 30
0.0
 70
   128
 71
    18
 72
    17
 73
    57
 74
    56
  0
VERTEX
  5
365
330
235
100
AcDbEntity
  8
ｴｸｽﾃﾘｱ商品
 62
   254
370
     0
100
AcDbFaceRecord
 10
0.0
 20
0.0
 30
0.0
 70
   128
 71
    17
 72
    16
 73
    58
 74
    57
  0
VERTEX
  5
366
330
235
100
AcDbEntity
  8
ｴｸｽﾃﾘｱ商品
 62
   254
370
     0
100
AcDbFaceRecord
 10
0.0
 20
0.0
 30
0.0
 70
   128
 71
    16
 72
    15
 73
    59
 74
    58
  0
VERTEX
  5
367
330
235
100
AcDbEntity
  8
ｴｸｽﾃﾘｱ商品
 62
   254
370
     0
100
AcDbFaceRecord
 10
0.0
 20
0.0
 30
0.0
 70
   128
 71
    15
 72
    14
 73
    60
 74
    59
  0
VERTEX
  5
368
330
235
100
AcDbEntity
  8
ｴｸｽﾃﾘｱ商品
 62
   254
370
     0
100
AcDbFaceRecord
 10
0.0
 20
0.0
 30
0.0
 70
   128
 71
    14
 72
    13
 73
    61
 74
    60
  0
VERTEX
  5
369
330
235
100
AcDbEntity
  8
ｴｸｽﾃﾘｱ商品
 62
   254
370
     0
100
AcDbFaceRecord
 10
0.0
 20
0.0
 30
0.0
 70
   128
 71
    13
 72
    12
 73
    62
 74
    61
  0
VERTEX
  5
36A
330
235
100
AcDbEntity
  8
ｴｸｽﾃﾘｱ商品
 62
   254
370
     0
100
AcDbFaceRecord
 10
0.0
 20
0.0
 30
0.0
 70
   128
 71
    12
 72
    11
 73
    63
 74
    62
  0
VERTEX
  5
36B
330
235
100
AcDbEntity
  8
ｴｸｽﾃﾘｱ商品
 62
   254
370
     0
100
AcDbFaceRecord
 10
0.0
 20
0.0
 30
0.0
 70
   128
 71
    11
 72
    10
 73
    64
 74
    63
  0
VERTEX
  5
36C
330
235
100
AcDbEntity
  8
ｴｸｽﾃﾘｱ商品
 62
   254
370
     0
100
AcDbFaceRecord
 10
0.0
 20
0.0
 30
0.0
 70
   128
 71
    10
 72
     9
 73
    65
 74
    64
  0
VERTEX
  5
36D
330
235
100
AcDbEntity
  8
ｴｸｽﾃﾘｱ商品
 62
   254
370
     0
100
AcDbFaceRecord
 10
0.0
 20
0.0
 30
0.0
 70
   128
 71
     9
 72
     8
 73
    66
 74
    65
  0
VERTEX
  5
36E
330
235
100
AcDbEntity
  8
ｴｸｽﾃﾘｱ商品
 62
   254
370
     0
100
AcDbFaceRecord
 10
0.0
 20
0.0
 30
0.0
 70
   128
 71
     8
 72
     7
 73
    67
 74
    66
  0
VERTEX
  5
36F
330
235
100
AcDbEntity
  8
ｴｸｽﾃﾘｱ商品
 62
   254
370
     0
100
AcDbFaceRecord
 10
0.0
 20
0.0
 30
0.0
 70
   128
 71
     7
 72
     6
 73
    68
 74
    67
  0
VERTEX
  5
370
330
235
100
AcDbEntity
  8
ｴｸｽﾃﾘｱ商品
 62
   254
370
     0
100
AcDbFaceRecord
 10
0.0
 20
0.0
 30
0.0
 70
   128
 71
     6
 72
     5
 73
    69
 74
    68
  0
VERTEX
  5
371
330
235
100
AcDbEntity
  8
ｴｸｽﾃﾘｱ商品
 62
   254
370
     0
100
AcDbFaceRecord
 10
0.0
 20
0.0
 30
0.0
 70
   128
 71
     5
 72
     4
 73
    70
 74
    69
  0
VERTEX
  5
372
330
235
100
AcDbEntity
  8
ｴｸｽﾃﾘｱ商品
 62
   254
370
     0
100
AcDbFaceRecord
 10
0.0
 20
0.0
 30
0.0
 70
   128
 71
     4
 72
     3
 73
    71
 74
    70
  0
VERTEX
  5
373
330
235
100
AcDbEntity
  8
ｴｸｽﾃﾘｱ商品
 62
   254
370
     0
100
AcDbFaceRecord
 10
0.0
 20
0.0
 30
0.0
 70
   128
 71
     3
 72
     2
 73
    72
 74
    71
  0
VERTEX
  5
374
330
235
100
AcDbEntity
  8
ｴｸｽﾃﾘｱ商品
 62
   254
370
     0
100
AcDbFaceRecord
 10
0.0
 20
0.0
 30
0.0
 70
   128
 71
     2
 72
     1
 73
    37
 74
    72
  0
VERTEX
  5
375
330
235
100
AcDbEntity
  8
ｴｸｽﾃﾘｱ商品
 62
    49
370
     0
100
AcDbFaceRecord
 10
0.0
 20
0.0
 30
0.0
 70
   128
 71
    73
 72
    74
 73
    75
 74
    76
  0
VERTEX
  5
376
330
235
100
AcDbEntity
  8
ｴｸｽﾃﾘｱ商品
 62
    49
370
     0
100
AcDbFaceRecord
 10
0.0
 20
0.0
 30
0.0
 70
   128
 71
    74
 72
    77
 73
    78
 74
    75
  0
VERTEX
  5
377
330
235
100
AcDbEntity
  8
ｴｸｽﾃﾘｱ商品
 62
    49
370
     0
100
AcDbFaceRecord
 10
0.0
 20
0.0
 30
0.0
 70
   128
 71
    77
 72
    79
 73
    80
 74
    78
  0
VERTEX
  5
378
330
235
100
AcDbEntity
  8
ｴｸｽﾃﾘｱ商品
 62
    49
370
     0
100
AcDbFaceRecord
 10
0.0
 20
0.0
 30
0.0
 70
   128
 71
    79
 72
    81
 73
    82
 74
    80
  0
VERTEX
  5
379
330
235
100
AcDbEntity
  8
ｴｸｽﾃﾘｱ商品
 62
    49
370
     0
100
AcDbFaceRecord
 10
0.0
 20
0.0
 30
0.0
 70
   128
 71
    81
 72
    83
 73
    84
 74
    82
  0
VERTEX
  5
37A
330
235
100
AcDbEntity
  8
ｴｸｽﾃﾘｱ商品
 62
    49
370
     0
100
AcDbFaceRecord
 10
0.0
 20
0.0
 30
0.0
 70
   128
 71
    83
 72
    85
 73
    86
 74
    84
  0
VERTEX
  5
37B
330
235
100
AcDbEntity
  8
ｴｸｽﾃﾘｱ商品
 62
    49
370
     0
100
AcDbFaceRecord
 10
0.0
 20
0.0
 30
0.0
 70
   128
 71
    85
 72
    73
 73
    76
 74
    86
  0
VERTEX
  5
37C
330
235
100
AcDbEntity
  8
ｴｸｽﾃﾘｱ商品
 62
    49
370
     0
100
AcDbFaceRecord
 10
0.0
 20
0.0
 30
0.0
 70
   128
 71
    73
 72
    85
 73
    83
  0
VERTEX
  5
37D
330
235
100
AcDbEntity
  8
ｴｸｽﾃﾘｱ商品
 62
    49
370
     0
100
AcDbFaceRecord
 10
0.0
 20
0.0
 30
0.0
 70
   128
 71
    74
 72
    73
 73
    83
  0
VERTEX
  5
37E
330
235
100
AcDbEntity
  8
ｴｸｽﾃﾘｱ商品
 62
    49
370
     0
100
AcDbFaceRecord
 10
0.0
 20
0.0
 30
0.0
 70
   128
 71
    74
 72
    83
 73
    81
  0
VERTEX
  5
37F
330
235
100
AcDbEntity
  8
ｴｸｽﾃﾘｱ商品
 62
    49
370
     0
100
AcDbFaceRecord
 10
0.0
 20
0.0
 30
0.0
 70
   128
 71
    74
 72
    81
 73
    79
  0
VERTEX
  5
380
330
235
100
AcDbEntity
  8
ｴｸｽﾃﾘｱ商品
 62
    49
370
     0
100
AcDbFaceRecord
 10
0.0
 20
0.0
 30
0.0
 70
   128
 71
    77
 72
    74
 73
    79
  0
VERTEX
  5
381
330
235
100
AcDbEntity
  8
ｴｸｽﾃﾘｱ商品
 62
    49
370
     0
100
AcDbFaceRecord
 10
0.0
 20
0.0
 30
0.0
 70
   128
 71
    84
 72
    86
 73
    76
  0
VERTEX
  5
382
330
235
100
AcDbEntity
  8
ｴｸｽﾃﾘｱ商品
 62
    49
370
     0
100
AcDbFaceRecord
 10
0.0
 20
0.0
 30
0.0
 70
   128
 71
    84
 72
    76
 73
    75
  0
VERTEX
  5
383
330
235
100
AcDbEntity
  8
ｴｸｽﾃﾘｱ商品
 62
    49
370
     0
100
AcDbFaceRecord
 10
0.0
 20
0.0
 30
0.0
 70
   128
 71
    82
 72
    84
 73
    75
  0
VERTEX
  5
384
330
235
100
AcDbEntity
  8
ｴｸｽﾃﾘｱ商品
 62
    49
370
     0
100
AcDbFaceRecord
 10
0.0
 20
0.0
 30
0.0
 70
   128
 71
    80
 72
    82
 73
    75
  0
VERTEX
  5
385
330
235
100
AcDbEntity
  8
ｴｸｽﾃﾘｱ商品
 62
    49
370
     0
100
AcDbFaceRecord
 10
0.0
 20
0.0
 30
0.0
 70
   128
 71
    78
 72
    80
 73
    75
  0
VERTEX
  5
386
330
235
100
AcDbEntity
  8
ｴｸｽﾃﾘｱ商品
 62
    49
370
     0
100
AcDbFaceRecord
 10
0.0
 20
0.0
 30
0.0
 70
   128
 71
    87
 72
    88
 73
    89
 74
    90
  0
VERTEX
  5
387
330
235
100
AcDbEntity
  8
ｴｸｽﾃﾘｱ商品
 62
    49
370
     0
100
AcDbFaceRecord
 10
0.0
 20
0.0
 30
0.0
 70
   128
 71
    88
 72
    91
 73
    92
 74
    89
  0
VERTEX
  5
388
330
235
100
AcDbEntity
  8
ｴｸｽﾃﾘｱ商品
 62
    49
370
     0
100
AcDbFaceRecord
 10
0.0
 20
0.0
 30
0.0
 70
   128
 71
    91
 72
    93
 73
    94
 74
    92
  0
VERTEX
  5
389
330
235
100
AcDbEntity
  8
ｴｸｽﾃﾘｱ商品
 62
    49
370
     0
100
AcDbFaceRecord
 10
0.0
 20
0.0
 30
0.0
 70
   128
 71
    93
 72
    95
 73
    96
 74
    94
  0
VERTEX
  5
38A
330
235
100
AcDbEntity
  8
ｴｸｽﾃﾘｱ商品
 62
    49
370
     0
100
AcDbFaceRecord
 10
0.0
 20
0.0
 30
0.0
 70
   128
 71
    95
 72
    97
 73
    98
 74
    96
  0
VERTEX
  5
38B
330
235
100
AcDbEntity
  8
ｴｸｽﾃﾘｱ商品
 62
    49
370
     0
100
AcDbFaceRecord
 10
0.0
 20
0.0
 30
0.0
 70
   128
 71
    97
 72
    99
 73
   100
 74
    98
  0
VERTEX
  5
38C
330
235
100
AcDbEntity
  8
ｴｸｽﾃﾘｱ商品
 62
    49
370
     0
100
AcDbFaceRecord
 10
0.0
 20
0.0
 30
0.0
 70
   128
 71
    99
 72
   101
 73
   102
 74
   100
  0
VERTEX
  5
38D
330
235
100
AcDbEntity
  8
ｴｸｽﾃﾘｱ商品
 62
    49
370
     0
100
AcDbFaceRecord
 10
0.0
 20
0.0
 30
0.0
 70
   128
 71
   101
 72
   103
 73
   104
 74
   102
  0
VERTEX
  5
38E
330
235
100
AcDbEntity
  8
ｴｸｽﾃﾘｱ商品
 62
    49
370
     0
100
AcDbFaceRecord
 10
0.0
 20
0.0
 30
0.0
 70
   128
 71
   103
 72
   105
 73
   106
 74
   104
  0
VERTEX
  5
38F
330
235
100
AcDbEntity
  8
ｴｸｽﾃﾘｱ商品
 62
    49
370
     0
100
AcDbFaceRecord
 10
0.0
 20
0.0
 30
0.0
 70
   128
 71
   105
 72
   107
 73
   108
 74
   106
  0
VERTEX
  5
390
330
235
100
AcDbEntity
  8
ｴｸｽﾃﾘｱ商品
 62
    49
370
     0
100
AcDbFaceRecord
 10
0.0
 20
0.0
 30
0.0
 70
   128
 71
   107
 72
   109
 73
   110
 74
   108
  0
VERTEX
  5
391
330
235
100
AcDbEntity
  8
ｴｸｽﾃﾘｱ商品
 62
    49
370
     0
100
AcDbFaceRecord
 10
0.0
 20
0.0
 30
0.0
 70
   128
 71
   109
 72
   111
 73
   112
 74
   110
  0
VERTEX
  5
392
330
235
100
AcDbEntity
  8
ｴｸｽﾃﾘｱ商品
 62
    49
370
     0
100
AcDbFaceRecord
 10
0.0
 20
0.0
 30
0.0
 70
   128
 71
   111
 72
   113
 73
   114
 74
   112
  0
VERTEX
  5
393
330
235
100
AcDbEntity
  8
ｴｸｽﾃﾘｱ商品
 62
    49
370
     0
100
AcDbFaceRecord
 10
0.0
 20
0.0
 30
0.0
 70
   128
 71
   113
 72
   115
 73
   116
 74
   114
  0
VERTEX
  5
394
330
235
100
AcDbEntity
  8
ｴｸｽﾃﾘｱ商品
 62
    49
370
     0
100
AcDbFaceRecord
 10
0.0
 20
0.0
 30
0.0
 70
   128
 71
   115
 72
   117
 73
   118
 74
   116
  0
VERTEX
  5
395
330
235
100
AcDbEntity
  8
ｴｸｽﾃﾘｱ商品
 62
    49
370
     0
100
AcDbFaceRecord
 10
0.0
 20
0.0
 30
0.0
 70
   128
 71
   117
 72
   119
 73
   120
 74
   118
  0
VERTEX
  5
396
330
235
100
AcDbEntity
  8
ｴｸｽﾃﾘｱ商品
 62
    49
370
     0
100
AcDbFaceRecord
 10
0.0
 20
0.0
 30
0.0
 70
   128
 71
   119
 72
   121
 73
   122
 74
   120
  0
VERTEX
  5
397
330
235
100
AcDbEntity
  8
ｴｸｽﾃﾘｱ商品
 62
    49
370
     0
100
AcDbFaceRecord
 10
0.0
 20
0.0
 30
0.0
 70
   128
 71
   121
 72
   123
 73
   124
 74
   122
  0
VERTEX
  5
398
330
235
100
AcDbEntity
  8
ｴｸｽﾃﾘｱ商品
 62
    49
370
     0
100
AcDbFaceRecord
 10
0.0
 20
0.0
 30
0.0
 70
   128
 71
   123
 72
   125
 73
   126
 74
   124
  0
VERTEX
  5
399
330
235
100
AcDbEntity
  8
ｴｸｽﾃﾘｱ商品
 62
    49
370
     0
100
AcDbFaceRecord
 10
0.0
 20
0.0
 30
0.0
 70
   128
 71
   125
 72
   127
 73
   128
 74
   126
  0
VERTEX
  5
39A
330
235
100
AcDbEntity
  8
ｴｸｽﾃﾘｱ商品
 62
    49
370
     0
100
AcDbFaceRecord
 10
0.0
 20
0.0
 30
0.0
 70
   128
 71
   127
 72
   129
 73
   130
 74
   128
  0
VERTEX
  5
39B
330
235
100
AcDbEntity
  8
ｴｸｽﾃﾘｱ商品
 62
    49
370
     0
100
AcDbFaceRecord
 10
0.0
 20
0.0
 30
0.0
 70
   128
 71
   129
 72
   131
 73
   132
 74
   130
  0
VERTEX
  5
39C
330
235
100
AcDbEntity
  8
ｴｸｽﾃﾘｱ商品
 62
    49
370
     0
100
AcDbFaceRecord
 10
0.0
 20
0.0
 30
0.0
 70
   128
 71
   131
 72
   133
 73
   134
 74
   132
  0
VERTEX
  5
39D
330
235
100
AcDbEntity
  8
ｴｸｽﾃﾘｱ商品
 62
    49
370
     0
100
AcDbFaceRecord
 10
0.0
 20
0.0
 30
0.0
 70
   128
 71
   133
 72
   135
 73
   136
 74
   134
  0
VERTEX
  5
39E
330
235
100
AcDbEntity
  8
ｴｸｽﾃﾘｱ商品
 62
    49
370
     0
100
AcDbFaceRecord
 10
0.0
 20
0.0
 30
0.0
 70
   128
 71
   135
 72
    87
 73
    90
 74
   136
  0
VERTEX
  5
39F
330
235
100
AcDbEntity
  8
ｴｸｽﾃﾘｱ商品
 62
    49
370
     0
100
AcDbFaceRecord
 10
0.0
 20
0.0
 30
0.0
 70
   128
 71
   137
 72
   138
 73
   139
 74
   140
  0
VERTEX
  5
3A0
330
235
100
AcDbEntity
  8
ｴｸｽﾃﾘｱ商品
 62
    49
370
     0
100
AcDbFaceRecord
 10
0.0
 20
0.0
 30
0.0
 70
   128
 71
   138
 72
   141
 73
   142
 74
   139
  0
VERTEX
  5
3A1
330
235
100
AcDbEntity
  8
ｴｸｽﾃﾘｱ商品
 62
    49
370
     0
100
AcDbFaceRecord
 10
0.0
 20
0.0
 30
0.0
 70
   128
 71
   141
 72
   143
 73
   144
 74
   142
  0
VERTEX
  5
3A2
330
235
100
AcDbEntity
  8
ｴｸｽﾃﾘｱ商品
 62
    49
370
     0
100
AcDbFaceRecord
 10
0.0
 20
0.0
 30
0.0
 70
   128
 71
   143
 72
   145
 73
   146
 74
   144
  0
VERTEX
  5
3A3
330
235
100
AcDbEntity
  8
ｴｸｽﾃﾘｱ商品
 62
    49
370
     0
100
AcDbFaceRecord
 10
0.0
 20
0.0
 30
0.0
 70
   128
 71
   145
 72
   147
 73
   148
 74
   146
  0
VERTEX
  5
3A4
330
235
100
AcDbEntity
  8
ｴｸｽﾃﾘｱ商品
 62
    49
370
     0
100
AcDbFaceRecord
 10
0.0
 20
0.0
 30
0.0
 70
   128
 71
   147
 72
   149
 73
   150
 74
   148
  0
VERTEX
  5
3A5
330
235
100
AcDbEntity
  8
ｴｸｽﾃﾘｱ商品
 62
    49
370
     0
100
AcDbFaceRecord
 10
0.0
 20
0.0
 30
0.0
 70
   128
 71
   149
 72
   151
 73
   152
 74
   150
  0
VERTEX
  5
3A6
330
235
100
AcDbEntity
  8
ｴｸｽﾃﾘｱ商品
 62
    49
370
     0
100
AcDbFaceRecord
 10
0.0
 20
0.0
 30
0.0
 70
   128
 71
   151
 72
   153
 73
   154
 74
   152
  0
VERTEX
  5
3A7
330
235
100
AcDbEntity
  8
ｴｸｽﾃﾘｱ商品
 62
    49
370
     0
100
AcDbFaceRecord
 10
0.0
 20
0.0
 30
0.0
 70
   128
 71
   153
 72
   155
 73
   156
 74
   154
  0
VERTEX
  5
3A8
330
235
100
AcDbEntity
  8
ｴｸｽﾃﾘｱ商品
 62
    49
370
     0
100
AcDbFaceRecord
 10
0.0
 20
0.0
 30
0.0
 70
   128
 71
   155
 72
   157
 73
   158
 74
   156
  0
VERTEX
  5
3A9
330
235
100
AcDbEntity
  8
ｴｸｽﾃﾘｱ商品
 62
    49
370
     0
100
AcDbFaceRecord
 10
0.0
 20
0.0
 30
0.0
 70
   128
 71
   157
 72
   137
 73
   140
 74
   158
  0
VERTEX
  5
3AA
330
235
100
AcDbEntity
  8
ｴｸｽﾃﾘｱ商品
 62
    49
370
     0
100
AcDbFaceRecord
 10
0.0
 20
0.0
 30
0.0
 70
   128
 71
   127
 72
   125
 73
   123
  0
VERTEX
  5
3AB
330
235
100
AcDbEntity
  8
ｴｸｽﾃﾘｱ商品
 62
    49
370
     0
100
AcDbFaceRecord
 10
0.0
 20
0.0
 30
0.0
 70
   128
 71
   127
 72
   123
 73
   121
  0
VERTEX
  5
3AC
330
235
100
AcDbEntity
  8
ｴｸｽﾃﾘｱ商品
 62
    49
370
     0
100
AcDbFaceRecord
 10
0.0
 20
0.0
 30
0.0
 70
   128
 71
   145
 72
   143
 73
   121
  0
VERTEX
  5
3AD
330
235
100
AcDbEntity
  8
ｴｸｽﾃﾘｱ商品
 62
    49
370
     0
100
AcDbFaceRecord
 10
0.0
 20
0.0
 30
0.0
 70
   128
 71
   127
 72
   121
 73
   143
  0
VERTEX
  5
3AE
330
235
100
AcDbEntity
  8
ｴｸｽﾃﾘｱ商品
 62
    49
370
     0
100
AcDbFaceRecord
 10
0.0
 20
0.0
 30
0.0
 70
   128
 71
   129
 72
   127
 73
   143
  0
VERTEX
  5
3AF
330
235
100
AcDbEntity
  8
ｴｸｽﾃﾘｱ商品
 62
    49
370
     0
100
AcDbFaceRecord
 10
0.0
 20
0.0
 30
0.0
 70
   128
 71
   129
 72
   143
 73
   141
  0
VERTEX
  5
3B0
330
235
100
AcDbEntity
  8
ｴｸｽﾃﾘｱ商品
 62
    49
370
     0
100
AcDbFaceRecord
 10
0.0
 20
0.0
 30
0.0
 70
   128
 71
   145
 72
   121
 73
   119
  0
VERTEX
  5
3B1
330
235
100
AcDbEntity
  8
ｴｸｽﾃﾘｱ商品
 62
    49
370
     0
100
AcDbFaceRecord
 10
0.0
 20
0.0
 30
0.0
 70
   128
 71
   131
 72
   129
 73
   141
  0
VERTEX
  5
3B2
330
235
100
AcDbEntity
  8
ｴｸｽﾃﾘｱ商品
 62
    49
370
     0
100
AcDbFaceRecord
 10
0.0
 20
0.0
 30
0.0
 70
   128
 71
   147
 72
   145
 73
   119
  0
VERTEX
  5
3B3
330
235
100
AcDbEntity
  8
ｴｸｽﾃﾘｱ商品
 62
    49
370
     0
100
AcDbFaceRecord
 10
0.0
 20
0.0
 30
0.0
 70
   128
 71
   147
 72
   119
 73
   117
  0
VERTEX
  5
3B4
330
235
100
AcDbEntity
  8
ｴｸｽﾃﾘｱ商品
 62
    49
370
     0
100
AcDbFaceRecord
 10
0.0
 20
0.0
 30
0.0
 70
   128
 71
   131
 72
   141
 73
   138
  0
VERTEX
  5
3B5
330
235
100
AcDbEntity
  8
ｴｸｽﾃﾘｱ商品
 62
    49
370
     0
100
AcDbFaceRecord
 10
0.0
 20
0.0
 30
0.0
 70
   128
 71
   133
 72
   131
 73
   138
  0
VERTEX
  5
3B6
330
235
100
AcDbEntity
  8
ｴｸｽﾃﾘｱ商品
 62
    49
370
     0
100
AcDbFaceRecord
 10
0.0
 20
0.0
 30
0.0
 70
   128
 71
    87
 72
   135
 73
   133
  0
VERTEX
  5
3B7
330
235
100
AcDbEntity
  8
ｴｸｽﾃﾘｱ商品
 62
    49
370
     0
100
AcDbFaceRecord
 10
0.0
 20
0.0
 30
0.0
 70
   128
 71
   149
 72
   147
 73
   117
  0
VERTEX
  5
3B8
330
235
100
AcDbEntity
  8
ｴｸｽﾃﾘｱ商品
 62
    49
370
     0
100
AcDbFaceRecord
 10
0.0
 20
0.0
 30
0.0
 70
   128
 71
   133
 72
   138
 73
   137
  0
VERTEX
  5
3B9
330
235
100
AcDbEntity
  8
ｴｸｽﾃﾘｱ商品
 62
    49
370
     0
100
AcDbFaceRecord
 10
0.0
 20
0.0
 30
0.0
 70
   128
 71
    87
 72
   133
 73
   137
  0
VERTEX
  5
3BA
330
235
100
AcDbEntity
  8
ｴｸｽﾃﾘｱ商品
 62
    49
370
     0
100
AcDbFaceRecord
 10
0.0
 20
0.0
 30
0.0
 70
   128
 71
    87
 72
   137
 73
   157
  0
VERTEX
  5
3BB
330
235
100
AcDbEntity
  8
ｴｸｽﾃﾘｱ商品
 62
    49
370
     0
100
AcDbFaceRecord
 10
0.0
 20
0.0
 30
0.0
 70
   128
 71
   149
 72
   117
 73
   115
  0
VERTEX
  5
3BC
330
235
100
AcDbEntity
  8
ｴｸｽﾃﾘｱ商品
 62
    49
370
     0
100
AcDbFaceRecord
 10
0.0
 20
0.0
 30
0.0
 70
   128
 71
    88
 72
    87
 73
   157
  0
VERTEX
  5
3BD
330
235
100
AcDbEntity
  8
ｴｸｽﾃﾘｱ商品
 62
    49
370
     0
100
AcDbFaceRecord
 10
0.0
 20
0.0
 30
0.0
 70
   128
 71
    88
 72
   157
 73
   155
  0
VERTEX
  5
3BE
330
235
100
AcDbEntity
  8
ｴｸｽﾃﾘｱ商品
 62
    49
370
     0
100
AcDbFaceRecord
 10
0.0
 20
0.0
 30
0.0
 70
   128
 71
   151
 72
   149
 73
   115
  0
VERTEX
  5
3BF
330
235
100
AcDbEntity
  8
ｴｸｽﾃﾘｱ商品
 62
    49
370
     0
100
AcDbFaceRecord
 10
0.0
 20
0.0
 30
0.0
 70
   128
 71
    88
 72
   155
 73
   153
  0
VERTEX
  5
3C0
330
235
100
AcDbEntity
  8
ｴｸｽﾃﾘｱ商品
 62
    49
370
     0
100
AcDbFaceRecord
 10
0.0
 20
0.0
 30
0.0
 70
   128
 71
    91
 72
    88
 73
   153
  0
VERTEX
  5
3C1
330
235
100
AcDbEntity
  8
ｴｸｽﾃﾘｱ商品
 62
    49
370
     0
100
AcDbFaceRecord
 10
0.0
 20
0.0
 30
0.0
 70
   128
 71
    91
 72
   153
 73
   151
  0
VERTEX
  5
3C2
330
235
100
AcDbEntity
  8
ｴｸｽﾃﾘｱ商品
 62
    49
370
     0
100
AcDbFaceRecord
 10
0.0
 20
0.0
 30
0.0
 70
   128
 71
    95
 72
    91
 73
   151
  0
VERTEX
  5
3C3
330
235
100
AcDbEntity
  8
ｴｸｽﾃﾘｱ商品
 62
    49
370
     0
100
AcDbFaceRecord
 10
0.0
 20
0.0
 30
0.0
 70
   128
 71
    93
 72
    91
 73
    95
  0
VERTEX
  5
3C4
330
235
100
AcDbEntity
  8
ｴｸｽﾃﾘｱ商品
 62
    49
370
     0
100
AcDbFaceRecord
 10
0.0
 20
0.0
 30
0.0
 70
   128
 71
   151
 72
   115
 73
   113
  0
VERTEX
  5
3C5
330
235
100
AcDbEntity
  8
ｴｸｽﾃﾘｱ商品
 62
    49
370
     0
100
AcDbFaceRecord
 10
0.0
 20
0.0
 30
0.0
 70
   128
 71
    95
 72
   151
 73
   113
  0
VERTEX
  5
3C6
330
235
100
AcDbEntity
  8
ｴｸｽﾃﾘｱ商品
 62
    49
370
     0
100
AcDbFaceRecord
 10
0.0
 20
0.0
 30
0.0
 70
   128
 71
    97
 72
    95
 73
   113
  0
VERTEX
  5
3C7
330
235
100
AcDbEntity
  8
ｴｸｽﾃﾘｱ商品
 62
    49
370
     0
100
AcDbFaceRecord
 10
0.0
 20
0.0
 30
0.0
 70
   128
 71
    97
 72
   113
 73
   111
  0
VERTEX
  5
3C8
330
235
100
AcDbEntity
  8
ｴｸｽﾃﾘｱ商品
 62
    49
370
     0
100
AcDbFaceRecord
 10
0.0
 20
0.0
 30
0.0
 70
   128
 71
    99
 72
    97
 73
   111
  0
VERTEX
  5
3C9
330
235
100
AcDbEntity
  8
ｴｸｽﾃﾘｱ商品
 62
    49
370
     0
100
AcDbFaceRecord
 10
0.0
 20
0.0
 30
0.0
 70
   128
 71
    99
 72
   111
 73
   109
  0
VERTEX
  5
3CA
330
235
100
AcDbEntity
  8
ｴｸｽﾃﾘｱ商品
 62
    49
370
     0
100
AcDbFaceRecord
 10
0.0
 20
0.0
 30
0.0
 70
   128
 71
   101
 72
    99
 73
   109
  0
VERTEX
  5
3CB
330
235
100
AcDbEntity
  8
ｴｸｽﾃﾘｱ商品
 62
    49
370
     0
100
AcDbFaceRecord
 10
0.0
 20
0.0
 30
0.0
 70
   128
 71
   101
 72
   109
 73
   107
  0
VERTEX
  5
3CC
330
235
100
AcDbEntity
  8
ｴｸｽﾃﾘｱ商品
 62
    49
370
     0
100
AcDbFaceRecord
 10
0.0
 20
0.0
 30
0.0
 70
   128
 71
   103
 72
   101
 73
   107
  0
VERTEX
  5
3CD
330
235
100
AcDbEntity
  8
ｴｸｽﾃﾘｱ商品
 62
    49
370
     0
100
AcDbFaceRecord
 10
0.0
 20
0.0
 30
0.0
 70
   128
 71
   105
 72
   103
 73
   107
  0
VERTEX
  5
3CE
330
235
100
AcDbEntity
  8
ｴｸｽﾃﾘｱ商品
 62
    49
370
     0
100
AcDbFaceRecord
 10
0.0
 20
0.0
 30
0.0
 70
   128
 71
   124
 72
   126
 73
   128
  0
VERTEX
  5
3CF
330
235
100
AcDbEntity
  8
ｴｸｽﾃﾘｱ商品
 62
    49
370
     0
100
AcDbFaceRecord
 10
0.0
 20
0.0
 30
0.0
 70
   128
 71
   122
 72
   124
 73
   128
  0
VERTEX
  5
3D0
330
235
100
AcDbEntity
  8
ｴｸｽﾃﾘｱ商品
 62
    49
370
     0
100
AcDbFaceRecord
 10
0.0
 20
0.0
 30
0.0
 70
   128
 71
   144
 72
   146
 73
   122
  0
VERTEX
  5
3D1
330
235
100
AcDbEntity
  8
ｴｸｽﾃﾘｱ商品
 62
    49
370
     0
100
AcDbFaceRecord
 10
0.0
 20
0.0
 30
0.0
 70
   128
 71
   144
 72
   122
 73
   128
  0
VERTEX
  5
3D2
330
235
100
AcDbEntity
  8
ｴｸｽﾃﾘｱ商品
 62
    49
370
     0
100
AcDbFaceRecord
 10
0.0
 20
0.0
 30
0.0
 70
   128
 71
   144
 72
   128
 73
   130
  0
VERTEX
  5
3D3
330
235
100
AcDbEntity
  8
ｴｸｽﾃﾘｱ商品
 62
    49
370
     0
100
AcDbFaceRecord
 10
0.0
 20
0.0
 30
0.0
 70
   128
 71
   142
 72
   144
 73
   130
  0
VERTEX
  5
3D4
330
235
100
AcDbEntity
  8
ｴｸｽﾃﾘｱ商品
 62
    49
370
     0
100
AcDbFaceRecord
 10
0.0
 20
0.0
 30
0.0
 70
   128
 71
   120
 72
   122
 73
   146
  0
VERTEX
  5
3D5
330
235
100
AcDbEntity
  8
ｴｸｽﾃﾘｱ商品
 62
    49
370
     0
100
AcDbFaceRecord
 10
0.0
 20
0.0
 30
0.0
 70
   128
 71
   142
 72
   130
 73
   132
  0
VERTEX
  5
3D6
330
235
100
AcDbEntity
  8
ｴｸｽﾃﾘｱ商品
 62
    49
370
     0
100
AcDbFaceRecord
 10
0.0
 20
0.0
 30
0.0
 70
   128
 71
   120
 72
   146
 73
   148
  0
VERTEX
  5
3D7
330
235
100
AcDbEntity
  8
ｴｸｽﾃﾘｱ商品
 62
    49
370
     0
100
AcDbFaceRecord
 10
0.0
 20
0.0
 30
0.0
 70
   128
 71
   118
 72
   120
 73
   148
  0
VERTEX
  5
3D8
330
235
100
AcDbEntity
  8
ｴｸｽﾃﾘｱ商品
 62
    49
370
     0
100
AcDbFaceRecord
 10
0.0
 20
0.0
 30
0.0
 70
   128
 71
   139
 72
   142
 73
   132
  0
VERTEX
  5
3D9
330
235
100
AcDbEntity
  8
ｴｸｽﾃﾘｱ商品
 62
    49
370
     0
100
AcDbFaceRecord
 10
0.0
 20
0.0
 30
0.0
 70
   128
 71
   139
 72
   132
 73
   134
  0
VERTEX
  5
3DA
330
235
100
AcDbEntity
  8
ｴｸｽﾃﾘｱ商品
 62
    49
370
     0
100
AcDbFaceRecord
 10
0.0
 20
0.0
 30
0.0
 70
   128
 71
   134
 72
   136
 73
    90
  0
VERTEX
  5
3DB
330
235
100
AcDbEntity
  8
ｴｸｽﾃﾘｱ商品
 62
    49
370
     0
100
AcDbFaceRecord
 10
0.0
 20
0.0
 30
0.0
 70
   128
 71
   118
 72
   148
 73
   150
  0
VERTEX
  5
3DC
330
235
100
AcDbEntity
  8
ｴｸｽﾃﾘｱ商品
 62
    49
370
     0
100
AcDbFaceRecord
 10
0.0
 20
0.0
 30
0.0
 70
   128
 71
   140
 72
   139
 73
   134
  0
VERTEX
  5
3DD
330
235
100
AcDbEntity
  8
ｴｸｽﾃﾘｱ商品
 62
    49
370
     0
100
AcDbFaceRecord
 10
0.0
 20
0.0
 30
0.0
 70
   128
 71
   140
 72
   134
 73
    90
  0
VERTEX
  5
3DE
330
235
100
AcDbEntity
  8
ｴｸｽﾃﾘｱ商品
 62
    49
370
     0
100
AcDbFaceRecord
 10
0.0
 20
0.0
 30
0.0
 70
   128
 71
   158
 72
   140
 73
    90
  0
VERTEX
  5
3DF
330
235
100
AcDbEntity
  8
ｴｸｽﾃﾘｱ商品
 62
    49
370
     0
100
AcDbFaceRecord
 10
0.0
 20
0.0
 30
0.0
 70
   128
 71
   116
 72
   118
 73
   150
  0
VERTEX
  5
3E0
330
235
100
AcDbEntity
  8
ｴｸｽﾃﾘｱ商品
 62
    49
370
     0
100
AcDbFaceRecord
 10
0.0
 20
0.0
 30
0.0
 70
   128
 71
   158
 72
    90
 73
    89
  0
VERTEX
  5
3E1
330
235
100
AcDbEntity
  8
ｴｸｽﾃﾘｱ商品
 62
    49
370
     0
100
AcDbFaceRecord
 10
0.0
 20
0.0
 30
0.0
 70
   128
 71
   156
 72
   158
 73
    89
  0
VERTEX
  5
3E2
330
235
100
AcDbEntity
  8
ｴｸｽﾃﾘｱ商品
 62
    49
370
     0
100
AcDbFaceRecord
 10
0.0
 20
0.0
 30
0.0
 70
   128
 71
   116
 72
   150
 73
   152
  0
VERTEX
  5
3E3
330
235
100
AcDbEntity
  8
ｴｸｽﾃﾘｱ商品
 62
    49
370
     0
100
AcDbFaceRecord
 10
0.0
 20
0.0
 30
0.0
 70
   128
 71
   154
 72
   156
 73
    89
  0
VERTEX
  5
3E4
330
235
100
AcDbEntity
  8
ｴｸｽﾃﾘｱ商品
 62
    49
370
     0
100
AcDbFaceRecord
 10
0.0
 20
0.0
 30
0.0
 70
   128
 71
   154
 72
    89
 73
    92
  0
VERTEX
  5
3E5
330
235
100
AcDbEntity
  8
ｴｸｽﾃﾘｱ商品
 62
    49
370
     0
100
AcDbFaceRecord
 10
0.0
 20
0.0
 30
0.0
 70
   128
 71
   152
 72
   154
 73
    92
  0
VERTEX
  5
3E6
330
235
100
AcDbEntity
  8
ｴｸｽﾃﾘｱ商品
 62
    49
370
     0
100
AcDbFaceRecord
 10
0.0
 20
0.0
 30
0.0
 70
   128
 71
   152
 72
    92
 73
    96
  0
VERTEX
  5
3E7
330
235
100
AcDbEntity
  8
ｴｸｽﾃﾘｱ商品
 62
    49
370
     0
100
AcDbFaceRecord
 10
0.0
 20
0.0
 30
0.0
 70
   128
 71
    94
 72
    96
 73
    92
  0
VERTEX
  5
3E8
330
235
100
AcDbEntity
  8
ｴｸｽﾃﾘｱ商品
 62
    49
370
     0
100
AcDbFaceRecord
 10
0.0
 20
0.0
 30
0.0
 70
   128
 71
   114
 72
   116
 73
   152
  0
VERTEX
  5
3E9
330
235
100
AcDbEntity
  8
ｴｸｽﾃﾘｱ商品
 62
    49
370
     0
100
AcDbFaceRecord
 10
0.0
 20
0.0
 30
0.0
 70
   128
 71
   114
 72
   152
 73
    96
  0
VERTEX
  5
3EA
330
235
100
AcDbEntity
  8
ｴｸｽﾃﾘｱ商品
 62
    49
370
     0
100
AcDbFaceRecord
 10
0.0
 20
0.0
 30
0.0
 70
   128
 71
   114
 72
    96
 73
    98
  0
VERTEX
  5
3EB
330
235
100
AcDbEntity
  8
ｴｸｽﾃﾘｱ商品
 62
    49
370
     0
100
AcDbFaceRecord
 10
0.0
 20
0.0
 30
0.0
 70
   128
 71
   112
 72
   114
 73
    98
  0
VERTEX
  5
3EC
330
235
100
AcDbEntity
  8
ｴｸｽﾃﾘｱ商品
 62
    49
370
     0
100
AcDbFaceRecord
 10
0.0
 20
0.0
 30
0.0
 70
   128
 71
   112
 72
    98
 73
   100
  0
VERTEX
  5
3ED
330
235
100
AcDbEntity
  8
ｴｸｽﾃﾘｱ商品
 62
    49
370
     0
100
AcDbFaceRecord
 10
0.0
 20
0.0
 30
0.0
 70
   128
 71
   110
 72
   112
 73
   100
  0
VERTEX
  5
3EE
330
235
100
AcDbEntity
  8
ｴｸｽﾃﾘｱ商品
 62
    49
370
     0
100
AcDbFaceRecord
 10
0.0
 20
0.0
 30
0.0
 70
   128
 71
   110
 72
   100
 73
   102
  0
VERTEX
  5
3EF
330
235
100
AcDbEntity
  8
ｴｸｽﾃﾘｱ商品
 62
    49
370
     0
100
AcDbFaceRecord
 10
0.0
 20
0.0
 30
0.0
 70
   128
 71
   108
 72
   110
 73
   102
  0
VERTEX
  5
3F0
330
235
100
AcDbEntity
  8
ｴｸｽﾃﾘｱ商品
 62
    49
370
     0
100
AcDbFaceRecord
 10
0.0
 20
0.0
 30
0.0
 70
   128
 71
   108
 72
   102
 73
   104
  0
VERTEX
  5
3F1
330
235
100
AcDbEntity
  8
ｴｸｽﾃﾘｱ商品
 62
    49
370
     0
100
AcDbFaceRecord
 10
0.0
 20
0.0
 30
0.0
 70
   128
 71
   106
 72
   108
 73
   104
  0
VERTEX
  5
3F2
330
235
100
AcDbEntity
  8
ｴｸｽﾃﾘｱ商品
 62
    49
370
     0
100
AcDbFaceRecord
 10
0.0
 20
0.0
 30
0.0
 70
   128
 71
   159
 72
   160
 73
   161
 74
   162
  0
VERTEX
  5
3F3
330
235
100
AcDbEntity
  8
ｴｸｽﾃﾘｱ商品
 62
    49
370
     0
100
AcDbFaceRecord
 10
0.0
 20
0.0
 30
0.0
 70
   128
 71
   160
 72
   163
 73
   164
 74
   161
  0
VERTEX
  5
3F4
330
235
100
AcDbEntity
  8
ｴｸｽﾃﾘｱ商品
 62
    49
370
     0
100
AcDbFaceRecord
 10
0.0
 20
0.0
 30
0.0
 70
   128
 71
   163
 72
   165
 73
   166
 74
   164
  0
VERTEX
  5
3F5
330
235
100
AcDbEntity
  8
ｴｸｽﾃﾘｱ商品
 62
    49
370
     0
100
AcDbFaceRecord
 10
0.0
 20
0.0
 30
0.0
 70
   128
 71
   165
 72
   167
 73
   168
 74
   166
  0
VERTEX
  5
3F6
330
235
100
AcDbEntity
  8
ｴｸｽﾃﾘｱ商品
 62
    49
370
     0
100
AcDbFaceRecord
 10
0.0
 20
0.0
 30
0.0
 70
   128
 71
   167
 72
   169
 73
   170
 74
   168
  0
VERTEX
  5
3F7
330
235
100
AcDbEntity
  8
ｴｸｽﾃﾘｱ商品
 62
    49
370
     0
100
AcDbFaceRecord
 10
0.0
 20
0.0
 30
0.0
 70
   128
 71
   169
 72
   171
 73
   172
 74
   170
  0
VERTEX
  5
3F8
330
235
100
AcDbEntity
  8
ｴｸｽﾃﾘｱ商品
 62
    49
370
     0
100
AcDbFaceRecord
 10
0.0
 20
0.0
 30
0.0
 70
   128
 71
   171
 72
   173
 73
   174
 74
   172
  0
VERTEX
  5
3F9
330
235
100
AcDbEntity
  8
ｴｸｽﾃﾘｱ商品
 62
    49
370
     0
100
AcDbFaceRecord
 10
0.0
 20
0.0
 30
0.0
 70
   128
 71
   173
 72
   175
 73
   176
 74
   174
  0
VERTEX
  5
3FA
330
235
100
AcDbEntity
  8
ｴｸｽﾃﾘｱ商品
 62
    49
370
     0
100
AcDbFaceRecord
 10
0.0
 20
0.0
 30
0.0
 70
   128
 71
   175
 72
   177
 73
   178
 74
   176
  0
VERTEX
  5
3FB
330
235
100
AcDbEntity
  8
ｴｸｽﾃﾘｱ商品
 62
    49
370
     0
100
AcDbFaceRecord
 10
0.0
 20
0.0
 30
0.0
 70
   128
 71
   177
 72
   179
 73
   180
 74
   178
  0
VERTEX
  5
3FC
330
235
100
AcDbEntity
  8
ｴｸｽﾃﾘｱ商品
 62
    49
370
     0
100
AcDbFaceRecord
 10
0.0
 20
0.0
 30
0.0
 70
   128
 71
   179
 72
   181
 73
   182
 74
   180
  0
VERTEX
  5
3FD
330
235
100
AcDbEntity
  8
ｴｸｽﾃﾘｱ商品
 62
    49
370
     0
100
AcDbFaceRecord
 10
0.0
 20
0.0
 30
0.0
 70
   128
 71
   181
 72
   183
 73
   184
 74
   182
  0
VERTEX
  5
3FE
330
235
100
AcDbEntity
  8
ｴｸｽﾃﾘｱ商品
 62
    49
370
     0
100
AcDbFaceRecord
 10
0.0
 20
0.0
 30
0.0
 70
   128
 71
   183
 72
   185
 73
   186
 74
   184
  0
VERTEX
  5
3FF
330
235
100
AcDbEntity
  8
ｴｸｽﾃﾘｱ商品
 62
    49
370
     0
100
AcDbFaceRecord
 10
0.0
 20
0.0
 30
0.0
 70
   128
 71
   185
 72
   187
 73
   188
 74
   186
  0
VERTEX
  5
400
330
235
100
AcDbEntity
  8
ｴｸｽﾃﾘｱ商品
 62
    49
370
     0
100
AcDbFaceRecord
 10
0.0
 20
0.0
 30
0.0
 70
   128
 71
   187
 72
   189
 73
   190
 74
   188
  0
VERTEX
  5
401
330
235
100
AcDbEntity
  8
ｴｸｽﾃﾘｱ商品
 62
    49
370
     0
100
AcDbFaceRecord
 10
0.0
 20
0.0
 30
0.0
 70
   128
 71
   189
 72
   191
 73
   192
 74
   190
  0
VERTEX
  5
402
330
235
100
AcDbEntity
  8
ｴｸｽﾃﾘｱ商品
 62
    49
370
     0
100
AcDbFaceRecord
 10
0.0
 20
0.0
 30
0.0
 70
   128
 71
   191
 72
   193
 73
   194
 74
   192
  0
VERTEX
  5
403
330
235
100
AcDbEntity
  8
ｴｸｽﾃﾘｱ商品
 62
    49
370
     0
100
AcDbFaceRecord
 10
0.0
 20
0.0
 30
0.0
 70
   128
 71
   193
 72
   195
 73
   196
 74
   194
  0
VERTEX
  5
404
330
235
100
AcDbEntity
  8
ｴｸｽﾃﾘｱ商品
 62
    49
370
     0
100
AcDbFaceRecord
 10
0.0
 20
0.0
 30
0.0
 70
   128
 71
   195
 72
   197
 73
   198
 74
   196
  0
VERTEX
  5
405
330
235
100
AcDbEntity
  8
ｴｸｽﾃﾘｱ商品
 62
    49
370
     0
100
AcDbFaceRecord
 10
0.0
 20
0.0
 30
0.0
 70
   128
 71
   197
 72
   199
 73
   200
 74
   198
  0
VERTEX
  5
406
330
235
100
AcDbEntity
  8
ｴｸｽﾃﾘｱ商品
 62
    49
370
     0
100
AcDbFaceRecord
 10
0.0
 20
0.0
 30
0.0
 70
   128
 71
   199
 72
   201
 73
   202
 74
   200
  0
VERTEX
  5
407
330
235
100
AcDbEntity
  8
ｴｸｽﾃﾘｱ商品
 62
    49
370
     0
100
AcDbFaceRecord
 10
0.0
 20
0.0
 30
0.0
 70
   128
 71
   201
 72
   159
 73
   162
 74
   202
  0
VERTEX
  5
408
330
235
100
AcDbEntity
  8
ｴｸｽﾃﾘｱ商品
 62
    49
370
     0
100
AcDbFaceRecord
 10
0.0
 20
0.0
 30
0.0
 70
   128
 71
   163
 72
   160
 73
   159
  0
VERTEX
  5
409
330
235
100
AcDbEntity
  8
ｴｸｽﾃﾘｱ商品
 62
    49
370
     0
100
AcDbFaceRecord
 10
0.0
 20
0.0
 30
0.0
 70
   128
 71
   163
 72
   159
 73
   201
  0
VERTEX
  5
40A
330
235
100
AcDbEntity
  8
ｴｸｽﾃﾘｱ商品
 62
    49
370
     0
100
AcDbFaceRecord
 10
0.0
 20
0.0
 30
0.0
 70
   128
 71
   163
 72
   201
 73
   175
  0
VERTEX
  5
40B
330
235
100
AcDbEntity
  8
ｴｸｽﾃﾘｱ商品
 62
    49
370
     0
100
AcDbFaceRecord
 10
0.0
 20
0.0
 30
0.0
 70
   128
 71
   177
 72
   175
 73
   201
  0
VERTEX
  5
40C
330
235
100
AcDbEntity
  8
ｴｸｽﾃﾘｱ商品
 62
    49
370
     0
100
AcDbFaceRecord
 10
0.0
 20
0.0
 30
0.0
 70
   128
 71
   179
 72
   177
 73
   201
  0
VERTEX
  5
40D
330
235
100
AcDbEntity
  8
ｴｸｽﾃﾘｱ商品
 62
    49
370
     0
100
AcDbFaceRecord
 10
0.0
 20
0.0
 30
0.0
 70
   128
 71
   163
 72
   175
 73
   173
  0
VERTEX
  5
40E
330
235
100
AcDbEntity
  8
ｴｸｽﾃﾘｱ商品
 62
    49
370
     0
100
AcDbFaceRecord
 10
0.0
 20
0.0
 30
0.0
 70
   128
 71
   179
 72
   201
 73
   199
  0
VERTEX
  5
40F
330
235
100
AcDbEntity
  8
ｴｸｽﾃﾘｱ商品
 62
    49
370
     0
100
AcDbFaceRecord
 10
0.0
 20
0.0
 30
0.0
 70
   128
 71
   165
 72
   163
 73
   173
  0
VERTEX
  5
410
330
235
100
AcDbEntity
  8
ｴｸｽﾃﾘｱ商品
 62
    49
370
     0
100
AcDbFaceRecord
 10
0.0
 20
0.0
 30
0.0
 70
   128
 71
   181
 72
   179
 73
   199
  0
VERTEX
  5
411
330
235
100
AcDbEntity
  8
ｴｸｽﾃﾘｱ商品
 62
    49
370
     0
100
AcDbFaceRecord
 10
0.0
 20
0.0
 30
0.0
 70
   128
 71
   165
 72
   173
 73
   171
  0
VERTEX
  5
412
330
235
100
AcDbEntity
  8
ｴｸｽﾃﾘｱ商品
 62
    49
370
     0
100
AcDbFaceRecord
 10
0.0
 20
0.0
 30
0.0
 70
   128
 71
   181
 72
   199
 73
   197
  0
VERTEX
  5
413
330
235
100
AcDbEntity
  8
ｴｸｽﾃﾘｱ商品
 62
    49
370
     0
100
AcDbFaceRecord
 10
0.0
 20
0.0
 30
0.0
 70
   128
 71
   183
 72
   181
 73
   197
  0
VERTEX
  5
414
330
235
100
AcDbEntity
  8
ｴｸｽﾃﾘｱ商品
 62
    49
370
     0
100
AcDbFaceRecord
 10
0.0
 20
0.0
 30
0.0
 70
   128
 71
   165
 72
   171
 73
   169
  0
VERTEX
  5
415
330
235
100
AcDbEntity
  8
ｴｸｽﾃﾘｱ商品
 62
    49
370
     0
100
AcDbFaceRecord
 10
0.0
 20
0.0
 30
0.0
 70
   128
 71
   167
 72
   165
 73
   169
  0
VERTEX
  5
416
330
235
100
AcDbEntity
  8
ｴｸｽﾃﾘｱ商品
 62
    49
370
     0
100
AcDbFaceRecord
 10
0.0
 20
0.0
 30
0.0
 70
   128
 71
   185
 72
   183
 73
   197
  0
VERTEX
  5
417
330
235
100
AcDbEntity
  8
ｴｸｽﾃﾘｱ商品
 62
    49
370
     0
100
AcDbFaceRecord
 10
0.0
 20
0.0
 30
0.0
 70
   128
 71
   187
 72
   185
 73
   197
  0
VERTEX
  5
418
330
235
100
AcDbEntity
  8
ｴｸｽﾃﾘｱ商品
 62
    49
370
     0
100
AcDbFaceRecord
 10
0.0
 20
0.0
 30
0.0
 70
   128
 71
   187
 72
   197
 73
   195
  0
VERTEX
  5
419
330
235
100
AcDbEntity
  8
ｴｸｽﾃﾘｱ商品
 62
    49
370
     0
100
AcDbFaceRecord
 10
0.0
 20
0.0
 30
0.0
 70
   128
 71
   189
 72
   187
 73
   195
  0
VERTEX
  5
41A
330
235
100
AcDbEntity
  8
ｴｸｽﾃﾘｱ商品
 62
    49
370
     0
100
AcDbFaceRecord
 10
0.0
 20
0.0
 30
0.0
 70
   128
 71
   191
 72
   189
 73
   195
  0
VERTEX
  5
41B
330
235
100
AcDbEntity
  8
ｴｸｽﾃﾘｱ商品
 62
    49
370
     0
100
AcDbFaceRecord
 10
0.0
 20
0.0
 30
0.0
 70
   128
 71
   193
 72
   191
 73
   195
  0
VERTEX
  5
41C
330
235
100
AcDbEntity
  8
ｴｸｽﾃﾘｱ商品
 62
    49
370
     0
100
AcDbFaceRecord
 10
0.0
 20
0.0
 30
0.0
 70
   128
 71
   162
 72
   161
 73
   164
  0
VERTEX
  5
41D
330
235
100
AcDbEntity
  8
ｴｸｽﾃﾘｱ商品
 62
    49
370
     0
100
AcDbFaceRecord
 10
0.0
 20
0.0
 30
0.0
 70
   128
 71
   202
 72
   162
 73
   164
  0
VERTEX
  5
41E
330
235
100
AcDbEntity
  8
ｴｸｽﾃﾘｱ商品
 62
    49
370
     0
100
AcDbFaceRecord
 10
0.0
 20
0.0
 30
0.0
 70
   128
 71
   176
 72
   202
 73
   164
  0
VERTEX
  5
41F
330
235
100
AcDbEntity
  8
ｴｸｽﾃﾘｱ商品
 62
    49
370
     0
100
AcDbFaceRecord
 10
0.0
 20
0.0
 30
0.0
 70
   128
 71
   202
 72
   176
 73
   178
  0
VERTEX
  5
420
330
235
100
AcDbEntity
  8
ｴｸｽﾃﾘｱ商品
 62
    49
370
     0
100
AcDbFaceRecord
 10
0.0
 20
0.0
 30
0.0
 70
   128
 71
   202
 72
   178
 73
   180
  0
VERTEX
  5
421
330
235
100
AcDbEntity
  8
ｴｸｽﾃﾘｱ商品
 62
    49
370
     0
100
AcDbFaceRecord
 10
0.0
 20
0.0
 30
0.0
 70
   128
 71
   174
 72
   176
 73
   164
  0
VERTEX
  5
422
330
235
100
AcDbEntity
  8
ｴｸｽﾃﾘｱ商品
 62
    49
370
     0
100
AcDbFaceRecord
 10
0.0
 20
0.0
 30
0.0
 70
   128
 71
   200
 72
   202
 73
   180
  0
VERTEX
  5
423
330
235
100
AcDbEntity
  8
ｴｸｽﾃﾘｱ商品
 62
    49
370
     0
100
AcDbFaceRecord
 10
0.0
 20
0.0
 30
0.0
 70
   128
 71
   174
 72
   164
 73
   166
  0
VERTEX
  5
424
330
235
100
AcDbEntity
  8
ｴｸｽﾃﾘｱ商品
 62
    49
370
     0
100
AcDbFaceRecord
 10
0.0
 20
0.0
 30
0.0
 70
   128
 71
   200
 72
   180
 73
   182
  0
VERTEX
  5
425
330
235
100
AcDbEntity
  8
ｴｸｽﾃﾘｱ商品
 62
    49
370
     0
100
AcDbFaceRecord
 10
0.0
 20
0.0
 30
0.0
 70
   128
 71
   172
 72
   174
 73
   166
  0
VERTEX
  5
426
330
235
100
AcDbEntity
  8
ｴｸｽﾃﾘｱ商品
 62
    49
370
     0
100
AcDbFaceRecord
 10
0.0
 20
0.0
 30
0.0
 70
   128
 71
   198
 72
   200
 73
   182
  0
VERTEX
  5
427
330
235
100
AcDbEntity
  8
ｴｸｽﾃﾘｱ商品
 62
    49
370
     0
100
AcDbFaceRecord
 10
0.0
 20
0.0
 30
0.0
 70
   128
 71
   198
 72
   182
 73
   184
  0
VERTEX
  5
428
330
235
100
AcDbEntity
  8
ｴｸｽﾃﾘｱ商品
 62
    49
370
     0
100
AcDbFaceRecord
 10
0.0
 20
0.0
 30
0.0
 70
   128
 71
   170
 72
   172
 73
   166
  0
VERTEX
  5
429
330
235
100
AcDbEntity
  8
ｴｸｽﾃﾘｱ商品
 62
    49
370
     0
100
AcDbFaceRecord
 10
0.0
 20
0.0
 30
0.0
 70
   128
 71
   168
 72
   170
 73
   166
  0
VERTEX
  5
42A
330
235
100
AcDbEntity
  8
ｴｸｽﾃﾘｱ商品
 62
    49
370
     0
100
AcDbFaceRecord
 10
0.0
 20
0.0
 30
0.0
 70
   128
 71
   198
 72
   184
 73
   186
  0
VERTEX
  5
42B
330
235
100
AcDbEntity
  8
ｴｸｽﾃﾘｱ商品
 62
    49
370
     0
100
AcDbFaceRecord
 10
0.0
 20
0.0
 30
0.0
 70
   128
 71
   198
 72
   186
 73
   188
  0
VERTEX
  5
42C
330
235
100
AcDbEntity
  8
ｴｸｽﾃﾘｱ商品
 62
    49
370
     0
100
AcDbFaceRecord
 10
0.0
 20
0.0
 30
0.0
 70
   128
 71
   196
 72
   198
 73
   188
  0
VERTEX
  5
42D
330
235
100
AcDbEntity
  8
ｴｸｽﾃﾘｱ商品
 62
    49
370
     0
100
AcDbFaceRecord
 10
0.0
 20
0.0
 30
0.0
 70
   128
 71
   196
 72
   188
 73
   190
  0
VERTEX
  5
42E
330
235
100
AcDbEntity
  8
ｴｸｽﾃﾘｱ商品
 62
    49
370
     0
100
AcDbFaceRecord
 10
0.0
 20
0.0
 30
0.0
 70
   128
 71
   196
 72
   190
 73
   192
  0
VERTEX
  5
42F
330
235
100
AcDbEntity
  8
ｴｸｽﾃﾘｱ商品
 62
    49
370
     0
100
AcDbFaceRecord
 10
0.0
 20
0.0
 30
0.0
 70
   128
 71
   194
 72
   196
 73
   192
  0
VERTEX
  5
430
330
235
100
AcDbEntity
  8
ｴｸｽﾃﾘｱ商品
 62
    49
370
     0
100
AcDbFaceRecord
 10
0.0
 20
0.0
 30
0.0
 70
   128
 71
   203
 72
   204
 73
   205
 74
   206
  0
VERTEX
  5
431
330
235
100
AcDbEntity
  8
ｴｸｽﾃﾘｱ商品
 62
    49
370
     0
100
AcDbFaceRecord
 10
0.0
 20
0.0
 30
0.0
 70
   128
 71
   204
 72
   207
 73
   208
 74
   205
  0
VERTEX
  5
432
330
235
100
AcDbEntity
  8
ｴｸｽﾃﾘｱ商品
 62
    49
370
     0
100
AcDbFaceRecord
 10
0.0
 20
0.0
 30
0.0
 70
   128
 71
   207
 72
   209
 73
   210
 74
   208
  0
VERTEX
  5
433
330
235
100
AcDbEntity
  8
ｴｸｽﾃﾘｱ商品
 62
    49
370
     0
100
AcDbFaceRecord
 10
0.0
 20
0.0
 30
0.0
 70
   128
 71
   209
 72
   211
 73
   212
 74
   210
  0
VERTEX
  5
434
330
235
100
AcDbEntity
  8
ｴｸｽﾃﾘｱ商品
 62
    49
370
     0
100
AcDbFaceRecord
 10
0.0
 20
0.0
 30
0.0
 70
   128
 71
   211
 72
   213
 73
   214
 74
   212
  0
VERTEX
  5
435
330
235
100
AcDbEntity
  8
ｴｸｽﾃﾘｱ商品
 62
    49
370
     0
100
AcDbFaceRecord
 10
0.0
 20
0.0
 30
0.0
 70
   128
 71
   213
 72
   215
 73
   216
 74
   214
  0
VERTEX
  5
436
330
235
100
AcDbEntity
  8
ｴｸｽﾃﾘｱ商品
 62
    49
370
     0
100
AcDbFaceRecord
 10
0.0
 20
0.0
 30
0.0
 70
   128
 71
   215
 72
   217
 73
   218
 74
   216
  0
VERTEX
  5
437
330
235
100
AcDbEntity
  8
ｴｸｽﾃﾘｱ商品
 62
    49
370
     0
100
AcDbFaceRecord
 10
0.0
 20
0.0
 30
0.0
 70
   128
 71
   217
 72
   219
 73
   220
 74
   218
  0
VERTEX
  5
438
330
235
100
AcDbEntity
  8
ｴｸｽﾃﾘｱ商品
 62
    49
370
     0
100
AcDbFaceRecord
 10
0.0
 20
0.0
 30
0.0
 70
   128
 71
   219
 72
   221
 73
   222
 74
   220
  0
VERTEX
  5
439
330
235
100
AcDbEntity
  8
ｴｸｽﾃﾘｱ商品
 62
    49
370
     0
100
AcDbFaceRecord
 10
0.0
 20
0.0
 30
0.0
 70
   128
 71
   221
 72
   223
 73
   224
 74
   222
  0
VERTEX
  5
43A
330
235
100
AcDbEntity
  8
ｴｸｽﾃﾘｱ商品
 62
    49
370
     0
100
AcDbFaceRecord
 10
0.0
 20
0.0
 30
0.0
 70
   128
 71
   223
 72
   225
 73
   226
 74
   224
  0
VERTEX
  5
43B
330
235
100
AcDbEntity
  8
ｴｸｽﾃﾘｱ商品
 62
    49
370
     0
100
AcDbFaceRecord
 10
0.0
 20
0.0
 30
0.0
 70
   128
 71
   225
 72
   227
 73
   228
 74
   226
  0
VERTEX
  5
43C
330
235
100
AcDbEntity
  8
ｴｸｽﾃﾘｱ商品
 62
    49
370
     0
100
AcDbFaceRecord
 10
0.0
 20
0.0
 30
0.0
 70
   128
 71
   227
 72
   229
 73
   230
 74
   228
  0
VERTEX
  5
43D
330
235
100
AcDbEntity
  8
ｴｸｽﾃﾘｱ商品
 62
    49
370
     0
100
AcDbFaceRecord
 10
0.0
 20
0.0
 30
0.0
 70
   128
 71
   229
 72
   231
 73
   232
 74
   230
  0
VERTEX
  5
43E
330
235
100
AcDbEntity
  8
ｴｸｽﾃﾘｱ商品
 62
    49
370
     0
100
AcDbFaceRecord
 10
0.0
 20
0.0
 30
0.0
 70
   128
 71
   231
 72
   233
 73
   234
 74
   232
  0
VERTEX
  5
43F
330
235
100
AcDbEntity
  8
ｴｸｽﾃﾘｱ商品
 62
    49
370
     0
100
AcDbFaceRecord
 10
0.0
 20
0.0
 30
0.0
 70
   128
 71
   233
 72
   235
 73
   236
 74
   234
  0
VERTEX
  5
440
330
235
100
AcDbEntity
  8
ｴｸｽﾃﾘｱ商品
 62
    49
370
     0
100
AcDbFaceRecord
 10
0.0
 20
0.0
 30
0.0
 70
   128
 71
   235
 72
   237
 73
   238
 74
   236
  0
VERTEX
  5
441
330
235
100
AcDbEntity
  8
ｴｸｽﾃﾘｱ商品
 62
    49
370
     0
100
AcDbFaceRecord
 10
0.0
 20
0.0
 30
0.0
 70
   128
 71
   237
 72
   239
 73
   240
 74
   238
  0
VERTEX
  5
442
330
235
100
AcDbEntity
  8
ｴｸｽﾃﾘｱ商品
 62
    49
370
     0
100
AcDbFaceRecord
 10
0.0
 20
0.0
 30
0.0
 70
   128
 71
   239
 72
   203
 73
   206
 74
   240
  0
VERTEX
  5
443
330
235
100
AcDbEntity
  8
ｴｸｽﾃﾘｱ商品
 62
    49
370
     0
100
AcDbFaceRecord
 10
0.0
 20
0.0
 30
0.0
 70
   128
 71
   231
 72
   229
 73
   227
  0
VERTEX
  5
444
330
235
100
AcDbEntity
  8
ｴｸｽﾃﾘｱ商品
 62
    49
370
     0
100
AcDbFaceRecord
 10
0.0
 20
0.0
 30
0.0
 70
   128
 71
   233
 72
   231
 73
   227
  0
VERTEX
  5
445
330
235
100
AcDbEntity
  8
ｴｸｽﾃﾘｱ商品
 62
    49
370
     0
100
AcDbFaceRecord
 10
0.0
 20
0.0
 30
0.0
 70
   128
 71
   233
 72
   227
 73
   225
  0
VERTEX
  5
446
330
235
100
AcDbEntity
  8
ｴｸｽﾃﾘｱ商品
 62
    49
370
     0
100
AcDbFaceRecord
 10
0.0
 20
0.0
 30
0.0
 70
   128
 71
   235
 72
   233
 73
   225
  0
VERTEX
  5
447
330
235
100
AcDbEntity
  8
ｴｸｽﾃﾘｱ商品
 62
    49
370
     0
100
AcDbFaceRecord
 10
0.0
 20
0.0
 30
0.0
 70
   128
 71
   237
 72
   235
 73
   225
  0
VERTEX
  5
448
330
235
100
AcDbEntity
  8
ｴｸｽﾃﾘｱ商品
 62
    49
370
     0
100
AcDbFaceRecord
 10
0.0
 20
0.0
 30
0.0
 70
   128
 71
   237
 72
   225
 73
   223
  0
VERTEX
  5
449
330
235
100
AcDbEntity
  8
ｴｸｽﾃﾘｱ商品
 62
    49
370
     0
100
AcDbFaceRecord
 10
0.0
 20
0.0
 30
0.0
 70
   128
 71
   239
 72
   237
 73
   223
  0
VERTEX
  5
44A
330
235
100
AcDbEntity
  8
ｴｸｽﾃﾘｱ商品
 62
    49
370
     0
100
AcDbFaceRecord
 10
0.0
 20
0.0
 30
0.0
 70
   128
 71
   203
 72
   239
 73
   223
  0
VERTEX
  5
44B
330
235
100
AcDbEntity
  8
ｴｸｽﾃﾘｱ商品
 62
    49
370
     0
100
AcDbFaceRecord
 10
0.0
 20
0.0
 30
0.0
 70
   128
 71
   203
 72
   223
 73
   221
  0
VERTEX
  5
44C
330
235
100
AcDbEntity
  8
ｴｸｽﾃﾘｱ商品
 62
    49
370
     0
100
AcDbFaceRecord
 10
0.0
 20
0.0
 30
0.0
 70
   128
 71
   204
 72
   203
 73
   221
  0
VERTEX
  5
44D
330
235
100
AcDbEntity
  8
ｴｸｽﾃﾘｱ商品
 62
    49
370
     0
100
AcDbFaceRecord
 10
0.0
 20
0.0
 30
0.0
 70
   128
 71
   207
 72
   204
 73
   221
  0
VERTEX
  5
44E
330
235
100
AcDbEntity
  8
ｴｸｽﾃﾘｱ商品
 62
    49
370
     0
100
AcDbFaceRecord
 10
0.0
 20
0.0
 30
0.0
 70
   128
 71
   209
 72
   207
 73
   221
  0
VERTEX
  5
44F
330
235
100
AcDbEntity
  8
ｴｸｽﾃﾘｱ商品
 62
    49
370
     0
100
AcDbFaceRecord
 10
0.0
 20
0.0
 30
0.0
 70
   128
 71
   211
 72
   209
 73
   221
  0
VERTEX
  5
450
330
235
100
AcDbEntity
  8
ｴｸｽﾃﾘｱ商品
 62
    49
370
     0
100
AcDbFaceRecord
 10
0.0
 20
0.0
 30
0.0
 70
   128
 71
   211
 72
   221
 73
   219
  0
VERTEX
  5
451
330
235
100
AcDbEntity
  8
ｴｸｽﾃﾘｱ商品
 62
    49
370
     0
100
AcDbFaceRecord
 10
0.0
 20
0.0
 30
0.0
 70
   128
 71
   213
 72
   211
 73
   219
  0
VERTEX
  5
452
330
235
100
AcDbEntity
  8
ｴｸｽﾃﾘｱ商品
 62
    49
370
     0
100
AcDbFaceRecord
 10
0.0
 20
0.0
 30
0.0
 70
   128
 71
   215
 72
   213
 73
   219
  0
VERTEX
  5
453
330
235
100
AcDbEntity
  8
ｴｸｽﾃﾘｱ商品
 62
    49
370
     0
100
AcDbFaceRecord
 10
0.0
 20
0.0
 30
0.0
 70
   128
 71
   217
 72
   215
 73
   219
  0
VERTEX
  5
454
330
235
100
AcDbEntity
  8
ｴｸｽﾃﾘｱ商品
 62
    49
370
     0
100
AcDbFaceRecord
 10
0.0
 20
0.0
 30
0.0
 70
   128
 71
   228
 72
   230
 73
   232
  0
VERTEX
  5
455
330
235
100
AcDbEntity
  8
ｴｸｽﾃﾘｱ商品
 62
    49
370
     0
100
AcDbFaceRecord
 10
0.0
 20
0.0
 30
0.0
 70
   128
 71
   228
 72
   232
 73
   234
  0
VERTEX
  5
456
330
235
100
AcDbEntity
  8
ｴｸｽﾃﾘｱ商品
 62
    49
370
     0
100
AcDbFaceRecord
 10
0.0
 20
0.0
 30
0.0
 70
   128
 71
   226
 72
   228
 73
   234
  0
VERTEX
  5
457
330
235
100
AcDbEntity
  8
ｴｸｽﾃﾘｱ商品
 62
    49
370
     0
100
AcDbFaceRecord
 10
0.0
 20
0.0
 30
0.0
 70
   128
 71
   226
 72
   234
 73
   236
  0
VERTEX
  5
458
330
235
100
AcDbEntity
  8
ｴｸｽﾃﾘｱ商品
 62
    49
370
     0
100
AcDbFaceRecord
 10
0.0
 20
0.0
 30
0.0
 70
   128
 71
   224
 72
   226
 73
   236
  0
VERTEX
  5
459
330
235
100
AcDbEntity
  8
ｴｸｽﾃﾘｱ商品
 62
    49
370
     0
100
AcDbFaceRecord
 10
0.0
 20
0.0
 30
0.0
 70
   128
 71
   224
 72
   236
 73
   238
  0
VERTEX
  5
45A
330
235
100
AcDbEntity
  8
ｴｸｽﾃﾘｱ商品
 62
    49
370
     0
100
AcDbFaceRecord
 10
0.0
 20
0.0
 30
0.0
 70
   128
 71
   224
 72
   238
 73
   240
  0
VERTEX
  5
45B
330
235
100
AcDbEntity
  8
ｴｸｽﾃﾘｱ商品
 62
    49
370
     0
100
AcDbFaceRecord
 10
0.0
 20
0.0
 30
0.0
 70
   128
 71
   224
 72
   240
 73
   206
  0
VERTEX
  5
45C
330
235
100
AcDbEntity
  8
ｴｸｽﾃﾘｱ商品
 62
    49
370
     0
100
AcDbFaceRecord
 10
0.0
 20
0.0
 30
0.0
 70
   128
 71
   222
 72
   224
 73
   206
  0
VERTEX
  5
45D
330
235
100
AcDbEntity
  8
ｴｸｽﾃﾘｱ商品
 62
    49
370
     0
100
AcDbFaceRecord
 10
0.0
 20
0.0
 30
0.0
 70
   128
 71
   222
 72
   206
 73
   205
  0
VERTEX
  5
45E
330
235
100
AcDbEntity
  8
ｴｸｽﾃﾘｱ商品
 62
    49
370
     0
100
AcDbFaceRecord
 10
0.0
 20
0.0
 30
0.0
 70
   128
 71
   222
 72
   205
 73
   208
  0
VERTEX
  5
45F
330
235
100
AcDbEntity
  8
ｴｸｽﾃﾘｱ商品
 62
    49
370
     0
100
AcDbFaceRecord
 10
0.0
 20
0.0
 30
0.0
 70
   128
 71
   222
 72
   208
 73
   210
  0
VERTEX
  5
460
330
235
100
AcDbEntity
  8
ｴｸｽﾃﾘｱ商品
 62
    49
370
     0
100
AcDbFaceRecord
 10
0.0
 20
0.0
 30
0.0
 70
   128
 71
   222
 72
   210
 73
   212
  0
VERTEX
  5
461
330
235
100
AcDbEntity
  8
ｴｸｽﾃﾘｱ商品
 62
    49
370
     0
100
AcDbFaceRecord
 10
0.0
 20
0.0
 30
0.0
 70
   128
 71
   220
 72
   222
 73
   212
  0
VERTEX
  5
462
330
235
100
AcDbEntity
  8
ｴｸｽﾃﾘｱ商品
 62
    49
370
     0
100
AcDbFaceRecord
 10
0.0
 20
0.0
 30
0.0
 70
   128
 71
   220
 72
   212
 73
   214
  0
VERTEX
  5
463
330
235
100
AcDbEntity
  8
ｴｸｽﾃﾘｱ商品
 62
    49
370
     0
100
AcDbFaceRecord
 10
0.0
 20
0.0
 30
0.0
 70
   128
 71
   220
 72
   214
 73
   216
  0
VERTEX
  5
464
330
235
100
AcDbEntity
  8
ｴｸｽﾃﾘｱ商品
 62
    49
370
     0
100
AcDbFaceRecord
 10
0.0
 20
0.0
 30
0.0
 70
   128
 71
   218
 72
   220
 73
   216
  0
VERTEX
  5
465
330
235
100
AcDbEntity
  8
ｴｸｽﾃﾘｱ商品
 62
   253
370
    20
100
AcDbFaceRecord
 10
0.0
 20
0.0
 30
0.0
 70
   128
 71
   241
 72
   242
 73
   243
 74
   244
  0
VERTEX
  5
466
330
235
100
AcDbEntity
  8
ｴｸｽﾃﾘｱ商品
 62
   253
370
    20
100
AcDbFaceRecord
 10
0.0
 20
0.0
 30
0.0
 70
   128
 71
   245
 72
   246
 73
   247
 74
   248
  0
VERTEX
  5
467
330
235
100
AcDbEntity
  8
ｴｸｽﾃﾘｱ商品
 62
   253
370
    20
100
AcDbFaceRecord
 10
0.0
 20
0.0
 30
0.0
 70
   128
 71
   242
 72
   241
 73
   246
 74
   245
  0
VERTEX
  5
468
330
235
100
AcDbEntity
  8
ｴｸｽﾃﾘｱ商品
 62
   253
370
    20
100
AcDbFaceRecord
 10
0.0
 20
0.0
 30
0.0
 70
   128
 71
   241
 72
   244
 73
   247
 74
   246
  0
VERTEX
  5
469
330
235
100
AcDbEntity
  8
ｴｸｽﾃﾘｱ商品
 62
   253
370
    20
100
AcDbFaceRecord
 10
0.0
 20
0.0
 30
0.0
 70
   128
 71
   244
 72
   243
 73
   248
 74
   247
  0
VERTEX
  5
46A
330
235
100
AcDbEntity
  8
ｴｸｽﾃﾘｱ商品
 62
   253
370
    20
100
AcDbFaceRecord
 10
0.0
 20
0.0
 30
0.0
 70
   128
 71
   243
 72
   242
 73
   245
 74
   248
  0
SEQEND
  5
236
330
235
100
AcDbEntity
  8
ｴｸｽﾃﾘｱ商品
370
     0
  0
POLYLINE
  5
46B
330
3C
100
AcDbEntity
  8
ｴｸｽﾃﾘｱ商品
 62
   253
370
    20
100
AcDbPolyFaceMesh
 66
     1
 10
0.0
 20
0.0
 30
0.0
 70
    64
 71
     8
 72
     6
  0
VERTEX
  5
46D
330
46B
100
AcDbEntity
  8
ｴｸｽﾃﾘｱ商品
 62
   253
370
    20
100
AcDbVertex
100
AcDbPolyFaceMeshVertex
 10
-130.5
 20
-52.10000000000001
 30
954.0000000000001
 70
   192
  0
VERTEX
  5
46E
330
46B
100
AcDbEntity
  8
ｴｸｽﾃﾘｱ商品
 62
   253
370
    20
100
AcDbVertex
100
AcDbPolyFaceMeshVertex
 10
-190.5
 20
-52.10000000000001
 30
954.0000000000001
 70
   192
  0
VERTEX
  5
46F
330
46B
100
AcDbEntity
  8
ｴｸｽﾃﾘｱ商品
 62
   253
370
    20
100
AcDbVertex
100
AcDbPolyFaceMeshVertex
 10
-190.5
 20
-51.10000000000001
 30
954.0000000000001
 70
   192
  0
VERTEX
  5
470
330
46B
100
AcDbEntity
  8
ｴｸｽﾃﾘｱ商品
 62
   253
370
    20
100
AcDbVertex
100
AcDbPolyFaceMeshVertex
 10
-130.5
 20
-51.10000000000001
 30
954.0000000000001
 70
   192
  0
VERTEX
  5
471
330
46B
100
AcDbEntity
  8
ｴｸｽﾃﾘｱ商品
 62
   253
370
    20
100
AcDbVertex
100
AcDbPolyFaceMeshVertex
 10
-190.5
 20
-52.10000000000001
 30
964.0000000000001
 70
   192
  0
VERTEX
  5
472
330
46B
100
AcDbEntity
  8
ｴｸｽﾃﾘｱ商品
 62
   253
370
    20
100
AcDbVertex
100
AcDbPolyFaceMeshVertex
 10
-130.5
 20
-52.10000000000001
 30
964.0000000000001
 70
   192
  0
VERTEX
  5
473
330
46B
100
AcDbEntity
  8
ｴｸｽﾃﾘｱ商品
 62
   253
370
    20
100
AcDbVertex
100
AcDbPolyFaceMeshVertex
 10
-130.5
 20
-51.10000000000001
 30
964.0000000000001
 70
   192
  0
VERTEX
  5
474
330
46B
100
AcDbEntity
  8
ｴｸｽﾃﾘｱ商品
 62
   253
370
    20
100
AcDbVertex
100
AcDbPolyFaceMeshVertex
 10
-190.5
 20
-51.10000000000001
 30
964.0000000000001
 70
   192
  0
VERTEX
  5
475
330
46B
100
AcDbEntity
  8
ｴｸｽﾃﾘｱ商品
 62
   253
370
    20
100
AcDbFaceRecord
 10
0.0
 20
0.0
 30
0.0
 70
   128
 71
     1
 72
     2
 73
     3
 74
     4
  0
VERTEX
  5
476
330
46B
100
AcDbEntity
  8
ｴｸｽﾃﾘｱ商品
 62
   253
370
    20
100
AcDbFaceRecord
 10
0.0
 20
0.0
 30
0.0
 70
   128
 71
     5
 72
     6
 73
     7
 74
     8
  0
VERTEX
  5
477
330
46B
100
AcDbEntity
  8
ｴｸｽﾃﾘｱ商品
 62
   253
370
    20
100
AcDbFaceRecord
 10
0.0
 20
0.0
 30
0.0
 70
   128
 71
     2
 72
     1
 73
     6
 74
     5
  0
VERTEX
  5
478
330
46B
100
AcDbEntity
  8
ｴｸｽﾃﾘｱ商品
 62
   253
370
    20
100
AcDbFaceRecord
 10
0.0
 20
0.0
 30
0.0
 70
   128
 71
     1
 72
     4
 73
     7
 74
     6
  0
VERTEX
  5
479
330
46B
100
AcDbEntity
  8
ｴｸｽﾃﾘｱ商品
 62
   253
370
    20
100
AcDbFaceRecord
 10
0.0
 20
0.0
 30
0.0
 70
   128
 71
     4
 72
     3
 73
     8
 74
     7
  0
VERTEX
  5
47A
330
46B
100
AcDbEntity
  8
ｴｸｽﾃﾘｱ商品
 62
   253
370
    20
100
AcDbFaceRecord
 10
0.0
 20
0.0
 30
0.0
 70
   128
 71
     3
 72
     2
 73
     5
 74
     8
  0
SEQEND
  5
46C
330
46B
100
AcDbEntity
  8
ｴｸｽﾃﾘｱ商品
370
    20
  0
POLYLINE
  5
47B
330
3C
100
AcDbEntity
  8
ｴｸｽﾃﾘｱ商品
 62
   253
370
    20
100
AcDbPolyFaceMesh
 66
     1
 10
0.0
 20
0.0
 30
0.0
 70
    64
 71
     8
 72
     6
  0
VERTEX
  5
47D
330
47B
100
AcDbEntity
  8
ｴｸｽﾃﾘｱ商品
 62
   253
370
    20
100
AcDbVertex
100
AcDbPolyFaceMeshVertex
 10
-40.49999999999998
 20
-52.10000000000001
 30
447.0000000000001
 70
   192
  0
VERTEX
  5
47E
330
47B
100
AcDbEntity
  8
ｴｸｽﾃﾘｱ商品
 62
   253
370
    20
100
AcDbVertex
100
AcDbPolyFaceMeshVertex
 10
-190.5
 20
-52.10000000000001
 30
447.0000000000001
 70
   192
  0
VERTEX
  5
47F
330
47B
100
AcDbEntity
  8
ｴｸｽﾃﾘｱ商品
 62
   253
370
    20
100
AcDbVertex
100
AcDbPolyFaceMeshVertex
 10
-190.5
 20
-51.10000000000001
 30
447.0000000000001
 70
   192
  0
VERTEX
  5
480
330
47B
100
AcDbEntity
  8
ｴｸｽﾃﾘｱ商品
 62
   253
370
    20
100
AcDbVertex
100
AcDbPolyFaceMeshVertex
 10
-40.49999999999998
 20
-51.10000000000001
 30
447.0000000000001
 70
   192
  0
VERTEX
  5
481
330
47B
100
AcDbEntity
  8
ｴｸｽﾃﾘｱ商品
 62
   253
370
    20
100
AcDbVertex
100
AcDbPolyFaceMeshVertex
 10
-190.5
 20
-52.10000000000001
 30
465.0000000000001
 70
   192
  0
VERTEX
  5
482
330
47B
100
AcDbEntity
  8
ｴｸｽﾃﾘｱ商品
 62
   253
370
    20
100
AcDbVertex
100
AcDbPolyFaceMeshVertex
 10
-40.49999999999998
 20
-52.10000000000001
 30
465.0000000000001
 70
   192
  0
VERTEX
  5
483
330
47B
100
AcDbEntity
  8
ｴｸｽﾃﾘｱ商品
 62
   253
370
    20
100
AcDbVertex
100
AcDbPolyFaceMeshVertex
 10
-40.49999999999998
 20
-51.10000000000001
 30
465.0000000000001
 70
   192
  0
VERTEX
  5
484
330
47B
100
AcDbEntity
  8
ｴｸｽﾃﾘｱ商品
 62
   253
370
    20
100
AcDbVertex
100
AcDbPolyFaceMeshVertex
 10
-190.5
 20
-51.10000000000001
 30
465.0000000000001
 70
   192
  0
VERTEX
  5
485
330
47B
100
AcDbEntity
  8
ｴｸｽﾃﾘｱ商品
 62
   253
370
    20
100
AcDbFaceRecord
 10
0.0
 20
0.0
 30
0.0
 70
   128
 71
     1
 72
     2
 73
     3
 74
     4
  0
VERTEX
  5
486
330
47B
100
AcDbEntity
  8
ｴｸｽﾃﾘｱ商品
 62
   253
370
    20
100
AcDbFaceRecord
 10
0.0
 20
0.0
 30
0.0
 70
   128
 71
     5
 72
     6
 73
     7
 74
     8
  0
VERTEX
  5
487
330
47B
100
AcDbEntity
  8
ｴｸｽﾃﾘｱ商品
 62
   253
370
    20
100
AcDbFaceRecord
 10
0.0
 20
0.0
 30
0.0
 70
   128
 71
     2
 72
     1
 73
     6
 74
     5
  0
VERTEX
  5
488
330
47B
100
AcDbEntity
  8
ｴｸｽﾃﾘｱ商品
 62
   253
370
    20
100
AcDbFaceRecord
 10
0.0
 20
0.0
 30
0.0
 70
   128
 71
     1
 72
     4
 73
     7
 74
     6
  0
VERTEX
  5
489
330
47B
100
AcDbEntity
  8
ｴｸｽﾃﾘｱ商品
 62
   253
370
    20
100
AcDbFaceRecord
 10
0.0
 20
0.0
 30
0.0
 70
   128
 71
     4
 72
     3
 73
     8
 74
     7
  0
VERTEX
  5
48A
330
47B
100
AcDbEntity
  8
ｴｸｽﾃﾘｱ商品
 62
   253
370
    20
100
AcDbFaceRecord
 10
0.0
 20
0.0
 30
0.0
 70
   128
 71
     3
 72
     2
 73
     5
 74
     8
  0
SEQEND
  5
47C
330
47B
100
AcDbEntity
  8
ｴｸｽﾃﾘｱ商品
370
    20
  0
POLYLINE
  5
48B
330
3C
100
AcDbEntity
  8
ｴｸｽﾃﾘｱ商品
 62
   254
370
     0
100
AcDbPolyFaceMesh
 66
     1
 10
0.0
 20
0.0
 30
0.0
 70
    64
 71
     8
 72
     6
  0
VERTEX
  5
48D
330
48B
100
AcDbEntity
  8
ｴｸｽﾃﾘｱ商品
 62
   254
370
     0
100
AcDbVertex
100
AcDbPolyFaceMeshVertex
 10
151.5
 20
-52.10000000000001
 30
796.0
 70
   192
  0
VERTEX
  5
48E
330
48B
100
AcDbEntity
  8
ｴｸｽﾃﾘｱ商品
 62
   254
370
     0
100
AcDbVertex
100
AcDbPolyFaceMeshVertex
 10
94.50000000000003
 20
-52.10000000000001
 30
796.0
 70
   192
  0
VERTEX
  5
48F
330
48B
100
AcDbEntity
  8
ｴｸｽﾃﾘｱ商品
 62
   254
370
     0
100
AcDbVertex
100
AcDbPolyFaceMeshVertex
 10
94.50000000000003
 20
-51.10000000000001
 30
796.0
 70
   192
  0
VERTEX
  5
490
330
48B
100
AcDbEntity
  8
ｴｸｽﾃﾘｱ商品
 62
   254
370
     0
100
AcDbVertex
100
AcDbPolyFaceMeshVertex
 10
151.5
 20
-51.10000000000001
 30
796.0
 70
   192
  0
VERTEX
  5
491
330
48B
100
AcDbEntity
  8
ｴｸｽﾃﾘｱ商品
 62
   254
370
     0
100
AcDbVertex
100
AcDbPolyFaceMeshVertex
 10
94.50000000000003
 20
-52.10000000000001
 30
856.0000000000001
 70
   192
  0
VERTEX
  5
492
330
48B
100
AcDbEntity
  8
ｴｸｽﾃﾘｱ商品
 62
   254
370
     0
100
AcDbVertex
100
AcDbPolyFaceMeshVertex
 10
151.5
 20
-52.10000000000001
 30
856.0000000000001
 70
   192
  0
VERTEX
  5
493
330
48B
100
AcDbEntity
  8
ｴｸｽﾃﾘｱ商品
 62
   254
370
     0
100
AcDbVertex
100
AcDbPolyFaceMeshVertex
 10
151.5
 20
-51.10000000000001
 30
856.0000000000001
 70
   192
  0
VERTEX
  5
494
330
48B
100
AcDbEntity
  8
ｴｸｽﾃﾘｱ商品
 62
   254
370
     0
100
AcDbVertex
100
AcDbPolyFaceMeshVertex
 10
94.50000000000003
 20
-51.10000000000001
 30
856.0000000000001
 70
   192
  0
VERTEX
  5
495
330
48B
100
AcDbEntity
  8
ｴｸｽﾃﾘｱ商品
 62
   254
370
     0
100
AcDbFaceRecord
 10
0.0
 20
0.0
 30
0.0
 70
   128
 71
     1
 72
     2
 73
     3
 74
     4
  0
VERTEX
  5
496
330
48B
100
AcDbEntity
  8
ｴｸｽﾃﾘｱ商品
 62
   254
370
     0
100
AcDbFaceRecord
 10
0.0
 20
0.0
 30
0.0
 70
   128
 71
     5
 72
     6
 73
     7
 74
     8
  0
VERTEX
  5
497
330
48B
100
AcDbEntity
  8
ｴｸｽﾃﾘｱ商品
 62
   254
370
     0
100
AcDbFaceRecord
 10
0.0
 20
0.0
 30
0.0
 70
   128
 71
     2
 72
     1
 73
     6
 74
     5
  0
VERTEX
  5
498
330
48B
100
AcDbEntity
  8
ｴｸｽﾃﾘｱ商品
 62
   254
370
     0
100
AcDbFaceRecord
 10
0.0
 20
0.0
 30
0.0
 70
   128
 71
     1
 72
     4
 73
     7
 74
     6
  0
VERTEX
  5
499
330
48B
100
AcDbEntity
  8
ｴｸｽﾃﾘｱ商品
 62
   254
370
     0
100
AcDbFaceRecord
 10
0.0
 20
0.0
 30
0.0
 70
   128
 71
     4
 72
     3
 73
     8
 74
     7
  0
VERTEX
  5
49A
330
48B
100
AcDbEntity
  8
ｴｸｽﾃﾘｱ商品
 62
   254
370
     0
100
AcDbFaceRecord
 10
0.0
 20
0.0
 30
0.0
 70
   128
 71
     3
 72
     2
 73
     5
 74
     8
  0
SEQEND
  5
48C
330
48B
100
AcDbEntity
  8
ｴｸｽﾃﾘｱ商品
370
     0
  0
ENDBLK
  5
3E
330
3C
100
AcDbEntity
  8
0
100
AcDbBlockEnd
  0
ENDSEC
  0
SECTION
  2
ENTITIES
  0
INSERT
  5
49B
330
1F
100
AcDbEntity
  8
ｴｸｽﾃﾘｱ商品
  6
Continuous
 62
   105
370
     0
100
AcDbBlockReference
  2
オブジェクト_66
 10
-225.0
 20
-60.00000000000001
 30
0.0
  0
ENDSEC
  0
SECTION
  2
OBJECTS
  0
DICTIONARY
  5
C
330
0
100
AcDbDictionary
281
     1
  3
ACAD_GROUP
350
D
  3
ACAD_LAYOUT
350
1A
  3
ACAD_MLINESTYLE
350
17
  3
ACAD_PLOTSETTINGS
350
19
  3
ACAD_PLOTSTYLENAME
350
E
  3
ACAD_TABLESTYLE
350
49E
  3
ACAD_VISUALSTYLE
350
2A
  3
WATERMARKS
350
49C
  0
DICTIONARY
  5
D
102
{ACAD_REACTORS
330
C
102
}
330
C
100
AcDbDictionary
281
     1
  0
DICTIONARY
  5
1A
102
{ACAD_REACTORS
330
C
102
}
330
C
100
AcDbDictionary
281
     1
  3
Layout1
350
1E
  3
Layout2
350
26
  3
Model
350
22
  0
DICTIONARY
  5
17
102
{ACAD_REACTORS
330
C
102
}
330
C
100
AcDbDictionary
281
     1
  3
Standard
350
18
  0
DICTIONARY
  5
19
102
{ACAD_REACTORS
330
C
102
}
330
C
100
AcDbDictionary
281
     1
  0
ACDBDICTIONARYWDFLT
  5
E
102
{ACAD_REACTORS
330
C
102
}
330
C
100
AcDbDictionary
281
     1
  3
Normal
350
F
100
AcDbDictionaryWithDefault
340
F
  0
DICTIONARY
  5
49E
102
{ACAD_REACTORS
330
C
102
}
330
C
100
AcDbDictionary
281
     1
  0
DICTIONARY
  5
2A
102
{ACAD_REACTORS
330
C
102
}
330
C
100
AcDbDictionary
281
     1
  3
2dWireframe
350
2F
  3
3D Hidden
350
31
  3
3dWireframe
350
30
  3
Basic
350
32
  3
Brighten
350
36
  3
ColorChange
350
3A
  3
Conceptual
350
34
  3
Dim
350
35
  3
Facepattern
350
39
  3
Flat
350
2B
  3
FlatWithEdges
350
2C
  3
Gouraud
350
2D
  3
GouraudWithEdges
350
2E
  3
Linepattern
350
38
  3
Realistic
350
33
  3
Thicken
350
37
  0
DICTIONARY
  5
49C
102
{ACAD_REACTORS
330
C
102
}
330
C
100
AcDbDictionary
281
     1
  3
AC_WATERMARK
350
49D
  0
LAYOUT
  5
1E
102
{ACAD_REACTORS
330
1A
102
}
330
1A
100
AcDbPlotSettings
  1

  2
none_device
  4

  6

 40
0.0
 41
0.0
 42
0.0
 43
0.0
 44
0.0
 45
0.0
 46
0.0
 47
0.0
 48
0.0
 49
0.0
140
0.0
141
0.0
142
1.0
143
1.0
 70
   688
 72
     0
 73
     0
 74
     5
  7

 75
    16
147
1.0
148
0.0
149
0.0
100
AcDbLayout
  1
Layout1
 70
     1
 71
     1
 10
0.0
 20
0.0
 11
12.0
 21
9.0
 12
0.0
 22
0.0
 32
0.0
 14
1.000000000000000E+20
 24
1.000000000000000E+20
 34
1.000000000000000E+20
 15
-1.000000000000000E+20
 25
-1.000000000000000E+20
 35
-1.000000000000000E+20
146
0.0
 13
0.0
 23
0.0
 33
0.0
 16
1.0
 26
0.0
 36
0.0
 17
0.0
 27
1.0
 37
0.0
 76
     0
330
1B
  0
LAYOUT
  5
26
102
{ACAD_REACTORS
330
1A
102
}
330
1A
100
AcDbPlotSettings
  1

  2
none_device
  4

  6

 40
0.0
 41
0.0
 42
0.0
 43
0.0
 44
0.0
 45
0.0
 46
0.0
 47
0.0
 48
0.0
 49
0.0
140
0.0
141
0.0
142
1.0
143
1.0
 70
   688
 72
     0
 73
     0
 74
     5
  7

 75
    16
147
1.0
148
0.0
149
0.0
100
AcDbLayout
  1
Layout2
 70
     1
 71
     2
 10
0.0
 20
0.0
 11
0.0
 21
0.0
 12
0.0
 22
0.0
 32
0.0
 14
0.0
 24
0.0
 34
0.0
 15
0.0
 25
0.0
 35
0.0
146
0.0
 13
0.0
 23
0.0
 33
0.0
 16
1.0
 26
0.0
 36
0.0
 17
0.0
 27
1.0
 37
0.0
 76
     0
330
23
  0
LAYOUT
  5
22
102
{ACAD_REACTORS
330
1A
102
}
330
1A
100
AcDbPlotSettings
  1

  2
none_device
  4

  6

 40
0.0
 41
0.0
 42
0.0
 43
0.0
 44
0.0
 45
0.0
 46
0.0
 47
0.0
 48
0.0
 49
0.0
140
0.0
141
0.0
142
1.0
143
1.0
 70
  1712
 72
     0
 73
     0
 74
     0
  7

 75
     0
147
1.0
148
0.0
149
0.0
100
AcDbLayout
  1
Model
 70
     1
 71
     0
 10
0.0
 20
0.0
 11
12.0
 21
9.0
 12
0.0
 22
0.0
 32
0.0
 14
1.000000000000000E+20
 24
1.000000000000000E+20
 34
1.000000000000000E+20
 15
-1.000000000000000E+20
 25
-1.000000000000000E+20
 35
-1.000000000000000E+20
146
0.0
 13
0.0
 23
0.0
 33
0.0
 16
1.0
 26
0.0
 36
0.0
 17
0.0
 27
1.0
 37
0.0
 76
     0
330
1F
331
29
  0
MLINESTYLE
  5
18
102
{ACAD_REACTORS
330
17
102
}
330
17
100
AcDbMlineStyle
  2
Standard
 70
     0
  3

 62
   256
 51
90.0
 52
90.0
 71
     2
 49
0.5
 62
   256
  6
BYLAYER
 49
-0.5
 62
   256
  6
BYLAYER
  0
ACDBPLACEHOLDER
  5
F
102
{ACAD_REACTORS
330
E
102
}
330
E
  0
VISUALSTYLE
  5
2F
102
{ACAD_REACTORS
330
2A
102
}
330
2A
100
AcDbVisualStyle
  2
2dWireframe
 70
     4
 71
     0
 72
     2
 73
     0
 90
        0
 40
-0.6
 41
-30.0
 62
     5
 63
     7
 74
     1
 91
        4
 64
     7
 65
   257
 75
     1
175
     1
 42
1.0
 92
        0
 66
   257
 43
1.0
 76
     1
 77
     6
 78
     2
 67
     7
 79
     5
170
     0
171
     0
290
     0
174
     0
 93
        1
 44
0.0
173
     0
291
     0
 45
0.0
1001
ACAD
1000
AcDbSavedByObjectVersion
1070
     0
  0
VISUALSTYLE
  5
31
102
{ACAD_REACTORS
330
2A
102
}
330
2A
100
AcDbVisualStyle
  2
3D Hidden
 70
     6
 71
     1
 72
     2
 73
     2
 90
        0
 40
-0.6
 41
-30.0
 62
     5
 63
     7
 74
     2
 91
        2
 64
     7
 65
   257
 75
     2
175
     1
 42
40.0
 92
        0
 66
   257
 43
1.0
 76
     1
 77
     6
 78
     2
 67
     7
 79
     3
170
     0
171
     0
290
     0
174
     0
 93
        1
 44
0.0
173
     0
291
     0
 45
0.0
1001
ACAD
1000
AcDbSavedByObjectVersion
1070
     0
  0
VISUALSTYLE
  5
30
102
{ACAD_REACTORS
330
2A
102
}
330
2A
100
AcDbVisualStyle
  2
3dWireframe
 70
     5
 71
     0
 72
     2
 73
     0
 90
        0
 40
-0.6
 41
-30.0
 62
     5
 63
     7
 74
     1
 91
        4
 64
     7
 65
   257
 75
     1
175
     1
 42
1.0
 92
        0
 66
   257
 43
1.0
 76
     1
 77
     6
 78
     2
 67
     7
 79
     5
170
     0
171
     0
290
     0
174
     0
 93
        1
 44
0.0
173
     0
291
     0
 45
0.0
1001
ACAD
1000
AcDbSavedByObjectVersion
1070
     0
  0
VISUALSTYLE
  5
32
102
{ACAD_REACTORS
330
2A
102
}
330
2A
100
AcDbVisualStyle
  2
Basic
 70
     7
 71
     1
 72
     0
 73
     1
 90
        0
 40
-0.6
 41
-30.0
 62
     5
 63
     7
 74
     0
 91
        4
 64
     7
 65
   257
 75
     1
175
     1
 42
1.0
 92
        8
 66
     7
 43
1.0
 76
     1
 77
     6
 78
     2
 67
     7
 79
     5
170
     0
171
     0
290
     0
174
     0
 93
        1
 44
0.0
173
     0
291
     1
 45
0.0
1001
ACAD
1000
AcDbSavedByObjectVersion
1070
     0
  0
VISUALSTYLE
  5
36
102
{ACAD_REACTORS
330
2A
102
}
330
2A
100
AcDbVisualStyle
  2
Brighten
 70
    12
 71
     2
 72
     2
 73
     0
 90
        0
 40
-0.6
 41
-30.0
 62
     5
 63
     7
 74
     1
 91
        4
 64
     7
 65
   257
 75
     1
175
     1
 42
1.0
 92
        8
 66
     7
 43
1.0
 76
     1
 77
     6
 78
     2
 67
     7
 79
     5
170
     0
171
     0
290
     0
174
     0
 93
        1
 44
50.0
173
     0
291
     1
 45
0.0
1001
ACAD
1000
AcDbSavedByObjectVersion
1070
     0
  0
VISUALSTYLE
  5
3A
102
{ACAD_REACTORS
330
2A
102
}
330
2A
100
AcDbVisualStyle
  2
ColorChange
 70
    16
 71
     2
 72
     2
 73
     3
 90
        0
 40
-0.6
 41
-30.0
 62
     5
 63
     8
 74
     1
 91
        4
 64
     7
 65
   257
 75
     1
175
     1
 42
1.0
 92
        8
 66
     8
 43
1.0
 76
     1
 77
     6
 78
     2
 67
     7
 79
     5
170
     0
171
     0
290
     0
174
     0
 93
        1
 44
0.0
173
     0
291
     1
 45
0.0
1001
ACAD
1000
AcDbSavedByObjectVersion
1070
     0
  0
VISUALSTYLE
  5
34
102
{ACAD_REACTORS
330
2A
102
}
330
2A
100
AcDbVisualStyle
  2
Conceptual
 70
     9
 71
     3
 72
     2
 73
     0
 90
        0
 40
-0.6
 41
-30.0
 62
     5
 63
     7
 74
     2
 91
        2
 64
     7
 65
   257
 75
     1
175
     1
 42
40.0
 92
        8
 66
     7
 43
1.0
 76
     1
 77
     6
 78
     2
 67
     7
 79
     3
170
     0
171
     0
290
     0
174
     0
 93
        1
 44
0.0
173
     0
291
     0
 45
0.0
1001
ACAD
1000
AcDbSavedByObjectVersion
1070
     0
  0
VISUALSTYLE
  5
35
102
{ACAD_REACTORS
330
2A
102
}
330
2A
100
AcDbVisualStyle
  2
Dim
 70
    11
 71
     2
 72
     2
 73
     0
 90
        0
 40
-0.6
 41
-30.0
 62
     5
 63
     7
 74
     1
 91
        4
 64
     7
 65
   257
 75
     1
175
     1
 42
1.0
 92
        8
 66
     7
 43
1.0
 76
     1
 77
     6
 78
     2
 67
     7
 79
     5
170
     0
171
     0
290
     0
174
     0
 93
        1
 44
-50.0
173
     0
291
     1
 45
0.0
1001
ACAD
1000
AcDbSavedByObjectVersion
1070
     0
  0
VISUALSTYLE
  5
39
102
{ACAD_REACTORS
330
2A
102
}
330
2A
100
AcDbVisualStyle
  2
Facepattern
 70
    15
 71
     2
 72
     2
 73
     0
 90
        0
 40
-0.6
 41
-30.0
 62
     5
 63
     7
 74
     1
 91
        4
 64
     7
 65
   257
 75
     1
175
     1
 42
1.0
 92
        8
 66
     7
 43
1.0
 76
     1
 77
     6
 78
     2
 67
     7
 79
     5
170
     0
171
     0
290
     0
174
     0
 93
        1
 44
0.0
173
     0
291
     1
 45
0.0
1001
ACAD
1000
AcDbSavedByObjectVersion
1070
     0
  0
VISUALSTYLE
  5
2B
102
{ACAD_REACTORS
330
2A
102
}
330
2A
100
AcDbVisualStyle
  2
Flat
 70
     0
 71
     2
 72
     1
 73
     1
 90
        2
 40
-0.6
 41
30.0
 62
     5
 63
     7
 74
     0
 91
        4
 64
     7
 65
   257
 75
     1
175
     1
 42
1.0
 92
        8
 66
     7
 43
1.0
 76
     1
 77
     6
 78
     2
 67
     7
 79
     5
170
     0
171
     0
290
     0
174
     0
 93
       13
 44
0.0
173
     0
291
     1
 45
0.0
1001
ACAD
1000
AcDbSavedByObjectVersion
1070
     0
  0
VISUALSTYLE
  5
2C
102
{ACAD_REACTORS
330
2A
102
}
330
2A
100
AcDbVisualStyle
  2
FlatWithEdges
 70
     1
 71
     2
 72
     1
 73
     1
 90
        2
 40
-0.6
 41
30.0
 62
     5
 63
     7
 74
     1
 91
        4
 64
     7
 65
   257
 75
     1
175
     1
 42
1.0
 92
        0
 66
   257
 43
1.0
 76
     1
 77
     6
 78
     2
 67
     7
 79
     5
170
     0
171
     0
290
     0
174
     0
 93
       13
 44
0.0
173
     0
291
     1
 45
0.0
1001
ACAD
1000
AcDbSavedByObjectVersion
1070
     0
  0
VISUALSTYLE
  5
2D
102
{ACAD_REACTORS
330
2A
102
}
330
2A
100
AcDbVisualStyle
  2
Gouraud
 70
     2
 71
     2
 72
     2
 73
     1
 90
        2
 40
-0.6
 41
30.0
 62
     5
 63
     7
 74
     0
 91
        4
 64
     7
 65
   257
 75
     1
175
     1
 42
1.0
 92
        0
 66
     7
 43
1.0
 76
     1
 77
     6
 78
     2
 67
     7
 79
     5
170
     0
171
     0
290
     0
174
     0
 93
       13
 44
0.0
173
     0
291
     1
 45
0.0
1001
ACAD
1000
AcDbSavedByObjectVersion
1070
     0
  0
VISUALSTYLE
  5
2E
102
{ACAD_REACTORS
330
2A
102
}
330
2A
100
AcDbVisualStyle
  2
GouraudWithEdges
 70
     3
 71
     2
 72
     2
 73
     1
 90
        2
 40
-0.6
 41
30.0
 62
     5
 63
     7
 74
     1
 91
        4
 64
     7
 65
   257
 75
     1
175
     1
 42
1.0
 92
        0
 66
   257
 43
1.0
 76
     1
 77
     6
 78
     2
 67
     7
 79
     5
170
     0
171
     0
290
     0
174
     0
 93
       13
 44
0.0
173
     0
291
     1
 45
0.0
1001
ACAD
1000
AcDbSavedByObjectVersion
1070
     0
  0
VISUALSTYLE
  5
38
102
{ACAD_REACTORS
330
2A
102
}
330
2A
100
AcDbVisualStyle
  2
Linepattern
 70
    14
 71
     2
 72
     2
 73
     0
 90
        0
 40
-0.6
 41
-30.0
 62
     5
 63
     7
 74
     1
 91
        4
 64
     7
 65
   257
 75
     7
175
     7
 42
1.0
 92
        8
 66
     7
 43
1.0
 76
     1
 77
     6
 78
     2
 67
     7
 79
     5
170
     0
171
     0
290
     0
174
     0
 93
        1
 44
0.0
173
     0
291
     1
 45
0.0
1001
ACAD
1000
AcDbSavedByObjectVersion
1070
     0
  0
VISUALSTYLE
  5
33
102
{ACAD_REACTORS
330
2A
102
}
330
2A
100
AcDbVisualStyle
  2
Realistic
 70
     8
 71
     2
 72
     2
 73
     0
 90
        0
 40
-0.6
 41
-30.0
 62
     5
 63
     7
 74
     1
 91
        0
 64
     7
 65
   257
 75
     1
175
     1
 42
1.0
 92
        8
 66
     8
 43
1.0
 76
     1
 77
     6
 78
     2
 67
     7
 79
     5
170
     0
171
     0
290
     0
174
     0
 93
       13
 44
0.0
173
     0
291
     0
 45
0.0
1001
ACAD
1000
AcDbSavedByObjectVersion
1070
     0
  0
VISUALSTYLE
  5
37
102
{ACAD_REACTORS
330
2A
102
}
330
2A
100
AcDbVisualStyle
  2
Thicken
 70
    13
 71
     2
 72
     2
 73
     0
 90
        0
 40
-0.6
 41
-30.0
 62
     5
 63
     7
 74
     1
 91
        4
 64
     7
 65
   257
 75
     1
175
     1
 42
1.0
 92
       12
 66
     7
 43
1.0
 76
     1
 77
     6
 78
     2
 67
     7
 79
     5
170
     0
171
     0
290
     0
174
     0
 93
        1
 44
0.0
173
     0
291
     1
 45
0.0
1001
ACAD
1000
AcDbSavedByObjectVersion
1070
     0
  0
XRECORD
  5
49D
102
{ACAD_REACTORS
330
49C
102
}
330
49C
100
AcDbXrecord
280
     1
1000
・ｱ・ﾌDWG・t・@・C・・・ﾍRIKCAD21(TM)(R)・ﾅ・・・ｬ・ｳ・・・ﾜ・ｵ・ｽ・B
  0
ENDSEC
  0
EOF
