  0
SECTION
  2
HEADER
  9
$ACADVER
  1
AC1018
  9
$ACADMAINTVER
 70
   104
  9
$DWGCODEPAGE
  3
ANSI_932
  9
$LASTSAVEDBY
  1
0803015
  9
$INSBASE
 10
0.0
 20
0.0
 30
0.0
  9
$EXTMIN
 10
-0.48424078
 20
-0.16047508
 30
-0.00000003
  9
$EXTMAX
 10
7934.64849668
 20
5642.3445522
 30
0.00000008
  9
$LIMMIN
 10
0.0
 20
0.0
  9
$LIMMAX
 10
420.0
 20
297.0
  9
$ORTHOMODE
 70
     1
  9
$REGENMODE
 70
     1
  9
$FILLMODE
 70
     1
  9
$QTEXTMODE
 70
     0
  9
$MIRRTEXT
 70
     0
  9
$LTSCALE
 40
1.0
  9
$ATTMODE
 70
     1
  9
$TEXTSIZE
 40
3.0
  9
$TRACEWID
 40
1.0
  9
$TEXTSTYLE
  7
STANDARD
  9
$CLAYER
  8
0
  9
$CELTYPE
  6
BYLAYER
  9
$CECOLOR
 62
   256
  9
$CELTSCALE
 40
1.0
  9
$DISPSILH
 70
     1
  9
$DIMSCALE
 40
1.0
  9
$DIMASZ
 40
1.5
  9
$DIMEXO
 40
2.0
  9
$DIMDLI
 40
10.0
  9
$DIMRND
 40
0.0
  9
$DIMDLE
 40
0.0
  9
$DIMEXE
 40
2.0
  9
$DIMTP
 40
0.0
  9
$DIMTM
 40
0.0
  9
$DIMTXT
 40
3.0
  9
$DIMCEN
 40
0.0
  9
$DIMTSZ
 40
0.0
  9
$DIMTOL
 70
     0
  9
$DIMLIM
 70
     0
  9
$DIMTIH
 70
     0
  9
$DIMTOH
 70
     0
  9
$DIMSE1
 70
     0
  9
$DIMSE2
 70
     0
  9
$DIMTAD
 70
     0
  9
$DIMZIN
 70
    12
  9
$DIMBLK
  1

  9
$DIMASO
 70
     1
  9
$DIMSHO
 70
     1
  9
$DIMPOST
  1

  9
$DIMAPOST
  1

  9
$DIMALT
 70
     0
  9
$DIMALTD
 70
     2
  9
$DIMALTF
 40
0.0394
  9
$DIMLFAC
 40
1.0
  9
$DIMTOFL
 70
     1
  9
$DIMTVP
 40
1.0
  9
$DIMTIX
 70
     0
  9
$DIMSOXD
 70
     0
  9
$DIMSAH
 70
     1
  9
$DIMBLK1
  1
DOT1
  9
$DIMBLK2
  1
DOT1
  9
$DIMSTYLE
  2
YKK_OSADOT
  9
$DIMCLRD
 70
     0
  9
$DIMCLRE
 70
     0
  9
$DIMCLRT
 70
     0
  9
$DIMTFAC
 40
1.0
  9
$DIMGAP
 40
0.01
  9
$DIMJUST
 70
     0
  9
$DIMSD1
 70
     0
  9
$DIMSD2
 70
     0
  9
$DIMTOLJ
 70
     1
  9
$DIMTZIN
 70
    12
  9
$DIMALTZ
 70
    12
  9
$DIMALTTZ
 70
    12
  9
$DIMUPT
 70
     0
  9
$DIMDEC
 70
     4
  9
$DIMTDEC
 70
     4
  9
$DIMALTU
 70
     2
  9
$DIMALTTD
 70
     2
  9
$DIMTXSTY
  7
STANDARD
  9
$DIMAUNIT
 70
     0
  9
$DIMADEC
 70
     0
  9
$DIMALTRND
 40
0.0
  9
$DIMAZIN
 70
     0
  9
$DIMDSEP
 70
    46
  9
$DIMATFIT
 70
     3
  9
$DIMFRAC
 70
     0
  9
$DIMLDRBLK
  1

  9
$DIMLUNIT
 70
     2
  9
$DIMLWD
 70
    -2
  9
$DIMLWE
 70
    -2
  9
$DIMTMOVE
 70
     2
  9
$LUNITS
 70
     2
  9
$LUPREC
 70
     4
  9
$SKETCHINC
 40
1.0
  9
$FILLETRAD
 40
0.0
  9
$AUNITS
 70
     0
  9
$AUPREC
 70
     0
  9
$MENU
  1
.
  9
$ELEVATION
 40
0.0
  9
$PELEVATION
 40
0.0
  9
$THICKNESS
 40
0.0
  9
$LIMCHECK
 70
     0
  9
$CHAMFERA
 40
0.0
  9
$CHAMFERB
 40
0.0
  9
$CHAMFERC
 40
0.0
  9
$CHAMFERD
 40
0.0
  9
$SKPOLY
 70
     0
  9
$TDCREATE
 40
2452591.511585648
  9
$TDUCREATE
 40
2452591.136585648
  9
$TDUPDATE
 40
2459496.571307871
  9
$TDUUPDATE
 40
2459496.196307870
  9
$TDINDWG
 40
0.0036747338
  9
$TDUSRTIMER
 40
0.0036747338
  9
$USRTIMER
 70
     1
  9
$ANGBASE
 50
0.0
  9
$ANGDIR
 70
     0
  9
$PDMODE
 70
     0
  9
$PDSIZE
 40
0.0
  9
$PLINEWID
 40
0.0
  9
$SPLFRAME
 70
     0
  9
$SPLINETYPE
 70
     6
  9
$SPLINESEGS
 70
     8
  9
$HANDSEED
  5
D60
  9
$SURFTAB1
 70
     6
  9
$SURFTAB2
 70
     6
  9
$SURFTYPE
 70
     6
  9
$SURFU
 70
     6
  9
$SURFV
 70
     6
  9
$UCSBASE
  2

  9
$UCSNAME
  2

  9
$UCSORG
 10
0.0
 20
0.0
 30
0.0
  9
$UCSXDIR
 10
1.0
 20
0.0
 30
0.0
  9
$UCSYDIR
 10
0.0
 20
1.0
 30
0.0
  9
$UCSORTHOREF
  2

  9
$UCSORTHOVIEW
 70
     0
  9
$UCSORGTOP
 10
0.0
 20
0.0
 30
0.0
  9
$UCSORGBOTTOM
 10
0.0
 20
0.0
 30
0.0
  9
$UCSORGLEFT
 10
0.0
 20
0.0
 30
0.0
  9
$UCSORGRIGHT
 10
0.0
 20
0.0
 30
0.0
  9
$UCSORGFRONT
 10
0.0
 20
0.0
 30
0.0
  9
$UCSORGBACK
 10
0.0
 20
0.0
 30
0.0
  9
$PUCSBASE
  2

  9
$PUCSNAME
  2

  9
$PUCSORG
 10
0.0
 20
0.0
 30
0.0
  9
$PUCSXDIR
 10
1.0
 20
0.0
 30
0.0
  9
$PUCSYDIR
 10
0.0
 20
1.0
 30
0.0
  9
$PUCSORTHOREF
  2

  9
$PUCSORTHOVIEW
 70
     0
  9
$PUCSORGTOP
 10
0.0
 20
0.0
 30
0.0
  9
$PUCSORGBOTTOM
 10
0.0
 20
0.0
 30
0.0
  9
$PUCSORGLEFT
 10
0.0
 20
0.0
 30
0.0
  9
$PUCSORGRIGHT
 10
0.0
 20
0.0
 30
0.0
  9
$PUCSORGFRONT
 10
0.0
 20
0.0
 30
0.0
  9
$PUCSORGBACK
 10
0.0
 20
0.0
 30
0.0
  9
$USERI1
 70
     0
  9
$USERI2
 70
     0
  9
$USERI3
 70
     0
  9
$USERI4
 70
     0
  9
$USERI5
 70
     0
  9
$USERR1
 40
0.0
  9
$USERR2
 40
0.0
  9
$USERR3
 40
0.0
  9
$USERR4
 40
0.0
  9
$USERR5
 40
0.0
  9
$WORLDVIEW
 70
     1
  9
$SHADEDGE
 70
     3
  9
$SHADEDIF
 70
    70
  9
$TILEMODE
 70
     1
  9
$MAXACTVP
 70
    48
  9
$PINSBASE
 10
0.0
 20
0.0
 30
0.0
  9
$PLIMCHECK
 70
     0
  9
$PEXTMIN
 10
1.00000000E+20
 20
1.00000000E+20
 30
1.00000000E+20
  9
$PEXTMAX
 10
-1.00000000E+20
 20
-1.00000000E+20
 30
-1.00000000E+20
  9
$PLIMMIN
 10
0.0
 20
0.0
  9
$PLIMMAX
 10
420.0
 20
297.0
  9
$UNITMODE
 70
     0
  9
$VISRETAIN
 70
     1
  9
$PLINEGEN
 70
     0
  9
$PSLTSCALE
 70
     1
  9
$TREEDEPTH
 70
  3020
  9
$CMLSTYLE
  2
STANDARD
  9
$CMLJUST
 70
     0
  9
$CMLSCALE
 40
1.0
  9
$PROXYGRAPHICS
 70
     1
  9
$MEASUREMENT
 70
     1
  9
$CELWEIGHT
370
    -1
  9
$ENDCAPS
280
     0
  9
$JOINSTYLE
280
     0
  9
$LWDISPLAY
290
     0
  9
$INSUNITS
 70
     0
  9
$HYPERLINKBASE
  1

  9
$STYLESHEET
  1

  9
$XEDIT
290
     1
  9
$CEPSNTYPE
380
     0
  9
$PSTYLEMODE
290
     1
  9
$FINGERPRINTGUID
  2
{DA8D1F45-0A67-42A4-BE73-C329FB2781DF}
  9
$VERSIONGUID
  2
{B8E4643A-AD72-7542-B69F-1A64CE78141E}
  9
$EXTNAMES
290
     1
  9
$PSVPSCALE
 40
0.0
  9
$OLESTARTUP
290
     0
  9
$SORTENTS
280
   127
  9
$INDEXCTL
280
     0
  9
$HIDETEXT
280
     0
  9
$XCLIPFRAME
290
     0
  9
$HALOGAP
280
     0
  9
$OBSCOLOR
 70
   257
  9
$OBSLTYPE
280
     0
  9
$INTERSECTIONDISPLAY
280
     0
  9
$INTERSECTIONCOLOR
 70
   257
  9
$DIMASSOC
280
     1
  9
$PROJECTNAME
  1

  0
ENDSEC
  0
SECTION
  2
CLASSES
  0
CLASS
  1
DICTIONARYVAR
  2
AcDbDictionaryVar
  3
ObjectDBX Classes
 90
        0
 91
       10
280
     0
281
     0
  0
CLASS
  1
ACDBDICTIONARYWDFLT
  2
AcDbDictionaryWithDefault
  3
ObjectDBX Classes
 90
        0
 91
        1
280
     0
281
     0
  0
CLASS
  1
MATERIAL
  2
AcDbMaterial
  3
ObjectDBX Classes
 90
     1153
 91
        3
280
     0
281
     0
  0
CLASS
  1
VISUALSTYLE
  2
AcDbVisualStyle
  3
ObjectDBX Classes
 90
     4095
 91
       26
280
     0
281
     0
  0
CLASS
  1
TABLESTYLE
  2
AcDbTableStyle
  3
ObjectDBX Classes
 90
     4095
 91
        1
280
     0
281
     0
  0
CLASS
  1
SCALE
  2
AcDbScale
  3
ObjectDBX Classes
 90
     1153
 91
       33
280
     0
281
     0
  0
CLASS
  1
MLEADERSTYLE
  2
AcDbMLeaderStyle
  3
ACDB_MLEADERSTYLE_CLASS
 90
     4095
 91
        1
280
     0
281
     0
  0
CLASS
  1
CELLSTYLEMAP
  2
AcDbCellStyleMap
  3
ObjectDBX Classes
 90
     1152
 91
        2
280
     0
281
     0
  0
CLASS
  1
ACDBSECTIONVIEWSTYLE
  2
AcDbSectionViewStyle
  3
ObjectDBX Classes
 90
     1025
 91
        1
280
     0
281
     0
  0
CLASS
  1
ACDBDETAILVIEWSTYLE
  2
AcDbDetailViewStyle
  3
ObjectDBX Classes
 90
     1025
 91
        1
280
     0
281
     0
  0
CLASS
  1
RAPIDRTRENDERSETTINGS
  2
AcDbRapidRTRenderSettings
  3
ObjectDBX Classes
 90
     1024
 91
        1
280
     0
281
     0
  0
CLASS
  1
MENTALRAYRENDERSETTINGS
  2
AcDbMentalRayRenderSettings
  3
SCENEOE
 90
     1024
 91
        1
280
     0
281
     0
  0
CLASS
  1
SORTENTSTABLE
  2
AcDbSortentsTable
  3
ObjectDBX Classes
 90
        0
 91
        0
280
     0
281
     0
  0
ENDSEC
  0
SECTION
  2
TABLES
  0
TABLE
  2
VPORT
  5
12
102
{ACAD_XDICTIONARY
360
17A
102
}
330
0
100
AcDbSymbolTable
 70
     1
  0
VPORT
  5
F0
330
12
100
AcDbSymbolTableRecord
100
AcDbViewportTableRecord
  2
*ACTIVE
 70
     0
 10
0.0
 20
0.0
 11
1.0
 21
1.0
 12
3967.08212795
 22
2821.09203856
 13
0.0
 23
0.0
 14
10.0
 24
10.0
 15
10.0
 25
10.0
 16
0.0
 26
0.0
 36
1.0
 17
0.0
 27
0.0
 37
0.0
 40
5699.11879009
 41
2.04355109
 42
50.0
 43
0.0
 44
0.0
 50
0.0
 51
0.0
 71
     0
 72
  1000
 73
     1
 74
     1
 75
     0
 76
     0
 77
     0
 78
     0
281
     0
 65
     1
110
0.0
120
0.0
130
0.0
111
1.0
121
0.0
131
0.0
112
0.0
122
1.0
132
0.0
 79
     0
146
0.0
1001
ACAD_NAV_VCDISPLAY
1070
     1
  0
ENDTAB
  0
TABLE
  2
LTYPE
  5
D
330
0
100
AcDbSymbolTable
 70
     2
  0
LTYPE
  5
E
330
D
100
AcDbSymbolTableRecord
100
AcDbLinetypeTableRecord
  2
BYBLOCK
 70
     0
  3

 72
    65
 73
     0
 40
0.0
  0
LTYPE
  5
F
330
D
100
AcDbSymbolTableRecord
100
AcDbLinetypeTableRecord
  2
BYLAYER
 70
     0
  3

 72
    65
 73
     0
 40
0.0
  0
LTYPE
  5
5
330
D
100
AcDbSymbolTableRecord
100
AcDbLinetypeTableRecord
  2
CONTINUOUS
 70
     0
  3
Solid line
 72
    65
 73
     0
 40
0.0
  0
LTYPE
  5
2D
330
D
100
AcDbSymbolTableRecord
100
AcDbLinetypeTableRecord
  2
HIDDEN
 70
     0
  3
__ __ __ __ __ __ __ __ __ __ __ __ __ __ __ __
 72
    65
 73
     2
 40
0.375
 49
0.25
 74
     0
 49
-0.125
 74
     0
  0
ENDTAB
  0
TABLE
  2
LAYER
  5
A
102
{ACAD_XDICTIONARY
360
23B
102
}
330
0
100
AcDbSymbolTable
 70
     5
  0
LAYER
  5
4
102
{ACAD_XDICTIONARY
360
1E1
102
}
330
A
100
AcDbSymbolTableRecord
100
AcDbLayerTableRecord
  2
0
 70
     0
 62
     7
  6
CONTINUOUS
370
    -3
390
F3
  0
LAYER
  5
24
102
{ACAD_XDICTIONARY
360
1E3
102
}
330
A
100
AcDbSymbolTableRecord
100
AcDbLayerTableRecord
  2
YKK_ZWAK
 70
     0
 62
     7
  6
CONTINUOUS
370
    -3
390
F3
  0
LAYER
  5
E0
102
{ACAD_XDICTIONARY
360
1E5
102
}
330
A
100
AcDbSymbolTableRecord
100
AcDbLayerTableRecord
  2
USER1
 70
     0
 62
     3
  6
CONTINUOUS
370
    -3
390
F3
  0
LAYER
  5
2E3
330
A
100
AcDbSymbolTableRecord
100
AcDbLayerTableRecord
  2
YKK_A1
 70
     0
 62
     4
  6
CONTINUOUS
370
    30
390
F3
1001
AcAecLayerStandard
1000

1000
姿図
  0
LAYER
  5
2E4
330
A
100
AcDbSymbolTableRecord
100
AcDbLayerTableRecord
  2
YKK_D
 70
     0
 62
     6
  6
CONTINUOUS
370
    13
390
F3
1001
AcAecLayerStandard
1000

1000
寸法線・寸法数字
  0
ENDTAB
  0
TABLE
  2
STYLE
  5
B
330
0
100
AcDbSymbolTable
 70
     3
  0
STYLE
  5
C
330
B
100
AcDbSymbolTableRecord
100
AcDbTextStyleTableRecord
  2
STANDARD
 70
     0
 40
0.0
 41
1.0
 50
0.0
 71
     0
 42
3.0
  3
ROMANS.SHX
  4
EXTFONT.SHX
  0
STYLE
  5
33
330
B
100
AcDbSymbolTableRecord
100
AcDbTextStyleTableRecord
  2
YKK_OSSTYLE1
 70
     0
 40
0.0
 41
0.9
 50
0.0
 71
     0
 42
4.0
  3
romans.shx
  4
EXTFONT.SHX
  0
STYLE
  5
2E5
330
B
100
AcDbSymbolTableRecord
100
AcDbTextStyleTableRecord
  2
text-b
 70
     0
 40
0.0
 41
0.8
 50
0.0
 71
     0
 42
1.8
  3
extslim2.shx
  4
extfont2.shx
  0
ENDTAB
  0
TABLE
  2
VIEW
  5
10
330
0
100
AcDbSymbolTable
 70
     0
  0
ENDTAB
  0
TABLE
  2
UCS
  5
11
330
0
100
AcDbSymbolTable
 70
     0
  0
ENDTAB
  0
TABLE
  2
APPID
  5
14
330
0
100
AcDbSymbolTable
 70
     6
  0
APPID
  5
15
330
14
100
AcDbSymbolTableRecord
100
AcDbRegAppTableRecord
  2
ACAD
 70
     0
  0
APPID
  5
14F
330
14
100
AcDbSymbolTableRecord
100
AcDbRegAppTableRecord
  2
YKK_AP_LOCKLAYER
 70
     0
  0
APPID
  5
1B4
330
14
100
AcDbSymbolTableRecord
100
AcDbRegAppTableRecord
  2
ACAD_MLEADERVER
 70
     0
  0
APPID
  5
1D5
330
14
100
AcDbSymbolTableRecord
100
AcDbRegAppTableRecord
  2
ACAD_PSEXT
 70
     0
  0
APPID
  5
1D6
330
14
100
AcDbSymbolTableRecord
100
AcDbRegAppTableRecord
  2
ACAD_NAV_VCDISPLAY
 70
     0
  0
APPID
  5
2E7
330
14
100
AcDbSymbolTableRecord
100
AcDbRegAppTableRecord
  2
AcAecLayerStandard
 70
     0
  0
ENDTAB
  0
TABLE
  2
DIMSTYLE
  5
16
330
0
100
AcDbSymbolTable
 70
     1
100
AcDbDimStyleTable
 71
     0
  0
DIMSTYLE
105
1C
330
16
100
AcDbSymbolTableRecord
100
AcDbDimStyleTableRecord
  2
YKK_OSADOT
 70
     0
 41
1.5
 42
2.0
 43
10.0
 44
2.0
 73
     0
 74
     0
 78
    12
140
3.0
141
0.0
143
0.0394
145
1.0
147
0.01
172
     1
173
     1
279
     2
284
    12
285
    12
286
    12
340
C
341
1D
343
1D
344
1D
  0
ENDTAB
  0
TABLE
  2
BLOCK_RECORD
  5
1
330
0
100
AcDbSymbolTable
 70
     2
  0
BLOCK_RECORD
  5
2
102
{ACAD_XDICTIONARY
360
176
102
}
330
1
100
AcDbSymbolTableRecord
100
AcDbBlockTableRecord
  2
*MODEL_SPACE
340
14A
  0
BLOCK_RECORD
  5
7
102
{ACAD_XDICTIONARY
360
178
102
}
330
1
100
AcDbSymbolTableRecord
100
AcDbBlockTableRecord
  2
*PAPER_SPACE
340
14B
  0
BLOCK_RECORD
  5
1D
330
1
100
AcDbSymbolTableRecord
100
AcDbBlockTableRecord
  2
DOT1
340
0
  0
BLOCK_RECORD
  5
25
330
1
100
AcDbSymbolTableRecord
100
AcDbBlockTableRecord
  2
A201
340
0
102
{BLKREFS
331
23
102
}
  0
ENDTAB
  0
ENDSEC
  0
SECTION
  2
BLOCKS
  0
BLOCK
  5
3
330
2
100
AcDbEntity
  8
0
100
AcDbBlockBegin
  2
*MODEL_SPACE
 70
     0
 10
0.0
 20
0.0
 30
0.0
  3
*MODEL_SPACE
  1

  0
ENDBLK
  5
6
330
2
100
AcDbEntity
  8
0
100
AcDbBlockEnd
  0
BLOCK
  5
8
330
7
100
AcDbEntity
 67
     1
  8
0
100
AcDbBlockBegin
  2
*PAPER_SPACE
 70
     0
 10
0.0
 20
0.0
 30
0.0
  3
*PAPER_SPACE
  1

  0
ENDBLK
  5
9
330
7
100
AcDbEntity
 67
     1
  8
0
100
AcDbBlockEnd
  0
BLOCK
  5
21
330
1D
100
AcDbEntity
  8
0
100
AcDbBlockBegin
  2
DOT1
 70
     0
 10
0.0
 20
0.0
 30
0.0
  3
DOT1
  1

  0
CIRCLE
  5
1E
330
1D
100
AcDbEntity
  8
0
  6
ByBlock
 62
     0
370
    -2
100
AcDbCircle
 10
0.0
 20
0.0
 30
0.0
 40
0.5
  0
CIRCLE
  5
1F
330
1D
100
AcDbEntity
  8
0
  6
ByBlock
 62
     0
370
    -2
100
AcDbCircle
 10
0.0
 20
0.0
 30
0.0
 40
0.325
  0
LINE
  5
20
330
1D
100
AcDbEntity
  8
0
  6
ByBlock
 62
     0
370
    -2
100
AcDbLine
 10
0.0
 20
0.0
 30
0.0
 11
-1.0
 21
0.0
 31
0.0
  0
ENDBLK
  5
22
330
1D
100
AcDbEntity
  8
0
100
AcDbBlockEnd
  0
BLOCK
  5
DD
330
25
100
AcDbEntity
  8
0
100
AcDbBlockBegin
  2
A201
 70
     0
 10
0.0
 20
0.0
 30
0.0
  3
A201
  1

  0
LINE
  5
26
330
25
100
AcDbEntity
  8
YKK_ZWAK
  6
Continuous
 62
   254
100
AcDbLine
 10
21.000001
 20
8.9995
 30
0.0
 11
544.000013
 21
8.9995
 31
0.0
  0
LINE
  5
27
330
25
100
AcDbEntity
  8
YKK_ZWAK
  6
Continuous
 62
   131
100
AcDbLine
 10
205.000005
 20
21.000001
 30
0.0
 11
297.000007
 21
21.000001
 31
0.0
  0
LINE
  5
28
330
25
100
AcDbEntity
  8
YKK_ZWAK
  6
Continuous
 62
   254
100
AcDbLine
 10
571.000014
 20
34.999501
 30
0.0
 11
21.000001
 21
34.999501
 31
0.0
  0
LINE
  5
29
330
25
100
AcDbEntity
  8
YKK_ZWAK
  6
Continuous
 62
   254
100
AcDbLine
 10
544.000013
 20
33.999501
 30
0.0
 11
21.000001
 21
33.999501
 31
0.0
  0
LINE
  5
2A
330
25
100
AcDbEntity
  8
YKK_ZWAK
  6
Continuous
 62
   254
100
AcDbLine
 10
571.000014
 20
409.99951
 30
0.0
 11
21.000001
 21
409.99951
 31
0.0
  0
LINE
  5
2B
330
25
100
AcDbEntity
  8
YKK_ZWAK
  6
Continuous
 62
   254
100
AcDbLine
 10
21.000001
 20
34.999501
 30
0.0
 11
21.000001
 21
409.99951
 31
0.0
  0
LINE
  5
2C
330
25
100
AcDbEntity
  8
YKK_ZWAK
  6
HIDDEN
 62
   131
100
AcDbLine
 10
24.284751
 20
13.7865
 30
0.0
 11
201.565005
 21
13.7865
 31
0.0
  0
LINE
  5
2E
330
25
100
AcDbEntity
  8
YKK_ZWAK
  6
HIDDEN
 62
   131
100
AcDbLine
 10
24.284751
 20
18.7355
 30
0.0
 11
201.565005
 21
18.7355
 31
0.0
  0
LINE
  5
2F
330
25
100
AcDbEntity
  8
YKK_ZWAK
  6
HIDDEN
 62
   131
100
AcDbLine
 10
24.284751
 20
23.684501
 30
0.0
 11
201.565005
 21
23.684501
 31
0.0
  0
LINE
  5
30
330
25
100
AcDbEntity
  8
YKK_ZWAK
  6
HIDDEN
 62
   131
100
AcDbLine
 10
24.284751
 20
28.633501
 30
0.0
 11
201.565005
 21
28.633501
 31
0.0
  0
LINE
  5
31
330
25
100
AcDbEntity
  8
YKK_ZWAK
  6
Continuous
 62
   254
100
AcDbLine
 10
21.000001
 20
8.9995
 30
0.0
 11
21.000001
 21
33.999501
 31
0.0
  0
TEXT
  5
32
330
25
100
AcDbEntity
  8
YKK_ZWAK
  6
Continuous
 62
   131
100
AcDbText
 10
24.367481
 20
29.394844
 30
0.0
 40
3.0
  1
変 更 記 事
 41
0.9
  7
YKK_OSSTYLE1
100
AcDbText
  0
TEXT
  5
34
330
25
100
AcDbEntity
  8
YKK_ZWAK
  6
Continuous
 62
   254
100
AcDbText
 10
289.94159
 20
12.3725
 30
0.0
 40
5.0
  1
殿
 41
0.9
  7
YKK_OSSTYLE1
100
AcDbText
  0
LINE
  5
35
330
25
100
AcDbEntity
  8
YKK_ZWAK
  6
Continuous
 62
   254
100
AcDbLine
 10
296.000007
 20
33.999501
 30
0.0
 11
296.000007
 21
8.9995
 31
0.0
  0
LINE
  5
36
330
25
100
AcDbEntity
  8
YKK_ZWAK
  6
Continuous
 62
   254
100
AcDbLine
 10
205.000005
 20
33.999501
 30
0.0
 11
205.000005
 21
8.9995
 31
0.0
  0
TEXT
  5
37
330
25
100
AcDbEntity
  8
YKK_ZWAK
  6
Continuous
 62
   131
100
AcDbText
 10
207.692335
 20
17.675001
 30
0.0
 40
3.0
  1
施　　工
 41
0.9
  7
YKK_OSSTYLE1
100
AcDbText
  0
TEXT
  5
38
330
25
100
AcDbEntity
  8
YKK_ZWAK
  6
Continuous
 62
   131
100
AcDbText
 10
207.692335
 20
30.047503
 30
0.0
 40
3.0
  1
設計監理
 41
0.9
  7
YKK_OSSTYLE1
100
AcDbText
  0
TEXT
  5
39
330
25
100
AcDbEntity
  8
YKK_ZWAK
  6
Continuous
 62
   254
100
AcDbText
 10
289.94159
 20
24.745001
 30
0.0
 40
5.0
  1
殿
 41
0.9
  7
YKK_OSSTYLE1
100
AcDbText
  0
LINE
  5
3A
330
25
100
AcDbEntity
  8
YKK_ZWAK
  6
Continuous
 62
   254
100
AcDbLine
 10
19.000001
 20
222.4995055
 30
0.0
 11
21.000001
 21
222.4995055
 31
0.0
  0
LINE
  5
3B
330
25
100
AcDbEntity
  8
YKK_ZWAK
  6
Continuous
 62
     8
100
AcDbLine
 10
296.010007
 20
411.99951
 30
0.0
 11
296.010007
 21
409.99951
 31
0.0
  0
LINE
  5
3C
330
25
100
AcDbEntity
  8
YKK_ZWAK
  6
Continuous
 62
   254
100
AcDbLine
 10
571.000014
 20
409.99951
 30
0.0
 11
571.000014
 21
34.999501
 31
0.0
  0
LINE
  5
3D
330
25
100
AcDbEntity
  8
YKK_ZWAK
  6
Continuous
 62
   254
100
AcDbLine
 10
452.000011
 20
15.9995
 30
0.0
 11
523.999763
 21
15.9995
 31
0.0
  0
LINE
  5
3E
330
25
100
AcDbEntity
  8
YKK_ZWAK
  6
Continuous
 62
   131
100
AcDbLine
 10
437.703011
 20
29.000001
 30
0.0
 11
389.00001
 21
29.000001
 31
0.0
  0
LINE
  5
3F
330
25
100
AcDbEntity
  8
YKK_ZWAK
  6
Continuous
 62
   254
100
AcDbLine
 10
389.00001
 20
33.999501
 30
0.0
 11
389.00001
 21
8.9995
 31
0.0
  0
LINE
  5
40
330
25
100
AcDbEntity
  8
YKK_ZWAK
  6
Continuous
 62
   131
100
AcDbLine
 10
297.000007
 20
21.000001
 30
0.0
 11
389.00001
 21
21.000001
 31
0.0
  0
TEXT
  5
41
330
25
100
AcDbEntity
  8
YKK_ZWAK
  6
Continuous
 62
   131
100
AcDbText
 10
298.58378403
 20
17.465002
 30
0.0
 40
3.0
  1
図面内容
 41
0.9
  7
YKK_OSSTYLE1
100
AcDbText
  0
TEXT
  5
42
330
25
100
AcDbEntity
  8
YKK_ZWAK
  6
Continuous
 62
   131
100
AcDbText
 10
298.86588
 20
30.047503
 30
0.0
 40
3.0
  1
工 事 名
 41
0.9
  7
YKK_OSSTYLE1
100
AcDbText
  0
TEXT
  5
43
330
25
100
AcDbEntity
  8
YKK_ZWAK
  6
Continuous
 62
   254
100
AcDbText
 10
377.16530176
 20
24.745001
 30
0.0
 40
5.0
  1
工事
 41
0.9
  7
YKK_OSSTYLE1
100
AcDbText
  0
LINE
  5
44
330
25
100
AcDbEntity
  8
YKK_ZWAK
  6
Continuous
 62
   254
100
AcDbLine
 10
452.000011
 20
33.999501
 30
0.0
 11
452.000011
 21
8.9995
 31
0.0
  0
LINE
  5
45
330
25
100
AcDbEntity
  8
YKK_ZWAK
  6
Continuous
 62
   254
100
AcDbLine
 10
437.000011
 20
33.999501
 30
0.0
 11
437.000011
 21
8.9995
 31
0.0
  0
LINE
  5
46
330
25
100
AcDbEntity
  8
YKK_ZWAK
  6
Continuous
 62
   131
100
AcDbLine
 10
443.051603
 20
10.181617
 30
0.0
 11
449.854371
 21
16.984384
 31
0.0
  0
LINE
  5
47
330
25
100
AcDbEntity
  8
YKK_ZWAK
  6
Continuous
 62
   131
100
AcDbLine
 10
421.00001
 20
33.999501
 30
0.0
 11
421.00001
 21
8.9995
 31
0.0
  0
LINE
  5
48
330
25
100
AcDbEntity
  8
YKK_ZWAK
  6
Continuous
 62
   131
100
AcDbLine
 10
405.00001
 20
33.999501
 30
0.0
 11
405.00001
 21
8.9995
 31
0.0
  0
TEXT
  5
49
330
25
100
AcDbEntity
  8
YKK_ZWAK
  6
Continuous
 62
   131
100
AcDbText
 10
392.18209354
 20
9.752325
 30
0.0
 40
3.5
  1
 ． ．
 41
0.9
  7
YKK_OSSTYLE1
100
AcDbText
  0
LINE
  5
4A
330
25
100
AcDbEntity
  8
YKK_ZWAK
  6
Continuous
 62
   131
100
AcDbLine
 10
455.5999986
 20
10.4995
 30
0.0
 11
455.5999986
 21
8.9995
 31
0.0
  0
TEXT
  5
4B
330
25
100
AcDbEntity
  8
YKK_ZWAK
  6
Continuous
 62
   131
100
AcDbText
 10
407.8246491
 20
29.87075
 30
0.0
 40
3.0
  1
担  当
 41
0.9
  7
YKK_OSSTYLE1
100
AcDbText
  0
TEXT
  5
4C
330
25
100
AcDbEntity
  8
YKK_ZWAK
  6
Continuous
 62
   131
100
AcDbText
 10
392.5636631
 20
29.87075
 30
0.0
 40
3.0
  1
照  査
 41
0.9
  7
YKK_OSSTYLE1
100
AcDbText
  0
TEXT
  5
4D
330
25
100
AcDbEntity
  8
YKK_ZWAK
  6
Continuous
 62
   131
100
AcDbText
 10
424.0856971
 20
29.883751
 30
0.0
 40
3.0
  1
作  図
 41
0.9
  7
YKK_OSSTYLE1
100
AcDbText
  0
TEXT
  5
4E
330
25
100
AcDbEntity
  8
YKK_ZWAK
  6
Continuous
 62
   131
100
AcDbText
 10
453.905095
 20
30.047501
 30
0.0
 40
3.0
  1
御承認印
 41
0.9
  7
YKK_OSSTYLE1
100
AcDbText
  0
LINE
  5
4F
330
25
100
AcDbEntity
  8
YKK_ZWAK
  6
Continuous
 62
   131
100
AcDbLine
 10
437.703011
 20
29.000001
 30
0.0
 11
452.000011
 21
29.000001
 31
0.0
  0
LINE
  5
50
330
25
100
AcDbEntity
  8
YKK_ZWAK
  6
Continuous
 62
   131
100
AcDbLine
 10
439.264403
 20
21.330812
 30
0.0
 11
446.188247
 21
28.254656
 31
0.0
  0
TEXT
  5
51
330
25
100
AcDbEntity
  8
YKK_ZWAK
  6
Continuous
 62
   131
100
AcDbText
 10
439.5087681
 20
30.044463
 30
0.0
 40
3.0
  1
尺  度
 41
0.9
  7
YKK_OSSTYLE1
100
AcDbText
  0
CIRCLE
  5
52
330
25
100
AcDbEntity
  8
YKK_ZWAK
  6
Continuous
 62
     8
100
AcDbCircle
 10
579.426014
 20
83.719502
 30
0.0
 40
6.299999999999999
  0
LINE
  5
53
330
25
100
AcDbEntity
  8
YKK_ZWAK
  6
Continuous
 62
     8
100
AcDbLine
 10
573.126014
 20
69.579502
 30
0.0
 11
585.726014
 21
69.579502
 31
0.0
  0
LINE
  5
54
330
25
100
AcDbEntity
  8
YKK_ZWAK
  6
Continuous
 62
     8
100
AcDbLine
 10
573.126014
 20
55.439501
 30
0.0
 11
585.726014
 21
55.439501
 31
0.0
  0
CIRCLE
  5
55
330
25
100
AcDbEntity
  8
YKK_ZWAK
  6
Continuous
 62
     8
100
AcDbCircle
 10
579.426014
 20
69.579502
 30
0.0
 40
6.299999999999999
  0
CIRCLE
  5
56
330
25
100
AcDbEntity
  8
YKK_ZWAK
  6
Continuous
 62
     8
100
AcDbCircle
 10
579.426014
 20
55.439501
 30
0.0
 40
6.299999999999999
  0
LINE
  5
57
330
25
100
AcDbEntity
  8
YKK_ZWAK
  6
Continuous
 62
     8
100
AcDbLine
 10
573.126014
 20
41.299501
 30
0.0
 11
585.726014
 21
41.299501
 31
0.0
  0
CIRCLE
  5
58
330
25
100
AcDbEntity
  8
YKK_ZWAK
  6
Continuous
 62
     8
100
AcDbCircle
 10
579.426014
 20
41.299501
 30
0.0
 40
6.299999999999999
  0
LINE
  5
59
330
25
100
AcDbEntity
  8
YKK_ZWAK
  6
Continuous
 62
   254
100
AcDbLine
 10
544.000013
 20
33.999501
 30
0.0
 11
544.000013
 21
8.9995
 31
0.0
  0
LINE
  5
5A
330
25
100
AcDbEntity
  8
YKK_ZWAK
  6
Continuous
 62
   254
100
AcDbLine
 10
523.999763
 20
33.999501
 30
0.0
 11
523.999763
 21
8.9995
 31
0.0
  0
ARC
  5
5B
330
25
100
AcDbEntity
  8
YKK_ZWAK
  6
Continuous
 62
   254
100
AcDbCircle
 10
567.23923515
 20
16.32442811
 30
0.0
 40
3.065267824757687
100
AcDbArc
 50
285.44291453
 51
349.90448123
  0
ARC
  5
5C
330
25
100
AcDbEntity
  8
YKK_ZWAK
  6
Continuous
 62
   254
100
AcDbCircle
 10
553.606314
 20
13.7174867
 30
0.0
 40
7.916047100361496
100
AcDbArc
 50
168.7637177
 51
199.80079153
  0
ARC
  5
5D
330
25
100
AcDbEntity
  8
YKK_ZWAK
  6
Continuous
 62
   254
100
AcDbCircle
 10
550.84442657
 20
13.7651724
 30
0.0
 40
1.69178303147034
100
AcDbArc
 50
171.08203026
 51
216.71922793
  0
LINE
  5
5E
330
25
100
AcDbEntity
  8
YKK_ZWAK
  6
Continuous
 62
   254
100
AcDbLine
 10
562.610947
 20
9.566381
 30
0.0
 11
562.610947
 21
20.243049
 31
0.0
  0
LINE
  5
5F
330
25
100
AcDbEntity
  8
YKK_ZWAK
  6
Continuous
 62
   254
100
AcDbLine
 10
559.019868
 20
23.216355
 30
0.0
 11
559.019868
 21
9.566381
 31
0.0
  0
LINE
  5
60
330
25
100
AcDbEntity
  8
YKK_ZWAK
  6
Continuous
 62
   254
100
AcDbLine
 10
557.513933
 20
20.011363
 30
0.0
 11
557.513933
 21
9.585666
 31
0.0
  0
LINE
  5
61
330
25
100
AcDbEntity
  8
YKK_ZWAK
  6
Continuous
 62
   254
100
AcDbLine
 10
554.019393
 20
12.520312
 30
0.0
 11
554.019393
 21
19.470807
 31
0.0
  0
LINE
  5
62
330
25
100
AcDbEntity
  8
YKK_ZWAK
  6
Continuous
 62
   254
100
AcDbLine
 10
557.28225
 20
9.547052
 30
0.0
 11
549.405042
 21
9.527722
 31
0.0
  0
LINE
  5
63
330
25
100
AcDbEntity
  8
YKK_ZWAK
  6
Continuous
 62
   254
100
AcDbLine
 10
550.00355
 20
12.520312
 30
0.0
 11
554.019393
 21
12.520312
 31
0.0
  0
ARC
  5
64
330
25
100
AcDbEntity
  8
YKK_ZWAK
  6
Continuous
 62
   254
100
AcDbCircle
 10
548.60007313
 20
12.25485189
 30
0.0
 40
2.730646981973357
100
AcDbArc
 50
207.31435415
 51
263.59464075
  0
ARC
  5
65
330
25
100
AcDbEntity
  8
YKK_ZWAK
  6
Continuous
 62
   254
100
AcDbCircle
 10
550.17864126
 20
13.59595698
 30
0.0
 40
1.089801345776779
100
AcDbArc
 50
230.97279559
 51
260.75491133
  0
LINE
  5
66
330
25
100
AcDbEntity
  8
YKK_ZWAK
  6
Continuous
 62
   254
100
AcDbLine
 10
549.405042
 20
9.527722
 30
0.0
 11
548.343169
 21
9.527722
 31
0.0
  0
LINE
  5
67
330
25
100
AcDbEntity
  8
YKK_ZWAK
  6
Continuous
 62
   254
100
AcDbLine
 10
557.513933
 20
9.585666
 30
0.0
 11
557.28225
 21
9.547052
 31
0.0
  0
LINE
  5
68
330
25
100
AcDbEntity
  8
YKK_ZWAK
  6
Continuous
 62
   254
100
AcDbLine
 10
553.71047
 20
12.520312
 30
0.0
 11
553.961471
 21
12.520312
 31
0.0
  0
LINE
  5
69
330
25
100
AcDbEntity
  8
YKK_ZWAK
  6
Continuous
 62
   254
100
AcDbLine
 10
554.019393
 20
12.521084
 30
0.0
 11
554.020164
 21
12.520312
 31
0.0
  0
LINE
  5
6A
330
25
100
AcDbEntity
  8
YKK_ZWAK
  6
Continuous
 62
   254
100
AcDbLine
 10
562.051042
 20
9.566381
 30
0.0
 11
562.610947
 21
9.566381
 31
0.0
  0
LINE
  5
6B
330
25
100
AcDbEntity
  8
YKK_ZWAK
  6
Continuous
 62
   254
100
AcDbLine
 10
559.019868
 20
9.566381
 30
0.0
 11
562.051042
 21
9.566381
 31
0.0
  0
TEXT
  5
6C
330
25
100
AcDbEntity
  8
YKK_ZWAK
  6
Continuous
 62
   131
100
AcDbText
 10
528.4269094
 20
29.81226201
 30
0.0
 40
3.2
  1
図　番
 41
0.9
  7
YKK_OSSTYLE1
100
AcDbText
  0
TEXT
  5
6D
330
25
100
AcDbEntity
  8
YKK_ZWAK
  6
Continuous
 62
   131
100
AcDbText
 10
526.62767404
 20
16.79627903
 30
0.0
 40
3.2
  1
通し図番
 41
0.9
  7
YKK_OSSTYLE1
100
AcDbText
  0
LINE
  5
6E
330
25
100
AcDbEntity
  8
YKK_ZWAK
  6
Continuous
 62
   131
100
AcDbLine
 10
523.999763
 20
28.999501
 30
0.0
 11
544.000013
 21
28.999501
 31
0.0
  0
LINE
  5
6F
330
25
100
AcDbEntity
  8
YKK_ZWAK
  6
Continuous
 62
   131
100
AcDbLine
 10
544.000013
 20
16.0
 30
0.0
 11
523.999763
 21
16.0
 31
0.0
  0
LINE
  5
70
330
25
100
AcDbEntity
  8
YKK_ZWAK
  6
Continuous
 62
   254
100
AcDbLine
 10
523.999763
 20
21.000001
 30
0.0
 11
544.000013
 21
21.000001
 31
0.0
  0
TEXT
  5
71
330
25
100
AcDbEntity
  8
YKK_ZWAK
  6
Continuous
 62
   131
100
AcDbText
 10
504.12596439
 20
16.73585252
 30
0.0
 40
2.828
  1
年   月   日
 41
0.9
  7
YKK_OSSTYLE1
100
AcDbText
  0
ARC
  5
72
330
25
100
AcDbEntity
  8
YKK_ZWAK
  6
Continuous
 62
   254
100
AcDbCircle
 10
550.80023932
 20
8.38955158
 30
0.0
 40
9.506414110787718
100
AcDbArc
 50
79.38097908
 51
112.0582515
  0
ARC
  5
73
330
25
100
AcDbEntity
  8
YKK_ZWAK
  6
Continuous
 62
   254
100
AcDbCircle
 10
552.02960157
 20
8.66870802
 30
0.0
 40
14.82019555938878
100
AcDbArc
 50
78.78009532
 51
91.46937906
  0
LINE
  5
74
330
25
100
AcDbEntity
  8
YKK_ZWAK
  6
Continuous
 62
   254
100
AcDbLine
 10
553.247106
 20
20.281664
 30
0.0
 11
550.60589668
 21
20.23169161
 31
0.0
  0
LINE
  5
75
330
25
100
AcDbEntity
  8
YKK_ZWAK
  6
Continuous
 62
   254
100
AcDbLine
 10
553.054042
 20
15.04953
 30
0.0
 11
550.200893
 21
15.046227
 31
0.0
  0
LINE
  5
76
330
25
100
AcDbEntity
  8
YKK_ZWAK
  6
Continuous
 62
   254
100
AcDbLine
 10
554.187226
 20
33.42965
 30
0.0
 11
550.949599
 21
27.69553
 31
0.0
  0
LINE
  5
77
330
25
100
AcDbEntity
  8
YKK_ZWAK
  6
Continuous
 62
   254
100
AcDbLine
 10
551.59718
 20
33.42965
 30
0.0
 11
554.187226
 21
33.42965
 31
0.0
  0
LINE
  5
78
330
25
100
AcDbEntity
  8
YKK_ZWAK
  6
Continuous
 62
   254
100
AcDbLine
 10
548.594154
 20
27.714815
 30
0.0
 11
545.311979
 21
33.352466
 31
0.0
  0
ARC
  5
79
330
25
100
AcDbEntity
  8
YKK_ZWAK
  6
Continuous
 62
   254
100
AcDbCircle
 10
549.68520483
 20
20.30975154
 30
0.0
 40
3.598113650678814
100
AcDbArc
 50
158.41083245
 51
179.71775245
  0
ARC
  5
7A
330
25
100
AcDbEntity
  8
YKK_ZWAK
  6
Continuous
 62
   254
100
AcDbCircle
 10
548.59054743
 20
14.76560333
 30
0.0
 40
2.791490107652263
100
AcDbArc
 50
121.82711365
 51
169.08474902
  0
LINE
  5
7B
330
25
100
AcDbEntity
  8
YKK_ZWAK
  6
Continuous
 62
   254
100
AcDbLine
 10
549.405042
 20
18.949491
 30
0.0
 11
546.084266
 21
18.949491
 31
0.0
  0
LINE
  5
7C
330
25
100
AcDbEntity
  8
YKK_ZWAK
  6
Continuous
 62
   254
100
AcDbLine
 10
546.084266
 20
18.949491
 30
0.0
 11
546.084266
 21
20.32747631
 31
0.0
  0
ARC
  5
7D
330
25
100
AcDbEntity
  8
YKK_ZWAK
  6
Continuous
 62
   254
100
AcDbCircle
 10
550.20700835
 20
14.01426078
 30
0.0
 40
1.031984336873053
100
AcDbArc
 50
90.33952634
 51
178.0363902
  0
ARC
  5
7E
330
25
100
AcDbEntity
  8
YKK_ZWAK
  6
Continuous
 62
   254
100
AcDbCircle
 10
550.91098672
 20
18.99454401
 30
0.0
 40
1.5066184932453
100
AcDbArc
 50
138.46381796
 51
181.71359389
  0
ARC
  5
7F
330
25
100
AcDbEntity
  8
YKK_ZWAK
  6
Continuous
 62
   254
100
AcDbCircle
 10
550.51068793
 20
19.02046023
 30
0.0
 40
1.214967561291876
100
AcDbArc
 50
85.50551117
 51
126.78038212
  0
ARC
  5
80
330
25
100
AcDbEntity
  8
YKK_ZWAK
  6
Continuous
 62
   254
100
AcDbCircle
 10
548.00461954
 20
21.10278181
 30
0.0
 40
1.745462511199758
100
AcDbArc
 50
109.02126645
 51
161.5126404
  0
ARC
  5
81
330
25
100
AcDbEntity
  8
YKK_ZWAK
  6
Continuous
 62
   254
100
AcDbCircle
 10
551.65872095
 20
10.85588209
 30
0.0
 40
12.62863449008531
100
AcDbArc
 50
89.89164773
 51
109.30848271
  0
LINE
  5
82
330
25
100
AcDbEntity
  8
YKK_ZWAK
  6
Continuous
 62
   254
100
AcDbLine
 10
548.594154
 20
24.529198
 30
0.0
 11
548.594154
 21
27.714815
 31
0.0
  0
LINE
  5
83
330
25
100
AcDbEntity
  8
YKK_ZWAK
  6
Continuous
 62
   254
100
AcDbLine
 10
550.949599
 20
24.529198
 30
0.0
 11
548.594154
 21
24.529198
 31
0.0
  0
LINE
  5
84
330
25
100
AcDbEntity
  8
YKK_ZWAK
  6
Continuous
 62
   254
100
AcDbLine
 10
550.949599
 20
27.69553
 30
0.0
 11
550.949599
 21
24.529198
 31
0.0
  0
LINE
  5
85
330
25
100
AcDbEntity
  8
YKK_ZWAK
  6
Continuous
 62
   254
100
AcDbLine
 10
545.311979
 20
33.352466
 30
0.0
 11
547.821884
 21
33.352466
 31
0.0
  0
LINE
  5
86
330
25
100
AcDbEntity
  8
YKK_ZWAK
  6
Continuous
 62
   254
100
AcDbLine
 10
551.59718
 20
33.42965
 30
0.0
 11
549.771867
 21
29.877219
 31
0.0
  0
LINE
  5
87
330
25
100
AcDbEntity
  8
YKK_ZWAK
  6
Continuous
 62
   254
100
AcDbLine
 10
549.617423
 20
29.993062
 30
0.0
 11
549.771867
 21
29.877219
 31
0.0
  0
LINE
  5
88
330
25
100
AcDbEntity
  8
YKK_ZWAK
  6
Continuous
 62
   254
100
AcDbLine
 10
547.821884
 20
33.352466
 30
0.0
 11
549.617423
 21
29.993062
 31
0.0
  0
ARC
  5
89
330
25
100
AcDbEntity
  8
YKK_ZWAK
  6
Continuous
 62
   254
100
AcDbCircle
 10
568.28604917
 20
28.29398617
 30
0.0
 40
1.544618833868573
100
AcDbArc
 50
0.00166292
 51
89.99603715
  0
ARC
  5
8A
330
25
100
AcDbEntity
  8
YKK_ZWAK
  6
Continuous
 62
   254
100
AcDbCircle
 10
559.98514917
 20
28.23604217
 30
0.0
 40
1.544618833868573
100
AcDbArc
 50
0.00166292
 51
89.99603715
  0
LINE
  5
8B
330
25
100
AcDbEntity
  8
YKK_ZWAK
  6
Continuous
 62
   254
100
AcDbLine
 10
562.553028
 20
24.625712
 30
0.0
 11
562.553028
 21
33.487594
 31
0.0
  0
LINE
  5
8C
330
25
100
AcDbEntity
  8
YKK_ZWAK
  6
Continuous
 62
   254
100
AcDbLine
 10
554.328297
 20
24.548527
 30
0.0
 11
554.328297
 21
33.410366
 31
0.0
  0
LINE
  5
8D
330
25
100
AcDbEntity
  8
YKK_ZWAK
  6
Continuous
 62
   254
100
AcDbLine
 10
564.985674
 20
24.625712
 30
0.0
 11
562.553028
 21
24.625712
 31
0.0
  0
LINE
  5
8E
330
25
100
AcDbEntity
  8
YKK_ZWAK
  6
Continuous
 62
   254
100
AcDbLine
 10
567.302491
 20
23.216355
 30
0.0
 11
559.019868
 21
23.216355
 31
0.0
  0
LINE
  5
8F
330
25
100
AcDbEntity
  8
YKK_ZWAK
  6
Continuous
 62
   254
100
AcDbLine
 10
563.479759
 20
13.196086
 30
0.0
 11
567.283206
 21
13.196086
 31
0.0
  0
LINE
  5
90
330
25
100
AcDbEntity
  8
YKK_ZWAK
  6
Continuous
 62
   254
100
AcDbLine
 10
566.008932
 20
16.150017
 30
0.0
 11
563.479759
 21
16.150017
 31
0.0
  0
LINE
  5
91
330
25
100
AcDbEntity
  8
YKK_ZWAK
  6
Continuous
 62
   254
100
AcDbLine
 10
562.610947
 20
20.243049
 30
0.0
 11
565.931704
 21
20.243049
 31
0.0
  0
ARC
  5
92
330
25
100
AcDbEntity
  8
YKK_ZWAK
  6
Continuous
 62
   254
100
AcDbCircle
 10
554.22066
 20
20.08146332
 30
0.0
 40
3.294016994121146
100
AcDbArc
 50
358.78059045
 51
38.76562608
  0
ARC
  5
93
330
25
100
AcDbEntity
  8
YKK_ZWAK
  6
Continuous
 62
   254
100
AcDbCircle
 10
552.89717617
 20
19.17519964
 30
0.0
 40
1.16048018439929
100
AcDbArc
 50
14.7551995
 51
72.44994796
  0
LINE
  5
94
330
25
100
AcDbEntity
  8
YKK_ZWAK
  6
Continuous
 62
   254
100
AcDbLine
 10
553.054042
 20
17.617318
 30
0.0
 11
553.054042
 21
15.04953
 31
0.0
  0
LINE
  5
95
330
25
100
AcDbEntity
  8
YKK_ZWAK
  6
Continuous
 62
   254
100
AcDbLine
 10
552.552059
 20
17.733161
 30
0.0
 11
553.054042
 21
17.617318
 31
0.0
  0
LINE
  5
96
330
25
100
AcDbEntity
  8
YKK_ZWAK
  6
Continuous
 62
   254
100
AcDbLine
 10
563.479759
 20
16.150017
 30
0.0
 11
563.479759
 21
13.196086
 31
0.0
  0
LINE
  5
97
330
25
100
AcDbEntity
  8
YKK_ZWAK
  6
Continuous
 62
   254
100
AcDbLine
 10
558.981248
 20
27.869273
 30
0.0
 11
556.703043
 21
27.869273
 31
0.0
  0
ARC
  5
98
330
25
100
AcDbEntity
  8
YKK_ZWAK
  6
Continuous
 62
   254
100
AcDbCircle
 10
554.37879626
 20
20.07343796
 30
0.0
 40
3.177485297559325
100
AcDbArc
 50
40.66422291
 51
80.31693569
  0
LINE
  5
99
330
25
100
AcDbEntity
  8
YKK_ZWAK
  6
Continuous
 62
   254
100
AcDbLine
 10
556.703043
 20
24.548527
 30
0.0
 11
554.328297
 21
24.548527
 31
0.0
  0
LINE
  5
9A
330
25
100
AcDbEntity
  8
YKK_ZWAK
  6
Continuous
 62
   254
100
AcDbLine
 10
556.703043
 20
27.869273
 30
0.0
 11
556.703043
 21
24.548527
 31
0.0
  0
LINE
  5
9B
330
25
100
AcDbEntity
  8
YKK_ZWAK
  6
Continuous
 62
   254
100
AcDbLine
 10
561.529756
 20
28.236131
 30
0.0
 11
561.529756
 21
24.606427
 31
0.0
  0
LINE
  5
9C
330
25
100
AcDbEntity
  8
YKK_ZWAK
  6
Continuous
 62
   254
100
AcDbLine
 10
559.290171
 20
27.75343
 30
0.0
 11
558.981248
 21
27.869273
 31
0.0
  0
LINE
  5
9D
330
25
100
AcDbEntity
  8
YKK_ZWAK
  6
Continuous
 62
   254
100
AcDbLine
 10
559.290171
 20
24.606427
 30
0.0
 11
559.290171
 21
27.75343
 31
0.0
  0
LINE
  5
9E
330
25
100
AcDbEntity
  8
YKK_ZWAK
  6
Continuous
 62
   254
100
AcDbLine
 10
561.529756
 20
24.606427
 30
0.0
 11
559.290171
 21
24.606427
 31
0.0
  0
ARC
  5
9F
330
25
100
AcDbEntity
  8
YKK_ZWAK
  6
Continuous
 62
   254
100
AcDbCircle
 10
567.19412132
 20
20.11358836
 30
0.0
 40
3.10079004118515
100
AcDbArc
 50
14.44572328
 51
87.08746338
  0
ARC
  5
A0
330
25
100
AcDbEntity
  8
YKK_ZWAK
  6
Continuous
 62
   254
100
AcDbCircle
 10
564.36413966
 20
17.54165325
 30
0.0
 40
2.640498151312115
100
AcDbArc
 50
343.69020327
 51
354.7536235
  0
ARC
  5
A1
330
25
100
AcDbEntity
  8
YKK_ZWAK
  6
Continuous
 62
   254
100
AcDbCircle
 10
566.00966971
 20
17.08269286
 30
0.0
 40
0.9326761550249523
100
AcDbArc
 50
269.95468111
 51
342.90144849
  0
ARC
  5
A2
330
25
100
AcDbEntity
  8
YKK_ZWAK
  6
Continuous
 62
   254
100
AcDbCircle
 10
566.04623887
 20
19.3715952
 30
0.0
 40
0.8777839045469994
100
AcDbArc
 50
16.43123457
 51
96.91661396
  0
ARC
  5
A3
330
25
100
AcDbEntity
  8
YKK_ZWAK
  6
Continuous
 62
   254
100
AcDbCircle
 10
564.37945167
 20
18.85119468
 30
0.0
 40
2.623848066620805
100
AcDbArc
 50
4.93422741
 51
17.03551963
  0
LINE
  5
A4
330
25
100
AcDbEntity
  8
YKK_ZWAK
  6
Continuous
 62
   254
100
AcDbLine
 10
567.283206
 20
13.196086
 30
0.0
 11
568.055449
 21
13.369828
 31
0.0
  0
LINE
  5
A5
330
25
100
AcDbEntity
  8
YKK_ZWAK
  6
Continuous
 62
   254
100
AcDbLine
 10
566.980872
 20
19.173458
 30
0.0
 11
566.993576
 21
17.29190622
 31
0.0
  0
ARC
  5
A6
330
25
100
AcDbEntity
  8
YKK_ZWAK
  6
Continuous
 62
   254
100
AcDbCircle
 10
555.54697452
 20
18.15146785
 30
0.0
 40
14.90004285451682
100
AcDbArc
 50
350.99026817
 51
10.67624521
  0
LINE
  5
A7
330
25
100
AcDbEntity
  8
YKK_ZWAK
  6
Continuous
 62
   254
100
AcDbLine
 10
569.831709
 20
24.645041
 30
0.0
 11
567.572791
 21
24.645041
 31
0.0
  0
LINE
  5
A8
330
25
100
AcDbEntity
  8
YKK_ZWAK
  6
Continuous
 62
   254
100
AcDbLine
 10
567.572791
 20
27.772759
 30
0.0
 11
567.263877
 21
27.888602
 31
0.0
  0
LINE
  5
A9
330
25
100
AcDbEntity
  8
YKK_ZWAK
  6
Continuous
 62
   254
100
AcDbLine
 10
567.263877
 20
27.888602
 30
0.0
 11
564.985674
 21
27.888602
 31
0.0
  0
LINE
  5
AA
330
25
100
AcDbEntity
  8
YKK_ZWAK
  6
Continuous
 62
   254
100
AcDbLine
 10
564.985674
 20
27.888602
 30
0.0
 11
564.985674
 21
24.625712
 31
0.0
  0
LINE
  5
AB
330
25
100
AcDbEntity
  8
YKK_ZWAK
  6
Continuous
 62
   254
100
AcDbLine
 10
567.572791
 20
24.645041
 30
0.0
 11
567.572791
 21
27.772759
 31
0.0
  0
LINE
  5
AC
330
25
100
AcDbEntity
  8
YKK_ZWAK
  6
Continuous
 62
   254
100
AcDbLine
 10
567.572791
 20
24.681182
 30
0.0
 11
567.608933
 21
24.645041
 31
0.0
  0
LINE
  5
AD
330
25
100
AcDbEntity
  8
YKK_ZWAK
  6
Continuous
 62
   254
100
AcDbLine
 10
569.831709
 20
28.236131
 30
0.0
 11
569.831709
 21
24.645041
 31
0.0
  0
LINE
  5
AE
330
25
100
AcDbEntity
  8
YKK_ZWAK
  6
Continuous
 62
   254
100
AcDbLine
 10
562.553028
 20
33.487594
 30
0.0
 11
564.889116
 21
33.487594
 31
0.0
  0
LINE
  5
AF
330
25
100
AcDbEntity
  8
YKK_ZWAK
  6
Continuous
 62
   254
100
AcDbLine
 10
556.625823
 20
29.768591
 30
0.0
 11
559.03917
 21
33.44898
 31
0.0
  0
LINE
  5
B0
330
25
100
AcDbEntity
  8
YKK_ZWAK
  6
Continuous
 62
   254
100
AcDbLine
 10
556.625823
 20
33.410366
 30
0.0
 11
556.625823
 21
29.768591
 31
0.0
  0
LINE
  5
B1
330
25
100
AcDbEntity
  8
YKK_ZWAK
  6
Continuous
 62
   254
100
AcDbLine
 10
554.328297
 20
33.410366
 30
0.0
 11
556.625823
 21
33.410366
 31
0.0
  0
LINE
  5
B2
330
25
100
AcDbEntity
  8
YKK_ZWAK
  6
Continuous
 62
   254
100
AcDbLine
 10
559.985256
 20
29.780661
 30
0.0
 11
559.242942
 21
29.780661
 31
0.0
  0
LINE
  5
B3
330
25
100
AcDbEntity
  8
YKK_ZWAK
  6
Continuous
 62
   254
100
AcDbLine
 10
561.771363
 20
33.44898
 30
0.0
 11
559.242942
 21
29.780661
 31
0.0
  0
LINE
  5
B4
330
25
100
AcDbEntity
  8
YKK_ZWAK
  6
Continuous
 62
   254
100
AcDbLine
 10
559.03917
 20
33.44898
 30
0.0
 11
561.771363
 21
33.44898
 31
0.0
  0
LINE
  5
B5
330
25
100
AcDbEntity
  8
YKK_ZWAK
  6
Continuous
 62
   254
100
AcDbLine
 10
569.773765
 20
33.024222
 30
0.0
 11
567.543842
 21
29.838605
 31
0.0
  0
LINE
  5
B6
330
25
100
AcDbEntity
  8
YKK_ZWAK
  6
Continuous
 62
   254
100
AcDbLine
 10
567.341105
 20
33.487594
 30
0.0
 11
570.044065
 21
33.487594
 31
0.0
  0
LINE
  5
B7
330
25
100
AcDbEntity
  8
YKK_ZWAK
  6
Continuous
 62
   254
100
AcDbLine
 10
568.286156
 20
29.838605
 30
0.0
 11
567.543842
 21
29.838605
 31
0.0
  0
LINE
  5
B8
330
25
100
AcDbEntity
  8
YKK_ZWAK
  6
Continuous
 62
   254
100
AcDbLine
 10
564.889116
 20
29.779236
 30
0.0
 11
567.341105
 21
33.487594
 31
0.0
  0
LINE
  5
B9
330
25
100
AcDbEntity
  8
YKK_ZWAK
  6
Continuous
 62
   254
100
AcDbLine
 10
564.889116
 20
33.487594
 30
0.0
 11
564.889116
 21
29.779236
 31
0.0
  0
LINE
  5
BA
330
25
100
AcDbEntity
  8
YKK_ZWAK
  6
Continuous
 62
   254
100
AcDbLine
 10
570.044065
 20
33.487594
 30
0.0
 11
569.773765
 21
33.024222
 31
0.0
  0
LINE
  5
BB
330
25
100
AcDbEntity
  8
YKK_ZWAK
  6
Continuous
 62
     8
100
AcDbLine
 10
573.126014
 20
168.559504
 30
0.0
 11
585.726014
 21
168.559504
 31
0.0
  0
LINE
  5
BC
330
25
100
AcDbEntity
  8
YKK_ZWAK
  6
Continuous
 62
     8
100
AcDbLine
 10
573.126014
 20
154.419504
 30
0.0
 11
585.726014
 21
154.419504
 31
0.0
  0
LINE
  5
BD
330
25
100
AcDbEntity
  8
YKK_ZWAK
  6
Continuous
 62
     8
100
AcDbLine
 10
573.126014
 20
140.279503
 30
0.0
 11
585.726014
 21
140.279503
 31
0.0
  0
LINE
  5
BE
330
25
100
AcDbEntity
  8
YKK_ZWAK
  6
Continuous
 62
     8
100
AcDbLine
 10
573.126014
 20
126.139503
 30
0.0
 11
585.726014
 21
126.139503
 31
0.0
  0
LINE
  5
BF
330
25
100
AcDbEntity
  8
YKK_ZWAK
  6
Continuous
 62
     8
100
AcDbLine
 10
573.126014
 20
111.999503
 30
0.0
 11
585.726014
 21
111.999503
 31
0.0
  0
LINE
  5
C0
330
25
100
AcDbEntity
  8
YKK_ZWAK
  6
Continuous
 62
     8
100
AcDbLine
 10
573.126014
 20
97.859502
 30
0.0
 11
585.726014
 21
97.859502
 31
0.0
  0
LINE
  5
C1
330
25
100
AcDbEntity
  8
YKK_ZWAK
  6
Continuous
 62
     8
100
AcDbLine
 10
573.126014
 20
83.719502
 30
0.0
 11
585.726014
 21
83.719502
 31
0.0
  0
CIRCLE
  5
C2
330
25
100
AcDbEntity
  8
YKK_ZWAK
  6
Continuous
 62
     8
100
AcDbCircle
 10
579.426014
 20
168.559504
 30
0.0
 40
6.299999999999999
  0
CIRCLE
  5
C3
330
25
100
AcDbEntity
  8
YKK_ZWAK
  6
Continuous
 62
     8
100
AcDbCircle
 10
579.426014
 20
140.279503
 30
0.0
 40
6.299999999999999
  0
CIRCLE
  5
C4
330
25
100
AcDbEntity
  8
YKK_ZWAK
  6
Continuous
 62
     8
100
AcDbCircle
 10
579.426014
 20
111.999503
 30
0.0
 40
6.299999999999999
  0
CIRCLE
  5
C5
330
25
100
AcDbEntity
  8
YKK_ZWAK
  6
Continuous
 62
     8
100
AcDbCircle
 10
579.426014
 20
154.419504
 30
0.0
 40
6.299999999999999
  0
CIRCLE
  5
C6
330
25
100
AcDbEntity
  8
YKK_ZWAK
  6
Continuous
 62
     8
100
AcDbCircle
 10
579.426014
 20
126.139503
 30
0.0
 40
6.299999999999999
  0
CIRCLE
  5
C7
330
25
100
AcDbEntity
  8
YKK_ZWAK
  6
Continuous
 62
     8
100
AcDbCircle
 10
579.426014
 20
97.859502
 30
0.0
 40
6.299999999999999
  0
LINE
  5
C8
330
25
100
AcDbEntity
  8
YKK_ZWAK
  6
Continuous
 62
   254
100
AcDbLine
 10
571.000014
 20
222.4995055
 30
0.0
 11
573.000014
 21
222.4995055
 31
0.0
  0
TEXT
  5
C9
330
25
100
AcDbEntity
  8
YKK_ZWAK
  6
Continuous
 62
   131
100
AcDbText
 10
408.18209354
 20
9.752325
 30
0.0
 40
3.5
  1
 ． ．
 41
0.9
  7
YKK_OSSTYLE1
100
AcDbText
  0
TEXT
  5
CA
330
25
100
AcDbEntity
  8
YKK_ZWAK
  6
Continuous
 62
   131
100
AcDbText
 10
424.18209354
 20
9.752325
 30
0.0
 40
3.5
  1
 ． ．
 41
0.9
  7
YKK_OSSTYLE1
100
AcDbText
  0
LINE
  5
CB
330
25
100
AcDbEntity
  8
YKK_ZWAK
  6
Continuous
 62
   131
100
AcDbLine
 10
459.1999862
 20
10.4995
 30
0.0
 11
459.1999862
 21
8.9995
 31
0.0
  0
LINE
  5
CC
330
25
100
AcDbEntity
  8
YKK_ZWAK
  6
Continuous
 62
   131
100
AcDbLine
 10
462.7999738
 20
10.4995
 30
0.0
 11
462.7999738
 21
8.9995
 31
0.0
  0
LINE
  5
CD
330
25
100
AcDbEntity
  8
YKK_ZWAK
  6
Continuous
 62
   131
100
AcDbLine
 10
466.3999614
 20
10.4995
 30
0.0
 11
466.3999614
 21
8.9995
 31
0.0
  0
LINE
  5
CE
330
25
100
AcDbEntity
  8
YKK_ZWAK
  6
Continuous
 62
   131
100
AcDbLine
 10
469.999949
 20
10.4995
 30
0.0
 11
469.999949
 21
8.9995
 31
0.0
  0
LINE
  5
CF
330
25
100
AcDbEntity
  8
YKK_ZWAK
  6
Continuous
 62
   131
100
AcDbLine
 10
473.5999366
 20
10.4995
 30
0.0
 11
473.5999366
 21
8.9995
 31
0.0
  0
LINE
  5
D0
330
25
100
AcDbEntity
  8
YKK_ZWAK
  6
Continuous
 62
   131
100
AcDbLine
 10
477.1999242
 20
10.4995
 30
0.0
 11
477.1999242
 21
8.9995
 31
0.0
  0
LINE
  5
D1
330
25
100
AcDbEntity
  8
YKK_ZWAK
  6
Continuous
 62
   131
100
AcDbLine
 10
480.7999118
 20
10.4995
 30
0.0
 11
480.7999118
 21
8.9995
 31
0.0
  0
LINE
  5
D2
330
25
100
AcDbEntity
  8
YKK_ZWAK
  6
Continuous
 62
   131
100
AcDbLine
 10
484.3998994
 20
10.4995
 30
0.0
 11
484.3998994
 21
8.9995
 31
0.0
  0
LINE
  5
D3
330
25
100
AcDbEntity
  8
YKK_ZWAK
  6
Continuous
 62
   131
100
AcDbLine
 10
487.999887
 20
10.4995
 30
0.0
 11
487.999887
 21
8.9995
 31
0.0
  0
LINE
  5
D4
330
25
100
AcDbEntity
  8
YKK_ZWAK
  6
Continuous
 62
   131
100
AcDbLine
 10
491.5998746
 20
10.4995
 30
0.0
 11
491.5998746
 21
8.9995
 31
0.0
  0
LINE
  5
D5
330
25
100
AcDbEntity
  8
YKK_ZWAK
  6
Continuous
 62
   131
100
AcDbLine
 10
495.1998622
 20
10.4995
 30
0.0
 11
495.1998622
 21
8.9995
 31
0.0
  0
LINE
  5
D6
330
25
100
AcDbEntity
  8
YKK_ZWAK
  6
Continuous
 62
   131
100
AcDbLine
 10
498.7998498
 20
10.4995
 30
0.0
 11
498.7998498
 21
8.9995
 31
0.0
  0
LINE
  5
D7
330
25
100
AcDbEntity
  8
YKK_ZWAK
  6
Continuous
 62
   131
100
AcDbLine
 10
502.3998374
 20
10.4995
 30
0.0
 11
502.3998374
 21
8.9995
 31
0.0
  0
LINE
  5
D8
330
25
100
AcDbEntity
  8
YKK_ZWAK
  6
Continuous
 62
   131
100
AcDbLine
 10
505.999825
 20
10.4995
 30
0.0
 11
505.999825
 21
8.9995
 31
0.0
  0
LINE
  5
D9
330
25
100
AcDbEntity
  8
YKK_ZWAK
  6
Continuous
 62
   131
100
AcDbLine
 10
509.5998126
 20
10.4995
 30
0.0
 11
509.5998126
 21
8.9995
 31
0.0
  0
LINE
  5
DA
330
25
100
AcDbEntity
  8
YKK_ZWAK
  6
Continuous
 62
   131
100
AcDbLine
 10
513.1998002
 20
10.4995
 30
0.0
 11
513.1998002
 21
8.9995
 31
0.0
  0
LINE
  5
DB
330
25
100
AcDbEntity
  8
YKK_ZWAK
  6
Continuous
 62
   131
100
AcDbLine
 10
516.7997878
 20
10.4995
 30
0.0
 11
516.7997878
 21
8.9995
 31
0.0
  0
LINE
  5
DC
330
25
100
AcDbEntity
  8
YKK_ZWAK
  6
Continuous
 62
   131
100
AcDbLine
 10
520.3997754
 20
10.4995
 30
0.0
 11
520.3997754
 21
8.9995
 31
0.0
  0
ENDBLK
  5
DE
330
25
100
AcDbEntity
  8
0
100
AcDbBlockEnd
  0
ENDSEC
  0
SECTION
  2
ENTITIES
  0
INSERT
  5
23
330
2
100
AcDbEntity
  8
YKK_ZWAK
100
AcDbBlockReference
  2
A201
 10
-266.000014
 20
-125.993
 30
0.0
 41
14.0
 42
14.0
 43
14.0
  0
TEXT
  5
E3
330
2
100
AcDbEntity
  8
USER1
 62
     3
100
AcDbText
 10
5879.999986
 20
210.007
 30
0.0
 40
56.0
  1
1
100
AcDbText
  0
TEXT
  5
E4
330
2
100
AcDbEntity
  8
USER1
 62
     3
100
AcDbText
 10
5955.33331933
 20
154.007
 30
0.0
 40
56.0
  1
1
 72
     1
 11
5977.999986
 21
182.007
 31
0.0
100
AcDbText
 73
     2
  0
LINE
  5
566
330
2
100
AcDbEntity
  8
YKK_A1
100
AcDbLine
 10
983.02755728
 20
4893.72181661
 30
0.0
 11
983.02755728
 21
4441.72181101
 31
0.0
  0
LINE
  5
567
330
2
100
AcDbEntity
  8
YKK_A1
100
AcDbLine
 10
998.02755639
 20
4893.72181661
 30
0.0
 11
998.02755639
 21
4441.72181101
 31
0.0
  0
LINE
  5
568
330
2
100
AcDbEntity
  8
YKK_A1
100
AcDbLine
 10
2970.37761862
 20
4893.72181662
 30
0.0
 11
2970.37761862
 21
4927.72181381
 31
0.0
  0
LINE
  5
569
330
2
100
AcDbEntity
  8
YKK_A1
100
AcDbLine
 10
975.37773604
 20
4441.72181101
 30
0.0
 11
2970.37761861
 21
4441.72181101
 31
0.0
  0
LINE
  5
56A
330
2
100
AcDbEntity
  8
YKK_A1
100
AcDbLine
 10
975.37773604
 20
4893.72181661
 30
0.0
 11
2970.37761862
 21
4893.72181661
 31
0.0
  0
LINE
  5
56B
330
2
100
AcDbEntity
  8
YKK_A1
100
AcDbLine
 10
975.37773604
 20
4893.72181661
 30
0.0
 11
975.37773604
 21
4927.72181381
 31
0.0
  0
LINE
  5
56C
330
2
100
AcDbEntity
  8
YKK_A1
100
AcDbLine
 10
975.37773604
 20
4927.72181381
 30
0.0
 11
2970.37761861
 21
4927.72181381
 31
0.0
  0
LINE
  5
56D
330
2
100
AcDbEntity
  8
YKK_A1
100
AcDbLine
 10
975.37773604
 20
4407.72181381
 30
0.0
 11
975.37773604
 21
4441.72181101
 31
0.0
  0
LINE
  5
56E
330
2
100
AcDbEntity
  8
YKK_A1
100
AcDbLine
 10
2970.37761861
 20
4407.72181381
 30
0.0
 11
975.37773604
 21
4407.72181381
 31
0.0
  0
LINE
  5
56F
330
2
100
AcDbEntity
  8
YKK_A1
100
AcDbLine
 10
2970.37761861
 20
4407.72181381
 30
0.0
 11
2970.37761861
 21
4441.72181101
 31
0.0
  0
LINE
  5
570
330
2
100
AcDbEntity
  8
YKK_A1
100
AcDbLine
 10
1016.32755728
 20
4893.72181661
 30
0.0
 11
1016.32755728
 21
4441.72181101
 31
0.0
  0
LINE
  5
571
330
2
100
AcDbEntity
  8
YKK_A1
100
AcDbLine
 10
1031.32755639
 20
4893.72181661
 30
0.0
 11
1031.32755639
 21
4441.72181101
 31
0.0
  0
LINE
  5
572
330
2
100
AcDbEntity
  8
YKK_A1
100
AcDbLine
 10
1049.62755728
 20
4893.72181661
 30
0.0
 11
1049.62755728
 21
4441.72181101
 31
0.0
  0
LINE
  5
573
330
2
100
AcDbEntity
  8
YKK_A1
100
AcDbLine
 10
1064.62755639
 20
4893.72181661
 30
0.0
 11
1064.62755639
 21
4441.72181101
 31
0.0
  0
LINE
  5
574
330
2
100
AcDbEntity
  8
YKK_A1
100
AcDbLine
 10
1082.92755728
 20
4893.72181661
 30
0.0
 11
1082.92755728
 21
4441.72181101
 31
0.0
  0
LINE
  5
575
330
2
100
AcDbEntity
  8
YKK_A1
100
AcDbLine
 10
1097.92755639
 20
4893.72181661
 30
0.0
 11
1097.92755639
 21
4441.72181101
 31
0.0
  0
LINE
  5
576
330
2
100
AcDbEntity
  8
YKK_A1
100
AcDbLine
 10
1116.22755728
 20
4893.72181661
 30
0.0
 11
1116.22755728
 21
4441.72181101
 31
0.0
  0
LINE
  5
577
330
2
100
AcDbEntity
  8
YKK_A1
100
AcDbLine
 10
1131.22755639
 20
4893.72181661
 30
0.0
 11
1131.22755639
 21
4441.72181101
 31
0.0
  0
LINE
  5
578
330
2
100
AcDbEntity
  8
YKK_A1
100
AcDbLine
 10
1149.52755728
 20
4893.72181661
 30
0.0
 11
1149.52755728
 21
4441.72181101
 31
0.0
  0
LINE
  5
579
330
2
100
AcDbEntity
  8
YKK_A1
100
AcDbLine
 10
1164.52755639
 20
4893.72181661
 30
0.0
 11
1164.52755639
 21
4441.72181101
 31
0.0
  0
LINE
  5
57A
330
2
100
AcDbEntity
  8
YKK_A1
100
AcDbLine
 10
1182.82755728
 20
4893.72181661
 30
0.0
 11
1182.82755728
 21
4441.72181101
 31
0.0
  0
LINE
  5
57B
330
2
100
AcDbEntity
  8
YKK_A1
100
AcDbLine
 10
1197.82755639
 20
4893.72181661
 30
0.0
 11
1197.82755639
 21
4441.72181101
 31
0.0
  0
LINE
  5
57C
330
2
100
AcDbEntity
  8
YKK_A1
100
AcDbLine
 10
1216.12755728
 20
4893.72181661
 30
0.0
 11
1216.12755728
 21
4441.72181101
 31
0.0
  0
LINE
  5
57D
330
2
100
AcDbEntity
  8
YKK_A1
100
AcDbLine
 10
1231.12755639
 20
4893.72181661
 30
0.0
 11
1231.12755639
 21
4441.72181101
 31
0.0
  0
LINE
  5
57E
330
2
100
AcDbEntity
  8
YKK_A1
100
AcDbLine
 10
1249.42755728
 20
4893.72181661
 30
0.0
 11
1249.42755728
 21
4441.72181101
 31
0.0
  0
LINE
  5
57F
330
2
100
AcDbEntity
  8
YKK_A1
100
AcDbLine
 10
1264.42755639
 20
4893.72181661
 30
0.0
 11
1264.42755639
 21
4441.72181101
 31
0.0
  0
LINE
  5
580
330
2
100
AcDbEntity
  8
YKK_A1
100
AcDbLine
 10
1282.72755728
 20
4893.72181661
 30
0.0
 11
1282.72755728
 21
4441.72181101
 31
0.0
  0
LINE
  5
581
330
2
100
AcDbEntity
  8
YKK_A1
100
AcDbLine
 10
1297.72755639
 20
4893.72181661
 30
0.0
 11
1297.72755639
 21
4441.72181101
 31
0.0
  0
LINE
  5
582
330
2
100
AcDbEntity
  8
YKK_A1
100
AcDbLine
 10
1316.02755728
 20
4893.72181661
 30
0.0
 11
1316.02755728
 21
4441.72181101
 31
0.0
  0
LINE
  5
583
330
2
100
AcDbEntity
  8
YKK_A1
100
AcDbLine
 10
1331.02755639
 20
4893.72181661
 30
0.0
 11
1331.02755639
 21
4441.72181101
 31
0.0
  0
LINE
  5
584
330
2
100
AcDbEntity
  8
YKK_A1
100
AcDbLine
 10
1349.32755728
 20
4893.72181661
 30
0.0
 11
1349.32755728
 21
4441.72181101
 31
0.0
  0
LINE
  5
585
330
2
100
AcDbEntity
  8
YKK_A1
100
AcDbLine
 10
1364.32755639
 20
4893.72181661
 30
0.0
 11
1364.32755639
 21
4441.72181101
 31
0.0
  0
LINE
  5
586
330
2
100
AcDbEntity
  8
YKK_A1
100
AcDbLine
 10
1382.62755728
 20
4893.72181661
 30
0.0
 11
1382.62755728
 21
4441.72181101
 31
0.0
  0
LINE
  5
587
330
2
100
AcDbEntity
  8
YKK_A1
100
AcDbLine
 10
1397.62755639
 20
4893.72181661
 30
0.0
 11
1397.62755639
 21
4441.72181101
 31
0.0
  0
LINE
  5
588
330
2
100
AcDbEntity
  8
YKK_A1
100
AcDbLine
 10
1415.92755728
 20
4893.72181661
 30
0.0
 11
1415.92755728
 21
4441.72181101
 31
0.0
  0
LINE
  5
589
330
2
100
AcDbEntity
  8
YKK_A1
100
AcDbLine
 10
1430.92755639
 20
4893.72181661
 30
0.0
 11
1430.92755639
 21
4441.72181101
 31
0.0
  0
LINE
  5
58A
330
2
100
AcDbEntity
  8
YKK_A1
100
AcDbLine
 10
1449.22755728
 20
4893.72181661
 30
0.0
 11
1449.22755728
 21
4441.72181101
 31
0.0
  0
LINE
  5
58B
330
2
100
AcDbEntity
  8
YKK_A1
100
AcDbLine
 10
1464.22755639
 20
4893.72181661
 30
0.0
 11
1464.22755639
 21
4441.72181101
 31
0.0
  0
LINE
  5
58C
330
2
100
AcDbEntity
  8
YKK_A1
100
AcDbLine
 10
1482.52755728
 20
4893.72181661
 30
0.0
 11
1482.52755728
 21
4441.72181101
 31
0.0
  0
LINE
  5
58D
330
2
100
AcDbEntity
  8
YKK_A1
100
AcDbLine
 10
1497.52755639
 20
4893.72181661
 30
0.0
 11
1497.52755639
 21
4441.72181101
 31
0.0
  0
LINE
  5
58E
330
2
100
AcDbEntity
  8
YKK_A1
100
AcDbLine
 10
1515.82755728
 20
4893.72181661
 30
0.0
 11
1515.82755728
 21
4441.72181101
 31
0.0
  0
LINE
  5
58F
330
2
100
AcDbEntity
  8
YKK_A1
100
AcDbLine
 10
1530.82755639
 20
4893.72181661
 30
0.0
 11
1530.82755639
 21
4441.72181101
 31
0.0
  0
LINE
  5
590
330
2
100
AcDbEntity
  8
YKK_A1
100
AcDbLine
 10
1549.12755728
 20
4893.72181661
 30
0.0
 11
1549.12755728
 21
4441.72181101
 31
0.0
  0
LINE
  5
591
330
2
100
AcDbEntity
  8
YKK_A1
100
AcDbLine
 10
1564.12755639
 20
4893.72181661
 30
0.0
 11
1564.12755639
 21
4441.72181101
 31
0.0
  0
LINE
  5
592
330
2
100
AcDbEntity
  8
YKK_A1
100
AcDbLine
 10
1582.42755728
 20
4893.72181661
 30
0.0
 11
1582.42755728
 21
4441.72181101
 31
0.0
  0
LINE
  5
593
330
2
100
AcDbEntity
  8
YKK_A1
100
AcDbLine
 10
1597.42755639
 20
4893.72181661
 30
0.0
 11
1597.42755639
 21
4441.72181101
 31
0.0
  0
LINE
  5
594
330
2
100
AcDbEntity
  8
YKK_A1
100
AcDbLine
 10
1615.72755728
 20
4893.72181661
 30
0.0
 11
1615.72755728
 21
4441.72181101
 31
0.0
  0
LINE
  5
595
330
2
100
AcDbEntity
  8
YKK_A1
100
AcDbLine
 10
1630.72755639
 20
4893.72181661
 30
0.0
 11
1630.72755639
 21
4441.72181101
 31
0.0
  0
LINE
  5
596
330
2
100
AcDbEntity
  8
YKK_A1
100
AcDbLine
 10
1649.02755728
 20
4893.72181661
 30
0.0
 11
1649.02755728
 21
4441.72181101
 31
0.0
  0
LINE
  5
597
330
2
100
AcDbEntity
  8
YKK_A1
100
AcDbLine
 10
1664.02755639
 20
4893.72181661
 30
0.0
 11
1664.02755639
 21
4441.72181101
 31
0.0
  0
LINE
  5
598
330
2
100
AcDbEntity
  8
YKK_A1
100
AcDbLine
 10
1682.32755728
 20
4893.72181661
 30
0.0
 11
1682.32755728
 21
4441.72181101
 31
0.0
  0
LINE
  5
599
330
2
100
AcDbEntity
  8
YKK_A1
100
AcDbLine
 10
1697.32755639
 20
4893.72181661
 30
0.0
 11
1697.32755639
 21
4441.72181101
 31
0.0
  0
LINE
  5
59A
330
2
100
AcDbEntity
  8
YKK_A1
100
AcDbLine
 10
1715.62755728
 20
4893.72181661
 30
0.0
 11
1715.62755728
 21
4441.72181101
 31
0.0
  0
LINE
  5
59B
330
2
100
AcDbEntity
  8
YKK_A1
100
AcDbLine
 10
1730.62755639
 20
4893.72181661
 30
0.0
 11
1730.62755639
 21
4441.72181101
 31
0.0
  0
LINE
  5
59C
330
2
100
AcDbEntity
  8
YKK_A1
100
AcDbLine
 10
1748.92755728
 20
4893.72181661
 30
0.0
 11
1748.92755728
 21
4441.72181101
 31
0.0
  0
LINE
  5
59D
330
2
100
AcDbEntity
  8
YKK_A1
100
AcDbLine
 10
1763.92755639
 20
4893.72181661
 30
0.0
 11
1763.92755639
 21
4441.72181101
 31
0.0
  0
LINE
  5
59E
330
2
100
AcDbEntity
  8
YKK_A1
100
AcDbLine
 10
1782.22755728
 20
4893.72181661
 30
0.0
 11
1782.22755728
 21
4441.72181101
 31
0.0
  0
LINE
  5
59F
330
2
100
AcDbEntity
  8
YKK_A1
100
AcDbLine
 10
1797.22755639
 20
4893.72181661
 30
0.0
 11
1797.22755639
 21
4441.72181101
 31
0.0
  0
LINE
  5
5A0
330
2
100
AcDbEntity
  8
YKK_A1
100
AcDbLine
 10
1815.52755728
 20
4893.72181661
 30
0.0
 11
1815.52755728
 21
4441.72181101
 31
0.0
  0
LINE
  5
5A1
330
2
100
AcDbEntity
  8
YKK_A1
100
AcDbLine
 10
1830.52755639
 20
4893.72181661
 30
0.0
 11
1830.52755639
 21
4441.72181101
 31
0.0
  0
LINE
  5
5A2
330
2
100
AcDbEntity
  8
YKK_A1
100
AcDbLine
 10
1848.82755728
 20
4893.72181661
 30
0.0
 11
1848.82755728
 21
4441.72181101
 31
0.0
  0
LINE
  5
5A3
330
2
100
AcDbEntity
  8
YKK_A1
100
AcDbLine
 10
1863.82755639
 20
4893.72181661
 30
0.0
 11
1863.82755639
 21
4441.72181101
 31
0.0
  0
LINE
  5
5A4
330
2
100
AcDbEntity
  8
YKK_A1
100
AcDbLine
 10
1882.12755728
 20
4893.72181661
 30
0.0
 11
1882.12755728
 21
4441.72181101
 31
0.0
  0
LINE
  5
5A5
330
2
100
AcDbEntity
  8
YKK_A1
100
AcDbLine
 10
1897.12755639
 20
4893.72181661
 30
0.0
 11
1897.12755639
 21
4441.72181101
 31
0.0
  0
LINE
  5
5A6
330
2
100
AcDbEntity
  8
YKK_A1
100
AcDbLine
 10
1915.42755728
 20
4893.72181661
 30
0.0
 11
1915.42755728
 21
4441.72181101
 31
0.0
  0
LINE
  5
5A7
330
2
100
AcDbEntity
  8
YKK_A1
100
AcDbLine
 10
1930.42755639
 20
4893.72181661
 30
0.0
 11
1930.42755639
 21
4441.72181101
 31
0.0
  0
LINE
  5
5A8
330
2
100
AcDbEntity
  8
YKK_A1
100
AcDbLine
 10
1948.72755728
 20
4893.72181661
 30
0.0
 11
1948.72755728
 21
4441.72181101
 31
0.0
  0
LINE
  5
5A9
330
2
100
AcDbEntity
  8
YKK_A1
100
AcDbLine
 10
1963.72755639
 20
4893.72181661
 30
0.0
 11
1963.72755639
 21
4441.72181101
 31
0.0
  0
LINE
  5
5AA
330
2
100
AcDbEntity
  8
YKK_A1
100
AcDbLine
 10
1982.02755728
 20
4893.72181661
 30
0.0
 11
1982.02755728
 21
4441.72181101
 31
0.0
  0
LINE
  5
5AB
330
2
100
AcDbEntity
  8
YKK_A1
100
AcDbLine
 10
1997.02755639
 20
4893.72181661
 30
0.0
 11
1997.02755639
 21
4441.72181101
 31
0.0
  0
LINE
  5
5AC
330
2
100
AcDbEntity
  8
YKK_A1
100
AcDbLine
 10
2015.32755728
 20
4893.72181661
 30
0.0
 11
2015.32755728
 21
4441.72181101
 31
0.0
  0
LINE
  5
5AD
330
2
100
AcDbEntity
  8
YKK_A1
100
AcDbLine
 10
2030.32755639
 20
4893.72181661
 30
0.0
 11
2030.32755639
 21
4441.72181101
 31
0.0
  0
LINE
  5
5AE
330
2
100
AcDbEntity
  8
YKK_A1
100
AcDbLine
 10
2048.62755728
 20
4893.72181661
 30
0.0
 11
2048.62755728
 21
4441.72181101
 31
0.0
  0
LINE
  5
5AF
330
2
100
AcDbEntity
  8
YKK_A1
100
AcDbLine
 10
2063.62755639
 20
4893.72181661
 30
0.0
 11
2063.62755639
 21
4441.72181101
 31
0.0
  0
LINE
  5
5B0
330
2
100
AcDbEntity
  8
YKK_A1
100
AcDbLine
 10
2081.92755728
 20
4893.72181661
 30
0.0
 11
2081.92755728
 21
4441.72181101
 31
0.0
  0
LINE
  5
5B1
330
2
100
AcDbEntity
  8
YKK_A1
100
AcDbLine
 10
2096.92755639
 20
4893.72181661
 30
0.0
 11
2096.92755639
 21
4441.72181101
 31
0.0
  0
LINE
  5
5B2
330
2
100
AcDbEntity
  8
YKK_A1
100
AcDbLine
 10
2115.22755728
 20
4893.72181661
 30
0.0
 11
2115.22755728
 21
4441.72181101
 31
0.0
  0
LINE
  5
5B3
330
2
100
AcDbEntity
  8
YKK_A1
100
AcDbLine
 10
2130.22755639
 20
4893.72181661
 30
0.0
 11
2130.22755639
 21
4441.72181101
 31
0.0
  0
LINE
  5
5B4
330
2
100
AcDbEntity
  8
YKK_A1
100
AcDbLine
 10
2148.52755728
 20
4893.72181661
 30
0.0
 11
2148.52755728
 21
4441.72181101
 31
0.0
  0
LINE
  5
5B5
330
2
100
AcDbEntity
  8
YKK_A1
100
AcDbLine
 10
2163.52755639
 20
4893.72181661
 30
0.0
 11
2163.52755639
 21
4441.72181101
 31
0.0
  0
LINE
  5
5B6
330
2
100
AcDbEntity
  8
YKK_A1
100
AcDbLine
 10
2181.82755728
 20
4893.72181661
 30
0.0
 11
2181.82755728
 21
4441.72181101
 31
0.0
  0
LINE
  5
5B7
330
2
100
AcDbEntity
  8
YKK_A1
100
AcDbLine
 10
2196.82755639
 20
4893.72181661
 30
0.0
 11
2196.82755639
 21
4441.72181101
 31
0.0
  0
LINE
  5
5B8
330
2
100
AcDbEntity
  8
YKK_A1
100
AcDbLine
 10
2215.12755728
 20
4893.72181661
 30
0.0
 11
2215.12755728
 21
4441.72181101
 31
0.0
  0
LINE
  5
5B9
330
2
100
AcDbEntity
  8
YKK_A1
100
AcDbLine
 10
2230.12755639
 20
4893.72181661
 30
0.0
 11
2230.12755639
 21
4441.72181101
 31
0.0
  0
LINE
  5
5BA
330
2
100
AcDbEntity
  8
YKK_A1
100
AcDbLine
 10
2248.42755728
 20
4893.72181661
 30
0.0
 11
2248.42755728
 21
4441.72181101
 31
0.0
  0
LINE
  5
5BB
330
2
100
AcDbEntity
  8
YKK_A1
100
AcDbLine
 10
2263.42755639
 20
4893.72181661
 30
0.0
 11
2263.42755639
 21
4441.72181101
 31
0.0
  0
LINE
  5
5BC
330
2
100
AcDbEntity
  8
YKK_A1
100
AcDbLine
 10
2281.72755728
 20
4893.72181661
 30
0.0
 11
2281.72755728
 21
4441.72181101
 31
0.0
  0
LINE
  5
5BD
330
2
100
AcDbEntity
  8
YKK_A1
100
AcDbLine
 10
2296.72755639
 20
4893.72181661
 30
0.0
 11
2296.72755639
 21
4441.72181101
 31
0.0
  0
LINE
  5
5BE
330
2
100
AcDbEntity
  8
YKK_A1
100
AcDbLine
 10
2315.02755728
 20
4893.72181661
 30
0.0
 11
2315.02755728
 21
4441.72181101
 31
0.0
  0
LINE
  5
5BF
330
2
100
AcDbEntity
  8
YKK_A1
100
AcDbLine
 10
2330.02755639
 20
4893.72181661
 30
0.0
 11
2330.02755639
 21
4441.72181101
 31
0.0
  0
LINE
  5
5C0
330
2
100
AcDbEntity
  8
YKK_A1
100
AcDbLine
 10
2348.32755728
 20
4893.72181661
 30
0.0
 11
2348.32755728
 21
4441.72181101
 31
0.0
  0
LINE
  5
5C1
330
2
100
AcDbEntity
  8
YKK_A1
100
AcDbLine
 10
2363.32755639
 20
4893.72181661
 30
0.0
 11
2363.32755639
 21
4441.72181101
 31
0.0
  0
LINE
  5
5C2
330
2
100
AcDbEntity
  8
YKK_A1
100
AcDbLine
 10
2381.62755728
 20
4893.72181661
 30
0.0
 11
2381.62755728
 21
4441.72181101
 31
0.0
  0
LINE
  5
5C3
330
2
100
AcDbEntity
  8
YKK_A1
100
AcDbLine
 10
2396.62755639
 20
4893.72181661
 30
0.0
 11
2396.62755639
 21
4441.72181101
 31
0.0
  0
LINE
  5
5C4
330
2
100
AcDbEntity
  8
YKK_A1
100
AcDbLine
 10
2414.92755728
 20
4893.72181661
 30
0.0
 11
2414.92755728
 21
4441.72181101
 31
0.0
  0
LINE
  5
5C5
330
2
100
AcDbEntity
  8
YKK_A1
100
AcDbLine
 10
2429.92755639
 20
4893.72181661
 30
0.0
 11
2429.92755639
 21
4441.72181101
 31
0.0
  0
LINE
  5
5C6
330
2
100
AcDbEntity
  8
YKK_A1
100
AcDbLine
 10
2448.22755728
 20
4893.72181661
 30
0.0
 11
2448.22755728
 21
4441.72181101
 31
0.0
  0
LINE
  5
5C7
330
2
100
AcDbEntity
  8
YKK_A1
100
AcDbLine
 10
2463.22755639
 20
4893.72181661
 30
0.0
 11
2463.22755639
 21
4441.72181101
 31
0.0
  0
LINE
  5
5C8
330
2
100
AcDbEntity
  8
YKK_A1
100
AcDbLine
 10
2481.52755728
 20
4893.72181661
 30
0.0
 11
2481.52755728
 21
4441.72181101
 31
0.0
  0
LINE
  5
5C9
330
2
100
AcDbEntity
  8
YKK_A1
100
AcDbLine
 10
2496.52755639
 20
4893.72181661
 30
0.0
 11
2496.52755639
 21
4441.72181101
 31
0.0
  0
LINE
  5
5CA
330
2
100
AcDbEntity
  8
YKK_A1
100
AcDbLine
 10
2514.82755728
 20
4893.72181661
 30
0.0
 11
2514.82755728
 21
4441.72181101
 31
0.0
  0
LINE
  5
5CB
330
2
100
AcDbEntity
  8
YKK_A1
100
AcDbLine
 10
2529.82755639
 20
4893.72181661
 30
0.0
 11
2529.82755639
 21
4441.72181101
 31
0.0
  0
LINE
  5
5CC
330
2
100
AcDbEntity
  8
YKK_A1
100
AcDbLine
 10
2548.12755728
 20
4893.72181661
 30
0.0
 11
2548.12755728
 21
4441.72181101
 31
0.0
  0
LINE
  5
5CD
330
2
100
AcDbEntity
  8
YKK_A1
100
AcDbLine
 10
2563.12755639
 20
4893.72181661
 30
0.0
 11
2563.12755639
 21
4441.72181101
 31
0.0
  0
LINE
  5
5CE
330
2
100
AcDbEntity
  8
YKK_A1
100
AcDbLine
 10
2581.42755728
 20
4893.72181661
 30
0.0
 11
2581.42755728
 21
4441.72181101
 31
0.0
  0
LINE
  5
5CF
330
2
100
AcDbEntity
  8
YKK_A1
100
AcDbLine
 10
2596.42755639
 20
4893.72181661
 30
0.0
 11
2596.42755639
 21
4441.72181101
 31
0.0
  0
LINE
  5
5D0
330
2
100
AcDbEntity
  8
YKK_A1
100
AcDbLine
 10
2614.72755728
 20
4893.72181661
 30
0.0
 11
2614.72755728
 21
4441.72181101
 31
0.0
  0
LINE
  5
5D1
330
2
100
AcDbEntity
  8
YKK_A1
100
AcDbLine
 10
2629.72755639
 20
4893.72181661
 30
0.0
 11
2629.72755639
 21
4441.72181101
 31
0.0
  0
LINE
  5
5D2
330
2
100
AcDbEntity
  8
YKK_A1
100
AcDbLine
 10
2648.02755728
 20
4893.72181661
 30
0.0
 11
2648.02755728
 21
4441.72181101
 31
0.0
  0
LINE
  5
5D3
330
2
100
AcDbEntity
  8
YKK_A1
100
AcDbLine
 10
2663.02755639
 20
4893.72181661
 30
0.0
 11
2663.02755639
 21
4441.72181101
 31
0.0
  0
LINE
  5
5D4
330
2
100
AcDbEntity
  8
YKK_A1
100
AcDbLine
 10
2681.32755728
 20
4893.72181661
 30
0.0
 11
2681.32755728
 21
4441.72181101
 31
0.0
  0
LINE
  5
5D5
330
2
100
AcDbEntity
  8
YKK_A1
100
AcDbLine
 10
2696.32755639
 20
4893.72181661
 30
0.0
 11
2696.32755639
 21
4441.72181101
 31
0.0
  0
LINE
  5
5D6
330
2
100
AcDbEntity
  8
YKK_A1
100
AcDbLine
 10
2714.62755728
 20
4893.72181661
 30
0.0
 11
2714.62755728
 21
4441.72181101
 31
0.0
  0
LINE
  5
5D7
330
2
100
AcDbEntity
  8
YKK_A1
100
AcDbLine
 10
2729.62755639
 20
4893.72181661
 30
0.0
 11
2729.62755639
 21
4441.72181101
 31
0.0
  0
LINE
  5
5D8
330
2
100
AcDbEntity
  8
YKK_A1
100
AcDbLine
 10
2747.92755728
 20
4893.72181661
 30
0.0
 11
2747.92755728
 21
4441.72181101
 31
0.0
  0
LINE
  5
5D9
330
2
100
AcDbEntity
  8
YKK_A1
100
AcDbLine
 10
2762.92755639
 20
4893.72181661
 30
0.0
 11
2762.92755639
 21
4441.72181101
 31
0.0
  0
LINE
  5
5DA
330
2
100
AcDbEntity
  8
YKK_A1
100
AcDbLine
 10
2781.22755728
 20
4893.72181661
 30
0.0
 11
2781.22755728
 21
4441.72181101
 31
0.0
  0
LINE
  5
5DB
330
2
100
AcDbEntity
  8
YKK_A1
100
AcDbLine
 10
2796.22755639
 20
4893.72181661
 30
0.0
 11
2796.22755639
 21
4441.72181101
 31
0.0
  0
LINE
  5
5DC
330
2
100
AcDbEntity
  8
YKK_A1
100
AcDbLine
 10
2814.52755728
 20
4893.72181661
 30
0.0
 11
2814.52755728
 21
4441.72181101
 31
0.0
  0
LINE
  5
5DD
330
2
100
AcDbEntity
  8
YKK_A1
100
AcDbLine
 10
2829.52755639
 20
4893.72181661
 30
0.0
 11
2829.52755639
 21
4441.72181101
 31
0.0
  0
LINE
  5
5DE
330
2
100
AcDbEntity
  8
YKK_A1
100
AcDbLine
 10
2847.82755728
 20
4893.72181661
 30
0.0
 11
2847.82755728
 21
4441.72181101
 31
0.0
  0
LINE
  5
5DF
330
2
100
AcDbEntity
  8
YKK_A1
100
AcDbLine
 10
2862.82755639
 20
4893.72181661
 30
0.0
 11
2862.82755639
 21
4441.72181101
 31
0.0
  0
LINE
  5
5E0
330
2
100
AcDbEntity
  8
YKK_A1
100
AcDbLine
 10
2881.12755728
 20
4893.72181661
 30
0.0
 11
2881.12755728
 21
4441.72181101
 31
0.0
  0
LINE
  5
5E1
330
2
100
AcDbEntity
  8
YKK_A1
100
AcDbLine
 10
2896.12755639
 20
4893.72181661
 30
0.0
 11
2896.12755639
 21
4441.72181101
 31
0.0
  0
LINE
  5
5E2
330
2
100
AcDbEntity
  8
YKK_A1
100
AcDbLine
 10
2914.42755728
 20
4893.72181661
 30
0.0
 11
2914.42755728
 21
4441.72181101
 31
0.0
  0
LINE
  5
5E3
330
2
100
AcDbEntity
  8
YKK_A1
100
AcDbLine
 10
2929.42755639
 20
4893.72181661
 30
0.0
 11
2929.42755639
 21
4441.72181101
 31
0.0
  0
LINE
  5
5E4
330
2
100
AcDbEntity
  8
YKK_A1
100
AcDbLine
 10
2947.72755728
 20
4893.72181661
 30
0.0
 11
2947.72755728
 21
4441.72181101
 31
0.0
  0
LINE
  5
5E5
330
2
100
AcDbEntity
  8
YKK_A1
100
AcDbLine
 10
2962.72755639
 20
4893.72181661
 30
0.0
 11
2962.72755639
 21
4441.72181101
 31
0.0
  0
LINE
  5
5E6
330
2
100
AcDbEntity
  8
YKK_A1
100
AcDbLine
 10
983.02755728
 20
2975.04167772
 30
0.0
 11
983.02755728
 21
2323.04171504
 31
0.0
  0
LINE
  5
5E7
330
2
100
AcDbEntity
  8
YKK_A1
100
AcDbLine
 10
998.02755639
 20
2975.04167772
 30
0.0
 11
998.02755639
 21
2323.04171504
 31
0.0
  0
LINE
  5
5E8
330
2
100
AcDbEntity
  8
YKK_A1
100
AcDbLine
 10
2970.37761862
 20
2975.04167773
 30
0.0
 11
2970.37761862
 21
3009.04167493
 31
0.0
  0
LINE
  5
5E9
330
2
100
AcDbEntity
  8
YKK_A1
100
AcDbLine
 10
975.37773604
 20
2323.04171504
 30
0.0
 11
2970.37761861
 21
2323.04171504
 31
0.0
  0
LINE
  5
5EA
330
2
100
AcDbEntity
  8
YKK_A1
100
AcDbLine
 10
975.37773604
 20
2975.04167772
 30
0.0
 11
2970.37761862
 21
2975.04167772
 31
0.0
  0
LINE
  5
5EB
330
2
100
AcDbEntity
  8
YKK_A1
100
AcDbLine
 10
975.37773604
 20
2975.04167772
 30
0.0
 11
975.37773604
 21
3009.04167492
 31
0.0
  0
LINE
  5
5EC
330
2
100
AcDbEntity
  8
YKK_A1
100
AcDbLine
 10
975.37773604
 20
3009.04167492
 30
0.0
 11
2970.37761861
 21
3009.04167492
 31
0.0
  0
LINE
  5
5ED
330
2
100
AcDbEntity
  8
YKK_A1
100
AcDbLine
 10
975.37773604
 20
2289.04171784
 30
0.0
 11
975.37773604
 21
2323.04171504
 31
0.0
  0
LINE
  5
5EE
330
2
100
AcDbEntity
  8
YKK_A1
100
AcDbLine
 10
2970.37761861
 20
2289.04171784
 30
0.0
 11
975.37773604
 21
2289.04171784
 31
0.0
  0
LINE
  5
5EF
330
2
100
AcDbEntity
  8
YKK_A1
100
AcDbLine
 10
2970.37761861
 20
2289.04171784
 30
0.0
 11
2970.37761861
 21
2323.04171504
 31
0.0
  0
LINE
  5
5F0
330
2
100
AcDbEntity
  8
YKK_A1
100
AcDbLine
 10
1016.32755728
 20
2975.04167772
 30
0.0
 11
1016.32755728
 21
2323.04171504
 31
0.0
  0
LINE
  5
5F1
330
2
100
AcDbEntity
  8
YKK_A1
100
AcDbLine
 10
1031.32755639
 20
2975.04167772
 30
0.0
 11
1031.32755639
 21
2323.04171504
 31
0.0
  0
LINE
  5
5F2
330
2
100
AcDbEntity
  8
YKK_A1
100
AcDbLine
 10
1049.62755728
 20
2975.04167772
 30
0.0
 11
1049.62755728
 21
2323.04171504
 31
0.0
  0
LINE
  5
5F3
330
2
100
AcDbEntity
  8
YKK_A1
100
AcDbLine
 10
1064.62755639
 20
2975.04167772
 30
0.0
 11
1064.62755639
 21
2323.04171504
 31
0.0
  0
LINE
  5
5F4
330
2
100
AcDbEntity
  8
YKK_A1
100
AcDbLine
 10
1082.92755728
 20
2975.04167772
 30
0.0
 11
1082.92755728
 21
2323.04171504
 31
0.0
  0
LINE
  5
5F5
330
2
100
AcDbEntity
  8
YKK_A1
100
AcDbLine
 10
1097.92755639
 20
2975.04167772
 30
0.0
 11
1097.92755639
 21
2323.04171504
 31
0.0
  0
LINE
  5
5F6
330
2
100
AcDbEntity
  8
YKK_A1
100
AcDbLine
 10
1116.22755728
 20
2975.04167772
 30
0.0
 11
1116.22755728
 21
2323.04171504
 31
0.0
  0
LINE
  5
5F7
330
2
100
AcDbEntity
  8
YKK_A1
100
AcDbLine
 10
1131.22755639
 20
2975.04167772
 30
0.0
 11
1131.22755639
 21
2323.04171504
 31
0.0
  0
LINE
  5
5F8
330
2
100
AcDbEntity
  8
YKK_A1
100
AcDbLine
 10
1149.52755728
 20
2975.04167772
 30
0.0
 11
1149.52755728
 21
2323.04171504
 31
0.0
  0
LINE
  5
5F9
330
2
100
AcDbEntity
  8
YKK_A1
100
AcDbLine
 10
1164.52755639
 20
2975.04167772
 30
0.0
 11
1164.52755639
 21
2323.04171504
 31
0.0
  0
LINE
  5
5FA
330
2
100
AcDbEntity
  8
YKK_A1
100
AcDbLine
 10
1182.82755728
 20
2975.04167772
 30
0.0
 11
1182.82755728
 21
2323.04171504
 31
0.0
  0
LINE
  5
5FB
330
2
100
AcDbEntity
  8
YKK_A1
100
AcDbLine
 10
1197.82755639
 20
2975.04167772
 30
0.0
 11
1197.82755639
 21
2323.04171504
 31
0.0
  0
LINE
  5
5FC
330
2
100
AcDbEntity
  8
YKK_A1
100
AcDbLine
 10
1216.12755728
 20
2975.04167772
 30
0.0
 11
1216.12755728
 21
2323.04171504
 31
0.0
  0
LINE
  5
5FD
330
2
100
AcDbEntity
  8
YKK_A1
100
AcDbLine
 10
1231.12755639
 20
2975.04167772
 30
0.0
 11
1231.12755639
 21
2323.04171504
 31
0.0
  0
LINE
  5
5FE
330
2
100
AcDbEntity
  8
YKK_A1
100
AcDbLine
 10
1249.42755728
 20
2975.04167772
 30
0.0
 11
1249.42755728
 21
2323.04171504
 31
0.0
  0
LINE
  5
5FF
330
2
100
AcDbEntity
  8
YKK_A1
100
AcDbLine
 10
1264.42755639
 20
2975.04167772
 30
0.0
 11
1264.42755639
 21
2323.04171504
 31
0.0
  0
LINE
  5
600
330
2
100
AcDbEntity
  8
YKK_A1
100
AcDbLine
 10
1282.72755728
 20
2975.04167772
 30
0.0
 11
1282.72755728
 21
2323.04171504
 31
0.0
  0
LINE
  5
601
330
2
100
AcDbEntity
  8
YKK_A1
100
AcDbLine
 10
1297.72755639
 20
2975.04167772
 30
0.0
 11
1297.72755639
 21
2323.04171504
 31
0.0
  0
LINE
  5
602
330
2
100
AcDbEntity
  8
YKK_A1
100
AcDbLine
 10
1316.02755728
 20
2975.04167772
 30
0.0
 11
1316.02755728
 21
2323.04171504
 31
0.0
  0
LINE
  5
603
330
2
100
AcDbEntity
  8
YKK_A1
100
AcDbLine
 10
1331.02755639
 20
2975.04167772
 30
0.0
 11
1331.02755639
 21
2323.04171504
 31
0.0
  0
LINE
  5
604
330
2
100
AcDbEntity
  8
YKK_A1
100
AcDbLine
 10
1349.32755728
 20
2975.04167772
 30
0.0
 11
1349.32755728
 21
2323.04171504
 31
0.0
  0
LINE
  5
605
330
2
100
AcDbEntity
  8
YKK_A1
100
AcDbLine
 10
1364.32755639
 20
2975.04167772
 30
0.0
 11
1364.32755639
 21
2323.04171504
 31
0.0
  0
LINE
  5
606
330
2
100
AcDbEntity
  8
YKK_A1
100
AcDbLine
 10
1382.62755728
 20
2975.04167772
 30
0.0
 11
1382.62755728
 21
2323.04171504
 31
0.0
  0
LINE
  5
607
330
2
100
AcDbEntity
  8
YKK_A1
100
AcDbLine
 10
1397.62755639
 20
2975.04167772
 30
0.0
 11
1397.62755639
 21
2323.04171504
 31
0.0
  0
LINE
  5
608
330
2
100
AcDbEntity
  8
YKK_A1
100
AcDbLine
 10
1415.92755728
 20
2975.04167772
 30
0.0
 11
1415.92755728
 21
2323.04171504
 31
0.0
  0
LINE
  5
609
330
2
100
AcDbEntity
  8
YKK_A1
100
AcDbLine
 10
1430.92755639
 20
2975.04167772
 30
0.0
 11
1430.92755639
 21
2323.04171504
 31
0.0
  0
LINE
  5
60A
330
2
100
AcDbEntity
  8
YKK_A1
100
AcDbLine
 10
1449.22755728
 20
2975.04167772
 30
0.0
 11
1449.22755728
 21
2323.04171504
 31
0.0
  0
LINE
  5
60B
330
2
100
AcDbEntity
  8
YKK_A1
100
AcDbLine
 10
1464.22755639
 20
2975.04167772
 30
0.0
 11
1464.22755639
 21
2323.04171504
 31
0.0
  0
LINE
  5
60C
330
2
100
AcDbEntity
  8
YKK_A1
100
AcDbLine
 10
1482.52755728
 20
2975.04167772
 30
0.0
 11
1482.52755728
 21
2323.04171504
 31
0.0
  0
LINE
  5
60D
330
2
100
AcDbEntity
  8
YKK_A1
100
AcDbLine
 10
1497.52755639
 20
2975.04167772
 30
0.0
 11
1497.52755639
 21
2323.04171504
 31
0.0
  0
LINE
  5
60E
330
2
100
AcDbEntity
  8
YKK_A1
100
AcDbLine
 10
1515.82755728
 20
2975.04167772
 30
0.0
 11
1515.82755728
 21
2323.04171504
 31
0.0
  0
LINE
  5
60F
330
2
100
AcDbEntity
  8
YKK_A1
100
AcDbLine
 10
1530.82755639
 20
2975.04167772
 30
0.0
 11
1530.82755639
 21
2323.04171504
 31
0.0
  0
LINE
  5
610
330
2
100
AcDbEntity
  8
YKK_A1
100
AcDbLine
 10
1549.12755728
 20
2975.04167772
 30
0.0
 11
1549.12755728
 21
2323.04171504
 31
0.0
  0
LINE
  5
611
330
2
100
AcDbEntity
  8
YKK_A1
100
AcDbLine
 10
1564.12755639
 20
2975.04167772
 30
0.0
 11
1564.12755639
 21
2323.04171504
 31
0.0
  0
LINE
  5
612
330
2
100
AcDbEntity
  8
YKK_A1
100
AcDbLine
 10
1582.42755728
 20
2975.04167772
 30
0.0
 11
1582.42755728
 21
2323.04171504
 31
0.0
  0
LINE
  5
613
330
2
100
AcDbEntity
  8
YKK_A1
100
AcDbLine
 10
1597.42755639
 20
2975.04167772
 30
0.0
 11
1597.42755639
 21
2323.04171504
 31
0.0
  0
LINE
  5
614
330
2
100
AcDbEntity
  8
YKK_A1
100
AcDbLine
 10
1615.72755728
 20
2975.04167772
 30
0.0
 11
1615.72755728
 21
2323.04171504
 31
0.0
  0
LINE
  5
615
330
2
100
AcDbEntity
  8
YKK_A1
100
AcDbLine
 10
1630.72755639
 20
2975.04167772
 30
0.0
 11
1630.72755639
 21
2323.04171504
 31
0.0
  0
LINE
  5
616
330
2
100
AcDbEntity
  8
YKK_A1
100
AcDbLine
 10
1649.02755728
 20
2975.04167772
 30
0.0
 11
1649.02755728
 21
2323.04171504
 31
0.0
  0
LINE
  5
617
330
2
100
AcDbEntity
  8
YKK_A1
100
AcDbLine
 10
1664.02755639
 20
2975.04167772
 30
0.0
 11
1664.02755639
 21
2323.04171504
 31
0.0
  0
LINE
  5
618
330
2
100
AcDbEntity
  8
YKK_A1
100
AcDbLine
 10
1682.32755728
 20
2975.04167772
 30
0.0
 11
1682.32755728
 21
2323.04171504
 31
0.0
  0
LINE
  5
619
330
2
100
AcDbEntity
  8
YKK_A1
100
AcDbLine
 10
1697.32755639
 20
2975.04167772
 30
0.0
 11
1697.32755639
 21
2323.04171504
 31
0.0
  0
LINE
  5
61A
330
2
100
AcDbEntity
  8
YKK_A1
100
AcDbLine
 10
1715.62755728
 20
2975.04167772
 30
0.0
 11
1715.62755728
 21
2323.04171504
 31
0.0
  0
LINE
  5
61B
330
2
100
AcDbEntity
  8
YKK_A1
100
AcDbLine
 10
1730.62755639
 20
2975.04167772
 30
0.0
 11
1730.62755639
 21
2323.04171504
 31
0.0
  0
LINE
  5
61C
330
2
100
AcDbEntity
  8
YKK_A1
100
AcDbLine
 10
1748.92755728
 20
2975.04167772
 30
0.0
 11
1748.92755728
 21
2323.04171504
 31
0.0
  0
LINE
  5
61D
330
2
100
AcDbEntity
  8
YKK_A1
100
AcDbLine
 10
1763.92755639
 20
2975.04167772
 30
0.0
 11
1763.92755639
 21
2323.04171504
 31
0.0
  0
LINE
  5
61E
330
2
100
AcDbEntity
  8
YKK_A1
100
AcDbLine
 10
1782.22755728
 20
2975.04167772
 30
0.0
 11
1782.22755728
 21
2323.04171504
 31
0.0
  0
LINE
  5
61F
330
2
100
AcDbEntity
  8
YKK_A1
100
AcDbLine
 10
1797.22755639
 20
2975.04167772
 30
0.0
 11
1797.22755639
 21
2323.04171504
 31
0.0
  0
LINE
  5
620
330
2
100
AcDbEntity
  8
YKK_A1
100
AcDbLine
 10
1815.52755728
 20
2975.04167772
 30
0.0
 11
1815.52755728
 21
2323.04171504
 31
0.0
  0
LINE
  5
621
330
2
100
AcDbEntity
  8
YKK_A1
100
AcDbLine
 10
1830.52755639
 20
2975.04167772
 30
0.0
 11
1830.52755639
 21
2323.04171504
 31
0.0
  0
LINE
  5
622
330
2
100
AcDbEntity
  8
YKK_A1
100
AcDbLine
 10
1848.82755728
 20
2975.04167772
 30
0.0
 11
1848.82755728
 21
2323.04171504
 31
0.0
  0
LINE
  5
623
330
2
100
AcDbEntity
  8
YKK_A1
100
AcDbLine
 10
1863.82755639
 20
2975.04167772
 30
0.0
 11
1863.82755639
 21
2323.04171504
 31
0.0
  0
LINE
  5
624
330
2
100
AcDbEntity
  8
YKK_A1
100
AcDbLine
 10
1882.12755728
 20
2975.04167772
 30
0.0
 11
1882.12755728
 21
2323.04171504
 31
0.0
  0
LINE
  5
625
330
2
100
AcDbEntity
  8
YKK_A1
100
AcDbLine
 10
1897.12755639
 20
2975.04167772
 30
0.0
 11
1897.12755639
 21
2323.04171504
 31
0.0
  0
LINE
  5
626
330
2
100
AcDbEntity
  8
YKK_A1
100
AcDbLine
 10
1915.42755728
 20
2975.04167772
 30
0.0
 11
1915.42755728
 21
2323.04171504
 31
0.0
  0
LINE
  5
627
330
2
100
AcDbEntity
  8
YKK_A1
100
AcDbLine
 10
1930.42755639
 20
2975.04167772
 30
0.0
 11
1930.42755639
 21
2323.04171504
 31
0.0
  0
LINE
  5
628
330
2
100
AcDbEntity
  8
YKK_A1
100
AcDbLine
 10
1948.72755728
 20
2975.04167772
 30
0.0
 11
1948.72755728
 21
2323.04171504
 31
0.0
  0
LINE
  5
629
330
2
100
AcDbEntity
  8
YKK_A1
100
AcDbLine
 10
1963.72755639
 20
2975.04167772
 30
0.0
 11
1963.72755639
 21
2323.04171504
 31
0.0
  0
LINE
  5
62A
330
2
100
AcDbEntity
  8
YKK_A1
100
AcDbLine
 10
1982.02755728
 20
2975.04167772
 30
0.0
 11
1982.02755728
 21
2323.04171504
 31
0.0
  0
LINE
  5
62B
330
2
100
AcDbEntity
  8
YKK_A1
100
AcDbLine
 10
1997.02755639
 20
2975.04167772
 30
0.0
 11
1997.02755639
 21
2323.04171504
 31
0.0
  0
LINE
  5
62C
330
2
100
AcDbEntity
  8
YKK_A1
100
AcDbLine
 10
2015.32755728
 20
2975.04167772
 30
0.0
 11
2015.32755728
 21
2323.04171504
 31
0.0
  0
LINE
  5
62D
330
2
100
AcDbEntity
  8
YKK_A1
100
AcDbLine
 10
2030.32755639
 20
2975.04167772
 30
0.0
 11
2030.32755639
 21
2323.04171504
 31
0.0
  0
LINE
  5
62E
330
2
100
AcDbEntity
  8
YKK_A1
100
AcDbLine
 10
2048.62755728
 20
2975.04167772
 30
0.0
 11
2048.62755728
 21
2323.04171504
 31
0.0
  0
LINE
  5
62F
330
2
100
AcDbEntity
  8
YKK_A1
100
AcDbLine
 10
2063.62755639
 20
2975.04167772
 30
0.0
 11
2063.62755639
 21
2323.04171504
 31
0.0
  0
LINE
  5
630
330
2
100
AcDbEntity
  8
YKK_A1
100
AcDbLine
 10
2081.92755728
 20
2975.04167772
 30
0.0
 11
2081.92755728
 21
2323.04171504
 31
0.0
  0
LINE
  5
631
330
2
100
AcDbEntity
  8
YKK_A1
100
AcDbLine
 10
2096.92755639
 20
2975.04167772
 30
0.0
 11
2096.92755639
 21
2323.04171504
 31
0.0
  0
LINE
  5
632
330
2
100
AcDbEntity
  8
YKK_A1
100
AcDbLine
 10
2115.22755728
 20
2975.04167772
 30
0.0
 11
2115.22755728
 21
2323.04171504
 31
0.0
  0
LINE
  5
633
330
2
100
AcDbEntity
  8
YKK_A1
100
AcDbLine
 10
2130.22755639
 20
2975.04167772
 30
0.0
 11
2130.22755639
 21
2323.04171504
 31
0.0
  0
LINE
  5
634
330
2
100
AcDbEntity
  8
YKK_A1
100
AcDbLine
 10
2148.52755728
 20
2975.04167772
 30
0.0
 11
2148.52755728
 21
2323.04171504
 31
0.0
  0
LINE
  5
635
330
2
100
AcDbEntity
  8
YKK_A1
100
AcDbLine
 10
2163.52755639
 20
2975.04167772
 30
0.0
 11
2163.52755639
 21
2323.04171504
 31
0.0
  0
LINE
  5
636
330
2
100
AcDbEntity
  8
YKK_A1
100
AcDbLine
 10
2181.82755728
 20
2975.04167772
 30
0.0
 11
2181.82755728
 21
2323.04171504
 31
0.0
  0
LINE
  5
637
330
2
100
AcDbEntity
  8
YKK_A1
100
AcDbLine
 10
2196.82755639
 20
2975.04167772
 30
0.0
 11
2196.82755639
 21
2323.04171504
 31
0.0
  0
LINE
  5
638
330
2
100
AcDbEntity
  8
YKK_A1
100
AcDbLine
 10
2215.12755728
 20
2975.04167772
 30
0.0
 11
2215.12755728
 21
2323.04171504
 31
0.0
  0
LINE
  5
639
330
2
100
AcDbEntity
  8
YKK_A1
100
AcDbLine
 10
2230.12755639
 20
2975.04167772
 30
0.0
 11
2230.12755639
 21
2323.04171504
 31
0.0
  0
LINE
  5
63A
330
2
100
AcDbEntity
  8
YKK_A1
100
AcDbLine
 10
2248.42755728
 20
2975.04167772
 30
0.0
 11
2248.42755728
 21
2323.04171504
 31
0.0
  0
LINE
  5
63B
330
2
100
AcDbEntity
  8
YKK_A1
100
AcDbLine
 10
2263.42755639
 20
2975.04167772
 30
0.0
 11
2263.42755639
 21
2323.04171504
 31
0.0
  0
LINE
  5
63C
330
2
100
AcDbEntity
  8
YKK_A1
100
AcDbLine
 10
2281.72755728
 20
2975.04167772
 30
0.0
 11
2281.72755728
 21
2323.04171504
 31
0.0
  0
LINE
  5
63D
330
2
100
AcDbEntity
  8
YKK_A1
100
AcDbLine
 10
2296.72755639
 20
2975.04167772
 30
0.0
 11
2296.72755639
 21
2323.04171504
 31
0.0
  0
LINE
  5
63E
330
2
100
AcDbEntity
  8
YKK_A1
100
AcDbLine
 10
2315.02755728
 20
2975.04167772
 30
0.0
 11
2315.02755728
 21
2323.04171504
 31
0.0
  0
LINE
  5
63F
330
2
100
AcDbEntity
  8
YKK_A1
100
AcDbLine
 10
2330.02755639
 20
2975.04167772
 30
0.0
 11
2330.02755639
 21
2323.04171504
 31
0.0
  0
LINE
  5
640
330
2
100
AcDbEntity
  8
YKK_A1
100
AcDbLine
 10
2348.32755728
 20
2975.04167772
 30
0.0
 11
2348.32755728
 21
2323.04171504
 31
0.0
  0
LINE
  5
641
330
2
100
AcDbEntity
  8
YKK_A1
100
AcDbLine
 10
2363.32755639
 20
2975.04167772
 30
0.0
 11
2363.32755639
 21
2323.04171504
 31
0.0
  0
LINE
  5
642
330
2
100
AcDbEntity
  8
YKK_A1
100
AcDbLine
 10
2381.62755728
 20
2975.04167772
 30
0.0
 11
2381.62755728
 21
2323.04171504
 31
0.0
  0
LINE
  5
643
330
2
100
AcDbEntity
  8
YKK_A1
100
AcDbLine
 10
2396.62755639
 20
2975.04167772
 30
0.0
 11
2396.62755639
 21
2323.04171504
 31
0.0
  0
LINE
  5
644
330
2
100
AcDbEntity
  8
YKK_A1
100
AcDbLine
 10
2414.92755728
 20
2975.04167772
 30
0.0
 11
2414.92755728
 21
2323.04171504
 31
0.0
  0
LINE
  5
645
330
2
100
AcDbEntity
  8
YKK_A1
100
AcDbLine
 10
2429.92755639
 20
2975.04167772
 30
0.0
 11
2429.92755639
 21
2323.04171504
 31
0.0
  0
LINE
  5
646
330
2
100
AcDbEntity
  8
YKK_A1
100
AcDbLine
 10
2448.22755728
 20
2975.04167772
 30
0.0
 11
2448.22755728
 21
2323.04171504
 31
0.0
  0
LINE
  5
647
330
2
100
AcDbEntity
  8
YKK_A1
100
AcDbLine
 10
2463.22755639
 20
2975.04167772
 30
0.0
 11
2463.22755639
 21
2323.04171504
 31
0.0
  0
LINE
  5
648
330
2
100
AcDbEntity
  8
YKK_A1
100
AcDbLine
 10
2481.52755728
 20
2975.04167772
 30
0.0
 11
2481.52755728
 21
2323.04171504
 31
0.0
  0
LINE
  5
649
330
2
100
AcDbEntity
  8
YKK_A1
100
AcDbLine
 10
2496.52755639
 20
2975.04167772
 30
0.0
 11
2496.52755639
 21
2323.04171504
 31
0.0
  0
LINE
  5
64A
330
2
100
AcDbEntity
  8
YKK_A1
100
AcDbLine
 10
2514.82755728
 20
2975.04167772
 30
0.0
 11
2514.82755728
 21
2323.04171504
 31
0.0
  0
LINE
  5
64B
330
2
100
AcDbEntity
  8
YKK_A1
100
AcDbLine
 10
2529.82755639
 20
2975.04167772
 30
0.0
 11
2529.82755639
 21
2323.04171504
 31
0.0
  0
LINE
  5
64C
330
2
100
AcDbEntity
  8
YKK_A1
100
AcDbLine
 10
2548.12755728
 20
2975.04167772
 30
0.0
 11
2548.12755728
 21
2323.04171504
 31
0.0
  0
LINE
  5
64D
330
2
100
AcDbEntity
  8
YKK_A1
100
AcDbLine
 10
2563.12755639
 20
2975.04167772
 30
0.0
 11
2563.12755639
 21
2323.04171504
 31
0.0
  0
LINE
  5
64E
330
2
100
AcDbEntity
  8
YKK_A1
100
AcDbLine
 10
2581.42755728
 20
2975.04167772
 30
0.0
 11
2581.42755728
 21
2323.04171504
 31
0.0
  0
LINE
  5
64F
330
2
100
AcDbEntity
  8
YKK_A1
100
AcDbLine
 10
2596.42755639
 20
2975.04167772
 30
0.0
 11
2596.42755639
 21
2323.04171504
 31
0.0
  0
LINE
  5
650
330
2
100
AcDbEntity
  8
YKK_A1
100
AcDbLine
 10
2614.72755728
 20
2975.04167772
 30
0.0
 11
2614.72755728
 21
2323.04171504
 31
0.0
  0
LINE
  5
651
330
2
100
AcDbEntity
  8
YKK_A1
100
AcDbLine
 10
2629.72755639
 20
2975.04167772
 30
0.0
 11
2629.72755639
 21
2323.04171504
 31
0.0
  0
LINE
  5
652
330
2
100
AcDbEntity
  8
YKK_A1
100
AcDbLine
 10
2648.02755728
 20
2975.04167772
 30
0.0
 11
2648.02755728
 21
2323.04171504
 31
0.0
  0
LINE
  5
653
330
2
100
AcDbEntity
  8
YKK_A1
100
AcDbLine
 10
2663.02755639
 20
2975.04167772
 30
0.0
 11
2663.02755639
 21
2323.04171504
 31
0.0
  0
LINE
  5
654
330
2
100
AcDbEntity
  8
YKK_A1
100
AcDbLine
 10
2681.32755728
 20
2975.04167772
 30
0.0
 11
2681.32755728
 21
2323.04171504
 31
0.0
  0
LINE
  5
655
330
2
100
AcDbEntity
  8
YKK_A1
100
AcDbLine
 10
2696.32755639
 20
2975.04167772
 30
0.0
 11
2696.32755639
 21
2323.04171504
 31
0.0
  0
LINE
  5
656
330
2
100
AcDbEntity
  8
YKK_A1
100
AcDbLine
 10
2714.62755728
 20
2975.04167772
 30
0.0
 11
2714.62755728
 21
2323.04171504
 31
0.0
  0
LINE
  5
657
330
2
100
AcDbEntity
  8
YKK_A1
100
AcDbLine
 10
2729.62755639
 20
2975.04167772
 30
0.0
 11
2729.62755639
 21
2323.04171504
 31
0.0
  0
LINE
  5
658
330
2
100
AcDbEntity
  8
YKK_A1
100
AcDbLine
 10
2747.92755728
 20
2975.04167772
 30
0.0
 11
2747.92755728
 21
2323.04171504
 31
0.0
  0
LINE
  5
659
330
2
100
AcDbEntity
  8
YKK_A1
100
AcDbLine
 10
2762.92755639
 20
2975.04167772
 30
0.0
 11
2762.92755639
 21
2323.04171504
 31
0.0
  0
LINE
  5
65A
330
2
100
AcDbEntity
  8
YKK_A1
100
AcDbLine
 10
2781.22755728
 20
2975.04167772
 30
0.0
 11
2781.22755728
 21
2323.04171504
 31
0.0
  0
LINE
  5
65B
330
2
100
AcDbEntity
  8
YKK_A1
100
AcDbLine
 10
2796.22755639
 20
2975.04167772
 30
0.0
 11
2796.22755639
 21
2323.04171504
 31
0.0
  0
LINE
  5
65C
330
2
100
AcDbEntity
  8
YKK_A1
100
AcDbLine
 10
2814.52755728
 20
2975.04167772
 30
0.0
 11
2814.52755728
 21
2323.04171504
 31
0.0
  0
LINE
  5
65D
330
2
100
AcDbEntity
  8
YKK_A1
100
AcDbLine
 10
2829.52755639
 20
2975.04167772
 30
0.0
 11
2829.52755639
 21
2323.04171504
 31
0.0
  0
LINE
  5
65E
330
2
100
AcDbEntity
  8
YKK_A1
100
AcDbLine
 10
2847.82755728
 20
2975.04167772
 30
0.0
 11
2847.82755728
 21
2323.04171504
 31
0.0
  0
LINE
  5
65F
330
2
100
AcDbEntity
  8
YKK_A1
100
AcDbLine
 10
2862.82755639
 20
2975.04167772
 30
0.0
 11
2862.82755639
 21
2323.04171504
 31
0.0
  0
LINE
  5
660
330
2
100
AcDbEntity
  8
YKK_A1
100
AcDbLine
 10
2881.12755728
 20
2975.04167772
 30
0.0
 11
2881.12755728
 21
2323.04171504
 31
0.0
  0
LINE
  5
661
330
2
100
AcDbEntity
  8
YKK_A1
100
AcDbLine
 10
2896.12755639
 20
2975.04167772
 30
0.0
 11
2896.12755639
 21
2323.04171504
 31
0.0
  0
LINE
  5
662
330
2
100
AcDbEntity
  8
YKK_A1
100
AcDbLine
 10
2914.42755728
 20
2975.04167772
 30
0.0
 11
2914.42755728
 21
2323.04171504
 31
0.0
  0
LINE
  5
663
330
2
100
AcDbEntity
  8
YKK_A1
100
AcDbLine
 10
2929.42755639
 20
2975.04167772
 30
0.0
 11
2929.42755639
 21
2323.04171504
 31
0.0
  0
LINE
  5
664
330
2
100
AcDbEntity
  8
YKK_A1
100
AcDbLine
 10
2947.72755728
 20
2975.04167772
 30
0.0
 11
2947.72755728
 21
2323.04171504
 31
0.0
  0
LINE
  5
665
330
2
100
AcDbEntity
  8
YKK_A1
100
AcDbLine
 10
2962.72755639
 20
2975.04167772
 30
0.0
 11
2962.72755639
 21
2323.04171504
 31
0.0
  0
LINE
  5
666
330
2
100
AcDbEntity
  8
YKK_A1
100
AcDbLine
 10
4826.97430274
 20
4885.12710982
 30
0.0
 11
4826.97430274
 21
4033.12724878
 31
0.0
  0
LINE
  5
667
330
2
100
AcDbEntity
  8
YKK_A1
100
AcDbLine
 10
4841.97430185
 20
4885.12710982
 30
0.0
 11
4841.97430185
 21
4033.12724878
 31
0.0
  0
LINE
  5
668
330
2
100
AcDbEntity
  8
YKK_A1
100
AcDbLine
 10
6814.32436408
 20
4885.12710983
 30
0.0
 11
6814.32436408
 21
4919.12710703
 31
0.0
  0
LINE
  5
669
330
2
100
AcDbEntity
  8
YKK_A1
100
AcDbLine
 10
4819.3244815
 20
4033.12724878
 30
0.0
 11
6814.32436408
 21
4033.12724878
 31
0.0
  0
LINE
  5
66A
330
2
100
AcDbEntity
  8
YKK_A1
100
AcDbLine
 10
4819.3244815
 20
4885.12710982
 30
0.0
 11
6814.32436408
 21
4885.12710982
 31
0.0
  0
LINE
  5
66B
330
2
100
AcDbEntity
  8
YKK_A1
100
AcDbLine
 10
4819.3244815
 20
4885.12710982
 30
0.0
 11
4819.3244815
 21
4919.12710702
 31
0.0
  0
LINE
  5
66C
330
2
100
AcDbEntity
  8
YKK_A1
100
AcDbLine
 10
4819.3244815
 20
4919.12710702
 30
0.0
 11
6814.32436408
 21
4919.12710702
 31
0.0
  0
LINE
  5
66D
330
2
100
AcDbEntity
  8
YKK_A1
100
AcDbLine
 10
4819.3244815
 20
3999.12725158
 30
0.0
 11
4819.3244815
 21
4033.12724878
 31
0.0
  0
LINE
  5
66E
330
2
100
AcDbEntity
  8
YKK_A1
100
AcDbLine
 10
6814.32436408
 20
3999.12725158
 30
0.0
 11
4819.3244815
 21
3999.12725158
 31
0.0
  0
LINE
  5
66F
330
2
100
AcDbEntity
  8
YKK_A1
100
AcDbLine
 10
6814.32436408
 20
3999.12725158
 30
0.0
 11
6814.32436408
 21
4033.12724878
 31
0.0
  0
LINE
  5
670
330
2
100
AcDbEntity
  8
YKK_A1
100
AcDbLine
 10
4860.27430274
 20
4885.12710982
 30
0.0
 11
4860.27430274
 21
4033.12724878
 31
0.0
  0
LINE
  5
671
330
2
100
AcDbEntity
  8
YKK_A1
100
AcDbLine
 10
4875.27430185
 20
4885.12710982
 30
0.0
 11
4875.27430185
 21
4033.12724878
 31
0.0
  0
LINE
  5
672
330
2
100
AcDbEntity
  8
YKK_A1
100
AcDbLine
 10
4893.57430274
 20
4885.12710982
 30
0.0
 11
4893.57430274
 21
4033.12724878
 31
0.0
  0
LINE
  5
673
330
2
100
AcDbEntity
  8
YKK_A1
100
AcDbLine
 10
4908.57430185
 20
4885.12710982
 30
0.0
 11
4908.57430185
 21
4033.12724878
 31
0.0
  0
LINE
  5
674
330
2
100
AcDbEntity
  8
YKK_A1
100
AcDbLine
 10
4926.87430274
 20
4885.12710982
 30
0.0
 11
4926.87430274
 21
4033.12724878
 31
0.0
  0
LINE
  5
675
330
2
100
AcDbEntity
  8
YKK_A1
100
AcDbLine
 10
4941.87430185
 20
4885.12710982
 30
0.0
 11
4941.87430185
 21
4033.12724878
 31
0.0
  0
LINE
  5
676
330
2
100
AcDbEntity
  8
YKK_A1
100
AcDbLine
 10
4960.17430274
 20
4885.12710982
 30
0.0
 11
4960.17430274
 21
4033.12724878
 31
0.0
  0
LINE
  5
677
330
2
100
AcDbEntity
  8
YKK_A1
100
AcDbLine
 10
4975.17430185
 20
4885.12710982
 30
0.0
 11
4975.17430185
 21
4033.12724878
 31
0.0
  0
LINE
  5
678
330
2
100
AcDbEntity
  8
YKK_A1
100
AcDbLine
 10
4993.47430274
 20
4885.12710982
 30
0.0
 11
4993.47430274
 21
4033.12724878
 31
0.0
  0
LINE
  5
679
330
2
100
AcDbEntity
  8
YKK_A1
100
AcDbLine
 10
5008.47430185
 20
4885.12710982
 30
0.0
 11
5008.47430185
 21
4033.12724878
 31
0.0
  0
LINE
  5
67A
330
2
100
AcDbEntity
  8
YKK_A1
100
AcDbLine
 10
5026.77430274
 20
4885.12710982
 30
0.0
 11
5026.77430274
 21
4033.12724878
 31
0.0
  0
LINE
  5
67B
330
2
100
AcDbEntity
  8
YKK_A1
100
AcDbLine
 10
5041.77430185
 20
4885.12710982
 30
0.0
 11
5041.77430185
 21
4033.12724878
 31
0.0
  0
LINE
  5
67C
330
2
100
AcDbEntity
  8
YKK_A1
100
AcDbLine
 10
5060.07430274
 20
4885.12710982
 30
0.0
 11
5060.07430274
 21
4033.12724878
 31
0.0
  0
LINE
  5
67D
330
2
100
AcDbEntity
  8
YKK_A1
100
AcDbLine
 10
5075.07430185
 20
4885.12710982
 30
0.0
 11
5075.07430185
 21
4033.12724878
 31
0.0
  0
LINE
  5
67E
330
2
100
AcDbEntity
  8
YKK_A1
100
AcDbLine
 10
5093.37430274
 20
4885.12710982
 30
0.0
 11
5093.37430274
 21
4033.12724878
 31
0.0
  0
LINE
  5
67F
330
2
100
AcDbEntity
  8
YKK_A1
100
AcDbLine
 10
5108.37430185
 20
4885.12710982
 30
0.0
 11
5108.37430185
 21
4033.12724878
 31
0.0
  0
LINE
  5
680
330
2
100
AcDbEntity
  8
YKK_A1
100
AcDbLine
 10
5126.67430274
 20
4885.12710982
 30
0.0
 11
5126.67430274
 21
4033.12724878
 31
0.0
  0
LINE
  5
681
330
2
100
AcDbEntity
  8
YKK_A1
100
AcDbLine
 10
5141.67430185
 20
4885.12710982
 30
0.0
 11
5141.67430185
 21
4033.12724878
 31
0.0
  0
LINE
  5
682
330
2
100
AcDbEntity
  8
YKK_A1
100
AcDbLine
 10
5159.97430274
 20
4885.12710982
 30
0.0
 11
5159.97430274
 21
4033.12724878
 31
0.0
  0
LINE
  5
683
330
2
100
AcDbEntity
  8
YKK_A1
100
AcDbLine
 10
5174.97430185
 20
4885.12710982
 30
0.0
 11
5174.97430185
 21
4033.12724878
 31
0.0
  0
LINE
  5
684
330
2
100
AcDbEntity
  8
YKK_A1
100
AcDbLine
 10
5193.27430274
 20
4885.12710982
 30
0.0
 11
5193.27430274
 21
4033.12724878
 31
0.0
  0
LINE
  5
685
330
2
100
AcDbEntity
  8
YKK_A1
100
AcDbLine
 10
5208.27430185
 20
4885.12710982
 30
0.0
 11
5208.27430185
 21
4033.12724878
 31
0.0
  0
LINE
  5
686
330
2
100
AcDbEntity
  8
YKK_A1
100
AcDbLine
 10
5226.57430274
 20
4885.12710982
 30
0.0
 11
5226.57430274
 21
4033.12724878
 31
0.0
  0
LINE
  5
687
330
2
100
AcDbEntity
  8
YKK_A1
100
AcDbLine
 10
5241.57430185
 20
4885.12710982
 30
0.0
 11
5241.57430185
 21
4033.12724878
 31
0.0
  0
LINE
  5
688
330
2
100
AcDbEntity
  8
YKK_A1
100
AcDbLine
 10
5259.87430274
 20
4885.12710982
 30
0.0
 11
5259.87430274
 21
4033.12724878
 31
0.0
  0
LINE
  5
689
330
2
100
AcDbEntity
  8
YKK_A1
100
AcDbLine
 10
5274.87430185
 20
4885.12710982
 30
0.0
 11
5274.87430185
 21
4033.12724878
 31
0.0
  0
LINE
  5
68A
330
2
100
AcDbEntity
  8
YKK_A1
100
AcDbLine
 10
5293.17430274
 20
4885.12710982
 30
0.0
 11
5293.17430274
 21
4033.12724878
 31
0.0
  0
LINE
  5
68B
330
2
100
AcDbEntity
  8
YKK_A1
100
AcDbLine
 10
5308.17430185
 20
4885.12710982
 30
0.0
 11
5308.17430185
 21
4033.12724878
 31
0.0
  0
LINE
  5
68C
330
2
100
AcDbEntity
  8
YKK_A1
100
AcDbLine
 10
5326.47430274
 20
4885.12710982
 30
0.0
 11
5326.47430274
 21
4033.12724878
 31
0.0
  0
LINE
  5
68D
330
2
100
AcDbEntity
  8
YKK_A1
100
AcDbLine
 10
5341.47430185
 20
4885.12710982
 30
0.0
 11
5341.47430185
 21
4033.12724878
 31
0.0
  0
LINE
  5
68E
330
2
100
AcDbEntity
  8
YKK_A1
100
AcDbLine
 10
5359.77430274
 20
4885.12710982
 30
0.0
 11
5359.77430274
 21
4033.12724878
 31
0.0
  0
LINE
  5
68F
330
2
100
AcDbEntity
  8
YKK_A1
100
AcDbLine
 10
5374.77430185
 20
4885.12710982
 30
0.0
 11
5374.77430185
 21
4033.12724878
 31
0.0
  0
LINE
  5
690
330
2
100
AcDbEntity
  8
YKK_A1
100
AcDbLine
 10
5393.07430274
 20
4885.12710982
 30
0.0
 11
5393.07430274
 21
4033.12724878
 31
0.0
  0
LINE
  5
691
330
2
100
AcDbEntity
  8
YKK_A1
100
AcDbLine
 10
5408.07430185
 20
4885.12710982
 30
0.0
 11
5408.07430185
 21
4033.12724878
 31
0.0
  0
LINE
  5
692
330
2
100
AcDbEntity
  8
YKK_A1
100
AcDbLine
 10
5426.37430274
 20
4885.12710982
 30
0.0
 11
5426.37430274
 21
4033.12724878
 31
0.0
  0
LINE
  5
693
330
2
100
AcDbEntity
  8
YKK_A1
100
AcDbLine
 10
5441.37430185
 20
4885.12710982
 30
0.0
 11
5441.37430185
 21
4033.12724878
 31
0.0
  0
LINE
  5
694
330
2
100
AcDbEntity
  8
YKK_A1
100
AcDbLine
 10
5459.67430274
 20
4885.12710982
 30
0.0
 11
5459.67430274
 21
4033.12724878
 31
0.0
  0
LINE
  5
695
330
2
100
AcDbEntity
  8
YKK_A1
100
AcDbLine
 10
5474.67430185
 20
4885.12710982
 30
0.0
 11
5474.67430185
 21
4033.12724878
 31
0.0
  0
LINE
  5
696
330
2
100
AcDbEntity
  8
YKK_A1
100
AcDbLine
 10
5492.97430274
 20
4885.12710982
 30
0.0
 11
5492.97430274
 21
4033.12724878
 31
0.0
  0
LINE
  5
697
330
2
100
AcDbEntity
  8
YKK_A1
100
AcDbLine
 10
5507.97430185
 20
4885.12710982
 30
0.0
 11
5507.97430185
 21
4033.12724878
 31
0.0
  0
LINE
  5
698
330
2
100
AcDbEntity
  8
YKK_A1
100
AcDbLine
 10
5526.27430274
 20
4885.12710982
 30
0.0
 11
5526.27430274
 21
4033.12724878
 31
0.0
  0
LINE
  5
699
330
2
100
AcDbEntity
  8
YKK_A1
100
AcDbLine
 10
5541.27430185
 20
4885.12710982
 30
0.0
 11
5541.27430185
 21
4033.12724878
 31
0.0
  0
LINE
  5
69A
330
2
100
AcDbEntity
  8
YKK_A1
100
AcDbLine
 10
5559.57430274
 20
4885.12710982
 30
0.0
 11
5559.57430274
 21
4033.12724878
 31
0.0
  0
LINE
  5
69B
330
2
100
AcDbEntity
  8
YKK_A1
100
AcDbLine
 10
5574.57430185
 20
4885.12710982
 30
0.0
 11
5574.57430185
 21
4033.12724878
 31
0.0
  0
LINE
  5
69C
330
2
100
AcDbEntity
  8
YKK_A1
100
AcDbLine
 10
5592.87430274
 20
4885.12710982
 30
0.0
 11
5592.87430274
 21
4033.12724878
 31
0.0
  0
LINE
  5
69D
330
2
100
AcDbEntity
  8
YKK_A1
100
AcDbLine
 10
5607.87430185
 20
4885.12710982
 30
0.0
 11
5607.87430185
 21
4033.12724878
 31
0.0
  0
LINE
  5
69E
330
2
100
AcDbEntity
  8
YKK_A1
100
AcDbLine
 10
5626.17430274
 20
4885.12710982
 30
0.0
 11
5626.17430274
 21
4033.12724878
 31
0.0
  0
LINE
  5
69F
330
2
100
AcDbEntity
  8
YKK_A1
100
AcDbLine
 10
5641.17430185
 20
4885.12710982
 30
0.0
 11
5641.17430185
 21
4033.12724878
 31
0.0
  0
LINE
  5
6A0
330
2
100
AcDbEntity
  8
YKK_A1
100
AcDbLine
 10
5659.47430274
 20
4885.12710982
 30
0.0
 11
5659.47430274
 21
4033.12724878
 31
0.0
  0
LINE
  5
6A1
330
2
100
AcDbEntity
  8
YKK_A1
100
AcDbLine
 10
5674.47430185
 20
4885.12710982
 30
0.0
 11
5674.47430185
 21
4033.12724878
 31
0.0
  0
LINE
  5
6A2
330
2
100
AcDbEntity
  8
YKK_A1
100
AcDbLine
 10
5692.77430274
 20
4885.12710982
 30
0.0
 11
5692.77430274
 21
4033.12724878
 31
0.0
  0
LINE
  5
6A3
330
2
100
AcDbEntity
  8
YKK_A1
100
AcDbLine
 10
5707.77430185
 20
4885.12710982
 30
0.0
 11
5707.77430185
 21
4033.12724878
 31
0.0
  0
LINE
  5
6A4
330
2
100
AcDbEntity
  8
YKK_A1
100
AcDbLine
 10
5726.07430274
 20
4885.12710982
 30
0.0
 11
5726.07430274
 21
4033.12724878
 31
0.0
  0
LINE
  5
6A5
330
2
100
AcDbEntity
  8
YKK_A1
100
AcDbLine
 10
5741.07430185
 20
4885.12710982
 30
0.0
 11
5741.07430185
 21
4033.12724878
 31
0.0
  0
LINE
  5
6A6
330
2
100
AcDbEntity
  8
YKK_A1
100
AcDbLine
 10
5759.37430274
 20
4885.12710982
 30
0.0
 11
5759.37430274
 21
4033.12724878
 31
0.0
  0
LINE
  5
6A7
330
2
100
AcDbEntity
  8
YKK_A1
100
AcDbLine
 10
5774.37430185
 20
4885.12710982
 30
0.0
 11
5774.37430185
 21
4033.12724878
 31
0.0
  0
LINE
  5
6A8
330
2
100
AcDbEntity
  8
YKK_A1
100
AcDbLine
 10
5792.67430274
 20
4885.12710982
 30
0.0
 11
5792.67430274
 21
4033.12724878
 31
0.0
  0
LINE
  5
6A9
330
2
100
AcDbEntity
  8
YKK_A1
100
AcDbLine
 10
5807.67430185
 20
4885.12710982
 30
0.0
 11
5807.67430185
 21
4033.12724878
 31
0.0
  0
LINE
  5
6AA
330
2
100
AcDbEntity
  8
YKK_A1
100
AcDbLine
 10
5825.97430274
 20
4885.12710982
 30
0.0
 11
5825.97430274
 21
4033.12724878
 31
0.0
  0
LINE
  5
6AB
330
2
100
AcDbEntity
  8
YKK_A1
100
AcDbLine
 10
5840.97430185
 20
4885.12710982
 30
0.0
 11
5840.97430185
 21
4033.12724878
 31
0.0
  0
LINE
  5
6AC
330
2
100
AcDbEntity
  8
YKK_A1
100
AcDbLine
 10
5859.27430274
 20
4885.12710982
 30
0.0
 11
5859.27430274
 21
4033.12724878
 31
0.0
  0
LINE
  5
6AD
330
2
100
AcDbEntity
  8
YKK_A1
100
AcDbLine
 10
5874.27430185
 20
4885.12710982
 30
0.0
 11
5874.27430185
 21
4033.12724878
 31
0.0
  0
LINE
  5
6AE
330
2
100
AcDbEntity
  8
YKK_A1
100
AcDbLine
 10
5892.57430274
 20
4885.12710982
 30
0.0
 11
5892.57430274
 21
4033.12724878
 31
0.0
  0
LINE
  5
6AF
330
2
100
AcDbEntity
  8
YKK_A1
100
AcDbLine
 10
5907.57430185
 20
4885.12710982
 30
0.0
 11
5907.57430185
 21
4033.12724878
 31
0.0
  0
LINE
  5
6B0
330
2
100
AcDbEntity
  8
YKK_A1
100
AcDbLine
 10
5925.87430274
 20
4885.12710982
 30
0.0
 11
5925.87430274
 21
4033.12724878
 31
0.0
  0
LINE
  5
6B1
330
2
100
AcDbEntity
  8
YKK_A1
100
AcDbLine
 10
5940.87430185
 20
4885.12710982
 30
0.0
 11
5940.87430185
 21
4033.12724878
 31
0.0
  0
LINE
  5
6B2
330
2
100
AcDbEntity
  8
YKK_A1
100
AcDbLine
 10
5959.17430274
 20
4885.12710982
 30
0.0
 11
5959.17430274
 21
4033.12724878
 31
0.0
  0
LINE
  5
6B3
330
2
100
AcDbEntity
  8
YKK_A1
100
AcDbLine
 10
5974.17430185
 20
4885.12710982
 30
0.0
 11
5974.17430185
 21
4033.12724878
 31
0.0
  0
LINE
  5
6B4
330
2
100
AcDbEntity
  8
YKK_A1
100
AcDbLine
 10
5992.47430274
 20
4885.12710982
 30
0.0
 11
5992.47430274
 21
4033.12724878
 31
0.0
  0
LINE
  5
6B5
330
2
100
AcDbEntity
  8
YKK_A1
100
AcDbLine
 10
6007.47430185
 20
4885.12710982
 30
0.0
 11
6007.47430185
 21
4033.12724878
 31
0.0
  0
LINE
  5
6B6
330
2
100
AcDbEntity
  8
YKK_A1
100
AcDbLine
 10
6025.77430274
 20
4885.12710982
 30
0.0
 11
6025.77430274
 21
4033.12724878
 31
0.0
  0
LINE
  5
6B7
330
2
100
AcDbEntity
  8
YKK_A1
100
AcDbLine
 10
6040.77430185
 20
4885.12710982
 30
0.0
 11
6040.77430185
 21
4033.12724878
 31
0.0
  0
LINE
  5
6B8
330
2
100
AcDbEntity
  8
YKK_A1
100
AcDbLine
 10
6059.07430274
 20
4885.12710982
 30
0.0
 11
6059.07430274
 21
4033.12724878
 31
0.0
  0
LINE
  5
6B9
330
2
100
AcDbEntity
  8
YKK_A1
100
AcDbLine
 10
6074.07430185
 20
4885.12710982
 30
0.0
 11
6074.07430185
 21
4033.12724878
 31
0.0
  0
LINE
  5
6BA
330
2
100
AcDbEntity
  8
YKK_A1
100
AcDbLine
 10
6092.37430274
 20
4885.12710982
 30
0.0
 11
6092.37430274
 21
4033.12724878
 31
0.0
  0
LINE
  5
6BB
330
2
100
AcDbEntity
  8
YKK_A1
100
AcDbLine
 10
6107.37430185
 20
4885.12710982
 30
0.0
 11
6107.37430185
 21
4033.12724878
 31
0.0
  0
LINE
  5
6BC
330
2
100
AcDbEntity
  8
YKK_A1
100
AcDbLine
 10
6125.67430274
 20
4885.12710982
 30
0.0
 11
6125.67430274
 21
4033.12724878
 31
0.0
  0
LINE
  5
6BD
330
2
100
AcDbEntity
  8
YKK_A1
100
AcDbLine
 10
6140.67430185
 20
4885.12710982
 30
0.0
 11
6140.67430185
 21
4033.12724878
 31
0.0
  0
LINE
  5
6BE
330
2
100
AcDbEntity
  8
YKK_A1
100
AcDbLine
 10
6158.97430274
 20
4885.12710982
 30
0.0
 11
6158.97430274
 21
4033.12724878
 31
0.0
  0
LINE
  5
6BF
330
2
100
AcDbEntity
  8
YKK_A1
100
AcDbLine
 10
6173.97430185
 20
4885.12710982
 30
0.0
 11
6173.97430185
 21
4033.12724878
 31
0.0
  0
LINE
  5
6C0
330
2
100
AcDbEntity
  8
YKK_A1
100
AcDbLine
 10
6192.27430274
 20
4885.12710982
 30
0.0
 11
6192.27430274
 21
4033.12724878
 31
0.0
  0
LINE
  5
6C1
330
2
100
AcDbEntity
  8
YKK_A1
100
AcDbLine
 10
6207.27430185
 20
4885.12710982
 30
0.0
 11
6207.27430185
 21
4033.12724878
 31
0.0
  0
LINE
  5
6C2
330
2
100
AcDbEntity
  8
YKK_A1
100
AcDbLine
 10
6225.57430274
 20
4885.12710982
 30
0.0
 11
6225.57430274
 21
4033.12724878
 31
0.0
  0
LINE
  5
6C3
330
2
100
AcDbEntity
  8
YKK_A1
100
AcDbLine
 10
6240.57430185
 20
4885.12710982
 30
0.0
 11
6240.57430185
 21
4033.12724878
 31
0.0
  0
LINE
  5
6C4
330
2
100
AcDbEntity
  8
YKK_A1
100
AcDbLine
 10
6258.87430274
 20
4885.12710982
 30
0.0
 11
6258.87430274
 21
4033.12724878
 31
0.0
  0
LINE
  5
6C5
330
2
100
AcDbEntity
  8
YKK_A1
100
AcDbLine
 10
6273.87430185
 20
4885.12710982
 30
0.0
 11
6273.87430185
 21
4033.12724878
 31
0.0
  0
LINE
  5
6C6
330
2
100
AcDbEntity
  8
YKK_A1
100
AcDbLine
 10
6292.17430274
 20
4885.12710982
 30
0.0
 11
6292.17430274
 21
4033.12724878
 31
0.0
  0
LINE
  5
6C7
330
2
100
AcDbEntity
  8
YKK_A1
100
AcDbLine
 10
6307.17430185
 20
4885.12710982
 30
0.0
 11
6307.17430185
 21
4033.12724878
 31
0.0
  0
LINE
  5
6C8
330
2
100
AcDbEntity
  8
YKK_A1
100
AcDbLine
 10
6325.47430274
 20
4885.12710982
 30
0.0
 11
6325.47430274
 21
4033.12724878
 31
0.0
  0
LINE
  5
6C9
330
2
100
AcDbEntity
  8
YKK_A1
100
AcDbLine
 10
6340.47430185
 20
4885.12710982
 30
0.0
 11
6340.47430185
 21
4033.12724878
 31
0.0
  0
LINE
  5
6CA
330
2
100
AcDbEntity
  8
YKK_A1
100
AcDbLine
 10
6358.77430274
 20
4885.12710982
 30
0.0
 11
6358.77430274
 21
4033.12724878
 31
0.0
  0
LINE
  5
6CB
330
2
100
AcDbEntity
  8
YKK_A1
100
AcDbLine
 10
6373.77430185
 20
4885.12710982
 30
0.0
 11
6373.77430185
 21
4033.12724878
 31
0.0
  0
LINE
  5
6CC
330
2
100
AcDbEntity
  8
YKK_A1
100
AcDbLine
 10
6392.07430274
 20
4885.12710982
 30
0.0
 11
6392.07430274
 21
4033.12724878
 31
0.0
  0
LINE
  5
6CD
330
2
100
AcDbEntity
  8
YKK_A1
100
AcDbLine
 10
6407.07430185
 20
4885.12710982
 30
0.0
 11
6407.07430185
 21
4033.12724878
 31
0.0
  0
LINE
  5
6CE
330
2
100
AcDbEntity
  8
YKK_A1
100
AcDbLine
 10
6425.37430274
 20
4885.12710982
 30
0.0
 11
6425.37430274
 21
4033.12724878
 31
0.0
  0
LINE
  5
6CF
330
2
100
AcDbEntity
  8
YKK_A1
100
AcDbLine
 10
6440.37430185
 20
4885.12710982
 30
0.0
 11
6440.37430185
 21
4033.12724878
 31
0.0
  0
LINE
  5
6D0
330
2
100
AcDbEntity
  8
YKK_A1
100
AcDbLine
 10
6458.67430274
 20
4885.12710982
 30
0.0
 11
6458.67430274
 21
4033.12724878
 31
0.0
  0
LINE
  5
6D1
330
2
100
AcDbEntity
  8
YKK_A1
100
AcDbLine
 10
6473.67430185
 20
4885.12710982
 30
0.0
 11
6473.67430185
 21
4033.12724878
 31
0.0
  0
LINE
  5
6D2
330
2
100
AcDbEntity
  8
YKK_A1
100
AcDbLine
 10
6491.97430274
 20
4885.12710982
 30
0.0
 11
6491.97430274
 21
4033.12724878
 31
0.0
  0
LINE
  5
6D3
330
2
100
AcDbEntity
  8
YKK_A1
100
AcDbLine
 10
6506.97430185
 20
4885.12710982
 30
0.0
 11
6506.97430185
 21
4033.12724878
 31
0.0
  0
LINE
  5
6D4
330
2
100
AcDbEntity
  8
YKK_A1
100
AcDbLine
 10
6525.27430274
 20
4885.12710982
 30
0.0
 11
6525.27430274
 21
4033.12724878
 31
0.0
  0
LINE
  5
6D5
330
2
100
AcDbEntity
  8
YKK_A1
100
AcDbLine
 10
6540.27430185
 20
4885.12710982
 30
0.0
 11
6540.27430185
 21
4033.12724878
 31
0.0
  0
LINE
  5
6D6
330
2
100
AcDbEntity
  8
YKK_A1
100
AcDbLine
 10
6558.57430274
 20
4885.12710982
 30
0.0
 11
6558.57430274
 21
4033.12724878
 31
0.0
  0
LINE
  5
6D7
330
2
100
AcDbEntity
  8
YKK_A1
100
AcDbLine
 10
6573.57430185
 20
4885.12710982
 30
0.0
 11
6573.57430185
 21
4033.12724878
 31
0.0
  0
LINE
  5
6D8
330
2
100
AcDbEntity
  8
YKK_A1
100
AcDbLine
 10
6591.87430274
 20
4885.12710982
 30
0.0
 11
6591.87430274
 21
4033.12724878
 31
0.0
  0
LINE
  5
6D9
330
2
100
AcDbEntity
  8
YKK_A1
100
AcDbLine
 10
6606.87430185
 20
4885.12710982
 30
0.0
 11
6606.87430185
 21
4033.12724878
 31
0.0
  0
LINE
  5
6DA
330
2
100
AcDbEntity
  8
YKK_A1
100
AcDbLine
 10
6625.17430274
 20
4885.12710982
 30
0.0
 11
6625.17430274
 21
4033.12724878
 31
0.0
  0
LINE
  5
6DB
330
2
100
AcDbEntity
  8
YKK_A1
100
AcDbLine
 10
6640.17430185
 20
4885.12710982
 30
0.0
 11
6640.17430185
 21
4033.12724878
 31
0.0
  0
LINE
  5
6DC
330
2
100
AcDbEntity
  8
YKK_A1
100
AcDbLine
 10
6658.47430274
 20
4885.12710982
 30
0.0
 11
6658.47430274
 21
4033.12724878
 31
0.0
  0
LINE
  5
6DD
330
2
100
AcDbEntity
  8
YKK_A1
100
AcDbLine
 10
6673.47430185
 20
4885.12710982
 30
0.0
 11
6673.47430185
 21
4033.12724878
 31
0.0
  0
LINE
  5
6DE
330
2
100
AcDbEntity
  8
YKK_A1
100
AcDbLine
 10
6691.77430274
 20
4885.12710982
 30
0.0
 11
6691.77430274
 21
4033.12724878
 31
0.0
  0
LINE
  5
6DF
330
2
100
AcDbEntity
  8
YKK_A1
100
AcDbLine
 10
6706.77430185
 20
4885.12710982
 30
0.0
 11
6706.77430185
 21
4033.12724878
 31
0.0
  0
LINE
  5
6E0
330
2
100
AcDbEntity
  8
YKK_A1
100
AcDbLine
 10
6725.07430274
 20
4885.12710982
 30
0.0
 11
6725.07430274
 21
4033.12724878
 31
0.0
  0
LINE
  5
6E1
330
2
100
AcDbEntity
  8
YKK_A1
100
AcDbLine
 10
6740.07430185
 20
4885.12710982
 30
0.0
 11
6740.07430185
 21
4033.12724878
 31
0.0
  0
LINE
  5
6E2
330
2
100
AcDbEntity
  8
YKK_A1
100
AcDbLine
 10
6758.37430274
 20
4885.12710982
 30
0.0
 11
6758.37430274
 21
4033.12724878
 31
0.0
  0
LINE
  5
6E3
330
2
100
AcDbEntity
  8
YKK_A1
100
AcDbLine
 10
6773.37430185
 20
4885.12710982
 30
0.0
 11
6773.37430185
 21
4033.12724878
 31
0.0
  0
LINE
  5
6E4
330
2
100
AcDbEntity
  8
YKK_A1
100
AcDbLine
 10
6791.67430274
 20
4885.12710982
 30
0.0
 11
6791.67430274
 21
4033.12724878
 31
0.0
  0
LINE
  5
6E5
330
2
100
AcDbEntity
  8
YKK_A1
100
AcDbLine
 10
6806.67430185
 20
4885.12710982
 30
0.0
 11
6806.67430185
 21
4033.12724878
 31
0.0
  0
LINE
  5
6E6
330
2
100
AcDbEntity
  8
YKK_A1
100
AcDbLine
 10
4826.97430274
 20
2996.58410692
 30
0.0
 11
4826.97430274
 21
1944.58424588
 31
0.0
  0
LINE
  5
6E7
330
2
100
AcDbEntity
  8
YKK_A1
100
AcDbLine
 10
4841.97430185
 20
2996.58410692
 30
0.0
 11
4841.97430185
 21
1944.58424588
 31
0.0
  0
LINE
  5
6E8
330
2
100
AcDbEntity
  8
YKK_A1
100
AcDbLine
 10
6814.32436408
 20
2996.58410692
 30
0.0
 11
6814.32436408
 21
3030.58410412
 31
0.0
  0
LINE
  5
6E9
330
2
100
AcDbEntity
  8
YKK_A1
100
AcDbLine
 10
4819.3244815
 20
1944.58424588
 30
0.0
 11
6814.32436408
 21
1944.58424588
 31
0.0
  0
LINE
  5
6EA
330
2
100
AcDbEntity
  8
YKK_A1
100
AcDbLine
 10
4819.3244815
 20
2996.58410692
 30
0.0
 11
6814.32436408
 21
2996.58410692
 31
0.0
  0
LINE
  5
6EB
330
2
100
AcDbEntity
  8
YKK_A1
100
AcDbLine
 10
4819.3244815
 20
2996.58410692
 30
0.0
 11
4819.3244815
 21
3030.58410412
 31
0.0
  0
LINE
  5
6EC
330
2
100
AcDbEntity
  8
YKK_A1
100
AcDbLine
 10
4819.3244815
 20
3030.58410412
 30
0.0
 11
6814.32436408
 21
3030.58410412
 31
0.0
  0
LINE
  5
6ED
330
2
100
AcDbEntity
  8
YKK_A1
100
AcDbLine
 10
4819.3244815
 20
1910.58424868
 30
0.0
 11
4819.3244815
 21
1944.58424588
 31
0.0
  0
LINE
  5
6EE
330
2
100
AcDbEntity
  8
YKK_A1
100
AcDbLine
 10
6814.32436408
 20
1910.58424868
 30
0.0
 11
4819.3244815
 21
1910.58424868
 31
0.0
  0
LINE
  5
6EF
330
2
100
AcDbEntity
  8
YKK_A1
100
AcDbLine
 10
6814.32436408
 20
1910.58424868
 30
0.0
 11
6814.32436408
 21
1944.58424588
 31
0.0
  0
LINE
  5
6F0
330
2
100
AcDbEntity
  8
YKK_A1
100
AcDbLine
 10
4860.27430274
 20
2996.58410692
 30
0.0
 11
4860.27430274
 21
1944.58424588
 31
0.0
  0
LINE
  5
6F1
330
2
100
AcDbEntity
  8
YKK_A1
100
AcDbLine
 10
4875.27430185
 20
2996.58410692
 30
0.0
 11
4875.27430185
 21
1944.58424588
 31
0.0
  0
LINE
  5
6F2
330
2
100
AcDbEntity
  8
YKK_A1
100
AcDbLine
 10
4893.57430274
 20
2996.58410692
 30
0.0
 11
4893.57430274
 21
1944.58424588
 31
0.0
  0
LINE
  5
6F3
330
2
100
AcDbEntity
  8
YKK_A1
100
AcDbLine
 10
4908.57430185
 20
2996.58410692
 30
0.0
 11
4908.57430185
 21
1944.58424588
 31
0.0
  0
LINE
  5
6F4
330
2
100
AcDbEntity
  8
YKK_A1
100
AcDbLine
 10
4926.87430274
 20
2996.58410692
 30
0.0
 11
4926.87430274
 21
1944.58424588
 31
0.0
  0
LINE
  5
6F5
330
2
100
AcDbEntity
  8
YKK_A1
100
AcDbLine
 10
4941.87430185
 20
2996.58410692
 30
0.0
 11
4941.87430185
 21
1944.58424588
 31
0.0
  0
LINE
  5
6F6
330
2
100
AcDbEntity
  8
YKK_A1
100
AcDbLine
 10
4960.17430274
 20
2996.58410692
 30
0.0
 11
4960.17430274
 21
1944.58424588
 31
0.0
  0
LINE
  5
6F7
330
2
100
AcDbEntity
  8
YKK_A1
100
AcDbLine
 10
4975.17430185
 20
2996.58410692
 30
0.0
 11
4975.17430185
 21
1944.58424588
 31
0.0
  0
LINE
  5
6F8
330
2
100
AcDbEntity
  8
YKK_A1
100
AcDbLine
 10
4993.47430274
 20
2996.58410692
 30
0.0
 11
4993.47430274
 21
1944.58424588
 31
0.0
  0
LINE
  5
6F9
330
2
100
AcDbEntity
  8
YKK_A1
100
AcDbLine
 10
5008.47430185
 20
2996.58410692
 30
0.0
 11
5008.47430185
 21
1944.58424588
 31
0.0
  0
LINE
  5
6FA
330
2
100
AcDbEntity
  8
YKK_A1
100
AcDbLine
 10
5026.77430274
 20
2996.58410692
 30
0.0
 11
5026.77430274
 21
1944.58424588
 31
0.0
  0
LINE
  5
6FB
330
2
100
AcDbEntity
  8
YKK_A1
100
AcDbLine
 10
5041.77430185
 20
2996.58410692
 30
0.0
 11
5041.77430185
 21
1944.58424588
 31
0.0
  0
LINE
  5
6FC
330
2
100
AcDbEntity
  8
YKK_A1
100
AcDbLine
 10
5060.07430274
 20
2996.58410692
 30
0.0
 11
5060.07430274
 21
1944.58424588
 31
0.0
  0
LINE
  5
6FD
330
2
100
AcDbEntity
  8
YKK_A1
100
AcDbLine
 10
5075.07430185
 20
2996.58410692
 30
0.0
 11
5075.07430185
 21
1944.58424588
 31
0.0
  0
LINE
  5
6FE
330
2
100
AcDbEntity
  8
YKK_A1
100
AcDbLine
 10
5093.37430274
 20
2996.58410692
 30
0.0
 11
5093.37430274
 21
1944.58424588
 31
0.0
  0
LINE
  5
6FF
330
2
100
AcDbEntity
  8
YKK_A1
100
AcDbLine
 10
5108.37430185
 20
2996.58410692
 30
0.0
 11
5108.37430185
 21
1944.58424588
 31
0.0
  0
LINE
  5
700
330
2
100
AcDbEntity
  8
YKK_A1
100
AcDbLine
 10
5126.67430274
 20
2996.58410692
 30
0.0
 11
5126.67430274
 21
1944.58424588
 31
0.0
  0
LINE
  5
701
330
2
100
AcDbEntity
  8
YKK_A1
100
AcDbLine
 10
5141.67430185
 20
2996.58410692
 30
0.0
 11
5141.67430185
 21
1944.58424588
 31
0.0
  0
LINE
  5
702
330
2
100
AcDbEntity
  8
YKK_A1
100
AcDbLine
 10
5159.97430274
 20
2996.58410692
 30
0.0
 11
5159.97430274
 21
1944.58424588
 31
0.0
  0
LINE
  5
703
330
2
100
AcDbEntity
  8
YKK_A1
100
AcDbLine
 10
5174.97430185
 20
2996.58410692
 30
0.0
 11
5174.97430185
 21
1944.58424588
 31
0.0
  0
LINE
  5
704
330
2
100
AcDbEntity
  8
YKK_A1
100
AcDbLine
 10
5193.27430274
 20
2996.58410692
 30
0.0
 11
5193.27430274
 21
1944.58424588
 31
0.0
  0
LINE
  5
705
330
2
100
AcDbEntity
  8
YKK_A1
100
AcDbLine
 10
5208.27430185
 20
2996.58410692
 30
0.0
 11
5208.27430185
 21
1944.58424588
 31
0.0
  0
LINE
  5
706
330
2
100
AcDbEntity
  8
YKK_A1
100
AcDbLine
 10
5226.57430274
 20
2996.58410692
 30
0.0
 11
5226.57430274
 21
1944.58424588
 31
0.0
  0
LINE
  5
707
330
2
100
AcDbEntity
  8
YKK_A1
100
AcDbLine
 10
5241.57430185
 20
2996.58410692
 30
0.0
 11
5241.57430185
 21
1944.58424588
 31
0.0
  0
LINE
  5
708
330
2
100
AcDbEntity
  8
YKK_A1
100
AcDbLine
 10
5259.87430274
 20
2996.58410692
 30
0.0
 11
5259.87430274
 21
1944.58424588
 31
0.0
  0
LINE
  5
709
330
2
100
AcDbEntity
  8
YKK_A1
100
AcDbLine
 10
5274.87430185
 20
2996.58410692
 30
0.0
 11
5274.87430185
 21
1944.58424588
 31
0.0
  0
LINE
  5
70A
330
2
100
AcDbEntity
  8
YKK_A1
100
AcDbLine
 10
5293.17430274
 20
2996.58410692
 30
0.0
 11
5293.17430274
 21
1944.58424588
 31
0.0
  0
LINE
  5
70B
330
2
100
AcDbEntity
  8
YKK_A1
100
AcDbLine
 10
5308.17430185
 20
2996.58410692
 30
0.0
 11
5308.17430185
 21
1944.58424588
 31
0.0
  0
LINE
  5
70C
330
2
100
AcDbEntity
  8
YKK_A1
100
AcDbLine
 10
5326.47430274
 20
2996.58410692
 30
0.0
 11
5326.47430274
 21
1944.58424588
 31
0.0
  0
LINE
  5
70D
330
2
100
AcDbEntity
  8
YKK_A1
100
AcDbLine
 10
5341.47430185
 20
2996.58410692
 30
0.0
 11
5341.47430185
 21
1944.58424588
 31
0.0
  0
LINE
  5
70E
330
2
100
AcDbEntity
  8
YKK_A1
100
AcDbLine
 10
5359.77430274
 20
2996.58410692
 30
0.0
 11
5359.77430274
 21
1944.58424588
 31
0.0
  0
LINE
  5
70F
330
2
100
AcDbEntity
  8
YKK_A1
100
AcDbLine
 10
5374.77430185
 20
2996.58410692
 30
0.0
 11
5374.77430185
 21
1944.58424588
 31
0.0
  0
LINE
  5
710
330
2
100
AcDbEntity
  8
YKK_A1
100
AcDbLine
 10
5393.07430274
 20
2996.58410692
 30
0.0
 11
5393.07430274
 21
1944.58424588
 31
0.0
  0
LINE
  5
711
330
2
100
AcDbEntity
  8
YKK_A1
100
AcDbLine
 10
5408.07430185
 20
2996.58410692
 30
0.0
 11
5408.07430185
 21
1944.58424588
 31
0.0
  0
LINE
  5
712
330
2
100
AcDbEntity
  8
YKK_A1
100
AcDbLine
 10
5426.37430274
 20
2996.58410692
 30
0.0
 11
5426.37430274
 21
1944.58424588
 31
0.0
  0
LINE
  5
713
330
2
100
AcDbEntity
  8
YKK_A1
100
AcDbLine
 10
5441.37430185
 20
2996.58410692
 30
0.0
 11
5441.37430185
 21
1944.58424588
 31
0.0
  0
LINE
  5
714
330
2
100
AcDbEntity
  8
YKK_A1
100
AcDbLine
 10
5459.67430274
 20
2996.58410692
 30
0.0
 11
5459.67430274
 21
1944.58424588
 31
0.0
  0
LINE
  5
715
330
2
100
AcDbEntity
  8
YKK_A1
100
AcDbLine
 10
5474.67430185
 20
2996.58410692
 30
0.0
 11
5474.67430185
 21
1944.58424588
 31
0.0
  0
LINE
  5
716
330
2
100
AcDbEntity
  8
YKK_A1
100
AcDbLine
 10
5492.97430274
 20
2996.58410692
 30
0.0
 11
5492.97430274
 21
1944.58424588
 31
0.0
  0
LINE
  5
717
330
2
100
AcDbEntity
  8
YKK_A1
100
AcDbLine
 10
5507.97430185
 20
2996.58410692
 30
0.0
 11
5507.97430185
 21
1944.58424588
 31
0.0
  0
LINE
  5
718
330
2
100
AcDbEntity
  8
YKK_A1
100
AcDbLine
 10
5526.27430274
 20
2996.58410692
 30
0.0
 11
5526.27430274
 21
1944.58424588
 31
0.0
  0
LINE
  5
719
330
2
100
AcDbEntity
  8
YKK_A1
100
AcDbLine
 10
5541.27430185
 20
2996.58410692
 30
0.0
 11
5541.27430185
 21
1944.58424588
 31
0.0
  0
LINE
  5
71A
330
2
100
AcDbEntity
  8
YKK_A1
100
AcDbLine
 10
5559.57430274
 20
2996.58410692
 30
0.0
 11
5559.57430274
 21
1944.58424588
 31
0.0
  0
LINE
  5
71B
330
2
100
AcDbEntity
  8
YKK_A1
100
AcDbLine
 10
5574.57430185
 20
2996.58410692
 30
0.0
 11
5574.57430185
 21
1944.58424588
 31
0.0
  0
LINE
  5
71C
330
2
100
AcDbEntity
  8
YKK_A1
100
AcDbLine
 10
5592.87430274
 20
2996.58410692
 30
0.0
 11
5592.87430274
 21
1944.58424588
 31
0.0
  0
LINE
  5
71D
330
2
100
AcDbEntity
  8
YKK_A1
100
AcDbLine
 10
5607.87430185
 20
2996.58410692
 30
0.0
 11
5607.87430185
 21
1944.58424588
 31
0.0
  0
LINE
  5
71E
330
2
100
AcDbEntity
  8
YKK_A1
100
AcDbLine
 10
5626.17430274
 20
2996.58410692
 30
0.0
 11
5626.17430274
 21
1944.58424588
 31
0.0
  0
LINE
  5
71F
330
2
100
AcDbEntity
  8
YKK_A1
100
AcDbLine
 10
5641.17430185
 20
2996.58410692
 30
0.0
 11
5641.17430185
 21
1944.58424588
 31
0.0
  0
LINE
  5
720
330
2
100
AcDbEntity
  8
YKK_A1
100
AcDbLine
 10
5659.47430274
 20
2996.58410692
 30
0.0
 11
5659.47430274
 21
1944.58424588
 31
0.0
  0
LINE
  5
721
330
2
100
AcDbEntity
  8
YKK_A1
100
AcDbLine
 10
5674.47430185
 20
2996.58410692
 30
0.0
 11
5674.47430185
 21
1944.58424588
 31
0.0
  0
LINE
  5
722
330
2
100
AcDbEntity
  8
YKK_A1
100
AcDbLine
 10
5692.77430274
 20
2996.58410692
 30
0.0
 11
5692.77430274
 21
1944.58424588
 31
0.0
  0
LINE
  5
723
330
2
100
AcDbEntity
  8
YKK_A1
100
AcDbLine
 10
5707.77430185
 20
2996.58410692
 30
0.0
 11
5707.77430185
 21
1944.58424588
 31
0.0
  0
LINE
  5
724
330
2
100
AcDbEntity
  8
YKK_A1
100
AcDbLine
 10
5726.07430274
 20
2996.58410692
 30
0.0
 11
5726.07430274
 21
1944.58424588
 31
0.0
  0
LINE
  5
725
330
2
100
AcDbEntity
  8
YKK_A1
100
AcDbLine
 10
5741.07430185
 20
2996.58410692
 30
0.0
 11
5741.07430185
 21
1944.58424588
 31
0.0
  0
LINE
  5
726
330
2
100
AcDbEntity
  8
YKK_A1
100
AcDbLine
 10
5759.37430274
 20
2996.58410692
 30
0.0
 11
5759.37430274
 21
1944.58424588
 31
0.0
  0
LINE
  5
727
330
2
100
AcDbEntity
  8
YKK_A1
100
AcDbLine
 10
5774.37430185
 20
2996.58410692
 30
0.0
 11
5774.37430185
 21
1944.58424588
 31
0.0
  0
LINE
  5
728
330
2
100
AcDbEntity
  8
YKK_A1
100
AcDbLine
 10
5792.67430274
 20
2996.58410692
 30
0.0
 11
5792.67430274
 21
1944.58424588
 31
0.0
  0
LINE
  5
729
330
2
100
AcDbEntity
  8
YKK_A1
100
AcDbLine
 10
5807.67430185
 20
2996.58410692
 30
0.0
 11
5807.67430185
 21
1944.58424588
 31
0.0
  0
LINE
  5
72A
330
2
100
AcDbEntity
  8
YKK_A1
100
AcDbLine
 10
5825.97430274
 20
2996.58410692
 30
0.0
 11
5825.97430274
 21
1944.58424588
 31
0.0
  0
LINE
  5
72B
330
2
100
AcDbEntity
  8
YKK_A1
100
AcDbLine
 10
5840.97430185
 20
2996.58410692
 30
0.0
 11
5840.97430185
 21
1944.58424588
 31
0.0
  0
LINE
  5
72C
330
2
100
AcDbEntity
  8
YKK_A1
100
AcDbLine
 10
5859.27430274
 20
2996.58410692
 30
0.0
 11
5859.27430274
 21
1944.58424588
 31
0.0
  0
LINE
  5
72D
330
2
100
AcDbEntity
  8
YKK_A1
100
AcDbLine
 10
5874.27430185
 20
2996.58410692
 30
0.0
 11
5874.27430185
 21
1944.58424588
 31
0.0
  0
LINE
  5
72E
330
2
100
AcDbEntity
  8
YKK_A1
100
AcDbLine
 10
5892.57430274
 20
2996.58410692
 30
0.0
 11
5892.57430274
 21
1944.58424588
 31
0.0
  0
LINE
  5
72F
330
2
100
AcDbEntity
  8
YKK_A1
100
AcDbLine
 10
5907.57430185
 20
2996.58410692
 30
0.0
 11
5907.57430185
 21
1944.58424588
 31
0.0
  0
LINE
  5
730
330
2
100
AcDbEntity
  8
YKK_A1
100
AcDbLine
 10
5925.87430274
 20
2996.58410692
 30
0.0
 11
5925.87430274
 21
1944.58424588
 31
0.0
  0
LINE
  5
731
330
2
100
AcDbEntity
  8
YKK_A1
100
AcDbLine
 10
5940.87430185
 20
2996.58410692
 30
0.0
 11
5940.87430185
 21
1944.58424588
 31
0.0
  0
LINE
  5
732
330
2
100
AcDbEntity
  8
YKK_A1
100
AcDbLine
 10
5959.17430274
 20
2996.58410692
 30
0.0
 11
5959.17430274
 21
1944.58424588
 31
0.0
  0
LINE
  5
733
330
2
100
AcDbEntity
  8
YKK_A1
100
AcDbLine
 10
5974.17430185
 20
2996.58410692
 30
0.0
 11
5974.17430185
 21
1944.58424588
 31
0.0
  0
LINE
  5
734
330
2
100
AcDbEntity
  8
YKK_A1
100
AcDbLine
 10
5992.47430274
 20
2996.58410692
 30
0.0
 11
5992.47430274
 21
1944.58424588
 31
0.0
  0
LINE
  5
735
330
2
100
AcDbEntity
  8
YKK_A1
100
AcDbLine
 10
6007.47430185
 20
2996.58410692
 30
0.0
 11
6007.47430185
 21
1944.58424588
 31
0.0
  0
LINE
  5
736
330
2
100
AcDbEntity
  8
YKK_A1
100
AcDbLine
 10
6025.77430274
 20
2996.58410692
 30
0.0
 11
6025.77430274
 21
1944.58424588
 31
0.0
  0
LINE
  5
737
330
2
100
AcDbEntity
  8
YKK_A1
100
AcDbLine
 10
6040.77430185
 20
2996.58410692
 30
0.0
 11
6040.77430185
 21
1944.58424588
 31
0.0
  0
LINE
  5
738
330
2
100
AcDbEntity
  8
YKK_A1
100
AcDbLine
 10
6059.07430274
 20
2996.58410692
 30
0.0
 11
6059.07430274
 21
1944.58424588
 31
0.0
  0
LINE
  5
739
330
2
100
AcDbEntity
  8
YKK_A1
100
AcDbLine
 10
6074.07430185
 20
2996.58410692
 30
0.0
 11
6074.07430185
 21
1944.58424588
 31
0.0
  0
LINE
  5
73A
330
2
100
AcDbEntity
  8
YKK_A1
100
AcDbLine
 10
6092.37430274
 20
2996.58410692
 30
0.0
 11
6092.37430274
 21
1944.58424588
 31
0.0
  0
LINE
  5
73B
330
2
100
AcDbEntity
  8
YKK_A1
100
AcDbLine
 10
6107.37430185
 20
2996.58410692
 30
0.0
 11
6107.37430185
 21
1944.58424588
 31
0.0
  0
LINE
  5
73C
330
2
100
AcDbEntity
  8
YKK_A1
100
AcDbLine
 10
6125.67430274
 20
2996.58410692
 30
0.0
 11
6125.67430274
 21
1944.58424588
 31
0.0
  0
LINE
  5
73D
330
2
100
AcDbEntity
  8
YKK_A1
100
AcDbLine
 10
6140.67430185
 20
2996.58410692
 30
0.0
 11
6140.67430185
 21
1944.58424588
 31
0.0
  0
LINE
  5
73E
330
2
100
AcDbEntity
  8
YKK_A1
100
AcDbLine
 10
6158.97430274
 20
2996.58410692
 30
0.0
 11
6158.97430274
 21
1944.58424588
 31
0.0
  0
LINE
  5
73F
330
2
100
AcDbEntity
  8
YKK_A1
100
AcDbLine
 10
6173.97430185
 20
2996.58410692
 30
0.0
 11
6173.97430185
 21
1944.58424588
 31
0.0
  0
LINE
  5
740
330
2
100
AcDbEntity
  8
YKK_A1
100
AcDbLine
 10
6192.27430274
 20
2996.58410692
 30
0.0
 11
6192.27430274
 21
1944.58424588
 31
0.0
  0
LINE
  5
741
330
2
100
AcDbEntity
  8
YKK_A1
100
AcDbLine
 10
6207.27430185
 20
2996.58410692
 30
0.0
 11
6207.27430185
 21
1944.58424588
 31
0.0
  0
LINE
  5
742
330
2
100
AcDbEntity
  8
YKK_A1
100
AcDbLine
 10
6225.57430274
 20
2996.58410692
 30
0.0
 11
6225.57430274
 21
1944.58424588
 31
0.0
  0
LINE
  5
743
330
2
100
AcDbEntity
  8
YKK_A1
100
AcDbLine
 10
6240.57430185
 20
2996.58410692
 30
0.0
 11
6240.57430185
 21
1944.58424588
 31
0.0
  0
LINE
  5
744
330
2
100
AcDbEntity
  8
YKK_A1
100
AcDbLine
 10
6258.87430274
 20
2996.58410692
 30
0.0
 11
6258.87430274
 21
1944.58424588
 31
0.0
  0
LINE
  5
745
330
2
100
AcDbEntity
  8
YKK_A1
100
AcDbLine
 10
6273.87430185
 20
2996.58410692
 30
0.0
 11
6273.87430185
 21
1944.58424588
 31
0.0
  0
LINE
  5
746
330
2
100
AcDbEntity
  8
YKK_A1
100
AcDbLine
 10
6292.17430274
 20
2996.58410692
 30
0.0
 11
6292.17430274
 21
1944.58424588
 31
0.0
  0
LINE
  5
747
330
2
100
AcDbEntity
  8
YKK_A1
100
AcDbLine
 10
6307.17430185
 20
2996.58410692
 30
0.0
 11
6307.17430185
 21
1944.58424588
 31
0.0
  0
LINE
  5
748
330
2
100
AcDbEntity
  8
YKK_A1
100
AcDbLine
 10
6325.47430274
 20
2996.58410692
 30
0.0
 11
6325.47430274
 21
1944.58424588
 31
0.0
  0
LINE
  5
749
330
2
100
AcDbEntity
  8
YKK_A1
100
AcDbLine
 10
6340.47430185
 20
2996.58410692
 30
0.0
 11
6340.47430185
 21
1944.58424588
 31
0.0
  0
LINE
  5
74A
330
2
100
AcDbEntity
  8
YKK_A1
100
AcDbLine
 10
6358.77430274
 20
2996.58410692
 30
0.0
 11
6358.77430274
 21
1944.58424588
 31
0.0
  0
LINE
  5
74B
330
2
100
AcDbEntity
  8
YKK_A1
100
AcDbLine
 10
6373.77430185
 20
2996.58410692
 30
0.0
 11
6373.77430185
 21
1944.58424588
 31
0.0
  0
LINE
  5
74C
330
2
100
AcDbEntity
  8
YKK_A1
100
AcDbLine
 10
6392.07430274
 20
2996.58410692
 30
0.0
 11
6392.07430274
 21
1944.58424588
 31
0.0
  0
LINE
  5
74D
330
2
100
AcDbEntity
  8
YKK_A1
100
AcDbLine
 10
6407.07430185
 20
2996.58410692
 30
0.0
 11
6407.07430185
 21
1944.58424588
 31
0.0
  0
LINE
  5
74E
330
2
100
AcDbEntity
  8
YKK_A1
100
AcDbLine
 10
6425.37430274
 20
2996.58410692
 30
0.0
 11
6425.37430274
 21
1944.58424588
 31
0.0
  0
LINE
  5
74F
330
2
100
AcDbEntity
  8
YKK_A1
100
AcDbLine
 10
6440.37430185
 20
2996.58410692
 30
0.0
 11
6440.37430185
 21
1944.58424588
 31
0.0
  0
LINE
  5
750
330
2
100
AcDbEntity
  8
YKK_A1
100
AcDbLine
 10
6458.67430274
 20
2996.58410692
 30
0.0
 11
6458.67430274
 21
1944.58424588
 31
0.0
  0
LINE
  5
751
330
2
100
AcDbEntity
  8
YKK_A1
100
AcDbLine
 10
6473.67430185
 20
2996.58410692
 30
0.0
 11
6473.67430185
 21
1944.58424588
 31
0.0
  0
LINE
  5
752
330
2
100
AcDbEntity
  8
YKK_A1
100
AcDbLine
 10
6491.97430274
 20
2996.58410692
 30
0.0
 11
6491.97430274
 21
1944.58424588
 31
0.0
  0
LINE
  5
753
330
2
100
AcDbEntity
  8
YKK_A1
100
AcDbLine
 10
6506.97430185
 20
2996.58410692
 30
0.0
 11
6506.97430185
 21
1944.58424588
 31
0.0
  0
LINE
  5
754
330
2
100
AcDbEntity
  8
YKK_A1
100
AcDbLine
 10
6525.27430274
 20
2996.58410692
 30
0.0
 11
6525.27430274
 21
1944.58424588
 31
0.0
  0
LINE
  5
755
330
2
100
AcDbEntity
  8
YKK_A1
100
AcDbLine
 10
6540.27430185
 20
2996.58410692
 30
0.0
 11
6540.27430185
 21
1944.58424588
 31
0.0
  0
LINE
  5
756
330
2
100
AcDbEntity
  8
YKK_A1
100
AcDbLine
 10
6558.57430274
 20
2996.58410692
 30
0.0
 11
6558.57430274
 21
1944.58424588
 31
0.0
  0
LINE
  5
757
330
2
100
AcDbEntity
  8
YKK_A1
100
AcDbLine
 10
6573.57430185
 20
2996.58410692
 30
0.0
 11
6573.57430185
 21
1944.58424588
 31
0.0
  0
LINE
  5
758
330
2
100
AcDbEntity
  8
YKK_A1
100
AcDbLine
 10
6591.87430274
 20
2996.58410692
 30
0.0
 11
6591.87430274
 21
1944.58424588
 31
0.0
  0
LINE
  5
759
330
2
100
AcDbEntity
  8
YKK_A1
100
AcDbLine
 10
6606.87430185
 20
2996.58410692
 30
0.0
 11
6606.87430185
 21
1944.58424588
 31
0.0
  0
LINE
  5
75A
330
2
100
AcDbEntity
  8
YKK_A1
100
AcDbLine
 10
6625.17430274
 20
2996.58410692
 30
0.0
 11
6625.17430274
 21
1944.58424588
 31
0.0
  0
LINE
  5
75B
330
2
100
AcDbEntity
  8
YKK_A1
100
AcDbLine
 10
6640.17430185
 20
2996.58410692
 30
0.0
 11
6640.17430185
 21
1944.58424588
 31
0.0
  0
LINE
  5
75C
330
2
100
AcDbEntity
  8
YKK_A1
100
AcDbLine
 10
6658.47430274
 20
2996.58410692
 30
0.0
 11
6658.47430274
 21
1944.58424588
 31
0.0
  0
LINE
  5
75D
330
2
100
AcDbEntity
  8
YKK_A1
100
AcDbLine
 10
6673.47430185
 20
2996.58410692
 30
0.0
 11
6673.47430185
 21
1944.58424588
 31
0.0
  0
LINE
  5
75E
330
2
100
AcDbEntity
  8
YKK_A1
100
AcDbLine
 10
6691.77430274
 20
2996.58410692
 30
0.0
 11
6691.77430274
 21
1944.58424588
 31
0.0
  0
LINE
  5
75F
330
2
100
AcDbEntity
  8
YKK_A1
100
AcDbLine
 10
6706.77430185
 20
2996.58410692
 30
0.0
 11
6706.77430185
 21
1944.58424588
 31
0.0
  0
LINE
  5
760
330
2
100
AcDbEntity
  8
YKK_A1
100
AcDbLine
 10
6725.07430274
 20
2996.58410692
 30
0.0
 11
6725.07430274
 21
1944.58424588
 31
0.0
  0
LINE
  5
761
330
2
100
AcDbEntity
  8
YKK_A1
100
AcDbLine
 10
6740.07430185
 20
2996.58410692
 30
0.0
 11
6740.07430185
 21
1944.58424588
 31
0.0
  0
LINE
  5
762
330
2
100
AcDbEntity
  8
YKK_A1
100
AcDbLine
 10
6758.37430274
 20
2996.58410692
 30
0.0
 11
6758.37430274
 21
1944.58424588
 31
0.0
  0
LINE
  5
763
330
2
100
AcDbEntity
  8
YKK_A1
100
AcDbLine
 10
6773.37430185
 20
2996.58410692
 30
0.0
 11
6773.37430185
 21
1944.58424588
 31
0.0
  0
LINE
  5
764
330
2
100
AcDbEntity
  8
YKK_A1
100
AcDbLine
 10
6791.67430274
 20
2996.58410692
 30
0.0
 11
6791.67430274
 21
1944.58424588
 31
0.0
  0
LINE
  5
765
330
2
100
AcDbEntity
  8
YKK_A1
100
AcDbLine
 10
6806.67430185
 20
2996.58410692
 30
0.0
 11
6806.67430185
 21
1944.58424588
 31
0.0
  0
TEXT
  5
766
330
2
100
AcDbEntity
  8
USER1
100
AcDbText
 10
4181.76321147
 20
108.69525089
 30
0.0
 40
52.0
  1
形材フェンス シンプレオフェンス 2F型
 41
0.8
  7
text-b
100
AcDbText
  0
TEXT
  5
767
330
2
100
AcDbEntity
  8
USER1
100
AcDbText
 10
4547.84321147
 20
22.02858423
 30
0.0
 40
52.0
  1
姿図一覧
 41
0.8
  7
text-b
100
AcDbText
  0
TEXT
  5
768
330
2
100
AcDbEntity
  8
USER1
100
AcDbText
 10
284.00170384
 20
5289.00014
 30
0.0
 40
80.0
  1
■姿図一覧
 41
0.8
  7
text-b
100
AcDbText
  0
LINE
  5
769
330
2
100
AcDbEntity
  8
YKK_D
 62
     1
100
AcDbLine
 10
935.3777476
 20
4927.72181381
 30
0.0
 11
774.37795575
 21
4927.72181381
 31
0.0
  0
LINE
  5
76A
330
2
100
AcDbEntity
  8
YKK_D
 62
     1
100
AcDbLine
 10
935.3777476
 20
4407.72181381
 30
0.0
 11
774.37795575
 21
4407.72181381
 31
0.0
  0
LINE
  5
76B
330
2
100
AcDbEntity
  8
YKK_D
 62
     1
100
AcDbLine
 10
775.37795575
 20
4927.72181381
 30
0.0
 11
775.37795575
 21
4407.72181381
 31
0.0
  0
LINE
  5
76C
330
2
100
AcDbEntity
  8
YKK_D
 62
     1
100
AcDbLine
 10
2970.37761861
 20
4367.72195837
 30
0.0
 11
2970.37761861
 21
4256.72181381
 31
0.0
  0
LINE
  5
76D
330
2
100
AcDbEntity
  8
YKK_D
 62
     1
100
AcDbLine
 10
975.37772721
 20
4367.72195837
 30
0.0
 11
975.37772721
 21
4256.72181381
 31
0.0
  0
LINE
  5
76E
330
2
100
AcDbEntity
  8
YKK_D
 62
     1
100
AcDbLine
 10
2970.37761861
 20
4257.72181381
 30
0.0
 11
975.37772721
 21
4257.72181381
 31
0.0
  0
LINE
  5
76F
330
2
100
AcDbEntity
  8
YKK_D
 62
     1
100
AcDbLine
 10
990.52755683
 20
4967.72192738
 30
0.0
 11
990.52755683
 21
5078.72194725
 31
0.0
  0
LINE
  5
770
330
2
100
AcDbEntity
  8
YKK_D
 62
     1
100
AcDbLine
 10
1023.82755683
 20
4967.72192738
 30
0.0
 11
1023.82755683
 21
5078.72194725
 31
0.0
  0
LINE
  5
771
330
2
100
AcDbEntity
  8
YKK_D
 62
     1
100
AcDbLine
 10
990.52755683
 20
5077.72194725
 30
0.0
 11
1023.82755683
 21
5077.72194725
 31
0.0
  0
LINE
  5
772
330
2
100
AcDbEntity
  8
YKK_D
 62
     1
100
AcDbLine
 10
1023.82755683
 20
5077.72194725
 30
0.0
 11
1212.56089017
 21
5077.72194725
 31
0.0
  0
LINE
  5
773
330
2
100
AcDbEntity
  8
YKK_D
 62
     1
100
AcDbLine
 10
990.52755683
 20
4967.72192738
 30
0.0
 11
990.52755683
 21
5078.72194725
 31
0.0
  0
LINE
  5
774
330
2
100
AcDbEntity
  8
YKK_D
 62
     1
100
AcDbLine
 10
975.3777476
 20
4967.72192738
 30
0.0
 11
975.3777476
 21
5078.72194725
 31
0.0
  0
LINE
  5
775
330
2
100
AcDbEntity
  8
YKK_D
 62
     1
100
AcDbLine
 10
990.52755683
 20
5077.72194725
 30
0.0
 11
975.3777476
 21
5077.72194725
 31
0.0
  0
LINE
  5
776
330
2
100
AcDbEntity
  8
YKK_D
 62
     1
100
AcDbLine
 10
975.3777476
 20
5077.72194725
 30
0.0
 11
815.44441427
 21
5077.72194725
 31
0.0
  0
LINE
  5
777
330
2
100
AcDbEntity
  8
YKK_D
 62
     1
100
AcDbLine
 10
935.3777476
 20
3009.04157328
 30
0.0
 11
774.37780673
 21
3009.04157328
 31
0.0
  0
LINE
  5
778
330
2
100
AcDbEntity
  8
YKK_D
 62
     1
100
AcDbLine
 10
935.3777476
 20
2289.04157328
 30
0.0
 11
774.37780673
 21
2289.04157328
 31
0.0
  0
LINE
  5
779
330
2
100
AcDbEntity
  8
YKK_D
 62
     1
100
AcDbLine
 10
775.37780673
 20
3009.04157328
 30
0.0
 11
775.37780673
 21
2289.04157328
 31
0.0
  0
LINE
  5
77A
330
2
100
AcDbEntity
  8
YKK_D
 62
     1
100
AcDbLine
 10
2970.37761861
 20
2249.04171784
 30
0.0
 11
2970.37761861
 21
2138.04157328
 31
0.0
  0
LINE
  5
77B
330
2
100
AcDbEntity
  8
YKK_D
 62
     1
100
AcDbLine
 10
975.37757105
 20
2249.04171784
 30
0.0
 11
975.37757105
 21
2138.04157328
 31
0.0
  0
LINE
  5
77C
330
2
100
AcDbEntity
  8
YKK_D
 62
     1
100
AcDbLine
 10
2970.37761861
 20
2139.04157328
 30
0.0
 11
975.37757105
 21
2139.04157328
 31
0.0
  0
LINE
  5
77D
330
2
100
AcDbEntity
  8
YKK_D
 62
     1
100
AcDbLine
 10
990.52755683
 20
3049.04167492
 30
0.0
 11
990.52755683
 21
3160.04169479
 31
0.0
  0
LINE
  5
77E
330
2
100
AcDbEntity
  8
YKK_D
 62
     1
100
AcDbLine
 10
1023.82755683
 20
3049.04167492
 30
0.0
 11
1023.82755683
 21
3160.04169479
 31
0.0
  0
LINE
  5
77F
330
2
100
AcDbEntity
  8
YKK_D
 62
     1
100
AcDbLine
 10
990.52755683
 20
3159.04169479
 30
0.0
 11
1023.82755683
 21
3159.04169479
 31
0.0
  0
LINE
  5
780
330
2
100
AcDbEntity
  8
YKK_D
 62
     1
100
AcDbLine
 10
1023.82755683
 20
3159.04169479
 30
0.0
 11
1212.56089017
 21
3159.04169479
 31
0.0
  0
LINE
  5
781
330
2
100
AcDbEntity
  8
YKK_D
 62
     1
100
AcDbLine
 10
990.52755683
 20
3049.04167492
 30
0.0
 11
990.52755683
 21
3160.04169479
 31
0.0
  0
LINE
  5
782
330
2
100
AcDbEntity
  8
YKK_D
 62
     1
100
AcDbLine
 10
975.3777476
 20
3049.04167492
 30
0.0
 11
975.3777476
 21
3160.04169479
 31
0.0
  0
LINE
  5
783
330
2
100
AcDbEntity
  8
YKK_D
 62
     1
100
AcDbLine
 10
990.52755683
 20
3159.04169479
 30
0.0
 11
975.3777476
 21
3159.04169479
 31
0.0
  0
LINE
  5
784
330
2
100
AcDbEntity
  8
YKK_D
 62
     1
100
AcDbLine
 10
975.3777476
 20
3159.04169479
 30
0.0
 11
815.44441427
 21
3159.04169479
 31
0.0
  0
TEXT
  5
785
330
2
100
AcDbEntity
  8
USER1
100
AcDbText
 10
1826.34319519
 20
4141.15096606
 30
0.0
 40
50.0
  1
縦格子数n=60
 41
0.8
  7
text-b
100
AcDbText
  0
TEXT
  5
786
330
2
100
AcDbEntity
  8
USER1
100
AcDbText
 10
1826.34319519
 20
2022.47072552
 30
0.0
 40
50.0
  1
縦格子数n=60
 41
0.8
  7
text-b
100
AcDbText
  0
TEXT
  5
787
330
2
100
AcDbEntity
  8
USER1
100
AcDbText
 10
331.81822061
 20
5126.47466709
 30
0.0
 40
80.0
  1
●H=600
 41
0.8
  7
text-b
100
AcDbText
  0
TEXT
  5
788
330
2
100
AcDbEntity
  8
USER1
100
AcDbText
 10
331.49686974
 20
3207.79441463
 30
0.0
 40
80.0
  1
●H=800
 41
0.8
  7
text-b
100
AcDbText
  0
LINE
  5
789
330
2
100
AcDbEntity
  8
YKK_D
 62
     1
100
AcDbLine
 10
6814.32436408
 20
3959.12725158
 30
0.0
 11
6814.32436408
 21
3848.12710702
 31
0.0
  0
LINE
  5
78A
330
2
100
AcDbEntity
  8
YKK_D
 62
     1
100
AcDbLine
 10
4819.32446552
 20
3959.12725158
 30
0.0
 11
4819.32446552
 21
3848.12710702
 31
0.0
  0
LINE
  5
78B
330
2
100
AcDbEntity
  8
YKK_D
 62
     1
100
AcDbLine
 10
6814.32436408
 20
3849.12710702
 30
0.0
 11
4819.32446552
 21
3849.12710702
 31
0.0
  0
LINE
  5
78C
330
2
100
AcDbEntity
  8
YKK_D
 62
     1
100
AcDbLine
 10
4779.32449306
 20
4919.12710702
 30
0.0
 11
4618.32440319
 21
4919.12710702
 31
0.0
  0
LINE
  5
78D
330
2
100
AcDbEntity
  8
YKK_D
 62
     1
100
AcDbLine
 10
4779.32449306
 20
3999.12710702
 30
0.0
 11
4618.32440319
 21
3999.12710702
 31
0.0
  0
LINE
  5
78E
330
2
100
AcDbEntity
  8
YKK_D
 62
     1
100
AcDbLine
 10
4619.32440319
 20
4919.12710702
 30
0.0
 11
4619.32440319
 21
3999.12710702
 31
0.0
  0
LINE
  5
78F
330
2
100
AcDbEntity
  8
YKK_D
 62
     1
100
AcDbLine
 10
4834.4743023
 20
4959.12719675
 30
0.0
 11
4834.4743023
 21
5070.12721662
 31
0.0
  0
LINE
  5
790
330
2
100
AcDbEntity
  8
YKK_D
 62
     1
100
AcDbLine
 10
4867.7743023
 20
4959.12719675
 30
0.0
 11
4867.7743023
 21
5070.12721662
 31
0.0
  0
LINE
  5
791
330
2
100
AcDbEntity
  8
YKK_D
 62
     1
100
AcDbLine
 10
4834.4743023
 20
5069.12721662
 30
0.0
 11
4867.7743023
 21
5069.12721662
 31
0.0
  0
LINE
  5
792
330
2
100
AcDbEntity
  8
YKK_D
 62
     1
100
AcDbLine
 10
4867.7743023
 20
5069.12721662
 30
0.0
 11
5056.50763563
 21
5069.12721662
 31
0.0
  0
LINE
  5
793
330
2
100
AcDbEntity
  8
YKK_D
 62
     1
100
AcDbLine
 10
4834.4743023
 20
4959.12719675
 30
0.0
 11
4834.4743023
 21
5070.12721662
 31
0.0
  0
LINE
  5
794
330
2
100
AcDbEntity
  8
YKK_D
 62
     1
100
AcDbLine
 10
4819.32449306
 20
4959.12719675
 30
0.0
 11
4819.32449306
 21
5070.12721662
 31
0.0
  0
LINE
  5
795
330
2
100
AcDbEntity
  8
YKK_D
 62
     1
100
AcDbLine
 10
4834.4743023
 20
5069.12721662
 30
0.0
 11
4819.32449306
 21
5069.12721662
 31
0.0
  0
LINE
  5
796
330
2
100
AcDbEntity
  8
YKK_D
 62
     1
100
AcDbLine
 10
4819.32449306
 20
5069.12721662
 30
0.0
 11
4659.39115973
 21
5069.12721662
 31
0.0
  0
TEXT
  5
797
330
2
100
AcDbEntity
  8
USER1
100
AcDbText
 10
5670.29008609
 20
3732.55625927
 30
0.0
 40
50.0
  1
縦格子数n=60
 41
0.8
  7
text-b
100
AcDbText
  0
TEXT
  5
798
330
2
100
AcDbEntity
  8
USER1
100
AcDbText
 10
4175.4436152
 20
5114.85102859
 30
0.0
 40
80.0
  1
●H=1000
 41
0.8
  7
text-b
100
AcDbText
  0
LINE
  5
799
330
2
100
AcDbEntity
  8
YKK_D
 62
     1
100
AcDbLine
 10
6814.32436408
 20
1870.58424868
 30
0.0
 11
6814.32436408
 21
1759.58410412
 31
0.0
  0
LINE
  5
79A
330
2
100
AcDbEntity
  8
YKK_D
 62
     1
100
AcDbLine
 10
4819.32446552
 20
1870.58424868
 30
0.0
 11
4819.32446552
 21
1759.58410412
 31
0.0
  0
LINE
  5
79B
330
2
100
AcDbEntity
  8
YKK_D
 62
     1
100
AcDbLine
 10
6814.32436408
 20
1760.58410412
 30
0.0
 11
4819.32446552
 21
1760.58410412
 31
0.0
  0
LINE
  5
79C
330
2
100
AcDbEntity
  8
YKK_D
 62
     1
100
AcDbLine
 10
4779.32449306
 20
3030.58410412
 30
0.0
 11
4618.32440319
 21
3030.58410412
 31
0.0
  0
LINE
  5
79D
330
2
100
AcDbEntity
  8
YKK_D
 62
     1
100
AcDbLine
 10
4779.32449306
 20
1910.58410412
 30
0.0
 11
4618.32440319
 21
1910.58410412
 31
0.0
  0
LINE
  5
79E
330
2
100
AcDbEntity
  8
YKK_D
 62
     1
100
AcDbLine
 10
4619.32440319
 20
3030.58410412
 30
0.0
 11
4619.32440319
 21
1910.58410412
 31
0.0
  0
LINE
  5
79F
330
2
100
AcDbEntity
  8
YKK_D
 62
     1
100
AcDbLine
 10
4834.4743023
 20
3070.58419384
 30
0.0
 11
4834.4743023
 21
3181.58421371
 31
0.0
  0
LINE
  5
7A0
330
2
100
AcDbEntity
  8
YKK_D
 62
     1
100
AcDbLine
 10
4867.7743023
 20
3070.58419384
 30
0.0
 11
4867.7743023
 21
3181.58421371
 31
0.0
  0
LINE
  5
7A1
330
2
100
AcDbEntity
  8
YKK_D
 62
     1
100
AcDbLine
 10
4834.4743023
 20
3180.58421371
 30
0.0
 11
4867.7743023
 21
3180.58421371
 31
0.0
  0
LINE
  5
7A2
330
2
100
AcDbEntity
  8
YKK_D
 62
     1
100
AcDbLine
 10
4867.7743023
 20
3180.58421371
 30
0.0
 11
5056.50763563
 21
3180.58421371
 31
0.0
  0
LINE
  5
7A3
330
2
100
AcDbEntity
  8
YKK_D
 62
     1
100
AcDbLine
 10
4834.4743023
 20
3070.58419384
 30
0.0
 11
4834.4743023
 21
3181.58421371
 31
0.0
  0
LINE
  5
7A4
330
2
100
AcDbEntity
  8
YKK_D
 62
     1
100
AcDbLine
 10
4819.32449306
 20
3070.58419384
 30
0.0
 11
4819.32449306
 21
3181.58421371
 31
0.0
  0
LINE
  5
7A5
330
2
100
AcDbEntity
  8
YKK_D
 62
     1
100
AcDbLine
 10
4834.4743023
 20
3180.58421371
 30
0.0
 11
4819.32449306
 21
3180.58421371
 31
0.0
  0
LINE
  5
7A6
330
2
100
AcDbEntity
  8
YKK_D
 62
     1
100
AcDbLine
 10
4819.32449306
 20
3180.58421371
 30
0.0
 11
4659.39115973
 21
3180.58421371
 31
0.0
  0
TEXT
  5
7A7
330
2
100
AcDbEntity
  8
USER1
100
AcDbText
 10
5670.29008609
 20
1664.01325637
 30
0.0
 40
50.0
  1
縦格子数n=60
 41
0.8
  7
text-b
100
AcDbText
  0
TEXT
  5
7A8
330
2
100
AcDbEntity
  8
USER1
100
AcDbText
 10
4175.4436152
 20
3226.30802569
 30
0.0
 40
80.0
  1
●H=1200
 41
0.8
  7
text-b
100
AcDbText
  0
CIRCLE
  5
7A9
330
2
100
AcDbEntity
  8
YKK_D
  6
ByBlock
 62
     1
370
    -2
100
AcDbCircle
 10
775.37795575
 20
4927.72181381
 30
0.0
 40
4.25
  0
CIRCLE
  5
7AA
330
2
100
AcDbEntity
  8
YKK_D
  6
ByBlock
 62
     1
370
    -2
100
AcDbCircle
 10
775.37795575
 20
4407.72181381
 30
0.0
 40
4.25
  0
TEXT
  5
7AB
330
2
100
AcDbEntity
  8
YKK_D
 62
     1
100
AcDbText
 10
774.71128908
 20
4626.92181381
 30
0.0
 40
45.0
  1
520
 50
90.0
 41
0.8
  7
text-b
100
AcDbText
  0
CIRCLE
  5
7AC
330
2
100
AcDbEntity
  8
YKK_D
  6
ByBlock
 62
     1
370
    -2
100
AcDbCircle
 10
2970.37761861
 20
4257.72181381
 30
0.0
 40
4.25
  0
CIRCLE
  5
7AD
330
2
100
AcDbEntity
  8
YKK_D
  6
ByBlock
 62
     1
370
    -2
100
AcDbCircle
 10
975.37772721
 20
4257.72181381
 30
0.0
 40
4.25
  0
TEXT
  5
7AE
330
2
100
AcDbEntity
  8
YKK_D
 62
     1
100
AcDbText
 10
1860.07767291
 20
4258.72181381
 30
0.0
 40
45.0
  1
W-5=1995
 41
0.8
  7
text-b
100
AcDbText
  0
CIRCLE
  5
7AF
330
2
100
AcDbEntity
  8
YKK_D
  6
ByBlock
 62
     1
370
    -2
100
AcDbCircle
 10
990.52755683
 20
5077.72194725
 30
0.0
 40
4.25
  0
CIRCLE
  5
7B0
330
2
100
AcDbEntity
  8
YKK_D
  6
ByBlock
 62
     1
370
    -2
100
AcDbCircle
 10
1023.82755683
 20
5077.72194725
 30
0.0
 40
4.25
  0
TEXT
  5
7B1
330
2
100
AcDbEntity
  8
YKK_D
 62
     1
100
AcDbText
 10
1041.4942235
 20
5078.38861391
 30
0.0
 40
45.0
  1
P=33.3
 41
0.8
  7
text-b
100
AcDbText
  0
CIRCLE
  5
7B2
330
2
100
AcDbEntity
  8
YKK_D
  6
ByBlock
 62
     1
370
    -2
100
AcDbCircle
 10
990.52755683
 20
5077.72194725
 30
0.0
 40
4.25
  0
CIRCLE
  5
7B3
330
2
100
AcDbEntity
  8
YKK_D
  6
ByBlock
 62
     1
370
    -2
100
AcDbCircle
 10
975.3777476
 20
5077.72194725
 30
0.0
 40
4.25
  0
TEXT
  5
7B4
330
2
100
AcDbEntity
  8
YKK_D
 62
     1
100
AcDbText
 10
816.11108094
 20
5078.38861391
 30
0.0
 40
45.0
  1
15.15
 41
0.8
  7
text-b
100
AcDbText
  0
CIRCLE
  5
7B5
330
2
100
AcDbEntity
  8
YKK_D
  6
ByBlock
 62
     1
370
    -2
100
AcDbCircle
 10
775.37780673
 20
3009.04157328
 30
0.0
 40
4.25
  0
CIRCLE
  5
7B6
330
2
100
AcDbEntity
  8
YKK_D
  6
ByBlock
 62
     1
370
    -2
100
AcDbCircle
 10
775.37780673
 20
2289.04157328
 30
0.0
 40
4.25
  0
TEXT
  5
7B7
330
2
100
AcDbEntity
  8
YKK_D
 62
     1
100
AcDbText
 10
774.71114007
 20
2608.24157328
 30
0.0
 40
45.0
  1
720
 50
90.0
 41
0.8
  7
text-b
100
AcDbText
  0
CIRCLE
  5
7B8
330
2
100
AcDbEntity
  8
YKK_D
  6
ByBlock
 62
     1
370
    -2
100
AcDbCircle
 10
2970.37761861
 20
2139.04157328
 30
0.0
 40
4.25
  0
CIRCLE
  5
7B9
330
2
100
AcDbEntity
  8
YKK_D
  6
ByBlock
 62
     1
370
    -2
100
AcDbCircle
 10
975.37757105
 20
2139.04157328
 30
0.0
 40
4.25
  0
TEXT
  5
7BA
330
2
100
AcDbEntity
  8
YKK_D
 62
     1
100
AcDbText
 10
1860.07759483
 20
2140.04157328
 30
0.0
 40
45.0
  1
W-5=1995
 41
0.8
  7
text-b
100
AcDbText
  0
CIRCLE
  5
7BB
330
2
100
AcDbEntity
  8
YKK_D
  6
ByBlock
 62
     1
370
    -2
100
AcDbCircle
 10
990.52755683
 20
3159.04169479
 30
0.0
 40
4.25
  0
CIRCLE
  5
7BC
330
2
100
AcDbEntity
  8
YKK_D
  6
ByBlock
 62
     1
370
    -2
100
AcDbCircle
 10
1023.82755683
 20
3159.04169479
 30
0.0
 40
4.25
  0
TEXT
  5
7BD
330
2
100
AcDbEntity
  8
YKK_D
 62
     1
100
AcDbText
 10
1041.4942235
 20
3159.70836146
 30
0.0
 40
45.0
  1
P=33.3
 41
0.8
  7
text-b
100
AcDbText
  0
CIRCLE
  5
7BE
330
2
100
AcDbEntity
  8
YKK_D
  6
ByBlock
 62
     1
370
    -2
100
AcDbCircle
 10
990.52755683
 20
3159.04169479
 30
0.0
 40
4.25
  0
CIRCLE
  5
7BF
330
2
100
AcDbEntity
  8
YKK_D
  6
ByBlock
 62
     1
370
    -2
100
AcDbCircle
 10
975.3777476
 20
3159.04169479
 30
0.0
 40
4.25
  0
TEXT
  5
7C0
330
2
100
AcDbEntity
  8
YKK_D
 62
     1
100
AcDbText
 10
816.11108093
 20
3159.70836146
 30
0.0
 40
45.0
  1
15.15
 41
0.8
  7
text-b
100
AcDbText
  0
CIRCLE
  5
7C1
330
2
100
AcDbEntity
  8
YKK_D
  6
ByBlock
 62
     1
370
    -2
100
AcDbCircle
 10
6814.32436408
 20
3849.12710702
 30
0.0
 40
4.25
  0
CIRCLE
  5
7C2
330
2
100
AcDbEntity
  8
YKK_D
  6
ByBlock
 62
     1
370
    -2
100
AcDbCircle
 10
4819.32446552
 20
3849.12710702
 30
0.0
 40
4.25
  0
TEXT
  5
7C3
330
2
100
AcDbEntity
  8
YKK_D
 62
     1
100
AcDbText
 10
5704.0244148
 20
3850.12710702
 30
0.0
 40
45.0
  1
W-5=1995
 41
0.8
  7
text-b
100
AcDbText
  0
CIRCLE
  5
7C4
330
2
100
AcDbEntity
  8
YKK_D
  6
ByBlock
 62
     1
370
    -2
100
AcDbCircle
 10
4619.32440319
 20
4919.12710702
 30
0.0
 40
4.25
  0
CIRCLE
  5
7C5
330
2
100
AcDbEntity
  8
YKK_D
  6
ByBlock
 62
     1
370
    -2
100
AcDbCircle
 10
4619.32440319
 20
3999.12710702
 30
0.0
 40
4.25
  0
TEXT
  5
7C6
330
2
100
AcDbEntity
  8
YKK_D
 62
     1
100
AcDbText
 10
4618.65773652
 20
4418.32710702
 30
0.0
 40
45.0
  1
920
 50
90.0
 41
0.8
  7
text-b
100
AcDbText
  0
CIRCLE
  5
7C7
330
2
100
AcDbEntity
  8
YKK_D
  6
ByBlock
 62
     1
370
    -2
100
AcDbCircle
 10
4834.4743023
 20
5069.12721662
 30
0.0
 40
4.25
  0
CIRCLE
  5
7C8
330
2
100
AcDbEntity
  8
YKK_D
  6
ByBlock
 62
     1
370
    -2
100
AcDbCircle
 10
4867.7743023
 20
5069.12721662
 30
0.0
 40
4.25
  0
TEXT
  5
7C9
330
2
100
AcDbEntity
  8
YKK_D
 62
     1
100
AcDbText
 10
4885.44096896
 20
5069.79388328
 30
0.0
 40
45.0
  1
P=33.3
 41
0.8
  7
text-b
100
AcDbText
  0
CIRCLE
  5
7CA
330
2
100
AcDbEntity
  8
YKK_D
  6
ByBlock
 62
     1
370
    -2
100
AcDbCircle
 10
4834.4743023
 20
5069.12721662
 30
0.0
 40
4.25
  0
CIRCLE
  5
7CB
330
2
100
AcDbEntity
  8
YKK_D
  6
ByBlock
 62
     1
370
    -2
100
AcDbCircle
 10
4819.32449306
 20
5069.12721662
 30
0.0
 40
4.25
  0
TEXT
  5
7CC
330
2
100
AcDbEntity
  8
YKK_D
 62
     1
100
AcDbText
 10
4660.0578264
 20
5069.79388328
 30
0.0
 40
45.0
  1
15.15
 41
0.8
  7
text-b
100
AcDbText
  0
CIRCLE
  5
7CD
330
2
100
AcDbEntity
  8
YKK_D
  6
ByBlock
 62
     1
370
    -2
100
AcDbCircle
 10
6814.32436408
 20
1760.58410412
 30
0.0
 40
4.25
  0
CIRCLE
  5
7CE
330
2
100
AcDbEntity
  8
YKK_D
  6
ByBlock
 62
     1
370
    -2
100
AcDbCircle
 10
4819.32446552
 20
1760.58410412
 30
0.0
 40
4.25
  0
TEXT
  5
7CF
330
2
100
AcDbEntity
  8
YKK_D
 62
     1
100
AcDbText
 10
5704.0244148
 20
1761.58410412
 30
0.0
 40
45.0
  1
W-5=1995
 41
0.8
  7
text-b
100
AcDbText
  0
CIRCLE
  5
7D0
330
2
100
AcDbEntity
  8
YKK_D
  6
ByBlock
 62
     1
370
    -2
100
AcDbCircle
 10
4619.32440319
 20
3030.58410412
 30
0.0
 40
4.25
  0
CIRCLE
  5
7D1
330
2
100
AcDbEntity
  8
YKK_D
  6
ByBlock
 62
     1
370
    -2
100
AcDbCircle
 10
4619.32440319
 20
1910.58410412
 30
0.0
 40
4.25
  0
TEXT
  5
7D2
330
2
100
AcDbEntity
  8
YKK_D
 62
     1
100
AcDbText
 10
4618.65773652
 20
2415.38410412
 30
0.0
 40
45.0
  1
1120
 50
90.0
 41
0.8
  7
text-b
100
AcDbText
  0
CIRCLE
  5
7D3
330
2
100
AcDbEntity
  8
YKK_D
  6
ByBlock
 62
     1
370
    -2
100
AcDbCircle
 10
4834.4743023
 20
3180.58421371
 30
0.0
 40
4.25
  0
CIRCLE
  5
7D4
330
2
100
AcDbEntity
  8
YKK_D
  6
ByBlock
 62
     1
370
    -2
100
AcDbCircle
 10
4867.7743023
 20
3180.58421371
 30
0.0
 40
4.25
  0
TEXT
  5
7D5
330
2
100
AcDbEntity
  8
YKK_D
 62
     1
100
AcDbText
 10
4885.44096896
 20
3181.25088038
 30
0.0
 40
45.0
  1
P=33.3
 41
0.8
  7
text-b
100
AcDbText
  0
CIRCLE
  5
7D6
330
2
100
AcDbEntity
  8
YKK_D
  6
ByBlock
 62
     1
370
    -2
100
AcDbCircle
 10
4834.4743023
 20
3180.58421371
 30
0.0
 40
4.25
  0
CIRCLE
  5
7D7
330
2
100
AcDbEntity
  8
YKK_D
  6
ByBlock
 62
     1
370
    -2
100
AcDbCircle
 10
4819.32449306
 20
3180.58421371
 30
0.0
 40
4.25
  0
TEXT
  5
7D8
330
2
100
AcDbEntity
  8
YKK_D
 62
     1
100
AcDbText
 10
4660.0578264
 20
3181.25088038
 30
0.0
 40
45.0
  1
15.15
 41
0.8
  7
text-b
100
AcDbText
  0
ENDSEC
  0
SECTION
  2
OBJECTS
  0
DICTIONARY
  5
1A
330
0
100
AcDbDictionary
281
     1
  3
ACAD_CIP_PREVIOUS_PRODUCT_INFO
350
1D4
  3
ACAD_COLOR
350
121
  3
ACAD_DETAILVIEWSTYLE
350
1CF
  3
ACAD_GROUP
350
18
  3
ACAD_LAYOUT
350
148
  3
ACAD_MATERIAL
350
F4
  3
ACAD_MLEADERSTYLE
350
146
  3
ACAD_MLINESTYLE
350
19
  3
ACAD_PLOTSETTINGS
350
149
  3
ACAD_PLOTSTYLENAME
350
F2
  3
ACAD_RENDER_ACTIVE_RAPIDRT_SETTINGS
350
1DE
  3
ACAD_RENDER_ACTIVE_SETTINGS
350
226
  3
ACAD_SCALELIST
350
124
  3
ACAD_SECTIONVIEWSTYLE
350
1CD
  3
ACAD_TABLESTYLE
350
122
  3
ACAD_VISUALSTYLE
350
10D
  3
ACDB_RECOMPOSE_DATA
350
D23
  3
AcDbVariableDictionary
350
1BD
  0
DICTIONARY
  5
17A
330
12
100
AcDbDictionary
280
     1
281
     1
  0
DICTIONARY
  5
23B
330
A
100
AcDbDictionary
280
     1
281
     1
  3
ACAD_LAYERSTATES
360
23C
  0
DICTIONARY
  5
1E1
330
4
100
AcDbDictionary
280
     1
281
     1
  3
ADSK_XREC_LAYER_RECONCILED
360
1E2
  0
DICTIONARY
  5
1E3
330
24
100
AcDbDictionary
280
     1
281
     1
  3
ADSK_XREC_LAYER_RECONCILED
360
1E4
  0
DICTIONARY
  5
1E5
330
E0
100
AcDbDictionary
280
     1
281
     1
  3
ADSK_XREC_LAYER_RECONCILED
360
1E6
  0
DICTIONARY
  5
176
330
2
100
AcDbDictionary
280
     1
281
     1
  3
ACAD_LAYOUTSELFREF
360
177
  0
DICTIONARY
  5
178
330
7
100
AcDbDictionary
280
     1
281
     1
  3
ACAD_LAYOUTSELFREF
360
179
  0
XRECORD
  5
1D4
102
{ACAD_REACTORS
330
1A
102
}
330
1A
100
AcDbXrecord
280
     1
300
ACD
300
2018
300
86830ACD_2018_0F
  0
DICTIONARY
  5
121
102
{ACAD_REACTORS
330
1A
102
}
330
1A
100
AcDbDictionary
281
     1
  0
DICTIONARY
  5
1CF
102
{ACAD_REACTORS
330
1A
102
}
330
1A
100
AcDbDictionary
281
     1
  3
Metric50
350
1D0
  0
DICTIONARY
  5
18
102
{ACAD_REACTORS
330
1A
102
}
330
1A
100
AcDbDictionary
281
     1
  0
DICTIONARY
  5
148
102
{ACAD_REACTORS
330
1A
102
}
330
1A
100
AcDbDictionary
281
     1
  3
Model
350
14A
  3
レイアウト1
350
14B
  0
DICTIONARY
  5
F4
102
{ACAD_REACTORS
330
1A
102
}
330
1A
100
AcDbDictionary
281
     1
  3
ByBlock
350
FD
  3
ByLayer
350
F5
  3
Global
350
105
  0
DICTIONARY
  5
146
102
{ACAD_REACTORS
330
1A
102
}
330
1A
100
AcDbDictionary
281
     1
  3
Standard
350
147
  0
DICTIONARY
  5
19
102
{ACAD_REACTORS
330
1A
102
}
330
1A
100
AcDbDictionary
281
     1
  3
STANDARD
350
1B
  0
DICTIONARY
  5
149
102
{ACAD_REACTORS
330
1A
102
}
330
1A
100
AcDbDictionary
281
     1
  0
ACDBDICTIONARYWDFLT
  5
F2
102
{ACAD_REACTORS
330
1A
102
}
330
1A
100
AcDbDictionary
281
     1
  3
Normal
350
F3
100
AcDbDictionaryWithDefault
340
F3
  0
RAPIDRTRENDERSETTINGS
  5
1DE
102
{ACAD_REACTORS
330
1A
102
}
330
1A
100
AcDbRenderSettings
 90
        2
  1
中
290
     1
290
     0
290
     1
290
     1
  1

  1
5 レンダリング レベルを適用
 90
        0
100
AcDbRapidRTRenderSettings
 90
        3
 70
     0
 90
        5
 90
        1
 70
     1
 70
     2
 40
3.0
 40
3.0
290
     1
  0
MENTALRAYRENDERSETTINGS
  5
226
102
{ACAD_XDICTIONARY
360
227
102
}
102
{ACAD_REACTORS
330
1A
102
}
330
1A
100
AcDbRenderSettings
 90
        2
  1
中間
290
     1
290
     1
290
     1
290
     1
  1

  1

 90
        0
100
AcDbMentalRayRenderSettings
 90
        2
 90
        0
 90
        1
 70
     2
 40
3.0
 40
3.0
 40
0.05
 40
0.05
 40
0.05
 40
0.05
 70
     0
290
     0
290
     1
 90
        5
 90
        5
 90
        5
290
     0
 90
      500
290
     0
 40
1.0
 90
    10000
 90
        5
 90
        5
 90
        5
290
     0
 90
      200
290
     0
290
     0
290
     0
 40
1.0
 40
1.0
 40
1500.0
 70
     0
 70
     0
 40
10.0
 70
     0
 70
     0
290
     0
  1

 90
       32
 70
     0
 90
     1048
290
     0
 40
1.0
  0
DICTIONARY
  5
124
102
{ACAD_REACTORS
330
1A
102
}
330
1A
100
AcDbDictionary
281
     1
  3
A0
350
125
  3
A1
350
126
  3
A2
350
127
  3
A3
350
128
  3
A4
350
129
  3
A5
350
12A
  3
A6
350
12B
  3
A7
350
12C
  3
A8
350
12D
  3
A9
350
12E
  3
B0
350
12F
  3
B1
350
130
  3
B2
350
131
  3
B3
350
132
  3
B4
350
133
  3
B5
350
134
  3
B6
350
135
  3
B7
350
136
  3
B8
350
137
  3
B9
350
138
  3
C0
350
139
  3
C1
350
13A
  3
C2
350
13B
  3
C3
350
13C
  3
C4
350
13D
  3
C5
350
13E
  3
C6
350
13F
  3
C7
350
140
  3
C8
350
141
  3
C9
350
142
  3
D0
350
143
  3
D1
350
144
  3
D2
350
145
  0
DICTIONARY
  5
1CD
102
{ACAD_REACTORS
330
1A
102
}
330
1A
100
AcDbDictionary
281
     1
  3
Metric50
350
1CE
  0
DICTIONARY
  5
122
102
{ACAD_REACTORS
330
1A
102
}
330
1A
100
AcDbDictionary
281
     1
  3
Standard
350
123
  0
DICTIONARY
  5
10D
102
{ACAD_REACTORS
330
1A
102
}
330
1A
100
AcDbDictionary
281
     1
  3
2dWireframe
350
113
  3
3D Hidden
350
115
  3
3dWireframe
350
114
  3
Basic
350
112
  3
Brighten
350
119
  3
ColorChange
350
11D
  3
Conceptual
350
116
  3
Dim
350
118
  3
EdgeColorOff
350
120
  3
Facepattern
350
11C
  3
Flat
350
10E
  3
FlatWithEdges
350
10F
  3
Gouraud
350
110
  3
GouraudWithEdges
350
111
  3
Hidden
350
1C7
  3
JitterOff
350
11E
  3
Linepattern
350
11B
  3
OverhangOff
350
11F
  3
Realistic
350
117
  3
Shaded
350
1CC
  3
Shaded with edges
350
1CB
  3
Shades of Gray
350
1C8
  3
Sketchy
350
1C9
  3
Thicken
350
11A
  3
Wireframe
350
1C6
  3
X-Ray
350
1CA
  0
XRECORD
  5
D23
102
{ACAD_REACTORS
330
1A
102
}
330
1A
100
AcDbXrecord
280
     1
 90
        1
330
123
  0
DICTIONARY
  5
1BD
102
{ACAD_REACTORS
330
1A
102
}
330
1A
100
AcDbDictionary
281
     1
  3
CANNOSCALE
350
1C0
  3
CMLEADERSTYLE
350
1BF
  3
CTABLESTYLE
350
1BE
  3
CVIEWDETAILSTYLE
350
229
  3
CVIEWSECTIONSTYLE
350
22A
  3
DIMASSOC
350
1C3
  3
INDEXCTL
350
1C2
  3
SORTENTS
350
1C1
  3
XCLIPFRAME
350
D21
  0
DICTIONARY
  5
23C
102
{ACAD_REACTORS
330
23B
102
}
330
23B
100
AcDbDictionary
281
     1
  0
XRECORD
  5
1E2
102
{ACAD_REACTORS
330
1E1
102
}
330
1E1
100
AcDbXrecord
280
     1
290
     1
  0
XRECORD
  5
1E4
102
{ACAD_REACTORS
330
1E3
102
}
330
1E3
100
AcDbXrecord
280
     1
290
     1
  0
XRECORD
  5
1E6
102
{ACAD_REACTORS
330
1E5
102
}
330
1E5
100
AcDbXrecord
280
     1
290
     1
  0
XRECORD
  5
177
102
{ACAD_REACTORS
330
176
102
}
330
176
100
AcDbXrecord
280
     1
340
2
  0
XRECORD
  5
179
102
{ACAD_REACTORS
330
178
102
}
330
178
100
AcDbXrecord
280
     1
340
7
  0
ACDBDETAILVIEWSTYLE
  5
1D0
102
{ACAD_XDICTIONARY
360
D5E
102
}
102
{ACAD_REACTORS
330
1CF
102
}
330
1CF
100
AcDbModelDocViewStyle
 70
     0
  3
Metric50
290
     0
100
AcDbDetailViewStyle
 70
     0
 71
     0
 90
        3
 71
     1
340
C
 62
   256
 40
5.0
340
0
 62
   256
 40
5.0
300

 40
0.0
280
     1
 71
     2
340
5
 90
       25
 62
   256
 71
     3
340
C
 62
   256
 40
5.0
 90
        0
 40
15.0
 90
        1
300
%<\AcVar ViewDetailId>% (%<\AcVar ViewScale \f "%sn">%)
 71
     4
340
5
 90
       25
 62
   256
340
5
 90
       25
 62
   256
280
     0
  0
LAYOUT
  5
14A
102
{ACAD_XDICTIONARY
360
276
102
}
102
{ACAD_REACTORS
330
148
102
}
330
148
100
AcDbPlotSettings
  1

  2
C:\ACAD-I\support\plotters\Default Windows System Printer.pc3
  4
A4
  6

 40
4.90008307
 41
4.90005493
 42
4.90008545
 43
4.90008545
 44
210.01567078
 45
297.01065063
 46
0.0
 47
0.0
 48
0.0
 49
0.0
140
0.0
141
0.0
142
1.0
143
4.90527118
 70
 11952
 72
     1
 73
     1
 74
     0
  7
monochrome.ctb
 75
     0
147
0.20386233
 76
     0
 77
     2
 78
   300
148
80.18719345
149
2.35819568
100
AcDbLayout
  1
Model
 70
     1
 71
     0
 10
0.0
 20
0.0
 11
12.0
 21
9.0
 12
0.0
 22
0.0
 32
0.0
 14
0.0
 24
0.0
 34
0.0
 15
0.0
 25
0.0
 35
0.0
146
0.0
 13
0.0
 23
0.0
 33
0.0
 16
1.0
 26
0.0
 36
0.0
 17
0.0
 27
1.0
 37
0.0
 76
     0
330
2
331
F0
1001
ACAD_PSEXT
1000
C:\ACAD-I\support\plotters\Default Windows System Printer.pc3
1000
FX ApeosPort-IV C4475
1000
10.230.216.80
1000
宣伝部6F用ドライバー（20180907）
1070
     0
  0
LAYOUT
  5
14B
102
{ACAD_REACTORS
330
148
102
}
330
148
100
AcDbPlotSettings
  1

  2
C:\ACAD-I\support\plotters\Default Windows System Printer.pc3
  4
A4
  6

 40
4.90008307
 41
4.90005493
 42
4.90008545
 43
4.90008545
 44
210.01567078
 45
297.01065063
 46
0.0
 47
0.0
 48
0.0
 49
0.0
140
0.0
141
0.0
142
1.0
143
1.0
 70
 15024
 72
     1
 73
     1
 74
     5
  7
monochrome.ctb
 75
    16
147
1.0
 76
     0
 77
     2
 78
   300
148
0.0
149
0.0
100
AcDbLayout
  1
レイアウト1
 70
     1
 71
     1
 10
0.0
 20
0.0
 11
420.0
 21
297.0
 12
0.0
 22
0.0
 32
0.0
 14
1.00000000E+20
 24
1.00000000E+20
 34
1.00000000E+20
 15
-1.00000000E+20
 25
-1.00000000E+20
 35
-1.00000000E+20
146
0.0
 13
0.0
 23
0.0
 33
0.0
 16
1.0
 26
0.0
 36
0.0
 17
0.0
 27
1.0
 37
0.0
 76
     0
330
7
1001
ACAD_PSEXT
1000
C:\ACAD-I\support\plotters\Default Windows System Printer.pc3
1000
FX ApeosPort-IV C4475
1000
10.230.216.80
1000
宣伝部6F用ドライバー（20180907）
1070
     0
  0
MATERIAL
  5
FD
102
{ACAD_XDICTIONARY
360
FE
102
}
102
{ACAD_REACTORS
330
F4
102
}
330
F4
100
AcDbMaterial
  1
ByBlock
 72
     0
 43
0.02083333
 43
0.0
 43
0.0
 43
0.0
 43
0.0
 43
0.02083333
 43
0.0
 43
0.0
 43
0.0
 43
0.0
 43
1.0
 43
0.0
 43
0.0
 43
0.0
 43
0.0
 43
1.0
 77
     0
 47
0.02083333
 47
0.0
 47
0.0
 47
0.0
 47
0.0
 47
0.02083333
 47
0.0
 47
0.0
 47
0.0
 47
0.0
 47
1.0
 47
0.0
 47
0.0
 47
0.0
 47
0.0
 47
1.0
171
     0
 49
0.02083333
 49
0.0
 49
0.0
 49
0.0
 49
0.0
 49
0.02083333
 49
0.0
 49
0.0
 49
0.0
 49
0.0
 49
1.0
 49
0.0
 49
0.0
 49
0.0
 49
0.0
 49
1.0
175
     0
142
0.02083333
142
0.0
142
0.0
142
0.0
142
0.0
142
0.02083333
142
0.0
142
0.0
142
0.0
142
0.0
142
1.0
142
0.0
142
0.0
142
0.0
142
0.0
142
1.0
179
     0
144
0.02083333
144
0.0
144
0.0
144
0.0
144
0.0
144
0.02083333
144
0.0
144
0.0
144
0.0
144
0.0
144
1.0
144
0.0
144
0.0
144
0.0
144
0.0
144
1.0
147
0.02083333
147
0.0
147
0.0
147
0.0
147
0.0
147
0.02083333
147
0.0
147
0.0
147
0.0
147
0.0
147
1.0
147
0.0
147
0.0
147
0.0
147
0.0
147
1.0
  0
MATERIAL
  5
F5
102
{ACAD_XDICTIONARY
360
F6
102
}
102
{ACAD_REACTORS
330
F4
102
}
330
F4
100
AcDbMaterial
  1
ByLayer
 72
     0
 43
0.02083333
 43
0.0
 43
0.0
 43
0.0
 43
0.0
 43
0.02083333
 43
0.0
 43
0.0
 43
0.0
 43
0.0
 43
1.0
 43
0.0
 43
0.0
 43
0.0
 43
0.0
 43
1.0
 77
     0
 47
0.02083333
 47
0.0
 47
0.0
 47
0.0
 47
0.0
 47
0.02083333
 47
0.0
 47
0.0
 47
0.0
 47
0.0
 47
1.0
 47
0.0
 47
0.0
 47
0.0
 47
0.0
 47
1.0
171
     0
 49
0.02083333
 49
0.0
 49
0.0
 49
0.0
 49
0.0
 49
0.02083333
 49
0.0
 49
0.0
 49
0.0
 49
0.0
 49
1.0
 49
0.0
 49
0.0
 49
0.0
 49
0.0
 49
1.0
175
     0
142
0.02083333
142
0.0
142
0.0
142
0.0
142
0.0
142
0.02083333
142
0.0
142
0.0
142
0.0
142
0.0
142
1.0
142
0.0
142
0.0
142
0.0
142
0.0
142
1.0
179
     0
144
0.02083333
144
0.0
144
0.0
144
0.0
144
0.0
144
0.02083333
144
0.0
144
0.0
144
0.0
144
0.0
144
1.0
144
0.0
144
0.0
144
0.0
144
0.0
144
1.0
147
0.02083333
147
0.0
147
0.0
147
0.0
147
0.0
147
0.02083333
147
0.0
147
0.0
147
0.0
147
0.0
147
1.0
147
0.0
147
0.0
147
0.0
147
0.0
147
1.0
  0
MATERIAL
  5
105
102
{ACAD_XDICTIONARY
360
106
102
}
102
{ACAD_REACTORS
330
F4
102
}
330
F4
100
AcDbMaterial
  1
Global
 72
     0
 43
0.02083333
 43
0.0
 43
0.0
 43
0.0
 43
0.0
 43
0.02083333
 43
0.0
 43
0.0
 43
0.0
 43
0.0
 43
1.0
 43
0.0
 43
0.0
 43
0.0
 43
0.0
 43
1.0
 77
     0
 47
0.02083333
 47
0.0
 47
0.0
 47
0.0
 47
0.0
 47
0.02083333
 47
0.0
 47
0.0
 47
0.0
 47
0.0
 47
1.0
 47
0.0
 47
0.0
 47
0.0
 47
0.0
 47
1.0
171
     0
 49
0.02083333
 49
0.0
 49
0.0
 49
0.0
 49
0.0
 49
0.02083333
 49
0.0
 49
0.0
 49
0.0
 49
0.0
 49
1.0
 49
0.0
 49
0.0
 49
0.0
 49
0.0
 49
1.0
175
     0
142
0.02083333
142
0.0
142
0.0
142
0.0
142
0.0
142
0.02083333
142
0.0
142
0.0
142
0.0
142
0.0
142
1.0
142
0.0
142
0.0
142
0.0
142
0.0
142
1.0
179
     0
144
0.02083333
144
0.0
144
0.0
144
0.0
144
0.0
144
0.02083333
144
0.0
144
0.0
144
0.0
144
0.0
144
1.0
144
0.0
144
0.0
144
0.0
144
0.0
144
1.0
147
0.02083333
147
0.0
147
0.0
147
0.0
147
0.0
147
0.02083333
147
0.0
147
0.0
147
0.0
147
0.0
147
1.0
147
0.0
147
0.0
147
0.0
147
0.0
147
1.0
  0
MLEADERSTYLE
  5
147
102
{ACAD_REACTORS
330
146
102
}
330
146
100
AcDbMLeaderStyle
170
     2
171
     1
172
     0
 90
        2
 40
0.0
 41
0.0
173
     1
 91
-1056964608
340
E
 92
       -2
290
     1
 42
0.09
291
     1
 43
0.36
  3
Standard
 44
0.18
300

342
C
174
     1
178
     6
175
     1
176
     0
 93
-1056964608
 45
0.18
292
     0
297
     0
 46
0.18
 94
-1056964608
 47
1.0
 49
1.0
140
1.0
293
     1
141
0.0
294
     1
177
     0
142
1.0
295
     0
296
     0
143
0.125
1001
ACAD_MLEADERVER
1070
     2
  0
MLINESTYLE
  5
1B
102
{ACAD_REACTORS
330
19
102
}
330
19
100
AcDbMlineStyle
  2
STANDARD
 70
     0
  3

 62
   256
 51
90.0
 52
90.0
 71
     2
 49
0.5
 62
   256
  6
BYLAYER
 49
-0.5
 62
   256
  6
BYLAYER
  0
ACDBPLACEHOLDER
  5
F3
102
{ACAD_REACTORS
330
F2
102
}
330
F2
  0
DICTIONARY
  5
227
330
226
100
AcDbDictionary
280
     1
281
     1
  3
ADSK_XREC_MENTALRAYSETTINGSINFO
360
228
  0
SCALE
  5
125
102
{ACAD_REACTORS
330
124
102
}
330
124
100
AcDbScale
 70
     0
300
1:1
140
1.0
141
1.0
290
     1
  0
SCALE
  5
126
102
{ACAD_REACTORS
330
124
102
}
330
124
100
AcDbScale
 70
     0
300
1:2
140
1.0
141
2.0
290
     0
  0
SCALE
  5
127
102
{ACAD_REACTORS
330
124
102
}
330
124
100
AcDbScale
 70
     0
300
1:4
140
1.0
141
4.0
290
     0
  0
SCALE
  5
128
102
{ACAD_REACTORS
330
124
102
}
330
124
100
AcDbScale
 70
     0
300
1:5
140
1.0
141
5.0
290
     0
  0
SCALE
  5
129
102
{ACAD_REACTORS
330
124
102
}
330
124
100
AcDbScale
 70
     0
300
1:8
140
1.0
141
8.0
290
     0
  0
SCALE
  5
12A
102
{ACAD_REACTORS
330
124
102
}
330
124
100
AcDbScale
 70
     0
300
1:10
140
1.0
141
10.0
290
     0
  0
SCALE
  5
12B
102
{ACAD_REACTORS
330
124
102
}
330
124
100
AcDbScale
 70
     0
300
1:16
140
1.0
141
16.0
290
     0
  0
SCALE
  5
12C
102
{ACAD_REACTORS
330
124
102
}
330
124
100
AcDbScale
 70
     0
300
1:20
140
1.0
141
20.0
290
     0
  0
SCALE
  5
12D
102
{ACAD_REACTORS
330
124
102
}
330
124
100
AcDbScale
 70
     0
300
1:30
140
1.0
141
30.0
290
     0
  0
SCALE
  5
12E
102
{ACAD_REACTORS
330
124
102
}
330
124
100
AcDbScale
 70
     0
300
1:40
140
1.0
141
40.0
290
     0
  0
SCALE
  5
12F
102
{ACAD_REACTORS
330
124
102
}
330
124
100
AcDbScale
 70
     0
300
1:50
140
1.0
141
50.0
290
     0
  0
SCALE
  5
130
102
{ACAD_REACTORS
330
124
102
}
330
124
100
AcDbScale
 70
     0
300
1:100
140
1.0
141
100.0
290
     0
  0
SCALE
  5
131
102
{ACAD_REACTORS
330
124
102
}
330
124
100
AcDbScale
 70
     0
300
2:1
140
2.0
141
1.0
290
     0
  0
SCALE
  5
132
102
{ACAD_REACTORS
330
124
102
}
330
124
100
AcDbScale
 70
     0
300
4:1
140
4.0
141
1.0
290
     0
  0
SCALE
  5
133
102
{ACAD_REACTORS
330
124
102
}
330
124
100
AcDbScale
 70
     0
300
8:1
140
8.0
141
1.0
290
     0
  0
SCALE
  5
134
102
{ACAD_REACTORS
330
124
102
}
330
124
100
AcDbScale
 70
     0
300
10:1
140
10.0
141
1.0
290
     0
  0
SCALE
  5
135
102
{ACAD_REACTORS
330
124
102
}
330
124
100
AcDbScale
 70
     0
300
100:1
140
100.0
141
1.0
290
     0
  0
SCALE
  5
136
102
{ACAD_REACTORS
330
124
102
}
330
124
100
AcDbScale
 70
     0
300
1/128" = 1'-0"
140
0.0078125
141
12.0
290
     0
  0
SCALE
  5
137
102
{ACAD_REACTORS
330
124
102
}
330
124
100
AcDbScale
 70
     0
300
1/64" = 1'-0"
140
0.015625
141
12.0
290
     0
  0
SCALE
  5
138
102
{ACAD_REACTORS
330
124
102
}
330
124
100
AcDbScale
 70
     0
300
1/32" = 1'-0"
140
0.03125
141
12.0
290
     0
  0
SCALE
  5
139
102
{ACAD_REACTORS
330
124
102
}
330
124
100
AcDbScale
 70
     0
300
1/16" = 1'-0"
140
0.0625
141
12.0
290
     0
  0
SCALE
  5
13A
102
{ACAD_REACTORS
330
124
102
}
330
124
100
AcDbScale
 70
     0
300
3/32" = 1'-0"
140
0.09375
141
12.0
290
     0
  0
SCALE
  5
13B
102
{ACAD_REACTORS
330
124
102
}
330
124
100
AcDbScale
 70
     0
300
1/8" = 1'-0"
140
0.125
141
12.0
290
     0
  0
SCALE
  5
13C
102
{ACAD_REACTORS
330
124
102
}
330
124
100
AcDbScale
 70
     0
300
3/16" = 1'-0"
140
0.1875
141
12.0
290
     0
  0
SCALE
  5
13D
102
{ACAD_REACTORS
330
124
102
}
330
124
100
AcDbScale
 70
     0
300
1/4" = 1'-0"
140
0.25
141
12.0
290
     0
  0
SCALE
  5
13E
102
{ACAD_REACTORS
330
124
102
}
330
124
100
AcDbScale
 70
     0
300
3/8" = 1'-0"
140
0.375
141
12.0
290
     0
  0
SCALE
  5
13F
102
{ACAD_REACTORS
330
124
102
}
330
124
100
AcDbScale
 70
     0
300
1/2" = 1'-0"
140
0.5
141
12.0
290
     0
  0
SCALE
  5
140
102
{ACAD_REACTORS
330
124
102
}
330
124
100
AcDbScale
 70
     0
300
3/4" = 1'-0"
140
0.75
141
12.0
290
     0
  0
SCALE
  5
141
102
{ACAD_REACTORS
330
124
102
}
330
124
100
AcDbScale
 70
     0
300
1" = 1'-0"
140
1.0
141
12.0
290
     0
  0
SCALE
  5
142
102
{ACAD_REACTORS
330
124
102
}
330
124
100
AcDbScale
 70
     0
300
1-1/2" = 1'-0"
140
1.5
141
12.0
290
     0
  0
SCALE
  5
143
102
{ACAD_REACTORS
330
124
102
}
330
124
100
AcDbScale
 70
     0
300
3" = 1'-0"
140
3.0
141
12.0
290
     0
  0
SCALE
  5
144
102
{ACAD_REACTORS
330
124
102
}
330
124
100
AcDbScale
 70
     0
300
6" = 1'-0"
140
6.0
141
12.0
290
     0
  0
SCALE
  5
145
102
{ACAD_REACTORS
330
124
102
}
330
124
100
AcDbScale
 70
     0
300
1'-0" = 1'-0"
140
12.0
141
12.0
290
     0
  0
ACDBSECTIONVIEWSTYLE
  5
1CE
102
{ACAD_XDICTIONARY
360
D5C
102
}
102
{ACAD_REACTORS
330
1CD
102
}
330
1CD
100
AcDbModelDocViewStyle
 70
     0
  3
Metric50
290
     0
100
AcDbSectionViewStyle
 70
     0
 71
     0
 90
      102
 71
     1
340
C
 62
   256
 40
5.0
340
0
340
0
 62
   256
 40
5.0
300
I, O, Q, S, X, Z
 40
10.0
 90
        0
 40
2.5
 90
        0
 71
     2
340
5
 90
       25
 62
   256
340
5
 90
       50
 62
   256
 40
5.0
 40
2.5
 40
5.0
 71
     3
340
C
 62
   256
 40
5.0
 90
        0
 40
15.0
 90
        1
300
%<\AcVar ViewSectionStartId>%-%<\AcVar ViewSectionEndId>% (%<\AcVar ViewScale \f "%sn">%)
 71
     4
 62
   256
 62
   257
300
ANSI31
 40
1.0
 90
        0
290
     0
290
     0
 90
        6
 40
0.0
 40
1.57079633
 40
0.26179939
 40
1.30899694
 40
-0.26179939
 40
1.83259571
  0
TABLESTYLE
  5
123
102
{ACAD_XDICTIONARY
360
150
102
}
102
{ACAD_REACTORS
330
122
102
}
330
122
100
AcDbTableStyle
  3
Standard
 70
     0
 71
     0
 40
0.06
 41
0.06
280
     0
281
     0
  7
STANDARD
140
0.18
170
     2
 62
     0
 63
     7
283
     0
274
    -2
284
     1
 64
     0
275
    -2
285
     1
 65
     0
276
    -2
286
     1
 66
     0
277
    -2
287
     1
 67
     0
278
    -2
288
     1
 68
     0
279
    -2
289
     1
 69
     0
  7
STANDARD
140
0.25
170
     5
 62
     0
 63
     7
283
     0
274
    -2
284
     1
 64
     0
275
    -2
285
     1
 65
     0
276
    -2
286
     1
 66
     0
277
    -2
287
     1
 67
     0
278
    -2
288
     1
 68
     0
279
    -2
289
     1
 69
     0
  7
STANDARD
140
0.18
170
     5
 62
     0
 63
     7
283
     0
274
    -2
284
     1
 64
     0
275
    -2
285
     1
 65
     0
276
    -2
286
     1
 66
     0
277
    -2
287
     1
 67
     0
278
    -2
288
     1
 68
     0
279
    -2
289
     1
 69
     0
  0
VISUALSTYLE
  5
113
102
{ACAD_XDICTIONARY
360
D31
102
}
102
{ACAD_REACTORS
330
10D
102
}
330
10D
100
AcDbVisualStyle
  2
2dWireframe
 70
     4
 71
     0
 72
     2
 73
     0
 90
        0
 40
-0.6
 41
-30.0
 62
     5
 63
     7
 74
     1
 91
        4
 64
     7
 65
   257
 75
     1
175
     1
 42
1.0
 92
        0
 66
   257
 43
1.0
 76
     1
 77
     6
 78
     2
 67
     7
 79
     5
170
     0
171
     0
290
     0
174
     0
 93
        1
 44
0.0
173
     0
291
     0
 45
0.0
1001
ACAD
1000
AcDbSavedByObjectVersion
1070
     0
  0
VISUALSTYLE
  5
115
102
{ACAD_XDICTIONARY
360
D35
102
}
102
{ACAD_REACTORS
330
10D
102
}
330
10D
100
AcDbVisualStyle
  2
3D Hidden
 70
     6
 71
     1
 72
     2
 73
     2
 90
        0
 40
-0.6
 41
-30.0
 62
     5
 63
     7
 74
     2
 91
        2
 64
     7
 65
   257
 75
     2
175
     1
 42
179.0
 92
        0
 66
   257
 43
1.0
 76
     1
 77
     6
 78
     2
 67
     7
 79
     3
170
     0
171
     0
290
     0
174
     0
 93
        1
 44
0.0
173
     0
291
     0
 45
0.0
1001
ACAD
1000
AcDbSavedByObjectVersion
1070
     0
  0
VISUALSTYLE
  5
114
102
{ACAD_XDICTIONARY
360
D33
102
}
102
{ACAD_REACTORS
330
10D
102
}
330
10D
100
AcDbVisualStyle
  2
3dWireframe
 70
     5
 71
     0
 72
     2
 73
     0
 90
        0
 40
-0.6
 41
-30.0
 62
     5
 63
     7
 74
     1
 91
        4
 64
     7
 65
   257
 75
     1
175
     1
 42
1.0
 92
        0
 66
   257
 43
1.0
 76
     1
 77
     6
 78
     2
 67
     7
 79
     5
170
     0
171
     0
290
     0
174
     0
 93
        1
 44
0.0
173
     0
291
     0
 45
0.0
1001
ACAD
1000
AcDbSavedByObjectVersion
1070
     0
  0
VISUALSTYLE
  5
112
102
{ACAD_XDICTIONARY
360
D2F
102
}
102
{ACAD_REACTORS
330
10D
102
}
330
10D
100
AcDbVisualStyle
  2
Basic
 70
     7
 71
     1
 72
     0
 73
     1
 90
        0
 40
-0.6
 41
-30.0
 62
     5
 63
     7
 74
     0
 91
        4
 64
     7
 65
   257
 75
     1
175
     1
 42
1.0
 92
        8
 66
     7
 43
1.0
 76
     1
 77
     6
 78
     2
 67
     7
 79
     5
170
     0
171
     0
290
     0
174
     0
 93
        1
 44
0.0
173
     0
291
     1
 45
0.0
1001
ACAD
1000
AcDbSavedByObjectVersion
1070
     0
  0
VISUALSTYLE
  5
119
102
{ACAD_XDICTIONARY
360
D3D
102
}
102
{ACAD_REACTORS
330
10D
102
}
330
10D
100
AcDbVisualStyle
  2
Brighten
 70
    12
 71
     2
 72
     2
 73
     0
 90
        0
 40
-0.6
 41
-30.0
 62
     5
 63
     7
 74
     1
 91
        4
 64
     7
 65
   257
 75
     1
175
     1
 42
1.0
 92
        8
 66
     7
 43
1.0
 76
     1
 77
     6
 78
     2
 67
     7
 79
     5
170
     0
171
     0
290
     0
174
     0
 93
        1
 44
50.0
173
     0
291
     1
 45
0.0
1001
ACAD
1000
AcDbSavedByObjectVersion
1070
     0
  0
VISUALSTYLE
  5
11D
102
{ACAD_XDICTIONARY
360
D45
102
}
102
{ACAD_REACTORS
330
10D
102
}
330
10D
100
AcDbVisualStyle
  2
ColorChange
 70
    16
 71
     2
 72
     2
 73
     3
 90
        0
 40
-0.6
 41
-30.0
 62
     5
 63
     8
 74
     1
 91
        4
 64
     7
 65
   257
 75
     1
175
     1
 42
1.0
 92
        8
 66
     8
 43
1.0
 76
     1
 77
     6
 78
     2
 67
     7
 79
     5
170
     0
171
     0
290
     0
174
     0
 93
        1
 44
0.0
173
     0
291
     1
 45
0.0
1001
ACAD
1000
AcDbSavedByObjectVersion
1070
     0
  0
VISUALSTYLE
  5
116
102
{ACAD_XDICTIONARY
360
D37
102
}
102
{ACAD_REACTORS
330
10D
102
}
330
10D
100
AcDbVisualStyle
  2
Conceptual
 70
     9
 71
     3
 72
     2
 73
     0
 90
        0
 40
-0.6
 41
-30.0
 62
     5
 63
     7
 74
     2
 91
        2
 64
     7
 65
   257
 75
     1
175
     1
 42
179.0
 92
        8
 66
     7
 43
1.0
 76
     1
 77
     6
 78
     2
 67
     7
 79
     3
170
     0
171
     0
290
     0
174
     0
 93
        1
 44
0.0
173
     0
291
     0
 45
0.0
1001
ACAD
1000
AcDbSavedByObjectVersion
1070
     0
  0
VISUALSTYLE
  5
118
102
{ACAD_XDICTIONARY
360
D3B
102
}
102
{ACAD_REACTORS
330
10D
102
}
330
10D
100
AcDbVisualStyle
  2
Dim
 70
    11
 71
     2
 72
     2
 73
     0
 90
        0
 40
-0.6
 41
-30.0
 62
     5
 63
     7
 74
     1
 91
        4
 64
     7
 65
   257
 75
     1
175
     1
 42
1.0
 92
        8
 66
     7
 43
1.0
 76
     1
 77
     6
 78
     2
 67
     7
 79
     5
170
     0
171
     0
290
     0
174
     0
 93
        1
 44
-50.0
173
     0
291
     1
 45
0.0
1001
ACAD
1000
AcDbSavedByObjectVersion
1070
     0
  0
VISUALSTYLE
  5
120
102
{ACAD_XDICTIONARY
360
D4B
102
}
102
{ACAD_REACTORS
330
10D
102
}
330
10D
100
AcDbVisualStyle
  2
EdgeColorOff
 70
    22
 71
     2
 72
     2
 73
     0
 90
        0
 40
-0.6
 41
-30.0
 62
     5
 63
     7
 74
     1
 91
        4
 64
     7
 65
   257
 75
     1
175
     1
 42
1.0
 92
        8
 66
     7
 43
1.0
 76
     1
 77
     6
 78
     2
 67
     7
 79
     5
170
     0
171
     0
290
     0
174
     0
 93
        1
 44
0.0
173
     0
291
     1
 45
0.0
1001
ACAD
1000
AcDbSavedByObjectVersion
1070
     0
  0
VISUALSTYLE
  5
11C
102
{ACAD_XDICTIONARY
360
D43
102
}
102
{ACAD_REACTORS
330
10D
102
}
330
10D
100
AcDbVisualStyle
  2
Facepattern
 70
    15
 71
     2
 72
     2
 73
     0
 90
        0
 40
-0.6
 41
-30.0
 62
     5
 63
     7
 74
     1
 91
        4
 64
     7
 65
   257
 75
     1
175
     1
 42
1.0
 92
        8
 66
     7
 43
1.0
 76
     1
 77
     6
 78
     2
 67
     7
 79
     5
170
     0
171
     0
290
     0
174
     0
 93
        1
 44
0.0
173
     0
291
     1
 45
0.0
1001
ACAD
1000
AcDbSavedByObjectVersion
1070
     0
  0
VISUALSTYLE
  5
10E
102
{ACAD_XDICTIONARY
360
D27
102
}
102
{ACAD_REACTORS
330
10D
102
}
330
10D
100
AcDbVisualStyle
  2
Flat
 70
     0
 71
     2
 72
     1
 73
     1
 90
        2
 40
-0.6
 41
30.0
 62
     5
 63
     7
 74
     0
 91
        4
 64
     7
 65
   257
 75
     1
175
     1
 42
1.0
 92
        8
 66
     7
 43
1.0
 76
     1
 77
     6
 78
     2
 67
     7
 79
     5
170
     0
171
     0
290
     0
174
     0
 93
       13
 44
0.0
173
     0
291
     1
 45
0.0
1001
ACAD
1000
AcDbSavedByObjectVersion
1070
     0
  0
VISUALSTYLE
  5
10F
102
{ACAD_XDICTIONARY
360
D29
102
}
102
{ACAD_REACTORS
330
10D
102
}
330
10D
100
AcDbVisualStyle
  2
FlatWithEdges
 70
     1
 71
     2
 72
     1
 73
     1
 90
        2
 40
-0.6
 41
30.0
 62
     5
 63
     7
 74
     1
 91
        4
 64
     7
 65
   257
 75
     1
175
     1
 42
1.0
 92
        0
 66
   257
 43
1.0
 76
     1
 77
     6
 78
     2
 67
     7
 79
     5
170
     0
171
     0
290
     0
174
     0
 93
       13
 44
0.0
173
     0
291
     1
 45
0.0
1001
ACAD
1000
AcDbSavedByObjectVersion
1070
     0
  0
VISUALSTYLE
  5
110
102
{ACAD_XDICTIONARY
360
D2B
102
}
102
{ACAD_REACTORS
330
10D
102
}
330
10D
100
AcDbVisualStyle
  2
Gouraud
 70
     2
 71
     2
 72
     2
 73
     1
 90
        2
 40
-0.6
 41
30.0
 62
     5
 63
     7
 74
     0
 91
        4
 64
     7
 65
   257
 75
     1
175
     1
 42
1.0
 92
        0
 66
     7
 43
1.0
 76
     1
 77
     6
 78
     2
 67
     7
 79
     5
170
     0
171
     0
290
     0
174
     0
 93
       13
 44
0.0
173
     0
291
     1
 45
0.0
1001
ACAD
1000
AcDbSavedByObjectVersion
1070
     0
  0
VISUALSTYLE
  5
111
102
{ACAD_XDICTIONARY
360
D2D
102
}
102
{ACAD_REACTORS
330
10D
102
}
330
10D
100
AcDbVisualStyle
  2
GouraudWithEdges
 70
     3
 71
     2
 72
     2
 73
     1
 90
        2
 40
-0.6
 41
30.0
 62
     5
 63
     7
 74
     1
 91
        4
 64
     7
 65
   257
 75
     1
175
     1
 42
1.0
 92
        0
 66
   257
 43
1.0
 76
     1
 77
     6
 78
     2
 67
     7
 79
     5
170
     0
171
     0
290
     0
174
     0
 93
       13
 44
0.0
173
     0
291
     1
 45
0.0
1001
ACAD
1000
AcDbSavedByObjectVersion
1070
     0
  0
VISUALSTYLE
  5
1C7
102
{ACAD_XDICTIONARY
360
D50
102
}
102
{ACAD_REACTORS
330
10D
102
}
330
10D
100
AcDbVisualStyle
  2
Hidden
 70
     6
 71
     1
 72
     2
 73
     2
 90
        0
 40
-0.6
 41
-30.0
 62
     5
 63
     7
421
 16777215
 74
     2
 91
        2
 64
     7
 65
   257
 75
     2
175
     1
 42
40.0
 92
        0
 66
   257
 43
1.0
 76
     1
 77
     6
 78
     2
 67
     7
 79
     3
170
     0
171
     0
290
     0
174
     0
 93
        1
 44
0.0
173
     0
291
     0
 45
0.0
1001
ACAD
1000
AcDbSavedByObjectVersion
1070
     0
  0
VISUALSTYLE
  5
11E
102
{ACAD_XDICTIONARY
360
D47
102
}
102
{ACAD_REACTORS
330
10D
102
}
330
10D
100
AcDbVisualStyle
  2
JitterOff
 70
    20
 71
     2
 72
     2
 73
     0
 90
        0
 40
-0.6
 41
-30.0
 62
     5
 63
     7
 74
     1
 91
        4
 64
     7
 65
   257
 75
     1
175
     1
 42
1.0
 92
       10
 66
     7
 43
1.0
 76
     1
 77
     6
 78
     2
 67
     7
 79
     5
170
     0
171
     0
290
     0
174
     0
 93
        1
 44
0.0
173
     0
291
     1
 45
0.0
1001
ACAD
1000
AcDbSavedByObjectVersion
1070
     0
  0
VISUALSTYLE
  5
11B
102
{ACAD_XDICTIONARY
360
D41
102
}
102
{ACAD_REACTORS
330
10D
102
}
330
10D
100
AcDbVisualStyle
  2
Linepattern
 70
    14
 71
     2
 72
     2
 73
     0
 90
        0
 40
-0.6
 41
-30.0
 62
     5
 63
     7
 74
     1
 91
        4
 64
     7
 65
   257
 75
     7
175
     7
 42
1.0
 92
        8
 66
     7
 43
1.0
 76
     1
 77
     6
 78
     2
 67
     7
 79
     5
170
     0
171
     0
290
     0
174
     0
 93
        1
 44
0.0
173
     0
291
     1
 45
0.0
1001
ACAD
1000
AcDbSavedByObjectVersion
1070
     0
  0
VISUALSTYLE
  5
11F
102
{ACAD_XDICTIONARY
360
D49
102
}
102
{ACAD_REACTORS
330
10D
102
}
330
10D
100
AcDbVisualStyle
  2
OverhangOff
 70
    21
 71
     2
 72
     2
 73
     0
 90
        0
 40
-0.6
 41
-30.0
 62
     5
 63
     7
 74
     1
 91
        4
 64
     7
 65
   257
 75
     1
175
     1
 42
1.0
 92
        9
 66
     7
 43
1.0
 76
     1
 77
     6
 78
     2
 67
     7
 79
     5
170
     0
171
     0
290
     0
174
     0
 93
        1
 44
0.0
173
     0
291
     1
 45
0.0
1001
ACAD
1000
AcDbSavedByObjectVersion
1070
     0
  0
VISUALSTYLE
  5
117
102
{ACAD_XDICTIONARY
360
D39
102
}
102
{ACAD_REACTORS
330
10D
102
}
330
10D
100
AcDbVisualStyle
  2
Realistic
 70
     8
 71
     2
 72
     2
 73
     0
 90
        0
 40
-0.6
 41
-30.0
 62
     5
 63
     7
 74
     1
 91
        0
 64
     7
 65
   257
 75
     1
175
     1
 42
1.0
 92
        8
 66
     8
 43
1.0
 76
     1
 77
     6
 78
     2
 67
     7
 79
     5
170
     0
171
     0
290
     0
174
     0
 93
       13
 44
0.0
173
     0
291
     0
 45
0.0
1001
ACAD
1000
AcDbSavedByObjectVersion
1070
     0
  0
VISUALSTYLE
  5
1CC
102
{ACAD_XDICTIONARY
360
D5A
102
}
102
{ACAD_REACTORS
330
10D
102
}
330
10D
100
AcDbVisualStyle
  2
Shaded
 70
    27
 71
     2
 72
     2
 73
     1
 90
        2
 40
-0.6
 41
30.0
 62
     5
 63
     7
421
 16777215
 74
     0
 91
        4
 64
     7
 65
   257
 75
     1
175
     1
 42
1.0
 92
        8
 66
   257
 43
1.0
 76
     1
 77
     6
 78
     2
 67
     8
425
  7895160
 79
     3
170
     0
171
     0
290
     0
174
     0
 93
        5
 44
0.0
173
     0
291
     0
 45
0.0
1001
ACAD
1000
AcDbSavedByObjectVersion
1070
     0
  0
VISUALSTYLE
  5
1CB
102
{ACAD_XDICTIONARY
360
D58
102
}
102
{ACAD_REACTORS
330
10D
102
}
330
10D
100
AcDbVisualStyle
  2
Shaded with edges
 70
    26
 71
     2
 72
     2
 73
     1
 90
        2
 40
-0.6
 41
30.0
 62
     5
 63
     7
421
 16777215
 74
     1
 91
        2
 64
     7
 65
   257
 75
     2
175
     1
 42
1.0
 92
        8
 66
   257
 43
1.0
 76
     1
 77
     6
 78
     2
 67
     7
 79
     3
170
     0
171
     0
290
     0
174
     0
 93
        5
 44
0.0
173
     0
291
     0
 45
0.0
1001
ACAD
1000
AcDbSavedByObjectVersion
1070
     0
  0
VISUALSTYLE
  5
1C8
102
{ACAD_XDICTIONARY
360
D52
102
}
102
{ACAD_REACTORS
330
10D
102
}
330
10D
100
AcDbVisualStyle
  2
Shades of Gray
 70
    23
 71
     2
 72
     2
 73
     3
 90
        0
 40
-0.6
 41
-30.0
 62
     5
 63
     7
421
 16777215
 74
     2
 91
        2
 64
     7
 65
     7
 75
     1
175
     1
 42
40.0
 92
        8
 66
     7
 43
1.0
 76
     1
 77
     6
 78
     2
 67
     7
 79
     3
170
     0
171
     0
290
     0
174
     0
 93
        1
 44
0.0
173
     0
291
     0
 45
0.0
1001
ACAD
1000
AcDbSavedByObjectVersion
1070
     0
  0
VISUALSTYLE
  5
1C9
102
{ACAD_XDICTIONARY
360
D54
102
}
102
{ACAD_REACTORS
330
10D
102
}
330
10D
100
AcDbVisualStyle
  2
Sketchy
 70
    24
 71
     1
 72
     2
 73
     2
 90
        0
 40
-0.6
 41
-30.0
 62
     5
 63
     7
421
 16777215
 74
     2
 91
        2
 64
     7
 65
     7
 75
     1
175
     1
 42
40.0
 92
       11
 66
     7
 43
1.0
 76
     1
 77
     6
 78
     2
 67
     7
 79
     6
170
     0
171
     0
290
     0
174
     0
 93
        1
 44
0.0
173
     0
291
     0
 45
0.0
1001
ACAD
1000
AcDbSavedByObjectVersion
1070
     0
  0
VISUALSTYLE
  5
11A
102
{ACAD_XDICTIONARY
360
D3F
102
}
102
{ACAD_REACTORS
330
10D
102
}
330
10D
100
AcDbVisualStyle
  2
Thicken
 70
    13
 71
     2
 72
     2
 73
     0
 90
        0
 40
-0.6
 41
-30.0
 62
     5
 63
     7
 74
     1
 91
        4
 64
     7
 65
   257
 75
     1
175
     1
 42
1.0
 92
       12
 66
     7
 43
1.0
 76
     1
 77
     6
 78
     2
 67
     7
 79
     5
170
     0
171
     0
290
     0
174
     0
 93
        1
 44
0.0
173
     0
291
     1
 45
0.0
1001
ACAD
1000
AcDbSavedByObjectVersion
1070
     0
  0
VISUALSTYLE
  5
1C6
102
{ACAD_XDICTIONARY
360
D4E
102
}
102
{ACAD_REACTORS
330
10D
102
}
330
10D
100
AcDbVisualStyle
  2
Wireframe
 70
     5
 71
     0
 72
     2
 73
     0
 90
        0
 40
-0.6
 41
-30.0
 62
     5
 63
     7
421
 16777215
 74
     1
 91
        4
 64
     7
 65
   257
 75
     1
175
     1
 42
1.0
 92
        0
 66
   257
 43
1.0
 76
     1
 77
     6
 78
     2
 67
     7
 79
     3
170
     0
171
     0
290
     0
174
     0
 93
        1
 44
0.0
173
     0
291
     0
 45
0.0
1001
ACAD
1000
AcDbSavedByObjectVersion
1070
     0
  0
VISUALSTYLE
  5
1CA
102
{ACAD_XDICTIONARY
360
D56
102
}
102
{ACAD_REACTORS
330
10D
102
}
330
10D
100
AcDbVisualStyle
  2
X-Ray
 70
    25
 71
     2
 72
     2
 73
     1
 90
        1
 40
0.5
 41
-30.0
 62
     5
 63
     7
421
 16777215
 74
     1
 91
        0
 64
     7
 65
   257
 75
     1
175
     1
 42
1.0
 92
        8
 66
     7
 43
1.0
 76
     1
 77
     6
 78
     2
 67
     7
 79
     3
170
     0
171
     0
290
     0
174
     0
 93
       13
 44
0.0
173
     0
291
     0
 45
0.0
1001
ACAD
1000
AcDbSavedByObjectVersion
1070
     0
  0
DICTIONARYVAR
  5
1C0
102
{ACAD_REACTORS
330
1BD
102
}
330
1BD
100
DictionaryVariables
280
     0
  1
1:1
  0
DICTIONARYVAR
  5
1BF
102
{ACAD_REACTORS
330
1BD
102
}
330
1BD
100
DictionaryVariables
280
     0
  1
STANDARD
  0
DICTIONARYVAR
  5
1BE
102
{ACAD_REACTORS
330
1BD
102
}
330
1BD
100
DictionaryVariables
280
     0
  1
STANDARD
  0
DICTIONARYVAR
  5
229
102
{ACAD_REACTORS
330
1BD
102
}
330
1BD
100
DictionaryVariables
280
     0
  1
Metric50
  0
DICTIONARYVAR
  5
22A
102
{ACAD_REACTORS
330
1BD
102
}
330
1BD
100
DictionaryVariables
280
     0
  1
Metric50
  0
DICTIONARYVAR
  5
1C3
102
{ACAD_REACTORS
330
1BD
102
}
330
1BD
100
DictionaryVariables
280
     0
  1
1
  0
DICTIONARYVAR
  5
1C2
102
{ACAD_REACTORS
330
1BD
102
}
330
1BD
100
DictionaryVariables
280
     0
  1
0
  0
DICTIONARYVAR
  5
1C1
102
{ACAD_REACTORS
330
1BD
102
}
330
1BD
100
DictionaryVariables
280
     0
  1
127
  0
DICTIONARYVAR
  5
D21
102
{ACAD_REACTORS
330
1BD
102
}
330
1BD
100
DictionaryVariables
280
     0
  1
2
  0
DICTIONARY
  5
D5E
330
1D0
100
AcDbDictionary
280
     1
281
     1
  3
ACAD_XREC_ROUNDTRIP
360
D5F
  0
DICTIONARY
  5
276
330
14A
100
AcDbDictionary
280
     1
281
     1
  3
ADSK_XREC_LAYOUTTHUMBNAIL
360
277
  0
DICTIONARY
  5
FE
330
FD
100
AcDbDictionary
280
     1
281
     1
  3
ACAD_XREC_ROUNDTRIP
360
D25
  3
BUMPTILE
360
100
  3
DIFFUSETILE
360
FF
  3
OPACITYTILE
360
103
  3
REFLECTIONTILE
360
102
  3
REFRACTIONTILE
360
104
  3
SPECULARTILE
360
101
  0
DICTIONARY
  5
F6
330
F5
100
AcDbDictionary
280
     1
281
     1
  3
ACAD_XREC_ROUNDTRIP
360
D24
  3
BUMPTILE
360
F8
  3
DIFFUSETILE
360
F7
  3
OPACITYTILE
360
FB
  3
REFLECTIONTILE
360
FA
  3
REFRACTIONTILE
360
FC
  3
SPECULARTILE
360
F9
  0
DICTIONARY
  5
106
330
105
100
AcDbDictionary
280
     1
281
     1
  3
ACAD_XREC_ROUNDTRIP
360
D26
  3
BUMPTILE
360
108
  3
DIFFUSETILE
360
107
  3
OPACITYTILE
360
10B
  3
REFLECTIONTILE
360
10A
  3
REFRACTIONTILE
360
10C
  3
SPECULARTILE
360
109
  0
XRECORD
  5
228
102
{ACAD_REACTORS
330
227
102
}
330
227
100
AcDbXrecord
280
     1
 70
     2
 71
     3
 72
     0
  0
DICTIONARY
  5
D5C
330
1CE
100
AcDbDictionary
280
     1
281
     1
  3
ACAD_XREC_ROUNDTRIP
360
D5D
  0
DICTIONARY
  5
150
330
123
100
AcDbDictionary
280
     1
281
     1
  3
ACAD_ROUNDTRIP_2008_TABLESTYLE_CELLSTYLEMAP
360
D22
  3
ACAD_XREC_ROUNDTRIP
360
D4D
  0
DICTIONARY
  5
D31
330
113
100
AcDbDictionary
280
     1
281
     1
  3
ACAD_XREC_ROUNDTRIP
360
D32
  0
DICTIONARY
  5
D35
330
115
100
AcDbDictionary
280
     1
281
     1
  3
ACAD_XREC_ROUNDTRIP
360
D36
  0
DICTIONARY
  5
D33
330
114
100
AcDbDictionary
280
     1
281
     1
  3
ACAD_XREC_ROUNDTRIP
360
D34
  0
DICTIONARY
  5
D2F
330
112
100
AcDbDictionary
280
     1
281
     1
  3
ACAD_XREC_ROUNDTRIP
360
D30
  0
DICTIONARY
  5
D3D
330
119
100
AcDbDictionary
280
     1
281
     1
  3
ACAD_XREC_ROUNDTRIP
360
D3E
  0
DICTIONARY
  5
D45
330
11D
100
AcDbDictionary
280
     1
281
     1
  3
ACAD_XREC_ROUNDTRIP
360
D46
  0
DICTIONARY
  5
D37
330
116
100
AcDbDictionary
280
     1
281
     1
  3
ACAD_XREC_ROUNDTRIP
360
D38
  0
DICTIONARY
  5
D3B
330
118
100
AcDbDictionary
280
     1
281
     1
  3
ACAD_XREC_ROUNDTRIP
360
D3C
  0
DICTIONARY
  5
D4B
330
120
100
AcDbDictionary
280
     1
281
     1
  3
ACAD_XREC_ROUNDTRIP
360
D4C
  0
DICTIONARY
  5
D43
330
11C
100
AcDbDictionary
280
     1
281
     1
  3
ACAD_XREC_ROUNDTRIP
360
D44
  0
DICTIONARY
  5
D27
330
10E
100
AcDbDictionary
280
     1
281
     1
  3
ACAD_XREC_ROUNDTRIP
360
D28
  0
DICTIONARY
  5
D29
330
10F
100
AcDbDictionary
280
     1
281
     1
  3
ACAD_XREC_ROUNDTRIP
360
D2A
  0
DICTIONARY
  5
D2B
330
110
100
AcDbDictionary
280
     1
281
     1
  3
ACAD_XREC_ROUNDTRIP
360
D2C
  0
DICTIONARY
  5
D2D
330
111
100
AcDbDictionary
280
     1
281
     1
  3
ACAD_XREC_ROUNDTRIP
360
D2E
  0
DICTIONARY
  5
D50
330
1C7
100
AcDbDictionary
280
     1
281
     1
  3
ACAD_XREC_ROUNDTRIP
360
D51
  0
DICTIONARY
  5
D47
330
11E
100
AcDbDictionary
280
     1
281
     1
  3
ACAD_XREC_ROUNDTRIP
360
D48
  0
DICTIONARY
  5
D41
330
11B
100
AcDbDictionary
280
     1
281
     1
  3
ACAD_XREC_ROUNDTRIP
360
D42
  0
DICTIONARY
  5
D49
330
11F
100
AcDbDictionary
280
     1
281
     1
  3
ACAD_XREC_ROUNDTRIP
360
D4A
  0
DICTIONARY
  5
D39
330
117
100
AcDbDictionary
280
     1
281
     1
  3
ACAD_XREC_ROUNDTRIP
360
D3A
  0
DICTIONARY
  5
D5A
330
1CC
100
AcDbDictionary
280
     1
281
     1
  3
ACAD_XREC_ROUNDTRIP
360
D5B
  0
DICTIONARY
  5
D58
330
1CB
100
AcDbDictionary
280
     1
281
     1
  3
ACAD_XREC_ROUNDTRIP
360
D59
  0
DICTIONARY
  5
D52
330
1C8
100
AcDbDictionary
280
     1
281
     1
  3
ACAD_XREC_ROUNDTRIP
360
D53
  0
DICTIONARY
  5
D54
330
1C9
100
AcDbDictionary
280
     1
281
     1
  3
ACAD_XREC_ROUNDTRIP
360
D55
  0
DICTIONARY
  5
D3F
330
11A
100
AcDbDictionary
280
     1
281
     1
  3
ACAD_XREC_ROUNDTRIP
360
D40
  0
DICTIONARY
  5
D4E
330
1C6
100
AcDbDictionary
280
     1
281
     1
  3
ACAD_XREC_ROUNDTRIP
360
D4F
  0
DICTIONARY
  5
D56
330
1CA
100
AcDbDictionary
280
     1
281
     1
  3
ACAD_XREC_ROUNDTRIP
360
D57
  0
XRECORD
  5
D5F
102
{ACAD_REACTORS
330
D5E
102
}
330
D5E
100
AcDbXrecord
280
     1
102
DISPLAYNAME
  1
Metric50
102
FLAGS
 90
        0
  0
XRECORD
  5
277
102
{ACAD_REACTORS
330
276
102
}
330
276
100
AcDbXrecord
280
     1
310
2800000000010000670000000100080000000000006700000100000001000000000100000000000000000066FFFFFF520000005600000050000000730000003200000031000000500000006F0000004F00000032330000466600006699000052CC000056FF00005000330073333300326633003199330050CC33006FFF3300
310
3200660018336600006666000099660000CC660000FF66000000990000339900006699000099990000CC990000FF99000000CC000033CC000066CC000099CC0000CCCC0000FFCC000000FF000033FF000066FF000099FF0000CCFF0000FFFF00010000331433003354660033539900336FCC003374FF003330003333303333
310
33726633337099333370CC333330FF3333010066331233663354666633539966336FCC663374FF66333000993330339933726699337099993331CC993300FF99330000CC330033CC330066CC330099CC3300CCCC3300FFCC330000FF330033FF330066FF330099FF3300CCFF3300FFFF330000006600330066006600660099
310
006600CC006600FF00660000336600333366006633660099336666CC336652FF33665600666650336666736666663299666631CC666650FF66666F0099664F339966336699664699996666CC996652FF99665600CC665033CC667366CC663299CC6631CCCC6650FFCC666F00FF663333FF661866FF660099FF6600CCFF6600
310
FFFF660000009900330099006600990099009900CC009900FF00990000339900333399006633990099339900CC339900FF33990000669900336699006666990099669900CC669900FF66990000999901339999146699995499999953CC99996FFF99997400CC993033CC993066CC997299CC9970CCCC9970FFCC993400FF99
310
0133FF991266FF995499FF9953CCFF996FFFFF99740000CC303300CC306600CC729900CC70CC00CC35FF00CC000033CC003333CC006633CC009933CC00CC33CC00FF33CC000066CC003366CC006666CC009966CC00CC66CC00FF66CC000099CC003399CC006699CC009999CC00CC99CC00FF99CC0000CCCC0033CCCC0066CC
310
CC0099CCCC00CCCCCC66FFCCCC5200FFCC5633FFCC5066FFCC7399FFCC32CCFFCC31FFFFCC500000FF6F3300FF4F6600FF339900FF46CC00FF66FF00FF520033FF563333FF506633FF739933FF32CC33FF31FF33FF500066FF6F3366FF336666FF5A9966FF00CC66FF14FF66FF540099FF533399FF6F6699FF749999FF30CC
310
99FF30FF99FF7200CCFF7033CCFF7066CCFF3799CCFF01CCCCFF12FFCCFF5400FFFF5333FFFF6F66FFFF7499FFFF30CCFFFF30FFFFFF72000000700D0D0D381A1A1A00282828003535356643434352505050565D5D5D506B6B6B73787878328686863193939350A1A1A16FAEAEAE4FBBBBBB33C9C9C946D6D6D666E4E4E452
310
F1F1F156FFFFFF50000000730000003200000031000000500000006F000000330000008C00000000000000F00000000000000000000000000000000000000000000000000000000000000000000000000000000000000000000000000000000000000000000000000000000000000000000000000000000000000000000000
310
000000000000000000000000000000000000000000000000000000000000000000000000000000000000000000000000000000000000000000000000000000000000000000000000000000000000000000000000000000000000000000000000000000000000000000000000000000F2000000000000000000000000000000
310
00000000000000000000000000000000000000000000000000000000000000000000000000000000000000000000000000000000000000000000000000000000000000000000000000000000000000000000000000000000000000000000000000000000000000000000F2F2F2F2F2F2F2F2F2F2F2F2F2F2F2F2F2F2F2F2F2
310
F2F2F2F2F2F2F2F2F2F2F2F2F2F2F2F2F2F2F2F2F2F2F2F2F2F2F2F2F2F2F2F2F2F2F2F2F2F2F2F2F2F2F2F2F2F2F2F2F2F2F2F2F2F2F2F2F2F2F2F22828282828F2F2F2F2F2F2F2F2F2757575F27575F2757575F2F275F2F2757575757575757575757575757575757575F2F2F2F2F2F2F2F2F2F2F2000000000000000000
310
000000000000000000000000000000000000000000000000000000000000000000000000000000000000000000000000000000000000000000000000000000000000000000000000000000000000000000000000000000000000000000000000000000000000000000000000F2757575757575757575757575757575757575
310
75757575757575757575757575757575757575757575757575757575F20000000000000000000000000000000000000000F2F2F200000000282828002828282828282828002828002828F2000000750000000075000000F20075F2F2F2F2F2F2F2F2F2F2F2F2F2F2757575F2F27575757575F2F2F2F2F2F2F2000000000000
310
0000000000000000000000000000000000000000000000000000000000000000000000000000000000000000000000000000000000000000000000000000000000000000000000000000000000000000000000000000000000000000000000000000000000000000000000000000F275757575757575757575757575757575
310
757575757575757575757575757575757575757575757575757575757575F27500757500000000000000000000000000000000F2F2F275757575282828282828282828282828282828282828F2000000750000000075000000F20028750000000000000000000000000075007575757575757575F2F2F2F2F2F2F200000000
310
00000000000000000000000000000000000000000000000000000000000000000000000000000000000000000000000000000000000000000000000000000000000000000000000000000000000000000000000000000000000000000000000000000000000000000000000000000000F27575757575757575757575757575
310
7575757575757575757575757575757575757575757575757575757575757575F2757575757575757575757575757575757575757575F27575757575757528752828282828282828752828F2F2F275000000750000000075000000752828F2000000000000000000000000000000000000F2F2F2F2F2F2F2F2F2F2F2F20000
310
000000000000000000000000000000000000000000000000000000000000000000000000000000000000000000000000000000000000000000000000000000000000000000000000000000000000000000000000000000000000000000000000000000000000000000000000000000000000F2757575757575757575757575
310
75757575757575757575757575757575757575757575757575757575757575757575F20000000000000000000000000000000000000000F2F2F20000000000000000000000000000000000000000F2F2F2000000750000000075000000282875F2000000000000000000000000000000000000F200000000F2F2F2F2F2F2F2
310
F200000000000000000000000000000000000000000000000000000000000000000000000000000000000000000000000000000000000000000000000000000000000000000000000000000000000000000000000000000000000000000000000000000000000000000000000000000000000000F275757575757500000000
310
000000000000000000000000000000000000000000000000000000000000000000000000F27575757500000000000000000000000000000000F2F2F275757575000000000000000000000000000000F2F2F2F275757575757575757575757575757575757575750000000000000000000000000000757575757575F2F2F2F2
310
F2F20000000000000000000000000000000000000000000000000000000000000000000000000000000000000000000000000000000000000000000000000000000000000000000000000000000000000000000000000000000000000000000000000000000000000000000000000000000000000000F2F2F2F2F2F2F2F2F2
310
F2F2F2F2F2F2F2F2F2F2F2F2F2F2F2F2F2F2F2F2F2F2F2F2F2F2F2F2F2F2F2F2F2F2F2F2F2F2F2757575F2F2F2F2F2F2F2F2F2F2F2F2F2F2F2F2F2F2F2F2F27575F2F2F2F2F2F2F2F2F2F2F2F2F2F2F2F2F2F2F2F2F2F2F275F2F2F2F275F2F2F2F2F275F275757575F2F2F2F2F2F2F2F2F2F2F2F2F2F2F2F2F275F2F2F2F2
310
F2F2F2F20000000000000000000000000000000000000000000000000000000000000000000000000000000000000000000000000000000000000000000000000000000000000000000000000000000000000000000000000000000000000000000000000000000000000000000000000000000000000000F2000000000000
310
00000000000000000000000000000000000000000000000000000000000000000000000000000000000000000000000000000000000000000000000000000000000000000000000000000000000000000000000000000000000000000000000000000000000000000000000000000000000000000000000000000000000000
310
0000000000F20000EC0000000000000000000000000000000000000000000000000000000000000000000000000000000000000000000000000000000000000000000000000000000000000000000000000000000000000000000000000000000000000000000000000000000000000000000000000000000000F200000000
310
00000000000000000000000000000000000000000000000000000000000000000000000000000000000000000000000000000000000000000000000000000000000000000000000000000000000000000000000000000000000000000000000000000000000000000000000000000000000000000000000000000000000000
310
00000000000000F2ECECECEC00000000000000000000000000000000000000000000000000000000000000000000000000000000000000000000000000000000000000000000000000000000000000000000000000000000000000000000000000000000000000000000000000000000000000000000000000000000F20000
310
00000000000000000000000000000000000000000000000000000000000000000000000000000000000000000000000000000000000000000000000000000000000000000000000000000000000000000000000000000000000000000000000000000000000000000000000000000000000000000000000000000000000000
310
000000000000000000F20000EC0000000000000000000000000000000000000000000000000000000000000000000000000000000000000000000000000000000000000000000000000000000000000000000000000000000000000000000000000000000000000000000000000000000000000000000000000000000000F2
310
00000000000000000000000000000000000000000000000000000000000000000000000000000000000000000000000000000000000000000000000000000000000000000000000000000000000000000000000000000000000000000000000000000000000000000000000000000000000000000000000000000000000000
310
0000000000000000000000F20000EC00000000000000000000000000000000000000000000000000000000000000000000000000000000000000000000000000000000000000000000000000000000000000000000000000000000000000000000000000000000000000000000000000000000000000000000000000000000
310
00F20000000000000000000000000000000000000000000000000000000000000000000000000000000000000000000000000000000000000000000000000000000000000000000000000000000000000000000000000000000000000000000000000000000000000000000000000000000000000000000000000000000000
310
00000000000000000000000000F2ECECECEC00000000000000000000000000000000000000000000000000000000000000000000000000000000000000000000000000000000000000000000000000000000000000000000000000000000000000000000000000000000000000000000000000000000000000000000000000
310
000000F2000000000000000000000000000000000000000000000000000000000000000000000000000000000000000000000000000000000000000000000000000000000000000000000000000000000000000000000000000000000000000000000000000000000000000000000000000000000000000000000000000000
310
000000000000000000000000000000F20000EC000000000000000000000000000000000000000000000000000000000000000000000000000000000000000000000000000000000000000000000000000000000000000000000000000000000000000000000000000000000000000000000000000000000000000000000000
310
0000000000F200000000000000000000000000000000000000000000000000000000000000000000000000000000000000000000000000000000000000000000000000000000000000000000000000000000000000000000000000000000000000000000000000000000000000000000000000000000000000000000000000
310
0000000000000000000000000000000000F200000000000000000000000000000000000000000000000000000000000000000000000000000000000000000000000000000000000000000000000000000000000000000000000000000000000000000000000000000000000000000000000000000000000000000000000000
310
00000000000000F20000000000000000000000000000000000000000000000000000000000000000000000000000000000000000000000000000000000000000000000000000000000000000000000000000000000000000000000000000000000000000000000000000000000000000000000000000000000000000000000
310
00000000000000000000000000000000000000F20000EC0000000000000000000000000000000000000000000000000000000000000000000000000000000000000000000000000000000000000000000000000000000000000000000000000000000000000000000000000000000000000000000000000000000000000000
310
000000000000000000F2000000000000000000000000000000000000000000000000000000000000000000000000000000000000000000000000000000000000000000000000000000000000000000000000000000000000000000000000000000000000000000000000000000000000000000000000000000000000000000
310
000000000000000000000000000000000000000000F2ECECECEC0000000000000000000000000000000000000000000000000000000000000000000000000000000000000000000000000000000000000000000000000000000000000000000000000000000000000000000000000000000000000000000000000000000000
310
0000000000000000000000F200000000000000000000000000000000000000000000000000000000000000000000000000000000000000000000000000000000000000000000000000000000000000000000000000000000000000000000000000000000000000000000000000000000000000000000000000000000000000
310
0000000000000000000000000000000000000000000000F20000EC00000000000000000000000000000000000000000000000000000000000000000000000000000000000000000000000000000000000000000000000000000000000000000000000000000000000000000000000000000000000000000000000000000000
310
00000000000000000000000000F20000000000000000000000000000000000000000000000000000000000000000000000000000000000000000000000000000000000000000000000000000000000000000000000000000000000000000000000000000000000000000000000000000000000000000000000000000000000
310
00000000000000000000000000000000000000000000000000F20000EC0000000000000000000000000000000000000000000000000000000000000000000000000000000000000000000000000000000000000000000000000000000000000000000000000000000000000000000000000000000000000000000000000000
310
000000000000000000000000000000F2000000000000000000000000000000000000000000000000000000000000000000000000000000000000000000000000000000000000000000000000000000000000000000000000000000000000000000000000000000000000000000000000000000000000000000000000000000
310
000000000000000000000000000000000000000000000000000000F2ECECECEC0000000000000000000000000000000000000000000000000000000000000000000000000000000000000000000000000000000000000000000000000000000000000000000000000000000000000000000000000000000000000000000000
310
0000000000000000000000000000000000F200000000000000000000000000000000000000000000000000000000000000000000000000000000000000000000000000000000000000000000000000000000000000000000000000000000000000000000000000000000000000000000000000000000000000000000000000
310
0000000000000000000000000000000000000000000000000000000000F20000EC00000000000000000000000000000000000000000000000000000000000000000000000000000000000000000000000000000000000000000000000000000000000000000000000000000000000000000000000000000000000000000000
310
00000000000000000000000000000000000000F20000000000000000000000000000000000000000000000000000000000000000000000000000000000000000000000000000000000000000000000000000000000000000000000000000000000000000000000000000000000000000000000000000000000000000000000
310
00000000000000000000000000000000000000000000000000000000000000F20000000000000000000000000000000000000000000000000000000000000000000000000000000000000000000000000000000000000000000000000000000000000000000000000000000000000000000000000000000000000000000000
310
000000000000000000000000000000000000000000F2000000000000000000000000000000000000000000000000000000000000000000000000000000000000000000000000000000000000000000000000000000000000000000000000000000000000000000000000000000000000000000000000000000000000000000
310
000000000000000000000000000000000000000000000000000000000000000000F20000EC000000000000000000000000000000000000000000000000000000000000000000000000000000000000000000000000000000000000000000000000000000000000000000000000000000000000000000000000000000000000
310
0000000000000000000000000000000000000000000000F200000000000000000000000000000000000000000000000000000000000000000000000000000000000000000000000000000000000000000000000000000000000000000000000000000000000000000000000000000000000000000000000000000000000000
310
0000000000000000000000000000000000000000000000000000000000000000000000F2ECECECEC000000000000000000000000000000000000000000000000000000000000000000000000000000000000000000000000000000000000000000000000000000000000000000000000000000000000000000000000000000
310
00000000000000000000000000000000000000000000000000F20000000000000000000000000000000000000000000000000000000000000000000000000000000000000000000000000000000000000000000000000000000000000000000000000000000000000000000000000000000000000000000000000000000000
310
00000000000000000000000000000000000000000000000000000000000000000000000000F20000EC0000000000000000000000000000000000000000000000000000000000000000000000000000000000000000000000000000000000000000000000000000000000000000000000000000000000000000000000000000
310
000000000000000000000000000000000000000000000000000000F2000000000000000000000000000000000000000000000000000000000000000000000000000000000000000000000000000000000000000000000000000000000000000000000000000000000000000000000000000000000000000000000000000000
310
000000000000000000000000000000000000000000000000000000000000000000000000000000F20000EC000000000000000000000000000000000000000000000000000000000000000000000000000000000000000000000000000000000000000000000000000000000000000000000000000000000000000000000000
310
0000000000000000000000000000000000000000000000000000000000F200000000000000000000000000000000000000000000000000000000000000000000000000000000000000000000000000000000000000000000000000000000000000000000000000000000000000000000000000000000000000000000000000
310
0000000000000000000000000000000000000000000000000000000000000000000000000000000000F2ECECECEC000000000000000000000000000000000000000000000000000000000000000000000000000000000000000000000000000000000000000000000000000000000000000000000000000000000000000000
310
00000000000000000000000000000000000000000000000000000000000000F20000000000000000000000000000000000000000000000000000000000000000000000000000000000000000000000000000000000000000000000000000000000000000000000000000000000000000000000000000000000000000000000
310
00000000000000000000000000000000000000000000000000000000000000000000000000000000000000F20000EC0000000000000000000000000000000000000000000000000000000000000000000000000000000000000000000000000000000000000000000000000000000000000000000000000000000000000000
310
000000000000000000000000000000000000000000000000000000000000000000F2000000000000000000000000000000000000000000000000000000000000000000000000000000000000000000000000000000000000000000000000000000000000000000000000000000000000000000000000000000000000000000
310
000000000000000000000000000000000000000000000000000000000000000000000000000000000000000000F2000000000000000000000000000000000000000000000000000000000000000000000000000000000000000000000000000000000000000000000000000000000000000000000000000000000000000000
310
0000000000000000000000000000000000000000000000000000000000000000000000F200000000000000000000000000000000000000000000000000000000000000000000000000000000000000000000000000000000000000000000000000000000000000000000000000000000000000000000000000000000000000
310
0000000000000000000000000000000000000000000000000000000000000000000000000000000000000000000000F20000EC00000000000000000000000000000000000000000000000000000000000000000000000000000000000000000000000000000000000000000000000000000000000000000000000000000000
310
00000000000000000000000000000000000000000000000000000000000000000000000000F20000000000000000000000000000000000000000000000000000000000000000000000000000000000000000000000000000000000000000000000000000000000000000000000000000000000000000000000000000000000
310
00000000000000000000000028282828282828000000000000000000000000000000000000000000000000000000000000F2ECECECEC00000000000000000000000000000000000000000000000000000000000000000000000000000000000000000000000000000000000000000000000000000000000000000000000000
310
000000000000000000000000000000000000000000000000000000000000000000000000000000F2000000000000000000000000000000000000000000000000000000000000000000000000000000000000000000000000000000000000000000000000000000000000000000000000000000000000000000000000000000
310
000000000000000000000000000028282828282828000000000000000000000000000000000000000000000000000000000000F20000EC000000000000000000000000000000000000000000000000000000000000000000000000000000000000000000000000000000000000000000000000000000000000000000000000
310
0000000000000000000000000000000000000000000000000000000000000000000000000000000000F200000000000000000000000000000000000000000000000000000000000000000000000000000000000000000000000000000000000000000000000000000000000000000000000000000000000000000000000000
310
00BEBEBEBEBEBEBEBEBEBEBEBEBEBEBEBEBEBEBEBEBEBEBEBEBEBEBEBEBEBEBEBEBEBEBEBEBE000000000000000000000000000000F20000EC00000000000000000000000000000000000000000000000000000000000000000000000000000000000000000000000000000000000000000000000000000000000000000000
310
00000000000000000000000000000000000000000000000000000000000000000000000000000000000000F20000000000000000000000000000000000000000000000000000000000000000000000000000000000000000000000000000000000000000000000000000000000000000000000000000000000000000000000
310
000000BE000000000000000000000000000000BEBEBEBEBE000000000000000000000000000000BE000000000000000000000000000000F2ECECECEC00000000000000000000000000000000000000000000000000000000000000000000000000000000000000000000000000000000000000000000000000000000000000
310
000000000000000000000000000000000000000000000000000000000000000000000000000000000000000000F2000000000000000000000000000000000000000000000000000000000000000000000000000000000000000000000000000000000000000000000000000000000000000000000000000000000000000000
310
0000000000BE0000000000000000000000000000000000000000000000000000000000000000000000BE000000000000000000000000000000F20000EC000000000000000000000000000000000000000000000000000000000000000000000000000000000000000000000000000000000000000000000000000000000000
310
0000000000000000000000000000000000000000000000000000000000000000000000000000000000000000000000F200000000000000000000000000000000000000000000000000000000000000000000000000000000000000000000000000000000000000000000000000000000000000000000000000000000000000
310
000000BEBEBEBE2D2D2D2D2D2D2D2D2D2D2D2D2D2D2D2D2D2D2D2D2D2D2D2D2D2D2D2D2D2D2D2D2D2D2D2D2D000000000000000000000000000000F200000000000000000000000000000000000000000000000000000000000000000000000000000000000000000000000000000000000000000000000000000000000000
310
00000000000000000000000000000000000000000000000000000000000000000000000000000000000000000000000000F20000000000000000000000000000000000000000000000000000000000000000000000000000000000000000000000000000000000000000000000000000000000000000000000000000000000
310
0000000000BE0000002D2D2D2D2D2D2D2D2D2D2D2D2D2D2D2D2D2D2D2D2D2D2D2D2D2D2D2D2D2D2D2D2D2D2D2D2D000000000000000000000000000000F20000EC0000000000000000000000000000000000000000000000000000000000000000000000000000000000000000000000000000000000000000000000000000
310
000000000000000000000000000000000000000000000000000000000000000000000000000000000000000000000000000000F2000000000000000000000000000000000000000000000000000000000000000028282828282800000000000000000000000000000000000000000000000000000000000000000000000000
310
00000000000000BE0000002D2D2D2D2D2D2D2D2D2D2D2D2D2D2D2D2D2D2D2D2D2D2D2D2D2D2D2D2D2D2D2D2D2D2D2D2D000000000000000000000000000000F2ECECECEC0000000000000000000000000000000000000000000000000000000000000000000000000000000000000000000000000000000000000000000000
310
0000000000000000000000000000000000000000000000000000000000000000000000000000000000000000000000000000000000F200000000000000000000000000000000000000000000000000000000000000002828282800280000000000000000000000000000000000000000000000000000000000000000000000
310
000000000000000000BE0000002D2D2D2D2D2D2D2D2D2D2D2D2D2D2D2D2D2D2D2D2D2D2D2D2D2D2D2D2D2D2D2D2D2D2D2D2D000000000000000000000000000000F20000EC00000000000000000000000000000000000000000000000000000000000000000000000000000000000000000000000000000000000000000000
310
00000000000000000000000000000000000000000000000000000000000000000000000000000000000000000000000000000000000000F200000000000000000000000000000000BEBEBEBEBEBEBEBEBEBEBEBEBEBEBEBEBEBEBEBEBEBEBEBEBEBEBEBEBEBEBEBEBEBEBEBEBE000000000000000000000000000000000000
310
0000000000000000000000BE0000002D2D2D2D2D2D2D2D2D2D2D2D2D2D2D2D2D2D2D2D2D2D2D2D2D2D2D2D2D2D2D2D2D2D2D2D2D000000000000000000000000000000F20000EC0000000000000000000000000000000000000000000000000000000000000000000000000000000000000000000000000000000000000000
310
000000000000000000000000000000000000000000000000000000000000000000000000000000000000000000000000000000000000000000F200000000000000000000000000000000BE000000000000000000000000000000BEBEBEBEBE000000000000000000000000000000BE00000000000000000000000000000000
310
00000000000000000000000000BE0000002D2D2D2D2D2D2D2D2D2D2D2D2D2D2D2D2D2D2D2D2D2D2D2D2D2D2D2D2D2D2D2D2D2D2D2D2D000000000000000000000000000000F2ECECECEC0000000000000000000000000000000000000000000000000000000000000000000000000000000000000000000000000000000000
310
0000000000000000000000000000000000000000000000000000000000000000000000000000000000000000000000000000000000000000000000F200000000000000000000000000BEBEBEBE2D2D2D2D2D2D2D2D2D2D2D2D2D2D2D2D2D2D2D2D2D2D2D2D2D2D2D2D2D2D2D2D2D2D2DBE0000000000000000000000000000
310
000000000000000000000000000000BE0000002D2D2D2D2D2D2D2D2D2D2D2D2D2D2D2D2D2D2D2D2D2D2D2D2D2D2D2D2D2D2D2D2D2D2D2D2D000000000000000000000000000000F20000EC00000000000000000000000000000000000000000000000000000000000000000000000000000000000000000000000000000000
310
00000000000000000000000000000000000000000000000000000000000000000000000000000000000000000000000000000000000000000000000000F200000000000000000000000000BE00002D2D2D2D2D2D2D2D2D2D2D2D2D2D2D2D2D2D2D2D2D2D2D2D2D2D2D2D2D2D2D2D2D2D2D2D2D000000000000000000000000
310
0000000000000000000000000000000000BE0000002D2D2D2D2D2D2D2D2D2D2D2D2D2D2D2D2D2D2D2D2D2D2D2D2D2D2D2D2D2D2D2D2D2D2D2D2D000000000000000000000000000000F20000000000000000000000000000000000000000000000000000000000000000000000000000000000000000000000000000000000
310
000000000000000000000000000000000000000000000000000000000000000000000000000000000000000000000000000000000000000000000000000000F200000000000000000000000000BE0000002D2D2D2D2D2D2D2D2D2D2D2D2D2D2D2D2D2D2D2D2D2D2D2D2D2D2D2D2D2D2D2D2D2D2D2D00000000000000000000
310
00000000000000000000000000000000000000BE0000002D2D2D2D2D2D2D2D2D2D2D2D2D2D2D2D2D2D2D2D2D2D2D2D2D2D2D2D2D2D2D2D2D2D2D2D2D000000000000000000000000000000F2000000000000000000000000000000000000000000000000000000000000000000000000000000000000000000000000000000
310
0000000000000000000000000000000000000000000000000000000000000000000000000000000000000000000000000000000000000000000000000000000000F200000000000000000000000000BE0000002D2D2D2D2D2D2D2D2D2D2D2D2D2D2D2D2D2D2D2D2D2D2D2D2D2D2D2D2D2D2D2D2D2D2D2D0000000000000000
310
000000000000000000000000000000000000000000BE0000002D2D2D2D2D2D2D2D2D2D2D2D2D2D2D2D2D2D2D2D2D2D2D2D2D2D2D2D2D2D2D2D2D2D2D2D2D000000000000000000000000000000F200000000000000000000000000000000000000000000000000000000000000000000000000000000000000000000000000
310
00000000000000000000000000000000000000000000000000000000000000000000000000000000000000000000000000000000000000000000000000000000000000F200000000000000000000000000BE0000002D2D2D2D2D2D2D2D2D2D2D2D2D2D2D2D2D2D2D2D2D2D2D2D2D2D2D2D2D2D2D2D2D2D2D2D000000000000
310
0000000000000000000000000000000000000000000000BE0000002D2D2D2D2D2D2D2D2D2D2D2D2D2D2D2D2D2D2D2D2D2D2D2D2D2D2D2D2D2D2D2D2D2D2D2D2D000000000000000000000000000000F20000000000000000000000000000000000000000000000000000000000000000000000000000000000000000000000
310
000000000000000000000000000000000000000000000000000000000000000000000000000000000000000000000000000000000000000000000000000000000000000000F200000000000000000000000000BE0000002D2D2D2D2D2D2D2D2D2D2D2D2D2D2D2D2D2D2D2D2D2D2D2D2D2D2D2D2D2D2D2D2D2D2D2D00000000
310
00000000000000000000000000000000000000000000000000BE0000002D2D2D2D2D2D2D2D2D2D2D2D2D2D2D2D2D2D2D2D2D2D2D2D2D2D2D2D2D2D2D2D2D2D2D2D2D000000000000000000000000000000F2000000000000000000000000000000000000000000000000000000000000000000000000000000000000000000
310
0000000000000000000000000000000000000000000000000000000000000000000000000000000000000000000000000000000000000000000000000000000000000000000000F2000000000000000000000000BEBE0000002D2D2D2D2D2D2D2D2D2D2D2D2D2D2D2D2D2D2D2D2D2D2D2D2D2D2D2D2D2D2D2D2D2D2D2D0000
310
000000000000000000000000000000000000000000000000000000BE0000002D2D2D2D2D2D2D2D2D2D2D2D2D2D2D2D2D2D2D2D2D2D2D2D2D2D2D2D2D2D2D2D2D2D2D2D2D000000000000000000000000000000F200000000000000000000000000000000000000000000000000000000000000000000000000000000000000
310
00000000000000000000000000000000000000000000000000000000000000000000000000000000000000000000000000000000000000000000000000000000000000000000000000F2000000000000000000000000BEBE0000002D2D2D2D2D2D2D2D2D2D2D2D2D2D2D2D2D2D2D2D2D2D2D2D2D2D2D2D2D2D2D2D2D2D2D2D
310
0000000000000000000000000000000000000000000000000000000000BE0000002D2D2D2D2D2D2D2D2D2D2D2D2D2D2D2D2D2D2D2D2D2D2D2D2D2D2D2D2D2D2D2D2D2D2D2D2D000000000000000000000000000000F20000000000000000000000000000000000000000000000000000000000000000000000000000000000
310
000000000000000000000000000000000000000000000000000000000000000000000000000000000000000000000000000000000000000000000000000000000000000000000000000000F2000000000000000000000000BEBE0000002D2D2D2D2D2D2D2D2D2D2D2D2D2D2D2D2D2D2D2D2D2D2D2D2D2D2D2D2D2D2D2D2D2D
310
2D2D0000000000000000000000000000000000000000000000000000000000BE0000002D2D2D2D2D2D2D2D2D2D2D2D2D2D2D2D2D2D2D2D2D2D2D2D2D2D2D2D2D2D2D2D2D2D2D2D2D000000000000000000000000000000F2000000000000000000000000000000000000000000000000000000000000000000000000000000
310
0000000000000000000000000000000000000000000000000000000000000000000000000000000000000000000000000000000000000000000000000000000000000000000000000000000000F200000000000000000000000000BE0000002D2D2D2D2D2D2D2D2D2D2D2D2D2D2D2D2D2D2D2D2D2D2D2D2D2D2D2D2D2D2D2D
310
2D2D2D2D0000000000000000000000000000000000000000000000000000000000BE0000002D2D2D2D2D2D2D2D2D2D2D2D2D2D2D2D2D2D2D2D2D2D2D2D2D2D2D2D2D2D2D2D2D2D2D2D2D000000000000000000000000000000F200000000000000000000000000000000000000000000000000000000000000000000000000
310
00000000000000000000000000000000000000000000000000000000000000000000000000000000000000000000000000000000000000000000000000000000000000000000000000000000000000F200000000000000000000000000BE0000002D2D2D2D2D2D2D2D2D2D2D2D2D2D2D2D2D2D2D2D2D2D2D2D2D2D2D2D2D2D
310
2D2D2D2D2D2D0000000000000000000000000000000000000000000000000000000000BE0000002D2D2D2D2D2D2D2D2D2D2D2D2D2D2D2D2D2D2D2D2D2D2D2D2D2D2D2D2D2D2D2D2D2D2D2D2D000000000000000000000000000000F20000000000000000000000000000000000000000000000000000000000000000000000
310
000000000000000000000000000000000000000000000000000000000000000000000000000000000000000000000000000000000000000000000000000000000000000000000000000000000000000000F200000000000000000000000000BE0000002D2D2D2D2D2D2D2D2D2D2D2D2D2D2D2D2D2D2D2D2D2D2D2D2D2D2D2D
310
2D2D2D2D2D2D2D2D0000000000000000000000000000000000000000000000000000000000BE0000002D2D2D2D2D2D2D2D2D2D2D2D2D2D2D2D2D2D2D2D2D2D2D2D2D2D2D2D2D2D2D2D2D2D2D2D2D000000000000000000000000000000F2000000000000000000000000000000000000000000000000000000000000000000
310
0000000000000000000000000000000000000000000000000000000000000000000000000000000000000000000000000000000000000000000000000000000000000000000000000000000000000000000000F200000000000000000000000000BE0000002D2D2D2D2D2D2D2D2D2D2D2D2D2D2D2D2D2D2D2D2D2D2D2D2D2D
310
2D2D2D2D2D2D2D2D2D2D0000000000000000000000000000000000000000000000000000000000BE0000002D2D2D2D2D2D2D2D2D2D2D2D2D2D2D2D2D2D2D2D2D2D2D2D2D2D2D2D2D2D2D2D2D2D2D2D2D000000000000000000000000000000F200000000000000000000000000000000000000000000000000000000000000
310
00000000000000000000000000000000000000000000000000000000000000000000000000000000000000000000000000000000000000000000000000000000000000000000000000000000000000000000000000F200000000000000000000000000BEBEBEBE2D2D2D2D2D2D2D2D2D2D2D2D2D2D2D2D2D2D2D2D2D2D2D2D
310
2D2D2D2D2D2D2D2D2D2D2D2D0000000000000000000000000000000000000000000000000000000000BE0000002D2D2D2D2D2D2D2D2D2D2D2D2D2D2D2D2D2D2D2D2D2D2D2D2D2D2D2D2D2D2D2D2D2D2D2D2D000000000000000000000000000000F2F200000000000000000000000000000000000000000000000000000000
310
000000000000000000000000000000000000000000000000000000000000000000000000000000000000000000000000000000000000000000000000000000000000000000000000000000000000000000000000000000F200000000000000000000000000000000BEBE000000000000000000000000000000000000000000
310
00000000000000000000000000000000000000000000000000000000000000000000000000000000000000BEBEBEBEBEBE2D2D2D2D2D2D2D2D2D2D2D2D2D2D2D2D2D2D2D2D2D2D2D2D2D2D2D2D2D2D2D2D2D2D2D000000000000000000000000000000F2000000000000000000000000000000000000000000000000000000
310
0000000000000000000000000000000000000000000000000000000000000000000000000000000000000000000000000000000000000000000000000000000000000000000000000000000000000000000000000000000000F200000000000000000000000000000000BEBE00000000000000000000000000000000000000
310
00000000000000000000000000000000000000000000000000000000000000000000000000000000000000000000000000BEBE0000000000000000000000000000000000000000000000000000000000000000000000000000000000000000000000000000F200000000000000000000000000000000000000000000000000
310
00000000000000000000000000000000000000000000000000000000000000000000000000000000000000000000000000000000000000000000000000000000000000000000000000000000000000000000000000000000000000F20000000000000000000000000000BEBEBEBEBEBEBEBE00000000000000000000000000
310
000000000000000000000000000000000000000000000000000000000000000000000000000000000000000000000000BEBEBEBEBEBEBEBE0000000000000000000000000000000000000000000000000000000000000000000000000000000000000000000000F20000000000000000000000000000000000000000000000
310
000000000000000000000000000000000000000000000000000000000000000000000000000000000000000000000000000000000000000000000000000000000000000000000000000000000000000000000000000000000000000000F20000000000282828282828280000BEBEBE00BEBEBEBE0000000000000000000000
310
0000000000000000000000000000000000000000000000000000000000000000000000000000000000002828002828282800BEBEBEBEBEBEBEBE0000000000000000000000000000000000000000000000000000000000000000000000000000000000000000000000F2000000000000000000000000000000000000000000
310
0000000000000000000000000000000000000000000000000000000000000000000000000000000000000000000000000000000000000000000000000000000000000000000000000000000000000000000000000000000000000000000000F200000000002828282828282800000000000000000000000000000000000000
310
0000000000000000000000000000000000000000000000000000000000000000000000000000000000000028282828282828280000000000000000000000000000000000000000000000000000000000000000000000000000000000000000000000000000000000000000F200000000000000000000000000000000000000
310
00000000000000000000000000000000000000000000000000000000000000000000000000000000000000000000000000000000000000000000000000000000000000000000000000000000000000000000000000000000000000000000000000F20000000000000000000000000000000000000000000000000000000000
310
00000000000000000000000000000000000000000000000000000000000000000000000000000000000000000000002800282828280000000000000000000000000000000000000000000000000000000000000000000000000000000000000000000000000000000000000000F20000000000000000000000000000000000
310
000000000000000000000000000000000000000000000000000000000000000000000000000000000000000000000000000000000000000000000000000000000000000000000000000000000000000000000000000000000000000000000000000000F2000000000000000000000000000000000000000000000000000000
310
000000000000000000000000000000000000000000000000000000000000000000000000000000000000000000000000000000000000000000000000000000000000000000000000000000000000000000000000000000000000000000000000000000000000000000000000000000F2000000000000000000000000000000
310
0000000000000000000000000000000000000000000000000000000000000000000000000000000000000000000000000000000000000000000000000000000000000000000000000000000000000000000000000000000000000000000000000000000000F200000000000000000000000000000000000000000000000000
310
0000000000000000000000000000000000000000000000000000000000000000000000000000000000000000000000000000000000000000000000000000000000000000000000000000000000000000000000000000000000000000000000000000000000000000000000000000000000F200000000000000000000000000
310
00000000000000000000000000000000000000000000000000000000000000000000000000000000000000000000000000000000000000000000000000000000000000000000000000000000000000000000000000000000000000000000000000000000000000F20000000000000000000000000000000000000000000000
310
00000000000000000000000000000000000000000000000000000000000000000000000000000000000000000000000000000000000000000000000000000000000000000000000000000000000000000000000000000000000000000000000000000000000000000000000000000000000000F20000000000000000000000
310
000000000000000000000000000000000000000000000000000000000000000000000000000000000000000000000000000000000000000000000000000000000000000000000000000000000000000000000000000000000000000000000000000000000000000000F2000000000000000000000000000000000000000000
310
000000000000000000000000000000000000000000000000000000000000000000000000000000000000000000000000000000000000000000000000000000000000000000000000000000000000000000000000000000000000000000000000000000000000000000000000000000000000000000F2000000000000000000
310
0000000000000000000000000000000000000000000000000000000000000000000000000000000000000000000000000000000000000000000000000000000000000000000000000000000000000000000000000000000000000000000000000000000000000000000000F200000000000000000000000000000000000000
310
0000000000000000000000000000000000000000000000000000000000000000000000000000000000000000000000000000000000000000000000000000000000000000000000000000000000000000000000000000000000000000000000000000000000000000000000000000000000000000000000F200000000000000
310
00000000000000000000000000000000000000000000000000000000000000000000000000000000000000000000000000000000000000000000000000000000000000000000000000000000000000000000000000000000000000000000000000000000000000000000000000F20000000000000000000000000000000000
310
00000000000000000000000000000000000000000000000000000000000000000000000000000000000000000000000000000000000000000000000000000000000000000000000000000000000000000000000000000000000000000000000000000000000000000000000000000000000000000000000000F20000000000
310
000000000000000000000000000000000000000000000000000000000000000000000000000000000000000000000000000000000000000000000000000000000000000000000000000000000000000000000000000000000000000000000000000000000000000000000000000000F2000000000000000000000000000000
310
000000000000000000000000000000000000000000000000000000000000000000000000000000000000000000000000000000000000000000000000000000000000000000000000000000000000000000000000000028282828282828000000000000000000000000000000000000000000000000000000000000F2000000
310
0000000000000000000000000000000000000000000000000000000000000000000000000000000000000000000000000000000000000000000000000000000000000000000000000000000000000000000000000000000000000000000000000000000000000000000000000000000000F200000000000000000000000000
310
0000000000000000000000000000000000000000000000000000000000000000000000000000000000000000000000000000000000000000000000000000000000000000000000000000000000000000000000000000000028282828282828000000000000000000000000000000000000000000000000000000000000F200
310
00000000000000000000000000000000000000000000000000000000000000000000000000000000000000000000000000000000000000000000000000000000000000000000000000000000000000000000000000000000000000000000000000000000000000000000000000000000000000F20000000000000000000000
310
000000000000000000000000000000000000000000000000000000000000000000000000000000000000000000000000000000000000000000000000000000000000000000000000000000BEBEBEBEBEBEBEBEBEBEBEBEBEBEBEBEBEBEBEBEBEBEBEBEBEBEBEBEBEBEBEBEBEBEBEBEBE000000000000000000000000000000
310
F20000000000000000000000000000000000000000000000000000000000000000000000000000000000000000000000000000000000000000000000000000000000000000000000000000000000000000000000000000000000000000000000000000000000000000000000000000000000000000F2000000000000000000
310
0000000000000000000000000000000000000000000000000000000000000000000000000000000000000000000000000000000000000000000000000000000000000000000000000000000000BE000000000000000000000000000000BEBEBEBEBE000000000000000000000000000000BE00000000000000000000000000
310
0000F20000000000000000000000000000000000000000000000000000000000000000000000000000000000000000000000000000000000000000000000000000000000000000000000000000000000000000000000000000000000000000000000000000000000000000000000000000000000000000F200000000000000
310
00000000000000000000000000000000000000000000000000000000000000000000000000000000000000000000000000000000000000000000000000000000000000000000000000000000000000BE0000000000000000000000000000000000000000000000000000000000000000000000BE0000000000000000000000
310
00000000F20000000000000000000000000000000000000000000000000000000000000000000000000000000000000000000000000000000000000000000000000000000000000000000000000000000000000000000000000000000000000000000000000000000000000000000000000000000000000000F20000000000
310
0000000000000000000000000000000000000000000000000000000000000000000000000000000000000000000000000000000000000000000000000000000000000000000000000000000000BEBEBEBE2D2D2D2D2D2D2D2D2D2D2D2D2D2D2D2D2D2D2D2D2D2D2D2D2D2D2D2D2D2D2D2D2D2D2D2D2D000000000000000000
310
000000000000F20000000000000000000000000000000000000000000000000000000000000000000000000000000000000000000000000000000000000000000000000000000000000000000000000000000000000000000000000000000000000000000000000000000000000000000000000000000000000000F2000000
310
00000000000000000000000000000000000000000000000000000000000000000000000000000000000000000000000000000000000000000000000000000000000000000000000000000000000000BE0000002D2D2D2D2D2D2D2D2D2D2D2D2D2D2D2D2D2D2D2D2D2D2D2D2D2D2D2D2D2D2D2D2D2D2D2D2D00000000000000
310
0000000000000000F20000000000000000000000000000000000000000000000000000000000000000000000000000000000000000000000000000000000000000000000000000000000000000000000000000000000000000000000000000000000000000000000000000000000000000000000000000000000000000F200
310
000000000000000000000000000000000000000000000000000000000000000000000000000000000000000000000000000000000000000000000000000000000000000000000000000000000000000000BE0000002D2D2D2D2D2D2D2D2D2D2D2D2D2D2D2D2D2D2D2D2D2D2D2D2D2D2D2D2D2D2D2D2D2D2D2D2D0000000000
310
00000000000000000000F20000000000000000000000000000000000000000000000000000000000000000000000000000000000000000000000000000000000000000000000000000000000000000000000000000000000000000000000000000000000000000000000000000000000000000000000000000000000000000
310
F200000000000000000000000000000000000000000000000000000000000000002828282828280000000000000000000000000000000000000000000000000000000000000000000000000000000000000000BE0000002D2D2D2D2D2D2D2D2D2D2D2D2D2D2D2D2D2D2D2D2D2D2D2D2D2D2D2D2D2D2D2D2D2D2D2D2D000000
310
000000000000000000000000F2000000000000000000000000000000000000000000000000000000000000000000000000000000000000000000000000000000000000000000000000000000000000000000000000000000000000000000000000000000000000000000000000000000000000000000000000000000000000
310
0000F200000000000000000000000000000000000000000000000000000000000000002828002800000000000000000000000000000000000000000000000000000000000000000000000000000000000000000000BE0000002D2D2D2D2D2D2D2D2D2D2D2D2D2D2D2D2D2D2D2D2D2D2D2D2D2D2D2D2D2D2D2D2D2D2D2D2D00
310
0000000000000000000000000000F200000000000000000000000000000000000000000000000000000000000000000000000000000000000000000000000000000000000000000000000000000000000000000000000000000000000000000000000000000000000000000000000000000000000000000000000000000000
310
00000000F200000000000000000000000000000000BEBEBEBEBEBEBEBEBEBEBEBEBEBEBEBEBEBEBEBEBEBEBEBEBEBEBEBEBEBEBEBEBEBEBEBEBE0000000000000000000000000000000000000000000000000000000000BE0000002D2D2D2D2D2D2D2D2D2D2D2D2D2D2D2D2D2D2D2D2D2D2D2D2D2D2D2D2D2D2D2D2D2D2D2D
310
2D000000000000000000000000000000F20000000000000000000000000000000000000000000000000000000000000000000000000000000000000000000000000000000000000000000000000000000000000000000000000000000000000000000000000000000000000000000000000000000000000000000000000000
310
000000000000F200000000000000000000000000000000BE0000000000000000000000000000000000000000000000000000000000000000000000BE0000000000000000000000000000000000000000000000000000000000BE0000002D2D2D2D2D2D2D2D2D2D2D2D2D2D2D2D2D2D2D2D2D2D2D2D2D2D2D2D2D2D2D2D2D2D
310
2D2D2D000000000000000000000000000000F2000000000000000000000000000000000000000000000000000000000000000000000000000000000000000000000000000000000000000000000000000000000000000000000000000000000000000000000000000000000000000000000000000000000000000000000000
310
0000000000000000F200000000000000000000000000BEBEBEBE2D2D2D2D2D2D2D2D2D2D2D2D2D2D2D2D2D2D2D2D2D2D2D2D2D2D2D2D2D2D2D2D2D2D2DBE0000000000000000000000000000000000000000000000000000000000BE0000002D2D2D2D2D2D2D2D2D2D2D2D2D2D2D2D2D2D2D2D2D2D2D2D2D2D2D2D2D2D2D2D
310
2D2D2D2D2D000000000000000000000000000000F200000000000000000000000000000000000000000000000000000000000000000000000000000000000000000000000000000000000000000000000000000000000000000000000000000000000000000000000000000000000000000000000000000000000000000000
310
00000000000000000000F200000000000000000000000000BE00002D2D2D2D2D2D2D2D2D2D2D2D2D2D2D2D2D2D2D2D2D2D2D2D2D2D2D2D2D2D2D2D2D2D2D2D2D0000000000000000000000000000000000000000000000000000000000BE0000002D2D2D2D2D2D2D2D2D2D2D2D2D2D2D2D2D2D2D2D2D2D2D2D2D2D2D2D2D2D
310
2D2D2D2D2D2D2D000000000000000000000000000000F20000000000000000000000000000000000000000000000000000000000000000000000000000000000000000000000000000000000000000000000000000000000000000000000000000000000000000000000000000000000000000000000000000000000000000
310
000000000000000000000000F200000000000000000000000000BE0000002D2D2D2D2D2D2D2D2D2D2D2D2D2D2D2D2D2D2D2D2D2D2D2D2D2D2D2D2D2D2D2D2D2D2D2D0000000000000000000000000000000000000000000000000000000000BE0000002D2D2D2D2D2D2D2D2D2D2D2D2D2D2D2D2D2D2D2D2D2D2D2D2D2D2D2D
310
2D2D2D2D2D2D2D2D2D000000000000000000000000000000F2000000000000000000000000000000000000000000000000000000000000000000000000000000000000000000000000000000000000000000000000000000000000000000000000000000000000000000000000000000000000000000000000000000000000
310
0000000000000000000000000000F200000000000000000000000000BE0000002D2D2D2D2D2D2D2D2D2D2D2D2D2D2D2D2D2D2D2D2D2D2D2D2D2D2D2D2D2D2D2D2D2D2D2D0000000000000000000000000000000000000000000000000000000000BE0000002D2D2D2D2D2D2D2D2D2D2D2D2D2D2D2D2D2D2D2D2D2D2D2D2D2D
310
2D2D2D2D2D2D2D2D2D2D2D000000000000000000000000000000F200000000000000000000000000000000000000000000000000000000000000000000000000000000000000000000000000000000000000000000000000000000000000000000000000000000000000000000000000000000000000000000000000000000
310
00000000000000000000000000000000F2000000000000000000000000BEBE0000002D2D2D2D2D2D2D2D2D2D2D2D2D2D2D2D2D2D2D2D2D2D2D2D2D2D2D2D2D2D2D2D2D2D2D2D0000000000000000000000000000000000000000000000000000000000BE0000002D2D2D2D2D2D2D2D2D2D2D2D2D2D2D2D2D2D2D2D2D2D2D2D
310
2D2D2D2D2D2D2D2D2D2D2D2D2D000000000000000000000000000000F20000000000000000000000000000000000000000000000000000000000000000000000000000000000000000000000000000000000000000000000000000000000000000000000000000000000000000000000000000000000000000000000000000
310
000000000000000000000000000000000000F2000000000000000000000000BEBE0000002D2D2D2D2D2D2D2D2D2D2D2D2D2D2D2D2D2D2D2D2D2D2D2D2D2D2D2D2D2D2D2D2D2D2D2D0000000000000000000000000000000000000000000000000000000000BE0000002D2D2D2D2D2D2D2D2D2D2D2D2D2D2D2D2D2D2D2D2D2D
310
2D2D2D2D2D2D2D2D2D2D2D2D2D2D2D000000000000000000000000000000F2000000000000000000000000000000000000000000000000000000000000000000000000000000000000000000000000000000000000000000000000000000000000000000000000000000000000000000000000000000000000000000000000
310
0000000000000000000000000000000000000000F2000000000000000000000000BEBE0000002D2D2D2D2D2D2D2D2D2D2D2D2D2D2D2D2D2D2D2D2D2D2D2D2D2D2D2D2D2D2D2D2D2D2D2D0000000000000000000000000000000000000000000000000000000000BE0000002D2D2D2D2D2D2D2D2D2D2D2D2D2D2D2D2D2D2D2D
310
2D2D2D2D2D2D2D2D2D2D2D2D2D2D2D2D2D000000000000000000000000000000F200000000000000000000000000000000000000000000000000000000000000000000000000000000000000000000000000000000000000000000000000000000000000000000000000000000000000000000000000000000000000000000
310
00000000000000000000000000000000000000000000F200000000000000000000000000BE0000002D2D2D2D2D2D2D2D2D2D2D2D2D2D2D2D2D2D2D2D2D2D2D2D2D2D2D2D2D2D2D2D2D2D2D2D0000000000000000000000000000000000000000000000000000000000BE0000002D2D2D2D2D2D2D2D2D2D2D2D2D2D2D2D2D2D
310
2D2D2D2D2D2D2D2D2D2D2D2D2D2D2D2D2D2D2D000000000000000000000000000000F20000000000000000000000000000000000000000000000000000000000000000000000000000000000000000000000000000000000000000000000000000000000000000000000000000000000000000000000000000000000000000
310
000000000000000000000000000000000000000000000000F200000000000000000000000000BE0000002D2D2D2D2D2D2D2D2D2D2D2D2D2D2D2D2D2D2D2D2D2D2D2D2D2D2D2D2D2D2D2D2D2D2D2D0000000000000000000000000000000000000000000000000000000000BE0000002D2D2D2D2D2D2D2D2D2D2D2D2D2D2D2D
310
2D2D2D2D2D2D2D2D2D2D2D2D2D2D2D2D2D2D2D2D2D000000000000000000000000000000F2000000000000000000000000000000000000000000000000000000000000000000000000000000000000000000000000000000000000000000000000000000000000000000000000000000000000000000000000000000000000
310
0000000000000000000000000000000000000000000000000000F200000000000000000000000000BE00002D2D2D2D2D2D2D2D2D2D2D2D2D2D2D2D2D2D2D2D2D2D2D2D2D2D2D2D2D2D2D2D2D2D2D2D2D0000000000000000000000000000000000000000000000000000000000BE0000002D2D2D2D2D2D2D2D2D2D2D2D2D2D
310
2D2D2D2D2D2D2D2D2D2D2D2D2D2D2D2D2D2D2D2D2D2D2D000000000000000000000000000000F200000000000000000000000000000000000000000000000000000000000000000000000000000000000000000000000000000000000000000000000000000000000000000000000000000000000000000000000000000000
310
00000000000000000000000000000000000000000000000000000000F200000000000000000000000000BEBEBEBEBE2D2D2D2D2D2D2D2D2D2D2D2D2D2D2D2D2D2D2D2D2D2D2D2D2D2D2D2D2D2D2D2D2D2D2D0000000000000000000000000000000000000000000000000000000000BEBEBEBEBEBE2D2D2D2D2D2D2D2D2D2D
310
2D2D2D2D2D2D2D2D2D2D2D2D2D2D2D2D2D2D2D2D2D2D2D2D2D000000000000000000000000000000F20000000000000000000000000000000000000000000000000000000000000000000000000000000000000000000000000000000000000000000000000000000000000000000000000000000000000000000000000000
310
000000000000000000000000000000000000000000000000000000000000F200000000000000000000000000000000BEBE0000000000000000000000000000000000000000000000000000000000000000000000000000000000000000000000000000000000000000000000000000000000000000BEBE0000000000000000
310
000000000000000000000000000000000000000000000000000000000000000000000000000000000000F2000000000000000000000000000000000000000000000000000000000000000000000000000000000000000000000000000000000000000000000000000000000000000000000000000000000000000000000000
310
0000000000000000000000000000000000000000000000000000000000000000F20000000000000000000000000000BEBEBEBEBEBEBEBE00000000000000000000000000000000000000000000000000000000000000000000000000000000000000000000000000000000000000000000000000BEBEBEBEBEBEBEBE000000
310
0000000000000000000000000000000000000000000000000000000000000000000000000000000000000000F200000000000000000000000000000000000000000000000000000000000000000000000000000000000000000000000000000000000000000000000000000000000000000000000000000000000000000000
310
00000000000000000000000000000000000000000000000000000000000000000000F20000000000282828282828000000BEBEBE00BEBEBEBE00000000000000000000000000000000000000000000000000000000000000000000000000000000000000000000000000000000282828002828282800BEBEBEBEBEBEBEBE00
310
00000000000000000000000000000000000000000000000000000000000000000000000000000000000000000000F20000000000000000000000000000000000000000000000000000000000000000000000000000000000000000000000000000000000000000000000000000000000000000000000000000000000000000
310
000000000000000000000000000000000000000000000000000000000000000000000000F2000000000028282828282828000000000000000000000000000000000000000000000000000000000000000000000000000000000000000000000000000000000000000000000000000028282828282828280000000000000000
310
000000000000000000000000000000000000000000000000000000000000000000000000000000000000000000000000F2000000000000000000000000000000000000000000000000000000000000000000000000000000000000000000000000000000000000000000000000000000000000000000000000000000000000
310
0000000000000000000000000000000000000000000000000000000000000000000000000000F200000000002828282828282800000000000000000000000000000000000000000000000000000000000000000000000000000000000000000000000000000000000000000000000000000000000000000000000000000000
310
0000000000000000000000000000000000000000000000000000000000000000000000000000000000000000000000000000F200000000000000000000000000000000000000000000000000000000000000000000000000000000000000000000000000000000000000000000000000000000000000000000000000000000
310
00000000000000000000000000000000000000000000000000000000000000000000000000000000F20000000028282828280028280000000000000000000000000000000000000000000000000000000000000000000000000000000000000000000000000000000000000000000000000000000000000000000000000000
310
00000000000000000000000000000000000000000000000000000000000000000000000000000000000000000000000000000000F20000000000000000000000000000000000000000000000000000000000000000000000000000000000000000000000000000000000000000000000000000000000000000000000000000
310
000000000000000000000000000000000000000000000000000000000000000000000000000000000000F2000000002828282828282828000000000000000000000000000000000000000000000000000000000000000000000000000000000000000000000000000000000000000000000000000000000000000000000000
310
000000000000000000000000000000000000000000000000000000000000000000000000000000000000000000000000000000000000F2000000000000000000000000000000000000000000000000000000000000000000000000000000000000000000000000000000000000000000000000000000000000000000000000
310
0000000000000000000000000000000000000000000000000000000000000000000000000000000000000000F200000000002828282800280000000000000000000000000000000000000000000000000000000000000000000000000000000000000000000000000000000000000000000000000000000000000000000000
310
0000000000000000000000000000000000000000000000000000000000000000000000000000000000000000000000000000000000000000F200000000000000000000000000000000000000000000000000000000000000000000000000000000000000000000000000000000000000000000000000000000000000000000
310
00000000000000000000000000000000000000000000000000000000000000000000000000000000000000000000F20000000000000000000000000000000000000000000000000000000000000000000000000000000000000000000000000000000000000000000000000000000000000000000000000000000000000000
310
00000000000000000000000000000000000000000000000000000000000000000000000000000000000000000000000000000000000000000000F20000000000000000000000000000000000000000000000000000000000000000000000000000000000000000000000000000000000000000000000000000000000000000
310
000000000000000000000000000000000000000000000000000000000000000000000000000000000000000000000000F2000000000000000000000000000000000000000000000000000000000000000000000000000000000000000000000000000000000000000000000000000000000000000000000000000000000000
310
000000000000000000000000000000000000000000000000000000000000000000000000000000000000000000000000000000000000000000000000F2000000000000000000000000000000000000000000000000000000000000000000000000000000000000000000000000000000000000000000000000000000000000
310
0000000000000000000000000000000000000000000000000000000000000000000000000000000000000000000000000000F200000000000000000000000000000000000000000000000000000000000000000000000000000000000000000000000000000000000000000000000000000000000000000000000000000000
310
0000000000000000000000000000000000000000000000000000000000000000000000000000000000000000000000000000000000000000000000000000F200000000000000000000000000000000000000000000000000000000000000000000000000000000000000000000000000000000000000000000000000000000
310
00000000000000000000000000000000000000000000000000000000000000000000000000000000000000000000000000000000F2F2F2F2F2F2F2F2F2F2F2F2F2F2F2F2F2F2F2F2F2F2F2F2F2F2F2F2F2F2F2F2F2F2F2F2F2F2F2F2F2F2F2F2F2F2F2F2F2F2F2F2F2F2F2F2F2F2F2F2F2F2F2F2F2F2F2F2F2F2ECF2F2F2F2
310
F2F2F2F2F2F2F2F2F2F2F2F2F2F2F2F2F2F2F2F2F2F2F2F2F2F2F2F2F2F2F2F2F2F2F2F2F2F2F2F2F2F2F2F2F2F2F2F2F2F2F2F2F2F2F2F2F2F2F2F2F2F2F2F2F20000000000000000000000000000000000000000000000000000000000000000000000000000000000000000000000000000000000000000000000000000
310
00000000000000000000000000000000000000000000000000000000000000000000000000000000000000000000000000000000000000000000000000000000000000000000000000000000000000000000000000000000000000000000000000000000000000000000000000000000000000000000000000000000000000
310
00000000000000000000000000000000000000000000000000000000000000000000000000000000000000000000000000000000000000000000000000000000000000000000000000000000000000000000000000000000000000000000000000000000000000000000000000000000000000000000000000000000000000
  0
XRECORD
  5
D25
102
{ACAD_REACTORS
330
FE
102
}
330
FE
100
AcDbXrecord
280
     1
102
MATERIAL
148
0.0
149
0.0
149
0.0
 93
        0
 94
      127
282
     0
 72
     0
 77
     0
171
     0
175
     0
179
     0
273
     0
  0
XRECORD
  5
100
102
{ACAD_REACTORS
330
FE
102
}
330
FE
100
AcDbXrecord
280
     1
270
     1
271
     1
  0
XRECORD
  5
FF
102
{ACAD_REACTORS
330
FE
102
}
330
FE
100
AcDbXrecord
280
     1
270
     1
271
     1
  0
XRECORD
  5
103
102
{ACAD_REACTORS
330
FE
102
}
330
FE
100
AcDbXrecord
280
     1
270
     1
271
     1
  0
XRECORD
  5
102
102
{ACAD_REACTORS
330
FE
102
}
330
FE
100
AcDbXrecord
280
     1
270
     1
271
     1
  0
XRECORD
  5
104
102
{ACAD_REACTORS
330
FE
102
}
330
FE
100
AcDbXrecord
280
     1
270
     1
271
     1
  0
XRECORD
  5
101
102
{ACAD_REACTORS
330
FE
102
}
330
FE
100
AcDbXrecord
280
     1
270
     1
271
     1
  0
XRECORD
  5
D24
102
{ACAD_REACTORS
330
F6
102
}
330
F6
100
AcDbXrecord
280
     1
102
MATERIAL
148
0.0
149
0.0
149
0.0
 93
        0
 94
      127
282
     0
 72
     0
 77
     0
171
     0
175
     0
179
     0
273
     0
  0
XRECORD
  5
F8
102
{ACAD_REACTORS
330
F6
102
}
330
F6
100
AcDbXrecord
280
     1
270
     1
271
     1
  0
XRECORD
  5
F7
102
{ACAD_REACTORS
330
F6
102
}
330
F6
100
AcDbXrecord
280
     1
270
     1
271
     1
  0
XRECORD
  5
FB
102
{ACAD_REACTORS
330
F6
102
}
330
F6
100
AcDbXrecord
280
     1
270
     1
271
     1
  0
XRECORD
  5
FA
102
{ACAD_REACTORS
330
F6
102
}
330
F6
100
AcDbXrecord
280
     1
270
     1
271
     1
  0
XRECORD
  5
FC
102
{ACAD_REACTORS
330
F6
102
}
330
F6
100
AcDbXrecord
280
     1
270
     1
271
     1
  0
XRECORD
  5
F9
102
{ACAD_REACTORS
330
F6
102
}
330
F6
100
AcDbXrecord
280
     1
270
     1
271
     1
  0
XRECORD
  5
D26
102
{ACAD_REACTORS
330
106
102
}
330
106
100
AcDbXrecord
280
     1
102
MATERIAL
148
0.0
149
0.0
149
0.0
 93
        0
 94
      127
282
     0
 72
     0
 77
     0
171
     0
175
     0
179
     0
273
     0
  0
XRECORD
  5
108
102
{ACAD_REACTORS
330
106
102
}
330
106
100
AcDbXrecord
280
     1
270
     1
271
     1
  0
XRECORD
  5
107
102
{ACAD_REACTORS
330
106
102
}
330
106
100
AcDbXrecord
280
     1
270
     1
271
     1
  0
XRECORD
  5
10B
102
{ACAD_REACTORS
330
106
102
}
330
106
100
AcDbXrecord
280
     1
270
     1
271
     1
  0
XRECORD
  5
10A
102
{ACAD_REACTORS
330
106
102
}
330
106
100
AcDbXrecord
280
     1
270
     1
271
     1
  0
XRECORD
  5
10C
102
{ACAD_REACTORS
330
106
102
}
330
106
100
AcDbXrecord
280
     1
270
     1
271
     1
  0
XRECORD
  5
109
102
{ACAD_REACTORS
330
106
102
}
330
106
100
AcDbXrecord
280
     1
270
     1
271
     1
  0
XRECORD
  5
D5D
102
{ACAD_REACTORS
330
D5C
102
}
330
D5C
100
AcDbXrecord
280
     1
102
DISPLAYNAME
  1
Metric50
102
FLAGS
 90
        0
  0
CELLSTYLEMAP
  5
D22
102
{ACAD_REACTORS
330
150
102
}
330
150
100
AcDbCellStyleMap
 90
        3
300
CELLSTYLE
  1
TABLEFORMAT_BEGIN
 90
        5
170
     1
 91
        0
 92
    32768
 62
   257
 93
        1
300
CONTENTFORMAT
  1
CONTENTFORMAT_BEGIN
 90
        0
 91
        0
 92
      512
 93
        0
300

 40
0.0
140
1.0
 94
        5
 62
     0
340
C
144
0.25
309
CONTENTFORMAT_END
171
     0
 94
        0
309
TABLEFORMAT_END
  1
CELLSTYLE_BEGIN
 90
        1
 91
        1
300
_TITLE
309
CELLSTYLE_END
300
CELLSTYLE
  1
TABLEFORMAT_BEGIN
 90
        5
170
     1
 91
        0
 92
        0
 62
   257
 93
        1
300
CONTENTFORMAT
  1
CONTENTFORMAT_BEGIN
 90
        0
 91
        0
 92
      512
 93
        0
300

 40
0.0
140
1.0
 94
        5
 62
     0
340
C
144
0.18
309
CONTENTFORMAT_END
171
     0
 94
        0
309
TABLEFORMAT_END
  1
CELLSTYLE_BEGIN
 90
        2
 91
        1
300
_HEADER
309
CELLSTYLE_END
300
CELLSTYLE
  1
TABLEFORMAT_BEGIN
 90
        5
170
     1
 91
        0
 92
        0
 62
   257
 93
        1
300
CONTENTFORMAT
  1
CONTENTFORMAT_BEGIN
 90
        0
 91
        0
 92
      512
 93
        0
300

 40
0.0
140
1.0
 94
        2
 62
     0
340
C
144
0.18
309
CONTENTFORMAT_END
171
     0
 94
        0
309
TABLEFORMAT_END
  1
CELLSTYLE_BEGIN
 90
        3
 91
        2
300
_DATA
309
CELLSTYLE_END
  0
XRECORD
  5
D4D
102
{ACAD_REACTORS
330
150
102
}
330
150
100
AcDbXrecord
280
     1
102
ACAD_ROUNDTRIP_PRE2007_TABLESTYLE
 90
      512
 91
        0
  1

 92
      512
 93
        0
  2

 94
      512
 95
        0
  3

  0
XRECORD
  5
D32
102
{ACAD_REACTORS
330
D31
102
}
330
D31
100
AcDbXrecord
280
     1
102
RTVSPost2010Prop28
280
     1
102
RTVSPost2010PropOp28
 70
     1
102
RTVSPost2010Prop29
280
     1
102
RTVSPost2010PropOp29
 70
     1
102
RTVSPost2010Prop30
280
     0
102
RTVSPost2010PropOp30
 70
     1
102
RTVSPost2010Prop31
280
     0
102
RTVSPost2010PropOp31
 70
     1
102
RTVSPost2010Prop32
280
     0
102
RTVSPost2010PropOp32
 70
     1
102
RTVSPost2010Prop33
280
     0
102
RTVSPost2010PropOp33
 70
     1
102
RTVSPost2010Prop34
280
     0
102
RTVSPost2010PropOp34
 70
     1
102
RTVSPost2010Prop35
280
     0
102
RTVSPost2010PropOp35
 70
     1
102
RTVSPost2010Prop36
280
     0
102
RTVSPost2010PropOp36
 70
     1
102
RTVSPost2010Prop37
 90
       50
102
RTVSPost2010PropOp37
 70
     1
102
RTVSPost2010Prop38
140
0.0
102
RTVSPost2010PropOp38
 70
     1
102
RTVSPost2010Prop39
140
1.0
102
RTVSPost2010PropOp39
 70
     1
102
RTVSPost2010Prop40
 90
        0
102
RTVSPost2010PropOp40
 70
     1
102
RTVSPost2010Prop41ColorIndex
 90
       18
102
RTVSPost2010Prop41ColorRGB
 90
        0
102
RTVSPost2010PropOp41
 70
     1
102
RTVSPost2010Prop42
 90
       50
102
RTVSPost2010PropOp42
 70
     1
102
RTVSPost2010Prop43
 90
        3
102
RTVSPost2010PropOp43
 70
     1
102
RTVSPost2010Prop44ColorIndex
 90
        5
102
RTVSPost2010Prop44ColorRGB
 90
      255
102
RTVSPost2010PropOp44
 70
     1
102
RTVSPost2010Prop45
280
     0
102
RTVSPost2010PropOp45
 70
     1
102
RTVSPost2010Prop46
 90
       50
102
RTVSPost2010PropOp46
 70
     1
102
RTVSPost2010Prop47
 90
       50
102
RTVSPost2010PropOp47
 70
     1
102
RTVSPost2010Prop48
 90
       50
102
RTVSPost2010PropOp48
 70
     1
102
RTVSPost2010Prop49
280
     0
102
RTVSPost2010PropOp49
 70
     1
102
RTVSPost2010Prop50
 90
       50
102
RTVSPost2010PropOp50
 70
     1
102
RTVSPost2010Prop51ColorIndex
 90
      256
102
RTVSPost2010Prop51ColorRGB
 90
-16777216
102
RTVSPost2010PropOp51
 70
     0
102
RTVSPost2010Prop52
140
1.0
102
RTVSPost2010PropOp52
 70
     0
102
RTVSPost2010Prop53
 90
        2
102
RTVSPost2010PropOp53
 70
     1
102
RTVSPost2010Prop54
  1
strokes_ogs.tif
102
RTVSPost2010PropOp54
 70
     1
102
RTVSPost2010Prop55
280
     0
102
RTVSPost2010PropOp55
 70
     1
102
RTVSPost2010Prop56
140
1.0
102
RTVSPost2010PropOp56
 70
     1
102
RTVSPost2010Prop57
140
1.0
102
RTVSPost2010PropOp57
 70
     1
102
RTVSPropertyOp0
 70
     1
102
RTVSPropertyOp1
 70
     1
102
RTVSPropertyOp2
 70
     1
102
RTVSPropertyOp3
 70
     1
102
RTVSPropertyOp4
 70
     1
102
RTVSPropertyOp5
 70
     1
102
RTVSPropertyOp6
 70
     1
102
RTVSPropertyOp7
 70
     1
102
RTVSPropertyOp8
 70
     1
102
RTVSPropertyOp9
 70
     1
102
RTVSPropertyOp10
 70
     1
102
RTVSPropertyOp11
 70
     1
102
RTVSPropertyOp12
 70
     1
102
RTVSPropertyOp13
 70
     1
102
RTVSPropertyOp14
 70
     1
102
RTVSPropertyOp15
 70
     1
102
RTVSPropertyOp16
 70
     1
102
RTVSPropertyOp17
 70
     1
102
RTVSPropertyOp18
 70
     1
102
RTVSPropertyOp19
 70
     1
102
RTVSPropertyOp20
 70
     1
102
RTVSPropertyOp21
 70
     1
102
RTVSPropertyOp22
 70
     1
102
RTVSPropertyOp23
 70
     1
102
RTVSPropertyOp24
 70
     1
102
RTVSPropertyOp25
 70
     1
102
RTVSPropertyOp26
 70
     1
102
RTVSPropertyOp27
 70
     1
102
RTVSPropertyOp28
 70
     1
102
RTVSPropertyOp29
 70
     1
102
RTVSPropertyOp30
 70
     1
102
RTVSPropertyOp31
 70
     1
102
RTVSPropertyOp32
 70
     1
102
RTVSPropertyOp33
 70
     1
102
RTVSPropertyOp34
 70
     1
102
RTVSPropertyOp35
 70
     1
102
RTVSPropertyOp36
 70
     1
102
RTVSPropertyOp37
 70
     1
102
RTVSPropertyOp38
 70
     1
102
RTVSPropertyOp39
 70
     1
102
RTVSPropertyOp40
 70
     1
102
RTVSPropertyOp41
 70
     1
102
RTVSPropertyOp42
 70
     1
102
RTVSPropertyOp43
 70
     1
102
RTVSPropertyOp44
 70
     1
102
RTVSPropertyOp45
 70
     1
102
RTVSPropertyOp46
 70
     1
102
RTVSPropertyOp47
 70
     1
102
RTVSPropertyOp48
 70
     1
102
RTVSPropertyOp49
 70
     1
102
RTVSPropertyOp50
 70
     1
102
RTVSPropertyOp51
 70
     0
102
RTVSPropertyOp52
 70
     0
102
RTVSPropertyOp53
 70
     1
102
RTVSPropertyOp54
 70
     1
102
RTVSPropertyOp55
 70
     1
102
RTVSPropertyOp56
 70
     1
102
RTVSPropertyOp57
 70
     1
102
RTVSPropertyOp58
 70
     1
102
RTVSPropertyOp59
 70
     1
102
RTVSPropertyOp60
 70
     1
102
RTVSPropertyOp61
 70
     1
102
RTVSPropertyOp62
 70
     1
  0
XRECORD
  5
D36
102
{ACAD_REACTORS
330
D35
102
}
330
D35
100
AcDbXrecord
280
     1
102
RTVSPost2010Prop28
280
     0
102
RTVSPost2010PropOp28
 70
     1
102
RTVSPost2010Prop29
280
     1
102
RTVSPost2010PropOp29
 70
     1
102
RTVSPost2010Prop30
280
     1
102
RTVSPost2010PropOp30
 70
     1
102
RTVSPost2010Prop31
280
     0
102
RTVSPost2010PropOp31
 70
     1
102
RTVSPost2010Prop32
280
     0
102
RTVSPost2010PropOp32
 70
     1
102
RTVSPost2010Prop33
280
     0
102
RTVSPost2010PropOp33
 70
     1
102
RTVSPost2010Prop34
280
     0
102
RTVSPost2010PropOp34
 70
     1
102
RTVSPost2010Prop35
280
     0
102
RTVSPost2010PropOp35
 70
     1
102
RTVSPost2010Prop36
280
     0
102
RTVSPost2010PropOp36
 70
     1
102
RTVSPost2010Prop37
 90
       50
102
RTVSPost2010PropOp37
 70
     1
102
RTVSPost2010Prop38
140
0.0
102
RTVSPost2010PropOp38
 70
     1
102
RTVSPost2010Prop39
140
1.0
102
RTVSPost2010PropOp39
 70
     1
102
RTVSPost2010Prop40
 90
        0
102
RTVSPost2010PropOp40
 70
     1
102
RTVSPost2010Prop41ColorIndex
 90
       18
102
RTVSPost2010Prop41ColorRGB
 90
        0
102
RTVSPost2010PropOp41
 70
     1
102
RTVSPost2010Prop42
 90
       50
102
RTVSPost2010PropOp42
 70
     1
102
RTVSPost2010Prop43
 90
        3
102
RTVSPost2010PropOp43
 70
     1
102
RTVSPost2010Prop44ColorIndex
 90
        5
102
RTVSPost2010Prop44ColorRGB
 90
      255
102
RTVSPost2010PropOp44
 70
     1
102
RTVSPost2010Prop45
280
     0
102
RTVSPost2010PropOp45
 70
     1
102
RTVSPost2010Prop46
 90
       50
102
RTVSPost2010PropOp46
 70
     1
102
RTVSPost2010Prop47
 90
       50
102
RTVSPost2010PropOp47
 70
     1
102
RTVSPost2010Prop48
 90
       50
102
RTVSPost2010PropOp48
 70
     1
102
RTVSPost2010Prop49
280
     0
102
RTVSPost2010PropOp49
 70
     1
102
RTVSPost2010Prop50
 90
       50
102
RTVSPost2010PropOp50
 70
     1
102
RTVSPost2010Prop51ColorIndex
 90
      256
102
RTVSPost2010Prop51ColorRGB
 90
-16777216
102
RTVSPost2010PropOp51
 70
     0
102
RTVSPost2010Prop52
140
1.0
102
RTVSPost2010PropOp52
 70
     0
102
RTVSPost2010Prop53
 90
        2
102
RTVSPost2010PropOp53
 70
     1
102
RTVSPost2010Prop54
  1
strokes_ogs.tif
102
RTVSPost2010PropOp54
 70
     1
102
RTVSPost2010Prop55
280
     0
102
RTVSPost2010PropOp55
 70
     1
102
RTVSPost2010Prop56
140
1.0
102
RTVSPost2010PropOp56
 70
     1
102
RTVSPost2010Prop57
140
1.0
102
RTVSPost2010PropOp57
 70
     1
102
RTVSPropertyOp0
 70
     1
102
RTVSPropertyOp1
 70
     1
102
RTVSPropertyOp2
 70
     1
102
RTVSPropertyOp3
 70
     1
102
RTVSPropertyOp4
 70
     1
102
RTVSPropertyOp5
 70
     1
102
RTVSPropertyOp6
 70
     1
102
RTVSPropertyOp7
 70
     1
102
RTVSPropertyOp8
 70
     1
102
RTVSPropertyOp9
 70
     1
102
RTVSPropertyOp10
 70
     1
102
RTVSPropertyOp11
 70
     1
102
RTVSPropertyOp12
 70
     1
102
RTVSPropertyOp13
 70
     1
102
RTVSPropertyOp14
 70
     1
102
RTVSPropertyOp15
 70
     1
102
RTVSPropertyOp16
 70
     1
102
RTVSPropertyOp17
 70
     1
102
RTVSPropertyOp18
 70
     1
102
RTVSPropertyOp19
 70
     1
102
RTVSPropertyOp20
 70
     1
102
RTVSPropertyOp21
 70
     1
102
RTVSPropertyOp22
 70
     1
102
RTVSPropertyOp23
 70
     1
102
RTVSPropertyOp24
 70
     1
102
RTVSPropertyOp25
 70
     1
102
RTVSPropertyOp26
 70
     1
102
RTVSPropertyOp27
 70
     1
102
RTVSPropertyOp28
 70
     1
102
RTVSPropertyOp29
 70
     1
102
RTVSPropertyOp30
 70
     1
102
RTVSPropertyOp31
 70
     1
102
RTVSPropertyOp32
 70
     1
102
RTVSPropertyOp33
 70
     1
102
RTVSPropertyOp34
 70
     1
102
RTVSPropertyOp35
 70
     1
102
RTVSPropertyOp36
 70
     1
102
RTVSPropertyOp37
 70
     1
102
RTVSPropertyOp38
 70
     1
102
RTVSPropertyOp39
 70
     1
102
RTVSPropertyOp40
 70
     1
102
RTVSPropertyOp41
 70
     1
102
RTVSPropertyOp42
 70
     1
102
RTVSPropertyOp43
 70
     1
102
RTVSPropertyOp44
 70
     1
102
RTVSPropertyOp45
 70
     1
102
RTVSPropertyOp46
 70
     1
102
RTVSPropertyOp47
 70
     1
102
RTVSPropertyOp48
 70
     1
102
RTVSPropertyOp49
 70
     1
102
RTVSPropertyOp50
 70
     1
102
RTVSPropertyOp51
 70
     0
102
RTVSPropertyOp52
 70
     0
102
RTVSPropertyOp53
 70
     1
102
RTVSPropertyOp54
 70
     1
102
RTVSPropertyOp55
 70
     1
102
RTVSPropertyOp56
 70
     1
102
RTVSPropertyOp57
 70
     1
102
RTVSPropertyOp58
 70
     1
102
RTVSPropertyOp59
 70
     1
102
RTVSPropertyOp60
 70
     1
102
RTVSPropertyOp61
 70
     1
102
RTVSPropertyOp62
 70
     1
  0
XRECORD
  5
D34
102
{ACAD_REACTORS
330
D33
102
}
330
D33
100
AcDbXrecord
280
     1
102
RTVSPost2010Prop28
280
     0
102
RTVSPost2010PropOp28
 70
     1
102
RTVSPost2010Prop29
280
     1
102
RTVSPost2010PropOp29
 70
     1
102
RTVSPost2010Prop30
280
     1
102
RTVSPost2010PropOp30
 70
     1
102
RTVSPost2010Prop31
280
     0
102
RTVSPost2010PropOp31
 70
     1
102
RTVSPost2010Prop32
280
     0
102
RTVSPost2010PropOp32
 70
     1
102
RTVSPost2010Prop33
280
     0
102
RTVSPost2010PropOp33
 70
     1
102
RTVSPost2010Prop34
280
     0
102
RTVSPost2010PropOp34
 70
     1
102
RTVSPost2010Prop35
280
     0
102
RTVSPost2010PropOp35
 70
     1
102
RTVSPost2010Prop36
280
     0
102
RTVSPost2010PropOp36
 70
     1
102
RTVSPost2010Prop37
 90
       50
102
RTVSPost2010PropOp37
 70
     1
102
RTVSPost2010Prop38
140
0.0
102
RTVSPost2010PropOp38
 70
     1
102
RTVSPost2010Prop39
140
1.0
102
RTVSPost2010PropOp39
 70
     1
102
RTVSPost2010Prop40
 90
        0
102
RTVSPost2010PropOp40
 70
     1
102
RTVSPost2010Prop41ColorIndex
 90
       18
102
RTVSPost2010Prop41ColorRGB
 90
        0
102
RTVSPost2010PropOp41
 70
     1
102
RTVSPost2010Prop42
 90
       50
102
RTVSPost2010PropOp42
 70
     1
102
RTVSPost2010Prop43
 90
        3
102
RTVSPost2010PropOp43
 70
     1
102
RTVSPost2010Prop44ColorIndex
 90
        5
102
RTVSPost2010Prop44ColorRGB
 90
      255
102
RTVSPost2010PropOp44
 70
     1
102
RTVSPost2010Prop45
280
     0
102
RTVSPost2010PropOp45
 70
     1
102
RTVSPost2010Prop46
 90
       50
102
RTVSPost2010PropOp46
 70
     1
102
RTVSPost2010Prop47
 90
       50
102
RTVSPost2010PropOp47
 70
     1
102
RTVSPost2010Prop48
 90
       50
102
RTVSPost2010PropOp48
 70
     1
102
RTVSPost2010Prop49
280
     0
102
RTVSPost2010PropOp49
 70
     1
102
RTVSPost2010Prop50
 90
       50
102
RTVSPost2010PropOp50
 70
     1
102
RTVSPost2010Prop51ColorIndex
 90
      256
102
RTVSPost2010Prop51ColorRGB
 90
-16777216
102
RTVSPost2010PropOp51
 70
     0
102
RTVSPost2010Prop52
140
1.0
102
RTVSPost2010PropOp52
 70
     0
102
RTVSPost2010Prop53
 90
        2
102
RTVSPost2010PropOp53
 70
     1
102
RTVSPost2010Prop54
  1
strokes_ogs.tif
102
RTVSPost2010PropOp54
 70
     1
102
RTVSPost2010Prop55
280
     0
102
RTVSPost2010PropOp55
 70
     1
102
RTVSPost2010Prop56
140
1.0
102
RTVSPost2010PropOp56
 70
     1
102
RTVSPost2010Prop57
140
1.0
102
RTVSPost2010PropOp57
 70
     1
102
RTVSPropertyOp0
 70
     1
102
RTVSPropertyOp1
 70
     1
102
RTVSPropertyOp2
 70
     1
102
RTVSPropertyOp3
 70
     1
102
RTVSPropertyOp4
 70
     1
102
RTVSPropertyOp5
 70
     1
102
RTVSPropertyOp6
 70
     1
102
RTVSPropertyOp7
 70
     1
102
RTVSPropertyOp8
 70
     1
102
RTVSPropertyOp9
 70
     1
102
RTVSPropertyOp10
 70
     1
102
RTVSPropertyOp11
 70
     1
102
RTVSPropertyOp12
 70
     1
102
RTVSPropertyOp13
 70
     1
102
RTVSPropertyOp14
 70
     1
102
RTVSPropertyOp15
 70
     1
102
RTVSPropertyOp16
 70
     1
102
RTVSPropertyOp17
 70
     1
102
RTVSPropertyOp18
 70
     1
102
RTVSPropertyOp19
 70
     1
102
RTVSPropertyOp20
 70
     1
102
RTVSPropertyOp21
 70
     1
102
RTVSPropertyOp22
 70
     1
102
RTVSPropertyOp23
 70
     1
102
RTVSPropertyOp24
 70
     1
102
RTVSPropertyOp25
 70
     1
102
RTVSPropertyOp26
 70
     1
102
RTVSPropertyOp27
 70
     1
102
RTVSPropertyOp28
 70
     1
102
RTVSPropertyOp29
 70
     1
102
RTVSPropertyOp30
 70
     1
102
RTVSPropertyOp31
 70
     1
102
RTVSPropertyOp32
 70
     1
102
RTVSPropertyOp33
 70
     1
102
RTVSPropertyOp34
 70
     1
102
RTVSPropertyOp35
 70
     1
102
RTVSPropertyOp36
 70
     1
102
RTVSPropertyOp37
 70
     1
102
RTVSPropertyOp38
 70
     1
102
RTVSPropertyOp39
 70
     1
102
RTVSPropertyOp40
 70
     1
102
RTVSPropertyOp41
 70
     1
102
RTVSPropertyOp42
 70
     1
102
RTVSPropertyOp43
 70
     1
102
RTVSPropertyOp44
 70
     1
102
RTVSPropertyOp45
 70
     1
102
RTVSPropertyOp46
 70
     1
102
RTVSPropertyOp47
 70
     1
102
RTVSPropertyOp48
 70
     1
102
RTVSPropertyOp49
 70
     1
102
RTVSPropertyOp50
 70
     1
102
RTVSPropertyOp51
 70
     0
102
RTVSPropertyOp52
 70
     0
102
RTVSPropertyOp53
 70
     1
102
RTVSPropertyOp54
 70
     1
102
RTVSPropertyOp55
 70
     1
102
RTVSPropertyOp56
 70
     1
102
RTVSPropertyOp57
 70
     1
102
RTVSPropertyOp58
 70
     1
102
RTVSPropertyOp59
 70
     1
102
RTVSPropertyOp60
 70
     1
102
RTVSPropertyOp61
 70
     1
102
RTVSPropertyOp62
 70
     1
  0
XRECORD
  5
D30
102
{ACAD_REACTORS
330
D2F
102
}
330
D2F
100
AcDbXrecord
280
     1
102
RTVSPost2010Prop28
280
     0
102
RTVSPost2010PropOp28
 70
     1
102
RTVSPost2010Prop29
280
     1
102
RTVSPost2010PropOp29
 70
     1
102
RTVSPost2010Prop30
280
     1
102
RTVSPost2010PropOp30
 70
     1
102
RTVSPost2010Prop31
280
     0
102
RTVSPost2010PropOp31
 70
     1
102
RTVSPost2010Prop32
280
     0
102
RTVSPost2010PropOp32
 70
     1
102
RTVSPost2010Prop33
280
     0
102
RTVSPost2010PropOp33
 70
     1
102
RTVSPost2010Prop34
280
     0
102
RTVSPost2010PropOp34
 70
     1
102
RTVSPost2010Prop35
280
     0
102
RTVSPost2010PropOp35
 70
     1
102
RTVSPost2010Prop36
280
     0
102
RTVSPost2010PropOp36
 70
     1
102
RTVSPost2010Prop37
 90
       50
102
RTVSPost2010PropOp37
 70
     1
102
RTVSPost2010Prop38
140
0.0
102
RTVSPost2010PropOp38
 70
     1
102
RTVSPost2010Prop39
140
1.0
102
RTVSPost2010PropOp39
 70
     1
102
RTVSPost2010Prop40
 90
        0
102
RTVSPost2010PropOp40
 70
     1
102
RTVSPost2010Prop41ColorIndex
 90
       18
102
RTVSPost2010Prop41ColorRGB
 90
        0
102
RTVSPost2010PropOp41
 70
     1
102
RTVSPost2010Prop42
 90
       50
102
RTVSPost2010PropOp42
 70
     1
102
RTVSPost2010Prop43
 90
        3
102
RTVSPost2010PropOp43
 70
     1
102
RTVSPost2010Prop44ColorIndex
 90
        5
102
RTVSPost2010Prop44ColorRGB
 90
      255
102
RTVSPost2010PropOp44
 70
     1
102
RTVSPost2010Prop45
280
     0
102
RTVSPost2010PropOp45
 70
     1
102
RTVSPost2010Prop46
 90
       50
102
RTVSPost2010PropOp46
 70
     1
102
RTVSPost2010Prop47
 90
       50
102
RTVSPost2010PropOp47
 70
     1
102
RTVSPost2010Prop48
 90
       50
102
RTVSPost2010PropOp48
 70
     1
102
RTVSPost2010Prop49
280
     0
102
RTVSPost2010PropOp49
 70
     1
102
RTVSPost2010Prop50
 90
       50
102
RTVSPost2010PropOp50
 70
     1
102
RTVSPost2010Prop51ColorIndex
 90
      256
102
RTVSPost2010Prop51ColorRGB
 90
-16777216
102
RTVSPost2010PropOp51
 70
     0
102
RTVSPost2010Prop52
140
1.0
102
RTVSPost2010PropOp52
 70
     0
102
RTVSPost2010Prop53
 90
        2
102
RTVSPost2010PropOp53
 70
     1
102
RTVSPost2010Prop54
  1
strokes_ogs.tif
102
RTVSPost2010PropOp54
 70
     1
102
RTVSPost2010Prop55
280
     0
102
RTVSPost2010PropOp55
 70
     1
102
RTVSPost2010Prop56
140
1.0
102
RTVSPost2010PropOp56
 70
     1
102
RTVSPost2010Prop57
140
1.0
102
RTVSPost2010PropOp57
 70
     1
102
RTVSPropertyOp0
 70
     1
102
RTVSPropertyOp1
 70
     1
102
RTVSPropertyOp2
 70
     1
102
RTVSPropertyOp3
 70
     1
102
RTVSPropertyOp4
 70
     1
102
RTVSPropertyOp5
 70
     1
102
RTVSPropertyOp6
 70
     1
102
RTVSPropertyOp7
 70
     1
102
RTVSPropertyOp8
 70
     1
102
RTVSPropertyOp9
 70
     1
102
RTVSPropertyOp10
 70
     1
102
RTVSPropertyOp11
 70
     1
102
RTVSPropertyOp12
 70
     1
102
RTVSPropertyOp13
 70
     1
102
RTVSPropertyOp14
 70
     1
102
RTVSPropertyOp15
 70
     1
102
RTVSPropertyOp16
 70
     1
102
RTVSPropertyOp17
 70
     1
102
RTVSPropertyOp18
 70
     1
102
RTVSPropertyOp19
 70
     1
102
RTVSPropertyOp20
 70
     1
102
RTVSPropertyOp21
 70
     1
102
RTVSPropertyOp22
 70
     1
102
RTVSPropertyOp23
 70
     1
102
RTVSPropertyOp24
 70
     1
102
RTVSPropertyOp25
 70
     1
102
RTVSPropertyOp26
 70
     1
102
RTVSPropertyOp27
 70
     1
102
RTVSPropertyOp28
 70
     1
102
RTVSPropertyOp29
 70
     1
102
RTVSPropertyOp30
 70
     1
102
RTVSPropertyOp31
 70
     1
102
RTVSPropertyOp32
 70
     1
102
RTVSPropertyOp33
 70
     1
102
RTVSPropertyOp34
 70
     1
102
RTVSPropertyOp35
 70
     1
102
RTVSPropertyOp36
 70
     1
102
RTVSPropertyOp37
 70
     1
102
RTVSPropertyOp38
 70
     1
102
RTVSPropertyOp39
 70
     1
102
RTVSPropertyOp40
 70
     1
102
RTVSPropertyOp41
 70
     1
102
RTVSPropertyOp42
 70
     1
102
RTVSPropertyOp43
 70
     1
102
RTVSPropertyOp44
 70
     1
102
RTVSPropertyOp45
 70
     1
102
RTVSPropertyOp46
 70
     1
102
RTVSPropertyOp47
 70
     1
102
RTVSPropertyOp48
 70
     1
102
RTVSPropertyOp49
 70
     1
102
RTVSPropertyOp50
 70
     1
102
RTVSPropertyOp51
 70
     0
102
RTVSPropertyOp52
 70
     0
102
RTVSPropertyOp53
 70
     1
102
RTVSPropertyOp54
 70
     1
102
RTVSPropertyOp55
 70
     1
102
RTVSPropertyOp56
 70
     1
102
RTVSPropertyOp57
 70
     1
102
RTVSPropertyOp58
 70
     1
102
RTVSPropertyOp59
 70
     1
102
RTVSPropertyOp60
 70
     1
102
RTVSPropertyOp61
 70
     1
102
RTVSPropertyOp62
 70
     1
  0
XRECORD
  5
D3E
102
{ACAD_REACTORS
330
D3D
102
}
330
D3D
100
AcDbXrecord
280
     1
102
RTVSPost2010Prop28
280
     0
102
RTVSPost2010PropOp28
 70
     1
102
RTVSPost2010Prop29
280
     1
102
RTVSPost2010PropOp29
 70
     1
102
RTVSPost2010Prop30
280
     1
102
RTVSPost2010PropOp30
 70
     1
102
RTVSPost2010Prop31
280
     0
102
RTVSPost2010PropOp31
 70
     1
102
RTVSPost2010Prop32
280
     0
102
RTVSPost2010PropOp32
 70
     1
102
RTVSPost2010Prop33
280
     0
102
RTVSPost2010PropOp33
 70
     1
102
RTVSPost2010Prop34
280
     0
102
RTVSPost2010PropOp34
 70
     1
102
RTVSPost2010Prop35
280
     0
102
RTVSPost2010PropOp35
 70
     1
102
RTVSPost2010Prop36
280
     0
102
RTVSPost2010PropOp36
 70
     1
102
RTVSPost2010Prop37
 90
       50
102
RTVSPost2010PropOp37
 70
     1
102
RTVSPost2010Prop38
140
0.0
102
RTVSPost2010PropOp38
 70
     1
102
RTVSPost2010Prop39
140
1.0
102
RTVSPost2010PropOp39
 70
     1
102
RTVSPost2010Prop40
 90
        0
102
RTVSPost2010PropOp40
 70
     1
102
RTVSPost2010Prop41ColorIndex
 90
       18
102
RTVSPost2010Prop41ColorRGB
 90
        0
102
RTVSPost2010PropOp41
 70
     1
102
RTVSPost2010Prop42
 90
       50
102
RTVSPost2010PropOp42
 70
     1
102
RTVSPost2010Prop43
 90
        3
102
RTVSPost2010PropOp43
 70
     1
102
RTVSPost2010Prop44ColorIndex
 90
        5
102
RTVSPost2010Prop44ColorRGB
 90
      255
102
RTVSPost2010PropOp44
 70
     1
102
RTVSPost2010Prop45
280
     0
102
RTVSPost2010PropOp45
 70
     1
102
RTVSPost2010Prop46
 90
       50
102
RTVSPost2010PropOp46
 70
     1
102
RTVSPost2010Prop47
 90
       50
102
RTVSPost2010PropOp47
 70
     1
102
RTVSPost2010Prop48
 90
       50
102
RTVSPost2010PropOp48
 70
     1
102
RTVSPost2010Prop49
280
     0
102
RTVSPost2010PropOp49
 70
     1
102
RTVSPost2010Prop50
 90
       50
102
RTVSPost2010PropOp50
 70
     1
102
RTVSPost2010Prop51ColorIndex
 90
      256
102
RTVSPost2010Prop51ColorRGB
 90
-16777216
102
RTVSPost2010PropOp51
 70
     0
102
RTVSPost2010Prop52
140
1.0
102
RTVSPost2010PropOp52
 70
     0
102
RTVSPost2010Prop53
 90
        2
102
RTVSPost2010PropOp53
 70
     1
102
RTVSPost2010Prop54
  1
strokes_ogs.tif
102
RTVSPost2010PropOp54
 70
     1
102
RTVSPost2010Prop55
280
     0
102
RTVSPost2010PropOp55
 70
     1
102
RTVSPost2010Prop56
140
1.0
102
RTVSPost2010PropOp56
 70
     1
102
RTVSPost2010Prop57
140
1.0
102
RTVSPost2010PropOp57
 70
     1
102
RTVSPropertyOp0
 70
     1
102
RTVSPropertyOp1
 70
     1
102
RTVSPropertyOp2
 70
     1
102
RTVSPropertyOp3
 70
     1
102
RTVSPropertyOp4
 70
     1
102
RTVSPropertyOp5
 70
     1
102
RTVSPropertyOp6
 70
     1
102
RTVSPropertyOp7
 70
     1
102
RTVSPropertyOp8
 70
     1
102
RTVSPropertyOp9
 70
     1
102
RTVSPropertyOp10
 70
     1
102
RTVSPropertyOp11
 70
     1
102
RTVSPropertyOp12
 70
     1
102
RTVSPropertyOp13
 70
     1
102
RTVSPropertyOp14
 70
     1
102
RTVSPropertyOp15
 70
     1
102
RTVSPropertyOp16
 70
     1
102
RTVSPropertyOp17
 70
     1
102
RTVSPropertyOp18
 70
     1
102
RTVSPropertyOp19
 70
     1
102
RTVSPropertyOp20
 70
     1
102
RTVSPropertyOp21
 70
     1
102
RTVSPropertyOp22
 70
     1
102
RTVSPropertyOp23
 70
     1
102
RTVSPropertyOp24
 70
     1
102
RTVSPropertyOp25
 70
     1
102
RTVSPropertyOp26
 70
     1
102
RTVSPropertyOp27
 70
     1
102
RTVSPropertyOp28
 70
     1
102
RTVSPropertyOp29
 70
     1
102
RTVSPropertyOp30
 70
     1
102
RTVSPropertyOp31
 70
     1
102
RTVSPropertyOp32
 70
     1
102
RTVSPropertyOp33
 70
     1
102
RTVSPropertyOp34
 70
     1
102
RTVSPropertyOp35
 70
     1
102
RTVSPropertyOp36
 70
     1
102
RTVSPropertyOp37
 70
     1
102
RTVSPropertyOp38
 70
     1
102
RTVSPropertyOp39
 70
     1
102
RTVSPropertyOp40
 70
     1
102
RTVSPropertyOp41
 70
     1
102
RTVSPropertyOp42
 70
     1
102
RTVSPropertyOp43
 70
     1
102
RTVSPropertyOp44
 70
     1
102
RTVSPropertyOp45
 70
     1
102
RTVSPropertyOp46
 70
     1
102
RTVSPropertyOp47
 70
     1
102
RTVSPropertyOp48
 70
     1
102
RTVSPropertyOp49
 70
     1
102
RTVSPropertyOp50
 70
     1
102
RTVSPropertyOp51
 70
     0
102
RTVSPropertyOp52
 70
     0
102
RTVSPropertyOp53
 70
     1
102
RTVSPropertyOp54
 70
     1
102
RTVSPropertyOp55
 70
     1
102
RTVSPropertyOp56
 70
     1
102
RTVSPropertyOp57
 70
     1
102
RTVSPropertyOp58
 70
     1
102
RTVSPropertyOp59
 70
     1
102
RTVSPropertyOp60
 70
     1
102
RTVSPropertyOp61
 70
     1
102
RTVSPropertyOp62
 70
     1
  0
XRECORD
  5
D46
102
{ACAD_REACTORS
330
D45
102
}
330
D45
100
AcDbXrecord
280
     1
102
RTVSPost2010Prop28
280
     0
102
RTVSPost2010PropOp28
 70
     1
102
RTVSPost2010Prop29
280
     1
102
RTVSPost2010PropOp29
 70
     1
102
RTVSPost2010Prop30
280
     1
102
RTVSPost2010PropOp30
 70
     1
102
RTVSPost2010Prop31
280
     0
102
RTVSPost2010PropOp31
 70
     1
102
RTVSPost2010Prop32
280
     0
102
RTVSPost2010PropOp32
 70
     1
102
RTVSPost2010Prop33
280
     0
102
RTVSPost2010PropOp33
 70
     1
102
RTVSPost2010Prop34
280
     0
102
RTVSPost2010PropOp34
 70
     1
102
RTVSPost2010Prop35
280
     0
102
RTVSPost2010PropOp35
 70
     1
102
RTVSPost2010Prop36
280
     0
102
RTVSPost2010PropOp36
 70
     1
102
RTVSPost2010Prop37
 90
       50
102
RTVSPost2010PropOp37
 70
     1
102
RTVSPost2010Prop38
140
0.0
102
RTVSPost2010PropOp38
 70
     1
102
RTVSPost2010Prop39
140
1.0
102
RTVSPost2010PropOp39
 70
     1
102
RTVSPost2010Prop40
 90
        0
102
RTVSPost2010PropOp40
 70
     1
102
RTVSPost2010Prop41ColorIndex
 90
       18
102
RTVSPost2010Prop41ColorRGB
 90
        0
102
RTVSPost2010PropOp41
 70
     1
102
RTVSPost2010Prop42
 90
       50
102
RTVSPost2010PropOp42
 70
     1
102
RTVSPost2010Prop43
 90
        3
102
RTVSPost2010PropOp43
 70
     1
102
RTVSPost2010Prop44ColorIndex
 90
        5
102
RTVSPost2010Prop44ColorRGB
 90
      255
102
RTVSPost2010PropOp44
 70
     1
102
RTVSPost2010Prop45
280
     0
102
RTVSPost2010PropOp45
 70
     1
102
RTVSPost2010Prop46
 90
       50
102
RTVSPost2010PropOp46
 70
     1
102
RTVSPost2010Prop47
 90
       50
102
RTVSPost2010PropOp47
 70
     1
102
RTVSPost2010Prop48
 90
       50
102
RTVSPost2010PropOp48
 70
     1
102
RTVSPost2010Prop49
280
     0
102
RTVSPost2010PropOp49
 70
     1
102
RTVSPost2010Prop50
 90
       50
102
RTVSPost2010PropOp50
 70
     1
102
RTVSPost2010Prop51ColorIndex
 90
      256
102
RTVSPost2010Prop51ColorRGB
 90
-16777216
102
RTVSPost2010PropOp51
 70
     0
102
RTVSPost2010Prop52
140
1.0
102
RTVSPost2010PropOp52
 70
     0
102
RTVSPost2010Prop53
 90
        2
102
RTVSPost2010PropOp53
 70
     1
102
RTVSPost2010Prop54
  1
strokes_ogs.tif
102
RTVSPost2010PropOp54
 70
     1
102
RTVSPost2010Prop55
280
     0
102
RTVSPost2010PropOp55
 70
     1
102
RTVSPost2010Prop56
140
1.0
102
RTVSPost2010PropOp56
 70
     1
102
RTVSPost2010Prop57
140
1.0
102
RTVSPost2010PropOp57
 70
     1
102
RTVSPropertyOp0
 70
     1
102
RTVSPropertyOp1
 70
     1
102
RTVSPropertyOp2
 70
     1
102
RTVSPropertyOp3
 70
     1
102
RTVSPropertyOp4
 70
     1
102
RTVSPropertyOp5
 70
     1
102
RTVSPropertyOp6
 70
     1
102
RTVSPropertyOp7
 70
     1
102
RTVSPropertyOp8
 70
     1
102
RTVSPropertyOp9
 70
     1
102
RTVSPropertyOp10
 70
     1
102
RTVSPropertyOp11
 70
     1
102
RTVSPropertyOp12
 70
     1
102
RTVSPropertyOp13
 70
     1
102
RTVSPropertyOp14
 70
     1
102
RTVSPropertyOp15
 70
     1
102
RTVSPropertyOp16
 70
     1
102
RTVSPropertyOp17
 70
     1
102
RTVSPropertyOp18
 70
     1
102
RTVSPropertyOp19
 70
     1
102
RTVSPropertyOp20
 70
     1
102
RTVSPropertyOp21
 70
     1
102
RTVSPropertyOp22
 70
     1
102
RTVSPropertyOp23
 70
     1
102
RTVSPropertyOp24
 70
     1
102
RTVSPropertyOp25
 70
     1
102
RTVSPropertyOp26
 70
     1
102
RTVSPropertyOp27
 70
     1
102
RTVSPropertyOp28
 70
     1
102
RTVSPropertyOp29
 70
     1
102
RTVSPropertyOp30
 70
     1
102
RTVSPropertyOp31
 70
     1
102
RTVSPropertyOp32
 70
     1
102
RTVSPropertyOp33
 70
     1
102
RTVSPropertyOp34
 70
     1
102
RTVSPropertyOp35
 70
     1
102
RTVSPropertyOp36
 70
     1
102
RTVSPropertyOp37
 70
     1
102
RTVSPropertyOp38
 70
     1
102
RTVSPropertyOp39
 70
     1
102
RTVSPropertyOp40
 70
     1
102
RTVSPropertyOp41
 70
     1
102
RTVSPropertyOp42
 70
     1
102
RTVSPropertyOp43
 70
     1
102
RTVSPropertyOp44
 70
     1
102
RTVSPropertyOp45
 70
     1
102
RTVSPropertyOp46
 70
     1
102
RTVSPropertyOp47
 70
     1
102
RTVSPropertyOp48
 70
     1
102
RTVSPropertyOp49
 70
     1
102
RTVSPropertyOp50
 70
     1
102
RTVSPropertyOp51
 70
     0
102
RTVSPropertyOp52
 70
     0
102
RTVSPropertyOp53
 70
     1
102
RTVSPropertyOp54
 70
     1
102
RTVSPropertyOp55
 70
     1
102
RTVSPropertyOp56
 70
     1
102
RTVSPropertyOp57
 70
     1
102
RTVSPropertyOp58
 70
     1
102
RTVSPropertyOp59
 70
     1
102
RTVSPropertyOp60
 70
     1
102
RTVSPropertyOp61
 70
     1
102
RTVSPropertyOp62
 70
     1
  0
XRECORD
  5
D38
102
{ACAD_REACTORS
330
D37
102
}
330
D37
100
AcDbXrecord
280
     1
102
RTVSPost2010Prop28
280
     0
102
RTVSPost2010PropOp28
 70
     1
102
RTVSPost2010Prop29
280
     1
102
RTVSPost2010PropOp29
 70
     1
102
RTVSPost2010Prop30
280
     1
102
RTVSPost2010PropOp30
 70
     1
102
RTVSPost2010Prop31
280
     0
102
RTVSPost2010PropOp31
 70
     1
102
RTVSPost2010Prop32
280
     0
102
RTVSPost2010PropOp32
 70
     1
102
RTVSPost2010Prop33
280
     0
102
RTVSPost2010PropOp33
 70
     1
102
RTVSPost2010Prop34
280
     0
102
RTVSPost2010PropOp34
 70
     1
102
RTVSPost2010Prop35
280
     0
102
RTVSPost2010PropOp35
 70
     1
102
RTVSPost2010Prop36
280
     0
102
RTVSPost2010PropOp36
 70
     1
102
RTVSPost2010Prop37
 90
       50
102
RTVSPost2010PropOp37
 70
     1
102
RTVSPost2010Prop38
140
0.0
102
RTVSPost2010PropOp38
 70
     1
102
RTVSPost2010Prop39
140
1.0
102
RTVSPost2010PropOp39
 70
     1
102
RTVSPost2010Prop40
 90
        0
102
RTVSPost2010PropOp40
 70
     1
102
RTVSPost2010Prop41ColorIndex
 90
       18
102
RTVSPost2010Prop41ColorRGB
 90
        0
102
RTVSPost2010PropOp41
 70
     1
102
RTVSPost2010Prop42
 90
       50
102
RTVSPost2010PropOp42
 70
     1
102
RTVSPost2010Prop43
 90
        3
102
RTVSPost2010PropOp43
 70
     1
102
RTVSPost2010Prop44ColorIndex
 90
        5
102
RTVSPost2010Prop44ColorRGB
 90
      255
102
RTVSPost2010PropOp44
 70
     1
102
RTVSPost2010Prop45
280
     0
102
RTVSPost2010PropOp45
 70
     1
102
RTVSPost2010Prop46
 90
       50
102
RTVSPost2010PropOp46
 70
     1
102
RTVSPost2010Prop47
 90
       50
102
RTVSPost2010PropOp47
 70
     1
102
RTVSPost2010Prop48
 90
       50
102
RTVSPost2010PropOp48
 70
     1
102
RTVSPost2010Prop49
280
     0
102
RTVSPost2010PropOp49
 70
     1
102
RTVSPost2010Prop50
 90
       50
102
RTVSPost2010PropOp50
 70
     1
102
RTVSPost2010Prop51ColorIndex
 90
      256
102
RTVSPost2010Prop51ColorRGB
 90
-16777216
102
RTVSPost2010PropOp51
 70
     0
102
RTVSPost2010Prop52
140
1.0
102
RTVSPost2010PropOp52
 70
     0
102
RTVSPost2010Prop53
 90
        2
102
RTVSPost2010PropOp53
 70
     1
102
RTVSPost2010Prop54
  1
strokes_ogs.tif
102
RTVSPost2010PropOp54
 70
     1
102
RTVSPost2010Prop55
280
     0
102
RTVSPost2010PropOp55
 70
     1
102
RTVSPost2010Prop56
140
1.0
102
RTVSPost2010PropOp56
 70
     1
102
RTVSPost2010Prop57
140
1.0
102
RTVSPost2010PropOp57
 70
     1
102
RTVSPropertyOp0
 70
     1
102
RTVSPropertyOp1
 70
     1
102
RTVSPropertyOp2
 70
     1
102
RTVSPropertyOp3
 70
     1
102
RTVSPropertyOp4
 70
     1
102
RTVSPropertyOp5
 70
     1
102
RTVSPropertyOp6
 70
     1
102
RTVSPropertyOp7
 70
     1
102
RTVSPropertyOp8
 70
     1
102
RTVSPropertyOp9
 70
     1
102
RTVSPropertyOp10
 70
     1
102
RTVSPropertyOp11
 70
     1
102
RTVSPropertyOp12
 70
     1
102
RTVSPropertyOp13
 70
     1
102
RTVSPropertyOp14
 70
     1
102
RTVSPropertyOp15
 70
     1
102
RTVSPropertyOp16
 70
     1
102
RTVSPropertyOp17
 70
     1
102
RTVSPropertyOp18
 70
     1
102
RTVSPropertyOp19
 70
     1
102
RTVSPropertyOp20
 70
     1
102
RTVSPropertyOp21
 70
     1
102
RTVSPropertyOp22
 70
     1
102
RTVSPropertyOp23
 70
     1
102
RTVSPropertyOp24
 70
     1
102
RTVSPropertyOp25
 70
     1
102
RTVSPropertyOp26
 70
     1
102
RTVSPropertyOp27
 70
     1
102
RTVSPropertyOp28
 70
     1
102
RTVSPropertyOp29
 70
     1
102
RTVSPropertyOp30
 70
     1
102
RTVSPropertyOp31
 70
     1
102
RTVSPropertyOp32
 70
     1
102
RTVSPropertyOp33
 70
     1
102
RTVSPropertyOp34
 70
     1
102
RTVSPropertyOp35
 70
     1
102
RTVSPropertyOp36
 70
     1
102
RTVSPropertyOp37
 70
     1
102
RTVSPropertyOp38
 70
     1
102
RTVSPropertyOp39
 70
     1
102
RTVSPropertyOp40
 70
     1
102
RTVSPropertyOp41
 70
     1
102
RTVSPropertyOp42
 70
     1
102
RTVSPropertyOp43
 70
     1
102
RTVSPropertyOp44
 70
     1
102
RTVSPropertyOp45
 70
     1
102
RTVSPropertyOp46
 70
     1
102
RTVSPropertyOp47
 70
     1
102
RTVSPropertyOp48
 70
     1
102
RTVSPropertyOp49
 70
     1
102
RTVSPropertyOp50
 70
     1
102
RTVSPropertyOp51
 70
     0
102
RTVSPropertyOp52
 70
     0
102
RTVSPropertyOp53
 70
     1
102
RTVSPropertyOp54
 70
     1
102
RTVSPropertyOp55
 70
     1
102
RTVSPropertyOp56
 70
     1
102
RTVSPropertyOp57
 70
     1
102
RTVSPropertyOp58
 70
     1
102
RTVSPropertyOp59
 70
     1
102
RTVSPropertyOp60
 70
     1
102
RTVSPropertyOp61
 70
     1
102
RTVSPropertyOp62
 70
     1
  0
XRECORD
  5
D3C
102
{ACAD_REACTORS
330
D3B
102
}
330
D3B
100
AcDbXrecord
280
     1
102
RTVSPost2010Prop28
280
     0
102
RTVSPost2010PropOp28
 70
     1
102
RTVSPost2010Prop29
280
     1
102
RTVSPost2010PropOp29
 70
     1
102
RTVSPost2010Prop30
280
     1
102
RTVSPost2010PropOp30
 70
     1
102
RTVSPost2010Prop31
280
     0
102
RTVSPost2010PropOp31
 70
     1
102
RTVSPost2010Prop32
280
     0
102
RTVSPost2010PropOp32
 70
     1
102
RTVSPost2010Prop33
280
     0
102
RTVSPost2010PropOp33
 70
     1
102
RTVSPost2010Prop34
280
     0
102
RTVSPost2010PropOp34
 70
     1
102
RTVSPost2010Prop35
280
     0
102
RTVSPost2010PropOp35
 70
     1
102
RTVSPost2010Prop36
280
     0
102
RTVSPost2010PropOp36
 70
     1
102
RTVSPost2010Prop37
 90
       50
102
RTVSPost2010PropOp37
 70
     1
102
RTVSPost2010Prop38
140
0.0
102
RTVSPost2010PropOp38
 70
     1
102
RTVSPost2010Prop39
140
1.0
102
RTVSPost2010PropOp39
 70
     1
102
RTVSPost2010Prop40
 90
        0
102
RTVSPost2010PropOp40
 70
     1
102
RTVSPost2010Prop41ColorIndex
 90
       18
102
RTVSPost2010Prop41ColorRGB
 90
        0
102
RTVSPost2010PropOp41
 70
     1
102
RTVSPost2010Prop42
 90
       50
102
RTVSPost2010PropOp42
 70
     1
102
RTVSPost2010Prop43
 90
        3
102
RTVSPost2010PropOp43
 70
     1
102
RTVSPost2010Prop44ColorIndex
 90
        5
102
RTVSPost2010Prop44ColorRGB
 90
      255
102
RTVSPost2010PropOp44
 70
     1
102
RTVSPost2010Prop45
280
     0
102
RTVSPost2010PropOp45
 70
     1
102
RTVSPost2010Prop46
 90
       50
102
RTVSPost2010PropOp46
 70
     1
102
RTVSPost2010Prop47
 90
       50
102
RTVSPost2010PropOp47
 70
     1
102
RTVSPost2010Prop48
 90
       50
102
RTVSPost2010PropOp48
 70
     1
102
RTVSPost2010Prop49
280
     0
102
RTVSPost2010PropOp49
 70
     1
102
RTVSPost2010Prop50
 90
       50
102
RTVSPost2010PropOp50
 70
     1
102
RTVSPost2010Prop51ColorIndex
 90
      256
102
RTVSPost2010Prop51ColorRGB
 90
-16777216
102
RTVSPost2010PropOp51
 70
     0
102
RTVSPost2010Prop52
140
1.0
102
RTVSPost2010PropOp52
 70
     0
102
RTVSPost2010Prop53
 90
        2
102
RTVSPost2010PropOp53
 70
     1
102
RTVSPost2010Prop54
  1
strokes_ogs.tif
102
RTVSPost2010PropOp54
 70
     1
102
RTVSPost2010Prop55
280
     0
102
RTVSPost2010PropOp55
 70
     1
102
RTVSPost2010Prop56
140
1.0
102
RTVSPost2010PropOp56
 70
     1
102
RTVSPost2010Prop57
140
1.0
102
RTVSPost2010PropOp57
 70
     1
102
RTVSPropertyOp0
 70
     1
102
RTVSPropertyOp1
 70
     1
102
RTVSPropertyOp2
 70
     1
102
RTVSPropertyOp3
 70
     1
102
RTVSPropertyOp4
 70
     1
102
RTVSPropertyOp5
 70
     1
102
RTVSPropertyOp6
 70
     1
102
RTVSPropertyOp7
 70
     1
102
RTVSPropertyOp8
 70
     1
102
RTVSPropertyOp9
 70
     1
102
RTVSPropertyOp10
 70
     1
102
RTVSPropertyOp11
 70
     1
102
RTVSPropertyOp12
 70
     1
102
RTVSPropertyOp13
 70
     1
102
RTVSPropertyOp14
 70
     1
102
RTVSPropertyOp15
 70
     1
102
RTVSPropertyOp16
 70
     1
102
RTVSPropertyOp17
 70
     1
102
RTVSPropertyOp18
 70
     1
102
RTVSPropertyOp19
 70
     1
102
RTVSPropertyOp20
 70
     1
102
RTVSPropertyOp21
 70
     1
102
RTVSPropertyOp22
 70
     1
102
RTVSPropertyOp23
 70
     1
102
RTVSPropertyOp24
 70
     1
102
RTVSPropertyOp25
 70
     1
102
RTVSPropertyOp26
 70
     1
102
RTVSPropertyOp27
 70
     1
102
RTVSPropertyOp28
 70
     1
102
RTVSPropertyOp29
 70
     1
102
RTVSPropertyOp30
 70
     1
102
RTVSPropertyOp31
 70
     1
102
RTVSPropertyOp32
 70
     1
102
RTVSPropertyOp33
 70
     1
102
RTVSPropertyOp34
 70
     1
102
RTVSPropertyOp35
 70
     1
102
RTVSPropertyOp36
 70
     1
102
RTVSPropertyOp37
 70
     1
102
RTVSPropertyOp38
 70
     1
102
RTVSPropertyOp39
 70
     1
102
RTVSPropertyOp40
 70
     1
102
RTVSPropertyOp41
 70
     1
102
RTVSPropertyOp42
 70
     1
102
RTVSPropertyOp43
 70
     1
102
RTVSPropertyOp44
 70
     1
102
RTVSPropertyOp45
 70
     1
102
RTVSPropertyOp46
 70
     1
102
RTVSPropertyOp47
 70
     1
102
RTVSPropertyOp48
 70
     1
102
RTVSPropertyOp49
 70
     1
102
RTVSPropertyOp50
 70
     1
102
RTVSPropertyOp51
 70
     0
102
RTVSPropertyOp52
 70
     0
102
RTVSPropertyOp53
 70
     1
102
RTVSPropertyOp54
 70
     1
102
RTVSPropertyOp55
 70
     1
102
RTVSPropertyOp56
 70
     1
102
RTVSPropertyOp57
 70
     1
102
RTVSPropertyOp58
 70
     1
102
RTVSPropertyOp59
 70
     1
102
RTVSPropertyOp60
 70
     1
102
RTVSPropertyOp61
 70
     1
102
RTVSPropertyOp62
 70
     1
  0
XRECORD
  5
D4C
102
{ACAD_REACTORS
330
D4B
102
}
330
D4B
100
AcDbXrecord
280
     1
102
RTVSPost2010Prop28
280
     0
102
RTVSPost2010PropOp28
 70
     1
102
RTVSPost2010Prop29
280
     1
102
RTVSPost2010PropOp29
 70
     1
102
RTVSPost2010Prop30
280
     1
102
RTVSPost2010PropOp30
 70
     1
102
RTVSPost2010Prop31
280
     0
102
RTVSPost2010PropOp31
 70
     1
102
RTVSPost2010Prop32
280
     0
102
RTVSPost2010PropOp32
 70
     1
102
RTVSPost2010Prop33
280
     0
102
RTVSPost2010PropOp33
 70
     1
102
RTVSPost2010Prop34
280
     0
102
RTVSPost2010PropOp34
 70
     1
102
RTVSPost2010Prop35
280
     0
102
RTVSPost2010PropOp35
 70
     1
102
RTVSPost2010Prop36
280
     0
102
RTVSPost2010PropOp36
 70
     1
102
RTVSPost2010Prop37
 90
       50
102
RTVSPost2010PropOp37
 70
     1
102
RTVSPost2010Prop38
140
0.0
102
RTVSPost2010PropOp38
 70
     1
102
RTVSPost2010Prop39
140
1.0
102
RTVSPost2010PropOp39
 70
     1
102
RTVSPost2010Prop40
 90
        0
102
RTVSPost2010PropOp40
 70
     1
102
RTVSPost2010Prop41ColorIndex
 90
       18
102
RTVSPost2010Prop41ColorRGB
 90
        0
102
RTVSPost2010PropOp41
 70
     1
102
RTVSPost2010Prop42
 90
       50
102
RTVSPost2010PropOp42
 70
     1
102
RTVSPost2010Prop43
 90
        3
102
RTVSPost2010PropOp43
 70
     1
102
RTVSPost2010Prop44ColorIndex
 90
        5
102
RTVSPost2010Prop44ColorRGB
 90
      255
102
RTVSPost2010PropOp44
 70
     1
102
RTVSPost2010Prop45
280
     0
102
RTVSPost2010PropOp45
 70
     1
102
RTVSPost2010Prop46
 90
       50
102
RTVSPost2010PropOp46
 70
     1
102
RTVSPost2010Prop47
 90
       50
102
RTVSPost2010PropOp47
 70
     1
102
RTVSPost2010Prop48
 90
       50
102
RTVSPost2010PropOp48
 70
     1
102
RTVSPost2010Prop49
280
     0
102
RTVSPost2010PropOp49
 70
     1
102
RTVSPost2010Prop50
 90
       50
102
RTVSPost2010PropOp50
 70
     1
102
RTVSPost2010Prop51ColorIndex
 90
      256
102
RTVSPost2010Prop51ColorRGB
 90
-16777216
102
RTVSPost2010PropOp51
 70
     0
102
RTVSPost2010Prop52
140
1.0
102
RTVSPost2010PropOp52
 70
     0
102
RTVSPost2010Prop53
 90
        2
102
RTVSPost2010PropOp53
 70
     1
102
RTVSPost2010Prop54
  1
strokes_ogs.tif
102
RTVSPost2010PropOp54
 70
     1
102
RTVSPost2010Prop55
280
     0
102
RTVSPost2010PropOp55
 70
     1
102
RTVSPost2010Prop56
140
1.0
102
RTVSPost2010PropOp56
 70
     1
102
RTVSPost2010Prop57
140
1.0
102
RTVSPost2010PropOp57
 70
     1
102
RTVSPropertyOp0
 70
     0
102
RTVSPropertyOp1
 70
     0
102
RTVSPropertyOp2
 70
     0
102
RTVSPropertyOp3
 70
     0
102
RTVSPropertyOp4
 70
     0
102
RTVSPropertyOp5
 70
     0
102
RTVSPropertyOp6
 70
     0
102
RTVSPropertyOp7
 70
     0
102
RTVSPropertyOp8
 70
     0
102
RTVSPropertyOp9
 70
     0
102
RTVSPropertyOp10
 70
     0
102
RTVSPropertyOp11
 70
     0
102
RTVSPropertyOp12
 70
     0
102
RTVSPropertyOp13
 70
     0
102
RTVSPropertyOp14
 70
     2
102
RTVSPropertyOp15
 70
     0
102
RTVSPropertyOp16
 70
     0
102
RTVSPropertyOp17
 70
     0
102
RTVSPropertyOp18
 70
     0
102
RTVSPropertyOp19
 70
     0
102
RTVSPropertyOp20
 70
     0
102
RTVSPropertyOp21
 70
     0
102
RTVSPropertyOp22
 70
     0
102
RTVSPropertyOp23
 70
     0
102
RTVSPropertyOp24
 70
     0
102
RTVSPropertyOp25
 70
     0
102
RTVSPropertyOp26
 70
     0
102
RTVSPropertyOp27
 70
     0
102
RTVSPropertyOp28
 70
     1
102
RTVSPropertyOp29
 70
     1
102
RTVSPropertyOp30
 70
     1
102
RTVSPropertyOp31
 70
     1
102
RTVSPropertyOp32
 70
     1
102
RTVSPropertyOp33
 70
     1
102
RTVSPropertyOp34
 70
     1
102
RTVSPropertyOp35
 70
     1
102
RTVSPropertyOp36
 70
     1
102
RTVSPropertyOp37
 70
     1
102
RTVSPropertyOp38
 70
     1
102
RTVSPropertyOp39
 70
     1
102
RTVSPropertyOp40
 70
     1
102
RTVSPropertyOp41
 70
     1
102
RTVSPropertyOp42
 70
     1
102
RTVSPropertyOp43
 70
     1
102
RTVSPropertyOp44
 70
     1
102
RTVSPropertyOp45
 70
     1
102
RTVSPropertyOp46
 70
     1
102
RTVSPropertyOp47
 70
     1
102
RTVSPropertyOp48
 70
     1
102
RTVSPropertyOp49
 70
     1
102
RTVSPropertyOp50
 70
     1
102
RTVSPropertyOp51
 70
     0
102
RTVSPropertyOp52
 70
     0
102
RTVSPropertyOp53
 70
     1
102
RTVSPropertyOp54
 70
     1
102
RTVSPropertyOp55
 70
     1
102
RTVSPropertyOp56
 70
     1
102
RTVSPropertyOp57
 70
     1
102
RTVSPropertyOp58
 70
     1
102
RTVSPropertyOp59
 70
     1
102
RTVSPropertyOp60
 70
     1
102
RTVSPropertyOp61
 70
     1
102
RTVSPropertyOp62
 70
     1
  0
XRECORD
  5
D44
102
{ACAD_REACTORS
330
D43
102
}
330
D43
100
AcDbXrecord
280
     1
102
RTVSPost2010Prop28
280
     0
102
RTVSPost2010PropOp28
 70
     1
102
RTVSPost2010Prop29
280
     1
102
RTVSPost2010PropOp29
 70
     1
102
RTVSPost2010Prop30
280
     1
102
RTVSPost2010PropOp30
 70
     1
102
RTVSPost2010Prop31
280
     0
102
RTVSPost2010PropOp31
 70
     1
102
RTVSPost2010Prop32
280
     0
102
RTVSPost2010PropOp32
 70
     1
102
RTVSPost2010Prop33
280
     0
102
RTVSPost2010PropOp33
 70
     1
102
RTVSPost2010Prop34
280
     0
102
RTVSPost2010PropOp34
 70
     1
102
RTVSPost2010Prop35
280
     0
102
RTVSPost2010PropOp35
 70
     1
102
RTVSPost2010Prop36
280
     0
102
RTVSPost2010PropOp36
 70
     1
102
RTVSPost2010Prop37
 90
       50
102
RTVSPost2010PropOp37
 70
     1
102
RTVSPost2010Prop38
140
0.0
102
RTVSPost2010PropOp38
 70
     1
102
RTVSPost2010Prop39
140
1.0
102
RTVSPost2010PropOp39
 70
     1
102
RTVSPost2010Prop40
 90
        0
102
RTVSPost2010PropOp40
 70
     1
102
RTVSPost2010Prop41ColorIndex
 90
       18
102
RTVSPost2010Prop41ColorRGB
 90
        0
102
RTVSPost2010PropOp41
 70
     1
102
RTVSPost2010Prop42
 90
       50
102
RTVSPost2010PropOp42
 70
     1
102
RTVSPost2010Prop43
 90
        3
102
RTVSPost2010PropOp43
 70
     1
102
RTVSPost2010Prop44ColorIndex
 90
        5
102
RTVSPost2010Prop44ColorRGB
 90
      255
102
RTVSPost2010PropOp44
 70
     1
102
RTVSPost2010Prop45
280
     0
102
RTVSPost2010PropOp45
 70
     1
102
RTVSPost2010Prop46
 90
       50
102
RTVSPost2010PropOp46
 70
     1
102
RTVSPost2010Prop47
 90
       50
102
RTVSPost2010PropOp47
 70
     1
102
RTVSPost2010Prop48
 90
       50
102
RTVSPost2010PropOp48
 70
     1
102
RTVSPost2010Prop49
280
     0
102
RTVSPost2010PropOp49
 70
     1
102
RTVSPost2010Prop50
 90
       50
102
RTVSPost2010PropOp50
 70
     1
102
RTVSPost2010Prop51ColorIndex
 90
      256
102
RTVSPost2010Prop51ColorRGB
 90
-16777216
102
RTVSPost2010PropOp51
 70
     0
102
RTVSPost2010Prop52
140
1.0
102
RTVSPost2010PropOp52
 70
     0
102
RTVSPost2010Prop53
 90
        2
102
RTVSPost2010PropOp53
 70
     1
102
RTVSPost2010Prop54
  1
strokes_ogs.tif
102
RTVSPost2010PropOp54
 70
     1
102
RTVSPost2010Prop55
280
     0
102
RTVSPost2010PropOp55
 70
     1
102
RTVSPost2010Prop56
140
1.0
102
RTVSPost2010PropOp56
 70
     1
102
RTVSPost2010Prop57
140
1.0
102
RTVSPost2010PropOp57
 70
     1
102
RTVSPropertyOp0
 70
     1
102
RTVSPropertyOp1
 70
     1
102
RTVSPropertyOp2
 70
     1
102
RTVSPropertyOp3
 70
     1
102
RTVSPropertyOp4
 70
     1
102
RTVSPropertyOp5
 70
     1
102
RTVSPropertyOp6
 70
     1
102
RTVSPropertyOp7
 70
     1
102
RTVSPropertyOp8
 70
     1
102
RTVSPropertyOp9
 70
     1
102
RTVSPropertyOp10
 70
     1
102
RTVSPropertyOp11
 70
     1
102
RTVSPropertyOp12
 70
     1
102
RTVSPropertyOp13
 70
     1
102
RTVSPropertyOp14
 70
     1
102
RTVSPropertyOp15
 70
     1
102
RTVSPropertyOp16
 70
     1
102
RTVSPropertyOp17
 70
     1
102
RTVSPropertyOp18
 70
     1
102
RTVSPropertyOp19
 70
     1
102
RTVSPropertyOp20
 70
     1
102
RTVSPropertyOp21
 70
     1
102
RTVSPropertyOp22
 70
     1
102
RTVSPropertyOp23
 70
     1
102
RTVSPropertyOp24
 70
     1
102
RTVSPropertyOp25
 70
     1
102
RTVSPropertyOp26
 70
     1
102
RTVSPropertyOp27
 70
     1
102
RTVSPropertyOp28
 70
     1
102
RTVSPropertyOp29
 70
     1
102
RTVSPropertyOp30
 70
     1
102
RTVSPropertyOp31
 70
     1
102
RTVSPropertyOp32
 70
     1
102
RTVSPropertyOp33
 70
     1
102
RTVSPropertyOp34
 70
     1
102
RTVSPropertyOp35
 70
     1
102
RTVSPropertyOp36
 70
     1
102
RTVSPropertyOp37
 70
     1
102
RTVSPropertyOp38
 70
     1
102
RTVSPropertyOp39
 70
     1
102
RTVSPropertyOp40
 70
     1
102
RTVSPropertyOp41
 70
     1
102
RTVSPropertyOp42
 70
     1
102
RTVSPropertyOp43
 70
     1
102
RTVSPropertyOp44
 70
     1
102
RTVSPropertyOp45
 70
     1
102
RTVSPropertyOp46
 70
     1
102
RTVSPropertyOp47
 70
     1
102
RTVSPropertyOp48
 70
     1
102
RTVSPropertyOp49
 70
     1
102
RTVSPropertyOp50
 70
     1
102
RTVSPropertyOp51
 70
     0
102
RTVSPropertyOp52
 70
     0
102
RTVSPropertyOp53
 70
     1
102
RTVSPropertyOp54
 70
     1
102
RTVSPropertyOp55
 70
     1
102
RTVSPropertyOp56
 70
     1
102
RTVSPropertyOp57
 70
     1
102
RTVSPropertyOp58
 70
     1
102
RTVSPropertyOp59
 70
     1
102
RTVSPropertyOp60
 70
     1
102
RTVSPropertyOp61
 70
     1
102
RTVSPropertyOp62
 70
     1
  0
XRECORD
  5
D28
102
{ACAD_REACTORS
330
D27
102
}
330
D27
100
AcDbXrecord
280
     1
102
RTVSPost2010Prop28
280
     0
102
RTVSPost2010PropOp28
 70
     1
102
RTVSPost2010Prop29
280
     1
102
RTVSPost2010PropOp29
 70
     1
102
RTVSPost2010Prop30
280
     1
102
RTVSPost2010PropOp30
 70
     1
102
RTVSPost2010Prop31
280
     0
102
RTVSPost2010PropOp31
 70
     1
102
RTVSPost2010Prop32
280
     0
102
RTVSPost2010PropOp32
 70
     1
102
RTVSPost2010Prop33
280
     0
102
RTVSPost2010PropOp33
 70
     1
102
RTVSPost2010Prop34
280
     0
102
RTVSPost2010PropOp34
 70
     1
102
RTVSPost2010Prop35
280
     0
102
RTVSPost2010PropOp35
 70
     1
102
RTVSPost2010Prop36
280
     0
102
RTVSPost2010PropOp36
 70
     1
102
RTVSPost2010Prop37
 90
       50
102
RTVSPost2010PropOp37
 70
     1
102
RTVSPost2010Prop38
140
0.0
102
RTVSPost2010PropOp38
 70
     1
102
RTVSPost2010Prop39
140
1.0
102
RTVSPost2010PropOp39
 70
     1
102
RTVSPost2010Prop40
 90
        0
102
RTVSPost2010PropOp40
 70
     1
102
RTVSPost2010Prop41ColorIndex
 90
       18
102
RTVSPost2010Prop41ColorRGB
 90
        0
102
RTVSPost2010PropOp41
 70
     1
102
RTVSPost2010Prop42
 90
       50
102
RTVSPost2010PropOp42
 70
     1
102
RTVSPost2010Prop43
 90
        3
102
RTVSPost2010PropOp43
 70
     1
102
RTVSPost2010Prop44ColorIndex
 90
        5
102
RTVSPost2010Prop44ColorRGB
 90
      255
102
RTVSPost2010PropOp44
 70
     1
102
RTVSPost2010Prop45
280
     0
102
RTVSPost2010PropOp45
 70
     1
102
RTVSPost2010Prop46
 90
       50
102
RTVSPost2010PropOp46
 70
     1
102
RTVSPost2010Prop47
 90
       50
102
RTVSPost2010PropOp47
 70
     1
102
RTVSPost2010Prop48
 90
       50
102
RTVSPost2010PropOp48
 70
     1
102
RTVSPost2010Prop49
280
     0
102
RTVSPost2010PropOp49
 70
     1
102
RTVSPost2010Prop50
 90
       50
102
RTVSPost2010PropOp50
 70
     1
102
RTVSPost2010Prop51ColorIndex
 90
      256
102
RTVSPost2010Prop51ColorRGB
 90
-16777216
102
RTVSPost2010PropOp51
 70
     0
102
RTVSPost2010Prop52
140
1.0
102
RTVSPost2010PropOp52
 70
     0
102
RTVSPost2010Prop53
 90
        2
102
RTVSPost2010PropOp53
 70
     1
102
RTVSPost2010Prop54
  1
strokes_ogs.tif
102
RTVSPost2010PropOp54
 70
     1
102
RTVSPost2010Prop55
280
     0
102
RTVSPost2010PropOp55
 70
     1
102
RTVSPost2010Prop56
140
1.0
102
RTVSPost2010PropOp56
 70
     1
102
RTVSPost2010Prop57
140
1.0
102
RTVSPost2010PropOp57
 70
     1
102
RTVSPropertyOp0
 70
     1
102
RTVSPropertyOp1
 70
     1
102
RTVSPropertyOp2
 70
     1
102
RTVSPropertyOp3
 70
     1
102
RTVSPropertyOp4
 70
     1
102
RTVSPropertyOp5
 70
     1
102
RTVSPropertyOp6
 70
     1
102
RTVSPropertyOp7
 70
     1
102
RTVSPropertyOp8
 70
     1
102
RTVSPropertyOp9
 70
     1
102
RTVSPropertyOp10
 70
     1
102
RTVSPropertyOp11
 70
     1
102
RTVSPropertyOp12
 70
     1
102
RTVSPropertyOp13
 70
     1
102
RTVSPropertyOp14
 70
     1
102
RTVSPropertyOp15
 70
     1
102
RTVSPropertyOp16
 70
     1
102
RTVSPropertyOp17
 70
     1
102
RTVSPropertyOp18
 70
     1
102
RTVSPropertyOp19
 70
     1
102
RTVSPropertyOp20
 70
     1
102
RTVSPropertyOp21
 70
     1
102
RTVSPropertyOp22
 70
     1
102
RTVSPropertyOp23
 70
     1
102
RTVSPropertyOp24
 70
     1
102
RTVSPropertyOp25
 70
     1
102
RTVSPropertyOp26
 70
     1
102
RTVSPropertyOp27
 70
     1
102
RTVSPropertyOp28
 70
     1
102
RTVSPropertyOp29
 70
     1
102
RTVSPropertyOp30
 70
     1
102
RTVSPropertyOp31
 70
     1
102
RTVSPropertyOp32
 70
     1
102
RTVSPropertyOp33
 70
     1
102
RTVSPropertyOp34
 70
     1
102
RTVSPropertyOp35
 70
     1
102
RTVSPropertyOp36
 70
     1
102
RTVSPropertyOp37
 70
     1
102
RTVSPropertyOp38
 70
     1
102
RTVSPropertyOp39
 70
     1
102
RTVSPropertyOp40
 70
     1
102
RTVSPropertyOp41
 70
     1
102
RTVSPropertyOp42
 70
     1
102
RTVSPropertyOp43
 70
     1
102
RTVSPropertyOp44
 70
     1
102
RTVSPropertyOp45
 70
     1
102
RTVSPropertyOp46
 70
     1
102
RTVSPropertyOp47
 70
     1
102
RTVSPropertyOp48
 70
     1
102
RTVSPropertyOp49
 70
     1
102
RTVSPropertyOp50
 70
     1
102
RTVSPropertyOp51
 70
     0
102
RTVSPropertyOp52
 70
     0
102
RTVSPropertyOp53
 70
     1
102
RTVSPropertyOp54
 70
     1
102
RTVSPropertyOp55
 70
     1
102
RTVSPropertyOp56
 70
     1
102
RTVSPropertyOp57
 70
     1
102
RTVSPropertyOp58
 70
     1
102
RTVSPropertyOp59
 70
     1
102
RTVSPropertyOp60
 70
     1
102
RTVSPropertyOp61
 70
     1
102
RTVSPropertyOp62
 70
     1
  0
XRECORD
  5
D2A
102
{ACAD_REACTORS
330
D29
102
}
330
D29
100
AcDbXrecord
280
     1
102
RTVSPost2010Prop28
280
     0
102
RTVSPost2010PropOp28
 70
     1
102
RTVSPost2010Prop29
280
     1
102
RTVSPost2010PropOp29
 70
     1
102
RTVSPost2010Prop30
280
     1
102
RTVSPost2010PropOp30
 70
     1
102
RTVSPost2010Prop31
280
     0
102
RTVSPost2010PropOp31
 70
     1
102
RTVSPost2010Prop32
280
     0
102
RTVSPost2010PropOp32
 70
     1
102
RTVSPost2010Prop33
280
     0
102
RTVSPost2010PropOp33
 70
     1
102
RTVSPost2010Prop34
280
     0
102
RTVSPost2010PropOp34
 70
     1
102
RTVSPost2010Prop35
280
     0
102
RTVSPost2010PropOp35
 70
     1
102
RTVSPost2010Prop36
280
     0
102
RTVSPost2010PropOp36
 70
     1
102
RTVSPost2010Prop37
 90
       50
102
RTVSPost2010PropOp37
 70
     1
102
RTVSPost2010Prop38
140
0.0
102
RTVSPost2010PropOp38
 70
     1
102
RTVSPost2010Prop39
140
1.0
102
RTVSPost2010PropOp39
 70
     1
102
RTVSPost2010Prop40
 90
        0
102
RTVSPost2010PropOp40
 70
     1
102
RTVSPost2010Prop41ColorIndex
 90
       18
102
RTVSPost2010Prop41ColorRGB
 90
        0
102
RTVSPost2010PropOp41
 70
     1
102
RTVSPost2010Prop42
 90
       50
102
RTVSPost2010PropOp42
 70
     1
102
RTVSPost2010Prop43
 90
        3
102
RTVSPost2010PropOp43
 70
     1
102
RTVSPost2010Prop44ColorIndex
 90
        5
102
RTVSPost2010Prop44ColorRGB
 90
      255
102
RTVSPost2010PropOp44
 70
     1
102
RTVSPost2010Prop45
280
     0
102
RTVSPost2010PropOp45
 70
     1
102
RTVSPost2010Prop46
 90
       50
102
RTVSPost2010PropOp46
 70
     1
102
RTVSPost2010Prop47
 90
       50
102
RTVSPost2010PropOp47
 70
     1
102
RTVSPost2010Prop48
 90
       50
102
RTVSPost2010PropOp48
 70
     1
102
RTVSPost2010Prop49
280
     0
102
RTVSPost2010PropOp49
 70
     1
102
RTVSPost2010Prop50
 90
       50
102
RTVSPost2010PropOp50
 70
     1
102
RTVSPost2010Prop51ColorIndex
 90
      256
102
RTVSPost2010Prop51ColorRGB
 90
-16777216
102
RTVSPost2010PropOp51
 70
     0
102
RTVSPost2010Prop52
140
1.0
102
RTVSPost2010PropOp52
 70
     0
102
RTVSPost2010Prop53
 90
        2
102
RTVSPost2010PropOp53
 70
     1
102
RTVSPost2010Prop54
  1
strokes_ogs.tif
102
RTVSPost2010PropOp54
 70
     1
102
RTVSPost2010Prop55
280
     0
102
RTVSPost2010PropOp55
 70
     1
102
RTVSPost2010Prop56
140
1.0
102
RTVSPost2010PropOp56
 70
     1
102
RTVSPost2010Prop57
140
1.0
102
RTVSPost2010PropOp57
 70
     1
102
RTVSPropertyOp0
 70
     1
102
RTVSPropertyOp1
 70
     1
102
RTVSPropertyOp2
 70
     1
102
RTVSPropertyOp3
 70
     1
102
RTVSPropertyOp4
 70
     1
102
RTVSPropertyOp5
 70
     1
102
RTVSPropertyOp6
 70
     1
102
RTVSPropertyOp7
 70
     1
102
RTVSPropertyOp8
 70
     1
102
RTVSPropertyOp9
 70
     1
102
RTVSPropertyOp10
 70
     1
102
RTVSPropertyOp11
 70
     1
102
RTVSPropertyOp12
 70
     1
102
RTVSPropertyOp13
 70
     1
102
RTVSPropertyOp14
 70
     1
102
RTVSPropertyOp15
 70
     1
102
RTVSPropertyOp16
 70
     1
102
RTVSPropertyOp17
 70
     1
102
RTVSPropertyOp18
 70
     1
102
RTVSPropertyOp19
 70
     1
102
RTVSPropertyOp20
 70
     1
102
RTVSPropertyOp21
 70
     1
102
RTVSPropertyOp22
 70
     1
102
RTVSPropertyOp23
 70
     1
102
RTVSPropertyOp24
 70
     1
102
RTVSPropertyOp25
 70
     1
102
RTVSPropertyOp26
 70
     1
102
RTVSPropertyOp27
 70
     1
102
RTVSPropertyOp28
 70
     1
102
RTVSPropertyOp29
 70
     1
102
RTVSPropertyOp30
 70
     1
102
RTVSPropertyOp31
 70
     1
102
RTVSPropertyOp32
 70
     1
102
RTVSPropertyOp33
 70
     1
102
RTVSPropertyOp34
 70
     1
102
RTVSPropertyOp35
 70
     1
102
RTVSPropertyOp36
 70
     1
102
RTVSPropertyOp37
 70
     1
102
RTVSPropertyOp38
 70
     1
102
RTVSPropertyOp39
 70
     1
102
RTVSPropertyOp40
 70
     1
102
RTVSPropertyOp41
 70
     1
102
RTVSPropertyOp42
 70
     1
102
RTVSPropertyOp43
 70
     1
102
RTVSPropertyOp44
 70
     1
102
RTVSPropertyOp45
 70
     1
102
RTVSPropertyOp46
 70
     1
102
RTVSPropertyOp47
 70
     1
102
RTVSPropertyOp48
 70
     1
102
RTVSPropertyOp49
 70
     1
102
RTVSPropertyOp50
 70
     1
102
RTVSPropertyOp51
 70
     0
102
RTVSPropertyOp52
 70
     0
102
RTVSPropertyOp53
 70
     1
102
RTVSPropertyOp54
 70
     1
102
RTVSPropertyOp55
 70
     1
102
RTVSPropertyOp56
 70
     1
102
RTVSPropertyOp57
 70
     1
102
RTVSPropertyOp58
 70
     1
102
RTVSPropertyOp59
 70
     1
102
RTVSPropertyOp60
 70
     1
102
RTVSPropertyOp61
 70
     1
102
RTVSPropertyOp62
 70
     1
  0
XRECORD
  5
D2C
102
{ACAD_REACTORS
330
D2B
102
}
330
D2B
100
AcDbXrecord
280
     1
102
RTVSPost2010Prop28
280
     0
102
RTVSPost2010PropOp28
 70
     1
102
RTVSPost2010Prop29
280
     1
102
RTVSPost2010PropOp29
 70
     1
102
RTVSPost2010Prop30
280
     1
102
RTVSPost2010PropOp30
 70
     1
102
RTVSPost2010Prop31
280
     0
102
RTVSPost2010PropOp31
 70
     1
102
RTVSPost2010Prop32
280
     0
102
RTVSPost2010PropOp32
 70
     1
102
RTVSPost2010Prop33
280
     0
102
RTVSPost2010PropOp33
 70
     1
102
RTVSPost2010Prop34
280
     0
102
RTVSPost2010PropOp34
 70
     1
102
RTVSPost2010Prop35
280
     0
102
RTVSPost2010PropOp35
 70
     1
102
RTVSPost2010Prop36
280
     0
102
RTVSPost2010PropOp36
 70
     1
102
RTVSPost2010Prop37
 90
       50
102
RTVSPost2010PropOp37
 70
     1
102
RTVSPost2010Prop38
140
0.0
102
RTVSPost2010PropOp38
 70
     1
102
RTVSPost2010Prop39
140
1.0
102
RTVSPost2010PropOp39
 70
     1
102
RTVSPost2010Prop40
 90
        0
102
RTVSPost2010PropOp40
 70
     1
102
RTVSPost2010Prop41ColorIndex
 90
       18
102
RTVSPost2010Prop41ColorRGB
 90
        0
102
RTVSPost2010PropOp41
 70
     1
102
RTVSPost2010Prop42
 90
       50
102
RTVSPost2010PropOp42
 70
     1
102
RTVSPost2010Prop43
 90
        3
102
RTVSPost2010PropOp43
 70
     1
102
RTVSPost2010Prop44ColorIndex
 90
        5
102
RTVSPost2010Prop44ColorRGB
 90
      255
102
RTVSPost2010PropOp44
 70
     1
102
RTVSPost2010Prop45
280
     0
102
RTVSPost2010PropOp45
 70
     1
102
RTVSPost2010Prop46
 90
       50
102
RTVSPost2010PropOp46
 70
     1
102
RTVSPost2010Prop47
 90
       50
102
RTVSPost2010PropOp47
 70
     1
102
RTVSPost2010Prop48
 90
       50
102
RTVSPost2010PropOp48
 70
     1
102
RTVSPost2010Prop49
280
     0
102
RTVSPost2010PropOp49
 70
     1
102
RTVSPost2010Prop50
 90
       50
102
RTVSPost2010PropOp50
 70
     1
102
RTVSPost2010Prop51ColorIndex
 90
      256
102
RTVSPost2010Prop51ColorRGB
 90
-16777216
102
RTVSPost2010PropOp51
 70
     0
102
RTVSPost2010Prop52
140
1.0
102
RTVSPost2010PropOp52
 70
     0
102
RTVSPost2010Prop53
 90
        2
102
RTVSPost2010PropOp53
 70
     1
102
RTVSPost2010Prop54
  1
strokes_ogs.tif
102
RTVSPost2010PropOp54
 70
     1
102
RTVSPost2010Prop55
280
     0
102
RTVSPost2010PropOp55
 70
     1
102
RTVSPost2010Prop56
140
1.0
102
RTVSPost2010PropOp56
 70
     1
102
RTVSPost2010Prop57
140
1.0
102
RTVSPost2010PropOp57
 70
     1
102
RTVSPropertyOp0
 70
     1
102
RTVSPropertyOp1
 70
     1
102
RTVSPropertyOp2
 70
     1
102
RTVSPropertyOp3
 70
     1
102
RTVSPropertyOp4
 70
     1
102
RTVSPropertyOp5
 70
     1
102
RTVSPropertyOp6
 70
     1
102
RTVSPropertyOp7
 70
     1
102
RTVSPropertyOp8
 70
     1
102
RTVSPropertyOp9
 70
     1
102
RTVSPropertyOp10
 70
     1
102
RTVSPropertyOp11
 70
     1
102
RTVSPropertyOp12
 70
     1
102
RTVSPropertyOp13
 70
     1
102
RTVSPropertyOp14
 70
     1
102
RTVSPropertyOp15
 70
     1
102
RTVSPropertyOp16
 70
     1
102
RTVSPropertyOp17
 70
     1
102
RTVSPropertyOp18
 70
     1
102
RTVSPropertyOp19
 70
     1
102
RTVSPropertyOp20
 70
     1
102
RTVSPropertyOp21
 70
     1
102
RTVSPropertyOp22
 70
     1
102
RTVSPropertyOp23
 70
     1
102
RTVSPropertyOp24
 70
     1
102
RTVSPropertyOp25
 70
     1
102
RTVSPropertyOp26
 70
     1
102
RTVSPropertyOp27
 70
     1
102
RTVSPropertyOp28
 70
     1
102
RTVSPropertyOp29
 70
     1
102
RTVSPropertyOp30
 70
     1
102
RTVSPropertyOp31
 70
     1
102
RTVSPropertyOp32
 70
     1
102
RTVSPropertyOp33
 70
     1
102
RTVSPropertyOp34
 70
     1
102
RTVSPropertyOp35
 70
     1
102
RTVSPropertyOp36
 70
     1
102
RTVSPropertyOp37
 70
     1
102
RTVSPropertyOp38
 70
     1
102
RTVSPropertyOp39
 70
     1
102
RTVSPropertyOp40
 70
     1
102
RTVSPropertyOp41
 70
     1
102
RTVSPropertyOp42
 70
     1
102
RTVSPropertyOp43
 70
     1
102
RTVSPropertyOp44
 70
     1
102
RTVSPropertyOp45
 70
     1
102
RTVSPropertyOp46
 70
     1
102
RTVSPropertyOp47
 70
     1
102
RTVSPropertyOp48
 70
     1
102
RTVSPropertyOp49
 70
     1
102
RTVSPropertyOp50
 70
     1
102
RTVSPropertyOp51
 70
     0
102
RTVSPropertyOp52
 70
     0
102
RTVSPropertyOp53
 70
     1
102
RTVSPropertyOp54
 70
     1
102
RTVSPropertyOp55
 70
     1
102
RTVSPropertyOp56
 70
     1
102
RTVSPropertyOp57
 70
     1
102
RTVSPropertyOp58
 70
     1
102
RTVSPropertyOp59
 70
     1
102
RTVSPropertyOp60
 70
     1
102
RTVSPropertyOp61
 70
     1
102
RTVSPropertyOp62
 70
     1
  0
XRECORD
  5
D2E
102
{ACAD_REACTORS
330
D2D
102
}
330
D2D
100
AcDbXrecord
280
     1
102
RTVSPost2010Prop28
280
     0
102
RTVSPost2010PropOp28
 70
     1
102
RTVSPost2010Prop29
280
     1
102
RTVSPost2010PropOp29
 70
     1
102
RTVSPost2010Prop30
280
     1
102
RTVSPost2010PropOp30
 70
     1
102
RTVSPost2010Prop31
280
     0
102
RTVSPost2010PropOp31
 70
     1
102
RTVSPost2010Prop32
280
     0
102
RTVSPost2010PropOp32
 70
     1
102
RTVSPost2010Prop33
280
     0
102
RTVSPost2010PropOp33
 70
     1
102
RTVSPost2010Prop34
280
     0
102
RTVSPost2010PropOp34
 70
     1
102
RTVSPost2010Prop35
280
     0
102
RTVSPost2010PropOp35
 70
     1
102
RTVSPost2010Prop36
280
     0
102
RTVSPost2010PropOp36
 70
     1
102
RTVSPost2010Prop37
 90
       50
102
RTVSPost2010PropOp37
 70
     1
102
RTVSPost2010Prop38
140
0.0
102
RTVSPost2010PropOp38
 70
     1
102
RTVSPost2010Prop39
140
1.0
102
RTVSPost2010PropOp39
 70
     1
102
RTVSPost2010Prop40
 90
        0
102
RTVSPost2010PropOp40
 70
     1
102
RTVSPost2010Prop41ColorIndex
 90
       18
102
RTVSPost2010Prop41ColorRGB
 90
        0
102
RTVSPost2010PropOp41
 70
     1
102
RTVSPost2010Prop42
 90
       50
102
RTVSPost2010PropOp42
 70
     1
102
RTVSPost2010Prop43
 90
        3
102
RTVSPost2010PropOp43
 70
     1
102
RTVSPost2010Prop44ColorIndex
 90
        5
102
RTVSPost2010Prop44ColorRGB
 90
      255
102
RTVSPost2010PropOp44
 70
     1
102
RTVSPost2010Prop45
280
     0
102
RTVSPost2010PropOp45
 70
     1
102
RTVSPost2010Prop46
 90
       50
102
RTVSPost2010PropOp46
 70
     1
102
RTVSPost2010Prop47
 90
       50
102
RTVSPost2010PropOp47
 70
     1
102
RTVSPost2010Prop48
 90
       50
102
RTVSPost2010PropOp48
 70
     1
102
RTVSPost2010Prop49
280
     0
102
RTVSPost2010PropOp49
 70
     1
102
RTVSPost2010Prop50
 90
       50
102
RTVSPost2010PropOp50
 70
     1
102
RTVSPost2010Prop51ColorIndex
 90
      256
102
RTVSPost2010Prop51ColorRGB
 90
-16777216
102
RTVSPost2010PropOp51
 70
     0
102
RTVSPost2010Prop52
140
1.0
102
RTVSPost2010PropOp52
 70
     0
102
RTVSPost2010Prop53
 90
        2
102
RTVSPost2010PropOp53
 70
     1
102
RTVSPost2010Prop54
  1
strokes_ogs.tif
102
RTVSPost2010PropOp54
 70
     1
102
RTVSPost2010Prop55
280
     0
102
RTVSPost2010PropOp55
 70
     1
102
RTVSPost2010Prop56
140
1.0
102
RTVSPost2010PropOp56
 70
     1
102
RTVSPost2010Prop57
140
1.0
102
RTVSPost2010PropOp57
 70
     1
102
RTVSPropertyOp0
 70
     1
102
RTVSPropertyOp1
 70
     1
102
RTVSPropertyOp2
 70
     1
102
RTVSPropertyOp3
 70
     1
102
RTVSPropertyOp4
 70
     1
102
RTVSPropertyOp5
 70
     1
102
RTVSPropertyOp6
 70
     1
102
RTVSPropertyOp7
 70
     1
102
RTVSPropertyOp8
 70
     1
102
RTVSPropertyOp9
 70
     1
102
RTVSPropertyOp10
 70
     1
102
RTVSPropertyOp11
 70
     1
102
RTVSPropertyOp12
 70
     1
102
RTVSPropertyOp13
 70
     1
102
RTVSPropertyOp14
 70
     1
102
RTVSPropertyOp15
 70
     1
102
RTVSPropertyOp16
 70
     1
102
RTVSPropertyOp17
 70
     1
102
RTVSPropertyOp18
 70
     1
102
RTVSPropertyOp19
 70
     1
102
RTVSPropertyOp20
 70
     1
102
RTVSPropertyOp21
 70
     1
102
RTVSPropertyOp22
 70
     1
102
RTVSPropertyOp23
 70
     1
102
RTVSPropertyOp24
 70
     1
102
RTVSPropertyOp25
 70
     1
102
RTVSPropertyOp26
 70
     1
102
RTVSPropertyOp27
 70
     1
102
RTVSPropertyOp28
 70
     1
102
RTVSPropertyOp29
 70
     1
102
RTVSPropertyOp30
 70
     1
102
RTVSPropertyOp31
 70
     1
102
RTVSPropertyOp32
 70
     1
102
RTVSPropertyOp33
 70
     1
102
RTVSPropertyOp34
 70
     1
102
RTVSPropertyOp35
 70
     1
102
RTVSPropertyOp36
 70
     1
102
RTVSPropertyOp37
 70
     1
102
RTVSPropertyOp38
 70
     1
102
RTVSPropertyOp39
 70
     1
102
RTVSPropertyOp40
 70
     1
102
RTVSPropertyOp41
 70
     1
102
RTVSPropertyOp42
 70
     1
102
RTVSPropertyOp43
 70
     1
102
RTVSPropertyOp44
 70
     1
102
RTVSPropertyOp45
 70
     1
102
RTVSPropertyOp46
 70
     1
102
RTVSPropertyOp47
 70
     1
102
RTVSPropertyOp48
 70
     1
102
RTVSPropertyOp49
 70
     1
102
RTVSPropertyOp50
 70
     1
102
RTVSPropertyOp51
 70
     0
102
RTVSPropertyOp52
 70
     0
102
RTVSPropertyOp53
 70
     1
102
RTVSPropertyOp54
 70
     1
102
RTVSPropertyOp55
 70
     1
102
RTVSPropertyOp56
 70
     1
102
RTVSPropertyOp57
 70
     1
102
RTVSPropertyOp58
 70
     1
102
RTVSPropertyOp59
 70
     1
102
RTVSPropertyOp60
 70
     1
102
RTVSPropertyOp61
 70
     1
102
RTVSPropertyOp62
 70
     1
  0
XRECORD
  5
D51
102
{ACAD_REACTORS
330
D50
102
}
330
D50
100
AcDbXrecord
280
     1
102
RTVSPost2010Prop28
280
     0
102
RTVSPost2010PropOp28
 70
     1
102
RTVSPost2010Prop29
280
     1
102
RTVSPost2010PropOp29
 70
     1
102
RTVSPost2010Prop30
280
     1
102
RTVSPost2010PropOp30
 70
     1
102
RTVSPost2010Prop31
280
     0
102
RTVSPost2010PropOp31
 70
     1
102
RTVSPost2010Prop32
280
     0
102
RTVSPost2010PropOp32
 70
     1
102
RTVSPost2010Prop33
280
     0
102
RTVSPost2010PropOp33
 70
     1
102
RTVSPost2010Prop34
280
     0
102
RTVSPost2010PropOp34
 70
     1
102
RTVSPost2010Prop35
280
     0
102
RTVSPost2010PropOp35
 70
     1
102
RTVSPost2010Prop36
280
     0
102
RTVSPost2010PropOp36
 70
     1
102
RTVSPost2010Prop37
 90
       50
102
RTVSPost2010PropOp37
 70
     1
102
RTVSPost2010Prop38
140
0.0
102
RTVSPost2010PropOp38
 70
     1
102
RTVSPost2010Prop39
140
1.0
102
RTVSPost2010PropOp39
 70
     1
102
RTVSPost2010Prop40
 90
        0
102
RTVSPost2010PropOp40
 70
     1
102
RTVSPost2010Prop41ColorIndex
 90
       18
102
RTVSPost2010Prop41ColorRGB
 90
        0
102
RTVSPost2010PropOp41
 70
     1
102
RTVSPost2010Prop42
 90
       50
102
RTVSPost2010PropOp42
 70
     1
102
RTVSPost2010Prop43
 90
        3
102
RTVSPost2010PropOp43
 70
     1
102
RTVSPost2010Prop44ColorIndex
 90
        5
102
RTVSPost2010Prop44ColorRGB
 90
      255
102
RTVSPost2010PropOp44
 70
     1
102
RTVSPost2010Prop45
280
     0
102
RTVSPost2010PropOp45
 70
     1
102
RTVSPost2010Prop46
 90
       50
102
RTVSPost2010PropOp46
 70
     1
102
RTVSPost2010Prop47
 90
       50
102
RTVSPost2010PropOp47
 70
     1
102
RTVSPost2010Prop48
 90
       50
102
RTVSPost2010PropOp48
 70
     1
102
RTVSPost2010Prop49
280
     0
102
RTVSPost2010PropOp49
 70
     1
102
RTVSPost2010Prop50
 90
       50
102
RTVSPost2010PropOp50
 70
     1
102
RTVSPost2010Prop51ColorIndex
 90
      256
102
RTVSPost2010Prop51ColorRGB
 90
-16777216
102
RTVSPost2010PropOp51
 70
     0
102
RTVSPost2010Prop52
140
1.0
102
RTVSPost2010PropOp52
 70
     0
102
RTVSPost2010Prop53
 90
        2
102
RTVSPost2010PropOp53
 70
     1
102
RTVSPost2010Prop54
  1
strokes_ogs.tif
102
RTVSPost2010PropOp54
 70
     1
102
RTVSPost2010Prop55
280
     0
102
RTVSPost2010PropOp55
 70
     1
102
RTVSPost2010Prop56
140
1.0
102
RTVSPost2010PropOp56
 70
     1
102
RTVSPost2010Prop57
140
1.0
102
RTVSPost2010PropOp57
 70
     1
102
RTVSPropertyOp0
 70
     1
102
RTVSPropertyOp1
 70
     1
102
RTVSPropertyOp2
 70
     1
102
RTVSPropertyOp3
 70
     1
102
RTVSPropertyOp4
 70
     1
102
RTVSPropertyOp5
 70
     1
102
RTVSPropertyOp6
 70
     1
102
RTVSPropertyOp7
 70
     1
102
RTVSPropertyOp8
 70
     1
102
RTVSPropertyOp9
 70
     1
102
RTVSPropertyOp10
 70
     1
102
RTVSPropertyOp11
 70
     1
102
RTVSPropertyOp12
 70
     1
102
RTVSPropertyOp13
 70
     1
102
RTVSPropertyOp14
 70
     1
102
RTVSPropertyOp15
 70
     1
102
RTVSPropertyOp16
 70
     1
102
RTVSPropertyOp17
 70
     1
102
RTVSPropertyOp18
 70
     1
102
RTVSPropertyOp19
 70
     1
102
RTVSPropertyOp20
 70
     1
102
RTVSPropertyOp21
 70
     1
102
RTVSPropertyOp22
 70
     1
102
RTVSPropertyOp23
 70
     1
102
RTVSPropertyOp24
 70
     1
102
RTVSPropertyOp25
 70
     1
102
RTVSPropertyOp26
 70
     1
102
RTVSPropertyOp27
 70
     1
102
RTVSPropertyOp28
 70
     1
102
RTVSPropertyOp29
 70
     1
102
RTVSPropertyOp30
 70
     1
102
RTVSPropertyOp31
 70
     1
102
RTVSPropertyOp32
 70
     1
102
RTVSPropertyOp33
 70
     1
102
RTVSPropertyOp34
 70
     1
102
RTVSPropertyOp35
 70
     1
102
RTVSPropertyOp36
 70
     1
102
RTVSPropertyOp37
 70
     1
102
RTVSPropertyOp38
 70
     1
102
RTVSPropertyOp39
 70
     1
102
RTVSPropertyOp40
 70
     1
102
RTVSPropertyOp41
 70
     1
102
RTVSPropertyOp42
 70
     1
102
RTVSPropertyOp43
 70
     1
102
RTVSPropertyOp44
 70
     1
102
RTVSPropertyOp45
 70
     1
102
RTVSPropertyOp46
 70
     1
102
RTVSPropertyOp47
 70
     1
102
RTVSPropertyOp48
 70
     1
102
RTVSPropertyOp49
 70
     1
102
RTVSPropertyOp50
 70
     1
102
RTVSPropertyOp51
 70
     0
102
RTVSPropertyOp52
 70
     0
102
RTVSPropertyOp53
 70
     1
102
RTVSPropertyOp54
 70
     1
102
RTVSPropertyOp55
 70
     1
102
RTVSPropertyOp56
 70
     1
102
RTVSPropertyOp57
 70
     1
102
RTVSPropertyOp58
 70
     1
102
RTVSPropertyOp59
 70
     1
102
RTVSPropertyOp60
 70
     1
102
RTVSPropertyOp61
 70
     1
102
RTVSPropertyOp62
 70
     1
  0
XRECORD
  5
D48
102
{ACAD_REACTORS
330
D47
102
}
330
D47
100
AcDbXrecord
280
     1
102
RTVSPost2010Prop28
280
     0
102
RTVSPost2010PropOp28
 70
     1
102
RTVSPost2010Prop29
280
     1
102
RTVSPost2010PropOp29
 70
     1
102
RTVSPost2010Prop30
280
     1
102
RTVSPost2010PropOp30
 70
     1
102
RTVSPost2010Prop31
280
     0
102
RTVSPost2010PropOp31
 70
     1
102
RTVSPost2010Prop32
280
     0
102
RTVSPost2010PropOp32
 70
     1
102
RTVSPost2010Prop33
280
     0
102
RTVSPost2010PropOp33
 70
     1
102
RTVSPost2010Prop34
280
     0
102
RTVSPost2010PropOp34
 70
     1
102
RTVSPost2010Prop35
280
     0
102
RTVSPost2010PropOp35
 70
     1
102
RTVSPost2010Prop36
280
     0
102
RTVSPost2010PropOp36
 70
     1
102
RTVSPost2010Prop37
 90
       50
102
RTVSPost2010PropOp37
 70
     1
102
RTVSPost2010Prop38
140
0.0
102
RTVSPost2010PropOp38
 70
     1
102
RTVSPost2010Prop39
140
1.0
102
RTVSPost2010PropOp39
 70
     1
102
RTVSPost2010Prop40
 90
        0
102
RTVSPost2010PropOp40
 70
     1
102
RTVSPost2010Prop41ColorIndex
 90
       18
102
RTVSPost2010Prop41ColorRGB
 90
        0
102
RTVSPost2010PropOp41
 70
     1
102
RTVSPost2010Prop42
 90
       50
102
RTVSPost2010PropOp42
 70
     1
102
RTVSPost2010Prop43
 90
        3
102
RTVSPost2010PropOp43
 70
     1
102
RTVSPost2010Prop44ColorIndex
 90
        5
102
RTVSPost2010Prop44ColorRGB
 90
      255
102
RTVSPost2010PropOp44
 70
     1
102
RTVSPost2010Prop45
280
     0
102
RTVSPost2010PropOp45
 70
     1
102
RTVSPost2010Prop46
 90
       50
102
RTVSPost2010PropOp46
 70
     1
102
RTVSPost2010Prop47
 90
       50
102
RTVSPost2010PropOp47
 70
     1
102
RTVSPost2010Prop48
 90
       50
102
RTVSPost2010PropOp48
 70
     1
102
RTVSPost2010Prop49
280
     0
102
RTVSPost2010PropOp49
 70
     1
102
RTVSPost2010Prop50
 90
       50
102
RTVSPost2010PropOp50
 70
     1
102
RTVSPost2010Prop51ColorIndex
 90
      256
102
RTVSPost2010Prop51ColorRGB
 90
-16777216
102
RTVSPost2010PropOp51
 70
     0
102
RTVSPost2010Prop52
140
1.0
102
RTVSPost2010PropOp52
 70
     0
102
RTVSPost2010Prop53
 90
        2
102
RTVSPost2010PropOp53
 70
     1
102
RTVSPost2010Prop54
  1
strokes_ogs.tif
102
RTVSPost2010PropOp54
 70
     1
102
RTVSPost2010Prop55
280
     0
102
RTVSPost2010PropOp55
 70
     1
102
RTVSPost2010Prop56
140
1.0
102
RTVSPost2010PropOp56
 70
     1
102
RTVSPost2010Prop57
140
1.0
102
RTVSPost2010PropOp57
 70
     1
102
RTVSPropertyOp0
 70
     0
102
RTVSPropertyOp1
 70
     0
102
RTVSPropertyOp2
 70
     0
102
RTVSPropertyOp3
 70
     0
102
RTVSPropertyOp4
 70
     0
102
RTVSPropertyOp5
 70
     0
102
RTVSPropertyOp6
 70
     0
102
RTVSPropertyOp7
 70
     0
102
RTVSPropertyOp8
 70
     0
102
RTVSPropertyOp9
 70
     0
102
RTVSPropertyOp10
 70
     0
102
RTVSPropertyOp11
 70
     0
102
RTVSPropertyOp12
 70
     0
102
RTVSPropertyOp13
 70
     0
102
RTVSPropertyOp14
 70
     2
102
RTVSPropertyOp15
 70
     0
102
RTVSPropertyOp16
 70
     0
102
RTVSPropertyOp17
 70
     0
102
RTVSPropertyOp18
 70
     0
102
RTVSPropertyOp19
 70
     0
102
RTVSPropertyOp20
 70
     0
102
RTVSPropertyOp21
 70
     0
102
RTVSPropertyOp22
 70
     0
102
RTVSPropertyOp23
 70
     0
102
RTVSPropertyOp24
 70
     0
102
RTVSPropertyOp25
 70
     0
102
RTVSPropertyOp26
 70
     0
102
RTVSPropertyOp27
 70
     0
102
RTVSPropertyOp28
 70
     1
102
RTVSPropertyOp29
 70
     1
102
RTVSPropertyOp30
 70
     1
102
RTVSPropertyOp31
 70
     1
102
RTVSPropertyOp32
 70
     1
102
RTVSPropertyOp33
 70
     1
102
RTVSPropertyOp34
 70
     1
102
RTVSPropertyOp35
 70
     1
102
RTVSPropertyOp36
 70
     1
102
RTVSPropertyOp37
 70
     1
102
RTVSPropertyOp38
 70
     1
102
RTVSPropertyOp39
 70
     1
102
RTVSPropertyOp40
 70
     1
102
RTVSPropertyOp41
 70
     1
102
RTVSPropertyOp42
 70
     1
102
RTVSPropertyOp43
 70
     1
102
RTVSPropertyOp44
 70
     1
102
RTVSPropertyOp45
 70
     1
102
RTVSPropertyOp46
 70
     1
102
RTVSPropertyOp47
 70
     1
102
RTVSPropertyOp48
 70
     1
102
RTVSPropertyOp49
 70
     1
102
RTVSPropertyOp50
 70
     1
102
RTVSPropertyOp51
 70
     0
102
RTVSPropertyOp52
 70
     0
102
RTVSPropertyOp53
 70
     1
102
RTVSPropertyOp54
 70
     1
102
RTVSPropertyOp55
 70
     1
102
RTVSPropertyOp56
 70
     1
102
RTVSPropertyOp57
 70
     1
102
RTVSPropertyOp58
 70
     1
102
RTVSPropertyOp59
 70
     1
102
RTVSPropertyOp60
 70
     1
102
RTVSPropertyOp61
 70
     1
102
RTVSPropertyOp62
 70
     1
  0
XRECORD
  5
D42
102
{ACAD_REACTORS
330
D41
102
}
330
D41
100
AcDbXrecord
280
     1
102
RTVSPost2010Prop28
280
     0
102
RTVSPost2010PropOp28
 70
     1
102
RTVSPost2010Prop29
280
     1
102
RTVSPost2010PropOp29
 70
     1
102
RTVSPost2010Prop30
280
     1
102
RTVSPost2010PropOp30
 70
     1
102
RTVSPost2010Prop31
280
     0
102
RTVSPost2010PropOp31
 70
     1
102
RTVSPost2010Prop32
280
     0
102
RTVSPost2010PropOp32
 70
     1
102
RTVSPost2010Prop33
280
     0
102
RTVSPost2010PropOp33
 70
     1
102
RTVSPost2010Prop34
280
     0
102
RTVSPost2010PropOp34
 70
     1
102
RTVSPost2010Prop35
280
     0
102
RTVSPost2010PropOp35
 70
     1
102
RTVSPost2010Prop36
280
     0
102
RTVSPost2010PropOp36
 70
     1
102
RTVSPost2010Prop37
 90
       50
102
RTVSPost2010PropOp37
 70
     1
102
RTVSPost2010Prop38
140
0.0
102
RTVSPost2010PropOp38
 70
     1
102
RTVSPost2010Prop39
140
1.0
102
RTVSPost2010PropOp39
 70
     1
102
RTVSPost2010Prop40
 90
        0
102
RTVSPost2010PropOp40
 70
     1
102
RTVSPost2010Prop41ColorIndex
 90
       18
102
RTVSPost2010Prop41ColorRGB
 90
        0
102
RTVSPost2010PropOp41
 70
     1
102
RTVSPost2010Prop42
 90
       50
102
RTVSPost2010PropOp42
 70
     1
102
RTVSPost2010Prop43
 90
        3
102
RTVSPost2010PropOp43
 70
     1
102
RTVSPost2010Prop44ColorIndex
 90
        5
102
RTVSPost2010Prop44ColorRGB
 90
      255
102
RTVSPost2010PropOp44
 70
     1
102
RTVSPost2010Prop45
280
     0
102
RTVSPost2010PropOp45
 70
     1
102
RTVSPost2010Prop46
 90
       50
102
RTVSPost2010PropOp46
 70
     1
102
RTVSPost2010Prop47
 90
       50
102
RTVSPost2010PropOp47
 70
     1
102
RTVSPost2010Prop48
 90
       50
102
RTVSPost2010PropOp48
 70
     1
102
RTVSPost2010Prop49
280
     0
102
RTVSPost2010PropOp49
 70
     1
102
RTVSPost2010Prop50
 90
       50
102
RTVSPost2010PropOp50
 70
     1
102
RTVSPost2010Prop51ColorIndex
 90
      256
102
RTVSPost2010Prop51ColorRGB
 90
-16777216
102
RTVSPost2010PropOp51
 70
     0
102
RTVSPost2010Prop52
140
1.0
102
RTVSPost2010PropOp52
 70
     0
102
RTVSPost2010Prop53
 90
        2
102
RTVSPost2010PropOp53
 70
     1
102
RTVSPost2010Prop54
  1
strokes_ogs.tif
102
RTVSPost2010PropOp54
 70
     1
102
RTVSPost2010Prop55
280
     0
102
RTVSPost2010PropOp55
 70
     1
102
RTVSPost2010Prop56
140
1.0
102
RTVSPost2010PropOp56
 70
     1
102
RTVSPost2010Prop57
140
1.0
102
RTVSPost2010PropOp57
 70
     1
102
RTVSPropertyOp0
 70
     1
102
RTVSPropertyOp1
 70
     1
102
RTVSPropertyOp2
 70
     1
102
RTVSPropertyOp3
 70
     1
102
RTVSPropertyOp4
 70
     1
102
RTVSPropertyOp5
 70
     1
102
RTVSPropertyOp6
 70
     1
102
RTVSPropertyOp7
 70
     1
102
RTVSPropertyOp8
 70
     1
102
RTVSPropertyOp9
 70
     1
102
RTVSPropertyOp10
 70
     1
102
RTVSPropertyOp11
 70
     1
102
RTVSPropertyOp12
 70
     1
102
RTVSPropertyOp13
 70
     1
102
RTVSPropertyOp14
 70
     1
102
RTVSPropertyOp15
 70
     1
102
RTVSPropertyOp16
 70
     1
102
RTVSPropertyOp17
 70
     1
102
RTVSPropertyOp18
 70
     1
102
RTVSPropertyOp19
 70
     1
102
RTVSPropertyOp20
 70
     1
102
RTVSPropertyOp21
 70
     1
102
RTVSPropertyOp22
 70
     1
102
RTVSPropertyOp23
 70
     1
102
RTVSPropertyOp24
 70
     1
102
RTVSPropertyOp25
 70
     1
102
RTVSPropertyOp26
 70
     1
102
RTVSPropertyOp27
 70
     1
102
RTVSPropertyOp28
 70
     1
102
RTVSPropertyOp29
 70
     1
102
RTVSPropertyOp30
 70
     1
102
RTVSPropertyOp31
 70
     1
102
RTVSPropertyOp32
 70
     1
102
RTVSPropertyOp33
 70
     1
102
RTVSPropertyOp34
 70
     1
102
RTVSPropertyOp35
 70
     1
102
RTVSPropertyOp36
 70
     1
102
RTVSPropertyOp37
 70
     1
102
RTVSPropertyOp38
 70
     1
102
RTVSPropertyOp39
 70
     1
102
RTVSPropertyOp40
 70
     1
102
RTVSPropertyOp41
 70
     1
102
RTVSPropertyOp42
 70
     1
102
RTVSPropertyOp43
 70
     1
102
RTVSPropertyOp44
 70
     1
102
RTVSPropertyOp45
 70
     1
102
RTVSPropertyOp46
 70
     1
102
RTVSPropertyOp47
 70
     1
102
RTVSPropertyOp48
 70
     1
102
RTVSPropertyOp49
 70
     1
102
RTVSPropertyOp50
 70
     1
102
RTVSPropertyOp51
 70
     0
102
RTVSPropertyOp52
 70
     0
102
RTVSPropertyOp53
 70
     1
102
RTVSPropertyOp54
 70
     1
102
RTVSPropertyOp55
 70
     1
102
RTVSPropertyOp56
 70
     1
102
RTVSPropertyOp57
 70
     1
102
RTVSPropertyOp58
 70
     1
102
RTVSPropertyOp59
 70
     1
102
RTVSPropertyOp60
 70
     1
102
RTVSPropertyOp61
 70
     1
102
RTVSPropertyOp62
 70
     1
  0
XRECORD
  5
D4A
102
{ACAD_REACTORS
330
D49
102
}
330
D49
100
AcDbXrecord
280
     1
102
RTVSPost2010Prop28
280
     0
102
RTVSPost2010PropOp28
 70
     1
102
RTVSPost2010Prop29
280
     1
102
RTVSPost2010PropOp29
 70
     1
102
RTVSPost2010Prop30
280
     1
102
RTVSPost2010PropOp30
 70
     1
102
RTVSPost2010Prop31
280
     0
102
RTVSPost2010PropOp31
 70
     1
102
RTVSPost2010Prop32
280
     0
102
RTVSPost2010PropOp32
 70
     1
102
RTVSPost2010Prop33
280
     0
102
RTVSPost2010PropOp33
 70
     1
102
RTVSPost2010Prop34
280
     0
102
RTVSPost2010PropOp34
 70
     1
102
RTVSPost2010Prop35
280
     0
102
RTVSPost2010PropOp35
 70
     1
102
RTVSPost2010Prop36
280
     0
102
RTVSPost2010PropOp36
 70
     1
102
RTVSPost2010Prop37
 90
       50
102
RTVSPost2010PropOp37
 70
     1
102
RTVSPost2010Prop38
140
0.0
102
RTVSPost2010PropOp38
 70
     1
102
RTVSPost2010Prop39
140
1.0
102
RTVSPost2010PropOp39
 70
     1
102
RTVSPost2010Prop40
 90
        0
102
RTVSPost2010PropOp40
 70
     1
102
RTVSPost2010Prop41ColorIndex
 90
       18
102
RTVSPost2010Prop41ColorRGB
 90
        0
102
RTVSPost2010PropOp41
 70
     1
102
RTVSPost2010Prop42
 90
       50
102
RTVSPost2010PropOp42
 70
     1
102
RTVSPost2010Prop43
 90
        3
102
RTVSPost2010PropOp43
 70
     1
102
RTVSPost2010Prop44ColorIndex
 90
        5
102
RTVSPost2010Prop44ColorRGB
 90
      255
102
RTVSPost2010PropOp44
 70
     1
102
RTVSPost2010Prop45
280
     0
102
RTVSPost2010PropOp45
 70
     1
102
RTVSPost2010Prop46
 90
       50
102
RTVSPost2010PropOp46
 70
     1
102
RTVSPost2010Prop47
 90
       50
102
RTVSPost2010PropOp47
 70
     1
102
RTVSPost2010Prop48
 90
       50
102
RTVSPost2010PropOp48
 70
     1
102
RTVSPost2010Prop49
280
     0
102
RTVSPost2010PropOp49
 70
     1
102
RTVSPost2010Prop50
 90
       50
102
RTVSPost2010PropOp50
 70
     1
102
RTVSPost2010Prop51ColorIndex
 90
      256
102
RTVSPost2010Prop51ColorRGB
 90
-16777216
102
RTVSPost2010PropOp51
 70
     0
102
RTVSPost2010Prop52
140
1.0
102
RTVSPost2010PropOp52
 70
     0
102
RTVSPost2010Prop53
 90
        2
102
RTVSPost2010PropOp53
 70
     1
102
RTVSPost2010Prop54
  1
strokes_ogs.tif
102
RTVSPost2010PropOp54
 70
     1
102
RTVSPost2010Prop55
280
     0
102
RTVSPost2010PropOp55
 70
     1
102
RTVSPost2010Prop56
140
1.0
102
RTVSPost2010PropOp56
 70
     1
102
RTVSPost2010Prop57
140
1.0
102
RTVSPost2010PropOp57
 70
     1
102
RTVSPropertyOp0
 70
     0
102
RTVSPropertyOp1
 70
     0
102
RTVSPropertyOp2
 70
     0
102
RTVSPropertyOp3
 70
     0
102
RTVSPropertyOp4
 70
     0
102
RTVSPropertyOp5
 70
     0
102
RTVSPropertyOp6
 70
     0
102
RTVSPropertyOp7
 70
     0
102
RTVSPropertyOp8
 70
     0
102
RTVSPropertyOp9
 70
     0
102
RTVSPropertyOp10
 70
     0
102
RTVSPropertyOp11
 70
     0
102
RTVSPropertyOp12
 70
     0
102
RTVSPropertyOp13
 70
     0
102
RTVSPropertyOp14
 70
     2
102
RTVSPropertyOp15
 70
     0
102
RTVSPropertyOp16
 70
     0
102
RTVSPropertyOp17
 70
     0
102
RTVSPropertyOp18
 70
     0
102
RTVSPropertyOp19
 70
     0
102
RTVSPropertyOp20
 70
     0
102
RTVSPropertyOp21
 70
     0
102
RTVSPropertyOp22
 70
     0
102
RTVSPropertyOp23
 70
     0
102
RTVSPropertyOp24
 70
     0
102
RTVSPropertyOp25
 70
     0
102
RTVSPropertyOp26
 70
     0
102
RTVSPropertyOp27
 70
     0
102
RTVSPropertyOp28
 70
     1
102
RTVSPropertyOp29
 70
     1
102
RTVSPropertyOp30
 70
     1
102
RTVSPropertyOp31
 70
     1
102
RTVSPropertyOp32
 70
     1
102
RTVSPropertyOp33
 70
     1
102
RTVSPropertyOp34
 70
     1
102
RTVSPropertyOp35
 70
     1
102
RTVSPropertyOp36
 70
     1
102
RTVSPropertyOp37
 70
     1
102
RTVSPropertyOp38
 70
     1
102
RTVSPropertyOp39
 70
     1
102
RTVSPropertyOp40
 70
     1
102
RTVSPropertyOp41
 70
     1
102
RTVSPropertyOp42
 70
     1
102
RTVSPropertyOp43
 70
     1
102
RTVSPropertyOp44
 70
     1
102
RTVSPropertyOp45
 70
     1
102
RTVSPropertyOp46
 70
     1
102
RTVSPropertyOp47
 70
     1
102
RTVSPropertyOp48
 70
     1
102
RTVSPropertyOp49
 70
     1
102
RTVSPropertyOp50
 70
     1
102
RTVSPropertyOp51
 70
     0
102
RTVSPropertyOp52
 70
     0
102
RTVSPropertyOp53
 70
     1
102
RTVSPropertyOp54
 70
     1
102
RTVSPropertyOp55
 70
     1
102
RTVSPropertyOp56
 70
     1
102
RTVSPropertyOp57
 70
     1
102
RTVSPropertyOp58
 70
     1
102
RTVSPropertyOp59
 70
     1
102
RTVSPropertyOp60
 70
     1
102
RTVSPropertyOp61
 70
     1
102
RTVSPropertyOp62
 70
     1
  0
XRECORD
  5
D3A
102
{ACAD_REACTORS
330
D39
102
}
330
D39
100
AcDbXrecord
280
     1
102
RTVSPost2010Prop28
280
     0
102
RTVSPost2010PropOp28
 70
     1
102
RTVSPost2010Prop29
280
     1
102
RTVSPost2010PropOp29
 70
     1
102
RTVSPost2010Prop30
280
     1
102
RTVSPost2010PropOp30
 70
     1
102
RTVSPost2010Prop31
280
     0
102
RTVSPost2010PropOp31
 70
     1
102
RTVSPost2010Prop32
280
     0
102
RTVSPost2010PropOp32
 70
     1
102
RTVSPost2010Prop33
280
     0
102
RTVSPost2010PropOp33
 70
     1
102
RTVSPost2010Prop34
280
     0
102
RTVSPost2010PropOp34
 70
     1
102
RTVSPost2010Prop35
280
     0
102
RTVSPost2010PropOp35
 70
     1
102
RTVSPost2010Prop36
280
     0
102
RTVSPost2010PropOp36
 70
     1
102
RTVSPost2010Prop37
 90
       50
102
RTVSPost2010PropOp37
 70
     1
102
RTVSPost2010Prop38
140
0.0
102
RTVSPost2010PropOp38
 70
     1
102
RTVSPost2010Prop39
140
1.0
102
RTVSPost2010PropOp39
 70
     1
102
RTVSPost2010Prop40
 90
        0
102
RTVSPost2010PropOp40
 70
     1
102
RTVSPost2010Prop41ColorIndex
 90
       18
102
RTVSPost2010Prop41ColorRGB
 90
        0
102
RTVSPost2010PropOp41
 70
     1
102
RTVSPost2010Prop42
 90
       50
102
RTVSPost2010PropOp42
 70
     1
102
RTVSPost2010Prop43
 90
        3
102
RTVSPost2010PropOp43
 70
     1
102
RTVSPost2010Prop44ColorIndex
 90
        5
102
RTVSPost2010Prop44ColorRGB
 90
      255
102
RTVSPost2010PropOp44
 70
     1
102
RTVSPost2010Prop45
280
     0
102
RTVSPost2010PropOp45
 70
     1
102
RTVSPost2010Prop46
 90
       50
102
RTVSPost2010PropOp46
 70
     1
102
RTVSPost2010Prop47
 90
       50
102
RTVSPost2010PropOp47
 70
     1
102
RTVSPost2010Prop48
 90
       50
102
RTVSPost2010PropOp48
 70
     1
102
RTVSPost2010Prop49
280
     0
102
RTVSPost2010PropOp49
 70
     1
102
RTVSPost2010Prop50
 90
       50
102
RTVSPost2010PropOp50
 70
     1
102
RTVSPost2010Prop51ColorIndex
 90
      256
102
RTVSPost2010Prop51ColorRGB
 90
-16777216
102
RTVSPost2010PropOp51
 70
     0
102
RTVSPost2010Prop52
140
1.0
102
RTVSPost2010PropOp52
 70
     0
102
RTVSPost2010Prop53
 90
        2
102
RTVSPost2010PropOp53
 70
     1
102
RTVSPost2010Prop54
  1
strokes_ogs.tif
102
RTVSPost2010PropOp54
 70
     1
102
RTVSPost2010Prop55
280
     0
102
RTVSPost2010PropOp55
 70
     1
102
RTVSPost2010Prop56
140
1.0
102
RTVSPost2010PropOp56
 70
     1
102
RTVSPost2010Prop57
140
1.0
102
RTVSPost2010PropOp57
 70
     1
102
RTVSPropertyOp0
 70
     1
102
RTVSPropertyOp1
 70
     1
102
RTVSPropertyOp2
 70
     1
102
RTVSPropertyOp3
 70
     1
102
RTVSPropertyOp4
 70
     1
102
RTVSPropertyOp5
 70
     1
102
RTVSPropertyOp6
 70
     1
102
RTVSPropertyOp7
 70
     1
102
RTVSPropertyOp8
 70
     1
102
RTVSPropertyOp9
 70
     1
102
RTVSPropertyOp10
 70
     1
102
RTVSPropertyOp11
 70
     1
102
RTVSPropertyOp12
 70
     1
102
RTVSPropertyOp13
 70
     1
102
RTVSPropertyOp14
 70
     1
102
RTVSPropertyOp15
 70
     1
102
RTVSPropertyOp16
 70
     1
102
RTVSPropertyOp17
 70
     1
102
RTVSPropertyOp18
 70
     1
102
RTVSPropertyOp19
 70
     1
102
RTVSPropertyOp20
 70
     1
102
RTVSPropertyOp21
 70
     1
102
RTVSPropertyOp22
 70
     1
102
RTVSPropertyOp23
 70
     1
102
RTVSPropertyOp24
 70
     1
102
RTVSPropertyOp25
 70
     1
102
RTVSPropertyOp26
 70
     1
102
RTVSPropertyOp27
 70
     1
102
RTVSPropertyOp28
 70
     1
102
RTVSPropertyOp29
 70
     1
102
RTVSPropertyOp30
 70
     1
102
RTVSPropertyOp31
 70
     1
102
RTVSPropertyOp32
 70
     1
102
RTVSPropertyOp33
 70
     1
102
RTVSPropertyOp34
 70
     1
102
RTVSPropertyOp35
 70
     1
102
RTVSPropertyOp36
 70
     1
102
RTVSPropertyOp37
 70
     1
102
RTVSPropertyOp38
 70
     1
102
RTVSPropertyOp39
 70
     1
102
RTVSPropertyOp40
 70
     1
102
RTVSPropertyOp41
 70
     1
102
RTVSPropertyOp42
 70
     1
102
RTVSPropertyOp43
 70
     1
102
RTVSPropertyOp44
 70
     1
102
RTVSPropertyOp45
 70
     1
102
RTVSPropertyOp46
 70
     1
102
RTVSPropertyOp47
 70
     1
102
RTVSPropertyOp48
 70
     1
102
RTVSPropertyOp49
 70
     1
102
RTVSPropertyOp50
 70
     1
102
RTVSPropertyOp51
 70
     0
102
RTVSPropertyOp52
 70
     0
102
RTVSPropertyOp53
 70
     1
102
RTVSPropertyOp54
 70
     1
102
RTVSPropertyOp55
 70
     1
102
RTVSPropertyOp56
 70
     1
102
RTVSPropertyOp57
 70
     1
102
RTVSPropertyOp58
 70
     1
102
RTVSPropertyOp59
 70
     1
102
RTVSPropertyOp60
 70
     1
102
RTVSPropertyOp61
 70
     1
102
RTVSPropertyOp62
 70
     1
  0
XRECORD
  5
D5B
102
{ACAD_REACTORS
330
D5A
102
}
330
D5A
100
AcDbXrecord
280
     1
102
RTVSPost2010Prop28
280
     0
102
RTVSPost2010PropOp28
 70
     1
102
RTVSPost2010Prop29
280
     1
102
RTVSPost2010PropOp29
 70
     1
102
RTVSPost2010Prop30
280
     1
102
RTVSPost2010PropOp30
 70
     1
102
RTVSPost2010Prop31
280
     0
102
RTVSPost2010PropOp31
 70
     1
102
RTVSPost2010Prop32
280
     0
102
RTVSPost2010PropOp32
 70
     1
102
RTVSPost2010Prop33
280
     0
102
RTVSPost2010PropOp33
 70
     1
102
RTVSPost2010Prop34
280
     0
102
RTVSPost2010PropOp34
 70
     1
102
RTVSPost2010Prop35
280
     0
102
RTVSPost2010PropOp35
 70
     1
102
RTVSPost2010Prop36
280
     0
102
RTVSPost2010PropOp36
 70
     1
102
RTVSPost2010Prop37
 90
       50
102
RTVSPost2010PropOp37
 70
     1
102
RTVSPost2010Prop38
140
0.0
102
RTVSPost2010PropOp38
 70
     1
102
RTVSPost2010Prop39
140
1.0
102
RTVSPost2010PropOp39
 70
     1
102
RTVSPost2010Prop40
 90
        0
102
RTVSPost2010PropOp40
 70
     1
102
RTVSPost2010Prop41ColorIndex
 90
       18
102
RTVSPost2010Prop41ColorRGB
 90
        0
102
RTVSPost2010PropOp41
 70
     1
102
RTVSPost2010Prop42
 90
       50
102
RTVSPost2010PropOp42
 70
     1
102
RTVSPost2010Prop43
 90
        3
102
RTVSPost2010PropOp43
 70
     1
102
RTVSPost2010Prop44ColorIndex
 90
        5
102
RTVSPost2010Prop44ColorRGB
 90
      255
102
RTVSPost2010PropOp44
 70
     1
102
RTVSPost2010Prop45
280
     0
102
RTVSPost2010PropOp45
 70
     1
102
RTVSPost2010Prop46
 90
       50
102
RTVSPost2010PropOp46
 70
     1
102
RTVSPost2010Prop47
 90
       50
102
RTVSPost2010PropOp47
 70
     1
102
RTVSPost2010Prop48
 90
       50
102
RTVSPost2010PropOp48
 70
     1
102
RTVSPost2010Prop49
280
     0
102
RTVSPost2010PropOp49
 70
     1
102
RTVSPost2010Prop50
 90
       50
102
RTVSPost2010PropOp50
 70
     1
102
RTVSPost2010Prop51ColorIndex
 90
      256
102
RTVSPost2010Prop51ColorRGB
 90
-16777216
102
RTVSPost2010PropOp51
 70
     0
102
RTVSPost2010Prop52
140
1.0
102
RTVSPost2010PropOp52
 70
     0
102
RTVSPost2010Prop53
 90
        2
102
RTVSPost2010PropOp53
 70
     1
102
RTVSPost2010Prop54
  1
strokes_ogs.tif
102
RTVSPost2010PropOp54
 70
     1
102
RTVSPost2010Prop55
280
     0
102
RTVSPost2010PropOp55
 70
     1
102
RTVSPost2010Prop56
140
1.0
102
RTVSPost2010PropOp56
 70
     1
102
RTVSPost2010Prop57
140
1.0
102
RTVSPost2010PropOp57
 70
     1
102
RTVSPropertyOp0
 70
     1
102
RTVSPropertyOp1
 70
     1
102
RTVSPropertyOp2
 70
     1
102
RTVSPropertyOp3
 70
     1
102
RTVSPropertyOp4
 70
     1
102
RTVSPropertyOp5
 70
     1
102
RTVSPropertyOp6
 70
     1
102
RTVSPropertyOp7
 70
     1
102
RTVSPropertyOp8
 70
     1
102
RTVSPropertyOp9
 70
     1
102
RTVSPropertyOp10
 70
     1
102
RTVSPropertyOp11
 70
     1
102
RTVSPropertyOp12
 70
     1
102
RTVSPropertyOp13
 70
     1
102
RTVSPropertyOp14
 70
     1
102
RTVSPropertyOp15
 70
     1
102
RTVSPropertyOp16
 70
     1
102
RTVSPropertyOp17
 70
     1
102
RTVSPropertyOp18
 70
     1
102
RTVSPropertyOp19
 70
     1
102
RTVSPropertyOp20
 70
     1
102
RTVSPropertyOp21
 70
     1
102
RTVSPropertyOp22
 70
     1
102
RTVSPropertyOp23
 70
     1
102
RTVSPropertyOp24
 70
     1
102
RTVSPropertyOp25
 70
     1
102
RTVSPropertyOp26
 70
     1
102
RTVSPropertyOp27
 70
     1
102
RTVSPropertyOp28
 70
     1
102
RTVSPropertyOp29
 70
     1
102
RTVSPropertyOp30
 70
     1
102
RTVSPropertyOp31
 70
     1
102
RTVSPropertyOp32
 70
     1
102
RTVSPropertyOp33
 70
     1
102
RTVSPropertyOp34
 70
     1
102
RTVSPropertyOp35
 70
     1
102
RTVSPropertyOp36
 70
     1
102
RTVSPropertyOp37
 70
     1
102
RTVSPropertyOp38
 70
     1
102
RTVSPropertyOp39
 70
     1
102
RTVSPropertyOp40
 70
     1
102
RTVSPropertyOp41
 70
     1
102
RTVSPropertyOp42
 70
     1
102
RTVSPropertyOp43
 70
     1
102
RTVSPropertyOp44
 70
     1
102
RTVSPropertyOp45
 70
     1
102
RTVSPropertyOp46
 70
     1
102
RTVSPropertyOp47
 70
     1
102
RTVSPropertyOp48
 70
     1
102
RTVSPropertyOp49
 70
     1
102
RTVSPropertyOp50
 70
     1
102
RTVSPropertyOp51
 70
     0
102
RTVSPropertyOp52
 70
     0
102
RTVSPropertyOp53
 70
     1
102
RTVSPropertyOp54
 70
     1
102
RTVSPropertyOp55
 70
     1
102
RTVSPropertyOp56
 70
     1
102
RTVSPropertyOp57
 70
     1
102
RTVSPropertyOp58
 70
     1
102
RTVSPropertyOp59
 70
     1
102
RTVSPropertyOp60
 70
     1
102
RTVSPropertyOp61
 70
     1
102
RTVSPropertyOp62
 70
     1
  0
XRECORD
  5
D59
102
{ACAD_REACTORS
330
D58
102
}
330
D58
100
AcDbXrecord
280
     1
102
RTVSPost2010Prop28
280
     0
102
RTVSPost2010PropOp28
 70
     1
102
RTVSPost2010Prop29
280
     1
102
RTVSPost2010PropOp29
 70
     1
102
RTVSPost2010Prop30
280
     1
102
RTVSPost2010PropOp30
 70
     1
102
RTVSPost2010Prop31
280
     0
102
RTVSPost2010PropOp31
 70
     1
102
RTVSPost2010Prop32
280
     0
102
RTVSPost2010PropOp32
 70
     1
102
RTVSPost2010Prop33
280
     0
102
RTVSPost2010PropOp33
 70
     1
102
RTVSPost2010Prop34
280
     0
102
RTVSPost2010PropOp34
 70
     1
102
RTVSPost2010Prop35
280
     0
102
RTVSPost2010PropOp35
 70
     1
102
RTVSPost2010Prop36
280
     0
102
RTVSPost2010PropOp36
 70
     1
102
RTVSPost2010Prop37
 90
       50
102
RTVSPost2010PropOp37
 70
     1
102
RTVSPost2010Prop38
140
0.0
102
RTVSPost2010PropOp38
 70
     1
102
RTVSPost2010Prop39
140
1.0
102
RTVSPost2010PropOp39
 70
     1
102
RTVSPost2010Prop40
 90
        0
102
RTVSPost2010PropOp40
 70
     1
102
RTVSPost2010Prop41ColorIndex
 90
       18
102
RTVSPost2010Prop41ColorRGB
 90
        0
102
RTVSPost2010PropOp41
 70
     1
102
RTVSPost2010Prop42
 90
       50
102
RTVSPost2010PropOp42
 70
     1
102
RTVSPost2010Prop43
 90
        3
102
RTVSPost2010PropOp43
 70
     1
102
RTVSPost2010Prop44ColorIndex
 90
        5
102
RTVSPost2010Prop44ColorRGB
 90
      255
102
RTVSPost2010PropOp44
 70
     1
102
RTVSPost2010Prop45
280
     0
102
RTVSPost2010PropOp45
 70
     1
102
RTVSPost2010Prop46
 90
       50
102
RTVSPost2010PropOp46
 70
     1
102
RTVSPost2010Prop47
 90
       50
102
RTVSPost2010PropOp47
 70
     1
102
RTVSPost2010Prop48
 90
       50
102
RTVSPost2010PropOp48
 70
     1
102
RTVSPost2010Prop49
280
     0
102
RTVSPost2010PropOp49
 70
     1
102
RTVSPost2010Prop50
 90
       50
102
RTVSPost2010PropOp50
 70
     1
102
RTVSPost2010Prop51ColorIndex
 90
      256
102
RTVSPost2010Prop51ColorRGB
 90
-16777216
102
RTVSPost2010PropOp51
 70
     0
102
RTVSPost2010Prop52
140
1.0
102
RTVSPost2010PropOp52
 70
     0
102
RTVSPost2010Prop53
 90
        2
102
RTVSPost2010PropOp53
 70
     1
102
RTVSPost2010Prop54
  1
strokes_ogs.tif
102
RTVSPost2010PropOp54
 70
     1
102
RTVSPost2010Prop55
280
     0
102
RTVSPost2010PropOp55
 70
     1
102
RTVSPost2010Prop56
140
1.0
102
RTVSPost2010PropOp56
 70
     1
102
RTVSPost2010Prop57
140
1.0
102
RTVSPost2010PropOp57
 70
     1
102
RTVSPropertyOp0
 70
     1
102
RTVSPropertyOp1
 70
     1
102
RTVSPropertyOp2
 70
     1
102
RTVSPropertyOp3
 70
     1
102
RTVSPropertyOp4
 70
     1
102
RTVSPropertyOp5
 70
     1
102
RTVSPropertyOp6
 70
     1
102
RTVSPropertyOp7
 70
     1
102
RTVSPropertyOp8
 70
     1
102
RTVSPropertyOp9
 70
     1
102
RTVSPropertyOp10
 70
     1
102
RTVSPropertyOp11
 70
     1
102
RTVSPropertyOp12
 70
     1
102
RTVSPropertyOp13
 70
     1
102
RTVSPropertyOp14
 70
     1
102
RTVSPropertyOp15
 70
     1
102
RTVSPropertyOp16
 70
     1
102
RTVSPropertyOp17
 70
     1
102
RTVSPropertyOp18
 70
     1
102
RTVSPropertyOp19
 70
     1
102
RTVSPropertyOp20
 70
     1
102
RTVSPropertyOp21
 70
     1
102
RTVSPropertyOp22
 70
     1
102
RTVSPropertyOp23
 70
     1
102
RTVSPropertyOp24
 70
     1
102
RTVSPropertyOp25
 70
     1
102
RTVSPropertyOp26
 70
     1
102
RTVSPropertyOp27
 70
     1
102
RTVSPropertyOp28
 70
     1
102
RTVSPropertyOp29
 70
     1
102
RTVSPropertyOp30
 70
     1
102
RTVSPropertyOp31
 70
     1
102
RTVSPropertyOp32
 70
     1
102
RTVSPropertyOp33
 70
     1
102
RTVSPropertyOp34
 70
     1
102
RTVSPropertyOp35
 70
     1
102
RTVSPropertyOp36
 70
     1
102
RTVSPropertyOp37
 70
     1
102
RTVSPropertyOp38
 70
     1
102
RTVSPropertyOp39
 70
     1
102
RTVSPropertyOp40
 70
     1
102
RTVSPropertyOp41
 70
     1
102
RTVSPropertyOp42
 70
     1
102
RTVSPropertyOp43
 70
     1
102
RTVSPropertyOp44
 70
     1
102
RTVSPropertyOp45
 70
     1
102
RTVSPropertyOp46
 70
     1
102
RTVSPropertyOp47
 70
     1
102
RTVSPropertyOp48
 70
     1
102
RTVSPropertyOp49
 70
     1
102
RTVSPropertyOp50
 70
     1
102
RTVSPropertyOp51
 70
     0
102
RTVSPropertyOp52
 70
     0
102
RTVSPropertyOp53
 70
     1
102
RTVSPropertyOp54
 70
     1
102
RTVSPropertyOp55
 70
     1
102
RTVSPropertyOp56
 70
     1
102
RTVSPropertyOp57
 70
     1
102
RTVSPropertyOp58
 70
     1
102
RTVSPropertyOp59
 70
     1
102
RTVSPropertyOp60
 70
     1
102
RTVSPropertyOp61
 70
     1
102
RTVSPropertyOp62
 70
     1
  0
XRECORD
  5
D53
102
{ACAD_REACTORS
330
D52
102
}
330
D52
100
AcDbXrecord
280
     1
102
RTVSPost2010Prop28
280
     0
102
RTVSPost2010PropOp28
 70
     1
102
RTVSPost2010Prop29
280
     1
102
RTVSPost2010PropOp29
 70
     1
102
RTVSPost2010Prop30
280
     1
102
RTVSPost2010PropOp30
 70
     1
102
RTVSPost2010Prop31
280
     0
102
RTVSPost2010PropOp31
 70
     1
102
RTVSPost2010Prop32
280
     0
102
RTVSPost2010PropOp32
 70
     1
102
RTVSPost2010Prop33
280
     0
102
RTVSPost2010PropOp33
 70
     1
102
RTVSPost2010Prop34
280
     0
102
RTVSPost2010PropOp34
 70
     1
102
RTVSPost2010Prop35
280
     0
102
RTVSPost2010PropOp35
 70
     1
102
RTVSPost2010Prop36
280
     0
102
RTVSPost2010PropOp36
 70
     1
102
RTVSPost2010Prop37
 90
       50
102
RTVSPost2010PropOp37
 70
     1
102
RTVSPost2010Prop38
140
0.0
102
RTVSPost2010PropOp38
 70
     1
102
RTVSPost2010Prop39
140
1.0
102
RTVSPost2010PropOp39
 70
     1
102
RTVSPost2010Prop40
 90
        0
102
RTVSPost2010PropOp40
 70
     1
102
RTVSPost2010Prop41ColorIndex
 90
       18
102
RTVSPost2010Prop41ColorRGB
 90
        0
102
RTVSPost2010PropOp41
 70
     1
102
RTVSPost2010Prop42
 90
       50
102
RTVSPost2010PropOp42
 70
     1
102
RTVSPost2010Prop43
 90
        3
102
RTVSPost2010PropOp43
 70
     1
102
RTVSPost2010Prop44ColorIndex
 90
        5
102
RTVSPost2010Prop44ColorRGB
 90
      255
102
RTVSPost2010PropOp44
 70
     1
102
RTVSPost2010Prop45
280
     0
102
RTVSPost2010PropOp45
 70
     1
102
RTVSPost2010Prop46
 90
       50
102
RTVSPost2010PropOp46
 70
     1
102
RTVSPost2010Prop47
 90
       50
102
RTVSPost2010PropOp47
 70
     1
102
RTVSPost2010Prop48
 90
       50
102
RTVSPost2010PropOp48
 70
     1
102
RTVSPost2010Prop49
280
     0
102
RTVSPost2010PropOp49
 70
     1
102
RTVSPost2010Prop50
 90
       50
102
RTVSPost2010PropOp50
 70
     1
102
RTVSPost2010Prop51ColorIndex
 90
      256
102
RTVSPost2010Prop51ColorRGB
 90
-16777216
102
RTVSPost2010PropOp51
 70
     0
102
RTVSPost2010Prop52
140
1.0
102
RTVSPost2010PropOp52
 70
     0
102
RTVSPost2010Prop53
 90
        2
102
RTVSPost2010PropOp53
 70
     1
102
RTVSPost2010Prop54
  1
strokes_ogs.tif
102
RTVSPost2010PropOp54
 70
     1
102
RTVSPost2010Prop55
280
     0
102
RTVSPost2010PropOp55
 70
     1
102
RTVSPost2010Prop56
140
1.0
102
RTVSPost2010PropOp56
 70
     1
102
RTVSPost2010Prop57
140
1.0
102
RTVSPost2010PropOp57
 70
     1
102
RTVSPropertyOp0
 70
     1
102
RTVSPropertyOp1
 70
     1
102
RTVSPropertyOp2
 70
     1
102
RTVSPropertyOp3
 70
     1
102
RTVSPropertyOp4
 70
     1
102
RTVSPropertyOp5
 70
     1
102
RTVSPropertyOp6
 70
     1
102
RTVSPropertyOp7
 70
     1
102
RTVSPropertyOp8
 70
     1
102
RTVSPropertyOp9
 70
     1
102
RTVSPropertyOp10
 70
     1
102
RTVSPropertyOp11
 70
     1
102
RTVSPropertyOp12
 70
     1
102
RTVSPropertyOp13
 70
     1
102
RTVSPropertyOp14
 70
     1
102
RTVSPropertyOp15
 70
     1
102
RTVSPropertyOp16
 70
     1
102
RTVSPropertyOp17
 70
     1
102
RTVSPropertyOp18
 70
     1
102
RTVSPropertyOp19
 70
     1
102
RTVSPropertyOp20
 70
     1
102
RTVSPropertyOp21
 70
     1
102
RTVSPropertyOp22
 70
     1
102
RTVSPropertyOp23
 70
     1
102
RTVSPropertyOp24
 70
     1
102
RTVSPropertyOp25
 70
     1
102
RTVSPropertyOp26
 70
     1
102
RTVSPropertyOp27
 70
     1
102
RTVSPropertyOp28
 70
     1
102
RTVSPropertyOp29
 70
     1
102
RTVSPropertyOp30
 70
     1
102
RTVSPropertyOp31
 70
     1
102
RTVSPropertyOp32
 70
     1
102
RTVSPropertyOp33
 70
     1
102
RTVSPropertyOp34
 70
     1
102
RTVSPropertyOp35
 70
     1
102
RTVSPropertyOp36
 70
     1
102
RTVSPropertyOp37
 70
     1
102
RTVSPropertyOp38
 70
     1
102
RTVSPropertyOp39
 70
     1
102
RTVSPropertyOp40
 70
     1
102
RTVSPropertyOp41
 70
     1
102
RTVSPropertyOp42
 70
     1
102
RTVSPropertyOp43
 70
     1
102
RTVSPropertyOp44
 70
     1
102
RTVSPropertyOp45
 70
     1
102
RTVSPropertyOp46
 70
     1
102
RTVSPropertyOp47
 70
     1
102
RTVSPropertyOp48
 70
     1
102
RTVSPropertyOp49
 70
     1
102
RTVSPropertyOp50
 70
     1
102
RTVSPropertyOp51
 70
     0
102
RTVSPropertyOp52
 70
     0
102
RTVSPropertyOp53
 70
     1
102
RTVSPropertyOp54
 70
     1
102
RTVSPropertyOp55
 70
     1
102
RTVSPropertyOp56
 70
     1
102
RTVSPropertyOp57
 70
     1
102
RTVSPropertyOp58
 70
     1
102
RTVSPropertyOp59
 70
     1
102
RTVSPropertyOp60
 70
     1
102
RTVSPropertyOp61
 70
     1
102
RTVSPropertyOp62
 70
     1
  0
XRECORD
  5
D55
102
{ACAD_REACTORS
330
D54
102
}
330
D54
100
AcDbXrecord
280
     1
102
RTVSPost2010Prop28
280
     0
102
RTVSPost2010PropOp28
 70
     1
102
RTVSPost2010Prop29
280
     1
102
RTVSPost2010PropOp29
 70
     1
102
RTVSPost2010Prop30
280
     1
102
RTVSPost2010PropOp30
 70
     1
102
RTVSPost2010Prop31
280
     0
102
RTVSPost2010PropOp31
 70
     1
102
RTVSPost2010Prop32
280
     0
102
RTVSPost2010PropOp32
 70
     1
102
RTVSPost2010Prop33
280
     0
102
RTVSPost2010PropOp33
 70
     1
102
RTVSPost2010Prop34
280
     0
102
RTVSPost2010PropOp34
 70
     1
102
RTVSPost2010Prop35
280
     0
102
RTVSPost2010PropOp35
 70
     1
102
RTVSPost2010Prop36
280
     0
102
RTVSPost2010PropOp36
 70
     1
102
RTVSPost2010Prop37
 90
       50
102
RTVSPost2010PropOp37
 70
     1
102
RTVSPost2010Prop38
140
0.0
102
RTVSPost2010PropOp38
 70
     1
102
RTVSPost2010Prop39
140
1.0
102
RTVSPost2010PropOp39
 70
     1
102
RTVSPost2010Prop40
 90
        0
102
RTVSPost2010PropOp40
 70
     1
102
RTVSPost2010Prop41ColorIndex
 90
       18
102
RTVSPost2010Prop41ColorRGB
 90
        0
102
RTVSPost2010PropOp41
 70
     1
102
RTVSPost2010Prop42
 90
       50
102
RTVSPost2010PropOp42
 70
     1
102
RTVSPost2010Prop43
 90
        3
102
RTVSPost2010PropOp43
 70
     1
102
RTVSPost2010Prop44ColorIndex
 90
        5
102
RTVSPost2010Prop44ColorRGB
 90
      255
102
RTVSPost2010PropOp44
 70
     1
102
RTVSPost2010Prop45
280
     0
102
RTVSPost2010PropOp45
 70
     1
102
RTVSPost2010Prop46
 90
       50
102
RTVSPost2010PropOp46
 70
     1
102
RTVSPost2010Prop47
 90
       50
102
RTVSPost2010PropOp47
 70
     1
102
RTVSPost2010Prop48
 90
       50
102
RTVSPost2010PropOp48
 70
     1
102
RTVSPost2010Prop49
280
     0
102
RTVSPost2010PropOp49
 70
     1
102
RTVSPost2010Prop50
 90
       50
102
RTVSPost2010PropOp50
 70
     1
102
RTVSPost2010Prop51ColorIndex
 90
      256
102
RTVSPost2010Prop51ColorRGB
 90
-16777216
102
RTVSPost2010PropOp51
 70
     0
102
RTVSPost2010Prop52
140
1.0
102
RTVSPost2010PropOp52
 70
     0
102
RTVSPost2010Prop53
 90
        2
102
RTVSPost2010PropOp53
 70
     1
102
RTVSPost2010Prop54
  1
strokes_ogs.tif
102
RTVSPost2010PropOp54
 70
     1
102
RTVSPost2010Prop55
280
     0
102
RTVSPost2010PropOp55
 70
     1
102
RTVSPost2010Prop56
140
1.0
102
RTVSPost2010PropOp56
 70
     1
102
RTVSPost2010Prop57
140
1.0
102
RTVSPost2010PropOp57
 70
     1
102
RTVSPropertyOp0
 70
     1
102
RTVSPropertyOp1
 70
     1
102
RTVSPropertyOp2
 70
     1
102
RTVSPropertyOp3
 70
     1
102
RTVSPropertyOp4
 70
     1
102
RTVSPropertyOp5
 70
     1
102
RTVSPropertyOp6
 70
     1
102
RTVSPropertyOp7
 70
     1
102
RTVSPropertyOp8
 70
     1
102
RTVSPropertyOp9
 70
     1
102
RTVSPropertyOp10
 70
     1
102
RTVSPropertyOp11
 70
     1
102
RTVSPropertyOp12
 70
     1
102
RTVSPropertyOp13
 70
     1
102
RTVSPropertyOp14
 70
     1
102
RTVSPropertyOp15
 70
     1
102
RTVSPropertyOp16
 70
     1
102
RTVSPropertyOp17
 70
     1
102
RTVSPropertyOp18
 70
     1
102
RTVSPropertyOp19
 70
     1
102
RTVSPropertyOp20
 70
     1
102
RTVSPropertyOp21
 70
     1
102
RTVSPropertyOp22
 70
     1
102
RTVSPropertyOp23
 70
     1
102
RTVSPropertyOp24
 70
     1
102
RTVSPropertyOp25
 70
     1
102
RTVSPropertyOp26
 70
     1
102
RTVSPropertyOp27
 70
     1
102
RTVSPropertyOp28
 70
     1
102
RTVSPropertyOp29
 70
     1
102
RTVSPropertyOp30
 70
     1
102
RTVSPropertyOp31
 70
     1
102
RTVSPropertyOp32
 70
     1
102
RTVSPropertyOp33
 70
     1
102
RTVSPropertyOp34
 70
     1
102
RTVSPropertyOp35
 70
     1
102
RTVSPropertyOp36
 70
     1
102
RTVSPropertyOp37
 70
     1
102
RTVSPropertyOp38
 70
     1
102
RTVSPropertyOp39
 70
     1
102
RTVSPropertyOp40
 70
     1
102
RTVSPropertyOp41
 70
     1
102
RTVSPropertyOp42
 70
     1
102
RTVSPropertyOp43
 70
     1
102
RTVSPropertyOp44
 70
     1
102
RTVSPropertyOp45
 70
     1
102
RTVSPropertyOp46
 70
     1
102
RTVSPropertyOp47
 70
     1
102
RTVSPropertyOp48
 70
     1
102
RTVSPropertyOp49
 70
     1
102
RTVSPropertyOp50
 70
     1
102
RTVSPropertyOp51
 70
     0
102
RTVSPropertyOp52
 70
     0
102
RTVSPropertyOp53
 70
     1
102
RTVSPropertyOp54
 70
     1
102
RTVSPropertyOp55
 70
     1
102
RTVSPropertyOp56
 70
     1
102
RTVSPropertyOp57
 70
     1
102
RTVSPropertyOp58
 70
     1
102
RTVSPropertyOp59
 70
     1
102
RTVSPropertyOp60
 70
     1
102
RTVSPropertyOp61
 70
     1
102
RTVSPropertyOp62
 70
     1
  0
XRECORD
  5
D40
102
{ACAD_REACTORS
330
D3F
102
}
330
D3F
100
AcDbXrecord
280
     1
102
RTVSPost2010Prop28
280
     0
102
RTVSPost2010PropOp28
 70
     1
102
RTVSPost2010Prop29
280
     1
102
RTVSPost2010PropOp29
 70
     1
102
RTVSPost2010Prop30
280
     1
102
RTVSPost2010PropOp30
 70
     1
102
RTVSPost2010Prop31
280
     0
102
RTVSPost2010PropOp31
 70
     1
102
RTVSPost2010Prop32
280
     0
102
RTVSPost2010PropOp32
 70
     1
102
RTVSPost2010Prop33
280
     0
102
RTVSPost2010PropOp33
 70
     1
102
RTVSPost2010Prop34
280
     0
102
RTVSPost2010PropOp34
 70
     1
102
RTVSPost2010Prop35
280
     0
102
RTVSPost2010PropOp35
 70
     1
102
RTVSPost2010Prop36
280
     0
102
RTVSPost2010PropOp36
 70
     1
102
RTVSPost2010Prop37
 90
       50
102
RTVSPost2010PropOp37
 70
     1
102
RTVSPost2010Prop38
140
0.0
102
RTVSPost2010PropOp38
 70
     1
102
RTVSPost2010Prop39
140
1.0
102
RTVSPost2010PropOp39
 70
     1
102
RTVSPost2010Prop40
 90
        0
102
RTVSPost2010PropOp40
 70
     1
102
RTVSPost2010Prop41ColorIndex
 90
       18
102
RTVSPost2010Prop41ColorRGB
 90
        0
102
RTVSPost2010PropOp41
 70
     1
102
RTVSPost2010Prop42
 90
       50
102
RTVSPost2010PropOp42
 70
     1
102
RTVSPost2010Prop43
 90
        3
102
RTVSPost2010PropOp43
 70
     1
102
RTVSPost2010Prop44ColorIndex
 90
        5
102
RTVSPost2010Prop44ColorRGB
 90
      255
102
RTVSPost2010PropOp44
 70
     1
102
RTVSPost2010Prop45
280
     0
102
RTVSPost2010PropOp45
 70
     1
102
RTVSPost2010Prop46
 90
       50
102
RTVSPost2010PropOp46
 70
     1
102
RTVSPost2010Prop47
 90
       50
102
RTVSPost2010PropOp47
 70
     1
102
RTVSPost2010Prop48
 90
       50
102
RTVSPost2010PropOp48
 70
     1
102
RTVSPost2010Prop49
280
     0
102
RTVSPost2010PropOp49
 70
     1
102
RTVSPost2010Prop50
 90
       50
102
RTVSPost2010PropOp50
 70
     1
102
RTVSPost2010Prop51ColorIndex
 90
      256
102
RTVSPost2010Prop51ColorRGB
 90
-16777216
102
RTVSPost2010PropOp51
 70
     0
102
RTVSPost2010Prop52
140
1.0
102
RTVSPost2010PropOp52
 70
     0
102
RTVSPost2010Prop53
 90
        2
102
RTVSPost2010PropOp53
 70
     1
102
RTVSPost2010Prop54
  1
strokes_ogs.tif
102
RTVSPost2010PropOp54
 70
     1
102
RTVSPost2010Prop55
280
     0
102
RTVSPost2010PropOp55
 70
     1
102
RTVSPost2010Prop56
140
1.0
102
RTVSPost2010PropOp56
 70
     1
102
RTVSPost2010Prop57
140
1.0
102
RTVSPost2010PropOp57
 70
     1
102
RTVSPropertyOp0
 70
     1
102
RTVSPropertyOp1
 70
     1
102
RTVSPropertyOp2
 70
     1
102
RTVSPropertyOp3
 70
     1
102
RTVSPropertyOp4
 70
     1
102
RTVSPropertyOp5
 70
     1
102
RTVSPropertyOp6
 70
     1
102
RTVSPropertyOp7
 70
     1
102
RTVSPropertyOp8
 70
     1
102
RTVSPropertyOp9
 70
     1
102
RTVSPropertyOp10
 70
     1
102
RTVSPropertyOp11
 70
     1
102
RTVSPropertyOp12
 70
     1
102
RTVSPropertyOp13
 70
     1
102
RTVSPropertyOp14
 70
     1
102
RTVSPropertyOp15
 70
     1
102
RTVSPropertyOp16
 70
     1
102
RTVSPropertyOp17
 70
     1
102
RTVSPropertyOp18
 70
     1
102
RTVSPropertyOp19
 70
     1
102
RTVSPropertyOp20
 70
     1
102
RTVSPropertyOp21
 70
     1
102
RTVSPropertyOp22
 70
     1
102
RTVSPropertyOp23
 70
     1
102
RTVSPropertyOp24
 70
     1
102
RTVSPropertyOp25
 70
     1
102
RTVSPropertyOp26
 70
     1
102
RTVSPropertyOp27
 70
     1
102
RTVSPropertyOp28
 70
     1
102
RTVSPropertyOp29
 70
     1
102
RTVSPropertyOp30
 70
     1
102
RTVSPropertyOp31
 70
     1
102
RTVSPropertyOp32
 70
     1
102
RTVSPropertyOp33
 70
     1
102
RTVSPropertyOp34
 70
     1
102
RTVSPropertyOp35
 70
     1
102
RTVSPropertyOp36
 70
     1
102
RTVSPropertyOp37
 70
     1
102
RTVSPropertyOp38
 70
     1
102
RTVSPropertyOp39
 70
     1
102
RTVSPropertyOp40
 70
     1
102
RTVSPropertyOp41
 70
     1
102
RTVSPropertyOp42
 70
     1
102
RTVSPropertyOp43
 70
     1
102
RTVSPropertyOp44
 70
     1
102
RTVSPropertyOp45
 70
     1
102
RTVSPropertyOp46
 70
     1
102
RTVSPropertyOp47
 70
     1
102
RTVSPropertyOp48
 70
     1
102
RTVSPropertyOp49
 70
     1
102
RTVSPropertyOp50
 70
     1
102
RTVSPropertyOp51
 70
     0
102
RTVSPropertyOp52
 70
     0
102
RTVSPropertyOp53
 70
     1
102
RTVSPropertyOp54
 70
     1
102
RTVSPropertyOp55
 70
     1
102
RTVSPropertyOp56
 70
     1
102
RTVSPropertyOp57
 70
     1
102
RTVSPropertyOp58
 70
     1
102
RTVSPropertyOp59
 70
     1
102
RTVSPropertyOp60
 70
     1
102
RTVSPropertyOp61
 70
     1
102
RTVSPropertyOp62
 70
     1
  0
XRECORD
  5
D4F
102
{ACAD_REACTORS
330
D4E
102
}
330
D4E
100
AcDbXrecord
280
     1
102
RTVSPost2010Prop28
280
     0
102
RTVSPost2010PropOp28
 70
     1
102
RTVSPost2010Prop29
280
     1
102
RTVSPost2010PropOp29
 70
     1
102
RTVSPost2010Prop30
280
     1
102
RTVSPost2010PropOp30
 70
     1
102
RTVSPost2010Prop31
280
     0
102
RTVSPost2010PropOp31
 70
     1
102
RTVSPost2010Prop32
280
     0
102
RTVSPost2010PropOp32
 70
     1
102
RTVSPost2010Prop33
280
     0
102
RTVSPost2010PropOp33
 70
     1
102
RTVSPost2010Prop34
280
     0
102
RTVSPost2010PropOp34
 70
     1
102
RTVSPost2010Prop35
280
     0
102
RTVSPost2010PropOp35
 70
     1
102
RTVSPost2010Prop36
280
     0
102
RTVSPost2010PropOp36
 70
     1
102
RTVSPost2010Prop37
 90
       50
102
RTVSPost2010PropOp37
 70
     1
102
RTVSPost2010Prop38
140
0.0
102
RTVSPost2010PropOp38
 70
     1
102
RTVSPost2010Prop39
140
1.0
102
RTVSPost2010PropOp39
 70
     1
102
RTVSPost2010Prop40
 90
        0
102
RTVSPost2010PropOp40
 70
     1
102
RTVSPost2010Prop41ColorIndex
 90
       18
102
RTVSPost2010Prop41ColorRGB
 90
        0
102
RTVSPost2010PropOp41
 70
     1
102
RTVSPost2010Prop42
 90
       50
102
RTVSPost2010PropOp42
 70
     1
102
RTVSPost2010Prop43
 90
        3
102
RTVSPost2010PropOp43
 70
     1
102
RTVSPost2010Prop44ColorIndex
 90
        5
102
RTVSPost2010Prop44ColorRGB
 90
      255
102
RTVSPost2010PropOp44
 70
     1
102
RTVSPost2010Prop45
280
     0
102
RTVSPost2010PropOp45
 70
     1
102
RTVSPost2010Prop46
 90
       50
102
RTVSPost2010PropOp46
 70
     1
102
RTVSPost2010Prop47
 90
       50
102
RTVSPost2010PropOp47
 70
     1
102
RTVSPost2010Prop48
 90
       50
102
RTVSPost2010PropOp48
 70
     1
102
RTVSPost2010Prop49
280
     0
102
RTVSPost2010PropOp49
 70
     1
102
RTVSPost2010Prop50
 90
       50
102
RTVSPost2010PropOp50
 70
     1
102
RTVSPost2010Prop51ColorIndex
 90
      256
102
RTVSPost2010Prop51ColorRGB
 90
-16777216
102
RTVSPost2010PropOp51
 70
     0
102
RTVSPost2010Prop52
140
1.0
102
RTVSPost2010PropOp52
 70
     0
102
RTVSPost2010Prop53
 90
        2
102
RTVSPost2010PropOp53
 70
     1
102
RTVSPost2010Prop54
  1
strokes_ogs.tif
102
RTVSPost2010PropOp54
 70
     1
102
RTVSPost2010Prop55
280
     0
102
RTVSPost2010PropOp55
 70
     1
102
RTVSPost2010Prop56
140
1.0
102
RTVSPost2010PropOp56
 70
     1
102
RTVSPost2010Prop57
140
1.0
102
RTVSPost2010PropOp57
 70
     1
102
RTVSPropertyOp0
 70
     1
102
RTVSPropertyOp1
 70
     1
102
RTVSPropertyOp2
 70
     1
102
RTVSPropertyOp3
 70
     1
102
RTVSPropertyOp4
 70
     1
102
RTVSPropertyOp5
 70
     1
102
RTVSPropertyOp6
 70
     1
102
RTVSPropertyOp7
 70
     1
102
RTVSPropertyOp8
 70
     1
102
RTVSPropertyOp9
 70
     1
102
RTVSPropertyOp10
 70
     1
102
RTVSPropertyOp11
 70
     1
102
RTVSPropertyOp12
 70
     1
102
RTVSPropertyOp13
 70
     1
102
RTVSPropertyOp14
 70
     1
102
RTVSPropertyOp15
 70
     1
102
RTVSPropertyOp16
 70
     1
102
RTVSPropertyOp17
 70
     1
102
RTVSPropertyOp18
 70
     1
102
RTVSPropertyOp19
 70
     1
102
RTVSPropertyOp20
 70
     1
102
RTVSPropertyOp21
 70
     1
102
RTVSPropertyOp22
 70
     1
102
RTVSPropertyOp23
 70
     1
102
RTVSPropertyOp24
 70
     1
102
RTVSPropertyOp25
 70
     1
102
RTVSPropertyOp26
 70
     1
102
RTVSPropertyOp27
 70
     1
102
RTVSPropertyOp28
 70
     1
102
RTVSPropertyOp29
 70
     1
102
RTVSPropertyOp30
 70
     1
102
RTVSPropertyOp31
 70
     1
102
RTVSPropertyOp32
 70
     1
102
RTVSPropertyOp33
 70
     1
102
RTVSPropertyOp34
 70
     1
102
RTVSPropertyOp35
 70
     1
102
RTVSPropertyOp36
 70
     1
102
RTVSPropertyOp37
 70
     1
102
RTVSPropertyOp38
 70
     1
102
RTVSPropertyOp39
 70
     1
102
RTVSPropertyOp40
 70
     1
102
RTVSPropertyOp41
 70
     1
102
RTVSPropertyOp42
 70
     1
102
RTVSPropertyOp43
 70
     1
102
RTVSPropertyOp44
 70
     1
102
RTVSPropertyOp45
 70
     1
102
RTVSPropertyOp46
 70
     1
102
RTVSPropertyOp47
 70
     1
102
RTVSPropertyOp48
 70
     1
102
RTVSPropertyOp49
 70
     1
102
RTVSPropertyOp50
 70
     1
102
RTVSPropertyOp51
 70
     0
102
RTVSPropertyOp52
 70
     0
102
RTVSPropertyOp53
 70
     1
102
RTVSPropertyOp54
 70
     1
102
RTVSPropertyOp55
 70
     1
102
RTVSPropertyOp56
 70
     1
102
RTVSPropertyOp57
 70
     1
102
RTVSPropertyOp58
 70
     1
102
RTVSPropertyOp59
 70
     1
102
RTVSPropertyOp60
 70
     1
102
RTVSPropertyOp61
 70
     1
102
RTVSPropertyOp62
 70
     1
  0
XRECORD
  5
D57
102
{ACAD_REACTORS
330
D56
102
}
330
D56
100
AcDbXrecord
280
     1
102
RTVSPost2010Prop28
280
     0
102
RTVSPost2010PropOp28
 70
     1
102
RTVSPost2010Prop29
280
     1
102
RTVSPost2010PropOp29
 70
     1
102
RTVSPost2010Prop30
280
     1
102
RTVSPost2010PropOp30
 70
     1
102
RTVSPost2010Prop31
280
     0
102
RTVSPost2010PropOp31
 70
     1
102
RTVSPost2010Prop32
280
     0
102
RTVSPost2010PropOp32
 70
     1
102
RTVSPost2010Prop33
280
     0
102
RTVSPost2010PropOp33
 70
     1
102
RTVSPost2010Prop34
280
     0
102
RTVSPost2010PropOp34
 70
     1
102
RTVSPost2010Prop35
280
     0
102
RTVSPost2010PropOp35
 70
     1
102
RTVSPost2010Prop36
280
     0
102
RTVSPost2010PropOp36
 70
     1
102
RTVSPost2010Prop37
 90
       50
102
RTVSPost2010PropOp37
 70
     1
102
RTVSPost2010Prop38
140
0.0
102
RTVSPost2010PropOp38
 70
     1
102
RTVSPost2010Prop39
140
1.0
102
RTVSPost2010PropOp39
 70
     1
102
RTVSPost2010Prop40
 90
        0
102
RTVSPost2010PropOp40
 70
     1
102
RTVSPost2010Prop41ColorIndex
 90
       18
102
RTVSPost2010Prop41ColorRGB
 90
        0
102
RTVSPost2010PropOp41
 70
     1
102
RTVSPost2010Prop42
 90
       50
102
RTVSPost2010PropOp42
 70
     1
102
RTVSPost2010Prop43
 90
        3
102
RTVSPost2010PropOp43
 70
     1
102
RTVSPost2010Prop44ColorIndex
 90
        5
102
RTVSPost2010Prop44ColorRGB
 90
      255
102
RTVSPost2010PropOp44
 70
     1
102
RTVSPost2010Prop45
280
     0
102
RTVSPost2010PropOp45
 70
     1
102
RTVSPost2010Prop46
 90
       50
102
RTVSPost2010PropOp46
 70
     1
102
RTVSPost2010Prop47
 90
       50
102
RTVSPost2010PropOp47
 70
     1
102
RTVSPost2010Prop48
 90
       50
102
RTVSPost2010PropOp48
 70
     1
102
RTVSPost2010Prop49
280
     0
102
RTVSPost2010PropOp49
 70
     1
102
RTVSPost2010Prop50
 90
       50
102
RTVSPost2010PropOp50
 70
     1
102
RTVSPost2010Prop51ColorIndex
 90
      256
102
RTVSPost2010Prop51ColorRGB
 90
-16777216
102
RTVSPost2010PropOp51
 70
     0
102
RTVSPost2010Prop52
140
1.0
102
RTVSPost2010PropOp52
 70
     0
102
RTVSPost2010Prop53
 90
        2
102
RTVSPost2010PropOp53
 70
     1
102
RTVSPost2010Prop54
  1
strokes_ogs.tif
102
RTVSPost2010PropOp54
 70
     1
102
RTVSPost2010Prop55
280
     0
102
RTVSPost2010PropOp55
 70
     1
102
RTVSPost2010Prop56
140
1.0
102
RTVSPost2010PropOp56
 70
     1
102
RTVSPost2010Prop57
140
1.0
102
RTVSPost2010PropOp57
 70
     1
102
RTVSPropertyOp0
 70
     1
102
RTVSPropertyOp1
 70
     1
102
RTVSPropertyOp2
 70
     1
102
RTVSPropertyOp3
 70
     1
102
RTVSPropertyOp4
 70
     1
102
RTVSPropertyOp5
 70
     1
102
RTVSPropertyOp6
 70
     1
102
RTVSPropertyOp7
 70
     1
102
RTVSPropertyOp8
 70
     1
102
RTVSPropertyOp9
 70
     1
102
RTVSPropertyOp10
 70
     1
102
RTVSPropertyOp11
 70
     1
102
RTVSPropertyOp12
 70
     1
102
RTVSPropertyOp13
 70
     1
102
RTVSPropertyOp14
 70
     1
102
RTVSPropertyOp15
 70
     1
102
RTVSPropertyOp16
 70
     1
102
RTVSPropertyOp17
 70
     1
102
RTVSPropertyOp18
 70
     1
102
RTVSPropertyOp19
 70
     1
102
RTVSPropertyOp20
 70
     1
102
RTVSPropertyOp21
 70
     1
102
RTVSPropertyOp22
 70
     1
102
RTVSPropertyOp23
 70
     1
102
RTVSPropertyOp24
 70
     1
102
RTVSPropertyOp25
 70
     1
102
RTVSPropertyOp26
 70
     1
102
RTVSPropertyOp27
 70
     1
102
RTVSPropertyOp28
 70
     1
102
RTVSPropertyOp29
 70
     1
102
RTVSPropertyOp30
 70
     1
102
RTVSPropertyOp31
 70
     1
102
RTVSPropertyOp32
 70
     1
102
RTVSPropertyOp33
 70
     1
102
RTVSPropertyOp34
 70
     1
102
RTVSPropertyOp35
 70
     1
102
RTVSPropertyOp36
 70
     1
102
RTVSPropertyOp37
 70
     1
102
RTVSPropertyOp38
 70
     1
102
RTVSPropertyOp39
 70
     1
102
RTVSPropertyOp40
 70
     1
102
RTVSPropertyOp41
 70
     1
102
RTVSPropertyOp42
 70
     1
102
RTVSPropertyOp43
 70
     1
102
RTVSPropertyOp44
 70
     1
102
RTVSPropertyOp45
 70
     1
102
RTVSPropertyOp46
 70
     1
102
RTVSPropertyOp47
 70
     1
102
RTVSPropertyOp48
 70
     1
102
RTVSPropertyOp49
 70
     1
102
RTVSPropertyOp50
 70
     1
102
RTVSPropertyOp51
 70
     0
102
RTVSPropertyOp52
 70
     0
102
RTVSPropertyOp53
 70
     1
102
RTVSPropertyOp54
 70
     1
102
RTVSPropertyOp55
 70
     1
102
RTVSPropertyOp56
 70
     1
102
RTVSPropertyOp57
 70
     1
102
RTVSPropertyOp58
 70
     1
102
RTVSPropertyOp59
 70
     1
102
RTVSPropertyOp60
 70
     1
102
RTVSPropertyOp61
 70
     1
102
RTVSPropertyOp62
 70
     1
  0
ENDSEC
  0
EOF
