  0
SECTION
  2
HEADER
  9
$ACADVER
  1
AC1018
  9
$ACADMAINTVER
 70
   104
  9
$DWGCODEPAGE
  3
ANSI_932
  9
$LASTSAVEDBY
  1
0803015
  9
$INSBASE
 10
0.0
 20
0.0
 30
0.0
  9
$EXTMIN
 10
-1.95987659
 20
-1.22065865
 30
-0.00000003
  9
$EXTMAX
 10
27501.31288636
 20
20001.22083352
 30
0.00000008
  9
$LIMMIN
 10
0.0
 20
0.0
  9
$LIMMAX
 10
420.0
 20
330.0
  9
$ORTHOMODE
 70
     1
  9
$REGENMODE
 70
     1
  9
$FILLMODE
 70
     1
  9
$QTEXTMODE
 70
     0
  9
$MIRRTEXT
 70
     0
  9
$LTSCALE
 40
1.0
  9
$ATTMODE
 70
     1
  9
$TEXTSIZE
 40
0.2
  9
$TRACEWID
 40
0.05
  9
$TEXTSTYLE
  7
STANDARD
  9
$CLAYER
  8
0
  9
$CELTYPE
  6
ByLayer
  9
$CECOLOR
 62
   256
  9
$CELTSCALE
 40
1.0
  9
$DISPSILH
 70
     1
  9
$DIMSCALE
 40
1.0
  9
$DIMASZ
 40
0.18
  9
$DIMEXO
 40
0.0625
  9
$DIMDLI
 40
0.38
  9
$DIMRND
 40
0.0
  9
$DIMDLE
 40
0.0
  9
$DIMEXE
 40
0.18
  9
$DIMTP
 40
0.0
  9
$DIMTM
 40
0.0
  9
$DIMTXT
 40
0.18
  9
$DIMCEN
 40
0.09
  9
$DIMTSZ
 40
0.0
  9
$DIMTOL
 70
     0
  9
$DIMLIM
 70
     0
  9
$DIMTIH
 70
     1
  9
$DIMTOH
 70
     1
  9
$DIMSE1
 70
     0
  9
$DIMSE2
 70
     0
  9
$DIMTAD
 70
     0
  9
$DIMZIN
 70
     0
  9
$DIMBLK
  1

  9
$DIMASO
 70
     1
  9
$DIMSHO
 70
     0
  9
$DIMPOST
  1

  9
$DIMAPOST
  1

  9
$DIMALT
 70
     0
  9
$DIMALTD
 70
     2
  9
$DIMALTF
 40
25.4
  9
$DIMLFAC
 40
1.0
  9
$DIMTOFL
 70
     0
  9
$DIMTVP
 40
0.0
  9
$DIMTIX
 70
     0
  9
$DIMSOXD
 70
     0
  9
$DIMSAH
 70
     0
  9
$DIMBLK1
  1

  9
$DIMBLK2
  1

  9
$DIMSTYLE
  2
STANDARD
  9
$DIMCLRD
 70
     0
  9
$DIMCLRE
 70
     0
  9
$DIMCLRT
 70
     0
  9
$DIMTFAC
 40
1.0
  9
$DIMGAP
 40
0.09
  9
$DIMJUST
 70
     0
  9
$DIMSD1
 70
     0
  9
$DIMSD2
 70
     0
  9
$DIMTOLJ
 70
     1
  9
$DIMTZIN
 70
     0
  9
$DIMALTZ
 70
     0
  9
$DIMALTTZ
 70
     0
  9
$DIMUPT
 70
     0
  9
$DIMDEC
 70
     4
  9
$DIMTDEC
 70
     4
  9
$DIMALTU
 70
     2
  9
$DIMALTTD
 70
     2
  9
$DIMTXSTY
  7
STANDARD
  9
$DIMAUNIT
 70
     0
  9
$DIMADEC
 70
     0
  9
$DIMALTRND
 40
0.0
  9
$DIMAZIN
 70
     0
  9
$DIMDSEP
 70
    46
  9
$DIMATFIT
 70
     3
  9
$DIMFRAC
 70
     0
  9
$DIMLDRBLK
  1

  9
$DIMLUNIT
 70
     2
  9
$DIMLWD
 70
    -2
  9
$DIMLWE
 70
    -2
  9
$DIMTMOVE
 70
     2
  9
$LUNITS
 70
     2
  9
$LUPREC
 70
     4
  9
$SKETCHINC
 40
0.1
  9
$FILLETRAD
 40
1.0
  9
$AUNITS
 70
     0
  9
$AUPREC
 70
     0
  9
$MENU
  1
c:\acadwin\support\acad
  9
$ELEVATION
 40
0.0
  9
$PELEVATION
 40
0.0
  9
$THICKNESS
 40
0.0
  9
$LIMCHECK
 70
     0
  9
$CHAMFERA
 40
0.0
  9
$CHAMFERB
 40
0.0
  9
$CHAMFERC
 40
0.0
  9
$CHAMFERD
 40
0.0
  9
$SKPOLY
 70
     0
  9
$TDCREATE
 40
2456941.695358797
  9
$TDUCREATE
 40
2456941.320366216
  9
$TDUPDATE
 40
2459599.448020834
  9
$TDUUPDATE
 40
2459599.073020834
  9
$TDINDWG
 40
0.0117768171
  9
$TDUSRTIMER
 40
0.0117768171
  9
$USRTIMER
 70
     1
  9
$ANGBASE
 50
0.0
  9
$ANGDIR
 70
     0
  9
$PDMODE
 70
     0
  9
$PDSIZE
 40
0.0
  9
$PLINEWID
 40
0.0
  9
$SPLFRAME
 70
     0
  9
$SPLINETYPE
 70
     6
  9
$SPLINESEGS
 70
     8
  9
$HANDSEED
  5
2C0D
  9
$SURFTAB1
 70
     6
  9
$SURFTAB2
 70
     6
  9
$SURFTYPE
 70
     6
  9
$SURFU
 70
     6
  9
$SURFV
 70
     6
  9
$UCSBASE
  2

  9
$UCSNAME
  2

  9
$UCSORG
 10
0.0
 20
0.0
 30
0.0
  9
$UCSXDIR
 10
1.0
 20
0.0
 30
0.0
  9
$UCSYDIR
 10
0.0
 20
1.0
 30
0.0
  9
$UCSORTHOREF
  2

  9
$UCSORTHOVIEW
 70
     0
  9
$UCSORGTOP
 10
0.0
 20
0.0
 30
0.0
  9
$UCSORGBOTTOM
 10
0.0
 20
0.0
 30
0.0
  9
$UCSORGLEFT
 10
0.0
 20
0.0
 30
0.0
  9
$UCSORGRIGHT
 10
0.0
 20
0.0
 30
0.0
  9
$UCSORGFRONT
 10
0.0
 20
0.0
 30
0.0
  9
$UCSORGBACK
 10
0.0
 20
0.0
 30
0.0
  9
$PUCSBASE
  2

  9
$PUCSNAME
  2

  9
$PUCSORG
 10
0.0
 20
0.0
 30
0.0
  9
$PUCSXDIR
 10
1.0
 20
0.0
 30
0.0
  9
$PUCSYDIR
 10
0.0
 20
1.0
 30
0.0
  9
$PUCSORTHOREF
  2

  9
$PUCSORTHOVIEW
 70
     0
  9
$PUCSORGTOP
 10
0.0
 20
0.0
 30
0.0
  9
$PUCSORGBOTTOM
 10
0.0
 20
0.0
 30
0.0
  9
$PUCSORGLEFT
 10
0.0
 20
0.0
 30
0.0
  9
$PUCSORGRIGHT
 10
0.0
 20
0.0
 30
0.0
  9
$PUCSORGFRONT
 10
0.0
 20
0.0
 30
0.0
  9
$PUCSORGBACK
 10
0.0
 20
0.0
 30
0.0
  9
$USERI1
 70
     0
  9
$USERI2
 70
     0
  9
$USERI3
 70
     0
  9
$USERI4
 70
     0
  9
$USERI5
 70
     0
  9
$USERR1
 40
0.0
  9
$USERR2
 40
0.0
  9
$USERR3
 40
0.0
  9
$USERR4
 40
0.0
  9
$USERR5
 40
0.0
  9
$WORLDVIEW
 70
     1
  9
$SHADEDGE
 70
     3
  9
$SHADEDIF
 70
    70
  9
$TILEMODE
 70
     1
  9
$MAXACTVP
 70
    16
  9
$PINSBASE
 10
0.0
 20
0.0
 30
0.0
  9
$PLIMCHECK
 70
     0
  9
$PEXTMIN
 10
1.00000000E+20
 20
1.00000000E+20
 30
1.00000000E+20
  9
$PEXTMAX
 10
-1.00000000E+20
 20
-1.00000000E+20
 30
-1.00000000E+20
  9
$PLIMMIN
 10
0.0
 20
0.0
  9
$PLIMMAX
 10
12.0
 20
9.0
  9
$UNITMODE
 70
     0
  9
$VISRETAIN
 70
     0
  9
$PLINEGEN
 70
     0
  9
$PSLTSCALE
 70
     0
  9
$TREEDEPTH
 70
  3020
  9
$CMLSTYLE
  2
Standard
  9
$CMLJUST
 70
     0
  9
$CMLSCALE
 40
1.0
  9
$PROXYGRAPHICS
 70
     1
  9
$MEASUREMENT
 70
     1
  9
$CELWEIGHT
370
    -1
  9
$ENDCAPS
280
     0
  9
$JOINSTYLE
280
     0
  9
$LWDISPLAY
290
     0
  9
$INSUNITS
 70
     0
  9
$HYPERLINKBASE
  1

  9
$STYLESHEET
  1

  9
$XEDIT
290
     1
  9
$CEPSNTYPE
380
     0
  9
$PSTYLEMODE
290
     1
  9
$FINGERPRINTGUID
  2
{1D65D1E6-1809-43F1-A321-8E0EF46B5D83}
  9
$VERSIONGUID
  2
{A75E9FD4-E96B-6C4F-A4CC-AF719F6C36F7}
  9
$EXTNAMES
290
     1
  9
$PSVPSCALE
 40
0.0
  9
$OLESTARTUP
290
     0
  9
$SORTENTS
280
   127
  9
$INDEXCTL
280
     0
  9
$HIDETEXT
280
     1
  9
$XCLIPFRAME
290
     0
  9
$HALOGAP
280
     0
  9
$OBSCOLOR
 70
   257
  9
$OBSLTYPE
280
     0
  9
$INTERSECTIONDISPLAY
280
     0
  9
$INTERSECTIONCOLOR
 70
   257
  9
$DIMASSOC
280
     2
  9
$PROJECTNAME
  1

  0
ENDSEC
  0
SECTION
  2
CLASSES
  0
CLASS
  1
ACDBDICTIONARYWDFLT
  2
AcDbDictionaryWithDefault
  3
ObjectDBX Classes
 90
        0
 91
        1
280
     0
281
     0
  0
CLASS
  1
MATERIAL
  2
AcDbMaterial
  3
ObjectDBX Classes
 90
     1153
 91
        3
280
     0
281
     0
  0
CLASS
  1
VISUALSTYLE
  2
AcDbVisualStyle
  3
ObjectDBX Classes
 90
     4095
 91
       24
280
     0
281
     0
  0
CLASS
  1
SCALE
  2
AcDbScale
  3
ObjectDBX Classes
 90
     1153
 91
       17
280
     0
281
     0
  0
CLASS
  1
TABLESTYLE
  2
AcDbTableStyle
  3
ObjectDBX Classes
 90
     4095
 91
        1
280
     0
281
     0
  0
CLASS
  1
MLEADERSTYLE
  2
AcDbMLeaderStyle
  3
ACDB_MLEADERSTYLE_CLASS
 90
     4095
 91
        1
280
     0
281
     0
  0
CLASS
  1
ACDBSECTIONVIEWSTYLE
  2
AcDbSectionViewStyle
  3
ObjectDBX Classes
 90
     1025
 91
        2
280
     0
281
     0
  0
CLASS
  1
ACDBDETAILVIEWSTYLE
  2
AcDbDetailViewStyle
  3
ObjectDBX Classes
 90
     1025
 91
        2
280
     0
281
     0
  0
CLASS
  1
CELLSTYLEMAP
  2
AcDbCellStyleMap
  3
ObjectDBX Classes
 90
     1152
 91
        2
280
     0
281
     0
  0
CLASS
  1
DICTIONARYVAR
  2
AcDbDictionaryVar
  3
ObjectDBX Classes
 90
        0
 91
       11
280
     0
281
     0
  0
CLASS
  1
RAPIDRTRENDERSETTINGS
  2
AcDbRapidRTRenderSettings
  3
ObjectDBX Classes
 90
     1024
 91
        1
280
     0
281
     0
  0
CLASS
  1
MENTALRAYRENDERSETTINGS
  2
AcDbMentalRayRenderSettings
  3
SCENEOE
 90
     1024
 91
        1
280
     0
281
     0
  0
ENDSEC
  0
SECTION
  2
TABLES
  0
TABLE
  2
VPORT
  5
2573
102
{ACAD_XDICTIONARY
360
2698
102
}
330
0
100
AcDbSymbolTable
 70
     1
  0
VPORT
  5
25DE
330
2573
100
AcDbSymbolTableRecord
100
AcDbViewportTableRecord
  2
*ACTIVE
 70
     0
 10
0.0
 20
0.0
 11
1.0
 21
1.0
 12
13749.67650489
 22
10000.00008743
 13
0.0
 23
0.0
 14
1.0
 24
1.0
 15
10.0
 25
10.0
 16
0.0
 26
0.0
 36
1.0
 17
0.0
 27
0.0
 37
0.0
 40
20209.72067861
 41
1.9567474
 42
50.0
 43
0.0
 44
0.0
 50
0.0
 51
0.0
 71
     0
 72
   100
 73
     1
 74
     0
 75
     0
 76
     0
 77
     0
 78
     0
281
     0
 65
     1
110
0.0
120
0.0
130
0.0
111
1.0
121
0.0
131
0.0
112
0.0
122
1.0
132
0.0
 79
     0
146
0.0
1001
ACAD_NAV_VCDISPLAY
1070
     1
  0
ENDTAB
  0
TABLE
  2
LTYPE
  5
2570
330
0
100
AcDbSymbolTable
 70
     1
  0
LTYPE
  5
25C5
330
2570
100
AcDbSymbolTableRecord
100
AcDbLinetypeTableRecord
  2
ByBlock
 70
     0
  3

 72
    65
 73
     0
 40
0.0
  0
LTYPE
  5
25C6
330
2570
100
AcDbSymbolTableRecord
100
AcDbLinetypeTableRecord
  2
ByLayer
 70
     0
  3

 72
    65
 73
     0
 40
0.0
  0
LTYPE
  5
25C7
330
2570
100
AcDbSymbolTableRecord
100
AcDbLinetypeTableRecord
  2
CONTINUOUS
 70
     0
  3
Solid line
 72
    65
 73
     0
 40
0.0
  0
ENDTAB
  0
TABLE
  2
LAYER
  5
256D
102
{ACAD_XDICTIONARY
360
2688
102
}
330
0
100
AcDbSymbolTable
 70
    11
  0
LAYER
  5
25BF
330
256D
100
AcDbSymbolTableRecord
100
AcDbLayerTableRecord
  2
0
 70
     0
 62
     7
  6
CONTINUOUS
370
    -3
390
257A
  0
LAYER
  5
25E6
330
256D
100
AcDbSymbolTableRecord
100
AcDbLayerTableRecord
  2
YKK_IN
 70
     0
 62
     1
  6
CONTINUOUS
370
    -3
390
257A
  0
LAYER
  5
25E7
330
256D
100
AcDbSymbolTableRecord
100
AcDbLayerTableRecord
  2
YKK_F1
 70
     0
 62
     7
  6
CONTINUOUS
370
    -3
390
257A
  0
LAYER
  5
25E8
330
256D
100
AcDbSymbolTableRecord
100
AcDbLayerTableRecord
  2
YKK_N1
 70
     0
 62
     2
  6
CONTINUOUS
370
    -3
390
257A
  0
LAYER
  5
25E9
330
256D
100
AcDbSymbolTableRecord
100
AcDbLayerTableRecord
  2
YKK_Z1
 70
     0
 62
     7
  6
CONTINUOUS
370
    -3
390
257A
  0
LAYER
  5
25EA
330
256D
100
AcDbSymbolTableRecord
100
AcDbLayerTableRecord
  2
YKK_A1
 70
     0
 62
     4
  6
CONTINUOUS
370
    -3
390
257A
  0
LAYER
  5
25EB
330
256D
100
AcDbSymbolTableRecord
100
AcDbLayerTableRecord
  2
YKK_A2
 70
     0
 62
     3
  6
CONTINUOUS
370
    -3
390
257A
  0
LAYER
  5
25EC
330
256D
100
AcDbSymbolTableRecord
100
AcDbLayerTableRecord
  2
YKK_B1
 70
     0
 62
     4
  6
CONTINUOUS
370
    -3
390
257A
  0
LAYER
  5
25ED
330
256D
100
AcDbSymbolTableRecord
100
AcDbLayerTableRecord
  2
YKK_C1
 70
     0
 62
     4
  6
CONTINUOUS
370
    -3
390
257A
  0
LAYER
  5
25EE
330
256D
100
AcDbSymbolTableRecord
100
AcDbLayerTableRecord
  2
YKK_B2
 70
     0
 62
     5
  6
CONTINUOUS
370
    -3
390
257A
  0
LAYER
  5
25EF
330
256D
100
AcDbSymbolTableRecord
100
AcDbLayerTableRecord
  2
YKK_C2
 70
     0
 62
     5
  6
CONTINUOUS
370
    -3
390
257A
  0
ENDTAB
  0
TABLE
  2
STYLE
  5
256E
330
0
100
AcDbSymbolTable
 70
     2
  0
STYLE
  5
25C0
330
256E
100
AcDbSymbolTableRecord
100
AcDbTextStyleTableRecord
  2
STANDARD
 70
     0
 40
0.0
 41
1.0
 50
0.0
 71
     0
 42
0.2
  3
txt.shx
  4
bigfont.shx
  0
STYLE
  5
25C4
330
256E
100
AcDbSymbolTableRecord
100
AcDbTextStyleTableRecord
  2
EXTFONT
 70
     0
 40
60.0
 41
1.0
 50
0.0
 71
     0
 42
60.0
  3
txt.shx
  4
EXTFONT
1001
AcadAnnotative
1000
AnnotativeData
1002
{
1070
     1
1070
     1
1002
}
  0
ENDTAB
  0
TABLE
  2
VIEW
  5
2571
330
0
100
AcDbSymbolTable
 70
     0
  0
ENDTAB
  0
TABLE
  2
UCS
  5
2572
330
0
100
AcDbSymbolTable
 70
     0
  0
ENDTAB
  0
TABLE
  2
APPID
  5
2574
330
0
100
AcDbSymbolTable
 70
    13
  0
APPID
  5
25C1
330
2574
100
AcDbSymbolTableRecord
100
AcDbRegAppTableRecord
  2
ACAD
 70
     0
  0
APPID
  5
25DF
330
2574
100
AcDbSymbolTableRecord
100
AcDbRegAppTableRecord
  2
GENIUS_GENODEF_13
 70
     0
  0
APPID
  5
25E0
330
2574
100
AcDbSymbolTableRecord
100
AcDbRegAppTableRecord
  2
GENIUS_GENREC_14
 70
     0
  0
APPID
  5
25E1
330
2574
100
AcDbSymbolTableRecord
100
AcDbRegAppTableRecord
  2
GENIUS_GENOBJ-N-REC_13
 70
     0
  0
APPID
  5
25E2
330
2574
100
AcDbSymbolTableRecord
100
AcDbRegAppTableRecord
  2
YKK_AP_LOCKLAYER
 70
     0
  0
APPID
  5
25E3
330
2574
100
AcDbSymbolTableRecord
100
AcDbRegAppTableRecord
  2
ACAD_MLEADERVER
 70
     0
  0
APPID
  5
25E4
330
2574
100
AcDbSymbolTableRecord
100
AcDbRegAppTableRecord
  2
YTEXT_INFOMATION
 70
     0
  0
APPID
  5
25E5
330
2574
100
AcDbSymbolTableRecord
100
AcDbRegAppTableRecord
  2
ACAD_EXEMPT_FROM_CAD_STANDARDS
 70
     0
  0
APPID
  5
25C8
330
2574
100
AcDbSymbolTableRecord
100
AcDbRegAppTableRecord
  2
AcadAnnotative
 70
     0
  0
APPID
  5
2646
330
2574
100
AcDbSymbolTableRecord
100
AcDbRegAppTableRecord
  2
ACAD_PSEXT
 70
     0
  0
APPID
  5
2647
330
2574
100
AcDbSymbolTableRecord
100
AcDbRegAppTableRecord
  2
ACAD_NAV_VCDISPLAY
 70
     0
  0
APPID
  5
26E7
330
2574
100
AcDbSymbolTableRecord
100
AcDbRegAppTableRecord
  2
AcAecLayerStandard
 70
     0
  0
APPID
  5
26E8
330
2574
100
AcDbSymbolTableRecord
100
AcDbRegAppTableRecord
  2
AcCmTransparency
 70
     0
  0
ENDTAB
  0
TABLE
  2
DIMSTYLE
  5
2575
330
0
100
AcDbSymbolTable
 70
     1
100
AcDbDimStyleTable
 71
     1
340
25C2
  0
DIMSTYLE
105
25C2
330
2575
100
AcDbSymbolTableRecord
100
AcDbDimStyleTableRecord
  2
STANDARD
 70
     0
279
     2
340
25C0
  0
ENDTAB
  0
TABLE
  2
BLOCK_RECORD
  5
256C
330
0
100
AcDbSymbolTable
 70
     0
  0
BLOCK_RECORD
  5
25DA
330
256C
100
AcDbSymbolTableRecord
100
AcDbBlockTableRecord
  2
*Model_Space
340
25DD
  0
BLOCK_RECORD
  5
25D6
330
256C
100
AcDbSymbolTableRecord
100
AcDbBlockTableRecord
  2
*Paper_Space
340
25D9
  0
ENDTAB
  0
ENDSEC
  0
SECTION
  2
BLOCKS
  0
BLOCK
  5
25F2
330
25DA
100
AcDbEntity
  8
0
100
AcDbBlockBegin
  2
*Model_Space
 70
     0
 10
0.0
 20
0.0
 30
0.0
  3
*Model_Space
  1

  0
ENDBLK
  5
25F3
330
25DA
100
AcDbEntity
  8
0
100
AcDbBlockEnd
  0
BLOCK
  5
25F0
330
25D6
100
AcDbEntity
 67
     1
  8
0
100
AcDbBlockBegin
  2
*Paper_Space
 70
     0
 10
0.0
 20
0.0
 30
0.0
  3
*Paper_Space
  1

  0
ENDBLK
  5
25F1
330
25D6
100
AcDbEntity
 67
     1
  8
0
100
AcDbBlockEnd
  0
ENDSEC
  0
SECTION
  2
ENTITIES
  0
TEXT
  5
24
330
25DA
100
AcDbEntity
  8
0
 62
     3
100
AcDbText
 10
339.95356542
 20
8237.7957381
 30
0.0
 40
170.0
  1
H=2230(h=2200)
 50
90.0
  7
EXTFONT
 72
     4
 11
254.95356542
 21
9300.2957381
 31
0.0
100
AcDbText
  0
LINE
  5
27
330
25DA
100
AcDbEntity
  8
YKK_F1
 62
     7
100
AcDbLine
 10
500.0
 20
0.0
 30
0.0
 11
500.0
 21
19500.0
 31
0.0
  0
LINE
  5
2B
330
25DA
100
AcDbEntity
  8
YKK_F1
 62
     7
100
AcDbLine
 10
27500.0
 20
0.0
 30
0.0
 11
27500.0
 21
20000.0
 31
0.0
  0
LINE
  5
2C
330
25DA
100
AcDbEntity
  8
YKK_F1
 62
     7
100
AcDbLine
 10
10400.0
 20
0.0
 30
0.0
 11
10400.0
 21
19500.0
 31
0.0
  0
LINE
  5
2E
330
25DA
100
AcDbEntity
  8
YKK_F1
 62
     7
100
AcDbLine
 10
8400.0
 20
3800.0
 30
0.0
 11
8400.0
 21
19500.0
 31
0.0
  0
LINE
  5
2F
330
25DA
100
AcDbEntity
  8
YKK_F1
 62
     7
100
AcDbLine
 10
7900.0
 20
3800.0
 30
0.0
 11
7900.0
 21
19500.0
 31
0.0
  0
LINE
  5
31
330
25DA
100
AcDbEntity
  8
YKK_F1
 62
     7
100
AcDbLine
 10
2800.0
 20
3800.0
 30
0.0
 11
2800.0
 21
19500.0
 31
0.0
  0
LINE
  5
32
330
25DA
100
AcDbEntity
  8
YKK_F1
 62
     7
100
AcDbLine
 10
5300.0
 20
3800.0
 30
0.0
 11
5300.0
 21
19500.0
 31
0.0
  0
LINE
  5
77
330
25DA
100
AcDbEntity
  8
YKK_F1
 62
     7
100
AcDbLine
 10
0.0
 20
0.0
 30
0.0
 11
0.0
 21
20000.0
 31
0.0
  0
LINE
  5
A4
330
25DA
100
AcDbEntity
  8
YKK_F1
 62
     7
100
AcDbLine
 10
0.0
 20
0.0
 30
0.0
 11
27500.0
 21
0.0
 31
0.0
  0
POINT
  5
F9
330
25DA
100
AcDbEntity
  8
YKK_C2
100
AcDbPoint
 10
0.0
 20
0.0
 30
0.0
  0
POINT
  5
FA
330
25DA
100
AcDbEntity
  8
YKK_B2
100
AcDbPoint
 10
0.0
 20
0.0
 30
0.0
  0
POINT
  5
FB
330
25DA
100
AcDbEntity
  8
YKK_C1
100
AcDbPoint
 10
0.0
 20
0.0
 30
0.0
  0
POINT
  5
FC
330
25DA
100
AcDbEntity
  8
YKK_B1
100
AcDbPoint
 10
0.0
 20
0.0
 30
0.0
  0
POINT
  5
FD
330
25DA
100
AcDbEntity
  8
YKK_A2
100
AcDbPoint
 10
0.0
 20
0.0
 30
0.0
  0
POINT
  5
FF
330
25DA
100
AcDbEntity
  8
YKK_A1
100
AcDbPoint
 10
0.0
 20
0.0
 30
0.0
  0
POINT
  5
100
330
25DA
100
AcDbEntity
  8
YKK_Z1
100
AcDbPoint
 10
0.0
 20
0.0
 30
0.0
  0
POINT
  5
101
330
25DA
100
AcDbEntity
  8
YKK_N1
100
AcDbPoint
 10
0.0
 20
0.0
 30
0.0
  0
POINT
  5
102
330
25DA
100
AcDbEntity
  8
YKK_F1
100
AcDbPoint
 10
0.0
 20
0.0
 30
0.0
  0
POINT
  5
103
330
25DA
100
AcDbEntity
  8
YKK_IN
100
AcDbPoint
 10
0.0
 20
0.0
 30
0.0
  0
LINE
  5
B98
330
25DA
100
AcDbEntity
  8
YKK_F1
 62
     7
100
AcDbLine
 10
0.0
 20
3800.0
 30
0.0
 11
10400.0
 21
3800.0
 31
0.0
  0
LINE
  5
B99
330
25DA
100
AcDbEntity
  8
YKK_F1
 62
     7
100
AcDbLine
 10
0.0
 20
6800.0
 30
0.0
 11
10400.0
 21
6800.0
 31
0.0
  0
LINE
  5
B9A
330
25DA
100
AcDbEntity
  8
YKK_F1
 62
     7
100
AcDbLine
 10
0.0
 20
7300.0
 30
0.0
 11
10400.0
 21
7300.0
 31
0.0
  0
TEXT
  5
BA8
330
25DA
100
AcDbEntity
  8
0
 62
     3
100
AcDbText
 10
354.95356542
 20
4845.18652101
 30
0.0
 40
200.0
  1
横断面図
 50
90.0
  7
EXTFONT
 72
     4
 11
254.95356542
 21
5291.85318767
 31
0.0
100
AcDbText
  0
LINE
  5
1382
330
25DA
100
AcDbEntity
  8
YKK_F1
 62
     7
100
AcDbLine
 10
0.0
 20
19500.0
 30
0.0
 11
27000.0
 21
19500.0
 31
0.0
  0
LINE
  5
1383
330
25DA
100
AcDbEntity
  8
YKK_F1
 62
     7
100
AcDbLine
 10
0.0
 20
20000.0
 30
0.0
 11
27500.0
 21
20000.0
 31
0.0
  0
TEXT
  5
1820
330
25DA
100
AcDbEntity
  8
0
 62
     3
100
AcDbText
 10
339.95356542
 20
16094.46240477
 30
0.0
 40
170.0
  1
H=1830(h=1800)
 50
90.0
  7
EXTFONT
 72
     4
 11
254.95356542
 21
17100.2957381
 31
0.0
100
AcDbText
  0
LINE
  5
1867
330
25DA
100
AcDbEntity
  8
YKK_F1
 62
     7
100
AcDbLine
 10
0.0
 20
11300.0
 30
0.0
 11
10400.0
 21
11300.0
 31
0.0
  0
LINE
  5
1868
330
25DA
100
AcDbEntity
  8
YKK_F1
 62
     7
100
AcDbLine
 10
0.0
 20
15200.0
 30
0.0
 11
10400.0
 21
15200.0
 31
0.0
  0
TEXT
  5
1869
330
25DA
100
AcDbEntity
  8
0
 62
     3
100
AcDbText
 10
339.95356542
 20
12216.12907143
 30
0.0
 40
170.0
  1
H=2030(h=2000)
 50
90.0
  7
EXTFONT
 72
     4
 11
254.95356542
 21
13250.2957381
 31
0.0
100
AcDbText
  0
TEXT
  5
1994
330
25DA
100
AcDbEntity
  8
0
100
AcDbText
 10
3483.37779994
 20
10592.64061924
 30
0.0
 40
80.0
  1
SXF-06022-DT
  7
EXTFONT
100
AcDbText
  0
TEXT
  5
19AC
330
25DA
100
AcDbEntity
  8
0
100
AcDbText
 10
1181.55641694
 20
10592.64061924
 30
0.0
 40
80.0
  1
SXF-03622-DT
  7
EXTFONT
100
AcDbText
  0
TEXT
  5
1BB2
330
25DA
100
AcDbEntity
  8
0
100
AcDbText
 10
3483.37779994
 20
14443.30146046
 30
0.0
 40
80.0
  1
SXF-06020-DT
  7
EXTFONT
100
AcDbText
  0
TEXT
  5
1BB3
330
25DA
100
AcDbEntity
  8
0
100
AcDbText
 10
1181.55641694
 20
14443.30146046
 30
0.0
 40
80.0
  1
SXF-03620-DT
  7
EXTFONT
100
AcDbText
  0
TEXT
  5
1C71
330
25DA
100
AcDbEntity
  8
0
100
AcDbText
 10
5982.85659994
 20
10592.64061924
 30
0.0
 40
80.0
  1
SXF-07422-DT
  7
EXTFONT
100
AcDbText
  0
TEXT
  5
1DA1
330
25DA
100
AcDbEntity
  8
0
100
AcDbText
 10
5982.85659994
 20
14443.30146046
 30
0.0
 40
80.0
  1
SXF-07420-DT
  7
EXTFONT
100
AcDbText
  0
TEXT
  5
1E4B
330
25DA
100
AcDbEntity
  8
0
 62
     3
100
AcDbText
 10
5506.64667889
 20
19136.63245061
 30
0.0
 40
200.0
  1
W=780(w=720)
  7
EXTFONT
 72
     4
 11
6606.64667889
 21
19236.63245061
 31
0.0
100
AcDbText
  0
LINE
  5
1E4C
330
25DA
100
AcDbEntity
  8
YKK_F1
 62
     7
100
AcDbLine
 10
0.0
 20
19000.0
 30
0.0
 11
10400.0
 21
19000.0
 31
0.0
  0
TEXT
  5
1FBD
330
25DA
100
AcDbEntity
  8
0
100
AcDbText
 10
3483.37779994
 20
18194.59103982
 30
0.0
 40
80.0
  1
SXF-06018-DT
  7
EXTFONT
100
AcDbText
  0
TEXT
  5
1FC3
330
25DA
100
AcDbEntity
  8
0
 62
     3
100
AcDbText
 10
3058.41431547
 20
19146.63245061
 30
0.0
 40
180.0
  1
W=640(w=580)
  7
EXTFONT
 72
     4
 11
4048.41431547
 21
19236.63245061
 31
0.0
100
AcDbText
  0
TEXT
  5
1FD6
330
25DA
100
AcDbEntity
  8
0
 62
     3
100
AcDbText
 10
756.64923197
 20
19156.63245061
 30
0.0
 40
160.0
  1
W=405(w=345)
  7
EXTFONT
 72
     4
 11
1649.9825653
 21
19236.63245061
 31
0.0
100
AcDbText
  0
TEXT
  5
1FD7
330
25DA
100
AcDbEntity
  8
0
100
AcDbText
 10
1181.55641694
 20
18194.59103982
 30
0.0
 40
80.0
  1
SXF-03618-DT
  7
EXTFONT
100
AcDbText
  0
TEXT
  5
1FF5
330
25DA
100
AcDbEntity
  8
0
 62
     3
100
AcDbText
 10
8938.48302416
 20
19144.80791789
 30
0.0
 40
200.0
  1
縦断面図
  7
EXTFONT
 72
     1
 11
9385.14969083
 21
19144.80791789
 31
0.0
100
AcDbText
  0
TEXT
  5
2053
330
25DA
100
AcDbEntity
  8
0
100
AcDbText
 10
5982.85659994
 20
18194.59103982
 30
0.0
 40
80.0
  1
SXF-07418-DT
  7
EXTFONT
100
AcDbText
  0
LINE
  5
21E0
330
25DA
100
AcDbEntity
  8
YKK_F1
 62
     7
100
AcDbLine
 10
27000.0
 20
0.0
 30
0.0
 11
27000.0
 21
19500.0
 31
0.0
  0
TEXT
  5
225D
330
25DA
100
AcDbEntity
  8
0
 62
     3
100
AcDbText
 10
5506.64667889
 20
6936.63245061
 30
0.0
 40
200.0
  1
W=780(w=720)
  7
EXTFONT
 72
     4
 11
6606.64667889
 21
7036.63245061
 31
0.0
100
AcDbText
  0
TEXT
  5
225F
330
25DA
100
AcDbEntity
  8
0
 62
     3
100
AcDbText
 10
3058.41431547
 20
6946.63245061
 30
0.0
 40
180.0
  1
W=640(w=580)
  7
EXTFONT
 72
     4
 11
4048.41431547
 21
7036.63245061
 31
0.0
100
AcDbText
  0
TEXT
  5
2260
330
25DA
100
AcDbEntity
  8
0
 62
     3
100
AcDbText
 10
756.64923197
 20
6956.63245061
 30
0.0
 40
160.0
  1
W=405(w=345)
  7
EXTFONT
 72
     4
 11
1649.9825653
 21
7036.63245061
 31
0.0
100
AcDbText
  0
TEXT
  5
2494
330
25DA
100
AcDbEntity
  8
0
100
AcDbText
 10
500.0
 20
19625.0
 30
0.0
 40
250.0
  1
ＡＰＷ３３＿３６  ＡＰＷ３３０  ＦＩＸ窓　スリムフレーム  テラスタイプ 
  7
EXTFONT
100
AcDbText
1001
YTEXT_INFOMATION
1002
{
1000
ＡＰＷ３３０＿９  ＡＰＷ３３０  ＦＩＸ窓  テラスタイプ  外観姿図・内観姿図\U+3400\U+5C00昀\U+6F00\U+6E00\U+7400\U+7300\U+5C00\U+4500堀\U+5400\U+4600伀一\U+5400\U+2E00\U+7300\U+6800\U+7800
1002
}
1000
BL
1010
-33.33333333
1020
0.0
1030
0.0
1040
250.0
1070
     0
1002
{
1000
TEXTOBJECTS
1000
2494
1002
}
  0
LINE
  5
2798
330
25DA
100
AcDbEntity
  8
YKK_C1
100
AcDbLine
 10
9217.40196602
 20
14265.0
 30
0.0
 11
9217.40196602
 21
14235.0
 31
0.0
  0
LINE
  5
2799
330
25DA
100
AcDbEntity
  8
YKK_C1
100
AcDbLine
 10
9232.40196602
 20
14235.0
 30
0.0
 11
9182.40196602
 21
14235.0
 31
0.0
  0
LINE
  5
279A
330
25DA
100
AcDbEntity
  8
YKK_C1
100
AcDbLine
 10
9190.40196602
 20
14295.0
 30
0.0
 11
9190.40196602
 21
14265.0
 31
0.0
  0
LINE
  5
279B
330
25DA
100
AcDbEntity
  8
YKK_C1
100
AcDbLine
 10
9190.40196602
 20
14265.0
 30
0.0
 11
9217.40196602
 21
14265.0
 31
0.0
  0
LINE
  5
279C
330
25DA
100
AcDbEntity
  8
YKK_C1
100
AcDbLine
 10
9125.40196602
 20
14264.0
 30
0.0
 11
9125.40196602
 21
14275.0
 31
0.0
  0
LINE
  5
279D
330
25DA
100
AcDbEntity
  8
YKK_C1
100
AcDbLine
 10
9125.40196602
 20
14275.0
 30
0.0
 11
9190.40196602
 21
14275.0
 31
0.0
  0
LINE
  5
279E
330
25DA
100
AcDbEntity
  8
YKK_C1
100
AcDbLine
 10
9142.40196602
 20
14235.00000003
 30
0.0
 11
9142.40196602
 21
14275.0
 31
0.0
  0
LINE
  5
279F
330
25DA
100
AcDbEntity
  8
YKK_C1
100
AcDbLine
 10
9125.40196602
 20
14264.0
 30
0.0
 11
9142.40196602
 21
14264.0
 31
0.0
  0
LINE
  5
27A0
330
25DA
100
AcDbEntity
  8
YKK_C1
100
AcDbLine
 10
9142.40196602
 20
14259.0
 30
0.0
 11
9182.40196602
 21
14259.0
 31
0.0
  0
LINE
  5
27A1
330
25DA
100
AcDbEntity
  8
YKK_C1
100
AcDbLine
 10
9182.40196602
 20
14259.0
 30
0.0
 11
9182.40196602
 21
14235.0
 31
0.0
  0
LINE
  5
27A2
330
25DA
100
AcDbEntity
  8
YKK_C1
100
AcDbLine
 10
9217.40196602
 20
12203.99559989
 30
0.0
 11
9217.40196602
 21
12233.99559989
 31
0.0
  0
LINE
  5
27A3
330
25DA
100
AcDbEntity
  8
YKK_C1
100
AcDbLine
 10
9232.40196602
 20
12233.99559989
 30
0.0
 11
9182.40196602
 21
12233.99559989
 31
0.0
  0
LINE
  5
27A4
330
25DA
100
AcDbEntity
  8
YKK_C1
100
AcDbLine
 10
9190.40196602
 20
12173.99559989
 30
0.0
 11
9190.40196602
 21
12203.99559989
 31
0.0
  0
LINE
  5
27A5
330
25DA
100
AcDbEntity
  8
YKK_C1
100
AcDbLine
 10
9190.40196602
 20
12203.99559989
 30
0.0
 11
9217.40196602
 21
12203.99559989
 31
0.0
  0
LINE
  5
27A6
330
25DA
100
AcDbEntity
  8
YKK_C1
100
AcDbLine
 10
9125.40196602
 20
12204.99559989
 30
0.0
 11
9125.40196602
 21
12193.99559989
 31
0.0
  0
LINE
  5
27A7
330
25DA
100
AcDbEntity
  8
YKK_C1
100
AcDbLine
 10
9125.40196602
 20
12193.99559989
 30
0.0
 11
9190.40196602
 21
12193.99559989
 31
0.0
  0
LINE
  5
27A8
330
25DA
100
AcDbEntity
  8
YKK_C1
100
AcDbLine
 10
9142.40196602
 20
12233.99559986
 30
0.0
 11
9142.40196602
 21
12193.99559989
 31
0.0
  0
LINE
  5
27A9
330
25DA
100
AcDbEntity
  8
YKK_C1
100
AcDbLine
 10
9125.40196602
 20
12204.99559989
 30
0.0
 11
9142.40196602
 21
12204.99559989
 31
0.0
  0
LINE
  5
27AA
330
25DA
100
AcDbEntity
  8
YKK_C1
100
AcDbLine
 10
9142.40196602
 20
12209.99559989
 30
0.0
 11
9182.40196602
 21
12209.99559989
 31
0.0
  0
LINE
  5
27AB
330
25DA
100
AcDbEntity
  8
YKK_C1
100
AcDbLine
 10
9182.40196602
 20
12209.99559989
 30
0.0
 11
9182.40196602
 21
12233.99559989
 31
0.0
  0
LINE
  5
27AC
330
25DA
100
AcDbEntity
  8
YKK_B1
100
AcDbLine
 10
9157.40196617
 20
14248.0
 30
0.0
 11
9157.40196617
 21
12220.99560001
 31
0.0
  0
LINE
  5
27AD
330
25DA
100
AcDbEntity
  8
YKK_B1
100
AcDbLine
 10
9179.40196617
 20
12220.99560001
 30
0.0
 11
9179.40196617
 21
14248.0
 31
0.0
  0
LINE
  5
27AE
330
25DA
100
AcDbEntity
  8
YKK_B1
100
AcDbLine
 10
9125.40196602
 20
14254.00000001
 30
0.0
 11
9125.40196602
 21
12214.99559989
 31
0.0
  0
LINE
  5
27AF
330
25DA
100
AcDbEntity
  8
YKK_B1
100
AcDbLine
 10
9232.39925742
 20
14225.0
 30
0.0
 11
9232.39925742
 21
12243.9971637
 31
0.0
  0
CIRCLE
  5
27B0
330
25DA
100
AcDbEntity
  8
YKK_IN
  6
Continuous
100
AcDbCircle
 10
9190.40191825
 20
12194.9956
 30
0.0
 40
25.0
  0
LINE
  5
27B1
330
25DA
100
AcDbEntity
  8
YKK_IN
  6
Continuous
100
AcDbLine
 10
9225.75725731
 20
12159.64026094
 30
0.0
 11
9155.04657919
 21
12230.35093906
 31
0.0
  0
LINE
  5
27B2
330
25DA
100
AcDbEntity
  8
YKK_IN
  6
Continuous
100
AcDbLine
 10
9225.75725731
 20
12230.35093906
 30
0.0
 11
9155.04657919
 21
12159.64026094
 31
0.0
  0
LINE
  5
27B3
330
25DA
100
AcDbEntity
  8
YKK_A1
100
AcDbLine
 10
3619.99761095
 20
14275.00000007
 30
0.0
 11
4279.99761118
 21
14275.00000007
 31
0.0
  0
LINE
  5
27B4
330
25DA
100
AcDbEntity
  8
YKK_A1
100
AcDbLine
 10
3630.99761106
 20
14263.99999996
 30
0.0
 11
4268.99761107
 21
14263.99999996
 31
0.0
  0
LINE
  5
27B5
330
25DA
100
AcDbEntity
  8
YKK_A1
100
AcDbLine
 10
3659.99761104
 20
14235.12637349
 30
0.0
 11
4239.99761109
 21
14235.12637349
 31
0.0
  0
LINE
  5
27B6
330
25DA
100
AcDbEntity
  8
YKK_A1
100
AcDbLine
 10
3659.99761104
 20
12233.99559995
 30
0.0
 11
4239.99761109
 21
12233.99559995
 31
0.0
  0
LINE
  5
27B7
330
25DA
100
AcDbEntity
  8
YKK_A1
100
AcDbLine
 10
3630.99761106
 20
12204.99559995
 30
0.0
 11
4268.99761107
 21
12204.99559995
 31
0.0
  0
LINE
  5
27B8
330
25DA
100
AcDbEntity
  8
YKK_A1
100
AcDbLine
 10
3619.99761095
 20
12193.99559995
 30
0.0
 11
4279.99761118
 21
12193.99559995
 31
0.0
  0
LINE
  5
27B9
330
25DA
100
AcDbEntity
  8
YKK_A1
100
AcDbLine
 10
3619.99761095
 20
14275.00000007
 30
0.0
 11
3619.99761095
 21
12193.99559995
 31
0.0
  0
LINE
  5
27BA
330
25DA
100
AcDbEntity
  8
YKK_A1
100
AcDbLine
 10
3630.99761106
 20
14263.99999996
 30
0.0
 11
3630.99761106
 21
12204.99559995
 31
0.0
  0
LINE
  5
27BB
330
25DA
100
AcDbEntity
  8
YKK_A1
100
AcDbLine
 10
3659.99761104
 20
14235.12637349
 30
0.0
 11
3659.99761104
 21
12233.99559995
 31
0.0
  0
LINE
  5
27BC
330
25DA
100
AcDbEntity
  8
YKK_A1
100
AcDbLine
 10
4279.99761118
 20
14275.00000007
 30
0.0
 11
4279.99761118
 21
12193.99559995
 31
0.0
  0
LINE
  5
27BD
330
25DA
100
AcDbEntity
  8
YKK_A1
100
AcDbLine
 10
4268.99761107
 20
14263.99999996
 30
0.0
 11
4268.99761107
 21
12204.99559995
 31
0.0
  0
LINE
  5
27BE
330
25DA
100
AcDbEntity
  8
YKK_A1
100
AcDbLine
 10
4239.99761109
 20
14235.12637349
 30
0.0
 11
4239.99761109
 21
12233.99559995
 31
0.0
  0
LINE
  5
27BF
330
25DA
100
AcDbEntity
  8
YKK_N1
  6
Continuous
100
AcDbLine
 10
3630.0
 20
11993.99559995
 30
0.0
 11
3716.60254038
 21
12043.99559995
 31
0.0
  0
LINE
  5
27C0
330
25DA
100
AcDbEntity
  8
YKK_N1
  6
Continuous
100
AcDbLine
 10
3630.0
 20
11993.99559995
 30
0.0
 11
3716.60254038
 21
11943.99559995
 31
0.0
  0
LINE
  5
27C1
330
25DA
100
AcDbEntity
  8
YKK_N1
  6
Continuous
100
AcDbLine
 10
3630.0
 20
11993.99559995
 30
0.0
 11
4270.0
 21
11993.99559995
 31
0.0
  0
LINE
  5
27C2
330
25DA
100
AcDbEntity
  8
YKK_N1
  6
Continuous
100
AcDbLine
 10
3630.0
 20
12118.99559995
 30
0.0
 11
3630.0
 21
11993.99559995
 31
0.0
  0
LINE
  5
27C3
330
25DA
100
AcDbEntity
  8
YKK_N1
  6
Continuous
100
AcDbLine
 10
4270.0
 20
12118.99559995
 30
0.0
 11
4270.0
 21
11993.99559995
 31
0.0
  0
LINE
  5
27C4
330
25DA
100
AcDbEntity
  8
YKK_N1
  6
Continuous
100
AcDbLine
 10
4183.39745962
 20
12043.99559995
 30
0.0
 11
4183.39745962
 21
11943.99559995
 31
0.0
  0
LINE
  5
27C5
330
25DA
100
AcDbEntity
  8
YKK_N1
  6
Continuous
100
AcDbLine
 10
4270.0
 20
11993.99559995
 30
0.0
 11
4183.39745962
 21
12043.99559995
 31
0.0
  0
LINE
  5
27C6
330
25DA
100
AcDbEntity
  8
YKK_N1
  6
Continuous
100
AcDbLine
 10
4270.0
 20
11993.99559995
 30
0.0
 11
4183.39745962
 21
11943.99559995
 31
0.0
  0
LINE
  5
27C7
330
25DA
100
AcDbEntity
  8
YKK_N1
  6
Continuous
100
AcDbLine
 10
3716.60254038
 20
11943.99559995
 30
0.0
 11
3716.60254038
 21
12043.99559995
 31
0.0
  0
TEXT
  5
27C8
330
25DA
100
AcDbEntity
  8
YKK_N1
100
AcDbText
 10
3805.0
 20
12005.99559995
 30
0.0
 40
60.0
  1
W=640
100
AcDbText
  0
CIRCLE
  5
27C9
330
25DA
100
AcDbEntity
  8
YKK_IN
  6
Continuous
100
AcDbCircle
 10
3950.0
 20
12194.9956
 30
0.0
 40
25.0
  0
LINE
  5
27CA
330
25DA
100
AcDbEntity
  8
YKK_IN
  6
Continuous
100
AcDbLine
 10
3985.35533906
 20
12159.64026094
 30
0.0
 11
3914.64466094
 21
12230.35093906
 31
0.0
  0
LINE
  5
27CB
330
25DA
100
AcDbEntity
  8
YKK_IN
  6
Continuous
100
AcDbLine
 10
3985.35533906
 20
12230.35093906
 30
0.0
 11
3914.64466094
 21
12159.64026094
 31
0.0
  0
TEXT
  5
27CC
330
25DA
100
AcDbEntity
  8
YKK_A1
  6
Continuous
100
AcDbText
 10
4144.40048462
 20
12278.44508441
 30
0.0
 40
60.0
  1
F
100
AcDbText
  0
TEXT
  5
27CD
330
25DA
100
AcDbEntity
  8
YKK_N1
100
AcDbText
 10
4467.99761118
 20
13094.83680151
 30
0.0
 40
60.0
  1
H=2030
 50
90.0
100
AcDbText
  0
LINE
  5
27CE
330
25DA
100
AcDbEntity
  8
YKK_N1
  6
Continuous
100
AcDbLine
 10
4479.99761118
 20
14265.0
 30
0.0
 11
4479.99761118
 21
12235.0
 31
0.0
  0
LINE
  5
27CF
330
25DA
100
AcDbEntity
  8
YKK_N1
  6
Continuous
100
AcDbLine
 10
4479.99761118
 20
12235.0
 30
0.0
 11
4354.99761118
 21
12235.0
 31
0.0
  0
LINE
  5
27D0
330
25DA
100
AcDbEntity
  8
YKK_N1
  6
Continuous
100
AcDbLine
 10
4429.99761118
 20
12321.60254038
 30
0.0
 11
4529.99761118
 21
12321.60254038
 31
0.0
  0
LINE
  5
27D1
330
25DA
100
AcDbEntity
  8
YKK_N1
  6
Continuous
100
AcDbLine
 10
4529.99761118
 20
12321.60254038
 30
0.0
 11
4479.99761118
 21
12235.0
 31
0.0
  0
LINE
  5
27D2
330
25DA
100
AcDbEntity
  8
YKK_N1
  6
Continuous
100
AcDbLine
 10
4429.99761118
 20
12321.60254038
 30
0.0
 11
4479.99761118
 21
12235.0
 31
0.0
  0
LINE
  5
27D3
330
25DA
100
AcDbEntity
  8
YKK_N1
  6
Continuous
100
AcDbLine
 10
4479.99761118
 20
14265.0
 30
0.0
 11
4354.99761118
 21
14265.0
 31
0.0
  0
LINE
  5
27D4
330
25DA
100
AcDbEntity
  8
YKK_N1
  6
Continuous
100
AcDbLine
 10
4429.99761118
 20
14178.39745962
 30
0.0
 11
4479.99761118
 21
14265.0
 31
0.0
  0
LINE
  5
27D5
330
25DA
100
AcDbEntity
  8
YKK_N1
  6
Continuous
100
AcDbLine
 10
4529.99761118
 20
14178.39745962
 30
0.0
 11
4479.99761118
 21
14265.0
 31
0.0
  0
LINE
  5
27D6
330
25DA
100
AcDbEntity
  8
YKK_N1
  6
Continuous
100
AcDbLine
 10
4529.99761118
 20
14178.39745962
 30
0.0
 11
4429.99761118
 21
14178.39745962
 31
0.0
  0
LINE
  5
27D7
330
25DA
100
AcDbEntity
  8
YKK_B1
100
AcDbLine
 10
3599.99761106
 20
5463.50224568
 30
0.0
 11
3629.99761106
 21
5463.50224568
 31
0.0
  0
LINE
  5
27D8
330
25DA
100
AcDbEntity
  8
YKK_B1
100
AcDbLine
 10
3629.99761106
 20
5463.50224568
 30
0.0
 11
3629.99761106
 21
5436.50224568
 31
0.0
  0
LINE
  5
27D9
330
25DA
100
AcDbEntity
  8
YKK_B1
100
AcDbLine
 10
3629.99761106
 20
5436.50224568
 30
0.0
 11
3659.99761106
 21
5436.50224568
 31
0.0
  0
LINE
  5
27DA
330
25DA
100
AcDbEntity
  8
YKK_B1
100
AcDbLine
 10
3659.99761106
 20
5421.50224568
 30
0.0
 11
3659.99761106
 21
5471.50224568
 31
0.0
  0
LINE
  5
27DB
330
25DA
100
AcDbEntity
  8
YKK_B1
100
AcDbLine
 10
3659.99761106
 20
5471.50224568
 30
0.0
 11
3635.99761106
 21
5471.50224568
 31
0.0
  0
LINE
  5
27DC
330
25DA
100
AcDbEntity
  8
YKK_B1
100
AcDbLine
 10
3635.99761106
 20
5471.50224568
 30
0.0
 11
3635.99761106
 21
5511.50224568
 31
0.0
  0
LINE
  5
27DD
330
25DA
100
AcDbEntity
  8
YKK_B1
100
AcDbLine
 10
3659.99761103
 20
5511.50224568
 30
0.0
 11
3619.99761106
 21
5511.50224568
 31
0.0
  0
LINE
  5
27DE
330
25DA
100
AcDbEntity
  8
YKK_B1
100
AcDbLine
 10
3630.99761106
 20
5511.50224568
 30
0.0
 11
3630.99761106
 21
5528.50224568
 31
0.0
  0
LINE
  5
27DF
330
25DA
100
AcDbEntity
  8
YKK_B1
100
AcDbLine
 10
3630.99761106
 20
5528.50224568
 30
0.0
 11
3619.99761106
 21
5528.50224568
 31
0.0
  0
LINE
  5
27E0
330
25DA
100
AcDbEntity
  8
YKK_B1
100
AcDbLine
 10
3619.99761106
 20
5528.50224568
 30
0.0
 11
3619.99761106
 21
5463.50224568
 31
0.0
  0
LINE
  5
27E1
330
25DA
100
AcDbEntity
  8
YKK_B1
100
AcDbLine
 10
4299.99761107
 20
5463.50224568
 30
0.0
 11
4269.99761107
 21
5463.50224568
 31
0.0
  0
LINE
  5
27E2
330
25DA
100
AcDbEntity
  8
YKK_B1
100
AcDbLine
 10
4269.99761107
 20
5463.50224568
 30
0.0
 11
4269.99761107
 21
5436.50224568
 31
0.0
  0
LINE
  5
27E3
330
25DA
100
AcDbEntity
  8
YKK_B1
100
AcDbLine
 10
4269.99761107
 20
5436.50224568
 30
0.0
 11
4239.99761107
 21
5436.50224568
 31
0.0
  0
LINE
  5
27E4
330
25DA
100
AcDbEntity
  8
YKK_B1
100
AcDbLine
 10
4239.99761107
 20
5421.50224568
 30
0.0
 11
4239.99761107
 21
5471.50224568
 31
0.0
  0
LINE
  5
27E5
330
25DA
100
AcDbEntity
  8
YKK_B1
100
AcDbLine
 10
4239.99761107
 20
5471.50224568
 30
0.0
 11
4263.99761107
 21
5471.50224568
 31
0.0
  0
LINE
  5
27E6
330
25DA
100
AcDbEntity
  8
YKK_B1
100
AcDbLine
 10
4263.99761107
 20
5471.50224568
 30
0.0
 11
4263.99761107
 21
5511.50224568
 31
0.0
  0
LINE
  5
27E7
330
25DA
100
AcDbEntity
  8
YKK_B1
100
AcDbLine
 10
4239.9976111
 20
5511.50224568
 30
0.0
 11
4279.99761107
 21
5511.50224568
 31
0.0
  0
LINE
  5
27E8
330
25DA
100
AcDbEntity
  8
YKK_B1
100
AcDbLine
 10
4268.99761107
 20
5511.50224568
 30
0.0
 11
4268.99761107
 21
5528.50224568
 31
0.0
  0
LINE
  5
27E9
330
25DA
100
AcDbEntity
  8
YKK_B1
100
AcDbLine
 10
4268.99761107
 20
5528.50224568
 30
0.0
 11
4279.99761107
 21
5528.50224568
 31
0.0
  0
LINE
  5
27EA
330
25DA
100
AcDbEntity
  8
YKK_B1
100
AcDbLine
 10
4279.99761107
 20
5528.50224568
 30
0.0
 11
4279.99761107
 21
5463.50224568
 31
0.0
  0
LINE
  5
27EB
330
25DA
100
AcDbEntity
  8
YKK_B1
100
AcDbLine
 10
3646.99761107
 20
5496.50224552
 30
0.0
 11
4252.99761106
 21
5496.50224552
 31
0.0
  0
LINE
  5
27EC
330
25DA
100
AcDbEntity
  8
YKK_B1
100
AcDbLine
 10
4252.99761106
 20
5474.50224552
 30
0.0
 11
3646.99761107
 21
5474.50224552
 31
0.0
  0
LINE
  5
27ED
330
25DA
100
AcDbEntity
  8
YKK_B1
100
AcDbLine
 10
3640.99761106
 20
5528.50224568
 30
0.0
 11
4258.99761107
 21
5528.50224568
 31
0.0
  0
LINE
  5
27EE
330
25DA
100
AcDbEntity
  8
YKK_B1
100
AcDbLine
 10
3669.99761106
 20
5421.50224568
 30
0.0
 11
4229.99761107
 21
5421.50495428
 31
0.0
  0
TEXT
  5
27EF
330
25DA
100
AcDbEntity
  8
YKK_N1
  6
Continuous
100
AcDbText
 10
4562.99761107
 20
5315.50129557
 30
0.0
 40
60.0
  1
15
 50
90.0
100
AcDbText
  0
TEXT
  5
27F0
330
25DA
100
AcDbEntity
  8
YKK_N1
  6
Continuous
100
AcDbText
 10
3681.5
 20
5158.50224568
 30
0.0
 40
60.0
  1
30
100
AcDbText
  0
LINE
  5
27F1
330
25DA
100
AcDbEntity
  8
YKK_N1
  6
Continuous
100
AcDbLine
 10
3630.0
 20
4946.50224568
 30
0.0
 11
3716.60254038
 21
4896.50224568
 31
0.0
  0
LINE
  5
27F2
330
25DA
100
AcDbEntity
  8
YKK_N1
  6
Continuous
100
AcDbLine
 10
3630.0
 20
4946.50224568
 30
0.0
 11
4270.0
 21
4946.50224568
 31
0.0
  0
LINE
  5
27F3
330
25DA
100
AcDbEntity
  8
YKK_N1
  6
Continuous
100
AcDbLine
 10
3630.0
 20
4946.50224568
 30
0.0
 11
3716.60254038
 21
4996.50224568
 31
0.0
  0
TEXT
  5
27F4
330
25DA
100
AcDbEntity
  8
YKK_N1
  6
Continuous
100
AcDbText
 10
3475.5
 20
4958.50224568
 30
0.0
 40
60.0
  1
30
100
AcDbText
  0
LINE
  5
27F5
330
25DA
100
AcDbEntity
  8
YKK_N1
  6
Continuous
100
AcDbLine
 10
3600.0
 20
5271.50224568
 30
0.0
 11
3600.0
 21
4946.50224568
 31
0.0
  0
LINE
  5
27F6
330
25DA
100
AcDbEntity
  8
YKK_N1
  6
Continuous
100
AcDbLine
 10
3630.0
 20
5271.50224568
 30
0.0
 11
3630.0
 21
4946.50224568
 31
0.0
  0
CIRCLE
  5
27F7
330
25DA
100
AcDbEntity
  8
YKK_N1
  6
Continuous
100
AcDbCircle
 10
3600.0
 20
4946.50224568
 30
0.0
 40
5.0
  0
LINE
  5
27F8
330
25DA
100
AcDbEntity
  8
YKK_N1
  6
Continuous
100
AcDbLine
 10
3600.0
 20
4946.50224568
 30
0.0
 11
3630.0
 21
4946.50224568
 31
0.0
  0
LINE
  5
27F9
330
25DA
100
AcDbEntity
  8
YKK_N1
  6
Continuous
100
AcDbLine
 10
3630.0
 20
5146.50224568
 30
0.0
 11
3660.0
 21
5146.50224568
 31
0.0
  0
CIRCLE
  5
27FA
330
25DA
100
AcDbEntity
  8
YKK_N1
  6
Continuous
100
AcDbCircle
 10
3630.0
 20
5146.50224568
 30
0.0
 40
5.0
  0
CIRCLE
  5
27FB
330
25DA
100
AcDbEntity
  8
YKK_N1
  6
Continuous
100
AcDbCircle
 10
3660.0
 20
5146.50224568
 30
0.0
 40
5.0
  0
LINE
  5
27FC
330
25DA
100
AcDbEntity
  8
YKK_N1
  6
Continuous
100
AcDbLine
 10
3660.0
 20
5271.50224568
 30
0.0
 11
3660.0
 21
5146.50224568
 31
0.0
  0
TEXT
  5
27FD
330
25DA
100
AcDbEntity
  8
YKK_N1
  6
Continuous
100
AcDbText
 10
3805.0
 20
4958.50224568
 30
0.0
 40
60.0
  1
W=640
100
AcDbText
  0
LINE
  5
27FE
330
25DA
100
AcDbEntity
  8
YKK_N1
  6
Continuous
100
AcDbLine
 10
3716.60254038
 20
4896.50224568
 30
0.0
 11
3716.60254038
 21
4996.50224568
 31
0.0
  0
LINE
  5
27FF
330
25DA
100
AcDbEntity
  8
YKK_N1
  6
Continuous
100
AcDbLine
 10
4183.39745962
 20
4996.50224568
 30
0.0
 11
4183.39745962
 21
4896.50224568
 31
0.0
  0
LINE
  5
2800
330
25DA
100
AcDbEntity
  8
YKK_N1
  6
Continuous
100
AcDbLine
 10
4270.0
 20
4946.50224568
 30
0.0
 11
4183.39745962
 21
4996.50224568
 31
0.0
  0
TEXT
  5
2801
330
25DA
100
AcDbEntity
  8
YKK_N1
  6
Continuous
100
AcDbText
 10
4316.5
 20
4958.50224568
 30
0.0
 40
60.0
  1
30
100
AcDbText
  0
LINE
  5
2802
330
25DA
100
AcDbEntity
  8
YKK_N1
  6
Continuous
100
AcDbLine
 10
4270.0
 20
5271.50224568
 30
0.0
 11
4270.0
 21
4946.50224568
 31
0.0
  0
LINE
  5
2803
330
25DA
100
AcDbEntity
  8
YKK_N1
  6
Continuous
100
AcDbLine
 10
4300.0
 20
5271.50224568
 30
0.0
 11
4300.0
 21
4946.50224568
 31
0.0
  0
LINE
  5
2804
330
25DA
100
AcDbEntity
  8
YKK_N1
  6
Continuous
100
AcDbLine
 10
4270.0
 20
4946.50224568
 30
0.0
 11
4183.39745962
 21
4896.50224568
 31
0.0
  0
CIRCLE
  5
2805
330
25DA
100
AcDbEntity
  8
YKK_N1
  6
Continuous
100
AcDbCircle
 10
4300.0
 20
4946.50224568
 30
0.0
 40
5.0
  0
LINE
  5
2806
330
25DA
100
AcDbEntity
  8
YKK_N1
  6
Continuous
100
AcDbLine
 10
4270.0
 20
4946.50224568
 30
0.0
 11
4300.0
 21
4946.50224568
 31
0.0
  0
LINE
  5
2807
330
25DA
100
AcDbEntity
  8
YKK_N1
  6
Continuous
100
AcDbLine
 10
4240.0
 20
5146.50224568
 30
0.0
 11
4270.0
 21
5146.50224568
 31
0.0
  0
TEXT
  5
2808
330
25DA
100
AcDbEntity
  8
YKK_N1
  6
Continuous
100
AcDbText
 10
4130.5
 20
5158.50224568
 30
0.0
 40
60.0
  1
30
100
AcDbText
  0
CIRCLE
  5
2809
330
25DA
100
AcDbEntity
  8
YKK_N1
  6
Continuous
100
AcDbCircle
 10
4240.0
 20
5146.50224568
 30
0.0
 40
5.0
  0
LINE
  5
280A
330
25DA
100
AcDbEntity
  8
YKK_N1
  6
Continuous
100
AcDbLine
 10
4240.0
 20
5271.50224568
 30
0.0
 11
4240.0
 21
5146.50224568
 31
0.0
  0
CIRCLE
  5
280B
330
25DA
100
AcDbEntity
  8
YKK_N1
  6
Continuous
100
AcDbCircle
 10
4270.0
 20
5146.50224568
 30
0.0
 40
5.0
  0
CIRCLE
  5
280C
330
25DA
100
AcDbEntity
  8
YKK_N1
  6
Continuous
100
AcDbCircle
 10
4574.99761107
 20
5528.50129557
 30
0.0
 40
5.0
  0
TEXT
  5
280D
330
25DA
100
AcDbEntity
  8
YKK_N1
  6
Continuous
100
AcDbText
 10
4562.99761107
 20
5543.84006148
 30
0.0
 40
60.0
  1
65
 50
90.0
100
AcDbText
  0
CIRCLE
  5
280E
330
25DA
100
AcDbEntity
  8
YKK_N1
  6
Continuous
100
AcDbCircle
 10
4574.99761107
 20
5421.50129557
 30
0.0
 40
5.0
  0
CIRCLE
  5
280F
330
25DA
100
AcDbEntity
  8
YKK_N1
  6
Continuous
100
AcDbCircle
 10
4574.99761107
 20
5463.50129557
 30
0.0
 40
5.0
  0
CIRCLE
  5
2810
330
25DA
100
AcDbEntity
  8
YKK_N1
  6
Continuous
100
AcDbCircle
 10
4574.99761107
 20
5436.50129557
 30
0.0
 40
5.0
  0
LINE
  5
2811
330
25DA
100
AcDbEntity
  8
YKK_N1
  6
Continuous
100
AcDbLine
 10
4574.99761107
 20
5436.50129557
 30
0.0
 11
4574.99761107
 21
5421.50129557
 31
0.0
  0
LINE
  5
2812
330
25DA
100
AcDbEntity
  8
YKK_N1
  6
Continuous
100
AcDbLine
 10
4574.99761107
 20
5463.50129557
 30
0.0
 11
4574.99761107
 21
5436.50129557
 31
0.0
  0
LINE
  5
2813
330
25DA
100
AcDbEntity
  8
YKK_N1
  6
Continuous
100
AcDbLine
 10
4574.99761107
 20
5528.50129557
 30
0.0
 11
4574.99761107
 21
5463.50129557
 31
0.0
  0
LINE
  5
2814
330
25DA
100
AcDbEntity
  8
YKK_N1
  6
Continuous
100
AcDbLine
 10
4449.99761107
 20
5528.50129557
 30
0.0
 11
4574.99761107
 21
5528.50129557
 31
0.0
  0
LINE
  5
2815
330
25DA
100
AcDbEntity
  8
YKK_N1
  6
Continuous
100
AcDbLine
 10
4449.99761107
 20
5436.50129557
 30
0.0
 11
4574.99761107
 21
5436.50129557
 31
0.0
  0
LINE
  5
2816
330
25DA
100
AcDbEntity
  8
YKK_N1
  6
Continuous
100
AcDbLine
 10
4449.99761107
 20
5463.50129557
 30
0.0
 11
4574.99761107
 21
5463.50129557
 31
0.0
  0
LINE
  5
2817
330
25DA
100
AcDbEntity
  8
YKK_N1
  6
Continuous
100
AcDbLine
 10
4449.99761107
 20
5421.50129557
 30
0.0
 11
4574.99761107
 21
5421.50129557
 31
0.0
  0
TEXT
  5
2818
330
25DA
100
AcDbEntity
  8
YKK_N1
  6
Continuous
100
AcDbText
 10
4646.99761107
 20
5392.27378639
 30
0.0
 40
60.0
  1
27
 50
90.0
100
AcDbText
  0
TEXT
  5
2819
330
25DA
100
AcDbEntity
  8
YKK_N1
  6
Continuous
100
AcDbText
 10
9695.40196602
 20
13094.83680151
 30
0.0
 40
60.0
  1
H=2030
 50
90.0
100
AcDbText
  0
LINE
  5
281A
330
25DA
100
AcDbEntity
  8
YKK_N1
  6
Continuous
100
AcDbLine
 10
9707.40196602
 20
14265.0
 30
0.0
 11
9707.40196602
 21
12235.0
 31
0.0
  0
LINE
  5
281B
330
25DA
100
AcDbEntity
  8
YKK_N1
  6
Continuous
100
AcDbLine
 10
9382.40196602
 20
12235.0
 30
0.0
 11
9707.40196602
 21
12235.0
 31
0.0
  0
LINE
  5
281C
330
25DA
100
AcDbEntity
  8
YKK_N1
  6
Continuous
100
AcDbLine
 10
9382.40196602
 20
12195.0
 30
0.0
 11
9707.40196602
 21
12195.0
 31
0.0
  0
TEXT
  5
281D
330
25DA
100
AcDbEntity
  8
YKK_N1
  6
Continuous
100
AcDbText
 10
9157.29052041
 20
11829.04208816
 30
0.0
 40
60.0
  1
27
100
AcDbText
  0
LINE
  5
281E
330
25DA
100
AcDbEntity
  8
YKK_N1
  6
Continuous
100
AcDbLine
 10
9125.40196616
 20
11898.99559989
 30
0.0
 11
9190.40196616
 21
11898.99559989
 31
0.0
  0
LINE
  5
281F
330
25DA
100
AcDbEntity
  8
YKK_N1
  6
Continuous
100
AcDbLine
 10
9125.40196616
 20
12023.99559989
 30
0.0
 11
9125.40196616
 21
11898.99559989
 31
0.0
  0
CIRCLE
  5
2820
330
25DA
100
AcDbEntity
  8
YKK_N1
  6
Continuous
100
AcDbCircle
 10
9125.40196616
 20
11898.99559989
 30
0.0
 40
5.0
  0
LINE
  5
2821
330
25DA
100
AcDbEntity
  8
YKK_N1
100
AcDbLine
 10
9217.40196616
 20
11898.99559989
 30
0.0
 11
9232.40196616
 21
11898.99559989
 31
0.0
  0
CIRCLE
  5
2822
330
25DA
100
AcDbEntity
  8
YKK_N1
  6
Continuous
100
AcDbCircle
 10
9217.40196616
 20
11898.99559989
 30
0.0
 40
5.0
  0
LINE
  5
2823
330
25DA
100
AcDbEntity
  8
YKK_N1
  6
Continuous
100
AcDbLine
 10
9190.40196616
 20
11898.99559989
 30
0.0
 11
9217.40196616
 21
11898.99559989
 31
0.0
  0
CIRCLE
  5
2824
330
25DA
100
AcDbEntity
  8
YKK_N1
  6
Continuous
100
AcDbCircle
 10
9190.40196616
 20
11898.99559989
 30
0.0
 40
5.0
  0
LINE
  5
2825
330
25DA
100
AcDbEntity
  8
YKK_N1
  6
Continuous
100
AcDbLine
 10
9190.40196616
 20
12023.99559989
 30
0.0
 11
9190.40196616
 21
11898.99559989
 31
0.0
  0
LINE
  5
2826
330
25DA
100
AcDbEntity
  8
YKK_N1
  6
Continuous
100
AcDbLine
 10
9217.40196616
 20
12023.99559989
 30
0.0
 11
9217.40196616
 21
11898.99559989
 31
0.0
  0
TEXT
  5
2827
330
25DA
100
AcDbEntity
  8
YKK_N1
  6
Continuous
100
AcDbText
 10
9259.107635
 20
11910.99559989
 30
0.0
 40
60.0
  1
15
100
AcDbText
  0
CIRCLE
  5
2828
330
25DA
100
AcDbEntity
  8
YKK_N1
  6
Continuous
100
AcDbCircle
 10
9232.40196616
 20
11898.99559989
 30
0.0
 40
5.0
  0
LINE
  5
2829
330
25DA
100
AcDbEntity
  8
YKK_N1
  6
Continuous
100
AcDbLine
 10
9232.40196616
 20
12023.99559989
 30
0.0
 11
9232.40196616
 21
11898.99559989
 31
0.0
  0
TEXT
  5
282A
330
25DA
100
AcDbEntity
  8
YKK_N1
  6
Continuous
100
AcDbText
 10
9015.40890851
 20
11910.99559989
 30
0.0
 40
60.0
  1
65
100
AcDbText
  0
TEXT
  5
282B
330
25DA
100
AcDbEntity
  8
YKK_N1
  6
Continuous
100
AcDbText
 10
9790.70860987
 20
12171.28595589
 30
0.0
 40
60.0
  1
40
 50
90.0
100
AcDbText
  0
CIRCLE
  5
282C
330
25DA
100
AcDbEntity
  8
YKK_N1
  6
Continuous
100
AcDbCircle
 10
9707.40196602
 20
12195.0
 30
0.0
 40
5.0
  0
TEXT
  5
282D
330
25DA
100
AcDbEntity
  8
YKK_N1
  6
Continuous
100
AcDbText
 10
9695.40196602
 20
12072.0
 30
0.0
 40
60.0
  1
21
 50
90.0
100
AcDbText
  0
LINE
  5
282E
330
25DA
100
AcDbEntity
  8
YKK_N1
  6
Continuous
100
AcDbLine
 10
9707.40196602
 20
12235.0
 30
0.0
 11
9707.40196602
 21
12195.0
 31
0.0
  0
LINE
  5
282F
330
25DA
100
AcDbEntity
  8
YKK_N1
  6
Continuous
100
AcDbLine
 10
9657.40196602
 20
12321.60254038
 30
0.0
 11
9707.40196602
 21
12235.0
 31
0.0
  0
LINE
  5
2830
330
25DA
100
AcDbEntity
  8
YKK_N1
  6
Continuous
100
AcDbLine
 10
9757.40196602
 20
12321.60254038
 30
0.0
 11
9657.40196602
 21
12321.60254038
 31
0.0
  0
LINE
  5
2831
330
25DA
100
AcDbEntity
  8
YKK_N1
  6
Continuous
100
AcDbLine
 10
9757.40196602
 20
12321.60254038
 30
0.0
 11
9707.40196602
 21
12235.0
 31
0.0
  0
LINE
  5
2832
330
25DA
100
AcDbEntity
  8
YKK_N1
  6
Continuous
100
AcDbLine
 10
9382.40196602
 20
14295.0
 30
0.0
 11
9707.40196602
 21
14295.0
 31
0.0
  0
LINE
  5
2833
330
25DA
100
AcDbEntity
  8
YKK_N1
  6
Continuous
100
AcDbLine
 10
9382.40196602
 20
14265.0
 30
0.0
 11
9707.40196602
 21
14265.0
 31
0.0
  0
LINE
  5
2834
330
25DA
100
AcDbEntity
  8
YKK_N1
  6
Continuous
100
AcDbLine
 10
9382.40196602
 20
14235.0
 30
0.0
 11
9507.40196602
 21
14235.0
 31
0.0
  0
CIRCLE
  5
2835
330
25DA
100
AcDbEntity
  8
YKK_N1
  6
Continuous
100
AcDbCircle
 10
9707.40196602
 20
14295.0
 30
0.0
 40
5.0
  0
TEXT
  5
2836
330
25DA
100
AcDbEntity
  8
YKK_N1
  6
Continuous
100
AcDbText
 10
9495.40196602
 20
14121.0
 30
0.0
 40
60.0
  1
30
 50
90.0
100
AcDbText
  0
LINE
  5
2837
330
25DA
100
AcDbEntity
  8
YKK_N1
  6
Continuous
100
AcDbLine
 10
9507.40196602
 20
14265.0
 30
0.0
 11
9507.40196602
 21
14235.0
 31
0.0
  0
CIRCLE
  5
2838
330
25DA
100
AcDbEntity
  8
YKK_N1
  6
Continuous
100
AcDbCircle
 10
9507.40196602
 20
14235.0
 30
0.0
 40
5.0
  0
CIRCLE
  5
2839
330
25DA
100
AcDbEntity
  8
YKK_N1
  6
Continuous
100
AcDbCircle
 10
9507.40196602
 20
14265.000065
 30
0.0
 40
5.0
  0
LINE
  5
283A
330
25DA
100
AcDbEntity
  8
YKK_N1
  6
Continuous
100
AcDbLine
 10
9707.40196602
 20
14295.0
 30
0.0
 11
9707.40196602
 21
14265.0
 31
0.0
  0
LINE
  5
283B
330
25DA
100
AcDbEntity
  8
YKK_N1
  6
Continuous
100
AcDbLine
 10
9657.40196602
 20
14178.39745962
 30
0.0
 11
9707.40196602
 21
14265.0
 31
0.0
  0
LINE
  5
283C
330
25DA
100
AcDbEntity
  8
YKK_N1
  6
Continuous
100
AcDbLine
 10
9657.40196602
 20
14178.39745962
 30
0.0
 11
9757.40196602
 21
14178.39745962
 31
0.0
  0
LINE
  5
283D
330
25DA
100
AcDbEntity
  8
YKK_N1
  6
Continuous
100
AcDbLine
 10
9757.40196602
 20
14178.39745962
 30
0.0
 11
9707.40196602
 21
14265.0
 31
0.0
  0
TEXT
  5
283E
330
25DA
100
AcDbEntity
  8
YKK_N1
  6
Continuous
100
AcDbText
 10
9695.40196602
 20
14309.0
 30
0.0
 40
60.0
  1
30
 50
90.0
100
AcDbText
  0
LINE
  5
283F
330
25DA
100
AcDbEntity
  8
YKK_N1
  6
Continuous
100
AcDbLine
 10
9382.40196602
 20
12174.0
 30
0.0
 11
9707.40196602
 21
12174.0
 31
0.0
  0
CIRCLE
  5
2840
330
25DA
100
AcDbEntity
  8
YKK_N1
  6
Continuous
100
AcDbCircle
 10
9707.40196602
 20
12174.0
 30
0.0
 40
5.0
  0
LINE
  5
2841
330
25DA
100
AcDbEntity
  8
YKK_N1
100
AcDbLine
 10
9707.40196602
 20
12195.0
 30
0.0
 11
9707.40196602
 21
12174.0
 31
0.0
  0
TEXT
  5
2891
330
25DA
100
AcDbEntity
  8
0
 62
     3
100
AcDbText
 10
8239.95356542
 20
8237.7957381
 30
0.0
 40
170.0
  1
H=2230(h=2200)
 50
90.0
  7
EXTFONT
 72
     4
 11
8154.95356542
 21
9300.2957381
 31
0.0
100
AcDbText
  0
TEXT
  5
2892
330
25DA
100
AcDbEntity
  8
0
 62
     3
100
AcDbText
 10
8239.95356542
 20
16094.46240477
 30
0.0
 40
170.0
  1
H=1830(h=1800)
 50
90.0
  7
EXTFONT
 72
     4
 11
8154.95356542
 21
17100.2957381
 31
0.0
100
AcDbText
  0
TEXT
  5
2893
330
25DA
100
AcDbEntity
  8
0
 62
     3
100
AcDbText
 10
8239.95356542
 20
12216.12907143
 30
0.0
 40
170.0
  1
H=2030(h=2000)
 50
90.0
  7
EXTFONT
 72
     4
 11
8154.95356542
 21
13250.2957381
 31
0.0
100
AcDbText
  0
LINE
  5
28EA
330
25DA
100
AcDbEntity
  8
YKK_A1
100
AcDbLine
 10
1337.49742032
 20
14275.00000007
 30
0.0
 11
1762.49742055
 21
14275.00000007
 31
0.0
  0
LINE
  5
28EB
330
25DA
100
AcDbEntity
  8
YKK_A1
100
AcDbLine
 10
1348.49742043
 20
14263.99999996
 30
0.0
 11
1751.49742044
 21
14263.99999996
 31
0.0
  0
LINE
  5
28EC
330
25DA
100
AcDbEntity
  8
YKK_A1
100
AcDbLine
 10
1377.49742041
 20
14235.12637349
 30
0.0
 11
1722.49742046
 21
14235.12637349
 31
0.0
  0
LINE
  5
28ED
330
25DA
100
AcDbEntity
  8
YKK_A1
100
AcDbLine
 10
1377.49742041
 20
12233.99559995
 30
0.0
 11
1722.49742046
 21
12233.99559995
 31
0.0
  0
LINE
  5
28EE
330
25DA
100
AcDbEntity
  8
YKK_A1
100
AcDbLine
 10
1348.49742043
 20
12204.99559995
 30
0.0
 11
1751.49742044
 21
12204.99559995
 31
0.0
  0
LINE
  5
28EF
330
25DA
100
AcDbEntity
  8
YKK_A1
100
AcDbLine
 10
1337.49742032
 20
12193.99559995
 30
0.0
 11
1762.49742055
 21
12193.99559995
 31
0.0
  0
LINE
  5
28F0
330
25DA
100
AcDbEntity
  8
YKK_A1
100
AcDbLine
 10
1337.49742032
 20
14275.00000007
 30
0.0
 11
1337.49742032
 21
12193.99559995
 31
0.0
  0
LINE
  5
28F1
330
25DA
100
AcDbEntity
  8
YKK_A1
100
AcDbLine
 10
1348.49742043
 20
14263.99999996
 30
0.0
 11
1348.49742043
 21
12204.99559995
 31
0.0
  0
LINE
  5
28F2
330
25DA
100
AcDbEntity
  8
YKK_A1
100
AcDbLine
 10
1377.49742041
 20
14235.12637349
 30
0.0
 11
1377.49742041
 21
12233.99559995
 31
0.0
  0
LINE
  5
28F3
330
25DA
100
AcDbEntity
  8
YKK_A1
100
AcDbLine
 10
1762.49742055
 20
14275.00000007
 30
0.0
 11
1762.49742055
 21
12193.99559995
 31
0.0
  0
LINE
  5
28F4
330
25DA
100
AcDbEntity
  8
YKK_A1
100
AcDbLine
 10
1751.49742044
 20
14263.99999996
 30
0.0
 11
1751.49742044
 21
12204.99559995
 31
0.0
  0
LINE
  5
28F5
330
25DA
100
AcDbEntity
  8
YKK_A1
100
AcDbLine
 10
1722.49742046
 20
14235.12637349
 30
0.0
 11
1722.49742046
 21
12233.99559995
 31
0.0
  0
LINE
  5
28F6
330
25DA
100
AcDbEntity
  8
YKK_N1
  6
Continuous
100
AcDbLine
 10
1347.49980937
 20
11993.99559995
 30
0.0
 11
1434.10234975
 21
12043.99559995
 31
0.0
  0
LINE
  5
28F7
330
25DA
100
AcDbEntity
  8
YKK_N1
  6
Continuous
100
AcDbLine
 10
1347.49980937
 20
11993.99559995
 30
0.0
 11
1434.10234975
 21
11943.99559995
 31
0.0
  0
LINE
  5
28F8
330
25DA
100
AcDbEntity
  8
YKK_N1
  6
Continuous
100
AcDbLine
 10
1347.49980937
 20
11993.99559995
 30
0.0
 11
1752.49980937
 21
11993.99559995
 31
0.0
  0
LINE
  5
28F9
330
25DA
100
AcDbEntity
  8
YKK_N1
  6
Continuous
100
AcDbLine
 10
1347.49980937
 20
12118.99559995
 30
0.0
 11
1347.49980937
 21
11993.99559995
 31
0.0
  0
LINE
  5
28FA
330
25DA
100
AcDbEntity
  8
YKK_N1
  6
Continuous
100
AcDbLine
 10
1752.49980937
 20
12118.99559995
 30
0.0
 11
1752.49980937
 21
11993.99559995
 31
0.0
  0
LINE
  5
28FB
330
25DA
100
AcDbEntity
  8
YKK_N1
  6
Continuous
100
AcDbLine
 10
1665.89726899
 20
12043.99559995
 30
0.0
 11
1665.89726899
 21
11943.99559995
 31
0.0
  0
LINE
  5
28FC
330
25DA
100
AcDbEntity
  8
YKK_N1
  6
Continuous
100
AcDbLine
 10
1752.49980937
 20
11993.99559995
 30
0.0
 11
1665.89726899
 21
12043.99559995
 31
0.0
  0
LINE
  5
28FD
330
25DA
100
AcDbEntity
  8
YKK_N1
  6
Continuous
100
AcDbLine
 10
1752.49980937
 20
11993.99559995
 30
0.0
 11
1665.89726899
 21
11943.99559995
 31
0.0
  0
LINE
  5
28FE
330
25DA
100
AcDbEntity
  8
YKK_N1
  6
Continuous
100
AcDbLine
 10
1434.10234975
 20
11943.99559995
 30
0.0
 11
1434.10234975
 21
12043.99559995
 31
0.0
  0
TEXT
  5
28FF
330
25DA
100
AcDbEntity
  8
YKK_N1
100
AcDbText
 10
1404.99980937
 20
11855.99559995
 30
0.0
 40
60.0
  1
W=405
100
AcDbText
  0
CIRCLE
  5
2900
330
25DA
100
AcDbEntity
  8
YKK_IN
  6
Continuous
100
AcDbCircle
 10
1549.99980937
 20
12194.9956
 30
0.0
 40
25.0
  0
LINE
  5
2901
330
25DA
100
AcDbEntity
  8
YKK_IN
  6
Continuous
100
AcDbLine
 10
1585.35514843
 20
12159.64026094
 30
0.0
 11
1514.64447031
 21
12230.35093906
 31
0.0
  0
LINE
  5
2902
330
25DA
100
AcDbEntity
  8
YKK_IN
  6
Continuous
100
AcDbLine
 10
1585.35514843
 20
12230.35093906
 30
0.0
 11
1514.64447031
 21
12159.64026094
 31
0.0
  0
TEXT
  5
2903
330
25DA
100
AcDbEntity
  8
YKK_A1
  6
Continuous
100
AcDbText
 10
1626.90029399
 20
12278.44508441
 30
0.0
 40
60.0
  1
F
100
AcDbText
  0
TEXT
  5
2904
330
25DA
100
AcDbEntity
  8
YKK_N1
100
AcDbText
 10
1950.49742055
 20
13094.83680151
 30
0.0
 40
60.0
  1
H=2030
 50
90.0
100
AcDbText
  0
LINE
  5
2905
330
25DA
100
AcDbEntity
  8
YKK_N1
  6
Continuous
100
AcDbLine
 10
1962.49742055
 20
14265.0
 30
0.0
 11
1962.49742055
 21
12235.0
 31
0.0
  0
LINE
  5
2906
330
25DA
100
AcDbEntity
  8
YKK_N1
  6
Continuous
100
AcDbLine
 10
1962.49742055
 20
12235.0
 30
0.0
 11
1837.49742055
 21
12235.0
 31
0.0
  0
LINE
  5
2907
330
25DA
100
AcDbEntity
  8
YKK_N1
  6
Continuous
100
AcDbLine
 10
1912.49742055
 20
12321.60254038
 30
0.0
 11
2012.49742055
 21
12321.60254038
 31
0.0
  0
LINE
  5
2908
330
25DA
100
AcDbEntity
  8
YKK_N1
  6
Continuous
100
AcDbLine
 10
2012.49742055
 20
12321.60254038
 30
0.0
 11
1962.49742055
 21
12235.0
 31
0.0
  0
LINE
  5
2909
330
25DA
100
AcDbEntity
  8
YKK_N1
  6
Continuous
100
AcDbLine
 10
1912.49742055
 20
12321.60254038
 30
0.0
 11
1962.49742055
 21
12235.0
 31
0.0
  0
LINE
  5
290A
330
25DA
100
AcDbEntity
  8
YKK_N1
  6
Continuous
100
AcDbLine
 10
1962.49742055
 20
14265.0
 30
0.0
 11
1837.49742055
 21
14265.0
 31
0.0
  0
LINE
  5
290B
330
25DA
100
AcDbEntity
  8
YKK_N1
  6
Continuous
100
AcDbLine
 10
1912.49742055
 20
14178.39745962
 30
0.0
 11
1962.49742055
 21
14265.0
 31
0.0
  0
LINE
  5
290C
330
25DA
100
AcDbEntity
  8
YKK_N1
  6
Continuous
100
AcDbLine
 10
2012.49742055
 20
14178.39745962
 30
0.0
 11
1962.49742055
 21
14265.0
 31
0.0
  0
LINE
  5
290D
330
25DA
100
AcDbEntity
  8
YKK_N1
  6
Continuous
100
AcDbLine
 10
2012.49742055
 20
14178.39745962
 30
0.0
 11
1912.49742055
 21
14178.39745962
 31
0.0
  0
LINE
  5
290E
330
25DA
100
AcDbEntity
  8
YKK_B1
100
AcDbLine
 10
1317.49742043
 20
5463.50224568
 30
0.0
 11
1347.49742043
 21
5463.50224568
 31
0.0
  0
LINE
  5
290F
330
25DA
100
AcDbEntity
  8
YKK_B1
100
AcDbLine
 10
1347.49742043
 20
5463.50224568
 30
0.0
 11
1347.49742043
 21
5436.50224568
 31
0.0
  0
LINE
  5
2910
330
25DA
100
AcDbEntity
  8
YKK_B1
100
AcDbLine
 10
1347.49742043
 20
5436.50224568
 30
0.0
 11
1377.49742043
 21
5436.50224568
 31
0.0
  0
LINE
  5
2911
330
25DA
100
AcDbEntity
  8
YKK_B1
100
AcDbLine
 10
1377.49742043
 20
5421.50224568
 30
0.0
 11
1377.49742043
 21
5471.50224568
 31
0.0
  0
LINE
  5
2912
330
25DA
100
AcDbEntity
  8
YKK_B1
100
AcDbLine
 10
1377.49742043
 20
5471.50224568
 30
0.0
 11
1353.49742043
 21
5471.50224568
 31
0.0
  0
LINE
  5
2913
330
25DA
100
AcDbEntity
  8
YKK_B1
100
AcDbLine
 10
1353.49742043
 20
5471.50224568
 30
0.0
 11
1353.49742043
 21
5511.50224568
 31
0.0
  0
LINE
  5
2914
330
25DA
100
AcDbEntity
  8
YKK_B1
100
AcDbLine
 10
1377.4974204
 20
5511.50224568
 30
0.0
 11
1337.49742043
 21
5511.50224568
 31
0.0
  0
LINE
  5
2915
330
25DA
100
AcDbEntity
  8
YKK_B1
100
AcDbLine
 10
1348.49742043
 20
5511.50224568
 30
0.0
 11
1348.49742043
 21
5528.50224568
 31
0.0
  0
LINE
  5
2916
330
25DA
100
AcDbEntity
  8
YKK_B1
100
AcDbLine
 10
1348.49742043
 20
5528.50224568
 30
0.0
 11
1337.49742043
 21
5528.50224568
 31
0.0
  0
LINE
  5
2917
330
25DA
100
AcDbEntity
  8
YKK_B1
100
AcDbLine
 10
1337.49742043
 20
5528.50224568
 30
0.0
 11
1337.49742043
 21
5463.50224568
 31
0.0
  0
LINE
  5
2918
330
25DA
100
AcDbEntity
  8
YKK_B1
100
AcDbLine
 10
1782.49742044
 20
5463.50224568
 30
0.0
 11
1752.49742044
 21
5463.50224568
 31
0.0
  0
LINE
  5
2919
330
25DA
100
AcDbEntity
  8
YKK_B1
100
AcDbLine
 10
1752.49742044
 20
5463.50224568
 30
0.0
 11
1752.49742044
 21
5436.50224568
 31
0.0
  0
LINE
  5
291A
330
25DA
100
AcDbEntity
  8
YKK_B1
100
AcDbLine
 10
1752.49742044
 20
5436.50224568
 30
0.0
 11
1722.49742044
 21
5436.50224568
 31
0.0
  0
LINE
  5
291B
330
25DA
100
AcDbEntity
  8
YKK_B1
100
AcDbLine
 10
1722.49742044
 20
5421.50224568
 30
0.0
 11
1722.49742044
 21
5471.50224568
 31
0.0
  0
LINE
  5
291C
330
25DA
100
AcDbEntity
  8
YKK_B1
100
AcDbLine
 10
1722.49742044
 20
5471.50224568
 30
0.0
 11
1746.49742044
 21
5471.50224568
 31
0.0
  0
LINE
  5
291D
330
25DA
100
AcDbEntity
  8
YKK_B1
100
AcDbLine
 10
1746.49742044
 20
5471.50224568
 30
0.0
 11
1746.49742044
 21
5511.50224568
 31
0.0
  0
LINE
  5
291E
330
25DA
100
AcDbEntity
  8
YKK_B1
100
AcDbLine
 10
1722.49742047
 20
5511.50224568
 30
0.0
 11
1762.49742044
 21
5511.50224568
 31
0.0
  0
LINE
  5
291F
330
25DA
100
AcDbEntity
  8
YKK_B1
100
AcDbLine
 10
1751.49742044
 20
5511.50224568
 30
0.0
 11
1751.49742044
 21
5528.50224568
 31
0.0
  0
LINE
  5
2920
330
25DA
100
AcDbEntity
  8
YKK_B1
100
AcDbLine
 10
1751.49742044
 20
5528.50224568
 30
0.0
 11
1762.49742044
 21
5528.50224568
 31
0.0
  0
LINE
  5
2921
330
25DA
100
AcDbEntity
  8
YKK_B1
100
AcDbLine
 10
1762.49742044
 20
5528.50224568
 30
0.0
 11
1762.49742044
 21
5463.50224568
 31
0.0
  0
LINE
  5
2922
330
25DA
100
AcDbEntity
  8
YKK_B1
100
AcDbLine
 10
1364.49742044
 20
5496.50224552
 30
0.0
 11
1735.49742043
 21
5496.50224552
 31
0.0
  0
LINE
  5
2923
330
25DA
100
AcDbEntity
  8
YKK_B1
100
AcDbLine
 10
1735.49742043
 20
5474.50224552
 30
0.0
 11
1364.49742044
 21
5474.50224552
 31
0.0
  0
LINE
  5
2924
330
25DA
100
AcDbEntity
  8
YKK_B1
100
AcDbLine
 10
1358.49742043
 20
5528.50224568
 30
0.0
 11
1741.49742044
 21
5528.50224568
 31
0.0
  0
LINE
  5
2925
330
25DA
100
AcDbEntity
  8
YKK_B1
100
AcDbLine
 10
1387.49742043
 20
5421.50224568
 30
0.0
 11
1712.49742044
 21
5421.50495428
 31
0.0
  0
TEXT
  5
2926
330
25DA
100
AcDbEntity
  8
YKK_N1
  6
Continuous
100
AcDbText
 10
2045.49742044
 20
5315.50129557
 30
0.0
 40
60.0
  1
15
 50
90.0
100
AcDbText
  0
TEXT
  5
2927
330
25DA
100
AcDbEntity
  8
YKK_N1
  6
Continuous
100
AcDbText
 10
1398.99980937
 20
5158.50224568
 30
0.0
 40
60.0
  1
30
100
AcDbText
  0
LINE
  5
2928
330
25DA
100
AcDbEntity
  8
YKK_N1
  6
Continuous
100
AcDbLine
 10
1347.49980937
 20
4946.50224568
 30
0.0
 11
1434.10234975
 21
4896.50224568
 31
0.0
  0
LINE
  5
2929
330
25DA
100
AcDbEntity
  8
YKK_N1
  6
Continuous
100
AcDbLine
 10
1347.49980937
 20
4946.50224568
 30
0.0
 11
1752.49980937
 21
4946.50224568
 31
0.0
  0
LINE
  5
292A
330
25DA
100
AcDbEntity
  8
YKK_N1
  6
Continuous
100
AcDbLine
 10
1347.49980937
 20
4946.50224568
 30
0.0
 11
1434.10234975
 21
4996.50224568
 31
0.0
  0
TEXT
  5
292B
330
25DA
100
AcDbEntity
  8
YKK_N1
  6
Continuous
100
AcDbText
 10
1192.99980937
 20
4958.50224568
 30
0.0
 40
60.0
  1
30
100
AcDbText
  0
LINE
  5
292C
330
25DA
100
AcDbEntity
  8
YKK_N1
  6
Continuous
100
AcDbLine
 10
1317.49980937
 20
5271.50224568
 30
0.0
 11
1317.49980937
 21
4946.50224568
 31
0.0
  0
LINE
  5
292D
330
25DA
100
AcDbEntity
  8
YKK_N1
  6
Continuous
100
AcDbLine
 10
1347.49980937
 20
5271.50224568
 30
0.0
 11
1347.49980937
 21
4946.50224568
 31
0.0
  0
CIRCLE
  5
292E
330
25DA
100
AcDbEntity
  8
YKK_N1
  6
Continuous
100
AcDbCircle
 10
1317.49980937
 20
4946.50224568
 30
0.0
 40
5.0
  0
LINE
  5
292F
330
25DA
100
AcDbEntity
  8
YKK_N1
  6
Continuous
100
AcDbLine
 10
1317.49980937
 20
4946.50224568
 30
0.0
 11
1347.49980937
 21
4946.50224568
 31
0.0
  0
LINE
  5
2930
330
25DA
100
AcDbEntity
  8
YKK_N1
  6
Continuous
100
AcDbLine
 10
1347.49980937
 20
5146.50224568
 30
0.0
 11
1377.49980937
 21
5146.50224568
 31
0.0
  0
CIRCLE
  5
2931
330
25DA
100
AcDbEntity
  8
YKK_N1
  6
Continuous
100
AcDbCircle
 10
1347.49980937
 20
5146.50224568
 30
0.0
 40
5.0
  0
CIRCLE
  5
2932
330
25DA
100
AcDbEntity
  8
YKK_N1
  6
Continuous
100
AcDbCircle
 10
1377.49980937
 20
5146.50224568
 30
0.0
 40
5.0
  0
LINE
  5
2933
330
25DA
100
AcDbEntity
  8
YKK_N1
  6
Continuous
100
AcDbLine
 10
1377.49980937
 20
5271.50224568
 30
0.0
 11
1377.49980937
 21
5146.50224568
 31
0.0
  0
TEXT
  5
2934
330
25DA
100
AcDbEntity
  8
YKK_N1
  6
Continuous
100
AcDbText
 10
1404.99980937
 20
4808.50224568
 30
0.0
 40
60.0
  1
W=405
100
AcDbText
  0
LINE
  5
2935
330
25DA
100
AcDbEntity
  8
YKK_N1
  6
Continuous
100
AcDbLine
 10
1434.10234975
 20
4896.50224568
 30
0.0
 11
1434.10234975
 21
4996.50224568
 31
0.0
  0
LINE
  5
2936
330
25DA
100
AcDbEntity
  8
YKK_N1
  6
Continuous
100
AcDbLine
 10
1665.89726899
 20
4996.50224568
 30
0.0
 11
1665.89726899
 21
4896.50224568
 31
0.0
  0
LINE
  5
2937
330
25DA
100
AcDbEntity
  8
YKK_N1
  6
Continuous
100
AcDbLine
 10
1752.49980937
 20
4946.50224568
 30
0.0
 11
1665.89726899
 21
4996.50224568
 31
0.0
  0
TEXT
  5
2938
330
25DA
100
AcDbEntity
  8
YKK_N1
  6
Continuous
100
AcDbText
 10
1798.99980937
 20
4958.50224568
 30
0.0
 40
60.0
  1
30
100
AcDbText
  0
LINE
  5
2939
330
25DA
100
AcDbEntity
  8
YKK_N1
  6
Continuous
100
AcDbLine
 10
1752.49980937
 20
5271.50224568
 30
0.0
 11
1752.49980937
 21
4946.50224568
 31
0.0
  0
LINE
  5
293A
330
25DA
100
AcDbEntity
  8
YKK_N1
  6
Continuous
100
AcDbLine
 10
1782.49980937
 20
5271.50224568
 30
0.0
 11
1782.49980937
 21
4946.50224568
 31
0.0
  0
LINE
  5
293B
330
25DA
100
AcDbEntity
  8
YKK_N1
  6
Continuous
100
AcDbLine
 10
1752.49980937
 20
4946.50224568
 30
0.0
 11
1665.89726899
 21
4896.50224568
 31
0.0
  0
CIRCLE
  5
293C
330
25DA
100
AcDbEntity
  8
YKK_N1
  6
Continuous
100
AcDbCircle
 10
1782.49980937
 20
4946.50224568
 30
0.0
 40
5.0
  0
LINE
  5
293D
330
25DA
100
AcDbEntity
  8
YKK_N1
  6
Continuous
100
AcDbLine
 10
1752.49980937
 20
4946.50224568
 30
0.0
 11
1782.49980937
 21
4946.50224568
 31
0.0
  0
LINE
  5
293E
330
25DA
100
AcDbEntity
  8
YKK_N1
  6
Continuous
100
AcDbLine
 10
1722.49980937
 20
5146.50224568
 30
0.0
 11
1752.49980937
 21
5146.50224568
 31
0.0
  0
TEXT
  5
293F
330
25DA
100
AcDbEntity
  8
YKK_N1
  6
Continuous
100
AcDbText
 10
1612.99980937
 20
5158.50224568
 30
0.0
 40
60.0
  1
30
100
AcDbText
  0
CIRCLE
  5
2940
330
25DA
100
AcDbEntity
  8
YKK_N1
  6
Continuous
100
AcDbCircle
 10
1722.49980937
 20
5146.50224568
 30
0.0
 40
5.0
  0
LINE
  5
2941
330
25DA
100
AcDbEntity
  8
YKK_N1
  6
Continuous
100
AcDbLine
 10
1722.49980937
 20
5271.50224568
 30
0.0
 11
1722.49980937
 21
5146.50224568
 31
0.0
  0
CIRCLE
  5
2942
330
25DA
100
AcDbEntity
  8
YKK_N1
  6
Continuous
100
AcDbCircle
 10
1752.49980937
 20
5146.50224568
 30
0.0
 40
5.0
  0
CIRCLE
  5
2943
330
25DA
100
AcDbEntity
  8
YKK_N1
  6
Continuous
100
AcDbCircle
 10
2057.49742044
 20
5528.50129557
 30
0.0
 40
5.0
  0
TEXT
  5
2944
330
25DA
100
AcDbEntity
  8
YKK_N1
  6
Continuous
100
AcDbText
 10
2045.49742044
 20
5543.84006148
 30
0.0
 40
60.0
  1
65
 50
90.0
100
AcDbText
  0
CIRCLE
  5
2945
330
25DA
100
AcDbEntity
  8
YKK_N1
  6
Continuous
100
AcDbCircle
 10
2057.49742044
 20
5421.50129557
 30
0.0
 40
5.0
  0
CIRCLE
  5
2946
330
25DA
100
AcDbEntity
  8
YKK_N1
  6
Continuous
100
AcDbCircle
 10
2057.49742044
 20
5463.50129557
 30
0.0
 40
5.0
  0
CIRCLE
  5
2947
330
25DA
100
AcDbEntity
  8
YKK_N1
  6
Continuous
100
AcDbCircle
 10
2057.49742044
 20
5436.50129557
 30
0.0
 40
5.0
  0
LINE
  5
2948
330
25DA
100
AcDbEntity
  8
YKK_N1
  6
Continuous
100
AcDbLine
 10
2057.49742044
 20
5436.50129557
 30
0.0
 11
2057.49742044
 21
5421.50129557
 31
0.0
  0
LINE
  5
2949
330
25DA
100
AcDbEntity
  8
YKK_N1
  6
Continuous
100
AcDbLine
 10
2057.49742044
 20
5463.50129557
 30
0.0
 11
2057.49742044
 21
5436.50129557
 31
0.0
  0
LINE
  5
294A
330
25DA
100
AcDbEntity
  8
YKK_N1
  6
Continuous
100
AcDbLine
 10
2057.49742044
 20
5528.50129557
 30
0.0
 11
2057.49742044
 21
5463.50129557
 31
0.0
  0
LINE
  5
294B
330
25DA
100
AcDbEntity
  8
YKK_N1
  6
Continuous
100
AcDbLine
 10
1932.49742044
 20
5528.50129557
 30
0.0
 11
2057.49742044
 21
5528.50129557
 31
0.0
  0
LINE
  5
294C
330
25DA
100
AcDbEntity
  8
YKK_N1
  6
Continuous
100
AcDbLine
 10
1932.49742044
 20
5436.50129557
 30
0.0
 11
2057.49742044
 21
5436.50129557
 31
0.0
  0
LINE
  5
294D
330
25DA
100
AcDbEntity
  8
YKK_N1
  6
Continuous
100
AcDbLine
 10
1932.49742044
 20
5463.50129557
 30
0.0
 11
2057.49742044
 21
5463.50129557
 31
0.0
  0
LINE
  5
294E
330
25DA
100
AcDbEntity
  8
YKK_N1
  6
Continuous
100
AcDbLine
 10
1932.49742044
 20
5421.50129557
 30
0.0
 11
2057.49742044
 21
5421.50129557
 31
0.0
  0
TEXT
  5
294F
330
25DA
100
AcDbEntity
  8
YKK_N1
  6
Continuous
100
AcDbText
 10
2129.49742044
 20
5392.27378639
 30
0.0
 40
60.0
  1
27
 50
90.0
100
AcDbText
  0
LINE
  5
2950
330
25DA
100
AcDbEntity
  8
YKK_A1
100
AcDbLine
 10
6099.99760332
 20
14275.00000007
 30
0.0
 11
6899.99760355
 21
14275.00000007
 31
0.0
  0
LINE
  5
2951
330
25DA
100
AcDbEntity
  8
YKK_A1
100
AcDbLine
 10
6110.99760343
 20
14263.99999996
 30
0.0
 11
6888.99760344
 21
14263.99999996
 31
0.0
  0
LINE
  5
2952
330
25DA
100
AcDbEntity
  8
YKK_A1
100
AcDbLine
 10
6139.99760341
 20
14235.12637349
 30
0.0
 11
6859.99760346
 21
14235.12637349
 31
0.0
  0
LINE
  5
2953
330
25DA
100
AcDbEntity
  8
YKK_A1
100
AcDbLine
 10
6139.99760341
 20
12233.99559995
 30
0.0
 11
6859.99760346
 21
12233.99559995
 31
0.0
  0
LINE
  5
2954
330
25DA
100
AcDbEntity
  8
YKK_A1
100
AcDbLine
 10
6110.99760343
 20
12204.99559995
 30
0.0
 11
6888.99760344
 21
12204.99559995
 31
0.0
  0
LINE
  5
2955
330
25DA
100
AcDbEntity
  8
YKK_A1
100
AcDbLine
 10
6099.99760332
 20
12193.99559995
 30
0.0
 11
6899.99760355
 21
12193.99559995
 31
0.0
  0
LINE
  5
2956
330
25DA
100
AcDbEntity
  8
YKK_A1
100
AcDbLine
 10
6099.99760332
 20
14275.00000007
 30
0.0
 11
6099.99760332
 21
12193.99559995
 31
0.0
  0
LINE
  5
2957
330
25DA
100
AcDbEntity
  8
YKK_A1
100
AcDbLine
 10
6110.99760343
 20
14263.99999996
 30
0.0
 11
6110.99760343
 21
12204.99559995
 31
0.0
  0
LINE
  5
2958
330
25DA
100
AcDbEntity
  8
YKK_A1
100
AcDbLine
 10
6139.99760341
 20
14235.12637349
 30
0.0
 11
6139.99760341
 21
12233.99559995
 31
0.0
  0
LINE
  5
2959
330
25DA
100
AcDbEntity
  8
YKK_A1
100
AcDbLine
 10
6899.99760355
 20
14275.00000007
 30
0.0
 11
6899.99760355
 21
12193.99559995
 31
0.0
  0
LINE
  5
295A
330
25DA
100
AcDbEntity
  8
YKK_A1
100
AcDbLine
 10
6888.99760344
 20
14263.99999996
 30
0.0
 11
6888.99760344
 21
12204.99559995
 31
0.0
  0
LINE
  5
295B
330
25DA
100
AcDbEntity
  8
YKK_A1
100
AcDbLine
 10
6859.99760346
 20
14235.12637349
 30
0.0
 11
6859.99760346
 21
12233.99559995
 31
0.0
  0
LINE
  5
295C
330
25DA
100
AcDbEntity
  8
YKK_N1
  6
Continuous
100
AcDbLine
 10
6109.99999237
 20
11993.99559995
 30
0.0
 11
6196.60253275
 21
12043.99559995
 31
0.0
  0
LINE
  5
295D
330
25DA
100
AcDbEntity
  8
YKK_N1
  6
Continuous
100
AcDbLine
 10
6109.99999237
 20
11993.99559995
 30
0.0
 11
6196.60253275
 21
11943.99559995
 31
0.0
  0
LINE
  5
295E
330
25DA
100
AcDbEntity
  8
YKK_N1
  6
Continuous
100
AcDbLine
 10
6109.99999237
 20
11993.99559995
 30
0.0
 11
6889.99999237
 21
11993.99559995
 31
0.0
  0
LINE
  5
295F
330
25DA
100
AcDbEntity
  8
YKK_N1
  6
Continuous
100
AcDbLine
 10
6109.99999237
 20
12118.99559995
 30
0.0
 11
6109.99999237
 21
11993.99559995
 31
0.0
  0
LINE
  5
2960
330
25DA
100
AcDbEntity
  8
YKK_N1
  6
Continuous
100
AcDbLine
 10
6889.99999237
 20
12118.99559995
 30
0.0
 11
6889.99999237
 21
11993.99559995
 31
0.0
  0
LINE
  5
2961
330
25DA
100
AcDbEntity
  8
YKK_N1
  6
Continuous
100
AcDbLine
 10
6803.39745199
 20
12043.99559995
 30
0.0
 11
6803.39745199
 21
11943.99559995
 31
0.0
  0
LINE
  5
2962
330
25DA
100
AcDbEntity
  8
YKK_N1
  6
Continuous
100
AcDbLine
 10
6889.99999237
 20
11993.99559995
 30
0.0
 11
6803.39745199
 21
12043.99559995
 31
0.0
  0
LINE
  5
2963
330
25DA
100
AcDbEntity
  8
YKK_N1
  6
Continuous
100
AcDbLine
 10
6889.99999237
 20
11993.99559995
 30
0.0
 11
6803.39745199
 21
11943.99559995
 31
0.0
  0
LINE
  5
2964
330
25DA
100
AcDbEntity
  8
YKK_N1
  6
Continuous
100
AcDbLine
 10
6196.60253275
 20
11943.99559995
 30
0.0
 11
6196.60253275
 21
12043.99559995
 31
0.0
  0
TEXT
  5
2965
330
25DA
100
AcDbEntity
  8
YKK_N1
100
AcDbText
 10
6354.99999237
 20
12005.99559995
 30
0.0
 40
60.0
  1
W=780
100
AcDbText
  0
CIRCLE
  5
2966
330
25DA
100
AcDbEntity
  8
YKK_IN
  6
Continuous
100
AcDbCircle
 10
6499.99999237
 20
12194.9956
 30
0.0
 40
25.0
  0
LINE
  5
2967
330
25DA
100
AcDbEntity
  8
YKK_IN
  6
Continuous
100
AcDbLine
 10
6535.35533143
 20
12159.64026094
 30
0.0
 11
6464.64465331
 21
12230.35093906
 31
0.0
  0
LINE
  5
2968
330
25DA
100
AcDbEntity
  8
YKK_IN
  6
Continuous
100
AcDbLine
 10
6535.35533143
 20
12230.35093906
 30
0.0
 11
6464.64465331
 21
12159.64026094
 31
0.0
  0
TEXT
  5
2969
330
25DA
100
AcDbEntity
  8
YKK_A1
  6
Continuous
100
AcDbText
 10
6764.40047699
 20
12278.44508441
 30
0.0
 40
60.0
  1
F
100
AcDbText
  0
TEXT
  5
296A
330
25DA
100
AcDbEntity
  8
YKK_N1
100
AcDbText
 10
7087.99760355
 20
13094.83680151
 30
0.0
 40
60.0
  1
H=2030
 50
90.0
100
AcDbText
  0
LINE
  5
296B
330
25DA
100
AcDbEntity
  8
YKK_N1
  6
Continuous
100
AcDbLine
 10
7099.99760355
 20
14265.0
 30
0.0
 11
7099.99760355
 21
12235.0
 31
0.0
  0
LINE
  5
296C
330
25DA
100
AcDbEntity
  8
YKK_N1
  6
Continuous
100
AcDbLine
 10
7099.99760355
 20
12235.0
 30
0.0
 11
6974.99760355
 21
12235.0
 31
0.0
  0
LINE
  5
296D
330
25DA
100
AcDbEntity
  8
YKK_N1
  6
Continuous
100
AcDbLine
 10
7049.99760355
 20
12321.60254038
 30
0.0
 11
7149.99760355
 21
12321.60254038
 31
0.0
  0
LINE
  5
296E
330
25DA
100
AcDbEntity
  8
YKK_N1
  6
Continuous
100
AcDbLine
 10
7149.99760355
 20
12321.60254038
 30
0.0
 11
7099.99760355
 21
12235.0
 31
0.0
  0
LINE
  5
296F
330
25DA
100
AcDbEntity
  8
YKK_N1
  6
Continuous
100
AcDbLine
 10
7049.99760355
 20
12321.60254038
 30
0.0
 11
7099.99760355
 21
12235.0
 31
0.0
  0
LINE
  5
2970
330
25DA
100
AcDbEntity
  8
YKK_N1
  6
Continuous
100
AcDbLine
 10
7099.99760355
 20
14265.0
 30
0.0
 11
6974.99760355
 21
14265.0
 31
0.0
  0
LINE
  5
2971
330
25DA
100
AcDbEntity
  8
YKK_N1
  6
Continuous
100
AcDbLine
 10
7049.99760355
 20
14178.39745962
 30
0.0
 11
7099.99760355
 21
14265.0
 31
0.0
  0
LINE
  5
2972
330
25DA
100
AcDbEntity
  8
YKK_N1
  6
Continuous
100
AcDbLine
 10
7149.99760355
 20
14178.39745962
 30
0.0
 11
7099.99760355
 21
14265.0
 31
0.0
  0
LINE
  5
2973
330
25DA
100
AcDbEntity
  8
YKK_N1
  6
Continuous
100
AcDbLine
 10
7149.99760355
 20
14178.39745962
 30
0.0
 11
7049.99760355
 21
14178.39745962
 31
0.0
  0
LINE
  5
2974
330
25DA
100
AcDbEntity
  8
YKK_B1
100
AcDbLine
 10
6079.99760343
 20
5463.50224568
 30
0.0
 11
6109.99760343
 21
5463.50224568
 31
0.0
  0
LINE
  5
2975
330
25DA
100
AcDbEntity
  8
YKK_B1
100
AcDbLine
 10
6109.99760343
 20
5463.50224568
 30
0.0
 11
6109.99760343
 21
5436.50224568
 31
0.0
  0
LINE
  5
2976
330
25DA
100
AcDbEntity
  8
YKK_B1
100
AcDbLine
 10
6109.99760343
 20
5436.50224568
 30
0.0
 11
6139.99760343
 21
5436.50224568
 31
0.0
  0
LINE
  5
2977
330
25DA
100
AcDbEntity
  8
YKK_B1
100
AcDbLine
 10
6139.99760343
 20
5421.50224568
 30
0.0
 11
6139.99760343
 21
5471.50224568
 31
0.0
  0
LINE
  5
2978
330
25DA
100
AcDbEntity
  8
YKK_B1
100
AcDbLine
 10
6139.99760343
 20
5471.50224568
 30
0.0
 11
6115.99760343
 21
5471.50224568
 31
0.0
  0
LINE
  5
2979
330
25DA
100
AcDbEntity
  8
YKK_B1
100
AcDbLine
 10
6115.99760343
 20
5471.50224568
 30
0.0
 11
6115.99760343
 21
5511.50224568
 31
0.0
  0
LINE
  5
297A
330
25DA
100
AcDbEntity
  8
YKK_B1
100
AcDbLine
 10
6139.9976034
 20
5511.50224568
 30
0.0
 11
6099.99760343
 21
5511.50224568
 31
0.0
  0
LINE
  5
297B
330
25DA
100
AcDbEntity
  8
YKK_B1
100
AcDbLine
 10
6110.99760343
 20
5511.50224568
 30
0.0
 11
6110.99760343
 21
5528.50224568
 31
0.0
  0
LINE
  5
297C
330
25DA
100
AcDbEntity
  8
YKK_B1
100
AcDbLine
 10
6110.99760343
 20
5528.50224568
 30
0.0
 11
6099.99760343
 21
5528.50224568
 31
0.0
  0
LINE
  5
297D
330
25DA
100
AcDbEntity
  8
YKK_B1
100
AcDbLine
 10
6099.99760343
 20
5528.50224568
 30
0.0
 11
6099.99760343
 21
5463.50224568
 31
0.0
  0
LINE
  5
297E
330
25DA
100
AcDbEntity
  8
YKK_B1
100
AcDbLine
 10
6919.99760344
 20
5463.50224568
 30
0.0
 11
6889.99760344
 21
5463.50224568
 31
0.0
  0
LINE
  5
297F
330
25DA
100
AcDbEntity
  8
YKK_B1
100
AcDbLine
 10
6889.99760344
 20
5463.50224568
 30
0.0
 11
6889.99760344
 21
5436.50224568
 31
0.0
  0
LINE
  5
2980
330
25DA
100
AcDbEntity
  8
YKK_B1
100
AcDbLine
 10
6889.99760344
 20
5436.50224568
 30
0.0
 11
6859.99760344
 21
5436.50224568
 31
0.0
  0
LINE
  5
2981
330
25DA
100
AcDbEntity
  8
YKK_B1
100
AcDbLine
 10
6859.99760344
 20
5421.50224568
 30
0.0
 11
6859.99760344
 21
5471.50224568
 31
0.0
  0
LINE
  5
2982
330
25DA
100
AcDbEntity
  8
YKK_B1
100
AcDbLine
 10
6859.99760344
 20
5471.50224568
 30
0.0
 11
6883.99760344
 21
5471.50224568
 31
0.0
  0
LINE
  5
2983
330
25DA
100
AcDbEntity
  8
YKK_B1
100
AcDbLine
 10
6883.99760344
 20
5471.50224568
 30
0.0
 11
6883.99760344
 21
5511.50224568
 31
0.0
  0
LINE
  5
2984
330
25DA
100
AcDbEntity
  8
YKK_B1
100
AcDbLine
 10
6859.99760347
 20
5511.50224568
 30
0.0
 11
6899.99760344
 21
5511.50224568
 31
0.0
  0
LINE
  5
2985
330
25DA
100
AcDbEntity
  8
YKK_B1
100
AcDbLine
 10
6888.99760344
 20
5511.50224568
 30
0.0
 11
6888.99760344
 21
5528.50224568
 31
0.0
  0
LINE
  5
2986
330
25DA
100
AcDbEntity
  8
YKK_B1
100
AcDbLine
 10
6888.99760344
 20
5528.50224568
 30
0.0
 11
6899.99760344
 21
5528.50224568
 31
0.0
  0
LINE
  5
2987
330
25DA
100
AcDbEntity
  8
YKK_B1
100
AcDbLine
 10
6899.99760344
 20
5528.50224568
 30
0.0
 11
6899.99760344
 21
5463.50224568
 31
0.0
  0
LINE
  5
2988
330
25DA
100
AcDbEntity
  8
YKK_B1
100
AcDbLine
 10
6126.99760344
 20
5496.50224552
 30
0.0
 11
6872.99760343
 21
5496.50224552
 31
0.0
  0
LINE
  5
2989
330
25DA
100
AcDbEntity
  8
YKK_B1
100
AcDbLine
 10
6872.99760343
 20
5474.50224552
 30
0.0
 11
6126.99760344
 21
5474.50224552
 31
0.0
  0
LINE
  5
298A
330
25DA
100
AcDbEntity
  8
YKK_B1
100
AcDbLine
 10
6120.99760343
 20
5528.50224568
 30
0.0
 11
6878.99760344
 21
5528.50224568
 31
0.0
  0
LINE
  5
298B
330
25DA
100
AcDbEntity
  8
YKK_B1
100
AcDbLine
 10
6149.99760343
 20
5421.50224568
 30
0.0
 11
6849.99760344
 21
5421.50495428
 31
0.0
  0
TEXT
  5
298C
330
25DA
100
AcDbEntity
  8
YKK_N1
  6
Continuous
100
AcDbText
 10
7182.99760344
 20
5315.50129557
 30
0.0
 40
60.0
  1
15
 50
90.0
100
AcDbText
  0
TEXT
  5
298D
330
25DA
100
AcDbEntity
  8
YKK_N1
  6
Continuous
100
AcDbText
 10
6161.49999237
 20
5158.50224568
 30
0.0
 40
60.0
  1
30
100
AcDbText
  0
LINE
  5
298E
330
25DA
100
AcDbEntity
  8
YKK_N1
  6
Continuous
100
AcDbLine
 10
6109.99999237
 20
4946.50224568
 30
0.0
 11
6196.60253275
 21
4896.50224568
 31
0.0
  0
LINE
  5
298F
330
25DA
100
AcDbEntity
  8
YKK_N1
  6
Continuous
100
AcDbLine
 10
6109.99999237
 20
4946.50224568
 30
0.0
 11
6889.99999237
 21
4946.50224568
 31
0.0
  0
LINE
  5
2990
330
25DA
100
AcDbEntity
  8
YKK_N1
  6
Continuous
100
AcDbLine
 10
6109.99999237
 20
4946.50224568
 30
0.0
 11
6196.60253275
 21
4996.50224568
 31
0.0
  0
TEXT
  5
2991
330
25DA
100
AcDbEntity
  8
YKK_N1
  6
Continuous
100
AcDbText
 10
5955.49999237
 20
4958.50224568
 30
0.0
 40
60.0
  1
30
100
AcDbText
  0
LINE
  5
2992
330
25DA
100
AcDbEntity
  8
YKK_N1
  6
Continuous
100
AcDbLine
 10
6079.99999237
 20
5271.50224568
 30
0.0
 11
6079.99999237
 21
4946.50224568
 31
0.0
  0
LINE
  5
2993
330
25DA
100
AcDbEntity
  8
YKK_N1
  6
Continuous
100
AcDbLine
 10
6109.99999237
 20
5271.50224568
 30
0.0
 11
6109.99999237
 21
4946.50224568
 31
0.0
  0
CIRCLE
  5
2994
330
25DA
100
AcDbEntity
  8
YKK_N1
  6
Continuous
100
AcDbCircle
 10
6079.99999237
 20
4946.50224568
 30
0.0
 40
5.0
  0
LINE
  5
2995
330
25DA
100
AcDbEntity
  8
YKK_N1
  6
Continuous
100
AcDbLine
 10
6079.99999237
 20
4946.50224568
 30
0.0
 11
6109.99999237
 21
4946.50224568
 31
0.0
  0
LINE
  5
2996
330
25DA
100
AcDbEntity
  8
YKK_N1
  6
Continuous
100
AcDbLine
 10
6109.99999237
 20
5146.50224568
 30
0.0
 11
6139.99999237
 21
5146.50224568
 31
0.0
  0
CIRCLE
  5
2997
330
25DA
100
AcDbEntity
  8
YKK_N1
  6
Continuous
100
AcDbCircle
 10
6109.99999237
 20
5146.50224568
 30
0.0
 40
5.0
  0
CIRCLE
  5
2998
330
25DA
100
AcDbEntity
  8
YKK_N1
  6
Continuous
100
AcDbCircle
 10
6139.99999237
 20
5146.50224568
 30
0.0
 40
5.0
  0
LINE
  5
2999
330
25DA
100
AcDbEntity
  8
YKK_N1
  6
Continuous
100
AcDbLine
 10
6139.99999237
 20
5271.50224568
 30
0.0
 11
6139.99999237
 21
5146.50224568
 31
0.0
  0
TEXT
  5
299A
330
25DA
100
AcDbEntity
  8
YKK_N1
  6
Continuous
100
AcDbText
 10
6354.99999237
 20
4958.50224568
 30
0.0
 40
60.0
  1
W=780
100
AcDbText
  0
LINE
  5
299B
330
25DA
100
AcDbEntity
  8
YKK_N1
  6
Continuous
100
AcDbLine
 10
6196.60253275
 20
4896.50224568
 30
0.0
 11
6196.60253275
 21
4996.50224568
 31
0.0
  0
LINE
  5
299C
330
25DA
100
AcDbEntity
  8
YKK_N1
  6
Continuous
100
AcDbLine
 10
6803.39745199
 20
4996.50224568
 30
0.0
 11
6803.39745199
 21
4896.50224568
 31
0.0
  0
LINE
  5
299D
330
25DA
100
AcDbEntity
  8
YKK_N1
  6
Continuous
100
AcDbLine
 10
6889.99999237
 20
4946.50224568
 30
0.0
 11
6803.39745199
 21
4996.50224568
 31
0.0
  0
TEXT
  5
299E
330
25DA
100
AcDbEntity
  8
YKK_N1
  6
Continuous
100
AcDbText
 10
6936.49999237
 20
4958.50224568
 30
0.0
 40
60.0
  1
30
100
AcDbText
  0
LINE
  5
299F
330
25DA
100
AcDbEntity
  8
YKK_N1
  6
Continuous
100
AcDbLine
 10
6889.99999237
 20
5271.50224568
 30
0.0
 11
6889.99999237
 21
4946.50224568
 31
0.0
  0
LINE
  5
29A0
330
25DA
100
AcDbEntity
  8
YKK_N1
  6
Continuous
100
AcDbLine
 10
6919.99999237
 20
5271.50224568
 30
0.0
 11
6919.99999237
 21
4946.50224568
 31
0.0
  0
LINE
  5
29A1
330
25DA
100
AcDbEntity
  8
YKK_N1
  6
Continuous
100
AcDbLine
 10
6889.99999237
 20
4946.50224568
 30
0.0
 11
6803.39745199
 21
4896.50224568
 31
0.0
  0
CIRCLE
  5
29A2
330
25DA
100
AcDbEntity
  8
YKK_N1
  6
Continuous
100
AcDbCircle
 10
6919.99999237
 20
4946.50224568
 30
0.0
 40
5.0
  0
LINE
  5
29A3
330
25DA
100
AcDbEntity
  8
YKK_N1
  6
Continuous
100
AcDbLine
 10
6889.99999237
 20
4946.50224568
 30
0.0
 11
6919.99999237
 21
4946.50224568
 31
0.0
  0
LINE
  5
29A4
330
25DA
100
AcDbEntity
  8
YKK_N1
  6
Continuous
100
AcDbLine
 10
6859.99999237
 20
5146.50224568
 30
0.0
 11
6889.99999237
 21
5146.50224568
 31
0.0
  0
TEXT
  5
29A5
330
25DA
100
AcDbEntity
  8
YKK_N1
  6
Continuous
100
AcDbText
 10
6750.49999237
 20
5158.50224568
 30
0.0
 40
60.0
  1
30
100
AcDbText
  0
CIRCLE
  5
29A6
330
25DA
100
AcDbEntity
  8
YKK_N1
  6
Continuous
100
AcDbCircle
 10
6859.99999237
 20
5146.50224568
 30
0.0
 40
5.0
  0
LINE
  5
29A7
330
25DA
100
AcDbEntity
  8
YKK_N1
  6
Continuous
100
AcDbLine
 10
6859.99999237
 20
5271.50224568
 30
0.0
 11
6859.99999237
 21
5146.50224568
 31
0.0
  0
CIRCLE
  5
29A8
330
25DA
100
AcDbEntity
  8
YKK_N1
  6
Continuous
100
AcDbCircle
 10
6889.99999237
 20
5146.50224568
 30
0.0
 40
5.0
  0
CIRCLE
  5
29A9
330
25DA
100
AcDbEntity
  8
YKK_N1
  6
Continuous
100
AcDbCircle
 10
7194.99760344
 20
5528.50129557
 30
0.0
 40
5.0
  0
TEXT
  5
29AA
330
25DA
100
AcDbEntity
  8
YKK_N1
  6
Continuous
100
AcDbText
 10
7182.99760344
 20
5543.84006148
 30
0.0
 40
60.0
  1
65
 50
90.0
100
AcDbText
  0
CIRCLE
  5
29AB
330
25DA
100
AcDbEntity
  8
YKK_N1
  6
Continuous
100
AcDbCircle
 10
7194.99760344
 20
5421.50129557
 30
0.0
 40
5.0
  0
CIRCLE
  5
29AC
330
25DA
100
AcDbEntity
  8
YKK_N1
  6
Continuous
100
AcDbCircle
 10
7194.99760344
 20
5463.50129557
 30
0.0
 40
5.0
  0
CIRCLE
  5
29AD
330
25DA
100
AcDbEntity
  8
YKK_N1
  6
Continuous
100
AcDbCircle
 10
7194.99760344
 20
5436.50129557
 30
0.0
 40
5.0
  0
LINE
  5
29AE
330
25DA
100
AcDbEntity
  8
YKK_N1
  6
Continuous
100
AcDbLine
 10
7194.99760344
 20
5436.50129557
 30
0.0
 11
7194.99760344
 21
5421.50129557
 31
0.0
  0
LINE
  5
29AF
330
25DA
100
AcDbEntity
  8
YKK_N1
  6
Continuous
100
AcDbLine
 10
7194.99760344
 20
5463.50129557
 30
0.0
 11
7194.99760344
 21
5436.50129557
 31
0.0
  0
LINE
  5
29B0
330
25DA
100
AcDbEntity
  8
YKK_N1
  6
Continuous
100
AcDbLine
 10
7194.99760344
 20
5528.50129557
 30
0.0
 11
7194.99760344
 21
5463.50129557
 31
0.0
  0
LINE
  5
29B1
330
25DA
100
AcDbEntity
  8
YKK_N1
  6
Continuous
100
AcDbLine
 10
7069.99760344
 20
5528.50129557
 30
0.0
 11
7194.99760344
 21
5528.50129557
 31
0.0
  0
LINE
  5
29B2
330
25DA
100
AcDbEntity
  8
YKK_N1
  6
Continuous
100
AcDbLine
 10
7069.99760344
 20
5436.50129557
 30
0.0
 11
7194.99760344
 21
5436.50129557
 31
0.0
  0
LINE
  5
29B3
330
25DA
100
AcDbEntity
  8
YKK_N1
  6
Continuous
100
AcDbLine
 10
7069.99760344
 20
5463.50129557
 30
0.0
 11
7194.99760344
 21
5463.50129557
 31
0.0
  0
LINE
  5
29B4
330
25DA
100
AcDbEntity
  8
YKK_N1
  6
Continuous
100
AcDbLine
 10
7069.99760344
 20
5421.50129557
 30
0.0
 11
7194.99760344
 21
5421.50129557
 31
0.0
  0
TEXT
  5
29B5
330
25DA
100
AcDbEntity
  8
YKK_N1
  6
Continuous
100
AcDbText
 10
7266.99760344
 20
5392.27378639
 30
0.0
 40
60.0
  1
27
 50
90.0
100
AcDbText
  0
LINE
  5
29B8
330
25DA
100
AcDbEntity
  8
YKK_C1
100
AcDbLine
 10
9217.40196602
 20
18014.99999999
 30
0.0
 11
9217.40196602
 21
17984.99999999
 31
0.0
  0
LINE
  5
29B9
330
25DA
100
AcDbEntity
  8
YKK_C1
100
AcDbLine
 10
9232.40196602
 20
17984.99999999
 30
0.0
 11
9182.40196602
 21
17984.99999999
 31
0.0
  0
LINE
  5
29BA
330
25DA
100
AcDbEntity
  8
YKK_C1
100
AcDbLine
 10
9190.40196602
 20
18044.99999999
 30
0.0
 11
9190.40196602
 21
18014.99999999
 31
0.0
  0
LINE
  5
29BB
330
25DA
100
AcDbEntity
  8
YKK_C1
100
AcDbLine
 10
9190.40196602
 20
18014.99999999
 30
0.0
 11
9217.40196602
 21
18014.99999999
 31
0.0
  0
LINE
  5
29BC
330
25DA
100
AcDbEntity
  8
YKK_C1
100
AcDbLine
 10
9125.40196602
 20
18013.99999999
 30
0.0
 11
9125.40196602
 21
18024.99999999
 31
0.0
  0
LINE
  5
29BD
330
25DA
100
AcDbEntity
  8
YKK_C1
100
AcDbLine
 10
9125.40196602
 20
18024.99999999
 30
0.0
 11
9190.40196602
 21
18024.99999999
 31
0.0
  0
LINE
  5
29BE
330
25DA
100
AcDbEntity
  8
YKK_C1
100
AcDbLine
 10
9142.40196602
 20
17985.00000002
 30
0.0
 11
9142.40196602
 21
18024.99999999
 31
0.0
  0
LINE
  5
29BF
330
25DA
100
AcDbEntity
  8
YKK_C1
100
AcDbLine
 10
9125.40196602
 20
18013.99999999
 30
0.0
 11
9142.40196602
 21
18013.99999999
 31
0.0
  0
LINE
  5
29C0
330
25DA
100
AcDbEntity
  8
YKK_C1
100
AcDbLine
 10
9142.40196602
 20
18008.99999999
 30
0.0
 11
9182.40196602
 21
18008.99999999
 31
0.0
  0
LINE
  5
29C1
330
25DA
100
AcDbEntity
  8
YKK_C1
100
AcDbLine
 10
9182.40196602
 20
18008.99999999
 30
0.0
 11
9182.40196602
 21
17984.99999999
 31
0.0
  0
LINE
  5
29C2
330
25DA
100
AcDbEntity
  8
YKK_C1
100
AcDbLine
 10
9217.40196602
 20
16153.99559988
 30
0.0
 11
9217.40196602
 21
16183.99559988
 31
0.0
  0
LINE
  5
29C3
330
25DA
100
AcDbEntity
  8
YKK_C1
100
AcDbLine
 10
9232.40196602
 20
16183.99559988
 30
0.0
 11
9182.40196602
 21
16183.99559988
 31
0.0
  0
LINE
  5
29C4
330
25DA
100
AcDbEntity
  8
YKK_C1
100
AcDbLine
 10
9190.40196602
 20
16123.99559988
 30
0.0
 11
9190.40196602
 21
16153.99559988
 31
0.0
  0
LINE
  5
29C5
330
25DA
100
AcDbEntity
  8
YKK_C1
100
AcDbLine
 10
9190.40196602
 20
16153.99559988
 30
0.0
 11
9217.40196602
 21
16153.99559988
 31
0.0
  0
LINE
  5
29C6
330
25DA
100
AcDbEntity
  8
YKK_C1
100
AcDbLine
 10
9125.40196602
 20
16154.99559988
 30
0.0
 11
9125.40196602
 21
16143.99559988
 31
0.0
  0
LINE
  5
29C7
330
25DA
100
AcDbEntity
  8
YKK_C1
100
AcDbLine
 10
9125.40196602
 20
16143.99559988
 30
0.0
 11
9190.40196602
 21
16143.99559988
 31
0.0
  0
LINE
  5
29C8
330
25DA
100
AcDbEntity
  8
YKK_C1
100
AcDbLine
 10
9142.40196602
 20
16183.99559985
 30
0.0
 11
9142.40196602
 21
16143.99559988
 31
0.0
  0
LINE
  5
29C9
330
25DA
100
AcDbEntity
  8
YKK_C1
100
AcDbLine
 10
9125.40196602
 20
16154.99559988
 30
0.0
 11
9142.40196602
 21
16154.99559988
 31
0.0
  0
LINE
  5
29CA
330
25DA
100
AcDbEntity
  8
YKK_C1
100
AcDbLine
 10
9142.40196602
 20
16159.99559988
 30
0.0
 11
9182.40196602
 21
16159.99559988
 31
0.0
  0
LINE
  5
29CB
330
25DA
100
AcDbEntity
  8
YKK_C1
100
AcDbLine
 10
9182.40196602
 20
16159.99559988
 30
0.0
 11
9182.40196602
 21
16183.99559988
 31
0.0
  0
LINE
  5
29CC
330
25DA
100
AcDbEntity
  8
YKK_B1
100
AcDbLine
 10
9157.40196617
 20
17997.99999998
 30
0.0
 11
9157.40196617
 21
16170.9956
 31
0.0
  0
LINE
  5
29CD
330
25DA
100
AcDbEntity
  8
YKK_B1
100
AcDbLine
 10
9179.40196617
 20
16170.9956
 30
0.0
 11
9179.40196617
 21
17997.99999998
 31
0.0
  0
LINE
  5
29CE
330
25DA
100
AcDbEntity
  8
YKK_B1
100
AcDbLine
 10
9125.40196602
 20
18004.0
 30
0.0
 11
9125.40196602
 21
16164.99559988
 31
0.0
  0
LINE
  5
29CF
330
25DA
100
AcDbEntity
  8
YKK_B1
100
AcDbLine
 10
9232.39925742
 20
17974.99999999
 30
0.0
 11
9232.39925742
 21
16193.99716369
 31
0.0
  0
CIRCLE
  5
29D0
330
25DA
100
AcDbEntity
  8
YKK_IN
  6
Continuous
100
AcDbCircle
 10
9190.40191825
 20
16144.99559999
 30
0.0
 40
25.0
  0
LINE
  5
29D1
330
25DA
100
AcDbEntity
  8
YKK_IN
  6
Continuous
100
AcDbLine
 10
9225.75725731
 20
16109.64026093
 30
0.0
 11
9155.04657919
 21
16180.35093905
 31
0.0
  0
LINE
  5
29D2
330
25DA
100
AcDbEntity
  8
YKK_IN
  6
Continuous
100
AcDbLine
 10
9225.75725731
 20
16180.35093905
 30
0.0
 11
9155.04657919
 21
16109.64026093
 31
0.0
  0
LINE
  5
29D3
330
25DA
100
AcDbEntity
  8
YKK_A1
100
AcDbLine
 10
3619.99761095
 20
18025.00000005
 30
0.0
 11
4279.99761118
 21
18025.00000005
 31
0.0
  0
LINE
  5
29D4
330
25DA
100
AcDbEntity
  8
YKK_A1
100
AcDbLine
 10
3630.99761106
 20
18013.99999994
 30
0.0
 11
4268.99761107
 21
18013.99999994
 31
0.0
  0
LINE
  5
29D5
330
25DA
100
AcDbEntity
  8
YKK_A1
100
AcDbLine
 10
3659.99761104
 20
17985.12637347
 30
0.0
 11
4239.99761109
 21
17985.12637347
 31
0.0
  0
LINE
  5
29D6
330
25DA
100
AcDbEntity
  8
YKK_A1
100
AcDbLine
 10
3659.99761104
 20
16183.99559993
 30
0.0
 11
4239.99761109
 21
16183.99559993
 31
0.0
  0
LINE
  5
29D7
330
25DA
100
AcDbEntity
  8
YKK_A1
100
AcDbLine
 10
3630.99761106
 20
16154.99559993
 30
0.0
 11
4268.99761107
 21
16154.99559993
 31
0.0
  0
LINE
  5
29D8
330
25DA
100
AcDbEntity
  8
YKK_A1
100
AcDbLine
 10
3619.99761095
 20
16143.99559993
 30
0.0
 11
4279.99761118
 21
16143.99559993
 31
0.0
  0
LINE
  5
29D9
330
25DA
100
AcDbEntity
  8
YKK_A1
100
AcDbLine
 10
3619.99761095
 20
18025.00000005
 30
0.0
 11
3619.99761095
 21
16143.99559993
 31
0.0
  0
LINE
  5
29DA
330
25DA
100
AcDbEntity
  8
YKK_A1
100
AcDbLine
 10
3630.99761106
 20
18013.99999994
 30
0.0
 11
3630.99761106
 21
16154.99559993
 31
0.0
  0
LINE
  5
29DB
330
25DA
100
AcDbEntity
  8
YKK_A1
100
AcDbLine
 10
3659.99761104
 20
17985.12637347
 30
0.0
 11
3659.99761104
 21
16183.99559993
 31
0.0
  0
LINE
  5
29DC
330
25DA
100
AcDbEntity
  8
YKK_A1
100
AcDbLine
 10
4279.99761118
 20
18025.00000005
 30
0.0
 11
4279.99761118
 21
16143.99559993
 31
0.0
  0
LINE
  5
29DD
330
25DA
100
AcDbEntity
  8
YKK_A1
100
AcDbLine
 10
4268.99761107
 20
18013.99999994
 30
0.0
 11
4268.99761107
 21
16154.99559993
 31
0.0
  0
LINE
  5
29DE
330
25DA
100
AcDbEntity
  8
YKK_A1
100
AcDbLine
 10
4239.99761109
 20
17985.12637347
 30
0.0
 11
4239.99761109
 21
16183.99559993
 31
0.0
  0
LINE
  5
29DF
330
25DA
100
AcDbEntity
  8
YKK_N1
  6
Continuous
100
AcDbLine
 10
3630.0
 20
15943.99559993
 30
0.0
 11
3716.60254038
 21
15993.99559993
 31
0.0
  0
LINE
  5
29E0
330
25DA
100
AcDbEntity
  8
YKK_N1
  6
Continuous
100
AcDbLine
 10
3630.0
 20
15943.99559993
 30
0.0
 11
3716.60254038
 21
15893.99559993
 31
0.0
  0
LINE
  5
29E1
330
25DA
100
AcDbEntity
  8
YKK_N1
  6
Continuous
100
AcDbLine
 10
3630.0
 20
15943.99559993
 30
0.0
 11
4270.0
 21
15943.99559993
 31
0.0
  0
LINE
  5
29E2
330
25DA
100
AcDbEntity
  8
YKK_N1
  6
Continuous
100
AcDbLine
 10
3630.0
 20
16068.99559993
 30
0.0
 11
3630.0
 21
15943.99559993
 31
0.0
  0
LINE
  5
29E3
330
25DA
100
AcDbEntity
  8
YKK_N1
  6
Continuous
100
AcDbLine
 10
4270.0
 20
16068.99559993
 30
0.0
 11
4270.0
 21
15943.99559993
 31
0.0
  0
LINE
  5
29E4
330
25DA
100
AcDbEntity
  8
YKK_N1
  6
Continuous
100
AcDbLine
 10
4183.39745962
 20
15993.99559993
 30
0.0
 11
4183.39745962
 21
15893.99559993
 31
0.0
  0
LINE
  5
29E5
330
25DA
100
AcDbEntity
  8
YKK_N1
  6
Continuous
100
AcDbLine
 10
4270.0
 20
15943.99559993
 30
0.0
 11
4183.39745962
 21
15993.99559993
 31
0.0
  0
LINE
  5
29E6
330
25DA
100
AcDbEntity
  8
YKK_N1
  6
Continuous
100
AcDbLine
 10
4270.0
 20
15943.99559993
 30
0.0
 11
4183.39745962
 21
15893.99559993
 31
0.0
  0
LINE
  5
29E7
330
25DA
100
AcDbEntity
  8
YKK_N1
  6
Continuous
100
AcDbLine
 10
3716.60254038
 20
15893.99559993
 30
0.0
 11
3716.60254038
 21
15993.99559993
 31
0.0
  0
TEXT
  5
29E8
330
25DA
100
AcDbEntity
  8
YKK_N1
100
AcDbText
 10
3805.0
 20
15955.99559993
 30
0.0
 40
60.0
  1
W=640
100
AcDbText
  0
CIRCLE
  5
29E9
330
25DA
100
AcDbEntity
  8
YKK_IN
  6
Continuous
100
AcDbCircle
 10
3950.0
 20
16144.99559999
 30
0.0
 40
25.0
  0
LINE
  5
29EA
330
25DA
100
AcDbEntity
  8
YKK_IN
  6
Continuous
100
AcDbLine
 10
3985.35533906
 20
16109.64026093
 30
0.0
 11
3914.64466094
 21
16180.35093905
 31
0.0
  0
LINE
  5
29EB
330
25DA
100
AcDbEntity
  8
YKK_IN
  6
Continuous
100
AcDbLine
 10
3985.35533906
 20
16180.35093905
 30
0.0
 11
3914.64466094
 21
16109.64026093
 31
0.0
  0
TEXT
  5
29EC
330
25DA
100
AcDbEntity
  8
YKK_A1
  6
Continuous
100
AcDbText
 10
4144.40048462
 20
16228.4450844
 30
0.0
 40
60.0
  1
F
100
AcDbText
  0
TEXT
  5
29ED
330
25DA
100
AcDbEntity
  8
YKK_N1
100
AcDbText
 10
4467.99761118
 20
16944.8368015
 30
0.0
 40
60.0
  1
H=1830
 50
90.0
100
AcDbText
  0
LINE
  5
29EE
330
25DA
100
AcDbEntity
  8
YKK_N1
  6
Continuous
100
AcDbLine
 10
4479.99761118
 20
18014.99999998
 30
0.0
 11
4479.99761118
 21
16184.99999998
 31
0.0
  0
LINE
  5
29EF
330
25DA
100
AcDbEntity
  8
YKK_N1
  6
Continuous
100
AcDbLine
 10
4479.99761118
 20
16184.99999998
 30
0.0
 11
4354.99761118
 21
16184.99999998
 31
0.0
  0
LINE
  5
29F0
330
25DA
100
AcDbEntity
  8
YKK_N1
  6
Continuous
100
AcDbLine
 10
4429.99761118
 20
16271.60254036
 30
0.0
 11
4529.99761118
 21
16271.60254036
 31
0.0
  0
LINE
  5
29F1
330
25DA
100
AcDbEntity
  8
YKK_N1
  6
Continuous
100
AcDbLine
 10
4529.99761118
 20
16271.60254036
 30
0.0
 11
4479.99761118
 21
16184.99999998
 31
0.0
  0
LINE
  5
29F2
330
25DA
100
AcDbEntity
  8
YKK_N1
  6
Continuous
100
AcDbLine
 10
4429.99761118
 20
16271.60254036
 30
0.0
 11
4479.99761118
 21
16184.99999998
 31
0.0
  0
LINE
  5
29F3
330
25DA
100
AcDbEntity
  8
YKK_N1
  6
Continuous
100
AcDbLine
 10
4479.99761118
 20
18014.99999998
 30
0.0
 11
4354.99761118
 21
18014.99999998
 31
0.0
  0
LINE
  5
29F4
330
25DA
100
AcDbEntity
  8
YKK_N1
  6
Continuous
100
AcDbLine
 10
4429.99761118
 20
17928.39745961
 30
0.0
 11
4479.99761118
 21
18014.99999998
 31
0.0
  0
LINE
  5
29F5
330
25DA
100
AcDbEntity
  8
YKK_N1
  6
Continuous
100
AcDbLine
 10
4529.99761118
 20
17928.39745961
 30
0.0
 11
4479.99761118
 21
18014.99999998
 31
0.0
  0
LINE
  5
29F6
330
25DA
100
AcDbEntity
  8
YKK_N1
  6
Continuous
100
AcDbLine
 10
4529.99761118
 20
17928.39745961
 30
0.0
 11
4429.99761118
 21
17928.39745961
 31
0.0
  0
TEXT
  5
29F7
330
25DA
100
AcDbEntity
  8
YKK_N1
  6
Continuous
100
AcDbText
 10
9695.40196602
 20
16944.8368015
 30
0.0
 40
60.0
  1
H=1830
 50
90.0
100
AcDbText
  0
LINE
  5
29F8
330
25DA
100
AcDbEntity
  8
YKK_N1
  6
Continuous
100
AcDbLine
 10
9707.40196602
 20
18014.99999998
 30
0.0
 11
9707.40196602
 21
16184.99999998
 31
0.0
  0
LINE
  5
29F9
330
25DA
100
AcDbEntity
  8
YKK_N1
  6
Continuous
100
AcDbLine
 10
9382.40196602
 20
16184.99999998
 30
0.0
 11
9707.40196602
 21
16184.99999998
 31
0.0
  0
LINE
  5
29FA
330
25DA
100
AcDbEntity
  8
YKK_N1
  6
Continuous
100
AcDbLine
 10
9382.40196602
 20
16144.99999998
 30
0.0
 11
9707.40196602
 21
16144.99999998
 31
0.0
  0
TEXT
  5
29FB
330
25DA
100
AcDbEntity
  8
YKK_N1
  6
Continuous
100
AcDbText
 10
9157.29052041
 20
15779.04208814
 30
0.0
 40
60.0
  1
27
100
AcDbText
  0
LINE
  5
29FC
330
25DA
100
AcDbEntity
  8
YKK_N1
  6
Continuous
100
AcDbLine
 10
9125.40196616
 20
15848.99559988
 30
0.0
 11
9190.40196616
 21
15848.99559988
 31
0.0
  0
LINE
  5
29FD
330
25DA
100
AcDbEntity
  8
YKK_N1
  6
Continuous
100
AcDbLine
 10
9125.40196616
 20
15973.99559988
 30
0.0
 11
9125.40196616
 21
15848.99559988
 31
0.0
  0
CIRCLE
  5
29FE
330
25DA
100
AcDbEntity
  8
YKK_N1
  6
Continuous
100
AcDbCircle
 10
9125.40196616
 20
15848.99559988
 30
0.0
 40
5.0
  0
LINE
  5
29FF
330
25DA
100
AcDbEntity
  8
YKK_N1
100
AcDbLine
 10
9217.40196616
 20
15848.99559988
 30
0.0
 11
9232.40196616
 21
15848.99559988
 31
0.0
  0
CIRCLE
  5
2A00
330
25DA
100
AcDbEntity
  8
YKK_N1
  6
Continuous
100
AcDbCircle
 10
9217.40196616
 20
15848.99559988
 30
0.0
 40
5.0
  0
LINE
  5
2A01
330
25DA
100
AcDbEntity
  8
YKK_N1
  6
Continuous
100
AcDbLine
 10
9190.40196616
 20
15848.99559988
 30
0.0
 11
9217.40196616
 21
15848.99559988
 31
0.0
  0
CIRCLE
  5
2A02
330
25DA
100
AcDbEntity
  8
YKK_N1
  6
Continuous
100
AcDbCircle
 10
9190.40196616
 20
15848.99559988
 30
0.0
 40
5.0
  0
LINE
  5
2A03
330
25DA
100
AcDbEntity
  8
YKK_N1
  6
Continuous
100
AcDbLine
 10
9190.40196616
 20
15973.99559988
 30
0.0
 11
9190.40196616
 21
15848.99559988
 31
0.0
  0
LINE
  5
2A04
330
25DA
100
AcDbEntity
  8
YKK_N1
  6
Continuous
100
AcDbLine
 10
9217.40196616
 20
15973.99559988
 30
0.0
 11
9217.40196616
 21
15848.99559988
 31
0.0
  0
TEXT
  5
2A05
330
25DA
100
AcDbEntity
  8
YKK_N1
  6
Continuous
100
AcDbText
 10
9259.107635
 20
15860.99559988
 30
0.0
 40
60.0
  1
15
100
AcDbText
  0
CIRCLE
  5
2A06
330
25DA
100
AcDbEntity
  8
YKK_N1
  6
Continuous
100
AcDbCircle
 10
9232.40196616
 20
15848.99559988
 30
0.0
 40
5.0
  0
LINE
  5
2A07
330
25DA
100
AcDbEntity
  8
YKK_N1
  6
Continuous
100
AcDbLine
 10
9232.40196616
 20
15973.99559988
 30
0.0
 11
9232.40196616
 21
15848.99559988
 31
0.0
  0
TEXT
  5
2A08
330
25DA
100
AcDbEntity
  8
YKK_N1
  6
Continuous
100
AcDbText
 10
9015.40890851
 20
15860.99559988
 30
0.0
 40
60.0
  1
65
100
AcDbText
  0
TEXT
  5
2A09
330
25DA
100
AcDbEntity
  8
YKK_N1
  6
Continuous
100
AcDbText
 10
9790.70860987
 20
16121.28595588
 30
0.0
 40
60.0
  1
40
 50
90.0
100
AcDbText
  0
CIRCLE
  5
2A0A
330
25DA
100
AcDbEntity
  8
YKK_N1
  6
Continuous
100
AcDbCircle
 10
9707.40196602
 20
16144.99999998
 30
0.0
 40
5.0
  0
TEXT
  5
2A0B
330
25DA
100
AcDbEntity
  8
YKK_N1
  6
Continuous
100
AcDbText
 10
9695.40196602
 20
16021.99999998
 30
0.0
 40
60.0
  1
21
 50
90.0
100
AcDbText
  0
LINE
  5
2A0C
330
25DA
100
AcDbEntity
  8
YKK_N1
  6
Continuous
100
AcDbLine
 10
9707.40196602
 20
16184.99999998
 30
0.0
 11
9707.40196602
 21
16144.99999998
 31
0.0
  0
LINE
  5
2A0D
330
25DA
100
AcDbEntity
  8
YKK_N1
  6
Continuous
100
AcDbLine
 10
9657.40196602
 20
16271.60254036
 30
0.0
 11
9707.40196602
 21
16184.99999998
 31
0.0
  0
LINE
  5
2A0E
330
25DA
100
AcDbEntity
  8
YKK_N1
  6
Continuous
100
AcDbLine
 10
9757.40196602
 20
16271.60254036
 30
0.0
 11
9657.40196602
 21
16271.60254036
 31
0.0
  0
LINE
  5
2A0F
330
25DA
100
AcDbEntity
  8
YKK_N1
  6
Continuous
100
AcDbLine
 10
9757.40196602
 20
16271.60254036
 30
0.0
 11
9707.40196602
 21
16184.99999998
 31
0.0
  0
LINE
  5
2A10
330
25DA
100
AcDbEntity
  8
YKK_N1
  6
Continuous
100
AcDbLine
 10
9382.40196602
 20
18044.99999998
 30
0.0
 11
9707.40196602
 21
18044.99999998
 31
0.0
  0
LINE
  5
2A11
330
25DA
100
AcDbEntity
  8
YKK_N1
  6
Continuous
100
AcDbLine
 10
9382.40196602
 20
18014.99999998
 30
0.0
 11
9707.40196602
 21
18014.99999998
 31
0.0
  0
LINE
  5
2A12
330
25DA
100
AcDbEntity
  8
YKK_N1
  6
Continuous
100
AcDbLine
 10
9382.40196602
 20
17984.99999998
 30
0.0
 11
9507.40196602
 21
17984.99999998
 31
0.0
  0
CIRCLE
  5
2A13
330
25DA
100
AcDbEntity
  8
YKK_N1
  6
Continuous
100
AcDbCircle
 10
9707.40196602
 20
18044.99999998
 30
0.0
 40
5.0
  0
TEXT
  5
2A14
330
25DA
100
AcDbEntity
  8
YKK_N1
  6
Continuous
100
AcDbText
 10
9495.40196602
 20
17870.99999998
 30
0.0
 40
60.0
  1
30
 50
90.0
100
AcDbText
  0
LINE
  5
2A15
330
25DA
100
AcDbEntity
  8
YKK_N1
  6
Continuous
100
AcDbLine
 10
9507.40196602
 20
18014.99999998
 30
0.0
 11
9507.40196602
 21
17984.99999998
 31
0.0
  0
CIRCLE
  5
2A16
330
25DA
100
AcDbEntity
  8
YKK_N1
  6
Continuous
100
AcDbCircle
 10
9507.40196602
 20
17984.99999998
 30
0.0
 40
5.0
  0
CIRCLE
  5
2A17
330
25DA
100
AcDbEntity
  8
YKK_N1
  6
Continuous
100
AcDbCircle
 10
9507.40196602
 20
18015.00006498
 30
0.0
 40
5.0
  0
LINE
  5
2A18
330
25DA
100
AcDbEntity
  8
YKK_N1
  6
Continuous
100
AcDbLine
 10
9707.40196602
 20
18044.99999998
 30
0.0
 11
9707.40196602
 21
18014.99999998
 31
0.0
  0
LINE
  5
2A19
330
25DA
100
AcDbEntity
  8
YKK_N1
  6
Continuous
100
AcDbLine
 10
9657.40196602
 20
17928.39745961
 30
0.0
 11
9707.40196602
 21
18014.99999998
 31
0.0
  0
LINE
  5
2A1A
330
25DA
100
AcDbEntity
  8
YKK_N1
  6
Continuous
100
AcDbLine
 10
9657.40196602
 20
17928.39745961
 30
0.0
 11
9757.40196602
 21
17928.39745961
 31
0.0
  0
LINE
  5
2A1B
330
25DA
100
AcDbEntity
  8
YKK_N1
  6
Continuous
100
AcDbLine
 10
9757.40196602
 20
17928.39745961
 30
0.0
 11
9707.40196602
 21
18014.99999998
 31
0.0
  0
TEXT
  5
2A1C
330
25DA
100
AcDbEntity
  8
YKK_N1
  6
Continuous
100
AcDbText
 10
9695.40196602
 20
18058.99999998
 30
0.0
 40
60.0
  1
30
 50
90.0
100
AcDbText
  0
LINE
  5
2A1D
330
25DA
100
AcDbEntity
  8
YKK_N1
  6
Continuous
100
AcDbLine
 10
9382.40196602
 20
16123.99999998
 30
0.0
 11
9707.40196602
 21
16123.99999998
 31
0.0
  0
CIRCLE
  5
2A1E
330
25DA
100
AcDbEntity
  8
YKK_N1
  6
Continuous
100
AcDbCircle
 10
9707.40196602
 20
16123.99999998
 30
0.0
 40
5.0
  0
LINE
  5
2A1F
330
25DA
100
AcDbEntity
  8
YKK_N1
100
AcDbLine
 10
9707.40196602
 20
16144.99999998
 30
0.0
 11
9707.40196602
 21
16123.99999998
 31
0.0
  0
LINE
  5
2A20
330
25DA
100
AcDbEntity
  8
YKK_A1
100
AcDbLine
 10
1337.49742032
 20
18025.00000005
 30
0.0
 11
1762.49742055
 21
18025.00000005
 31
0.0
  0
LINE
  5
2A21
330
25DA
100
AcDbEntity
  8
YKK_A1
100
AcDbLine
 10
1348.49742043
 20
18013.99999994
 30
0.0
 11
1751.49742044
 21
18013.99999994
 31
0.0
  0
LINE
  5
2A22
330
25DA
100
AcDbEntity
  8
YKK_A1
100
AcDbLine
 10
1377.49742041
 20
17985.12637347
 30
0.0
 11
1722.49742046
 21
17985.12637347
 31
0.0
  0
LINE
  5
2A23
330
25DA
100
AcDbEntity
  8
YKK_A1
100
AcDbLine
 10
1377.49742041
 20
16183.99559993
 30
0.0
 11
1722.49742046
 21
16183.99559993
 31
0.0
  0
LINE
  5
2A24
330
25DA
100
AcDbEntity
  8
YKK_A1
100
AcDbLine
 10
1348.49742043
 20
16154.99559993
 30
0.0
 11
1751.49742044
 21
16154.99559993
 31
0.0
  0
LINE
  5
2A25
330
25DA
100
AcDbEntity
  8
YKK_A1
100
AcDbLine
 10
1337.49742032
 20
16143.99559993
 30
0.0
 11
1762.49742055
 21
16143.99559993
 31
0.0
  0
LINE
  5
2A26
330
25DA
100
AcDbEntity
  8
YKK_A1
100
AcDbLine
 10
1337.49742032
 20
18025.00000005
 30
0.0
 11
1337.49742032
 21
16143.99559993
 31
0.0
  0
LINE
  5
2A27
330
25DA
100
AcDbEntity
  8
YKK_A1
100
AcDbLine
 10
1348.49742043
 20
18013.99999994
 30
0.0
 11
1348.49742043
 21
16154.99559993
 31
0.0
  0
LINE
  5
2A28
330
25DA
100
AcDbEntity
  8
YKK_A1
100
AcDbLine
 10
1377.49742041
 20
17985.12637347
 30
0.0
 11
1377.49742041
 21
16183.99559993
 31
0.0
  0
LINE
  5
2A29
330
25DA
100
AcDbEntity
  8
YKK_A1
100
AcDbLine
 10
1762.49742055
 20
18025.00000005
 30
0.0
 11
1762.49742055
 21
16143.99559993
 31
0.0
  0
LINE
  5
2A2A
330
25DA
100
AcDbEntity
  8
YKK_A1
100
AcDbLine
 10
1751.49742044
 20
18013.99999994
 30
0.0
 11
1751.49742044
 21
16154.99559993
 31
0.0
  0
LINE
  5
2A2B
330
25DA
100
AcDbEntity
  8
YKK_A1
100
AcDbLine
 10
1722.49742046
 20
17985.12637347
 30
0.0
 11
1722.49742046
 21
16183.99559993
 31
0.0
  0
LINE
  5
2A2C
330
25DA
100
AcDbEntity
  8
YKK_N1
  6
Continuous
100
AcDbLine
 10
1347.49980937
 20
15943.99559993
 30
0.0
 11
1434.10234975
 21
15993.99559993
 31
0.0
  0
LINE
  5
2A2D
330
25DA
100
AcDbEntity
  8
YKK_N1
  6
Continuous
100
AcDbLine
 10
1347.49980937
 20
15943.99559993
 30
0.0
 11
1434.10234975
 21
15893.99559993
 31
0.0
  0
LINE
  5
2A2E
330
25DA
100
AcDbEntity
  8
YKK_N1
  6
Continuous
100
AcDbLine
 10
1347.49980937
 20
15943.99559993
 30
0.0
 11
1752.49980937
 21
15943.99559993
 31
0.0
  0
LINE
  5
2A2F
330
25DA
100
AcDbEntity
  8
YKK_N1
  6
Continuous
100
AcDbLine
 10
1347.49980937
 20
16068.99559993
 30
0.0
 11
1347.49980937
 21
15943.99559993
 31
0.0
  0
LINE
  5
2A30
330
25DA
100
AcDbEntity
  8
YKK_N1
  6
Continuous
100
AcDbLine
 10
1752.49980937
 20
16068.99559993
 30
0.0
 11
1752.49980937
 21
15943.99559993
 31
0.0
  0
LINE
  5
2A31
330
25DA
100
AcDbEntity
  8
YKK_N1
  6
Continuous
100
AcDbLine
 10
1665.89726899
 20
15993.99559993
 30
0.0
 11
1665.89726899
 21
15893.99559993
 31
0.0
  0
LINE
  5
2A32
330
25DA
100
AcDbEntity
  8
YKK_N1
  6
Continuous
100
AcDbLine
 10
1752.49980937
 20
15943.99559993
 30
0.0
 11
1665.89726899
 21
15993.99559993
 31
0.0
  0
LINE
  5
2A33
330
25DA
100
AcDbEntity
  8
YKK_N1
  6
Continuous
100
AcDbLine
 10
1752.49980937
 20
15943.99559993
 30
0.0
 11
1665.89726899
 21
15893.99559993
 31
0.0
  0
LINE
  5
2A34
330
25DA
100
AcDbEntity
  8
YKK_N1
  6
Continuous
100
AcDbLine
 10
1434.10234975
 20
15893.99559993
 30
0.0
 11
1434.10234975
 21
15993.99559993
 31
0.0
  0
TEXT
  5
2A35
330
25DA
100
AcDbEntity
  8
YKK_N1
100
AcDbText
 10
1404.99980937
 20
15805.99559993
 30
0.0
 40
60.0
  1
W=405
100
AcDbText
  0
CIRCLE
  5
2A36
330
25DA
100
AcDbEntity
  8
YKK_IN
  6
Continuous
100
AcDbCircle
 10
1549.99980937
 20
16144.99559999
 30
0.0
 40
25.0
  0
LINE
  5
2A37
330
25DA
100
AcDbEntity
  8
YKK_IN
  6
Continuous
100
AcDbLine
 10
1585.35514843
 20
16109.64026093
 30
0.0
 11
1514.64447031
 21
16180.35093905
 31
0.0
  0
LINE
  5
2A38
330
25DA
100
AcDbEntity
  8
YKK_IN
  6
Continuous
100
AcDbLine
 10
1585.35514843
 20
16180.35093905
 30
0.0
 11
1514.64447031
 21
16109.64026093
 31
0.0
  0
TEXT
  5
2A39
330
25DA
100
AcDbEntity
  8
YKK_A1
  6
Continuous
100
AcDbText
 10
1626.90029399
 20
16228.4450844
 30
0.0
 40
60.0
  1
F
100
AcDbText
  0
TEXT
  5
2A3A
330
25DA
100
AcDbEntity
  8
YKK_N1
100
AcDbText
 10
1950.49742055
 20
16944.8368015
 30
0.0
 40
60.0
  1
H=1830
 50
90.0
100
AcDbText
  0
LINE
  5
2A3B
330
25DA
100
AcDbEntity
  8
YKK_N1
  6
Continuous
100
AcDbLine
 10
1962.49742055
 20
18014.99999998
 30
0.0
 11
1962.49742055
 21
16184.99999998
 31
0.0
  0
LINE
  5
2A3C
330
25DA
100
AcDbEntity
  8
YKK_N1
  6
Continuous
100
AcDbLine
 10
1962.49742055
 20
16184.99999998
 30
0.0
 11
1837.49742055
 21
16184.99999998
 31
0.0
  0
LINE
  5
2A3D
330
25DA
100
AcDbEntity
  8
YKK_N1
  6
Continuous
100
AcDbLine
 10
1912.49742055
 20
16271.60254036
 30
0.0
 11
2012.49742055
 21
16271.60254036
 31
0.0
  0
LINE
  5
2A3E
330
25DA
100
AcDbEntity
  8
YKK_N1
  6
Continuous
100
AcDbLine
 10
2012.49742055
 20
16271.60254036
 30
0.0
 11
1962.49742055
 21
16184.99999998
 31
0.0
  0
LINE
  5
2A3F
330
25DA
100
AcDbEntity
  8
YKK_N1
  6
Continuous
100
AcDbLine
 10
1912.49742055
 20
16271.60254036
 30
0.0
 11
1962.49742055
 21
16184.99999998
 31
0.0
  0
LINE
  5
2A40
330
25DA
100
AcDbEntity
  8
YKK_N1
  6
Continuous
100
AcDbLine
 10
1962.49742055
 20
18014.99999998
 30
0.0
 11
1837.49742055
 21
18014.99999998
 31
0.0
  0
LINE
  5
2A41
330
25DA
100
AcDbEntity
  8
YKK_N1
  6
Continuous
100
AcDbLine
 10
1912.49742055
 20
17928.39745961
 30
0.0
 11
1962.49742055
 21
18014.99999998
 31
0.0
  0
LINE
  5
2A42
330
25DA
100
AcDbEntity
  8
YKK_N1
  6
Continuous
100
AcDbLine
 10
2012.49742055
 20
17928.39745961
 30
0.0
 11
1962.49742055
 21
18014.99999998
 31
0.0
  0
LINE
  5
2A43
330
25DA
100
AcDbEntity
  8
YKK_N1
  6
Continuous
100
AcDbLine
 10
2012.49742055
 20
17928.39745961
 30
0.0
 11
1912.49742055
 21
17928.39745961
 31
0.0
  0
LINE
  5
2A44
330
25DA
100
AcDbEntity
  8
YKK_A1
100
AcDbLine
 10
6099.99760332
 20
18025.00000005
 30
0.0
 11
6899.99760355
 21
18025.00000005
 31
0.0
  0
LINE
  5
2A45
330
25DA
100
AcDbEntity
  8
YKK_A1
100
AcDbLine
 10
6110.99760343
 20
18013.99999994
 30
0.0
 11
6888.99760344
 21
18013.99999994
 31
0.0
  0
LINE
  5
2A46
330
25DA
100
AcDbEntity
  8
YKK_A1
100
AcDbLine
 10
6139.99760341
 20
17985.12637347
 30
0.0
 11
6859.99760346
 21
17985.12637347
 31
0.0
  0
LINE
  5
2A47
330
25DA
100
AcDbEntity
  8
YKK_A1
100
AcDbLine
 10
6139.99760341
 20
16183.99559993
 30
0.0
 11
6859.99760346
 21
16183.99559993
 31
0.0
  0
LINE
  5
2A48
330
25DA
100
AcDbEntity
  8
YKK_A1
100
AcDbLine
 10
6110.99760343
 20
16154.99559993
 30
0.0
 11
6888.99760344
 21
16154.99559993
 31
0.0
  0
LINE
  5
2A49
330
25DA
100
AcDbEntity
  8
YKK_A1
100
AcDbLine
 10
6099.99760332
 20
16143.99559993
 30
0.0
 11
6899.99760355
 21
16143.99559993
 31
0.0
  0
LINE
  5
2A4A
330
25DA
100
AcDbEntity
  8
YKK_A1
100
AcDbLine
 10
6099.99760332
 20
18025.00000005
 30
0.0
 11
6099.99760332
 21
16143.99559993
 31
0.0
  0
LINE
  5
2A4B
330
25DA
100
AcDbEntity
  8
YKK_A1
100
AcDbLine
 10
6110.99760343
 20
18013.99999994
 30
0.0
 11
6110.99760343
 21
16154.99559993
 31
0.0
  0
LINE
  5
2A4C
330
25DA
100
AcDbEntity
  8
YKK_A1
100
AcDbLine
 10
6139.99760341
 20
17985.12637347
 30
0.0
 11
6139.99760341
 21
16183.99559993
 31
0.0
  0
LINE
  5
2A4D
330
25DA
100
AcDbEntity
  8
YKK_A1
100
AcDbLine
 10
6899.99760355
 20
18025.00000005
 30
0.0
 11
6899.99760355
 21
16143.99559993
 31
0.0
  0
LINE
  5
2A4E
330
25DA
100
AcDbEntity
  8
YKK_A1
100
AcDbLine
 10
6888.99760344
 20
18013.99999994
 30
0.0
 11
6888.99760344
 21
16154.99559993
 31
0.0
  0
LINE
  5
2A4F
330
25DA
100
AcDbEntity
  8
YKK_A1
100
AcDbLine
 10
6859.99760346
 20
17985.12637347
 30
0.0
 11
6859.99760346
 21
16183.99559993
 31
0.0
  0
LINE
  5
2A50
330
25DA
100
AcDbEntity
  8
YKK_N1
  6
Continuous
100
AcDbLine
 10
6109.99999237
 20
15943.99559993
 30
0.0
 11
6196.60253275
 21
15993.99559993
 31
0.0
  0
LINE
  5
2A51
330
25DA
100
AcDbEntity
  8
YKK_N1
  6
Continuous
100
AcDbLine
 10
6109.99999237
 20
15943.99559993
 30
0.0
 11
6196.60253275
 21
15893.99559993
 31
0.0
  0
LINE
  5
2A52
330
25DA
100
AcDbEntity
  8
YKK_N1
  6
Continuous
100
AcDbLine
 10
6109.99999237
 20
15943.99559993
 30
0.0
 11
6889.99999237
 21
15943.99559993
 31
0.0
  0
LINE
  5
2A53
330
25DA
100
AcDbEntity
  8
YKK_N1
  6
Continuous
100
AcDbLine
 10
6109.99999237
 20
16068.99559993
 30
0.0
 11
6109.99999237
 21
15943.99559993
 31
0.0
  0
LINE
  5
2A54
330
25DA
100
AcDbEntity
  8
YKK_N1
  6
Continuous
100
AcDbLine
 10
6889.99999237
 20
16068.99559993
 30
0.0
 11
6889.99999237
 21
15943.99559993
 31
0.0
  0
LINE
  5
2A55
330
25DA
100
AcDbEntity
  8
YKK_N1
  6
Continuous
100
AcDbLine
 10
6803.39745199
 20
15993.99559993
 30
0.0
 11
6803.39745199
 21
15893.99559993
 31
0.0
  0
LINE
  5
2A56
330
25DA
100
AcDbEntity
  8
YKK_N1
  6
Continuous
100
AcDbLine
 10
6889.99999237
 20
15943.99559993
 30
0.0
 11
6803.39745199
 21
15993.99559993
 31
0.0
  0
LINE
  5
2A57
330
25DA
100
AcDbEntity
  8
YKK_N1
  6
Continuous
100
AcDbLine
 10
6889.99999237
 20
15943.99559993
 30
0.0
 11
6803.39745199
 21
15893.99559993
 31
0.0
  0
LINE
  5
2A58
330
25DA
100
AcDbEntity
  8
YKK_N1
  6
Continuous
100
AcDbLine
 10
6196.60253275
 20
15893.99559993
 30
0.0
 11
6196.60253275
 21
15993.99559993
 31
0.0
  0
TEXT
  5
2A59
330
25DA
100
AcDbEntity
  8
YKK_N1
100
AcDbText
 10
6354.99999237
 20
15955.99559993
 30
0.0
 40
60.0
  1
W=780
100
AcDbText
  0
CIRCLE
  5
2A5A
330
25DA
100
AcDbEntity
  8
YKK_IN
  6
Continuous
100
AcDbCircle
 10
6499.99999237
 20
16144.99559999
 30
0.0
 40
25.0
  0
LINE
  5
2A5B
330
25DA
100
AcDbEntity
  8
YKK_IN
  6
Continuous
100
AcDbLine
 10
6535.35533143
 20
16109.64026093
 30
0.0
 11
6464.64465331
 21
16180.35093905
 31
0.0
  0
LINE
  5
2A5C
330
25DA
100
AcDbEntity
  8
YKK_IN
  6
Continuous
100
AcDbLine
 10
6535.35533143
 20
16180.35093905
 30
0.0
 11
6464.64465331
 21
16109.64026093
 31
0.0
  0
TEXT
  5
2A5D
330
25DA
100
AcDbEntity
  8
YKK_A1
  6
Continuous
100
AcDbText
 10
6764.40047699
 20
16228.4450844
 30
0.0
 40
60.0
  1
F
100
AcDbText
  0
TEXT
  5
2A5E
330
25DA
100
AcDbEntity
  8
YKK_N1
100
AcDbText
 10
7087.99760355
 20
16944.8368015
 30
0.0
 40
60.0
  1
H=1830
 50
90.0
100
AcDbText
  0
LINE
  5
2A5F
330
25DA
100
AcDbEntity
  8
YKK_N1
  6
Continuous
100
AcDbLine
 10
7099.99760355
 20
18014.99999998
 30
0.0
 11
7099.99760355
 21
16184.99999998
 31
0.0
  0
LINE
  5
2A60
330
25DA
100
AcDbEntity
  8
YKK_N1
  6
Continuous
100
AcDbLine
 10
7099.99760355
 20
16184.99999998
 30
0.0
 11
6974.99760355
 21
16184.99999998
 31
0.0
  0
LINE
  5
2A61
330
25DA
100
AcDbEntity
  8
YKK_N1
  6
Continuous
100
AcDbLine
 10
7049.99760355
 20
16271.60254036
 30
0.0
 11
7149.99760355
 21
16271.60254036
 31
0.0
  0
LINE
  5
2A62
330
25DA
100
AcDbEntity
  8
YKK_N1
  6
Continuous
100
AcDbLine
 10
7149.99760355
 20
16271.60254036
 30
0.0
 11
7099.99760355
 21
16184.99999998
 31
0.0
  0
LINE
  5
2A63
330
25DA
100
AcDbEntity
  8
YKK_N1
  6
Continuous
100
AcDbLine
 10
7049.99760355
 20
16271.60254036
 30
0.0
 11
7099.99760355
 21
16184.99999998
 31
0.0
  0
LINE
  5
2A64
330
25DA
100
AcDbEntity
  8
YKK_N1
  6
Continuous
100
AcDbLine
 10
7099.99760355
 20
18014.99999998
 30
0.0
 11
6974.99760355
 21
18014.99999998
 31
0.0
  0
LINE
  5
2A65
330
25DA
100
AcDbEntity
  8
YKK_N1
  6
Continuous
100
AcDbLine
 10
7049.99760355
 20
17928.39745961
 30
0.0
 11
7099.99760355
 21
18014.99999998
 31
0.0
  0
LINE
  5
2A66
330
25DA
100
AcDbEntity
  8
YKK_N1
  6
Continuous
100
AcDbLine
 10
7149.99760355
 20
17928.39745961
 30
0.0
 11
7099.99760355
 21
18014.99999998
 31
0.0
  0
LINE
  5
2A67
330
25DA
100
AcDbEntity
  8
YKK_N1
  6
Continuous
100
AcDbLine
 10
7149.99760355
 20
17928.39745961
 30
0.0
 11
7049.99760355
 21
17928.39745961
 31
0.0
  0
LINE
  5
2A68
330
25DA
100
AcDbEntity
  8
YKK_C1
100
AcDbLine
 10
9217.40196602
 20
10414.99999999
 30
0.0
 11
9217.40196602
 21
10384.99999999
 31
0.0
  0
LINE
  5
2A69
330
25DA
100
AcDbEntity
  8
YKK_C1
100
AcDbLine
 10
9232.40196602
 20
10384.99999999
 30
0.0
 11
9182.40196602
 21
10384.99999999
 31
0.0
  0
LINE
  5
2A6A
330
25DA
100
AcDbEntity
  8
YKK_C1
100
AcDbLine
 10
9190.40196602
 20
10444.99999999
 30
0.0
 11
9190.40196602
 21
10414.99999999
 31
0.0
  0
LINE
  5
2A6B
330
25DA
100
AcDbEntity
  8
YKK_C1
100
AcDbLine
 10
9190.40196602
 20
10414.99999999
 30
0.0
 11
9217.40196602
 21
10414.99999999
 31
0.0
  0
LINE
  5
2A6C
330
25DA
100
AcDbEntity
  8
YKK_C1
100
AcDbLine
 10
9125.40196602
 20
10413.99999999
 30
0.0
 11
9125.40196602
 21
10424.99999999
 31
0.0
  0
LINE
  5
2A6D
330
25DA
100
AcDbEntity
  8
YKK_C1
100
AcDbLine
 10
9125.40196602
 20
10424.99999999
 30
0.0
 11
9190.40196602
 21
10424.99999999
 31
0.0
  0
LINE
  5
2A6E
330
25DA
100
AcDbEntity
  8
YKK_C1
100
AcDbLine
 10
9142.40196602
 20
10385.00000002
 30
0.0
 11
9142.40196602
 21
10424.99999999
 31
0.0
  0
LINE
  5
2A6F
330
25DA
100
AcDbEntity
  8
YKK_C1
100
AcDbLine
 10
9125.40196602
 20
10413.99999999
 30
0.0
 11
9142.40196602
 21
10413.99999999
 31
0.0
  0
LINE
  5
2A70
330
25DA
100
AcDbEntity
  8
YKK_C1
100
AcDbLine
 10
9142.40196602
 20
10408.99999999
 30
0.0
 11
9182.40196602
 21
10408.99999999
 31
0.0
  0
LINE
  5
2A71
330
25DA
100
AcDbEntity
  8
YKK_C1
100
AcDbLine
 10
9182.40196602
 20
10408.99999999
 30
0.0
 11
9182.40196602
 21
10384.99999999
 31
0.0
  0
LINE
  5
2A72
330
25DA
100
AcDbEntity
  8
YKK_C1
100
AcDbLine
 10
9217.40196602
 20
8153.99559988
 30
0.0
 11
9217.40196602
 21
8183.99559988
 31
0.0
  0
LINE
  5
2A73
330
25DA
100
AcDbEntity
  8
YKK_C1
100
AcDbLine
 10
9232.40196602
 20
8183.99559988
 30
0.0
 11
9182.40196602
 21
8183.99559988
 31
0.0
  0
LINE
  5
2A74
330
25DA
100
AcDbEntity
  8
YKK_C1
100
AcDbLine
 10
9190.40196602
 20
8123.99559988
 30
0.0
 11
9190.40196602
 21
8153.99559988
 31
0.0
  0
LINE
  5
2A75
330
25DA
100
AcDbEntity
  8
YKK_C1
100
AcDbLine
 10
9190.40196602
 20
8153.99559988
 30
0.0
 11
9217.40196602
 21
8153.99559988
 31
0.0
  0
LINE
  5
2A76
330
25DA
100
AcDbEntity
  8
YKK_C1
100
AcDbLine
 10
9125.40196602
 20
8154.99559988
 30
0.0
 11
9125.40196602
 21
8143.99559988
 31
0.0
  0
LINE
  5
2A77
330
25DA
100
AcDbEntity
  8
YKK_C1
100
AcDbLine
 10
9125.40196602
 20
8143.99559988
 30
0.0
 11
9190.40196602
 21
8143.99559988
 31
0.0
  0
LINE
  5
2A78
330
25DA
100
AcDbEntity
  8
YKK_C1
100
AcDbLine
 10
9142.40196602
 20
8183.99559985
 30
0.0
 11
9142.40196602
 21
8143.99559988
 31
0.0
  0
LINE
  5
2A79
330
25DA
100
AcDbEntity
  8
YKK_C1
100
AcDbLine
 10
9125.40196602
 20
8154.99559988
 30
0.0
 11
9142.40196602
 21
8154.99559988
 31
0.0
  0
LINE
  5
2A7A
330
25DA
100
AcDbEntity
  8
YKK_C1
100
AcDbLine
 10
9142.40196602
 20
8159.99559988
 30
0.0
 11
9182.40196602
 21
8159.99559988
 31
0.0
  0
LINE
  5
2A7B
330
25DA
100
AcDbEntity
  8
YKK_C1
100
AcDbLine
 10
9182.40196602
 20
8159.99559988
 30
0.0
 11
9182.40196602
 21
8183.99559988
 31
0.0
  0
LINE
  5
2A7C
330
25DA
100
AcDbEntity
  8
YKK_B1
100
AcDbLine
 10
9157.40196617
 20
10397.99999998
 30
0.0
 11
9157.40196617
 21
8170.9956
 31
0.0
  0
LINE
  5
2A7D
330
25DA
100
AcDbEntity
  8
YKK_B1
100
AcDbLine
 10
9179.40196617
 20
8170.9956
 30
0.0
 11
9179.40196617
 21
10397.99999998
 31
0.0
  0
LINE
  5
2A7E
330
25DA
100
AcDbEntity
  8
YKK_B1
100
AcDbLine
 10
9125.40196602
 20
10404.0
 30
0.0
 11
9125.40196602
 21
8164.99559988
 31
0.0
  0
LINE
  5
2A7F
330
25DA
100
AcDbEntity
  8
YKK_B1
100
AcDbLine
 10
9232.39925742
 20
10374.99999999
 30
0.0
 11
9232.39925742
 21
8193.99716369
 31
0.0
  0
CIRCLE
  5
2A80
330
25DA
100
AcDbEntity
  8
YKK_IN
  6
Continuous
100
AcDbCircle
 10
9190.40191825
 20
8144.99559999
 30
0.0
 40
25.0
  0
LINE
  5
2A81
330
25DA
100
AcDbEntity
  8
YKK_IN
  6
Continuous
100
AcDbLine
 10
9225.75725731
 20
8109.64026093
 30
0.0
 11
9155.04657919
 21
8180.35093905
 31
0.0
  0
LINE
  5
2A82
330
25DA
100
AcDbEntity
  8
YKK_IN
  6
Continuous
100
AcDbLine
 10
9225.75725731
 20
8180.35093905
 30
0.0
 11
9155.04657919
 21
8109.64026093
 31
0.0
  0
LINE
  5
2A83
330
25DA
100
AcDbEntity
  8
YKK_A1
100
AcDbLine
 10
3619.99761095
 20
10425.00000005
 30
0.0
 11
4279.99761118
 21
10425.00000005
 31
0.0
  0
LINE
  5
2A84
330
25DA
100
AcDbEntity
  8
YKK_A1
100
AcDbLine
 10
3630.99761106
 20
10413.99999994
 30
0.0
 11
4268.99761107
 21
10413.99999994
 31
0.0
  0
LINE
  5
2A85
330
25DA
100
AcDbEntity
  8
YKK_A1
100
AcDbLine
 10
3659.99761104
 20
10385.12637347
 30
0.0
 11
4239.99761109
 21
10385.12637347
 31
0.0
  0
LINE
  5
2A86
330
25DA
100
AcDbEntity
  8
YKK_A1
100
AcDbLine
 10
3659.99761104
 20
8183.99559993
 30
0.0
 11
4239.99761109
 21
8183.99559993
 31
0.0
  0
LINE
  5
2A87
330
25DA
100
AcDbEntity
  8
YKK_A1
100
AcDbLine
 10
3630.99761106
 20
8154.99559993
 30
0.0
 11
4268.99761107
 21
8154.99559993
 31
0.0
  0
LINE
  5
2A88
330
25DA
100
AcDbEntity
  8
YKK_A1
100
AcDbLine
 10
3619.99761095
 20
8143.99559993
 30
0.0
 11
4279.99761118
 21
8143.99559993
 31
0.0
  0
LINE
  5
2A89
330
25DA
100
AcDbEntity
  8
YKK_A1
100
AcDbLine
 10
3619.99761095
 20
10425.00000005
 30
0.0
 11
3619.99761095
 21
8143.99559993
 31
0.0
  0
LINE
  5
2A8A
330
25DA
100
AcDbEntity
  8
YKK_A1
100
AcDbLine
 10
3630.99761106
 20
10413.99999994
 30
0.0
 11
3630.99761106
 21
8154.99559993
 31
0.0
  0
LINE
  5
2A8B
330
25DA
100
AcDbEntity
  8
YKK_A1
100
AcDbLine
 10
3659.99761104
 20
10385.12637347
 30
0.0
 11
3659.99761104
 21
8183.99559993
 31
0.0
  0
LINE
  5
2A8C
330
25DA
100
AcDbEntity
  8
YKK_A1
100
AcDbLine
 10
4279.99761118
 20
10425.00000005
 30
0.0
 11
4279.99761118
 21
8143.99559993
 31
0.0
  0
LINE
  5
2A8D
330
25DA
100
AcDbEntity
  8
YKK_A1
100
AcDbLine
 10
4268.99761107
 20
10413.99999994
 30
0.0
 11
4268.99761107
 21
8154.99559993
 31
0.0
  0
LINE
  5
2A8E
330
25DA
100
AcDbEntity
  8
YKK_A1
100
AcDbLine
 10
4239.99761109
 20
10385.12637347
 30
0.0
 11
4239.99761109
 21
8183.99559993
 31
0.0
  0
LINE
  5
2A8F
330
25DA
100
AcDbEntity
  8
YKK_N1
  6
Continuous
100
AcDbLine
 10
3630.0
 20
7943.99559993
 30
0.0
 11
3716.60254038
 21
7993.99559993
 31
0.0
  0
LINE
  5
2A90
330
25DA
100
AcDbEntity
  8
YKK_N1
  6
Continuous
100
AcDbLine
 10
3630.0
 20
7943.99559993
 30
0.0
 11
3716.60254038
 21
7893.99559993
 31
0.0
  0
LINE
  5
2A91
330
25DA
100
AcDbEntity
  8
YKK_N1
  6
Continuous
100
AcDbLine
 10
3630.0
 20
7943.99559993
 30
0.0
 11
4270.0
 21
7943.99559993
 31
0.0
  0
LINE
  5
2A92
330
25DA
100
AcDbEntity
  8
YKK_N1
  6
Continuous
100
AcDbLine
 10
3630.0
 20
8068.99559993
 30
0.0
 11
3630.0
 21
7943.99559993
 31
0.0
  0
LINE
  5
2A93
330
25DA
100
AcDbEntity
  8
YKK_N1
  6
Continuous
100
AcDbLine
 10
4270.0
 20
8068.99559993
 30
0.0
 11
4270.0
 21
7943.99559993
 31
0.0
  0
LINE
  5
2A94
330
25DA
100
AcDbEntity
  8
YKK_N1
  6
Continuous
100
AcDbLine
 10
4183.39745962
 20
7993.99559993
 30
0.0
 11
4183.39745962
 21
7893.99559993
 31
0.0
  0
LINE
  5
2A95
330
25DA
100
AcDbEntity
  8
YKK_N1
  6
Continuous
100
AcDbLine
 10
4270.0
 20
7943.99559993
 30
0.0
 11
4183.39745962
 21
7993.99559993
 31
0.0
  0
LINE
  5
2A96
330
25DA
100
AcDbEntity
  8
YKK_N1
  6
Continuous
100
AcDbLine
 10
4270.0
 20
7943.99559993
 30
0.0
 11
4183.39745962
 21
7893.99559993
 31
0.0
  0
LINE
  5
2A97
330
25DA
100
AcDbEntity
  8
YKK_N1
  6
Continuous
100
AcDbLine
 10
3716.60254038
 20
7893.99559993
 30
0.0
 11
3716.60254038
 21
7993.99559993
 31
0.0
  0
TEXT
  5
2A98
330
25DA
100
AcDbEntity
  8
YKK_N1
100
AcDbText
 10
3805.0
 20
7955.99559993
 30
0.0
 40
60.0
  1
W=640
100
AcDbText
  0
CIRCLE
  5
2A99
330
25DA
100
AcDbEntity
  8
YKK_IN
  6
Continuous
100
AcDbCircle
 10
3950.0
 20
8144.99559999
 30
0.0
 40
25.0
  0
LINE
  5
2A9A
330
25DA
100
AcDbEntity
  8
YKK_IN
  6
Continuous
100
AcDbLine
 10
3985.35533906
 20
8109.64026093
 30
0.0
 11
3914.64466094
 21
8180.35093905
 31
0.0
  0
LINE
  5
2A9B
330
25DA
100
AcDbEntity
  8
YKK_IN
  6
Continuous
100
AcDbLine
 10
3985.35533906
 20
8180.35093905
 30
0.0
 11
3914.64466094
 21
8109.64026093
 31
0.0
  0
TEXT
  5
2A9C
330
25DA
100
AcDbEntity
  8
YKK_A1
  6
Continuous
100
AcDbText
 10
4144.40048462
 20
8228.4450844
 30
0.0
 40
60.0
  1
F
100
AcDbText
  0
TEXT
  5
2A9D
330
25DA
100
AcDbEntity
  8
YKK_N1
100
AcDbText
 10
4467.99761118
 20
9144.8368015
 30
0.0
 40
60.0
  1
H=2230
 50
90.0
100
AcDbText
  0
LINE
  5
2A9E
330
25DA
100
AcDbEntity
  8
YKK_N1
  6
Continuous
100
AcDbLine
 10
4479.99761118
 20
10414.99999998
 30
0.0
 11
4479.99761118
 21
8184.99999998
 31
0.0
  0
LINE
  5
2A9F
330
25DA
100
AcDbEntity
  8
YKK_N1
  6
Continuous
100
AcDbLine
 10
4479.99761118
 20
8184.99999998
 30
0.0
 11
4354.99761118
 21
8184.99999998
 31
0.0
  0
LINE
  5
2AA0
330
25DA
100
AcDbEntity
  8
YKK_N1
  6
Continuous
100
AcDbLine
 10
4429.99761118
 20
8271.60254036
 30
0.0
 11
4529.99761118
 21
8271.60254036
 31
0.0
  0
LINE
  5
2AA1
330
25DA
100
AcDbEntity
  8
YKK_N1
  6
Continuous
100
AcDbLine
 10
4529.99761118
 20
8271.60254036
 30
0.0
 11
4479.99761118
 21
8184.99999998
 31
0.0
  0
LINE
  5
2AA2
330
25DA
100
AcDbEntity
  8
YKK_N1
  6
Continuous
100
AcDbLine
 10
4429.99761118
 20
8271.60254036
 30
0.0
 11
4479.99761118
 21
8184.99999998
 31
0.0
  0
LINE
  5
2AA3
330
25DA
100
AcDbEntity
  8
YKK_N1
  6
Continuous
100
AcDbLine
 10
4479.99761118
 20
10414.99999998
 30
0.0
 11
4354.99761118
 21
10414.99999998
 31
0.0
  0
LINE
  5
2AA4
330
25DA
100
AcDbEntity
  8
YKK_N1
  6
Continuous
100
AcDbLine
 10
4429.99761118
 20
10328.39745961
 30
0.0
 11
4479.99761118
 21
10414.99999998
 31
0.0
  0
LINE
  5
2AA5
330
25DA
100
AcDbEntity
  8
YKK_N1
  6
Continuous
100
AcDbLine
 10
4529.99761118
 20
10328.39745961
 30
0.0
 11
4479.99761118
 21
10414.99999998
 31
0.0
  0
LINE
  5
2AA6
330
25DA
100
AcDbEntity
  8
YKK_N1
  6
Continuous
100
AcDbLine
 10
4529.99761118
 20
10328.39745961
 30
0.0
 11
4429.99761118
 21
10328.39745961
 31
0.0
  0
TEXT
  5
2AA7
330
25DA
100
AcDbEntity
  8
YKK_N1
  6
Continuous
100
AcDbText
 10
9695.40196602
 20
9144.8368015
 30
0.0
 40
60.0
  1
H=2230
 50
90.0
100
AcDbText
  0
LINE
  5
2AA8
330
25DA
100
AcDbEntity
  8
YKK_N1
  6
Continuous
100
AcDbLine
 10
9707.40196602
 20
10414.99999998
 30
0.0
 11
9707.40196602
 21
8184.99999998
 31
0.0
  0
LINE
  5
2AA9
330
25DA
100
AcDbEntity
  8
YKK_N1
  6
Continuous
100
AcDbLine
 10
9382.40196602
 20
8184.99999998
 30
0.0
 11
9707.40196602
 21
8184.99999998
 31
0.0
  0
LINE
  5
2AAA
330
25DA
100
AcDbEntity
  8
YKK_N1
  6
Continuous
100
AcDbLine
 10
9382.40196602
 20
8144.99999998
 30
0.0
 11
9707.40196602
 21
8144.99999998
 31
0.0
  0
TEXT
  5
2AAB
330
25DA
100
AcDbEntity
  8
YKK_N1
  6
Continuous
100
AcDbText
 10
9157.29052041
 20
7779.04208814
 30
0.0
 40
60.0
  1
27
100
AcDbText
  0
LINE
  5
2AAC
330
25DA
100
AcDbEntity
  8
YKK_N1
  6
Continuous
100
AcDbLine
 10
9125.40196616
 20
7848.99559988
 30
0.0
 11
9190.40196616
 21
7848.99559988
 31
0.0
  0
LINE
  5
2AAD
330
25DA
100
AcDbEntity
  8
YKK_N1
  6
Continuous
100
AcDbLine
 10
9125.40196616
 20
7973.99559988
 30
0.0
 11
9125.40196616
 21
7848.99559988
 31
0.0
  0
CIRCLE
  5
2AAE
330
25DA
100
AcDbEntity
  8
YKK_N1
  6
Continuous
100
AcDbCircle
 10
9125.40196616
 20
7848.99559988
 30
0.0
 40
5.0
  0
LINE
  5
2AAF
330
25DA
100
AcDbEntity
  8
YKK_N1
100
AcDbLine
 10
9217.40196616
 20
7848.99559988
 30
0.0
 11
9232.40196616
 21
7848.99559988
 31
0.0
  0
CIRCLE
  5
2AB0
330
25DA
100
AcDbEntity
  8
YKK_N1
  6
Continuous
100
AcDbCircle
 10
9217.40196616
 20
7848.99559988
 30
0.0
 40
5.0
  0
LINE
  5
2AB1
330
25DA
100
AcDbEntity
  8
YKK_N1
  6
Continuous
100
AcDbLine
 10
9190.40196616
 20
7848.99559988
 30
0.0
 11
9217.40196616
 21
7848.99559988
 31
0.0
  0
CIRCLE
  5
2AB2
330
25DA
100
AcDbEntity
  8
YKK_N1
  6
Continuous
100
AcDbCircle
 10
9190.40196616
 20
7848.99559988
 30
0.0
 40
5.0
  0
LINE
  5
2AB3
330
25DA
100
AcDbEntity
  8
YKK_N1
  6
Continuous
100
AcDbLine
 10
9190.40196616
 20
7973.99559988
 30
0.0
 11
9190.40196616
 21
7848.99559988
 31
0.0
  0
LINE
  5
2AB4
330
25DA
100
AcDbEntity
  8
YKK_N1
  6
Continuous
100
AcDbLine
 10
9217.40196616
 20
7973.99559988
 30
0.0
 11
9217.40196616
 21
7848.99559988
 31
0.0
  0
TEXT
  5
2AB5
330
25DA
100
AcDbEntity
  8
YKK_N1
  6
Continuous
100
AcDbText
 10
9259.107635
 20
7860.99559988
 30
0.0
 40
60.0
  1
15
100
AcDbText
  0
CIRCLE
  5
2AB6
330
25DA
100
AcDbEntity
  8
YKK_N1
  6
Continuous
100
AcDbCircle
 10
9232.40196616
 20
7848.99559988
 30
0.0
 40
5.0
  0
LINE
  5
2AB7
330
25DA
100
AcDbEntity
  8
YKK_N1
  6
Continuous
100
AcDbLine
 10
9232.40196616
 20
7973.99559988
 30
0.0
 11
9232.40196616
 21
7848.99559988
 31
0.0
  0
TEXT
  5
2AB8
330
25DA
100
AcDbEntity
  8
YKK_N1
  6
Continuous
100
AcDbText
 10
9015.40890851
 20
7860.99559988
 30
0.0
 40
60.0
  1
65
100
AcDbText
  0
TEXT
  5
2AB9
330
25DA
100
AcDbEntity
  8
YKK_N1
  6
Continuous
100
AcDbText
 10
9790.70860987
 20
8121.28595588
 30
0.0
 40
60.0
  1
40
 50
90.0
100
AcDbText
  0
CIRCLE
  5
2ABA
330
25DA
100
AcDbEntity
  8
YKK_N1
  6
Continuous
100
AcDbCircle
 10
9707.40196602
 20
8144.99999998
 30
0.0
 40
5.0
  0
TEXT
  5
2ABB
330
25DA
100
AcDbEntity
  8
YKK_N1
  6
Continuous
100
AcDbText
 10
9695.40196602
 20
8021.99999998
 30
0.0
 40
60.0
  1
21
 50
90.0
100
AcDbText
  0
LINE
  5
2ABC
330
25DA
100
AcDbEntity
  8
YKK_N1
  6
Continuous
100
AcDbLine
 10
9707.40196602
 20
8184.99999998
 30
0.0
 11
9707.40196602
 21
8144.99999998
 31
0.0
  0
LINE
  5
2ABD
330
25DA
100
AcDbEntity
  8
YKK_N1
  6
Continuous
100
AcDbLine
 10
9657.40196602
 20
8271.60254036
 30
0.0
 11
9707.40196602
 21
8184.99999998
 31
0.0
  0
LINE
  5
2ABE
330
25DA
100
AcDbEntity
  8
YKK_N1
  6
Continuous
100
AcDbLine
 10
9757.40196602
 20
8271.60254036
 30
0.0
 11
9657.40196602
 21
8271.60254036
 31
0.0
  0
LINE
  5
2ABF
330
25DA
100
AcDbEntity
  8
YKK_N1
  6
Continuous
100
AcDbLine
 10
9757.40196602
 20
8271.60254036
 30
0.0
 11
9707.40196602
 21
8184.99999998
 31
0.0
  0
LINE
  5
2AC0
330
25DA
100
AcDbEntity
  8
YKK_N1
  6
Continuous
100
AcDbLine
 10
9382.40196602
 20
10444.99999998
 30
0.0
 11
9707.40196602
 21
10444.99999998
 31
0.0
  0
LINE
  5
2AC1
330
25DA
100
AcDbEntity
  8
YKK_N1
  6
Continuous
100
AcDbLine
 10
9382.40196602
 20
10414.99999998
 30
0.0
 11
9707.40196602
 21
10414.99999998
 31
0.0
  0
LINE
  5
2AC2
330
25DA
100
AcDbEntity
  8
YKK_N1
  6
Continuous
100
AcDbLine
 10
9382.40196602
 20
10384.99999998
 30
0.0
 11
9507.40196602
 21
10384.99999998
 31
0.0
  0
CIRCLE
  5
2AC3
330
25DA
100
AcDbEntity
  8
YKK_N1
  6
Continuous
100
AcDbCircle
 10
9707.40196602
 20
10444.99999998
 30
0.0
 40
5.0
  0
TEXT
  5
2AC4
330
25DA
100
AcDbEntity
  8
YKK_N1
  6
Continuous
100
AcDbText
 10
9495.40196602
 20
10270.99999998
 30
0.0
 40
60.0
  1
30
 50
90.0
100
AcDbText
  0
LINE
  5
2AC5
330
25DA
100
AcDbEntity
  8
YKK_N1
  6
Continuous
100
AcDbLine
 10
9507.40196602
 20
10414.99999998
 30
0.0
 11
9507.40196602
 21
10384.99999998
 31
0.0
  0
CIRCLE
  5
2AC6
330
25DA
100
AcDbEntity
  8
YKK_N1
  6
Continuous
100
AcDbCircle
 10
9507.40196602
 20
10384.99999998
 30
0.0
 40
5.0
  0
CIRCLE
  5
2AC7
330
25DA
100
AcDbEntity
  8
YKK_N1
  6
Continuous
100
AcDbCircle
 10
9507.40196602
 20
10415.00006498
 30
0.0
 40
5.0
  0
LINE
  5
2AC8
330
25DA
100
AcDbEntity
  8
YKK_N1
  6
Continuous
100
AcDbLine
 10
9707.40196602
 20
10444.99999998
 30
0.0
 11
9707.40196602
 21
10414.99999998
 31
0.0
  0
LINE
  5
2AC9
330
25DA
100
AcDbEntity
  8
YKK_N1
  6
Continuous
100
AcDbLine
 10
9657.40196602
 20
10328.39745961
 30
0.0
 11
9707.40196602
 21
10414.99999998
 31
0.0
  0
LINE
  5
2ACA
330
25DA
100
AcDbEntity
  8
YKK_N1
  6
Continuous
100
AcDbLine
 10
9657.40196602
 20
10328.39745961
 30
0.0
 11
9757.40196602
 21
10328.39745961
 31
0.0
  0
LINE
  5
2ACB
330
25DA
100
AcDbEntity
  8
YKK_N1
  6
Continuous
100
AcDbLine
 10
9757.40196602
 20
10328.39745961
 30
0.0
 11
9707.40196602
 21
10414.99999998
 31
0.0
  0
TEXT
  5
2ACC
330
25DA
100
AcDbEntity
  8
YKK_N1
  6
Continuous
100
AcDbText
 10
9695.40196602
 20
10458.99999998
 30
0.0
 40
60.0
  1
30
 50
90.0
100
AcDbText
  0
LINE
  5
2ACD
330
25DA
100
AcDbEntity
  8
YKK_N1
  6
Continuous
100
AcDbLine
 10
9382.40196602
 20
8123.99999998
 30
0.0
 11
9707.40196602
 21
8123.99999998
 31
0.0
  0
CIRCLE
  5
2ACE
330
25DA
100
AcDbEntity
  8
YKK_N1
  6
Continuous
100
AcDbCircle
 10
9707.40196602
 20
8123.99999998
 30
0.0
 40
5.0
  0
LINE
  5
2ACF
330
25DA
100
AcDbEntity
  8
YKK_N1
100
AcDbLine
 10
9707.40196602
 20
8144.99999998
 30
0.0
 11
9707.40196602
 21
8123.99999998
 31
0.0
  0
LINE
  5
2AD0
330
25DA
100
AcDbEntity
  8
YKK_A1
100
AcDbLine
 10
1337.49742032
 20
10425.00000005
 30
0.0
 11
1762.49742055
 21
10425.00000005
 31
0.0
  0
LINE
  5
2AD1
330
25DA
100
AcDbEntity
  8
YKK_A1
100
AcDbLine
 10
1348.49742043
 20
10413.99999994
 30
0.0
 11
1751.49742044
 21
10413.99999994
 31
0.0
  0
LINE
  5
2AD2
330
25DA
100
AcDbEntity
  8
YKK_A1
100
AcDbLine
 10
1377.49742041
 20
10385.12637347
 30
0.0
 11
1722.49742046
 21
10385.12637347
 31
0.0
  0
LINE
  5
2AD3
330
25DA
100
AcDbEntity
  8
YKK_A1
100
AcDbLine
 10
1377.49742041
 20
8183.99559993
 30
0.0
 11
1722.49742046
 21
8183.99559993
 31
0.0
  0
LINE
  5
2AD4
330
25DA
100
AcDbEntity
  8
YKK_A1
100
AcDbLine
 10
1348.49742043
 20
8154.99559993
 30
0.0
 11
1751.49742044
 21
8154.99559993
 31
0.0
  0
LINE
  5
2AD5
330
25DA
100
AcDbEntity
  8
YKK_A1
100
AcDbLine
 10
1337.49742032
 20
8143.99559993
 30
0.0
 11
1762.49742055
 21
8143.99559993
 31
0.0
  0
LINE
  5
2AD6
330
25DA
100
AcDbEntity
  8
YKK_A1
100
AcDbLine
 10
1337.49742032
 20
10425.00000005
 30
0.0
 11
1337.49742032
 21
8143.99559993
 31
0.0
  0
LINE
  5
2AD7
330
25DA
100
AcDbEntity
  8
YKK_A1
100
AcDbLine
 10
1348.49742043
 20
10413.99999994
 30
0.0
 11
1348.49742043
 21
8154.99559993
 31
0.0
  0
LINE
  5
2AD8
330
25DA
100
AcDbEntity
  8
YKK_A1
100
AcDbLine
 10
1377.49742041
 20
10385.12637347
 30
0.0
 11
1377.49742041
 21
8183.99559993
 31
0.0
  0
LINE
  5
2AD9
330
25DA
100
AcDbEntity
  8
YKK_A1
100
AcDbLine
 10
1762.49742055
 20
10425.00000005
 30
0.0
 11
1762.49742055
 21
8143.99559993
 31
0.0
  0
LINE
  5
2ADA
330
25DA
100
AcDbEntity
  8
YKK_A1
100
AcDbLine
 10
1751.49742044
 20
10413.99999994
 30
0.0
 11
1751.49742044
 21
8154.99559993
 31
0.0
  0
LINE
  5
2ADB
330
25DA
100
AcDbEntity
  8
YKK_A1
100
AcDbLine
 10
1722.49742046
 20
10385.12637347
 30
0.0
 11
1722.49742046
 21
8183.99559993
 31
0.0
  0
LINE
  5
2ADC
330
25DA
100
AcDbEntity
  8
YKK_N1
  6
Continuous
100
AcDbLine
 10
1347.49980937
 20
7943.99559993
 30
0.0
 11
1434.10234975
 21
7993.99559993
 31
0.0
  0
LINE
  5
2ADD
330
25DA
100
AcDbEntity
  8
YKK_N1
  6
Continuous
100
AcDbLine
 10
1347.49980937
 20
7943.99559993
 30
0.0
 11
1434.10234975
 21
7893.99559993
 31
0.0
  0
LINE
  5
2ADE
330
25DA
100
AcDbEntity
  8
YKK_N1
  6
Continuous
100
AcDbLine
 10
1347.49980937
 20
7943.99559993
 30
0.0
 11
1752.49980937
 21
7943.99559993
 31
0.0
  0
LINE
  5
2ADF
330
25DA
100
AcDbEntity
  8
YKK_N1
  6
Continuous
100
AcDbLine
 10
1347.49980937
 20
8068.99559993
 30
0.0
 11
1347.49980937
 21
7943.99559993
 31
0.0
  0
LINE
  5
2AE0
330
25DA
100
AcDbEntity
  8
YKK_N1
  6
Continuous
100
AcDbLine
 10
1752.49980937
 20
8068.99559993
 30
0.0
 11
1752.49980937
 21
7943.99559993
 31
0.0
  0
LINE
  5
2AE1
330
25DA
100
AcDbEntity
  8
YKK_N1
  6
Continuous
100
AcDbLine
 10
1665.89726899
 20
7993.99559993
 30
0.0
 11
1665.89726899
 21
7893.99559993
 31
0.0
  0
LINE
  5
2AE2
330
25DA
100
AcDbEntity
  8
YKK_N1
  6
Continuous
100
AcDbLine
 10
1752.49980937
 20
7943.99559993
 30
0.0
 11
1665.89726899
 21
7993.99559993
 31
0.0
  0
LINE
  5
2AE3
330
25DA
100
AcDbEntity
  8
YKK_N1
  6
Continuous
100
AcDbLine
 10
1752.49980937
 20
7943.99559993
 30
0.0
 11
1665.89726899
 21
7893.99559993
 31
0.0
  0
LINE
  5
2AE4
330
25DA
100
AcDbEntity
  8
YKK_N1
  6
Continuous
100
AcDbLine
 10
1434.10234975
 20
7893.99559993
 30
0.0
 11
1434.10234975
 21
7993.99559993
 31
0.0
  0
TEXT
  5
2AE5
330
25DA
100
AcDbEntity
  8
YKK_N1
100
AcDbText
 10
1404.99980937
 20
7805.99559993
 30
0.0
 40
60.0
  1
W=405
100
AcDbText
  0
CIRCLE
  5
2AE6
330
25DA
100
AcDbEntity
  8
YKK_IN
  6
Continuous
100
AcDbCircle
 10
1549.99980937
 20
8144.99559999
 30
0.0
 40
25.0
  0
LINE
  5
2AE7
330
25DA
100
AcDbEntity
  8
YKK_IN
  6
Continuous
100
AcDbLine
 10
1585.35514843
 20
8109.64026093
 30
0.0
 11
1514.64447031
 21
8180.35093905
 31
0.0
  0
LINE
  5
2AE8
330
25DA
100
AcDbEntity
  8
YKK_IN
  6
Continuous
100
AcDbLine
 10
1585.35514843
 20
8180.35093905
 30
0.0
 11
1514.64447031
 21
8109.64026093
 31
0.0
  0
TEXT
  5
2AE9
330
25DA
100
AcDbEntity
  8
YKK_A1
  6
Continuous
100
AcDbText
 10
1626.90029399
 20
8228.4450844
 30
0.0
 40
60.0
  1
F
100
AcDbText
  0
TEXT
  5
2AEA
330
25DA
100
AcDbEntity
  8
YKK_N1
100
AcDbText
 10
1950.49742055
 20
9144.8368015
 30
0.0
 40
60.0
  1
H=2230
 50
90.0
100
AcDbText
  0
LINE
  5
2AEB
330
25DA
100
AcDbEntity
  8
YKK_N1
  6
Continuous
100
AcDbLine
 10
1962.49742055
 20
10414.99999998
 30
0.0
 11
1962.49742055
 21
8184.99999998
 31
0.0
  0
LINE
  5
2AEC
330
25DA
100
AcDbEntity
  8
YKK_N1
  6
Continuous
100
AcDbLine
 10
1962.49742055
 20
8184.99999998
 30
0.0
 11
1837.49742055
 21
8184.99999998
 31
0.0
  0
LINE
  5
2AED
330
25DA
100
AcDbEntity
  8
YKK_N1
  6
Continuous
100
AcDbLine
 10
1912.49742055
 20
8271.60254036
 30
0.0
 11
2012.49742055
 21
8271.60254036
 31
0.0
  0
LINE
  5
2AEE
330
25DA
100
AcDbEntity
  8
YKK_N1
  6
Continuous
100
AcDbLine
 10
2012.49742055
 20
8271.60254036
 30
0.0
 11
1962.49742055
 21
8184.99999998
 31
0.0
  0
LINE
  5
2AEF
330
25DA
100
AcDbEntity
  8
YKK_N1
  6
Continuous
100
AcDbLine
 10
1912.49742055
 20
8271.60254036
 30
0.0
 11
1962.49742055
 21
8184.99999998
 31
0.0
  0
LINE
  5
2AF0
330
25DA
100
AcDbEntity
  8
YKK_N1
  6
Continuous
100
AcDbLine
 10
1962.49742055
 20
10414.99999998
 30
0.0
 11
1837.49742055
 21
10414.99999998
 31
0.0
  0
LINE
  5
2AF1
330
25DA
100
AcDbEntity
  8
YKK_N1
  6
Continuous
100
AcDbLine
 10
1912.49742055
 20
10328.39745961
 30
0.0
 11
1962.49742055
 21
10414.99999998
 31
0.0
  0
LINE
  5
2AF2
330
25DA
100
AcDbEntity
  8
YKK_N1
  6
Continuous
100
AcDbLine
 10
2012.49742055
 20
10328.39745961
 30
0.0
 11
1962.49742055
 21
10414.99999998
 31
0.0
  0
LINE
  5
2AF3
330
25DA
100
AcDbEntity
  8
YKK_N1
  6
Continuous
100
AcDbLine
 10
2012.49742055
 20
10328.39745961
 30
0.0
 11
1912.49742055
 21
10328.39745961
 31
0.0
  0
LINE
  5
2AF4
330
25DA
100
AcDbEntity
  8
YKK_A1
100
AcDbLine
 10
6099.99760332
 20
10425.00000005
 30
0.0
 11
6899.99760355
 21
10425.00000005
 31
0.0
  0
LINE
  5
2AF5
330
25DA
100
AcDbEntity
  8
YKK_A1
100
AcDbLine
 10
6110.99760343
 20
10413.99999994
 30
0.0
 11
6888.99760344
 21
10413.99999994
 31
0.0
  0
LINE
  5
2AF6
330
25DA
100
AcDbEntity
  8
YKK_A1
100
AcDbLine
 10
6139.99760341
 20
10385.12637347
 30
0.0
 11
6859.99760346
 21
10385.12637347
 31
0.0
  0
LINE
  5
2AF7
330
25DA
100
AcDbEntity
  8
YKK_A1
100
AcDbLine
 10
6139.99760341
 20
8183.99559993
 30
0.0
 11
6859.99760346
 21
8183.99559993
 31
0.0
  0
LINE
  5
2AF8
330
25DA
100
AcDbEntity
  8
YKK_A1
100
AcDbLine
 10
6110.99760343
 20
8154.99559993
 30
0.0
 11
6888.99760344
 21
8154.99559993
 31
0.0
  0
LINE
  5
2AF9
330
25DA
100
AcDbEntity
  8
YKK_A1
100
AcDbLine
 10
6099.99760332
 20
8143.99559993
 30
0.0
 11
6899.99760355
 21
8143.99559993
 31
0.0
  0
LINE
  5
2AFA
330
25DA
100
AcDbEntity
  8
YKK_A1
100
AcDbLine
 10
6099.99760332
 20
10425.00000005
 30
0.0
 11
6099.99760332
 21
8143.99559993
 31
0.0
  0
LINE
  5
2AFB
330
25DA
100
AcDbEntity
  8
YKK_A1
100
AcDbLine
 10
6110.99760343
 20
10413.99999994
 30
0.0
 11
6110.99760343
 21
8154.99559993
 31
0.0
  0
LINE
  5
2AFC
330
25DA
100
AcDbEntity
  8
YKK_A1
100
AcDbLine
 10
6139.99760341
 20
10385.12637347
 30
0.0
 11
6139.99760341
 21
8183.99559993
 31
0.0
  0
LINE
  5
2AFD
330
25DA
100
AcDbEntity
  8
YKK_A1
100
AcDbLine
 10
6899.99760355
 20
10425.00000005
 30
0.0
 11
6899.99760355
 21
8143.99559993
 31
0.0
  0
LINE
  5
2AFE
330
25DA
100
AcDbEntity
  8
YKK_A1
100
AcDbLine
 10
6888.99760344
 20
10413.99999994
 30
0.0
 11
6888.99760344
 21
8154.99559993
 31
0.0
  0
LINE
  5
2AFF
330
25DA
100
AcDbEntity
  8
YKK_A1
100
AcDbLine
 10
6859.99760346
 20
10385.12637347
 30
0.0
 11
6859.99760346
 21
8183.99559993
 31
0.0
  0
LINE
  5
2B00
330
25DA
100
AcDbEntity
  8
YKK_N1
  6
Continuous
100
AcDbLine
 10
6109.99999237
 20
7943.99559993
 30
0.0
 11
6196.60253275
 21
7993.99559993
 31
0.0
  0
LINE
  5
2B01
330
25DA
100
AcDbEntity
  8
YKK_N1
  6
Continuous
100
AcDbLine
 10
6109.99999237
 20
7943.99559993
 30
0.0
 11
6196.60253275
 21
7893.99559993
 31
0.0
  0
LINE
  5
2B02
330
25DA
100
AcDbEntity
  8
YKK_N1
  6
Continuous
100
AcDbLine
 10
6109.99999237
 20
7943.99559993
 30
0.0
 11
6889.99999237
 21
7943.99559993
 31
0.0
  0
LINE
  5
2B03
330
25DA
100
AcDbEntity
  8
YKK_N1
  6
Continuous
100
AcDbLine
 10
6109.99999237
 20
8068.99559993
 30
0.0
 11
6109.99999237
 21
7943.99559993
 31
0.0
  0
LINE
  5
2B04
330
25DA
100
AcDbEntity
  8
YKK_N1
  6
Continuous
100
AcDbLine
 10
6889.99999237
 20
8068.99559993
 30
0.0
 11
6889.99999237
 21
7943.99559993
 31
0.0
  0
LINE
  5
2B05
330
25DA
100
AcDbEntity
  8
YKK_N1
  6
Continuous
100
AcDbLine
 10
6803.39745199
 20
7993.99559993
 30
0.0
 11
6803.39745199
 21
7893.99559993
 31
0.0
  0
LINE
  5
2B06
330
25DA
100
AcDbEntity
  8
YKK_N1
  6
Continuous
100
AcDbLine
 10
6889.99999237
 20
7943.99559993
 30
0.0
 11
6803.39745199
 21
7993.99559993
 31
0.0
  0
LINE
  5
2B07
330
25DA
100
AcDbEntity
  8
YKK_N1
  6
Continuous
100
AcDbLine
 10
6889.99999237
 20
7943.99559993
 30
0.0
 11
6803.39745199
 21
7893.99559993
 31
0.0
  0
LINE
  5
2B08
330
25DA
100
AcDbEntity
  8
YKK_N1
  6
Continuous
100
AcDbLine
 10
6196.60253275
 20
7893.99559993
 30
0.0
 11
6196.60253275
 21
7993.99559993
 31
0.0
  0
TEXT
  5
2B09
330
25DA
100
AcDbEntity
  8
YKK_N1
100
AcDbText
 10
6354.99999237
 20
7955.99559993
 30
0.0
 40
60.0
  1
W=780
100
AcDbText
  0
CIRCLE
  5
2B0A
330
25DA
100
AcDbEntity
  8
YKK_IN
  6
Continuous
100
AcDbCircle
 10
6499.99999237
 20
8144.99559999
 30
0.0
 40
25.0
  0
LINE
  5
2B0B
330
25DA
100
AcDbEntity
  8
YKK_IN
  6
Continuous
100
AcDbLine
 10
6535.35533143
 20
8109.64026093
 30
0.0
 11
6464.64465331
 21
8180.35093905
 31
0.0
  0
LINE
  5
2B0C
330
25DA
100
AcDbEntity
  8
YKK_IN
  6
Continuous
100
AcDbLine
 10
6535.35533143
 20
8180.35093905
 30
0.0
 11
6464.64465331
 21
8109.64026093
 31
0.0
  0
TEXT
  5
2B0D
330
25DA
100
AcDbEntity
  8
YKK_A1
  6
Continuous
100
AcDbText
 10
6764.40047699
 20
8228.4450844
 30
0.0
 40
60.0
  1
F
100
AcDbText
  0
TEXT
  5
2B0E
330
25DA
100
AcDbEntity
  8
YKK_N1
100
AcDbText
 10
7087.99760355
 20
9144.8368015
 30
0.0
 40
60.0
  1
H=2230
 50
90.0
100
AcDbText
  0
LINE
  5
2B0F
330
25DA
100
AcDbEntity
  8
YKK_N1
  6
Continuous
100
AcDbLine
 10
7099.99760355
 20
10414.99999998
 30
0.0
 11
7099.99760355
 21
8184.99999998
 31
0.0
  0
LINE
  5
2B10
330
25DA
100
AcDbEntity
  8
YKK_N1
  6
Continuous
100
AcDbLine
 10
7099.99760355
 20
8184.99999998
 30
0.0
 11
6974.99760355
 21
8184.99999998
 31
0.0
  0
LINE
  5
2B11
330
25DA
100
AcDbEntity
  8
YKK_N1
  6
Continuous
100
AcDbLine
 10
7049.99760355
 20
8271.60254036
 30
0.0
 11
7149.99760355
 21
8271.60254036
 31
0.0
  0
LINE
  5
2B12
330
25DA
100
AcDbEntity
  8
YKK_N1
  6
Continuous
100
AcDbLine
 10
7149.99760355
 20
8271.60254036
 30
0.0
 11
7099.99760355
 21
8184.99999998
 31
0.0
  0
LINE
  5
2B13
330
25DA
100
AcDbEntity
  8
YKK_N1
  6
Continuous
100
AcDbLine
 10
7049.99760355
 20
8271.60254036
 30
0.0
 11
7099.99760355
 21
8184.99999998
 31
0.0
  0
LINE
  5
2B14
330
25DA
100
AcDbEntity
  8
YKK_N1
  6
Continuous
100
AcDbLine
 10
7099.99760355
 20
10414.99999998
 30
0.0
 11
6974.99760355
 21
10414.99999998
 31
0.0
  0
LINE
  5
2B15
330
25DA
100
AcDbEntity
  8
YKK_N1
  6
Continuous
100
AcDbLine
 10
7049.99760355
 20
10328.39745961
 30
0.0
 11
7099.99760355
 21
10414.99999998
 31
0.0
  0
LINE
  5
2B16
330
25DA
100
AcDbEntity
  8
YKK_N1
  6
Continuous
100
AcDbLine
 10
7149.99760355
 20
10328.39745961
 30
0.0
 11
7099.99760355
 21
10414.99999998
 31
0.0
  0
LINE
  5
2B17
330
25DA
100
AcDbEntity
  8
YKK_N1
  6
Continuous
100
AcDbLine
 10
7149.99760355
 20
10328.39745961
 30
0.0
 11
7049.99760355
 21
10328.39745961
 31
0.0
  0
ENDSEC
  0
SECTION
  2
OBJECTS
  0
DICTIONARY
  5
2577
330
0
100
AcDbDictionary
281
     1
  3
ACAD_CIP_PREVIOUS_PRODUCT_INFO
350
2645
  3
ACAD_COLOR
350
25CD
  3
ACAD_DETAILVIEWSTYLE
350
25D4
  3
ACAD_GROUP
350
2578
  3
ACAD_LAYOUT
350
25CC
  3
ACAD_MATERIAL
350
257B
  3
ACAD_MLEADERSTYLE
350
25D0
  3
ACAD_MLINESTYLE
350
25C9
  3
ACAD_PLOTSETTINGS
350
25CB
  3
ACAD_PLOTSTYLENAME
350
2579
  3
ACAD_RENDER_ACTIVE_RAPIDRT_SETTINGS
350
26E5
  3
ACAD_RENDER_ACTIVE_SETTINGS
350
2BC2
  3
ACAD_SCALELIST
350
25AD
  3
ACAD_SECTIONVIEWSTYLE
350
25D2
  3
ACAD_TABLESTYLE
350
25CE
  3
ACAD_VISUALSTYLE
350
2594
  3
ACDB_RECOMPOSE_DATA
350
2BCE
  3
AcDbVariableDictionary
350
2634
  0
DICTIONARY
  5
2698
330
2573
100
AcDbDictionary
280
     1
281
     1
  0
DICTIONARY
  5
2688
330
256D
100
AcDbDictionary
280
     1
281
     1
  3
ACAD_LAYERSTATES
360
2689
  0
XRECORD
  5
2645
102
{ACAD_REACTORS
330
2577
102
}
330
2577
100
AcDbXrecord
280
     1
300
ACD
300
2018
300
86830ACD_2018_0F
  0
DICTIONARY
  5
25CD
102
{ACAD_REACTORS
330
2577
102
}
330
2577
100
AcDbDictionary
281
     1
  0
DICTIONARY
  5
25D4
102
{ACAD_REACTORS
330
2577
102
}
330
2577
100
AcDbDictionary
281
     1
  3
Imperial24
350
25D5
  3
Metric50
350
26D8
  0
DICTIONARY
  5
2578
102
{ACAD_REACTORS
330
2577
102
}
330
2577
100
AcDbDictionary
281
     1
  0
DICTIONARY
  5
25CC
102
{ACAD_REACTORS
330
2577
102
}
330
2577
100
AcDbDictionary
281
     1
  3
Model
350
25DD
  3
レイアウト1
350
25D9
  0
DICTIONARY
  5
257B
102
{ACAD_REACTORS
330
2577
102
}
330
2577
100
AcDbDictionary
281
     1
  3
ByBlock
350
2584
  3
ByLayer
350
257C
  3
Global
350
258C
  0
DICTIONARY
  5
25D0
102
{ACAD_REACTORS
330
2577
102
}
330
2577
100
AcDbDictionary
281
     1
  3
Standard
350
25D1
  0
DICTIONARY
  5
25C9
102
{ACAD_REACTORS
330
2577
102
}
330
2577
100
AcDbDictionary
281
     1
  3
Standard
350
25CA
  0
DICTIONARY
  5
25CB
102
{ACAD_REACTORS
330
2577
102
}
330
2577
100
AcDbDictionary
281
     1
  0
ACDBDICTIONARYWDFLT
  5
2579
102
{ACAD_REACTORS
330
2577
102
}
330
2577
100
AcDbDictionary
281
     1
  3
Normal
350
257A
100
AcDbDictionaryWithDefault
340
257A
  0
RAPIDRTRENDERSETTINGS
  5
26E5
102
{ACAD_REACTORS
330
2577
102
}
330
2577
100
AcDbRenderSettings
 90
        2
  1
中
290
     1
290
     0
290
     1
290
     1
  1

  1
5 レンダリング レベルを適用
 90
        0
100
AcDbRapidRTRenderSettings
 90
        3
 70
     0
 90
        5
 90
        1
 70
     1
 70
     2
 40
3.0
 40
3.0
290
     1
  0
MENTALRAYRENDERSETTINGS
  5
2BC2
102
{ACAD_XDICTIONARY
360
2BC3
102
}
102
{ACAD_REACTORS
330
2577
102
}
330
2577
100
AcDbRenderSettings
 90
        2
  1
中間
290
     1
290
     1
290
     1
290
     1
  1

  1

 90
        0
100
AcDbMentalRayRenderSettings
 90
        2
 90
        0
 90
        1
 70
     2
 40
3.0
 40
3.0
 40
0.05
 40
0.05
 40
0.05
 40
0.05
 70
     0
290
     0
290
     1
 90
        5
 90
        5
 90
        5
290
     0
 90
      500
290
     0
 40
1.0
 90
    10000
 90
        5
 90
        5
 90
        5
290
     0
 90
      200
290
     0
290
     0
290
     0
 40
1.0
 40
1.0
 40
1500.0
 70
     0
 70
     0
 40
10.0
 70
     0
 70
     0
290
     0
  1

 90
       32
 70
     0
 90
     1048
290
     0
 40
1.0
  0
DICTIONARY
  5
25AD
102
{ACAD_REACTORS
330
2577
102
}
330
2577
100
AcDbDictionary
281
     1
  3
A0
350
25AE
  3
A1
350
25AF
  3
A2
350
25B0
  3
A3
350
25B1
  3
A4
350
25B2
  3
A5
350
25B3
  3
A6
350
25B4
  3
A7
350
25B5
  3
A8
350
25B6
  3
A9
350
25B7
  3
B0
350
25B8
  3
B1
350
25B9
  3
B2
350
25BA
  3
B3
350
25BB
  3
B4
350
25BC
  3
B5
350
25BD
  3
B6
350
25BE
  0
DICTIONARY
  5
25D2
102
{ACAD_REACTORS
330
2577
102
}
330
2577
100
AcDbDictionary
281
     1
  3
Imperial24
350
25D3
  3
Metric50
350
26D7
  0
DICTIONARY
  5
25CE
102
{ACAD_REACTORS
330
2577
102
}
330
2577
100
AcDbDictionary
281
     1
  3
Standard
350
25CF
  0
DICTIONARY
  5
2594
102
{ACAD_REACTORS
330
2577
102
}
330
2577
100
AcDbDictionary
281
     1
  3
2dWireframe
350
259A
  3
Basic
350
2599
  3
Brighten
350
25A0
  3
ColorChange
350
25A4
  3
Conceptual
350
259D
  3
Dim
350
259F
  3
EdgeColorOff
350
25AC
  3
Facepattern
350
25A3
  3
Flat
350
2595
  3
FlatWithEdges
350
2596
  3
Gouraud
350
2597
  3
GouraudWithEdges
350
2598
  3
Hidden
350
259C
  3
JitterOff
350
25AA
  3
Linepattern
350
25A2
  3
OverhangOff
350
25AB
  3
Realistic
350
259E
  3
Shaded
350
25A9
  3
Shaded with edges
350
25A8
  3
Shades of Gray
350
25A5
  3
Sketchy
350
25A6
  3
Thicken
350
25A1
  3
Wireframe
350
259B
  3
X-Ray
350
25A7
  0
XRECORD
  5
2BCE
102
{ACAD_REACTORS
330
2577
102
}
330
2577
100
AcDbXrecord
280
     1
 90
        1
330
25CF
  0
DICTIONARY
  5
2634
102
{ACAD_REACTORS
330
2577
102
}
330
2577
100
AcDbDictionary
281
     1
  3
CANNOSCALE
350
263A
  3
CMLEADERSTYLE
350
2636
  3
CTABLESTYLE
350
2635
  3
CVIEWDETAILSTYLE
350
2637
  3
CVIEWSECTIONSTYLE
350
2638
  3
LAYEREVAL
350
263C
  3
LAYERNOTIFY
350
263D
  3
LIGHTINGUNITS
350
263B
  3
MSLTSCALE
350
2639
  3
XCLIPFRAME
350
2BCC
  0
DICTIONARY
  5
2689
102
{ACAD_REACTORS
330
2688
102
}
330
2688
100
AcDbDictionary
281
     1
  0
ACDBDETAILVIEWSTYLE
  5
25D5
102
{ACAD_XDICTIONARY
360
2C07
102
}
102
{ACAD_REACTORS
330
25D4
102
}
330
25D4
100
AcDbModelDocViewStyle
 70
     0
  3
Imperial24
290
     0
100
AcDbDetailViewStyle
 70
     0
 71
     0
 90
        3
 71
     1
340
25C0
 62
   256
 40
0.24
340
0
 62
   256
 40
0.24
300

 40
0.36
280
     3
 71
     2
340
25C7
 90
       25
 62
   256
 71
     3
340
25C0
 62
   256
 40
0.24
 90
        1
 40
0.75
 90
        1
300
%<\AcVar ViewType \f "%tc1">% %<\AcVar ViewDetailId>%\PSCALE %<\AcVar ViewScale \f "%sn">%
 71
     4
340
25C7
 90
       25
 62
   256
340
25C7
 90
       25
 62
   256
280
     0
  0
ACDBDETAILVIEWSTYLE
  5
26D8
102
{ACAD_XDICTIONARY
360
2C0B
102
}
102
{ACAD_REACTORS
330
25D4
102
}
330
25D4
100
AcDbModelDocViewStyle
 70
     0
  3
Metric50
290
     0
100
AcDbDetailViewStyle
 70
     0
 71
     0
 90
        3
 71
     1
340
25C0
 62
   256
 40
5.0
340
0
 62
   256
 40
5.0
300

 40
0.0
280
     1
 71
     2
340
25C7
 90
       25
 62
   256
 71
     3
340
25C0
 62
   256
 40
5.0
 90
        0
 40
15.0
 90
        1
300
%<\AcVar ViewDetailId>% (%<\AcVar ViewScale \f "%sn">%)
 71
     4
340
25C7
 90
       25
 62
   256
340
25C7
 90
       25
 62
   256
280
     0
  0
LAYOUT
  5
25DD
102
{ACAD_XDICTIONARY
360
26D4
102
}
102
{ACAD_REACTORS
330
25CC
102
}
330
25CC
100
AcDbPlotSettings
  1

  2
C:\ACAD-I\support\plotters\Default Windows System Printer.pc3
  4
A4
  6

 40
4.90008307
 41
4.90005732
 42
4.90008545
 43
4.90008545
 44
210.01567078
 45
297.01065063
 46
0.0
 47
0.0
 48
0.0
 49
0.0
140
0.0
141
0.0
142
1.0
143
3426.89006316
 70
 11952
 72
     0
 73
     1
 74
     0
  7
monochrome.ctb
 75
     0
147
0.00029181
 76
     0
 77
     2
 78
   300
148
126944.21280452
149
2621.87553956
100
AcDbLayout
  1
Model
 70
     1
 71
     0
 10
0.0
 20
0.0
 11
12.0
 21
9.0
 12
0.0
 22
0.0
 32
0.0
 14
0.0
 24
0.0
 34
0.0
 15
0.0
 25
0.0
 35
0.0
146
0.0
 13
0.0
 23
0.0
 33
0.0
 16
1.0
 26
0.0
 36
0.0
 17
0.0
 27
1.0
 37
0.0
 76
     0
330
25DA
331
25DE
1001
ACAD_PSEXT
1000
C:\ACAD-I\support\plotters\Default Windows System Printer.pc3
1000
FX ApeosPort-IV C4475
1000
IP_10.230.204.203
1000

1070
     0
  0
LAYOUT
  5
25D9
102
{ACAD_REACTORS
330
25CC
102
}
330
25CC
100
AcDbPlotSettings
  1

  2
C:\ACAD-I\support\plotters\Default Windows System Printer.pc3
  4
A4
  6

 40
4.90008307
 41
4.90005732
 42
4.90008545
 43
4.90008545
 44
210.01567078
 45
297.01065063
 46
0.0
 47
0.0
 48
0.0
 49
0.0
140
0.0
141
0.0
142
1.0
143
1.0
 70
 15024
 72
     0
 73
     1
 74
     5
  7
monochrome.ctb
 75
    16
147
1.0
 76
     0
 77
     2
 78
   300
148
0.0
149
0.0
100
AcDbLayout
  1
レイアウト1
 70
     0
 71
     1
 10
0.0
 20
0.0
 11
12.0
 21
9.0
 12
0.0
 22
0.0
 32
0.0
 14
1.00000000E+20
 24
1.00000000E+20
 34
1.00000000E+20
 15
-1.00000000E+20
 25
-1.00000000E+20
 35
-1.00000000E+20
146
0.0
 13
0.0
 23
0.0
 33
0.0
 16
1.0
 26
0.0
 36
0.0
 17
0.0
 27
1.0
 37
0.0
 76
     0
330
25D6
1001
ACAD_PSEXT
1000
C:\ACAD-I\support\plotters\Default Windows System Printer.pc3
1000
FX ApeosPort-IV C4475
1000
IP_10.230.204.203
1000

1070
     0
  0
MATERIAL
  5
2584
102
{ACAD_XDICTIONARY
360
2585
102
}
102
{ACAD_REACTORS
330
257B
102
}
330
257B
100
AcDbMaterial
  1
ByBlock
 72
     0
 43
0.02083333
 43
0.0
 43
0.0
 43
0.0
 43
0.0
 43
0.02083333
 43
0.0
 43
0.0
 43
0.0
 43
0.0
 43
1.0
 43
0.0
 43
0.0
 43
0.0
 43
0.0
 43
1.0
 77
     0
 47
0.02083333
 47
0.0
 47
0.0
 47
0.0
 47
0.0
 47
0.02083333
 47
0.0
 47
0.0
 47
0.0
 47
0.0
 47
1.0
 47
0.0
 47
0.0
 47
0.0
 47
0.0
 47
1.0
171
     0
 49
0.02083333
 49
0.0
 49
0.0
 49
0.0
 49
0.0
 49
0.02083333
 49
0.0
 49
0.0
 49
0.0
 49
0.0
 49
1.0
 49
0.0
 49
0.0
 49
0.0
 49
0.0
 49
1.0
175
     0
142
0.02083333
142
0.0
142
0.0
142
0.0
142
0.0
142
0.02083333
142
0.0
142
0.0
142
0.0
142
0.0
142
1.0
142
0.0
142
0.0
142
0.0
142
0.0
142
1.0
179
     0
144
0.02083333
144
0.0
144
0.0
144
0.0
144
0.0
144
0.02083333
144
0.0
144
0.0
144
0.0
144
0.0
144
1.0
144
0.0
144
0.0
144
0.0
144
0.0
144
1.0
147
0.02083333
147
0.0
147
0.0
147
0.0
147
0.0
147
0.02083333
147
0.0
147
0.0
147
0.0
147
0.0
147
1.0
147
0.0
147
0.0
147
0.0
147
0.0
147
1.0
  0
MATERIAL
  5
257C
102
{ACAD_XDICTIONARY
360
257D
102
}
102
{ACAD_REACTORS
330
257B
102
}
330
257B
100
AcDbMaterial
  1
ByLayer
 72
     0
 43
0.02083333
 43
0.0
 43
0.0
 43
0.0
 43
0.0
 43
0.02083333
 43
0.0
 43
0.0
 43
0.0
 43
0.0
 43
1.0
 43
0.0
 43
0.0
 43
0.0
 43
0.0
 43
1.0
 77
     0
 47
0.02083333
 47
0.0
 47
0.0
 47
0.0
 47
0.0
 47
0.02083333
 47
0.0
 47
0.0
 47
0.0
 47
0.0
 47
1.0
 47
0.0
 47
0.0
 47
0.0
 47
0.0
 47
1.0
171
     0
 49
0.02083333
 49
0.0
 49
0.0
 49
0.0
 49
0.0
 49
0.02083333
 49
0.0
 49
0.0
 49
0.0
 49
0.0
 49
1.0
 49
0.0
 49
0.0
 49
0.0
 49
0.0
 49
1.0
175
     0
142
0.02083333
142
0.0
142
0.0
142
0.0
142
0.0
142
0.02083333
142
0.0
142
0.0
142
0.0
142
0.0
142
1.0
142
0.0
142
0.0
142
0.0
142
0.0
142
1.0
179
     0
144
0.02083333
144
0.0
144
0.0
144
0.0
144
0.0
144
0.02083333
144
0.0
144
0.0
144
0.0
144
0.0
144
1.0
144
0.0
144
0.0
144
0.0
144
0.0
144
1.0
147
0.02083333
147
0.0
147
0.0
147
0.0
147
0.0
147
0.02083333
147
0.0
147
0.0
147
0.0
147
0.0
147
1.0
147
0.0
147
0.0
147
0.0
147
0.0
147
1.0
  0
MATERIAL
  5
258C
102
{ACAD_XDICTIONARY
360
258D
102
}
102
{ACAD_REACTORS
330
257B
102
}
330
257B
100
AcDbMaterial
  1
Global
 72
     0
 43
0.02083333
 43
0.0
 43
0.0
 43
0.0
 43
0.0
 43
0.02083333
 43
0.0
 43
0.0
 43
0.0
 43
0.0
 43
1.0
 43
0.0
 43
0.0
 43
0.0
 43
0.0
 43
1.0
 77
     0
 47
0.02083333
 47
0.0
 47
0.0
 47
0.0
 47
0.0
 47
0.02083333
 47
0.0
 47
0.0
 47
0.0
 47
0.0
 47
1.0
 47
0.0
 47
0.0
 47
0.0
 47
0.0
 47
1.0
171
     0
 49
0.02083333
 49
0.0
 49
0.0
 49
0.0
 49
0.0
 49
0.02083333
 49
0.0
 49
0.0
 49
0.0
 49
0.0
 49
1.0
 49
0.0
 49
0.0
 49
0.0
 49
0.0
 49
1.0
175
     0
142
0.02083333
142
0.0
142
0.0
142
0.0
142
0.0
142
0.02083333
142
0.0
142
0.0
142
0.0
142
0.0
142
1.0
142
0.0
142
0.0
142
0.0
142
0.0
142
1.0
179
     0
144
0.02083333
144
0.0
144
0.0
144
0.0
144
0.0
144
0.02083333
144
0.0
144
0.0
144
0.0
144
0.0
144
1.0
144
0.0
144
0.0
144
0.0
144
0.0
144
1.0
147
0.02083333
147
0.0
147
0.0
147
0.0
147
0.0
147
0.02083333
147
0.0
147
0.0
147
0.0
147
0.0
147
1.0
147
0.0
147
0.0
147
0.0
147
0.0
147
1.0
  0
MLEADERSTYLE
  5
25D1
102
{ACAD_XDICTIONARY
360
2C03
102
}
102
{ACAD_REACTORS
330
25D0
102
}
330
25D0
100
AcDbMLeaderStyle
170
     2
171
     1
172
     0
 90
        2
 40
0.0
 41
0.0
173
     1
 91
-1056964608
340
25C5
 92
       -2
290
     1
 42
0.09
291
     1
 43
0.36
  3
Standard
 44
0.18
300

342
25C0
174
     1
178
     6
175
     1
176
     0
 93
-1056964608
 45
0.18
292
     0
297
     0
 46
0.18
 94
-1056964608
 47
1.0
 49
1.0
140
1.0
293
     1
141
0.0
294
     1
177
     0
142
1.0
295
     0
296
     0
143
0.125
1001
ACAD_MLEADERVER
1070
     2
  0
MLINESTYLE
  5
25CA
102
{ACAD_REACTORS
330
25C9
102
}
330
25C9
100
AcDbMlineStyle
  2
STANDARD
 70
     0
  3

 62
   256
 51
90.0
 52
90.0
 71
     2
 49
0.5
 62
   256
  6
BYLAYER
 49
-0.5
 62
   256
  6
BYLAYER
  0
ACDBPLACEHOLDER
  5
257A
102
{ACAD_REACTORS
330
2579
102
}
330
2579
  0
DICTIONARY
  5
2BC3
330
2BC2
100
AcDbDictionary
280
     1
281
     1
  3
ADSK_XREC_MENTALRAYSETTINGSINFO
360
2BC4
  0
SCALE
  5
25AE
102
{ACAD_REACTORS
330
25AD
102
}
330
25AD
100
AcDbScale
 70
     0
300
1:1
140
1.0
141
1.0
290
     1
  0
SCALE
  5
25AF
102
{ACAD_REACTORS
330
25AD
102
}
330
25AD
100
AcDbScale
 70
     0
300
1/128" = 1'-0"
140
0.0078125
141
12.0
290
     0
  0
SCALE
  5
25B0
102
{ACAD_REACTORS
330
25AD
102
}
330
25AD
100
AcDbScale
 70
     0
300
1/64" = 1'-0"
140
0.015625
141
12.0
290
     0
  0
SCALE
  5
25B1
102
{ACAD_REACTORS
330
25AD
102
}
330
25AD
100
AcDbScale
 70
     0
300
1/32" = 1'-0"
140
0.03125
141
12.0
290
     0
  0
SCALE
  5
25B2
102
{ACAD_REACTORS
330
25AD
102
}
330
25AD
100
AcDbScale
 70
     0
300
1/16" = 1'-0"
140
0.0625
141
12.0
290
     0
  0
SCALE
  5
25B3
102
{ACAD_REACTORS
330
25AD
102
}
330
25AD
100
AcDbScale
 70
     0
300
3/32" = 1'-0"
140
0.09375
141
12.0
290
     0
  0
SCALE
  5
25B4
102
{ACAD_REACTORS
330
25AD
102
}
330
25AD
100
AcDbScale
 70
     0
300
1/8" = 1'-0"
140
0.125
141
12.0
290
     0
  0
SCALE
  5
25B5
102
{ACAD_REACTORS
330
25AD
102
}
330
25AD
100
AcDbScale
 70
     0
300
3/16" = 1'-0"
140
0.1875
141
12.0
290
     0
  0
SCALE
  5
25B6
102
{ACAD_REACTORS
330
25AD
102
}
330
25AD
100
AcDbScale
 70
     0
300
1/4" = 1'-0"
140
0.25
141
12.0
290
     0
  0
SCALE
  5
25B7
102
{ACAD_REACTORS
330
25AD
102
}
330
25AD
100
AcDbScale
 70
     0
300
3/8" = 1'-0"
140
0.375
141
12.0
290
     0
  0
SCALE
  5
25B8
102
{ACAD_REACTORS
330
25AD
102
}
330
25AD
100
AcDbScale
 70
     0
300
1/2" = 1'-0"
140
0.5
141
12.0
290
     0
  0
SCALE
  5
25B9
102
{ACAD_REACTORS
330
25AD
102
}
330
25AD
100
AcDbScale
 70
     0
300
3/4" = 1'-0"
140
0.75
141
12.0
290
     0
  0
SCALE
  5
25BA
102
{ACAD_REACTORS
330
25AD
102
}
330
25AD
100
AcDbScale
 70
     0
300
1" = 1'-0"
140
1.0
141
12.0
290
     0
  0
SCALE
  5
25BB
102
{ACAD_REACTORS
330
25AD
102
}
330
25AD
100
AcDbScale
 70
     0
300
1-1/2" = 1'-0"
140
1.5
141
12.0
290
     0
  0
SCALE
  5
25BC
102
{ACAD_REACTORS
330
25AD
102
}
330
25AD
100
AcDbScale
 70
     0
300
3" = 1'-0"
140
3.0
141
12.0
290
     0
  0
SCALE
  5
25BD
102
{ACAD_REACTORS
330
25AD
102
}
330
25AD
100
AcDbScale
 70
     0
300
6" = 1'-0"
140
6.0
141
12.0
290
     0
  0
SCALE
  5
25BE
102
{ACAD_REACTORS
330
25AD
102
}
330
25AD
100
AcDbScale
 70
     0
300
1'-0" = 1'-0"
140
12.0
141
12.0
290
     0
  0
ACDBSECTIONVIEWSTYLE
  5
25D3
102
{ACAD_XDICTIONARY
360
2C05
102
}
102
{ACAD_REACTORS
330
25D2
102
}
330
25D2
100
AcDbModelDocViewStyle
 70
     0
  3
Imperial24
290
     0
100
AcDbSectionViewStyle
 70
     0
 71
     0
 90
      102
 71
     1
340
25C0
 62
   256
 40
5.0
340
0
340
0
 62
   256
 40
5.0
300
I, O, Q, S, X, Z
 40
10.0
 90
        0
 40
2.5
 90
        0
 71
     2
340
25C7
 90
       25
 62
   256
340
25C7
 90
       50
 62
   256
 40
5.0
 40
2.5
 40
5.0
 71
     3
340
25C0
 62
   256
 40
5.0
 90
        0
 40
15.0
 90
        1
300
%<\AcVar ViewSectionStartId>%-%<\AcVar ViewSectionEndId>% (%<\AcVar ViewScale \f "%sn">%)
 71
     4
 62
   256
 62
   257
300
ANSI31
 40
1.0
 90
        0
290
     0
290
     0
 90
        6
 40
0.0
 40
1.57079633
 40
0.26179939
 40
1.30899694
 40
-0.26179939
 40
1.83259571
  0
ACDBSECTIONVIEWSTYLE
  5
26D7
102
{ACAD_XDICTIONARY
360
2C09
102
}
102
{ACAD_REACTORS
330
25D2
102
}
330
25D2
100
AcDbModelDocViewStyle
 70
     0
  3
Metric50
290
     0
100
AcDbSectionViewStyle
 70
     0
 71
     0
 90
      102
 71
     1
340
25C0
 62
   256
 40
5.0
340
0
340
0
 62
   256
 40
5.0
300
I, O, Q, S, X, Z
 40
10.0
 90
        0
 40
2.5
 90
        0
 71
     2
340
25C7
 90
       25
 62
   256
340
25C7
 90
       50
 62
   256
 40
5.0
 40
2.5
 40
5.0
 71
     3
340
25C0
 62
   256
 40
5.0
 90
        0
 40
15.0
 90
        1
300
%<\AcVar ViewSectionStartId>%-%<\AcVar ViewSectionEndId>% (%<\AcVar ViewScale \f "%sn">%)
 71
     4
 62
   256
 62
   257
300
ANSI31
 40
1.0
 90
        0
290
     0
290
     0
 90
        6
 40
0.0
 40
1.57079633
 40
0.26179939
 40
1.30899694
 40
-0.26179939
 40
1.83259571
  0
TABLESTYLE
  5
25CF
102
{ACAD_XDICTIONARY
360
25F7
102
}
102
{ACAD_REACTORS
330
25CE
102
}
330
25CE
100
AcDbTableStyle
  3
Standard
 70
     0
 71
     0
 40
0.06
 41
0.06
280
     0
281
     0
  7
STANDARD
140
0.18
170
     2
 62
     0
 63
     7
283
     0
274
    -2
284
     1
 64
     0
275
    -2
285
     1
 65
     0
276
    -2
286
     1
 66
     0
277
    -2
287
     1
 67
     0
278
    -2
288
     1
 68
     0
279
    -2
289
     1
 69
     0
  7
STANDARD
140
0.25
170
     5
 62
     0
 63
     7
283
     0
274
    -2
284
     1
 64
     0
275
    -2
285
     1
 65
     0
276
    -2
286
     1
 66
     0
277
    -2
287
     1
 67
     0
278
    -2
288
     1
 68
     0
279
    -2
289
     1
 69
     0
  7
STANDARD
140
0.18
170
     5
 62
     0
 63
     7
283
     0
274
    -2
284
     1
 64
     0
275
    -2
285
     1
 65
     0
276
    -2
286
     1
 66
     0
277
    -2
287
     1
 67
     0
278
    -2
288
     1
 68
     0
279
    -2
289
     1
 69
     0
  0
VISUALSTYLE
  5
259A
102
{ACAD_XDICTIONARY
360
2BDC
102
}
102
{ACAD_REACTORS
330
2594
102
}
330
2594
100
AcDbVisualStyle
  2
2dWireframe
 70
     4
 71
     0
 72
     2
 73
     0
 90
        0
 40
-0.6
 41
-30.0
 62
     5
 63
     7
421
 16777215
 74
     1
 91
        4
 64
     7
 65
   257
 75
     1
175
     1
 42
1.0
 92
        0
 66
   257
 43
1.0
 76
     1
 77
     6
 78
     2
 67
     7
 79
     5
170
     0
171
     0
290
     0
174
     0
 93
        1
 44
0.0
173
     0
291
     0
 45
0.0
1001
ACAD
1000
AcDbSavedByObjectVersion
1070
     0
  0
VISUALSTYLE
  5
2599
102
{ACAD_XDICTIONARY
360
2BDA
102
}
102
{ACAD_REACTORS
330
2594
102
}
330
2594
100
AcDbVisualStyle
  2
Basic
 70
     7
 71
     1
 72
     0
 73
     1
 90
        0
 40
-0.6
 41
-30.0
 62
     5
 63
     7
421
 16777215
 74
     0
 91
        4
 64
     7
 65
   257
 75
     1
175
     1
 42
1.0
 92
        8
 66
     7
 43
1.0
 76
     1
 77
     6
 78
     2
 67
     7
 79
     5
170
     0
171
     0
290
     0
174
     0
 93
        1
 44
0.0
173
     0
291
     1
 45
0.0
1001
ACAD
1000
AcDbSavedByObjectVersion
1070
     0
  0
VISUALSTYLE
  5
25A0
102
{ACAD_XDICTIONARY
360
2BE8
102
}
102
{ACAD_REACTORS
330
2594
102
}
330
2594
100
AcDbVisualStyle
  2
Brighten
 70
    12
 71
     2
 72
     2
 73
     0
 90
        0
 40
-0.6
 41
-30.0
 62
     5
 63
     7
421
 16777215
 74
     1
 91
        4
 64
     7
 65
   257
 75
     1
175
     1
 42
1.0
 92
        8
 66
     7
 43
1.0
 76
     1
 77
     6
 78
     2
 67
     7
 79
     5
170
     0
171
     0
290
     0
174
     0
 93
        1
 44
50.0
173
     0
291
     1
 45
0.0
1001
ACAD
1000
AcDbSavedByObjectVersion
1070
     0
  0
VISUALSTYLE
  5
25A4
102
{ACAD_XDICTIONARY
360
2BF0
102
}
102
{ACAD_REACTORS
330
2594
102
}
330
2594
100
AcDbVisualStyle
  2
ColorChange
 70
    16
 71
     2
 72
     2
 73
     3
 90
        0
 40
-0.6
 41
-30.0
 62
     5
 63
     8
421
  8421504
 74
     1
 91
        4
 64
     7
 65
   257
 75
     1
175
     1
 42
1.0
 92
        8
 66
     8
424
  8421504
 43
1.0
 76
     1
 77
     6
 78
     2
 67
     7
 79
     5
170
     0
171
     0
290
     0
174
     0
 93
        1
 44
0.0
173
     0
291
     1
 45
0.0
1001
ACAD
1000
AcDbSavedByObjectVersion
1070
     0
  0
VISUALSTYLE
  5
259D
102
{ACAD_XDICTIONARY
360
2BE2
102
}
102
{ACAD_REACTORS
330
2594
102
}
330
2594
100
AcDbVisualStyle
  2
Conceptual
 70
     9
 71
     3
 72
     2
 73
     0
 90
        0
 40
-0.6
 41
-30.0
 62
     5
 63
     7
421
 16777215
 74
     2
 91
        2
 64
     7
 65
   257
 75
     1
175
     1
 42
179.0
 92
        8
 66
     7
 43
1.0
 76
     1
 77
     6
 78
     2
 67
     7
 79
     3
170
     0
171
     0
290
     0
174
     0
 93
        1
 44
0.0
173
     0
291
     0
 45
0.0
1001
ACAD
1000
AcDbSavedByObjectVersion
1070
     0
  0
VISUALSTYLE
  5
259F
102
{ACAD_XDICTIONARY
360
2BE6
102
}
102
{ACAD_REACTORS
330
2594
102
}
330
2594
100
AcDbVisualStyle
  2
Dim
 70
    11
 71
     2
 72
     2
 73
     0
 90
        0
 40
-0.6
 41
-30.0
 62
     5
 63
     7
421
 16777215
 74
     1
 91
        4
 64
     7
 65
   257
 75
     1
175
     1
 42
1.0
 92
        8
 66
     7
 43
1.0
 76
     1
 77
     6
 78
     2
 67
     7
 79
     5
170
     0
171
     0
290
     0
174
     0
 93
        1
 44
-50.0
173
     0
291
     1
 45
0.0
1001
ACAD
1000
AcDbSavedByObjectVersion
1070
     0
  0
VISUALSTYLE
  5
25AC
102
{ACAD_XDICTIONARY
360
2C00
102
}
102
{ACAD_REACTORS
330
2594
102
}
330
2594
100
AcDbVisualStyle
  2
EdgeColorOff
 70
    22
 71
     2
 72
     2
 73
     0
 90
        0
 40
-0.6
 41
-30.0
 62
     5
 63
     7
421
 16777215
 74
     1
 91
        4
 64
     7
 65
   257
 75
     1
175
     1
 42
1.0
 92
        8
 66
     7
 43
1.0
 76
     1
 77
     6
 78
     2
 67
     7
 79
     5
170
     0
171
     0
290
     0
174
     0
 93
        1
 44
0.0
173
     0
291
     1
 45
0.0
1001
ACAD
1000
AcDbSavedByObjectVersion
1070
     0
  0
VISUALSTYLE
  5
25A3
102
{ACAD_XDICTIONARY
360
2BEE
102
}
102
{ACAD_REACTORS
330
2594
102
}
330
2594
100
AcDbVisualStyle
  2
Facepattern
 70
    15
 71
     2
 72
     2
 73
     0
 90
        0
 40
-0.6
 41
-30.0
 62
     5
 63
     7
421
 16777215
 74
     1
 91
        4
 64
     7
 65
   257
 75
     1
175
     1
 42
1.0
 92
        8
 66
     7
 43
1.0
 76
     1
 77
     6
 78
     2
 67
     7
 79
     5
170
     0
171
     0
290
     0
174
     0
 93
        1
 44
0.0
173
     0
291
     1
 45
0.0
1001
ACAD
1000
AcDbSavedByObjectVersion
1070
     0
  0
VISUALSTYLE
  5
2595
102
{ACAD_XDICTIONARY
360
2BD2
102
}
102
{ACAD_REACTORS
330
2594
102
}
330
2594
100
AcDbVisualStyle
  2
Flat
 70
     0
 71
     2
 72
     1
 73
     1
 90
        2
 40
-0.6
 41
30.0
 62
     5
 63
     7
421
 16777215
 74
     0
 91
        0
 64
     7
 65
   257
 75
     1
175
     1
 42
1.0
 92
        8
 66
     7
 43
1.0
 76
     1
 77
     6
 78
     2
 67
     7
 79
     5
170
     0
171
     0
290
     0
174
     0
 93
       13
 44
0.0
173
     0
291
     1
 45
0.0
1001
ACAD
1000
AcDbSavedByObjectVersion
1070
     0
  0
VISUALSTYLE
  5
2596
102
{ACAD_XDICTIONARY
360
2BD4
102
}
102
{ACAD_REACTORS
330
2594
102
}
330
2594
100
AcDbVisualStyle
  2
FlatWithEdges
 70
     1
 71
     2
 72
     1
 73
     1
 90
        2
 40
-0.6
 41
30.0
 62
     5
 63
     7
421
 16777215
 74
     1
 91
        0
 64
     7
 65
   257
 75
     1
175
     1
 42
1.0
 92
        0
 66
   257
 43
1.0
 76
     1
 77
     6
 78
     2
 67
     7
 79
     5
170
     0
171
     0
290
     0
174
     0
 93
       13
 44
0.0
173
     0
291
     1
 45
0.0
1001
ACAD
1000
AcDbSavedByObjectVersion
1070
     0
  0
VISUALSTYLE
  5
2597
102
{ACAD_XDICTIONARY
360
2BD6
102
}
102
{ACAD_REACTORS
330
2594
102
}
330
2594
100
AcDbVisualStyle
  2
Gouraud
 70
     2
 71
     2
 72
     2
 73
     1
 90
        2
 40
-0.6
 41
30.0
 62
     5
 63
     7
421
 16777215
 74
     0
 91
        0
 64
     7
 65
   257
 75
     1
175
     1
 42
1.0
 92
        0
 66
     7
 43
1.0
 76
     1
 77
     6
 78
     2
 67
     7
 79
     5
170
     0
171
     0
290
     0
174
     0
 93
       13
 44
0.0
173
     0
291
     1
 45
0.0
1001
ACAD
1000
AcDbSavedByObjectVersion
1070
     0
  0
VISUALSTYLE
  5
2598
102
{ACAD_XDICTIONARY
360
2BD8
102
}
102
{ACAD_REACTORS
330
2594
102
}
330
2594
100
AcDbVisualStyle
  2
GouraudWithEdges
 70
     3
 71
     2
 72
     2
 73
     1
 90
        2
 40
-0.6
 41
30.0
 62
     5
 63
     7
421
 16777215
 74
     1
 91
        0
 64
     7
 65
   257
 75
     1
175
     1
 42
1.0
 92
        0
 66
   257
 43
1.0
 76
     1
 77
     6
 78
     2
 67
     7
 79
     5
170
     0
171
     0
290
     0
174
     0
 93
       13
 44
0.0
173
     0
291
     1
 45
0.0
1001
ACAD
1000
AcDbSavedByObjectVersion
1070
     0
  0
VISUALSTYLE
  5
259C
102
{ACAD_XDICTIONARY
360
2BE0
102
}
102
{ACAD_REACTORS
330
2594
102
}
330
2594
100
AcDbVisualStyle
  2
Hidden
 70
     6
 71
     1
 72
     2
 73
     2
 90
        0
 40
-0.6
 41
-30.0
 62
     5
 63
     7
421
 16777215
 74
     2
 91
        2
 64
     7
 65
   257
 75
     2
175
     1
 42
40.0
 92
        0
 66
   257
 43
1.0
 76
     1
 77
     6
 78
     2
 67
     7
 79
     3
170
     0
171
     0
290
     0
174
     0
 93
        1
 44
0.0
173
     0
291
     0
 45
0.0
1001
ACAD
1000
AcDbSavedByObjectVersion
1070
     0
  0
VISUALSTYLE
  5
25AA
102
{ACAD_XDICTIONARY
360
2BFC
102
}
102
{ACAD_REACTORS
330
2594
102
}
330
2594
100
AcDbVisualStyle
  2
JitterOff
 70
    20
 71
     2
 72
     2
 73
     0
 90
        0
 40
-0.6
 41
-30.0
 62
     5
 63
     7
421
 16777215
 74
     1
 91
        4
 64
     7
 65
   257
 75
     1
175
     1
 42
1.0
 92
       10
 66
     7
 43
1.0
 76
     1
 77
     6
 78
     2
 67
     7
 79
     5
170
     0
171
     0
290
     0
174
     0
 93
        1
 44
0.0
173
     0
291
     1
 45
0.0
1001
ACAD
1000
AcDbSavedByObjectVersion
1070
     0
  0
VISUALSTYLE
  5
25A2
102
{ACAD_XDICTIONARY
360
2BEC
102
}
102
{ACAD_REACTORS
330
2594
102
}
330
2594
100
AcDbVisualStyle
  2
Linepattern
 70
    14
 71
     2
 72
     2
 73
     0
 90
        0
 40
-0.6
 41
-30.0
 62
     5
 63
     7
421
 16777215
 74
     1
 91
        4
 64
     7
 65
   257
 75
     7
175
     7
 42
1.0
 92
        8
 66
     7
 43
1.0
 76
     1
 77
     6
 78
     2
 67
     7
 79
     5
170
     0
171
     0
290
     0
174
     0
 93
        1
 44
0.0
173
     0
291
     1
 45
0.0
1001
ACAD
1000
AcDbSavedByObjectVersion
1070
     0
  0
VISUALSTYLE
  5
25AB
102
{ACAD_XDICTIONARY
360
2BFE
102
}
102
{ACAD_REACTORS
330
2594
102
}
330
2594
100
AcDbVisualStyle
  2
OverhangOff
 70
    21
 71
     2
 72
     2
 73
     0
 90
        0
 40
-0.6
 41
-30.0
 62
     5
 63
     7
421
 16777215
 74
     1
 91
        4
 64
     7
 65
   257
 75
     1
175
     1
 42
1.0
 92
        9
 66
     7
 43
1.0
 76
     1
 77
     6
 78
     2
 67
     7
 79
     5
170
     0
171
     0
290
     0
174
     0
 93
        1
 44
0.0
173
     0
291
     1
 45
0.0
1001
ACAD
1000
AcDbSavedByObjectVersion
1070
     0
  0
VISUALSTYLE
  5
259E
102
{ACAD_XDICTIONARY
360
2BE4
102
}
102
{ACAD_REACTORS
330
2594
102
}
330
2594
100
AcDbVisualStyle
  2
Realistic
 70
     8
 71
     2
 72
     2
 73
     0
 90
        2
 40
-0.6
 41
30.0
 62
     5
 63
     7
421
 16777215
 74
     0
 91
        0
 64
     7
 65
   257
 75
     1
175
     1
 42
1.0
 92
        8
 66
   257
 43
1.0
 76
     1
 77
     6
 78
     2
 67
     7
 79
     3
170
     0
171
     0
290
     0
174
     0
 93
       13
 44
0.0
173
     0
291
     0
 45
0.0
1001
ACAD
1000
AcDbSavedByObjectVersion
1070
     0
  0
VISUALSTYLE
  5
25A9
102
{ACAD_XDICTIONARY
360
2BFA
102
}
102
{ACAD_REACTORS
330
2594
102
}
330
2594
100
AcDbVisualStyle
  2
Shaded
 70
    27
 71
     2
 72
     2
 73
     1
 90
        2
 40
-0.6
 41
30.0
 62
     5
 63
     7
421
 16777215
 74
     0
 91
        4
 64
     7
 65
   257
 75
     1
175
     1
 42
1.0
 92
        8
 66
   257
 43
1.0
 76
     1
 77
     6
 78
     2
 67
     8
425
  7895160
 79
     3
170
     0
171
     0
290
     0
174
     0
 93
        5
 44
0.0
173
     0
291
     0
 45
0.0
1001
ACAD
1000
AcDbSavedByObjectVersion
1070
     0
  0
VISUALSTYLE
  5
25A8
102
{ACAD_XDICTIONARY
360
2BF8
102
}
102
{ACAD_REACTORS
330
2594
102
}
330
2594
100
AcDbVisualStyle
  2
Shaded with edges
 70
    26
 71
     2
 72
     2
 73
     1
 90
        2
 40
-0.6
 41
30.0
 62
     5
 63
     7
421
 16777215
 74
     1
 91
        2
 64
     7
 65
   257
 75
     2
175
     1
 42
1.0
 92
        8
 66
   257
 43
1.0
 76
     1
 77
     6
 78
     2
 67
     7
 79
     3
170
     0
171
     0
290
     0
174
     0
 93
        5
 44
0.0
173
     0
291
     0
 45
0.0
1001
ACAD
1000
AcDbSavedByObjectVersion
1070
     0
  0
VISUALSTYLE
  5
25A5
102
{ACAD_XDICTIONARY
360
2BF2
102
}
102
{ACAD_REACTORS
330
2594
102
}
330
2594
100
AcDbVisualStyle
  2
Shades of Gray
 70
    23
 71
     2
 72
     2
 73
     3
 90
        0
 40
-0.6
 41
-30.0
 62
     5
 63
     7
421
 16777215
 74
     2
 91
        2
 64
     7
 65
     7
 75
     1
175
     1
 42
40.0
 92
        8
 66
     7
 43
1.0
 76
     1
 77
     6
 78
     2
 67
     7
 79
     3
170
     0
171
     0
290
     0
174
     0
 93
        1
 44
0.0
173
     0
291
     0
 45
0.0
1001
ACAD
1000
AcDbSavedByObjectVersion
1070
     0
  0
VISUALSTYLE
  5
25A6
102
{ACAD_XDICTIONARY
360
2BF4
102
}
102
{ACAD_REACTORS
330
2594
102
}
330
2594
100
AcDbVisualStyle
  2
Sketchy
 70
    24
 71
     1
 72
     2
 73
     2
 90
        0
 40
-0.6
 41
-30.0
 62
     5
 63
     7
421
 16777215
 74
     2
 91
        2
 64
     7
 65
     7
 75
     1
175
     1
 42
40.0
 92
       11
 66
     7
 43
1.0
 76
     1
 77
     6
 78
     2
 67
     7
 79
     6
170
     0
171
     0
290
     0
174
     0
 93
        1
 44
0.0
173
     0
291
     0
 45
0.0
1001
ACAD
1000
AcDbSavedByObjectVersion
1070
     0
  0
VISUALSTYLE
  5
25A1
102
{ACAD_XDICTIONARY
360
2BEA
102
}
102
{ACAD_REACTORS
330
2594
102
}
330
2594
100
AcDbVisualStyle
  2
Thicken
 70
    13
 71
     2
 72
     2
 73
     0
 90
        0
 40
-0.6
 41
-30.0
 62
     5
 63
     7
421
 16777215
 74
     1
 91
        4
 64
     7
 65
   257
 75
     1
175
     1
 42
1.0
 92
       12
 66
     7
 43
1.0
 76
     1
 77
     6
 78
     2
 67
     7
 79
     5
170
     0
171
     0
290
     0
174
     0
 93
        1
 44
0.0
173
     0
291
     1
 45
0.0
1001
ACAD
1000
AcDbSavedByObjectVersion
1070
     0
  0
VISUALSTYLE
  5
259B
102
{ACAD_XDICTIONARY
360
2BDE
102
}
102
{ACAD_REACTORS
330
2594
102
}
330
2594
100
AcDbVisualStyle
  2
Wireframe
 70
     5
 71
     0
 72
     2
 73
     0
 90
        0
 40
-0.6
 41
-30.0
 62
     5
 63
     7
421
 16777215
 74
     1
 91
        4
 64
     7
 65
   257
 75
     1
175
     1
 42
1.0
 92
        0
 66
   257
 43
1.0
 76
     1
 77
     6
 78
     2
 67
     7
 79
     3
170
     0
171
     0
290
     0
174
     0
 93
        1
 44
0.0
173
     0
291
     0
 45
0.0
1001
ACAD
1000
AcDbSavedByObjectVersion
1070
     0
  0
VISUALSTYLE
  5
25A7
102
{ACAD_XDICTIONARY
360
2BF6
102
}
102
{ACAD_REACTORS
330
2594
102
}
330
2594
100
AcDbVisualStyle
  2
X-Ray
 70
    25
 71
     2
 72
     2
 73
     1
 90
        1
 40
0.5
 41
-30.0
 62
     5
 63
     7
421
 16777215
 74
     1
 91
        0
 64
     7
 65
   257
 75
     1
175
     1
 42
1.0
 92
        8
 66
     7
 43
1.0
 76
     1
 77
     6
 78
     2
 67
     7
 79
     3
170
     0
171
     0
290
     0
174
     0
 93
       13
 44
0.0
173
     0
291
     0
 45
0.0
1001
ACAD
1000
AcDbSavedByObjectVersion
1070
     0
  0
DICTIONARYVAR
  5
263A
102
{ACAD_REACTORS
330
2634
102
}
330
2634
100
DictionaryVariables
280
     0
  1
1:1
  0
DICTIONARYVAR
  5
2636
102
{ACAD_REACTORS
330
2634
102
}
330
2634
100
DictionaryVariables
280
     0
  1
STANDARD
  0
DICTIONARYVAR
  5
2635
102
{ACAD_REACTORS
330
2634
102
}
330
2634
100
DictionaryVariables
280
     0
  1
STANDARD
  0
DICTIONARYVAR
  5
2637
102
{ACAD_REACTORS
330
2634
102
}
330
2634
100
DictionaryVariables
280
     0
  1
Imperial24
  0
DICTIONARYVAR
  5
2638
102
{ACAD_REACTORS
330
2634
102
}
330
2634
100
DictionaryVariables
280
     0
  1
Imperial24
  0
DICTIONARYVAR
  5
263C
102
{ACAD_REACTORS
330
2634
102
}
330
2634
100
DictionaryVariables
280
     0
  1
0
  0
DICTIONARYVAR
  5
263D
102
{ACAD_REACTORS
330
2634
102
}
330
2634
100
DictionaryVariables
280
     0
  1
0
  0
DICTIONARYVAR
  5
263B
102
{ACAD_REACTORS
330
2634
102
}
330
2634
100
DictionaryVariables
280
     0
  1
2
  0
DICTIONARYVAR
  5
2639
102
{ACAD_REACTORS
330
2634
102
}
330
2634
100
DictionaryVariables
280
     0
  1
1
  0
DICTIONARYVAR
  5
2BCC
102
{ACAD_REACTORS
330
2634
102
}
330
2634
100
DictionaryVariables
280
     0
  1
2
  0
DICTIONARY
  5
2C07
330
25D5
100
AcDbDictionary
280
     1
281
     1
  3
ACAD_XREC_ROUNDTRIP
360
2C08
  0
DICTIONARY
  5
2C0B
330
26D8
100
AcDbDictionary
280
     1
281
     1
  3
ACAD_XREC_ROUNDTRIP
360
2C0C
  0
DICTIONARY
  5
26D4
330
25DD
100
AcDbDictionary
280
     1
281
     1
  3
ADSK_XREC_LAYOUTTHUMBNAIL
360
26D5
  0
DICTIONARY
  5
2585
330
2584
100
AcDbDictionary
280
     1
281
     1
  3
ACAD_XREC_ROUNDTRIP
360
2BD0
  3
BUMPTILE
360
2587
  3
DIFFUSETILE
360
2586
  3
OPACITYTILE
360
258A
  3
REFLECTIONTILE
360
2589
  3
REFRACTIONTILE
360
258B
  3
SPECULARTILE
360
2588
  0
DICTIONARY
  5
257D
330
257C
100
AcDbDictionary
280
     1
281
     1
  3
ACAD_XREC_ROUNDTRIP
360
2BCF
  3
BUMPTILE
360
257F
  3
DIFFUSETILE
360
257E
  3
OPACITYTILE
360
2582
  3
REFLECTIONTILE
360
2581
  3
REFRACTIONTILE
360
2583
  3
SPECULARTILE
360
2580
  0
DICTIONARY
  5
258D
330
258C
100
AcDbDictionary
280
     1
281
     1
  3
ACAD_XREC_ROUNDTRIP
360
2BD1
  3
BUMPTILE
360
258F
  3
DIFFUSETILE
360
258E
  3
OPACITYTILE
360
2592
  3
REFLECTIONTILE
360
2591
  3
REFRACTIONTILE
360
2593
  3
SPECULARTILE
360
2590
  0
DICTIONARY
  5
2C03
330
25D1
100
AcDbDictionary
280
     1
281
     1
  3
ACAD_XREC_ROUNDTRIP
360
2C04
  0
XRECORD
  5
2BC4
102
{ACAD_REACTORS
330
2BC3
102
}
330
2BC3
100
AcDbXrecord
280
     1
 70
     2
 71
     3
 72
     0
  0
DICTIONARY
  5
2C05
330
25D3
100
AcDbDictionary
280
     1
281
     1
  3
ACAD_XREC_ROUNDTRIP
360
2C06
  0
DICTIONARY
  5
2C09
330
26D7
100
AcDbDictionary
280
     1
281
     1
  3
ACAD_XREC_ROUNDTRIP
360
2C0A
  0
DICTIONARY
  5
25F7
330
25CF
100
AcDbDictionary
280
     1
281
     1
  3
ACAD_ROUNDTRIP_2008_TABLESTYLE_CELLSTYLEMAP
360
2BCD
  3
ACAD_XREC_ROUNDTRIP
360
2C02
  0
DICTIONARY
  5
2BDC
330
259A
100
AcDbDictionary
280
     1
281
     1
  3
ACAD_XREC_ROUNDTRIP
360
2BDD
  0
DICTIONARY
  5
2BDA
330
2599
100
AcDbDictionary
280
     1
281
     1
  3
ACAD_XREC_ROUNDTRIP
360
2BDB
  0
DICTIONARY
  5
2BE8
330
25A0
100
AcDbDictionary
280
     1
281
     1
  3
ACAD_XREC_ROUNDTRIP
360
2BE9
  0
DICTIONARY
  5
2BF0
330
25A4
100
AcDbDictionary
280
     1
281
     1
  3
ACAD_XREC_ROUNDTRIP
360
2BF1
  0
DICTIONARY
  5
2BE2
330
259D
100
AcDbDictionary
280
     1
281
     1
  3
ACAD_XREC_ROUNDTRIP
360
2BE3
  0
DICTIONARY
  5
2BE6
330
259F
100
AcDbDictionary
280
     1
281
     1
  3
ACAD_XREC_ROUNDTRIP
360
2BE7
  0
DICTIONARY
  5
2C00
330
25AC
100
AcDbDictionary
280
     1
281
     1
  3
ACAD_XREC_ROUNDTRIP
360
2C01
  0
DICTIONARY
  5
2BEE
330
25A3
100
AcDbDictionary
280
     1
281
     1
  3
ACAD_XREC_ROUNDTRIP
360
2BEF
  0
DICTIONARY
  5
2BD2
330
2595
100
AcDbDictionary
280
     1
281
     1
  3
ACAD_XREC_ROUNDTRIP
360
2BD3
  0
DICTIONARY
  5
2BD4
330
2596
100
AcDbDictionary
280
     1
281
     1
  3
ACAD_XREC_ROUNDTRIP
360
2BD5
  0
DICTIONARY
  5
2BD6
330
2597
100
AcDbDictionary
280
     1
281
     1
  3
ACAD_XREC_ROUNDTRIP
360
2BD7
  0
DICTIONARY
  5
2BD8
330
2598
100
AcDbDictionary
280
     1
281
     1
  3
ACAD_XREC_ROUNDTRIP
360
2BD9
  0
DICTIONARY
  5
2BE0
330
259C
100
AcDbDictionary
280
     1
281
     1
  3
ACAD_XREC_ROUNDTRIP
360
2BE1
  0
DICTIONARY
  5
2BFC
330
25AA
100
AcDbDictionary
280
     1
281
     1
  3
ACAD_XREC_ROUNDTRIP
360
2BFD
  0
DICTIONARY
  5
2BEC
330
25A2
100
AcDbDictionary
280
     1
281
     1
  3
ACAD_XREC_ROUNDTRIP
360
2BED
  0
DICTIONARY
  5
2BFE
330
25AB
100
AcDbDictionary
280
     1
281
     1
  3
ACAD_XREC_ROUNDTRIP
360
2BFF
  0
DICTIONARY
  5
2BE4
330
259E
100
AcDbDictionary
280
     1
281
     1
  3
ACAD_XREC_ROUNDTRIP
360
2BE5
  0
DICTIONARY
  5
2BFA
330
25A9
100
AcDbDictionary
280
     1
281
     1
  3
ACAD_XREC_ROUNDTRIP
360
2BFB
  0
DICTIONARY
  5
2BF8
330
25A8
100
AcDbDictionary
280
     1
281
     1
  3
ACAD_XREC_ROUNDTRIP
360
2BF9
  0
DICTIONARY
  5
2BF2
330
25A5
100
AcDbDictionary
280
     1
281
     1
  3
ACAD_XREC_ROUNDTRIP
360
2BF3
  0
DICTIONARY
  5
2BF4
330
25A6
100
AcDbDictionary
280
     1
281
     1
  3
ACAD_XREC_ROUNDTRIP
360
2BF5
  0
DICTIONARY
  5
2BEA
330
25A1
100
AcDbDictionary
280
     1
281
     1
  3
ACAD_XREC_ROUNDTRIP
360
2BEB
  0
DICTIONARY
  5
2BDE
330
259B
100
AcDbDictionary
280
     1
281
     1
  3
ACAD_XREC_ROUNDTRIP
360
2BDF
  0
DICTIONARY
  5
2BF6
330
25A7
100
AcDbDictionary
280
     1
281
     1
  3
ACAD_XREC_ROUNDTRIP
360
2BF7
  0
XRECORD
  5
2C08
102
{ACAD_REACTORS
330
2C07
102
}
330
2C07
100
AcDbXrecord
280
     1
102
DISPLAYNAME
  1
Imperial24
102
FLAGS
 90
        0
  0
XRECORD
  5
2C0C
102
{ACAD_REACTORS
330
2C0B
102
}
330
2C0B
100
AcDbXrecord
280
     1
102
DISPLAYNAME
  1
Metric50
102
FLAGS
 90
        0
  0
XRECORD
  5
26D5
102
{ACAD_REACTORS
330
26D4
102
}
330
26D4
100
AcDbXrecord
280
     1
310
2800000000010000820000000100080000000000008200000100000001000000000100000000000000000000FFFFFF52000000FF000000FF000000FF000000FF000000FF000000FF000000FF000000FF000000FF330000FF660000FF990000FFCC0000FFFF0000FF003300FF333300FF663300FF993300FFCC3300FFFF3300
310
FF006600FF336600FF666600FF996600FFCC6600FFFF6600FF009900FF339900FF669900FF999900FFCC9900FFFF9900FF00CC00FF33CC00FF66CC00FF99CC00FFCCCC00FFFFCC00FF00FF00FF33FF00FF66FF00FF99FF00FFCCFF00FFFFFF00FF000033FF330033FF660033FF990033FFCC0033FFFF0033FF003333FF3333
310
33FF663333FF993333FFCC3333FFFF3333FF006633FF336633FF666633FF996633FFCC6633FFFF6633FF009933FF339933FF669933FF999933FFCC9933FFFF9933FF00CC33FF33CC33FF66CC33FF99CC33FFCCCC33FFFFCC33FF00FF33FF33FF33FF66FF33FF99FF33FFCCFF33FFFFFF33FF000066FF330066FF660066FF99
310
0066FFCC0066FFFF0066FF003366FF333366FF663366FF993366FFCC3366FFFF3366FF006666FF336666FF666666FF996666FFCC6666FFFF6666FF009966FF339966FF669966FF999966FFCC9966FFFF9966FF00CC66FF33CC66FF66CC66FF99CC66FFCCCC66FFFFCC66FF00FF66FF33FF66FF66FF66FF99FF66FFCCFF66FF
310
FFFF66FF000099FF330099FF660099FF990099FFCC0099FFFF0099FF003399FF333399FF663399FF993399FFCC3399FFFF3399FF006699FF336699FF666699FF996699FFCC6699FFFF6699FF009999FF339999FF669999FF999999FFCC9999FFFF9999FF00CC99FF33CC99FF66CC99FF99CC99FFCCCC99FFFFCC99FF00FF99
310
FF33FF99FF66FF99FF99FF99FFCCFF99FFFFFF99FF0000CCFF3300CCFF6600CCFF9900CCFFCC00CCFFFF00CCFF0033CCFF3333CCFF6633CCFF9933CCFFCC33CCFFFF33CCFF0066CCFF3366CCFF6666CCFF9966CCFFCC66CCFFFF66CCFF0099CCFF3399CCFF6699CCFF9999CCFFCC99CCFFFF99CCFF00CCCCFF33CCCCFF66CC
310
CCFF99CCCCFFCCCCCCFFFFCCCCFF00FFCCFF33FFCCFF66FFCCFF99FFCCFFCCFFCCFFFFFFCCFF0000FFFF3300FFFF6600FFFF9900FFFFCC00FFFFFF00FFFF0033FFFF3333FFFF6633FFFF9933FFFFCC33FFFFFF33FFFF0066FFFF3366FFFF6666FFFF9966FFFFCC66FFFFFF66FFFF0099FFFF3399FFFF6699FFFF9999FFFFCC
310
99FFFFFF99FFFF00CCFFFF33CCFFFF66CCFFFF99CCFFFFCCCCFFFFFFCCFFFF00FFFFFF33FFFFFF66FFFFFF99FFFFFFCCFFFFFFFFFFFFFF000000FF0D0D0DFF1A1A1AFF282828FF353535FF434343FF505050FF5D5D5DFF6B6B6BFF787878FF868686FF939393FFA1A1A1FFAEAEAEFFBBBBBBFFC9C9C9FFD6D6D6FFE4E4E4FF
310
F1F1F1FFFFFFFFFF000000FF000000FF000000FF000000FF000000FF000000FF000000FF000000FF000000FF000000FF00000000000000000000000000000000000000000000000000000000000000000000000000000000000000000000000000000000000000000000000000000000000000000000000000000000000000
310
00000000000000000000000000000000000000000000000000000000000000000000000000000000000000000000000000000000000000000000000000000000000000000000000000000000000000000000000000000000000000000000000000000000000000000000000000000000000000000000000000000000000000
310
0000000000000000000000000000000000000000000000000000000000000000000000000000000000000000000000000000000000000000000000000000000000000000000000000000000000000000000000000000000000BEF5F5F5F5F5F5F5F5F5F5F5F5F5F5F5F5F5F5F5F5F5F5F5F5F5F5F5F5F5F5F5F5F5F5F5F5F5
310
F5F5F5F5F5F5F5F5F5F5F5F5F5F5F5F5F5F5F5F5F5F5F5F5F5F5F5F5F5F5F5F5F5F5F5F5F5F5F5F5F5F5F5F5F5F5F5F5F5F5F5F5F5F5F5F5F5F5F5F5F5F5F5F5F5F5F5F5F5F5F5F5F5F5F5F5F5F5F5F5F5F5F5F5F5F5F5F5F5F5F5F5F5F5F5F5F5F5F5F5F5F5F5F5F5F5F5F5F5F5F5F5F5F5F5F5F5F5F5F5F5F5F5F5F5F5F5
310
F5F5F5F5F5F5F5F5F5F5F5F5F5000000000000000000000000000000000000000000000000000000000000000000000000000000000000000000000000000000000000000000000000000000000000000000000000000000000000F50000F50000000000000000000000000000000000000000000000000000000000000000
310
00000000000000000000000000000000000000000000000000000000000000F50000000000000000000000000000000000000000000000000000000000000000000000000000000000000000000000000000000000000000000000000000000000000000000000000000000000000000000000000000000000000000000000
310
0000000000000000000000F50000F5000000000000000000000000000000000000000000000000000000000000000000000000000000000000000000000000000000000000000000000000000000000000000000000000000000000000F50000F5000000000000000000000000000000000000000000000000000000000000
310
000000000000000000000000000000000000000000000000000000000000000000F5000000000000000000000000000000000000000000000000000000000000000000000000000000000000000000000000000000000000000000000000000000000000000000000000000000000000000000000000000000000000000000
310
00000000000000000000000000F50000F5000000000000000000000000000000000000000000000000000000000000000000000000000000000000000000000000000000000000000000000000000000000000000000000000000000000000F50000F500000000000000000000000000000000000000000000000000000000
310
0000000000000000000000000000000000000000000000000000000000000000000000F500000000000000000000000000000000000000000000000000000000000000000000000000000000000000000000000000000000000000000000000000000000000000000000000000000000000000000000000000000000000000
310
000000000000000000000000000000F50000F5000000000000000000000000000000000000000000000000000000000000000000000000000000000000000000000000000000000000000000000000000000000000000000000000000000000000F50000F50000000000000000000000000000000000000000000000000000
310
00000000000000000000000000000000000000000000000000000000000000000000000000F50000000000000000000000000000000000000000000000000000000000000000000000000000000000000000000000000000000000000000000000000000000000000000000000000000000000000000000000000000000000
310
0000000000000000000000000000000000F50000F5000000000000000000000000000000000000000000000000000000000000000000000000000000000000000000000000000000000000000000000000000000000000000000000000000000000000F50000F5000000000000000000000000000000000000000000000000
310
000000000000000000000000000000000000000000000000000000000000000000000000000000F5000000000000000000000000000000000000000000000000000000000000000000000000000000000000000000000000000000000000000000000000000000000000000000000000000000000000000000000000000000
310
00000000000000000000000000000000000000F50000F5000000000000000000000000000000000000000000000000000000000000000000000000000000000000000000000000000000000000000000000000000000000000000000000000000000000000F50000F500000000000000000000000000000000000000000000
310
0000000000000000000000000000000000000000000000000000000000000000000000000000000000F500000000000000000000000000000000000000000000000000000000000000000000000000000000000000000000000000000000000000000000000000000000000000000000000000000000000000000000000000
310
000000000000000000000000000000000000000000F50000F5000000000000000000000000000000000000000000000000000000000000000000000000000000000000000000000000000000000000000000000000000000000000000000000000000000000000F50000F50000000000000000000000000000000000000000
310
00000000000000000000000000000000000000000000000000000000000000000000000000000000000000F50000000000000000000000000000000000000000000000000000000000000000000000000000000000000000000000000000000000000000000000000000000000000000000000000000000000000000000000
310
0000000000000000000000000000000000000000000000F50000F5000000000000000000000000000000000000000000000000000000000000000000000000000000000000000000000000000000000000000000000000000000000000000000000000000000000000F50000F5000000000000000000000000000000000000
310
000000000000000000000000000000000000000000000000000000000000000000000000000000000000000000F5000000000000000000000000000000000000000000000000000000000000000000000000000000000000000000000000000000000000000000000000000000000000000000000000000000000000000000
310
00000000000000000000000000000000000000000000000000F50000F5000000000000000000000000000000000000000000000000000000000000000000000000000000000000000000000000000000000000000000000000000000000000000000000000000000000000F50000F500000000000000000000000000000000
310
0000000000000000000000000000000000000000000000000000000000000000000000000000000000000000000000F500000000000000000000000000000000000000000000000000000000000000000000000000000000000000000000000000000000000000000000000000000000000000000000000000000000000000
310
000000000000000000000000000000000000000000000000000000F50000F5000000000000000000000000000000000000000000000000000000000000000000000000000000000000000000000000000000000000000000000000000000000000000000000000000000000000F50000F50000000000000000000000000000
310
00000000000000000000000000000000000000000000000000000000000000000000000000000000000000000000000000F50000000000000000000000000000000000000000000000000000000000000000000000000000000000000000000000000000000000000000000000000000000000000000000000000000000000
310
0000000000000000000000000000000000000000000000000000000000F50000F5000000000000000000000000000000000000000000000000000000000000000000000000000000000000000000000000000000000000000000000000000000000000000000000000000000000000F50000F5000000000000000000000000
310
000000000000000000000000000000000000000000000000000000000000000000000000000000000000000000000000000000F5000000000000000000000000000000000000000000000000000000000000000000000000000000000000000000000000000000000000000000000000000000000000000000000000000000
310
00000000000000000000000000000000000000000000000000000000000000F50000F5000000000000000000000000000000000000000000000000000000000000000000000000000000000000000000000000000000000000000000000000000000000000000000000000000000000000F50000F500000000000000000000
310
0000000000000000000000000000000000000000000000000000000000000000000000000000000000000000000000000000000000F500000000000000000000000000000000000000000000000000000000000000000000000000000000000000000000000000000000000000000000000000000000000000000000000000
310
000000000000000000000000000000000000000000000000000000000000000000F50000F5000000000000000000000000000000000000000000000000000000000000000000000000000000000000000000000000000000000000000000000000000000000000000000000000000000000000F50000F50000000000000000
310
00000000000000000000000000000000000000000000000000000000000000000000000000000000000000000000000000000000000000F50000000000000000000000000000000000000000000000000000000000000000000000000000000000000000000000000000000000000000000000000000000000000000000000
310
0000000000000000000000000000000000000000000000000000000000000000000000F50000F5000000000000000000000000000000000000000000000000000000000000000000000000000000000000000000000000000000000000000000000000000000000000000000000000000000000000F50000F5000000000000
310
000000000000000000000000000000000000000000000000000000000000000000000000000000000000000000000000000000000000000000F5000000000000000000000000000000000000000000000000000000000000000000000000000000000000000000000000000000000000000000000000000000000000000000
310
00000000000000000000000000000000000000000000000000000000000000000000000000F50000F5000000000000000000000000000000000000000000000000000000000000000000000000000000000000000000000000000000000000000000000000000000000000000000000000000000000000F50000F500000000
310
0000000000000000000000000000000000000000000000000000000000000000000000000000000000000000000000000000000000000000000000F500000000000000000000000000000000000000000000000000000000000000000000000000000000000000000000000000000000000000000000000000000000000000
310
000000000000000000000000000000000000000000000000000000000000000000000000000000F50000F5000000000000000000000000000000000000000000000000000000000000000000000000000000000000000000000000000000000000000000000000000000000000000000000000000000000000F50000F50000
310
00000000000000000000000000000000000000000000000000000000000000000000000000000000000000000000000000000000000000000000000000F50000000000000000000000000000000000000000000000000000000000000000000000000000000000000000000000000000000000000000000000000000000000
310
0000000000000000000000000000000000000000000000000000000000000000000000000000000000F50000F5000000000000000000000000000000000000000000000000000000000000000000000000000000000000000000000000000000000000000000000000000000000000000000000000000000000000F50000F5
310
000000000000000000000000000000000000000000000000000000000000000000000000000000000000000000000000000000000000000000000000000000F5000000000000000000000000000000000000000000000000000000000000000000000000000000000000000000000000000000000000000000000000000000
310
00000000000000000000000000000000000000000000000000000000000000000000000000000000000000F50000F5000000000000000000000000000000000000000000000000000000000000000000000000000000000000000000000000000000000000000000000000000000000000000000000000000000000000F500
310
00F5000000000000000000000000000000000000000000000000000000000000000000000000000000000000000000000000000000000000000000000000000000F500000000000000000000000000000000000000000000000000000000000000000000000000000000000000000000000000000000000000000000000000
310
000000000000000000000000000000000000000000000000000000000000000000000000000000000000000000F50000F5000000000000000000000000000000000000000000000000000000000000000000000000000000000000000000000000000000000000000000000000000000000000000000000000000000000000
310
F50000F5000000000000000000000000000000000000000000000000000000000000000000000000000000000000000000000000000000000000000000000000000000F50000000000000000000000000000000000000000000000000000000000000000000000000000000000000000000000000000000000000000000000
310
0000000000000000000000000000000000000000000000000000000000000000000000000000000000000000000000F50000F500000000000000000000000000000000000000000000000000000000000000000000000000000000000000000000000000000000000000000000000000000000000000000000000000000000
310
0000F50000F5000000000000000000000000000000000000000000000000000000000000000000000000000000000000000000000000000000000000000000000000000000F5000000000000000000000000000000000000000000000000000000000000000000000000000000000000000000000000000000000000000000
310
00000000000000000000000000000000000000000000000000000000000000000000000000000000000000000000000000F50000F50000000000000000000000000000000000000000000000000000000000000000000000000000000000000000000000000000000000000000000000000000000000000000000000000000
310
00000000F50000F5000000000000000000000000000000000000000000000000000000000000000000000000000000000000000000000000000000000000000000000000000000F500000000000000000000000000000000000000000000000000000000000000000000000000000000000000000000000000000000000000
310
000000000000000000000000000000000000000000000000000000000000000000000000000000000000000000000000000000F50000F5000000000000000000000000000000000000000000000000000000000000000000000000000000000000000000000000000000000000000000000000000000000000000000000000
310
000000000000F50000F5000000000000000000000000000000000000000000000000000000000000000000000000000000000000000000000000000000000000000000000000000000F50000000000000000000000000000000000000000000000000000000000000000000000000000000000000000000000000000000000
310
0000000000000000000000000000000000000000000000000000000000000000000000000000000000000000000000000000000000F50000F500000000000000000000000000000000000000000000000000000000000000000000000000000000000000000000000000000000000000000000000000000000000000000000
310
0000000000000000F50000F5000000000000000000000000000000000000000000000000000000000000000000000000000000000000000000000000000000000000000000000000000000F5000000000000000000000000000000000000000000000000000000000000000000000000000000000000000000000000000000
310
00000000000000000000000000000000000000000000000000000000000000000000000000000000000000000000000000000000000000F50000F50000000000000000000000000000000000000000000000000000000000000000000000000000000000000000000000000000000000000000000000000000000000000000
310
00000000000000000000F5F5F5F5F5F5F5F5F5F5F5F5F5F5F5F5F5F5F5F5F5F5F5F5F5F5F5F5F5F5F5F5F5F5F5F5F5F5F5F5F5F5F5F5F5F5F5F5F5F5F5F5F5F5F5F5F5F5F5F5F5F5F5F5F5F5F5F500000000000000000000000000000000000000000000000000000000000000000000000000000000000000000000000000
310
000000000000000000000000000000000000000000000000000000000000000000000000000000000000000000000000000000000000000000F50000F5000000000000000000000000000000000000000000000000000000000000000000000000000000000000000000000000000000000000000000000000000000000000
310
000000000000000000000000F50000F50000000000000000000000000000F5000000000000000000000000000000F500000000000000000000000000000000F50000F5000000000000000000000000F50000000000000000000000000000000000000000000000000000000000000000000000000000000000000000000000
310
0000000000000000000000000000000000000000000000000000000000000000000000000000000000000000000000000000000000000000000000F50000F500000000000000000000000000000000000000000000000000000000000000000000000000000000000000000000000000000000000000000000000000000000
310
0000000000000000000000000000F50000F50000000000000000000000000000F5000000000000000000000000000000F500000000000000000000000000000000F50000F5000000000000000000000000F5000000000000000000000000000000000000000000000000000000000000000000000000000000000000000000
310
00000000000000000000000000000000000000000000000000000000000000000000000000000000000000000000000000000000000000000000000000F50000F50000000000000000000000000000000000000000000000000000000000000000000000000000000000000000000000000000000000000000000000000000
310
00000000000000000000000000000000F50000F50000000000000000000000000000F5000000000000000000000000000000F500000000000000000000000000000000F50000F5000000000000000000000000F500000000000000000000000000000000000000000000000000000000000000000000000000000000000000
310
000000000000000000000000000000000000000000000000000000000000000000000000000000000000000000000000000000000000000000000000000000F50000F5000000000000000000000000000000000000000000000000000000000000000000000000000000000000000000000000000000000000000000000000
310
000000000000000000000000000000000000F50000F50000000000000000000000000000F5000000000000000000000000000000F500000000000000000000000000000000F50000F5000000000000000000000000F50000000000000000000000000000000000000000000000000000000000000000000000000000000000
310
0000000000000000000000000000000000000000000000000000000000000000000000000000000000000000000000000000000000000000000000000000000000F50000F500000000000000000000000000000000000000000000000000000000000000000000000000000000000000000000000000000000000000000000
310
0000000000000000000000000000000000000000F50000F50000000000000000000000000000F5000000000000000000000000000000F500000000000000000000000000000000F50000F5000000000000000000000000F5000000000000000000000000000000000000000000000000000000000000000000000000000000
310
00000000000000000000000000000000000000000000000000000000000000000000000000000000000000000000000000000000000000000000000000000000000000F50000F50000000000000000000000000000000000000000000000000000000000000000000000000000000000000000000000000000000000000000
310
00000000000000000000000000000000000000000000F50000F50000000000DCDCDC000000000000F5000000000000000000000000000000F500000000000000000000000000000000F50000F5000000000000000000000000F500000000000000000000000000000000000000000000000000000000000000000000000000
310
000000000000000000000000000000000000000000000000000000000000000000000000000000000000000000000000000000000000000000000000000000000000000000F50000F5000000000000000000000000000000000000000000000000000000000000000000000000000000000000000000000000000000000000
310
000000000000000000000000000000000000000000000000F52828F500000000DCDCDCDCDC0000000000F5000000DCDCDCDCDCDCDC0000000000F5000000DCDCDCDCDCDCDCDC0000000000F50000F5000000000000000000000000F50000000000000000000000000000000000000000000000000000000000000000000000
310
0000000000000000000000000000000000000000000000000000000000000000000000000000000000000000000000000000000000000000000000000000000000000000000000F50000F500000000000000000000000000000000000000000000000000000000000000000000000000000000000000000000000000000000
310
0000000000000000000000000000000000000000000000000000F52828F500000000DCDC00DCDC0000000000F5000000DCDCDCDCDCDCDC0000000000F5000000DCDCDCDCDCDCDCDC0000000000F50000F5000000000000000000000000F5000000000000000000000000000000000000000000000000000000000000000000
310
00000000000000000000000000000000000000000000000000000000000000000000000000000000000000000000000000000000000000000000000000000000000000000000000000F50000F50000000000000000000000000000000000000000000000000000000000000000000000000000000000000000000000000000
310
00000000000000000000000000000000000000000000000000000000F52828F500000000DCDCDCDC000000000000F500000000DCDC00DCDCDC0000000000F500000000DCDC0000DCDC000000000000F50000F5000000000000000000000000F500000000000000000000000000000000000000000000000000000000000000
310
000000000000000000000000000000000000000000000000000000000000000000000000000000000000000000000000000000000000000000000000000000000000000000000000000000F50000F5000000000000000000000000000000000000000000000000000000000000000000000000000000000000000000000000
310
000000000000000000000000000000000000000000000000000000000000F52828F500000000002D2D2DDCDCDC000000F5000000002D2D2D2D2D00DCDC000000F5000000002D2D2D2D2D2DDCDCDC000000F50000F5000000000000000000000000F50000000000000000000000000000000000000000000000000000000000
310
0000000000000000000000000000000000000000000000000000000000000000000000000000000000000000000000000000000000000000000000000000000000000000000000000000000000F50000F500000000000000000000000000000000000000000000000000000000000000000000000000000000000000000000
310
0000000000000000000000000000000000000000000000000000000000000000F52828F5000000002D2D2D2DDCDCDC000000F5000000002D2D2D2D2D2DDCDC000000F5000000002D2D2D2D2D2DDCDCDC000000F50000F5000000000000000000000000F5000000000000000000000000000000000000000000000000000000
310
00000000000000000000000000000000000000000000000000000000000000000000000000000000000000000000000000000000000000000000000000000000000000000000000000000000000000F50000F50000000000000000000000000000000000000000000000000000000000000000000000000000000000000000
310
00000000000000000000000000000000000000000000000000000000000000000000F52828F5000000000000000000DC00000000F500000000000000000000DC00000000F50000000000000000000000DC00000000F50000F5000000000000000000000000F500000000000000000000000000000000000000000000000000
310
000000000000000000000000000000000000000000000000000000000000000000000000000000000000000000000000000000000000000000000000000000000000000000000000000000000000000000F50000F5000000000000000000000000000000000000000000000000000000000000000000000000000000000000
310
000000000000000000000000000000000000000000000000000000000000000000000000F50000F50000000000000000000000000000F5000000000000000000000000000000F500000000000000000000000000000000F50000F5000000000000000000000000F50000000000000000000000000000000000000000000000
310
0000000000000000000000000000000000000000000000000000000000000000000000000000000000000000000000000000000000000000000000000000000000000000000000000000000000000000000000F50000F500000000000000000000000000000000000000000000000000000000000000000000000000000000
310
0000000000000000000000000000000000000000000000000000000000000000000000000000F50000F50000000000000000000000000000F5000000000000000000000000000000F500000000000000000000000000000000F50000F5000000000000000000000000F5000000000000000000000000000000000000000000
310
00000000000000000000000000000000000000000000000000000000000000000000000000000000000000000000000000000000000000000000000000000000000000000000000000000000000000000000000000F50000F50000000000000000000000000000000000000000000000000000000000000000000000000000
310
00000000000000000000000000000000000000000000000000000000000000000000000000000000F50000F50000000000000000000000000000F5000000000000000000000000000000F500000000000000000000000000000000F50000F5000000000000000000000000F500000000000000000000000000000000000000
310
000000000000000000000000000000000000000000000000000000000000000000000000000000000000000000000000000000000000000000000000000000000000000000000000000000000000000000000000000000F50000F5000000000000000000000000000000000000000000000000000000000000000000000000
310
000000000000000000000000000000000000000000000000000000000000000000000000000000000000F50000F50000000000000000000000000000F5000000000000000000000000000000F500000000000000000000000000000000F50000F5000000000000000000000000F50000000000000000000000000000000000
310
0000000000000000000000000000000000000000000000000000000000000000000000000000000000000000000000000000000000000000000000000000000000000000000000000000000000000000000000000000000000F50000F500000000000000000000000000000000000000000000000000000000000000000000
310
0000000000000000000000000000000000000000000000000000000000000000000000000000000000000000F50000F50000000000000000000000000000F5000000000000000000000000000000F500000000000000000000000000000000F50000F5000000000000000000000000F5000000000000000000000000000000
310
00000000000000000000000000000000000000000000000000000000000000000000000000000000000000000000000000000000000000000000000000000000000000000000000000000000000000000000000000000000000000F50000F50000000000000000000000000000000000000000000000000000000000000000
310
00000000000000000000000000000000000000000000000000000000000000000000000000000000000000000000F50000F50000000000000000000000000000F5000000000000000000000000000000F500000000000000000000000000000000F50000F5000000000000000000000000F500000000000000000000000000
310
000000000000000000000000000000000000000000000000000000000000000000000000000000000000000000000000000000000000000000000000000000000000000000000000000000000000000000000000000000000000000000F50000F5000000000000000000000000000000000000000000000000000000000000
310
000000000000000000000000000000000000000000000000000000000000000000000000000000000000000000000000F5F5F5F5F5F5F5F5F5F5F5F5F5F5F5F5F5F5F5F5F5F5F5F5F5F5F5F5F5F5F5F5F5F5F5F5F5F5F5F5F5F5F5F5F5F5F5F5F5F5F5F5F5F5F5F5F5F5F5F5F5F5F5F5F5F5F5F50000000000000000000000
310
0000000000000000000000000000000000000000000000000000000000000000000000000000000000000000000000000000000000000000000000000000000000000000000000000000000000000000000000000000000000000000000000F50000F500000000000000000000000000000000000000000000000000000000
310
0000000000000000000000000000000000000000000000000000000000000000000000000000000000000000000000000000F50000F50028282828282828282828282800F5002828282828282828282828282800F500282828282828282828282828282828F50000F5000000000000000000000000F5000000000000000000
310
00000000000000000000000000000000000000000000000000000000000000000000000000000000000000000000000000000000000000000000000000000000000000000000000000000000000000000000000000000000000000000000000000F50000F50000000000000000000000000000000000000000000000000000
310
00000000000000000000000000000000000000000000000000000000000000000000000000000000000000000000000000000000F50000F50028282828282828282828282800F5002828282828282828282828282800F528282828282828282828282828282828F50000F5000000000000000000000000F500000000000000
310
000000000000000000000000000000000000000000000000000000000000000000000000000000000000000000000000000000000000000000000000000000000000000000000000000000000000000000000000000000000000000000000000000000F50000F5000000000000000000000000000000000000000000000000
310
000000000000000000000000000000000000000000000000000000000000000000000000000000000000000000000000000000000000F5F5F5F5F5F5F5F5F5F5F5F5F5F5F5F5F5F5F5F5F5F5F5F5F5F5F5F5F5F5F5F5F5F5F5F5F5F5F5F5F5F5F5F5F5F5F5F5F5F5F5F5F5F5F5F5F5F5F5F5F5F5F5F5F5F5F5F50000000000
310
0000000000000000000000000000000000000000000000000000000000000000000000000000000000000000000000000000000000000000000000000000000000000000000000000000000000000000000000000000000000000000000000000000000000F50000F500000000000000000000000000000000000000000000
310
0000000000000000000000000000000000000000000000000000000000000000000000000000000000000000000000000000000000000000F50000F50000000000000000000000000000F5000000000000000000000000000000F500000000000000000000000000000000F50000F5000000000000000000000000F5000000
310
00000000000000000000000000000000000000000000000000000000000000000000000000000000000000000000000000000000000000000000000000000000000000000000000000000000000000000000000000000000000000000000000000000000000000F50000F50000000000000000000000000000000000000000
310
00000000000000000000000000000000000000000000000000000000000000000000000000000000000000000000000000000000000000000000F50000F50000000000000000000000000000F5000000000000000000000000000000F500000000000000000000000000000000F50000F5000000000000000000000000F500
310
000000000000000000000000000000000000000000000000000000000000000000000000000000000000000000000000000000000000000000000000000000000000000000000000000000000000000000000000000000000000000000000000000000000000000000F50000F5000000000000000000000000000000000000
310
000000000000000000000000000000000000000000000000000000000000000000000000000000000000000000000000000000000000000000000000F50000F50000000000DCDCDC000000000000F5000000000000000000000000000000F500000000000000000000000000000000F50000F500000000DC00000000000000
310
F500000000000000000000000000000000000000000000000000000000000000000000000000000000000000000000000000000000000000000000000000000000000000000000000000000000000000000000000000000000000000000000000000000000000000000000F50000F500000000000000000000000000000000
310
0000000000000000000000000000000000000000000000000000000000000000000000000000000000000000000000000000000000000000000000000000F50000F50000000000DCDCDC000000000000F500000000DCDCDCDCDC000000000000F500000000DCDCDCDCDCDC000000000000F50000F5000000DCDCDC00000000
310
0000F500000000000000000000000000000000000000000000000000000000000000000000000000000000000000000000000000000000000000000000000000000000000000000000000000000000000000000000000000000000000000000000000000000000000000000000F50000F50000000000000000000000000000
310
00000000000000000000000000000000000000000000000000000000000000000000000000000000000000000000000000000000000000000000000000000000F50000F50000000000DCBEDC000000000000F500000000DCDCDCDCDC000000000000F500000000DCDCDCDCDCDC000000000000F50000F500000000DC0000DC
310
00000000F500000000000000000000000000000000000000000000000000000000000000000000000000000000000000000000000000000000000000000000000000000000000000000000000000000000000000000000000000000000000000000000000000000000000000000000F50000F5000000000000000000000000
310
000000000000000000000000000000000000000000000000000000000000000000000000000000000000000000000000000000000000000000000000000000000000F52828F5000000002D2D2D2DDCDC00000000F5000000002D2DBEBE2DDCDC00000000F5000000002D2D2DBE2D2DDCDC00000000F52828F500000000BEDC
310
DCDCDC000000F500000000000000000000000000000000000000000000000000000000000000000000000000000000000000000000000000000000000000000000000000000000000000000000000000000000000000000000000000000000000000000000000000000000000000000000F50000F500000000000000000000
310
0000000000000000000000000000000000000000000000000000000000000000000000000000000000000000000000000000000000000000000000000000000000000000F52828F5000000002D2D2D2DDC0000000000F5000000002D0000002D00DC00000000F5000000002D0000002D2D00DC00000000F52828F500000000
310
2D0000DC00000000F500000000000000000000000000000000000000000000000000000000000000000000000000000000000000000000000000000000000000000000000000000000000000000000000000000000000000000000000000000000000000000000000000000000000000000000F50000F50000000000000000
310
00000000000000000000000000000000000000000000000000000000000000000000000000000000000000000000000000000000000000000000000000000000000000000000F52828F5000000002D2D002DDC0000000000F5000000002D0000002D00DC00000000F5000000002D000000002D00DC00000000F52828F50000
310
00002D0000DC00000000F500000000000000000000000000000000000000000000000000000000000000000000000000000000000000000000000000000000000000000000000000000000000000000000000000000000000000000000000000000000000000000000000000000000000000000000F50000F5000000000000
310
000000000000000000000000000000000000000000000000000000000000000000000000000000000000000000000000000000000000000000000000000000000000000000000000F52828F5000000002D2D002DDC0000000000F5000000002D0000002D00DC00000000F5000000002D000000002D00DC00000000F52828F5
310
000000002D0000DC00000000F500000000000000000000000000000000000000000000000000000000000000000000000000000000000000000000000000000000000000000000000000000000000000000000000000000000000000000000000000000000000000000000000000000000000000000000F50000F500000000
310
0000000000000000000000000000000000000000000000000000000000000000000000000000000000000000000000000000000000000000000000000000000000000000000000000000F52828F5000000002D2D002DDC0000000000F5000000002D0000002D00DC00000000F5000000002D000000002D00DC00000000F528
310
28F5000000002D0000DC00000000F500000000000000000000000000000000000000000000000000000000000000000000000000000000000000000000000000000000000000000000000000000000000000000000000000000000000000000000000000000000000000000000000000000000000000000000F50000F50000
310
00000000000000000000000000000000000000000000000000000000000000000000000000000000000000000000000000000000000000000000000000000000000000000000000000000000F52828F5000000002D2D002DDC0000000000F5000000002D0000002D00DC00000000F5000000002D000000002D00DC00000000
310
F52828F5000000002D0000DC00000000F500000000000000000000000000000000000000000000000000000000000000000000000000000000000000000000000000000000000000000000000000000000000000000000000000000000000000000000000000000000000000000000000000000000000000000000F50000F5
310
000000000000000000000000000000000000000000000000000000000000000000000000000000000000000000000000000000000000000000000000000000000000000000000000000000000000F52828F5000000002D2D002DDC0000000000F5000000002D0000002DDCDC00000000F5000000002D000000002DDCDC0000
310
0000F52828F5000000002D0000DC00000000F500000000000000000000000000000000000000000000000000000000000000000000000000000000000000000000000000000000000000000000000000000000000000000000000000000000000000000000000000000000000000000000000000000000000000000000F500
310
00F5000000000000000000000000000000000000000000000000000000000000000000000000000000000000000000000000000000000000000000000000000000000000000000000000000000000000F52828F5000000002D2D002DDC0000000000F5000000002D0000002DDCDC00000000F5000000002D000000002DDCDC
310
00000000F52828F5000000002D0000DC00000000F500000000000000000000000000000000000000000000000000000000000000000000000000000000000000000000000000000000000000000000000000000000000000000000000000000000000000000000000000000000000000000000000000000000000000000000
310
F50000F5000000000000000000000000000000000000000000000000000000000000000000000000000000000000000000000000000000000000000000000000000000000000000000000000000000000000F52828F5000000002D2D002DDC0000000000F5000000002D0000002DDCDC00000000F5000000002D000000002D
310
DCDC00000000F52828F5000000002D0000DC00000000F50000000000000000000000000000000000000000000000000000000000000000000000000000000000000000000000000000000000000000000000000000000000000000000000000000000000000000000000000000000000000000000000000000000000000000
310
0000F50000F5000000000000000000000000000000000000000000000000000000000000000000000000000000000000000000000000000000000000000000000000000000000000000000000000000000000000F52828F5000000002D2D002DDC0000000000F5000000002D0000002D00DC00000000F5000000002D000000
310
002D00DC00000000F52828F5000000002D0000DC00000000F5000000000000000000000000000000000000000000000000000000000000000000000000000000000000000000000000000000000000000000000000000000000000000000000000000000000000000000000000000000000000000000000000000000000000
310
00000000F50000F5000000000000000000000000000000000000000000000000000000000000000000000000000000000000000000000000000000000000000000000000000000000000000000000000000000000000F52828F5000000002D2D002DDC0000000000F5000000002D0000002D00DC00000000F5000000002D00
310
0000002D00DC00000000F52828F5000000002D0000DC00000000F500000000000000000000000000000000000000000000000000000000000000000000000000000000000000000000000000000000000000000000000000000000000000000000000000000000000000000000000000000000000000000000000000000000
310
000000000000F50000F5000000000000000000000000000000000000000000000000000000000000000000000000000000000000000000000000000000000000000000000000000000000000000000000000000000000000F52828F5000000002D2D002DDC0000000000F5000000002D0000002D00DC00000000F500000000
310
2D000000002D00DC00000000F52828F5000000002D0000DC00000000F50000000000000000000000000000000000000000000000000000000000000000000000000000000000000000000000000000000000000000000000000000000000000000000000000000000000000000000000000000000000000000000000000000
310
0000000000000000F50000F5000000000000000000000000000000000000000000000000000000000000000000000000000000000000000000000000000000000000000000000000000000000000000000000000000000000000F52828F5000000002D2D002DDC0000000000F5000000002D0000002D00DC00000000F50000
310
00002D000000002D00DC00000000F52828F5000000002D0000DC00000000F5000000000000000000000000000000000000000000000000000000000000000000000000000000000000000000000000000000000000000000000000000000000000000000000000000000000000000000000000000000000000000000000000
310
00000000000000000000F50000F5000000000000000000000000000000000000000000000000000000000000000000000000000000000000000000000000000000000000000000000000000000000000000000000000000000000000F52828F5000000002D2D002DDC0000000000F5000000002D0000002D00DC00000000F5
310
000000002D000000002D00DC00000000F52828F5000000002D00DCDC00000000F500000000000000000000000000000000000000000000000000000000000000000000000000000000000000000000000000000000000000000000000000000000000000000000000000000000000000000000000000000000000000000000
310
000000000000000000000000F50000F5000000000000000000000000000000000000000000000000000000000000000000000000000000000000000000000000000000000000000000000000000000000000000000000000000000000000F52828F5000000002D2D2D2DDCDC00000000F5000000002D2D2D2D2DDCDC000000
310
00F5000000002D2D2D2D2D2DDCDC00000000F52828F5000000002DDCDCDCDC000000F50000000000000000000000000000000000000000000000000000000000000000000000000000000000000000000000000000000000000000000000000000000000000000000000000000000000000000000000000000000000000000
310
0000000000000000000000000000F50000F5000000000000000000000000000000000000000000000000000000000000000000000000000000000000000000000000000000000000000000000000000000000000000000000000000000000000F50000F5000000F5F500F5F5F5F500000000F5000000F5F5F5F5F5F5F50000
310
000000F5000000F5F5F5F5F5F5F5000000000000F50000F500000000000000DC00000000F5000000000000000000000000000000000000000000000000000000000000000000000000000000000000000000000000000000000000000000000000000000000000000000000000000000000000000000000000000000000000
310
00000000000000000000000000000000F50000F5000000000000000000000000000000000000000000000000000000000000000000000000000000000000000000000000000000000000000000000000000000000000000000000000000000000000F50000F5000000F5F5F5F5F5F5F500000000F5000000F5F5F5F5F5F5F5
310
0000000000F5000000F5F5F5F5F5F5F5000000000000F50000F5000000000000000000000000F500000000000000000000000000000000000000000000000000000000000000000000000000000000000000000000000000000000000000000000000000000000000000000000000000000000000000000000000000000000
310
000000000000000000000000000000000000F50000F5000000000000000000000000000000000000000000000000000000000000000000000000000000000000000000000000000000000000000000000000000000000000000000000000000000000000F50000F50000000000000000000000000000F50000000000000000
310
00000000000000F500000000000000000000000000000000F50000F5000000000000000000000000F50000000000000000000000000000000000000000000000000000000000000000000000000000000000000000000000000000000000000000000000000000000000000000000000000000000000000000000000000000
310
0000000000000000000000000000000000000000F50000F5000000000000000000000000000000000000000000000000000000000000000000000000000000000000000000000000000000000000000000000000000000000000000000000000000000000000F50000F50000000000000000000000000000F5000000000000
310
000000000000000000F500000000000000000000000000000000F50000F5000000000000000000000000F5000000000000000000000000000000000000000000000000000000000000000000000000000000000000000000000000000000000000000000000000000000000000000000000000000000000000000000000000
310
00000000000000000000000000000000000000000000F50000F5000000000000000000000000000000000000000000000000000000000000000000000000000000000000000000000000000000000000000000000000000000000000000000000000000000000000F50000F50000000000000000000000000000F500000000
310
0000000000000000000000F500000000000000000000000000000000F50000F5000000000000000000000000F500000000000000000000000000000000000000000000000000000000000000000000000000000000000000000000000000000000000000000000000000000000000000000000000000000000000000000000
310
000000000000000000000000000000000000000000000000F50000F5000000000000000000000000000000000000000000000000000000000000000000000000000000000000000000000000000000000000000000000000000000000000000000000000000000000000F5F5F5F5F5F5F5F5F5F5F5F5F5F5F5F5F5F5F5F5F5
310
F5F5F5F5F5F5F5F5F5F5F5F5F5F5F5F5F5F5F5F5F5F5F5F5F5F5F5F5F5F5F5F5F5F5F5F5F5F5F5F5F5F5F5F5F5F5F50000000000000000000000000000000000000000000000000000000000000000000000000000000000000000000000000000000000000000000000000000000000000000000000000000000000000000
310
0000000000000000000000000000000000000000000000000000F50000F5000000000000000000000000000000000000000000000000000000000000000000000000000000000000000000000000000000000000000000000000000000000000000000000000000000000000F50000F50000000000000000000000000000F5
310
000000000000000000000000000000F500000000000000000000000000000000F50000F5000000000000000000000000F5000000000000000000000000000000000000000000000000000000000000000000000000000000000000000000000000000000000000000000000000000000000000000000000000000000000000
310
00000000000000000000000000000000000000000000000000000000F50000F5000000000000000000000000000000000000000000000000000000000000000000000000000000000000000000000000000000000000000000000000000000000000000000000000000000000000F50000F500000000000000000000000000
310
00F5000000000000000000000000000000F500000000000000000000000000000000F50000F5000000000000000000000000F500000000000000000000000000000000000000000000000000000000000000000000000000000000000000000000000000000000000000000000000000000000000000000000000000000000
310
000000000000000000000000000000000000000000000000000000000000F50000F5000000000000000000000000000000000000000000000000000000000000000000000000000000000000000000000000000000000000000000000000000000000000000000000000000000000000F50000F50000000000DCDCDC000000
310
000000F5000000000000000000000000000000F500000000000000000000000000000000F50000F500000000DC00000000000000F50000000000000000000000000000000000000000000000000000000000000000000000000000000000000000000000000000000000000000000000000000000000000000000000000000
310
0000000000000000000000000000000000000000000000000000000000000000F50000F5000000000000000000000000000000000000000000000000000000000000000000000000000000000000000000000000000000000000000000000000000000000000000000000000000000000000F50000F50000000000DCDCDC00
310
0000000000F500000000DCDCDCDCDC000000000000F500000000DCDCDCDCDCDC000000000000F50000F5000000DCDCDC000000000000F5000000000000000000000000000000000000000000000000000000000000000000000000000000000000000000000000000000000000000000000000000000000000000000000000
310
00000000000000000000000000000000000000000000000000000000000000000000F50000F5000000000000000000000000000000000000000000000000000000000000000000000000000000000000000000000000000000000000000000000000000000000000000000000000000000000000F50000F50000000000DCBE
310
DC000000000000F500000000DCDCDCDCDC000000000000F500000000DCDCDCDCDCDC000000000000F50000F500000000BEDCDCDCDC000000F500000000000000000000000000000000000000000000000000000000000000000000000000000000000000000000000000000000000000000000000000000000000000000000
310
000000000000000000000000000000000000000000000000000000000000000000000000F50000F5000000000000000000000000000000000000000000000000000000000000000000000000000000000000000000000000000000000000000000000000000000000000000000000000000000000000F52828F5000000002D
310
2D2D2DDCDC00000000F5000000002D2DBEBE2DDCDC00000000F5000000002D2D2DBE2D2DDCDC00000000F52828F500000000BEDCDCDCDC000000F50000000000000000000000000000000000000000000000000000000000000000000000000000000000000000000000000000000000000000000000000000000000000000
310
0000000000000000000000000000000000000000000000000000000000000000000000000000F50000F5000000000000000000000000000000000000000000000000000000000000000000000000000000000000000000000000000000000000000000000000000000000000000000000000000000000000F52828F5000000
310
002D2D002DDC0000000000F5000000002D0000002D00DC00000000F5000000002D000000002D00DC00000000F52828F5000000002D0000DC00000000F5000000000000000000000000000000000000000000000000000000000000000000000000000000000000000000000000000000000000000000000000000000000000
310
00000000000000000000000000000000000000000000000000000000000000000000000000000000F50000F5000000000000000000000000000000000000000000000000000000000000000000000000000000000000000000000000000000000000000000000000000000000000000000000000000000000000F52828F500
310
0000002D2D002DDC0000000000F5000000002D0000002D00DC00000000F5000000002D000000002D00DC00000000F52828F5000000002D0000DC00000000F500000000000000000000000000000000000000000000000000000000000000000000000000000000000000000000000000000000000000000000000000000000
310
000000000000000000000000000000000000000000000000000000000000000000000000000000000000F50000F5000000000000000000000000000000000000000000000000000000000000000000000000000000000000000000000000000000000000000000000000000000000000000000000000000000000000F52828
310
F5000000002D2D002DDC0000000000F5000000002D0000002D00DC00000000F5000000002D000000002D00DC00000000F52828F5000000002D0000DC00000000F50000000000000000000000000000000000000000000000000000000000000000000000000000000000000000000000000000000000000000000000000000
310
0000000000000000000000000000000000000000000000000000000000000000000000000000000000000000F50000F5000000000000000000000000000000000000000000000000000000000000000000000000000000000000000000000000000000000000000000000000000000000000000000000000000000000000F5
310
2828F5000000002D2D002DDC0000000000F5000000002D0000002D00DC00000000F5000000002D000000002D00DC00000000F52828F5000000002D0000DC00000000F5000000000000000000000000000000000000000000000000000000000000000000000000000000000000000000000000000000000000000000000000
310
00000000000000000000000000000000000000000000000000000000000000000000000000000000000000000000F50000F50000000000000000000000000000000000000000000000000000000000000000000000000000000000000000000000000000000000000000000000000000000000000000000000000000000000
310
00F52828F5000000002D2D002DDC0000000000F5000000002D0000002DDCDC00000000F5000000002D000000002DDCDC00000000F52828F5000000002D0000DC00000000F500000000000000000000000000000000000000000000000000000000000000000000000000000000000000000000000000000000000000000000
310
000000000000000000000000000000000000000000000000000000000000000000000000000000000000000000000000F50000F5000000000000000000000000000000000000000000000000000000000000000000000000000000000000000000000000000000000000000000000000000000000000000000000000000000
310
000000F52828F5000000002D2D002DDC0000000000F5000000002D0000002DDCDC00000000F5000000002D000000002DDCDC00000000F52828F5000000002D0000DC00000000F50000000000000000000000000000000000000000000000000000000000000000000000000000000000000000000000000000000000000000
310
0000000000000000000000000000000000000000000000000000000000000000000000000000000000000000000000000000F50000F500000000000000000000000000000000000000000000000000000000000000000000000000000000000000000000000000000000000000000000000000000000000000000000000000
310
0000000000F52828F5000000002D2D002DDC0000000000F5000000002D0000002DDCDC00000000F5000000002D000000002DDCDC00000000F52828F5000000002D0000DC00000000F5000000000000000000000000000000000000000000000000000000000000000000000000000000000000000000000000000000000000
310
00000000000000000000000000000000000000000000000000000000000000000000000000000000000000000000000000000000F50000F50000000000000000000000000000000000000000000000000000000000000000000000000000000000000000000000000000000000000000000000000000000000000000000000
310
00000000000000F52828F5000000002D2D002DDC0000000000F5000000002D0000002D00DC00000000F5000000002D000000002D00DC00000000F52828F5000000002D0000DC00000000F500000000000000000000000000000000000000000000000000000000000000000000000000000000000000000000000000000000
310
000000000000000000000000000000000000000000000000000000000000000000000000000000000000000000000000000000000000F50000F5000000000000000000000000000000000000000000000000000000000000000000000000000000000000000000000000000000000000000000000000000000000000000000
310
000000000000000000F52828F5000000002D2D002DDC0000000000F5000000002D0000002D00DC00000000F5000000002D000000002D00DC00000000F52828F5000000002D0000DC00000000F50000000000000000000000000000000000000000000000000000000000000000000000000000000000000000000000000000
310
0000000000000000000000000000000000000000000000000000000000000000000000000000000000000000000000000000000000000000F50000F500000000000000000000000000000000000000000000000000000000000000000000000000000000000000000000000000000000000000000000000000000000000000
310
0000000000000000000000F52828F5000000002D2D002DDC0000000000F5000000002D0000002D00DC00000000F5000000002D000000002D00DC00000000F52828F5000000002D0000DC00000000F5000000000000000000000000000000000000000000000000000000000000000000000000000000000000000000000000
310
00000000000000000000000000000000000000000000000000000000000000000000000000000000000000000000000000000000000000000000F50000F50000000000000000000000000000000000000000000000000000000000000000000000000000000000000000000000000000000000000000000000000000000000
310
00000000000000000000000000F52828F5000000002D2D002DDC0000000000F5000000002D0000002D00DC00000000F5000000002D000000002D00DC00000000F52828F5000000002D0000DC00000000F500000000000000000000000000000000000000000000000000000000000000000000000000000000000000000000
310
000000000000000000000000000000000000000000000000000000000000000000000000000000000000000000000000000000000000000000000000F50000F5000000000000000000000000000000000000000000000000000000000000000000000000000000000000000000000000000000000000000000000000000000
310
000000000000000000000000000000F52828F5000000002D2D002DDCDC00000000F5000000002D0000002DDCDC00000000F5000000002D000000002DDCDC00000000F52828F5000000002D00DCDCDC000000F50000000000000000000000000000000000000000000000000000000000000000000000000000000000000000
310
0000000000000000000000000000000000000000000000000000000000000000000000000000000000000000000000000000000000000000000000000000F50000F500000000000000000000000000000000000000000000000000000000000000000000000000000000000000000000000000000000000000000000000000
310
0000000000000000000000000000000000F52828F5000000002D2D2D2DDC0000000000F5000000002D2D2D2D2DDCDC00000000F5000000002D2D2D2D2D2DDCDC00000000F52828F5000000002DDCDCDC00000000F5000000000000000000000000000000000000000000000000000000000000000000000000000000000000
310
00000000000000000000000000000000000000000000000000000000000000000000000000000000000000000000000000000000000000000000000000000000F50000F50000000000000000000000000000000000000000000000000000000000000000000000000000000000000000000000000000000000000000000000
310
00000000000000000000000000000000000000F50000F5000000F5F5F5F5F5F5F500000000F5000000F5F5F5F5F5F5F50000000000F5000000F5F5F5F5F5F5F5000000000000F50000F500000000000000DC00000000F500000000000000000000000000000000000000000000000000000000000000000000000000000000
310
000000000000000000000000000000000000000000000000000000000000000000000000000000000000000000000000000000000000000000000000000000000000F50000F5000000000000000000000000000000000000000000000000000000000000000000000000000000000000000000000000000000000000000000
310
000000000000000000000000000000000000000000F50000F50000000000000000000000000000F5000000000000000000000000000000F500000000000000000000000000000000F50000F5000000000000000000000000F50000000000000000000000000000000000000000000000000000000000000000000000000000
310
0000000000000000000000000000000000000000000000000000000000000000000000000000000000000000000000000000000000000000000000000000000000000000F50000F500000000000000000000000000000000000000000000000000000000000000000000000000000000000000000000000000000000000000
310
0000000000000000000000000000000000000000000000F50000F50000000000000000000000000000F5000000000000000000000000000000F500000000000000000000000000000000F50000F5000000000000000000000000F5000000000000000000000000000000000000000000000000000000000000000000000000
310
00000000000000000000000000000000000000000000000000000000000000000000000000000000000000000000000000000000000000000000000000000000000000000000F50000F50000000000000000000000000000000000000000000000000000000000000000000000000000000000000000000000000000000000
310
00000000000000000000000000000000000000000000000000F50000F50000000000000000000000000000F5000000000000000000000000000000F500000000000000000000000000000000F50000F5000000000000000000000000F500000000000000000000000000000000000000000000000000000000000000000000
310
000000000000000000000000000000000000000000000000000000000000000000000000000000000000000000000000000000000000000000000000000000000000000000000000F50000F5000000000000000000000000000000000000000000000000000000000000000000000000000000000000000000000000000000
310
000000000000000000000000000000000000000000000000000000F50000F50000000000000000000000000000F5000000000000000000000000000000F500000000000000000000000000000000F50000F5000000000000000000000000F50000000000000000000000000000000000000000000000000000000000000000
310
0000000000000000000000000000000000000000000000000000000000000000000000000000000000000000000000000000000000000000000000000000000000000000000000000000F50000F500000000000000000000000000000000000000000000000000000000000000000000000000000000000000000000000000
310
0000000000000000000000000000000000000000000000000000000000F5F5F5F5F5F5F5F5F5F5F5F5F5F5F5F5F5F5F5F5F5F5F5F5F5F5F5F5F5F5F5F5F5F5F5F5F5F5F5F5F5F5F5F5F5F5F5F5F5F5F5F5F5F5F5F5F5F5F5F5F5F5F5F5F5F5F5F5000000000000000000000000000000000000000000000000000000000000
310
00000000000000000000000000000000000000000000000000000000000000000000000000000000000000000000000000000000000000000000000000000000000000000000000000000000F50000F50000000000000000000000000000000000000000000000000000000000000000000000000000000000000000000000
310
00000000000000000000000000000000000000000000000000000000000000F50000F50000000000000000000000000000F5000000000000000000000000000000F500000000000000000000000000000000F50000F5000000000000000000000000F500000000000000000000000000000000000000000000000000000000
310
000000000000000000000000000000000000000000000000000000000000000000000000000000000000000000000000000000000000000000000000000000000000000000000000000000000000F50000F5000000000000000000000000000000000000000000000000000000000000000000000000000000000000000000
310
000000000000000000000000000000000000000000000000000000000000000000F50000F50000000000000000000000000000F5000000000000000000000000000000F500000000000000000000000000000000F50000F5000000000000000000000000F50000000000000000000000000000000000000000000000000000
310
0000000000000000000000000000000000000000000000000000000000000000000000000000000000000000000000000000000000000000000000000000000000000000000000000000000000000000F50000F500000000000000000000000000000000000000000000000000000000000000000000000000000000000000
310
0000000000000000000000000000000000000000000000000000000000000000000000F50000F50000000000000000000000000000F5000000000000000000000000000000F500000000000000000000000000000000F50000F500000000DC00000000000000F5000000000000000000000000000000000000000000000000
310
00000000000000000000000000000000000000000000000000000000000000000000000000000000000000000000000000000000000000000000000000000000000000000000000000000000000000000000F50000F50000000000000000000000000000000000000000000000000000000000000000000000000000000000
310
00000000000000000000000000000000000000000000000000000000000000000000000000F50000F50000000000DCDCDC000000000000F500000000DCDCDCDCDC000000000000F500000000DCDCDCDCDCDC000000000000F50000F5000000DCDCDC000000000000F500000000000000000000000000000000000000000000
310
000000000000000000000000000000000000000000000000000000000000000000000000000000000000000000000000000000000000000000000000000000000000000000000000000000000000000000000000F50000F5000000000000000000000000000000000000000000000000000000000000000000000000000000
310
000000000000000000000000000000000000000000000000000000000000000000000000000000F52828F50000000000DC00DC000000000000F500000000DCDCDCDCDC000000000000F500000000DCDCDCDCDCDC000000000000F52828F500000000DC0000DC00000000F50000000000000000000000000000000000000000
310
0000000000000000000000000000000000000000000000000000000000000000000000000000000000000000000000000000000000000000000000000000000000000000000000000000000000000000000000000000F50000F500000000000000000000000000000000000000000000000000000000000000000000000000
310
0000000000000000000000000000000000000000000000000000000000000000000000000000000000F52828F5000000002D2D2D2DDC0000000000F5000000002D2DBEBE2DDCDC00000000F5000000002D2D2DBE2D2DDCDC00000000F52828F500000000BEDCDCDCDC000000F5000000000000000000000000000000000000
310
00000000000000000000000000000000000000000000000000000000000000000000000000000000000000000000000000000000000000000000000000000000000000000000000000000000000000000000000000000000F50000F50000000000000000000000000000000000000000000000000000000000000000000000
310
00000000000000000000000000000000000000000000000000000000000000000000000000000000000000F52828F5000000002D2D2D2DDCDC00000000F5000000002D0000002DDCDC00000000F5000000002D0000002D2DDCDC00000000F52828F5000000002D0000DCDC000000F500000000000000000000000000000000
310
000000000000000000000000000000000000000000000000000000000000000000000000000000000000000000000000000000000000000000000000000000000000000000000000000000000000000000000000000000000000F50000F5000000000000000000000000000000000000000000000000000000000000000000
310
000000000000000000000000000000000000000000000000000000000000000000000000000000000000000000F52828F5000000002D2D002DDC0000000000F5000000002D0000002D00DC00000000F5000000002D000000002D00DC00000000F52828F5000000002D0000DC00000000F50000000000000000000000000000
310
0000000000000000000000000000000000000000000000000000000000000000000000000000000000000000000000000000000000000000000000000000000000000000000000000000000000000000000000000000000000000000F50000F500000000000000000000000000000000000000000000000000000000000000
310
0000000000000000000000000000000000000000000000000000000000000000000000000000000000000000000000F52828F5000000002D2D002DDC0000000000F5000000002D0000002D00DC00000000F5000000002D000000002D00DC00000000F52828F5000000002D0000DC00000000F5000000000000000000000000
310
00000000000000000000000000000000000000000000000000000000000000000000000000000000000000000000000000000000000000000000000000000000000000000000000000000000000000000000000000000000000000000000F50000F50000000000000000000000000000000000000000000000000000000000
310
00000000000000000000000000000000000000000000000000000000000000000000000000000000000000000000000000F52828F5000000002D2D002DDC0000000000F5000000002D0000002D00DC00000000F5000000002D000000002D00DC00000000F52828F5000000002D0000DC00000000F500000000000000000000
310
000000000000000000000000000000000000000000000000000000000000000000000000000000000000000000000000000000000000000000000000000000000000000000000000000000000000000000000000000000000000000000000000F50000F5000000000000000000000000000000000000000000000000000000
310
000000000000000000000000000000000000000000000000000000000000000000000000000000000000000000000000000000F52828F5000000002D2D002DDC0000000000F5000000002D0000002DDCDC00000000F5000000002D000000002DDCDC00000000F52828F5000000002D0000DC00000000F50000000000000000
310
0000000000000000000000000000000000000000000000000000000000000000000000000000000000000000000000000000000000000000000000000000000000000000000000000000000000000000000000000000000000000000000000000000F50000F500000000000000000000000000000000000000000000000000
310
0000000000000000000000000000000000000000000000000000000000000000000000000000000000000000000000000000000000F52828F5000000002D2D002DDC0000000000F5000000002D0000002DDCDC00000000F5000000002D000000002DDCDC00000000F52828F5000000002D0000DC00000000F5000000000000
310
00000000000000000000000000000000000000000000000000000000000000000000000000000000000000000000000000000000000000000000000000000000000000000000000000000000000000000000000000000000000000000000000000000000F50000F50000000000000000000000000000000000000000000000
310
00000000000000000000000000000000000000000000000000000000000000000000000000000000000000000000000000000000000000F52828F5000000002D2D002DDC0000000000F5000000002D0000002DDCDC00000000F5000000002D000000002DDCDC00000000F52828F5000000002D0000DC00000000F500000000
310
000000000000000000000000000000000000000000000000000000000000000000000000000000000000000000000000000000000000000000000000000000000000000000000000000000000000000000000000000000000000000000000000000000000000F50000F5000000000000000000000000000000000000000000
310
000000000000000000000000000000000000000000000000000000000000000000000000000000000000000000000000000000000000000000F52828F5000000002D2D002DDC0000000000F5000000002D0000002D00DC00000000F5000000002D000000002D00DC00000000F52828F5000000002D0000DC00000000F50000
310
0000000000000000000000000000000000000000000000000000000000000000000000000000000000000000000000000000000000000000000000000000000000000000000000000000000000000000000000000000000000000000000000000000000000000000F50000F500000000000000000000000000000000000000
310
0000000000000000000000000000000000000000000000000000000000000000000000000000000000000000000000000000000000000000000000F52828F5000000002D2D002DDC0000000000F5000000002D0000002D00DC00000000F5000000002D000000002D00DC00000000F52828F5000000002D0000DC00000000F5
310
00000000000000000000000000000000000000000000000000000000000000000000000000000000000000000000000000000000000000000000000000000000000000000000000000000000000000000000000000000000000000000000000000000000000000000000F50000F50000000000000000000000000000000000
310
00000000000000000000000000000000000000000000000000000000000000000000000000000000000000000000000000000000000000000000000000F52828F5000000002D2D002DDC0000000000F5000000002D0000002D00DC00000000F5000000002D000000002D00DC00000000F52828F5000000002D0000DC000000
310
00F500000000000000000000000000000000000000000000000000000000000000000000000000000000000000000000000000000000000000000000000000000000000000000000000000000000000000000000000000000000000000000000000000000000000000000000F50000F5000000000000000000000000000000
310
000000000000000000000000000000000000000000000000000000000000000000000000000000000000000000000000000000000000000000000000000000F52828F5000000002D2D2D2DDCDC00000000F5000000002D2D2D2D2DDCDC00000000F5000000002D2D2D2D2D2DDCDC00000000F52828F5000000002DDCDCDCDC
310
000000F500000000000000000000000000000000000000000000000000000000000000000000000000000000000000000000000000000000000000000000000000000000000000000000000000000000000000000000000000000000000000000000000000000000000000000000F50000F500000000000000000000000000
310
0000000000000000000000000000000000000000000000000000000000000000000000000000000000000000000000000000000000000000000000000000000000F52828F5000000002D2D2D2DDC0000000000F5000000002D2D2D2D2DDCDC00000000F5000000002D2D2D2D2D2DDCDC00000000F52828F5000000002DDCDC
310
DC00000000F500000000000000000000000000000000000000000000000000000000000000000000000000000000000000000000000000000000000000000000000000000000000000000000000000000000000000000000000000000000000000000000000000000000000000000000F50000F50000000000000000000000
310
00000000000000000000000000000000000000000000000000000000000000000000000000000000000000000000000000000000000000000000000000000000000000F50000F5000000F5F5F5F5F5F5F500000000F5000000F5F5F5F5F5F5F50000000000F5000000F5F5F5F5F5F5F5000000000000F50000F50000000000
310
0000DC00000000F500000000000000000000000000000000000000000000000000000000000000000000000000000000000000000000000000000000000000000000000000000000000000000000000000000000000000000000000000000000000000000000000000000000000000000000F50000F5000000000000000000
310
000000000000000000000000000000000000000000000000000000000000000000000000000000000000000000000000000000000000000000000000000000000000000000F50000F50000000000000000000000000000F5000000000000000000000000000000F500000000000000000000000000000000F50000F5000000
310
000000000000000000F500000000000000000000000000000000000000000000000000000000000000000000000000000000000000000000000000000000000000000000000000000000000000000000000000000000000000000000000000000000000000000000000000000000000000000000F50000F500000000000000
310
0000000000000000000000000000000000000000000000000000000000000000000000000000000000000000000000000000000000000000000000000000000000000000000000F50000F50000000000000000000000000000F5000000000000000000000000000000F500000000000000000000000000000000F50000F500
310
0000000000000000000000F500000000000000000000000000000000000000000000000000000000000000000000000000000000000000000000000000000000000000000000000000000000000000000000000000000000000000000000000000000000000000000000000000000000000000000000F50000F50000000000
310
00000000000000000000000000000000000000000000000000000000000000000000000000000000000000000000000000000000000000000000000000000000000000000000000000F50000F50000000000000000000000000000F5000000000000000000000000000000F500000000000000000000000000000000F50000
310
F5000000000000000000000000F500000000000000000000000000000000000000000000000000000000000000000000000000000000000000000000000000000000000000000000000000000000000000000000000000000000000000000000000000000000000000000000000000000000000000000000F50000F5000000
310
000000000000000000000000000000000000000000000000000000000000000000000000000000000000000000000000000000000000000000000000000000000000000000000000000000F50000F50000000000000000000000000000F5000000000000000000000000000000F500000000000000000000000000000000F5
310
0000F5000000000000000000000000F500000000000000000000000000000000000000000000000000000000000000000000000000000000000000000000000000000000000000000000000000000000000000000000000000000000000000000000000000000000000000000000000000000000000000000000F50000F500
310
0000000000000000000000000000000000000000000000000000000000000000000000000000000000000000000000000000000000000000000000000000000000000000000000000000000000F5F5F5F5F5F5F5F5F5F5F5F5F5F5F5F5F5F5F5F5F5F5F5F5F5F5F5F5F5F5F5F5F5F5F5F5F5F5F5F5F5F5F5F5F5F5F5F5F5F5
310
F5F5F5F5F5F5F5F5F5F5F5F5F5F5F5F5F5F500000000000000000000000000000000000000000000000000000000000000000000000000000000000000000000000000000000000000000000000000000000000000000000000000000000000000000000000000000000000000000000000000000000000000000000F50000
310
F5000000000000000000000000000000000000000000000000000000000000000000000000000000000000000000000000000000000000000000000000000000000000000000000000000000000000F50000F50028282828282828282828282800F5002828282828282828282828282800F500282828282828282828282828
310
282828F50000F5000028282828282828000000F500000000000000000000000000000000000000000000000000000000000000000000000000000000000000000000000000000000000000000000000000000000000000000000000000000000000000000000000000000000000000000000000000000000000000000000F5
310
0000F5000000000000000000000000000000000000000000000000000000000000000000000000000000000000000000000000000000000000000000000000000000000000000000000000000000000000F50000F50028282828282828282828282800F5002828282828282828282828282800F52800282828282828282828
310
2828282828F50000F5000000282828282828000000F5000000000000000000000000000000000000000000000000000000000000000000000000000000000000000000000000000000000000000000000000000000000000000000000000000000000000000000000000000000000000000000000000000000000000000000
310
00F50000F5000000000000000000000000000000000000000000000000000000000000000000000000000000000000000000000000000000000000000000000000000000000000000000000000000000000000F5F5F5F5F5F5F5F5F5F5F5F5F5F5F5F5F5F5F5F5F5F5F5F5F5F5F5F5F5F5F5F5F5F5F5F5F5F5F5F5F5F5F5F5
310
F5F5F5F5F5F5F5F5F5F5F5F5F5F5F5F5F5F5F5F5F5F5F5F5F5F5F5F5F5F5F5F5F5F5F5F5F5F5F5F5F5F5F5F5F5F5F5F5F5F5F5F5F5F5F5F5F5F5F5F5F5F5F5F5F5F5F5F5F5F5F5F5F5F5F5F5F5F5F5F5F5F5F5F5F5F5F5F5F5F5F5F5F5F5F5F5F5F5F5F5F5F5F5F5F5F5F5F5F5F5F5F5F5F5F5F5F5F5F5F5F5F5F5F5F5F5F5
310
F5F5F5F50000F5000000000000000000000000000000000000000000000000000000000000000000000000000000000000000000000000000000000000000000000000000000000000000000000000000000000000F50000F5F5F500F5F5F5F5F5F5F5F5F5F5F5F50000F5F5F500F5F5F5F5F5F5F50000F50000F5F5F5F5F5
310
0000F5F5F5F5F5F5F500F50000F5F5F50000F500F5F5F5F5F5F5F5F5F50000000000000000000000000000000000000000000000000000000000000000000000000000000000000000000000000000000000000000000000000000000000000000000000000000000000000000000000000000000000000000000000000000
310
0000000000000000F5000000000000000000000000000000000000000000000000000000000000000000000000000000000000000000000000000000000000000000000000000000000000000000000000000000000000F50000F5F5F5F5F5F5F5F5F5F50000F5F5F5F50000F5F5F5F5F5F5F5F5F5F5F50000F5F500F5F5F5
310
F5F50000F5F5F5F5F500F5F5F5F5F5F5F50000F5F5F5F5F5F5F5F5F5F5F5F5000000000000000000000000000000000000000000000000000000000000000000000000000000000000000000000000000000000000000000000000000000000000000000000000000000000000000000000000000000000000000000000000
310
00000000000000000000F5000000000000000000000000000000000000000000000000000000000000000000000000000000000000000000000000000000000000000000000000000000000000000000000000000000000000F5F5F5F5F5F5F5F5F5F5F5F5F5F5F5F5F5F5F5F5F5F5F5F5F5F5F5F5F5F5F5F5F5F5F5F5F5F5
310
F5F5F5F5F5F5F5F5F5F5F5F5F5F5F5F5F5F5F5F5F5F5F5F5F5F5F5F5F5F5F5F5F5F5F5F5F5F5F5F5F5F5F5F5F5F5F5F5F5F5F5F5F5F5F5F5F5F5F5F5F5F5F5F5F5F5F5F5F5F5F5F5F5F5F5F5F5F5F5F5F5F5F5F5F5F5F5F5F5F5F5F5F5F5F5F5F5F5F5F5F5F5F5F5F5F5F5F5F5F5F5F5F5F5F5F5F5F5F5F5F5F5F5F5F5F5F5
310
F5F5F5F5F5F5F5F5F5F5F5F5F5000000000000000000000000000000000000000000000000000000000000000000000000000000000000000000000000000000000000000000000000000000000000000000000000000000000000000000000000000000000000000000000000000000000000000000000000000000000000
310
00000000000000000000000000000000000000000000000000000000000000000000000000000000000000000000000000000000000000000000000000000000000000000000000000000000000000000000000000000000000000000000000000000000000000000000000000000000000000000000000000000000000000
310
000000000000000000000000000000000000000000000000000000000000000000000000000000000000000000000000000000000000
  0
XRECORD
  5
2BD0
102
{ACAD_REACTORS
330
2585
102
}
330
2585
100
AcDbXrecord
280
     1
102
MATERIAL
148
0.0
149
0.0
149
0.0
 93
        0
 94
      127
282
     0
 72
     0
 77
     0
171
     0
175
     0
179
     0
273
     0
  0
XRECORD
  5
2587
102
{ACAD_REACTORS
330
2585
102
}
330
2585
100
AcDbXrecord
280
     1
270
     1
271
     1
  0
XRECORD
  5
2586
102
{ACAD_REACTORS
330
2585
102
}
330
2585
100
AcDbXrecord
280
     1
270
     1
271
     1
  0
XRECORD
  5
258A
102
{ACAD_REACTORS
330
2585
102
}
330
2585
100
AcDbXrecord
280
     1
270
     1
271
     1
  0
XRECORD
  5
2589
102
{ACAD_REACTORS
330
2585
102
}
330
2585
100
AcDbXrecord
280
     1
270
     1
271
     1
  0
XRECORD
  5
258B
102
{ACAD_REACTORS
330
2585
102
}
330
2585
100
AcDbXrecord
280
     1
270
     1
271
     1
  0
XRECORD
  5
2588
102
{ACAD_REACTORS
330
2585
102
}
330
2585
100
AcDbXrecord
280
     1
270
     1
271
     1
  0
XRECORD
  5
2BCF
102
{ACAD_REACTORS
330
257D
102
}
330
257D
100
AcDbXrecord
280
     1
102
MATERIAL
148
0.0
149
0.0
149
0.0
 93
        0
 94
      127
282
     0
 72
     0
 77
     0
171
     0
175
     0
179
     0
273
     0
  0
XRECORD
  5
257F
102
{ACAD_REACTORS
330
257D
102
}
330
257D
100
AcDbXrecord
280
     1
270
     1
271
     1
  0
XRECORD
  5
257E
102
{ACAD_REACTORS
330
257D
102
}
330
257D
100
AcDbXrecord
280
     1
270
     1
271
     1
  0
XRECORD
  5
2582
102
{ACAD_REACTORS
330
257D
102
}
330
257D
100
AcDbXrecord
280
     1
270
     1
271
     1
  0
XRECORD
  5
2581
102
{ACAD_REACTORS
330
257D
102
}
330
257D
100
AcDbXrecord
280
     1
270
     1
271
     1
  0
XRECORD
  5
2583
102
{ACAD_REACTORS
330
257D
102
}
330
257D
100
AcDbXrecord
280
     1
270
     1
271
     1
  0
XRECORD
  5
2580
102
{ACAD_REACTORS
330
257D
102
}
330
257D
100
AcDbXrecord
280
     1
270
     1
271
     1
  0
XRECORD
  5
2BD1
102
{ACAD_REACTORS
330
258D
102
}
330
258D
100
AcDbXrecord
280
     1
102
MATERIAL
148
0.0
149
0.0
149
0.0
 93
        0
 94
      127
282
     0
 72
     0
 77
     0
171
     0
175
     0
179
     0
273
     0
  0
XRECORD
  5
258F
102
{ACAD_REACTORS
330
258D
102
}
330
258D
100
AcDbXrecord
280
     1
270
     1
271
     1
  0
XRECORD
  5
258E
102
{ACAD_REACTORS
330
258D
102
}
330
258D
100
AcDbXrecord
280
     1
270
     1
271
     1
  0
XRECORD
  5
2592
102
{ACAD_REACTORS
330
258D
102
}
330
258D
100
AcDbXrecord
280
     1
270
     1
271
     1
  0
XRECORD
  5
2591
102
{ACAD_REACTORS
330
258D
102
}
330
258D
100
AcDbXrecord
280
     1
270
     1
271
     1
  0
XRECORD
  5
2593
102
{ACAD_REACTORS
330
258D
102
}
330
258D
100
AcDbXrecord
280
     1
270
     1
271
     1
  0
XRECORD
  5
2590
102
{ACAD_REACTORS
330
258D
102
}
330
258D
100
AcDbXrecord
280
     1
270
     1
271
     1
  0
XRECORD
  5
2C04
102
{ACAD_REACTORS
330
2C03
102
}
330
2C03
100
AcDbXrecord
280
     1
102
ACAD_ROUNDTRIP_2012_MLEADER_STYLE
298
     1
  0
XRECORD
  5
2C06
102
{ACAD_REACTORS
330
2C05
102
}
330
2C05
100
AcDbXrecord
280
     1
102
DISPLAYNAME
  1
Imperial24
102
FLAGS
 90
        0
  0
XRECORD
  5
2C0A
102
{ACAD_REACTORS
330
2C09
102
}
330
2C09
100
AcDbXrecord
280
     1
102
DISPLAYNAME
  1
Metric50
102
FLAGS
 90
        0
  0
CELLSTYLEMAP
  5
2BCD
102
{ACAD_REACTORS
330
25F7
102
}
330
25F7
100
AcDbCellStyleMap
 90
        3
300
CELLSTYLE
  1
TABLEFORMAT_BEGIN
 90
        5
170
     1
 91
        0
 92
    32768
 62
   257
 93
        1
300
CONTENTFORMAT
  1
CONTENTFORMAT_BEGIN
 90
        0
 91
        0
 92
      512
 93
        0
300

 40
0.0
140
1.0
 94
        5
 62
     0
340
25C0
144
0.25
309
CONTENTFORMAT_END
171
     0
 94
        0
309
TABLEFORMAT_END
  1
CELLSTYLE_BEGIN
 90
        1
 91
        1
300
_TITLE
309
CELLSTYLE_END
300
CELLSTYLE
  1
TABLEFORMAT_BEGIN
 90
        5
170
     1
 91
        0
 92
        0
 62
   257
 93
        1
300
CONTENTFORMAT
  1
CONTENTFORMAT_BEGIN
 90
        0
 91
        0
 92
      512
 93
        0
300

 40
0.0
140
1.0
 94
        5
 62
     0
340
25C0
144
0.18
309
CONTENTFORMAT_END
171
     0
 94
        0
309
TABLEFORMAT_END
  1
CELLSTYLE_BEGIN
 90
        2
 91
        1
300
_HEADER
309
CELLSTYLE_END
300
CELLSTYLE
  1
TABLEFORMAT_BEGIN
 90
        5
170
     1
 91
        0
 92
        0
 62
   257
 93
        1
300
CONTENTFORMAT
  1
CONTENTFORMAT_BEGIN
 90
        0
 91
        0
 92
      512
 93
        0
300

 40
0.0
140
1.0
 94
        2
 62
     0
340
25C0
144
0.18
309
CONTENTFORMAT_END
171
     0
 94
        0
309
TABLEFORMAT_END
  1
CELLSTYLE_BEGIN
 90
        3
 91
        2
300
_DATA
309
CELLSTYLE_END
  0
XRECORD
  5
2C02
102
{ACAD_REACTORS
330
25F7
102
}
330
25F7
100
AcDbXrecord
280
     1
102
ACAD_ROUNDTRIP_PRE2007_TABLESTYLE
 90
      512
 91
        0
  1

 92
      512
 93
        0
  2

 94
      512
 95
        0
  3

  0
XRECORD
  5
2BDD
102
{ACAD_REACTORS
330
2BDC
102
}
330
2BDC
100
AcDbXrecord
280
     1
102
RTVSPost2010Prop28
280
     1
102
RTVSPost2010PropOp28
 70
     1
102
RTVSPost2010Prop29
280
     1
102
RTVSPost2010PropOp29
 70
     1
102
RTVSPost2010Prop30
280
     0
102
RTVSPost2010PropOp30
 70
     1
102
RTVSPost2010Prop31
280
     0
102
RTVSPost2010PropOp31
 70
     1
102
RTVSPost2010Prop32
280
     0
102
RTVSPost2010PropOp32
 70
     1
102
RTVSPost2010Prop33
280
     0
102
RTVSPost2010PropOp33
 70
     1
102
RTVSPost2010Prop34
280
     0
102
RTVSPost2010PropOp34
 70
     1
102
RTVSPost2010Prop35
280
     0
102
RTVSPost2010PropOp35
 70
     1
102
RTVSPost2010Prop36
280
     0
102
RTVSPost2010PropOp36
 70
     1
102
RTVSPost2010Prop37
 90
       50
102
RTVSPost2010PropOp37
 70
     1
102
RTVSPost2010Prop38
140
0.0
102
RTVSPost2010PropOp38
 70
     1
102
RTVSPost2010Prop39
140
1.0
102
RTVSPost2010PropOp39
 70
     1
102
RTVSPost2010Prop40
 90
        0
102
RTVSPost2010PropOp40
 70
     1
102
RTVSPost2010Prop41ColorIndex
 90
       18
102
RTVSPost2010Prop41ColorRGB
 90
        0
102
RTVSPost2010PropOp41
 70
     1
102
RTVSPost2010Prop42
 90
       50
102
RTVSPost2010PropOp42
 70
     1
102
RTVSPost2010Prop43
 90
        3
102
RTVSPost2010PropOp43
 70
     1
102
RTVSPost2010Prop44ColorIndex
 90
        5
102
RTVSPost2010Prop44ColorRGB
 90
      255
102
RTVSPost2010PropOp44
 70
     1
102
RTVSPost2010Prop45
280
     0
102
RTVSPost2010PropOp45
 70
     1
102
RTVSPost2010Prop46
 90
       50
102
RTVSPost2010PropOp46
 70
     1
102
RTVSPost2010Prop47
 90
       50
102
RTVSPost2010PropOp47
 70
     1
102
RTVSPost2010Prop48
 90
       50
102
RTVSPost2010PropOp48
 70
     1
102
RTVSPost2010Prop49
280
     0
102
RTVSPost2010PropOp49
 70
     1
102
RTVSPost2010Prop50
 90
       50
102
RTVSPost2010PropOp50
 70
     1
102
RTVSPost2010Prop51ColorIndex
 90
      256
102
RTVSPost2010Prop51ColorRGB
 90
-16777216
102
RTVSPost2010PropOp51
 70
     0
102
RTVSPost2010Prop52
140
1.0
102
RTVSPost2010PropOp52
 70
     0
102
RTVSPost2010Prop53
 90
        2
102
RTVSPost2010PropOp53
 70
     1
102
RTVSPost2010Prop54
  1
strokes_ogs.tif
102
RTVSPost2010PropOp54
 70
     1
102
RTVSPost2010Prop55
280
     0
102
RTVSPost2010PropOp55
 70
     1
102
RTVSPost2010Prop56
140
1.0
102
RTVSPost2010PropOp56
 70
     1
102
RTVSPost2010Prop57
140
1.0
102
RTVSPost2010PropOp57
 70
     1
102
RTVSPropertyOp0
 70
     1
102
RTVSPropertyOp1
 70
     1
102
RTVSPropertyOp2
 70
     1
102
RTVSPropertyOp3
 70
     1
102
RTVSPropertyOp4
 70
     1
102
RTVSPropertyOp5
 70
     1
102
RTVSPropertyOp6
 70
     1
102
RTVSPropertyOp7
 70
     1
102
RTVSPropertyOp8
 70
     1
102
RTVSPropertyOp9
 70
     1
102
RTVSPropertyOp10
 70
     1
102
RTVSPropertyOp11
 70
     1
102
RTVSPropertyOp12
 70
     1
102
RTVSPropertyOp13
 70
     1
102
RTVSPropertyOp14
 70
     1
102
RTVSPropertyOp15
 70
     1
102
RTVSPropertyOp16
 70
     1
102
RTVSPropertyOp17
 70
     1
102
RTVSPropertyOp18
 70
     1
102
RTVSPropertyOp19
 70
     1
102
RTVSPropertyOp20
 70
     1
102
RTVSPropertyOp21
 70
     1
102
RTVSPropertyOp22
 70
     1
102
RTVSPropertyOp23
 70
     1
102
RTVSPropertyOp24
 70
     1
102
RTVSPropertyOp25
 70
     1
102
RTVSPropertyOp26
 70
     1
102
RTVSPropertyOp27
 70
     1
102
RTVSPropertyOp28
 70
     1
102
RTVSPropertyOp29
 70
     1
102
RTVSPropertyOp30
 70
     1
102
RTVSPropertyOp31
 70
     1
102
RTVSPropertyOp32
 70
     1
102
RTVSPropertyOp33
 70
     1
102
RTVSPropertyOp34
 70
     1
102
RTVSPropertyOp35
 70
     1
102
RTVSPropertyOp36
 70
     1
102
RTVSPropertyOp37
 70
     1
102
RTVSPropertyOp38
 70
     1
102
RTVSPropertyOp39
 70
     1
102
RTVSPropertyOp40
 70
     1
102
RTVSPropertyOp41
 70
     1
102
RTVSPropertyOp42
 70
     1
102
RTVSPropertyOp43
 70
     1
102
RTVSPropertyOp44
 70
     1
102
RTVSPropertyOp45
 70
     1
102
RTVSPropertyOp46
 70
     1
102
RTVSPropertyOp47
 70
     1
102
RTVSPropertyOp48
 70
     1
102
RTVSPropertyOp49
 70
     1
102
RTVSPropertyOp50
 70
     1
102
RTVSPropertyOp51
 70
     0
102
RTVSPropertyOp52
 70
     0
102
RTVSPropertyOp53
 70
     1
102
RTVSPropertyOp54
 70
     1
102
RTVSPropertyOp55
 70
     1
102
RTVSPropertyOp56
 70
     1
102
RTVSPropertyOp57
 70
     1
102
RTVSPropertyOp58
 70
     1
102
RTVSPropertyOp59
 70
     1
102
RTVSPropertyOp60
 70
     1
102
RTVSPropertyOp61
 70
     1
102
RTVSPropertyOp62
 70
     1
  0
XRECORD
  5
2BDB
102
{ACAD_REACTORS
330
2BDA
102
}
330
2BDA
100
AcDbXrecord
280
     1
102
RTVSPost2010Prop28
280
     0
102
RTVSPost2010PropOp28
 70
     1
102
RTVSPost2010Prop29
280
     1
102
RTVSPost2010PropOp29
 70
     1
102
RTVSPost2010Prop30
280
     1
102
RTVSPost2010PropOp30
 70
     1
102
RTVSPost2010Prop31
280
     0
102
RTVSPost2010PropOp31
 70
     1
102
RTVSPost2010Prop32
280
     0
102
RTVSPost2010PropOp32
 70
     1
102
RTVSPost2010Prop33
280
     0
102
RTVSPost2010PropOp33
 70
     1
102
RTVSPost2010Prop34
280
     0
102
RTVSPost2010PropOp34
 70
     1
102
RTVSPost2010Prop35
280
     0
102
RTVSPost2010PropOp35
 70
     1
102
RTVSPost2010Prop36
280
     0
102
RTVSPost2010PropOp36
 70
     1
102
RTVSPost2010Prop37
 90
       50
102
RTVSPost2010PropOp37
 70
     1
102
RTVSPost2010Prop38
140
0.0
102
RTVSPost2010PropOp38
 70
     1
102
RTVSPost2010Prop39
140
1.0
102
RTVSPost2010PropOp39
 70
     1
102
RTVSPost2010Prop40
 90
        0
102
RTVSPost2010PropOp40
 70
     1
102
RTVSPost2010Prop41ColorIndex
 90
       18
102
RTVSPost2010Prop41ColorRGB
 90
        0
102
RTVSPost2010PropOp41
 70
     1
102
RTVSPost2010Prop42
 90
       50
102
RTVSPost2010PropOp42
 70
     1
102
RTVSPost2010Prop43
 90
        3
102
RTVSPost2010PropOp43
 70
     1
102
RTVSPost2010Prop44ColorIndex
 90
        5
102
RTVSPost2010Prop44ColorRGB
 90
      255
102
RTVSPost2010PropOp44
 70
     1
102
RTVSPost2010Prop45
280
     0
102
RTVSPost2010PropOp45
 70
     1
102
RTVSPost2010Prop46
 90
       50
102
RTVSPost2010PropOp46
 70
     1
102
RTVSPost2010Prop47
 90
       50
102
RTVSPost2010PropOp47
 70
     1
102
RTVSPost2010Prop48
 90
       50
102
RTVSPost2010PropOp48
 70
     1
102
RTVSPost2010Prop49
280
     0
102
RTVSPost2010PropOp49
 70
     1
102
RTVSPost2010Prop50
 90
       50
102
RTVSPost2010PropOp50
 70
     1
102
RTVSPost2010Prop51ColorIndex
 90
      256
102
RTVSPost2010Prop51ColorRGB
 90
-16777216
102
RTVSPost2010PropOp51
 70
     0
102
RTVSPost2010Prop52
140
1.0
102
RTVSPost2010PropOp52
 70
     0
102
RTVSPost2010Prop53
 90
        2
102
RTVSPost2010PropOp53
 70
     1
102
RTVSPost2010Prop54
  1
strokes_ogs.tif
102
RTVSPost2010PropOp54
 70
     1
102
RTVSPost2010Prop55
280
     0
102
RTVSPost2010PropOp55
 70
     1
102
RTVSPost2010Prop56
140
1.0
102
RTVSPost2010PropOp56
 70
     1
102
RTVSPost2010Prop57
140
1.0
102
RTVSPost2010PropOp57
 70
     1
102
RTVSPropertyOp0
 70
     1
102
RTVSPropertyOp1
 70
     1
102
RTVSPropertyOp2
 70
     1
102
RTVSPropertyOp3
 70
     1
102
RTVSPropertyOp4
 70
     1
102
RTVSPropertyOp5
 70
     1
102
RTVSPropertyOp6
 70
     1
102
RTVSPropertyOp7
 70
     1
102
RTVSPropertyOp8
 70
     1
102
RTVSPropertyOp9
 70
     1
102
RTVSPropertyOp10
 70
     1
102
RTVSPropertyOp11
 70
     1
102
RTVSPropertyOp12
 70
     1
102
RTVSPropertyOp13
 70
     1
102
RTVSPropertyOp14
 70
     1
102
RTVSPropertyOp15
 70
     1
102
RTVSPropertyOp16
 70
     1
102
RTVSPropertyOp17
 70
     1
102
RTVSPropertyOp18
 70
     1
102
RTVSPropertyOp19
 70
     1
102
RTVSPropertyOp20
 70
     1
102
RTVSPropertyOp21
 70
     1
102
RTVSPropertyOp22
 70
     1
102
RTVSPropertyOp23
 70
     1
102
RTVSPropertyOp24
 70
     1
102
RTVSPropertyOp25
 70
     1
102
RTVSPropertyOp26
 70
     1
102
RTVSPropertyOp27
 70
     1
102
RTVSPropertyOp28
 70
     1
102
RTVSPropertyOp29
 70
     1
102
RTVSPropertyOp30
 70
     1
102
RTVSPropertyOp31
 70
     1
102
RTVSPropertyOp32
 70
     1
102
RTVSPropertyOp33
 70
     1
102
RTVSPropertyOp34
 70
     1
102
RTVSPropertyOp35
 70
     1
102
RTVSPropertyOp36
 70
     1
102
RTVSPropertyOp37
 70
     1
102
RTVSPropertyOp38
 70
     1
102
RTVSPropertyOp39
 70
     1
102
RTVSPropertyOp40
 70
     1
102
RTVSPropertyOp41
 70
     1
102
RTVSPropertyOp42
 70
     1
102
RTVSPropertyOp43
 70
     1
102
RTVSPropertyOp44
 70
     1
102
RTVSPropertyOp45
 70
     1
102
RTVSPropertyOp46
 70
     1
102
RTVSPropertyOp47
 70
     1
102
RTVSPropertyOp48
 70
     1
102
RTVSPropertyOp49
 70
     1
102
RTVSPropertyOp50
 70
     1
102
RTVSPropertyOp51
 70
     0
102
RTVSPropertyOp52
 70
     0
102
RTVSPropertyOp53
 70
     1
102
RTVSPropertyOp54
 70
     1
102
RTVSPropertyOp55
 70
     1
102
RTVSPropertyOp56
 70
     1
102
RTVSPropertyOp57
 70
     1
102
RTVSPropertyOp58
 70
     1
102
RTVSPropertyOp59
 70
     1
102
RTVSPropertyOp60
 70
     1
102
RTVSPropertyOp61
 70
     1
102
RTVSPropertyOp62
 70
     1
  0
XRECORD
  5
2BE9
102
{ACAD_REACTORS
330
2BE8
102
}
330
2BE8
100
AcDbXrecord
280
     1
102
RTVSPost2010Prop28
280
     0
102
RTVSPost2010PropOp28
 70
     1
102
RTVSPost2010Prop29
280
     1
102
RTVSPost2010PropOp29
 70
     1
102
RTVSPost2010Prop30
280
     1
102
RTVSPost2010PropOp30
 70
     1
102
RTVSPost2010Prop31
280
     0
102
RTVSPost2010PropOp31
 70
     1
102
RTVSPost2010Prop32
280
     0
102
RTVSPost2010PropOp32
 70
     1
102
RTVSPost2010Prop33
280
     0
102
RTVSPost2010PropOp33
 70
     1
102
RTVSPost2010Prop34
280
     0
102
RTVSPost2010PropOp34
 70
     1
102
RTVSPost2010Prop35
280
     0
102
RTVSPost2010PropOp35
 70
     1
102
RTVSPost2010Prop36
280
     0
102
RTVSPost2010PropOp36
 70
     1
102
RTVSPost2010Prop37
 90
       50
102
RTVSPost2010PropOp37
 70
     1
102
RTVSPost2010Prop38
140
0.0
102
RTVSPost2010PropOp38
 70
     1
102
RTVSPost2010Prop39
140
1.0
102
RTVSPost2010PropOp39
 70
     1
102
RTVSPost2010Prop40
 90
        0
102
RTVSPost2010PropOp40
 70
     1
102
RTVSPost2010Prop41ColorIndex
 90
       18
102
RTVSPost2010Prop41ColorRGB
 90
        0
102
RTVSPost2010PropOp41
 70
     1
102
RTVSPost2010Prop42
 90
       50
102
RTVSPost2010PropOp42
 70
     1
102
RTVSPost2010Prop43
 90
        3
102
RTVSPost2010PropOp43
 70
     1
102
RTVSPost2010Prop44ColorIndex
 90
        5
102
RTVSPost2010Prop44ColorRGB
 90
      255
102
RTVSPost2010PropOp44
 70
     1
102
RTVSPost2010Prop45
280
     0
102
RTVSPost2010PropOp45
 70
     1
102
RTVSPost2010Prop46
 90
       50
102
RTVSPost2010PropOp46
 70
     1
102
RTVSPost2010Prop47
 90
       50
102
RTVSPost2010PropOp47
 70
     1
102
RTVSPost2010Prop48
 90
       50
102
RTVSPost2010PropOp48
 70
     1
102
RTVSPost2010Prop49
280
     0
102
RTVSPost2010PropOp49
 70
     1
102
RTVSPost2010Prop50
 90
       50
102
RTVSPost2010PropOp50
 70
     1
102
RTVSPost2010Prop51ColorIndex
 90
      256
102
RTVSPost2010Prop51ColorRGB
 90
-16777216
102
RTVSPost2010PropOp51
 70
     0
102
RTVSPost2010Prop52
140
1.0
102
RTVSPost2010PropOp52
 70
     0
102
RTVSPost2010Prop53
 90
        2
102
RTVSPost2010PropOp53
 70
     1
102
RTVSPost2010Prop54
  1
strokes_ogs.tif
102
RTVSPost2010PropOp54
 70
     1
102
RTVSPost2010Prop55
280
     0
102
RTVSPost2010PropOp55
 70
     1
102
RTVSPost2010Prop56
140
1.0
102
RTVSPost2010PropOp56
 70
     1
102
RTVSPost2010Prop57
140
1.0
102
RTVSPost2010PropOp57
 70
     1
102
RTVSPropertyOp0
 70
     1
102
RTVSPropertyOp1
 70
     1
102
RTVSPropertyOp2
 70
     1
102
RTVSPropertyOp3
 70
     1
102
RTVSPropertyOp4
 70
     1
102
RTVSPropertyOp5
 70
     1
102
RTVSPropertyOp6
 70
     1
102
RTVSPropertyOp7
 70
     1
102
RTVSPropertyOp8
 70
     1
102
RTVSPropertyOp9
 70
     1
102
RTVSPropertyOp10
 70
     1
102
RTVSPropertyOp11
 70
     1
102
RTVSPropertyOp12
 70
     1
102
RTVSPropertyOp13
 70
     1
102
RTVSPropertyOp14
 70
     1
102
RTVSPropertyOp15
 70
     1
102
RTVSPropertyOp16
 70
     1
102
RTVSPropertyOp17
 70
     1
102
RTVSPropertyOp18
 70
     1
102
RTVSPropertyOp19
 70
     1
102
RTVSPropertyOp20
 70
     1
102
RTVSPropertyOp21
 70
     1
102
RTVSPropertyOp22
 70
     1
102
RTVSPropertyOp23
 70
     1
102
RTVSPropertyOp24
 70
     1
102
RTVSPropertyOp25
 70
     1
102
RTVSPropertyOp26
 70
     1
102
RTVSPropertyOp27
 70
     1
102
RTVSPropertyOp28
 70
     1
102
RTVSPropertyOp29
 70
     1
102
RTVSPropertyOp30
 70
     1
102
RTVSPropertyOp31
 70
     1
102
RTVSPropertyOp32
 70
     1
102
RTVSPropertyOp33
 70
     1
102
RTVSPropertyOp34
 70
     1
102
RTVSPropertyOp35
 70
     1
102
RTVSPropertyOp36
 70
     1
102
RTVSPropertyOp37
 70
     1
102
RTVSPropertyOp38
 70
     1
102
RTVSPropertyOp39
 70
     1
102
RTVSPropertyOp40
 70
     1
102
RTVSPropertyOp41
 70
     1
102
RTVSPropertyOp42
 70
     1
102
RTVSPropertyOp43
 70
     1
102
RTVSPropertyOp44
 70
     1
102
RTVSPropertyOp45
 70
     1
102
RTVSPropertyOp46
 70
     1
102
RTVSPropertyOp47
 70
     1
102
RTVSPropertyOp48
 70
     1
102
RTVSPropertyOp49
 70
     1
102
RTVSPropertyOp50
 70
     1
102
RTVSPropertyOp51
 70
     0
102
RTVSPropertyOp52
 70
     0
102
RTVSPropertyOp53
 70
     1
102
RTVSPropertyOp54
 70
     1
102
RTVSPropertyOp55
 70
     1
102
RTVSPropertyOp56
 70
     1
102
RTVSPropertyOp57
 70
     1
102
RTVSPropertyOp58
 70
     1
102
RTVSPropertyOp59
 70
     1
102
RTVSPropertyOp60
 70
     1
102
RTVSPropertyOp61
 70
     1
102
RTVSPropertyOp62
 70
     1
  0
XRECORD
  5
2BF1
102
{ACAD_REACTORS
330
2BF0
102
}
330
2BF0
100
AcDbXrecord
280
     1
102
RTVSPost2010Prop28
280
     0
102
RTVSPost2010PropOp28
 70
     1
102
RTVSPost2010Prop29
280
     1
102
RTVSPost2010PropOp29
 70
     1
102
RTVSPost2010Prop30
280
     1
102
RTVSPost2010PropOp30
 70
     1
102
RTVSPost2010Prop31
280
     0
102
RTVSPost2010PropOp31
 70
     1
102
RTVSPost2010Prop32
280
     0
102
RTVSPost2010PropOp32
 70
     1
102
RTVSPost2010Prop33
280
     0
102
RTVSPost2010PropOp33
 70
     1
102
RTVSPost2010Prop34
280
     0
102
RTVSPost2010PropOp34
 70
     1
102
RTVSPost2010Prop35
280
     0
102
RTVSPost2010PropOp35
 70
     1
102
RTVSPost2010Prop36
280
     0
102
RTVSPost2010PropOp36
 70
     1
102
RTVSPost2010Prop37
 90
       50
102
RTVSPost2010PropOp37
 70
     1
102
RTVSPost2010Prop38
140
0.0
102
RTVSPost2010PropOp38
 70
     1
102
RTVSPost2010Prop39
140
1.0
102
RTVSPost2010PropOp39
 70
     1
102
RTVSPost2010Prop40
 90
        0
102
RTVSPost2010PropOp40
 70
     1
102
RTVSPost2010Prop41ColorIndex
 90
       18
102
RTVSPost2010Prop41ColorRGB
 90
        0
102
RTVSPost2010PropOp41
 70
     1
102
RTVSPost2010Prop42
 90
       50
102
RTVSPost2010PropOp42
 70
     1
102
RTVSPost2010Prop43
 90
        3
102
RTVSPost2010PropOp43
 70
     1
102
RTVSPost2010Prop44ColorIndex
 90
        5
102
RTVSPost2010Prop44ColorRGB
 90
      255
102
RTVSPost2010PropOp44
 70
     1
102
RTVSPost2010Prop45
280
     0
102
RTVSPost2010PropOp45
 70
     1
102
RTVSPost2010Prop46
 90
       50
102
RTVSPost2010PropOp46
 70
     1
102
RTVSPost2010Prop47
 90
       50
102
RTVSPost2010PropOp47
 70
     1
102
RTVSPost2010Prop48
 90
       50
102
RTVSPost2010PropOp48
 70
     1
102
RTVSPost2010Prop49
280
     0
102
RTVSPost2010PropOp49
 70
     1
102
RTVSPost2010Prop50
 90
       50
102
RTVSPost2010PropOp50
 70
     1
102
RTVSPost2010Prop51ColorIndex
 90
      256
102
RTVSPost2010Prop51ColorRGB
 90
-16777216
102
RTVSPost2010PropOp51
 70
     0
102
RTVSPost2010Prop52
140
1.0
102
RTVSPost2010PropOp52
 70
     0
102
RTVSPost2010Prop53
 90
        2
102
RTVSPost2010PropOp53
 70
     1
102
RTVSPost2010Prop54
  1
strokes_ogs.tif
102
RTVSPost2010PropOp54
 70
     1
102
RTVSPost2010Prop55
280
     0
102
RTVSPost2010PropOp55
 70
     1
102
RTVSPost2010Prop56
140
1.0
102
RTVSPost2010PropOp56
 70
     1
102
RTVSPost2010Prop57
140
1.0
102
RTVSPost2010PropOp57
 70
     1
102
RTVSPropertyOp0
 70
     1
102
RTVSPropertyOp1
 70
     1
102
RTVSPropertyOp2
 70
     1
102
RTVSPropertyOp3
 70
     1
102
RTVSPropertyOp4
 70
     1
102
RTVSPropertyOp5
 70
     1
102
RTVSPropertyOp6
 70
     1
102
RTVSPropertyOp7
 70
     1
102
RTVSPropertyOp8
 70
     1
102
RTVSPropertyOp9
 70
     1
102
RTVSPropertyOp10
 70
     1
102
RTVSPropertyOp11
 70
     1
102
RTVSPropertyOp12
 70
     1
102
RTVSPropertyOp13
 70
     1
102
RTVSPropertyOp14
 70
     1
102
RTVSPropertyOp15
 70
     1
102
RTVSPropertyOp16
 70
     1
102
RTVSPropertyOp17
 70
     1
102
RTVSPropertyOp18
 70
     1
102
RTVSPropertyOp19
 70
     1
102
RTVSPropertyOp20
 70
     1
102
RTVSPropertyOp21
 70
     1
102
RTVSPropertyOp22
 70
     1
102
RTVSPropertyOp23
 70
     1
102
RTVSPropertyOp24
 70
     1
102
RTVSPropertyOp25
 70
     1
102
RTVSPropertyOp26
 70
     1
102
RTVSPropertyOp27
 70
     1
102
RTVSPropertyOp28
 70
     1
102
RTVSPropertyOp29
 70
     1
102
RTVSPropertyOp30
 70
     1
102
RTVSPropertyOp31
 70
     1
102
RTVSPropertyOp32
 70
     1
102
RTVSPropertyOp33
 70
     1
102
RTVSPropertyOp34
 70
     1
102
RTVSPropertyOp35
 70
     1
102
RTVSPropertyOp36
 70
     1
102
RTVSPropertyOp37
 70
     1
102
RTVSPropertyOp38
 70
     1
102
RTVSPropertyOp39
 70
     1
102
RTVSPropertyOp40
 70
     1
102
RTVSPropertyOp41
 70
     1
102
RTVSPropertyOp42
 70
     1
102
RTVSPropertyOp43
 70
     1
102
RTVSPropertyOp44
 70
     1
102
RTVSPropertyOp45
 70
     1
102
RTVSPropertyOp46
 70
     1
102
RTVSPropertyOp47
 70
     1
102
RTVSPropertyOp48
 70
     1
102
RTVSPropertyOp49
 70
     1
102
RTVSPropertyOp50
 70
     1
102
RTVSPropertyOp51
 70
     0
102
RTVSPropertyOp52
 70
     0
102
RTVSPropertyOp53
 70
     1
102
RTVSPropertyOp54
 70
     1
102
RTVSPropertyOp55
 70
     1
102
RTVSPropertyOp56
 70
     1
102
RTVSPropertyOp57
 70
     1
102
RTVSPropertyOp58
 70
     1
102
RTVSPropertyOp59
 70
     1
102
RTVSPropertyOp60
 70
     1
102
RTVSPropertyOp61
 70
     1
102
RTVSPropertyOp62
 70
     1
  0
XRECORD
  5
2BE3
102
{ACAD_REACTORS
330
2BE2
102
}
330
2BE2
100
AcDbXrecord
280
     1
102
RTVSPost2010Prop28
280
     0
102
RTVSPost2010PropOp28
 70
     1
102
RTVSPost2010Prop29
280
     1
102
RTVSPost2010PropOp29
 70
     1
102
RTVSPost2010Prop30
280
     1
102
RTVSPost2010PropOp30
 70
     1
102
RTVSPost2010Prop31
280
     0
102
RTVSPost2010PropOp31
 70
     1
102
RTVSPost2010Prop32
280
     0
102
RTVSPost2010PropOp32
 70
     1
102
RTVSPost2010Prop33
280
     0
102
RTVSPost2010PropOp33
 70
     1
102
RTVSPost2010Prop34
280
     0
102
RTVSPost2010PropOp34
 70
     1
102
RTVSPost2010Prop35
280
     0
102
RTVSPost2010PropOp35
 70
     1
102
RTVSPost2010Prop36
280
     0
102
RTVSPost2010PropOp36
 70
     1
102
RTVSPost2010Prop37
 90
       50
102
RTVSPost2010PropOp37
 70
     1
102
RTVSPost2010Prop38
140
0.0
102
RTVSPost2010PropOp38
 70
     1
102
RTVSPost2010Prop39
140
1.0
102
RTVSPost2010PropOp39
 70
     1
102
RTVSPost2010Prop40
 90
        0
102
RTVSPost2010PropOp40
 70
     1
102
RTVSPost2010Prop41ColorIndex
 90
       18
102
RTVSPost2010Prop41ColorRGB
 90
        0
102
RTVSPost2010PropOp41
 70
     1
102
RTVSPost2010Prop42
 90
       50
102
RTVSPost2010PropOp42
 70
     1
102
RTVSPost2010Prop43
 90
        3
102
RTVSPost2010PropOp43
 70
     1
102
RTVSPost2010Prop44ColorIndex
 90
        5
102
RTVSPost2010Prop44ColorRGB
 90
      255
102
RTVSPost2010PropOp44
 70
     1
102
RTVSPost2010Prop45
280
     0
102
RTVSPost2010PropOp45
 70
     1
102
RTVSPost2010Prop46
 90
       50
102
RTVSPost2010PropOp46
 70
     1
102
RTVSPost2010Prop47
 90
       50
102
RTVSPost2010PropOp47
 70
     1
102
RTVSPost2010Prop48
 90
       50
102
RTVSPost2010PropOp48
 70
     1
102
RTVSPost2010Prop49
280
     0
102
RTVSPost2010PropOp49
 70
     1
102
RTVSPost2010Prop50
 90
       50
102
RTVSPost2010PropOp50
 70
     1
102
RTVSPost2010Prop51ColorIndex
 90
      256
102
RTVSPost2010Prop51ColorRGB
 90
-16777216
102
RTVSPost2010PropOp51
 70
     0
102
RTVSPost2010Prop52
140
1.0
102
RTVSPost2010PropOp52
 70
     0
102
RTVSPost2010Prop53
 90
        2
102
RTVSPost2010PropOp53
 70
     1
102
RTVSPost2010Prop54
  1
strokes_ogs.tif
102
RTVSPost2010PropOp54
 70
     1
102
RTVSPost2010Prop55
280
     0
102
RTVSPost2010PropOp55
 70
     1
102
RTVSPost2010Prop56
140
1.0
102
RTVSPost2010PropOp56
 70
     1
102
RTVSPost2010Prop57
140
1.0
102
RTVSPost2010PropOp57
 70
     1
102
RTVSPropertyOp0
 70
     1
102
RTVSPropertyOp1
 70
     1
102
RTVSPropertyOp2
 70
     1
102
RTVSPropertyOp3
 70
     1
102
RTVSPropertyOp4
 70
     1
102
RTVSPropertyOp5
 70
     1
102
RTVSPropertyOp6
 70
     1
102
RTVSPropertyOp7
 70
     1
102
RTVSPropertyOp8
 70
     1
102
RTVSPropertyOp9
 70
     1
102
RTVSPropertyOp10
 70
     1
102
RTVSPropertyOp11
 70
     1
102
RTVSPropertyOp12
 70
     1
102
RTVSPropertyOp13
 70
     1
102
RTVSPropertyOp14
 70
     1
102
RTVSPropertyOp15
 70
     1
102
RTVSPropertyOp16
 70
     1
102
RTVSPropertyOp17
 70
     1
102
RTVSPropertyOp18
 70
     1
102
RTVSPropertyOp19
 70
     1
102
RTVSPropertyOp20
 70
     1
102
RTVSPropertyOp21
 70
     1
102
RTVSPropertyOp22
 70
     1
102
RTVSPropertyOp23
 70
     1
102
RTVSPropertyOp24
 70
     1
102
RTVSPropertyOp25
 70
     1
102
RTVSPropertyOp26
 70
     1
102
RTVSPropertyOp27
 70
     1
102
RTVSPropertyOp28
 70
     1
102
RTVSPropertyOp29
 70
     1
102
RTVSPropertyOp30
 70
     1
102
RTVSPropertyOp31
 70
     1
102
RTVSPropertyOp32
 70
     1
102
RTVSPropertyOp33
 70
     1
102
RTVSPropertyOp34
 70
     1
102
RTVSPropertyOp35
 70
     1
102
RTVSPropertyOp36
 70
     1
102
RTVSPropertyOp37
 70
     1
102
RTVSPropertyOp38
 70
     1
102
RTVSPropertyOp39
 70
     1
102
RTVSPropertyOp40
 70
     1
102
RTVSPropertyOp41
 70
     1
102
RTVSPropertyOp42
 70
     1
102
RTVSPropertyOp43
 70
     1
102
RTVSPropertyOp44
 70
     1
102
RTVSPropertyOp45
 70
     1
102
RTVSPropertyOp46
 70
     1
102
RTVSPropertyOp47
 70
     1
102
RTVSPropertyOp48
 70
     1
102
RTVSPropertyOp49
 70
     1
102
RTVSPropertyOp50
 70
     1
102
RTVSPropertyOp51
 70
     0
102
RTVSPropertyOp52
 70
     0
102
RTVSPropertyOp53
 70
     1
102
RTVSPropertyOp54
 70
     1
102
RTVSPropertyOp55
 70
     1
102
RTVSPropertyOp56
 70
     1
102
RTVSPropertyOp57
 70
     1
102
RTVSPropertyOp58
 70
     1
102
RTVSPropertyOp59
 70
     1
102
RTVSPropertyOp60
 70
     1
102
RTVSPropertyOp61
 70
     1
102
RTVSPropertyOp62
 70
     1
  0
XRECORD
  5
2BE7
102
{ACAD_REACTORS
330
2BE6
102
}
330
2BE6
100
AcDbXrecord
280
     1
102
RTVSPost2010Prop28
280
     0
102
RTVSPost2010PropOp28
 70
     1
102
RTVSPost2010Prop29
280
     1
102
RTVSPost2010PropOp29
 70
     1
102
RTVSPost2010Prop30
280
     1
102
RTVSPost2010PropOp30
 70
     1
102
RTVSPost2010Prop31
280
     0
102
RTVSPost2010PropOp31
 70
     1
102
RTVSPost2010Prop32
280
     0
102
RTVSPost2010PropOp32
 70
     1
102
RTVSPost2010Prop33
280
     0
102
RTVSPost2010PropOp33
 70
     1
102
RTVSPost2010Prop34
280
     0
102
RTVSPost2010PropOp34
 70
     1
102
RTVSPost2010Prop35
280
     0
102
RTVSPost2010PropOp35
 70
     1
102
RTVSPost2010Prop36
280
     0
102
RTVSPost2010PropOp36
 70
     1
102
RTVSPost2010Prop37
 90
       50
102
RTVSPost2010PropOp37
 70
     1
102
RTVSPost2010Prop38
140
0.0
102
RTVSPost2010PropOp38
 70
     1
102
RTVSPost2010Prop39
140
1.0
102
RTVSPost2010PropOp39
 70
     1
102
RTVSPost2010Prop40
 90
        0
102
RTVSPost2010PropOp40
 70
     1
102
RTVSPost2010Prop41ColorIndex
 90
       18
102
RTVSPost2010Prop41ColorRGB
 90
        0
102
RTVSPost2010PropOp41
 70
     1
102
RTVSPost2010Prop42
 90
       50
102
RTVSPost2010PropOp42
 70
     1
102
RTVSPost2010Prop43
 90
        3
102
RTVSPost2010PropOp43
 70
     1
102
RTVSPost2010Prop44ColorIndex
 90
        5
102
RTVSPost2010Prop44ColorRGB
 90
      255
102
RTVSPost2010PropOp44
 70
     1
102
RTVSPost2010Prop45
280
     0
102
RTVSPost2010PropOp45
 70
     1
102
RTVSPost2010Prop46
 90
       50
102
RTVSPost2010PropOp46
 70
     1
102
RTVSPost2010Prop47
 90
       50
102
RTVSPost2010PropOp47
 70
     1
102
RTVSPost2010Prop48
 90
       50
102
RTVSPost2010PropOp48
 70
     1
102
RTVSPost2010Prop49
280
     0
102
RTVSPost2010PropOp49
 70
     1
102
RTVSPost2010Prop50
 90
       50
102
RTVSPost2010PropOp50
 70
     1
102
RTVSPost2010Prop51ColorIndex
 90
      256
102
RTVSPost2010Prop51ColorRGB
 90
-16777216
102
RTVSPost2010PropOp51
 70
     0
102
RTVSPost2010Prop52
140
1.0
102
RTVSPost2010PropOp52
 70
     0
102
RTVSPost2010Prop53
 90
        2
102
RTVSPost2010PropOp53
 70
     1
102
RTVSPost2010Prop54
  1
strokes_ogs.tif
102
RTVSPost2010PropOp54
 70
     1
102
RTVSPost2010Prop55
280
     0
102
RTVSPost2010PropOp55
 70
     1
102
RTVSPost2010Prop56
140
1.0
102
RTVSPost2010PropOp56
 70
     1
102
RTVSPost2010Prop57
140
1.0
102
RTVSPost2010PropOp57
 70
     1
102
RTVSPropertyOp0
 70
     1
102
RTVSPropertyOp1
 70
     1
102
RTVSPropertyOp2
 70
     1
102
RTVSPropertyOp3
 70
     1
102
RTVSPropertyOp4
 70
     1
102
RTVSPropertyOp5
 70
     1
102
RTVSPropertyOp6
 70
     1
102
RTVSPropertyOp7
 70
     1
102
RTVSPropertyOp8
 70
     1
102
RTVSPropertyOp9
 70
     1
102
RTVSPropertyOp10
 70
     1
102
RTVSPropertyOp11
 70
     1
102
RTVSPropertyOp12
 70
     1
102
RTVSPropertyOp13
 70
     1
102
RTVSPropertyOp14
 70
     1
102
RTVSPropertyOp15
 70
     1
102
RTVSPropertyOp16
 70
     1
102
RTVSPropertyOp17
 70
     1
102
RTVSPropertyOp18
 70
     1
102
RTVSPropertyOp19
 70
     1
102
RTVSPropertyOp20
 70
     1
102
RTVSPropertyOp21
 70
     1
102
RTVSPropertyOp22
 70
     1
102
RTVSPropertyOp23
 70
     1
102
RTVSPropertyOp24
 70
     1
102
RTVSPropertyOp25
 70
     1
102
RTVSPropertyOp26
 70
     1
102
RTVSPropertyOp27
 70
     1
102
RTVSPropertyOp28
 70
     1
102
RTVSPropertyOp29
 70
     1
102
RTVSPropertyOp30
 70
     1
102
RTVSPropertyOp31
 70
     1
102
RTVSPropertyOp32
 70
     1
102
RTVSPropertyOp33
 70
     1
102
RTVSPropertyOp34
 70
     1
102
RTVSPropertyOp35
 70
     1
102
RTVSPropertyOp36
 70
     1
102
RTVSPropertyOp37
 70
     1
102
RTVSPropertyOp38
 70
     1
102
RTVSPropertyOp39
 70
     1
102
RTVSPropertyOp40
 70
     1
102
RTVSPropertyOp41
 70
     1
102
RTVSPropertyOp42
 70
     1
102
RTVSPropertyOp43
 70
     1
102
RTVSPropertyOp44
 70
     1
102
RTVSPropertyOp45
 70
     1
102
RTVSPropertyOp46
 70
     1
102
RTVSPropertyOp47
 70
     1
102
RTVSPropertyOp48
 70
     1
102
RTVSPropertyOp49
 70
     1
102
RTVSPropertyOp50
 70
     1
102
RTVSPropertyOp51
 70
     0
102
RTVSPropertyOp52
 70
     0
102
RTVSPropertyOp53
 70
     1
102
RTVSPropertyOp54
 70
     1
102
RTVSPropertyOp55
 70
     1
102
RTVSPropertyOp56
 70
     1
102
RTVSPropertyOp57
 70
     1
102
RTVSPropertyOp58
 70
     1
102
RTVSPropertyOp59
 70
     1
102
RTVSPropertyOp60
 70
     1
102
RTVSPropertyOp61
 70
     1
102
RTVSPropertyOp62
 70
     1
  0
XRECORD
  5
2C01
102
{ACAD_REACTORS
330
2C00
102
}
330
2C00
100
AcDbXrecord
280
     1
102
RTVSPost2010Prop28
280
     0
102
RTVSPost2010PropOp28
 70
     0
102
RTVSPost2010Prop29
280
     1
102
RTVSPost2010PropOp29
 70
     0
102
RTVSPost2010Prop30
280
     1
102
RTVSPost2010PropOp30
 70
     0
102
RTVSPost2010Prop31
280
     0
102
RTVSPost2010PropOp31
 70
     0
102
RTVSPost2010Prop32
280
     0
102
RTVSPost2010PropOp32
 70
     0
102
RTVSPost2010Prop33
280
     0
102
RTVSPost2010PropOp33
 70
     0
102
RTVSPost2010Prop34
280
     0
102
RTVSPost2010PropOp34
 70
     0
102
RTVSPost2010Prop35
280
     0
102
RTVSPost2010PropOp35
 70
     0
102
RTVSPost2010Prop36
280
     0
102
RTVSPost2010PropOp36
 70
     0
102
RTVSPost2010Prop37
 90
       50
102
RTVSPost2010PropOp37
 70
     0
102
RTVSPost2010Prop38
140
0.0
102
RTVSPost2010PropOp38
 70
     0
102
RTVSPost2010Prop39
140
1.0
102
RTVSPost2010PropOp39
 70
     0
102
RTVSPost2010Prop40
 90
        0
102
RTVSPost2010PropOp40
 70
     0
102
RTVSPost2010Prop41ColorIndex
 90
       18
102
RTVSPost2010Prop41ColorRGB
 90
        0
102
RTVSPost2010PropOp41
 70
     0
102
RTVSPost2010Prop42
 90
       50
102
RTVSPost2010PropOp42
 70
     0
102
RTVSPost2010Prop43
 90
        3
102
RTVSPost2010PropOp43
 70
     0
102
RTVSPost2010Prop44ColorIndex
 90
        5
102
RTVSPost2010Prop44ColorRGB
 90
      255
102
RTVSPost2010PropOp44
 70
     0
102
RTVSPost2010Prop45
280
     0
102
RTVSPost2010PropOp45
 70
     0
102
RTVSPost2010Prop46
 90
       50
102
RTVSPost2010PropOp46
 70
     0
102
RTVSPost2010Prop47
 90
       50
102
RTVSPost2010PropOp47
 70
     0
102
RTVSPost2010Prop48
 90
       50
102
RTVSPost2010PropOp48
 70
     0
102
RTVSPost2010Prop49
280
     0
102
RTVSPost2010PropOp49
 70
     0
102
RTVSPost2010Prop50
 90
       50
102
RTVSPost2010PropOp50
 70
     0
102
RTVSPost2010Prop51ColorIndex
 90
      256
102
RTVSPost2010Prop51ColorRGB
 90
-16777216
102
RTVSPost2010PropOp51
 70
     0
102
RTVSPost2010Prop52
140
1.0
102
RTVSPost2010PropOp52
 70
     0
102
RTVSPost2010Prop53
 90
        2
102
RTVSPost2010PropOp53
 70
     0
102
RTVSPost2010Prop54
  1
strokes_ogs.tif
102
RTVSPost2010PropOp54
 70
     0
102
RTVSPost2010Prop55
280
     0
102
RTVSPost2010PropOp55
 70
     0
102
RTVSPost2010Prop56
140
1.0
102
RTVSPost2010PropOp56
 70
     0
102
RTVSPost2010Prop57
140
1.0
102
RTVSPost2010PropOp57
 70
     0
102
RTVSPropertyOp0
 70
     0
102
RTVSPropertyOp1
 70
     0
102
RTVSPropertyOp2
 70
     0
102
RTVSPropertyOp3
 70
     0
102
RTVSPropertyOp4
 70
     0
102
RTVSPropertyOp5
 70
     0
102
RTVSPropertyOp6
 70
     0
102
RTVSPropertyOp7
 70
     0
102
RTVSPropertyOp8
 70
     0
102
RTVSPropertyOp9
 70
     0
102
RTVSPropertyOp10
 70
     0
102
RTVSPropertyOp11
 70
     0
102
RTVSPropertyOp12
 70
     0
102
RTVSPropertyOp13
 70
     0
102
RTVSPropertyOp14
 70
     2
102
RTVSPropertyOp15
 70
     0
102
RTVSPropertyOp16
 70
     0
102
RTVSPropertyOp17
 70
     0
102
RTVSPropertyOp18
 70
     0
102
RTVSPropertyOp19
 70
     0
102
RTVSPropertyOp20
 70
     0
102
RTVSPropertyOp21
 70
     0
102
RTVSPropertyOp22
 70
     0
102
RTVSPropertyOp23
 70
     0
102
RTVSPropertyOp24
 70
     0
102
RTVSPropertyOp25
 70
     0
102
RTVSPropertyOp26
 70
     0
102
RTVSPropertyOp27
 70
     0
102
RTVSPropertyOp28
 70
     0
102
RTVSPropertyOp29
 70
     0
102
RTVSPropertyOp30
 70
     0
102
RTVSPropertyOp31
 70
     0
102
RTVSPropertyOp32
 70
     0
102
RTVSPropertyOp33
 70
     0
102
RTVSPropertyOp34
 70
     0
102
RTVSPropertyOp35
 70
     0
102
RTVSPropertyOp36
 70
     0
102
RTVSPropertyOp37
 70
     0
102
RTVSPropertyOp38
 70
     0
102
RTVSPropertyOp39
 70
     0
102
RTVSPropertyOp40
 70
     0
102
RTVSPropertyOp41
 70
     0
102
RTVSPropertyOp42
 70
     0
102
RTVSPropertyOp43
 70
     0
102
RTVSPropertyOp44
 70
     0
102
RTVSPropertyOp45
 70
     0
102
RTVSPropertyOp46
 70
     0
102
RTVSPropertyOp47
 70
     0
102
RTVSPropertyOp48
 70
     0
102
RTVSPropertyOp49
 70
     0
102
RTVSPropertyOp50
 70
     0
102
RTVSPropertyOp51
 70
     0
102
RTVSPropertyOp52
 70
     0
102
RTVSPropertyOp53
 70
     0
102
RTVSPropertyOp54
 70
     0
102
RTVSPropertyOp55
 70
     0
102
RTVSPropertyOp56
 70
     0
102
RTVSPropertyOp57
 70
     0
102
RTVSPropertyOp58
 70
     0
102
RTVSPropertyOp59
 70
     0
102
RTVSPropertyOp60
 70
     0
102
RTVSPropertyOp61
 70
     0
102
RTVSPropertyOp62
 70
     0
  0
XRECORD
  5
2BEF
102
{ACAD_REACTORS
330
2BEE
102
}
330
2BEE
100
AcDbXrecord
280
     1
102
RTVSPost2010Prop28
280
     0
102
RTVSPost2010PropOp28
 70
     1
102
RTVSPost2010Prop29
280
     1
102
RTVSPost2010PropOp29
 70
     1
102
RTVSPost2010Prop30
280
     1
102
RTVSPost2010PropOp30
 70
     1
102
RTVSPost2010Prop31
280
     0
102
RTVSPost2010PropOp31
 70
     1
102
RTVSPost2010Prop32
280
     0
102
RTVSPost2010PropOp32
 70
     1
102
RTVSPost2010Prop33
280
     0
102
RTVSPost2010PropOp33
 70
     1
102
RTVSPost2010Prop34
280
     0
102
RTVSPost2010PropOp34
 70
     1
102
RTVSPost2010Prop35
280
     0
102
RTVSPost2010PropOp35
 70
     1
102
RTVSPost2010Prop36
280
     0
102
RTVSPost2010PropOp36
 70
     1
102
RTVSPost2010Prop37
 90
       50
102
RTVSPost2010PropOp37
 70
     1
102
RTVSPost2010Prop38
140
0.0
102
RTVSPost2010PropOp38
 70
     1
102
RTVSPost2010Prop39
140
1.0
102
RTVSPost2010PropOp39
 70
     1
102
RTVSPost2010Prop40
 90
        0
102
RTVSPost2010PropOp40
 70
     1
102
RTVSPost2010Prop41ColorIndex
 90
       18
102
RTVSPost2010Prop41ColorRGB
 90
        0
102
RTVSPost2010PropOp41
 70
     1
102
RTVSPost2010Prop42
 90
       50
102
RTVSPost2010PropOp42
 70
     1
102
RTVSPost2010Prop43
 90
        3
102
RTVSPost2010PropOp43
 70
     1
102
RTVSPost2010Prop44ColorIndex
 90
        5
102
RTVSPost2010Prop44ColorRGB
 90
      255
102
RTVSPost2010PropOp44
 70
     1
102
RTVSPost2010Prop45
280
     0
102
RTVSPost2010PropOp45
 70
     1
102
RTVSPost2010Prop46
 90
       50
102
RTVSPost2010PropOp46
 70
     1
102
RTVSPost2010Prop47
 90
       50
102
RTVSPost2010PropOp47
 70
     1
102
RTVSPost2010Prop48
 90
       50
102
RTVSPost2010PropOp48
 70
     1
102
RTVSPost2010Prop49
280
     0
102
RTVSPost2010PropOp49
 70
     1
102
RTVSPost2010Prop50
 90
       50
102
RTVSPost2010PropOp50
 70
     1
102
RTVSPost2010Prop51ColorIndex
 90
      256
102
RTVSPost2010Prop51ColorRGB
 90
-16777216
102
RTVSPost2010PropOp51
 70
     0
102
RTVSPost2010Prop52
140
1.0
102
RTVSPost2010PropOp52
 70
     0
102
RTVSPost2010Prop53
 90
        2
102
RTVSPost2010PropOp53
 70
     1
102
RTVSPost2010Prop54
  1
strokes_ogs.tif
102
RTVSPost2010PropOp54
 70
     1
102
RTVSPost2010Prop55
280
     0
102
RTVSPost2010PropOp55
 70
     1
102
RTVSPost2010Prop56
140
1.0
102
RTVSPost2010PropOp56
 70
     1
102
RTVSPost2010Prop57
140
1.0
102
RTVSPost2010PropOp57
 70
     1
102
RTVSPropertyOp0
 70
     1
102
RTVSPropertyOp1
 70
     1
102
RTVSPropertyOp2
 70
     1
102
RTVSPropertyOp3
 70
     1
102
RTVSPropertyOp4
 70
     1
102
RTVSPropertyOp5
 70
     1
102
RTVSPropertyOp6
 70
     1
102
RTVSPropertyOp7
 70
     1
102
RTVSPropertyOp8
 70
     1
102
RTVSPropertyOp9
 70
     1
102
RTVSPropertyOp10
 70
     1
102
RTVSPropertyOp11
 70
     1
102
RTVSPropertyOp12
 70
     1
102
RTVSPropertyOp13
 70
     1
102
RTVSPropertyOp14
 70
     1
102
RTVSPropertyOp15
 70
     1
102
RTVSPropertyOp16
 70
     1
102
RTVSPropertyOp17
 70
     1
102
RTVSPropertyOp18
 70
     1
102
RTVSPropertyOp19
 70
     1
102
RTVSPropertyOp20
 70
     1
102
RTVSPropertyOp21
 70
     1
102
RTVSPropertyOp22
 70
     1
102
RTVSPropertyOp23
 70
     1
102
RTVSPropertyOp24
 70
     1
102
RTVSPropertyOp25
 70
     1
102
RTVSPropertyOp26
 70
     1
102
RTVSPropertyOp27
 70
     1
102
RTVSPropertyOp28
 70
     1
102
RTVSPropertyOp29
 70
     1
102
RTVSPropertyOp30
 70
     1
102
RTVSPropertyOp31
 70
     1
102
RTVSPropertyOp32
 70
     1
102
RTVSPropertyOp33
 70
     1
102
RTVSPropertyOp34
 70
     1
102
RTVSPropertyOp35
 70
     1
102
RTVSPropertyOp36
 70
     1
102
RTVSPropertyOp37
 70
     1
102
RTVSPropertyOp38
 70
     1
102
RTVSPropertyOp39
 70
     1
102
RTVSPropertyOp40
 70
     1
102
RTVSPropertyOp41
 70
     1
102
RTVSPropertyOp42
 70
     1
102
RTVSPropertyOp43
 70
     1
102
RTVSPropertyOp44
 70
     1
102
RTVSPropertyOp45
 70
     1
102
RTVSPropertyOp46
 70
     1
102
RTVSPropertyOp47
 70
     1
102
RTVSPropertyOp48
 70
     1
102
RTVSPropertyOp49
 70
     1
102
RTVSPropertyOp50
 70
     1
102
RTVSPropertyOp51
 70
     0
102
RTVSPropertyOp52
 70
     0
102
RTVSPropertyOp53
 70
     1
102
RTVSPropertyOp54
 70
     1
102
RTVSPropertyOp55
 70
     1
102
RTVSPropertyOp56
 70
     1
102
RTVSPropertyOp57
 70
     1
102
RTVSPropertyOp58
 70
     1
102
RTVSPropertyOp59
 70
     1
102
RTVSPropertyOp60
 70
     1
102
RTVSPropertyOp61
 70
     1
102
RTVSPropertyOp62
 70
     1
  0
XRECORD
  5
2BD3
102
{ACAD_REACTORS
330
2BD2
102
}
330
2BD2
100
AcDbXrecord
280
     1
102
RTVSPost2010Prop28
280
     0
102
RTVSPost2010PropOp28
 70
     1
102
RTVSPost2010Prop29
280
     1
102
RTVSPost2010PropOp29
 70
     1
102
RTVSPost2010Prop30
280
     1
102
RTVSPost2010PropOp30
 70
     1
102
RTVSPost2010Prop31
280
     0
102
RTVSPost2010PropOp31
 70
     1
102
RTVSPost2010Prop32
280
     0
102
RTVSPost2010PropOp32
 70
     1
102
RTVSPost2010Prop33
280
     0
102
RTVSPost2010PropOp33
 70
     1
102
RTVSPost2010Prop34
280
     0
102
RTVSPost2010PropOp34
 70
     1
102
RTVSPost2010Prop35
280
     0
102
RTVSPost2010PropOp35
 70
     1
102
RTVSPost2010Prop36
280
     0
102
RTVSPost2010PropOp36
 70
     1
102
RTVSPost2010Prop37
 90
       50
102
RTVSPost2010PropOp37
 70
     1
102
RTVSPost2010Prop38
140
0.0
102
RTVSPost2010PropOp38
 70
     1
102
RTVSPost2010Prop39
140
1.0
102
RTVSPost2010PropOp39
 70
     1
102
RTVSPost2010Prop40
 90
        0
102
RTVSPost2010PropOp40
 70
     1
102
RTVSPost2010Prop41ColorIndex
 90
       18
102
RTVSPost2010Prop41ColorRGB
 90
        0
102
RTVSPost2010PropOp41
 70
     1
102
RTVSPost2010Prop42
 90
       50
102
RTVSPost2010PropOp42
 70
     1
102
RTVSPost2010Prop43
 90
        3
102
RTVSPost2010PropOp43
 70
     1
102
RTVSPost2010Prop44ColorIndex
 90
        5
102
RTVSPost2010Prop44ColorRGB
 90
      255
102
RTVSPost2010PropOp44
 70
     1
102
RTVSPost2010Prop45
280
     0
102
RTVSPost2010PropOp45
 70
     1
102
RTVSPost2010Prop46
 90
       50
102
RTVSPost2010PropOp46
 70
     1
102
RTVSPost2010Prop47
 90
       50
102
RTVSPost2010PropOp47
 70
     1
102
RTVSPost2010Prop48
 90
       50
102
RTVSPost2010PropOp48
 70
     1
102
RTVSPost2010Prop49
280
     0
102
RTVSPost2010PropOp49
 70
     1
102
RTVSPost2010Prop50
 90
       50
102
RTVSPost2010PropOp50
 70
     1
102
RTVSPost2010Prop51ColorIndex
 90
      256
102
RTVSPost2010Prop51ColorRGB
 90
-16777216
102
RTVSPost2010PropOp51
 70
     0
102
RTVSPost2010Prop52
140
1.0
102
RTVSPost2010PropOp52
 70
     0
102
RTVSPost2010Prop53
 90
        2
102
RTVSPost2010PropOp53
 70
     1
102
RTVSPost2010Prop54
  1
strokes_ogs.tif
102
RTVSPost2010PropOp54
 70
     1
102
RTVSPost2010Prop55
280
     0
102
RTVSPost2010PropOp55
 70
     1
102
RTVSPost2010Prop56
140
1.0
102
RTVSPost2010PropOp56
 70
     1
102
RTVSPost2010Prop57
140
1.0
102
RTVSPost2010PropOp57
 70
     1
102
RTVSPropertyOp0
 70
     1
102
RTVSPropertyOp1
 70
     1
102
RTVSPropertyOp2
 70
     1
102
RTVSPropertyOp3
 70
     1
102
RTVSPropertyOp4
 70
     1
102
RTVSPropertyOp5
 70
     1
102
RTVSPropertyOp6
 70
     1
102
RTVSPropertyOp7
 70
     1
102
RTVSPropertyOp8
 70
     1
102
RTVSPropertyOp9
 70
     1
102
RTVSPropertyOp10
 70
     1
102
RTVSPropertyOp11
 70
     1
102
RTVSPropertyOp12
 70
     1
102
RTVSPropertyOp13
 70
     1
102
RTVSPropertyOp14
 70
     1
102
RTVSPropertyOp15
 70
     1
102
RTVSPropertyOp16
 70
     1
102
RTVSPropertyOp17
 70
     1
102
RTVSPropertyOp18
 70
     1
102
RTVSPropertyOp19
 70
     1
102
RTVSPropertyOp20
 70
     1
102
RTVSPropertyOp21
 70
     1
102
RTVSPropertyOp22
 70
     1
102
RTVSPropertyOp23
 70
     1
102
RTVSPropertyOp24
 70
     1
102
RTVSPropertyOp25
 70
     1
102
RTVSPropertyOp26
 70
     1
102
RTVSPropertyOp27
 70
     1
102
RTVSPropertyOp28
 70
     1
102
RTVSPropertyOp29
 70
     1
102
RTVSPropertyOp30
 70
     1
102
RTVSPropertyOp31
 70
     1
102
RTVSPropertyOp32
 70
     1
102
RTVSPropertyOp33
 70
     1
102
RTVSPropertyOp34
 70
     1
102
RTVSPropertyOp35
 70
     1
102
RTVSPropertyOp36
 70
     1
102
RTVSPropertyOp37
 70
     1
102
RTVSPropertyOp38
 70
     1
102
RTVSPropertyOp39
 70
     1
102
RTVSPropertyOp40
 70
     1
102
RTVSPropertyOp41
 70
     1
102
RTVSPropertyOp42
 70
     1
102
RTVSPropertyOp43
 70
     1
102
RTVSPropertyOp44
 70
     1
102
RTVSPropertyOp45
 70
     1
102
RTVSPropertyOp46
 70
     1
102
RTVSPropertyOp47
 70
     1
102
RTVSPropertyOp48
 70
     1
102
RTVSPropertyOp49
 70
     1
102
RTVSPropertyOp50
 70
     1
102
RTVSPropertyOp51
 70
     0
102
RTVSPropertyOp52
 70
     0
102
RTVSPropertyOp53
 70
     1
102
RTVSPropertyOp54
 70
     1
102
RTVSPropertyOp55
 70
     1
102
RTVSPropertyOp56
 70
     1
102
RTVSPropertyOp57
 70
     1
102
RTVSPropertyOp58
 70
     1
102
RTVSPropertyOp59
 70
     1
102
RTVSPropertyOp60
 70
     1
102
RTVSPropertyOp61
 70
     1
102
RTVSPropertyOp62
 70
     1
  0
XRECORD
  5
2BD5
102
{ACAD_REACTORS
330
2BD4
102
}
330
2BD4
100
AcDbXrecord
280
     1
102
RTVSPost2010Prop28
280
     0
102
RTVSPost2010PropOp28
 70
     1
102
RTVSPost2010Prop29
280
     1
102
RTVSPost2010PropOp29
 70
     1
102
RTVSPost2010Prop30
280
     1
102
RTVSPost2010PropOp30
 70
     1
102
RTVSPost2010Prop31
280
     0
102
RTVSPost2010PropOp31
 70
     1
102
RTVSPost2010Prop32
280
     0
102
RTVSPost2010PropOp32
 70
     1
102
RTVSPost2010Prop33
280
     0
102
RTVSPost2010PropOp33
 70
     1
102
RTVSPost2010Prop34
280
     0
102
RTVSPost2010PropOp34
 70
     1
102
RTVSPost2010Prop35
280
     0
102
RTVSPost2010PropOp35
 70
     1
102
RTVSPost2010Prop36
280
     0
102
RTVSPost2010PropOp36
 70
     1
102
RTVSPost2010Prop37
 90
       50
102
RTVSPost2010PropOp37
 70
     1
102
RTVSPost2010Prop38
140
0.0
102
RTVSPost2010PropOp38
 70
     1
102
RTVSPost2010Prop39
140
1.0
102
RTVSPost2010PropOp39
 70
     1
102
RTVSPost2010Prop40
 90
        0
102
RTVSPost2010PropOp40
 70
     1
102
RTVSPost2010Prop41ColorIndex
 90
       18
102
RTVSPost2010Prop41ColorRGB
 90
        0
102
RTVSPost2010PropOp41
 70
     1
102
RTVSPost2010Prop42
 90
       50
102
RTVSPost2010PropOp42
 70
     1
102
RTVSPost2010Prop43
 90
        3
102
RTVSPost2010PropOp43
 70
     1
102
RTVSPost2010Prop44ColorIndex
 90
        5
102
RTVSPost2010Prop44ColorRGB
 90
      255
102
RTVSPost2010PropOp44
 70
     1
102
RTVSPost2010Prop45
280
     0
102
RTVSPost2010PropOp45
 70
     1
102
RTVSPost2010Prop46
 90
       50
102
RTVSPost2010PropOp46
 70
     1
102
RTVSPost2010Prop47
 90
       50
102
RTVSPost2010PropOp47
 70
     1
102
RTVSPost2010Prop48
 90
       50
102
RTVSPost2010PropOp48
 70
     1
102
RTVSPost2010Prop49
280
     0
102
RTVSPost2010PropOp49
 70
     1
102
RTVSPost2010Prop50
 90
       50
102
RTVSPost2010PropOp50
 70
     1
102
RTVSPost2010Prop51ColorIndex
 90
      256
102
RTVSPost2010Prop51ColorRGB
 90
-16777216
102
RTVSPost2010PropOp51
 70
     0
102
RTVSPost2010Prop52
140
1.0
102
RTVSPost2010PropOp52
 70
     0
102
RTVSPost2010Prop53
 90
        2
102
RTVSPost2010PropOp53
 70
     1
102
RTVSPost2010Prop54
  1
strokes_ogs.tif
102
RTVSPost2010PropOp54
 70
     1
102
RTVSPost2010Prop55
280
     0
102
RTVSPost2010PropOp55
 70
     1
102
RTVSPost2010Prop56
140
1.0
102
RTVSPost2010PropOp56
 70
     1
102
RTVSPost2010Prop57
140
1.0
102
RTVSPost2010PropOp57
 70
     1
102
RTVSPropertyOp0
 70
     1
102
RTVSPropertyOp1
 70
     1
102
RTVSPropertyOp2
 70
     1
102
RTVSPropertyOp3
 70
     1
102
RTVSPropertyOp4
 70
     1
102
RTVSPropertyOp5
 70
     1
102
RTVSPropertyOp6
 70
     1
102
RTVSPropertyOp7
 70
     1
102
RTVSPropertyOp8
 70
     1
102
RTVSPropertyOp9
 70
     1
102
RTVSPropertyOp10
 70
     1
102
RTVSPropertyOp11
 70
     1
102
RTVSPropertyOp12
 70
     1
102
RTVSPropertyOp13
 70
     1
102
RTVSPropertyOp14
 70
     1
102
RTVSPropertyOp15
 70
     1
102
RTVSPropertyOp16
 70
     1
102
RTVSPropertyOp17
 70
     1
102
RTVSPropertyOp18
 70
     1
102
RTVSPropertyOp19
 70
     1
102
RTVSPropertyOp20
 70
     1
102
RTVSPropertyOp21
 70
     1
102
RTVSPropertyOp22
 70
     1
102
RTVSPropertyOp23
 70
     1
102
RTVSPropertyOp24
 70
     1
102
RTVSPropertyOp25
 70
     1
102
RTVSPropertyOp26
 70
     1
102
RTVSPropertyOp27
 70
     1
102
RTVSPropertyOp28
 70
     1
102
RTVSPropertyOp29
 70
     1
102
RTVSPropertyOp30
 70
     1
102
RTVSPropertyOp31
 70
     1
102
RTVSPropertyOp32
 70
     1
102
RTVSPropertyOp33
 70
     1
102
RTVSPropertyOp34
 70
     1
102
RTVSPropertyOp35
 70
     1
102
RTVSPropertyOp36
 70
     1
102
RTVSPropertyOp37
 70
     1
102
RTVSPropertyOp38
 70
     1
102
RTVSPropertyOp39
 70
     1
102
RTVSPropertyOp40
 70
     1
102
RTVSPropertyOp41
 70
     1
102
RTVSPropertyOp42
 70
     1
102
RTVSPropertyOp43
 70
     1
102
RTVSPropertyOp44
 70
     1
102
RTVSPropertyOp45
 70
     1
102
RTVSPropertyOp46
 70
     1
102
RTVSPropertyOp47
 70
     1
102
RTVSPropertyOp48
 70
     1
102
RTVSPropertyOp49
 70
     1
102
RTVSPropertyOp50
 70
     1
102
RTVSPropertyOp51
 70
     0
102
RTVSPropertyOp52
 70
     0
102
RTVSPropertyOp53
 70
     1
102
RTVSPropertyOp54
 70
     1
102
RTVSPropertyOp55
 70
     1
102
RTVSPropertyOp56
 70
     1
102
RTVSPropertyOp57
 70
     1
102
RTVSPropertyOp58
 70
     1
102
RTVSPropertyOp59
 70
     1
102
RTVSPropertyOp60
 70
     1
102
RTVSPropertyOp61
 70
     1
102
RTVSPropertyOp62
 70
     1
  0
XRECORD
  5
2BD7
102
{ACAD_REACTORS
330
2BD6
102
}
330
2BD6
100
AcDbXrecord
280
     1
102
RTVSPost2010Prop28
280
     0
102
RTVSPost2010PropOp28
 70
     1
102
RTVSPost2010Prop29
280
     1
102
RTVSPost2010PropOp29
 70
     1
102
RTVSPost2010Prop30
280
     1
102
RTVSPost2010PropOp30
 70
     1
102
RTVSPost2010Prop31
280
     0
102
RTVSPost2010PropOp31
 70
     1
102
RTVSPost2010Prop32
280
     0
102
RTVSPost2010PropOp32
 70
     1
102
RTVSPost2010Prop33
280
     0
102
RTVSPost2010PropOp33
 70
     1
102
RTVSPost2010Prop34
280
     0
102
RTVSPost2010PropOp34
 70
     1
102
RTVSPost2010Prop35
280
     0
102
RTVSPost2010PropOp35
 70
     1
102
RTVSPost2010Prop36
280
     0
102
RTVSPost2010PropOp36
 70
     1
102
RTVSPost2010Prop37
 90
       50
102
RTVSPost2010PropOp37
 70
     1
102
RTVSPost2010Prop38
140
0.0
102
RTVSPost2010PropOp38
 70
     1
102
RTVSPost2010Prop39
140
1.0
102
RTVSPost2010PropOp39
 70
     1
102
RTVSPost2010Prop40
 90
        0
102
RTVSPost2010PropOp40
 70
     1
102
RTVSPost2010Prop41ColorIndex
 90
       18
102
RTVSPost2010Prop41ColorRGB
 90
        0
102
RTVSPost2010PropOp41
 70
     1
102
RTVSPost2010Prop42
 90
       50
102
RTVSPost2010PropOp42
 70
     1
102
RTVSPost2010Prop43
 90
        3
102
RTVSPost2010PropOp43
 70
     1
102
RTVSPost2010Prop44ColorIndex
 90
        5
102
RTVSPost2010Prop44ColorRGB
 90
      255
102
RTVSPost2010PropOp44
 70
     1
102
RTVSPost2010Prop45
280
     0
102
RTVSPost2010PropOp45
 70
     1
102
RTVSPost2010Prop46
 90
       50
102
RTVSPost2010PropOp46
 70
     1
102
RTVSPost2010Prop47
 90
       50
102
RTVSPost2010PropOp47
 70
     1
102
RTVSPost2010Prop48
 90
       50
102
RTVSPost2010PropOp48
 70
     1
102
RTVSPost2010Prop49
280
     0
102
RTVSPost2010PropOp49
 70
     1
102
RTVSPost2010Prop50
 90
       50
102
RTVSPost2010PropOp50
 70
     1
102
RTVSPost2010Prop51ColorIndex
 90
      256
102
RTVSPost2010Prop51ColorRGB
 90
-16777216
102
RTVSPost2010PropOp51
 70
     0
102
RTVSPost2010Prop52
140
1.0
102
RTVSPost2010PropOp52
 70
     0
102
RTVSPost2010Prop53
 90
        2
102
RTVSPost2010PropOp53
 70
     1
102
RTVSPost2010Prop54
  1
strokes_ogs.tif
102
RTVSPost2010PropOp54
 70
     1
102
RTVSPost2010Prop55
280
     0
102
RTVSPost2010PropOp55
 70
     1
102
RTVSPost2010Prop56
140
1.0
102
RTVSPost2010PropOp56
 70
     1
102
RTVSPost2010Prop57
140
1.0
102
RTVSPost2010PropOp57
 70
     1
102
RTVSPropertyOp0
 70
     1
102
RTVSPropertyOp1
 70
     1
102
RTVSPropertyOp2
 70
     1
102
RTVSPropertyOp3
 70
     1
102
RTVSPropertyOp4
 70
     1
102
RTVSPropertyOp5
 70
     1
102
RTVSPropertyOp6
 70
     1
102
RTVSPropertyOp7
 70
     1
102
RTVSPropertyOp8
 70
     1
102
RTVSPropertyOp9
 70
     1
102
RTVSPropertyOp10
 70
     1
102
RTVSPropertyOp11
 70
     1
102
RTVSPropertyOp12
 70
     1
102
RTVSPropertyOp13
 70
     1
102
RTVSPropertyOp14
 70
     1
102
RTVSPropertyOp15
 70
     1
102
RTVSPropertyOp16
 70
     1
102
RTVSPropertyOp17
 70
     1
102
RTVSPropertyOp18
 70
     1
102
RTVSPropertyOp19
 70
     1
102
RTVSPropertyOp20
 70
     1
102
RTVSPropertyOp21
 70
     1
102
RTVSPropertyOp22
 70
     1
102
RTVSPropertyOp23
 70
     1
102
RTVSPropertyOp24
 70
     1
102
RTVSPropertyOp25
 70
     1
102
RTVSPropertyOp26
 70
     1
102
RTVSPropertyOp27
 70
     1
102
RTVSPropertyOp28
 70
     1
102
RTVSPropertyOp29
 70
     1
102
RTVSPropertyOp30
 70
     1
102
RTVSPropertyOp31
 70
     1
102
RTVSPropertyOp32
 70
     1
102
RTVSPropertyOp33
 70
     1
102
RTVSPropertyOp34
 70
     1
102
RTVSPropertyOp35
 70
     1
102
RTVSPropertyOp36
 70
     1
102
RTVSPropertyOp37
 70
     1
102
RTVSPropertyOp38
 70
     1
102
RTVSPropertyOp39
 70
     1
102
RTVSPropertyOp40
 70
     1
102
RTVSPropertyOp41
 70
     1
102
RTVSPropertyOp42
 70
     1
102
RTVSPropertyOp43
 70
     1
102
RTVSPropertyOp44
 70
     1
102
RTVSPropertyOp45
 70
     1
102
RTVSPropertyOp46
 70
     1
102
RTVSPropertyOp47
 70
     1
102
RTVSPropertyOp48
 70
     1
102
RTVSPropertyOp49
 70
     1
102
RTVSPropertyOp50
 70
     1
102
RTVSPropertyOp51
 70
     0
102
RTVSPropertyOp52
 70
     0
102
RTVSPropertyOp53
 70
     1
102
RTVSPropertyOp54
 70
     1
102
RTVSPropertyOp55
 70
     1
102
RTVSPropertyOp56
 70
     1
102
RTVSPropertyOp57
 70
     1
102
RTVSPropertyOp58
 70
     1
102
RTVSPropertyOp59
 70
     1
102
RTVSPropertyOp60
 70
     1
102
RTVSPropertyOp61
 70
     1
102
RTVSPropertyOp62
 70
     1
  0
XRECORD
  5
2BD9
102
{ACAD_REACTORS
330
2BD8
102
}
330
2BD8
100
AcDbXrecord
280
     1
102
RTVSPost2010Prop28
280
     0
102
RTVSPost2010PropOp28
 70
     1
102
RTVSPost2010Prop29
280
     1
102
RTVSPost2010PropOp29
 70
     1
102
RTVSPost2010Prop30
280
     1
102
RTVSPost2010PropOp30
 70
     1
102
RTVSPost2010Prop31
280
     0
102
RTVSPost2010PropOp31
 70
     1
102
RTVSPost2010Prop32
280
     0
102
RTVSPost2010PropOp32
 70
     1
102
RTVSPost2010Prop33
280
     0
102
RTVSPost2010PropOp33
 70
     1
102
RTVSPost2010Prop34
280
     0
102
RTVSPost2010PropOp34
 70
     1
102
RTVSPost2010Prop35
280
     0
102
RTVSPost2010PropOp35
 70
     1
102
RTVSPost2010Prop36
280
     0
102
RTVSPost2010PropOp36
 70
     1
102
RTVSPost2010Prop37
 90
       50
102
RTVSPost2010PropOp37
 70
     1
102
RTVSPost2010Prop38
140
0.0
102
RTVSPost2010PropOp38
 70
     1
102
RTVSPost2010Prop39
140
1.0
102
RTVSPost2010PropOp39
 70
     1
102
RTVSPost2010Prop40
 90
        0
102
RTVSPost2010PropOp40
 70
     1
102
RTVSPost2010Prop41ColorIndex
 90
       18
102
RTVSPost2010Prop41ColorRGB
 90
        0
102
RTVSPost2010PropOp41
 70
     1
102
RTVSPost2010Prop42
 90
       50
102
RTVSPost2010PropOp42
 70
     1
102
RTVSPost2010Prop43
 90
        3
102
RTVSPost2010PropOp43
 70
     1
102
RTVSPost2010Prop44ColorIndex
 90
        5
102
RTVSPost2010Prop44ColorRGB
 90
      255
102
RTVSPost2010PropOp44
 70
     1
102
RTVSPost2010Prop45
280
     0
102
RTVSPost2010PropOp45
 70
     1
102
RTVSPost2010Prop46
 90
       50
102
RTVSPost2010PropOp46
 70
     1
102
RTVSPost2010Prop47
 90
       50
102
RTVSPost2010PropOp47
 70
     1
102
RTVSPost2010Prop48
 90
       50
102
RTVSPost2010PropOp48
 70
     1
102
RTVSPost2010Prop49
280
     0
102
RTVSPost2010PropOp49
 70
     1
102
RTVSPost2010Prop50
 90
       50
102
RTVSPost2010PropOp50
 70
     1
102
RTVSPost2010Prop51ColorIndex
 90
      256
102
RTVSPost2010Prop51ColorRGB
 90
-16777216
102
RTVSPost2010PropOp51
 70
     0
102
RTVSPost2010Prop52
140
1.0
102
RTVSPost2010PropOp52
 70
     0
102
RTVSPost2010Prop53
 90
        2
102
RTVSPost2010PropOp53
 70
     1
102
RTVSPost2010Prop54
  1
strokes_ogs.tif
102
RTVSPost2010PropOp54
 70
     1
102
RTVSPost2010Prop55
280
     0
102
RTVSPost2010PropOp55
 70
     1
102
RTVSPost2010Prop56
140
1.0
102
RTVSPost2010PropOp56
 70
     1
102
RTVSPost2010Prop57
140
1.0
102
RTVSPost2010PropOp57
 70
     1
102
RTVSPropertyOp0
 70
     1
102
RTVSPropertyOp1
 70
     1
102
RTVSPropertyOp2
 70
     1
102
RTVSPropertyOp3
 70
     1
102
RTVSPropertyOp4
 70
     1
102
RTVSPropertyOp5
 70
     1
102
RTVSPropertyOp6
 70
     1
102
RTVSPropertyOp7
 70
     1
102
RTVSPropertyOp8
 70
     1
102
RTVSPropertyOp9
 70
     1
102
RTVSPropertyOp10
 70
     1
102
RTVSPropertyOp11
 70
     1
102
RTVSPropertyOp12
 70
     1
102
RTVSPropertyOp13
 70
     1
102
RTVSPropertyOp14
 70
     1
102
RTVSPropertyOp15
 70
     1
102
RTVSPropertyOp16
 70
     1
102
RTVSPropertyOp17
 70
     1
102
RTVSPropertyOp18
 70
     1
102
RTVSPropertyOp19
 70
     1
102
RTVSPropertyOp20
 70
     1
102
RTVSPropertyOp21
 70
     1
102
RTVSPropertyOp22
 70
     1
102
RTVSPropertyOp23
 70
     1
102
RTVSPropertyOp24
 70
     1
102
RTVSPropertyOp25
 70
     1
102
RTVSPropertyOp26
 70
     1
102
RTVSPropertyOp27
 70
     1
102
RTVSPropertyOp28
 70
     1
102
RTVSPropertyOp29
 70
     1
102
RTVSPropertyOp30
 70
     1
102
RTVSPropertyOp31
 70
     1
102
RTVSPropertyOp32
 70
     1
102
RTVSPropertyOp33
 70
     1
102
RTVSPropertyOp34
 70
     1
102
RTVSPropertyOp35
 70
     1
102
RTVSPropertyOp36
 70
     1
102
RTVSPropertyOp37
 70
     1
102
RTVSPropertyOp38
 70
     1
102
RTVSPropertyOp39
 70
     1
102
RTVSPropertyOp40
 70
     1
102
RTVSPropertyOp41
 70
     1
102
RTVSPropertyOp42
 70
     1
102
RTVSPropertyOp43
 70
     1
102
RTVSPropertyOp44
 70
     1
102
RTVSPropertyOp45
 70
     1
102
RTVSPropertyOp46
 70
     1
102
RTVSPropertyOp47
 70
     1
102
RTVSPropertyOp48
 70
     1
102
RTVSPropertyOp49
 70
     1
102
RTVSPropertyOp50
 70
     1
102
RTVSPropertyOp51
 70
     0
102
RTVSPropertyOp52
 70
     0
102
RTVSPropertyOp53
 70
     1
102
RTVSPropertyOp54
 70
     1
102
RTVSPropertyOp55
 70
     1
102
RTVSPropertyOp56
 70
     1
102
RTVSPropertyOp57
 70
     1
102
RTVSPropertyOp58
 70
     1
102
RTVSPropertyOp59
 70
     1
102
RTVSPropertyOp60
 70
     1
102
RTVSPropertyOp61
 70
     1
102
RTVSPropertyOp62
 70
     1
  0
XRECORD
  5
2BE1
102
{ACAD_REACTORS
330
2BE0
102
}
330
2BE0
100
AcDbXrecord
280
     1
102
RTVSPost2010Prop28
280
     0
102
RTVSPost2010PropOp28
 70
     1
102
RTVSPost2010Prop29
280
     1
102
RTVSPost2010PropOp29
 70
     1
102
RTVSPost2010Prop30
280
     1
102
RTVSPost2010PropOp30
 70
     1
102
RTVSPost2010Prop31
280
     0
102
RTVSPost2010PropOp31
 70
     1
102
RTVSPost2010Prop32
280
     0
102
RTVSPost2010PropOp32
 70
     1
102
RTVSPost2010Prop33
280
     0
102
RTVSPost2010PropOp33
 70
     1
102
RTVSPost2010Prop34
280
     0
102
RTVSPost2010PropOp34
 70
     1
102
RTVSPost2010Prop35
280
     0
102
RTVSPost2010PropOp35
 70
     1
102
RTVSPost2010Prop36
280
     0
102
RTVSPost2010PropOp36
 70
     1
102
RTVSPost2010Prop37
 90
       50
102
RTVSPost2010PropOp37
 70
     1
102
RTVSPost2010Prop38
140
0.0
102
RTVSPost2010PropOp38
 70
     1
102
RTVSPost2010Prop39
140
1.0
102
RTVSPost2010PropOp39
 70
     1
102
RTVSPost2010Prop40
 90
        0
102
RTVSPost2010PropOp40
 70
     1
102
RTVSPost2010Prop41ColorIndex
 90
       18
102
RTVSPost2010Prop41ColorRGB
 90
        0
102
RTVSPost2010PropOp41
 70
     1
102
RTVSPost2010Prop42
 90
       50
102
RTVSPost2010PropOp42
 70
     1
102
RTVSPost2010Prop43
 90
        3
102
RTVSPost2010PropOp43
 70
     1
102
RTVSPost2010Prop44ColorIndex
 90
        5
102
RTVSPost2010Prop44ColorRGB
 90
      255
102
RTVSPost2010PropOp44
 70
     1
102
RTVSPost2010Prop45
280
     0
102
RTVSPost2010PropOp45
 70
     1
102
RTVSPost2010Prop46
 90
       50
102
RTVSPost2010PropOp46
 70
     1
102
RTVSPost2010Prop47
 90
       50
102
RTVSPost2010PropOp47
 70
     1
102
RTVSPost2010Prop48
 90
       50
102
RTVSPost2010PropOp48
 70
     1
102
RTVSPost2010Prop49
280
     0
102
RTVSPost2010PropOp49
 70
     1
102
RTVSPost2010Prop50
 90
       50
102
RTVSPost2010PropOp50
 70
     1
102
RTVSPost2010Prop51ColorIndex
 90
      256
102
RTVSPost2010Prop51ColorRGB
 90
-16777216
102
RTVSPost2010PropOp51
 70
     0
102
RTVSPost2010Prop52
140
1.0
102
RTVSPost2010PropOp52
 70
     0
102
RTVSPost2010Prop53
 90
        2
102
RTVSPost2010PropOp53
 70
     1
102
RTVSPost2010Prop54
  1
strokes_ogs.tif
102
RTVSPost2010PropOp54
 70
     1
102
RTVSPost2010Prop55
280
     0
102
RTVSPost2010PropOp55
 70
     1
102
RTVSPost2010Prop56
140
1.0
102
RTVSPost2010PropOp56
 70
     1
102
RTVSPost2010Prop57
140
1.0
102
RTVSPost2010PropOp57
 70
     1
102
RTVSPropertyOp0
 70
     1
102
RTVSPropertyOp1
 70
     1
102
RTVSPropertyOp2
 70
     1
102
RTVSPropertyOp3
 70
     1
102
RTVSPropertyOp4
 70
     1
102
RTVSPropertyOp5
 70
     1
102
RTVSPropertyOp6
 70
     1
102
RTVSPropertyOp7
 70
     1
102
RTVSPropertyOp8
 70
     1
102
RTVSPropertyOp9
 70
     1
102
RTVSPropertyOp10
 70
     1
102
RTVSPropertyOp11
 70
     1
102
RTVSPropertyOp12
 70
     1
102
RTVSPropertyOp13
 70
     1
102
RTVSPropertyOp14
 70
     1
102
RTVSPropertyOp15
 70
     1
102
RTVSPropertyOp16
 70
     1
102
RTVSPropertyOp17
 70
     1
102
RTVSPropertyOp18
 70
     1
102
RTVSPropertyOp19
 70
     1
102
RTVSPropertyOp20
 70
     1
102
RTVSPropertyOp21
 70
     1
102
RTVSPropertyOp22
 70
     1
102
RTVSPropertyOp23
 70
     1
102
RTVSPropertyOp24
 70
     1
102
RTVSPropertyOp25
 70
     1
102
RTVSPropertyOp26
 70
     1
102
RTVSPropertyOp27
 70
     1
102
RTVSPropertyOp28
 70
     1
102
RTVSPropertyOp29
 70
     1
102
RTVSPropertyOp30
 70
     1
102
RTVSPropertyOp31
 70
     1
102
RTVSPropertyOp32
 70
     1
102
RTVSPropertyOp33
 70
     1
102
RTVSPropertyOp34
 70
     1
102
RTVSPropertyOp35
 70
     1
102
RTVSPropertyOp36
 70
     1
102
RTVSPropertyOp37
 70
     1
102
RTVSPropertyOp38
 70
     1
102
RTVSPropertyOp39
 70
     1
102
RTVSPropertyOp40
 70
     1
102
RTVSPropertyOp41
 70
     1
102
RTVSPropertyOp42
 70
     1
102
RTVSPropertyOp43
 70
     1
102
RTVSPropertyOp44
 70
     1
102
RTVSPropertyOp45
 70
     1
102
RTVSPropertyOp46
 70
     1
102
RTVSPropertyOp47
 70
     1
102
RTVSPropertyOp48
 70
     1
102
RTVSPropertyOp49
 70
     1
102
RTVSPropertyOp50
 70
     1
102
RTVSPropertyOp51
 70
     0
102
RTVSPropertyOp52
 70
     0
102
RTVSPropertyOp53
 70
     1
102
RTVSPropertyOp54
 70
     1
102
RTVSPropertyOp55
 70
     1
102
RTVSPropertyOp56
 70
     1
102
RTVSPropertyOp57
 70
     1
102
RTVSPropertyOp58
 70
     1
102
RTVSPropertyOp59
 70
     1
102
RTVSPropertyOp60
 70
     1
102
RTVSPropertyOp61
 70
     1
102
RTVSPropertyOp62
 70
     1
  0
XRECORD
  5
2BFD
102
{ACAD_REACTORS
330
2BFC
102
}
330
2BFC
100
AcDbXrecord
280
     1
102
RTVSPost2010Prop28
280
     0
102
RTVSPost2010PropOp28
 70
     0
102
RTVSPost2010Prop29
280
     1
102
RTVSPost2010PropOp29
 70
     0
102
RTVSPost2010Prop30
280
     1
102
RTVSPost2010PropOp30
 70
     0
102
RTVSPost2010Prop31
280
     0
102
RTVSPost2010PropOp31
 70
     0
102
RTVSPost2010Prop32
280
     0
102
RTVSPost2010PropOp32
 70
     0
102
RTVSPost2010Prop33
280
     0
102
RTVSPost2010PropOp33
 70
     0
102
RTVSPost2010Prop34
280
     0
102
RTVSPost2010PropOp34
 70
     0
102
RTVSPost2010Prop35
280
     0
102
RTVSPost2010PropOp35
 70
     0
102
RTVSPost2010Prop36
280
     0
102
RTVSPost2010PropOp36
 70
     0
102
RTVSPost2010Prop37
 90
       50
102
RTVSPost2010PropOp37
 70
     0
102
RTVSPost2010Prop38
140
0.0
102
RTVSPost2010PropOp38
 70
     0
102
RTVSPost2010Prop39
140
1.0
102
RTVSPost2010PropOp39
 70
     0
102
RTVSPost2010Prop40
 90
        0
102
RTVSPost2010PropOp40
 70
     0
102
RTVSPost2010Prop41ColorIndex
 90
       18
102
RTVSPost2010Prop41ColorRGB
 90
        0
102
RTVSPost2010PropOp41
 70
     0
102
RTVSPost2010Prop42
 90
       50
102
RTVSPost2010PropOp42
 70
     0
102
RTVSPost2010Prop43
 90
        3
102
RTVSPost2010PropOp43
 70
     0
102
RTVSPost2010Prop44ColorIndex
 90
        5
102
RTVSPost2010Prop44ColorRGB
 90
      255
102
RTVSPost2010PropOp44
 70
     0
102
RTVSPost2010Prop45
280
     0
102
RTVSPost2010PropOp45
 70
     0
102
RTVSPost2010Prop46
 90
       50
102
RTVSPost2010PropOp46
 70
     0
102
RTVSPost2010Prop47
 90
       50
102
RTVSPost2010PropOp47
 70
     0
102
RTVSPost2010Prop48
 90
       50
102
RTVSPost2010PropOp48
 70
     0
102
RTVSPost2010Prop49
280
     0
102
RTVSPost2010PropOp49
 70
     0
102
RTVSPost2010Prop50
 90
       50
102
RTVSPost2010PropOp50
 70
     0
102
RTVSPost2010Prop51ColorIndex
 90
      256
102
RTVSPost2010Prop51ColorRGB
 90
-16777216
102
RTVSPost2010PropOp51
 70
     0
102
RTVSPost2010Prop52
140
1.0
102
RTVSPost2010PropOp52
 70
     0
102
RTVSPost2010Prop53
 90
        2
102
RTVSPost2010PropOp53
 70
     0
102
RTVSPost2010Prop54
  1
strokes_ogs.tif
102
RTVSPost2010PropOp54
 70
     0
102
RTVSPost2010Prop55
280
     0
102
RTVSPost2010PropOp55
 70
     0
102
RTVSPost2010Prop56
140
1.0
102
RTVSPost2010PropOp56
 70
     0
102
RTVSPost2010Prop57
140
1.0
102
RTVSPost2010PropOp57
 70
     0
102
RTVSPropertyOp0
 70
     0
102
RTVSPropertyOp1
 70
     0
102
RTVSPropertyOp2
 70
     0
102
RTVSPropertyOp3
 70
     0
102
RTVSPropertyOp4
 70
     0
102
RTVSPropertyOp5
 70
     0
102
RTVSPropertyOp6
 70
     0
102
RTVSPropertyOp7
 70
     0
102
RTVSPropertyOp8
 70
     0
102
RTVSPropertyOp9
 70
     0
102
RTVSPropertyOp10
 70
     0
102
RTVSPropertyOp11
 70
     0
102
RTVSPropertyOp12
 70
     0
102
RTVSPropertyOp13
 70
     0
102
RTVSPropertyOp14
 70
     2
102
RTVSPropertyOp15
 70
     0
102
RTVSPropertyOp16
 70
     0
102
RTVSPropertyOp17
 70
     0
102
RTVSPropertyOp18
 70
     0
102
RTVSPropertyOp19
 70
     0
102
RTVSPropertyOp20
 70
     0
102
RTVSPropertyOp21
 70
     0
102
RTVSPropertyOp22
 70
     0
102
RTVSPropertyOp23
 70
     0
102
RTVSPropertyOp24
 70
     0
102
RTVSPropertyOp25
 70
     0
102
RTVSPropertyOp26
 70
     0
102
RTVSPropertyOp27
 70
     0
102
RTVSPropertyOp28
 70
     0
102
RTVSPropertyOp29
 70
     0
102
RTVSPropertyOp30
 70
     0
102
RTVSPropertyOp31
 70
     0
102
RTVSPropertyOp32
 70
     0
102
RTVSPropertyOp33
 70
     0
102
RTVSPropertyOp34
 70
     0
102
RTVSPropertyOp35
 70
     0
102
RTVSPropertyOp36
 70
     0
102
RTVSPropertyOp37
 70
     0
102
RTVSPropertyOp38
 70
     0
102
RTVSPropertyOp39
 70
     0
102
RTVSPropertyOp40
 70
     0
102
RTVSPropertyOp41
 70
     0
102
RTVSPropertyOp42
 70
     0
102
RTVSPropertyOp43
 70
     0
102
RTVSPropertyOp44
 70
     0
102
RTVSPropertyOp45
 70
     0
102
RTVSPropertyOp46
 70
     0
102
RTVSPropertyOp47
 70
     0
102
RTVSPropertyOp48
 70
     0
102
RTVSPropertyOp49
 70
     0
102
RTVSPropertyOp50
 70
     0
102
RTVSPropertyOp51
 70
     0
102
RTVSPropertyOp52
 70
     0
102
RTVSPropertyOp53
 70
     0
102
RTVSPropertyOp54
 70
     0
102
RTVSPropertyOp55
 70
     0
102
RTVSPropertyOp56
 70
     0
102
RTVSPropertyOp57
 70
     0
102
RTVSPropertyOp58
 70
     0
102
RTVSPropertyOp59
 70
     0
102
RTVSPropertyOp60
 70
     0
102
RTVSPropertyOp61
 70
     0
102
RTVSPropertyOp62
 70
     0
  0
XRECORD
  5
2BED
102
{ACAD_REACTORS
330
2BEC
102
}
330
2BEC
100
AcDbXrecord
280
     1
102
RTVSPost2010Prop28
280
     0
102
RTVSPost2010PropOp28
 70
     1
102
RTVSPost2010Prop29
280
     1
102
RTVSPost2010PropOp29
 70
     1
102
RTVSPost2010Prop30
280
     1
102
RTVSPost2010PropOp30
 70
     1
102
RTVSPost2010Prop31
280
     0
102
RTVSPost2010PropOp31
 70
     1
102
RTVSPost2010Prop32
280
     0
102
RTVSPost2010PropOp32
 70
     1
102
RTVSPost2010Prop33
280
     0
102
RTVSPost2010PropOp33
 70
     1
102
RTVSPost2010Prop34
280
     0
102
RTVSPost2010PropOp34
 70
     1
102
RTVSPost2010Prop35
280
     0
102
RTVSPost2010PropOp35
 70
     1
102
RTVSPost2010Prop36
280
     0
102
RTVSPost2010PropOp36
 70
     1
102
RTVSPost2010Prop37
 90
       50
102
RTVSPost2010PropOp37
 70
     1
102
RTVSPost2010Prop38
140
0.0
102
RTVSPost2010PropOp38
 70
     1
102
RTVSPost2010Prop39
140
1.0
102
RTVSPost2010PropOp39
 70
     1
102
RTVSPost2010Prop40
 90
        0
102
RTVSPost2010PropOp40
 70
     1
102
RTVSPost2010Prop41ColorIndex
 90
       18
102
RTVSPost2010Prop41ColorRGB
 90
        0
102
RTVSPost2010PropOp41
 70
     1
102
RTVSPost2010Prop42
 90
       50
102
RTVSPost2010PropOp42
 70
     1
102
RTVSPost2010Prop43
 90
        3
102
RTVSPost2010PropOp43
 70
     1
102
RTVSPost2010Prop44ColorIndex
 90
        5
102
RTVSPost2010Prop44ColorRGB
 90
      255
102
RTVSPost2010PropOp44
 70
     1
102
RTVSPost2010Prop45
280
     0
102
RTVSPost2010PropOp45
 70
     1
102
RTVSPost2010Prop46
 90
       50
102
RTVSPost2010PropOp46
 70
     1
102
RTVSPost2010Prop47
 90
       50
102
RTVSPost2010PropOp47
 70
     1
102
RTVSPost2010Prop48
 90
       50
102
RTVSPost2010PropOp48
 70
     1
102
RTVSPost2010Prop49
280
     0
102
RTVSPost2010PropOp49
 70
     1
102
RTVSPost2010Prop50
 90
       50
102
RTVSPost2010PropOp50
 70
     1
102
RTVSPost2010Prop51ColorIndex
 90
      256
102
RTVSPost2010Prop51ColorRGB
 90
-16777216
102
RTVSPost2010PropOp51
 70
     0
102
RTVSPost2010Prop52
140
1.0
102
RTVSPost2010PropOp52
 70
     0
102
RTVSPost2010Prop53
 90
        2
102
RTVSPost2010PropOp53
 70
     1
102
RTVSPost2010Prop54
  1
strokes_ogs.tif
102
RTVSPost2010PropOp54
 70
     1
102
RTVSPost2010Prop55
280
     0
102
RTVSPost2010PropOp55
 70
     1
102
RTVSPost2010Prop56
140
1.0
102
RTVSPost2010PropOp56
 70
     1
102
RTVSPost2010Prop57
140
1.0
102
RTVSPost2010PropOp57
 70
     1
102
RTVSPropertyOp0
 70
     1
102
RTVSPropertyOp1
 70
     1
102
RTVSPropertyOp2
 70
     1
102
RTVSPropertyOp3
 70
     1
102
RTVSPropertyOp4
 70
     1
102
RTVSPropertyOp5
 70
     1
102
RTVSPropertyOp6
 70
     1
102
RTVSPropertyOp7
 70
     1
102
RTVSPropertyOp8
 70
     1
102
RTVSPropertyOp9
 70
     1
102
RTVSPropertyOp10
 70
     1
102
RTVSPropertyOp11
 70
     1
102
RTVSPropertyOp12
 70
     1
102
RTVSPropertyOp13
 70
     1
102
RTVSPropertyOp14
 70
     1
102
RTVSPropertyOp15
 70
     1
102
RTVSPropertyOp16
 70
     1
102
RTVSPropertyOp17
 70
     1
102
RTVSPropertyOp18
 70
     1
102
RTVSPropertyOp19
 70
     1
102
RTVSPropertyOp20
 70
     1
102
RTVSPropertyOp21
 70
     1
102
RTVSPropertyOp22
 70
     1
102
RTVSPropertyOp23
 70
     1
102
RTVSPropertyOp24
 70
     1
102
RTVSPropertyOp25
 70
     1
102
RTVSPropertyOp26
 70
     1
102
RTVSPropertyOp27
 70
     1
102
RTVSPropertyOp28
 70
     1
102
RTVSPropertyOp29
 70
     1
102
RTVSPropertyOp30
 70
     1
102
RTVSPropertyOp31
 70
     1
102
RTVSPropertyOp32
 70
     1
102
RTVSPropertyOp33
 70
     1
102
RTVSPropertyOp34
 70
     1
102
RTVSPropertyOp35
 70
     1
102
RTVSPropertyOp36
 70
     1
102
RTVSPropertyOp37
 70
     1
102
RTVSPropertyOp38
 70
     1
102
RTVSPropertyOp39
 70
     1
102
RTVSPropertyOp40
 70
     1
102
RTVSPropertyOp41
 70
     1
102
RTVSPropertyOp42
 70
     1
102
RTVSPropertyOp43
 70
     1
102
RTVSPropertyOp44
 70
     1
102
RTVSPropertyOp45
 70
     1
102
RTVSPropertyOp46
 70
     1
102
RTVSPropertyOp47
 70
     1
102
RTVSPropertyOp48
 70
     1
102
RTVSPropertyOp49
 70
     1
102
RTVSPropertyOp50
 70
     1
102
RTVSPropertyOp51
 70
     0
102
RTVSPropertyOp52
 70
     0
102
RTVSPropertyOp53
 70
     1
102
RTVSPropertyOp54
 70
     1
102
RTVSPropertyOp55
 70
     1
102
RTVSPropertyOp56
 70
     1
102
RTVSPropertyOp57
 70
     1
102
RTVSPropertyOp58
 70
     1
102
RTVSPropertyOp59
 70
     1
102
RTVSPropertyOp60
 70
     1
102
RTVSPropertyOp61
 70
     1
102
RTVSPropertyOp62
 70
     1
  0
XRECORD
  5
2BFF
102
{ACAD_REACTORS
330
2BFE
102
}
330
2BFE
100
AcDbXrecord
280
     1
102
RTVSPost2010Prop28
280
     0
102
RTVSPost2010PropOp28
 70
     0
102
RTVSPost2010Prop29
280
     1
102
RTVSPost2010PropOp29
 70
     0
102
RTVSPost2010Prop30
280
     1
102
RTVSPost2010PropOp30
 70
     0
102
RTVSPost2010Prop31
280
     0
102
RTVSPost2010PropOp31
 70
     0
102
RTVSPost2010Prop32
280
     0
102
RTVSPost2010PropOp32
 70
     0
102
RTVSPost2010Prop33
280
     0
102
RTVSPost2010PropOp33
 70
     0
102
RTVSPost2010Prop34
280
     0
102
RTVSPost2010PropOp34
 70
     0
102
RTVSPost2010Prop35
280
     0
102
RTVSPost2010PropOp35
 70
     0
102
RTVSPost2010Prop36
280
     0
102
RTVSPost2010PropOp36
 70
     0
102
RTVSPost2010Prop37
 90
       50
102
RTVSPost2010PropOp37
 70
     0
102
RTVSPost2010Prop38
140
0.0
102
RTVSPost2010PropOp38
 70
     0
102
RTVSPost2010Prop39
140
1.0
102
RTVSPost2010PropOp39
 70
     0
102
RTVSPost2010Prop40
 90
        0
102
RTVSPost2010PropOp40
 70
     0
102
RTVSPost2010Prop41ColorIndex
 90
       18
102
RTVSPost2010Prop41ColorRGB
 90
        0
102
RTVSPost2010PropOp41
 70
     0
102
RTVSPost2010Prop42
 90
       50
102
RTVSPost2010PropOp42
 70
     0
102
RTVSPost2010Prop43
 90
        3
102
RTVSPost2010PropOp43
 70
     0
102
RTVSPost2010Prop44ColorIndex
 90
        5
102
RTVSPost2010Prop44ColorRGB
 90
      255
102
RTVSPost2010PropOp44
 70
     0
102
RTVSPost2010Prop45
280
     0
102
RTVSPost2010PropOp45
 70
     0
102
RTVSPost2010Prop46
 90
       50
102
RTVSPost2010PropOp46
 70
     0
102
RTVSPost2010Prop47
 90
       50
102
RTVSPost2010PropOp47
 70
     0
102
RTVSPost2010Prop48
 90
       50
102
RTVSPost2010PropOp48
 70
     0
102
RTVSPost2010Prop49
280
     0
102
RTVSPost2010PropOp49
 70
     0
102
RTVSPost2010Prop50
 90
       50
102
RTVSPost2010PropOp50
 70
     0
102
RTVSPost2010Prop51ColorIndex
 90
      256
102
RTVSPost2010Prop51ColorRGB
 90
-16777216
102
RTVSPost2010PropOp51
 70
     0
102
RTVSPost2010Prop52
140
1.0
102
RTVSPost2010PropOp52
 70
     0
102
RTVSPost2010Prop53
 90
        2
102
RTVSPost2010PropOp53
 70
     0
102
RTVSPost2010Prop54
  1
strokes_ogs.tif
102
RTVSPost2010PropOp54
 70
     0
102
RTVSPost2010Prop55
280
     0
102
RTVSPost2010PropOp55
 70
     0
102
RTVSPost2010Prop56
140
1.0
102
RTVSPost2010PropOp56
 70
     0
102
RTVSPost2010Prop57
140
1.0
102
RTVSPost2010PropOp57
 70
     0
102
RTVSPropertyOp0
 70
     0
102
RTVSPropertyOp1
 70
     0
102
RTVSPropertyOp2
 70
     0
102
RTVSPropertyOp3
 70
     0
102
RTVSPropertyOp4
 70
     0
102
RTVSPropertyOp5
 70
     0
102
RTVSPropertyOp6
 70
     0
102
RTVSPropertyOp7
 70
     0
102
RTVSPropertyOp8
 70
     0
102
RTVSPropertyOp9
 70
     0
102
RTVSPropertyOp10
 70
     0
102
RTVSPropertyOp11
 70
     0
102
RTVSPropertyOp12
 70
     0
102
RTVSPropertyOp13
 70
     0
102
RTVSPropertyOp14
 70
     2
102
RTVSPropertyOp15
 70
     0
102
RTVSPropertyOp16
 70
     0
102
RTVSPropertyOp17
 70
     0
102
RTVSPropertyOp18
 70
     0
102
RTVSPropertyOp19
 70
     0
102
RTVSPropertyOp20
 70
     0
102
RTVSPropertyOp21
 70
     0
102
RTVSPropertyOp22
 70
     0
102
RTVSPropertyOp23
 70
     0
102
RTVSPropertyOp24
 70
     0
102
RTVSPropertyOp25
 70
     0
102
RTVSPropertyOp26
 70
     0
102
RTVSPropertyOp27
 70
     0
102
RTVSPropertyOp28
 70
     0
102
RTVSPropertyOp29
 70
     0
102
RTVSPropertyOp30
 70
     0
102
RTVSPropertyOp31
 70
     0
102
RTVSPropertyOp32
 70
     0
102
RTVSPropertyOp33
 70
     0
102
RTVSPropertyOp34
 70
     0
102
RTVSPropertyOp35
 70
     0
102
RTVSPropertyOp36
 70
     0
102
RTVSPropertyOp37
 70
     0
102
RTVSPropertyOp38
 70
     0
102
RTVSPropertyOp39
 70
     0
102
RTVSPropertyOp40
 70
     0
102
RTVSPropertyOp41
 70
     0
102
RTVSPropertyOp42
 70
     0
102
RTVSPropertyOp43
 70
     0
102
RTVSPropertyOp44
 70
     0
102
RTVSPropertyOp45
 70
     0
102
RTVSPropertyOp46
 70
     0
102
RTVSPropertyOp47
 70
     0
102
RTVSPropertyOp48
 70
     0
102
RTVSPropertyOp49
 70
     0
102
RTVSPropertyOp50
 70
     0
102
RTVSPropertyOp51
 70
     0
102
RTVSPropertyOp52
 70
     0
102
RTVSPropertyOp53
 70
     0
102
RTVSPropertyOp54
 70
     0
102
RTVSPropertyOp55
 70
     0
102
RTVSPropertyOp56
 70
     0
102
RTVSPropertyOp57
 70
     0
102
RTVSPropertyOp58
 70
     0
102
RTVSPropertyOp59
 70
     0
102
RTVSPropertyOp60
 70
     0
102
RTVSPropertyOp61
 70
     0
102
RTVSPropertyOp62
 70
     0
  0
XRECORD
  5
2BE5
102
{ACAD_REACTORS
330
2BE4
102
}
330
2BE4
100
AcDbXrecord
280
     1
102
RTVSPost2010Prop28
280
     0
102
RTVSPost2010PropOp28
 70
     1
102
RTVSPost2010Prop29
280
     1
102
RTVSPost2010PropOp29
 70
     1
102
RTVSPost2010Prop30
280
     1
102
RTVSPost2010PropOp30
 70
     1
102
RTVSPost2010Prop31
280
     0
102
RTVSPost2010PropOp31
 70
     1
102
RTVSPost2010Prop32
280
     0
102
RTVSPost2010PropOp32
 70
     1
102
RTVSPost2010Prop33
280
     0
102
RTVSPost2010PropOp33
 70
     1
102
RTVSPost2010Prop34
280
     0
102
RTVSPost2010PropOp34
 70
     1
102
RTVSPost2010Prop35
280
     0
102
RTVSPost2010PropOp35
 70
     1
102
RTVSPost2010Prop36
280
     0
102
RTVSPost2010PropOp36
 70
     1
102
RTVSPost2010Prop37
 90
       50
102
RTVSPost2010PropOp37
 70
     1
102
RTVSPost2010Prop38
140
0.0
102
RTVSPost2010PropOp38
 70
     1
102
RTVSPost2010Prop39
140
1.0
102
RTVSPost2010PropOp39
 70
     1
102
RTVSPost2010Prop40
 90
        0
102
RTVSPost2010PropOp40
 70
     1
102
RTVSPost2010Prop41ColorIndex
 90
       18
102
RTVSPost2010Prop41ColorRGB
 90
        0
102
RTVSPost2010PropOp41
 70
     1
102
RTVSPost2010Prop42
 90
       50
102
RTVSPost2010PropOp42
 70
     1
102
RTVSPost2010Prop43
 90
        3
102
RTVSPost2010PropOp43
 70
     1
102
RTVSPost2010Prop44ColorIndex
 90
        5
102
RTVSPost2010Prop44ColorRGB
 90
      255
102
RTVSPost2010PropOp44
 70
     1
102
RTVSPost2010Prop45
280
     0
102
RTVSPost2010PropOp45
 70
     1
102
RTVSPost2010Prop46
 90
       50
102
RTVSPost2010PropOp46
 70
     1
102
RTVSPost2010Prop47
 90
       50
102
RTVSPost2010PropOp47
 70
     1
102
RTVSPost2010Prop48
 90
       50
102
RTVSPost2010PropOp48
 70
     1
102
RTVSPost2010Prop49
280
     0
102
RTVSPost2010PropOp49
 70
     1
102
RTVSPost2010Prop50
 90
       50
102
RTVSPost2010PropOp50
 70
     1
102
RTVSPost2010Prop51ColorIndex
 90
      256
102
RTVSPost2010Prop51ColorRGB
 90
-16777216
102
RTVSPost2010PropOp51
 70
     0
102
RTVSPost2010Prop52
140
1.0
102
RTVSPost2010PropOp52
 70
     0
102
RTVSPost2010Prop53
 90
        2
102
RTVSPost2010PropOp53
 70
     1
102
RTVSPost2010Prop54
  1
strokes_ogs.tif
102
RTVSPost2010PropOp54
 70
     1
102
RTVSPost2010Prop55
280
     0
102
RTVSPost2010PropOp55
 70
     1
102
RTVSPost2010Prop56
140
1.0
102
RTVSPost2010PropOp56
 70
     1
102
RTVSPost2010Prop57
140
1.0
102
RTVSPost2010PropOp57
 70
     1
102
RTVSPropertyOp0
 70
     1
102
RTVSPropertyOp1
 70
     1
102
RTVSPropertyOp2
 70
     1
102
RTVSPropertyOp3
 70
     1
102
RTVSPropertyOp4
 70
     1
102
RTVSPropertyOp5
 70
     1
102
RTVSPropertyOp6
 70
     1
102
RTVSPropertyOp7
 70
     1
102
RTVSPropertyOp8
 70
     1
102
RTVSPropertyOp9
 70
     1
102
RTVSPropertyOp10
 70
     1
102
RTVSPropertyOp11
 70
     1
102
RTVSPropertyOp12
 70
     1
102
RTVSPropertyOp13
 70
     1
102
RTVSPropertyOp14
 70
     1
102
RTVSPropertyOp15
 70
     1
102
RTVSPropertyOp16
 70
     1
102
RTVSPropertyOp17
 70
     1
102
RTVSPropertyOp18
 70
     1
102
RTVSPropertyOp19
 70
     1
102
RTVSPropertyOp20
 70
     1
102
RTVSPropertyOp21
 70
     1
102
RTVSPropertyOp22
 70
     1
102
RTVSPropertyOp23
 70
     1
102
RTVSPropertyOp24
 70
     1
102
RTVSPropertyOp25
 70
     1
102
RTVSPropertyOp26
 70
     1
102
RTVSPropertyOp27
 70
     1
102
RTVSPropertyOp28
 70
     1
102
RTVSPropertyOp29
 70
     1
102
RTVSPropertyOp30
 70
     1
102
RTVSPropertyOp31
 70
     1
102
RTVSPropertyOp32
 70
     1
102
RTVSPropertyOp33
 70
     1
102
RTVSPropertyOp34
 70
     1
102
RTVSPropertyOp35
 70
     1
102
RTVSPropertyOp36
 70
     1
102
RTVSPropertyOp37
 70
     1
102
RTVSPropertyOp38
 70
     1
102
RTVSPropertyOp39
 70
     1
102
RTVSPropertyOp40
 70
     1
102
RTVSPropertyOp41
 70
     1
102
RTVSPropertyOp42
 70
     1
102
RTVSPropertyOp43
 70
     1
102
RTVSPropertyOp44
 70
     1
102
RTVSPropertyOp45
 70
     1
102
RTVSPropertyOp46
 70
     1
102
RTVSPropertyOp47
 70
     1
102
RTVSPropertyOp48
 70
     1
102
RTVSPropertyOp49
 70
     1
102
RTVSPropertyOp50
 70
     1
102
RTVSPropertyOp51
 70
     0
102
RTVSPropertyOp52
 70
     0
102
RTVSPropertyOp53
 70
     1
102
RTVSPropertyOp54
 70
     1
102
RTVSPropertyOp55
 70
     1
102
RTVSPropertyOp56
 70
     1
102
RTVSPropertyOp57
 70
     1
102
RTVSPropertyOp58
 70
     1
102
RTVSPropertyOp59
 70
     1
102
RTVSPropertyOp60
 70
     1
102
RTVSPropertyOp61
 70
     1
102
RTVSPropertyOp62
 70
     1
  0
XRECORD
  5
2BFB
102
{ACAD_REACTORS
330
2BFA
102
}
330
2BFA
100
AcDbXrecord
280
     1
102
RTVSPost2010Prop28
280
     0
102
RTVSPost2010PropOp28
 70
     1
102
RTVSPost2010Prop29
280
     1
102
RTVSPost2010PropOp29
 70
     1
102
RTVSPost2010Prop30
280
     1
102
RTVSPost2010PropOp30
 70
     1
102
RTVSPost2010Prop31
280
     0
102
RTVSPost2010PropOp31
 70
     1
102
RTVSPost2010Prop32
280
     0
102
RTVSPost2010PropOp32
 70
     1
102
RTVSPost2010Prop33
280
     0
102
RTVSPost2010PropOp33
 70
     1
102
RTVSPost2010Prop34
280
     0
102
RTVSPost2010PropOp34
 70
     1
102
RTVSPost2010Prop35
280
     0
102
RTVSPost2010PropOp35
 70
     1
102
RTVSPost2010Prop36
280
     0
102
RTVSPost2010PropOp36
 70
     1
102
RTVSPost2010Prop37
 90
       50
102
RTVSPost2010PropOp37
 70
     1
102
RTVSPost2010Prop38
140
0.0
102
RTVSPost2010PropOp38
 70
     1
102
RTVSPost2010Prop39
140
1.0
102
RTVSPost2010PropOp39
 70
     1
102
RTVSPost2010Prop40
 90
        0
102
RTVSPost2010PropOp40
 70
     1
102
RTVSPost2010Prop41ColorIndex
 90
       18
102
RTVSPost2010Prop41ColorRGB
 90
        0
102
RTVSPost2010PropOp41
 70
     1
102
RTVSPost2010Prop42
 90
       50
102
RTVSPost2010PropOp42
 70
     1
102
RTVSPost2010Prop43
 90
        3
102
RTVSPost2010PropOp43
 70
     1
102
RTVSPost2010Prop44ColorIndex
 90
        5
102
RTVSPost2010Prop44ColorRGB
 90
      255
102
RTVSPost2010PropOp44
 70
     1
102
RTVSPost2010Prop45
280
     0
102
RTVSPost2010PropOp45
 70
     1
102
RTVSPost2010Prop46
 90
       50
102
RTVSPost2010PropOp46
 70
     1
102
RTVSPost2010Prop47
 90
       50
102
RTVSPost2010PropOp47
 70
     1
102
RTVSPost2010Prop48
 90
       50
102
RTVSPost2010PropOp48
 70
     1
102
RTVSPost2010Prop49
280
     0
102
RTVSPost2010PropOp49
 70
     1
102
RTVSPost2010Prop50
 90
       50
102
RTVSPost2010PropOp50
 70
     1
102
RTVSPost2010Prop51ColorIndex
 90
      256
102
RTVSPost2010Prop51ColorRGB
 90
-16777216
102
RTVSPost2010PropOp51
 70
     0
102
RTVSPost2010Prop52
140
1.0
102
RTVSPost2010PropOp52
 70
     0
102
RTVSPost2010Prop53
 90
        2
102
RTVSPost2010PropOp53
 70
     1
102
RTVSPost2010Prop54
  1
strokes_ogs.tif
102
RTVSPost2010PropOp54
 70
     1
102
RTVSPost2010Prop55
280
     0
102
RTVSPost2010PropOp55
 70
     1
102
RTVSPost2010Prop56
140
1.0
102
RTVSPost2010PropOp56
 70
     1
102
RTVSPost2010Prop57
140
1.0
102
RTVSPost2010PropOp57
 70
     1
102
RTVSPropertyOp0
 70
     1
102
RTVSPropertyOp1
 70
     1
102
RTVSPropertyOp2
 70
     1
102
RTVSPropertyOp3
 70
     1
102
RTVSPropertyOp4
 70
     1
102
RTVSPropertyOp5
 70
     1
102
RTVSPropertyOp6
 70
     1
102
RTVSPropertyOp7
 70
     1
102
RTVSPropertyOp8
 70
     1
102
RTVSPropertyOp9
 70
     1
102
RTVSPropertyOp10
 70
     1
102
RTVSPropertyOp11
 70
     1
102
RTVSPropertyOp12
 70
     1
102
RTVSPropertyOp13
 70
     1
102
RTVSPropertyOp14
 70
     1
102
RTVSPropertyOp15
 70
     1
102
RTVSPropertyOp16
 70
     1
102
RTVSPropertyOp17
 70
     1
102
RTVSPropertyOp18
 70
     1
102
RTVSPropertyOp19
 70
     1
102
RTVSPropertyOp20
 70
     1
102
RTVSPropertyOp21
 70
     1
102
RTVSPropertyOp22
 70
     1
102
RTVSPropertyOp23
 70
     1
102
RTVSPropertyOp24
 70
     1
102
RTVSPropertyOp25
 70
     1
102
RTVSPropertyOp26
 70
     1
102
RTVSPropertyOp27
 70
     1
102
RTVSPropertyOp28
 70
     1
102
RTVSPropertyOp29
 70
     1
102
RTVSPropertyOp30
 70
     1
102
RTVSPropertyOp31
 70
     1
102
RTVSPropertyOp32
 70
     1
102
RTVSPropertyOp33
 70
     1
102
RTVSPropertyOp34
 70
     1
102
RTVSPropertyOp35
 70
     1
102
RTVSPropertyOp36
 70
     1
102
RTVSPropertyOp37
 70
     1
102
RTVSPropertyOp38
 70
     1
102
RTVSPropertyOp39
 70
     1
102
RTVSPropertyOp40
 70
     1
102
RTVSPropertyOp41
 70
     1
102
RTVSPropertyOp42
 70
     1
102
RTVSPropertyOp43
 70
     1
102
RTVSPropertyOp44
 70
     1
102
RTVSPropertyOp45
 70
     1
102
RTVSPropertyOp46
 70
     1
102
RTVSPropertyOp47
 70
     1
102
RTVSPropertyOp48
 70
     1
102
RTVSPropertyOp49
 70
     1
102
RTVSPropertyOp50
 70
     1
102
RTVSPropertyOp51
 70
     0
102
RTVSPropertyOp52
 70
     0
102
RTVSPropertyOp53
 70
     1
102
RTVSPropertyOp54
 70
     1
102
RTVSPropertyOp55
 70
     1
102
RTVSPropertyOp56
 70
     1
102
RTVSPropertyOp57
 70
     1
102
RTVSPropertyOp58
 70
     1
102
RTVSPropertyOp59
 70
     1
102
RTVSPropertyOp60
 70
     1
102
RTVSPropertyOp61
 70
     1
102
RTVSPropertyOp62
 70
     1
  0
XRECORD
  5
2BF9
102
{ACAD_REACTORS
330
2BF8
102
}
330
2BF8
100
AcDbXrecord
280
     1
102
RTVSPost2010Prop28
280
     0
102
RTVSPost2010PropOp28
 70
     1
102
RTVSPost2010Prop29
280
     1
102
RTVSPost2010PropOp29
 70
     1
102
RTVSPost2010Prop30
280
     1
102
RTVSPost2010PropOp30
 70
     1
102
RTVSPost2010Prop31
280
     0
102
RTVSPost2010PropOp31
 70
     1
102
RTVSPost2010Prop32
280
     0
102
RTVSPost2010PropOp32
 70
     1
102
RTVSPost2010Prop33
280
     0
102
RTVSPost2010PropOp33
 70
     1
102
RTVSPost2010Prop34
280
     0
102
RTVSPost2010PropOp34
 70
     1
102
RTVSPost2010Prop35
280
     0
102
RTVSPost2010PropOp35
 70
     1
102
RTVSPost2010Prop36
280
     0
102
RTVSPost2010PropOp36
 70
     1
102
RTVSPost2010Prop37
 90
       50
102
RTVSPost2010PropOp37
 70
     1
102
RTVSPost2010Prop38
140
0.0
102
RTVSPost2010PropOp38
 70
     1
102
RTVSPost2010Prop39
140
1.0
102
RTVSPost2010PropOp39
 70
     1
102
RTVSPost2010Prop40
 90
        0
102
RTVSPost2010PropOp40
 70
     1
102
RTVSPost2010Prop41ColorIndex
 90
       18
102
RTVSPost2010Prop41ColorRGB
 90
        0
102
RTVSPost2010PropOp41
 70
     1
102
RTVSPost2010Prop42
 90
       50
102
RTVSPost2010PropOp42
 70
     1
102
RTVSPost2010Prop43
 90
        3
102
RTVSPost2010PropOp43
 70
     1
102
RTVSPost2010Prop44ColorIndex
 90
        5
102
RTVSPost2010Prop44ColorRGB
 90
      255
102
RTVSPost2010PropOp44
 70
     1
102
RTVSPost2010Prop45
280
     0
102
RTVSPost2010PropOp45
 70
     1
102
RTVSPost2010Prop46
 90
       50
102
RTVSPost2010PropOp46
 70
     1
102
RTVSPost2010Prop47
 90
       50
102
RTVSPost2010PropOp47
 70
     1
102
RTVSPost2010Prop48
 90
       50
102
RTVSPost2010PropOp48
 70
     1
102
RTVSPost2010Prop49
280
     0
102
RTVSPost2010PropOp49
 70
     1
102
RTVSPost2010Prop50
 90
       50
102
RTVSPost2010PropOp50
 70
     1
102
RTVSPost2010Prop51ColorIndex
 90
      256
102
RTVSPost2010Prop51ColorRGB
 90
-16777216
102
RTVSPost2010PropOp51
 70
     0
102
RTVSPost2010Prop52
140
1.0
102
RTVSPost2010PropOp52
 70
     0
102
RTVSPost2010Prop53
 90
        2
102
RTVSPost2010PropOp53
 70
     1
102
RTVSPost2010Prop54
  1
strokes_ogs.tif
102
RTVSPost2010PropOp54
 70
     1
102
RTVSPost2010Prop55
280
     0
102
RTVSPost2010PropOp55
 70
     1
102
RTVSPost2010Prop56
140
1.0
102
RTVSPost2010PropOp56
 70
     1
102
RTVSPost2010Prop57
140
1.0
102
RTVSPost2010PropOp57
 70
     1
102
RTVSPropertyOp0
 70
     1
102
RTVSPropertyOp1
 70
     1
102
RTVSPropertyOp2
 70
     1
102
RTVSPropertyOp3
 70
     1
102
RTVSPropertyOp4
 70
     1
102
RTVSPropertyOp5
 70
     1
102
RTVSPropertyOp6
 70
     1
102
RTVSPropertyOp7
 70
     1
102
RTVSPropertyOp8
 70
     1
102
RTVSPropertyOp9
 70
     1
102
RTVSPropertyOp10
 70
     1
102
RTVSPropertyOp11
 70
     1
102
RTVSPropertyOp12
 70
     1
102
RTVSPropertyOp13
 70
     1
102
RTVSPropertyOp14
 70
     1
102
RTVSPropertyOp15
 70
     1
102
RTVSPropertyOp16
 70
     1
102
RTVSPropertyOp17
 70
     1
102
RTVSPropertyOp18
 70
     1
102
RTVSPropertyOp19
 70
     1
102
RTVSPropertyOp20
 70
     1
102
RTVSPropertyOp21
 70
     1
102
RTVSPropertyOp22
 70
     1
102
RTVSPropertyOp23
 70
     1
102
RTVSPropertyOp24
 70
     1
102
RTVSPropertyOp25
 70
     1
102
RTVSPropertyOp26
 70
     1
102
RTVSPropertyOp27
 70
     1
102
RTVSPropertyOp28
 70
     1
102
RTVSPropertyOp29
 70
     1
102
RTVSPropertyOp30
 70
     1
102
RTVSPropertyOp31
 70
     1
102
RTVSPropertyOp32
 70
     1
102
RTVSPropertyOp33
 70
     1
102
RTVSPropertyOp34
 70
     1
102
RTVSPropertyOp35
 70
     1
102
RTVSPropertyOp36
 70
     1
102
RTVSPropertyOp37
 70
     1
102
RTVSPropertyOp38
 70
     1
102
RTVSPropertyOp39
 70
     1
102
RTVSPropertyOp40
 70
     1
102
RTVSPropertyOp41
 70
     1
102
RTVSPropertyOp42
 70
     1
102
RTVSPropertyOp43
 70
     1
102
RTVSPropertyOp44
 70
     1
102
RTVSPropertyOp45
 70
     1
102
RTVSPropertyOp46
 70
     1
102
RTVSPropertyOp47
 70
     1
102
RTVSPropertyOp48
 70
     1
102
RTVSPropertyOp49
 70
     1
102
RTVSPropertyOp50
 70
     1
102
RTVSPropertyOp51
 70
     0
102
RTVSPropertyOp52
 70
     0
102
RTVSPropertyOp53
 70
     1
102
RTVSPropertyOp54
 70
     1
102
RTVSPropertyOp55
 70
     1
102
RTVSPropertyOp56
 70
     1
102
RTVSPropertyOp57
 70
     1
102
RTVSPropertyOp58
 70
     1
102
RTVSPropertyOp59
 70
     1
102
RTVSPropertyOp60
 70
     1
102
RTVSPropertyOp61
 70
     1
102
RTVSPropertyOp62
 70
     1
  0
XRECORD
  5
2BF3
102
{ACAD_REACTORS
330
2BF2
102
}
330
2BF2
100
AcDbXrecord
280
     1
102
RTVSPost2010Prop28
280
     0
102
RTVSPost2010PropOp28
 70
     1
102
RTVSPost2010Prop29
280
     1
102
RTVSPost2010PropOp29
 70
     1
102
RTVSPost2010Prop30
280
     1
102
RTVSPost2010PropOp30
 70
     1
102
RTVSPost2010Prop31
280
     0
102
RTVSPost2010PropOp31
 70
     1
102
RTVSPost2010Prop32
280
     0
102
RTVSPost2010PropOp32
 70
     1
102
RTVSPost2010Prop33
280
     0
102
RTVSPost2010PropOp33
 70
     1
102
RTVSPost2010Prop34
280
     0
102
RTVSPost2010PropOp34
 70
     1
102
RTVSPost2010Prop35
280
     0
102
RTVSPost2010PropOp35
 70
     1
102
RTVSPost2010Prop36
280
     0
102
RTVSPost2010PropOp36
 70
     1
102
RTVSPost2010Prop37
 90
       50
102
RTVSPost2010PropOp37
 70
     1
102
RTVSPost2010Prop38
140
0.0
102
RTVSPost2010PropOp38
 70
     1
102
RTVSPost2010Prop39
140
1.0
102
RTVSPost2010PropOp39
 70
     1
102
RTVSPost2010Prop40
 90
        0
102
RTVSPost2010PropOp40
 70
     1
102
RTVSPost2010Prop41ColorIndex
 90
       18
102
RTVSPost2010Prop41ColorRGB
 90
        0
102
RTVSPost2010PropOp41
 70
     1
102
RTVSPost2010Prop42
 90
       50
102
RTVSPost2010PropOp42
 70
     1
102
RTVSPost2010Prop43
 90
        3
102
RTVSPost2010PropOp43
 70
     1
102
RTVSPost2010Prop44ColorIndex
 90
        5
102
RTVSPost2010Prop44ColorRGB
 90
      255
102
RTVSPost2010PropOp44
 70
     1
102
RTVSPost2010Prop45
280
     0
102
RTVSPost2010PropOp45
 70
     1
102
RTVSPost2010Prop46
 90
       50
102
RTVSPost2010PropOp46
 70
     1
102
RTVSPost2010Prop47
 90
       50
102
RTVSPost2010PropOp47
 70
     1
102
RTVSPost2010Prop48
 90
       50
102
RTVSPost2010PropOp48
 70
     1
102
RTVSPost2010Prop49
280
     0
102
RTVSPost2010PropOp49
 70
     1
102
RTVSPost2010Prop50
 90
       50
102
RTVSPost2010PropOp50
 70
     1
102
RTVSPost2010Prop51ColorIndex
 90
      256
102
RTVSPost2010Prop51ColorRGB
 90
-16777216
102
RTVSPost2010PropOp51
 70
     0
102
RTVSPost2010Prop52
140
1.0
102
RTVSPost2010PropOp52
 70
     0
102
RTVSPost2010Prop53
 90
        2
102
RTVSPost2010PropOp53
 70
     1
102
RTVSPost2010Prop54
  1
strokes_ogs.tif
102
RTVSPost2010PropOp54
 70
     1
102
RTVSPost2010Prop55
280
     0
102
RTVSPost2010PropOp55
 70
     1
102
RTVSPost2010Prop56
140
1.0
102
RTVSPost2010PropOp56
 70
     1
102
RTVSPost2010Prop57
140
1.0
102
RTVSPost2010PropOp57
 70
     1
102
RTVSPropertyOp0
 70
     1
102
RTVSPropertyOp1
 70
     1
102
RTVSPropertyOp2
 70
     1
102
RTVSPropertyOp3
 70
     1
102
RTVSPropertyOp4
 70
     1
102
RTVSPropertyOp5
 70
     1
102
RTVSPropertyOp6
 70
     1
102
RTVSPropertyOp7
 70
     1
102
RTVSPropertyOp8
 70
     1
102
RTVSPropertyOp9
 70
     1
102
RTVSPropertyOp10
 70
     1
102
RTVSPropertyOp11
 70
     1
102
RTVSPropertyOp12
 70
     1
102
RTVSPropertyOp13
 70
     1
102
RTVSPropertyOp14
 70
     1
102
RTVSPropertyOp15
 70
     1
102
RTVSPropertyOp16
 70
     1
102
RTVSPropertyOp17
 70
     1
102
RTVSPropertyOp18
 70
     1
102
RTVSPropertyOp19
 70
     1
102
RTVSPropertyOp20
 70
     1
102
RTVSPropertyOp21
 70
     1
102
RTVSPropertyOp22
 70
     1
102
RTVSPropertyOp23
 70
     1
102
RTVSPropertyOp24
 70
     1
102
RTVSPropertyOp25
 70
     1
102
RTVSPropertyOp26
 70
     1
102
RTVSPropertyOp27
 70
     1
102
RTVSPropertyOp28
 70
     1
102
RTVSPropertyOp29
 70
     1
102
RTVSPropertyOp30
 70
     1
102
RTVSPropertyOp31
 70
     1
102
RTVSPropertyOp32
 70
     1
102
RTVSPropertyOp33
 70
     1
102
RTVSPropertyOp34
 70
     1
102
RTVSPropertyOp35
 70
     1
102
RTVSPropertyOp36
 70
     1
102
RTVSPropertyOp37
 70
     1
102
RTVSPropertyOp38
 70
     1
102
RTVSPropertyOp39
 70
     1
102
RTVSPropertyOp40
 70
     1
102
RTVSPropertyOp41
 70
     1
102
RTVSPropertyOp42
 70
     1
102
RTVSPropertyOp43
 70
     1
102
RTVSPropertyOp44
 70
     1
102
RTVSPropertyOp45
 70
     1
102
RTVSPropertyOp46
 70
     1
102
RTVSPropertyOp47
 70
     1
102
RTVSPropertyOp48
 70
     1
102
RTVSPropertyOp49
 70
     1
102
RTVSPropertyOp50
 70
     1
102
RTVSPropertyOp51
 70
     0
102
RTVSPropertyOp52
 70
     0
102
RTVSPropertyOp53
 70
     1
102
RTVSPropertyOp54
 70
     1
102
RTVSPropertyOp55
 70
     1
102
RTVSPropertyOp56
 70
     1
102
RTVSPropertyOp57
 70
     1
102
RTVSPropertyOp58
 70
     1
102
RTVSPropertyOp59
 70
     1
102
RTVSPropertyOp60
 70
     1
102
RTVSPropertyOp61
 70
     1
102
RTVSPropertyOp62
 70
     1
  0
XRECORD
  5
2BF5
102
{ACAD_REACTORS
330
2BF4
102
}
330
2BF4
100
AcDbXrecord
280
     1
102
RTVSPost2010Prop28
280
     0
102
RTVSPost2010PropOp28
 70
     1
102
RTVSPost2010Prop29
280
     1
102
RTVSPost2010PropOp29
 70
     1
102
RTVSPost2010Prop30
280
     1
102
RTVSPost2010PropOp30
 70
     1
102
RTVSPost2010Prop31
280
     0
102
RTVSPost2010PropOp31
 70
     1
102
RTVSPost2010Prop32
280
     0
102
RTVSPost2010PropOp32
 70
     1
102
RTVSPost2010Prop33
280
     0
102
RTVSPost2010PropOp33
 70
     1
102
RTVSPost2010Prop34
280
     0
102
RTVSPost2010PropOp34
 70
     1
102
RTVSPost2010Prop35
280
     0
102
RTVSPost2010PropOp35
 70
     1
102
RTVSPost2010Prop36
280
     0
102
RTVSPost2010PropOp36
 70
     1
102
RTVSPost2010Prop37
 90
       50
102
RTVSPost2010PropOp37
 70
     1
102
RTVSPost2010Prop38
140
0.0
102
RTVSPost2010PropOp38
 70
     1
102
RTVSPost2010Prop39
140
1.0
102
RTVSPost2010PropOp39
 70
     1
102
RTVSPost2010Prop40
 90
        0
102
RTVSPost2010PropOp40
 70
     1
102
RTVSPost2010Prop41ColorIndex
 90
       18
102
RTVSPost2010Prop41ColorRGB
 90
        0
102
RTVSPost2010PropOp41
 70
     1
102
RTVSPost2010Prop42
 90
       50
102
RTVSPost2010PropOp42
 70
     1
102
RTVSPost2010Prop43
 90
        3
102
RTVSPost2010PropOp43
 70
     1
102
RTVSPost2010Prop44ColorIndex
 90
        5
102
RTVSPost2010Prop44ColorRGB
 90
      255
102
RTVSPost2010PropOp44
 70
     1
102
RTVSPost2010Prop45
280
     0
102
RTVSPost2010PropOp45
 70
     1
102
RTVSPost2010Prop46
 90
       50
102
RTVSPost2010PropOp46
 70
     1
102
RTVSPost2010Prop47
 90
       50
102
RTVSPost2010PropOp47
 70
     1
102
RTVSPost2010Prop48
 90
       50
102
RTVSPost2010PropOp48
 70
     1
102
RTVSPost2010Prop49
280
     0
102
RTVSPost2010PropOp49
 70
     1
102
RTVSPost2010Prop50
 90
       50
102
RTVSPost2010PropOp50
 70
     1
102
RTVSPost2010Prop51ColorIndex
 90
      256
102
RTVSPost2010Prop51ColorRGB
 90
-16777216
102
RTVSPost2010PropOp51
 70
     0
102
RTVSPost2010Prop52
140
1.0
102
RTVSPost2010PropOp52
 70
     0
102
RTVSPost2010Prop53
 90
        2
102
RTVSPost2010PropOp53
 70
     1
102
RTVSPost2010Prop54
  1
strokes_ogs.tif
102
RTVSPost2010PropOp54
 70
     1
102
RTVSPost2010Prop55
280
     0
102
RTVSPost2010PropOp55
 70
     1
102
RTVSPost2010Prop56
140
1.0
102
RTVSPost2010PropOp56
 70
     1
102
RTVSPost2010Prop57
140
1.0
102
RTVSPost2010PropOp57
 70
     1
102
RTVSPropertyOp0
 70
     1
102
RTVSPropertyOp1
 70
     1
102
RTVSPropertyOp2
 70
     1
102
RTVSPropertyOp3
 70
     1
102
RTVSPropertyOp4
 70
     1
102
RTVSPropertyOp5
 70
     1
102
RTVSPropertyOp6
 70
     1
102
RTVSPropertyOp7
 70
     1
102
RTVSPropertyOp8
 70
     1
102
RTVSPropertyOp9
 70
     1
102
RTVSPropertyOp10
 70
     1
102
RTVSPropertyOp11
 70
     1
102
RTVSPropertyOp12
 70
     1
102
RTVSPropertyOp13
 70
     1
102
RTVSPropertyOp14
 70
     1
102
RTVSPropertyOp15
 70
     1
102
RTVSPropertyOp16
 70
     1
102
RTVSPropertyOp17
 70
     1
102
RTVSPropertyOp18
 70
     1
102
RTVSPropertyOp19
 70
     1
102
RTVSPropertyOp20
 70
     1
102
RTVSPropertyOp21
 70
     1
102
RTVSPropertyOp22
 70
     1
102
RTVSPropertyOp23
 70
     1
102
RTVSPropertyOp24
 70
     1
102
RTVSPropertyOp25
 70
     1
102
RTVSPropertyOp26
 70
     1
102
RTVSPropertyOp27
 70
     1
102
RTVSPropertyOp28
 70
     1
102
RTVSPropertyOp29
 70
     1
102
RTVSPropertyOp30
 70
     1
102
RTVSPropertyOp31
 70
     1
102
RTVSPropertyOp32
 70
     1
102
RTVSPropertyOp33
 70
     1
102
RTVSPropertyOp34
 70
     1
102
RTVSPropertyOp35
 70
     1
102
RTVSPropertyOp36
 70
     1
102
RTVSPropertyOp37
 70
     1
102
RTVSPropertyOp38
 70
     1
102
RTVSPropertyOp39
 70
     1
102
RTVSPropertyOp40
 70
     1
102
RTVSPropertyOp41
 70
     1
102
RTVSPropertyOp42
 70
     1
102
RTVSPropertyOp43
 70
     1
102
RTVSPropertyOp44
 70
     1
102
RTVSPropertyOp45
 70
     1
102
RTVSPropertyOp46
 70
     1
102
RTVSPropertyOp47
 70
     1
102
RTVSPropertyOp48
 70
     1
102
RTVSPropertyOp49
 70
     1
102
RTVSPropertyOp50
 70
     1
102
RTVSPropertyOp51
 70
     0
102
RTVSPropertyOp52
 70
     0
102
RTVSPropertyOp53
 70
     1
102
RTVSPropertyOp54
 70
     1
102
RTVSPropertyOp55
 70
     1
102
RTVSPropertyOp56
 70
     1
102
RTVSPropertyOp57
 70
     1
102
RTVSPropertyOp58
 70
     1
102
RTVSPropertyOp59
 70
     1
102
RTVSPropertyOp60
 70
     1
102
RTVSPropertyOp61
 70
     1
102
RTVSPropertyOp62
 70
     1
  0
XRECORD
  5
2BEB
102
{ACAD_REACTORS
330
2BEA
102
}
330
2BEA
100
AcDbXrecord
280
     1
102
RTVSPost2010Prop28
280
     0
102
RTVSPost2010PropOp28
 70
     1
102
RTVSPost2010Prop29
280
     1
102
RTVSPost2010PropOp29
 70
     1
102
RTVSPost2010Prop30
280
     1
102
RTVSPost2010PropOp30
 70
     1
102
RTVSPost2010Prop31
280
     0
102
RTVSPost2010PropOp31
 70
     1
102
RTVSPost2010Prop32
280
     0
102
RTVSPost2010PropOp32
 70
     1
102
RTVSPost2010Prop33
280
     0
102
RTVSPost2010PropOp33
 70
     1
102
RTVSPost2010Prop34
280
     0
102
RTVSPost2010PropOp34
 70
     1
102
RTVSPost2010Prop35
280
     0
102
RTVSPost2010PropOp35
 70
     1
102
RTVSPost2010Prop36
280
     0
102
RTVSPost2010PropOp36
 70
     1
102
RTVSPost2010Prop37
 90
       50
102
RTVSPost2010PropOp37
 70
     1
102
RTVSPost2010Prop38
140
0.0
102
RTVSPost2010PropOp38
 70
     1
102
RTVSPost2010Prop39
140
1.0
102
RTVSPost2010PropOp39
 70
     1
102
RTVSPost2010Prop40
 90
        0
102
RTVSPost2010PropOp40
 70
     1
102
RTVSPost2010Prop41ColorIndex
 90
       18
102
RTVSPost2010Prop41ColorRGB
 90
        0
102
RTVSPost2010PropOp41
 70
     1
102
RTVSPost2010Prop42
 90
       50
102
RTVSPost2010PropOp42
 70
     1
102
RTVSPost2010Prop43
 90
        3
102
RTVSPost2010PropOp43
 70
     1
102
RTVSPost2010Prop44ColorIndex
 90
        5
102
RTVSPost2010Prop44ColorRGB
 90
      255
102
RTVSPost2010PropOp44
 70
     1
102
RTVSPost2010Prop45
280
     0
102
RTVSPost2010PropOp45
 70
     1
102
RTVSPost2010Prop46
 90
       50
102
RTVSPost2010PropOp46
 70
     1
102
RTVSPost2010Prop47
 90
       50
102
RTVSPost2010PropOp47
 70
     1
102
RTVSPost2010Prop48
 90
       50
102
RTVSPost2010PropOp48
 70
     1
102
RTVSPost2010Prop49
280
     0
102
RTVSPost2010PropOp49
 70
     1
102
RTVSPost2010Prop50
 90
       50
102
RTVSPost2010PropOp50
 70
     1
102
RTVSPost2010Prop51ColorIndex
 90
      256
102
RTVSPost2010Prop51ColorRGB
 90
-16777216
102
RTVSPost2010PropOp51
 70
     0
102
RTVSPost2010Prop52
140
1.0
102
RTVSPost2010PropOp52
 70
     0
102
RTVSPost2010Prop53
 90
        2
102
RTVSPost2010PropOp53
 70
     1
102
RTVSPost2010Prop54
  1
strokes_ogs.tif
102
RTVSPost2010PropOp54
 70
     1
102
RTVSPost2010Prop55
280
     0
102
RTVSPost2010PropOp55
 70
     1
102
RTVSPost2010Prop56
140
1.0
102
RTVSPost2010PropOp56
 70
     1
102
RTVSPost2010Prop57
140
1.0
102
RTVSPost2010PropOp57
 70
     1
102
RTVSPropertyOp0
 70
     1
102
RTVSPropertyOp1
 70
     1
102
RTVSPropertyOp2
 70
     1
102
RTVSPropertyOp3
 70
     1
102
RTVSPropertyOp4
 70
     1
102
RTVSPropertyOp5
 70
     1
102
RTVSPropertyOp6
 70
     1
102
RTVSPropertyOp7
 70
     1
102
RTVSPropertyOp8
 70
     1
102
RTVSPropertyOp9
 70
     1
102
RTVSPropertyOp10
 70
     1
102
RTVSPropertyOp11
 70
     1
102
RTVSPropertyOp12
 70
     1
102
RTVSPropertyOp13
 70
     1
102
RTVSPropertyOp14
 70
     1
102
RTVSPropertyOp15
 70
     1
102
RTVSPropertyOp16
 70
     1
102
RTVSPropertyOp17
 70
     1
102
RTVSPropertyOp18
 70
     1
102
RTVSPropertyOp19
 70
     1
102
RTVSPropertyOp20
 70
     1
102
RTVSPropertyOp21
 70
     1
102
RTVSPropertyOp22
 70
     1
102
RTVSPropertyOp23
 70
     1
102
RTVSPropertyOp24
 70
     1
102
RTVSPropertyOp25
 70
     1
102
RTVSPropertyOp26
 70
     1
102
RTVSPropertyOp27
 70
     1
102
RTVSPropertyOp28
 70
     1
102
RTVSPropertyOp29
 70
     1
102
RTVSPropertyOp30
 70
     1
102
RTVSPropertyOp31
 70
     1
102
RTVSPropertyOp32
 70
     1
102
RTVSPropertyOp33
 70
     1
102
RTVSPropertyOp34
 70
     1
102
RTVSPropertyOp35
 70
     1
102
RTVSPropertyOp36
 70
     1
102
RTVSPropertyOp37
 70
     1
102
RTVSPropertyOp38
 70
     1
102
RTVSPropertyOp39
 70
     1
102
RTVSPropertyOp40
 70
     1
102
RTVSPropertyOp41
 70
     1
102
RTVSPropertyOp42
 70
     1
102
RTVSPropertyOp43
 70
     1
102
RTVSPropertyOp44
 70
     1
102
RTVSPropertyOp45
 70
     1
102
RTVSPropertyOp46
 70
     1
102
RTVSPropertyOp47
 70
     1
102
RTVSPropertyOp48
 70
     1
102
RTVSPropertyOp49
 70
     1
102
RTVSPropertyOp50
 70
     1
102
RTVSPropertyOp51
 70
     0
102
RTVSPropertyOp52
 70
     0
102
RTVSPropertyOp53
 70
     1
102
RTVSPropertyOp54
 70
     1
102
RTVSPropertyOp55
 70
     1
102
RTVSPropertyOp56
 70
     1
102
RTVSPropertyOp57
 70
     1
102
RTVSPropertyOp58
 70
     1
102
RTVSPropertyOp59
 70
     1
102
RTVSPropertyOp60
 70
     1
102
RTVSPropertyOp61
 70
     1
102
RTVSPropertyOp62
 70
     1
  0
XRECORD
  5
2BDF
102
{ACAD_REACTORS
330
2BDE
102
}
330
2BDE
100
AcDbXrecord
280
     1
102
RTVSPost2010Prop28
280
     0
102
RTVSPost2010PropOp28
 70
     1
102
RTVSPost2010Prop29
280
     1
102
RTVSPost2010PropOp29
 70
     1
102
RTVSPost2010Prop30
280
     1
102
RTVSPost2010PropOp30
 70
     1
102
RTVSPost2010Prop31
280
     0
102
RTVSPost2010PropOp31
 70
     1
102
RTVSPost2010Prop32
280
     0
102
RTVSPost2010PropOp32
 70
     1
102
RTVSPost2010Prop33
280
     0
102
RTVSPost2010PropOp33
 70
     1
102
RTVSPost2010Prop34
280
     0
102
RTVSPost2010PropOp34
 70
     1
102
RTVSPost2010Prop35
280
     0
102
RTVSPost2010PropOp35
 70
     1
102
RTVSPost2010Prop36
280
     0
102
RTVSPost2010PropOp36
 70
     1
102
RTVSPost2010Prop37
 90
       50
102
RTVSPost2010PropOp37
 70
     1
102
RTVSPost2010Prop38
140
0.0
102
RTVSPost2010PropOp38
 70
     1
102
RTVSPost2010Prop39
140
1.0
102
RTVSPost2010PropOp39
 70
     1
102
RTVSPost2010Prop40
 90
        0
102
RTVSPost2010PropOp40
 70
     1
102
RTVSPost2010Prop41ColorIndex
 90
       18
102
RTVSPost2010Prop41ColorRGB
 90
        0
102
RTVSPost2010PropOp41
 70
     1
102
RTVSPost2010Prop42
 90
       50
102
RTVSPost2010PropOp42
 70
     1
102
RTVSPost2010Prop43
 90
        3
102
RTVSPost2010PropOp43
 70
     1
102
RTVSPost2010Prop44ColorIndex
 90
        5
102
RTVSPost2010Prop44ColorRGB
 90
      255
102
RTVSPost2010PropOp44
 70
     1
102
RTVSPost2010Prop45
280
     0
102
RTVSPost2010PropOp45
 70
     1
102
RTVSPost2010Prop46
 90
       50
102
RTVSPost2010PropOp46
 70
     1
102
RTVSPost2010Prop47
 90
       50
102
RTVSPost2010PropOp47
 70
     1
102
RTVSPost2010Prop48
 90
       50
102
RTVSPost2010PropOp48
 70
     1
102
RTVSPost2010Prop49
280
     0
102
RTVSPost2010PropOp49
 70
     1
102
RTVSPost2010Prop50
 90
       50
102
RTVSPost2010PropOp50
 70
     1
102
RTVSPost2010Prop51ColorIndex
 90
      256
102
RTVSPost2010Prop51ColorRGB
 90
-16777216
102
RTVSPost2010PropOp51
 70
     0
102
RTVSPost2010Prop52
140
1.0
102
RTVSPost2010PropOp52
 70
     0
102
RTVSPost2010Prop53
 90
        2
102
RTVSPost2010PropOp53
 70
     1
102
RTVSPost2010Prop54
  1
strokes_ogs.tif
102
RTVSPost2010PropOp54
 70
     1
102
RTVSPost2010Prop55
280
     0
102
RTVSPost2010PropOp55
 70
     1
102
RTVSPost2010Prop56
140
1.0
102
RTVSPost2010PropOp56
 70
     1
102
RTVSPost2010Prop57
140
1.0
102
RTVSPost2010PropOp57
 70
     1
102
RTVSPropertyOp0
 70
     1
102
RTVSPropertyOp1
 70
     1
102
RTVSPropertyOp2
 70
     1
102
RTVSPropertyOp3
 70
     1
102
RTVSPropertyOp4
 70
     1
102
RTVSPropertyOp5
 70
     1
102
RTVSPropertyOp6
 70
     1
102
RTVSPropertyOp7
 70
     1
102
RTVSPropertyOp8
 70
     1
102
RTVSPropertyOp9
 70
     1
102
RTVSPropertyOp10
 70
     1
102
RTVSPropertyOp11
 70
     1
102
RTVSPropertyOp12
 70
     1
102
RTVSPropertyOp13
 70
     1
102
RTVSPropertyOp14
 70
     1
102
RTVSPropertyOp15
 70
     1
102
RTVSPropertyOp16
 70
     1
102
RTVSPropertyOp17
 70
     1
102
RTVSPropertyOp18
 70
     1
102
RTVSPropertyOp19
 70
     1
102
RTVSPropertyOp20
 70
     1
102
RTVSPropertyOp21
 70
     1
102
RTVSPropertyOp22
 70
     1
102
RTVSPropertyOp23
 70
     1
102
RTVSPropertyOp24
 70
     1
102
RTVSPropertyOp25
 70
     1
102
RTVSPropertyOp26
 70
     1
102
RTVSPropertyOp27
 70
     1
102
RTVSPropertyOp28
 70
     1
102
RTVSPropertyOp29
 70
     1
102
RTVSPropertyOp30
 70
     1
102
RTVSPropertyOp31
 70
     1
102
RTVSPropertyOp32
 70
     1
102
RTVSPropertyOp33
 70
     1
102
RTVSPropertyOp34
 70
     1
102
RTVSPropertyOp35
 70
     1
102
RTVSPropertyOp36
 70
     1
102
RTVSPropertyOp37
 70
     1
102
RTVSPropertyOp38
 70
     1
102
RTVSPropertyOp39
 70
     1
102
RTVSPropertyOp40
 70
     1
102
RTVSPropertyOp41
 70
     1
102
RTVSPropertyOp42
 70
     1
102
RTVSPropertyOp43
 70
     1
102
RTVSPropertyOp44
 70
     1
102
RTVSPropertyOp45
 70
     1
102
RTVSPropertyOp46
 70
     1
102
RTVSPropertyOp47
 70
     1
102
RTVSPropertyOp48
 70
     1
102
RTVSPropertyOp49
 70
     1
102
RTVSPropertyOp50
 70
     1
102
RTVSPropertyOp51
 70
     0
102
RTVSPropertyOp52
 70
     0
102
RTVSPropertyOp53
 70
     1
102
RTVSPropertyOp54
 70
     1
102
RTVSPropertyOp55
 70
     1
102
RTVSPropertyOp56
 70
     1
102
RTVSPropertyOp57
 70
     1
102
RTVSPropertyOp58
 70
     1
102
RTVSPropertyOp59
 70
     1
102
RTVSPropertyOp60
 70
     1
102
RTVSPropertyOp61
 70
     1
102
RTVSPropertyOp62
 70
     1
  0
XRECORD
  5
2BF7
102
{ACAD_REACTORS
330
2BF6
102
}
330
2BF6
100
AcDbXrecord
280
     1
102
RTVSPost2010Prop28
280
     0
102
RTVSPost2010PropOp28
 70
     1
102
RTVSPost2010Prop29
280
     1
102
RTVSPost2010PropOp29
 70
     1
102
RTVSPost2010Prop30
280
     1
102
RTVSPost2010PropOp30
 70
     1
102
RTVSPost2010Prop31
280
     0
102
RTVSPost2010PropOp31
 70
     1
102
RTVSPost2010Prop32
280
     0
102
RTVSPost2010PropOp32
 70
     1
102
RTVSPost2010Prop33
280
     0
102
RTVSPost2010PropOp33
 70
     1
102
RTVSPost2010Prop34
280
     0
102
RTVSPost2010PropOp34
 70
     1
102
RTVSPost2010Prop35
280
     0
102
RTVSPost2010PropOp35
 70
     1
102
RTVSPost2010Prop36
280
     0
102
RTVSPost2010PropOp36
 70
     1
102
RTVSPost2010Prop37
 90
       50
102
RTVSPost2010PropOp37
 70
     1
102
RTVSPost2010Prop38
140
0.0
102
RTVSPost2010PropOp38
 70
     1
102
RTVSPost2010Prop39
140
1.0
102
RTVSPost2010PropOp39
 70
     1
102
RTVSPost2010Prop40
 90
        0
102
RTVSPost2010PropOp40
 70
     1
102
RTVSPost2010Prop41ColorIndex
 90
       18
102
RTVSPost2010Prop41ColorRGB
 90
        0
102
RTVSPost2010PropOp41
 70
     1
102
RTVSPost2010Prop42
 90
       50
102
RTVSPost2010PropOp42
 70
     1
102
RTVSPost2010Prop43
 90
        3
102
RTVSPost2010PropOp43
 70
     1
102
RTVSPost2010Prop44ColorIndex
 90
        5
102
RTVSPost2010Prop44ColorRGB
 90
      255
102
RTVSPost2010PropOp44
 70
     1
102
RTVSPost2010Prop45
280
     0
102
RTVSPost2010PropOp45
 70
     1
102
RTVSPost2010Prop46
 90
       50
102
RTVSPost2010PropOp46
 70
     1
102
RTVSPost2010Prop47
 90
       50
102
RTVSPost2010PropOp47
 70
     1
102
RTVSPost2010Prop48
 90
       50
102
RTVSPost2010PropOp48
 70
     1
102
RTVSPost2010Prop49
280
     0
102
RTVSPost2010PropOp49
 70
     1
102
RTVSPost2010Prop50
 90
       50
102
RTVSPost2010PropOp50
 70
     1
102
RTVSPost2010Prop51ColorIndex
 90
      256
102
RTVSPost2010Prop51ColorRGB
 90
-16777216
102
RTVSPost2010PropOp51
 70
     0
102
RTVSPost2010Prop52
140
1.0
102
RTVSPost2010PropOp52
 70
     0
102
RTVSPost2010Prop53
 90
        2
102
RTVSPost2010PropOp53
 70
     1
102
RTVSPost2010Prop54
  1
strokes_ogs.tif
102
RTVSPost2010PropOp54
 70
     1
102
RTVSPost2010Prop55
280
     0
102
RTVSPost2010PropOp55
 70
     1
102
RTVSPost2010Prop56
140
1.0
102
RTVSPost2010PropOp56
 70
     1
102
RTVSPost2010Prop57
140
1.0
102
RTVSPost2010PropOp57
 70
     1
102
RTVSPropertyOp0
 70
     1
102
RTVSPropertyOp1
 70
     1
102
RTVSPropertyOp2
 70
     1
102
RTVSPropertyOp3
 70
     1
102
RTVSPropertyOp4
 70
     1
102
RTVSPropertyOp5
 70
     1
102
RTVSPropertyOp6
 70
     1
102
RTVSPropertyOp7
 70
     1
102
RTVSPropertyOp8
 70
     1
102
RTVSPropertyOp9
 70
     1
102
RTVSPropertyOp10
 70
     1
102
RTVSPropertyOp11
 70
     1
102
RTVSPropertyOp12
 70
     1
102
RTVSPropertyOp13
 70
     1
102
RTVSPropertyOp14
 70
     1
102
RTVSPropertyOp15
 70
     1
102
RTVSPropertyOp16
 70
     1
102
RTVSPropertyOp17
 70
     1
102
RTVSPropertyOp18
 70
     1
102
RTVSPropertyOp19
 70
     1
102
RTVSPropertyOp20
 70
     1
102
RTVSPropertyOp21
 70
     1
102
RTVSPropertyOp22
 70
     1
102
RTVSPropertyOp23
 70
     1
102
RTVSPropertyOp24
 70
     1
102
RTVSPropertyOp25
 70
     1
102
RTVSPropertyOp26
 70
     1
102
RTVSPropertyOp27
 70
     1
102
RTVSPropertyOp28
 70
     1
102
RTVSPropertyOp29
 70
     1
102
RTVSPropertyOp30
 70
     1
102
RTVSPropertyOp31
 70
     1
102
RTVSPropertyOp32
 70
     1
102
RTVSPropertyOp33
 70
     1
102
RTVSPropertyOp34
 70
     1
102
RTVSPropertyOp35
 70
     1
102
RTVSPropertyOp36
 70
     1
102
RTVSPropertyOp37
 70
     1
102
RTVSPropertyOp38
 70
     1
102
RTVSPropertyOp39
 70
     1
102
RTVSPropertyOp40
 70
     1
102
RTVSPropertyOp41
 70
     1
102
RTVSPropertyOp42
 70
     1
102
RTVSPropertyOp43
 70
     1
102
RTVSPropertyOp44
 70
     1
102
RTVSPropertyOp45
 70
     1
102
RTVSPropertyOp46
 70
     1
102
RTVSPropertyOp47
 70
     1
102
RTVSPropertyOp48
 70
     1
102
RTVSPropertyOp49
 70
     1
102
RTVSPropertyOp50
 70
     1
102
RTVSPropertyOp51
 70
     0
102
RTVSPropertyOp52
 70
     0
102
RTVSPropertyOp53
 70
     1
102
RTVSPropertyOp54
 70
     1
102
RTVSPropertyOp55
 70
     1
102
RTVSPropertyOp56
 70
     1
102
RTVSPropertyOp57
 70
     1
102
RTVSPropertyOp58
 70
     1
102
RTVSPropertyOp59
 70
     1
102
RTVSPropertyOp60
 70
     1
102
RTVSPropertyOp61
 70
     1
102
RTVSPropertyOp62
 70
     1
  0
ENDSEC
  0
EOF
