  0
SECTION
  2
HEADER
  9
$ACADVER
  1
AC1018
  9
$ACADMAINTVER
 70
   104
  9
$DWGCODEPAGE
  3
ANSI_932
  9
$LASTSAVEDBY
  1
9822404
  9
$INSBASE
 10
-61.51177954883315
 20
123.0851498290358
 30
0.0
  9
$EXTMIN
 10
-1.750470126586151
 20
-1.220647244226711
 30
-0.0000000349181948
  9
$EXTMAX
 10
28682.7662372475
 20
20001.22083351443
 30
0.0000000814935746
  9
$LIMMIN
 10
0.0
 20
0.0
  9
$LIMMAX
 10
420.0
 20
297.0
  9
$ORTHOMODE
 70
     1
  9
$REGENMODE
 70
     1
  9
$FILLMODE
 70
     1
  9
$QTEXTMODE
 70
     0
  9
$MIRRTEXT
 70
     0
  9
$LTSCALE
 40
1.0
  9
$ATTMODE
 70
     1
  9
$TEXTSIZE
 40
2.5
  9
$TRACEWID
 40
1.0
  9
$TEXTSTYLE
  7
STANDARD
  9
$CLAYER
  8
0
  9
$CELTYPE
  6
ByLayer
  9
$CECOLOR
 62
   256
  9
$CELTSCALE
 40
1.0
  9
$DISPSILH
 70
     1
  9
$DIMSCALE
 40
1.0
  9
$DIMASZ
 40
2.5
  9
$DIMEXO
 40
0.625
  9
$DIMDLI
 40
3.75
  9
$DIMRND
 40
0.0
  9
$DIMDLE
 40
0.0
  9
$DIMEXE
 40
1.25
  9
$DIMTP
 40
0.0
  9
$DIMTM
 40
0.0
  9
$DIMTXT
 40
2.5
  9
$DIMCEN
 40
2.5
  9
$DIMTSZ
 40
0.0
  9
$DIMTOL
 70
     0
  9
$DIMLIM
 70
     0
  9
$DIMTIH
 70
     0
  9
$DIMTOH
 70
     0
  9
$DIMSE1
 70
     0
  9
$DIMSE2
 70
     0
  9
$DIMTAD
 70
     1
  9
$DIMZIN
 70
     8
  9
$DIMBLK
  1

  9
$DIMASO
 70
     1
  9
$DIMSHO
 70
     1
  9
$DIMPOST
  1

  9
$DIMAPOST
  1

  9
$DIMALT
 70
     0
  9
$DIMALTD
 70
     4
  9
$DIMALTF
 40
0.0394
  9
$DIMLFAC
 40
1.0
  9
$DIMTOFL
 70
     1
  9
$DIMTVP
 40
0.0
  9
$DIMTIX
 70
     0
  9
$DIMSOXD
 70
     0
  9
$DIMSAH
 70
     0
  9
$DIMBLK1
  1

  9
$DIMBLK2
  1

  9
$DIMSTYLE
  2
STANDARD
  9
$DIMCLRD
 70
     0
  9
$DIMCLRE
 70
     0
  9
$DIMCLRT
 70
     0
  9
$DIMTFAC
 40
1.0
  9
$DIMGAP
 40
0.625
  9
$DIMJUST
 70
     0
  9
$DIMSD1
 70
     0
  9
$DIMSD2
 70
     0
  9
$DIMTOLJ
 70
     1
  9
$DIMTZIN
 70
     8
  9
$DIMALTZ
 70
     8
  9
$DIMALTTZ
 70
     8
  9
$DIMUPT
 70
     0
  9
$DIMDEC
 70
     4
  9
$DIMTDEC
 70
     4
  9
$DIMALTU
 70
     2
  9
$DIMALTTD
 70
     4
  9
$DIMTXSTY
  7
STANDARD
  9
$DIMAUNIT
 70
     0
  9
$DIMADEC
 70
     0
  9
$DIMALTRND
 40
0.0
  9
$DIMAZIN
 70
     0
  9
$DIMDSEP
 70
    46
  9
$DIMATFIT
 70
     3
  9
$DIMFRAC
 70
     0
  9
$DIMLDRBLK
  1

  9
$DIMLUNIT
 70
     2
  9
$DIMLWD
 70
    -2
  9
$DIMLWE
 70
    -2
  9
$DIMTMOVE
 70
     2
  9
$LUNITS
 70
     2
  9
$LUPREC
 70
     4
  9
$SKETCHINC
 40
1.0
  9
$FILLETRAD
 40
0.0
  9
$AUNITS
 70
     0
  9
$AUPREC
 70
     0
  9
$MENU
  1
acad
  9
$ELEVATION
 40
0.0
  9
$PELEVATION
 40
0.0
  9
$THICKNESS
 40
0.0
  9
$LIMCHECK
 70
     0
  9
$CHAMFERA
 40
10.0
  9
$CHAMFERB
 40
10.0
  9
$CHAMFERC
 40
0.0
  9
$CHAMFERD
 40
0.0
  9
$SKPOLY
 70
     0
  9
$TDCREATE
 40
2456654.499456019
  9
$TDUCREATE
 40
2456654.124466632
  9
$TDUPDATE
 40
2460146.664282408
  9
$TDUUPDATE
 40
2460146.289282408
  9
$TDINDWG
 40
0.3158578241
  9
$TDUSRTIMER
 40
0.3158578241
  9
$USRTIMER
 70
     1
  9
$ANGBASE
 50
0.0
  9
$ANGDIR
 70
     0
  9
$PDMODE
 70
     0
  9
$PDSIZE
 40
0.0
  9
$PLINEWID
 40
0.0
  9
$SPLFRAME
 70
     0
  9
$SPLINETYPE
 70
     6
  9
$SPLINESEGS
 70
     8
  9
$HANDSEED
  5
19C2A
  9
$SURFTAB1
 70
     6
  9
$SURFTAB2
 70
     6
  9
$SURFTYPE
 70
     6
  9
$SURFU
 70
     6
  9
$SURFV
 70
     6
  9
$UCSBASE
  2

  9
$UCSNAME
  2

  9
$UCSORG
 10
0.0
 20
0.0
 30
0.0
  9
$UCSXDIR
 10
1.0
 20
0.0
 30
0.0
  9
$UCSYDIR
 10
0.0
 20
1.0
 30
0.0
  9
$UCSORTHOREF
  2

  9
$UCSORTHOVIEW
 70
     0
  9
$UCSORGTOP
 10
0.0
 20
0.0
 30
0.0
  9
$UCSORGBOTTOM
 10
0.0
 20
0.0
 30
0.0
  9
$UCSORGLEFT
 10
0.0
 20
0.0
 30
0.0
  9
$UCSORGRIGHT
 10
0.0
 20
0.0
 30
0.0
  9
$UCSORGFRONT
 10
0.0
 20
0.0
 30
0.0
  9
$UCSORGBACK
 10
0.0
 20
0.0
 30
0.0
  9
$PUCSBASE
  2

  9
$PUCSNAME
  2

  9
$PUCSORG
 10
0.0
 20
0.0
 30
0.0
  9
$PUCSXDIR
 10
1.0
 20
0.0
 30
0.0
  9
$PUCSYDIR
 10
0.0
 20
1.0
 30
0.0
  9
$PUCSORTHOREF
  2

  9
$PUCSORTHOVIEW
 70
     0
  9
$PUCSORGTOP
 10
0.0
 20
0.0
 30
0.0
  9
$PUCSORGBOTTOM
 10
0.0
 20
0.0
 30
0.0
  9
$PUCSORGLEFT
 10
0.0
 20
0.0
 30
0.0
  9
$PUCSORGRIGHT
 10
0.0
 20
0.0
 30
0.0
  9
$PUCSORGFRONT
 10
0.0
 20
0.0
 30
0.0
  9
$PUCSORGBACK
 10
0.0
 20
0.0
 30
0.0
  9
$USERI1
 70
     0
  9
$USERI2
 70
     0
  9
$USERI3
 70
     0
  9
$USERI4
 70
     0
  9
$USERI5
 70
     0
  9
$USERR1
 40
0.0
  9
$USERR2
 40
0.0
  9
$USERR3
 40
0.0
  9
$USERR4
 40
0.0
  9
$USERR5
 40
0.0
  9
$WORLDVIEW
 70
     1
  9
$SHADEDGE
 70
     3
  9
$SHADEDIF
 70
    70
  9
$TILEMODE
 70
     1
  9
$MAXACTVP
 70
    48
  9
$PINSBASE
 10
0.0
 20
0.0
 30
0.0
  9
$PLIMCHECK
 70
     0
  9
$PEXTMIN
 10
1.000000000000000E+20
 20
1.000000000000000E+20
 30
1.000000000000000E+20
  9
$PEXTMAX
 10
-1.000000000000000E+20
 20
-1.000000000000000E+20
 30
-1.000000000000000E+20
  9
$PLIMMIN
 10
0.0
 20
0.0
  9
$PLIMMAX
 10
420.0
 20
297.0
  9
$UNITMODE
 70
     0
  9
$VISRETAIN
 70
     1
  9
$PLINEGEN
 70
     0
  9
$PSLTSCALE
 70
     1
  9
$TREEDEPTH
 70
  3020
  9
$CMLSTYLE
  2
Standard
  9
$CMLJUST
 70
     0
  9
$CMLSCALE
 40
1.0
  9
$PROXYGRAPHICS
 70
     1
  9
$MEASUREMENT
 70
     1
  9
$CELWEIGHT
370
    -1
  9
$ENDCAPS
280
     0
  9
$JOINSTYLE
280
     0
  9
$LWDISPLAY
290
     0
  9
$INSUNITS
 70
     0
  9
$HYPERLINKBASE
  1

  9
$STYLESHEET
  1

  9
$XEDIT
290
     1
  9
$CEPSNTYPE
380
     0
  9
$PSTYLEMODE
290
     1
  9
$FINGERPRINTGUID
  2
{2FBAF026-72AC-4A1E-9A02-00B245298F54}
  9
$VERSIONGUID
  2
{B62E05DA-5037-B04F-9536-9C0FE421874C}
  9
$EXTNAMES
290
     1
  9
$PSVPSCALE
 40
0.0
  9
$OLESTARTUP
290
     0
  9
$SORTENTS
280
   127
  9
$INDEXCTL
280
     0
  9
$HIDETEXT
280
     1
  9
$XCLIPFRAME
290
     0
  9
$HALOGAP
280
     0
  9
$OBSCOLOR
 70
   257
  9
$OBSLTYPE
280
     0
  9
$INTERSECTIONDISPLAY
280
     0
  9
$INTERSECTIONCOLOR
 70
   257
  9
$DIMASSOC
280
     2
  9
$PROJECTNAME
  1

  0
ENDSEC
  0
SECTION
  2
CLASSES
  0
CLASS
  1
ACDBDICTIONARYWDFLT
  2
AcDbDictionaryWithDefault
  3
ObjectDBX Classes
 90
        0
 91
        1
280
     0
281
     0
  0
CLASS
  1
MATERIAL
  2
AcDbMaterial
  3
ObjectDBX Classes
 90
     1153
 91
        3
280
     0
281
     0
  0
CLASS
  1
VISUALSTYLE
  2
AcDbVisualStyle
  3
ObjectDBX Classes
 90
     4095
 91
       24
280
     0
281
     0
  0
CLASS
  1
SCALE
  2
AcDbScale
  3
ObjectDBX Classes
 90
     1153
 91
       17
280
     0
281
     0
  0
CLASS
  1
TABLESTYLE
  2
AcDbTableStyle
  3
ObjectDBX Classes
 90
     4095
 91
        1
280
     0
281
     0
  0
CLASS
  1
MLEADERSTYLE
  2
AcDbMLeaderStyle
  3
ACDB_MLEADERSTYLE_CLASS
 90
     4095
 91
        1
280
     0
281
     0
  0
CLASS
  1
ACDBSECTIONVIEWSTYLE
  2
AcDbSectionViewStyle
  3
ObjectDBX Classes
 90
     1025
 91
        2
280
     0
281
     0
  0
CLASS
  1
ACDBDETAILVIEWSTYLE
  2
AcDbDetailViewStyle
  3
ObjectDBX Classes
 90
     1025
 91
        2
280
     0
281
     0
  0
CLASS
  1
CELLSTYLEMAP
  2
AcDbCellStyleMap
  3
ObjectDBX Classes
 90
     1152
 91
        2
280
     0
281
     0
  0
CLASS
  1
DICTIONARYVAR
  2
AcDbDictionaryVar
  3
ObjectDBX Classes
 90
        0
 91
       11
280
     0
281
     0
  0
CLASS
  1
SORTENTSTABLE
  2
AcDbSortentsTable
  3
ObjectDBX Classes
 90
        0
 91
        0
280
     0
281
     0
  0
CLASS
  1
RAPIDRTRENDERSETTINGS
  2
AcDbRapidRTRenderSettings
  3
ObjectDBX Classes
 90
     1024
 91
        7
280
     0
281
     0
  0
CLASS
  1
MENTALRAYRENDERSETTINGS
  2
AcDbMentalRayRenderSettings
  3
SCENEOE
 90
     1024
 91
        1
280
     0
281
     0
  0
CLASS
  1
EXACXREFPANELOBJECT
  2
ExAcXREFPanelObject
  3
EXAC_ESW
 90
     1025
 91
        1
280
     0
281
     0
  0
CLASS
  1
NPOCOLLECTION
  2
AcDbImpNonPersistentObjectsCollection
  3
ObjectDBX Classes
 90
     1153
 91
        1
280
     0
281
     0
  0
ENDSEC
  0
SECTION
  2
TABLES
  0
TABLE
  2
VPORT
  5
13DAB
102
{ACAD_XDICTIONARY
360
13E49
102
}
330
0
100
AcDbSymbolTable
 70
     1
  0
VPORT
  5
13E19
330
13DAB
100
AcDbSymbolTableRecord
100
AcDbViewportTableRecord
  2
*ACTIVE
 70
     0
 10
0.0
 20
0.0
 11
1.0
 21
1.0
 12
14340.50788356046
 22
10000.0000931351
 13
0.0
 23
0.0
 14
10.0
 24
10.0
 15
10.0
 25
10.0
 16
0.0
 26
0.0
 36
1.0
 17
0.0
 27
0.0
 37
0.0
 40
20171.47619749746
 41
1.997179125528914
 42
50.0
 43
0.0
 44
0.0
 50
0.0
 51
0.0
 71
     0
 72
   100
 73
     1
 74
     1
 75
     0
 76
     0
 77
     0
 78
     0
281
     0
 65
     1
110
0.0
120
0.0
130
0.0
111
1.0
121
0.0
131
0.0
112
0.0
122
1.0
132
0.0
 79
     0
146
0.0
1001
ACAD_NAV_VCDISPLAY
1070
     1
  0
ENDTAB
  0
TABLE
  2
LTYPE
  5
13DA8
330
0
100
AcDbSymbolTable
 70
     3
  0
LTYPE
  5
13DFD
330
13DA8
100
AcDbSymbolTableRecord
100
AcDbLinetypeTableRecord
  2
ByBlock
 70
     0
  3

 72
    65
 73
     0
 40
0.0
  0
LTYPE
  5
13DFE
330
13DA8
100
AcDbSymbolTableRecord
100
AcDbLinetypeTableRecord
  2
ByLayer
 70
     0
  3

 72
    65
 73
     0
 40
0.0
  0
LTYPE
  5
13DFF
330
13DA8
100
AcDbSymbolTableRecord
100
AcDbLinetypeTableRecord
  2
CONTINUOUS
 70
     0
  3
Solid line
 72
    65
 73
     0
 40
0.0
  0
LTYPE
  5
13E17
330
13DA8
100
AcDbSymbolTableRecord
100
AcDbLinetypeTableRecord
  2
YHIDDEN_1
 70
     0
  3
破線尺度1－ － － － － － －
 72
    65
 73
     2
 40
4.0
 49
3.0
 74
     0
 49
-1.0
 74
     0
  0
LTYPE
  5
175FD
330
13DA8
100
AcDbSymbolTableRecord
100
AcDbLinetypeTableRecord
  2
YDIVIDE_1
 70
     0
  3
2点鎖線尺度1-- - - -- - - ---
 72
    65
 73
     6
 40
15.0
 49
10.0
 74
     0
 49
-1.0
 74
     0
 49
1.0
 74
     0
 49
-1.0
 74
     0
 49
1.0
 74
     0
 49
-1.0
 74
     0
  0
ENDTAB
  0
TABLE
  2
LAYER
  5
13DA5
102
{ACAD_XDICTIONARY
360
13E38
102
}
330
0
100
AcDbSymbolTable
 70
     7
  0
LAYER
  5
13DF7
330
13DA5
100
AcDbSymbolTableRecord
100
AcDbLayerTableRecord
  2
0
 70
     0
 62
     7
  6
CONTINUOUS
370
    -3
390
13DB2
  0
LAYER
  5
13E25
330
13DA5
100
AcDbSymbolTableRecord
100
AcDbLayerTableRecord
  2
YKK_F1
 70
     0
 62
     7
  6
CONTINUOUS
370
    -3
390
13DB2
  0
LAYER
  5
13E27
330
13DA5
100
AcDbSymbolTableRecord
100
AcDbLayerTableRecord
  2
YKK_A1
 70
     0
 62
     4
  6
CONTINUOUS
370
    -3
390
13DB2
  0
LAYER
  5
13E28
330
13DA5
100
AcDbSymbolTableRecord
100
AcDbLayerTableRecord
  2
YKK_N1
 70
     0
 62
     2
  6
CONTINUOUS
370
    -3
390
13DB2
  0
LAYER
  5
13E29
330
13DA5
100
AcDbSymbolTableRecord
100
AcDbLayerTableRecord
  2
YKK_B1
 70
     0
 62
     4
  6
CONTINUOUS
370
    -3
390
13DB2
  0
LAYER
  5
13E2A
330
13DA5
100
AcDbSymbolTableRecord
100
AcDbLayerTableRecord
  2
YKK_C1
 70
     0
 62
     4
  6
CONTINUOUS
370
    -3
390
13DB2
  0
LAYER
  5
13E2B
330
13DA5
100
AcDbSymbolTableRecord
100
AcDbLayerTableRecord
  2
YKK_Z1
 70
     0
 62
     7
  6
CONTINUOUS
370
    -3
390
13DB2
  0
ENDTAB
  0
TABLE
  2
STYLE
  5
13DA6
330
0
100
AcDbSymbolTable
 70
     1
  0
STYLE
  5
13DF8
330
13DA6
100
AcDbSymbolTableRecord
100
AcDbTextStyleTableRecord
  2
STANDARD
 70
     0
 40
0.0
 41
1.0
 50
0.0
 71
     0
 42
2.5
  3
txt.shx
  4
bigfont.shx
  0
ENDTAB
  0
TABLE
  2
VIEW
  5
13DA9
330
0
100
AcDbSymbolTable
 70
     2
  0
VIEW
  5
13E18
330
13DA9
100
AcDbSymbolTableRecord
100
AcDbViewTableRecord
  2
OLE1
 70
     0
 40
58695.06115303325
 10
36166.67836034688
 20
16549.13950070749
 41
124604.0404366069
 11
0.0
 21
0.0
 31
1.0
 12
0.0
 22
0.0
 32
0.0
 42
50.0
 43
0.0
 44
0.0
 50
0.0
 71
     0
281
     0
 72
     0
  0
ENDTAB
  0
TABLE
  2
UCS
  5
13DAA
330
0
100
AcDbSymbolTable
 70
     0
  0
ENDTAB
  0
TABLE
  2
APPID
  5
13DAC
330
0
100
AcDbSymbolTable
 70
    19
  0
APPID
  5
13DF9
330
13DAC
100
AcDbSymbolTableRecord
100
AcDbRegAppTableRecord
  2
ACAD
 70
     0
  0
APPID
  5
13E1A
330
13DAC
100
AcDbSymbolTableRecord
100
AcDbRegAppTableRecord
  2
ACADANNOTATIVE
 70
     0
  0
APPID
  5
13E1B
330
13DAC
100
AcDbSymbolTableRecord
100
AcDbRegAppTableRecord
  2
YKK_AP_LOCKLAYER
 70
     0
  0
APPID
  5
13E1C
330
13DAC
100
AcDbSymbolTableRecord
100
AcDbRegAppTableRecord
  2
YTEXT_INFOMATION
 70
     0
  0
APPID
  5
13E1D
330
13DAC
100
AcDbSymbolTableRecord
100
AcDbRegAppTableRecord
  2
YOBJCUT10106165739
 70
     0
  0
APPID
  5
13E1E
330
13DAC
100
AcDbSymbolTableRecord
100
AcDbRegAppTableRecord
  2
YOBJCUT10106165759
 70
     0
  0
APPID
  5
13E1F
330
13DAC
100
AcDbSymbolTableRecord
100
AcDbRegAppTableRecord
  2
YOBJCUT10106162730
 70
     0
  0
APPID
  5
13E20
330
13DAC
100
AcDbSymbolTableRecord
100
AcDbRegAppTableRecord
  2
YOBJCUT10106162742
 70
     0
  0
APPID
  5
13E21
330
13DAC
100
AcDbSymbolTableRecord
100
AcDbRegAppTableRecord
  2
YOBJCUT10106162748
 70
     0
  0
APPID
  5
13E22
330
13DAC
100
AcDbSymbolTableRecord
100
AcDbRegAppTableRecord
  2
ACAD_EXEMPT_FROM_CAD_STANDARDS
 70
     0
  0
APPID
  5
13E23
330
13DAC
100
AcDbSymbolTableRecord
100
AcDbRegAppTableRecord
  2
ACAD_MLEADERVER
 70
     0
  0
APPID
  5
13E24
330
13DAC
100
AcDbSymbolTableRecord
100
AcDbRegAppTableRecord
  2
ACADANNOTATIVE0
 70
     0
  0
APPID
  5
13E00
330
13DAC
100
AcDbSymbolTableRecord
100
AcDbRegAppTableRecord
  2
AUDIT_D_160912120514-67
 70
     0
  0
APPID
  5
13E34
330
13DAC
100
AcDbSymbolTableRecord
100
AcDbRegAppTableRecord
  2
ACAD_NAV_VCDISPLAY
 70
     0
  0
APPID
  5
13FA7
330
13DAC
100
AcDbSymbolTableRecord
100
AcDbRegAppTableRecord
  2
AcAecLayerStandard
 70
     0
  0
APPID
  5
13FA8
330
13DAC
100
AcDbSymbolTableRecord
100
AcDbRegAppTableRecord
  2
ACAD_PSEXT
 70
     0
  0
APPID
  5
175FF
330
13DAC
100
AcDbSymbolTableRecord
100
AcDbRegAppTableRecord
  2
AcCmTransparency
 70
     0
  0
APPID
  5
17600
330
13DAC
100
AcDbSymbolTableRecord
100
AcDbRegAppTableRecord
  2
YOBJCUT11226200521
 70
     0
  0
APPID
  5
17601
330
13DAC
100
AcDbSymbolTableRecord
100
AcDbRegAppTableRecord
  2
YOBJCUT11226200524
 70
     0
  0
ENDTAB
  0
TABLE
  2
DIMSTYLE
  5
13DAD
330
0
100
AcDbSymbolTable
 70
     1
100
AcDbDimStyleTable
 71
     1
340
13DFA
  0
DIMSTYLE
105
13DFA
330
13DAD
100
AcDbSymbolTableRecord
100
AcDbDimStyleTableRecord
  2
STANDARD
 70
     0
274
     4
279
     2
284
     8
285
     8
286
     8
340
13DF8
  0
ENDTAB
  0
TABLE
  2
BLOCK_RECORD
  5
13DA4
330
0
100
AcDbSymbolTable
 70
     0
  0
BLOCK_RECORD
  5
13E12
330
13DA4
100
AcDbSymbolTableRecord
100
AcDbBlockTableRecord
  2
*Model_Space
340
13E15
  0
BLOCK_RECORD
  5
13E0E
330
13DA4
100
AcDbSymbolTableRecord
100
AcDbBlockTableRecord
  2
*Paper_Space
340
13E11
  0
ENDTAB
  0
ENDSEC
  0
SECTION
  2
BLOCKS
  0
BLOCK
  5
13E2E
330
13E12
100
AcDbEntity
  8
0
100
AcDbBlockBegin
  2
*Model_Space
 70
     0
 10
0.0
 20
0.0
 30
0.0
  3
*Model_Space
  1

  0
ENDBLK
  5
13E2F
330
13E12
100
AcDbEntity
  8
0
100
AcDbBlockEnd
  0
BLOCK
  5
13E2C
330
13E0E
100
AcDbEntity
 67
     1
  8
0
100
AcDbBlockBegin
  2
*Paper_Space
 70
     0
 10
0.0
 20
0.0
 30
0.0
  3
*Paper_Space
  1

  0
ENDBLK
  5
13E2D
330
13E0E
100
AcDbEntity
 67
     1
  8
0
100
AcDbBlockEnd
  0
ENDSEC
  0
SECTION
  2
ENTITIES
  0
LINE
  5
1390
330
13E12
100
AcDbEntity
  8
YKK_F1
100
AcDbLine
 10
28681.0155
 20
0.0
 30
0.0
 11
28681.0155
 21
20000.0
 31
0.0
  0
LINE
  5
1391
330
13E12
100
AcDbEntity
  8
YKK_F1
100
AcDbLine
 10
28500.00000000001
 20
0.0
 30
0.0
 11
28500.00000000001
 21
20000.0
 31
0.0
  0
LINE
  5
1392
330
13E12
100
AcDbEntity
  8
YKK_F1
100
AcDbLine
 10
22800.00000000001
 20
0.0
 30
0.0
 11
22800.00000000001
 21
19500.0
 31
0.0
  0
LINE
  5
1393
330
13E12
100
AcDbEntity
  8
YKK_F1
100
AcDbLine
 10
17100.0
 20
0.0
 30
0.0
 11
17100.0
 21
19500.0
 31
0.0
  0
LINE
  5
1B3C
330
13E12
100
AcDbEntity
  8
YKK_F1
100
AcDbLine
 10
0.0
 20
0.0
 30
0.0
 11
0.0
 21
20000.0
 31
0.0
  0
LINE
  5
1B3D
330
13E12
100
AcDbEntity
  8
YKK_F1
100
AcDbLine
 10
11400.0
 20
0.0
 30
0.0
 11
11400.0
 21
19500.0
 31
0.0
  0
LINE
  5
1B3E
330
13E12
100
AcDbEntity
  8
YKK_F1
100
AcDbLine
 10
5700.0
 20
0.0
 30
0.0
 11
5700.0
 21
19500.0
 31
0.0
  0
LINE
  5
1B3F
330
13E12
100
AcDbEntity
  8
YKK_F1
100
AcDbLine
 10
0.0
 20
9930.000000000003
 30
0.0
 11
28500.00000000001
 21
9930.000000000003
 31
0.0
  0
LINE
  5
1B40
330
13E12
100
AcDbEntity
  8
YKK_F1
100
AcDbLine
 10
0.0
 20
6495.000000000003
 30
0.0
 11
28500.00000000001
 21
6495.000000000003
 31
0.0
  0
LINE
  5
1B41
330
13E12
100
AcDbEntity
  8
YKK_F1
100
AcDbLine
 10
0.0
 20
6045.000000000004
 30
0.0
 11
28500.00000000001
 21
6045.000000000004
 31
0.0
  0
LINE
  5
1B42
330
13E12
100
AcDbEntity
  8
YKK_F1
100
AcDbLine
 10
0.0
 20
2797.500000000003
 30
0.0
 11
28500.00000000001
 21
2797.500000000003
 31
0.0
  0
LINE
  5
1B43
330
13E12
100
AcDbEntity
  8
YKK_F1
100
AcDbLine
 10
0.0
 20
2347.500000000003
 30
0.0
 11
28500.00000000001
 21
2347.500000000003
 31
0.0
  0
LINE
  5
1B44
330
13E12
100
AcDbEntity
  8
YKK_F1
100
AcDbLine
 10
0.0
 20
0.0
 30
0.0
 11
28681.0155
 21
0.0
 31
0.0
  0
LINE
  5
1B45
330
13E12
100
AcDbEntity
  8
YKK_F1
100
AcDbLine
 10
0.0
 20
10830.0
 30
0.0
 11
28500.00000000001
 21
10830.0
 31
0.0
  0
LINE
  5
1B46
330
13E12
100
AcDbEntity
  8
YKK_F1
100
AcDbLine
 10
0.0
 20
10380.0
 30
0.0
 11
28500.00000000001
 21
10380.0
 31
0.0
  0
LINE
  5
1B47
330
13E12
100
AcDbEntity
  8
YKK_F1
100
AcDbLine
 10
0.0
 20
18600.0
 30
0.0
 11
28500.00000000001
 21
18600.0
 31
0.0
  0
LINE
  5
1B48
330
13E12
100
AcDbEntity
  8
YKK_F1
100
AcDbLine
 10
0.0
 20
19050.0
 30
0.0
 11
28500.00000000001
 21
19050.0
 31
0.0
  0
LINE
  5
1B49
330
13E12
100
AcDbEntity
  8
YKK_F1
100
AcDbLine
 10
0.0
 20
19500.0
 30
0.0
 11
28500.00000000001
 21
19500.0
 31
0.0
  0
LINE
  5
1B4A
330
13E12
100
AcDbEntity
  8
YKK_F1
100
AcDbLine
 10
0.0
 20
20000.0
 30
0.0
 11
28681.0155
 21
20000.0
 31
0.0
  0
LINE
  5
1B4B
330
13E12
100
AcDbEntity
  8
YKK_F1
100
AcDbLine
 10
0.0
 20
14265.0
 30
0.0
 11
28500.00000000001
 21
14265.0
 31
0.0
  0
LINE
  5
1B4C
330
13E12
100
AcDbEntity
  8
YKK_F1
100
AcDbLine
 10
0.0
 20
14715.0
 30
0.0
 11
28500.00000000001
 21
14715.0
 31
0.0
  0
LINE
  5
1B4D
330
13E12
100
AcDbEntity
  8
YKK_F1
100
AcDbLine
 10
0.0
 20
15165.0
 30
0.0
 11
28500.00000000001
 21
15165.0
 31
0.0
  0
TEXT
  5
77B2
330
13E12
100
AcDbEntity
  8
0
100
AcDbText
 10
100.0
 20
18737.50000000001
 30
0.0
 40
175.0
  1
W=3,278 H=2,033
100
AcDbText
1001
YTEXT_INFOMATION
1002
{
1000
W=1,643 H=2,033
1002
}
1000
BL
1010
0.0000000000000018
1020
29.16666666666788
1030
0.0
1040
175.0
1070
     0
1002
{
1000
TEXTOBJECTS
1000
77B2
1002
}
  0
TEXT
  5
77BE
330
13E12
100
AcDbEntity
  8
0
100
AcDbText
 10
100.0
 20
19187.50000000001
 30
0.0
 40
175.0
  1
シンプル TA/YA1
100
AcDbText
1001
YTEXT_INFOMATION
1002
{
1000
スタイリッシュ 片引き戸 MVK-TA(YA)$$$$$
1002
}
1000
BL
1010
-11.66666666666666
1020
0.0000000000000014
1030
0.0
1040
175.0
1070
     0
1002
{
1000
TEXTOBJECTS
1000
77BE
1002
}
  0
TEXT
  5
77C0
330
13E12
100
AcDbEntity
  8
0
100
AcDbText
 10
5800.0
 20
19187.50000000001
 30
0.0
 40
175.0
  1
シンプル TC
100
AcDbText
1001
YTEXT_INFOMATION
1002
{
1000
スタイリッシュ 片引き戸 MVK-TC(YC)$$$$$
1002
}
1000
BL
1010
-11.66666666666606
1020
0.0000000000000014
1030
0.0
1040
175.0
1070
     0
1002
{
1000
TEXTOBJECTS
1000
77C0
1002
}
  0
TEXT
  5
77C4
330
13E12
100
AcDbEntity
  8
0
100
AcDbText
 10
11500.0
 20
19187.50000000002
 30
0.0
 40
175.0
  1
シンプル TG/YG1
100
AcDbText
1001
YTEXT_INFOMATION
1002
{
1000
スタイリッシュ 片引き戸 MVK-TG(YG)$$$$$
1002
}
1000
BL
1010
-11.66666666666697
1020
0.0000000000000014
1030
0.0
1040
175.0
1070
     0
1002
{
1000
TEXTOBJECTS
1000
77C4
1002
}
  0
TEXT
  5
9E09
330
13E12
100
AcDbEntity
  8
0
100
AcDbText
 10
500.0
 20
19625.0
 30
0.0
 40
250.0
  1
ＭＷＮＳＭ＿Ｗ０１  木質インテリア建材  ラフォレスタ  室内引戸  上吊り  シンプル  アウトセット引戸（引分け戸）
100
AcDbText
1001
YTEXT_INFOMATION
1002
{
1000
ＭＶＫＳ＿Ｋ２７  木質インテリア建材  ラフォレスタ  室内引戸  上吊り  スタイリッシュ（フラッシュ構造）１／２  片引き戸  呼称幅１６４\U+5400匀
1002
}
1000
BL
1010
0.0
1020
0.0
1030
0.0
1040
250.0
1070
     0
1002
{
1000
TEXTOBJECTS
1000
9E09
1002
}
  0
LINE
  5
14B64
330
13E12
100
AcDbEntity
  8
YKK_F1
100
AcDbLine
 10
0.0
 20
0.0
 30
0.0
 11
1.0
 21
0.0
 31
0.0
  0
LINE
  5
14B65
330
13E12
100
AcDbEntity
  8
YKK_F1
100
AcDbLine
 10
0.0
 20
0.0
 30
0.0
 11
1.0
 21
0.0
 31
0.0
  0
TEXT
  5
153AC
330
13E12
100
AcDbEntity
  8
0
100
AcDbText
 10
100.0
 20
6095.0
 30
0.0
 40
175.0
  1
枠見込み156/上吊りタイプ
100
AcDbText
1001
YTEXT_INFOMATION
1002
{
1000
枠見込み156/上吊りタイプ$$$$$
1002
}
1000
BL
1010
0.0
1020
0.0
1030
0.0
1040
100.0
1070
     0
1002
{
1000
TEXTOBJECTS
1000
153AC
1002
}
  0
TEXT
  5
153AF
330
13E12
100
AcDbEntity
  8
0
100
AcDbText
 10
100.0
 20
6270.0
 30
0.0
 40
175.0
  1
ノンケーシングタイプ
100
AcDbText
1001
YTEXT_INFOMATION
1002
{
1000
ノンケーシングタイプ3方枠プ専用床見切(アルミ)$$$$$$$$$$嬬$$$\U+5555\U+5555\U+C037嬬\U+B528\U+BCF7\U+3CE9
1002
}
1000
BL
1010
-23.33333333333333
1020
0.0000000000000029
1030
0.0
1040
175.0
1070
     0
1002
{
1000
TEXTOBJECTS
1000
153AF
1002
}
  0
TEXT
  5
166FF
330
13E12
100
AcDbEntity
  8
0
100
AcDbText
 10
17200.0
 20
19187.50000000001
 30
0.0
 40
175.0
  1
シンプル TN/YN1
100
AcDbText
1001
YTEXT_INFOMATION
1002
{
1000
スタイリッシュ 片引き戸 MVK-TN(YN)(
1002
}
1000
BL
1010
-11.66666666666666
1020
0.0000000000000014
1030
0.0
1040
175.0
1070
     0
1002
{
1000
TEXTOBJECTS
1000
166FF
1002
}
  0
LINE
  5
184A8
330
13E12
100
AcDbEntity
  8
YKK_F1
100
AcDbLine
 10
0.0
 20
5595.000000000004
 30
0.0
 11
28500.00000000001
 21
5595.000000000004
 31
0.0
  0
TEXT
  5
19553
330
13E12
100
AcDbEntity
  8
0
100
AcDbText
 10
5800.0
 20
18737.50000000001
 30
0.0
 40
175.0
  1
W=3,278 H=2,033
100
AcDbText
1001
YTEXT_INFOMATION
1002
{
1000
W=1,643 H=2,033
1002
}
1000
BL
1010
0.0000000000000018
1020
29.16666666666788
1030
0.0
1040
175.0
1070
     0
1002
{
1000
TEXTOBJECTS
1000
19553
1002
}
  0
TEXT
  5
19554
330
13E12
100
AcDbEntity
  8
0
100
AcDbText
 10
11500.0
 20
18737.50000000001
 30
0.0
 40
175.0
  1
W=3,278 H=2,033
100
AcDbText
1001
YTEXT_INFOMATION
1002
{
1000
W=1,643 H=2,033
1002
}
1000
BL
1010
0.0000000000000018
1020
29.16666666666788
1030
0.0
1040
175.0
1070
     0
1002
{
1000
TEXTOBJECTS
1000
19554
1002
}
  0
TEXT
  5
19555
330
13E12
100
AcDbEntity
  8
0
100
AcDbText
 10
17200.0
 20
18737.50000000001
 30
0.0
 40
175.0
  1
W=3,278 H=2,033
100
AcDbText
1001
YTEXT_INFOMATION
1002
{
1000
W=1,643 H=2,033
1002
}
1000
BL
1010
0.0000000000000018
1020
29.16666666666788
1030
0.0
1040
175.0
1070
     0
1002
{
1000
TEXTOBJECTS
1000
19555
1002
}
  0
LINE
  5
1955A
330
13E12
100
AcDbEntity
  8
YKK_C1
100
AcDbLine
 10
4448.00000820271
 20
4953.849420205902
 30
0.0
 11
4461.655545026195
 21
4967.504957029383
 31
0.0
1001
ACAD
1010
0.0
1020
0.0
1030
0.0
  0
LINE
  5
1955B
330
13E12
100
AcDbEntity
  8
YKK_C1
100
AcDbLine
 10
4473.010884192634
 20
4943.504957136496
 30
0.0
 11
4497.010884085525
 21
4967.504957029385
 31
0.0
1001
ACAD
1010
0.0
1020
0.0
1030
0.0
  0
LINE
  5
1955C
330
13E12
100
AcDbEntity
  8
YKK_C1
100
AcDbLine
 10
4508.366223251964
 20
4943.504957136497
 30
0.0
 11
4532.366223144847
 21
4967.504957029386
 31
0.0
1001
ACAD
1010
0.0
1020
0.0
1030
0.0
  0
LINE
  5
1955D
330
13E12
100
AcDbEntity
  8
YKK_C1
100
AcDbLine
 10
4543.721562311293
 20
4943.504957136497
 30
0.0
 11
4567.721562204177
 21
4967.504957029388
 31
0.0
1001
ACAD
1010
0.0
1020
0.0
1030
0.0
  0
LINE
  5
1955E
330
13E12
100
AcDbEntity
  8
YKK_C1
100
AcDbLine
 10
4579.076901370623
 20
4943.504957136499
 30
0.0
 11
4599.000007851522
 21
4963.428063617397
 31
0.0
1001
ACAD
1010
0.0
1020
0.0
1030
0.0
  0
LINE
  5
1955F
330
13E12
100
AcDbEntity
  8
YKK_C1
  6
ByBlock
370
    -2
100
AcDbLine
 10
4448.000007772701
 20
4967.504956894426
 30
0.0
 11
4599.000007772701
 21
4967.50495680152
 31
0.0
  0
LINE
  5
19560
330
13E12
100
AcDbEntity
  8
YKK_C1
  6
ByBlock
370
    -2
100
AcDbLine
 10
4599.000007772701
 20
4967.50495680152
 30
0.0
 11
4599.000007759161
 21
4945.504956801521
 31
0.0
  0
ARC
  5
19561
330
13E12
100
AcDbEntity
  8
YKK_C1
  6
ByBlock
370
    -2
100
AcDbCircle
 10
4597.000007432369
 20
4945.504957129546
 30
0.0
 40
2.000000326795002
100
AcDbArc
 50
270.0000093264766
 51
359.9999906027577
  0
LINE
  5
19562
330
13E12
100
AcDbEntity
  8
YKK_C1
  6
ByBlock
370
    -2
100
AcDbLine
 10
4597.000007757939
 20
4943.504956802751
 30
0.0
 11
4450.000007757938
 21
4943.504956893196
 31
0.0
  0
ARC
  5
19563
330
13E12
100
AcDbEntity
  8
YKK_C1
  6
ByBlock
370
    -2
100
AcDbCircle
 10
4450.00000808596
 20
4945.50495721999
 30
0.0
 40
2.000000326795002
100
AcDbArc
 50
180.0000093267371
 51
269.9999906026536
  0
LINE
  5
19564
330
13E12
100
AcDbEntity
  8
YKK_C1
  6
ByBlock
370
    -2
100
AcDbLine
 10
4448.000007759161
 20
4945.504956894426
 30
0.0
 11
4448.000007772701
 21
4967.504956894426
 31
0.0
  0
LINE
  5
19565
330
13E12
100
AcDbEntity
  8
YKK_Z1
  6
Continuous
100
AcDbLine
 10
4385.500007341623
 20
2934.499980354886
 30
0.0
 11
4767.999999753294
 21
2934.499980354888
 31
0.0
  0
LINE
  5
19566
330
13E12
100
AcDbEntity
  8
YKK_Z1
  6
Continuous
100
AcDbLine
 10
4385.500007341623
 20
2932.499980354887
 30
0.0
 11
4767.999999753294
 21
2932.499980354887
 31
0.0
  0
LINE
  5
19567
330
13E12
100
AcDbEntity
  8
YKK_Z1
  6
Continuous
100
AcDbLine
 10
4385.500007341623
 20
2930.499980354887
 30
0.0
 11
4767.999999753294
 21
2930.499980354887
 31
0.0
  0
LINE
  5
19568
330
13E12
100
AcDbEntity
  8
YKK_Z1
  6
Continuous
100
AcDbLine
 10
4385.500007341623
 20
2928.499980354887
 30
0.0
 11
4767.999999753294
 21
2928.499980354887
 31
0.0
  0
LINE
  5
19569
330
13E12
100
AcDbEntity
  8
YKK_Z1
  6
Continuous
100
AcDbLine
 10
4385.500007341623
 20
2926.499980354887
 30
0.0
 11
4767.999999753294
 21
2926.499980354887
 31
0.0
  0
LINE
  5
1956A
330
13E12
100
AcDbEntity
  8
YKK_Z1
  6
Continuous
100
AcDbLine
 10
4385.500007341623
 20
2924.499980354887
 30
0.0
 11
4767.999999753294
 21
2924.499980354887
 31
0.0
  0
LINE
  5
1956B
330
13E12
100
AcDbEntity
  8
YKK_Z1
  6
Continuous
100
AcDbLine
 10
4767.999999753294
 20
2922.499980354887
 30
0.0
 11
4385.500007341623
 21
2922.499980354887
 31
0.0
  0
TEXT
  5
1956C
330
13E12
100
AcDbEntity
  8
YKK_Z1
100
AcDbText
 10
4743.161226961222
 20
2934.499980354888
 30
0.0
 40
9.0
  1
Ｆ．Ｌ
100
AcDbText
1001
ACAD
1000
MTEXTBEGIN
1070
    73
1070
     1
1070
    44
1040
1.0
1070
    74
1070
     0
1000
MTEXTEND
  0
LINE
  5
1956D
330
13E12
100
AcDbEntity
  8
YKK_Z1
  6
Continuous
100
AcDbLine
 10
4471.000007140989
 20
4980.004039985669
 30
0.0
 11
4576.000006759023
 21
4967.504956930483
 31
0.0
  0
LINE
  5
1956E
330
13E12
100
AcDbEntity
  8
YKK_Z1
  6
Continuous
100
AcDbLine
 10
4471.000006817041
 20
5001.682675763374
 30
0.0
 11
4471.000006817041
 21
4967.504956930483
 31
0.0
  0
LINE
  5
1956F
330
13E12
100
AcDbEntity
  8
YKK_Z1
  6
Continuous
100
AcDbLine
 10
4471.000007140989
 20
5066.106362413076
 30
0.0
 11
4471.000007140989
 21
4967.504957296251
 31
0.0
  0
LINE
  5
19570
330
13E12
100
AcDbEntity
  8
YKK_Z1
  6
Continuous
100
AcDbLine
 10
4588.000006817041
 20
4967.504956930483
 30
0.0
 11
4459.000006817041
 21
4967.504956930483
 31
0.0
  0
LINE
  5
19571
330
13E12
100
AcDbEntity
  8
YKK_Z1
  6
Continuous
100
AcDbLine
 10
4458.500007140989
 20
4967.504957296251
 30
0.0
 11
4471.000007140989
 21
4967.504957296251
 31
0.0
  0
LINE
  5
19572
330
13E12
100
AcDbEntity
  8
YKK_Z1
  6
Continuous
100
AcDbLine
 10
4576.000006817041
 20
4980.004039985669
 30
0.0
 11
4471.000006817041
 21
4980.004039985669
 31
0.0
  0
LINE
  5
19573
330
13E12
100
AcDbEntity
  8
YKK_Z1
  6
Continuous
100
AcDbLine
 10
4576.000006817041
 20
4980.004039985669
 30
0.0
 11
4471.000007140989
 21
5025.00496066379
 31
0.0
  0
LINE
  5
19574
330
13E12
100
AcDbEntity
  8
YKK_Z1
  6
Continuous
100
AcDbLine
 10
4576.000006817041
 20
5066.106362413076
 30
0.0
 11
4576.000006817041
 21
4967.504956930483
 31
0.0
  0
LINE
  5
19575
330
13E12
100
AcDbEntity
  8
YKK_Z1
  6
Continuous
100
AcDbLine
 10
4576.000006759023
 20
4967.504957060177
 30
0.0
 11
4576.000006759023
 21
5066.106362413076
 31
0.0
  0
LINE
  5
19576
330
13E12
100
AcDbEntity
  8
YKK_Z1
  6
Continuous
100
AcDbLine
 10
4588.500006759022
 20
5066.106362413076
 30
0.0
 11
4588.500006759022
 21
4967.504957060177
 31
0.0
  0
LINE
  5
19577
330
13E12
100
AcDbEntity
  8
YKK_Z1
  6
Continuous
100
AcDbLine
 10
4458.500007140989
 20
4967.504957296251
 30
0.0
 11
4458.500007140989
 21
5066.106362413076
 31
0.0
  0
LINE
  5
19578
330
13E12
100
AcDbEntity
  8
YKK_Z1
  6
Continuous
100
AcDbLine
 10
4576.002155022034
 20
5025.004039985668
 30
0.0
 11
4471.002155022033
 21
5025.004039985668
 31
0.0
  0
LINE
  5
19579
330
13E12
100
AcDbEntity
  8
YKK_Z1
  6
Continuous
100
AcDbLine
 10
4576.000006759023
 20
5025.004039985668
 30
0.0
 11
4480.096550195725
 21
5066.106362413076
 31
0.0
  0
LINE
  5
1957A
330
13E12
100
AcDbEntity
  8
YKK_Z1
  6
Continuous
100
AcDbLine
 10
4576.000006759023
 20
5025.004039985668
 30
0.0
 11
4471.000006759022
 21
5025.004039985668
 31
0.0
  0
LINE
  5
1957B
330
13E12
100
AcDbEntity
  8
YKK_C1
 48
1.5
100
AcDbLine
 10
4612.000003226982
 20
3039.022811747796
 30
0.0
 11
4642.000003226981
 21
3069.022811747796
 31
0.0
1001
ACAD
1010
0.0
1020
0.0
1030
0.0
  0
LINE
  5
1957C
330
13E12
100
AcDbEntity
  8
YKK_C1
 48
1.5
100
AcDbLine
 10
4612.000003226982
 20
2996.596404876603
 30
0.0
 11
4642.000003226981
 21
3026.596404876603
 31
0.0
1001
ACAD
1010
0.0
1020
0.0
1030
0.0
  0
LINE
  5
1957D
330
13E12
100
AcDbEntity
  8
YKK_C1
 48
1.5
100
AcDbLine
 10
4612.000003226982
 20
2954.16999800541
 30
0.0
 11
4642.000003226981
 21
2984.16999800541
 31
0.0
1001
ACAD
1010
0.0
1020
0.0
1030
0.0
  0
LINE
  5
1957E
330
13E12
100
AcDbEntity
  8
YKK_C1
100
AcDbLine
 10
4612.000003226982
 20
2943.494949415845
 30
0.0
 11
4642.000003226981
 21
2943.494949415848
 31
0.0
  0
LINE
  5
1957F
330
13E12
100
AcDbEntity
  8
YKK_C1
100
AcDbLine
 10
4642.000003226981
 20
2943.494949415848
 30
0.0
 11
4642.000003226974
 21
4972.49998173259
 31
0.0
  0
LINE
  5
19580
330
13E12
100
AcDbEntity
  8
YKK_C1
100
AcDbLine
 10
4642.000003226974
 20
4972.49998173259
 30
0.0
 11
4612.000003226974
 21
4972.499981732589
 31
0.0
  0
LINE
  5
19581
330
13E12
100
AcDbEntity
  8
YKK_C1
100
AcDbLine
 10
4612.000003226974
 20
4972.499981732589
 30
0.0
 11
4612.000003226982
 21
2943.494949415848
 31
0.0
  0
LINE
  5
19582
330
13E12
100
AcDbEntity
  8
YKK_C1
 48
1.5
100
AcDbLine
 10
4612.000003226982
 20
3081.449218618989
 30
0.0
 11
4642.000003226981
 21
3111.449218618989
 31
0.0
1001
ACAD
1010
0.0
1020
0.0
1030
0.0
  0
LINE
  5
19583
330
13E12
100
AcDbEntity
  8
YKK_C1
 48
1.5
100
AcDbLine
 10
4612.000003226982
 20
3166.302032361374
 30
0.0
 11
4642.000003226981
 21
3196.302032361374
 31
0.0
1001
ACAD
1010
0.0
1020
0.0
1030
0.0
  0
LINE
  5
19584
330
13E12
100
AcDbEntity
  8
YKK_C1
 48
1.5
100
AcDbLine
 10
4612.000003226982
 20
3123.875625490182
 30
0.0
 11
4642.000003226981
 21
3153.875625490182
 31
0.0
1001
ACAD
1010
0.0
1020
0.0
1030
0.0
  0
LINE
  5
19585
330
13E12
100
AcDbEntity
  8
YKK_C1
 48
1.5
100
AcDbLine
 10
4612.000003226982
 20
3208.728439232569
 30
0.0
 11
4642.000003226981
 21
3238.728439232569
 31
0.0
1001
ACAD
1010
0.0
1020
0.0
1030
0.0
  0
LINE
  5
19586
330
13E12
100
AcDbEntity
  8
YKK_C1
 48
1.5
100
AcDbLine
 10
4612.000003226982
 20
3251.154846103762
 30
0.0
 11
4642.000003226981
 21
3281.154846103762
 31
0.0
1001
ACAD
1010
0.0
1020
0.0
1030
0.0
  0
LINE
  5
19587
330
13E12
100
AcDbEntity
  8
YKK_C1
 48
1.5
100
AcDbLine
 10
4612.000003226982
 20
3336.007659846147
 30
0.0
 11
4642.000003226981
 21
3366.007659846147
 31
0.0
1001
ACAD
1010
0.0
1020
0.0
1030
0.0
  0
LINE
  5
19588
330
13E12
100
AcDbEntity
  8
YKK_C1
 48
1.5
100
AcDbLine
 10
4612.000003226982
 20
3293.581252974955
 30
0.0
 11
4642.000003226981
 21
3323.581252974955
 31
0.0
1001
ACAD
1010
0.0
1020
0.0
1030
0.0
  0
LINE
  5
19589
330
13E12
100
AcDbEntity
  8
YKK_C1
 48
1.5
100
AcDbLine
 10
4612.000003226982
 20
3378.43406671734
 30
0.0
 11
4642.000003226981
 21
3408.434066717339
 31
0.0
1001
ACAD
1010
0.0
1020
0.0
1030
0.0
  0
LINE
  5
1958A
330
13E12
100
AcDbEntity
  8
YKK_C1
 48
1.5
100
AcDbLine
 10
4612.000003226982
 20
3420.860473588534
 30
0.0
 11
4642.000003226981
 21
3450.860473588534
 31
0.0
1001
ACAD
1010
0.0
1020
0.0
1030
0.0
  0
LINE
  5
1958B
330
13E12
100
AcDbEntity
  8
YKK_C1
 48
1.5
100
AcDbLine
 10
4612.000003226982
 20
3505.713287330919
 30
0.0
 11
4642.000003226981
 21
3535.713287330918
 31
0.0
1001
ACAD
1010
0.0
1020
0.0
1030
0.0
  0
LINE
  5
1958C
330
13E12
100
AcDbEntity
  8
YKK_C1
 48
1.5
100
AcDbLine
 10
4612.000003226982
 20
3463.286880459726
 30
0.0
 11
4642.000003226981
 21
3493.286880459726
 31
0.0
1001
ACAD
1010
0.0
1020
0.0
1030
0.0
  0
LINE
  5
1958D
330
13E12
100
AcDbEntity
  8
YKK_C1
 48
1.5
100
AcDbLine
 10
4612.000003226982
 20
3548.13969420211
 30
0.0
 11
4642.000003226981
 21
3578.139694202111
 31
0.0
1001
ACAD
1010
0.0
1020
0.0
1030
0.0
  0
LINE
  5
1958E
330
13E12
100
AcDbEntity
  8
YKK_C1
 48
1.5
100
AcDbLine
 10
4612.000003226982
 20
3590.566101073305
 30
0.0
 11
4642.000003226981
 21
3620.566101073305
 31
0.0
1001
ACAD
1010
0.0
1020
0.0
1030
0.0
  0
LINE
  5
1958F
330
13E12
100
AcDbEntity
  8
YKK_C1
 48
1.5
100
AcDbLine
 10
4612.000003226982
 20
3675.41891481569
 30
0.0
 11
4642.000003226981
 21
3705.41891481569
 31
0.0
1001
ACAD
1010
0.0
1020
0.0
1030
0.0
  0
LINE
  5
19590
330
13E12
100
AcDbEntity
  8
YKK_C1
 48
1.5
100
AcDbLine
 10
4612.000003226982
 20
3632.992507944498
 30
0.0
 11
4642.000003226981
 21
3662.992507944498
 31
0.0
1001
ACAD
1010
0.0
1020
0.0
1030
0.0
  0
LINE
  5
19591
330
13E12
100
AcDbEntity
  8
YKK_C1
 48
1.5
100
AcDbLine
 10
4612.000003226982
 20
3717.845321686881
 30
0.0
 11
4642.000003226981
 21
3747.845321686881
 31
0.0
1001
ACAD
1010
0.0
1020
0.0
1030
0.0
  0
LINE
  5
19592
330
13E12
100
AcDbEntity
  8
YKK_C1
 48
1.5
100
AcDbLine
 10
4612.000003226982
 20
3760.271728558076
 30
0.0
 11
4642.000003226981
 21
3790.271728558076
 31
0.0
1001
ACAD
1010
0.0
1020
0.0
1030
0.0
  0
LINE
  5
19593
330
13E12
100
AcDbEntity
  8
YKK_C1
 48
1.5
100
AcDbLine
 10
4612.000003226982
 20
3845.124542300462
 30
0.0
 11
4642.000003226981
 21
3875.124542300461
 31
0.0
1001
ACAD
1010
0.0
1020
0.0
1030
0.0
  0
LINE
  5
19594
330
13E12
100
AcDbEntity
  8
YKK_C1
 48
1.5
100
AcDbLine
 10
4612.000003226982
 20
3802.698135429269
 30
0.0
 11
4642.000003226981
 21
3832.698135429268
 31
0.0
1001
ACAD
1010
0.0
1020
0.0
1030
0.0
  0
LINE
  5
19595
330
13E12
100
AcDbEntity
  8
YKK_C1
 48
1.5
100
AcDbLine
 10
4612.000003226982
 20
3887.550949171653
 30
0.0
 11
4642.000003226981
 21
3917.550949171653
 31
0.0
1001
ACAD
1010
0.0
1020
0.0
1030
0.0
  0
LINE
  5
19596
330
13E12
100
AcDbEntity
  8
YKK_C1
 48
1.5
100
AcDbLine
 10
4612.000003226982
 20
3929.977356042847
 30
0.0
 11
4642.000003226981
 21
3959.977356042847
 31
0.0
1001
ACAD
1010
0.0
1020
0.0
1030
0.0
  0
LINE
  5
19597
330
13E12
100
AcDbEntity
  8
YKK_C1
 48
1.5
100
AcDbLine
 10
4612.000003226982
 20
4014.830169785232
 30
0.0
 11
4642.000003226981
 21
4044.830169785232
 31
0.0
1001
ACAD
1010
0.0
1020
0.0
1030
0.0
  0
LINE
  5
19598
330
13E12
100
AcDbEntity
  8
YKK_C1
 48
1.5
100
AcDbLine
 10
4612.000003226982
 20
3972.40376291404
 30
0.0
 11
4642.000003226981
 21
4002.403762914039
 31
0.0
1001
ACAD
1010
0.0
1020
0.0
1030
0.0
  0
LINE
  5
19599
330
13E12
100
AcDbEntity
  8
YKK_C1
 48
1.5
100
AcDbLine
 10
4612.000003226982
 20
4057.256576656424
 30
0.0
 11
4642.000003226981
 21
4087.256576656424
 31
0.0
1001
ACAD
1010
0.0
1020
0.0
1030
0.0
  0
LINE
  5
1959A
330
13E12
100
AcDbEntity
  8
YKK_C1
 48
1.5
100
AcDbLine
 10
4612.000003226982
 20
4099.682983527618
 30
0.0
 11
4642.000003226981
 21
4129.682983527618
 31
0.0
1001
ACAD
1010
0.0
1020
0.0
1030
0.0
  0
LINE
  5
1959B
330
13E12
100
AcDbEntity
  8
YKK_C1
 48
1.5
100
AcDbLine
 10
4612.000003226982
 20
4184.535797270003
 30
0.0
 11
4642.000003226981
 21
4214.535797270003
 31
0.0
1001
ACAD
1010
0.0
1020
0.0
1030
0.0
  0
LINE
  5
1959C
330
13E12
100
AcDbEntity
  8
YKK_C1
 48
1.5
100
AcDbLine
 10
4612.000003226982
 20
4142.109390398811
 30
0.0
 11
4642.000003226981
 21
4172.109390398811
 31
0.0
1001
ACAD
1010
0.0
1020
0.0
1030
0.0
  0
LINE
  5
1959D
330
13E12
100
AcDbEntity
  8
YKK_C1
 48
1.5
100
AcDbLine
 10
4612.000003226974
 20
4226.962204141194
 30
0.0
 11
4642.000003226974
 21
4256.962204141194
 31
0.0
1001
ACAD
1010
0.0
1020
0.0
1030
0.0
  0
LINE
  5
1959E
330
13E12
100
AcDbEntity
  8
YKK_C1
 48
1.5
100
AcDbLine
 10
4612.000003226982
 20
4269.388611012388
 30
0.0
 11
4642.000003226981
 21
4299.388611012388
 31
0.0
1001
ACAD
1010
0.0
1020
0.0
1030
0.0
  0
LINE
  5
1959F
330
13E12
100
AcDbEntity
  8
YKK_C1
 48
1.5
100
AcDbLine
 10
4612.000003226974
 20
4354.241424754773
 30
0.0
 11
4642.000003226974
 21
4384.241424754772
 31
0.0
1001
ACAD
1010
0.0
1020
0.0
1030
0.0
  0
LINE
  5
195A0
330
13E12
100
AcDbEntity
  8
YKK_C1
 48
1.5
100
AcDbLine
 10
4612.000003226982
 20
4311.815017883581
 30
0.0
 11
4642.000003226974
 21
4341.815017883582
 31
0.0
1001
ACAD
1010
0.0
1020
0.0
1030
0.0
  0
LINE
  5
195A1
330
13E12
100
AcDbEntity
  8
YKK_C1
 48
1.5
100
AcDbLine
 10
4612.000003226974
 20
4396.667831625965
 30
0.0
 11
4642.000003226974
 21
4426.667831625965
 31
0.0
1001
ACAD
1010
0.0
1020
0.0
1030
0.0
  0
LINE
  5
195A2
330
13E12
100
AcDbEntity
  8
YKK_C1
 48
1.5
100
AcDbLine
 10
4612.000003226974
 20
4439.094238497159
 30
0.0
 11
4642.000003226974
 21
4469.094238497159
 31
0.0
1001
ACAD
1010
0.0
1020
0.0
1030
0.0
  0
LINE
  5
195A3
330
13E12
100
AcDbEntity
  8
YKK_C1
 48
1.5
100
AcDbLine
 10
4612.000003226974
 20
4523.947052239544
 30
0.0
 11
4642.000003226974
 21
4553.947052239544
 31
0.0
1001
ACAD
1010
0.0
1020
0.0
1030
0.0
  0
LINE
  5
195A4
330
13E12
100
AcDbEntity
  8
YKK_C1
 48
1.5
100
AcDbLine
 10
4612.000003226974
 20
4481.520645368352
 30
0.0
 11
4642.000003226974
 21
4511.520645368352
 31
0.0
1001
ACAD
1010
0.0
1020
0.0
1030
0.0
  0
LINE
  5
195A5
330
13E12
100
AcDbEntity
  8
YKK_C1
 48
1.5
100
AcDbLine
 10
4612.000003226982
 20
4566.373459110738
 30
0.0
 11
4642.000003226981
 21
4596.373459110737
 31
0.0
1001
ACAD
1010
0.0
1020
0.0
1030
0.0
  0
LINE
  5
195A6
330
13E12
100
AcDbEntity
  8
YKK_C1
 48
1.5
100
AcDbLine
 10
4612.000003226982
 20
4608.799865981932
 30
0.0
 11
4642.000003226981
 21
4638.799865981932
 31
0.0
1001
ACAD
1010
0.0
1020
0.0
1030
0.0
  0
LINE
  5
195A7
330
13E12
100
AcDbEntity
  8
YKK_C1
 48
1.5
100
AcDbLine
 10
4612.000003226982
 20
4693.652679724317
 30
0.0
 11
4642.000003226981
 21
4723.652679724318
 31
0.0
1001
ACAD
1010
0.0
1020
0.0
1030
0.0
  0
LINE
  5
195A8
330
13E12
100
AcDbEntity
  8
YKK_C1
 48
1.5
100
AcDbLine
 10
4612.000003226982
 20
4651.226272853125
 30
0.0
 11
4642.000003226981
 21
4681.226272853125
 31
0.0
1001
ACAD
1010
0.0
1020
0.0
1030
0.0
  0
LINE
  5
195A9
330
13E12
100
AcDbEntity
  8
YKK_C1
 48
1.5
100
AcDbLine
 10
4612.000003226974
 20
4736.079086595508
 30
0.0
 11
4642.000003226974
 21
4766.079086595508
 31
0.0
1001
ACAD
1010
0.0
1020
0.0
1030
0.0
  0
LINE
  5
195AA
330
13E12
100
AcDbEntity
  8
YKK_C1
 48
1.5
100
AcDbLine
 10
4612.000003226974
 20
4778.505493466702
 30
0.0
 11
4642.000003226974
 21
4808.505493466703
 31
0.0
1001
ACAD
1010
0.0
1020
0.0
1030
0.0
  0
LINE
  5
195AB
330
13E12
100
AcDbEntity
  8
YKK_C1
 48
1.5
100
AcDbLine
 10
4612.000003226974
 20
4863.358307209087
 30
0.0
 11
4642.000003226974
 21
4893.358307209087
 31
0.0
1001
ACAD
1010
0.0
1020
0.0
1030
0.0
  0
LINE
  5
195AC
330
13E12
100
AcDbEntity
  8
YKK_C1
 48
1.5
100
AcDbLine
 10
4612.000003226974
 20
4820.931900337895
 30
0.0
 11
4642.000003226974
 21
4850.931900337895
 31
0.0
1001
ACAD
1010
0.0
1020
0.0
1030
0.0
  0
LINE
  5
195AD
330
13E12
100
AcDbEntity
  8
YKK_C1
 48
1.5
100
AcDbLine
 10
4612.000003226974
 20
4905.784714080279
 30
0.0
 11
4642.000003226974
 21
4935.78471408028
 31
0.0
1001
ACAD
1010
0.0
1020
0.0
1030
0.0
  0
LINE
  5
195AE
330
13E12
100
AcDbEntity
  8
YKK_C1
 48
1.5
100
AcDbLine
 10
4612.000003226974
 20
4948.211120951473
 30
0.0
 11
4636.288864008093
 21
4972.49998173259
 31
0.0
1001
ACAD
1010
0.0
1020
0.0
1030
0.0
  0
LINE
  5
195AF
330
13E12
100
AcDbEntity
  8
YKK_C1
100
AcDbLine
 10
4648.000002893023
 20
4967.499986144103
 30
0.0
 11
4648.000002893023
 21
5014.464460649923
 31
0.0
  0
LINE
  5
195B0
330
13E12
100
AcDbEntity
  8
YKK_C1
100
AcDbLine
 10
4648.000002893023
 20
5014.464460649923
 30
0.0
 11
4598.500003532921
 21
5032.499986009376
 31
0.0
  0
LINE
  5
195B1
330
13E12
100
AcDbEntity
  8
YKK_C1
100
AcDbLine
 10
4598.500003532921
 20
5032.499986009376
 30
0.0
 11
4588.500002893023
 21
5032.499986144101
 31
0.0
  0
LINE
  5
195B2
330
13E12
100
AcDbEntity
  8
YKK_C1
100
AcDbLine
 10
4588.500002893023
 20
5032.499986144101
 30
0.0
 11
4588.500002893023
 21
4967.504956807981
 31
0.0
  0
LINE
  5
195B3
330
13E12
100
AcDbEntity
  8
YKK_C1
100
AcDbLine
 10
4588.500002893023
 20
4967.504956807981
 30
0.0
 11
4606.008608220771
 21
4967.504956807985
 31
0.0
  0
LINE
  5
195B4
330
13E12
100
AcDbEntity
  8
YKK_C1
100
AcDbLine
 10
4606.008608220771
 20
4967.504956807985
 30
0.0
 11
4606.008608220771
 21
5015.499986144101
 31
0.0
  0
LINE
  5
195B5
330
13E12
100
AcDbEntity
  8
YKK_C1
100
AcDbLine
 10
4588.500002893023
 20
5015.499986144101
 30
0.0
 11
4645.207118005768
 21
5015.499986144101
 31
0.0
  0
LINE
  5
195B6
330
13E12
100
AcDbEntity
  8
YKK_C1
100
AcDbLine
 10
4606.008608220771
 20
5001.199986144101
 30
0.0
 11
4648.000002893023
 21
5001.199986144101
 31
0.0
  0
LINE
  5
195B7
330
13E12
100
AcDbEntity
  8
YKK_C1
100
AcDbLine
 10
4620.800002893026
 20
4982.699986144101
 30
0.0
 11
4606.008608220771
 21
4982.699986144101
 31
0.0
  0
LINE
  5
195B8
330
13E12
100
AcDbEntity
  8
YKK_C1
100
AcDbLine
 10
4633.200002893027
 20
4982.699986144101
 30
0.0
 11
4648.000002893023
 21
4982.699986144101
 31
0.0
  0
LINE
  5
195B9
330
13E12
100
AcDbEntity
  8
YKK_C1
100
AcDbLine
 10
4448.000007772701
 20
4967.504956694406
 30
0.0
 11
4445.500007341623
 21
4967.504956694406
 31
0.0
  0
LINE
  5
195BA
330
13E12
100
AcDbEntity
  8
YKK_C1
100
AcDbLine
 10
4445.500007341623
 20
4967.504956694406
 30
0.0
 11
4445.500007341623
 21
2934.499980354884
 31
0.0
  0
LINE
  5
195BB
330
13E12
100
AcDbEntity
  8
YKK_C1
100
AcDbLine
 10
4601.500007341623
 20
2934.499980354886
 30
0.0
 11
4601.500007341623
 21
4967.499989303001
 31
0.0
  0
LINE
  5
195BC
330
13E12
100
AcDbEntity
  8
YKK_N1
  6
Continuous
100
AcDbLine
 10
5117.999999753294
 20
4880.897459621558
 30
0.0
 11
5167.999999753295
 21
4967.500000000002
 31
0.0
  0
LINE
  5
195BD
330
13E12
100
AcDbEntity
  8
YKK_N1
  6
Continuous
100
AcDbLine
 10
5117.999999753294
 20
4880.897459621558
 30
0.0
 11
5217.999999753295
 21
4880.897459621558
 31
0.0
  0
LINE
  5
195BE
330
13E12
100
AcDbEntity
  8
YKK_N1
  6
Continuous
100
AcDbLine
 10
5167.999999753295
 20
4967.500000000002
 30
0.0
 11
5217.999999753295
 21
4880.897459621558
 31
0.0
  0
LINE
  5
195BF
330
13E12
100
AcDbEntity
  8
YKK_N1
  6
Continuous
100
AcDbLine
 10
4842.999999753295
 20
4967.500000000002
 30
0.0
 11
5167.999999753295
 21
4967.500000000002
 31
0.0
  0
LINE
  5
195C0
330
13E12
100
AcDbEntity
  8
YKK_N1
  6
Continuous
100
AcDbLine
 10
5167.999999753295
 20
2934.500000000003
 30
0.0
 11
5217.999999753295
 21
3021.102540378445
 31
0.0
  0
LINE
  5
195C1
330
13E12
100
AcDbEntity
  8
YKK_N1
  6
Continuous
100
AcDbLine
 10
5117.999999753294
 20
3021.102540378445
 30
0.0
 11
5217.999999753295
 21
3021.102540378445
 31
0.0
  0
LINE
  5
195C2
330
13E12
100
AcDbEntity
  8
YKK_N1
  6
Continuous
100
AcDbLine
 10
5117.999999753294
 20
3021.102540378445
 30
0.0
 11
5167.999999753295
 21
2934.500000000001
 31
0.0
  0
LINE
  5
195C3
330
13E12
100
AcDbEntity
  8
YKK_N1
  6
Continuous
100
AcDbLine
 10
4842.999999753295
 20
2934.500000000003
 30
0.0
 11
5167.999999753295
 21
2934.500000000003
 31
0.0
  0
LINE
  5
195C4
330
13E12
100
AcDbEntity
  8
YKK_N1
  6
Continuous
100
AcDbLine
 10
5167.999999753295
 20
4967.500000000002
 30
0.0
 11
5167.999999753295
 21
2934.500000000003
 31
0.0
  0
TEXT
  5
195C5
330
13E12
100
AcDbEntity
  8
YKK_N1
100
AcDbText
 10
5155.999999753294
 20
3785.999950381472
 30
0.0
 40
60.0
  1
H=2033
 50
90.00000000000003
 72
     4
 11
5125.999999753294
 21
3950.999950381472
 31
0.0
100
AcDbText
1001
YTEXT_INFOMATION
1002
{
1000
H=2033
1002
}
1000
MC
1010
-165.0
1020
-29.99999999999988
1030
0.0
1040
60.0
1070
     0
1002
{
1000
TEXTOBJECTS
1000
195C5
1002
}
  0
CIRCLE
  5
195C6
330
13E12
100
AcDbEntity
  8
YKK_N1
  6
Continuous
100
AcDbCircle
 10
4967.999999753295
 20
2943.500000000003
 30
0.0
 40
5.0
  0
LINE
  5
195C7
330
13E12
100
AcDbEntity
  8
YKK_N1
  6
Continuous
100
AcDbLine
 10
4842.999999753295
 20
2943.500000000003
 30
0.0
 11
4967.999999753295
 21
2943.500000000003
 31
0.0
  0
LINE
  5
195C8
330
13E12
100
AcDbEntity
  8
YKK_N1
100
AcDbLine
 10
4967.999999753295
 20
2943.500000000003
 30
0.0
 11
4967.999999753295
 21
2934.500000000003
 31
0.0
  0
CIRCLE
  5
195C9
330
13E12
100
AcDbEntity
  8
YKK_N1
  6
Continuous
100
AcDbCircle
 10
4967.999999753295
 20
2934.500000000003
 30
0.0
 40
5.0
  0
TEXT
  5
195CA
330
13E12
100
AcDbEntity
  8
YKK_N1
100
AcDbText
 10
4955.999999753294
 20
2953.803524958466
 30
0.0
 40
60.0
  1
9
 50
90.00000000000003
 72
     4
 11
4925.999999753294
 21
2973.803524958466
 31
0.0
100
AcDbText
1001
YTEXT_INFOMATION
1002
{
1000
9
1002
}
1000
MC
1010
-20.00000000000004
1020
-29.99999999999997
1030
0.0
1040
60.0
1070
     0
1002
{
1000
TEXTOBJECTS
1000
195CA
1002
}
  0
LINE
  5
195CB
330
13E12
100
AcDbEntity
  8
YKK_N1
  6
Continuous
100
AcDbLine
 10
4842.999999753295
 20
5032.500000000003
 30
0.0
 11
5167.999999753295
 21
5032.500000000003
 31
0.0
  0
LINE
  5
195CC
330
13E12
100
AcDbEntity
  8
YKK_N1
100
AcDbLine
 10
5167.999999753295
 20
4967.500000000002
 30
0.0
 11
5167.999999753295
 21
5032.500000000003
 31
0.0
  0
CIRCLE
  5
195CD
330
13E12
100
AcDbEntity
  8
YKK_N1
  6
Continuous
100
AcDbCircle
 10
5167.999999753295
 20
5032.500000000003
 30
0.0
 40
5.0
  0
TEXT
  5
195CE
330
13E12
100
AcDbEntity
  8
YKK_N1
100
AcDbText
 10
5155.999999753294
 20
5058.198161969408
 30
0.0
 40
60.0
  1
65
 50
90.00000000000003
 72
     4
 11
5125.999999753294
 21
5108.198161969408
 31
0.0
100
AcDbText
1001
YTEXT_INFOMATION
1002
{
1000
65
1002
}
1000
MC
1010
-50.00000000000002
1020
-29.99999999999996
1030
0.0
1040
60.0
1070
     0
1002
{
1000
TEXTOBJECTS
1000
195CE
1002
}
  0
CIRCLE
  5
195CF
330
13E12
100
AcDbEntity
  8
YKK_N1
  6
Continuous
100
AcDbCircle
 10
4612.000003226982
 20
4213.418561801285
 30
0.0
 40
5.0
  0
CIRCLE
  5
195D0
330
13E12
100
AcDbEntity
  8
YKK_N1
  6
Continuous
100
AcDbCircle
 10
4642.000003226981
 20
4213.418561801285
 30
0.0
 40
5.0
  0
CIRCLE
  5
195D1
330
13E12
100
AcDbEntity
  8
YKK_N1
  6
Continuous
100
AcDbCircle
 10
4601.499999712229
 20
4013.418561801286
 30
0.0
 40
5.0
  0
LINE
  5
195D2
330
13E12
100
AcDbEntity
  8
YKK_N1
  6
Continuous
100
AcDbLine
 10
4612.000003226982
 20
4213.418561801285
 30
0.0
 11
4642.000003226981
 21
4213.418561801285
 31
0.0
  0
CIRCLE
  5
195D3
330
13E12
100
AcDbEntity
  8
YKK_N1
  6
Continuous
100
AcDbCircle
 10
4445.500007341623
 20
4013.418561801286
 30
0.0
 40
5.0
  0
LINE
  5
195D4
330
13E12
100
AcDbEntity
  8
YKK_N1
  6
Continuous
100
AcDbLine
 10
4445.500007341623
 20
4013.418561801286
 30
0.0
 11
4601.499999712229
 21
4013.418561801286
 31
0.0
  0
TEXT
  5
195D5
330
13E12
100
AcDbEntity
  8
YKK_N1
  6
Continuous
100
AcDbText
 10
4490.900562256385
 20
4225.418561801285
 30
0.0
 40
60.0
  1
30
 72
     4
 11
4535.900562256386
 21
4255.418561801285
 31
0.0
100
AcDbText
  0
TEXT
  5
195D6
330
13E12
100
AcDbEntity
  8
YKK_N1
100
AcDbText
 10
4262.790729734865
 20
4025.418561801286
 30
0.0
 40
60.0
  1
156
 72
     4
 11
4332.790729734864
 21
4055.418561801285
 31
0.0
100
AcDbText
1001
YTEXT_INFOMATION
1002
{
1000
156
1002
}
1000
MC
1010
-70.0
1020
-29.99999999999999
1030
0.0
1040
60.0
1070
     0
1002
{
1000
TEXTOBJECTS
1000
195D6
1002
}
  0
CIRCLE
  5
195D7
330
13E12
100
AcDbEntity
  8
YKK_N1
  6
Continuous
100
AcDbCircle
 10
4648.000002680484
 20
5391.106362413077
 30
0.0
 40
5.0
  0
LINE
  5
195D8
330
13E12
100
AcDbEntity
  8
YKK_N1
  6
Continuous
100
AcDbLine
 10
4648.000002680484
 20
5391.106362413077
 30
0.0
 11
4648.000002680484
 21
5141.106362413077
 31
0.0
  0
CIRCLE
  5
195D9
330
13E12
100
AcDbEntity
  8
YKK_N1
  6
Continuous
100
AcDbCircle
 10
4588.500002680484
 20
5391.106362413077
 30
0.0
 40
5.0
  0
LINE
  5
195DA
330
13E12
100
AcDbEntity
  8
YKK_N1
  6
Continuous
100
AcDbLine
 10
4588.500002680484
 20
5391.106362413077
 30
0.0
 11
4588.500002680484
 21
5141.106362413077
 31
0.0
  0
LINE
  5
195DB
330
13E12
100
AcDbEntity
  8
YKK_N1
  6
Continuous
100
AcDbLine
 10
4588.500002680484
 20
5391.106362413077
 30
0.0
 11
4648.000002680484
 21
5391.106362413077
 31
0.0
  0
TEXT
  5
195DC
330
13E12
100
AcDbEntity
  8
YKK_N1
100
AcDbText
 10
4522.038937189768
 20
5403.106362413076
 30
0.0
 40
60.0
  1
59.5
 72
     4
 11
4612.038937189769
 21
5433.106362413076
 31
0.0
100
AcDbText
1001
YTEXT_INFOMATION
1002
{
1000
59.5
1002
}
1000
MC
1010
-90.0
1020
-29.99999999999998
1030
0.0
1040
60.0
1070
     0
1002
{
1000
TEXTOBJECTS
1000
195DC
1002
}
  0
LINE
  5
195DD
330
13E12
100
AcDbEntity
  8
YKK_N1
  6
Continuous
100
AcDbLine
 10
4588.500002680484
 20
5266.106362413077
 30
0.0
 11
4627.000002680484
 21
5266.106362413077
 31
0.0
  0
LINE
  5
195DE
330
13E12
100
AcDbEntity
  8
YKK_N1
  6
Continuous
100
AcDbLine
 10
4627.000002680484
 20
5266.106362413077
 30
0.0
 11
4627.000002680484
 21
5141.106362413077
 31
0.0
  0
CIRCLE
  5
195DF
330
13E12
100
AcDbEntity
  8
YKK_N1
  6
Continuous
100
AcDbCircle
 10
4588.500002680484
 20
5266.106362413077
 30
0.0
 40
5.0
  0
CIRCLE
  5
195E0
330
13E12
100
AcDbEntity
  8
YKK_N1
  6
Continuous
100
AcDbCircle
 10
4627.000002680484
 20
5266.106362413077
 30
0.0
 40
5.0
  0
TEXT
  5
195E1
330
13E12
100
AcDbEntity
  8
YKK_N1
100
AcDbText
 10
4393.130322192956
 20
5276.991047572778
 30
0.0
 40
60.0
  1
38.5
 72
     4
 11
4483.130322192955
 21
5306.991047572777
 31
0.0
100
AcDbText
1001
YTEXT_INFOMATION
1002
{
1000
38.5
1002
}
1000
MC
1010
-90.0
1020
-29.99999999999998
1030
0.0
1040
60.0
1070
     0
1002
{
1000
TEXTOBJECTS
1000
195E1
1002
}
  0
LINE
  5
195E2
330
13E12
100
AcDbEntity
  8
YKK_Z1
  6
Continuous
 48
1.5
100
AcDbLine
 10
3504.235771855601
 20
3500.7000006479
 30
0.0
 11
2680.311833974484
 21
3500.7000006479
 31
0.0
  0
LINE
  5
195E3
330
13E12
100
AcDbEntity
  8
YKK_Z1
  6
Continuous
 48
1.5
100
AcDbLine
 10
2680.311833974484
 20
3395.700000323952
 30
0.0
 11
2680.311833974484
 21
3500.7000006479
 31
0.0
  0
LINE
  5
195E4
330
13E12
100
AcDbEntity
  8
YKK_Z1
  6
Continuous
 48
1.5
100
AcDbLine
 10
2666.811833974483
 20
3500.700000323952
 30
0.0
 11
3504.235771855601
 21
3500.700000323952
 31
0.0
  0
LINE
  5
195E5
330
13E12
100
AcDbEntity
  8
YKK_Z1
  6
Continuous
 48
1.5
100
AcDbLine
 10
2666.811834340246
 20
3513.200000647901
 30
0.0
 11
3504.235771855601
 21
3513.200000647901
 31
0.0
  0
LINE
  5
195E6
330
13E12
100
AcDbEntity
  8
YKK_Z1
  6
Continuous
 48
1.5
100
AcDbLine
 10
2680.311833974484
 20
3395.700000323952
 30
0.0
 11
3504.235771855601
 21
3395.700000323952
 31
0.0
  0
LINE
  5
195E7
330
13E12
100
AcDbEntity
  8
YKK_Z1
  6
Continuous
 48
1.5
100
AcDbLine
 10
2666.811834340246
 20
3395.700000000003
 30
0.0
 11
3504.235771855601
 21
3395.700000000003
 31
0.0
  0
LINE
  5
195E8
330
13E12
100
AcDbEntity
  8
YKK_Z1
  6
Continuous
 48
1.5
100
AcDbLine
 10
3504.235771855601
 20
3383.200000000003
 30
0.0
 11
2666.811834340246
 21
3383.200000000003
 31
0.0
  0
LINE
  5
195E9
330
13E12
100
AcDbEntity
  8
YKK_Z1
  6
Continuous
 48
1.5
100
AcDbLine
 10
2785.320346628352
 20
3500.7000006479
 30
0.0
 11
2680.311833974484
 21
3395.699999676053
 31
0.0
  0
LINE
  5
195EA
330
13E12
100
AcDbEntity
  8
YKK_Z1
  6
Continuous
 48
1.5
100
AcDbLine
 10
2680.311833974484
 20
3500.700000323953
 30
0.0
 11
2785.30332298248
 21
3395.700000323953
 31
0.0
  0
LINE
  5
195EB
330
13E12
100
AcDbEntity
  8
YKK_B1
 48
1.5
100
AcDbLine
 10
2642.81183475841
 20
3506.619731340349
 30
0.0
 11
2662.392103831852
 21
3526.200000413793
 31
0.0
1001
ACAD
1010
0.0
1020
0.0
1030
0.0
  0
LINE
  5
195EC
330
13E12
100
AcDbEntity
  8
YKK_B1
 48
1.5
100
AcDbLine
 10
2642.81183475841
 20
3471.264392281022
 30
0.0
 11
2666.81183456743
 21
3495.26439209004
 31
0.0
1001
ACAD
1010
0.0
1020
0.0
1030
0.0
  0
LINE
  5
195ED
330
13E12
100
AcDbEntity
  8
YKK_B1
 48
1.5
100
AcDbLine
 10
2642.81183475841
 20
3435.909053221695
 30
0.0
 11
2666.81183456743
 21
3459.909053030712
 31
0.0
1001
ACAD
1010
0.0
1020
0.0
1030
0.0
  0
LINE
  5
195EE
330
13E12
100
AcDbEntity
  8
YKK_B1
 48
1.5
100
AcDbLine
 10
2642.81183475841
 20
3400.553714162366
 30
0.0
 11
2666.81183456743
 21
3424.553713971385
 31
0.0
1001
ACAD
1010
0.0
1020
0.0
1030
0.0
  0
LINE
  5
195EF
330
13E12
100
AcDbEntity
  8
YKK_B1
 48
1.5
100
AcDbLine
 10
2647.813460057223
 20
3370.20000040185
 30
0.0
 11
2666.81183456743
 21
3389.198374912057
 31
0.0
1001
ACAD
1010
0.0
1020
0.0
1030
0.0
  0
LINE
  5
195F0
330
13E12
100
AcDbEntity
  8
YKK_B1
 48
1.5
100
AcDbLine
 10
1038.821864630648
 20
3509.797068687746
 30
0.0
 11
1055.224796356691
 21
3526.200000413793
 31
0.0
1001
ACAD
1010
0.0
1020
0.0
1030
0.0
  0
LINE
  5
195F1
330
13E12
100
AcDbEntity
  8
YKK_B1
 48
1.5
100
AcDbLine
 10
1038.821864630648
 20
3474.441729628419
 30
0.0
 11
1062.821864439669
 21
3498.441729437438
 31
0.0
1001
ACAD
1010
0.0
1020
0.0
1030
0.0
  0
LINE
  5
195F2
330
13E12
100
AcDbEntity
  8
YKK_B1
 48
1.5
100
AcDbLine
 10
1038.821864630648
 20
3439.086390569091
 30
0.0
 11
1062.821864439669
 21
3463.086390378111
 31
0.0
1001
ACAD
1010
0.0
1020
0.0
1030
0.0
  0
LINE
  5
195F3
330
13E12
100
AcDbEntity
  8
YKK_B1
 48
1.5
100
AcDbLine
 10
1038.821864630648
 20
3403.731051509764
 30
0.0
 11
1062.821864439669
 21
3427.731051318783
 31
0.0
1001
ACAD
1010
0.0
1020
0.0
1030
0.0
  0
LINE
  5
195F4
330
13E12
100
AcDbEntity
  8
YKK_B1
 48
1.5
100
AcDbLine
 10
1040.646152513727
 20
3370.200000333519
 30
0.0
 11
1062.821864439669
 21
3392.375712259455
 31
0.0
1001
ACAD
1010
0.0
1020
0.0
1030
0.0
  0
LINE
  5
195F5
330
13E12
100
AcDbEntity
  8
YKK_B1
  6
ByBlock
 48
0.5
370
    -2
100
AcDbLine
 10
1038.821864630648
 20
3526.200000316261
 30
0.0
 11
1038.821864630648
 21
3370.20000031626
 31
0.0
  0
LINE
  5
195F6
330
13E12
100
AcDbEntity
  8
YKK_B1
  6
ByBlock
 48
0.5
370
    -2
100
AcDbLine
 10
1038.821864630648
 20
3370.20000031626
 30
0.0
 11
1060.821864630648
 21
3370.20000031626
 31
0.0
  0
ARC
  5
195F7
330
13E12
100
AcDbEntity
  8
YKK_B1
  6
ByBlock
 48
0.5
370
    -2
100
AcDbCircle
 10
1060.821864303856
 20
3372.200000643056
 30
0.0
 40
2.000000326795001
100
AcDbArc
 50
270.0000093619115
 51
359.9999906379843
  0
LINE
  5
195F8
330
13E12
100
AcDbEntity
  8
YKK_B1
  6
ByBlock
 48
0.5
370
    -2
100
AcDbLine
 10
1062.821864630648
 20
3372.200000316261
 30
0.0
 11
1062.821864630648
 21
3524.20000031626
 31
0.0
  0
ARC
  5
195F9
330
13E12
100
AcDbEntity
  8
YKK_B1
  6
ByBlock
 48
0.5
370
    -2
100
AcDbCircle
 10
1060.821864303856
 20
3524.199999989465
 30
0.0
 40
2.000000326795001
100
AcDbArc
 50
0.0000093619636209
 51
89.99999063808848
  0
LINE
  5
195FA
330
13E12
100
AcDbEntity
  8
YKK_B1
  6
ByBlock
 48
0.5
370
    -2
100
AcDbLine
 10
1060.821864630648
 20
3526.200000316261
 30
0.0
 11
1038.821864630648
 21
3526.200000316261
 31
0.0
  0
LINE
  5
195FB
330
13E12
100
AcDbEntity
  8
YKK_Z1
100
AcDbLine
 10
2666.811834340246
 20
3500.700000000003
 30
0.0
 11
2666.811834340246
 21
3395.700000000003
 31
0.0
  0
LINE
  5
195FC
330
13E12
100
AcDbEntity
  8
YKK_Z1
100
AcDbLine
 10
2666.811834340246
 20
3395.700000000003
 30
0.0
 11
2680.311834340246
 21
3395.700000000003
 31
0.0
  0
LINE
  5
195FD
330
13E12
100
AcDbEntity
  8
YKK_Z1
100
AcDbLine
 10
2680.311834340246
 20
3395.700000000003
 30
0.0
 11
2680.311834340246
 21
3500.700000000003
 31
0.0
  0
LINE
  5
195FE
330
13E12
100
AcDbEntity
  8
YKK_Z1
100
AcDbLine
 10
2680.311834340246
 20
3500.700000000003
 30
0.0
 11
2666.811834340246
 21
3500.700000000003
 31
0.0
  0
LINE
  5
195FF
330
13E12
100
AcDbEntity
  8
YKK_Z1
100
AcDbLine
 10
2666.811834340246
 20
3395.700000000003
 30
0.0
 11
2680.311834340246
 21
3500.700000000003
 31
0.0
  0
LINE
  5
19600
330
13E12
100
AcDbEntity
  8
YKK_Z1
  6
Continuous
 48
1.5
100
AcDbLine
 10
201.3168672431639
 20
3500.700000647845
 30
0.0
 11
1025.321865223588
 21
3500.700000647888
 31
0.0
  0
LINE
  5
19601
330
13E12
100
AcDbEntity
  8
YKK_Z1
  6
Continuous
 48
1.5
100
AcDbLine
 10
1025.321865223595
 20
3395.70000032394
 30
0.0
 11
1025.321865223588
 21
3500.700000647888
 31
0.0
  0
LINE
  5
19602
330
13E12
100
AcDbEntity
  8
YKK_Z1
  6
Continuous
 48
1.5
100
AcDbLine
 10
1038.821865223588
 20
3500.70000032394
 30
0.0
 11
201.3168672431639
 21
3500.700000323877
 31
0.0
  0
LINE
  5
19603
330
13E12
100
AcDbEntity
  8
YKK_Z1
  6
Continuous
 48
1.5
100
AcDbLine
 10
1038.821864857818
 20
3513.20000064789
 30
0.0
 11
201.3168672431639
 21
3513.200000647826
 31
0.0
  0
LINE
  5
19604
330
13E12
100
AcDbEntity
  8
YKK_Z1
  6
Continuous
 48
1.5
100
AcDbLine
 10
1025.321865223595
 20
3395.70000032394
 30
0.0
 11
201.3168672431639
 21
3395.700000323874
 31
0.0
  0
LINE
  5
19605
330
13E12
100
AcDbEntity
  8
YKK_Z1
  6
Continuous
 48
1.5
100
AcDbLine
 10
1038.821864857833
 20
3395.699999999991
 30
0.0
 11
201.3168672431639
 21
3395.699999999927
 31
0.0
  0
LINE
  5
19606
330
13E12
100
AcDbEntity
  8
YKK_Z1
  6
Continuous
 48
1.5
100
AcDbLine
 10
201.3168672431639
 20
3383.199999999927
 30
0.0
 11
1038.821864857833
 21
3383.199999999991
 31
0.0
  0
LINE
  5
19607
330
13E12
100
AcDbEntity
  8
YKK_Z1
  6
Continuous
 48
1.5
100
AcDbLine
 10
920.3133525697195
 20
3500.700000647882
 30
0.0
 11
1025.321865223595
 21
3395.699999676041
 31
0.0
  0
LINE
  5
19608
330
13E12
100
AcDbEntity
  8
YKK_Z1
  6
Continuous
 48
1.5
100
AcDbLine
 10
1025.321865223595
 20
3500.70000032394
 30
0.0
 11
920.3303758916735
 21
3395.699999999982
 31
0.0
  0
LINE
  5
19609
330
13E12
100
AcDbEntity
  8
YKK_Z1
100
AcDbLine
 10
1038.821864857818
 20
3500.699999999991
 30
0.0
 11
1038.821864857833
 21
3395.699999999991
 31
0.0
  0
LINE
  5
1960A
330
13E12
100
AcDbEntity
  8
YKK_Z1
100
AcDbLine
 10
1038.821864857833
 20
3395.699999999991
 30
0.0
 11
1025.321864857833
 21
3395.69999999999
 31
0.0
  0
LINE
  5
1960B
330
13E12
100
AcDbEntity
  8
YKK_Z1
100
AcDbLine
 10
1025.321864857833
 20
3395.69999999999
 30
0.0
 11
1025.321864857818
 21
3500.69999999999
 31
0.0
  0
LINE
  5
1960C
330
13E12
100
AcDbEntity
  8
YKK_Z1
100
AcDbLine
 10
1025.321864857818
 20
3500.69999999999
 30
0.0
 11
1038.821864857818
 21
3500.699999999991
 31
0.0
  0
LINE
  5
1960D
330
13E12
100
AcDbEntity
  8
YKK_Z1
100
AcDbLine
 10
1038.821864857833
 20
3395.699999999991
 30
0.0
 11
1025.321864857818
 21
3500.69999999999
 31
0.0
  0
LINE
  5
1960E
330
13E12
100
AcDbEntity
  8
YKK_B1
  6
ByBlock
 48
0.5
370
    -2
100
AcDbLine
 10
2666.81183456743
 20
3526.200000316261
 30
0.0
 11
2666.81183456743
 21
3370.20000031626
 31
0.0
  0
LINE
  5
1960F
330
13E12
100
AcDbEntity
  8
YKK_B1
  6
ByBlock
 48
0.5
370
    -2
100
AcDbLine
 10
2666.81183456743
 20
3370.20000031626
 30
0.0
 11
2644.81183456743
 21
3370.20000031626
 31
0.0
  0
ARC
  5
19610
330
13E12
100
AcDbEntity
  8
YKK_B1
  6
ByBlock
 48
0.5
370
    -2
100
AcDbCircle
 10
2644.811834894223
 20
3372.200000643056
 30
0.0
 40
2.000000326795001
100
AcDbArc
 50
180.0000093619636
 51
269.9999906380885
  0
LINE
  5
19611
330
13E12
100
AcDbEntity
  8
YKK_B1
  6
ByBlock
 48
0.5
370
    -2
100
AcDbLine
 10
2642.81183456743
 20
3372.200000316261
 30
0.0
 11
2642.81183456743
 21
3524.20000031626
 31
0.0
  0
ARC
  5
19612
330
13E12
100
AcDbEntity
  8
YKK_B1
  6
ByBlock
 48
0.5
370
    -2
100
AcDbCircle
 10
2644.811834894223
 20
3524.199999989465
 30
0.0
 40
2.000000326795001
100
AcDbArc
 50
90.00000936191151
 51
179.9999906379842
  0
LINE
  5
19613
330
13E12
100
AcDbEntity
  8
YKK_B1
  6
ByBlock
 48
0.5
370
    -2
100
AcDbLine
 10
2644.81183456743
 20
3526.200000316261
 30
0.0
 11
2666.81183456743
 21
3526.200000316261
 31
0.0
  0
LINE
  5
19614
330
13E12
100
AcDbEntity
  8
YKK_Z1
  6
Continuous
 48
1.5
100
AcDbLine
 10
920.3303758916735
 20
3395.70000064788
 30
0.0
 11
920.3303758916662
 21
3500.700000971829
 31
0.0
  0
LINE
  5
19615
330
13E12
100
AcDbEntity
  8
YKK_Z1
100
AcDbLine
 10
920.3303755259112
 20
3395.700000323931
 30
0.0
 11
920.3303755258966
 21
3500.700000323931
 31
0.0
  0
LINE
  5
19616
330
13E12
100
AcDbEntity
  8
YKK_Z1
  6
Continuous
 48
1.5
100
AcDbLine
 10
2785.303322658452
 20
3395.700000000003
 30
0.0
 11
2785.303322658452
 21
3500.700000323951
 31
0.0
  0
LINE
  5
19617
330
13E12
100
AcDbEntity
  8
YKK_Z1
100
AcDbLine
 10
2785.303323024222
 20
3395.699999676053
 30
0.0
 11
2785.303323024222
 21
3500.699999676053
 31
0.0
  0
LINE
  5
19618
330
13E12
100
AcDbEntity
  8
YKK_B1
  6
Continuous
 48
0.5
370
    13
100
AcDbLine
 10
215.8127558474662
 20
3328.700000324001
 30
0.0
 11
242.8196081736605
 21
3328.700000324001
 31
0.0
  0
LINE
  5
19619
330
13E12
100
AcDbEntity
  8
YKK_B1
  6
Continuous
 48
0.5
370
    13
100
AcDbLine
 10
242.8196081736605
 20
3360.700000324001
 30
0.0
 11
215.8127558474662
 21
3360.700000324001
 31
0.0
  0
ARC
  5
1961A
330
13E12
100
AcDbEntity
  8
YKK_B1
  6
Continuous
 48
0.5
370
    13
100
AcDbCircle
 10
215.8110743878642
 20
3357.705793179301
 30
0.0
 40
2.994207616799998
100
AcDbArc
 50
89.96782436117603
 51
180.0321756387717
  0
ARC
  5
1961B
330
13E12
100
AcDbEntity
  8
YKK_B1
  6
Continuous
 48
0.5
370
    13
100
AcDbCircle
 10
215.8110743878642
 20
3331.694207468601
 30
0.0
 40
2.994207616799998
100
AcDbArc
 50
179.9678243611761
 51
270.032175638824
  0
ARC
  5
1961C
330
13E12
100
AcDbEntity
  8
YKK_B1
  6
Continuous
 48
0.5
370
    13
100
AcDbCircle
 10
242.8207242929639
 20
3330.696143274201
 30
0.0
 40
1.9961432623
100
AcDbArc
 50
269.9679637409963
 51
0.0320362407129765
  0
ARC
  5
1961D
330
13E12
100
AcDbEntity
  8
YKK_B1
  6
Continuous
 48
0.5
370
    13
100
AcDbCircle
 10
242.8207242929639
 20
3358.703857373701
 30
0.0
 40
1.9961432623
100
AcDbArc
 50
359.9679637591307
 51
90.03203626067122
  0
LINE
  5
1961E
330
13E12
100
AcDbEntity
  8
YKK_B1
  6
Continuous
 48
0.5
370
    13
100
AcDbLine
 10
212.8168672431639
 20
3357.704111719701
 30
0.0
 11
212.8168672431639
 21
3331.695888928201
 31
0.0
  0
LINE
  5
1961F
330
13E12
100
AcDbEntity
  8
YKK_B1
  6
Continuous
 48
0.5
370
    13
100
AcDbLine
 10
244.8168672431639
 20
3330.697259393455
 30
0.0
 11
244.8168672431639
 21
3358.702741254401
 31
0.0
  0
LINE
  5
19620
330
13E12
100
AcDbEntity
  8
YKK_B1
  6
Continuous
 48
0.5
370
    13
100
AcDbLine
 10
248.8168672431639
 20
3356.700000323951
 30
0.0
 11
244.8168672431639
 21
3356.700000323951
 31
0.0
  0
LINE
  5
19621
330
13E12
100
AcDbEntity
  8
YKK_B1
  6
Continuous
 48
0.5
370
    13
100
AcDbLine
 10
244.8168672431639
 20
3332.700000323951
 30
0.0
 11
248.8168672431639
 21
3332.700000323951
 31
0.0
  0
LINE
  5
19622
330
13E12
100
AcDbEntity
  8
YKK_B1
100
AcDbLine
 10
216.8168672431639
 20
3383.200000000004
 30
0.0
 11
216.8168672431639
 21
3322.500000000003
 31
0.0
  0
LINE
  5
19623
330
13E12
100
AcDbEntity
  8
YKK_B1
100
AcDbLine
 10
216.8168672431639
 20
3322.500000000003
 30
0.0
 11
211.3168672431639
 21
3322.500000000003
 31
0.0
  0
LINE
  5
19624
330
13E12
100
AcDbEntity
  8
YKK_B1
100
AcDbLine
 10
211.3168672431639
 20
3322.500000000003
 30
0.0
 11
211.3168672431639
 21
3383.200000000004
 31
0.0
  0
LINE
  5
19625
330
13E12
100
AcDbEntity
  8
YKK_B1
100
AcDbLine
 10
248.8168672431639
 20
3356.703806735253
 30
0.0
 11
248.8168672431639
 21
3332.700000323951
 31
0.0
  0
LINE
  5
19626
330
13E12
100
AcDbEntity
  8
YKK_B1
  6
Continuous
 48
0.5
370
    13
100
AcDbLine
 10
3489.820921028921
 20
3328.700000324001
 30
0.0
 11
3462.814068702719
 21
3328.700000324001
 31
0.0
  0
LINE
  5
19627
330
13E12
100
AcDbEntity
  8
YKK_B1
  6
Continuous
 48
0.5
370
    13
100
AcDbLine
 10
3462.814068702719
 20
3360.700000324001
 30
0.0
 11
3489.820921028921
 21
3360.700000324001
 31
0.0
  0
ARC
  5
19628
330
13E12
100
AcDbEntity
  8
YKK_B1
  6
Continuous
 48
0.5
370
    13
100
AcDbCircle
 10
3489.822602488516
 20
3357.705793179301
 30
0.0
 40
2.994207616799998
100
AcDbArc
 50
359.9678243612283
 51
90.03217563882397
  0
ARC
  5
19629
330
13E12
100
AcDbEntity
  8
YKK_B1
  6
Continuous
 48
0.5
370
    13
100
AcDbCircle
 10
3489.822602488516
 20
3331.694207468601
 30
0.0
 40
2.994207616799998
100
AcDbArc
 50
269.9678243611761
 51
0.032175638823853
  0
ARC
  5
1962A
330
13E12
100
AcDbEntity
  8
YKK_B1
  6
Continuous
 48
0.5
370
    13
100
AcDbCircle
 10
3462.812952583416
 20
3330.696143274201
 30
0.0
 40
1.9961432623
100
AcDbArc
 50
179.967963759287
 51
270.0320362590037
  0
ARC
  5
1962B
330
13E12
100
AcDbEntity
  8
YKK_B1
  6
Continuous
 48
0.5
370
    13
100
AcDbCircle
 10
3462.812952583416
 20
3358.703857373701
 30
0.0
 40
1.9961432623
100
AcDbArc
 50
89.96796373974566
 51
180.0320362408693
  0
LINE
  5
1962C
330
13E12
100
AcDbEntity
  8
YKK_B1
  6
Continuous
 48
0.5
370
    13
100
AcDbLine
 10
3492.816809633216
 20
3357.704111719701
 30
0.0
 11
3492.816809633216
 21
3331.695888928201
 31
0.0
  0
LINE
  5
1962D
330
13E12
100
AcDbEntity
  8
YKK_B1
  6
Continuous
 48
0.5
370
    13
100
AcDbLine
 10
3460.816809633216
 20
3330.697259393455
 30
0.0
 11
3460.816809633216
 21
3358.702741254401
 31
0.0
  0
LINE
  5
1962E
330
13E12
100
AcDbEntity
  8
YKK_B1
  6
Continuous
 48
0.5
370
    13
100
AcDbLine
 10
3456.816809633216
 20
3356.700000323951
 30
0.0
 11
3460.816809633216
 21
3356.700000323951
 31
0.0
  0
LINE
  5
1962F
330
13E12
100
AcDbEntity
  8
YKK_B1
  6
Continuous
 48
0.5
370
    13
100
AcDbLine
 10
3460.816809633216
 20
3332.700000323951
 30
0.0
 11
3456.816809633216
 21
3332.700000323951
 31
0.0
  0
LINE
  5
19630
330
13E12
100
AcDbEntity
  8
YKK_B1
100
AcDbLine
 10
3488.816809633216
 20
3383.200000000004
 30
0.0
 11
3488.816809633216
 21
3322.500000000003
 31
0.0
  0
LINE
  5
19631
330
13E12
100
AcDbEntity
  8
YKK_B1
100
AcDbLine
 10
3488.816809633216
 20
3322.500000000003
 30
0.0
 11
3494.316809633216
 21
3322.500000000003
 31
0.0
  0
LINE
  5
19632
330
13E12
100
AcDbEntity
  8
YKK_B1
100
AcDbLine
 10
3494.316809633216
 20
3322.500000000003
 30
0.0
 11
3494.316809633216
 21
3383.200000000004
 31
0.0
  0
LINE
  5
19633
330
13E12
100
AcDbEntity
  8
YKK_B1
100
AcDbLine
 10
3456.816809633216
 20
3356.703806735253
 30
0.0
 11
3456.816809633216
 21
3332.700000323951
 31
0.0
  0
LINE
  5
19634
330
13E12
100
AcDbEntity
  8
YKK_B1
100
AcDbLine
 10
216.8168672431639
 20
3323.700000000002
 30
0.0
 11
3488.816809633216
 21
3323.700000000002
 31
0.0
  0
LINE
  5
19635
330
13E12
100
AcDbEntity
  8
YKK_B1
 48
1.5
100
AcDbLine
 10
1784.236603064535
 20
3329.700000323977
 30
0.0
 11
1814.236603064543
 21
3359.700000323982
 31
0.0
1001
ACAD
1010
0.0
1020
0.0
1030
0.0
  0
LINE
  5
19636
330
13E12
100
AcDbEntity
  8
YKK_B1
 48
1.5
100
AcDbLine
 10
1826.663009935735
 20
3329.700000323985
 30
0.0
 11
1851.325687546807
 21
3354.362677935055
 31
0.0
1001
ACAD
1010
0.0
1020
0.0
1030
0.0
  0
LINE
  5
19637
330
13E12
100
AcDbEntity
  8
YKK_B1
  6
Continuous
 48
1.5
100
AcDbLine
 10
1848.325687546807
 20
3329.700000323972
 30
0.0
 11
1040.326629432296
 21
3329.700000323952
 31
0.0
  0
LINE
  5
19638
330
13E12
100
AcDbEntity
  8
YKK_B1
  6
Continuous
 48
1.5
100
AcDbLine
 10
1848.325687546807
 20
3359.700000323972
 30
0.0
 11
1040.326629432289
 21
3359.700000323952
 31
0.0
  0
LINE
  5
19639
330
13E12
100
AcDbEntity
  8
YKK_B1
  6
Continuous
 48
1.5
100
AcDbLine
 10
1851.325687546807
 20
3356.700000323988
 30
0.0
 11
1851.325687546807
 21
3332.700000323988
 31
0.0
  0
ARC
  5
1963A
330
13E12
100
AcDbEntity
  8
YKK_B1
  6
Continuous
 48
1.5
100
AcDbCircle
 10
1848.325687546807
 20
3356.700000323988
 30
0.0
 40
3.0
100
AcDbArc
 50
0.0
 51
90.0
  0
ARC
  5
1963B
330
13E12
100
AcDbEntity
  8
YKK_B1
  6
Continuous
 48
1.5
100
AcDbCircle
 10
1848.325687546807
 20
3332.700000323988
 30
0.0
 40
3.0
100
AcDbArc
 50
270.0
 51
0.0
  0
LINE
  5
1963C
330
13E12
100
AcDbEntity
  8
YKK_B1
  6
Continuous
 48
1.5
100
AcDbLine
 10
1037.326629432296
 20
3356.70000032395
 30
0.0
 11
1037.326629432296
 21
3332.70000032395
 31
0.0
  0
ARC
  5
1963D
330
13E12
100
AcDbEntity
  8
YKK_B1
  6
Continuous
 48
1.5
100
AcDbCircle
 10
1040.326629432289
 20
3356.70000032395
 30
0.0
 40
3.0
100
AcDbArc
 50
90.0
 51
180.0
  0
ARC
  5
1963E
330
13E12
100
AcDbEntity
  8
YKK_B1
  6
Continuous
 48
1.5
100
AcDbCircle
 10
1040.326629432289
 20
3332.70000032395
 30
0.0
 40
3.0
100
AcDbArc
 50
180.0
 51
270.0
  0
LINE
  5
1963F
330
13E12
100
AcDbEntity
  8
YKK_B1
 48
1.5
100
AcDbLine
 10
1741.810196193335
 20
3329.700000323968
 30
0.0
 11
1771.810196193342
 21
3359.700000323974
 31
0.0
1001
ACAD
1010
0.0
1020
0.0
1030
0.0
  0
LINE
  5
19640
330
13E12
100
AcDbEntity
  8
YKK_B1
 48
1.5
100
AcDbLine
 10
1699.383789322135
 20
3329.700000323961
 30
0.0
 11
1729.383789322142
 21
3359.700000323967
 31
0.0
1001
ACAD
1010
0.0
1020
0.0
1030
0.0
  0
LINE
  5
19641
330
13E12
100
AcDbEntity
  8
YKK_B1
 48
1.5
100
AcDbLine
 10
1656.957382450942
 20
3329.700000323959
 30
0.0
 11
1686.95738245095
 21
3359.700000323964
 31
0.0
1001
ACAD
1010
0.0
1020
0.0
1030
0.0
  0
LINE
  5
19642
330
13E12
100
AcDbEntity
  8
YKK_B1
 48
1.5
100
AcDbLine
 10
1614.530975579742
 20
3329.700000323955
 30
0.0
 11
1644.53097557975
 21
3359.70000032396
 31
0.0
1001
ACAD
1010
0.0
1020
0.0
1030
0.0
  0
LINE
  5
19643
330
13E12
100
AcDbEntity
  8
YKK_B1
 48
1.5
100
AcDbLine
 10
1572.104568708542
 20
3329.700000323946
 30
0.0
 11
1602.10456870855
 21
3359.700000323952
 31
0.0
1001
ACAD
1010
0.0
1020
0.0
1030
0.0
  0
LINE
  5
19644
330
13E12
100
AcDbEntity
  8
YKK_B1
 48
1.5
100
AcDbLine
 10
1529.67816183735
 20
3329.700000323946
 30
0.0
 11
1559.678161837357
 21
3359.700000323952
 31
0.0
1001
ACAD
1010
0.0
1020
0.0
1030
0.0
  0
LINE
  5
19645
330
13E12
100
AcDbEntity
  8
YKK_B1
 48
1.5
100
AcDbLine
 10
1487.251754966164
 20
3329.700000323952
 30
0.0
 11
1517.251754966171
 21
3359.700000323957
 31
0.0
1001
ACAD
1010
0.0
1020
0.0
1030
0.0
  0
LINE
  5
19646
330
13E12
100
AcDbEntity
  8
YKK_B1
 48
1.5
100
AcDbLine
 10
1444.825348094964
 20
3329.700000323944
 30
0.0
 11
1474.825348094971
 21
3359.700000323949
 31
0.0
1001
ACAD
1010
0.0
1020
0.0
1030
0.0
  0
LINE
  5
19647
330
13E12
100
AcDbEntity
  8
YKK_B1
 48
1.5
100
AcDbLine
 10
1402.398941223771
 20
3329.700000323942
 30
0.0
 11
1432.398941223771
 21
3359.700000323948
 31
0.0
1001
ACAD
1010
0.0
1020
0.0
1030
0.0
  0
LINE
  5
19648
330
13E12
100
AcDbEntity
  8
YKK_B1
 48
1.5
100
AcDbLine
 10
1359.972534352579
 20
3329.700000323948
 30
0.0
 11
1389.972534352586
 21
3359.700000323954
 31
0.0
1001
ACAD
1010
0.0
1020
0.0
1030
0.0
  0
LINE
  5
19649
330
13E12
100
AcDbEntity
  8
YKK_B1
 48
1.5
100
AcDbLine
 10
1317.546127481386
 20
3329.700000323941
 30
0.0
 11
1347.546127481386
 21
3359.700000323946
 31
0.0
1001
ACAD
1010
0.0
1020
0.0
1030
0.0
  0
LINE
  5
1964A
330
13E12
100
AcDbEntity
  8
YKK_B1
 48
1.5
100
AcDbLine
 10
1275.119720610186
 20
3329.700000323939
 30
0.0
 11
1305.119720610193
 21
3359.700000323945
 31
0.0
1001
ACAD
1010
0.0
1020
0.0
1030
0.0
  0
LINE
  5
1964B
330
13E12
100
AcDbEntity
  8
YKK_B1
 48
1.5
100
AcDbLine
 10
1232.693313739
 20
3329.700000323945
 30
0.0
 11
1262.693313739008
 21
3359.70000032395
 31
0.0
1001
ACAD
1010
0.0
1020
0.0
1030
0.0
  0
LINE
  5
1964C
330
13E12
100
AcDbEntity
  8
YKK_B1
 48
1.5
100
AcDbLine
 10
1190.2669068678
 20
3329.700000323938
 30
0.0
 11
1220.266906867808
 21
3359.700000323943
 31
0.0
1001
ACAD
1010
0.0
1020
0.0
1030
0.0
  0
LINE
  5
1964D
330
13E12
100
AcDbEntity
  8
YKK_B1
 48
1.5
100
AcDbLine
 10
1147.840499996608
 20
3329.700000323935
 30
0.0
 11
1177.840499996615
 21
3359.700000323941
 31
0.0
1001
ACAD
1010
0.0
1020
0.0
1030
0.0
  0
LINE
  5
1964E
330
13E12
100
AcDbEntity
  8
YKK_B1
 48
1.5
100
AcDbLine
 10
1105.414093125422
 20
3329.700000323941
 30
0.0
 11
1135.414093125422
 21
3359.700000323947
 31
0.0
1001
ACAD
1010
0.0
1020
0.0
1030
0.0
  0
LINE
  5
1964F
330
13E12
100
AcDbEntity
  8
YKK_B1
 48
1.5
100
AcDbLine
 10
1062.987686254222
 20
3329.700000323934
 30
0.0
 11
1092.98768625423
 21
3359.70000032394
 31
0.0
1001
ACAD
1010
0.0
1020
0.0
1030
0.0
  0
LINE
  5
19650
330
13E12
100
AcDbEntity
  8
YKK_B1
 48
1.5
100
AcDbLine
 10
1037.326629432296
 20
3346.465350373199
 30
0.0
 11
1050.561279383029
 21
3359.700000323938
 31
0.0
1001
ACAD
1010
0.0
1020
0.0
1030
0.0
  0
LINE
  5
19651
330
13E12
100
AcDbEntity
  8
YKK_B1
 48
1.5
100
AcDbLine
 10
2601.227540710126
 20
3329.700000498561
 30
0.0
 11
2631.227540710126
 21
3359.700000498567
 31
0.0
1001
ACAD
1010
0.0
1020
0.0
1030
0.0
  0
LINE
  5
19652
330
13E12
100
AcDbEntity
  8
YKK_B1
 48
1.5
100
AcDbLine
 10
2643.653947581326
 20
3329.700000498569
 30
0.0
 11
2668.316625192398
 21
3354.36267810964
 31
0.0
1001
ACAD
1010
0.0
1020
0.0
1030
0.0
  0
LINE
  5
19653
330
13E12
100
AcDbEntity
  8
YKK_B1
  6
Continuous
 48
1.5
100
AcDbLine
 10
2665.316625192398
 20
3329.700000498557
 30
0.0
 11
1857.31756707788
 21
3329.700000498537
 31
0.0
  0
LINE
  5
19654
330
13E12
100
AcDbEntity
  8
YKK_B1
  6
Continuous
 48
1.5
100
AcDbLine
 10
2665.316625192398
 20
3359.700000498557
 30
0.0
 11
1857.31756707788
 21
3359.700000498537
 31
0.0
  0
LINE
  5
19655
330
13E12
100
AcDbEntity
  8
YKK_B1
  6
Continuous
 48
1.5
100
AcDbLine
 10
2668.316625192398
 20
3356.700000498573
 30
0.0
 11
2668.316625192398
 21
3332.700000498573
 31
0.0
  0
ARC
  5
19656
330
13E12
100
AcDbEntity
  8
YKK_B1
  6
Continuous
 48
1.5
100
AcDbCircle
 10
2665.316625192398
 20
3356.700000498573
 30
0.0
 40
3.0
100
AcDbArc
 50
0.0
 51
90.0
  0
ARC
  5
19657
330
13E12
100
AcDbEntity
  8
YKK_B1
  6
Continuous
 48
1.5
100
AcDbCircle
 10
2665.316625192398
 20
3332.700000498573
 30
0.0
 40
3.0
100
AcDbArc
 50
270.0
 51
0.0
  0
LINE
  5
19658
330
13E12
100
AcDbEntity
  8
YKK_B1
  6
Continuous
 48
1.5
100
AcDbLine
 10
1854.31756707788
 20
3356.700000498535
 30
0.0
 11
1854.31756707788
 21
3332.700000498535
 31
0.0
  0
ARC
  5
19659
330
13E12
100
AcDbEntity
  8
YKK_B1
  6
Continuous
 48
1.5
100
AcDbCircle
 10
1857.31756707788
 20
3356.700000498535
 30
0.0
 40
3.0
100
AcDbArc
 50
90.0
 51
180.0
  0
ARC
  5
1965A
330
13E12
100
AcDbEntity
  8
YKK_B1
  6
Continuous
 48
1.5
100
AcDbCircle
 10
1857.31756707788
 20
3332.700000498535
 30
0.0
 40
3.0
100
AcDbArc
 50
180.0
 51
270.0
  0
LINE
  5
1965B
330
13E12
100
AcDbEntity
  8
YKK_B1
 48
1.5
100
AcDbLine
 10
2558.801133838926
 20
3329.700000498553
 30
0.0
 11
2588.801133838926
 21
3359.700000498559
 31
0.0
1001
ACAD
1010
0.0
1020
0.0
1030
0.0
  0
LINE
  5
1965C
330
13E12
100
AcDbEntity
  8
YKK_B1
 48
1.5
100
AcDbLine
 10
2516.374726967726
 20
3329.700000498546
 30
0.0
 11
2546.374726967726
 21
3359.700000498551
 31
0.0
1001
ACAD
1010
0.0
1020
0.0
1030
0.0
  0
LINE
  5
1965D
330
13E12
100
AcDbEntity
  8
YKK_B1
 48
1.5
100
AcDbLine
 10
2473.948320096534
 20
3329.700000498544
 30
0.0
 11
2503.948320096534
 21
3359.70000049855
 31
0.0
1001
ACAD
1010
0.0
1020
0.0
1030
0.0
  0
LINE
  5
1965E
330
13E12
100
AcDbEntity
  8
YKK_B1
 48
1.5
100
AcDbLine
 10
2431.521913225334
 20
3329.700000498539
 30
0.0
 11
2461.52191322534
 21
3359.700000498545
 31
0.0
1001
ACAD
1010
0.0
1020
0.0
1030
0.0
  0
LINE
  5
1965F
330
13E12
100
AcDbEntity
  8
YKK_B1
 48
1.5
100
AcDbLine
 10
2389.095506354133
 20
3329.700000498532
 30
0.0
 11
2419.095506354134
 21
3359.700000498537
 31
0.0
1001
ACAD
1010
0.0
1020
0.0
1030
0.0
  0
LINE
  5
19660
330
13E12
100
AcDbEntity
  8
YKK_B1
 48
1.5
100
AcDbLine
 10
2346.669099482941
 20
3329.700000498532
 30
0.0
 11
2376.669099482941
 21
3359.700000498537
 31
0.0
1001
ACAD
1010
0.0
1020
0.0
1030
0.0
  0
LINE
  5
19661
330
13E12
100
AcDbEntity
  8
YKK_B1
 48
1.5
100
AcDbLine
 10
2304.242692611748
 20
3329.700000498537
 30
0.0
 11
2334.242692611755
 21
3359.700000498542
 31
0.0
1001
ACAD
1010
0.0
1020
0.0
1030
0.0
  0
LINE
  5
19662
330
13E12
100
AcDbEntity
  8
YKK_B1
 48
1.5
100
AcDbLine
 10
2261.816285740548
 20
3329.700000498529
 30
0.0
 11
2291.816285740555
 21
3359.700000498534
 31
0.0
1001
ACAD
1010
0.0
1020
0.0
1030
0.0
  0
LINE
  5
19663
330
13E12
100
AcDbEntity
  8
YKK_B1
 48
1.5
100
AcDbLine
 10
2219.389878869355
 20
3329.700000498528
 30
0.0
 11
2249.389878869362
 21
3359.700000498533
 31
0.0
1001
ACAD
1010
0.0
1020
0.0
1030
0.0
  0
LINE
  5
19664
330
13E12
100
AcDbEntity
  8
YKK_B1
 48
1.5
100
AcDbLine
 10
2176.96347199817
 20
3329.700000498533
 30
0.0
 11
2206.963471998177
 21
3359.700000498538
 31
0.0
1001
ACAD
1010
0.0
1020
0.0
1030
0.0
  0
LINE
  5
19665
330
13E12
100
AcDbEntity
  8
YKK_B1
 48
1.5
100
AcDbLine
 10
2134.53706512697
 20
3329.700000498525
 30
0.0
 11
2164.537065126977
 21
3359.700000498531
 31
0.0
1001
ACAD
1010
0.0
1020
0.0
1030
0.0
  0
LINE
  5
19666
330
13E12
100
AcDbEntity
  8
YKK_B1
 48
1.5
100
AcDbLine
 10
2092.110658255777
 20
3329.700000498524
 30
0.0
 11
2122.110658255784
 21
3359.70000049853
 31
0.0
1001
ACAD
1010
0.0
1020
0.0
1030
0.0
  0
LINE
  5
19667
330
13E12
100
AcDbEntity
  8
YKK_B1
 48
1.5
100
AcDbLine
 10
2049.684251384591
 20
3329.700000498529
 30
0.0
 11
2079.684251384591
 21
3359.700000498535
 31
0.0
1001
ACAD
1010
0.0
1020
0.0
1030
0.0
  0
LINE
  5
19668
330
13E12
100
AcDbEntity
  8
YKK_B1
 48
1.5
100
AcDbLine
 10
2007.257844513391
 20
3329.700000498522
 30
0.0
 11
2037.257844513391
 21
3359.700000498528
 31
0.0
1001
ACAD
1010
0.0
1020
0.0
1030
0.0
  0
LINE
  5
19669
330
13E12
100
AcDbEntity
  8
YKK_B1
 48
1.5
100
AcDbLine
 10
1964.831437642191
 20
3329.70000049852
 30
0.0
 11
1994.831437642199
 21
3359.700000498526
 31
0.0
1001
ACAD
1010
0.0
1020
0.0
1030
0.0
  0
LINE
  5
1966A
330
13E12
100
AcDbEntity
  8
YKK_B1
 48
1.5
100
AcDbLine
 10
1922.405030771006
 20
3329.700000498526
 30
0.0
 11
1952.405030771013
 21
3359.700000498531
 31
0.0
1001
ACAD
1010
0.0
1020
0.0
1030
0.0
  0
LINE
  5
1966B
330
13E12
100
AcDbEntity
  8
YKK_B1
 48
1.5
100
AcDbLine
 10
1879.978623899806
 20
3329.700000498519
 30
0.0
 11
1909.978623899813
 21
3359.700000498524
 31
0.0
1001
ACAD
1010
0.0
1020
0.0
1030
0.0
  0
LINE
  5
1966C
330
13E12
100
AcDbEntity
  8
YKK_B1
 48
1.5
100
AcDbLine
 10
1854.31756707788
 20
3346.465350547783
 30
0.0
 11
1867.55221702862
 21
3359.700000498524
 31
0.0
1001
ACAD
1010
0.0
1020
0.0
1030
0.0
  0
CIRCLE
  5
1966D
330
13E12
100
AcDbEntity
  8
YKK_N1
  6
Continuous
100
AcDbCircle
 10
3456.816864439665
 20
3122.500000000003
 30
0.0
 40
5.0
  0
CIRCLE
  5
1966E
330
13E12
100
AcDbEntity
  8
YKK_N1
  6
Continuous
100
AcDbCircle
 10
3491.816864439665
 20
3122.500000000003
 30
0.0
 40
5.0
  0
LINE
  5
1966F
330
13E12
100
AcDbEntity
  8
YKK_N1
  6
Continuous
100
AcDbLine
 10
3456.816864439665
 20
3247.500000000003
 30
0.0
 11
3456.816864439665
 21
3122.500000000003
 31
0.0
  0
LINE
  5
19670
330
13E12
100
AcDbEntity
  8
YKK_N1
  6
Continuous
100
AcDbLine
 10
3456.816864439665
 20
3122.500000000003
 30
0.0
 11
3491.816864439665
 21
3122.500000000003
 31
0.0
  0
CIRCLE
  5
19671
330
13E12
100
AcDbEntity
  8
YKK_N1
  6
Continuous
100
AcDbCircle
 10
248.8168644396647
 20
3122.500000000003
 30
0.0
 40
5.0
  0
CIRCLE
  5
19672
330
13E12
100
AcDbEntity
  8
YKK_N1
  6
Continuous
100
AcDbCircle
 10
213.8168644396647
 20
3122.500000000003
 30
0.0
 40
5.0
  0
LINE
  5
19673
330
13E12
100
AcDbEntity
  8
YKK_N1
  6
Continuous
100
AcDbLine
 10
213.8168644396647
 20
3122.500000000003
 30
0.0
 11
248.8168644396647
 21
3122.500000000003
 31
0.0
  0
LINE
  5
19674
330
13E12
100
AcDbEntity
  8
YKK_N1
  6
Continuous
100
AcDbLine
 10
248.8168644396647
 20
3247.500000000003
 30
0.0
 11
248.8168644396647
 21
3122.500000000003
 31
0.0
  0
LINE
  5
19675
330
13E12
100
AcDbEntity
  8
YKK_N1
  6
Continuous
100
AcDbLine
 10
3405.21432406122
 20
2972.500000000003
 30
0.0
 11
3405.21432406122
 21
2872.500000000003
 31
0.0
  0
LINE
  5
19676
330
13E12
100
AcDbEntity
  8
YKK_N1
  6
Continuous
100
AcDbLine
 10
3405.21432406122
 20
2972.500000000003
 30
0.0
 11
3491.816864439665
 21
2922.500000000003
 31
0.0
  0
LINE
  5
19677
330
13E12
100
AcDbEntity
  8
YKK_N1
  6
Continuous
100
AcDbLine
 10
3405.21432406122
 20
2872.500000000003
 30
0.0
 11
3491.816864439665
 21
2922.500000000003
 31
0.0
  0
LINE
  5
19678
330
13E12
100
AcDbEntity
  8
YKK_N1
  6
Continuous
100
AcDbLine
 10
213.8168644396647
 20
2922.500000000003
 30
0.0
 11
300.4194048181089
 21
2872.500000000003
 31
0.0
  0
LINE
  5
19679
330
13E12
100
AcDbEntity
  8
YKK_N1
  6
Continuous
100
AcDbLine
 10
300.4194048181089
 20
2972.500000000003
 30
0.0
 11
300.4194048181089
 21
2872.500000000003
 31
0.0
  0
LINE
  5
1967A
330
13E12
100
AcDbEntity
  8
YKK_N1
  6
Continuous
100
AcDbLine
 10
213.8168644396647
 20
2922.500000000003
 30
0.0
 11
300.4194048181089
 21
2972.500000000003
 31
0.0
  0
LINE
  5
1967B
330
13E12
100
AcDbEntity
  8
YKK_N1
  6
Continuous
100
AcDbLine
 10
213.8168644396647
 20
2922.500000000003
 30
0.0
 11
3491.816864439665
 21
2922.500000000003
 31
0.0
  0
LINE
  5
1967C
330
13E12
100
AcDbEntity
  8
YKK_N1
  6
Continuous
100
AcDbLine
 10
3491.816864439665
 20
3247.500000000003
 30
0.0
 11
3491.816864439665
 21
2922.500000000003
 31
0.0
  0
LINE
  5
1967D
330
13E12
100
AcDbEntity
  8
YKK_N1
  6
Continuous
100
AcDbLine
 10
213.8168644396647
 20
3247.500000000003
 30
0.0
 11
213.8168644396647
 21
2922.500000000003
 31
0.0
  0
CIRCLE
  5
1967E
330
13E12
100
AcDbEntity
  8
YKK_N1
  6
Continuous
100
AcDbCircle
 10
2351.038685113053
 20
3329.703809899669
 30
0.0
 40
5.0
  0
CIRCLE
  5
1967F
330
13E12
100
AcDbEntity
  8
YKK_N1
  6
Continuous
100
AcDbCircle
 10
2351.038685113053
 20
3359.703809899671
 30
0.0
 40
5.0
  0
LINE
  5
19680
330
13E12
100
AcDbEntity
  8
YKK_N1
  6
Continuous
100
AcDbLine
 10
2351.038685113053
 20
3359.703809899671
 30
0.0
 11
2351.038685113053
 21
3329.703809899669
 31
0.0
  0
CIRCLE
  5
19681
330
13E12
100
AcDbEntity
  8
YKK_N1
  6
Continuous
100
AcDbCircle
 10
2496.81183475841
 20
3526.20000032626
 30
0.0
 40
5.0
  0
CIRCLE
  5
19682
330
13E12
100
AcDbEntity
  8
YKK_N1
  6
Continuous
100
AcDbCircle
 10
2496.81183475841
 20
3370.19998506747
 30
0.0
 40
5.0
  0
LINE
  5
19683
330
13E12
100
AcDbEntity
  8
YKK_N1
  6
Continuous
100
AcDbLine
 10
2496.81183475841
 20
3526.20000032626
 30
0.0
 11
2621.81183475841
 21
3526.20000032626
 31
0.0
  0
LINE
  5
19684
330
13E12
100
AcDbEntity
  8
YKK_N1
  6
Continuous
100
AcDbLine
 10
2496.81183475841
 20
3370.19998506747
 30
0.0
 11
2621.81183475841
 21
3370.19998506747
 31
0.0
  0
LINE
  5
19685
330
13E12
100
AcDbEntity
  8
YKK_N1
  6
Continuous
100
AcDbLine
 10
2496.81183475841
 20
3526.20000032626
 30
0.0
 11
2496.81183475841
 21
3370.19998506747
 31
0.0
  0
TEXT
  5
19686
330
13E12
100
AcDbEntity
  8
YKK_N1
100
AcDbText
 10
2484.81183475841
 20
3471.039578090117
 30
0.0
 40
60.0
  1
156
 50
90.00000000000003
 72
     4
 11
2454.81183475841
 21
3541.039578090116
 31
0.0
100
AcDbText
1001
YTEXT_INFOMATION
1002
{
1000
156
1002
}
1000
MC
1010
-70.00000000000003
1020
-29.99999999999996
1030
0.0
1040
60.0
1070
     0
1002
{
1000
TEXTOBJECTS
1000
19686
1002
}
  0
TEXT
  5
19687
330
13E12
100
AcDbEntity
  8
YKK_N1
100
AcDbText
 10
1672.81681482114
 20
2934.500000000003
 30
0.0
 40
60.0
  1
W=3278
 72
     4
 11
1852.816814821141
 21
2964.500000000003
 31
0.0
100
AcDbText
1001
YTEXT_INFOMATION
1002
{
1000
W=1674
1002
}
1000
MC
1010
-170.0
1020
-30.0
1030
0.0
1040
60.0
1070
     0
1002
{
1000
TEXTOBJECTS
1000
19687
1002
}
  0
TEXT
  5
19688
330
13E12
100
AcDbEntity
  8
YKK_N1
100
AcDbText
 10
274.309706344502
 20
3134.500000000003
 30
0.0
 40
60.0
  1
35
 72
     4
 11
324.309706344502
 21
3164.500000000003
 31
0.0
100
AcDbText
1001
YTEXT_INFOMATION
1002
{
1000
35
1002
}
1000
MC
1010
-50.0
1020
-29.99999999999999
1030
0.0
1040
60.0
1070
     0
1002
{
1000
TEXTOBJECTS
1000
19688
1002
}
  0
TEXT
  5
19689
330
13E12
100
AcDbEntity
  8
YKK_N1
100
AcDbText
 10
3333.217519871148
 20
3134.500000000003
 30
0.0
 40
60.0
  1
35
 72
     4
 11
3383.217519871148
 21
3164.500000000003
 31
0.0
100
AcDbText
1001
YTEXT_INFOMATION
1002
{
1000
35
1002
}
1000
MC
1010
-50.0
1020
-29.99999999999999
1030
0.0
1040
60.0
1070
     0
1002
{
1000
TEXTOBJECTS
1000
19689
1002
}
  0
TEXT
  5
1968A
330
13E12
100
AcDbEntity
  8
YKK_N1
100
AcDbText
 10
2339.038685113053
 20
3409.84113956462
 30
0.0
 40
60.0
  1
30
 50
90.00000000000003
 72
     4
 11
2309.038685113053
 21
3454.84113956462
 31
0.0
100
AcDbText
1001
YTEXT_INFOMATION
1002
{
1000
30
1002
}
1000
MC
1010
-45.0
1020
-29.99999999999999
1030
0.0
1040
60.0
1070
     0
1002
{
1000
TEXTOBJECTS
1000
1968A
1002
}
  0
LINE
  5
1979E
330
13E12
100
AcDbEntity
  8
YKK_A1
  6
YDIVIDE_1
 48
1.5
100
AcDbLine
 10
1068.511644569269
 20
15952.50197482289
 30
0.0
 11
4437.144557741921
 21
15952.50197482289
 31
0.0
  0
LINE
  5
1979F
330
13E12
100
AcDbEntity
  8
YKK_A1
  6
YDIVIDE_1
 48
1.5
100
AcDbLine
 10
1068.511643274789
 20
18050.50490709881
 30
0.0
 11
1173.144663744169
 21
18050.50490709881
 31
0.0
  0
LINE
  5
197A0
330
13E12
100
AcDbEntity
  8
YKK_A1
  6
Continuous
 48
1.5
100
AcDbLine
 10
2816.144533587023
 20
17990.50490620474
 30
0.0
 11
2816.144533587023
 21
15961.49497504641
 31
0.0
  0
LINE
  5
197A1
330
13E12
100
AcDbEntity
  8
YKK_A1
  6
Continuous
 48
1.5
100
AcDbLine
 10
2816.14453358703
 20
15961.49497504641
 30
0.0
 11
3630.134545567563
 21
15961.49497504641
 31
0.0
  0
LINE
  5
197A2
330
13E12
100
AcDbEntity
  8
YKK_A1
  6
Continuous
 48
1.5
100
AcDbLine
 10
3630.134545567563
 20
17990.50490620474
 30
0.0
 11
3630.134545567563
 21
15961.49497504641
 31
0.0
  0
LINE
  5
197A3
330
13E12
100
AcDbEntity
  8
YKK_A1
  6
YHIDDEN_1
 48
1.5
100
AcDbLine
 10
3630.134545567563
 20
17990.50490620474
 30
0.0
 11
2816.144533587023
 21
17990.50490620474
 31
0.0
  0
LINE
  5
197A4
330
13E12
100
AcDbEntity
  8
YKK_A1
  6
Continuous
 48
1.5
100
AcDbLine
 10
3218.144539577231
 20
17229.86881129519
 30
0.0
 11
3098.144537789093
 21
17229.86881129519
 31
0.0
  0
LINE
  5
197A5
330
13E12
100
AcDbEntity
  8
YKK_A1
  6
Continuous
 48
1.5
100
AcDbLine
 10
3098.144537789093
 20
17229.86881129519
 30
0.0
 11
3098.144537789093
 21
17169.86881040113
 31
0.0
  0
LINE
  5
197A6
330
13E12
100
AcDbEntity
  8
YKK_A1
  6
Continuous
 48
1.5
100
AcDbLine
 10
3098.144537789093
 20
17169.86881040113
 30
0.0
 11
3218.144539577231
 21
17169.86881040113
 31
0.0
  0
LINE
  5
197A7
330
13E12
100
AcDbEntity
  8
YKK_A1
  6
Continuous
 48
1.5
100
AcDbLine
 10
3218.144539577231
 20
17130.58677751302
 30
0.0
 11
3218.144539577231
 21
17169.86881040113
 31
0.0
  0
LINE
  5
197A8
330
13E12
100
AcDbEntity
  8
YKK_A1
  6
Continuous
 48
1.5
100
AcDbLine
 10
3338.144541365371
 20
17199.86881084816
 30
0.0
 11
3218.144539577231
 21
17269.1508441833
 31
0.0
  0
LINE
  5
197A9
330
13E12
100
AcDbEntity
  8
YKK_A1
  6
Continuous
 48
1.5
100
AcDbLine
 10
3338.144541365371
 20
17199.86881084816
 30
0.0
 11
3218.144539577231
 21
17130.58677751302
 31
0.0
  0
LINE
  5
197AA
330
13E12
100
AcDbEntity
  8
YKK_A1
  6
Continuous
 48
1.5
100
AcDbLine
 10
3218.144539577231
 20
17229.86881129519
 30
0.0
 11
3218.144539577231
 21
17269.1508441833
 31
0.0
  0
LINE
  5
197AB
330
13E12
100
AcDbEntity
  8
YKK_A1
  6
Continuous
 48
1.5
100
AcDbLine
 10
2813.144533542319
 20
17990.50490620474
 30
0.0
 11
2813.144533542319
 21
15961.49497504641
 31
0.0
  0
LINE
  5
197AC
330
13E12
100
AcDbEntity
  8
YKK_A1
  6
Continuous
 48
1.5
100
AcDbLine
 10
2813.153484047813
 20
15961.49497504641
 30
0.0
 11
1999.154521561788
 21
15961.49497504641
 31
0.0
  0
LINE
  5
197AD
330
13E12
100
AcDbEntity
  8
YKK_A1
  6
Continuous
 48
1.5
100
AcDbLine
 10
1999.154521561788
 20
17990.50490620474
 30
0.0
 11
1999.154521561795
 21
15961.49497504641
 31
0.0
  0
LINE
  5
197AE
330
13E12
100
AcDbEntity
  8
YKK_A1
  6
YHIDDEN_1
 48
1.5
100
AcDbLine
 10
1999.154521561788
 20
17990.50490620474
 30
0.0
 11
2813.144533542319
 21
17990.50490620474
 31
0.0
  0
LINE
  5
197AF
330
13E12
100
AcDbEntity
  8
YKK_A1
  6
Continuous
 48
1.5
100
AcDbLine
 10
2411.144527552111
 20
17229.86881129519
 30
0.0
 11
2531.144529340251
 21
17229.86881129519
 31
0.0
  0
LINE
  5
197B0
330
13E12
100
AcDbEntity
  8
YKK_A1
  6
Continuous
 48
1.5
100
AcDbLine
 10
2531.144529340251
 20
17229.86881129519
 30
0.0
 11
2531.144529340251
 21
17169.86881040113
 31
0.0
  0
LINE
  5
197B1
330
13E12
100
AcDbEntity
  8
YKK_A1
  6
Continuous
 48
1.5
100
AcDbLine
 10
2531.144529340251
 20
17169.86881040113
 30
0.0
 11
2411.144527552111
 21
17169.86881040113
 31
0.0
  0
LINE
  5
197B2
330
13E12
100
AcDbEntity
  8
YKK_A1
  6
Continuous
 48
1.5
100
AcDbLine
 10
2411.144527552111
 20
17130.58677751302
 30
0.0
 11
2411.144527552111
 21
17169.86881040113
 31
0.0
  0
LINE
  5
197B3
330
13E12
100
AcDbEntity
  8
YKK_A1
  6
Continuous
 48
1.5
100
AcDbLine
 10
2291.144525763971
 20
17199.86881084816
 30
0.0
 11
2411.144527552111
 21
17269.1508441833
 31
0.0
  0
LINE
  5
197B4
330
13E12
100
AcDbEntity
  8
YKK_A1
  6
Continuous
 48
1.5
100
AcDbLine
 10
2291.144525763971
 20
17199.86881084816
 30
0.0
 11
2411.144527552111
 21
17130.58677751302
 31
0.0
  0
LINE
  5
197B5
330
13E12
100
AcDbEntity
  8
YKK_A1
  6
Continuous
 48
1.5
100
AcDbLine
 10
2411.144527552111
 20
17229.86881129519
 30
0.0
 11
2411.144527552111
 21
17269.1508441833
 31
0.0
  0
LINE
  5
197B6
330
13E12
100
AcDbEntity
  8
YKK_A1
  6
Continuous
 48
1.5
100
AcDbLine
 10
1173.144709387539
 20
17985.50490613023
 30
0.0
 11
1173.144709387539
 21
18050.50490709881
 31
0.0
  0
LINE
  5
197B7
330
13E12
100
AcDbEntity
  8
YKK_A1
  6
Continuous
 48
1.5
100
AcDbLine
 10
1173.144709387539
 20
18050.50490709881
 30
0.0
 11
4456.144557741922
 21
18050.50490709881
 31
0.0
  0
LINE
  5
197B8
330
13E12
100
AcDbEntity
  8
YKK_A1
  6
Continuous
 48
1.5
100
AcDbLine
 10
4456.144557741922
 20
17985.50490613023
 30
0.0
 11
1173.144709387539
 21
17985.50490613023
 31
0.0
  0
LINE
  5
197B9
330
13E12
100
AcDbEntity
  8
YKK_A1
  6
Continuous
 48
1.5
100
AcDbLine
 10
4456.144557741922
 20
17985.50490613023
 30
0.0
 11
4456.144557741922
 21
18050.50490709881
 31
0.0
  0
ARC
  5
197BA
330
13E12
100
AcDbEntity
  8
YKK_A1
  6
Continuous
 48
1.5
100
AcDbCircle
 10
2749.153487861928
 20
16782.49492640929
 30
0.0
 40
0.9999999403953561
100
AcDbArc
 50
179.9999999998957
 51
270.0
  0
ARC
  5
197BB
330
13E12
100
AcDbEntity
  8
YKK_A1
  6
Continuous
 48
1.5
100
AcDbCircle
 10
2777.153486193027
 20
17000.49491341546
 30
0.0
 40
0.9999999403953561
100
AcDbArc
 50
359.9999999998958
 51
90.0
  0
ARC
  5
197BC
330
13E12
100
AcDbEntity
  8
YKK_A1
  6
Continuous
 48
1.5
100
AcDbCircle
 10
2777.153486192998
 20
16782.49492640928
 30
0.0
 40
0.9999999403953561
100
AcDbArc
 50
270.0
 51
359.9999999998958
  0
ARC
  5
197BD
330
13E12
100
AcDbEntity
  8
YKK_A1
  6
Continuous
 48
1.5
100
AcDbCircle
 10
2749.153487861957
 20
17000.49491341548
 30
0.0
 40
0.9999999403953561
100
AcDbArc
 50
90.0
 51
179.9999999998957
  0
ARC
  5
197BE
330
13E12
100
AcDbEntity
  8
YKK_A1
  6
Continuous
 48
1.5
100
AcDbCircle
 10
2754.153487563904
 20
16802.4949252172
 30
0.0
 40
0.9999999403953561
100
AcDbArc
 50
179.9999999998957
 51
270.0
  0
ARC
  5
197BF
330
13E12
100
AcDbEntity
  8
YKK_A1
  6
Continuous
 48
1.5
100
AcDbCircle
 10
2754.153487563934
 20
16980.49491460757
 30
0.0
 40
0.9999999403953561
100
AcDbArc
 50
90.0
 51
179.9999999998957
  0
ARC
  5
197C0
330
13E12
100
AcDbEntity
  8
YKK_A1
  6
Continuous
 48
1.5
100
AcDbCircle
 10
2772.15348649105
 20
16980.49491460756
 30
0.0
 40
0.9999999403953561
100
AcDbArc
 50
359.9999999998958
 51
90.0
  0
ARC
  5
197C1
330
13E12
100
AcDbEntity
  8
YKK_A1
  6
Continuous
 48
1.5
100
AcDbCircle
 10
2772.153486491021
 20
16802.49492521718
 30
0.0
 40
0.9999999403953561
100
AcDbArc
 50
270.0
 51
359.9999999998958
  0
LINE
  5
197C2
330
13E12
100
AcDbEntity
  8
YKK_A1
  6
Continuous
 48
1.5
100
AcDbLine
 10
2773.153486431445
 20
16980.49491460756
 30
0.0
 11
2773.153486431417
 21
16802.49492521718
 31
0.0
  0
LINE
  5
197C3
330
13E12
100
AcDbEntity
  8
YKK_A1
  6
Continuous
 48
1.5
100
AcDbLine
 10
2748.153487921562
 20
17000.49491341548
 30
0.0
 11
2748.153487921533
 21
16782.49492640929
 31
0.0
  0
LINE
  5
197C4
330
13E12
100
AcDbEntity
  8
YKK_A1
  6
Continuous
 48
1.5
100
AcDbLine
 10
2777.153486192998
 20
16781.49492646888
 30
0.0
 11
2749.153487861928
 21
16781.4949264689
 31
0.0
  0
LINE
  5
197C5
330
13E12
100
AcDbEntity
  8
YKK_A1
  6
Continuous
 48
1.5
100
AcDbLine
 10
2778.153486133422
 20
17000.49491341546
 30
0.0
 11
2778.153486133393
 21
16782.49492640928
 31
0.0
  0
LINE
  5
197C6
330
13E12
100
AcDbEntity
  8
YKK_A1
  6
Continuous
 48
1.5
100
AcDbLine
 10
2772.15348649105
 20
16981.49491454795
 30
0.0
 11
2754.153487563934
 21
16981.49491454797
 31
0.0
  0
LINE
  5
197C7
330
13E12
100
AcDbEntity
  8
YKK_A1
  6
Continuous
 48
1.5
100
AcDbLine
 10
2772.153486491021
 20
16801.49492527679
 30
0.0
 11
2754.153487563904
 21
16801.4949252768
 31
0.0
  0
LINE
  5
197C8
330
13E12
100
AcDbEntity
  8
YKK_A1
  6
Continuous
 48
1.5
100
AcDbLine
 10
2777.153486193027
 20
17001.49491335586
 30
0.0
 11
2749.153487861957
 21
17001.49491335587
 31
0.0
  0
LINE
  5
197C9
330
13E12
100
AcDbEntity
  8
YKK_A1
  6
Continuous
 48
1.5
100
AcDbLine
 10
2753.153487623539
 20
16980.49491460757
 30
0.0
 11
2753.153487623509
 21
16802.4949252172
 31
0.0
  0
ARC
  5
197CA
330
13E12
100
AcDbEntity
  8
YKK_A1
  6
Continuous
 48
1.5
100
AcDbCircle
 10
2880.135579267422
 20
16782.49492640929
 30
0.0
 40
0.9999999403953561
100
AcDbArc
 50
270.0
 51
0.0
  0
ARC
  5
197CB
330
13E12
100
AcDbEntity
  8
YKK_A1
  6
Continuous
 48
1.5
100
AcDbCircle
 10
2852.135580936323
 20
17000.49491341546
 30
0.0
 40
0.9999999403953561
100
AcDbArc
 50
90.0
 51
180.0
  0
ARC
  5
197CC
330
13E12
100
AcDbEntity
  8
YKK_A1
  6
Continuous
 48
1.5
100
AcDbCircle
 10
2852.135580936352
 20
16782.49492640928
 30
0.0
 40
0.9999999403953561
100
AcDbArc
 50
180.0
 51
270.0
  0
ARC
  5
197CD
330
13E12
100
AcDbEntity
  8
YKK_A1
  6
Continuous
 48
1.5
100
AcDbCircle
 10
2880.135579267393
 20
17000.49491341548
 30
0.0
 40
0.9999999403953561
100
AcDbArc
 50
0.0
 51
90.0
  0
ARC
  5
197CE
330
13E12
100
AcDbEntity
  8
YKK_A1
  6
Continuous
 48
1.5
100
AcDbCircle
 10
2875.135579565446
 20
16802.4949252172
 30
0.0
 40
0.9999999403953561
100
AcDbArc
 50
270.0
 51
0.0
  0
ARC
  5
197CF
330
13E12
100
AcDbEntity
  8
YKK_A1
  6
Continuous
 48
1.5
100
AcDbCircle
 10
2875.135579565416
 20
16980.49491460757
 30
0.0
 40
0.9999999403953561
100
AcDbArc
 50
0.0
 51
90.0
  0
ARC
  5
197D0
330
13E12
100
AcDbEntity
  8
YKK_A1
  6
Continuous
 48
1.5
100
AcDbCircle
 10
2857.1355806383
 20
16980.49491460756
 30
0.0
 40
0.9999999403953561
100
AcDbArc
 50
90.0
 51
180.0
  0
ARC
  5
197D1
330
13E12
100
AcDbEntity
  8
YKK_A1
  6
Continuous
 48
1.5
100
AcDbCircle
 10
2857.135580638329
 20
16802.49492521718
 30
0.0
 40
0.9999999403953561
100
AcDbArc
 50
180.0
 51
270.0
  0
LINE
  5
197D2
330
13E12
100
AcDbEntity
  8
YKK_A1
  6
Continuous
 48
1.5
100
AcDbLine
 10
2856.135580697904
 20
16980.49491460756
 30
0.0
 11
2856.135580697934
 21
16802.49492521718
 31
0.0
  0
LINE
  5
197D3
330
13E12
100
AcDbEntity
  8
YKK_A1
  6
Continuous
 48
1.5
100
AcDbLine
 10
2881.135579207788
 20
17000.49491341548
 30
0.0
 11
2881.135579207818
 21
16782.49492640929
 31
0.0
  0
LINE
  5
197D4
330
13E12
100
AcDbEntity
  8
YKK_A1
  6
Continuous
 48
1.5
100
AcDbLine
 10
2852.135580936352
 20
16781.49492646888
 30
0.0
 11
2880.135579267422
 21
16781.4949264689
 31
0.0
  0
LINE
  5
197D5
330
13E12
100
AcDbEntity
  8
YKK_A1
  6
Continuous
 48
1.5
100
AcDbLine
 10
2851.135580995928
 20
17000.49491341546
 30
0.0
 11
2851.135580995957
 21
16782.49492640928
 31
0.0
  0
LINE
  5
197D6
330
13E12
100
AcDbEntity
  8
YKK_A1
  6
Continuous
 48
1.5
100
AcDbLine
 10
2857.1355806383
 20
16981.49491454795
 30
0.0
 11
2875.135579565416
 21
16981.49491454797
 31
0.0
  0
LINE
  5
197D7
330
13E12
100
AcDbEntity
  8
YKK_A1
  6
Continuous
 48
1.5
100
AcDbLine
 10
2857.135580638329
 20
16801.49492527679
 30
0.0
 11
2875.135579565446
 21
16801.4949252768
 31
0.0
  0
LINE
  5
197D8
330
13E12
100
AcDbEntity
  8
YKK_A1
  6
Continuous
 48
1.5
100
AcDbLine
 10
2852.135580936323
 20
17001.49491335586
 30
0.0
 11
2880.135579267393
 21
17001.49491335587
 31
0.0
  0
LINE
  5
197D9
330
13E12
100
AcDbEntity
  8
YKK_A1
  6
Continuous
 48
1.5
100
AcDbLine
 10
2876.135579505812
 20
16980.49491460757
 30
0.0
 11
2876.135579505841
 21
16802.4949252172
 31
0.0
  0
LINE
  5
197DA
330
13E12
100
AcDbEntity
  8
YKK_N1
  6
Continuous
100
AcDbLine
 10
4531.144557741922
 20
17985.50000000001
 30
0.0
 11
4656.144557741922
 21
17985.50000000001
 31
0.0
  0
LINE
  5
197DB
330
13E12
100
AcDbEntity
  8
YKK_N1
  6
Continuous
100
AcDbLine
 10
4606.144557741922
 20
17898.89745962156
 30
0.0
 11
4706.144557741922
 21
17898.89745962156
 31
0.0
  0
LINE
  5
197DC
330
13E12
100
AcDbEntity
  8
YKK_N1
  6
Continuous
100
AcDbLine
 10
4606.144557741922
 20
17898.89745962156
 30
0.0
 11
4656.144557741922
 21
17985.50000000001
 31
0.0
  0
LINE
  5
197DD
330
13E12
100
AcDbEntity
  8
YKK_N1
  6
Continuous
100
AcDbLine
 10
4656.144557741922
 20
17985.50000000001
 30
0.0
 11
4706.144557741922
 21
17898.89745962156
 31
0.0
  0
LINE
  5
197DE
330
13E12
100
AcDbEntity
  8
YKK_N1
  6
Continuous
100
AcDbLine
 10
4606.144557741922
 20
16039.10254037845
 30
0.0
 11
4706.144557741922
 21
16039.10254037845
 31
0.0
  0
LINE
  5
197DF
330
13E12
100
AcDbEntity
  8
YKK_N1
  6
Continuous
100
AcDbLine
 10
4531.144557741922
 20
15952.50000000001
 30
0.0
 11
4656.144557741922
 21
15952.50000000001
 31
0.0
  0
LINE
  5
197E0
330
13E12
100
AcDbEntity
  8
YKK_N1
  6
Continuous
100
AcDbLine
 10
4606.144557741922
 20
16039.10254037845
 30
0.0
 11
4656.144557741922
 21
15952.50000000001
 31
0.0
  0
LINE
  5
197E1
330
13E12
100
AcDbEntity
  8
YKK_N1
  6
Continuous
100
AcDbLine
 10
4656.144557741922
 20
15952.50000000001
 30
0.0
 11
4706.144557741922
 21
16039.10254037845
 31
0.0
  0
LINE
  5
197E2
330
13E12
100
AcDbEntity
  8
YKK_N1
  6
Continuous
100
AcDbLine
 10
4656.144557741922
 20
17985.50000000001
 30
0.0
 11
4656.144557741922
 21
15952.50000000001
 31
0.0
  0
TEXT
  5
197E3
330
13E12
100
AcDbEntity
  8
YKK_N1
100
AcDbText
 10
4644.144557741921
 20
16803.99995038148
 30
0.0
 40
60.0
  1
H=2033
 50
90.00000000000003
 72
     4
 11
4614.144557741922
 21
16968.99995038148
 31
0.0
100
AcDbText
1001
YTEXT_INFOMATION
1002
{
1000
H=2033
1002
}
1000
MC
1010
-165.0
1020
-29.99999999999988
1030
0.0
1040
60.0
1070
     0
1002
{
1000
TEXTOBJECTS
1000
197E3
1002
}
  0
LINE
  5
197E4
330
13E12
100
AcDbEntity
  8
YKK_N1
  6
Continuous
100
AcDbLine
 10
4367.042120562226
 20
15802.50197482289
 30
0.0
 11
4453.64466094067
 21
15752.50197482289
 31
0.0
  0
LINE
  5
197E5
330
13E12
100
AcDbEntity
  8
YKK_N1
  6
Continuous
100
AcDbLine
 10
4367.042120562226
 20
15802.50197482289
 30
0.0
 11
4367.042120562226
 21
15702.50197482289
 31
0.0
  0
LINE
  5
197E6
330
13E12
100
AcDbEntity
  8
YKK_N1
  6
Continuous
100
AcDbLine
 10
4367.042120562226
 20
15702.50197482289
 30
0.0
 11
4453.64466094067
 21
15752.50197482289
 31
0.0
  0
LINE
  5
197E7
330
13E12
100
AcDbEntity
  8
YKK_N1
  6
Continuous
100
AcDbLine
 10
4453.64466094067
 20
15877.50197482289
 30
0.0
 11
4453.64466094067
 21
15752.50197482289
 31
0.0
  0
TEXT
  5
197E8
330
13E12
100
AcDbEntity
  8
YKK_N1
  6
Continuous
100
AcDbText
 10
2634.644611322146
 20
15764.50197482289
 30
0.0
 40
60.0
  1
W=3278
 72
     4
 11
2814.644611322147
 21
15794.50197482289
 31
0.0
100
AcDbText
  0
LINE
  5
197E9
330
13E12
100
AcDbEntity
  8
YKK_N1
  6
Continuous
100
AcDbLine
 10
1262.247201319114
 20
15802.50197482289
 30
0.0
 11
1262.247201319114
 21
15702.50197482289
 31
0.0
  0
LINE
  5
197EA
330
13E12
100
AcDbEntity
  8
YKK_N1
  6
Continuous
100
AcDbLine
 10
1175.64466094067
 20
15752.50197482289
 30
0.0
 11
1262.247201319114
 21
15702.50197482289
 31
0.0
  0
LINE
  5
197EB
330
13E12
100
AcDbEntity
  8
YKK_N1
  6
Continuous
100
AcDbLine
 10
1175.64466094067
 20
15752.50197482289
 30
0.0
 11
1262.247201319114
 21
15802.50197482289
 31
0.0
  0
LINE
  5
197EC
330
13E12
100
AcDbEntity
  8
YKK_N1
  6
Continuous
100
AcDbLine
 10
1175.64466094067
 20
15877.50197482289
 30
0.0
 11
1175.64466094067
 21
15752.50197482289
 31
0.0
  0
LINE
  5
197ED
330
13E12
100
AcDbEntity
  8
YKK_N1
  6
Continuous
100
AcDbLine
 10
1175.64466094067
 20
15752.50197482289
 30
0.0
 11
4453.64466094067
 21
15752.50197482289
 31
0.0
  0
LINE
  5
1983F
330
13E12
100
AcDbEntity
  8
YKK_A1
  6
YDIVIDE_1
 48
1.5
100
AcDbLine
 10
6768.51164456927
 20
15952.50197482289
 30
0.0
 11
10137.14455774192
 21
15952.50197482289
 31
0.0
  0
LINE
  5
19840
330
13E12
100
AcDbEntity
  8
YKK_A1
  6
YDIVIDE_1
 48
1.5
100
AcDbLine
 10
6768.511643274789
 20
18050.50490709881
 30
0.0
 11
6873.144663744169
 21
18050.50490709881
 31
0.0
  0
LINE
  5
19841
330
13E12
100
AcDbEntity
  8
YKK_A1
  6
Continuous
 48
1.5
100
AcDbLine
 10
8516.144533587022
 20
17990.50490620474
 30
0.0
 11
8516.144533587022
 21
15961.49497504641
 31
0.0
  0
LINE
  5
19842
330
13E12
100
AcDbEntity
  8
YKK_A1
  6
Continuous
 48
1.5
100
AcDbLine
 10
8516.144533587031
 20
15961.49497504641
 30
0.0
 11
9330.134545567561
 21
15961.49497504641
 31
0.0
  0
LINE
  5
19843
330
13E12
100
AcDbEntity
  8
YKK_A1
  6
Continuous
 48
1.5
100
AcDbLine
 10
9330.134545567561
 20
17990.50490620474
 30
0.0
 11
9330.134545567561
 21
15961.49497504641
 31
0.0
  0
LINE
  5
19844
330
13E12
100
AcDbEntity
  8
YKK_A1
  6
YHIDDEN_1
 48
1.5
100
AcDbLine
 10
9330.134545567561
 20
17990.50490620474
 30
0.0
 11
8516.144533587022
 21
17990.50490620474
 31
0.0
  0
LINE
  5
19845
330
13E12
100
AcDbEntity
  8
YKK_A1
  6
Continuous
 48
1.5
100
AcDbLine
 10
8918.144539577232
 20
17229.86881129519
 30
0.0
 11
8798.144537789092
 21
17229.86881129519
 31
0.0
  0
LINE
  5
19846
330
13E12
100
AcDbEntity
  8
YKK_A1
  6
Continuous
 48
1.5
100
AcDbLine
 10
8798.144537789092
 20
17229.86881129519
 30
0.0
 11
8798.144537789092
 21
17169.86881040113
 31
0.0
  0
LINE
  5
19847
330
13E12
100
AcDbEntity
  8
YKK_A1
  6
Continuous
 48
1.5
100
AcDbLine
 10
8798.144537789092
 20
17169.86881040113
 30
0.0
 11
8918.144539577232
 21
17169.86881040113
 31
0.0
  0
LINE
  5
19848
330
13E12
100
AcDbEntity
  8
YKK_A1
  6
Continuous
 48
1.5
100
AcDbLine
 10
8918.144539577232
 20
17130.58677751302
 30
0.0
 11
8918.144539577232
 21
17169.86881040113
 31
0.0
  0
LINE
  5
19849
330
13E12
100
AcDbEntity
  8
YKK_A1
  6
Continuous
 48
1.5
100
AcDbLine
 10
9038.144541365371
 20
17199.86881084816
 30
0.0
 11
8918.144539577232
 21
17269.1508441833
 31
0.0
  0
LINE
  5
1984A
330
13E12
100
AcDbEntity
  8
YKK_A1
  6
Continuous
 48
1.5
100
AcDbLine
 10
9038.144541365371
 20
17199.86881084816
 30
0.0
 11
8918.144539577232
 21
17130.58677751302
 31
0.0
  0
LINE
  5
1984B
330
13E12
100
AcDbEntity
  8
YKK_A1
  6
Continuous
 48
1.5
100
AcDbLine
 10
8918.144539577232
 20
17229.86881129519
 30
0.0
 11
8918.144539577232
 21
17269.1508441833
 31
0.0
  0
LINE
  5
1984C
330
13E12
100
AcDbEntity
  8
YKK_A1
  6
Continuous
 48
1.5
100
AcDbLine
 10
8513.14453354232
 20
17990.50490620474
 30
0.0
 11
8513.14453354232
 21
15961.49497504641
 31
0.0
  0
LINE
  5
1984D
330
13E12
100
AcDbEntity
  8
YKK_A1
  6
Continuous
 48
1.5
100
AcDbLine
 10
8513.153484047812
 20
15961.49497504641
 30
0.0
 11
7699.154521561787
 21
15961.49497504641
 31
0.0
  0
LINE
  5
1984E
330
13E12
100
AcDbEntity
  8
YKK_A1
  6
Continuous
 48
1.5
100
AcDbLine
 10
7699.154521561787
 20
17990.50490620474
 30
0.0
 11
7699.154521561796
 21
15961.49497504641
 31
0.0
  0
LINE
  5
1984F
330
13E12
100
AcDbEntity
  8
YKK_A1
  6
YHIDDEN_1
 48
1.5
100
AcDbLine
 10
7699.154521561787
 20
17990.50490620474
 30
0.0
 11
8513.14453354232
 21
17990.50490620474
 31
0.0
  0
LINE
  5
19850
330
13E12
100
AcDbEntity
  8
YKK_A1
  6
Continuous
 48
1.5
100
AcDbLine
 10
8111.144527552111
 20
17229.86881129519
 30
0.0
 11
8231.14452934025
 21
17229.86881129519
 31
0.0
  0
LINE
  5
19851
330
13E12
100
AcDbEntity
  8
YKK_A1
  6
Continuous
 48
1.5
100
AcDbLine
 10
8231.14452934025
 20
17229.86881129519
 30
0.0
 11
8231.14452934025
 21
17169.86881040113
 31
0.0
  0
LINE
  5
19852
330
13E12
100
AcDbEntity
  8
YKK_A1
  6
Continuous
 48
1.5
100
AcDbLine
 10
8231.14452934025
 20
17169.86881040113
 30
0.0
 11
8111.144527552111
 21
17169.86881040113
 31
0.0
  0
LINE
  5
19853
330
13E12
100
AcDbEntity
  8
YKK_A1
  6
Continuous
 48
1.5
100
AcDbLine
 10
8111.144527552111
 20
17130.58677751302
 30
0.0
 11
8111.144527552111
 21
17169.86881040113
 31
0.0
  0
LINE
  5
19854
330
13E12
100
AcDbEntity
  8
YKK_A1
  6
Continuous
 48
1.5
100
AcDbLine
 10
7991.144525763971
 20
17199.86881084816
 30
0.0
 11
8111.144527552111
 21
17269.1508441833
 31
0.0
  0
LINE
  5
19855
330
13E12
100
AcDbEntity
  8
YKK_A1
  6
Continuous
 48
1.5
100
AcDbLine
 10
7991.144525763971
 20
17199.86881084816
 30
0.0
 11
8111.144527552111
 21
17130.58677751302
 31
0.0
  0
LINE
  5
19856
330
13E12
100
AcDbEntity
  8
YKK_A1
  6
Continuous
 48
1.5
100
AcDbLine
 10
8111.144527552111
 20
17229.86881129519
 30
0.0
 11
8111.144527552111
 21
17269.1508441833
 31
0.0
  0
LINE
  5
19857
330
13E12
100
AcDbEntity
  8
YKK_A1
  6
Continuous
 48
1.5
100
AcDbLine
 10
6873.14470938754
 20
17985.50490613023
 30
0.0
 11
6873.14470938754
 21
18050.50490709881
 31
0.0
  0
LINE
  5
19858
330
13E12
100
AcDbEntity
  8
YKK_A1
  6
Continuous
 48
1.5
100
AcDbLine
 10
6873.14470938754
 20
18050.50490709881
 30
0.0
 11
10156.14455774192
 21
18050.50490709881
 31
0.0
  0
LINE
  5
19859
330
13E12
100
AcDbEntity
  8
YKK_A1
  6
Continuous
 48
1.5
100
AcDbLine
 10
10156.14455774192
 20
17985.50490613023
 30
0.0
 11
6873.14470938754
 21
17985.50490613023
 31
0.0
  0
LINE
  5
1985A
330
13E12
100
AcDbEntity
  8
YKK_A1
  6
Continuous
 48
1.5
100
AcDbLine
 10
10156.14455774192
 20
17985.50490613023
 30
0.0
 11
10156.14455774192
 21
18050.50490709881
 31
0.0
  0
ARC
  5
1985B
330
13E12
100
AcDbEntity
  8
YKK_A1
  6
Continuous
 48
1.5
100
AcDbCircle
 10
8449.153487861927
 20
16782.49492640929
 30
0.0
 40
0.9999999403953561
100
AcDbArc
 50
179.9999999998957
 51
270.0
  0
ARC
  5
1985C
330
13E12
100
AcDbEntity
  8
YKK_A1
  6
Continuous
 48
1.5
100
AcDbCircle
 10
8477.153486193026
 20
17000.49491341546
 30
0.0
 40
0.9999999403953561
100
AcDbArc
 50
359.9999999998958
 51
90.0
  0
ARC
  5
1985D
330
13E12
100
AcDbEntity
  8
YKK_A1
  6
Continuous
 48
1.5
100
AcDbCircle
 10
8477.153486192998
 20
16782.49492640928
 30
0.0
 40
0.9999999403953561
100
AcDbArc
 50
270.0
 51
359.9999999998958
  0
ARC
  5
1985E
330
13E12
100
AcDbEntity
  8
YKK_A1
  6
Continuous
 48
1.5
100
AcDbCircle
 10
8449.153487861957
 20
17000.49491341548
 30
0.0
 40
0.9999999403953561
100
AcDbArc
 50
90.0
 51
179.9999999998957
  0
ARC
  5
1985F
330
13E12
100
AcDbEntity
  8
YKK_A1
  6
Continuous
 48
1.5
100
AcDbCircle
 10
8454.153487563905
 20
16802.4949252172
 30
0.0
 40
0.9999999403953561
100
AcDbArc
 50
179.9999999998957
 51
270.0
  0
ARC
  5
19860
330
13E12
100
AcDbEntity
  8
YKK_A1
  6
Continuous
 48
1.5
100
AcDbCircle
 10
8454.153487563933
 20
16980.49491460757
 30
0.0
 40
0.9999999403953561
100
AcDbArc
 50
90.0
 51
179.9999999998957
  0
ARC
  5
19861
330
13E12
100
AcDbEntity
  8
YKK_A1
  6
Continuous
 48
1.5
100
AcDbCircle
 10
8472.15348649105
 20
16980.49491460756
 30
0.0
 40
0.9999999403953561
100
AcDbArc
 50
359.9999999998958
 51
90.0
  0
ARC
  5
19862
330
13E12
100
AcDbEntity
  8
YKK_A1
  6
Continuous
 48
1.5
100
AcDbCircle
 10
8472.153486491022
 20
16802.49492521718
 30
0.0
 40
0.9999999403953561
100
AcDbArc
 50
270.0
 51
359.9999999998958
  0
LINE
  5
19863
330
13E12
100
AcDbEntity
  8
YKK_A1
  6
Continuous
 48
1.5
100
AcDbLine
 10
8473.153486431446
 20
16980.49491460756
 30
0.0
 11
8473.153486431417
 21
16802.49492521718
 31
0.0
  0
LINE
  5
19864
330
13E12
100
AcDbEntity
  8
YKK_A1
  6
Continuous
 48
1.5
100
AcDbLine
 10
8448.153487921562
 20
17000.49491341548
 30
0.0
 11
8448.153487921533
 21
16782.49492640929
 31
0.0
  0
LINE
  5
19865
330
13E12
100
AcDbEntity
  8
YKK_A1
  6
Continuous
 48
1.5
100
AcDbLine
 10
8477.153486192998
 20
16781.49492646888
 30
0.0
 11
8449.153487861927
 21
16781.4949264689
 31
0.0
  0
LINE
  5
19866
330
13E12
100
AcDbEntity
  8
YKK_A1
  6
Continuous
 48
1.5
100
AcDbLine
 10
8478.153486133422
 20
17000.49491341546
 30
0.0
 11
8478.153486133393
 21
16782.49492640928
 31
0.0
  0
LINE
  5
19867
330
13E12
100
AcDbEntity
  8
YKK_A1
  6
Continuous
 48
1.5
100
AcDbLine
 10
8472.15348649105
 20
16981.49491454795
 30
0.0
 11
8454.153487563933
 21
16981.49491454797
 31
0.0
  0
LINE
  5
19868
330
13E12
100
AcDbEntity
  8
YKK_A1
  6
Continuous
 48
1.5
100
AcDbLine
 10
8472.153486491022
 20
16801.49492527679
 30
0.0
 11
8454.153487563905
 21
16801.4949252768
 31
0.0
  0
LINE
  5
19869
330
13E12
100
AcDbEntity
  8
YKK_A1
  6
Continuous
 48
1.5
100
AcDbLine
 10
8477.153486193026
 20
17001.49491335586
 30
0.0
 11
8449.153487861957
 21
17001.49491335587
 31
0.0
  0
LINE
  5
1986A
330
13E12
100
AcDbEntity
  8
YKK_A1
  6
Continuous
 48
1.5
100
AcDbLine
 10
8453.153487623538
 20
16980.49491460757
 30
0.0
 11
8453.153487623509
 21
16802.4949252172
 31
0.0
  0
ARC
  5
1986B
330
13E12
100
AcDbEntity
  8
YKK_A1
  6
Continuous
 48
1.5
100
AcDbCircle
 10
8580.135579267423
 20
16782.49492640929
 30
0.0
 40
0.9999999403953561
100
AcDbArc
 50
270.0
 51
0.0
  0
ARC
  5
1986C
330
13E12
100
AcDbEntity
  8
YKK_A1
  6
Continuous
 48
1.5
100
AcDbCircle
 10
8552.135580936322
 20
17000.49491341546
 30
0.0
 40
0.9999999403953561
100
AcDbArc
 50
90.0
 51
180.0
  0
ARC
  5
1986D
330
13E12
100
AcDbEntity
  8
YKK_A1
  6
Continuous
 48
1.5
100
AcDbCircle
 10
8552.135580936353
 20
16782.49492640928
 30
0.0
 40
0.9999999403953561
100
AcDbArc
 50
180.0
 51
270.0
  0
ARC
  5
1986E
330
13E12
100
AcDbEntity
  8
YKK_A1
  6
Continuous
 48
1.5
100
AcDbCircle
 10
8580.135579267393
 20
17000.49491341548
 30
0.0
 40
0.9999999403953561
100
AcDbArc
 50
0.0
 51
90.0
  0
ARC
  5
1986F
330
13E12
100
AcDbEntity
  8
YKK_A1
  6
Continuous
 48
1.5
100
AcDbCircle
 10
8575.135579565445
 20
16802.4949252172
 30
0.0
 40
0.9999999403953561
100
AcDbArc
 50
270.0
 51
0.0
  0
ARC
  5
19870
330
13E12
100
AcDbEntity
  8
YKK_A1
  6
Continuous
 48
1.5
100
AcDbCircle
 10
8575.135579565417
 20
16980.49491460757
 30
0.0
 40
0.9999999403953561
100
AcDbArc
 50
0.0
 51
90.0
  0
ARC
  5
19871
330
13E12
100
AcDbEntity
  8
YKK_A1
  6
Continuous
 48
1.5
100
AcDbCircle
 10
8557.1355806383
 20
16980.49491460756
 30
0.0
 40
0.9999999403953561
100
AcDbArc
 50
90.0
 51
180.0
  0
ARC
  5
19872
330
13E12
100
AcDbEntity
  8
YKK_A1
  6
Continuous
 48
1.5
100
AcDbCircle
 10
8557.135580638329
 20
16802.49492521718
 30
0.0
 40
0.9999999403953561
100
AcDbArc
 50
180.0
 51
270.0
  0
LINE
  5
19873
330
13E12
100
AcDbEntity
  8
YKK_A1
  6
Continuous
 48
1.5
100
AcDbLine
 10
8556.135580697905
 20
16980.49491460756
 30
0.0
 11
8556.135580697933
 21
16802.49492521718
 31
0.0
  0
LINE
  5
19874
330
13E12
100
AcDbEntity
  8
YKK_A1
  6
Continuous
 48
1.5
100
AcDbLine
 10
8581.135579207789
 20
17000.49491341548
 30
0.0
 11
8581.135579207817
 21
16782.49492640929
 31
0.0
  0
LINE
  5
19875
330
13E12
100
AcDbEntity
  8
YKK_A1
  6
Continuous
 48
1.5
100
AcDbLine
 10
8552.135580936353
 20
16781.49492646888
 30
0.0
 11
8580.135579267423
 21
16781.4949264689
 31
0.0
  0
LINE
  5
19876
330
13E12
100
AcDbEntity
  8
YKK_A1
  6
Continuous
 48
1.5
100
AcDbLine
 10
8551.135580995929
 20
17000.49491341546
 30
0.0
 11
8551.135580995957
 21
16782.49492640928
 31
0.0
  0
LINE
  5
19877
330
13E12
100
AcDbEntity
  8
YKK_A1
  6
Continuous
 48
1.5
100
AcDbLine
 10
8557.1355806383
 20
16981.49491454795
 30
0.0
 11
8575.135579565417
 21
16981.49491454797
 31
0.0
  0
LINE
  5
19878
330
13E12
100
AcDbEntity
  8
YKK_A1
  6
Continuous
 48
1.5
100
AcDbLine
 10
8557.135580638329
 20
16801.49492527679
 30
0.0
 11
8575.135579565445
 21
16801.4949252768
 31
0.0
  0
LINE
  5
19879
330
13E12
100
AcDbEntity
  8
YKK_A1
  6
Continuous
 48
1.5
100
AcDbLine
 10
8552.135580936322
 20
17001.49491335586
 30
0.0
 11
8580.135579267393
 21
17001.49491335587
 31
0.0
  0
LINE
  5
1987A
330
13E12
100
AcDbEntity
  8
YKK_A1
  6
Continuous
 48
1.5
100
AcDbLine
 10
8576.135579505812
 20
16980.49491460757
 30
0.0
 11
8576.135579505841
 21
16802.4949252172
 31
0.0
  0
LINE
  5
1987B
330
13E12
100
AcDbEntity
  8
YKK_N1
  6
Continuous
100
AcDbLine
 10
10231.14455774192
 20
17985.50000000001
 30
0.0
 11
10356.14455774192
 21
17985.50000000001
 31
0.0
  0
LINE
  5
1987C
330
13E12
100
AcDbEntity
  8
YKK_N1
  6
Continuous
100
AcDbLine
 10
10306.14455774192
 20
17898.89745962156
 30
0.0
 11
10406.14455774192
 21
17898.89745962156
 31
0.0
  0
LINE
  5
1987D
330
13E12
100
AcDbEntity
  8
YKK_N1
  6
Continuous
100
AcDbLine
 10
10306.14455774192
 20
17898.89745962156
 30
0.0
 11
10356.14455774192
 21
17985.50000000001
 31
0.0
  0
LINE
  5
1987E
330
13E12
100
AcDbEntity
  8
YKK_N1
  6
Continuous
100
AcDbLine
 10
10356.14455774192
 20
17985.50000000001
 30
0.0
 11
10406.14455774192
 21
17898.89745962156
 31
0.0
  0
LINE
  5
1987F
330
13E12
100
AcDbEntity
  8
YKK_N1
  6
Continuous
100
AcDbLine
 10
10306.14455774192
 20
16039.10254037845
 30
0.0
 11
10406.14455774192
 21
16039.10254037845
 31
0.0
  0
LINE
  5
19880
330
13E12
100
AcDbEntity
  8
YKK_N1
  6
Continuous
100
AcDbLine
 10
10231.14455774192
 20
15952.50000000001
 30
0.0
 11
10356.14455774192
 21
15952.50000000001
 31
0.0
  0
LINE
  5
19881
330
13E12
100
AcDbEntity
  8
YKK_N1
  6
Continuous
100
AcDbLine
 10
10306.14455774192
 20
16039.10254037845
 30
0.0
 11
10356.14455774192
 21
15952.50000000001
 31
0.0
  0
LINE
  5
19882
330
13E12
100
AcDbEntity
  8
YKK_N1
  6
Continuous
100
AcDbLine
 10
10356.14455774192
 20
15952.50000000001
 30
0.0
 11
10406.14455774192
 21
16039.10254037845
 31
0.0
  0
LINE
  5
19883
330
13E12
100
AcDbEntity
  8
YKK_N1
  6
Continuous
100
AcDbLine
 10
10356.14455774192
 20
17985.50000000001
 30
0.0
 11
10356.14455774192
 21
15952.50000000001
 31
0.0
  0
TEXT
  5
19884
330
13E12
100
AcDbEntity
  8
YKK_N1
100
AcDbText
 10
10344.14455774192
 20
16803.99995038148
 30
0.0
 40
60.0
  1
H=2033
 50
90.00000000000003
 72
     4
 11
10314.14455774192
 21
16968.99995038148
 31
0.0
100
AcDbText
1001
YTEXT_INFOMATION
1002
{
1000
H=2033
1002
}
1000
MC
1010
-165.0
1020
-29.99999999999988
1030
0.0
1040
60.0
1070
     0
1002
{
1000
TEXTOBJECTS
1000
19884
1002
}
  0
LINE
  5
19885
330
13E12
100
AcDbEntity
  8
YKK_N1
  6
Continuous
100
AcDbLine
 10
10067.04212056222
 20
15802.50197482289
 30
0.0
 11
10153.64466094067
 21
15752.50197482289
 31
0.0
  0
LINE
  5
19886
330
13E12
100
AcDbEntity
  8
YKK_N1
  6
Continuous
100
AcDbLine
 10
10067.04212056222
 20
15802.50197482289
 30
0.0
 11
10067.04212056222
 21
15702.50197482289
 31
0.0
  0
LINE
  5
19887
330
13E12
100
AcDbEntity
  8
YKK_N1
  6
Continuous
100
AcDbLine
 10
10067.04212056222
 20
15702.50197482289
 30
0.0
 11
10153.64466094067
 21
15752.50197482289
 31
0.0
  0
LINE
  5
19888
330
13E12
100
AcDbEntity
  8
YKK_N1
  6
Continuous
100
AcDbLine
 10
10153.64466094067
 20
15877.50197482289
 30
0.0
 11
10153.64466094067
 21
15752.50197482289
 31
0.0
  0
TEXT
  5
19889
330
13E12
100
AcDbEntity
  8
YKK_N1
  6
Continuous
100
AcDbText
 10
8334.644611322145
 20
15764.50197482289
 30
0.0
 40
60.0
  1
W=3278
 72
     4
 11
8514.644611322147
 21
15794.50197482289
 31
0.0
100
AcDbText
  0
LINE
  5
1988A
330
13E12
100
AcDbEntity
  8
YKK_N1
  6
Continuous
100
AcDbLine
 10
6962.247201319114
 20
15802.50197482289
 30
0.0
 11
6962.247201319114
 21
15702.50197482289
 31
0.0
  0
LINE
  5
1988B
330
13E12
100
AcDbEntity
  8
YKK_N1
  6
Continuous
100
AcDbLine
 10
6875.644660940671
 20
15752.50197482289
 30
0.0
 11
6962.247201319114
 21
15702.50197482289
 31
0.0
  0
LINE
  5
1988C
330
13E12
100
AcDbEntity
  8
YKK_N1
  6
Continuous
100
AcDbLine
 10
6875.644660940671
 20
15752.50197482289
 30
0.0
 11
6962.247201319114
 21
15802.50197482289
 31
0.0
  0
LINE
  5
1988D
330
13E12
100
AcDbEntity
  8
YKK_N1
  6
Continuous
100
AcDbLine
 10
6875.644660940671
 20
15877.50197482289
 30
0.0
 11
6875.644660940671
 21
15752.50197482289
 31
0.0
  0
LINE
  5
1988E
330
13E12
100
AcDbEntity
  8
YKK_N1
  6
Continuous
100
AcDbLine
 10
6875.644660940671
 20
15752.50197482289
 30
0.0
 11
10153.64466094067
 21
15752.50197482289
 31
0.0
  0
LINE
  5
1988F
330
13E12
100
AcDbEntity
  8
YKK_A1
  6
YDIVIDE_1
 48
1.5
100
AcDbLine
 10
12468.51164456927
 20
15952.50197482289
 30
0.0
 11
15837.14455774192
 21
15952.50197482289
 31
0.0
  0
LINE
  5
19890
330
13E12
100
AcDbEntity
  8
YKK_A1
  6
YDIVIDE_1
 48
1.5
100
AcDbLine
 10
12468.51164327479
 20
18050.50490709881
 30
0.0
 11
12573.14466374417
 21
18050.50490709881
 31
0.0
  0
LINE
  5
19891
330
13E12
100
AcDbEntity
  8
YKK_A1
  6
Continuous
 48
1.5
100
AcDbLine
 10
14216.14453358702
 20
17990.50490620474
 30
0.0
 11
14216.14453358702
 21
15961.49497504641
 31
0.0
  0
LINE
  5
19892
330
13E12
100
AcDbEntity
  8
YKK_A1
  6
Continuous
 48
1.5
100
AcDbLine
 10
14216.14453358703
 20
15961.49497504641
 30
0.0
 11
15030.13454556756
 21
15961.49497504641
 31
0.0
  0
LINE
  5
19893
330
13E12
100
AcDbEntity
  8
YKK_A1
  6
Continuous
 48
1.5
100
AcDbLine
 10
15030.13454556756
 20
17990.50490620474
 30
0.0
 11
15030.13454556756
 21
15961.49497504641
 31
0.0
  0
LINE
  5
19894
330
13E12
100
AcDbEntity
  8
YKK_A1
  6
YHIDDEN_1
 48
1.5
100
AcDbLine
 10
15030.13454556756
 20
17990.50490620474
 30
0.0
 11
14216.14453358702
 21
17990.50490620474
 31
0.0
  0
LINE
  5
19895
330
13E12
100
AcDbEntity
  8
YKK_A1
  6
Continuous
 48
1.5
100
AcDbLine
 10
14618.14453957723
 20
17229.86881129519
 30
0.0
 11
14498.14453778909
 21
17229.86881129519
 31
0.0
  0
LINE
  5
19896
330
13E12
100
AcDbEntity
  8
YKK_A1
  6
Continuous
 48
1.5
100
AcDbLine
 10
14498.14453778909
 20
17229.86881129519
 30
0.0
 11
14498.14453778909
 21
17169.86881040113
 31
0.0
  0
LINE
  5
19897
330
13E12
100
AcDbEntity
  8
YKK_A1
  6
Continuous
 48
1.5
100
AcDbLine
 10
14498.14453778909
 20
17169.86881040113
 30
0.0
 11
14618.14453957723
 21
17169.86881040113
 31
0.0
  0
LINE
  5
19898
330
13E12
100
AcDbEntity
  8
YKK_A1
  6
Continuous
 48
1.5
100
AcDbLine
 10
14618.14453957723
 20
17130.58677751302
 30
0.0
 11
14618.14453957723
 21
17169.86881040113
 31
0.0
  0
LINE
  5
19899
330
13E12
100
AcDbEntity
  8
YKK_A1
  6
Continuous
 48
1.5
100
AcDbLine
 10
14738.14454136537
 20
17199.86881084816
 30
0.0
 11
14618.14453957723
 21
17269.1508441833
 31
0.0
  0
LINE
  5
1989A
330
13E12
100
AcDbEntity
  8
YKK_A1
  6
Continuous
 48
1.5
100
AcDbLine
 10
14738.14454136537
 20
17199.86881084816
 30
0.0
 11
14618.14453957723
 21
17130.58677751302
 31
0.0
  0
LINE
  5
1989B
330
13E12
100
AcDbEntity
  8
YKK_A1
  6
Continuous
 48
1.5
100
AcDbLine
 10
14618.14453957723
 20
17229.86881129519
 30
0.0
 11
14618.14453957723
 21
17269.1508441833
 31
0.0
  0
LINE
  5
1989C
330
13E12
100
AcDbEntity
  8
YKK_A1
  6
Continuous
 48
1.5
100
AcDbLine
 10
14213.14453354232
 20
17990.50490620474
 30
0.0
 11
14213.14453354232
 21
15961.49497504641
 31
0.0
  0
LINE
  5
1989D
330
13E12
100
AcDbEntity
  8
YKK_A1
  6
Continuous
 48
1.5
100
AcDbLine
 10
14213.15348404781
 20
15961.49497504641
 30
0.0
 11
13399.15452156179
 21
15961.49497504641
 31
0.0
  0
LINE
  5
1989E
330
13E12
100
AcDbEntity
  8
YKK_A1
  6
Continuous
 48
1.5
100
AcDbLine
 10
13399.15452156179
 20
17990.50490620474
 30
0.0
 11
13399.15452156179
 21
15961.49497504641
 31
0.0
  0
LINE
  5
1989F
330
13E12
100
AcDbEntity
  8
YKK_A1
  6
YHIDDEN_1
 48
1.5
100
AcDbLine
 10
13399.15452156179
 20
17990.50490620474
 30
0.0
 11
14213.14453354232
 21
17990.50490620474
 31
0.0
  0
LINE
  5
198A0
330
13E12
100
AcDbEntity
  8
YKK_A1
  6
Continuous
 48
1.5
100
AcDbLine
 10
13811.14452755211
 20
17229.86881129519
 30
0.0
 11
13931.14452934025
 21
17229.86881129519
 31
0.0
  0
LINE
  5
198A1
330
13E12
100
AcDbEntity
  8
YKK_A1
  6
Continuous
 48
1.5
100
AcDbLine
 10
13931.14452934025
 20
17229.86881129519
 30
0.0
 11
13931.14452934025
 21
17169.86881040113
 31
0.0
  0
LINE
  5
198A2
330
13E12
100
AcDbEntity
  8
YKK_A1
  6
Continuous
 48
1.5
100
AcDbLine
 10
13931.14452934025
 20
17169.86881040113
 30
0.0
 11
13811.14452755211
 21
17169.86881040113
 31
0.0
  0
LINE
  5
198A3
330
13E12
100
AcDbEntity
  8
YKK_A1
  6
Continuous
 48
1.5
100
AcDbLine
 10
13811.14452755211
 20
17130.58677751302
 30
0.0
 11
13811.14452755211
 21
17169.86881040113
 31
0.0
  0
LINE
  5
198A4
330
13E12
100
AcDbEntity
  8
YKK_A1
  6
Continuous
 48
1.5
100
AcDbLine
 10
13691.14452576397
 20
17199.86881084816
 30
0.0
 11
13811.14452755211
 21
17269.1508441833
 31
0.0
  0
LINE
  5
198A5
330
13E12
100
AcDbEntity
  8
YKK_A1
  6
Continuous
 48
1.5
100
AcDbLine
 10
13691.14452576397
 20
17199.86881084816
 30
0.0
 11
13811.14452755211
 21
17130.58677751302
 31
0.0
  0
LINE
  5
198A6
330
13E12
100
AcDbEntity
  8
YKK_A1
  6
Continuous
 48
1.5
100
AcDbLine
 10
13811.14452755211
 20
17229.86881129519
 30
0.0
 11
13811.14452755211
 21
17269.1508441833
 31
0.0
  0
LINE
  5
198A7
330
13E12
100
AcDbEntity
  8
YKK_A1
  6
Continuous
 48
1.5
100
AcDbLine
 10
12573.14470938754
 20
17985.50490613023
 30
0.0
 11
12573.14470938754
 21
18050.50490709881
 31
0.0
  0
LINE
  5
198A8
330
13E12
100
AcDbEntity
  8
YKK_A1
  6
Continuous
 48
1.5
100
AcDbLine
 10
12573.14470938754
 20
18050.50490709881
 30
0.0
 11
15856.14455774192
 21
18050.50490709881
 31
0.0
  0
LINE
  5
198A9
330
13E12
100
AcDbEntity
  8
YKK_A1
  6
Continuous
 48
1.5
100
AcDbLine
 10
15856.14455774192
 20
17985.50490613023
 30
0.0
 11
12573.14470938754
 21
17985.50490613023
 31
0.0
  0
LINE
  5
198AA
330
13E12
100
AcDbEntity
  8
YKK_A1
  6
Continuous
 48
1.5
100
AcDbLine
 10
15856.14455774192
 20
17985.50490613023
 30
0.0
 11
15856.14455774192
 21
18050.50490709881
 31
0.0
  0
ARC
  5
198AB
330
13E12
100
AcDbEntity
  8
YKK_A1
  6
Continuous
 48
1.5
100
AcDbCircle
 10
14149.15348786192
 20
16782.49492640929
 30
0.0
 40
0.9999999403953561
100
AcDbArc
 50
179.9999999998957
 51
270.0
  0
ARC
  5
198AC
330
13E12
100
AcDbEntity
  8
YKK_A1
  6
Continuous
 48
1.5
100
AcDbCircle
 10
14177.15348619303
 20
17000.49491341546
 30
0.0
 40
0.9999999403953561
100
AcDbArc
 50
359.9999999998958
 51
90.0
  0
ARC
  5
198AD
330
13E12
100
AcDbEntity
  8
YKK_A1
  6
Continuous
 48
1.5
100
AcDbCircle
 10
14177.153486193
 20
16782.49492640928
 30
0.0
 40
0.9999999403953561
100
AcDbArc
 50
270.0
 51
359.9999999998958
  0
ARC
  5
198AE
330
13E12
100
AcDbEntity
  8
YKK_A1
  6
Continuous
 48
1.5
100
AcDbCircle
 10
14149.15348786196
 20
17000.49491341548
 30
0.0
 40
0.9999999403953561
100
AcDbArc
 50
90.0
 51
179.9999999998957
  0
ARC
  5
198AF
330
13E12
100
AcDbEntity
  8
YKK_A1
  6
Continuous
 48
1.5
100
AcDbCircle
 10
14154.1534875639
 20
16802.4949252172
 30
0.0
 40
0.9999999403953561
100
AcDbArc
 50
179.9999999998957
 51
270.0
  0
ARC
  5
198B0
330
13E12
100
AcDbEntity
  8
YKK_A1
  6
Continuous
 48
1.5
100
AcDbCircle
 10
14154.15348756393
 20
16980.49491460757
 30
0.0
 40
0.9999999403953561
100
AcDbArc
 50
90.0
 51
179.9999999998957
  0
ARC
  5
198B1
330
13E12
100
AcDbEntity
  8
YKK_A1
  6
Continuous
 48
1.5
100
AcDbCircle
 10
14172.15348649105
 20
16980.49491460756
 30
0.0
 40
0.9999999403953561
100
AcDbArc
 50
359.9999999998958
 51
90.0
  0
ARC
  5
198B2
330
13E12
100
AcDbEntity
  8
YKK_A1
  6
Continuous
 48
1.5
100
AcDbCircle
 10
14172.15348649102
 20
16802.49492521718
 30
0.0
 40
0.9999999403953561
100
AcDbArc
 50
270.0
 51
359.9999999998958
  0
LINE
  5
198B3
330
13E12
100
AcDbEntity
  8
YKK_A1
  6
Continuous
 48
1.5
100
AcDbLine
 10
14173.15348643144
 20
16980.49491460756
 30
0.0
 11
14173.15348643142
 21
16802.49492521718
 31
0.0
  0
LINE
  5
198B4
330
13E12
100
AcDbEntity
  8
YKK_A1
  6
Continuous
 48
1.5
100
AcDbLine
 10
14148.15348792156
 20
17000.49491341548
 30
0.0
 11
14148.15348792153
 21
16782.49492640929
 31
0.0
  0
LINE
  5
198B5
330
13E12
100
AcDbEntity
  8
YKK_A1
  6
Continuous
 48
1.5
100
AcDbLine
 10
14177.153486193
 20
16781.49492646888
 30
0.0
 11
14149.15348786192
 21
16781.4949264689
 31
0.0
  0
LINE
  5
198B6
330
13E12
100
AcDbEntity
  8
YKK_A1
  6
Continuous
 48
1.5
100
AcDbLine
 10
14178.15348613342
 20
17000.49491341546
 30
0.0
 11
14178.15348613339
 21
16782.49492640928
 31
0.0
  0
LINE
  5
198B7
330
13E12
100
AcDbEntity
  8
YKK_A1
  6
Continuous
 48
1.5
100
AcDbLine
 10
14172.15348649105
 20
16981.49491454795
 30
0.0
 11
14154.15348756393
 21
16981.49491454797
 31
0.0
  0
LINE
  5
198B8
330
13E12
100
AcDbEntity
  8
YKK_A1
  6
Continuous
 48
1.5
100
AcDbLine
 10
14172.15348649102
 20
16801.49492527679
 30
0.0
 11
14154.1534875639
 21
16801.4949252768
 31
0.0
  0
LINE
  5
198B9
330
13E12
100
AcDbEntity
  8
YKK_A1
  6
Continuous
 48
1.5
100
AcDbLine
 10
14177.15348619303
 20
17001.49491335586
 30
0.0
 11
14149.15348786196
 21
17001.49491335587
 31
0.0
  0
LINE
  5
198BA
330
13E12
100
AcDbEntity
  8
YKK_A1
  6
Continuous
 48
1.5
100
AcDbLine
 10
14153.15348762354
 20
16980.49491460757
 30
0.0
 11
14153.15348762351
 21
16802.4949252172
 31
0.0
  0
ARC
  5
198BB
330
13E12
100
AcDbEntity
  8
YKK_A1
  6
Continuous
 48
1.5
100
AcDbCircle
 10
14280.13557926742
 20
16782.49492640929
 30
0.0
 40
0.9999999403953561
100
AcDbArc
 50
270.0
 51
0.0
  0
ARC
  5
198BC
330
13E12
100
AcDbEntity
  8
YKK_A1
  6
Continuous
 48
1.5
100
AcDbCircle
 10
14252.13558093632
 20
17000.49491341546
 30
0.0
 40
0.9999999403953561
100
AcDbArc
 50
90.0
 51
180.0
  0
ARC
  5
198BD
330
13E12
100
AcDbEntity
  8
YKK_A1
  6
Continuous
 48
1.5
100
AcDbCircle
 10
14252.13558093635
 20
16782.49492640928
 30
0.0
 40
0.9999999403953561
100
AcDbArc
 50
180.0
 51
270.0
  0
ARC
  5
198BE
330
13E12
100
AcDbEntity
  8
YKK_A1
  6
Continuous
 48
1.5
100
AcDbCircle
 10
14280.13557926739
 20
17000.49491341548
 30
0.0
 40
0.9999999403953561
100
AcDbArc
 50
0.0
 51
90.0
  0
ARC
  5
198BF
330
13E12
100
AcDbEntity
  8
YKK_A1
  6
Continuous
 48
1.5
100
AcDbCircle
 10
14275.13557956544
 20
16802.4949252172
 30
0.0
 40
0.9999999403953561
100
AcDbArc
 50
270.0
 51
0.0
  0
ARC
  5
198C0
330
13E12
100
AcDbEntity
  8
YKK_A1
  6
Continuous
 48
1.5
100
AcDbCircle
 10
14275.13557956541
 20
16980.49491460757
 30
0.0
 40
0.9999999403953561
100
AcDbArc
 50
0.0
 51
90.0
  0
ARC
  5
198C1
330
13E12
100
AcDbEntity
  8
YKK_A1
  6
Continuous
 48
1.5
100
AcDbCircle
 10
14257.1355806383
 20
16980.49491460756
 30
0.0
 40
0.9999999403953561
100
AcDbArc
 50
90.0
 51
180.0
  0
ARC
  5
198C2
330
13E12
100
AcDbEntity
  8
YKK_A1
  6
Continuous
 48
1.5
100
AcDbCircle
 10
14257.13558063833
 20
16802.49492521718
 30
0.0
 40
0.9999999403953561
100
AcDbArc
 50
180.0
 51
270.0
  0
LINE
  5
198C3
330
13E12
100
AcDbEntity
  8
YKK_A1
  6
Continuous
 48
1.5
100
AcDbLine
 10
14256.1355806979
 20
16980.49491460756
 30
0.0
 11
14256.13558069793
 21
16802.49492521718
 31
0.0
  0
LINE
  5
198C4
330
13E12
100
AcDbEntity
  8
YKK_A1
  6
Continuous
 48
1.5
100
AcDbLine
 10
14281.13557920779
 20
17000.49491341548
 30
0.0
 11
14281.13557920782
 21
16782.49492640929
 31
0.0
  0
LINE
  5
198C5
330
13E12
100
AcDbEntity
  8
YKK_A1
  6
Continuous
 48
1.5
100
AcDbLine
 10
14252.13558093635
 20
16781.49492646888
 30
0.0
 11
14280.13557926742
 21
16781.4949264689
 31
0.0
  0
LINE
  5
198C6
330
13E12
100
AcDbEntity
  8
YKK_A1
  6
Continuous
 48
1.5
100
AcDbLine
 10
14251.13558099593
 20
17000.49491341546
 30
0.0
 11
14251.13558099595
 21
16782.49492640928
 31
0.0
  0
LINE
  5
198C7
330
13E12
100
AcDbEntity
  8
YKK_A1
  6
Continuous
 48
1.5
100
AcDbLine
 10
14257.1355806383
 20
16981.49491454795
 30
0.0
 11
14275.13557956541
 21
16981.49491454797
 31
0.0
  0
LINE
  5
198C8
330
13E12
100
AcDbEntity
  8
YKK_A1
  6
Continuous
 48
1.5
100
AcDbLine
 10
14257.13558063833
 20
16801.49492527679
 30
0.0
 11
14275.13557956544
 21
16801.4949252768
 31
0.0
  0
LINE
  5
198C9
330
13E12
100
AcDbEntity
  8
YKK_A1
  6
Continuous
 48
1.5
100
AcDbLine
 10
14252.13558093632
 20
17001.49491335586
 30
0.0
 11
14280.13557926739
 21
17001.49491335587
 31
0.0
  0
LINE
  5
198CA
330
13E12
100
AcDbEntity
  8
YKK_A1
  6
Continuous
 48
1.5
100
AcDbLine
 10
14276.13557950581
 20
16980.49491460757
 30
0.0
 11
14276.13557950584
 21
16802.4949252172
 31
0.0
  0
LINE
  5
198CB
330
13E12
100
AcDbEntity
  8
YKK_N1
  6
Continuous
100
AcDbLine
 10
15931.14455774192
 20
17985.50000000001
 30
0.0
 11
16056.14455774192
 21
17985.50000000001
 31
0.0
  0
LINE
  5
198CC
330
13E12
100
AcDbEntity
  8
YKK_N1
  6
Continuous
100
AcDbLine
 10
16006.14455774192
 20
17898.89745962156
 30
0.0
 11
16106.14455774192
 21
17898.89745962156
 31
0.0
  0
LINE
  5
198CD
330
13E12
100
AcDbEntity
  8
YKK_N1
  6
Continuous
100
AcDbLine
 10
16006.14455774192
 20
17898.89745962156
 30
0.0
 11
16056.14455774192
 21
17985.50000000001
 31
0.0
  0
LINE
  5
198CE
330
13E12
100
AcDbEntity
  8
YKK_N1
  6
Continuous
100
AcDbLine
 10
16056.14455774192
 20
17985.50000000001
 30
0.0
 11
16106.14455774192
 21
17898.89745962156
 31
0.0
  0
LINE
  5
198CF
330
13E12
100
AcDbEntity
  8
YKK_N1
  6
Continuous
100
AcDbLine
 10
16006.14455774192
 20
16039.10254037845
 30
0.0
 11
16106.14455774192
 21
16039.10254037845
 31
0.0
  0
LINE
  5
198D0
330
13E12
100
AcDbEntity
  8
YKK_N1
  6
Continuous
100
AcDbLine
 10
15931.14455774192
 20
15952.50000000001
 30
0.0
 11
16056.14455774192
 21
15952.50000000001
 31
0.0
  0
LINE
  5
198D1
330
13E12
100
AcDbEntity
  8
YKK_N1
  6
Continuous
100
AcDbLine
 10
16006.14455774192
 20
16039.10254037845
 30
0.0
 11
16056.14455774192
 21
15952.50000000001
 31
0.0
  0
LINE
  5
198D2
330
13E12
100
AcDbEntity
  8
YKK_N1
  6
Continuous
100
AcDbLine
 10
16056.14455774192
 20
15952.50000000001
 30
0.0
 11
16106.14455774192
 21
16039.10254037845
 31
0.0
  0
LINE
  5
198D3
330
13E12
100
AcDbEntity
  8
YKK_N1
  6
Continuous
100
AcDbLine
 10
16056.14455774192
 20
17985.50000000001
 30
0.0
 11
16056.14455774192
 21
15952.50000000001
 31
0.0
  0
TEXT
  5
198D4
330
13E12
100
AcDbEntity
  8
YKK_N1
100
AcDbText
 10
16044.14455774192
 20
16803.99995038148
 30
0.0
 40
60.0
  1
H=2033
 50
90.00000000000003
 72
     4
 11
16014.14455774192
 21
16968.99995038148
 31
0.0
100
AcDbText
1001
YTEXT_INFOMATION
1002
{
1000
H=2033
1002
}
1000
MC
1010
-165.0
1020
-29.99999999999988
1030
0.0
1040
60.0
1070
     0
1002
{
1000
TEXTOBJECTS
1000
198D4
1002
}
  0
LINE
  5
198D5
330
13E12
100
AcDbEntity
  8
YKK_N1
  6
Continuous
100
AcDbLine
 10
15767.04212056222
 20
15802.50197482289
 30
0.0
 11
15853.64466094067
 21
15752.50197482289
 31
0.0
  0
LINE
  5
198D6
330
13E12
100
AcDbEntity
  8
YKK_N1
  6
Continuous
100
AcDbLine
 10
15767.04212056222
 20
15802.50197482289
 30
0.0
 11
15767.04212056222
 21
15702.50197482289
 31
0.0
  0
LINE
  5
198D7
330
13E12
100
AcDbEntity
  8
YKK_N1
  6
Continuous
100
AcDbLine
 10
15767.04212056222
 20
15702.50197482289
 30
0.0
 11
15853.64466094067
 21
15752.50197482289
 31
0.0
  0
LINE
  5
198D8
330
13E12
100
AcDbEntity
  8
YKK_N1
  6
Continuous
100
AcDbLine
 10
15853.64466094067
 20
15877.50197482289
 30
0.0
 11
15853.64466094067
 21
15752.50197482289
 31
0.0
  0
TEXT
  5
198D9
330
13E12
100
AcDbEntity
  8
YKK_N1
  6
Continuous
100
AcDbText
 10
14034.64461132214
 20
15764.50197482289
 30
0.0
 40
60.0
  1
W=3278
 72
     4
 11
14214.64461132214
 21
15794.50197482289
 31
0.0
100
AcDbText
  0
LINE
  5
198DA
330
13E12
100
AcDbEntity
  8
YKK_N1
  6
Continuous
100
AcDbLine
 10
12662.24720131911
 20
15802.50197482289
 30
0.0
 11
12662.24720131911
 21
15702.50197482289
 31
0.0
  0
LINE
  5
198DB
330
13E12
100
AcDbEntity
  8
YKK_N1
  6
Continuous
100
AcDbLine
 10
12575.64466094067
 20
15752.50197482289
 30
0.0
 11
12662.24720131911
 21
15702.50197482289
 31
0.0
  0
LINE
  5
198DC
330
13E12
100
AcDbEntity
  8
YKK_N1
  6
Continuous
100
AcDbLine
 10
12575.64466094067
 20
15752.50197482289
 30
0.0
 11
12662.24720131911
 21
15802.50197482289
 31
0.0
  0
LINE
  5
198DD
330
13E12
100
AcDbEntity
  8
YKK_N1
  6
Continuous
100
AcDbLine
 10
12575.64466094067
 20
15877.50197482289
 30
0.0
 11
12575.64466094067
 21
15752.50197482289
 31
0.0
  0
LINE
  5
198DE
330
13E12
100
AcDbEntity
  8
YKK_N1
  6
Continuous
100
AcDbLine
 10
12575.64466094067
 20
15752.50197482289
 30
0.0
 11
15853.64466094067
 21
15752.50197482289
 31
0.0
  0
LINE
  5
198DF
330
13E12
100
AcDbEntity
  8
YKK_A1
  6
YDIVIDE_1
 48
1.5
100
AcDbLine
 10
18168.51164456927
 20
15952.50197482289
 30
0.0
 11
21537.14455774192
 21
15952.50197482289
 31
0.0
  0
LINE
  5
198E0
330
13E12
100
AcDbEntity
  8
YKK_A1
  6
YDIVIDE_1
 48
1.5
100
AcDbLine
 10
18168.51164327479
 20
18050.50490709881
 30
0.0
 11
18273.14466374417
 21
18050.50490709881
 31
0.0
  0
LINE
  5
198E1
330
13E12
100
AcDbEntity
  8
YKK_A1
  6
Continuous
 48
1.5
100
AcDbLine
 10
19916.14453358702
 20
17990.50490620474
 30
0.0
 11
19916.14453358702
 21
15961.49497504641
 31
0.0
  0
LINE
  5
198E2
330
13E12
100
AcDbEntity
  8
YKK_A1
  6
Continuous
 48
1.5
100
AcDbLine
 10
19916.14453358703
 20
15961.49497504641
 30
0.0
 11
20730.13454556756
 21
15961.49497504641
 31
0.0
  0
LINE
  5
198E3
330
13E12
100
AcDbEntity
  8
YKK_A1
  6
Continuous
 48
1.5
100
AcDbLine
 10
20730.13454556756
 20
17990.50490620474
 30
0.0
 11
20730.13454556756
 21
15961.49497504641
 31
0.0
  0
LINE
  5
198E4
330
13E12
100
AcDbEntity
  8
YKK_A1
  6
YHIDDEN_1
 48
1.5
100
AcDbLine
 10
20730.13454556756
 20
17990.50490620474
 30
0.0
 11
19916.14453358702
 21
17990.50490620474
 31
0.0
  0
LINE
  5
198E5
330
13E12
100
AcDbEntity
  8
YKK_A1
  6
Continuous
 48
1.5
100
AcDbLine
 10
20318.14453957723
 20
17229.86881129519
 30
0.0
 11
20198.14453778909
 21
17229.86881129519
 31
0.0
  0
LINE
  5
198E6
330
13E12
100
AcDbEntity
  8
YKK_A1
  6
Continuous
 48
1.5
100
AcDbLine
 10
20198.14453778909
 20
17229.86881129519
 30
0.0
 11
20198.14453778909
 21
17169.86881040113
 31
0.0
  0
LINE
  5
198E7
330
13E12
100
AcDbEntity
  8
YKK_A1
  6
Continuous
 48
1.5
100
AcDbLine
 10
20198.14453778909
 20
17169.86881040113
 30
0.0
 11
20318.14453957723
 21
17169.86881040113
 31
0.0
  0
LINE
  5
198E8
330
13E12
100
AcDbEntity
  8
YKK_A1
  6
Continuous
 48
1.5
100
AcDbLine
 10
20318.14453957723
 20
17130.58677751302
 30
0.0
 11
20318.14453957723
 21
17169.86881040113
 31
0.0
  0
LINE
  5
198E9
330
13E12
100
AcDbEntity
  8
YKK_A1
  6
Continuous
 48
1.5
100
AcDbLine
 10
20438.14454136537
 20
17199.86881084816
 30
0.0
 11
20318.14453957723
 21
17269.1508441833
 31
0.0
  0
LINE
  5
198EA
330
13E12
100
AcDbEntity
  8
YKK_A1
  6
Continuous
 48
1.5
100
AcDbLine
 10
20438.14454136537
 20
17199.86881084816
 30
0.0
 11
20318.14453957723
 21
17130.58677751302
 31
0.0
  0
LINE
  5
198EB
330
13E12
100
AcDbEntity
  8
YKK_A1
  6
Continuous
 48
1.5
100
AcDbLine
 10
20318.14453957723
 20
17229.86881129519
 30
0.0
 11
20318.14453957723
 21
17269.1508441833
 31
0.0
  0
LINE
  5
198EC
330
13E12
100
AcDbEntity
  8
YKK_A1
  6
Continuous
 48
1.5
100
AcDbLine
 10
19913.14453354232
 20
17990.50490620474
 30
0.0
 11
19913.14453354232
 21
15961.49497504641
 31
0.0
  0
LINE
  5
198ED
330
13E12
100
AcDbEntity
  8
YKK_A1
  6
Continuous
 48
1.5
100
AcDbLine
 10
19913.15348404781
 20
15961.49497504641
 30
0.0
 11
19099.15452156179
 21
15961.49497504641
 31
0.0
  0
LINE
  5
198EE
330
13E12
100
AcDbEntity
  8
YKK_A1
  6
Continuous
 48
1.5
100
AcDbLine
 10
19099.15452156179
 20
17990.50490620474
 30
0.0
 11
19099.15452156179
 21
15961.49497504641
 31
0.0
  0
LINE
  5
198EF
330
13E12
100
AcDbEntity
  8
YKK_A1
  6
YHIDDEN_1
 48
1.5
100
AcDbLine
 10
19099.15452156179
 20
17990.50490620474
 30
0.0
 11
19913.14453354232
 21
17990.50490620474
 31
0.0
  0
LINE
  5
198F0
330
13E12
100
AcDbEntity
  8
YKK_A1
  6
Continuous
 48
1.5
100
AcDbLine
 10
19511.14452755211
 20
17229.86881129519
 30
0.0
 11
19631.14452934025
 21
17229.86881129519
 31
0.0
  0
LINE
  5
198F1
330
13E12
100
AcDbEntity
  8
YKK_A1
  6
Continuous
 48
1.5
100
AcDbLine
 10
19631.14452934025
 20
17229.86881129519
 30
0.0
 11
19631.14452934025
 21
17169.86881040113
 31
0.0
  0
LINE
  5
198F2
330
13E12
100
AcDbEntity
  8
YKK_A1
  6
Continuous
 48
1.5
100
AcDbLine
 10
19631.14452934025
 20
17169.86881040113
 30
0.0
 11
19511.14452755211
 21
17169.86881040113
 31
0.0
  0
LINE
  5
198F3
330
13E12
100
AcDbEntity
  8
YKK_A1
  6
Continuous
 48
1.5
100
AcDbLine
 10
19511.14452755211
 20
17130.58677751302
 30
0.0
 11
19511.14452755211
 21
17169.86881040113
 31
0.0
  0
LINE
  5
198F4
330
13E12
100
AcDbEntity
  8
YKK_A1
  6
Continuous
 48
1.5
100
AcDbLine
 10
19391.14452576397
 20
17199.86881084816
 30
0.0
 11
19511.14452755211
 21
17269.1508441833
 31
0.0
  0
LINE
  5
198F5
330
13E12
100
AcDbEntity
  8
YKK_A1
  6
Continuous
 48
1.5
100
AcDbLine
 10
19391.14452576397
 20
17199.86881084816
 30
0.0
 11
19511.14452755211
 21
17130.58677751302
 31
0.0
  0
LINE
  5
198F6
330
13E12
100
AcDbEntity
  8
YKK_A1
  6
Continuous
 48
1.5
100
AcDbLine
 10
19511.14452755211
 20
17229.86881129519
 30
0.0
 11
19511.14452755211
 21
17269.1508441833
 31
0.0
  0
LINE
  5
198F7
330
13E12
100
AcDbEntity
  8
YKK_A1
  6
Continuous
 48
1.5
100
AcDbLine
 10
18273.14470938754
 20
17985.50490613023
 30
0.0
 11
18273.14470938754
 21
18050.50490709881
 31
0.0
  0
LINE
  5
198F8
330
13E12
100
AcDbEntity
  8
YKK_A1
  6
Continuous
 48
1.5
100
AcDbLine
 10
18273.14470938754
 20
18050.50490709881
 30
0.0
 11
21556.14455774192
 21
18050.50490709881
 31
0.0
  0
LINE
  5
198F9
330
13E12
100
AcDbEntity
  8
YKK_A1
  6
Continuous
 48
1.5
100
AcDbLine
 10
21556.14455774192
 20
17985.50490613023
 30
0.0
 11
18273.14470938754
 21
17985.50490613023
 31
0.0
  0
LINE
  5
198FA
330
13E12
100
AcDbEntity
  8
YKK_A1
  6
Continuous
 48
1.5
100
AcDbLine
 10
21556.14455774192
 20
17985.50490613023
 30
0.0
 11
21556.14455774192
 21
18050.50490709881
 31
0.0
  0
ARC
  5
198FB
330
13E12
100
AcDbEntity
  8
YKK_A1
  6
Continuous
 48
1.5
100
AcDbCircle
 10
19849.15348786192
 20
16782.49492640929
 30
0.0
 40
0.9999999403953561
100
AcDbArc
 50
179.9999999998957
 51
270.0
  0
ARC
  5
198FC
330
13E12
100
AcDbEntity
  8
YKK_A1
  6
Continuous
 48
1.5
100
AcDbCircle
 10
19877.15348619303
 20
17000.49491341546
 30
0.0
 40
0.9999999403953561
100
AcDbArc
 50
359.9999999998958
 51
90.0
  0
ARC
  5
198FD
330
13E12
100
AcDbEntity
  8
YKK_A1
  6
Continuous
 48
1.5
100
AcDbCircle
 10
19877.153486193
 20
16782.49492640928
 30
0.0
 40
0.9999999403953561
100
AcDbArc
 50
270.0
 51
359.9999999998958
  0
ARC
  5
198FE
330
13E12
100
AcDbEntity
  8
YKK_A1
  6
Continuous
 48
1.5
100
AcDbCircle
 10
19849.15348786195
 20
17000.49491341548
 30
0.0
 40
0.9999999403953561
100
AcDbArc
 50
90.0
 51
179.9999999998957
  0
ARC
  5
198FF
330
13E12
100
AcDbEntity
  8
YKK_A1
  6
Continuous
 48
1.5
100
AcDbCircle
 10
19854.1534875639
 20
16802.4949252172
 30
0.0
 40
0.9999999403953561
100
AcDbArc
 50
179.9999999998957
 51
270.0
  0
ARC
  5
19900
330
13E12
100
AcDbEntity
  8
YKK_A1
  6
Continuous
 48
1.5
100
AcDbCircle
 10
19854.15348756393
 20
16980.49491460757
 30
0.0
 40
0.9999999403953561
100
AcDbArc
 50
90.0
 51
179.9999999998957
  0
ARC
  5
19901
330
13E12
100
AcDbEntity
  8
YKK_A1
  6
Continuous
 48
1.5
100
AcDbCircle
 10
19872.15348649105
 20
16980.49491460756
 30
0.0
 40
0.9999999403953561
100
AcDbArc
 50
359.9999999998958
 51
90.0
  0
ARC
  5
19902
330
13E12
100
AcDbEntity
  8
YKK_A1
  6
Continuous
 48
1.5
100
AcDbCircle
 10
19872.15348649102
 20
16802.49492521718
 30
0.0
 40
0.9999999403953561
100
AcDbArc
 50
270.0
 51
359.9999999998958
  0
LINE
  5
19903
330
13E12
100
AcDbEntity
  8
YKK_A1
  6
Continuous
 48
1.5
100
AcDbLine
 10
19873.15348643144
 20
16980.49491460756
 30
0.0
 11
19873.15348643141
 21
16802.49492521718
 31
0.0
  0
LINE
  5
19904
330
13E12
100
AcDbEntity
  8
YKK_A1
  6
Continuous
 48
1.5
100
AcDbLine
 10
19848.15348792156
 20
17000.49491341548
 30
0.0
 11
19848.15348792153
 21
16782.49492640929
 31
0.0
  0
LINE
  5
19905
330
13E12
100
AcDbEntity
  8
YKK_A1
  6
Continuous
 48
1.5
100
AcDbLine
 10
19877.153486193
 20
16781.49492646888
 30
0.0
 11
19849.15348786192
 21
16781.4949264689
 31
0.0
  0
LINE
  5
19906
330
13E12
100
AcDbEntity
  8
YKK_A1
  6
Continuous
 48
1.5
100
AcDbLine
 10
19878.15348613342
 20
17000.49491341546
 30
0.0
 11
19878.15348613339
 21
16782.49492640928
 31
0.0
  0
LINE
  5
19907
330
13E12
100
AcDbEntity
  8
YKK_A1
  6
Continuous
 48
1.5
100
AcDbLine
 10
19872.15348649105
 20
16981.49491454795
 30
0.0
 11
19854.15348756393
 21
16981.49491454797
 31
0.0
  0
LINE
  5
19908
330
13E12
100
AcDbEntity
  8
YKK_A1
  6
Continuous
 48
1.5
100
AcDbLine
 10
19872.15348649102
 20
16801.49492527679
 30
0.0
 11
19854.1534875639
 21
16801.4949252768
 31
0.0
  0
LINE
  5
19909
330
13E12
100
AcDbEntity
  8
YKK_A1
  6
Continuous
 48
1.5
100
AcDbLine
 10
19877.15348619303
 20
17001.49491335586
 30
0.0
 11
19849.15348786195
 21
17001.49491335587
 31
0.0
  0
LINE
  5
1990A
330
13E12
100
AcDbEntity
  8
YKK_A1
  6
Continuous
 48
1.5
100
AcDbLine
 10
19853.15348762354
 20
16980.49491460757
 30
0.0
 11
19853.15348762351
 21
16802.4949252172
 31
0.0
  0
ARC
  5
1990B
330
13E12
100
AcDbEntity
  8
YKK_A1
  6
Continuous
 48
1.5
100
AcDbCircle
 10
19980.13557926742
 20
16782.49492640929
 30
0.0
 40
0.9999999403953561
100
AcDbArc
 50
270.0
 51
0.0
  0
ARC
  5
1990C
330
13E12
100
AcDbEntity
  8
YKK_A1
  6
Continuous
 48
1.5
100
AcDbCircle
 10
19952.13558093632
 20
17000.49491341546
 30
0.0
 40
0.9999999403953561
100
AcDbArc
 50
90.0
 51
180.0
  0
ARC
  5
1990D
330
13E12
100
AcDbEntity
  8
YKK_A1
  6
Continuous
 48
1.5
100
AcDbCircle
 10
19952.13558093635
 20
16782.49492640928
 30
0.0
 40
0.9999999403953561
100
AcDbArc
 50
180.0
 51
270.0
  0
ARC
  5
1990E
330
13E12
100
AcDbEntity
  8
YKK_A1
  6
Continuous
 48
1.5
100
AcDbCircle
 10
19980.13557926739
 20
17000.49491341548
 30
0.0
 40
0.9999999403953561
100
AcDbArc
 50
0.0
 51
90.0
  0
ARC
  5
1990F
330
13E12
100
AcDbEntity
  8
YKK_A1
  6
Continuous
 48
1.5
100
AcDbCircle
 10
19975.13557956544
 20
16802.4949252172
 30
0.0
 40
0.9999999403953561
100
AcDbArc
 50
270.0
 51
0.0
  0
ARC
  5
19910
330
13E12
100
AcDbEntity
  8
YKK_A1
  6
Continuous
 48
1.5
100
AcDbCircle
 10
19975.13557956541
 20
16980.49491460757
 30
0.0
 40
0.9999999403953561
100
AcDbArc
 50
0.0
 51
90.0
  0
ARC
  5
19911
330
13E12
100
AcDbEntity
  8
YKK_A1
  6
Continuous
 48
1.5
100
AcDbCircle
 10
19957.1355806383
 20
16980.49491460756
 30
0.0
 40
0.9999999403953561
100
AcDbArc
 50
90.0
 51
180.0
  0
ARC
  5
19912
330
13E12
100
AcDbEntity
  8
YKK_A1
  6
Continuous
 48
1.5
100
AcDbCircle
 10
19957.13558063833
 20
16802.49492521718
 30
0.0
 40
0.9999999403953561
100
AcDbArc
 50
180.0
 51
270.0
  0
LINE
  5
19913
330
13E12
100
AcDbEntity
  8
YKK_A1
  6
Continuous
 48
1.5
100
AcDbLine
 10
19956.1355806979
 20
16980.49491460756
 30
0.0
 11
19956.13558069793
 21
16802.49492521718
 31
0.0
  0
LINE
  5
19914
330
13E12
100
AcDbEntity
  8
YKK_A1
  6
Continuous
 48
1.5
100
AcDbLine
 10
19981.13557920779
 20
17000.49491341548
 30
0.0
 11
19981.13557920781
 21
16782.49492640929
 31
0.0
  0
LINE
  5
19915
330
13E12
100
AcDbEntity
  8
YKK_A1
  6
Continuous
 48
1.5
100
AcDbLine
 10
19952.13558093635
 20
16781.49492646888
 30
0.0
 11
19980.13557926742
 21
16781.4949264689
 31
0.0
  0
LINE
  5
19916
330
13E12
100
AcDbEntity
  8
YKK_A1
  6
Continuous
 48
1.5
100
AcDbLine
 10
19951.13558099593
 20
17000.49491341546
 30
0.0
 11
19951.13558099595
 21
16782.49492640928
 31
0.0
  0
LINE
  5
19917
330
13E12
100
AcDbEntity
  8
YKK_A1
  6
Continuous
 48
1.5
100
AcDbLine
 10
19957.1355806383
 20
16981.49491454795
 30
0.0
 11
19975.13557956541
 21
16981.49491454797
 31
0.0
  0
LINE
  5
19918
330
13E12
100
AcDbEntity
  8
YKK_A1
  6
Continuous
 48
1.5
100
AcDbLine
 10
19957.13558063833
 20
16801.49492527679
 30
0.0
 11
19975.13557956544
 21
16801.4949252768
 31
0.0
  0
LINE
  5
19919
330
13E12
100
AcDbEntity
  8
YKK_A1
  6
Continuous
 48
1.5
100
AcDbLine
 10
19952.13558093632
 20
17001.49491335586
 30
0.0
 11
19980.13557926739
 21
17001.49491335587
 31
0.0
  0
LINE
  5
1991A
330
13E12
100
AcDbEntity
  8
YKK_A1
  6
Continuous
 48
1.5
100
AcDbLine
 10
19976.13557950581
 20
16980.49491460757
 30
0.0
 11
19976.13557950584
 21
16802.4949252172
 31
0.0
  0
LINE
  5
1991B
330
13E12
100
AcDbEntity
  8
YKK_N1
  6
Continuous
100
AcDbLine
 10
21631.14455774192
 20
17985.50000000001
 30
0.0
 11
21756.14455774192
 21
17985.50000000001
 31
0.0
  0
LINE
  5
1991C
330
13E12
100
AcDbEntity
  8
YKK_N1
  6
Continuous
100
AcDbLine
 10
21706.14455774192
 20
17898.89745962156
 30
0.0
 11
21806.14455774192
 21
17898.89745962156
 31
0.0
  0
LINE
  5
1991D
330
13E12
100
AcDbEntity
  8
YKK_N1
  6
Continuous
100
AcDbLine
 10
21706.14455774192
 20
17898.89745962156
 30
0.0
 11
21756.14455774192
 21
17985.50000000001
 31
0.0
  0
LINE
  5
1991E
330
13E12
100
AcDbEntity
  8
YKK_N1
  6
Continuous
100
AcDbLine
 10
21756.14455774192
 20
17985.50000000001
 30
0.0
 11
21806.14455774192
 21
17898.89745962156
 31
0.0
  0
LINE
  5
1991F
330
13E12
100
AcDbEntity
  8
YKK_N1
  6
Continuous
100
AcDbLine
 10
21706.14455774192
 20
16039.10254037845
 30
0.0
 11
21806.14455774192
 21
16039.10254037845
 31
0.0
  0
LINE
  5
19920
330
13E12
100
AcDbEntity
  8
YKK_N1
  6
Continuous
100
AcDbLine
 10
21631.14455774192
 20
15952.50000000001
 30
0.0
 11
21756.14455774192
 21
15952.50000000001
 31
0.0
  0
LINE
  5
19921
330
13E12
100
AcDbEntity
  8
YKK_N1
  6
Continuous
100
AcDbLine
 10
21706.14455774192
 20
16039.10254037845
 30
0.0
 11
21756.14455774192
 21
15952.50000000001
 31
0.0
  0
LINE
  5
19922
330
13E12
100
AcDbEntity
  8
YKK_N1
  6
Continuous
100
AcDbLine
 10
21756.14455774192
 20
15952.50000000001
 30
0.0
 11
21806.14455774192
 21
16039.10254037845
 31
0.0
  0
LINE
  5
19923
330
13E12
100
AcDbEntity
  8
YKK_N1
  6
Continuous
100
AcDbLine
 10
21756.14455774192
 20
17985.50000000001
 30
0.0
 11
21756.14455774192
 21
15952.50000000001
 31
0.0
  0
TEXT
  5
19924
330
13E12
100
AcDbEntity
  8
YKK_N1
100
AcDbText
 10
21744.14455774192
 20
16803.99995038148
 30
0.0
 40
60.0
  1
H=2033
 50
90.00000000000003
 72
     4
 11
21714.14455774192
 21
16968.99995038148
 31
0.0
100
AcDbText
1001
YTEXT_INFOMATION
1002
{
1000
H=2033
1002
}
1000
MC
1010
-165.0
1020
-29.99999999999988
1030
0.0
1040
60.0
1070
     0
1002
{
1000
TEXTOBJECTS
1000
19924
1002
}
  0
LINE
  5
19925
330
13E12
100
AcDbEntity
  8
YKK_N1
  6
Continuous
100
AcDbLine
 10
21467.04212056222
 20
15802.50197482289
 30
0.0
 11
21553.64466094067
 21
15752.50197482289
 31
0.0
  0
LINE
  5
19926
330
13E12
100
AcDbEntity
  8
YKK_N1
  6
Continuous
100
AcDbLine
 10
21467.04212056222
 20
15802.50197482289
 30
0.0
 11
21467.04212056222
 21
15702.50197482289
 31
0.0
  0
LINE
  5
19927
330
13E12
100
AcDbEntity
  8
YKK_N1
  6
Continuous
100
AcDbLine
 10
21467.04212056222
 20
15702.50197482289
 30
0.0
 11
21553.64466094067
 21
15752.50197482289
 31
0.0
  0
LINE
  5
19928
330
13E12
100
AcDbEntity
  8
YKK_N1
  6
Continuous
100
AcDbLine
 10
21553.64466094067
 20
15877.50197482289
 30
0.0
 11
21553.64466094067
 21
15752.50197482289
 31
0.0
  0
TEXT
  5
19929
330
13E12
100
AcDbEntity
  8
YKK_N1
  6
Continuous
100
AcDbText
 10
19734.64461132214
 20
15764.50197482289
 30
0.0
 40
60.0
  1
W=3278
 72
     4
 11
19914.64461132214
 21
15794.50197482289
 31
0.0
100
AcDbText
  0
LINE
  5
1992A
330
13E12
100
AcDbEntity
  8
YKK_N1
  6
Continuous
100
AcDbLine
 10
18362.24720131911
 20
15802.50197482289
 30
0.0
 11
18362.24720131911
 21
15702.50197482289
 31
0.0
  0
LINE
  5
1992B
330
13E12
100
AcDbEntity
  8
YKK_N1
  6
Continuous
100
AcDbLine
 10
18275.64466094067
 20
15752.50197482289
 30
0.0
 11
18362.24720131911
 21
15702.50197482289
 31
0.0
  0
LINE
  5
1992C
330
13E12
100
AcDbEntity
  8
YKK_N1
  6
Continuous
100
AcDbLine
 10
18275.64466094067
 20
15752.50197482289
 30
0.0
 11
18362.24720131911
 21
15802.50197482289
 31
0.0
  0
LINE
  5
1992D
330
13E12
100
AcDbEntity
  8
YKK_N1
  6
Continuous
100
AcDbLine
 10
18275.64466094067
 20
15877.50197482289
 30
0.0
 11
18275.64466094067
 21
15752.50197482289
 31
0.0
  0
LINE
  5
1992E
330
13E12
100
AcDbEntity
  8
YKK_N1
  6
Continuous
100
AcDbLine
 10
18275.64466094067
 20
15752.50197482289
 30
0.0
 11
21553.64466094067
 21
15752.50197482289
 31
0.0
  0
LINE
  5
1997F
330
13E12
100
AcDbEntity
  8
YKK_A1
  6
Continuous
100
AcDbLine
 10
8343.154533542293
 20
15961.49497504642
 30
0.0
 11
8343.154533542278
 21
17990.50490620473
 31
0.0
  0
LINE
  5
19980
330
13E12
100
AcDbEntity
  8
YKK_A1
  6
Continuous
100
AcDbLine
 10
8333.154533542293
 20
15961.49497504642
 30
0.0
 11
8333.154533542286
 21
17990.50490620473
 31
0.0
  0
LINE
  5
19981
330
13E12
100
AcDbEntity
  8
YKK_A1
  6
Continuous
100
AcDbLine
 10
8686.134533587058
 20
15961.49497504642
 30
0.0
 11
8686.134533587065
 21
17990.50490620474
 31
0.0
  0
LINE
  5
19982
330
13E12
100
AcDbEntity
  8
YKK_A1
  6
Continuous
100
AcDbLine
 10
8696.134533587057
 20
15961.49497504642
 30
0.0
 11
8696.134533587057
 21
17990.50490620474
 31
0.0
  0
LINE
  5
19983
330
13E12
100
AcDbEntity
  8
YKK_A1
  6
Continuous
100
AcDbLine
 10
13655.15464397486
 20
17818.99485428741
 30
0.0
 11
13655.15464397486
 21
16156.99497504642
 31
0.0
  0
LINE
  5
19984
330
13E12
100
AcDbEntity
  8
YKK_A1
  6
Continuous
100
AcDbLine
 10
13957.15447304361
 20
16156.99497504642
 30
0.0
 11
13957.15447304361
 21
17818.99485428741
 31
0.0
  0
LINE
  5
19985
330
13E12
100
AcDbEntity
  8
YKK_A1
  6
Continuous
100
AcDbLine
 10
13671.15464397486
 20
17802.99485428741
 30
0.0
 11
13671.15464397486
 21
16172.99497504642
 31
0.0
  0
LINE
  5
19986
330
13E12
100
AcDbEntity
  8
YKK_A1
  6
Continuous
100
AcDbLine
 10
13941.15447304361
 20
16172.99497504642
 30
0.0
 11
13941.15447304364
 21
17802.99485428741
 31
0.0
  0
LINE
  5
19987
330
13E12
100
AcDbEntity
  8
YKK_A1
100
AcDbLine
 10
13957.15447304361
 20
17818.99485428741
 30
0.0
 11
13655.15464397486
 21
17818.99485428741
 31
0.0
  0
LINE
  5
19988
330
13E12
100
AcDbEntity
  8
YKK_A1
100
AcDbLine
 10
13941.15447304361
 20
17802.99485428741
 30
0.0
 11
13671.15464397486
 21
17802.99485428741
 31
0.0
  0
LINE
  5
19989
330
13E12
100
AcDbEntity
  8
YKK_A1
  6
Continuous
100
AcDbLine
 10
13655.15464397486
 20
16156.99497504642
 30
0.0
 11
13957.15447304361
 21
16156.99497504642
 31
0.0
  0
LINE
  5
1998A
330
13E12
100
AcDbEntity
  8
YKK_A1
  6
Continuous
100
AcDbLine
 10
13671.15464397486
 20
16172.99497504642
 30
0.0
 11
13941.15447304361
 21
16172.99497504642
 31
0.0
  0
LINE
  5
1998B
330
13E12
100
AcDbEntity
  8
YKK_A1
100
AcDbLine
 10
13671.15464397486
 20
17802.99485428741
 30
0.0
 11
13655.15464397486
 21
17818.99485428741
 31
0.0
  0
LINE
  5
1998C
330
13E12
100
AcDbEntity
  8
YKK_A1
100
AcDbLine
 10
13941.15447304361
 20
17802.99485428741
 30
0.0
 11
13957.15447304361
 21
17818.99485428741
 31
0.0
  0
LINE
  5
1998D
330
13E12
100
AcDbEntity
  8
YKK_A1
100
AcDbLine
 10
13941.15447304361
 20
16172.99497504642
 30
0.0
 11
13957.15447304361
 21
16156.99497504642
 31
0.0
  0
LINE
  5
1998E
330
13E12
100
AcDbEntity
  8
YKK_A1
100
AcDbLine
 10
13671.15464397486
 20
16172.99497504642
 30
0.0
 11
13655.15464397486
 21
16156.99497504642
 31
0.0
  0
LINE
  5
1998F
330
13E12
100
AcDbEntity
  8
YKK_A1
  6
Continuous
100
AcDbLine
 10
14472.1446560001
 20
17818.99485428741
 30
0.0
 11
14472.1446560001
 21
16156.99497504642
 31
0.0
  0
LINE
  5
19990
330
13E12
100
AcDbEntity
  8
YKK_A1
  6
Continuous
100
AcDbLine
 10
14774.14448506885
 20
16156.99497504642
 30
0.0
 11
14774.14448506885
 21
17818.99485428741
 31
0.0
  0
LINE
  5
19991
330
13E12
100
AcDbEntity
  8
YKK_A1
  6
Continuous
100
AcDbLine
 10
14488.1446560001
 20
17802.99485428741
 30
0.0
 11
14488.1446560001
 21
16172.99497504642
 31
0.0
  0
LINE
  5
19992
330
13E12
100
AcDbEntity
  8
YKK_A1
  6
Continuous
100
AcDbLine
 10
14758.14448506885
 20
16172.99497504642
 30
0.0
 11
14758.14448506888
 21
17802.99485428741
 31
0.0
  0
LINE
  5
19993
330
13E12
100
AcDbEntity
  8
YKK_A1
100
AcDbLine
 10
14774.14448506885
 20
17818.99485428741
 30
0.0
 11
14472.1446560001
 21
17818.99485428741
 31
0.0
  0
LINE
  5
19994
330
13E12
100
AcDbEntity
  8
YKK_A1
100
AcDbLine
 10
14758.14448506885
 20
17802.99485428741
 30
0.0
 11
14488.1446560001
 21
17802.99485428741
 31
0.0
  0
LINE
  5
19995
330
13E12
100
AcDbEntity
  8
YKK_A1
  6
Continuous
100
AcDbLine
 10
14472.1446560001
 20
16156.99497504642
 30
0.0
 11
14774.14448506885
 21
16156.99497504642
 31
0.0
  0
LINE
  5
19996
330
13E12
100
AcDbEntity
  8
YKK_A1
  6
Continuous
100
AcDbLine
 10
14488.1446560001
 20
16172.99497504642
 30
0.0
 11
14758.14448506885
 21
16172.99497504642
 31
0.0
  0
LINE
  5
19997
330
13E12
100
AcDbEntity
  8
YKK_A1
100
AcDbLine
 10
14488.1446560001
 20
17802.99485428741
 30
0.0
 11
14472.1446560001
 21
17818.99485428741
 31
0.0
  0
LINE
  5
19998
330
13E12
100
AcDbEntity
  8
YKK_A1
100
AcDbLine
 10
14758.14448506885
 20
17802.99485428741
 30
0.0
 11
14774.14448506885
 21
17818.99485428741
 31
0.0
  0
LINE
  5
19999
330
13E12
100
AcDbEntity
  8
YKK_A1
100
AcDbLine
 10
14758.14448506885
 20
16172.99497504642
 30
0.0
 11
14774.14448506885
 21
16156.99497504642
 31
0.0
  0
LINE
  5
1999A
330
13E12
100
AcDbEntity
  8
YKK_A1
100
AcDbLine
 10
14488.1446560001
 20
16172.99497504642
 30
0.0
 11
14472.1446560001
 21
16156.99497504642
 31
0.0
  0
LINE
  5
1999B
330
13E12
100
AcDbEntity
  8
YKK_A1
  6
Continuous
100
AcDbLine
 10
19814.65342354913
 20
16156.99497504643
 30
0.0
 11
19814.65342354913
 21
17818.99485428741
 31
0.0
  0
LINE
  5
1999C
330
13E12
100
AcDbEntity
  8
YKK_A1
  6
Continuous
100
AcDbLine
 10
19722.65342354912
 20
16156.99497504642
 30
0.0
 11
19722.65342354912
 21
17818.99485428741
 31
0.0
  0
LINE
  5
1999D
330
13E12
100
AcDbEntity
  8
YKK_A1
  6
Continuous
100
AcDbLine
 10
19738.65342354913
 20
16172.99497504642
 30
0.0
 11
19738.65342354914
 21
17802.99485428741
 31
0.0
  0
LINE
  5
1999E
330
13E12
100
AcDbEntity
  8
YKK_A1
  6
Continuous
100
AcDbLine
 10
19798.65342354912
 20
16172.99497504642
 30
0.0
 11
19798.65342354914
 21
17802.99485428742
 31
0.0
  0
LINE
  5
1999F
330
13E12
100
AcDbEntity
  8
YKK_A1
  6
Continuous
100
AcDbLine
 10
19722.65342354912
 20
16156.99497504642
 30
0.0
 11
19814.65342354913
 21
16156.99497504642
 31
0.0
  0
LINE
  5
199A0
330
13E12
100
AcDbEntity
  8
YKK_A1
  6
Continuous
100
AcDbLine
 10
19738.65342354914
 20
16172.99497504642
 30
0.0
 11
19798.65342354912
 21
16172.99497504642
 31
0.0
  0
LINE
  5
199A1
330
13E12
100
AcDbEntity
  8
YKK_A1
100
AcDbLine
 10
19814.65342354913
 20
17818.99485428741
 30
0.0
 11
19722.65342354912
 21
17818.99485428741
 31
0.0
  0
LINE
  5
199A2
330
13E12
100
AcDbEntity
  8
YKK_A1
100
AcDbLine
 10
19798.65342354914
 20
17802.99485428742
 30
0.0
 11
19738.65342354914
 21
17802.99485428741
 31
0.0
  0
LINE
  5
199A3
330
13E12
100
AcDbEntity
  8
YKK_A1
100
AcDbLine
 10
19738.65342354914
 20
17802.99485428741
 30
0.0
 11
19722.65342354912
 21
17818.99485428741
 31
0.0
  0
LINE
  5
199A4
330
13E12
100
AcDbEntity
  8
YKK_A1
100
AcDbLine
 10
19798.65342354914
 20
17802.99485428742
 30
0.0
 11
19814.65342354913
 21
17818.99485428741
 31
0.0
  0
LINE
  5
199A5
330
13E12
100
AcDbEntity
  8
YKK_A1
100
AcDbLine
 10
19798.65342354912
 20
16172.99497504642
 30
0.0
 11
19814.65342354913
 21
16156.99497504643
 31
0.0
  0
LINE
  5
199A6
330
13E12
100
AcDbEntity
  8
YKK_A1
100
AcDbLine
 10
19738.65342354913
 20
16172.99497504642
 30
0.0
 11
19722.65342354912
 21
16156.99497504642
 31
0.0
  0
LINE
  5
199A7
330
13E12
100
AcDbEntity
  8
YKK_A1
  6
Continuous
100
AcDbLine
 10
20014.64459408571
 20
16156.99497504642
 30
0.0
 11
20014.64459408571
 21
17818.99485428741
 31
0.0
  0
LINE
  5
199A8
330
13E12
100
AcDbEntity
  8
YKK_A1
  6
Continuous
100
AcDbLine
 10
20106.64459408572
 20
16156.99497504642
 30
0.0
 11
20106.64459408572
 21
17818.99485428741
 31
0.0
  0
LINE
  5
199A9
330
13E12
100
AcDbEntity
  8
YKK_A1
  6
Continuous
100
AcDbLine
 10
20090.64459408572
 20
16172.99497504642
 30
0.0
 11
20090.6445940857
 21
17802.99485428741
 31
0.0
  0
LINE
  5
199AA
330
13E12
100
AcDbEntity
  8
YKK_A1
  6
Continuous
100
AcDbLine
 10
20030.64459408572
 20
16172.99497504642
 30
0.0
 11
20030.6445940857
 21
17802.99485428741
 31
0.0
  0
LINE
  5
199AB
330
13E12
100
AcDbEntity
  8
YKK_A1
  6
Continuous
100
AcDbLine
 10
20106.64459408572
 20
16156.99497504642
 30
0.0
 11
20014.64459408571
 21
16156.99497504642
 31
0.0
  0
LINE
  5
199AC
330
13E12
100
AcDbEntity
  8
YKK_A1
  6
Continuous
100
AcDbLine
 10
20090.6445940857
 20
16172.99497504642
 30
0.0
 11
20030.64459408572
 21
16172.99497504642
 31
0.0
  0
LINE
  5
199AD
330
13E12
100
AcDbEntity
  8
YKK_A1
100
AcDbLine
 10
20014.64459408571
 20
17818.99485428741
 30
0.0
 11
20106.64459408572
 21
17818.99485428741
 31
0.0
  0
LINE
  5
199AE
330
13E12
100
AcDbEntity
  8
YKK_A1
100
AcDbLine
 10
20030.6445940857
 20
17802.99485428741
 30
0.0
 11
20090.6445940857
 21
17802.99485428741
 31
0.0
  0
LINE
  5
199AF
330
13E12
100
AcDbEntity
  8
YKK_A1
100
AcDbLine
 10
20090.6445940857
 20
17802.99485428741
 30
0.0
 11
20106.64459408572
 21
17818.99485428741
 31
0.0
  0
LINE
  5
199B0
330
13E12
100
AcDbEntity
  8
YKK_A1
100
AcDbLine
 10
20030.6445940857
 20
17802.99485428741
 30
0.0
 11
20014.64459408571
 21
17818.99485428741
 31
0.0
  0
LINE
  5
199B1
330
13E12
100
AcDbEntity
  8
YKK_A1
100
AcDbLine
 10
20030.64459408572
 20
16172.99497504642
 30
0.0
 11
20014.64459408571
 21
16156.99497504642
 31
0.0
  0
LINE
  5
199B2
330
13E12
100
AcDbEntity
  8
YKK_A1
100
AcDbLine
 10
20090.64459408572
 20
16172.99497504642
 30
0.0
 11
20106.64459408572
 21
16156.99497504642
 31
0.0
  0
ENDSEC
  0
SECTION
  2
OBJECTS
  0
DICTIONARY
  5
13DAF
330
0
100
AcDbDictionary
281
     1
  3
ACAD_CIP_PREVIOUS_PRODUCT_INFO
350
13E33
  3
ACAD_COLOR
350
13E05
  3
ACAD_DETAILVIEWSTYLE
350
13E0C
  3
ACAD_GROUP
350
13DB0
  3
ACAD_LAYOUT
350
13E04
  3
ACAD_MATERIAL
350
13DB3
  3
ACAD_MLEADERSTYLE
350
13E08
  3
ACAD_MLINESTYLE
350
13E01
  3
ACAD_PLOTSETTINGS
350
13E03
  3
ACAD_PLOTSTYLENAME
350
13DB1
  3
ACAD_RENDER_ACTIVE_RAPIDRT_SETTINGS
350
157DC
  3
ACAD_RENDER_ACTIVE_SETTINGS
350
171BF
  3
ACAD_SCALELIST
350
13DE5
  3
ACAD_SECTIONVIEWSTYLE
350
13E0A
  3
ACAD_TABLESTYLE
350
13E06
  3
ACAD_VISUALSTYLE
350
13DCC
  3
ACDB_RECOMPOSE_DATA
350
19BE3
  3
AcDbVariableDictionary
350
13E89
  3
AcDsDecomposeData
350
19BE9
  0
DICTIONARY
  5
13E49
330
13DAB
100
AcDbDictionary
280
     1
281
     1
  0
DICTIONARY
  5
13E38
330
13DA5
100
AcDbDictionary
280
     1
281
     1
  3
ACAD_LAYERSTATES
360
13E39
  0
XRECORD
  5
13E33
102
{ACAD_REACTORS
330
13DAF
102
}
330
13DAF
100
AcDbXrecord
280
     1
300
ACD
300
2022
300
87545ACD_2022_0F
  0
DICTIONARY
  5
13E05
102
{ACAD_REACTORS
330
13DAF
102
}
330
13DAF
100
AcDbDictionary
281
     1
  0
DICTIONARY
  5
13E0C
102
{ACAD_REACTORS
330
13DAF
102
}
330
13DAF
100
AcDbDictionary
281
     1
  3
Imperial24
350
13E0D
  3
Metric50
350
13E96
  0
DICTIONARY
  5
13DB0
102
{ACAD_REACTORS
330
13DAF
102
}
330
13DAF
100
AcDbDictionary
281
     1
  0
DICTIONARY
  5
13E04
102
{ACAD_REACTORS
330
13DAF
102
}
330
13DAF
100
AcDbDictionary
281
     1
  3
Model
350
13E15
  3
レイアウト1
350
13E11
  0
DICTIONARY
  5
13DB3
102
{ACAD_REACTORS
330
13DAF
102
}
330
13DAF
100
AcDbDictionary
281
     1
  3
ByBlock
350
13DBC
  3
ByLayer
350
13DB4
  3
Global
350
13DC4
  0
DICTIONARY
  5
13E08
102
{ACAD_REACTORS
330
13DAF
102
}
330
13DAF
100
AcDbDictionary
281
     1
  3
Standard
350
13E09
  0
DICTIONARY
  5
13E01
102
{ACAD_REACTORS
330
13DAF
102
}
330
13DAF
100
AcDbDictionary
281
     1
  3
Standard
350
13E02
  0
DICTIONARY
  5
13E03
102
{ACAD_REACTORS
330
13DAF
102
}
330
13DAF
100
AcDbDictionary
281
     1
  0
ACDBDICTIONARYWDFLT
  5
13DB1
102
{ACAD_REACTORS
330
13DAF
102
}
330
13DAF
100
AcDbDictionary
281
     1
  3
Normal
350
13DB2
100
AcDbDictionaryWithDefault
340
13DB2
  0
RAPIDRTRENDERSETTINGS
  5
157DC
102
{ACAD_REACTORS
330
13DAF
102
}
330
13DAF
100
AcDbRenderSettings
 90
        2
  1
中
290
     1
290
     0
290
     1
290
     1
  1

  1
5 レンダリング レベルを適用
 90
        0
100
AcDbRapidRTRenderSettings
 90
        3
 70
     0
 90
        5
 90
        1
 70
     1
 70
     2
 40
3.0
 40
3.0
290
     1
  0
MENTALRAYRENDERSETTINGS
  5
171BF
102
{ACAD_XDICTIONARY
360
171C0
102
}
102
{ACAD_REACTORS
330
13DAF
102
}
330
13DAF
100
AcDbRenderSettings
 90
        2
  1
中間
290
     1
290
     1
290
     1
290
     1
  1

  1

 90
        0
100
AcDbMentalRayRenderSettings
 90
        2
 90
        0
 90
        1
 70
     2
 40
3.0
 40
3.0
 40
0.0500000007450581
 40
0.0500000007450581
 40
0.0500000007450581
 40
0.0500000007450581
 70
     0
290
     0
290
     1
 90
        5
 90
        5
 90
        5
290
     0
 90
      500
290
     0
 40
1.0
 90
    10000
 90
        5
 90
        5
 90
        5
290
     0
 90
      200
290
     0
290
     0
290
     0
 40
1.0
 40
1.0
 40
1500.0
 70
     0
 70
     0
 40
10.0
 70
     0
 70
     0
290
     0
  1

 90
       32
 70
     0
 90
     1048
290
     0
 40
1.0
  0
DICTIONARY
  5
13DE5
102
{ACAD_REACTORS
330
13DAF
102
}
330
13DAF
100
AcDbDictionary
281
     1
  3
A0
350
13DE6
  3
A1
350
13DE7
  3
A2
350
13DE8
  3
A3
350
13DE9
  3
A4
350
13DEA
  3
A5
350
13DEB
  3
A6
350
13DEC
  3
A7
350
13DED
  3
A8
350
13DEE
  3
A9
350
13DEF
  3
B0
350
13DF0
  3
B1
350
13DF1
  3
B2
350
13DF2
  3
B3
350
13DF3
  3
B4
350
13DF4
  3
B5
350
13DF5
  3
B6
350
13DF6
  0
DICTIONARY
  5
13E0A
102
{ACAD_REACTORS
330
13DAF
102
}
330
13DAF
100
AcDbDictionary
281
     1
  3
Imperial24
350
13E0B
  3
Metric50
350
13E95
  0
DICTIONARY
  5
13E06
102
{ACAD_REACTORS
330
13DAF
102
}
330
13DAF
100
AcDbDictionary
281
     1
  3
Standard
350
13E07
  0
DICTIONARY
  5
13DCC
102
{ACAD_REACTORS
330
13DAF
102
}
330
13DAF
100
AcDbDictionary
281
     1
  3
2dWireframe
350
13DD2
  3
Basic
350
13DD1
  3
Brighten
350
13DD8
  3
ColorChange
350
13DDC
  3
Conceptual
350
13DD5
  3
Dim
350
13DD7
  3
EdgeColorOff
350
13DE4
  3
Facepattern
350
13DDB
  3
Flat
350
13DCD
  3
FlatWithEdges
350
13DCE
  3
Gouraud
350
13DCF
  3
GouraudWithEdges
350
13DD0
  3
Hidden
350
13DD4
  3
JitterOff
350
13DE2
  3
Linepattern
350
13DDA
  3
OverhangOff
350
13DE3
  3
Realistic
350
13DD6
  3
Shaded
350
13DE1
  3
Shaded with edges
350
13DE0
  3
Shades of Gray
350
13DDD
  3
Sketchy
350
13DDE
  3
Thicken
350
13DD9
  3
Wireframe
350
13DD3
  3
X-Ray
350
13DDF
  0
XRECORD
  5
19BE3
102
{ACAD_REACTORS
330
13DAF
102
}
330
13DAF
100
AcDbXrecord
280
     1
 90
        1
330
13E07
  0
DICTIONARY
  5
13E89
102
{ACAD_REACTORS
330
13DAF
102
}
330
13DAF
100
AcDbDictionary
281
     1
  3
CANNOSCALE
350
13E8F
  3
CMLEADERSTYLE
350
13E8B
  3
CTABLESTYLE
350
13E8A
  3
CVIEWDETAILSTYLE
350
13E8C
  3
CVIEWSECTIONSTYLE
350
13E8D
  3
LAYEREVAL
350
13E91
  3
LAYERNOTIFY
350
13E92
  3
LIGHTINGUNITS
350
13E90
  3
MSLTSCALE
350
13E8E
  3
XCLIPFRAME
350
19BE1
  0
DICTIONARY
  5
19BE9
102
{ACAD_REACTORS
330
13DAF
102
}
330
13DAF
100
AcDbDictionary
281
     1
  3
AcDsRecords
350
19BEB
  3
AcDsSchemas
350
19BEA
1001
ACAD
1070
     2
  0
DICTIONARY
  5
13E39
102
{ACAD_REACTORS
330
13E38
102
}
330
13E38
100
AcDbDictionary
281
     1
  0
ACDBDETAILVIEWSTYLE
  5
13E0D
102
{ACAD_XDICTIONARY
360
19C24
102
}
102
{ACAD_REACTORS
330
13E0C
102
}
330
13E0C
100
AcDbModelDocViewStyle
 70
     0
  3
Imperial24
290
     0
100
AcDbDetailViewStyle
 70
     0
 71
     0
 90
        3
 71
     1
340
13DF8
 62
   256
 40
0.24
340
0
 62
   256
 40
0.24
300

 40
0.36
280
     3
 71
     2
340
13DFF
 90
       25
 62
   256
 71
     3
340
13DF8
 62
   256
 40
0.24
 90
        1
 40
0.75
 90
        1
300
%<\AcVar ViewType \f "%tc1">% %<\AcVar ViewDetailId>%\PSCALE %<\AcVar ViewScale \f "%sn">%
 71
     4
340
13DFF
 90
       25
 62
   256
340
13DFF
 90
       25
 62
   256
280
     0
  0
ACDBDETAILVIEWSTYLE
  5
13E96
102
{ACAD_XDICTIONARY
360
19C28
102
}
102
{ACAD_REACTORS
330
13E0C
102
}
330
13E0C
100
AcDbModelDocViewStyle
 70
     0
  3
Metric50
290
     0
100
AcDbDetailViewStyle
 70
     0
 71
     0
 90
        3
 71
     1
340
13DF8
 62
   256
 40
5.0
340
0
 62
   256
 40
5.0
300

 40
0.0
280
     1
 71
     2
340
13DFF
 90
       25
 62
   256
 71
     3
340
13DF8
 62
   256
 40
5.0
 90
        0
 40
15.0
 90
        1
300
%<\AcVar ViewDetailId>% (%<\AcVar ViewScale \f "%sn">%)
 71
     4
340
13DFF
 90
       25
 62
   256
340
13DFF
 90
       25
 62
   256
280
     0
  0
LAYOUT
  5
13E15
102
{ACAD_XDICTIONARY
360
13E85
102
}
102
{ACAD_REACTORS
330
13E04
102
}
330
13E04
100
AcDbPlotSettings
  1

  2
C:\ACAD-I\support\plotters\Default Windows System Printer.pc3
  4
A4
  6

 40
4.900083065032958
 41
4.900057315826416
 42
4.90008544921875
 43
4.90008544921875
 44
210.0156707763672
 45
297.0106506347656
 46
0.0
 47
0.0
 48
0.0
 49
0.0
140
0.0
141
0.0
142
1.0
143
4290.596139390637
 70
  1712
 72
     0
 73
     0
 74
     0
  7
monochrome.ctb
 75
     0
147
0.0002330678459385
 76
     0
 77
     2
 78
   300
148
40802.35428627056
149
2074.968433018487
100
AcDbLayout
  1
Model
 70
     1
 71
     0
 10
0.0
 20
0.0
 11
12.0
 21
9.0
 12
0.0
 22
0.0
 32
0.0
 14
0.0
 24
0.0
 34
0.0
 15
0.0
 25
0.0
 35
0.0
146
0.0
 13
0.0
 23
0.0
 33
0.0
 16
1.0
 26
0.0
 36
0.0
 17
0.0
 27
1.0
 37
0.0
 76
     0
330
13E12
331
13E19
  0
LAYOUT
  5
13E11
102
{ACAD_REACTORS
330
13E04
102
}
330
13E04
100
AcDbPlotSettings
  1

  2
C:\ACAD-I\support\plotters\Default Windows System Printer.pc3
  4
A4
  6

 40
4.900083065032958
 41
4.900057315826416
 42
4.90008544921875
 43
4.90008544921875
 44
210.0156707763672
 45
297.0106506347656
 46
0.0
 47
0.0
 48
0.0
 49
0.0
140
0.0
141
0.0
142
1.0
143
1.0
 70
   688
 72
     0
 73
     0
 74
     5
  7
monochrome.ctb
 75
    16
147
1.0
 76
     0
 77
     2
 78
   300
148
0.0
149
0.0
100
AcDbLayout
  1
レイアウト1
 70
     1
 71
     1
 10
0.0
 20
0.0
 11
420.0
 21
297.0
 12
0.0
 22
0.0
 32
0.0
 14
1.000000000000000E+20
 24
1.000000000000000E+20
 34
1.000000000000000E+20
 15
-1.000000000000000E+20
 25
-1.000000000000000E+20
 35
-1.000000000000000E+20
146
0.0
 13
0.0
 23
0.0
 33
0.0
 16
1.0
 26
0.0
 36
0.0
 17
0.0
 27
1.0
 37
0.0
 76
     0
330
13E0E
  0
MATERIAL
  5
13DBC
102
{ACAD_XDICTIONARY
360
13DBD
102
}
102
{ACAD_REACTORS
330
13DB3
102
}
330
13DB3
100
AcDbMaterial
  1
ByBlock
 72
     0
 43
0.0208333333333333
 43
0.0
 43
0.0
 43
0.0
 43
0.0
 43
0.0208333333333333
 43
0.0
 43
0.0
 43
0.0
 43
0.0
 43
1.0
 43
0.0
 43
0.0
 43
0.0
 43
0.0
 43
1.0
 77
     0
 47
0.0208333333333333
 47
0.0
 47
0.0
 47
0.0
 47
0.0
 47
0.0208333333333333
 47
0.0
 47
0.0
 47
0.0
 47
0.0
 47
1.0
 47
0.0
 47
0.0
 47
0.0
 47
0.0
 47
1.0
171
     0
 49
0.0208333333333333
 49
0.0
 49
0.0
 49
0.0
 49
0.0
 49
0.0208333333333333
 49
0.0
 49
0.0
 49
0.0
 49
0.0
 49
1.0
 49
0.0
 49
0.0
 49
0.0
 49
0.0
 49
1.0
175
     0
142
0.0208333333333333
142
0.0
142
0.0
142
0.0
142
0.0
142
0.0208333333333333
142
0.0
142
0.0
142
0.0
142
0.0
142
1.0
142
0.0
142
0.0
142
0.0
142
0.0
142
1.0
179
     0
144
0.0208333333333333
144
0.0
144
0.0
144
0.0
144
0.0
144
0.0208333333333333
144
0.0
144
0.0
144
0.0
144
0.0
144
1.0
144
0.0
144
0.0
144
0.0
144
0.0
144
1.0
147
0.0208333333333333
147
0.0
147
0.0
147
0.0
147
0.0
147
0.0208333333333333
147
0.0
147
0.0
147
0.0
147
0.0
147
1.0
147
0.0
147
0.0
147
0.0
147
0.0
147
1.0
  0
MATERIAL
  5
13DB4
102
{ACAD_XDICTIONARY
360
13DB5
102
}
102
{ACAD_REACTORS
330
13DB3
102
}
330
13DB3
100
AcDbMaterial
  1
ByLayer
 72
     0
 43
0.0208333333333333
 43
0.0
 43
0.0
 43
0.0
 43
0.0
 43
0.0208333333333333
 43
0.0
 43
0.0
 43
0.0
 43
0.0
 43
1.0
 43
0.0
 43
0.0
 43
0.0
 43
0.0
 43
1.0
 77
     0
 47
0.0208333333333333
 47
0.0
 47
0.0
 47
0.0
 47
0.0
 47
0.0208333333333333
 47
0.0
 47
0.0
 47
0.0
 47
0.0
 47
1.0
 47
0.0
 47
0.0
 47
0.0
 47
0.0
 47
1.0
171
     0
 49
0.0208333333333333
 49
0.0
 49
0.0
 49
0.0
 49
0.0
 49
0.0208333333333333
 49
0.0
 49
0.0
 49
0.0
 49
0.0
 49
1.0
 49
0.0
 49
0.0
 49
0.0
 49
0.0
 49
1.0
175
     0
142
0.0208333333333333
142
0.0
142
0.0
142
0.0
142
0.0
142
0.0208333333333333
142
0.0
142
0.0
142
0.0
142
0.0
142
1.0
142
0.0
142
0.0
142
0.0
142
0.0
142
1.0
179
     0
144
0.0208333333333333
144
0.0
144
0.0
144
0.0
144
0.0
144
0.0208333333333333
144
0.0
144
0.0
144
0.0
144
0.0
144
1.0
144
0.0
144
0.0
144
0.0
144
0.0
144
1.0
147
0.0208333333333333
147
0.0
147
0.0
147
0.0
147
0.0
147
0.0208333333333333
147
0.0
147
0.0
147
0.0
147
0.0
147
1.0
147
0.0
147
0.0
147
0.0
147
0.0
147
1.0
  0
MATERIAL
  5
13DC4
102
{ACAD_XDICTIONARY
360
13DC5
102
}
102
{ACAD_REACTORS
330
13DB3
102
}
330
13DB3
100
AcDbMaterial
  1
Global
 72
     0
 43
0.0208333333333333
 43
0.0
 43
0.0
 43
0.0
 43
0.0
 43
0.0208333333333333
 43
0.0
 43
0.0
 43
0.0
 43
0.0
 43
1.0
 43
0.0
 43
0.0
 43
0.0
 43
0.0
 43
1.0
 77
     0
 47
0.0208333333333333
 47
0.0
 47
0.0
 47
0.0
 47
0.0
 47
0.0208333333333333
 47
0.0
 47
0.0
 47
0.0
 47
0.0
 47
1.0
 47
0.0
 47
0.0
 47
0.0
 47
0.0
 47
1.0
171
     0
 49
0.0208333333333333
 49
0.0
 49
0.0
 49
0.0
 49
0.0
 49
0.0208333333333333
 49
0.0
 49
0.0
 49
0.0
 49
0.0
 49
1.0
 49
0.0
 49
0.0
 49
0.0
 49
0.0
 49
1.0
175
     0
142
0.0208333333333333
142
0.0
142
0.0
142
0.0
142
0.0
142
0.0208333333333333
142
0.0
142
0.0
142
0.0
142
0.0
142
1.0
142
0.0
142
0.0
142
0.0
142
0.0
142
1.0
179
     0
144
0.0208333333333333
144
0.0
144
0.0
144
0.0
144
0.0
144
0.0208333333333333
144
0.0
144
0.0
144
0.0
144
0.0
144
1.0
144
0.0
144
0.0
144
0.0
144
0.0
144
1.0
147
0.0208333333333333
147
0.0
147
0.0
147
0.0
147
0.0
147
0.0208333333333333
147
0.0
147
0.0
147
0.0
147
0.0
147
1.0
147
0.0
147
0.0
147
0.0
147
0.0
147
1.0
  0
MLEADERSTYLE
  5
13E09
102
{ACAD_XDICTIONARY
360
19C20
102
}
102
{ACAD_REACTORS
330
13E08
102
}
330
13E08
100
AcDbMLeaderStyle
170
     2
171
     1
172
     0
 90
        2
 40
0.0
 41
0.0
173
     1
 91
-1056964608
340
13DFD
 92
       -2
290
     1
 42
0.09
291
     1
 43
0.36
  3
Standard
 44
0.18
300

342
13DF8
174
     1
178
     6
175
     1
176
     0
 93
-1056964608
 45
0.18
292
     0
297
     0
 46
0.18
 94
-1056964608
 47
1.0
 49
1.0
140
1.0
293
     1
141
0.0
294
     1
177
     0
142
1.0
295
     0
296
     0
143
0.125
1001
ACAD_MLEADERVER
1070
     2
  0
MLINESTYLE
  5
13E02
102
{ACAD_REACTORS
330
13E01
102
}
330
13E01
100
AcDbMlineStyle
  2
STANDARD
 70
     0
  3

 62
   256
 51
90.0
 52
90.0
 71
     2
 49
0.5
 62
   256
  6
BYLAYER
 49
-0.5
 62
   256
  6
BYLAYER
  0
ACDBPLACEHOLDER
  5
13DB2
102
{ACAD_REACTORS
330
13DB1
102
}
330
13DB1
  0
DICTIONARY
  5
171C0
330
171BF
100
AcDbDictionary
280
     1
281
     1
  3
ADSK_XREC_MENTALRAYSETTINGSINFO
360
171C1
  0
SCALE
  5
13DE6
102
{ACAD_REACTORS
330
13DE5
102
}
330
13DE5
100
AcDbScale
 70
     0
300
1:1
140
1.0
141
1.0
290
     1
  0
SCALE
  5
13DE7
102
{ACAD_REACTORS
330
13DE5
102
}
330
13DE5
100
AcDbScale
 70
     0
300
1/128" = 1'-0"
140
0.0078125
141
12.0
290
     0
  0
SCALE
  5
13DE8
102
{ACAD_REACTORS
330
13DE5
102
}
330
13DE5
100
AcDbScale
 70
     0
300
1/64" = 1'-0"
140
0.015625
141
12.0
290
     0
  0
SCALE
  5
13DE9
102
{ACAD_REACTORS
330
13DE5
102
}
330
13DE5
100
AcDbScale
 70
     0
300
1/32" = 1'-0"
140
0.03125
141
12.0
290
     0
  0
SCALE
  5
13DEA
102
{ACAD_REACTORS
330
13DE5
102
}
330
13DE5
100
AcDbScale
 70
     0
300
1/16" = 1'-0"
140
0.0625
141
12.0
290
     0
  0
SCALE
  5
13DEB
102
{ACAD_REACTORS
330
13DE5
102
}
330
13DE5
100
AcDbScale
 70
     0
300
3/32" = 1'-0"
140
0.09375
141
12.0
290
     0
  0
SCALE
  5
13DEC
102
{ACAD_REACTORS
330
13DE5
102
}
330
13DE5
100
AcDbScale
 70
     0
300
1/8" = 1'-0"
140
0.125
141
12.0
290
     0
  0
SCALE
  5
13DED
102
{ACAD_REACTORS
330
13DE5
102
}
330
13DE5
100
AcDbScale
 70
     0
300
3/16" = 1'-0"
140
0.1875
141
12.0
290
     0
  0
SCALE
  5
13DEE
102
{ACAD_REACTORS
330
13DE5
102
}
330
13DE5
100
AcDbScale
 70
     0
300
1/4" = 1'-0"
140
0.25
141
12.0
290
     0
  0
SCALE
  5
13DEF
102
{ACAD_REACTORS
330
13DE5
102
}
330
13DE5
100
AcDbScale
 70
     0
300
3/8" = 1'-0"
140
0.375
141
12.0
290
     0
  0
SCALE
  5
13DF0
102
{ACAD_REACTORS
330
13DE5
102
}
330
13DE5
100
AcDbScale
 70
     0
300
1/2" = 1'-0"
140
0.5
141
12.0
290
     0
  0
SCALE
  5
13DF1
102
{ACAD_REACTORS
330
13DE5
102
}
330
13DE5
100
AcDbScale
 70
     0
300
3/4" = 1'-0"
140
0.75
141
12.0
290
     0
  0
SCALE
  5
13DF2
102
{ACAD_REACTORS
330
13DE5
102
}
330
13DE5
100
AcDbScale
 70
     0
300
1" = 1'-0"
140
1.0
141
12.0
290
     0
  0
SCALE
  5
13DF3
102
{ACAD_REACTORS
330
13DE5
102
}
330
13DE5
100
AcDbScale
 70
     0
300
1-1/2" = 1'-0"
140
1.5
141
12.0
290
     0
  0
SCALE
  5
13DF4
102
{ACAD_REACTORS
330
13DE5
102
}
330
13DE5
100
AcDbScale
 70
     0
300
3" = 1'-0"
140
3.0
141
12.0
290
     0
  0
SCALE
  5
13DF5
102
{ACAD_REACTORS
330
13DE5
102
}
330
13DE5
100
AcDbScale
 70
     0
300
6" = 1'-0"
140
6.0
141
12.0
290
     0
  0
SCALE
  5
13DF6
102
{ACAD_REACTORS
330
13DE5
102
}
330
13DE5
100
AcDbScale
 70
     0
300
1'-0" = 1'-0"
140
12.0
141
12.0
290
     0
  0
ACDBSECTIONVIEWSTYLE
  5
13E0B
102
{ACAD_XDICTIONARY
360
19C22
102
}
102
{ACAD_REACTORS
330
13E0A
102
}
330
13E0A
100
AcDbModelDocViewStyle
 70
     0
  3
Imperial24
290
     0
100
AcDbSectionViewStyle
 70
     0
 71
     0
 90
       78
 71
     1
340
13DF8
 62
   256
 40
0.24
340
0
340
0
 62
   256
 40
0.24
300
I, O, Q, S, X, Z
 40
0.48
 90
        3
 40
0.18
 90
        1
 71
     2
340
13DFF
 90
       25
 62
   256
340
13DFF
 90
       50
 62
   256
 40
0.24
 40
0.0
 40
0.24
 71
     3
340
13DF8
 62
   256
 40
0.24
 90
        1
 40
0.75
 90
        1
300
%<\AcVar ViewType \f "%tc1">% %<\AcVar ViewSectionStartId>%-%<\AcVar ViewSectionEndId>%\PSCALE %<\AcVar ViewScale \f "%sn">%
 71
     4
 62
   256
 62
   257
300
ANSI31
 40
1.0
 90
        0
290
     0
290
     0
 90
        6
 40
0.0
 40
1.570796326794896
 40
0.2617993877991494
 40
1.308996938995747
 40
-0.2617993877991494
 40
1.832595714594046
  0
ACDBSECTIONVIEWSTYLE
  5
13E95
102
{ACAD_XDICTIONARY
360
19C26
102
}
102
{ACAD_REACTORS
330
13E0A
102
}
330
13E0A
100
AcDbModelDocViewStyle
 70
     0
  3
Metric50
290
     0
100
AcDbSectionViewStyle
 70
     0
 71
     0
 90
      102
 71
     1
340
13DF8
 62
   256
 40
5.0
340
0
340
0
 62
   256
 40
5.0
300
I, O, Q, S, X, Z
 40
10.0
 90
        0
 40
2.5
 90
        0
 71
     2
340
13DFF
 90
       25
 62
   256
340
13DFF
 90
       50
 62
   256
 40
5.0
 40
2.5
 40
5.0
 71
     3
340
13DF8
 62
   256
 40
5.0
 90
        0
 40
15.0
 90
        1
300
%<\AcVar ViewSectionStartId>%-%<\AcVar ViewSectionEndId>% (%<\AcVar ViewScale \f "%sn">%)
 71
     4
 62
   256
 62
   257
300
ANSI31
 40
1.0
 90
        0
290
     0
290
     0
 90
        6
 40
0.0
 40
1.570796326794896
 40
0.2617993877991494
 40
1.308996938995747
 40
-0.2617993877991494
 40
1.832595714594046
  0
TABLESTYLE
  5
13E07
102
{ACAD_XDICTIONARY
360
13E3E
102
}
102
{ACAD_REACTORS
330
13E06
102
}
330
13E06
100
AcDbTableStyle
  3
Standard
 70
     0
 71
     0
 40
0.06
 41
0.06
280
     0
281
     0
  7
STANDARD
140
0.18
170
     2
 62
     0
 63
     7
283
     0
274
    -2
284
     1
 64
     0
275
    -2
285
     1
 65
     0
276
    -2
286
     1
 66
     0
277
    -2
287
     1
 67
     0
278
    -2
288
     1
 68
     0
279
    -2
289
     1
 69
     0
  7
STANDARD
140
0.25
170
     5
 62
     0
 63
     7
283
     0
274
    -2
284
     1
 64
     0
275
    -2
285
     1
 65
     0
276
    -2
286
     1
 66
     0
277
    -2
287
     1
 67
     0
278
    -2
288
     1
 68
     0
279
    -2
289
     1
 69
     0
  7
STANDARD
140
0.18
170
     5
 62
     0
 63
     7
283
     0
274
    -2
284
     1
 64
     0
275
    -2
285
     1
 65
     0
276
    -2
286
     1
 66
     0
277
    -2
287
     1
 67
     0
278
    -2
288
     1
 68
     0
279
    -2
289
     1
 69
     0
  0
VISUALSTYLE
  5
13DD2
102
{ACAD_XDICTIONARY
360
19BF9
102
}
102
{ACAD_REACTORS
330
13DCC
102
}
330
13DCC
100
AcDbVisualStyle
  2
2dWireframe
 70
     4
 71
     0
 72
     2
 73
     0
 90
        0
 40
-0.6
 41
-30.0
 62
     5
 63
     7
421
 16777215
 74
     1
 91
        4
 64
     7
 65
   257
 75
     1
175
     1
 42
1.0
 92
        0
 66
   257
 43
1.0
 76
     1
 77
     6
 78
     2
 67
     7
 79
     5
170
     0
171
     0
290
     0
174
     0
 93
        1
 44
0.0
173
     0
291
     0
 45
0.0
1001
ACAD
1000
AcDbSavedByObjectVersion
1070
     0
  0
VISUALSTYLE
  5
13DD1
102
{ACAD_XDICTIONARY
360
19BF7
102
}
102
{ACAD_REACTORS
330
13DCC
102
}
330
13DCC
100
AcDbVisualStyle
  2
Basic
 70
     7
 71
     1
 72
     0
 73
     1
 90
        0
 40
-0.6
 41
-30.0
 62
     5
 63
     7
421
 16777215
 74
     0
 91
        4
 64
     7
 65
   257
 75
     1
175
     1
 42
1.0
 92
        8
 66
     7
 43
1.0
 76
     1
 77
     6
 78
     2
 67
     7
 79
     5
170
     0
171
     0
290
     0
174
     0
 93
        1
 44
0.0
173
     0
291
     1
 45
0.0
1001
ACAD
1000
AcDbSavedByObjectVersion
1070
     0
  0
VISUALSTYLE
  5
13DD8
102
{ACAD_XDICTIONARY
360
19C05
102
}
102
{ACAD_REACTORS
330
13DCC
102
}
330
13DCC
100
AcDbVisualStyle
  2
Brighten
 70
    12
 71
     2
 72
     2
 73
     0
 90
        0
 40
-0.6
 41
-30.0
 62
     5
 63
     7
421
 16777215
 74
     1
 91
        4
 64
     7
 65
   257
 75
     1
175
     1
 42
1.0
 92
        8
 66
     7
 43
1.0
 76
     1
 77
     6
 78
     2
 67
     7
 79
     5
170
     0
171
     0
290
     0
174
     0
 93
        1
 44
50.0
173
     0
291
     1
 45
0.0
1001
ACAD
1000
AcDbSavedByObjectVersion
1070
     0
  0
VISUALSTYLE
  5
13DDC
102
{ACAD_XDICTIONARY
360
19C0D
102
}
102
{ACAD_REACTORS
330
13DCC
102
}
330
13DCC
100
AcDbVisualStyle
  2
ColorChange
 70
    16
 71
     2
 72
     2
 73
     3
 90
        0
 40
-0.6
 41
-30.0
 62
     5
 63
     8
421
  8421504
 74
     1
 91
        4
 64
     7
 65
   257
 75
     1
175
     1
 42
1.0
 92
        8
 66
     8
424
  8421504
 43
1.0
 76
     1
 77
     6
 78
     2
 67
     7
 79
     5
170
     0
171
     0
290
     0
174
     0
 93
        1
 44
0.0
173
     0
291
     1
 45
0.0
1001
ACAD
1000
AcDbSavedByObjectVersion
1070
     0
  0
VISUALSTYLE
  5
13DD5
102
{ACAD_XDICTIONARY
360
19BFF
102
}
102
{ACAD_REACTORS
330
13DCC
102
}
330
13DCC
100
AcDbVisualStyle
  2
Conceptual
 70
     9
 71
     3
 72
     2
 73
     0
 90
        0
 40
-0.6
 41
-30.0
 62
     5
 63
     7
421
 16777215
 74
     2
 91
        2
 64
     7
 65
   257
 75
     1
175
     1
 42
179.0
 92
        8
 66
     7
 43
1.0
 76
     1
 77
     6
 78
     2
 67
     7
 79
     3
170
     0
171
     0
290
     0
174
     0
 93
        1
 44
0.0
173
     0
291
     0
 45
0.0
1001
ACAD
1000
AcDbSavedByObjectVersion
1070
     0
  0
VISUALSTYLE
  5
13DD7
102
{ACAD_XDICTIONARY
360
19C03
102
}
102
{ACAD_REACTORS
330
13DCC
102
}
330
13DCC
100
AcDbVisualStyle
  2
Dim
 70
    11
 71
     2
 72
     2
 73
     0
 90
        0
 40
-0.6
 41
-30.0
 62
     5
 63
     7
421
 16777215
 74
     1
 91
        4
 64
     7
 65
   257
 75
     1
175
     1
 42
1.0
 92
        8
 66
     7
 43
1.0
 76
     1
 77
     6
 78
     2
 67
     7
 79
     5
170
     0
171
     0
290
     0
174
     0
 93
        1
 44
-50.0
173
     0
291
     1
 45
0.0
1001
ACAD
1000
AcDbSavedByObjectVersion
1070
     0
  0
VISUALSTYLE
  5
13DE4
102
{ACAD_XDICTIONARY
360
19C1D
102
}
102
{ACAD_REACTORS
330
13DCC
102
}
330
13DCC
100
AcDbVisualStyle
  2
EdgeColorOff
 70
    22
 71
     2
 72
     2
 73
     0
 90
        0
 40
-0.6
 41
-30.0
 62
     5
 63
     7
421
 16777215
 74
     1
 91
        4
 64
     7
 65
   257
 75
     1
175
     1
 42
1.0
 92
        8
 66
     7
 43
1.0
 76
     1
 77
     6
 78
     2
 67
     7
 79
     5
170
     0
171
     0
290
     0
174
     0
 93
        1
 44
0.0
173
     0
291
     1
 45
0.0
1001
ACAD
1000
AcDbSavedByObjectVersion
1070
     0
  0
VISUALSTYLE
  5
13DDB
102
{ACAD_XDICTIONARY
360
19C0B
102
}
102
{ACAD_REACTORS
330
13DCC
102
}
330
13DCC
100
AcDbVisualStyle
  2
Facepattern
 70
    15
 71
     2
 72
     2
 73
     0
 90
        0
 40
-0.6
 41
-30.0
 62
     5
 63
     7
421
 16777215
 74
     1
 91
        4
 64
     7
 65
   257
 75
     1
175
     1
 42
1.0
 92
        8
 66
     7
 43
1.0
 76
     1
 77
     6
 78
     2
 67
     7
 79
     5
170
     0
171
     0
290
     0
174
     0
 93
        1
 44
0.0
173
     0
291
     1
 45
0.0
1001
ACAD
1000
AcDbSavedByObjectVersion
1070
     0
  0
VISUALSTYLE
  5
13DCD
102
{ACAD_XDICTIONARY
360
19BEF
102
}
102
{ACAD_REACTORS
330
13DCC
102
}
330
13DCC
100
AcDbVisualStyle
  2
Flat
 70
     0
 71
     2
 72
     1
 73
     1
 90
        2
 40
-0.6
 41
30.0
 62
     5
 63
     7
421
 16777215
 74
     0
 91
        0
 64
     7
 65
   257
 75
     1
175
     1
 42
1.0
 92
        8
 66
     7
 43
1.0
 76
     1
 77
     6
 78
     2
 67
     7
 79
     5
170
     0
171
     0
290
     0
174
     0
 93
       13
 44
0.0
173
     0
291
     1
 45
0.0
1001
ACAD
1000
AcDbSavedByObjectVersion
1070
     0
  0
VISUALSTYLE
  5
13DCE
102
{ACAD_XDICTIONARY
360
19BF1
102
}
102
{ACAD_REACTORS
330
13DCC
102
}
330
13DCC
100
AcDbVisualStyle
  2
FlatWithEdges
 70
     1
 71
     2
 72
     1
 73
     1
 90
        2
 40
-0.6
 41
30.0
 62
     5
 63
     7
421
 16777215
 74
     1
 91
        0
 64
     7
 65
   257
 75
     1
175
     1
 42
1.0
 92
        0
 66
   257
 43
1.0
 76
     1
 77
     6
 78
     2
 67
     7
 79
     5
170
     0
171
     0
290
     0
174
     0
 93
       13
 44
0.0
173
     0
291
     1
 45
0.0
1001
ACAD
1000
AcDbSavedByObjectVersion
1070
     0
  0
VISUALSTYLE
  5
13DCF
102
{ACAD_XDICTIONARY
360
19BF3
102
}
102
{ACAD_REACTORS
330
13DCC
102
}
330
13DCC
100
AcDbVisualStyle
  2
Gouraud
 70
     2
 71
     2
 72
     2
 73
     1
 90
        2
 40
-0.6
 41
30.0
 62
     5
 63
     7
421
 16777215
 74
     0
 91
        0
 64
     7
 65
   257
 75
     1
175
     1
 42
1.0
 92
        0
 66
     7
 43
1.0
 76
     1
 77
     6
 78
     2
 67
     7
 79
     5
170
     0
171
     0
290
     0
174
     0
 93
       13
 44
0.0
173
     0
291
     1
 45
0.0
1001
ACAD
1000
AcDbSavedByObjectVersion
1070
     0
  0
VISUALSTYLE
  5
13DD0
102
{ACAD_XDICTIONARY
360
19BF5
102
}
102
{ACAD_REACTORS
330
13DCC
102
}
330
13DCC
100
AcDbVisualStyle
  2
GouraudWithEdges
 70
     3
 71
     2
 72
     2
 73
     1
 90
        2
 40
-0.6
 41
30.0
 62
     5
 63
     7
421
 16777215
 74
     1
 91
        0
 64
     7
 65
   257
 75
     1
175
     1
 42
1.0
 92
        0
 66
   257
 43
1.0
 76
     1
 77
     6
 78
     2
 67
     7
 79
     5
170
     0
171
     0
290
     0
174
     0
 93
       13
 44
0.0
173
     0
291
     1
 45
0.0
1001
ACAD
1000
AcDbSavedByObjectVersion
1070
     0
  0
VISUALSTYLE
  5
13DD4
102
{ACAD_XDICTIONARY
360
19BFD
102
}
102
{ACAD_REACTORS
330
13DCC
102
}
330
13DCC
100
AcDbVisualStyle
  2
Hidden
 70
     6
 71
     1
 72
     2
 73
     2
 90
        0
 40
-0.6
 41
-30.0
 62
     5
 63
     7
421
 16777215
 74
     2
 91
        2
 64
     7
 65
   257
 75
     2
175
     1
 42
40.0
 92
        0
 66
   257
 43
1.0
 76
     1
 77
     6
 78
     2
 67
     7
 79
     3
170
     0
171
     0
290
     0
174
     0
 93
        1
 44
0.0
173
     0
291
     0
 45
0.0
1001
ACAD
1000
AcDbSavedByObjectVersion
1070
     0
  0
VISUALSTYLE
  5
13DE2
102
{ACAD_XDICTIONARY
360
19C19
102
}
102
{ACAD_REACTORS
330
13DCC
102
}
330
13DCC
100
AcDbVisualStyle
  2
JitterOff
 70
    20
 71
     2
 72
     2
 73
     0
 90
        0
 40
-0.6
 41
-30.0
 62
     5
 63
     7
421
 16777215
 74
     1
 91
        4
 64
     7
 65
   257
 75
     1
175
     1
 42
1.0
 92
       10
 66
     7
 43
1.0
 76
     1
 77
     6
 78
     2
 67
     7
 79
     5
170
     0
171
     0
290
     0
174
     0
 93
        1
 44
0.0
173
     0
291
     1
 45
0.0
1001
ACAD
1000
AcDbSavedByObjectVersion
1070
     0
  0
VISUALSTYLE
  5
13DDA
102
{ACAD_XDICTIONARY
360
19C09
102
}
102
{ACAD_REACTORS
330
13DCC
102
}
330
13DCC
100
AcDbVisualStyle
  2
Linepattern
 70
    14
 71
     2
 72
     2
 73
     0
 90
        0
 40
-0.6
 41
-30.0
 62
     5
 63
     7
421
 16777215
 74
     1
 91
        4
 64
     7
 65
   257
 75
     7
175
     7
 42
1.0
 92
        8
 66
     7
 43
1.0
 76
     1
 77
     6
 78
     2
 67
     7
 79
     5
170
     0
171
     0
290
     0
174
     0
 93
        1
 44
0.0
173
     0
291
     1
 45
0.0
1001
ACAD
1000
AcDbSavedByObjectVersion
1070
     0
  0
VISUALSTYLE
  5
13DE3
102
{ACAD_XDICTIONARY
360
19C1B
102
}
102
{ACAD_REACTORS
330
13DCC
102
}
330
13DCC
100
AcDbVisualStyle
  2
OverhangOff
 70
    21
 71
     2
 72
     2
 73
     0
 90
        0
 40
-0.6
 41
-30.0
 62
     5
 63
     7
421
 16777215
 74
     1
 91
        4
 64
     7
 65
   257
 75
     1
175
     1
 42
1.0
 92
        9
 66
     7
 43
1.0
 76
     1
 77
     6
 78
     2
 67
     7
 79
     5
170
     0
171
     0
290
     0
174
     0
 93
        1
 44
0.0
173
     0
291
     1
 45
0.0
1001
ACAD
1000
AcDbSavedByObjectVersion
1070
     0
  0
VISUALSTYLE
  5
13DD6
102
{ACAD_XDICTIONARY
360
19C01
102
}
102
{ACAD_REACTORS
330
13DCC
102
}
330
13DCC
100
AcDbVisualStyle
  2
Realistic
 70
     8
 71
     2
 72
     2
 73
     0
 90
        2
 40
-0.6
 41
30.0
 62
     5
 63
     7
421
 16777215
 74
     0
 91
        0
 64
     7
 65
   257
 75
     1
175
     1
 42
1.0
 92
        8
 66
   257
 43
1.0
 76
     1
 77
     6
 78
     2
 67
     7
 79
     3
170
     0
171
     0
290
     0
174
     0
 93
       13
 44
0.0
173
     0
291
     0
 45
0.0
1001
ACAD
1000
AcDbSavedByObjectVersion
1070
     0
  0
VISUALSTYLE
  5
13DE1
102
{ACAD_XDICTIONARY
360
19C17
102
}
102
{ACAD_REACTORS
330
13DCC
102
}
330
13DCC
100
AcDbVisualStyle
  2
Shaded
 70
    27
 71
     2
 72
     2
 73
     1
 90
        2
 40
-0.6
 41
30.0
 62
     5
 63
     7
421
 16777215
 74
     0
 91
        4
 64
     7
 65
   257
 75
     1
175
     1
 42
1.0
 92
        8
 66
   257
 43
1.0
 76
     1
 77
     6
 78
     2
 67
     8
425
  7895160
 79
     3
170
     0
171
     0
290
     0
174
     0
 93
        5
 44
0.0
173
     0
291
     0
 45
0.0
1001
ACAD
1000
AcDbSavedByObjectVersion
1070
     0
  0
VISUALSTYLE
  5
13DE0
102
{ACAD_XDICTIONARY
360
19C15
102
}
102
{ACAD_REACTORS
330
13DCC
102
}
330
13DCC
100
AcDbVisualStyle
  2
Shaded with edges
 70
    26
 71
     2
 72
     2
 73
     1
 90
        2
 40
-0.6
 41
30.0
 62
     5
 63
     7
421
 16777215
 74
     1
 91
        2
 64
     7
 65
   257
 75
     2
175
     1
 42
1.0
 92
        8
 66
   257
 43
1.0
 76
     1
 77
     6
 78
     2
 67
     7
 79
     3
170
     0
171
     0
290
     0
174
     0
 93
        5
 44
0.0
173
     0
291
     0
 45
0.0
1001
ACAD
1000
AcDbSavedByObjectVersion
1070
     0
  0
VISUALSTYLE
  5
13DDD
102
{ACAD_XDICTIONARY
360
19C0F
102
}
102
{ACAD_REACTORS
330
13DCC
102
}
330
13DCC
100
AcDbVisualStyle
  2
Shades of Gray
 70
    23
 71
     2
 72
     2
 73
     3
 90
        0
 40
-0.6
 41
-30.0
 62
     5
 63
     7
421
 16777215
 74
     2
 91
        2
 64
     7
 65
     7
 75
     1
175
     1
 42
40.0
 92
        8
 66
     7
 43
1.0
 76
     1
 77
     6
 78
     2
 67
     7
 79
     3
170
     0
171
     0
290
     0
174
     0
 93
        1
 44
0.0
173
     0
291
     0
 45
0.0
1001
ACAD
1000
AcDbSavedByObjectVersion
1070
     0
  0
VISUALSTYLE
  5
13DDE
102
{ACAD_XDICTIONARY
360
19C11
102
}
102
{ACAD_REACTORS
330
13DCC
102
}
330
13DCC
100
AcDbVisualStyle
  2
Sketchy
 70
    24
 71
     1
 72
     2
 73
     2
 90
        0
 40
-0.6
 41
-30.0
 62
     5
 63
     7
421
 16777215
 74
     2
 91
        2
 64
     7
 65
     7
 75
     1
175
     1
 42
40.0
 92
       11
 66
     7
 43
1.0
 76
     1
 77
     6
 78
     2
 67
     7
 79
     6
170
     0
171
     0
290
     0
174
     0
 93
        1
 44
0.0
173
     0
291
     0
 45
0.0
1001
ACAD
1000
AcDbSavedByObjectVersion
1070
     0
  0
VISUALSTYLE
  5
13DD9
102
{ACAD_XDICTIONARY
360
19C07
102
}
102
{ACAD_REACTORS
330
13DCC
102
}
330
13DCC
100
AcDbVisualStyle
  2
Thicken
 70
    13
 71
     2
 72
     2
 73
     0
 90
        0
 40
-0.6
 41
-30.0
 62
     5
 63
     7
421
 16777215
 74
     1
 91
        4
 64
     7
 65
   257
 75
     1
175
     1
 42
1.0
 92
       12
 66
     7
 43
1.0
 76
     1
 77
     6
 78
     2
 67
     7
 79
     5
170
     0
171
     0
290
     0
174
     0
 93
        1
 44
0.0
173
     0
291
     1
 45
0.0
1001
ACAD
1000
AcDbSavedByObjectVersion
1070
     0
  0
VISUALSTYLE
  5
13DD3
102
{ACAD_XDICTIONARY
360
19BFB
102
}
102
{ACAD_REACTORS
330
13DCC
102
}
330
13DCC
100
AcDbVisualStyle
  2
Wireframe
 70
     5
 71
     0
 72
     2
 73
     0
 90
        0
 40
-0.6
 41
-30.0
 62
     5
 63
     7
421
 16777215
 74
     1
 91
        4
 64
     7
 65
   257
 75
     1
175
     1
 42
1.0
 92
        0
 66
   257
 43
1.0
 76
     1
 77
     6
 78
     2
 67
     7
 79
     3
170
     0
171
     0
290
     0
174
     0
 93
        1
 44
0.0
173
     0
291
     0
 45
0.0
1001
ACAD
1000
AcDbSavedByObjectVersion
1070
     0
  0
VISUALSTYLE
  5
13DDF
102
{ACAD_XDICTIONARY
360
19C13
102
}
102
{ACAD_REACTORS
330
13DCC
102
}
330
13DCC
100
AcDbVisualStyle
  2
X-Ray
 70
    25
 71
     2
 72
     2
 73
     1
 90
        1
 40
0.5
 41
-30.0
 62
     5
 63
     7
421
 16777215
 74
     1
 91
        0
 64
     7
 65
   257
 75
     1
175
     1
 42
1.0
 92
        8
 66
     7
 43
1.0
 76
     1
 77
     6
 78
     2
 67
     7
 79
     3
170
     0
171
     0
290
     0
174
     0
 93
       13
 44
0.0
173
     0
291
     0
 45
0.0
1001
ACAD
1000
AcDbSavedByObjectVersion
1070
     0
  0
DICTIONARYVAR
  5
13E8F
102
{ACAD_REACTORS
330
13E89
102
}
330
13E89
100
DictionaryVariables
280
     0
  1
1:1
  0
DICTIONARYVAR
  5
13E8B
102
{ACAD_REACTORS
330
13E89
102
}
330
13E89
100
DictionaryVariables
280
     0
  1
STANDARD
  0
DICTIONARYVAR
  5
13E8A
102
{ACAD_REACTORS
330
13E89
102
}
330
13E89
100
DictionaryVariables
280
     0
  1
STANDARD
  0
DICTIONARYVAR
  5
13E8C
102
{ACAD_REACTORS
330
13E89
102
}
330
13E89
100
DictionaryVariables
280
     0
  1
Imperial24
  0
DICTIONARYVAR
  5
13E8D
102
{ACAD_REACTORS
330
13E89
102
}
330
13E89
100
DictionaryVariables
280
     0
  1
Imperial24
  0
DICTIONARYVAR
  5
13E91
102
{ACAD_REACTORS
330
13E89
102
}
330
13E89
100
DictionaryVariables
280
     0
  1
0
  0
DICTIONARYVAR
  5
13E92
102
{ACAD_REACTORS
330
13E89
102
}
330
13E89
100
DictionaryVariables
280
     0
  1
0
  0
DICTIONARYVAR
  5
13E90
102
{ACAD_REACTORS
330
13E89
102
}
330
13E89
100
DictionaryVariables
280
     0
  1
2
  0
DICTIONARYVAR
  5
13E8E
102
{ACAD_REACTORS
330
13E89
102
}
330
13E89
100
DictionaryVariables
280
     0
  1
1
  0
DICTIONARYVAR
  5
19BE1
102
{ACAD_REACTORS
330
13E89
102
}
330
13E89
100
DictionaryVariables
280
     0
  1
2
  0
DICTIONARY
  5
19BEB
102
{ACAD_REACTORS
330
19BE9
102
}
330
19BE9
100
AcDbDictionary
281
     1
  0
DICTIONARY
  5
19BEA
102
{ACAD_REACTORS
330
19BE9
102
}
330
19BE9
100
AcDbDictionary
281
     1
  3
2150338964032
350
19BE4
  3
2150338964048
350
19BE5
  3
2150338964064
350
19BE6
  3
2150338964080
350
19BE7
  3
2150338964096
350
19BE8
  0
DICTIONARY
  5
19C24
330
13E0D
100
AcDbDictionary
280
     1
281
     1
  3
ACAD_XREC_ROUNDTRIP
360
19C25
  0
DICTIONARY
  5
19C28
330
13E96
100
AcDbDictionary
280
     1
281
     1
  3
ACAD_XREC_ROUNDTRIP
360
19C29
  0
DICTIONARY
  5
13E85
330
13E15
100
AcDbDictionary
280
     1
281
     1
  3
ADSK_XREC_LAYOUTTHUMBNAIL
360
13E86
  0
DICTIONARY
  5
13DBD
330
13DBC
100
AcDbDictionary
280
     1
281
     1
  3
ACAD_XREC_ROUNDTRIP
360
19BED
  3
BUMPTILE
360
13DBF
  3
DIFFUSETILE
360
13DBE
  3
OPACITYTILE
360
13DC2
  3
REFLECTIONTILE
360
13DC1
  3
REFRACTIONTILE
360
13DC3
  3
SPECULARTILE
360
13DC0
  0
DICTIONARY
  5
13DB5
330
13DB4
100
AcDbDictionary
280
     1
281
     1
  3
ACAD_XREC_ROUNDTRIP
360
19BEC
  3
BUMPTILE
360
13DB7
  3
DIFFUSETILE
360
13DB6
  3
OPACITYTILE
360
13DBA
  3
REFLECTIONTILE
360
13DB9
  3
REFRACTIONTILE
360
13DBB
  3
SPECULARTILE
360
13DB8
  0
DICTIONARY
  5
13DC5
330
13DC4
100
AcDbDictionary
280
     1
281
     1
  3
ACAD_XREC_ROUNDTRIP
360
19BEE
  3
BUMPTILE
360
13DC7
  3
DIFFUSETILE
360
13DC6
  3
OPACITYTILE
360
13DCA
  3
REFLECTIONTILE
360
13DC9
  3
REFRACTIONTILE
360
13DCB
  3
SPECULARTILE
360
13DC8
  0
DICTIONARY
  5
19C20
330
13E09
100
AcDbDictionary
280
     1
281
     1
  3
ACAD_XREC_ROUNDTRIP
360
19C21
  0
XRECORD
  5
171C1
102
{ACAD_REACTORS
330
171C0
102
}
330
171C0
100
AcDbXrecord
280
     1
 70
     2
 71
     3
 72
     0
  0
DICTIONARY
  5
19C22
330
13E0B
100
AcDbDictionary
280
     1
281
     1
  3
ACAD_XREC_ROUNDTRIP
360
19C23
  0
DICTIONARY
  5
19C26
330
13E95
100
AcDbDictionary
280
     1
281
     1
  3
ACAD_XREC_ROUNDTRIP
360
19C27
  0
DICTIONARY
  5
13E3E
330
13E07
100
AcDbDictionary
280
     1
281
     1
  3
ACAD_ROUNDTRIP_2008_TABLESTYLE_CELLSTYLEMAP
360
19BE2
  3
ACAD_XREC_ROUNDTRIP
360
19C1F
  0
DICTIONARY
  5
19BF9
330
13DD2
100
AcDbDictionary
280
     1
281
     1
  3
ACAD_XREC_ROUNDTRIP
360
19BFA
  0
DICTIONARY
  5
19BF7
330
13DD1
100
AcDbDictionary
280
     1
281
     1
  3
ACAD_XREC_ROUNDTRIP
360
19BF8
  0
DICTIONARY
  5
19C05
330
13DD8
100
AcDbDictionary
280
     1
281
     1
  3
ACAD_XREC_ROUNDTRIP
360
19C06
  0
DICTIONARY
  5
19C0D
330
13DDC
100
AcDbDictionary
280
     1
281
     1
  3
ACAD_XREC_ROUNDTRIP
360
19C0E
  0
DICTIONARY
  5
19BFF
330
13DD5
100
AcDbDictionary
280
     1
281
     1
  3
ACAD_XREC_ROUNDTRIP
360
19C00
  0
DICTIONARY
  5
19C03
330
13DD7
100
AcDbDictionary
280
     1
281
     1
  3
ACAD_XREC_ROUNDTRIP
360
19C04
  0
DICTIONARY
  5
19C1D
330
13DE4
100
AcDbDictionary
280
     1
281
     1
  3
ACAD_XREC_ROUNDTRIP
360
19C1E
  0
DICTIONARY
  5
19C0B
330
13DDB
100
AcDbDictionary
280
     1
281
     1
  3
ACAD_XREC_ROUNDTRIP
360
19C0C
  0
DICTIONARY
  5
19BEF
330
13DCD
100
AcDbDictionary
280
     1
281
     1
  3
ACAD_XREC_ROUNDTRIP
360
19BF0
  0
DICTIONARY
  5
19BF1
330
13DCE
100
AcDbDictionary
280
     1
281
     1
  3
ACAD_XREC_ROUNDTRIP
360
19BF2
  0
DICTIONARY
  5
19BF3
330
13DCF
100
AcDbDictionary
280
     1
281
     1
  3
ACAD_XREC_ROUNDTRIP
360
19BF4
  0
DICTIONARY
  5
19BF5
330
13DD0
100
AcDbDictionary
280
     1
281
     1
  3
ACAD_XREC_ROUNDTRIP
360
19BF6
  0
DICTIONARY
  5
19BFD
330
13DD4
100
AcDbDictionary
280
     1
281
     1
  3
ACAD_XREC_ROUNDTRIP
360
19BFE
  0
DICTIONARY
  5
19C19
330
13DE2
100
AcDbDictionary
280
     1
281
     1
  3
ACAD_XREC_ROUNDTRIP
360
19C1A
  0
DICTIONARY
  5
19C09
330
13DDA
100
AcDbDictionary
280
     1
281
     1
  3
ACAD_XREC_ROUNDTRIP
360
19C0A
  0
DICTIONARY
  5
19C1B
330
13DE3
100
AcDbDictionary
280
     1
281
     1
  3
ACAD_XREC_ROUNDTRIP
360
19C1C
  0
DICTIONARY
  5
19C01
330
13DD6
100
AcDbDictionary
280
     1
281
     1
  3
ACAD_XREC_ROUNDTRIP
360
19C02
  0
DICTIONARY
  5
19C17
330
13DE1
100
AcDbDictionary
280
     1
281
     1
  3
ACAD_XREC_ROUNDTRIP
360
19C18
  0
DICTIONARY
  5
19C15
330
13DE0
100
AcDbDictionary
280
     1
281
     1
  3
ACAD_XREC_ROUNDTRIP
360
19C16
  0
DICTIONARY
  5
19C0F
330
13DDD
100
AcDbDictionary
280
     1
281
     1
  3
ACAD_XREC_ROUNDTRIP
360
19C10
  0
DICTIONARY
  5
19C11
330
13DDE
100
AcDbDictionary
280
     1
281
     1
  3
ACAD_XREC_ROUNDTRIP
360
19C12
  0
DICTIONARY
  5
19C07
330
13DD9
100
AcDbDictionary
280
     1
281
     1
  3
ACAD_XREC_ROUNDTRIP
360
19C08
  0
DICTIONARY
  5
19BFB
330
13DD3
100
AcDbDictionary
280
     1
281
     1
  3
ACAD_XREC_ROUNDTRIP
360
19BFC
  0
DICTIONARY
  5
19C13
330
13DDF
100
AcDbDictionary
280
     1
281
     1
  3
ACAD_XREC_ROUNDTRIP
360
19C14
  0
XRECORD
  5
19BE4
102
{ACAD_REACTORS
330
19BEA
102
}
330
19BEA
100
AcDbXrecord
280
     1
  1
AcDb_Thumbnail_Schema
102
{ATTRRECORD
341
19BE5
  2
AcDbDs::TreatedAsObjectData
280
     1
291
     1
102
ATTRRECORD}
102
{ATTRRECORD
341
19BE6
  2
AcDbDs::Legacy
280
     1
291
     1
102
ATTRRECORD}
  2
AcDbDs::ID
280
    10
 91
        8
102
{ATTRRECORD
341
19BE7
  2
AcDs:Indexable
280
     1
291
     1
102
ATTRRECORD}
102
{ATTRRECORD
341
19BE8
  2
AcDbDs::HandleAttribute
280
     7
282
     1
102
ATTRRECORD}
  2
Thumbnail_Data
280
    15
 91
        0
  0
XRECORD
  5
19BE5
102
{ACAD_REACTORS
330
19BEA
102
}
330
19BEA
100
AcDbXrecord
280
     1
  1
AcDbDs::TreatedAsObjectDataSchema
  2
AcDbDs::TreatedAsObjectData
280
     1
 91
        0
  0
XRECORD
  5
19BE6
102
{ACAD_REACTORS
330
19BEA
102
}
330
19BEA
100
AcDbXrecord
280
     1
  1
AcDbDs::LegacySchema
  2
AcDbDs::Legacy
280
     1
 91
        0
  0
XRECORD
  5
19BE7
102
{ACAD_REACTORS
330
19BEA
102
}
330
19BEA
100
AcDbXrecord
280
     1
  1
AcDbDs::IndexedPropertySchema
  2
AcDs:Indexable
280
     1
 91
        0
  0
XRECORD
  5
19BE8
102
{ACAD_REACTORS
330
19BEA
102
}
330
19BEA
100
AcDbXrecord
280
     1
  1
AcDbDs::HandleAttributeSchema
  2
AcDbDs::HandleAttribute
280
     7
 91
        1
284
     1
  0
XRECORD
  5
19C25
102
{ACAD_REACTORS
330
19C24
102
}
330
19C24
100
AcDbXrecord
280
     1
102
DISPLAYNAME
  1
Imperial24
102
FLAGS
 90
        0
  0
XRECORD
  5
19C29
102
{ACAD_REACTORS
330
19C28
102
}
330
19C28
100
AcDbXrecord
280
     1
102
DISPLAYNAME
  1
Metric50
102
FLAGS
 90
        0
  0
XRECORD
  5
13E86
102
{ACAD_REACTORS
330
13E85
102
}
330
13E85
100
AcDbXrecord
280
     1
310
2800000000010000570000000100080000000000005700000100000001000000000100000000000000000066FFFFFF520000005600000050000000730000003200000031000000500000006F0000004F00000032330000466600006699000052CC000056FF00005000330073333300326633003199330050CC33006FFF3300
310
3200660018336600006666000099660000CC660000FF66000000990000339900006699000099990000CC990000FF99000000CC000033CC000066CC000099CC0000CCCC0000FFCC000000FF000033FF000066FF000099FF0000CCFF0000FFFF00010000331433003354660033539900336FCC003374FF003330003333303333
310
33726633337099333370CC333330FF3333010066331233663354666633539966336FCC663374FF66333000993330339933726699337099993331CC993300FF99330000CC330033CC330066CC330099CC3300CCCC3300FFCC330000FF330033FF330066FF330099FF3300CCFF3300FFFF330000006600330066006600660099
310
006600CC006600FF00660000336600333366006633660099336666CC336652FF33665600666650336666736666663299666631CC666650FF66666F0099664F339966336699664699996666CC996652FF99665600CC665033CC667366CC663299CC6631CCCC6650FFCC666F00FF663333FF661866FF660099FF6600CCFF6600
310
FFFF660000009900330099006600990099009900CC009900FF00990000339900333399006633990099339900CC339900FF33990000669900336699006666990099669900CC669900FF66990000999901339999146699995499999953CC99996FFF99997400CC993033CC993066CC997299CC9970CCCC9970FFCC993400FF99
310
0133FF991266FF995499FF9953CCFF996FFFFF99740000CC303300CC306600CC729900CC70CC00CC35FF00CC000033CC003333CC006633CC009933CC00CC33CC00FF33CC000066CC003366CC006666CC009966CC00CC66CC00FF66CC000099CC003399CC006699CC009999CC00CC99CC00FF99CC0000CCCC0033CCCC0066CC
310
CC0099CCCC00CCCCCC66FFCCCC5200FFCC5633FFCC5066FFCC7399FFCC32CCFFCC31FFFFCC500000FF6F3300FF4F6600FF339900FF46CC00FF66FF00FF520033FF563333FF506633FF739933FF32CC33FF31FF33FF500066FF6F3366FF336666FF5A9966FF00CC66FF14FF66FF540099FF533399FF6F6699FF749999FF30CC
310
99FF30FF99FF7200CCFF7033CCFF7066CCFF3799CCFF01CCCCFF12FFCCFF5400FFFF5333FFFF6F66FFFF7499FFFF30CCFFFF30FFFFFF72000000700D0D0D381A1A1A00282828003535356643434352505050565D5D5D506B6B6B73787878328686863193939350A1A1A16FAEAEAE4FBBBBBB33C9C9C946D6D6D666E4E4E452
310
F1F1F156FFFFFF50000000730000003200000031000000500000006F000000330000008C00000000000000F0000000FF0000000000000000000000000000000000000000000000000000000000000000000000000000000000000000000000000000000000000000000000000000000000F5F5F5F5F5F5F5F5F5F5F5F5F5F5
310
F5F5F5F5F5F5F5F5F5F5F5F5F5F5F5F5F5F5F5F5F5F5F5F5F5F5F5F5F5F5F5F5F5F5F5F5F5F5F5F5F5F5F5F5F5F5F5F5F5F5F5F5F5F5F5F5F5F5F5F5F5F5F5F5F5F5F5F5F5F5F5F5F5F5F5F5F5F5F5F5F5F5F5F5F5F5F5F5F5F5F5F5F5F5F5F5F5F5F5F5F5F5F5F5F5F5F5F5F5F5F5F5000000000000000000000000000000
310
00000000000000000000000000000000000000000000000000000000000000000000000000000000000000000000000000000000000000000000000000000000000000000000000000000000000000000000000000000000000000000000000000000000000000000000000000000000000000F50000000000000000000000
310
00000000000000000000000000F5000000000000000000000000000000000000000000000000F50000000000000000000000000000000000000000000000F5000000000000000000000000000000000000000000000000F5000000000000000000000000000000000000000000000000F5F500000000000000000000000000
310
000000000000000000000000000000000000000000000000000000000000000000000000000000000000000000000000000000000000000000000000000000000000000000000000000000000000000000000000000000000000000000000000000000000000000000000000000000000000000000F5000000000000000000
310
000000000000000000000000000000F5000000000000000000000000000000000000000000000000F50000000000000000000000000000000000000000000000F5000000000000000000000000000000000000000000000000F5000000000000000000000000000000000000000000000000F5F50000000000000000000000
310
0000000000000000000000000000000000000000000000000000000000000000000000000000000000000000000000000000000000000000000000000000000000000000000000000000000000000000000000000000000000000000000000000000000000000000000000000000000000000000000000F500000000000000
310
0000000000000000000000000000000000F5000000000000000000000000000000000000000000000000F50000000000000000000000000000000000000000000000F5000000000000000000000000000000000000000000000000F5000000000000000000000000000000000000000000000000F5F5000000000000000000
310
00000000000000000000000000000000000000000000000000000000000000000000000000000000000000000000000000000000000000000000000000000000000000000000000000000000000000000000000000000000000000000000000000000000000000000000000000000000000000000000000000F50000000000
310
00000000000000000000000000000000000000F5000000000000000000000000000000000000000000000000F50000000000000000000000000000000000000000000000F5000000000000000000000000000000000000000000000000F5000000000000000000000000000000000000000000000000F5F500000000000000
310
000000000000000000000000000000000000000000000000000000000000000000000000000000000000000000000000000000000000000000000000000000000000000000000000000000000000000000000000000000000000000000000000000000000000000000000000000000000000000000000000000000F5000000
310
000000000000000000000000000000000000000000F5000000000000000000000000000000000000000000000000F50000000000000000000000000000000000000000000000F5000000000000000000000000000000000000000000000000F5000000000000000000000000000000000000000000000000F5F50000000000
310
0000000000000000000000000000000000000000000000000000000000000000000000000000000000000000000000000000000000000000000000000000000000000000000000000000000000000000000000000000000000000000000000000000000000000000000000000000000000000000000000000000000000F500
310
0000000000000000000000000000000000000000000000F5000000000000000000000000000000000000000000000000F50000000000000000000000000000000000000000000000F5000000000000000000000000000000000000000000000000F5000000000000000000000000000000000000000000000000F5F5000000
310
00000000000000000000000000000000000000000000000000000000000000000000000000000000000000000000000000000000000000000000000000000000000000000000000000000000000000000000000000000000000000000000000000000000000000000000000000000000000000000000000000000000000000
310
F5000000000000000000000000000000000000000000000000F5000000000000000000000000000000000000000000000000F50000000000000000000000000000000000000000000000F5000000000000000000000000000000000000000000000000F5000000000000000000000000000000000000000000000000F5F500
310
00000000000000000000000000000000000000000000000000000000000000000000000000000000000000000000000000000000000000000000000000000000000000000000000000000000000000000000000000000000000000000000000000000000000000000000000000000000000000000000000000000000000000
310
0000F5000000000000000000000000000000000000000000000000F5000000000000000000000000000000000000000000000000F50000000000000000000000000000000000000000000000F5000000000000000000000000000000000000000000000000F5000000000000000000000000000000000000000000000000F5
310
F5000000000000000000000000000000000000000000000000000000000000000000000000000000000000000000000000000000000000000000000000000000000000000000000000000000000000000000000000000000000000000000000000000000000000000000000000000000000000000000000000000000000000
310
00000000F5000000000000000000000000000000000000000000000000F5000000000000000000000000000000000000000000000000F50000000000000000000000000000000000000000000000F5000000000000000000000000000000000000000000000000F50000000000000000000000000000000000000000000000
310
00F5F500000000000000000000000000000000000000000000000000000000000000000000000000000000000000000000000000000000000000000000000000000000000000000000000000000000000000000000000000000000000000000000000000000000000000000000000000000000000000000000000000000000
310
000000000000F5F5F5F5F5F5F5F5F5F5F5F5F5F5F5F5F5F5F5F5F5F5F5F5F5F5F5F5F5F5F5F5F5F5F5F5F5F5F5F5F5F5F5F5F5F5F5F5F5F5F5F5F5F5F5F5F5F5F5F5F5F5F5F5F5F5F5F5F5F5F5F5F5F5F5F5F5F5F5F5F5F5F5F5F5F5F5F5F5F5F5F5F5F5F5F5F5F5F5F5F5F5F5F5F5F5F5F5F5F5F5F5F5F5F5F5F5F5F5F5F5
310
F5F5F5F5F50000000000000000000000000000000000000000000000000000000000000000000000000000000000000000000000000000000000000000000000000000000000000000000000000000000000000000000000000000000000000000000000000000000000000000000000000000000000000000000000000000
310
0000000000000000F5000000000000000000000000000000000000000000000000F5000000000000000000000000000000000000000000000000F50000000000000000000000000000000000000000000000F5000000000000000000000000000000000000000000000000F500000000000000000000000000000000000000
310
0000000000F5F5000000000000000000000000000000000000000000000000000000000000000000000000000000000000000000000000000000000000000000000000000000000000000000000000000000000000000000000000000000000000000000000000000000000000000000000000000000000000000000000000
310
00000000000000000000F5F5F5F5F5F5F5F5F5F5F5F5F5F5F5F5F5F5F5F5F5F5F5F5F5F5F5F5F5F5F5F5F5F5F5F5F5F5F5F5F5F5F5F5F5F5F5F5F5F5F5F5F5F5F5F5F5F5F5F5F5F5F5F5F5F5F5F5F5F5F5F5F5F5F5F5F5F5F5F5F5F5F5F5F5F5F5F5F5F5F5F5F5F5F5F5F5F5F5F5F5F5F5F5F5F5F5F5F5F5F5F5F5F5F5F5F5
310
F5F5F5F5F5F5F5F5F500000000000000000000000000000000000000000000000000000000000000000000000000000000000000000000000000000000000000000000000000000000000000000000000000000000000000000000000000000000000000000000000000000000000000000000000000000000000000000000
310
000000000000000000000000F5DCDCDCDCDCDCDCDCDCDCDCDCDCDCDCDC0000F52DDCDCDC00F5000000000000000000000000000000000000000000000000F50000000000000000000000000000000000000000000000F5000000000000000000000000000000000000000000000000F5000000000000000000000000000000
310
000000000000000000F5F50000000000000000000000000000000000000000000000000000000000000000000000000000000000000000000000000000000000000000000000000000000000000000000000000000000000000000000000000000000000000000000000000000000000000000000000000000000000000000
310
0000000000000000000000000000F5DCDC000000000000000000000000DCDC0000002D2D00DC00F5000000000000000000000000000000000000000000000000F50000000000000000000000000000000000000000000000F5000000000000000000000000000000000000000000000000F500000000000000000000000000
310
0000000000000000000000F5F5000000000000000000000000000000000000000000000000000000000000000000000000000000000000000000000000000000000000000000000000000000000000000000000000000000000000000000000000000000000000000000000000000000000000000000000000000000000000
310
00000000000000000000000000000000F52D2D2D2D2D2D2D2D2DDCDCDC2D2D2D2D0000002D2D00DC00F5000000000000000000000000000000000000000000000000F50000000000000000000000000000000000000000000000F5000000000000000000000000000000000000000000000000F50000000000000000000000
310
00000000000000000000000000F5F500000000000000000000000000000000000000000000000000000000000000000000000000000000000000000000000000000000000000000000000000000000000000000000000000000000000000000000000000000000000000000000000000000000000000000000000000000000
310
000000000000000000000000000000000000F500000000000000000000DC00000000000000002D2D00DC00F5000000000000000000000000000000000000000000000000F50000000000000000000000000000000000000000000000F5000000000000000000000000000000000000000000000000F5000000000000000000
310
000000000000000000000000000000F5F50000000000000000000000000000000000000000000000000000000000000000000000000000000000000000000000000000000000000000000000000000000000000000000000000000000000000000000000000000000000000000000000000000000000000000000000000000
310
0000000000000000000000000000000000000000F5000000000000000000000000000000000000002D2D00DC00F5000000000000000000000000000000000000000000000000F50000000000000000000000000000000000000000000000F5000000000000000000000000000000000000000000000000F500000000000000
310
0000000000000000000000000000000000F5F5000000000000000000000000000000000000000000000000000000000000000000000000000000000000000000000000000000000000000000000000000000000000000000000000000000000000000000000000000000000000000000000000000000000000000000000000
310
00000000000000000000000000000000000000000000F5000000000000000000000000000000000000DCDCDC00DC00F5000000000000000000000000000000000000000000000000F50000000000000000000000000000000000000000000000F5000000000000000000000000000000000000000000000000F50000000000
310
00000000000000000000000000000000000000F5F500000000000000000000000000000000000000000000000000000000000000000000000000000000000000000000000000000000000000000000000000000000000000000000000000000000000000000000000000000000000000000000000000000000000000000000
310
000000000000000000000000000000000000000000000000F500000000000000000000000000000000000000DC2D00DC00F5000000000000000000000000000000000000000000000000F50000000000000000000000000000000000000000000000F5000000000000000000000000000000000000000000000000F5000000
310
000000000000000000000000000000000000000000F5F50000000000000000000000000000000000000000000000000000000000000000000000000000000000000000000000000000000000000000000000000000000000000000000000000000000000000000000000000000000000000000000000000000000000000000
310
0000000000000000000000000000000000000000000000000000F5000000000000000000000000000000000000002D2D00DC00F5000000000000000000000000000000000000000000000000F50000000000000000000000000000000000000000000000F5000000000000000000000000000000000000000000000000F500
310
0000000000000000000000000000000000000000000000F5F5000000000000000000000000000000000000000000000000000000000000000000000000000000000000000000000000000000000000000000000000000000000000000000000000000000000000000000000000000000000000000000000000000000000000
310
00000000000000000000000000000000000000000000000000000000F5000000000000000000000000000000000000002D2D00DC00F5000000000000000000000000000000000000000000000000F50000000000000000000000000000000000000000000000F5000000000000000000000000000000000000000000000000
310
F5000000000000000000000000000000000000000000000000F5F500000000000000000000000000000000000000000000000000000000000000000000000000000000000000000000000000000000000000000000000000000000000000000000000000000000000000000000000000000000000000000000000000000000
310
000000000000000000000000000000000000000000000000000000000000F500000000000000000000000000000000000000DCDCDCDC00F5000000000000000000000000000000000000000000000000F50000000000000000000000000000000000000000000000F500000000000000000000000000000000000000000000
310
0000F5000000000000000000000000000000000000000000000000F5F50000000000000000000000000000000000000000000000000000000000000000000000000000000000000000000000000000000000000000000000000000000000000000000000000000000000000000000000000000000000000000000000000000
310
0000000000000000000000000000000000000000000000000000000000000000F5000000000000000000000000000000000000DCDCDC000000F5000000000000000000000000000000000000000000000000F50000000000000000000000000000000000000000000000F50000000000000000000000000000000000000000
310
00000000F5000000000000000000000000000000000000000000000000F5F5000000000000000000000000000000000000000000000000000000000000000000000000000000000000000000000000000000000000000000000000000000000000000000000000000000000000000000000000000000000000000000000000
310
00000000000000000000000000000000000000000000000000000000000000000000F5F5F5F5F5F5F5F5F5F5F5F5F5F5F5F5F5F5F5F5DCDCF5F5F5F5F5F5F5F5F5F5F5F5F5F5F5F5F5F5F5F5F5F5F5F5F5F5F5F5F5F5F5F5F5F5F5F5F5F5F5F5F5F5F5F5F5F5F5F5F5F5F5F5F5F5F5F5F5F5F5F5F5F5F5F5F5F5F5F5F5F5F5
310
F5F5F5F5F5F5F5F5F5F5F5F5F5F5F5F5F5F5F5F5F5F5F5F5F5F5F5F5F5F5F5F5F500000000000000000000000000000000000000000000000000000000000000000000000000000000000000000000000000000000000000000000000000000000000000000000000000000000000000000000000000000000000000000000
310
000000000000000000000000000000000000000000000000000000000000000000000000F5000000000000000000000000000000000000000000000000F5000000000000000000000000000000000000000000000000F50000000000000000000000000000000000000000000000F500000000000000000000000000000000
310
0000000000000000F5000000000000000000000000000000000000000000000000F5F50000000000000000000000000000000000000000000000000000000000000000000000000000000000000000000000000000000000000000000000000000000000000000000000000000000000000000000000000000000000000000
310
0000000000000000000000000000000000000000000000000000000000000000000000000000F5F5F5F5F5F5F5F5F5F5F5F5F5F5F5F5F5F5F5F5F5F5F5F5F5F5F5F5F5F5F5F5F5F5F5F5F5F5F5F5F5F5F5F5F5F5F5F5F5F5F5F5F5F5F5F5F5F5F5F5F5F5F5F5F5F5F5F5F5F5F5F5F5F5F5F5F5F5F5F5F5F5F5F5F5F5F5F5F5
310
F5F5F5F5F5F5F5F5F5F5F5F5F5F5F5F5F5F5F5F5F5F5F5F5F5F5F5F5F5F5F5F5F5F5F5F5F5000000000000000000000000000000000000000000000000000000000000000000000000000000000000000000000000000000000000000000000000000000000000000000000000000000000000000000000000000000000000
310
00000000000000000000000000000000000000000000000000000000000000000000000000000000F5F5F5F5F5F5F5F5F5F5F5F5F5F50000000000000000000000F5000000000000000000000000000000000000000000000000F50000000000000000000000000000000000000000000000F5000000000000000000000000
310
000000000000000000000000F5000000000000000000000000000000000000000000000000F5F500000000000000000000000000000000000000000000000000000000000000000000000000000000000000000000000000000000000000000000000000000000000000000000000000000000000000000000000000000000
310
000000000000000000000000000000000000000000000000000000000000000000000000000000000000F5F5F5F5F5F5F5F5F5F5F5F5F5F5F5F5F5F5F5F5F5F5F5F5F5F5F5F5F5F5F5F5F5F5F5F5F5F5F5F5F5F5F5F5F5F5F5F5F5F5F5F5F5F5F5F5F5F5F5F5F5F5F5F5F5F5F5F5F5F5F5F5F5F5F5F5F5F5F5F5F5F5F5F5F5
310
F5F5F5F5F5F5F5F5F5F5F5F5F5F5F5F5F5F5F5F5F5F5F5F5F5F5F5F5F5F5F5F5F5F5F5F5F5F5F5F5F50000000000000000000000000000000000000000000000000000000000000000000000000000000000000000000000000000000000000000000000000000000000000000000000000000000000000000000000000000
310
0000000000000000000000000000000000000000000000000000000000000000000000000000000000000000F5000000000000000000000000000000000000000000000000F5000000000000000000000000000000000000000000000000F50000000000000000000000000000000000000000000000F50000000000000000
310
00000000000000000000000000000000F5000000000000000000000000000000000000000000000000F5F5000000000000000000000000000000000000000000000000000000000000000000000000000000000000000000000000000000000000000000000000000000000000000000000000000000000000000000000000
310
00000000000000000000000000000000000000000000000000000000000000000000000000000000000000000000F5000000000000000000000000000000000000000000000000F5000000000000000000000000000000000000000000000000F50000000000000000000000000000000000000000000000F5000000000000
310
000000000000000000000000000000000000F5000000000000000000000000000000000000000000000000F5F500000000000000000000000000000000000000000000000000000000000000000000000000000000000000000000000000000000000000000000000000000000000000000000000000000000000000000000
310
000000000000000000000000000000000000000000000000000000000000000000000000000000000000000000000000F5000000000000000000000000000000000000000000000000F5000000000000000000000000000000000000000000000000F50000000000000000000000000000000000000000000000F500000000
310
0000000000000000000000000000000000000000F5000000000000000000000000000000000000000000000000F5F50000000000000000000000000000000000000000000000000000000000000000000000000000000000000000000000000000000000000000000000000000000000000000000000000000000000000000
310
0000000000000000000000000000000000000000000000000000000000000000000000000000000000000000000000000000F5000000000000000000000000000000000000000000000000F5000000000000000000000000000000000000000000000000F50000000000000000000000000000000000000000000000F50000
310
00000000000000000000000000000000000000000000F5000000000000000000000000000000000000000000000000F5F5000000000000000000000000000000000000000000000000000000000000000000000000000000000000000000000000000000000000000000000000000000000000000000000000000000000000
310
00000000000000000000000000000000000000000000000000000000000000000000000000000000000000000000000000000000F5000000000000000000000000000000000000000000000000F5000000000000000000000000000000000000000000000000F50000000000000000000000000000000000000000000000F5
310
000000000000000000000000000000000000000000000000F5000000000000000000000000000000000000000000000000F5F500000000000000000000000000000000000000000000000000000000000000000000000000000000000000000000000000000000000000000000000000000000000000000000000000000000
310
000000000000000000000000000000000000000000000000000000000000000000000000000000000000000000000000000000000000F5000000000000000000000000000000000000000000000000F5000000000000000000000000000000000000000000000000F500000000000000000000000000000000000000000000
310
00F5000000000000000000000000000000000000000000000000F5000000000000000000000000000000000000000000000000F5F50000000000000000000000000000000000000000000000000000000000000000000000000000000000000000000000000000000000000000000000000000000000000000000000000000
310
0000000000000000000000000000000000000000000000000000000000000000000000000000000000000000000000000000000000000000F5000000000000000000000000000000000000000000000000F5000000000000000000000000000000000000000000000000F50000000000000000000000000000000000000000
310
000000F5000000000000000000000000000000000000000000000000F5000000000000000000000000000000000000000000000000F5F5000000000000000000000000000000000000000000000000000000000000000000000000000000000000000000000000000000000000000000000000000000000000000000000000
310
00000000000000000000000000000000000000000000000000000000000000000000000000000000000000000000000000000000000000000000F5000000000000000000000000000000000000000000000000F5000000000000000000000000000000000000000000000000F5000000000000000000000000000000000000
310
0000000000F5000000000000000000000000000000000000000000000000F5000000000000000000000000000000000000000000000000F5F500000000000000000000000000000000000000000000000000000000000000000000000000000000000000000000000000000000000000000000000000000000000000000000
310
000000000000000000000000000000000000000000000000000000000000000000000000000000000000000000000000000000000000000000000000F5000000000000000000000000000000000000000000000000F5000000000000000000000000000000000000000000000000F500000000000000000000000000000000
310
00000000000000F5000000000000000000000000000000000000000000000000F5000000000000000000000000000000000000000000000000F5F50000000000000000000000000000000000000000000000000000000000000000000000000000000000000000000000000000000000000000000000000000000000000000
310
0000000000000000000000000000000000000000000000000000000000000000000000000000000000000000000000000000000000000000000000000000F5000000000000000000000000000000000000000000000000F5000000000000000000000000000000000000000000000000F50000000000000000000000000000
310
000000000000000000F5000000000000000000000000000000000000000000000000F5000000000000000000000000000000000000000000000000F5F5000000000000000000000000000000000000000000000000000000000000000000000000000000000000000000000000000000000000000000000000000000000000
310
00000000000000000000000000000000000000000000000000000000000000000000000000000000000000000000000000000000000000000000000000000000F5000000000000000000000000000000000000000000000000F5000000000000000000000000000000000000000000000000F5000000000000000000000000
310
0000000000000000000000F5000000000000000000000000000000000000000000000000F5000000000000000000000000000000000000000000000000F5F500000000000000000000000000000000000000000000000000000000000000000000000000000000000000000000000000000000000000000000000000000000
310
000000000000000000000000000000000000000000000000000000000000000000000000000000000000000000000000000000000000000000000000000000000000F5000000000000000000000000000000000000000000000000F5000000000000000000000000000000000000000000000000F500000000000000000000
310
00000000000000000000000000F5000000000000000000000000000000000000000000000000F5000000000000000000000000000000000000000000000000F5F50000000000000000000000000000000000000000000000000000000000000000000000000000000000000000000000000000000000000000000000000000
310
0000000000000000000000000000000000000000000000000000000000000000000000000000000000000000000000000000000000000000000000000000000000000000F5000000000000000000000000000000000000000000000000F5000000000000000000000000000000000000000000000000F50000000000000000
310
000000000000000000000000000000F5000000000000000000000000000000000000000000000000F5000000000000000000000000000000000000000000000000F5F5000000000000000000000000000000000000000000000000000000000000000000000000000000000000000000000000000000000000000000000000
310
00000000000000000000000000000000000000000000000000000000000000000000000000000000000000000000000000000000000000000000000000000000000000000000F5000000000000000000000000000000000000000000000000F5000000000000000000000000000000000000000000000000F5000000000000
310
0000000000000000000000000000000000F5000000000000000000000000000000000000000000000000F5000000000000000000000000000000000000000000000000F5F500000000000000000000000000000000000000000000000000000000000000000000000000000000000000000000000000000000000000000000
310
000000000000000000000000000000000000000000000000000000000000000000000000000000000000000000000000000000000000000000000000000000000000000000000000F5F5F5F5F5F5F5F5F5F5F5F5F5F5F5F5F5F5F5F5F5F5F5F5F5F5F5F5F5F5F5F5F5F5F5F5F5F5F5F5F5F5F5F5F5F5F5F5F5F5F5F5F5F5F5
310
F5F5F5F5F5F5F5F5F5F5F5F5F5F5F5F5F5F5F5F5F5F5F5F5F5F5F5F5F5F5F5F5F5F5F5F5F5F5F5F5F5F5F5F5F5F5F5F5F5F5F5F5F5F5F5F5F5F5F5F5F5F5F5F5F5F5F5F5F5F5F50000000000000000000000000000000000000000000000000000000000000000000000000000000000000000000000000000000000000000
310
0000000000000000000000000000000000000000000000000000000000000000000000000000000000000000000000000000000000000000000000000000000000000000000000000000F5000000000000000000000000000000000000000000000000F5000000000000000000000000000000000000000000000000F50000
310
000000000000000000000000000000000000000000F5000000000000000000000000000000000000000000000000F5000000000000000000000000000000000000000000000000F5F5000000000000000000000000000000000000000000000000000000000000000000000000000000000000000000000000000000000000
310
00000000000000000000000000000000000000000000000000000000000000000000000000000000000000000000000000000000000000000000000000000000000000000000000000000000F5F5F5F5F5F5F5F5F5F5F5F5F5F5F5F5F5F5F5F5F5F5F5F5F5F5F5F5F5F5F5F5F5F5F5F5F5F5F5F5F5F5F5F5F5F5F5F5F5F5F5
310
F5F5F5F5F5F5F5F5F5F5F5F5F5F5F5F5F5F5F5F5F5F5F5F5F5F5F5F5F5F5F5F5F5F5F5F5F5F5F5F5F5F5F5F5F5F5F5F5F5F5F5F5F5F5F5F5F5F5F5F5F5F5F5F5F5F5F5F5F5F5F5F5F5F5F500000000000000000000000000000000000000000000000000000000000000000000000000000000000000000000000000000000
310
000000000000000000000000000000000000000000000000000000000000000000000000000000000000000000000000000000000000000000000000000000000000000000000000000000000000F5000000000000000000000000000000000000000000000000F50000000000000000000000000000000000000000000000
310
00F50000000000000000000000000000000000000000000000F5000000000000000000000000000000000000000000000000F5000000000000000000000000000000000000000000000000F5F50000000000000000000000000000000000000000000000000000000000000000000000000000000000000000000000000000
310
0000000000000000000000000000000000000000000000000000000000000000000000000000000000000000000000000000000000000000000000000000000000000000000000000000000000000000F5F5F5F5F5F5F5F5F5F5F5F5F5F5F5F5F5F5F5F5F5F5F5F5F5F5F5F5F5F5F5F5F5F5F5F5F5F5F5F5F5F5F5F5F5F5F5
310
F5F5F5F5F5F5F5F5F5F5F5F5F5F5F5F5F5F5F5F5F5F5F5F5F5F5F5F5F5F5F5F5F5F5F5F5F5F5F5F5F5F5F5F5F5F5F5F5F5F5F5F5F5F5F5F5F5F5F5F5F5F5F5F5F5F5F5F5F5F5F5F5F5F5F5F5F5F5F5000000000000000000000000000000000000000000000000000000000000000000000000000000000000000000000000
310
00000000000000000000000000000000000000000000000000000000000000000000000000000000000000000000000000000000000000000000000000000000000000000000000000000000000000000000F5000000000000000000000000000000000000000000000000F500000000000000000000000000000000000000
310
0000000000F50000000000000000000000000000000000000000000000F5000000000000000000000000000000000000000000000000F5000000000000000000000000000000000000000000000000F5F500000000000000000000000000000000000000000000000000000000000000000000000000000000000000000000
310
000000000000000000000000000000000000000000000000000000000000000000000000000000000000000000000000000000000000000000000000000000000000000000000000000000000000000000000000F5000000000000000000000000000000000000000000000000F50000000000000000000000000000000000
310
00000000000000F50000000000000000000000000000000000000000000000F5000000000000000000000000000000000000000000000000F5000000000000000000000000000000000000000000000000F5F50000000000000000000000000000000000000000000000000000000000000000000000000000000000000000
310
0000000000000000000000000000000000000000000000000000000000000000000000000000000000000000000000000000000000000000000000000000000000000000000000000000000000000000000000000000F5000000000000000000000000000000000000000000000000F5000000000000000000000000000000
310
000000000000000000F50000000000000000000000000000000000000000000000F5000000000000000000000000000000000000000000000000F5000000000000000000000000000000000000000000000000F5F5000000000000000000000000000000000000000000000000000000000000000000000000000000000000
310
00000000000000000000000000000000000000000000000000000000000000000000000000000000000000000000000000000000000000000000000000000000000000000000000000000000000000000000000000000000F5000000000000000000000000000000000000000000000000F500000000000000000000000000
310
0000000000000000000000F50000000000000000000000000000000000000000000000F5000000000000000000000000000000000000000000000000F5000000000000000000000000000000000000000000000000F5F500000000000000000000000000000000000000000000000000000000000000000000000000000000
310
000000000000000000000000000000000000000000000000000000000000000000000000000000000000000000000000000000000000000000000000000000000000000000000000000000000000000000000000000000000000F5000000000000000000000000000000000000000000000000F50000000000000000000000
310
00000000000000000000000000F50000000000000000000000000000000000000000000000F5000000000000000000000000000000000000000000000000F5000000000000000000000000000000000000000000000000F5F50000000000000000000000000000000000000000000000000000000000000000000000000000
310
0000000000000000000000000000000000000000000000000000000000000000000000000000000000000000000000000000000000000000000000000000000000000000000000000000000000000000000000000000000000000000F5000000000000000000000000000000000000000000000000F5000000000000000000
310
000000000000000000000000000000F50000000000000000000000000000000000000000000000F5000000000000000000000000000000000000000000000000F5000000000000000000000000000000000000000000000000F5F5000000000000000000000000000000000000000000000000000000000000000000000000
310
00000000000000000000000000000000000000000000000000000000000000000000000000000000000000000000000000000000000000000000000000000000000000000000000000000000000000000000000000000000000000000000F5000000000000000000000000000000000000000000000000F500000000000000
310
0000000000000000000000000000000000F50000000000000000000000000000000000000000000000F5000000000000000000000000000000000000000000000000F5000000000000000000000000000000000000000000000000F5F500000000000000000000000000000000000000000000000000000000000000000000
310
000000000000000000000000000000000000000000000000000000000000000000000000000000000000000000000000000000000000000000000000000000000000000000000000000000000000000000000000000000000000000000000000F5000000000000000000000000000000000000000000000000F50000000000
310
00000000000000000000000000000000000000F50000000000000000000000000000000000000000000000F5000000000000000000000000000000000000000000000000F5000000000000000000000000000000000000000000000000F5F50000000000000000000000000000000000000000000000000000000000000000
310
0000000000000000000000000000000000000000000000000000000000000000000000000000000000000000000000000000000000000000000000000000000000000000000000000000000000000000000000000000000000000000000000000000F5000000000000000000000000000000000000000000000000F5000000
310
000000000000000000000000000000000000000000F50000000000000000000000000000000000000000000000F5000000000000000000000000000000000000000000000000F5000000000000000000000000000000000000000000000000F5F5000000000000000000000000000000000000000000000000000000000000
310
00000000000000000000000000000000000000000000000000000000000000000000000000000000000000000000000000000000000000000000000000000000000000000000000000000000000000000000000000000000000000000000000000000000F5000000000000000000000000000000000000000000000000F500
310
0000000000000000000000000000000000000000000000F50000000000000000000000000000000000000000000000F5000000000000000000000000000000000000000000000000F5000000000000000000000000000000000000000000000000F5F500000000000000000000000000000000000000000000000000000000
310
000000000000000000000000000000000000000000000000000000000000000000000000000000000000000000000000000000000000000000000000000000000000000000000000000000000000000000000000000000000000000000000000000000000000F5000000000000000000000000000000000000000000000000
310
F5000000000000000000000000000000000000000000000000F50000000000000000000000000000000000000000000000F5000000000000000000000000000000000000000000000000F5000000000000000000000000000000000000000000000000F5F50000000000000000000000000000000000000000000000000000
310
0000000000000000000000000000000000000000000000000000000000000000000000000000000000000000000000000000000000000000000000000000000000000000000000000000000000000000000000000000000000000000000000000000000000000000F500000000000000000000000000000000000000000000
310
0000F5000000000000000000000000000000000000000000000000F50000000000000000000000000000000000000000000000F5000000000000000000000000000000000000000000000000F5000000000000000000000000000000000000000000000000F5F5000000000000000000000000000000000000000000000000
310
00000000000000000000000000000000000000000000000000000000000000000000000000000000000000000000000000000000000000000000000000000000000000000000000000000000000000000000000000000000000000000000000000000000000000000000F50000000000000000000000000000000000000000
310
00000000F5000000000000000000000000000000000000000000000000F50000000000000000000000000000000000000000000000F5000000000000000000000000000000000000000000000000F5000000000000000000000000000000000000000000000000F5F500000000000000000000000000000000000000000000
310
000000000000000000000000000000000000000000000000000000000000000000000000000000000000000000000000000000000000000000000000000000000000000000000000000000000000000000000000000000000000000000000000000000000000000000000000F5F5F5F5F5F5F5F5F5F5F5F5F5F5F5F5F5F5F5
310
F5F5F5F5F5F5F5F5F5F5F5F5F5F5F5F5F5F5F5F5F5F5F5F5F5F5F5F5F5F5F5F5F5F5F5F5F5F5F5F5F5F5F5F5F5F5F5F5F5F5F5F5F5F5F5F5F5F5F5F5F5F5F5F5F5F5F5F5F5F5F5F5F5F5F5F5F5F5F5F5F5F5F5F5F5F5F5F5F5F5F5F5F5F5F5F5F5F5F5F5F5F5F5F5F5F5F50000000000000000000000000000000000000000
310
0000000000000000000000000000000000000000000000000000000000000000000000000000000000000000000000000000000000000000000000000000000000000000000000000000000000000000000000000000000000000000000000000000000000000000000000000000F500000000000000000000000000000000
310
0000000000000000F5000000000000000000000000000000000000000000000000F50000000000000000000000000000000000000000000000F5000000000000000000000000000000000000000000000000F5000000000000000000000000000000000000000000000000F5F5000000000000000000000000000000000000
310
00000000000000000000000000000000000000000000000000000000000000000000000000000000000000000000000000000000000000000000000000000000000000000000000000000000000000000000000000000000000000000000000000000000000000000000000000000000F5F5F5F5F5F5F5F5F5F5F5F5F5F5F5
310
F5F5F5F5F5F5F5F5F5F5F5F5F5F5F5F5F5F5F5F5F5F5F5F5F5F5F5F5F5F5F5F5F5F5F5F5F5F5F5F5F5F5F5F5F5F5F5F5F5F5F5F5F5F5F5F5F5F5F5F5F5F5F5F5F5F5F5F5F5F5F5F5F5F5F5F5F5F5F5F5F5F5F5F5F5F5F5F5F5F5F5F5F5F5F5F5F5F5F5F5F5F5F5F5F5F5F5F5F5F5F500000000000000000000000000000000
310
000000000000000000000000000000000000000000000000000000000000000000000000000000000000000000000000000000000000000000000000000000000000000000000000000000000000000000000000000000000000000000000000000000000000000000000000000000000000F5000000000000000000000000
310
000000000000000000000000F5000000000000000000000000000000000000000000000000F50000000000000000000000000000000000000000000000F5000000000000000000000000000000000000000000000000F5000000000000000000000000000000000000000000000000F5F50000000000000000000000000000
310
0000000000000000000000000000000000000000000000000000000000000000000000000000000000000000000000000000000000000000000000000000000000000000000000000000000000000000000000000000000000000000000000000000000000000000000000000000000000000000F5F5F5F5F5F5F5F5F5F5F5
310
F5F5F5F5F5F5F5F5F5F5F5F5F5F5F5F5F5F5F5F5F5F5F5F5F5F5F5F5F5F5F5F5F5F5F5F5F5F5F5F5F5F5F5F5F5F5F5F5F5F5F5F5F5F5F5F5F5F5F5F5F5F5F5F5F5F5F5F5F5F5F5F5F5F5F5F5F5F5F5F5F5F5F5F5F5F5F5F5F5F5F5F5F5F5F5F5F5F5F5F5F5F5F5F5F5F5F5F5F5F5F5F5F5F5F5000000000000000000000000
310
00000000000000000000000000000000000000000000000000000000000000000000000000000000000000000000000000000000000000000000000000000000000000000000000000000000000000000000000000000000000000000000000000000000000000000000000000000000000000000000F50000000000000000
310
00000000000000000000000000000000F5000000000000000000000000000000000000000000000000F50000000000000000000000000000000000000000000000F5000000000000000000000000000000000000000000000000F5000000000000000000000000000000000000000000000000F5F500000000000000000000
310
000000000000000000000000000000000000000000000000000000000000000000000000000000000000000000000000000000000000000000000000000000000000000000000000000000000000000000000000000000000000000000000000000000000000000000000000000000000000000000000000F50000000000DC
310
DCDCDCDCDCDCDCDCDCDCDCDCDCDC00000000F500000000DCDCDCDCDCDCDCDCDCDCDCDCDCDCDC0000000000F500000000DCDCDCDCDCDCDCDCDCDCDCDCDCDCDC00000000F50000000000DCDCDCDCDCDCDCDCDCDCDCDCDCDCDC00000000F5000000000000000000000000000000000000000000000000F5F50000000000000000
310
0000000000000000000000000000000000000000000000000000000000000000000000000000000000000000000000000000000000000000000000000000000000000000000000000000000000000000000000000000000000000000000000000000000000000000000000000000000000000000000000000000F500000000
310
2DDC2D2D2D2D2DDCDC2D2D2D2D2DDCDCDC000000F500000000DCDC2D2D2D2D2D2D2D2D2D2D2D2DDCDC00000000F50000002DDC2D2D2D2D2DDCDCDC2D2D2D2D2DDCDC000000F5000000002DDC2D2D2D2D2DDCDC2D2D2D2D2DDCDCDC000000F5000000000000000000000000000000000000000000000000F5F5000000000000
310
00000000000000000000000000000000000000000000000000000000000000000000000000000000000000000000000000000000000000000000000000000000000000000000000000000000000000000000000000000000000000000000000000000000000000000000000000000000000000000000000000000000F50000
310
0000000000002D0000002D00002D000000DCDC000000F500000000000000002D00002D2D00002D000000DC00000000F5000000000000002D002D2D2D2D2D2D00000000DC000000F500000000000000002D00002D2D00002D000000DCDC000000F5000000000000000000000000000000000000000000000000F5F500000000
310
000000000000000000000000000000000000000000000000000000000000000000000000000000000000000000000000000000000000000000000000000000000000000000000000000000000000000000000000000000000000000000000000000000000000000000000000000000000000000000000000000000000000F5
310
00000000000000002D0000002D00002D00000000DC000000F500000000000000002D00002D2D00002D000000DC00000000F5000000000000002D002D2D2D2D2D2D00000000DC000000F500000000000000002D00002D2D00002D00000000DC000000F5000000000000000000000000000000000000000000000000F5F50000
310
00000000000000000000000000000000000000000000000000000000000000000000000000000000000000000000000000000000000000000000000000000000000000000000000000000000000000000000000000000000000000000000000000000000000000000000000000000000000000000000000000000000000000
310
00F500000000000000002D0000002D00002D00000000DC000000F500000000000000002D00002D2D00002D000000DC00000000F5000000000000002D002D2D2D2D2D2D00000000DC000000F500000000000000002D00002D2D00002D00000000DC000000F5000000000000000000000000000000000000000000000000F5F5
310
00000000000000000000000000000000000000000000000000000000000000000000000000000000000000000000000000000000000000000000000000000000000000000000000000000000000000000000000000000000000000000000000000000000000000000000000000000000000000000000000000000000000000
310
000000F500000000000000002D00002D2D00002D000000DCDC000000F500000000000000002D00002D2D00002D000000DC00000000F5000000000000002D002D2D2D2D2D2D00000000DC000000F500000000000000002D00002D2D00002D000000DCDC000000F5000000000000000000000000000000000000000000000000
310
F5F50000000000000000000000000000000000000000000000000000000000000000000000000000000000000000000000000000000000000000000000000000000000000000000000000000000000000000000000000000000000000000000000000000000000000000000000000000000000000000000000000000000000
310
0000000000F500000000000000002D002D2D2D2D002D000000DCDC000000F500000000000000002D002D2D2D2D002D000000DC00000000F5000000000000002D002D2D2D2D2D2D00000000DC000000F500000000000000002D002D2D2D2D002D000000DCDC000000F500000000000000000000000000000000000000000000
310
0000F5F5000000000000000000000000000000000000000000000000000000000000000000000000000000000000000000000000000000000000000000000000000000000000000000000000000000000000000000000000000000000000000000000000000000000000000000000000000000000000000000000000000000
310
00000000000000F500000000000000002D2D2D002D2D2D2D00000000DC000000F500000000000000002D2D2D2D2D2D2D2D000000DC00000000F5000000000000002D002D2D2D2D2D2D00000000DC000000F500000000000000002D2D2D2D2D2D2D2D00000000DC000000F50000000000000000000000000000000000000000
310
00000000F5F500000000000000000000000000000000000000000000000000000000000000000000000000000000000000000000000000000000000000000000000000000000000000000000000000000000000000000000000000000000000000000000000000000000000000000000000000000000000000000000000000
310
000000000000000000F500000000000000002D0000002D00002D00000000DC000000F500000000000000002D00002D2D00002D000000DC00000000F5000000000000002D002D2D2D2D2D2D00000000DC000000F500000000000000002D00002D2D00002D00000000DC000000F5000000000000000000000000000000000000
310
000000000000F5F50000000000000000000000000000000000000000000000000000000000000000000000000000000000000000000000000000000000000000000000000000000000000000000000000000000000000000000000000000000000000000000000000000000000000000000000000000000000000000000000
310
0000000000000000000000F500000000000000002D0000002D00002D00000000DC000000F500000000000000002D00002D2D00002D000000DC00000000F5000000000000002D002D2D2D2D2D2D00000000DC000000F500000000000000002D00002D2D00002D00000000DC000000F500000000000000000000000000000000
310
0000000000000000F5F5000000000000000000000000000000000000000000000000000000000000000000000000000000000000000000000000000000000000000000000000000000000000000000000000000000000000000000000000000000000000000000000000000000000000000000000000000000000000000000
310
00000000000000000000000000F5000000002D2D2D2D2D2D2D2D2D2D2D2D2D2D2DDCDC000000F5000000002D2D2D2D2D2D2D2D2D2D2D2D2D2D2DDC00000000F50000002D2D2D2D2D2D2D2D2D2D2D2D2D2D2DDCDC000000F5000000002D2D2D2D2D2D2D2D2D2D2D2D2D2D2DDCDC000000F50000000000000000000000000000
310
00000000000000000000F5F500000000000000000000000000000000000000000000000000000000000000000000000000000000000000000000000000000000000000000000000000000000000000000000000000000000000000000000000000000000000000000000000000000000000000000000000000000000000000
310
000000000000000000000000000000F5000000000000000000000000000000000000000000000000F5000000000000000000000000000000000000000000000000F50000000000000000000000000000000000000000000000F5000000000000000000000000000000000000000000000000F5000000000000000000000000
310
000000000000000000000000F5F50000000000000000000000000000000000000000000000000000000000000000000000000000000000000000000000000000000000000000000000000000000000000000000000000000000000000000000000000000000000000000000000000000000000000000000000000000000000
310
0000000000000000000000000000000000F5000000000000000000000000000000000000000000000000F5000000000000000000000000000000000000000000000000F50000000000000000000000000000000000000000000000F5000000000000000000000000000000000000000000000000F500000000000000000000
310
0000000000000000000000000000F5F5000000000000000000000000000000000000000000000000000000000000000000000000000000000000000000000000000000000000000000000000000000000000000000000000000000000000000000000000000000000000000000000000000000000000000000000000000000
310
00000000000000000000000000000000000000F5F5F5F5F5F5F5F5F5F5F5F5F5F5F5F5F5F5F5F5F5F5F5F5F5F5F5F5F5F5F5F5F5F5F5F5F5F5F5F5F5F5F5F5F5F5F5F5F5F5F5F5F5F5F5F5F5F5F5F5F5F5F5F5F5F5F5F5F5F5F5F5F5F5F5F5F5F5F5F5F5F5F5F5F5F5F5F5F5F5F5F5F5F5F5F5F5F5F5F5F5F5F5F5F5F5F5F5
310
F5F5F5F5F5F5F5F5F5F5F5F5F5F5F5F5F5F500000000000000000000000000000000000000000000000000000000000000000000000000000000000000000000000000000000000000000000000000000000000000000000000000000000000000000000000000000000000000000000000000000000000000000000000000
310
000000000000000000000000000000000000000000F5F5F5F5F5F5F5F5F5F5F5F5F5F5F5F5F5F5F5F5F5F5F5F5F5F5F5F5F5F5F5F5F5F5F5F5F5F5F5F5F5F5F5F5F5F5F5F5F5F5F5F5F5F5F5F5F5F5F5F5F5F5F5F5F5F5F5F5F5F5F5F5F5F5F5F5F5F5F5F5F5F5F5F5F5F5F5F5F5F5F5F5F5F5F5F5F5F5F5F5F5F5F5F5F5F5
310
F5F5F5F5F5F5F5F5F5F5F5F5F5F5F5F5F5F5F5F50000000000000000000000000000000000000000000000000000000000000000000000000000000000000000000000000000000000000000000000000000000000000000000000000000000000000000000000000000000000000000000000000000000000000000000000
310
0000000000000000000000000000000000000000000000F5F5F5F5F5F5F5F5F5F5000000000000000000000000000000F5F5F5F5F5F5F5000000000000000000000000000000000000F5F5F5F5F5F5F5F5F5000000000000000000000000000000F5F5F5F5F5F5F5F5F5F5000000000000000000000000000000F500000000
310
0000000000000000000000000000000000000000F5F5000000000000000000000000000000000000000000000000000000000000000000000000000000000000000000000000000000000000000000000000000000000000000000000000000000000000000000000000000000000000000000000000000000000000000000
310
00000000000000000000000000000000000000000000000000F5F5F5F5F5F5F5F5F5F5F5F5F5F5F5F5F5F5F5F5F5F5F5F5F5F5F5F5F5F5F5F5F5F5F5F5F5F5F5F5F5F5F5F5F5F5F5F5F5F5F5F5F5F5F5F5F5F5F5F5F5F5F5F5F5F5F5F5F5F5F5F5F5F5F5F5F5F5F5F5F5F5F5F5F5F5F5F5F5F5F5F5F5F5F5F5F5F5F5F5F5F5
310
F5F5F5F5F5F5F5F5F5F5F5F5F5F5F5F5F5F5F5F5F5F5F5F500000000000000000000000000000000000000000000000000000000000000000000000000000000000000000000000000000000000000000000000000000000000000000000000000000000000000000000000000000000000000000000000000000000000000
310
000000000000000000000000000000000000000000000000000000F50000F5F5F5F5F5F5F5F5F5F5F5F500F5F5F5F5F5F5F5F5F5F5F5F500F5F5F5F5F5F5F5F500F5F5F5F5F500F5F5F5F5F5F5F5F5F5F5F500F5F5F5F5F5F5F5F5F5F5F5F5F5F5F5F5F5F50000000000000000000000000000000000000000000000000000
310
000000000000000000000000000000000000000000000000F5F50000000000000000000000000000000000000000000000000000000000000000000000000000000000000000000000000000000000000000000000000000000000000000000000000000000000000000000000000000000000000000000000000000000000
310
0000000000000000000000000000000000000000000000000000000000F50000F5F5F5F5F5F5F5F5F5F5F5F500F5F5F5F5F5F5F5F5F5F5F5F500F5F5F5F5F5F5F5F500F5F5F5F5F5F500F5F5F5F5F5F5F5F5F5F500F5F5F5F5F5F5F5F5F5F5F5F5F5F5F5F5F5F5000000000000000000000000000000000000000000000000
310
0000000000000000000000000000000000000000000000000000F5F5000000000000000000000000000000000000000000000000000000000000000000000000000000000000000000000000000000000000000000000000000000000000000000000000000000000000000000000000000000000000000000000000000000
310
00000000000000000000000000000000000000000000000000000000000000F5F5F5F5F5F5F5F5F5F5F5F5F5F5F5F5F5F5F5F5F5F5F5F5F5F5F5F5F5F5F5F5F5F5F5F5F5F5F5F5F5F5F5F5F5F5F5F5F5F5F5F5F5F5F5F5F5F5F5F5F5F5F5F5F5F5F5F5F5F5F5F5F5F5F5F5F5F5F5F5F5F5F5F5F5F5F5F5F5F5F5F5F5F5F5F5
310
F5F5F5F5F5F5F5F5F5F5F5F5F5F5F5F5F5F5F5F5F5F5F5F5F5F5F5F5F5F50000000000000000000000000000000000000000000000000000000000000000000000000000000000000000000000000000000000000000000000000000000000
  0
XRECORD
  5
19BED
102
{ACAD_REACTORS
330
13DBD
102
}
330
13DBD
100
AcDbXrecord
280
     1
102
MATERIAL
148
0.0
149
0.0
149
0.0
 93
        0
 94
      127
282
     0
 72
     0
 77
     0
171
     0
175
     0
179
     0
273
     0
  0
XRECORD
  5
13DBF
102
{ACAD_REACTORS
330
13DBD
102
}
330
13DBD
100
AcDbXrecord
280
     1
270
     1
271
     1
  0
XRECORD
  5
13DBE
102
{ACAD_REACTORS
330
13DBD
102
}
330
13DBD
100
AcDbXrecord
280
     1
270
     1
271
     1
  0
XRECORD
  5
13DC2
102
{ACAD_REACTORS
330
13DBD
102
}
330
13DBD
100
AcDbXrecord
280
     1
270
     1
271
     1
  0
XRECORD
  5
13DC1
102
{ACAD_REACTORS
330
13DBD
102
}
330
13DBD
100
AcDbXrecord
280
     1
270
     1
271
     1
  0
XRECORD
  5
13DC3
102
{ACAD_REACTORS
330
13DBD
102
}
330
13DBD
100
AcDbXrecord
280
     1
270
     1
271
     1
  0
XRECORD
  5
13DC0
102
{ACAD_REACTORS
330
13DBD
102
}
330
13DBD
100
AcDbXrecord
280
     1
270
     1
271
     1
  0
XRECORD
  5
19BEC
102
{ACAD_REACTORS
330
13DB5
102
}
330
13DB5
100
AcDbXrecord
280
     1
102
MATERIAL
148
0.0
149
0.0
149
0.0
 93
        0
 94
      127
282
     0
 72
     0
 77
     0
171
     0
175
     0
179
     0
273
     0
  0
XRECORD
  5
13DB7
102
{ACAD_REACTORS
330
13DB5
102
}
330
13DB5
100
AcDbXrecord
280
     1
270
     1
271
     1
  0
XRECORD
  5
13DB6
102
{ACAD_REACTORS
330
13DB5
102
}
330
13DB5
100
AcDbXrecord
280
     1
270
     1
271
     1
  0
XRECORD
  5
13DBA
102
{ACAD_REACTORS
330
13DB5
102
}
330
13DB5
100
AcDbXrecord
280
     1
270
     1
271
     1
  0
XRECORD
  5
13DB9
102
{ACAD_REACTORS
330
13DB5
102
}
330
13DB5
100
AcDbXrecord
280
     1
270
     1
271
     1
  0
XRECORD
  5
13DBB
102
{ACAD_REACTORS
330
13DB5
102
}
330
13DB5
100
AcDbXrecord
280
     1
270
     1
271
     1
  0
XRECORD
  5
13DB8
102
{ACAD_REACTORS
330
13DB5
102
}
330
13DB5
100
AcDbXrecord
280
     1
270
     1
271
     1
  0
XRECORD
  5
19BEE
102
{ACAD_REACTORS
330
13DC5
102
}
330
13DC5
100
AcDbXrecord
280
     1
102
MATERIAL
148
0.0
149
0.0
149
0.0
 93
        0
 94
      127
282
     0
 72
     0
 77
     0
171
     0
175
     0
179
     0
273
     0
  0
XRECORD
  5
13DC7
102
{ACAD_REACTORS
330
13DC5
102
}
330
13DC5
100
AcDbXrecord
280
     1
270
     1
271
     1
  0
XRECORD
  5
13DC6
102
{ACAD_REACTORS
330
13DC5
102
}
330
13DC5
100
AcDbXrecord
280
     1
270
     1
271
     1
  0
XRECORD
  5
13DCA
102
{ACAD_REACTORS
330
13DC5
102
}
330
13DC5
100
AcDbXrecord
280
     1
270
     1
271
     1
  0
XRECORD
  5
13DC9
102
{ACAD_REACTORS
330
13DC5
102
}
330
13DC5
100
AcDbXrecord
280
     1
270
     1
271
     1
  0
XRECORD
  5
13DCB
102
{ACAD_REACTORS
330
13DC5
102
}
330
13DC5
100
AcDbXrecord
280
     1
270
     1
271
     1
  0
XRECORD
  5
13DC8
102
{ACAD_REACTORS
330
13DC5
102
}
330
13DC5
100
AcDbXrecord
280
     1
270
     1
271
     1
  0
XRECORD
  5
19C21
102
{ACAD_REACTORS
330
19C20
102
}
330
19C20
100
AcDbXrecord
280
     1
102
ACAD_ROUNDTRIP_2012_MLEADER_STYLE
298
     1
  0
XRECORD
  5
19C23
102
{ACAD_REACTORS
330
19C22
102
}
330
19C22
100
AcDbXrecord
280
     1
102
DISPLAYNAME
  1
Imperial24
102
FLAGS
 90
        0
  0
XRECORD
  5
19C27
102
{ACAD_REACTORS
330
19C26
102
}
330
19C26
100
AcDbXrecord
280
     1
102
DISPLAYNAME
  1
Metric50
102
FLAGS
 90
        0
  0
CELLSTYLEMAP
  5
19BE2
102
{ACAD_REACTORS
330
13E3E
102
}
330
13E3E
100
AcDbCellStyleMap
 90
        3
300
CELLSTYLE
  1
TABLEFORMAT_BEGIN
 90
        5
170
     1
 91
        0
 92
    32768
 62
   257
 93
        1
300
CONTENTFORMAT
  1
CONTENTFORMAT_BEGIN
 90
        0
 91
        0
 92
      512
 93
        0
300

 40
0.0
140
1.0
 94
        5
 62
     0
340
13DF8
144
0.25
309
CONTENTFORMAT_END
171
     0
 94
        0
309
TABLEFORMAT_END
  1
CELLSTYLE_BEGIN
 90
        1
 91
        1
300
_TITLE
309
CELLSTYLE_END
300
CELLSTYLE
  1
TABLEFORMAT_BEGIN
 90
        5
170
     1
 91
        0
 92
        0
 62
   257
 93
        1
300
CONTENTFORMAT
  1
CONTENTFORMAT_BEGIN
 90
        0
 91
        0
 92
      512
 93
        0
300

 40
0.0
140
1.0
 94
        5
 62
     0
340
13DF8
144
0.18
309
CONTENTFORMAT_END
171
     0
 94
        0
309
TABLEFORMAT_END
  1
CELLSTYLE_BEGIN
 90
        2
 91
        1
300
_HEADER
309
CELLSTYLE_END
300
CELLSTYLE
  1
TABLEFORMAT_BEGIN
 90
        5
170
     1
 91
        0
 92
        0
 62
   257
 93
        1
300
CONTENTFORMAT
  1
CONTENTFORMAT_BEGIN
 90
        0
 91
        0
 92
      512
 93
        0
300

 40
0.0
140
1.0
 94
        2
 62
     0
340
13DF8
144
0.18
309
CONTENTFORMAT_END
171
     0
 94
        0
309
TABLEFORMAT_END
  1
CELLSTYLE_BEGIN
 90
        3
 91
        2
300
_DATA
309
CELLSTYLE_END
  0
XRECORD
  5
19C1F
102
{ACAD_REACTORS
330
13E3E
102
}
330
13E3E
100
AcDbXrecord
280
     1
102
ACAD_ROUNDTRIP_PRE2007_TABLESTYLE
 90
      512
 91
        0
  1

 92
      512
 93
        0
  2

 94
      512
 95
        0
  3

  0
XRECORD
  5
19BFA
102
{ACAD_REACTORS
330
19BF9
102
}
330
19BF9
100
AcDbXrecord
280
     1
102
RTVSPost2010Prop28
280
     1
102
RTVSPost2010PropOp28
 70
     1
102
RTVSPost2010Prop29
280
     1
102
RTVSPost2010PropOp29
 70
     1
102
RTVSPost2010Prop30
280
     0
102
RTVSPost2010PropOp30
 70
     1
102
RTVSPost2010Prop31
280
     0
102
RTVSPost2010PropOp31
 70
     1
102
RTVSPost2010Prop32
280
     0
102
RTVSPost2010PropOp32
 70
     1
102
RTVSPost2010Prop33
280
     0
102
RTVSPost2010PropOp33
 70
     1
102
RTVSPost2010Prop34
280
     0
102
RTVSPost2010PropOp34
 70
     1
102
RTVSPost2010Prop35
280
     0
102
RTVSPost2010PropOp35
 70
     1
102
RTVSPost2010Prop36
280
     0
102
RTVSPost2010PropOp36
 70
     1
102
RTVSPost2010Prop37
 90
       50
102
RTVSPost2010PropOp37
 70
     1
102
RTVSPost2010Prop38
140
0.0
102
RTVSPost2010PropOp38
 70
     1
102
RTVSPost2010Prop39
140
1.0
102
RTVSPost2010PropOp39
 70
     1
102
RTVSPost2010Prop40
 90
        0
102
RTVSPost2010PropOp40
 70
     1
102
RTVSPost2010Prop41ColorIndex
 90
       18
102
RTVSPost2010Prop41ColorRGB
 90
        0
102
RTVSPost2010PropOp41
 70
     1
102
RTVSPost2010Prop42
 90
       50
102
RTVSPost2010PropOp42
 70
     1
102
RTVSPost2010Prop43
 90
        3
102
RTVSPost2010PropOp43
 70
     1
102
RTVSPost2010Prop44ColorIndex
 90
        5
102
RTVSPost2010Prop44ColorRGB
 90
      255
102
RTVSPost2010PropOp44
 70
     1
102
RTVSPost2010Prop45
280
     0
102
RTVSPost2010PropOp45
 70
     1
102
RTVSPost2010Prop46
 90
       50
102
RTVSPost2010PropOp46
 70
     1
102
RTVSPost2010Prop47
 90
       50
102
RTVSPost2010PropOp47
 70
     1
102
RTVSPost2010Prop48
 90
       50
102
RTVSPost2010PropOp48
 70
     1
102
RTVSPost2010Prop49
280
     0
102
RTVSPost2010PropOp49
 70
     1
102
RTVSPost2010Prop50
 90
       50
102
RTVSPost2010PropOp50
 70
     1
102
RTVSPost2010Prop51ColorIndex
 90
      256
102
RTVSPost2010Prop51ColorRGB
 90
-16777216
102
RTVSPost2010PropOp51
 70
     0
102
RTVSPost2010Prop52
140
1.0
102
RTVSPost2010PropOp52
 70
     0
102
RTVSPost2010Prop53
 90
        2
102
RTVSPost2010PropOp53
 70
     1
102
RTVSPost2010Prop54
  1
strokes_ogs.tif
102
RTVSPost2010PropOp54
 70
     1
102
RTVSPost2010Prop55
280
     0
102
RTVSPost2010PropOp55
 70
     1
102
RTVSPost2010Prop56
140
1.0
102
RTVSPost2010PropOp56
 70
     1
102
RTVSPost2010Prop57
140
1.0
102
RTVSPost2010PropOp57
 70
     1
102
RTVSPropertyOp0
 70
     1
102
RTVSPropertyOp1
 70
     1
102
RTVSPropertyOp2
 70
     1
102
RTVSPropertyOp3
 70
     1
102
RTVSPropertyOp4
 70
     1
102
RTVSPropertyOp5
 70
     1
102
RTVSPropertyOp6
 70
     1
102
RTVSPropertyOp7
 70
     1
102
RTVSPropertyOp8
 70
     1
102
RTVSPropertyOp9
 70
     1
102
RTVSPropertyOp10
 70
     1
102
RTVSPropertyOp11
 70
     1
102
RTVSPropertyOp12
 70
     1
102
RTVSPropertyOp13
 70
     1
102
RTVSPropertyOp14
 70
     1
102
RTVSPropertyOp15
 70
     1
102
RTVSPropertyOp16
 70
     1
102
RTVSPropertyOp17
 70
     1
102
RTVSPropertyOp18
 70
     1
102
RTVSPropertyOp19
 70
     1
102
RTVSPropertyOp20
 70
     1
102
RTVSPropertyOp21
 70
     1
102
RTVSPropertyOp22
 70
     1
102
RTVSPropertyOp23
 70
     1
102
RTVSPropertyOp24
 70
     1
102
RTVSPropertyOp25
 70
     1
102
RTVSPropertyOp26
 70
     1
102
RTVSPropertyOp27
 70
     1
102
RTVSPropertyOp28
 70
     1
102
RTVSPropertyOp29
 70
     1
102
RTVSPropertyOp30
 70
     1
102
RTVSPropertyOp31
 70
     1
102
RTVSPropertyOp32
 70
     1
102
RTVSPropertyOp33
 70
     1
102
RTVSPropertyOp34
 70
     1
102
RTVSPropertyOp35
 70
     1
102
RTVSPropertyOp36
 70
     1
102
RTVSPropertyOp37
 70
     1
102
RTVSPropertyOp38
 70
     1
102
RTVSPropertyOp39
 70
     1
102
RTVSPropertyOp40
 70
     1
102
RTVSPropertyOp41
 70
     1
102
RTVSPropertyOp42
 70
     1
102
RTVSPropertyOp43
 70
     1
102
RTVSPropertyOp44
 70
     1
102
RTVSPropertyOp45
 70
     1
102
RTVSPropertyOp46
 70
     1
102
RTVSPropertyOp47
 70
     1
102
RTVSPropertyOp48
 70
     1
102
RTVSPropertyOp49
 70
     1
102
RTVSPropertyOp50
 70
     1
102
RTVSPropertyOp51
 70
     0
102
RTVSPropertyOp52
 70
     0
102
RTVSPropertyOp53
 70
     1
102
RTVSPropertyOp54
 70
     1
102
RTVSPropertyOp55
 70
     1
102
RTVSPropertyOp56
 70
     1
102
RTVSPropertyOp57
 70
     1
102
RTVSPropertyOp58
 70
     1
102
RTVSPropertyOp59
 70
     1
102
RTVSPropertyOp60
 70
     1
102
RTVSPropertyOp61
 70
     1
102
RTVSPropertyOp62
 70
     1
  0
XRECORD
  5
19BF8
102
{ACAD_REACTORS
330
19BF7
102
}
330
19BF7
100
AcDbXrecord
280
     1
102
RTVSPost2010Prop28
280
     0
102
RTVSPost2010PropOp28
 70
     1
102
RTVSPost2010Prop29
280
     1
102
RTVSPost2010PropOp29
 70
     1
102
RTVSPost2010Prop30
280
     1
102
RTVSPost2010PropOp30
 70
     1
102
RTVSPost2010Prop31
280
     0
102
RTVSPost2010PropOp31
 70
     1
102
RTVSPost2010Prop32
280
     0
102
RTVSPost2010PropOp32
 70
     1
102
RTVSPost2010Prop33
280
     0
102
RTVSPost2010PropOp33
 70
     1
102
RTVSPost2010Prop34
280
     0
102
RTVSPost2010PropOp34
 70
     1
102
RTVSPost2010Prop35
280
     0
102
RTVSPost2010PropOp35
 70
     1
102
RTVSPost2010Prop36
280
     0
102
RTVSPost2010PropOp36
 70
     1
102
RTVSPost2010Prop37
 90
       50
102
RTVSPost2010PropOp37
 70
     1
102
RTVSPost2010Prop38
140
0.0
102
RTVSPost2010PropOp38
 70
     1
102
RTVSPost2010Prop39
140
1.0
102
RTVSPost2010PropOp39
 70
     1
102
RTVSPost2010Prop40
 90
        0
102
RTVSPost2010PropOp40
 70
     1
102
RTVSPost2010Prop41ColorIndex
 90
       18
102
RTVSPost2010Prop41ColorRGB
 90
        0
102
RTVSPost2010PropOp41
 70
     1
102
RTVSPost2010Prop42
 90
       50
102
RTVSPost2010PropOp42
 70
     1
102
RTVSPost2010Prop43
 90
        3
102
RTVSPost2010PropOp43
 70
     1
102
RTVSPost2010Prop44ColorIndex
 90
        5
102
RTVSPost2010Prop44ColorRGB
 90
      255
102
RTVSPost2010PropOp44
 70
     1
102
RTVSPost2010Prop45
280
     0
102
RTVSPost2010PropOp45
 70
     1
102
RTVSPost2010Prop46
 90
       50
102
RTVSPost2010PropOp46
 70
     1
102
RTVSPost2010Prop47
 90
       50
102
RTVSPost2010PropOp47
 70
     1
102
RTVSPost2010Prop48
 90
       50
102
RTVSPost2010PropOp48
 70
     1
102
RTVSPost2010Prop49
280
     0
102
RTVSPost2010PropOp49
 70
     1
102
RTVSPost2010Prop50
 90
       50
102
RTVSPost2010PropOp50
 70
     1
102
RTVSPost2010Prop51ColorIndex
 90
      256
102
RTVSPost2010Prop51ColorRGB
 90
-16777216
102
RTVSPost2010PropOp51
 70
     0
102
RTVSPost2010Prop52
140
1.0
102
RTVSPost2010PropOp52
 70
     0
102
RTVSPost2010Prop53
 90
        2
102
RTVSPost2010PropOp53
 70
     1
102
RTVSPost2010Prop54
  1
strokes_ogs.tif
102
RTVSPost2010PropOp54
 70
     1
102
RTVSPost2010Prop55
280
     0
102
RTVSPost2010PropOp55
 70
     1
102
RTVSPost2010Prop56
140
1.0
102
RTVSPost2010PropOp56
 70
     1
102
RTVSPost2010Prop57
140
1.0
102
RTVSPost2010PropOp57
 70
     1
102
RTVSPropertyOp0
 70
     1
102
RTVSPropertyOp1
 70
     1
102
RTVSPropertyOp2
 70
     1
102
RTVSPropertyOp3
 70
     1
102
RTVSPropertyOp4
 70
     1
102
RTVSPropertyOp5
 70
     1
102
RTVSPropertyOp6
 70
     1
102
RTVSPropertyOp7
 70
     1
102
RTVSPropertyOp8
 70
     1
102
RTVSPropertyOp9
 70
     1
102
RTVSPropertyOp10
 70
     1
102
RTVSPropertyOp11
 70
     1
102
RTVSPropertyOp12
 70
     1
102
RTVSPropertyOp13
 70
     1
102
RTVSPropertyOp14
 70
     1
102
RTVSPropertyOp15
 70
     1
102
RTVSPropertyOp16
 70
     1
102
RTVSPropertyOp17
 70
     1
102
RTVSPropertyOp18
 70
     1
102
RTVSPropertyOp19
 70
     1
102
RTVSPropertyOp20
 70
     1
102
RTVSPropertyOp21
 70
     1
102
RTVSPropertyOp22
 70
     1
102
RTVSPropertyOp23
 70
     1
102
RTVSPropertyOp24
 70
     1
102
RTVSPropertyOp25
 70
     1
102
RTVSPropertyOp26
 70
     1
102
RTVSPropertyOp27
 70
     1
102
RTVSPropertyOp28
 70
     1
102
RTVSPropertyOp29
 70
     1
102
RTVSPropertyOp30
 70
     1
102
RTVSPropertyOp31
 70
     1
102
RTVSPropertyOp32
 70
     1
102
RTVSPropertyOp33
 70
     1
102
RTVSPropertyOp34
 70
     1
102
RTVSPropertyOp35
 70
     1
102
RTVSPropertyOp36
 70
     1
102
RTVSPropertyOp37
 70
     1
102
RTVSPropertyOp38
 70
     1
102
RTVSPropertyOp39
 70
     1
102
RTVSPropertyOp40
 70
     1
102
RTVSPropertyOp41
 70
     1
102
RTVSPropertyOp42
 70
     1
102
RTVSPropertyOp43
 70
     1
102
RTVSPropertyOp44
 70
     1
102
RTVSPropertyOp45
 70
     1
102
RTVSPropertyOp46
 70
     1
102
RTVSPropertyOp47
 70
     1
102
RTVSPropertyOp48
 70
     1
102
RTVSPropertyOp49
 70
     1
102
RTVSPropertyOp50
 70
     1
102
RTVSPropertyOp51
 70
     0
102
RTVSPropertyOp52
 70
     0
102
RTVSPropertyOp53
 70
     1
102
RTVSPropertyOp54
 70
     1
102
RTVSPropertyOp55
 70
     1
102
RTVSPropertyOp56
 70
     1
102
RTVSPropertyOp57
 70
     1
102
RTVSPropertyOp58
 70
     1
102
RTVSPropertyOp59
 70
     1
102
RTVSPropertyOp60
 70
     1
102
RTVSPropertyOp61
 70
     1
102
RTVSPropertyOp62
 70
     1
  0
XRECORD
  5
19C06
102
{ACAD_REACTORS
330
19C05
102
}
330
19C05
100
AcDbXrecord
280
     1
102
RTVSPost2010Prop28
280
     0
102
RTVSPost2010PropOp28
 70
     1
102
RTVSPost2010Prop29
280
     1
102
RTVSPost2010PropOp29
 70
     1
102
RTVSPost2010Prop30
280
     1
102
RTVSPost2010PropOp30
 70
     1
102
RTVSPost2010Prop31
280
     0
102
RTVSPost2010PropOp31
 70
     1
102
RTVSPost2010Prop32
280
     0
102
RTVSPost2010PropOp32
 70
     1
102
RTVSPost2010Prop33
280
     0
102
RTVSPost2010PropOp33
 70
     1
102
RTVSPost2010Prop34
280
     0
102
RTVSPost2010PropOp34
 70
     1
102
RTVSPost2010Prop35
280
     0
102
RTVSPost2010PropOp35
 70
     1
102
RTVSPost2010Prop36
280
     0
102
RTVSPost2010PropOp36
 70
     1
102
RTVSPost2010Prop37
 90
       50
102
RTVSPost2010PropOp37
 70
     1
102
RTVSPost2010Prop38
140
0.0
102
RTVSPost2010PropOp38
 70
     1
102
RTVSPost2010Prop39
140
1.0
102
RTVSPost2010PropOp39
 70
     1
102
RTVSPost2010Prop40
 90
        0
102
RTVSPost2010PropOp40
 70
     1
102
RTVSPost2010Prop41ColorIndex
 90
       18
102
RTVSPost2010Prop41ColorRGB
 90
        0
102
RTVSPost2010PropOp41
 70
     1
102
RTVSPost2010Prop42
 90
       50
102
RTVSPost2010PropOp42
 70
     1
102
RTVSPost2010Prop43
 90
        3
102
RTVSPost2010PropOp43
 70
     1
102
RTVSPost2010Prop44ColorIndex
 90
        5
102
RTVSPost2010Prop44ColorRGB
 90
      255
102
RTVSPost2010PropOp44
 70
     1
102
RTVSPost2010Prop45
280
     0
102
RTVSPost2010PropOp45
 70
     1
102
RTVSPost2010Prop46
 90
       50
102
RTVSPost2010PropOp46
 70
     1
102
RTVSPost2010Prop47
 90
       50
102
RTVSPost2010PropOp47
 70
     1
102
RTVSPost2010Prop48
 90
       50
102
RTVSPost2010PropOp48
 70
     1
102
RTVSPost2010Prop49
280
     0
102
RTVSPost2010PropOp49
 70
     1
102
RTVSPost2010Prop50
 90
       50
102
RTVSPost2010PropOp50
 70
     1
102
RTVSPost2010Prop51ColorIndex
 90
      256
102
RTVSPost2010Prop51ColorRGB
 90
-16777216
102
RTVSPost2010PropOp51
 70
     0
102
RTVSPost2010Prop52
140
1.0
102
RTVSPost2010PropOp52
 70
     0
102
RTVSPost2010Prop53
 90
        2
102
RTVSPost2010PropOp53
 70
     1
102
RTVSPost2010Prop54
  1
strokes_ogs.tif
102
RTVSPost2010PropOp54
 70
     1
102
RTVSPost2010Prop55
280
     0
102
RTVSPost2010PropOp55
 70
     1
102
RTVSPost2010Prop56
140
1.0
102
RTVSPost2010PropOp56
 70
     1
102
RTVSPost2010Prop57
140
1.0
102
RTVSPost2010PropOp57
 70
     1
102
RTVSPropertyOp0
 70
     1
102
RTVSPropertyOp1
 70
     1
102
RTVSPropertyOp2
 70
     1
102
RTVSPropertyOp3
 70
     1
102
RTVSPropertyOp4
 70
     1
102
RTVSPropertyOp5
 70
     1
102
RTVSPropertyOp6
 70
     1
102
RTVSPropertyOp7
 70
     1
102
RTVSPropertyOp8
 70
     1
102
RTVSPropertyOp9
 70
     1
102
RTVSPropertyOp10
 70
     1
102
RTVSPropertyOp11
 70
     1
102
RTVSPropertyOp12
 70
     1
102
RTVSPropertyOp13
 70
     1
102
RTVSPropertyOp14
 70
     1
102
RTVSPropertyOp15
 70
     1
102
RTVSPropertyOp16
 70
     1
102
RTVSPropertyOp17
 70
     1
102
RTVSPropertyOp18
 70
     1
102
RTVSPropertyOp19
 70
     1
102
RTVSPropertyOp20
 70
     1
102
RTVSPropertyOp21
 70
     1
102
RTVSPropertyOp22
 70
     1
102
RTVSPropertyOp23
 70
     1
102
RTVSPropertyOp24
 70
     1
102
RTVSPropertyOp25
 70
     1
102
RTVSPropertyOp26
 70
     1
102
RTVSPropertyOp27
 70
     1
102
RTVSPropertyOp28
 70
     1
102
RTVSPropertyOp29
 70
     1
102
RTVSPropertyOp30
 70
     1
102
RTVSPropertyOp31
 70
     1
102
RTVSPropertyOp32
 70
     1
102
RTVSPropertyOp33
 70
     1
102
RTVSPropertyOp34
 70
     1
102
RTVSPropertyOp35
 70
     1
102
RTVSPropertyOp36
 70
     1
102
RTVSPropertyOp37
 70
     1
102
RTVSPropertyOp38
 70
     1
102
RTVSPropertyOp39
 70
     1
102
RTVSPropertyOp40
 70
     1
102
RTVSPropertyOp41
 70
     1
102
RTVSPropertyOp42
 70
     1
102
RTVSPropertyOp43
 70
     1
102
RTVSPropertyOp44
 70
     1
102
RTVSPropertyOp45
 70
     1
102
RTVSPropertyOp46
 70
     1
102
RTVSPropertyOp47
 70
     1
102
RTVSPropertyOp48
 70
     1
102
RTVSPropertyOp49
 70
     1
102
RTVSPropertyOp50
 70
     1
102
RTVSPropertyOp51
 70
     0
102
RTVSPropertyOp52
 70
     0
102
RTVSPropertyOp53
 70
     1
102
RTVSPropertyOp54
 70
     1
102
RTVSPropertyOp55
 70
     1
102
RTVSPropertyOp56
 70
     1
102
RTVSPropertyOp57
 70
     1
102
RTVSPropertyOp58
 70
     1
102
RTVSPropertyOp59
 70
     1
102
RTVSPropertyOp60
 70
     1
102
RTVSPropertyOp61
 70
     1
102
RTVSPropertyOp62
 70
     1
  0
XRECORD
  5
19C0E
102
{ACAD_REACTORS
330
19C0D
102
}
330
19C0D
100
AcDbXrecord
280
     1
102
RTVSPost2010Prop28
280
     0
102
RTVSPost2010PropOp28
 70
     1
102
RTVSPost2010Prop29
280
     1
102
RTVSPost2010PropOp29
 70
     1
102
RTVSPost2010Prop30
280
     1
102
RTVSPost2010PropOp30
 70
     1
102
RTVSPost2010Prop31
280
     0
102
RTVSPost2010PropOp31
 70
     1
102
RTVSPost2010Prop32
280
     0
102
RTVSPost2010PropOp32
 70
     1
102
RTVSPost2010Prop33
280
     0
102
RTVSPost2010PropOp33
 70
     1
102
RTVSPost2010Prop34
280
     0
102
RTVSPost2010PropOp34
 70
     1
102
RTVSPost2010Prop35
280
     0
102
RTVSPost2010PropOp35
 70
     1
102
RTVSPost2010Prop36
280
     0
102
RTVSPost2010PropOp36
 70
     1
102
RTVSPost2010Prop37
 90
       50
102
RTVSPost2010PropOp37
 70
     1
102
RTVSPost2010Prop38
140
0.0
102
RTVSPost2010PropOp38
 70
     1
102
RTVSPost2010Prop39
140
1.0
102
RTVSPost2010PropOp39
 70
     1
102
RTVSPost2010Prop40
 90
        0
102
RTVSPost2010PropOp40
 70
     1
102
RTVSPost2010Prop41ColorIndex
 90
       18
102
RTVSPost2010Prop41ColorRGB
 90
        0
102
RTVSPost2010PropOp41
 70
     1
102
RTVSPost2010Prop42
 90
       50
102
RTVSPost2010PropOp42
 70
     1
102
RTVSPost2010Prop43
 90
        3
102
RTVSPost2010PropOp43
 70
     1
102
RTVSPost2010Prop44ColorIndex
 90
        5
102
RTVSPost2010Prop44ColorRGB
 90
      255
102
RTVSPost2010PropOp44
 70
     1
102
RTVSPost2010Prop45
280
     0
102
RTVSPost2010PropOp45
 70
     1
102
RTVSPost2010Prop46
 90
       50
102
RTVSPost2010PropOp46
 70
     1
102
RTVSPost2010Prop47
 90
       50
102
RTVSPost2010PropOp47
 70
     1
102
RTVSPost2010Prop48
 90
       50
102
RTVSPost2010PropOp48
 70
     1
102
RTVSPost2010Prop49
280
     0
102
RTVSPost2010PropOp49
 70
     1
102
RTVSPost2010Prop50
 90
       50
102
RTVSPost2010PropOp50
 70
     1
102
RTVSPost2010Prop51ColorIndex
 90
      256
102
RTVSPost2010Prop51ColorRGB
 90
-16777216
102
RTVSPost2010PropOp51
 70
     0
102
RTVSPost2010Prop52
140
1.0
102
RTVSPost2010PropOp52
 70
     0
102
RTVSPost2010Prop53
 90
        2
102
RTVSPost2010PropOp53
 70
     1
102
RTVSPost2010Prop54
  1
strokes_ogs.tif
102
RTVSPost2010PropOp54
 70
     1
102
RTVSPost2010Prop55
280
     0
102
RTVSPost2010PropOp55
 70
     1
102
RTVSPost2010Prop56
140
1.0
102
RTVSPost2010PropOp56
 70
     1
102
RTVSPost2010Prop57
140
1.0
102
RTVSPost2010PropOp57
 70
     1
102
RTVSPropertyOp0
 70
     1
102
RTVSPropertyOp1
 70
     1
102
RTVSPropertyOp2
 70
     1
102
RTVSPropertyOp3
 70
     1
102
RTVSPropertyOp4
 70
     1
102
RTVSPropertyOp5
 70
     1
102
RTVSPropertyOp6
 70
     1
102
RTVSPropertyOp7
 70
     1
102
RTVSPropertyOp8
 70
     1
102
RTVSPropertyOp9
 70
     1
102
RTVSPropertyOp10
 70
     1
102
RTVSPropertyOp11
 70
     1
102
RTVSPropertyOp12
 70
     1
102
RTVSPropertyOp13
 70
     1
102
RTVSPropertyOp14
 70
     1
102
RTVSPropertyOp15
 70
     1
102
RTVSPropertyOp16
 70
     1
102
RTVSPropertyOp17
 70
     1
102
RTVSPropertyOp18
 70
     1
102
RTVSPropertyOp19
 70
     1
102
RTVSPropertyOp20
 70
     1
102
RTVSPropertyOp21
 70
     1
102
RTVSPropertyOp22
 70
     1
102
RTVSPropertyOp23
 70
     1
102
RTVSPropertyOp24
 70
     1
102
RTVSPropertyOp25
 70
     1
102
RTVSPropertyOp26
 70
     1
102
RTVSPropertyOp27
 70
     1
102
RTVSPropertyOp28
 70
     1
102
RTVSPropertyOp29
 70
     1
102
RTVSPropertyOp30
 70
     1
102
RTVSPropertyOp31
 70
     1
102
RTVSPropertyOp32
 70
     1
102
RTVSPropertyOp33
 70
     1
102
RTVSPropertyOp34
 70
     1
102
RTVSPropertyOp35
 70
     1
102
RTVSPropertyOp36
 70
     1
102
RTVSPropertyOp37
 70
     1
102
RTVSPropertyOp38
 70
     1
102
RTVSPropertyOp39
 70
     1
102
RTVSPropertyOp40
 70
     1
102
RTVSPropertyOp41
 70
     1
102
RTVSPropertyOp42
 70
     1
102
RTVSPropertyOp43
 70
     1
102
RTVSPropertyOp44
 70
     1
102
RTVSPropertyOp45
 70
     1
102
RTVSPropertyOp46
 70
     1
102
RTVSPropertyOp47
 70
     1
102
RTVSPropertyOp48
 70
     1
102
RTVSPropertyOp49
 70
     1
102
RTVSPropertyOp50
 70
     1
102
RTVSPropertyOp51
 70
     0
102
RTVSPropertyOp52
 70
     0
102
RTVSPropertyOp53
 70
     1
102
RTVSPropertyOp54
 70
     1
102
RTVSPropertyOp55
 70
     1
102
RTVSPropertyOp56
 70
     1
102
RTVSPropertyOp57
 70
     1
102
RTVSPropertyOp58
 70
     1
102
RTVSPropertyOp59
 70
     1
102
RTVSPropertyOp60
 70
     1
102
RTVSPropertyOp61
 70
     1
102
RTVSPropertyOp62
 70
     1
  0
XRECORD
  5
19C00
102
{ACAD_REACTORS
330
19BFF
102
}
330
19BFF
100
AcDbXrecord
280
     1
102
RTVSPost2010Prop28
280
     0
102
RTVSPost2010PropOp28
 70
     1
102
RTVSPost2010Prop29
280
     1
102
RTVSPost2010PropOp29
 70
     1
102
RTVSPost2010Prop30
280
     1
102
RTVSPost2010PropOp30
 70
     1
102
RTVSPost2010Prop31
280
     0
102
RTVSPost2010PropOp31
 70
     1
102
RTVSPost2010Prop32
280
     0
102
RTVSPost2010PropOp32
 70
     1
102
RTVSPost2010Prop33
280
     0
102
RTVSPost2010PropOp33
 70
     1
102
RTVSPost2010Prop34
280
     0
102
RTVSPost2010PropOp34
 70
     1
102
RTVSPost2010Prop35
280
     0
102
RTVSPost2010PropOp35
 70
     1
102
RTVSPost2010Prop36
280
     0
102
RTVSPost2010PropOp36
 70
     1
102
RTVSPost2010Prop37
 90
       50
102
RTVSPost2010PropOp37
 70
     1
102
RTVSPost2010Prop38
140
0.0
102
RTVSPost2010PropOp38
 70
     1
102
RTVSPost2010Prop39
140
1.0
102
RTVSPost2010PropOp39
 70
     1
102
RTVSPost2010Prop40
 90
        0
102
RTVSPost2010PropOp40
 70
     1
102
RTVSPost2010Prop41ColorIndex
 90
       18
102
RTVSPost2010Prop41ColorRGB
 90
        0
102
RTVSPost2010PropOp41
 70
     1
102
RTVSPost2010Prop42
 90
       50
102
RTVSPost2010PropOp42
 70
     1
102
RTVSPost2010Prop43
 90
        3
102
RTVSPost2010PropOp43
 70
     1
102
RTVSPost2010Prop44ColorIndex
 90
        5
102
RTVSPost2010Prop44ColorRGB
 90
      255
102
RTVSPost2010PropOp44
 70
     1
102
RTVSPost2010Prop45
280
     0
102
RTVSPost2010PropOp45
 70
     1
102
RTVSPost2010Prop46
 90
       50
102
RTVSPost2010PropOp46
 70
     1
102
RTVSPost2010Prop47
 90
       50
102
RTVSPost2010PropOp47
 70
     1
102
RTVSPost2010Prop48
 90
       50
102
RTVSPost2010PropOp48
 70
     1
102
RTVSPost2010Prop49
280
     0
102
RTVSPost2010PropOp49
 70
     1
102
RTVSPost2010Prop50
 90
       50
102
RTVSPost2010PropOp50
 70
     1
102
RTVSPost2010Prop51ColorIndex
 90
      256
102
RTVSPost2010Prop51ColorRGB
 90
-16777216
102
RTVSPost2010PropOp51
 70
     0
102
RTVSPost2010Prop52
140
1.0
102
RTVSPost2010PropOp52
 70
     0
102
RTVSPost2010Prop53
 90
        2
102
RTVSPost2010PropOp53
 70
     1
102
RTVSPost2010Prop54
  1
strokes_ogs.tif
102
RTVSPost2010PropOp54
 70
     1
102
RTVSPost2010Prop55
280
     0
102
RTVSPost2010PropOp55
 70
     1
102
RTVSPost2010Prop56
140
1.0
102
RTVSPost2010PropOp56
 70
     1
102
RTVSPost2010Prop57
140
1.0
102
RTVSPost2010PropOp57
 70
     1
102
RTVSPropertyOp0
 70
     1
102
RTVSPropertyOp1
 70
     1
102
RTVSPropertyOp2
 70
     1
102
RTVSPropertyOp3
 70
     1
102
RTVSPropertyOp4
 70
     1
102
RTVSPropertyOp5
 70
     1
102
RTVSPropertyOp6
 70
     1
102
RTVSPropertyOp7
 70
     1
102
RTVSPropertyOp8
 70
     1
102
RTVSPropertyOp9
 70
     1
102
RTVSPropertyOp10
 70
     1
102
RTVSPropertyOp11
 70
     1
102
RTVSPropertyOp12
 70
     1
102
RTVSPropertyOp13
 70
     1
102
RTVSPropertyOp14
 70
     1
102
RTVSPropertyOp15
 70
     1
102
RTVSPropertyOp16
 70
     1
102
RTVSPropertyOp17
 70
     1
102
RTVSPropertyOp18
 70
     1
102
RTVSPropertyOp19
 70
     1
102
RTVSPropertyOp20
 70
     1
102
RTVSPropertyOp21
 70
     1
102
RTVSPropertyOp22
 70
     1
102
RTVSPropertyOp23
 70
     1
102
RTVSPropertyOp24
 70
     1
102
RTVSPropertyOp25
 70
     1
102
RTVSPropertyOp26
 70
     1
102
RTVSPropertyOp27
 70
     1
102
RTVSPropertyOp28
 70
     1
102
RTVSPropertyOp29
 70
     1
102
RTVSPropertyOp30
 70
     1
102
RTVSPropertyOp31
 70
     1
102
RTVSPropertyOp32
 70
     1
102
RTVSPropertyOp33
 70
     1
102
RTVSPropertyOp34
 70
     1
102
RTVSPropertyOp35
 70
     1
102
RTVSPropertyOp36
 70
     1
102
RTVSPropertyOp37
 70
     1
102
RTVSPropertyOp38
 70
     1
102
RTVSPropertyOp39
 70
     1
102
RTVSPropertyOp40
 70
     1
102
RTVSPropertyOp41
 70
     1
102
RTVSPropertyOp42
 70
     1
102
RTVSPropertyOp43
 70
     1
102
RTVSPropertyOp44
 70
     1
102
RTVSPropertyOp45
 70
     1
102
RTVSPropertyOp46
 70
     1
102
RTVSPropertyOp47
 70
     1
102
RTVSPropertyOp48
 70
     1
102
RTVSPropertyOp49
 70
     1
102
RTVSPropertyOp50
 70
     1
102
RTVSPropertyOp51
 70
     0
102
RTVSPropertyOp52
 70
     0
102
RTVSPropertyOp53
 70
     1
102
RTVSPropertyOp54
 70
     1
102
RTVSPropertyOp55
 70
     1
102
RTVSPropertyOp56
 70
     1
102
RTVSPropertyOp57
 70
     1
102
RTVSPropertyOp58
 70
     1
102
RTVSPropertyOp59
 70
     1
102
RTVSPropertyOp60
 70
     1
102
RTVSPropertyOp61
 70
     1
102
RTVSPropertyOp62
 70
     1
  0
XRECORD
  5
19C04
102
{ACAD_REACTORS
330
19C03
102
}
330
19C03
100
AcDbXrecord
280
     1
102
RTVSPost2010Prop28
280
     0
102
RTVSPost2010PropOp28
 70
     1
102
RTVSPost2010Prop29
280
     1
102
RTVSPost2010PropOp29
 70
     1
102
RTVSPost2010Prop30
280
     1
102
RTVSPost2010PropOp30
 70
     1
102
RTVSPost2010Prop31
280
     0
102
RTVSPost2010PropOp31
 70
     1
102
RTVSPost2010Prop32
280
     0
102
RTVSPost2010PropOp32
 70
     1
102
RTVSPost2010Prop33
280
     0
102
RTVSPost2010PropOp33
 70
     1
102
RTVSPost2010Prop34
280
     0
102
RTVSPost2010PropOp34
 70
     1
102
RTVSPost2010Prop35
280
     0
102
RTVSPost2010PropOp35
 70
     1
102
RTVSPost2010Prop36
280
     0
102
RTVSPost2010PropOp36
 70
     1
102
RTVSPost2010Prop37
 90
       50
102
RTVSPost2010PropOp37
 70
     1
102
RTVSPost2010Prop38
140
0.0
102
RTVSPost2010PropOp38
 70
     1
102
RTVSPost2010Prop39
140
1.0
102
RTVSPost2010PropOp39
 70
     1
102
RTVSPost2010Prop40
 90
        0
102
RTVSPost2010PropOp40
 70
     1
102
RTVSPost2010Prop41ColorIndex
 90
       18
102
RTVSPost2010Prop41ColorRGB
 90
        0
102
RTVSPost2010PropOp41
 70
     1
102
RTVSPost2010Prop42
 90
       50
102
RTVSPost2010PropOp42
 70
     1
102
RTVSPost2010Prop43
 90
        3
102
RTVSPost2010PropOp43
 70
     1
102
RTVSPost2010Prop44ColorIndex
 90
        5
102
RTVSPost2010Prop44ColorRGB
 90
      255
102
RTVSPost2010PropOp44
 70
     1
102
RTVSPost2010Prop45
280
     0
102
RTVSPost2010PropOp45
 70
     1
102
RTVSPost2010Prop46
 90
       50
102
RTVSPost2010PropOp46
 70
     1
102
RTVSPost2010Prop47
 90
       50
102
RTVSPost2010PropOp47
 70
     1
102
RTVSPost2010Prop48
 90
       50
102
RTVSPost2010PropOp48
 70
     1
102
RTVSPost2010Prop49
280
     0
102
RTVSPost2010PropOp49
 70
     1
102
RTVSPost2010Prop50
 90
       50
102
RTVSPost2010PropOp50
 70
     1
102
RTVSPost2010Prop51ColorIndex
 90
      256
102
RTVSPost2010Prop51ColorRGB
 90
-16777216
102
RTVSPost2010PropOp51
 70
     0
102
RTVSPost2010Prop52
140
1.0
102
RTVSPost2010PropOp52
 70
     0
102
RTVSPost2010Prop53
 90
        2
102
RTVSPost2010PropOp53
 70
     1
102
RTVSPost2010Prop54
  1
strokes_ogs.tif
102
RTVSPost2010PropOp54
 70
     1
102
RTVSPost2010Prop55
280
     0
102
RTVSPost2010PropOp55
 70
     1
102
RTVSPost2010Prop56
140
1.0
102
RTVSPost2010PropOp56
 70
     1
102
RTVSPost2010Prop57
140
1.0
102
RTVSPost2010PropOp57
 70
     1
102
RTVSPropertyOp0
 70
     1
102
RTVSPropertyOp1
 70
     1
102
RTVSPropertyOp2
 70
     1
102
RTVSPropertyOp3
 70
     1
102
RTVSPropertyOp4
 70
     1
102
RTVSPropertyOp5
 70
     1
102
RTVSPropertyOp6
 70
     1
102
RTVSPropertyOp7
 70
     1
102
RTVSPropertyOp8
 70
     1
102
RTVSPropertyOp9
 70
     1
102
RTVSPropertyOp10
 70
     1
102
RTVSPropertyOp11
 70
     1
102
RTVSPropertyOp12
 70
     1
102
RTVSPropertyOp13
 70
     1
102
RTVSPropertyOp14
 70
     1
102
RTVSPropertyOp15
 70
     1
102
RTVSPropertyOp16
 70
     1
102
RTVSPropertyOp17
 70
     1
102
RTVSPropertyOp18
 70
     1
102
RTVSPropertyOp19
 70
     1
102
RTVSPropertyOp20
 70
     1
102
RTVSPropertyOp21
 70
     1
102
RTVSPropertyOp22
 70
     1
102
RTVSPropertyOp23
 70
     1
102
RTVSPropertyOp24
 70
     1
102
RTVSPropertyOp25
 70
     1
102
RTVSPropertyOp26
 70
     1
102
RTVSPropertyOp27
 70
     1
102
RTVSPropertyOp28
 70
     1
102
RTVSPropertyOp29
 70
     1
102
RTVSPropertyOp30
 70
     1
102
RTVSPropertyOp31
 70
     1
102
RTVSPropertyOp32
 70
     1
102
RTVSPropertyOp33
 70
     1
102
RTVSPropertyOp34
 70
     1
102
RTVSPropertyOp35
 70
     1
102
RTVSPropertyOp36
 70
     1
102
RTVSPropertyOp37
 70
     1
102
RTVSPropertyOp38
 70
     1
102
RTVSPropertyOp39
 70
     1
102
RTVSPropertyOp40
 70
     1
102
RTVSPropertyOp41
 70
     1
102
RTVSPropertyOp42
 70
     1
102
RTVSPropertyOp43
 70
     1
102
RTVSPropertyOp44
 70
     1
102
RTVSPropertyOp45
 70
     1
102
RTVSPropertyOp46
 70
     1
102
RTVSPropertyOp47
 70
     1
102
RTVSPropertyOp48
 70
     1
102
RTVSPropertyOp49
 70
     1
102
RTVSPropertyOp50
 70
     1
102
RTVSPropertyOp51
 70
     0
102
RTVSPropertyOp52
 70
     0
102
RTVSPropertyOp53
 70
     1
102
RTVSPropertyOp54
 70
     1
102
RTVSPropertyOp55
 70
     1
102
RTVSPropertyOp56
 70
     1
102
RTVSPropertyOp57
 70
     1
102
RTVSPropertyOp58
 70
     1
102
RTVSPropertyOp59
 70
     1
102
RTVSPropertyOp60
 70
     1
102
RTVSPropertyOp61
 70
     1
102
RTVSPropertyOp62
 70
     1
  0
XRECORD
  5
19C1E
102
{ACAD_REACTORS
330
19C1D
102
}
330
19C1D
100
AcDbXrecord
280
     1
102
RTVSPost2010Prop28
280
     0
102
RTVSPost2010PropOp28
 70
     0
102
RTVSPost2010Prop29
280
     1
102
RTVSPost2010PropOp29
 70
     0
102
RTVSPost2010Prop30
280
     1
102
RTVSPost2010PropOp30
 70
     0
102
RTVSPost2010Prop31
280
     0
102
RTVSPost2010PropOp31
 70
     0
102
RTVSPost2010Prop32
280
     0
102
RTVSPost2010PropOp32
 70
     0
102
RTVSPost2010Prop33
280
     0
102
RTVSPost2010PropOp33
 70
     0
102
RTVSPost2010Prop34
280
     0
102
RTVSPost2010PropOp34
 70
     0
102
RTVSPost2010Prop35
280
     0
102
RTVSPost2010PropOp35
 70
     0
102
RTVSPost2010Prop36
280
     0
102
RTVSPost2010PropOp36
 70
     0
102
RTVSPost2010Prop37
 90
       50
102
RTVSPost2010PropOp37
 70
     0
102
RTVSPost2010Prop38
140
0.0
102
RTVSPost2010PropOp38
 70
     0
102
RTVSPost2010Prop39
140
1.0
102
RTVSPost2010PropOp39
 70
     0
102
RTVSPost2010Prop40
 90
        0
102
RTVSPost2010PropOp40
 70
     0
102
RTVSPost2010Prop41ColorIndex
 90
       18
102
RTVSPost2010Prop41ColorRGB
 90
        0
102
RTVSPost2010PropOp41
 70
     0
102
RTVSPost2010Prop42
 90
       50
102
RTVSPost2010PropOp42
 70
     0
102
RTVSPost2010Prop43
 90
        3
102
RTVSPost2010PropOp43
 70
     0
102
RTVSPost2010Prop44ColorIndex
 90
        5
102
RTVSPost2010Prop44ColorRGB
 90
      255
102
RTVSPost2010PropOp44
 70
     0
102
RTVSPost2010Prop45
280
     0
102
RTVSPost2010PropOp45
 70
     0
102
RTVSPost2010Prop46
 90
       50
102
RTVSPost2010PropOp46
 70
     0
102
RTVSPost2010Prop47
 90
       50
102
RTVSPost2010PropOp47
 70
     0
102
RTVSPost2010Prop48
 90
       50
102
RTVSPost2010PropOp48
 70
     0
102
RTVSPost2010Prop49
280
     0
102
RTVSPost2010PropOp49
 70
     0
102
RTVSPost2010Prop50
 90
       50
102
RTVSPost2010PropOp50
 70
     0
102
RTVSPost2010Prop51ColorIndex
 90
      256
102
RTVSPost2010Prop51ColorRGB
 90
-16777216
102
RTVSPost2010PropOp51
 70
     0
102
RTVSPost2010Prop52
140
1.0
102
RTVSPost2010PropOp52
 70
     0
102
RTVSPost2010Prop53
 90
        2
102
RTVSPost2010PropOp53
 70
     0
102
RTVSPost2010Prop54
  1
strokes_ogs.tif
102
RTVSPost2010PropOp54
 70
     0
102
RTVSPost2010Prop55
280
     0
102
RTVSPost2010PropOp55
 70
     0
102
RTVSPost2010Prop56
140
1.0
102
RTVSPost2010PropOp56
 70
     0
102
RTVSPost2010Prop57
140
1.0
102
RTVSPost2010PropOp57
 70
     0
102
RTVSPropertyOp0
 70
     0
102
RTVSPropertyOp1
 70
     0
102
RTVSPropertyOp2
 70
     0
102
RTVSPropertyOp3
 70
     0
102
RTVSPropertyOp4
 70
     0
102
RTVSPropertyOp5
 70
     0
102
RTVSPropertyOp6
 70
     0
102
RTVSPropertyOp7
 70
     0
102
RTVSPropertyOp8
 70
     0
102
RTVSPropertyOp9
 70
     0
102
RTVSPropertyOp10
 70
     0
102
RTVSPropertyOp11
 70
     0
102
RTVSPropertyOp12
 70
     0
102
RTVSPropertyOp13
 70
     0
102
RTVSPropertyOp14
 70
     2
102
RTVSPropertyOp15
 70
     0
102
RTVSPropertyOp16
 70
     0
102
RTVSPropertyOp17
 70
     0
102
RTVSPropertyOp18
 70
     0
102
RTVSPropertyOp19
 70
     0
102
RTVSPropertyOp20
 70
     0
102
RTVSPropertyOp21
 70
     0
102
RTVSPropertyOp22
 70
     0
102
RTVSPropertyOp23
 70
     0
102
RTVSPropertyOp24
 70
     0
102
RTVSPropertyOp25
 70
     0
102
RTVSPropertyOp26
 70
     0
102
RTVSPropertyOp27
 70
     0
102
RTVSPropertyOp28
 70
     0
102
RTVSPropertyOp29
 70
     0
102
RTVSPropertyOp30
 70
     0
102
RTVSPropertyOp31
 70
     0
102
RTVSPropertyOp32
 70
     0
102
RTVSPropertyOp33
 70
     0
102
RTVSPropertyOp34
 70
     0
102
RTVSPropertyOp35
 70
     0
102
RTVSPropertyOp36
 70
     0
102
RTVSPropertyOp37
 70
     0
102
RTVSPropertyOp38
 70
     0
102
RTVSPropertyOp39
 70
     0
102
RTVSPropertyOp40
 70
     0
102
RTVSPropertyOp41
 70
     0
102
RTVSPropertyOp42
 70
     0
102
RTVSPropertyOp43
 70
     0
102
RTVSPropertyOp44
 70
     0
102
RTVSPropertyOp45
 70
     0
102
RTVSPropertyOp46
 70
     0
102
RTVSPropertyOp47
 70
     0
102
RTVSPropertyOp48
 70
     0
102
RTVSPropertyOp49
 70
     0
102
RTVSPropertyOp50
 70
     0
102
RTVSPropertyOp51
 70
     0
102
RTVSPropertyOp52
 70
     0
102
RTVSPropertyOp53
 70
     0
102
RTVSPropertyOp54
 70
     0
102
RTVSPropertyOp55
 70
     0
102
RTVSPropertyOp56
 70
     0
102
RTVSPropertyOp57
 70
     0
102
RTVSPropertyOp58
 70
     0
102
RTVSPropertyOp59
 70
     0
102
RTVSPropertyOp60
 70
     0
102
RTVSPropertyOp61
 70
     0
102
RTVSPropertyOp62
 70
     0
  0
XRECORD
  5
19C0C
102
{ACAD_REACTORS
330
19C0B
102
}
330
19C0B
100
AcDbXrecord
280
     1
102
RTVSPost2010Prop28
280
     0
102
RTVSPost2010PropOp28
 70
     1
102
RTVSPost2010Prop29
280
     1
102
RTVSPost2010PropOp29
 70
     1
102
RTVSPost2010Prop30
280
     1
102
RTVSPost2010PropOp30
 70
     1
102
RTVSPost2010Prop31
280
     0
102
RTVSPost2010PropOp31
 70
     1
102
RTVSPost2010Prop32
280
     0
102
RTVSPost2010PropOp32
 70
     1
102
RTVSPost2010Prop33
280
     0
102
RTVSPost2010PropOp33
 70
     1
102
RTVSPost2010Prop34
280
     0
102
RTVSPost2010PropOp34
 70
     1
102
RTVSPost2010Prop35
280
     0
102
RTVSPost2010PropOp35
 70
     1
102
RTVSPost2010Prop36
280
     0
102
RTVSPost2010PropOp36
 70
     1
102
RTVSPost2010Prop37
 90
       50
102
RTVSPost2010PropOp37
 70
     1
102
RTVSPost2010Prop38
140
0.0
102
RTVSPost2010PropOp38
 70
     1
102
RTVSPost2010Prop39
140
1.0
102
RTVSPost2010PropOp39
 70
     1
102
RTVSPost2010Prop40
 90
        0
102
RTVSPost2010PropOp40
 70
     1
102
RTVSPost2010Prop41ColorIndex
 90
       18
102
RTVSPost2010Prop41ColorRGB
 90
        0
102
RTVSPost2010PropOp41
 70
     1
102
RTVSPost2010Prop42
 90
       50
102
RTVSPost2010PropOp42
 70
     1
102
RTVSPost2010Prop43
 90
        3
102
RTVSPost2010PropOp43
 70
     1
102
RTVSPost2010Prop44ColorIndex
 90
        5
102
RTVSPost2010Prop44ColorRGB
 90
      255
102
RTVSPost2010PropOp44
 70
     1
102
RTVSPost2010Prop45
280
     0
102
RTVSPost2010PropOp45
 70
     1
102
RTVSPost2010Prop46
 90
       50
102
RTVSPost2010PropOp46
 70
     1
102
RTVSPost2010Prop47
 90
       50
102
RTVSPost2010PropOp47
 70
     1
102
RTVSPost2010Prop48
 90
       50
102
RTVSPost2010PropOp48
 70
     1
102
RTVSPost2010Prop49
280
     0
102
RTVSPost2010PropOp49
 70
     1
102
RTVSPost2010Prop50
 90
       50
102
RTVSPost2010PropOp50
 70
     1
102
RTVSPost2010Prop51ColorIndex
 90
      256
102
RTVSPost2010Prop51ColorRGB
 90
-16777216
102
RTVSPost2010PropOp51
 70
     0
102
RTVSPost2010Prop52
140
1.0
102
RTVSPost2010PropOp52
 70
     0
102
RTVSPost2010Prop53
 90
        2
102
RTVSPost2010PropOp53
 70
     1
102
RTVSPost2010Prop54
  1
strokes_ogs.tif
102
RTVSPost2010PropOp54
 70
     1
102
RTVSPost2010Prop55
280
     0
102
RTVSPost2010PropOp55
 70
     1
102
RTVSPost2010Prop56
140
1.0
102
RTVSPost2010PropOp56
 70
     1
102
RTVSPost2010Prop57
140
1.0
102
RTVSPost2010PropOp57
 70
     1
102
RTVSPropertyOp0
 70
     1
102
RTVSPropertyOp1
 70
     1
102
RTVSPropertyOp2
 70
     1
102
RTVSPropertyOp3
 70
     1
102
RTVSPropertyOp4
 70
     1
102
RTVSPropertyOp5
 70
     1
102
RTVSPropertyOp6
 70
     1
102
RTVSPropertyOp7
 70
     1
102
RTVSPropertyOp8
 70
     1
102
RTVSPropertyOp9
 70
     1
102
RTVSPropertyOp10
 70
     1
102
RTVSPropertyOp11
 70
     1
102
RTVSPropertyOp12
 70
     1
102
RTVSPropertyOp13
 70
     1
102
RTVSPropertyOp14
 70
     1
102
RTVSPropertyOp15
 70
     1
102
RTVSPropertyOp16
 70
     1
102
RTVSPropertyOp17
 70
     1
102
RTVSPropertyOp18
 70
     1
102
RTVSPropertyOp19
 70
     1
102
RTVSPropertyOp20
 70
     1
102
RTVSPropertyOp21
 70
     1
102
RTVSPropertyOp22
 70
     1
102
RTVSPropertyOp23
 70
     1
102
RTVSPropertyOp24
 70
     1
102
RTVSPropertyOp25
 70
     1
102
RTVSPropertyOp26
 70
     1
102
RTVSPropertyOp27
 70
     1
102
RTVSPropertyOp28
 70
     1
102
RTVSPropertyOp29
 70
     1
102
RTVSPropertyOp30
 70
     1
102
RTVSPropertyOp31
 70
     1
102
RTVSPropertyOp32
 70
     1
102
RTVSPropertyOp33
 70
     1
102
RTVSPropertyOp34
 70
     1
102
RTVSPropertyOp35
 70
     1
102
RTVSPropertyOp36
 70
     1
102
RTVSPropertyOp37
 70
     1
102
RTVSPropertyOp38
 70
     1
102
RTVSPropertyOp39
 70
     1
102
RTVSPropertyOp40
 70
     1
102
RTVSPropertyOp41
 70
     1
102
RTVSPropertyOp42
 70
     1
102
RTVSPropertyOp43
 70
     1
102
RTVSPropertyOp44
 70
     1
102
RTVSPropertyOp45
 70
     1
102
RTVSPropertyOp46
 70
     1
102
RTVSPropertyOp47
 70
     1
102
RTVSPropertyOp48
 70
     1
102
RTVSPropertyOp49
 70
     1
102
RTVSPropertyOp50
 70
     1
102
RTVSPropertyOp51
 70
     0
102
RTVSPropertyOp52
 70
     0
102
RTVSPropertyOp53
 70
     1
102
RTVSPropertyOp54
 70
     1
102
RTVSPropertyOp55
 70
     1
102
RTVSPropertyOp56
 70
     1
102
RTVSPropertyOp57
 70
     1
102
RTVSPropertyOp58
 70
     1
102
RTVSPropertyOp59
 70
     1
102
RTVSPropertyOp60
 70
     1
102
RTVSPropertyOp61
 70
     1
102
RTVSPropertyOp62
 70
     1
  0
XRECORD
  5
19BF0
102
{ACAD_REACTORS
330
19BEF
102
}
330
19BEF
100
AcDbXrecord
280
     1
102
RTVSPost2010Prop28
280
     0
102
RTVSPost2010PropOp28
 70
     1
102
RTVSPost2010Prop29
280
     1
102
RTVSPost2010PropOp29
 70
     1
102
RTVSPost2010Prop30
280
     1
102
RTVSPost2010PropOp30
 70
     1
102
RTVSPost2010Prop31
280
     0
102
RTVSPost2010PropOp31
 70
     1
102
RTVSPost2010Prop32
280
     0
102
RTVSPost2010PropOp32
 70
     1
102
RTVSPost2010Prop33
280
     0
102
RTVSPost2010PropOp33
 70
     1
102
RTVSPost2010Prop34
280
     0
102
RTVSPost2010PropOp34
 70
     1
102
RTVSPost2010Prop35
280
     0
102
RTVSPost2010PropOp35
 70
     1
102
RTVSPost2010Prop36
280
     0
102
RTVSPost2010PropOp36
 70
     1
102
RTVSPost2010Prop37
 90
       50
102
RTVSPost2010PropOp37
 70
     1
102
RTVSPost2010Prop38
140
0.0
102
RTVSPost2010PropOp38
 70
     1
102
RTVSPost2010Prop39
140
1.0
102
RTVSPost2010PropOp39
 70
     1
102
RTVSPost2010Prop40
 90
        0
102
RTVSPost2010PropOp40
 70
     1
102
RTVSPost2010Prop41ColorIndex
 90
       18
102
RTVSPost2010Prop41ColorRGB
 90
        0
102
RTVSPost2010PropOp41
 70
     1
102
RTVSPost2010Prop42
 90
       50
102
RTVSPost2010PropOp42
 70
     1
102
RTVSPost2010Prop43
 90
        3
102
RTVSPost2010PropOp43
 70
     1
102
RTVSPost2010Prop44ColorIndex
 90
        5
102
RTVSPost2010Prop44ColorRGB
 90
      255
102
RTVSPost2010PropOp44
 70
     1
102
RTVSPost2010Prop45
280
     0
102
RTVSPost2010PropOp45
 70
     1
102
RTVSPost2010Prop46
 90
       50
102
RTVSPost2010PropOp46
 70
     1
102
RTVSPost2010Prop47
 90
       50
102
RTVSPost2010PropOp47
 70
     1
102
RTVSPost2010Prop48
 90
       50
102
RTVSPost2010PropOp48
 70
     1
102
RTVSPost2010Prop49
280
     0
102
RTVSPost2010PropOp49
 70
     1
102
RTVSPost2010Prop50
 90
       50
102
RTVSPost2010PropOp50
 70
     1
102
RTVSPost2010Prop51ColorIndex
 90
      256
102
RTVSPost2010Prop51ColorRGB
 90
-16777216
102
RTVSPost2010PropOp51
 70
     0
102
RTVSPost2010Prop52
140
1.0
102
RTVSPost2010PropOp52
 70
     0
102
RTVSPost2010Prop53
 90
        2
102
RTVSPost2010PropOp53
 70
     1
102
RTVSPost2010Prop54
  1
strokes_ogs.tif
102
RTVSPost2010PropOp54
 70
     1
102
RTVSPost2010Prop55
280
     0
102
RTVSPost2010PropOp55
 70
     1
102
RTVSPost2010Prop56
140
1.0
102
RTVSPost2010PropOp56
 70
     1
102
RTVSPost2010Prop57
140
1.0
102
RTVSPost2010PropOp57
 70
     1
102
RTVSPropertyOp0
 70
     1
102
RTVSPropertyOp1
 70
     1
102
RTVSPropertyOp2
 70
     1
102
RTVSPropertyOp3
 70
     1
102
RTVSPropertyOp4
 70
     1
102
RTVSPropertyOp5
 70
     1
102
RTVSPropertyOp6
 70
     1
102
RTVSPropertyOp7
 70
     1
102
RTVSPropertyOp8
 70
     1
102
RTVSPropertyOp9
 70
     1
102
RTVSPropertyOp10
 70
     1
102
RTVSPropertyOp11
 70
     1
102
RTVSPropertyOp12
 70
     1
102
RTVSPropertyOp13
 70
     1
102
RTVSPropertyOp14
 70
     1
102
RTVSPropertyOp15
 70
     1
102
RTVSPropertyOp16
 70
     1
102
RTVSPropertyOp17
 70
     1
102
RTVSPropertyOp18
 70
     1
102
RTVSPropertyOp19
 70
     1
102
RTVSPropertyOp20
 70
     1
102
RTVSPropertyOp21
 70
     1
102
RTVSPropertyOp22
 70
     1
102
RTVSPropertyOp23
 70
     1
102
RTVSPropertyOp24
 70
     1
102
RTVSPropertyOp25
 70
     1
102
RTVSPropertyOp26
 70
     1
102
RTVSPropertyOp27
 70
     1
102
RTVSPropertyOp28
 70
     1
102
RTVSPropertyOp29
 70
     1
102
RTVSPropertyOp30
 70
     1
102
RTVSPropertyOp31
 70
     1
102
RTVSPropertyOp32
 70
     1
102
RTVSPropertyOp33
 70
     1
102
RTVSPropertyOp34
 70
     1
102
RTVSPropertyOp35
 70
     1
102
RTVSPropertyOp36
 70
     1
102
RTVSPropertyOp37
 70
     1
102
RTVSPropertyOp38
 70
     1
102
RTVSPropertyOp39
 70
     1
102
RTVSPropertyOp40
 70
     1
102
RTVSPropertyOp41
 70
     1
102
RTVSPropertyOp42
 70
     1
102
RTVSPropertyOp43
 70
     1
102
RTVSPropertyOp44
 70
     1
102
RTVSPropertyOp45
 70
     1
102
RTVSPropertyOp46
 70
     1
102
RTVSPropertyOp47
 70
     1
102
RTVSPropertyOp48
 70
     1
102
RTVSPropertyOp49
 70
     1
102
RTVSPropertyOp50
 70
     1
102
RTVSPropertyOp51
 70
     0
102
RTVSPropertyOp52
 70
     0
102
RTVSPropertyOp53
 70
     1
102
RTVSPropertyOp54
 70
     1
102
RTVSPropertyOp55
 70
     1
102
RTVSPropertyOp56
 70
     1
102
RTVSPropertyOp57
 70
     1
102
RTVSPropertyOp58
 70
     1
102
RTVSPropertyOp59
 70
     1
102
RTVSPropertyOp60
 70
     1
102
RTVSPropertyOp61
 70
     1
102
RTVSPropertyOp62
 70
     1
  0
XRECORD
  5
19BF2
102
{ACAD_REACTORS
330
19BF1
102
}
330
19BF1
100
AcDbXrecord
280
     1
102
RTVSPost2010Prop28
280
     0
102
RTVSPost2010PropOp28
 70
     1
102
RTVSPost2010Prop29
280
     1
102
RTVSPost2010PropOp29
 70
     1
102
RTVSPost2010Prop30
280
     1
102
RTVSPost2010PropOp30
 70
     1
102
RTVSPost2010Prop31
280
     0
102
RTVSPost2010PropOp31
 70
     1
102
RTVSPost2010Prop32
280
     0
102
RTVSPost2010PropOp32
 70
     1
102
RTVSPost2010Prop33
280
     0
102
RTVSPost2010PropOp33
 70
     1
102
RTVSPost2010Prop34
280
     0
102
RTVSPost2010PropOp34
 70
     1
102
RTVSPost2010Prop35
280
     0
102
RTVSPost2010PropOp35
 70
     1
102
RTVSPost2010Prop36
280
     0
102
RTVSPost2010PropOp36
 70
     1
102
RTVSPost2010Prop37
 90
       50
102
RTVSPost2010PropOp37
 70
     1
102
RTVSPost2010Prop38
140
0.0
102
RTVSPost2010PropOp38
 70
     1
102
RTVSPost2010Prop39
140
1.0
102
RTVSPost2010PropOp39
 70
     1
102
RTVSPost2010Prop40
 90
        0
102
RTVSPost2010PropOp40
 70
     1
102
RTVSPost2010Prop41ColorIndex
 90
       18
102
RTVSPost2010Prop41ColorRGB
 90
        0
102
RTVSPost2010PropOp41
 70
     1
102
RTVSPost2010Prop42
 90
       50
102
RTVSPost2010PropOp42
 70
     1
102
RTVSPost2010Prop43
 90
        3
102
RTVSPost2010PropOp43
 70
     1
102
RTVSPost2010Prop44ColorIndex
 90
        5
102
RTVSPost2010Prop44ColorRGB
 90
      255
102
RTVSPost2010PropOp44
 70
     1
102
RTVSPost2010Prop45
280
     0
102
RTVSPost2010PropOp45
 70
     1
102
RTVSPost2010Prop46
 90
       50
102
RTVSPost2010PropOp46
 70
     1
102
RTVSPost2010Prop47
 90
       50
102
RTVSPost2010PropOp47
 70
     1
102
RTVSPost2010Prop48
 90
       50
102
RTVSPost2010PropOp48
 70
     1
102
RTVSPost2010Prop49
280
     0
102
RTVSPost2010PropOp49
 70
     1
102
RTVSPost2010Prop50
 90
       50
102
RTVSPost2010PropOp50
 70
     1
102
RTVSPost2010Prop51ColorIndex
 90
      256
102
RTVSPost2010Prop51ColorRGB
 90
-16777216
102
RTVSPost2010PropOp51
 70
     0
102
RTVSPost2010Prop52
140
1.0
102
RTVSPost2010PropOp52
 70
     0
102
RTVSPost2010Prop53
 90
        2
102
RTVSPost2010PropOp53
 70
     1
102
RTVSPost2010Prop54
  1
strokes_ogs.tif
102
RTVSPost2010PropOp54
 70
     1
102
RTVSPost2010Prop55
280
     0
102
RTVSPost2010PropOp55
 70
     1
102
RTVSPost2010Prop56
140
1.0
102
RTVSPost2010PropOp56
 70
     1
102
RTVSPost2010Prop57
140
1.0
102
RTVSPost2010PropOp57
 70
     1
102
RTVSPropertyOp0
 70
     1
102
RTVSPropertyOp1
 70
     1
102
RTVSPropertyOp2
 70
     1
102
RTVSPropertyOp3
 70
     1
102
RTVSPropertyOp4
 70
     1
102
RTVSPropertyOp5
 70
     1
102
RTVSPropertyOp6
 70
     1
102
RTVSPropertyOp7
 70
     1
102
RTVSPropertyOp8
 70
     1
102
RTVSPropertyOp9
 70
     1
102
RTVSPropertyOp10
 70
     1
102
RTVSPropertyOp11
 70
     1
102
RTVSPropertyOp12
 70
     1
102
RTVSPropertyOp13
 70
     1
102
RTVSPropertyOp14
 70
     1
102
RTVSPropertyOp15
 70
     1
102
RTVSPropertyOp16
 70
     1
102
RTVSPropertyOp17
 70
     1
102
RTVSPropertyOp18
 70
     1
102
RTVSPropertyOp19
 70
     1
102
RTVSPropertyOp20
 70
     1
102
RTVSPropertyOp21
 70
     1
102
RTVSPropertyOp22
 70
     1
102
RTVSPropertyOp23
 70
     1
102
RTVSPropertyOp24
 70
     1
102
RTVSPropertyOp25
 70
     1
102
RTVSPropertyOp26
 70
     1
102
RTVSPropertyOp27
 70
     1
102
RTVSPropertyOp28
 70
     1
102
RTVSPropertyOp29
 70
     1
102
RTVSPropertyOp30
 70
     1
102
RTVSPropertyOp31
 70
     1
102
RTVSPropertyOp32
 70
     1
102
RTVSPropertyOp33
 70
     1
102
RTVSPropertyOp34
 70
     1
102
RTVSPropertyOp35
 70
     1
102
RTVSPropertyOp36
 70
     1
102
RTVSPropertyOp37
 70
     1
102
RTVSPropertyOp38
 70
     1
102
RTVSPropertyOp39
 70
     1
102
RTVSPropertyOp40
 70
     1
102
RTVSPropertyOp41
 70
     1
102
RTVSPropertyOp42
 70
     1
102
RTVSPropertyOp43
 70
     1
102
RTVSPropertyOp44
 70
     1
102
RTVSPropertyOp45
 70
     1
102
RTVSPropertyOp46
 70
     1
102
RTVSPropertyOp47
 70
     1
102
RTVSPropertyOp48
 70
     1
102
RTVSPropertyOp49
 70
     1
102
RTVSPropertyOp50
 70
     1
102
RTVSPropertyOp51
 70
     0
102
RTVSPropertyOp52
 70
     0
102
RTVSPropertyOp53
 70
     1
102
RTVSPropertyOp54
 70
     1
102
RTVSPropertyOp55
 70
     1
102
RTVSPropertyOp56
 70
     1
102
RTVSPropertyOp57
 70
     1
102
RTVSPropertyOp58
 70
     1
102
RTVSPropertyOp59
 70
     1
102
RTVSPropertyOp60
 70
     1
102
RTVSPropertyOp61
 70
     1
102
RTVSPropertyOp62
 70
     1
  0
XRECORD
  5
19BF4
102
{ACAD_REACTORS
330
19BF3
102
}
330
19BF3
100
AcDbXrecord
280
     1
102
RTVSPost2010Prop28
280
     0
102
RTVSPost2010PropOp28
 70
     1
102
RTVSPost2010Prop29
280
     1
102
RTVSPost2010PropOp29
 70
     1
102
RTVSPost2010Prop30
280
     1
102
RTVSPost2010PropOp30
 70
     1
102
RTVSPost2010Prop31
280
     0
102
RTVSPost2010PropOp31
 70
     1
102
RTVSPost2010Prop32
280
     0
102
RTVSPost2010PropOp32
 70
     1
102
RTVSPost2010Prop33
280
     0
102
RTVSPost2010PropOp33
 70
     1
102
RTVSPost2010Prop34
280
     0
102
RTVSPost2010PropOp34
 70
     1
102
RTVSPost2010Prop35
280
     0
102
RTVSPost2010PropOp35
 70
     1
102
RTVSPost2010Prop36
280
     0
102
RTVSPost2010PropOp36
 70
     1
102
RTVSPost2010Prop37
 90
       50
102
RTVSPost2010PropOp37
 70
     1
102
RTVSPost2010Prop38
140
0.0
102
RTVSPost2010PropOp38
 70
     1
102
RTVSPost2010Prop39
140
1.0
102
RTVSPost2010PropOp39
 70
     1
102
RTVSPost2010Prop40
 90
        0
102
RTVSPost2010PropOp40
 70
     1
102
RTVSPost2010Prop41ColorIndex
 90
       18
102
RTVSPost2010Prop41ColorRGB
 90
        0
102
RTVSPost2010PropOp41
 70
     1
102
RTVSPost2010Prop42
 90
       50
102
RTVSPost2010PropOp42
 70
     1
102
RTVSPost2010Prop43
 90
        3
102
RTVSPost2010PropOp43
 70
     1
102
RTVSPost2010Prop44ColorIndex
 90
        5
102
RTVSPost2010Prop44ColorRGB
 90
      255
102
RTVSPost2010PropOp44
 70
     1
102
RTVSPost2010Prop45
280
     0
102
RTVSPost2010PropOp45
 70
     1
102
RTVSPost2010Prop46
 90
       50
102
RTVSPost2010PropOp46
 70
     1
102
RTVSPost2010Prop47
 90
       50
102
RTVSPost2010PropOp47
 70
     1
102
RTVSPost2010Prop48
 90
       50
102
RTVSPost2010PropOp48
 70
     1
102
RTVSPost2010Prop49
280
     0
102
RTVSPost2010PropOp49
 70
     1
102
RTVSPost2010Prop50
 90
       50
102
RTVSPost2010PropOp50
 70
     1
102
RTVSPost2010Prop51ColorIndex
 90
      256
102
RTVSPost2010Prop51ColorRGB
 90
-16777216
102
RTVSPost2010PropOp51
 70
     0
102
RTVSPost2010Prop52
140
1.0
102
RTVSPost2010PropOp52
 70
     0
102
RTVSPost2010Prop53
 90
        2
102
RTVSPost2010PropOp53
 70
     1
102
RTVSPost2010Prop54
  1
strokes_ogs.tif
102
RTVSPost2010PropOp54
 70
     1
102
RTVSPost2010Prop55
280
     0
102
RTVSPost2010PropOp55
 70
     1
102
RTVSPost2010Prop56
140
1.0
102
RTVSPost2010PropOp56
 70
     1
102
RTVSPost2010Prop57
140
1.0
102
RTVSPost2010PropOp57
 70
     1
102
RTVSPropertyOp0
 70
     1
102
RTVSPropertyOp1
 70
     1
102
RTVSPropertyOp2
 70
     1
102
RTVSPropertyOp3
 70
     1
102
RTVSPropertyOp4
 70
     1
102
RTVSPropertyOp5
 70
     1
102
RTVSPropertyOp6
 70
     1
102
RTVSPropertyOp7
 70
     1
102
RTVSPropertyOp8
 70
     1
102
RTVSPropertyOp9
 70
     1
102
RTVSPropertyOp10
 70
     1
102
RTVSPropertyOp11
 70
     1
102
RTVSPropertyOp12
 70
     1
102
RTVSPropertyOp13
 70
     1
102
RTVSPropertyOp14
 70
     1
102
RTVSPropertyOp15
 70
     1
102
RTVSPropertyOp16
 70
     1
102
RTVSPropertyOp17
 70
     1
102
RTVSPropertyOp18
 70
     1
102
RTVSPropertyOp19
 70
     1
102
RTVSPropertyOp20
 70
     1
102
RTVSPropertyOp21
 70
     1
102
RTVSPropertyOp22
 70
     1
102
RTVSPropertyOp23
 70
     1
102
RTVSPropertyOp24
 70
     1
102
RTVSPropertyOp25
 70
     1
102
RTVSPropertyOp26
 70
     1
102
RTVSPropertyOp27
 70
     1
102
RTVSPropertyOp28
 70
     1
102
RTVSPropertyOp29
 70
     1
102
RTVSPropertyOp30
 70
     1
102
RTVSPropertyOp31
 70
     1
102
RTVSPropertyOp32
 70
     1
102
RTVSPropertyOp33
 70
     1
102
RTVSPropertyOp34
 70
     1
102
RTVSPropertyOp35
 70
     1
102
RTVSPropertyOp36
 70
     1
102
RTVSPropertyOp37
 70
     1
102
RTVSPropertyOp38
 70
     1
102
RTVSPropertyOp39
 70
     1
102
RTVSPropertyOp40
 70
     1
102
RTVSPropertyOp41
 70
     1
102
RTVSPropertyOp42
 70
     1
102
RTVSPropertyOp43
 70
     1
102
RTVSPropertyOp44
 70
     1
102
RTVSPropertyOp45
 70
     1
102
RTVSPropertyOp46
 70
     1
102
RTVSPropertyOp47
 70
     1
102
RTVSPropertyOp48
 70
     1
102
RTVSPropertyOp49
 70
     1
102
RTVSPropertyOp50
 70
     1
102
RTVSPropertyOp51
 70
     0
102
RTVSPropertyOp52
 70
     0
102
RTVSPropertyOp53
 70
     1
102
RTVSPropertyOp54
 70
     1
102
RTVSPropertyOp55
 70
     1
102
RTVSPropertyOp56
 70
     1
102
RTVSPropertyOp57
 70
     1
102
RTVSPropertyOp58
 70
     1
102
RTVSPropertyOp59
 70
     1
102
RTVSPropertyOp60
 70
     1
102
RTVSPropertyOp61
 70
     1
102
RTVSPropertyOp62
 70
     1
  0
XRECORD
  5
19BF6
102
{ACAD_REACTORS
330
19BF5
102
}
330
19BF5
100
AcDbXrecord
280
     1
102
RTVSPost2010Prop28
280
     0
102
RTVSPost2010PropOp28
 70
     1
102
RTVSPost2010Prop29
280
     1
102
RTVSPost2010PropOp29
 70
     1
102
RTVSPost2010Prop30
280
     1
102
RTVSPost2010PropOp30
 70
     1
102
RTVSPost2010Prop31
280
     0
102
RTVSPost2010PropOp31
 70
     1
102
RTVSPost2010Prop32
280
     0
102
RTVSPost2010PropOp32
 70
     1
102
RTVSPost2010Prop33
280
     0
102
RTVSPost2010PropOp33
 70
     1
102
RTVSPost2010Prop34
280
     0
102
RTVSPost2010PropOp34
 70
     1
102
RTVSPost2010Prop35
280
     0
102
RTVSPost2010PropOp35
 70
     1
102
RTVSPost2010Prop36
280
     0
102
RTVSPost2010PropOp36
 70
     1
102
RTVSPost2010Prop37
 90
       50
102
RTVSPost2010PropOp37
 70
     1
102
RTVSPost2010Prop38
140
0.0
102
RTVSPost2010PropOp38
 70
     1
102
RTVSPost2010Prop39
140
1.0
102
RTVSPost2010PropOp39
 70
     1
102
RTVSPost2010Prop40
 90
        0
102
RTVSPost2010PropOp40
 70
     1
102
RTVSPost2010Prop41ColorIndex
 90
       18
102
RTVSPost2010Prop41ColorRGB
 90
        0
102
RTVSPost2010PropOp41
 70
     1
102
RTVSPost2010Prop42
 90
       50
102
RTVSPost2010PropOp42
 70
     1
102
RTVSPost2010Prop43
 90
        3
102
RTVSPost2010PropOp43
 70
     1
102
RTVSPost2010Prop44ColorIndex
 90
        5
102
RTVSPost2010Prop44ColorRGB
 90
      255
102
RTVSPost2010PropOp44
 70
     1
102
RTVSPost2010Prop45
280
     0
102
RTVSPost2010PropOp45
 70
     1
102
RTVSPost2010Prop46
 90
       50
102
RTVSPost2010PropOp46
 70
     1
102
RTVSPost2010Prop47
 90
       50
102
RTVSPost2010PropOp47
 70
     1
102
RTVSPost2010Prop48
 90
       50
102
RTVSPost2010PropOp48
 70
     1
102
RTVSPost2010Prop49
280
     0
102
RTVSPost2010PropOp49
 70
     1
102
RTVSPost2010Prop50
 90
       50
102
RTVSPost2010PropOp50
 70
     1
102
RTVSPost2010Prop51ColorIndex
 90
      256
102
RTVSPost2010Prop51ColorRGB
 90
-16777216
102
RTVSPost2010PropOp51
 70
     0
102
RTVSPost2010Prop52
140
1.0
102
RTVSPost2010PropOp52
 70
     0
102
RTVSPost2010Prop53
 90
        2
102
RTVSPost2010PropOp53
 70
     1
102
RTVSPost2010Prop54
  1
strokes_ogs.tif
102
RTVSPost2010PropOp54
 70
     1
102
RTVSPost2010Prop55
280
     0
102
RTVSPost2010PropOp55
 70
     1
102
RTVSPost2010Prop56
140
1.0
102
RTVSPost2010PropOp56
 70
     1
102
RTVSPost2010Prop57
140
1.0
102
RTVSPost2010PropOp57
 70
     1
102
RTVSPropertyOp0
 70
     1
102
RTVSPropertyOp1
 70
     1
102
RTVSPropertyOp2
 70
     1
102
RTVSPropertyOp3
 70
     1
102
RTVSPropertyOp4
 70
     1
102
RTVSPropertyOp5
 70
     1
102
RTVSPropertyOp6
 70
     1
102
RTVSPropertyOp7
 70
     1
102
RTVSPropertyOp8
 70
     1
102
RTVSPropertyOp9
 70
     1
102
RTVSPropertyOp10
 70
     1
102
RTVSPropertyOp11
 70
     1
102
RTVSPropertyOp12
 70
     1
102
RTVSPropertyOp13
 70
     1
102
RTVSPropertyOp14
 70
     1
102
RTVSPropertyOp15
 70
     1
102
RTVSPropertyOp16
 70
     1
102
RTVSPropertyOp17
 70
     1
102
RTVSPropertyOp18
 70
     1
102
RTVSPropertyOp19
 70
     1
102
RTVSPropertyOp20
 70
     1
102
RTVSPropertyOp21
 70
     1
102
RTVSPropertyOp22
 70
     1
102
RTVSPropertyOp23
 70
     1
102
RTVSPropertyOp24
 70
     1
102
RTVSPropertyOp25
 70
     1
102
RTVSPropertyOp26
 70
     1
102
RTVSPropertyOp27
 70
     1
102
RTVSPropertyOp28
 70
     1
102
RTVSPropertyOp29
 70
     1
102
RTVSPropertyOp30
 70
     1
102
RTVSPropertyOp31
 70
     1
102
RTVSPropertyOp32
 70
     1
102
RTVSPropertyOp33
 70
     1
102
RTVSPropertyOp34
 70
     1
102
RTVSPropertyOp35
 70
     1
102
RTVSPropertyOp36
 70
     1
102
RTVSPropertyOp37
 70
     1
102
RTVSPropertyOp38
 70
     1
102
RTVSPropertyOp39
 70
     1
102
RTVSPropertyOp40
 70
     1
102
RTVSPropertyOp41
 70
     1
102
RTVSPropertyOp42
 70
     1
102
RTVSPropertyOp43
 70
     1
102
RTVSPropertyOp44
 70
     1
102
RTVSPropertyOp45
 70
     1
102
RTVSPropertyOp46
 70
     1
102
RTVSPropertyOp47
 70
     1
102
RTVSPropertyOp48
 70
     1
102
RTVSPropertyOp49
 70
     1
102
RTVSPropertyOp50
 70
     1
102
RTVSPropertyOp51
 70
     0
102
RTVSPropertyOp52
 70
     0
102
RTVSPropertyOp53
 70
     1
102
RTVSPropertyOp54
 70
     1
102
RTVSPropertyOp55
 70
     1
102
RTVSPropertyOp56
 70
     1
102
RTVSPropertyOp57
 70
     1
102
RTVSPropertyOp58
 70
     1
102
RTVSPropertyOp59
 70
     1
102
RTVSPropertyOp60
 70
     1
102
RTVSPropertyOp61
 70
     1
102
RTVSPropertyOp62
 70
     1
  0
XRECORD
  5
19BFE
102
{ACAD_REACTORS
330
19BFD
102
}
330
19BFD
100
AcDbXrecord
280
     1
102
RTVSPost2010Prop28
280
     0
102
RTVSPost2010PropOp28
 70
     1
102
RTVSPost2010Prop29
280
     1
102
RTVSPost2010PropOp29
 70
     1
102
RTVSPost2010Prop30
280
     1
102
RTVSPost2010PropOp30
 70
     1
102
RTVSPost2010Prop31
280
     0
102
RTVSPost2010PropOp31
 70
     1
102
RTVSPost2010Prop32
280
     0
102
RTVSPost2010PropOp32
 70
     1
102
RTVSPost2010Prop33
280
     0
102
RTVSPost2010PropOp33
 70
     1
102
RTVSPost2010Prop34
280
     0
102
RTVSPost2010PropOp34
 70
     1
102
RTVSPost2010Prop35
280
     0
102
RTVSPost2010PropOp35
 70
     1
102
RTVSPost2010Prop36
280
     0
102
RTVSPost2010PropOp36
 70
     1
102
RTVSPost2010Prop37
 90
       50
102
RTVSPost2010PropOp37
 70
     1
102
RTVSPost2010Prop38
140
0.0
102
RTVSPost2010PropOp38
 70
     1
102
RTVSPost2010Prop39
140
1.0
102
RTVSPost2010PropOp39
 70
     1
102
RTVSPost2010Prop40
 90
        0
102
RTVSPost2010PropOp40
 70
     1
102
RTVSPost2010Prop41ColorIndex
 90
       18
102
RTVSPost2010Prop41ColorRGB
 90
        0
102
RTVSPost2010PropOp41
 70
     1
102
RTVSPost2010Prop42
 90
       50
102
RTVSPost2010PropOp42
 70
     1
102
RTVSPost2010Prop43
 90
        3
102
RTVSPost2010PropOp43
 70
     1
102
RTVSPost2010Prop44ColorIndex
 90
        5
102
RTVSPost2010Prop44ColorRGB
 90
      255
102
RTVSPost2010PropOp44
 70
     1
102
RTVSPost2010Prop45
280
     0
102
RTVSPost2010PropOp45
 70
     1
102
RTVSPost2010Prop46
 90
       50
102
RTVSPost2010PropOp46
 70
     1
102
RTVSPost2010Prop47
 90
       50
102
RTVSPost2010PropOp47
 70
     1
102
RTVSPost2010Prop48
 90
       50
102
RTVSPost2010PropOp48
 70
     1
102
RTVSPost2010Prop49
280
     0
102
RTVSPost2010PropOp49
 70
     1
102
RTVSPost2010Prop50
 90
       50
102
RTVSPost2010PropOp50
 70
     1
102
RTVSPost2010Prop51ColorIndex
 90
      256
102
RTVSPost2010Prop51ColorRGB
 90
-16777216
102
RTVSPost2010PropOp51
 70
     0
102
RTVSPost2010Prop52
140
1.0
102
RTVSPost2010PropOp52
 70
     0
102
RTVSPost2010Prop53
 90
        2
102
RTVSPost2010PropOp53
 70
     1
102
RTVSPost2010Prop54
  1
strokes_ogs.tif
102
RTVSPost2010PropOp54
 70
     1
102
RTVSPost2010Prop55
280
     0
102
RTVSPost2010PropOp55
 70
     1
102
RTVSPost2010Prop56
140
1.0
102
RTVSPost2010PropOp56
 70
     1
102
RTVSPost2010Prop57
140
1.0
102
RTVSPost2010PropOp57
 70
     1
102
RTVSPropertyOp0
 70
     1
102
RTVSPropertyOp1
 70
     1
102
RTVSPropertyOp2
 70
     1
102
RTVSPropertyOp3
 70
     1
102
RTVSPropertyOp4
 70
     1
102
RTVSPropertyOp5
 70
     1
102
RTVSPropertyOp6
 70
     1
102
RTVSPropertyOp7
 70
     1
102
RTVSPropertyOp8
 70
     1
102
RTVSPropertyOp9
 70
     1
102
RTVSPropertyOp10
 70
     1
102
RTVSPropertyOp11
 70
     1
102
RTVSPropertyOp12
 70
     1
102
RTVSPropertyOp13
 70
     1
102
RTVSPropertyOp14
 70
     1
102
RTVSPropertyOp15
 70
     1
102
RTVSPropertyOp16
 70
     1
102
RTVSPropertyOp17
 70
     1
102
RTVSPropertyOp18
 70
     1
102
RTVSPropertyOp19
 70
     1
102
RTVSPropertyOp20
 70
     1
102
RTVSPropertyOp21
 70
     1
102
RTVSPropertyOp22
 70
     1
102
RTVSPropertyOp23
 70
     1
102
RTVSPropertyOp24
 70
     1
102
RTVSPropertyOp25
 70
     1
102
RTVSPropertyOp26
 70
     1
102
RTVSPropertyOp27
 70
     1
102
RTVSPropertyOp28
 70
     1
102
RTVSPropertyOp29
 70
     1
102
RTVSPropertyOp30
 70
     1
102
RTVSPropertyOp31
 70
     1
102
RTVSPropertyOp32
 70
     1
102
RTVSPropertyOp33
 70
     1
102
RTVSPropertyOp34
 70
     1
102
RTVSPropertyOp35
 70
     1
102
RTVSPropertyOp36
 70
     1
102
RTVSPropertyOp37
 70
     1
102
RTVSPropertyOp38
 70
     1
102
RTVSPropertyOp39
 70
     1
102
RTVSPropertyOp40
 70
     1
102
RTVSPropertyOp41
 70
     1
102
RTVSPropertyOp42
 70
     1
102
RTVSPropertyOp43
 70
     1
102
RTVSPropertyOp44
 70
     1
102
RTVSPropertyOp45
 70
     1
102
RTVSPropertyOp46
 70
     1
102
RTVSPropertyOp47
 70
     1
102
RTVSPropertyOp48
 70
     1
102
RTVSPropertyOp49
 70
     1
102
RTVSPropertyOp50
 70
     1
102
RTVSPropertyOp51
 70
     0
102
RTVSPropertyOp52
 70
     0
102
RTVSPropertyOp53
 70
     1
102
RTVSPropertyOp54
 70
     1
102
RTVSPropertyOp55
 70
     1
102
RTVSPropertyOp56
 70
     1
102
RTVSPropertyOp57
 70
     1
102
RTVSPropertyOp58
 70
     1
102
RTVSPropertyOp59
 70
     1
102
RTVSPropertyOp60
 70
     1
102
RTVSPropertyOp61
 70
     1
102
RTVSPropertyOp62
 70
     1
  0
XRECORD
  5
19C1A
102
{ACAD_REACTORS
330
19C19
102
}
330
19C19
100
AcDbXrecord
280
     1
102
RTVSPost2010Prop28
280
     0
102
RTVSPost2010PropOp28
 70
     0
102
RTVSPost2010Prop29
280
     1
102
RTVSPost2010PropOp29
 70
     0
102
RTVSPost2010Prop30
280
     1
102
RTVSPost2010PropOp30
 70
     0
102
RTVSPost2010Prop31
280
     0
102
RTVSPost2010PropOp31
 70
     0
102
RTVSPost2010Prop32
280
     0
102
RTVSPost2010PropOp32
 70
     0
102
RTVSPost2010Prop33
280
     0
102
RTVSPost2010PropOp33
 70
     0
102
RTVSPost2010Prop34
280
     0
102
RTVSPost2010PropOp34
 70
     0
102
RTVSPost2010Prop35
280
     0
102
RTVSPost2010PropOp35
 70
     0
102
RTVSPost2010Prop36
280
     0
102
RTVSPost2010PropOp36
 70
     0
102
RTVSPost2010Prop37
 90
       50
102
RTVSPost2010PropOp37
 70
     0
102
RTVSPost2010Prop38
140
0.0
102
RTVSPost2010PropOp38
 70
     0
102
RTVSPost2010Prop39
140
1.0
102
RTVSPost2010PropOp39
 70
     0
102
RTVSPost2010Prop40
 90
        0
102
RTVSPost2010PropOp40
 70
     0
102
RTVSPost2010Prop41ColorIndex
 90
       18
102
RTVSPost2010Prop41ColorRGB
 90
        0
102
RTVSPost2010PropOp41
 70
     0
102
RTVSPost2010Prop42
 90
       50
102
RTVSPost2010PropOp42
 70
     0
102
RTVSPost2010Prop43
 90
        3
102
RTVSPost2010PropOp43
 70
     0
102
RTVSPost2010Prop44ColorIndex
 90
        5
102
RTVSPost2010Prop44ColorRGB
 90
      255
102
RTVSPost2010PropOp44
 70
     0
102
RTVSPost2010Prop45
280
     0
102
RTVSPost2010PropOp45
 70
     0
102
RTVSPost2010Prop46
 90
       50
102
RTVSPost2010PropOp46
 70
     0
102
RTVSPost2010Prop47
 90
       50
102
RTVSPost2010PropOp47
 70
     0
102
RTVSPost2010Prop48
 90
       50
102
RTVSPost2010PropOp48
 70
     0
102
RTVSPost2010Prop49
280
     0
102
RTVSPost2010PropOp49
 70
     0
102
RTVSPost2010Prop50
 90
       50
102
RTVSPost2010PropOp50
 70
     0
102
RTVSPost2010Prop51ColorIndex
 90
      256
102
RTVSPost2010Prop51ColorRGB
 90
-16777216
102
RTVSPost2010PropOp51
 70
     0
102
RTVSPost2010Prop52
140
1.0
102
RTVSPost2010PropOp52
 70
     0
102
RTVSPost2010Prop53
 90
        2
102
RTVSPost2010PropOp53
 70
     0
102
RTVSPost2010Prop54
  1
strokes_ogs.tif
102
RTVSPost2010PropOp54
 70
     0
102
RTVSPost2010Prop55
280
     0
102
RTVSPost2010PropOp55
 70
     0
102
RTVSPost2010Prop56
140
1.0
102
RTVSPost2010PropOp56
 70
     0
102
RTVSPost2010Prop57
140
1.0
102
RTVSPost2010PropOp57
 70
     0
102
RTVSPropertyOp0
 70
     0
102
RTVSPropertyOp1
 70
     0
102
RTVSPropertyOp2
 70
     0
102
RTVSPropertyOp3
 70
     0
102
RTVSPropertyOp4
 70
     0
102
RTVSPropertyOp5
 70
     0
102
RTVSPropertyOp6
 70
     0
102
RTVSPropertyOp7
 70
     0
102
RTVSPropertyOp8
 70
     0
102
RTVSPropertyOp9
 70
     0
102
RTVSPropertyOp10
 70
     0
102
RTVSPropertyOp11
 70
     0
102
RTVSPropertyOp12
 70
     0
102
RTVSPropertyOp13
 70
     0
102
RTVSPropertyOp14
 70
     2
102
RTVSPropertyOp15
 70
     0
102
RTVSPropertyOp16
 70
     0
102
RTVSPropertyOp17
 70
     0
102
RTVSPropertyOp18
 70
     0
102
RTVSPropertyOp19
 70
     0
102
RTVSPropertyOp20
 70
     0
102
RTVSPropertyOp21
 70
     0
102
RTVSPropertyOp22
 70
     0
102
RTVSPropertyOp23
 70
     0
102
RTVSPropertyOp24
 70
     0
102
RTVSPropertyOp25
 70
     0
102
RTVSPropertyOp26
 70
     0
102
RTVSPropertyOp27
 70
     0
102
RTVSPropertyOp28
 70
     0
102
RTVSPropertyOp29
 70
     0
102
RTVSPropertyOp30
 70
     0
102
RTVSPropertyOp31
 70
     0
102
RTVSPropertyOp32
 70
     0
102
RTVSPropertyOp33
 70
     0
102
RTVSPropertyOp34
 70
     0
102
RTVSPropertyOp35
 70
     0
102
RTVSPropertyOp36
 70
     0
102
RTVSPropertyOp37
 70
     0
102
RTVSPropertyOp38
 70
     0
102
RTVSPropertyOp39
 70
     0
102
RTVSPropertyOp40
 70
     0
102
RTVSPropertyOp41
 70
     0
102
RTVSPropertyOp42
 70
     0
102
RTVSPropertyOp43
 70
     0
102
RTVSPropertyOp44
 70
     0
102
RTVSPropertyOp45
 70
     0
102
RTVSPropertyOp46
 70
     0
102
RTVSPropertyOp47
 70
     0
102
RTVSPropertyOp48
 70
     0
102
RTVSPropertyOp49
 70
     0
102
RTVSPropertyOp50
 70
     0
102
RTVSPropertyOp51
 70
     0
102
RTVSPropertyOp52
 70
     0
102
RTVSPropertyOp53
 70
     0
102
RTVSPropertyOp54
 70
     0
102
RTVSPropertyOp55
 70
     0
102
RTVSPropertyOp56
 70
     0
102
RTVSPropertyOp57
 70
     0
102
RTVSPropertyOp58
 70
     0
102
RTVSPropertyOp59
 70
     0
102
RTVSPropertyOp60
 70
     0
102
RTVSPropertyOp61
 70
     0
102
RTVSPropertyOp62
 70
     0
  0
XRECORD
  5
19C0A
102
{ACAD_REACTORS
330
19C09
102
}
330
19C09
100
AcDbXrecord
280
     1
102
RTVSPost2010Prop28
280
     0
102
RTVSPost2010PropOp28
 70
     1
102
RTVSPost2010Prop29
280
     1
102
RTVSPost2010PropOp29
 70
     1
102
RTVSPost2010Prop30
280
     1
102
RTVSPost2010PropOp30
 70
     1
102
RTVSPost2010Prop31
280
     0
102
RTVSPost2010PropOp31
 70
     1
102
RTVSPost2010Prop32
280
     0
102
RTVSPost2010PropOp32
 70
     1
102
RTVSPost2010Prop33
280
     0
102
RTVSPost2010PropOp33
 70
     1
102
RTVSPost2010Prop34
280
     0
102
RTVSPost2010PropOp34
 70
     1
102
RTVSPost2010Prop35
280
     0
102
RTVSPost2010PropOp35
 70
     1
102
RTVSPost2010Prop36
280
     0
102
RTVSPost2010PropOp36
 70
     1
102
RTVSPost2010Prop37
 90
       50
102
RTVSPost2010PropOp37
 70
     1
102
RTVSPost2010Prop38
140
0.0
102
RTVSPost2010PropOp38
 70
     1
102
RTVSPost2010Prop39
140
1.0
102
RTVSPost2010PropOp39
 70
     1
102
RTVSPost2010Prop40
 90
        0
102
RTVSPost2010PropOp40
 70
     1
102
RTVSPost2010Prop41ColorIndex
 90
       18
102
RTVSPost2010Prop41ColorRGB
 90
        0
102
RTVSPost2010PropOp41
 70
     1
102
RTVSPost2010Prop42
 90
       50
102
RTVSPost2010PropOp42
 70
     1
102
RTVSPost2010Prop43
 90
        3
102
RTVSPost2010PropOp43
 70
     1
102
RTVSPost2010Prop44ColorIndex
 90
        5
102
RTVSPost2010Prop44ColorRGB
 90
      255
102
RTVSPost2010PropOp44
 70
     1
102
RTVSPost2010Prop45
280
     0
102
RTVSPost2010PropOp45
 70
     1
102
RTVSPost2010Prop46
 90
       50
102
RTVSPost2010PropOp46
 70
     1
102
RTVSPost2010Prop47
 90
       50
102
RTVSPost2010PropOp47
 70
     1
102
RTVSPost2010Prop48
 90
       50
102
RTVSPost2010PropOp48
 70
     1
102
RTVSPost2010Prop49
280
     0
102
RTVSPost2010PropOp49
 70
     1
102
RTVSPost2010Prop50
 90
       50
102
RTVSPost2010PropOp50
 70
     1
102
RTVSPost2010Prop51ColorIndex
 90
      256
102
RTVSPost2010Prop51ColorRGB
 90
-16777216
102
RTVSPost2010PropOp51
 70
     0
102
RTVSPost2010Prop52
140
1.0
102
RTVSPost2010PropOp52
 70
     0
102
RTVSPost2010Prop53
 90
        2
102
RTVSPost2010PropOp53
 70
     1
102
RTVSPost2010Prop54
  1
strokes_ogs.tif
102
RTVSPost2010PropOp54
 70
     1
102
RTVSPost2010Prop55
280
     0
102
RTVSPost2010PropOp55
 70
     1
102
RTVSPost2010Prop56
140
1.0
102
RTVSPost2010PropOp56
 70
     1
102
RTVSPost2010Prop57
140
1.0
102
RTVSPost2010PropOp57
 70
     1
102
RTVSPropertyOp0
 70
     1
102
RTVSPropertyOp1
 70
     1
102
RTVSPropertyOp2
 70
     1
102
RTVSPropertyOp3
 70
     1
102
RTVSPropertyOp4
 70
     1
102
RTVSPropertyOp5
 70
     1
102
RTVSPropertyOp6
 70
     1
102
RTVSPropertyOp7
 70
     1
102
RTVSPropertyOp8
 70
     1
102
RTVSPropertyOp9
 70
     1
102
RTVSPropertyOp10
 70
     1
102
RTVSPropertyOp11
 70
     1
102
RTVSPropertyOp12
 70
     1
102
RTVSPropertyOp13
 70
     1
102
RTVSPropertyOp14
 70
     1
102
RTVSPropertyOp15
 70
     1
102
RTVSPropertyOp16
 70
     1
102
RTVSPropertyOp17
 70
     1
102
RTVSPropertyOp18
 70
     1
102
RTVSPropertyOp19
 70
     1
102
RTVSPropertyOp20
 70
     1
102
RTVSPropertyOp21
 70
     1
102
RTVSPropertyOp22
 70
     1
102
RTVSPropertyOp23
 70
     1
102
RTVSPropertyOp24
 70
     1
102
RTVSPropertyOp25
 70
     1
102
RTVSPropertyOp26
 70
     1
102
RTVSPropertyOp27
 70
     1
102
RTVSPropertyOp28
 70
     1
102
RTVSPropertyOp29
 70
     1
102
RTVSPropertyOp30
 70
     1
102
RTVSPropertyOp31
 70
     1
102
RTVSPropertyOp32
 70
     1
102
RTVSPropertyOp33
 70
     1
102
RTVSPropertyOp34
 70
     1
102
RTVSPropertyOp35
 70
     1
102
RTVSPropertyOp36
 70
     1
102
RTVSPropertyOp37
 70
     1
102
RTVSPropertyOp38
 70
     1
102
RTVSPropertyOp39
 70
     1
102
RTVSPropertyOp40
 70
     1
102
RTVSPropertyOp41
 70
     1
102
RTVSPropertyOp42
 70
     1
102
RTVSPropertyOp43
 70
     1
102
RTVSPropertyOp44
 70
     1
102
RTVSPropertyOp45
 70
     1
102
RTVSPropertyOp46
 70
     1
102
RTVSPropertyOp47
 70
     1
102
RTVSPropertyOp48
 70
     1
102
RTVSPropertyOp49
 70
     1
102
RTVSPropertyOp50
 70
     1
102
RTVSPropertyOp51
 70
     0
102
RTVSPropertyOp52
 70
     0
102
RTVSPropertyOp53
 70
     1
102
RTVSPropertyOp54
 70
     1
102
RTVSPropertyOp55
 70
     1
102
RTVSPropertyOp56
 70
     1
102
RTVSPropertyOp57
 70
     1
102
RTVSPropertyOp58
 70
     1
102
RTVSPropertyOp59
 70
     1
102
RTVSPropertyOp60
 70
     1
102
RTVSPropertyOp61
 70
     1
102
RTVSPropertyOp62
 70
     1
  0
XRECORD
  5
19C1C
102
{ACAD_REACTORS
330
19C1B
102
}
330
19C1B
100
AcDbXrecord
280
     1
102
RTVSPost2010Prop28
280
     0
102
RTVSPost2010PropOp28
 70
     0
102
RTVSPost2010Prop29
280
     1
102
RTVSPost2010PropOp29
 70
     0
102
RTVSPost2010Prop30
280
     1
102
RTVSPost2010PropOp30
 70
     0
102
RTVSPost2010Prop31
280
     0
102
RTVSPost2010PropOp31
 70
     0
102
RTVSPost2010Prop32
280
     0
102
RTVSPost2010PropOp32
 70
     0
102
RTVSPost2010Prop33
280
     0
102
RTVSPost2010PropOp33
 70
     0
102
RTVSPost2010Prop34
280
     0
102
RTVSPost2010PropOp34
 70
     0
102
RTVSPost2010Prop35
280
     0
102
RTVSPost2010PropOp35
 70
     0
102
RTVSPost2010Prop36
280
     0
102
RTVSPost2010PropOp36
 70
     0
102
RTVSPost2010Prop37
 90
       50
102
RTVSPost2010PropOp37
 70
     0
102
RTVSPost2010Prop38
140
0.0
102
RTVSPost2010PropOp38
 70
     0
102
RTVSPost2010Prop39
140
1.0
102
RTVSPost2010PropOp39
 70
     0
102
RTVSPost2010Prop40
 90
        0
102
RTVSPost2010PropOp40
 70
     0
102
RTVSPost2010Prop41ColorIndex
 90
       18
102
RTVSPost2010Prop41ColorRGB
 90
        0
102
RTVSPost2010PropOp41
 70
     0
102
RTVSPost2010Prop42
 90
       50
102
RTVSPost2010PropOp42
 70
     0
102
RTVSPost2010Prop43
 90
        3
102
RTVSPost2010PropOp43
 70
     0
102
RTVSPost2010Prop44ColorIndex
 90
        5
102
RTVSPost2010Prop44ColorRGB
 90
      255
102
RTVSPost2010PropOp44
 70
     0
102
RTVSPost2010Prop45
280
     0
102
RTVSPost2010PropOp45
 70
     0
102
RTVSPost2010Prop46
 90
       50
102
RTVSPost2010PropOp46
 70
     0
102
RTVSPost2010Prop47
 90
       50
102
RTVSPost2010PropOp47
 70
     0
102
RTVSPost2010Prop48
 90
       50
102
RTVSPost2010PropOp48
 70
     0
102
RTVSPost2010Prop49
280
     0
102
RTVSPost2010PropOp49
 70
     0
102
RTVSPost2010Prop50
 90
       50
102
RTVSPost2010PropOp50
 70
     0
102
RTVSPost2010Prop51ColorIndex
 90
      256
102
RTVSPost2010Prop51ColorRGB
 90
-16777216
102
RTVSPost2010PropOp51
 70
     0
102
RTVSPost2010Prop52
140
1.0
102
RTVSPost2010PropOp52
 70
     0
102
RTVSPost2010Prop53
 90
        2
102
RTVSPost2010PropOp53
 70
     0
102
RTVSPost2010Prop54
  1
strokes_ogs.tif
102
RTVSPost2010PropOp54
 70
     0
102
RTVSPost2010Prop55
280
     0
102
RTVSPost2010PropOp55
 70
     0
102
RTVSPost2010Prop56
140
1.0
102
RTVSPost2010PropOp56
 70
     0
102
RTVSPost2010Prop57
140
1.0
102
RTVSPost2010PropOp57
 70
     0
102
RTVSPropertyOp0
 70
     0
102
RTVSPropertyOp1
 70
     0
102
RTVSPropertyOp2
 70
     0
102
RTVSPropertyOp3
 70
     0
102
RTVSPropertyOp4
 70
     0
102
RTVSPropertyOp5
 70
     0
102
RTVSPropertyOp6
 70
     0
102
RTVSPropertyOp7
 70
     0
102
RTVSPropertyOp8
 70
     0
102
RTVSPropertyOp9
 70
     0
102
RTVSPropertyOp10
 70
     0
102
RTVSPropertyOp11
 70
     0
102
RTVSPropertyOp12
 70
     0
102
RTVSPropertyOp13
 70
     0
102
RTVSPropertyOp14
 70
     2
102
RTVSPropertyOp15
 70
     0
102
RTVSPropertyOp16
 70
     0
102
RTVSPropertyOp17
 70
     0
102
RTVSPropertyOp18
 70
     0
102
RTVSPropertyOp19
 70
     0
102
RTVSPropertyOp20
 70
     0
102
RTVSPropertyOp21
 70
     0
102
RTVSPropertyOp22
 70
     0
102
RTVSPropertyOp23
 70
     0
102
RTVSPropertyOp24
 70
     0
102
RTVSPropertyOp25
 70
     0
102
RTVSPropertyOp26
 70
     0
102
RTVSPropertyOp27
 70
     0
102
RTVSPropertyOp28
 70
     0
102
RTVSPropertyOp29
 70
     0
102
RTVSPropertyOp30
 70
     0
102
RTVSPropertyOp31
 70
     0
102
RTVSPropertyOp32
 70
     0
102
RTVSPropertyOp33
 70
     0
102
RTVSPropertyOp34
 70
     0
102
RTVSPropertyOp35
 70
     0
102
RTVSPropertyOp36
 70
     0
102
RTVSPropertyOp37
 70
     0
102
RTVSPropertyOp38
 70
     0
102
RTVSPropertyOp39
 70
     0
102
RTVSPropertyOp40
 70
     0
102
RTVSPropertyOp41
 70
     0
102
RTVSPropertyOp42
 70
     0
102
RTVSPropertyOp43
 70
     0
102
RTVSPropertyOp44
 70
     0
102
RTVSPropertyOp45
 70
     0
102
RTVSPropertyOp46
 70
     0
102
RTVSPropertyOp47
 70
     0
102
RTVSPropertyOp48
 70
     0
102
RTVSPropertyOp49
 70
     0
102
RTVSPropertyOp50
 70
     0
102
RTVSPropertyOp51
 70
     0
102
RTVSPropertyOp52
 70
     0
102
RTVSPropertyOp53
 70
     0
102
RTVSPropertyOp54
 70
     0
102
RTVSPropertyOp55
 70
     0
102
RTVSPropertyOp56
 70
     0
102
RTVSPropertyOp57
 70
     0
102
RTVSPropertyOp58
 70
     0
102
RTVSPropertyOp59
 70
     0
102
RTVSPropertyOp60
 70
     0
102
RTVSPropertyOp61
 70
     0
102
RTVSPropertyOp62
 70
     0
  0
XRECORD
  5
19C02
102
{ACAD_REACTORS
330
19C01
102
}
330
19C01
100
AcDbXrecord
280
     1
102
RTVSPost2010Prop28
280
     0
102
RTVSPost2010PropOp28
 70
     1
102
RTVSPost2010Prop29
280
     1
102
RTVSPost2010PropOp29
 70
     1
102
RTVSPost2010Prop30
280
     1
102
RTVSPost2010PropOp30
 70
     1
102
RTVSPost2010Prop31
280
     0
102
RTVSPost2010PropOp31
 70
     1
102
RTVSPost2010Prop32
280
     0
102
RTVSPost2010PropOp32
 70
     1
102
RTVSPost2010Prop33
280
     0
102
RTVSPost2010PropOp33
 70
     1
102
RTVSPost2010Prop34
280
     0
102
RTVSPost2010PropOp34
 70
     1
102
RTVSPost2010Prop35
280
     0
102
RTVSPost2010PropOp35
 70
     1
102
RTVSPost2010Prop36
280
     0
102
RTVSPost2010PropOp36
 70
     1
102
RTVSPost2010Prop37
 90
       50
102
RTVSPost2010PropOp37
 70
     1
102
RTVSPost2010Prop38
140
0.0
102
RTVSPost2010PropOp38
 70
     1
102
RTVSPost2010Prop39
140
1.0
102
RTVSPost2010PropOp39
 70
     1
102
RTVSPost2010Prop40
 90
        0
102
RTVSPost2010PropOp40
 70
     1
102
RTVSPost2010Prop41ColorIndex
 90
       18
102
RTVSPost2010Prop41ColorRGB
 90
        0
102
RTVSPost2010PropOp41
 70
     1
102
RTVSPost2010Prop42
 90
       50
102
RTVSPost2010PropOp42
 70
     1
102
RTVSPost2010Prop43
 90
        3
102
RTVSPost2010PropOp43
 70
     1
102
RTVSPost2010Prop44ColorIndex
 90
        5
102
RTVSPost2010Prop44ColorRGB
 90
      255
102
RTVSPost2010PropOp44
 70
     1
102
RTVSPost2010Prop45
280
     0
102
RTVSPost2010PropOp45
 70
     1
102
RTVSPost2010Prop46
 90
       50
102
RTVSPost2010PropOp46
 70
     1
102
RTVSPost2010Prop47
 90
       50
102
RTVSPost2010PropOp47
 70
     1
102
RTVSPost2010Prop48
 90
       50
102
RTVSPost2010PropOp48
 70
     1
102
RTVSPost2010Prop49
280
     0
102
RTVSPost2010PropOp49
 70
     1
102
RTVSPost2010Prop50
 90
       50
102
RTVSPost2010PropOp50
 70
     1
102
RTVSPost2010Prop51ColorIndex
 90
      256
102
RTVSPost2010Prop51ColorRGB
 90
-16777216
102
RTVSPost2010PropOp51
 70
     0
102
RTVSPost2010Prop52
140
1.0
102
RTVSPost2010PropOp52
 70
     0
102
RTVSPost2010Prop53
 90
        2
102
RTVSPost2010PropOp53
 70
     1
102
RTVSPost2010Prop54
  1
strokes_ogs.tif
102
RTVSPost2010PropOp54
 70
     1
102
RTVSPost2010Prop55
280
     0
102
RTVSPost2010PropOp55
 70
     1
102
RTVSPost2010Prop56
140
1.0
102
RTVSPost2010PropOp56
 70
     1
102
RTVSPost2010Prop57
140
1.0
102
RTVSPost2010PropOp57
 70
     1
102
RTVSPropertyOp0
 70
     1
102
RTVSPropertyOp1
 70
     1
102
RTVSPropertyOp2
 70
     1
102
RTVSPropertyOp3
 70
     1
102
RTVSPropertyOp4
 70
     1
102
RTVSPropertyOp5
 70
     1
102
RTVSPropertyOp6
 70
     1
102
RTVSPropertyOp7
 70
     1
102
RTVSPropertyOp8
 70
     1
102
RTVSPropertyOp9
 70
     1
102
RTVSPropertyOp10
 70
     1
102
RTVSPropertyOp11
 70
     1
102
RTVSPropertyOp12
 70
     1
102
RTVSPropertyOp13
 70
     1
102
RTVSPropertyOp14
 70
     1
102
RTVSPropertyOp15
 70
     1
102
RTVSPropertyOp16
 70
     1
102
RTVSPropertyOp17
 70
     1
102
RTVSPropertyOp18
 70
     1
102
RTVSPropertyOp19
 70
     1
102
RTVSPropertyOp20
 70
     1
102
RTVSPropertyOp21
 70
     1
102
RTVSPropertyOp22
 70
     1
102
RTVSPropertyOp23
 70
     1
102
RTVSPropertyOp24
 70
     1
102
RTVSPropertyOp25
 70
     1
102
RTVSPropertyOp26
 70
     1
102
RTVSPropertyOp27
 70
     1
102
RTVSPropertyOp28
 70
     1
102
RTVSPropertyOp29
 70
     1
102
RTVSPropertyOp30
 70
     1
102
RTVSPropertyOp31
 70
     1
102
RTVSPropertyOp32
 70
     1
102
RTVSPropertyOp33
 70
     1
102
RTVSPropertyOp34
 70
     1
102
RTVSPropertyOp35
 70
     1
102
RTVSPropertyOp36
 70
     1
102
RTVSPropertyOp37
 70
     1
102
RTVSPropertyOp38
 70
     1
102
RTVSPropertyOp39
 70
     1
102
RTVSPropertyOp40
 70
     1
102
RTVSPropertyOp41
 70
     1
102
RTVSPropertyOp42
 70
     1
102
RTVSPropertyOp43
 70
     1
102
RTVSPropertyOp44
 70
     1
102
RTVSPropertyOp45
 70
     1
102
RTVSPropertyOp46
 70
     1
102
RTVSPropertyOp47
 70
     1
102
RTVSPropertyOp48
 70
     1
102
RTVSPropertyOp49
 70
     1
102
RTVSPropertyOp50
 70
     1
102
RTVSPropertyOp51
 70
     0
102
RTVSPropertyOp52
 70
     0
102
RTVSPropertyOp53
 70
     1
102
RTVSPropertyOp54
 70
     1
102
RTVSPropertyOp55
 70
     1
102
RTVSPropertyOp56
 70
     1
102
RTVSPropertyOp57
 70
     1
102
RTVSPropertyOp58
 70
     1
102
RTVSPropertyOp59
 70
     1
102
RTVSPropertyOp60
 70
     1
102
RTVSPropertyOp61
 70
     1
102
RTVSPropertyOp62
 70
     1
  0
XRECORD
  5
19C18
102
{ACAD_REACTORS
330
19C17
102
}
330
19C17
100
AcDbXrecord
280
     1
102
RTVSPost2010Prop28
280
     0
102
RTVSPost2010PropOp28
 70
     1
102
RTVSPost2010Prop29
280
     1
102
RTVSPost2010PropOp29
 70
     1
102
RTVSPost2010Prop30
280
     1
102
RTVSPost2010PropOp30
 70
     1
102
RTVSPost2010Prop31
280
     0
102
RTVSPost2010PropOp31
 70
     1
102
RTVSPost2010Prop32
280
     0
102
RTVSPost2010PropOp32
 70
     1
102
RTVSPost2010Prop33
280
     0
102
RTVSPost2010PropOp33
 70
     1
102
RTVSPost2010Prop34
280
     0
102
RTVSPost2010PropOp34
 70
     1
102
RTVSPost2010Prop35
280
     0
102
RTVSPost2010PropOp35
 70
     1
102
RTVSPost2010Prop36
280
     0
102
RTVSPost2010PropOp36
 70
     1
102
RTVSPost2010Prop37
 90
       50
102
RTVSPost2010PropOp37
 70
     1
102
RTVSPost2010Prop38
140
0.0
102
RTVSPost2010PropOp38
 70
     1
102
RTVSPost2010Prop39
140
1.0
102
RTVSPost2010PropOp39
 70
     1
102
RTVSPost2010Prop40
 90
        0
102
RTVSPost2010PropOp40
 70
     1
102
RTVSPost2010Prop41ColorIndex
 90
       18
102
RTVSPost2010Prop41ColorRGB
 90
        0
102
RTVSPost2010PropOp41
 70
     1
102
RTVSPost2010Prop42
 90
       50
102
RTVSPost2010PropOp42
 70
     1
102
RTVSPost2010Prop43
 90
        3
102
RTVSPost2010PropOp43
 70
     1
102
RTVSPost2010Prop44ColorIndex
 90
        5
102
RTVSPost2010Prop44ColorRGB
 90
      255
102
RTVSPost2010PropOp44
 70
     1
102
RTVSPost2010Prop45
280
     0
102
RTVSPost2010PropOp45
 70
     1
102
RTVSPost2010Prop46
 90
       50
102
RTVSPost2010PropOp46
 70
     1
102
RTVSPost2010Prop47
 90
       50
102
RTVSPost2010PropOp47
 70
     1
102
RTVSPost2010Prop48
 90
       50
102
RTVSPost2010PropOp48
 70
     1
102
RTVSPost2010Prop49
280
     0
102
RTVSPost2010PropOp49
 70
     1
102
RTVSPost2010Prop50
 90
       50
102
RTVSPost2010PropOp50
 70
     1
102
RTVSPost2010Prop51ColorIndex
 90
      256
102
RTVSPost2010Prop51ColorRGB
 90
-16777216
102
RTVSPost2010PropOp51
 70
     0
102
RTVSPost2010Prop52
140
1.0
102
RTVSPost2010PropOp52
 70
     0
102
RTVSPost2010Prop53
 90
        2
102
RTVSPost2010PropOp53
 70
     1
102
RTVSPost2010Prop54
  1
strokes_ogs.tif
102
RTVSPost2010PropOp54
 70
     1
102
RTVSPost2010Prop55
280
     0
102
RTVSPost2010PropOp55
 70
     1
102
RTVSPost2010Prop56
140
1.0
102
RTVSPost2010PropOp56
 70
     1
102
RTVSPost2010Prop57
140
1.0
102
RTVSPost2010PropOp57
 70
     1
102
RTVSPropertyOp0
 70
     1
102
RTVSPropertyOp1
 70
     1
102
RTVSPropertyOp2
 70
     1
102
RTVSPropertyOp3
 70
     1
102
RTVSPropertyOp4
 70
     1
102
RTVSPropertyOp5
 70
     1
102
RTVSPropertyOp6
 70
     1
102
RTVSPropertyOp7
 70
     1
102
RTVSPropertyOp8
 70
     1
102
RTVSPropertyOp9
 70
     1
102
RTVSPropertyOp10
 70
     1
102
RTVSPropertyOp11
 70
     1
102
RTVSPropertyOp12
 70
     1
102
RTVSPropertyOp13
 70
     1
102
RTVSPropertyOp14
 70
     1
102
RTVSPropertyOp15
 70
     1
102
RTVSPropertyOp16
 70
     1
102
RTVSPropertyOp17
 70
     1
102
RTVSPropertyOp18
 70
     1
102
RTVSPropertyOp19
 70
     1
102
RTVSPropertyOp20
 70
     1
102
RTVSPropertyOp21
 70
     1
102
RTVSPropertyOp22
 70
     1
102
RTVSPropertyOp23
 70
     1
102
RTVSPropertyOp24
 70
     1
102
RTVSPropertyOp25
 70
     1
102
RTVSPropertyOp26
 70
     1
102
RTVSPropertyOp27
 70
     1
102
RTVSPropertyOp28
 70
     1
102
RTVSPropertyOp29
 70
     1
102
RTVSPropertyOp30
 70
     1
102
RTVSPropertyOp31
 70
     1
102
RTVSPropertyOp32
 70
     1
102
RTVSPropertyOp33
 70
     1
102
RTVSPropertyOp34
 70
     1
102
RTVSPropertyOp35
 70
     1
102
RTVSPropertyOp36
 70
     1
102
RTVSPropertyOp37
 70
     1
102
RTVSPropertyOp38
 70
     1
102
RTVSPropertyOp39
 70
     1
102
RTVSPropertyOp40
 70
     1
102
RTVSPropertyOp41
 70
     1
102
RTVSPropertyOp42
 70
     1
102
RTVSPropertyOp43
 70
     1
102
RTVSPropertyOp44
 70
     1
102
RTVSPropertyOp45
 70
     1
102
RTVSPropertyOp46
 70
     1
102
RTVSPropertyOp47
 70
     1
102
RTVSPropertyOp48
 70
     1
102
RTVSPropertyOp49
 70
     1
102
RTVSPropertyOp50
 70
     1
102
RTVSPropertyOp51
 70
     0
102
RTVSPropertyOp52
 70
     0
102
RTVSPropertyOp53
 70
     1
102
RTVSPropertyOp54
 70
     1
102
RTVSPropertyOp55
 70
     1
102
RTVSPropertyOp56
 70
     1
102
RTVSPropertyOp57
 70
     1
102
RTVSPropertyOp58
 70
     1
102
RTVSPropertyOp59
 70
     1
102
RTVSPropertyOp60
 70
     1
102
RTVSPropertyOp61
 70
     1
102
RTVSPropertyOp62
 70
     1
  0
XRECORD
  5
19C16
102
{ACAD_REACTORS
330
19C15
102
}
330
19C15
100
AcDbXrecord
280
     1
102
RTVSPost2010Prop28
280
     0
102
RTVSPost2010PropOp28
 70
     1
102
RTVSPost2010Prop29
280
     1
102
RTVSPost2010PropOp29
 70
     1
102
RTVSPost2010Prop30
280
     1
102
RTVSPost2010PropOp30
 70
     1
102
RTVSPost2010Prop31
280
     0
102
RTVSPost2010PropOp31
 70
     1
102
RTVSPost2010Prop32
280
     0
102
RTVSPost2010PropOp32
 70
     1
102
RTVSPost2010Prop33
280
     0
102
RTVSPost2010PropOp33
 70
     1
102
RTVSPost2010Prop34
280
     0
102
RTVSPost2010PropOp34
 70
     1
102
RTVSPost2010Prop35
280
     0
102
RTVSPost2010PropOp35
 70
     1
102
RTVSPost2010Prop36
280
     0
102
RTVSPost2010PropOp36
 70
     1
102
RTVSPost2010Prop37
 90
       50
102
RTVSPost2010PropOp37
 70
     1
102
RTVSPost2010Prop38
140
0.0
102
RTVSPost2010PropOp38
 70
     1
102
RTVSPost2010Prop39
140
1.0
102
RTVSPost2010PropOp39
 70
     1
102
RTVSPost2010Prop40
 90
        0
102
RTVSPost2010PropOp40
 70
     1
102
RTVSPost2010Prop41ColorIndex
 90
       18
102
RTVSPost2010Prop41ColorRGB
 90
        0
102
RTVSPost2010PropOp41
 70
     1
102
RTVSPost2010Prop42
 90
       50
102
RTVSPost2010PropOp42
 70
     1
102
RTVSPost2010Prop43
 90
        3
102
RTVSPost2010PropOp43
 70
     1
102
RTVSPost2010Prop44ColorIndex
 90
        5
102
RTVSPost2010Prop44ColorRGB
 90
      255
102
RTVSPost2010PropOp44
 70
     1
102
RTVSPost2010Prop45
280
     0
102
RTVSPost2010PropOp45
 70
     1
102
RTVSPost2010Prop46
 90
       50
102
RTVSPost2010PropOp46
 70
     1
102
RTVSPost2010Prop47
 90
       50
102
RTVSPost2010PropOp47
 70
     1
102
RTVSPost2010Prop48
 90
       50
102
RTVSPost2010PropOp48
 70
     1
102
RTVSPost2010Prop49
280
     0
102
RTVSPost2010PropOp49
 70
     1
102
RTVSPost2010Prop50
 90
       50
102
RTVSPost2010PropOp50
 70
     1
102
RTVSPost2010Prop51ColorIndex
 90
      256
102
RTVSPost2010Prop51ColorRGB
 90
-16777216
102
RTVSPost2010PropOp51
 70
     0
102
RTVSPost2010Prop52
140
1.0
102
RTVSPost2010PropOp52
 70
     0
102
RTVSPost2010Prop53
 90
        2
102
RTVSPost2010PropOp53
 70
     1
102
RTVSPost2010Prop54
  1
strokes_ogs.tif
102
RTVSPost2010PropOp54
 70
     1
102
RTVSPost2010Prop55
280
     0
102
RTVSPost2010PropOp55
 70
     1
102
RTVSPost2010Prop56
140
1.0
102
RTVSPost2010PropOp56
 70
     1
102
RTVSPost2010Prop57
140
1.0
102
RTVSPost2010PropOp57
 70
     1
102
RTVSPropertyOp0
 70
     1
102
RTVSPropertyOp1
 70
     1
102
RTVSPropertyOp2
 70
     1
102
RTVSPropertyOp3
 70
     1
102
RTVSPropertyOp4
 70
     1
102
RTVSPropertyOp5
 70
     1
102
RTVSPropertyOp6
 70
     1
102
RTVSPropertyOp7
 70
     1
102
RTVSPropertyOp8
 70
     1
102
RTVSPropertyOp9
 70
     1
102
RTVSPropertyOp10
 70
     1
102
RTVSPropertyOp11
 70
     1
102
RTVSPropertyOp12
 70
     1
102
RTVSPropertyOp13
 70
     1
102
RTVSPropertyOp14
 70
     1
102
RTVSPropertyOp15
 70
     1
102
RTVSPropertyOp16
 70
     1
102
RTVSPropertyOp17
 70
     1
102
RTVSPropertyOp18
 70
     1
102
RTVSPropertyOp19
 70
     1
102
RTVSPropertyOp20
 70
     1
102
RTVSPropertyOp21
 70
     1
102
RTVSPropertyOp22
 70
     1
102
RTVSPropertyOp23
 70
     1
102
RTVSPropertyOp24
 70
     1
102
RTVSPropertyOp25
 70
     1
102
RTVSPropertyOp26
 70
     1
102
RTVSPropertyOp27
 70
     1
102
RTVSPropertyOp28
 70
     1
102
RTVSPropertyOp29
 70
     1
102
RTVSPropertyOp30
 70
     1
102
RTVSPropertyOp31
 70
     1
102
RTVSPropertyOp32
 70
     1
102
RTVSPropertyOp33
 70
     1
102
RTVSPropertyOp34
 70
     1
102
RTVSPropertyOp35
 70
     1
102
RTVSPropertyOp36
 70
     1
102
RTVSPropertyOp37
 70
     1
102
RTVSPropertyOp38
 70
     1
102
RTVSPropertyOp39
 70
     1
102
RTVSPropertyOp40
 70
     1
102
RTVSPropertyOp41
 70
     1
102
RTVSPropertyOp42
 70
     1
102
RTVSPropertyOp43
 70
     1
102
RTVSPropertyOp44
 70
     1
102
RTVSPropertyOp45
 70
     1
102
RTVSPropertyOp46
 70
     1
102
RTVSPropertyOp47
 70
     1
102
RTVSPropertyOp48
 70
     1
102
RTVSPropertyOp49
 70
     1
102
RTVSPropertyOp50
 70
     1
102
RTVSPropertyOp51
 70
     0
102
RTVSPropertyOp52
 70
     0
102
RTVSPropertyOp53
 70
     1
102
RTVSPropertyOp54
 70
     1
102
RTVSPropertyOp55
 70
     1
102
RTVSPropertyOp56
 70
     1
102
RTVSPropertyOp57
 70
     1
102
RTVSPropertyOp58
 70
     1
102
RTVSPropertyOp59
 70
     1
102
RTVSPropertyOp60
 70
     1
102
RTVSPropertyOp61
 70
     1
102
RTVSPropertyOp62
 70
     1
  0
XRECORD
  5
19C10
102
{ACAD_REACTORS
330
19C0F
102
}
330
19C0F
100
AcDbXrecord
280
     1
102
RTVSPost2010Prop28
280
     0
102
RTVSPost2010PropOp28
 70
     1
102
RTVSPost2010Prop29
280
     1
102
RTVSPost2010PropOp29
 70
     1
102
RTVSPost2010Prop30
280
     1
102
RTVSPost2010PropOp30
 70
     1
102
RTVSPost2010Prop31
280
     0
102
RTVSPost2010PropOp31
 70
     1
102
RTVSPost2010Prop32
280
     0
102
RTVSPost2010PropOp32
 70
     1
102
RTVSPost2010Prop33
280
     0
102
RTVSPost2010PropOp33
 70
     1
102
RTVSPost2010Prop34
280
     0
102
RTVSPost2010PropOp34
 70
     1
102
RTVSPost2010Prop35
280
     0
102
RTVSPost2010PropOp35
 70
     1
102
RTVSPost2010Prop36
280
     0
102
RTVSPost2010PropOp36
 70
     1
102
RTVSPost2010Prop37
 90
       50
102
RTVSPost2010PropOp37
 70
     1
102
RTVSPost2010Prop38
140
0.0
102
RTVSPost2010PropOp38
 70
     1
102
RTVSPost2010Prop39
140
1.0
102
RTVSPost2010PropOp39
 70
     1
102
RTVSPost2010Prop40
 90
        0
102
RTVSPost2010PropOp40
 70
     1
102
RTVSPost2010Prop41ColorIndex
 90
       18
102
RTVSPost2010Prop41ColorRGB
 90
        0
102
RTVSPost2010PropOp41
 70
     1
102
RTVSPost2010Prop42
 90
       50
102
RTVSPost2010PropOp42
 70
     1
102
RTVSPost2010Prop43
 90
        3
102
RTVSPost2010PropOp43
 70
     1
102
RTVSPost2010Prop44ColorIndex
 90
        5
102
RTVSPost2010Prop44ColorRGB
 90
      255
102
RTVSPost2010PropOp44
 70
     1
102
RTVSPost2010Prop45
280
     0
102
RTVSPost2010PropOp45
 70
     1
102
RTVSPost2010Prop46
 90
       50
102
RTVSPost2010PropOp46
 70
     1
102
RTVSPost2010Prop47
 90
       50
102
RTVSPost2010PropOp47
 70
     1
102
RTVSPost2010Prop48
 90
       50
102
RTVSPost2010PropOp48
 70
     1
102
RTVSPost2010Prop49
280
     0
102
RTVSPost2010PropOp49
 70
     1
102
RTVSPost2010Prop50
 90
       50
102
RTVSPost2010PropOp50
 70
     1
102
RTVSPost2010Prop51ColorIndex
 90
      256
102
RTVSPost2010Prop51ColorRGB
 90
-16777216
102
RTVSPost2010PropOp51
 70
     0
102
RTVSPost2010Prop52
140
1.0
102
RTVSPost2010PropOp52
 70
     0
102
RTVSPost2010Prop53
 90
        2
102
RTVSPost2010PropOp53
 70
     1
102
RTVSPost2010Prop54
  1
strokes_ogs.tif
102
RTVSPost2010PropOp54
 70
     1
102
RTVSPost2010Prop55
280
     0
102
RTVSPost2010PropOp55
 70
     1
102
RTVSPost2010Prop56
140
1.0
102
RTVSPost2010PropOp56
 70
     1
102
RTVSPost2010Prop57
140
1.0
102
RTVSPost2010PropOp57
 70
     1
102
RTVSPropertyOp0
 70
     1
102
RTVSPropertyOp1
 70
     1
102
RTVSPropertyOp2
 70
     1
102
RTVSPropertyOp3
 70
     1
102
RTVSPropertyOp4
 70
     1
102
RTVSPropertyOp5
 70
     1
102
RTVSPropertyOp6
 70
     1
102
RTVSPropertyOp7
 70
     1
102
RTVSPropertyOp8
 70
     1
102
RTVSPropertyOp9
 70
     1
102
RTVSPropertyOp10
 70
     1
102
RTVSPropertyOp11
 70
     1
102
RTVSPropertyOp12
 70
     1
102
RTVSPropertyOp13
 70
     1
102
RTVSPropertyOp14
 70
     1
102
RTVSPropertyOp15
 70
     1
102
RTVSPropertyOp16
 70
     1
102
RTVSPropertyOp17
 70
     1
102
RTVSPropertyOp18
 70
     1
102
RTVSPropertyOp19
 70
     1
102
RTVSPropertyOp20
 70
     1
102
RTVSPropertyOp21
 70
     1
102
RTVSPropertyOp22
 70
     1
102
RTVSPropertyOp23
 70
     1
102
RTVSPropertyOp24
 70
     1
102
RTVSPropertyOp25
 70
     1
102
RTVSPropertyOp26
 70
     1
102
RTVSPropertyOp27
 70
     1
102
RTVSPropertyOp28
 70
     1
102
RTVSPropertyOp29
 70
     1
102
RTVSPropertyOp30
 70
     1
102
RTVSPropertyOp31
 70
     1
102
RTVSPropertyOp32
 70
     1
102
RTVSPropertyOp33
 70
     1
102
RTVSPropertyOp34
 70
     1
102
RTVSPropertyOp35
 70
     1
102
RTVSPropertyOp36
 70
     1
102
RTVSPropertyOp37
 70
     1
102
RTVSPropertyOp38
 70
     1
102
RTVSPropertyOp39
 70
     1
102
RTVSPropertyOp40
 70
     1
102
RTVSPropertyOp41
 70
     1
102
RTVSPropertyOp42
 70
     1
102
RTVSPropertyOp43
 70
     1
102
RTVSPropertyOp44
 70
     1
102
RTVSPropertyOp45
 70
     1
102
RTVSPropertyOp46
 70
     1
102
RTVSPropertyOp47
 70
     1
102
RTVSPropertyOp48
 70
     1
102
RTVSPropertyOp49
 70
     1
102
RTVSPropertyOp50
 70
     1
102
RTVSPropertyOp51
 70
     0
102
RTVSPropertyOp52
 70
     0
102
RTVSPropertyOp53
 70
     1
102
RTVSPropertyOp54
 70
     1
102
RTVSPropertyOp55
 70
     1
102
RTVSPropertyOp56
 70
     1
102
RTVSPropertyOp57
 70
     1
102
RTVSPropertyOp58
 70
     1
102
RTVSPropertyOp59
 70
     1
102
RTVSPropertyOp60
 70
     1
102
RTVSPropertyOp61
 70
     1
102
RTVSPropertyOp62
 70
     1
  0
XRECORD
  5
19C12
102
{ACAD_REACTORS
330
19C11
102
}
330
19C11
100
AcDbXrecord
280
     1
102
RTVSPost2010Prop28
280
     0
102
RTVSPost2010PropOp28
 70
     1
102
RTVSPost2010Prop29
280
     1
102
RTVSPost2010PropOp29
 70
     1
102
RTVSPost2010Prop30
280
     1
102
RTVSPost2010PropOp30
 70
     1
102
RTVSPost2010Prop31
280
     0
102
RTVSPost2010PropOp31
 70
     1
102
RTVSPost2010Prop32
280
     0
102
RTVSPost2010PropOp32
 70
     1
102
RTVSPost2010Prop33
280
     0
102
RTVSPost2010PropOp33
 70
     1
102
RTVSPost2010Prop34
280
     0
102
RTVSPost2010PropOp34
 70
     1
102
RTVSPost2010Prop35
280
     0
102
RTVSPost2010PropOp35
 70
     1
102
RTVSPost2010Prop36
280
     0
102
RTVSPost2010PropOp36
 70
     1
102
RTVSPost2010Prop37
 90
       50
102
RTVSPost2010PropOp37
 70
     1
102
RTVSPost2010Prop38
140
0.0
102
RTVSPost2010PropOp38
 70
     1
102
RTVSPost2010Prop39
140
1.0
102
RTVSPost2010PropOp39
 70
     1
102
RTVSPost2010Prop40
 90
        0
102
RTVSPost2010PropOp40
 70
     1
102
RTVSPost2010Prop41ColorIndex
 90
       18
102
RTVSPost2010Prop41ColorRGB
 90
        0
102
RTVSPost2010PropOp41
 70
     1
102
RTVSPost2010Prop42
 90
       50
102
RTVSPost2010PropOp42
 70
     1
102
RTVSPost2010Prop43
 90
        3
102
RTVSPost2010PropOp43
 70
     1
102
RTVSPost2010Prop44ColorIndex
 90
        5
102
RTVSPost2010Prop44ColorRGB
 90
      255
102
RTVSPost2010PropOp44
 70
     1
102
RTVSPost2010Prop45
280
     0
102
RTVSPost2010PropOp45
 70
     1
102
RTVSPost2010Prop46
 90
       50
102
RTVSPost2010PropOp46
 70
     1
102
RTVSPost2010Prop47
 90
       50
102
RTVSPost2010PropOp47
 70
     1
102
RTVSPost2010Prop48
 90
       50
102
RTVSPost2010PropOp48
 70
     1
102
RTVSPost2010Prop49
280
     0
102
RTVSPost2010PropOp49
 70
     1
102
RTVSPost2010Prop50
 90
       50
102
RTVSPost2010PropOp50
 70
     1
102
RTVSPost2010Prop51ColorIndex
 90
      256
102
RTVSPost2010Prop51ColorRGB
 90
-16777216
102
RTVSPost2010PropOp51
 70
     0
102
RTVSPost2010Prop52
140
1.0
102
RTVSPost2010PropOp52
 70
     0
102
RTVSPost2010Prop53
 90
        2
102
RTVSPost2010PropOp53
 70
     1
102
RTVSPost2010Prop54
  1
strokes_ogs.tif
102
RTVSPost2010PropOp54
 70
     1
102
RTVSPost2010Prop55
280
     0
102
RTVSPost2010PropOp55
 70
     1
102
RTVSPost2010Prop56
140
1.0
102
RTVSPost2010PropOp56
 70
     1
102
RTVSPost2010Prop57
140
1.0
102
RTVSPost2010PropOp57
 70
     1
102
RTVSPropertyOp0
 70
     1
102
RTVSPropertyOp1
 70
     1
102
RTVSPropertyOp2
 70
     1
102
RTVSPropertyOp3
 70
     1
102
RTVSPropertyOp4
 70
     1
102
RTVSPropertyOp5
 70
     1
102
RTVSPropertyOp6
 70
     1
102
RTVSPropertyOp7
 70
     1
102
RTVSPropertyOp8
 70
     1
102
RTVSPropertyOp9
 70
     1
102
RTVSPropertyOp10
 70
     1
102
RTVSPropertyOp11
 70
     1
102
RTVSPropertyOp12
 70
     1
102
RTVSPropertyOp13
 70
     1
102
RTVSPropertyOp14
 70
     1
102
RTVSPropertyOp15
 70
     1
102
RTVSPropertyOp16
 70
     1
102
RTVSPropertyOp17
 70
     1
102
RTVSPropertyOp18
 70
     1
102
RTVSPropertyOp19
 70
     1
102
RTVSPropertyOp20
 70
     1
102
RTVSPropertyOp21
 70
     1
102
RTVSPropertyOp22
 70
     1
102
RTVSPropertyOp23
 70
     1
102
RTVSPropertyOp24
 70
     1
102
RTVSPropertyOp25
 70
     1
102
RTVSPropertyOp26
 70
     1
102
RTVSPropertyOp27
 70
     1
102
RTVSPropertyOp28
 70
     1
102
RTVSPropertyOp29
 70
     1
102
RTVSPropertyOp30
 70
     1
102
RTVSPropertyOp31
 70
     1
102
RTVSPropertyOp32
 70
     1
102
RTVSPropertyOp33
 70
     1
102
RTVSPropertyOp34
 70
     1
102
RTVSPropertyOp35
 70
     1
102
RTVSPropertyOp36
 70
     1
102
RTVSPropertyOp37
 70
     1
102
RTVSPropertyOp38
 70
     1
102
RTVSPropertyOp39
 70
     1
102
RTVSPropertyOp40
 70
     1
102
RTVSPropertyOp41
 70
     1
102
RTVSPropertyOp42
 70
     1
102
RTVSPropertyOp43
 70
     1
102
RTVSPropertyOp44
 70
     1
102
RTVSPropertyOp45
 70
     1
102
RTVSPropertyOp46
 70
     1
102
RTVSPropertyOp47
 70
     1
102
RTVSPropertyOp48
 70
     1
102
RTVSPropertyOp49
 70
     1
102
RTVSPropertyOp50
 70
     1
102
RTVSPropertyOp51
 70
     0
102
RTVSPropertyOp52
 70
     0
102
RTVSPropertyOp53
 70
     1
102
RTVSPropertyOp54
 70
     1
102
RTVSPropertyOp55
 70
     1
102
RTVSPropertyOp56
 70
     1
102
RTVSPropertyOp57
 70
     1
102
RTVSPropertyOp58
 70
     1
102
RTVSPropertyOp59
 70
     1
102
RTVSPropertyOp60
 70
     1
102
RTVSPropertyOp61
 70
     1
102
RTVSPropertyOp62
 70
     1
  0
XRECORD
  5
19C08
102
{ACAD_REACTORS
330
19C07
102
}
330
19C07
100
AcDbXrecord
280
     1
102
RTVSPost2010Prop28
280
     0
102
RTVSPost2010PropOp28
 70
     1
102
RTVSPost2010Prop29
280
     1
102
RTVSPost2010PropOp29
 70
     1
102
RTVSPost2010Prop30
280
     1
102
RTVSPost2010PropOp30
 70
     1
102
RTVSPost2010Prop31
280
     0
102
RTVSPost2010PropOp31
 70
     1
102
RTVSPost2010Prop32
280
     0
102
RTVSPost2010PropOp32
 70
     1
102
RTVSPost2010Prop33
280
     0
102
RTVSPost2010PropOp33
 70
     1
102
RTVSPost2010Prop34
280
     0
102
RTVSPost2010PropOp34
 70
     1
102
RTVSPost2010Prop35
280
     0
102
RTVSPost2010PropOp35
 70
     1
102
RTVSPost2010Prop36
280
     0
102
RTVSPost2010PropOp36
 70
     1
102
RTVSPost2010Prop37
 90
       50
102
RTVSPost2010PropOp37
 70
     1
102
RTVSPost2010Prop38
140
0.0
102
RTVSPost2010PropOp38
 70
     1
102
RTVSPost2010Prop39
140
1.0
102
RTVSPost2010PropOp39
 70
     1
102
RTVSPost2010Prop40
 90
        0
102
RTVSPost2010PropOp40
 70
     1
102
RTVSPost2010Prop41ColorIndex
 90
       18
102
RTVSPost2010Prop41ColorRGB
 90
        0
102
RTVSPost2010PropOp41
 70
     1
102
RTVSPost2010Prop42
 90
       50
102
RTVSPost2010PropOp42
 70
     1
102
RTVSPost2010Prop43
 90
        3
102
RTVSPost2010PropOp43
 70
     1
102
RTVSPost2010Prop44ColorIndex
 90
        5
102
RTVSPost2010Prop44ColorRGB
 90
      255
102
RTVSPost2010PropOp44
 70
     1
102
RTVSPost2010Prop45
280
     0
102
RTVSPost2010PropOp45
 70
     1
102
RTVSPost2010Prop46
 90
       50
102
RTVSPost2010PropOp46
 70
     1
102
RTVSPost2010Prop47
 90
       50
102
RTVSPost2010PropOp47
 70
     1
102
RTVSPost2010Prop48
 90
       50
102
RTVSPost2010PropOp48
 70
     1
102
RTVSPost2010Prop49
280
     0
102
RTVSPost2010PropOp49
 70
     1
102
RTVSPost2010Prop50
 90
       50
102
RTVSPost2010PropOp50
 70
     1
102
RTVSPost2010Prop51ColorIndex
 90
      256
102
RTVSPost2010Prop51ColorRGB
 90
-16777216
102
RTVSPost2010PropOp51
 70
     0
102
RTVSPost2010Prop52
140
1.0
102
RTVSPost2010PropOp52
 70
     0
102
RTVSPost2010Prop53
 90
        2
102
RTVSPost2010PropOp53
 70
     1
102
RTVSPost2010Prop54
  1
strokes_ogs.tif
102
RTVSPost2010PropOp54
 70
     1
102
RTVSPost2010Prop55
280
     0
102
RTVSPost2010PropOp55
 70
     1
102
RTVSPost2010Prop56
140
1.0
102
RTVSPost2010PropOp56
 70
     1
102
RTVSPost2010Prop57
140
1.0
102
RTVSPost2010PropOp57
 70
     1
102
RTVSPropertyOp0
 70
     1
102
RTVSPropertyOp1
 70
     1
102
RTVSPropertyOp2
 70
     1
102
RTVSPropertyOp3
 70
     1
102
RTVSPropertyOp4
 70
     1
102
RTVSPropertyOp5
 70
     1
102
RTVSPropertyOp6
 70
     1
102
RTVSPropertyOp7
 70
     1
102
RTVSPropertyOp8
 70
     1
102
RTVSPropertyOp9
 70
     1
102
RTVSPropertyOp10
 70
     1
102
RTVSPropertyOp11
 70
     1
102
RTVSPropertyOp12
 70
     1
102
RTVSPropertyOp13
 70
     1
102
RTVSPropertyOp14
 70
     1
102
RTVSPropertyOp15
 70
     1
102
RTVSPropertyOp16
 70
     1
102
RTVSPropertyOp17
 70
     1
102
RTVSPropertyOp18
 70
     1
102
RTVSPropertyOp19
 70
     1
102
RTVSPropertyOp20
 70
     1
102
RTVSPropertyOp21
 70
     1
102
RTVSPropertyOp22
 70
     1
102
RTVSPropertyOp23
 70
     1
102
RTVSPropertyOp24
 70
     1
102
RTVSPropertyOp25
 70
     1
102
RTVSPropertyOp26
 70
     1
102
RTVSPropertyOp27
 70
     1
102
RTVSPropertyOp28
 70
     1
102
RTVSPropertyOp29
 70
     1
102
RTVSPropertyOp30
 70
     1
102
RTVSPropertyOp31
 70
     1
102
RTVSPropertyOp32
 70
     1
102
RTVSPropertyOp33
 70
     1
102
RTVSPropertyOp34
 70
     1
102
RTVSPropertyOp35
 70
     1
102
RTVSPropertyOp36
 70
     1
102
RTVSPropertyOp37
 70
     1
102
RTVSPropertyOp38
 70
     1
102
RTVSPropertyOp39
 70
     1
102
RTVSPropertyOp40
 70
     1
102
RTVSPropertyOp41
 70
     1
102
RTVSPropertyOp42
 70
     1
102
RTVSPropertyOp43
 70
     1
102
RTVSPropertyOp44
 70
     1
102
RTVSPropertyOp45
 70
     1
102
RTVSPropertyOp46
 70
     1
102
RTVSPropertyOp47
 70
     1
102
RTVSPropertyOp48
 70
     1
102
RTVSPropertyOp49
 70
     1
102
RTVSPropertyOp50
 70
     1
102
RTVSPropertyOp51
 70
     0
102
RTVSPropertyOp52
 70
     0
102
RTVSPropertyOp53
 70
     1
102
RTVSPropertyOp54
 70
     1
102
RTVSPropertyOp55
 70
     1
102
RTVSPropertyOp56
 70
     1
102
RTVSPropertyOp57
 70
     1
102
RTVSPropertyOp58
 70
     1
102
RTVSPropertyOp59
 70
     1
102
RTVSPropertyOp60
 70
     1
102
RTVSPropertyOp61
 70
     1
102
RTVSPropertyOp62
 70
     1
  0
XRECORD
  5
19BFC
102
{ACAD_REACTORS
330
19BFB
102
}
330
19BFB
100
AcDbXrecord
280
     1
102
RTVSPost2010Prop28
280
     0
102
RTVSPost2010PropOp28
 70
     1
102
RTVSPost2010Prop29
280
     1
102
RTVSPost2010PropOp29
 70
     1
102
RTVSPost2010Prop30
280
     1
102
RTVSPost2010PropOp30
 70
     1
102
RTVSPost2010Prop31
280
     0
102
RTVSPost2010PropOp31
 70
     1
102
RTVSPost2010Prop32
280
     0
102
RTVSPost2010PropOp32
 70
     1
102
RTVSPost2010Prop33
280
     0
102
RTVSPost2010PropOp33
 70
     1
102
RTVSPost2010Prop34
280
     0
102
RTVSPost2010PropOp34
 70
     1
102
RTVSPost2010Prop35
280
     0
102
RTVSPost2010PropOp35
 70
     1
102
RTVSPost2010Prop36
280
     0
102
RTVSPost2010PropOp36
 70
     1
102
RTVSPost2010Prop37
 90
       50
102
RTVSPost2010PropOp37
 70
     1
102
RTVSPost2010Prop38
140
0.0
102
RTVSPost2010PropOp38
 70
     1
102
RTVSPost2010Prop39
140
1.0
102
RTVSPost2010PropOp39
 70
     1
102
RTVSPost2010Prop40
 90
        0
102
RTVSPost2010PropOp40
 70
     1
102
RTVSPost2010Prop41ColorIndex
 90
       18
102
RTVSPost2010Prop41ColorRGB
 90
        0
102
RTVSPost2010PropOp41
 70
     1
102
RTVSPost2010Prop42
 90
       50
102
RTVSPost2010PropOp42
 70
     1
102
RTVSPost2010Prop43
 90
        3
102
RTVSPost2010PropOp43
 70
     1
102
RTVSPost2010Prop44ColorIndex
 90
        5
102
RTVSPost2010Prop44ColorRGB
 90
      255
102
RTVSPost2010PropOp44
 70
     1
102
RTVSPost2010Prop45
280
     0
102
RTVSPost2010PropOp45
 70
     1
102
RTVSPost2010Prop46
 90
       50
102
RTVSPost2010PropOp46
 70
     1
102
RTVSPost2010Prop47
 90
       50
102
RTVSPost2010PropOp47
 70
     1
102
RTVSPost2010Prop48
 90
       50
102
RTVSPost2010PropOp48
 70
     1
102
RTVSPost2010Prop49
280
     0
102
RTVSPost2010PropOp49
 70
     1
102
RTVSPost2010Prop50
 90
       50
102
RTVSPost2010PropOp50
 70
     1
102
RTVSPost2010Prop51ColorIndex
 90
      256
102
RTVSPost2010Prop51ColorRGB
 90
-16777216
102
RTVSPost2010PropOp51
 70
     0
102
RTVSPost2010Prop52
140
1.0
102
RTVSPost2010PropOp52
 70
     0
102
RTVSPost2010Prop53
 90
        2
102
RTVSPost2010PropOp53
 70
     1
102
RTVSPost2010Prop54
  1
strokes_ogs.tif
102
RTVSPost2010PropOp54
 70
     1
102
RTVSPost2010Prop55
280
     0
102
RTVSPost2010PropOp55
 70
     1
102
RTVSPost2010Prop56
140
1.0
102
RTVSPost2010PropOp56
 70
     1
102
RTVSPost2010Prop57
140
1.0
102
RTVSPost2010PropOp57
 70
     1
102
RTVSPropertyOp0
 70
     1
102
RTVSPropertyOp1
 70
     1
102
RTVSPropertyOp2
 70
     1
102
RTVSPropertyOp3
 70
     1
102
RTVSPropertyOp4
 70
     1
102
RTVSPropertyOp5
 70
     1
102
RTVSPropertyOp6
 70
     1
102
RTVSPropertyOp7
 70
     1
102
RTVSPropertyOp8
 70
     1
102
RTVSPropertyOp9
 70
     1
102
RTVSPropertyOp10
 70
     1
102
RTVSPropertyOp11
 70
     1
102
RTVSPropertyOp12
 70
     1
102
RTVSPropertyOp13
 70
     1
102
RTVSPropertyOp14
 70
     1
102
RTVSPropertyOp15
 70
     1
102
RTVSPropertyOp16
 70
     1
102
RTVSPropertyOp17
 70
     1
102
RTVSPropertyOp18
 70
     1
102
RTVSPropertyOp19
 70
     1
102
RTVSPropertyOp20
 70
     1
102
RTVSPropertyOp21
 70
     1
102
RTVSPropertyOp22
 70
     1
102
RTVSPropertyOp23
 70
     1
102
RTVSPropertyOp24
 70
     1
102
RTVSPropertyOp25
 70
     1
102
RTVSPropertyOp26
 70
     1
102
RTVSPropertyOp27
 70
     1
102
RTVSPropertyOp28
 70
     1
102
RTVSPropertyOp29
 70
     1
102
RTVSPropertyOp30
 70
     1
102
RTVSPropertyOp31
 70
     1
102
RTVSPropertyOp32
 70
     1
102
RTVSPropertyOp33
 70
     1
102
RTVSPropertyOp34
 70
     1
102
RTVSPropertyOp35
 70
     1
102
RTVSPropertyOp36
 70
     1
102
RTVSPropertyOp37
 70
     1
102
RTVSPropertyOp38
 70
     1
102
RTVSPropertyOp39
 70
     1
102
RTVSPropertyOp40
 70
     1
102
RTVSPropertyOp41
 70
     1
102
RTVSPropertyOp42
 70
     1
102
RTVSPropertyOp43
 70
     1
102
RTVSPropertyOp44
 70
     1
102
RTVSPropertyOp45
 70
     1
102
RTVSPropertyOp46
 70
     1
102
RTVSPropertyOp47
 70
     1
102
RTVSPropertyOp48
 70
     1
102
RTVSPropertyOp49
 70
     1
102
RTVSPropertyOp50
 70
     1
102
RTVSPropertyOp51
 70
     0
102
RTVSPropertyOp52
 70
     0
102
RTVSPropertyOp53
 70
     1
102
RTVSPropertyOp54
 70
     1
102
RTVSPropertyOp55
 70
     1
102
RTVSPropertyOp56
 70
     1
102
RTVSPropertyOp57
 70
     1
102
RTVSPropertyOp58
 70
     1
102
RTVSPropertyOp59
 70
     1
102
RTVSPropertyOp60
 70
     1
102
RTVSPropertyOp61
 70
     1
102
RTVSPropertyOp62
 70
     1
  0
XRECORD
  5
19C14
102
{ACAD_REACTORS
330
19C13
102
}
330
19C13
100
AcDbXrecord
280
     1
102
RTVSPost2010Prop28
280
     0
102
RTVSPost2010PropOp28
 70
     1
102
RTVSPost2010Prop29
280
     1
102
RTVSPost2010PropOp29
 70
     1
102
RTVSPost2010Prop30
280
     1
102
RTVSPost2010PropOp30
 70
     1
102
RTVSPost2010Prop31
280
     0
102
RTVSPost2010PropOp31
 70
     1
102
RTVSPost2010Prop32
280
     0
102
RTVSPost2010PropOp32
 70
     1
102
RTVSPost2010Prop33
280
     0
102
RTVSPost2010PropOp33
 70
     1
102
RTVSPost2010Prop34
280
     0
102
RTVSPost2010PropOp34
 70
     1
102
RTVSPost2010Prop35
280
     0
102
RTVSPost2010PropOp35
 70
     1
102
RTVSPost2010Prop36
280
     0
102
RTVSPost2010PropOp36
 70
     1
102
RTVSPost2010Prop37
 90
       50
102
RTVSPost2010PropOp37
 70
     1
102
RTVSPost2010Prop38
140
0.0
102
RTVSPost2010PropOp38
 70
     1
102
RTVSPost2010Prop39
140
1.0
102
RTVSPost2010PropOp39
 70
     1
102
RTVSPost2010Prop40
 90
        0
102
RTVSPost2010PropOp40
 70
     1
102
RTVSPost2010Prop41ColorIndex
 90
       18
102
RTVSPost2010Prop41ColorRGB
 90
        0
102
RTVSPost2010PropOp41
 70
     1
102
RTVSPost2010Prop42
 90
       50
102
RTVSPost2010PropOp42
 70
     1
102
RTVSPost2010Prop43
 90
        3
102
RTVSPost2010PropOp43
 70
     1
102
RTVSPost2010Prop44ColorIndex
 90
        5
102
RTVSPost2010Prop44ColorRGB
 90
      255
102
RTVSPost2010PropOp44
 70
     1
102
RTVSPost2010Prop45
280
     0
102
RTVSPost2010PropOp45
 70
     1
102
RTVSPost2010Prop46
 90
       50
102
RTVSPost2010PropOp46
 70
     1
102
RTVSPost2010Prop47
 90
       50
102
RTVSPost2010PropOp47
 70
     1
102
RTVSPost2010Prop48
 90
       50
102
RTVSPost2010PropOp48
 70
     1
102
RTVSPost2010Prop49
280
     0
102
RTVSPost2010PropOp49
 70
     1
102
RTVSPost2010Prop50
 90
       50
102
RTVSPost2010PropOp50
 70
     1
102
RTVSPost2010Prop51ColorIndex
 90
      256
102
RTVSPost2010Prop51ColorRGB
 90
-16777216
102
RTVSPost2010PropOp51
 70
     0
102
RTVSPost2010Prop52
140
1.0
102
RTVSPost2010PropOp52
 70
     0
102
RTVSPost2010Prop53
 90
        2
102
RTVSPost2010PropOp53
 70
     1
102
RTVSPost2010Prop54
  1
strokes_ogs.tif
102
RTVSPost2010PropOp54
 70
     1
102
RTVSPost2010Prop55
280
     0
102
RTVSPost2010PropOp55
 70
     1
102
RTVSPost2010Prop56
140
1.0
102
RTVSPost2010PropOp56
 70
     1
102
RTVSPost2010Prop57
140
1.0
102
RTVSPost2010PropOp57
 70
     1
102
RTVSPropertyOp0
 70
     1
102
RTVSPropertyOp1
 70
     1
102
RTVSPropertyOp2
 70
     1
102
RTVSPropertyOp3
 70
     1
102
RTVSPropertyOp4
 70
     1
102
RTVSPropertyOp5
 70
     1
102
RTVSPropertyOp6
 70
     1
102
RTVSPropertyOp7
 70
     1
102
RTVSPropertyOp8
 70
     1
102
RTVSPropertyOp9
 70
     1
102
RTVSPropertyOp10
 70
     1
102
RTVSPropertyOp11
 70
     1
102
RTVSPropertyOp12
 70
     1
102
RTVSPropertyOp13
 70
     1
102
RTVSPropertyOp14
 70
     1
102
RTVSPropertyOp15
 70
     1
102
RTVSPropertyOp16
 70
     1
102
RTVSPropertyOp17
 70
     1
102
RTVSPropertyOp18
 70
     1
102
RTVSPropertyOp19
 70
     1
102
RTVSPropertyOp20
 70
     1
102
RTVSPropertyOp21
 70
     1
102
RTVSPropertyOp22
 70
     1
102
RTVSPropertyOp23
 70
     1
102
RTVSPropertyOp24
 70
     1
102
RTVSPropertyOp25
 70
     1
102
RTVSPropertyOp26
 70
     1
102
RTVSPropertyOp27
 70
     1
102
RTVSPropertyOp28
 70
     1
102
RTVSPropertyOp29
 70
     1
102
RTVSPropertyOp30
 70
     1
102
RTVSPropertyOp31
 70
     1
102
RTVSPropertyOp32
 70
     1
102
RTVSPropertyOp33
 70
     1
102
RTVSPropertyOp34
 70
     1
102
RTVSPropertyOp35
 70
     1
102
RTVSPropertyOp36
 70
     1
102
RTVSPropertyOp37
 70
     1
102
RTVSPropertyOp38
 70
     1
102
RTVSPropertyOp39
 70
     1
102
RTVSPropertyOp40
 70
     1
102
RTVSPropertyOp41
 70
     1
102
RTVSPropertyOp42
 70
     1
102
RTVSPropertyOp43
 70
     1
102
RTVSPropertyOp44
 70
     1
102
RTVSPropertyOp45
 70
     1
102
RTVSPropertyOp46
 70
     1
102
RTVSPropertyOp47
 70
     1
102
RTVSPropertyOp48
 70
     1
102
RTVSPropertyOp49
 70
     1
102
RTVSPropertyOp50
 70
     1
102
RTVSPropertyOp51
 70
     0
102
RTVSPropertyOp52
 70
     0
102
RTVSPropertyOp53
 70
     1
102
RTVSPropertyOp54
 70
     1
102
RTVSPropertyOp55
 70
     1
102
RTVSPropertyOp56
 70
     1
102
RTVSPropertyOp57
 70
     1
102
RTVSPropertyOp58
 70
     1
102
RTVSPropertyOp59
 70
     1
102
RTVSPropertyOp60
 70
     1
102
RTVSPropertyOp61
 70
     1
102
RTVSPropertyOp62
 70
     1
  0
ENDSEC
  0
EOF
