  0
SECTION
  2
HEADER
  9
$ACADVER
  1
AC1018
  9
$ACADMAINTVER
 70
   104
  9
$DWGCODEPAGE
  3
ANSI_932
  9
$INSBASE
 10
0.0
 20
0.0
 30
0.0
  9
$EXTMIN
 10
-0.04842408
 20
-0.03443446
 30
-0.00000003
  9
$EXTMAX
 10
793.46484967
 20
564.23445371
 30
0.00000008
  9
$LIMMIN
 10
0.0
 20
0.0
  9
$LIMMAX
 10
420.0
 20
297.0
  9
$ORTHOMODE
 70
     0
  9
$REGENMODE
 70
     1
  9
$FILLMODE
 70
     1
  9
$QTEXTMODE
 70
     0
  9
$MIRRTEXT
 70
     0
  9
$LTSCALE
 40
1.0
  9
$ATTMODE
 70
     1
  9
$TEXTSIZE
 40
3.0
  9
$TRACEWID
 40
1.0
  9
$TEXTSTYLE
  7
STANDARD
  9
$CLAYER
  8
0
  9
$CELTYPE
  6
BYLAYER
  9
$CECOLOR
 62
   256
  9
$CELTSCALE
 40
1.0
  9
$DISPSILH
 70
     1
  9
$DIMSCALE
 40
1.0
  9
$DIMASZ
 40
1.5
  9
$DIMEXO
 40
2.0
  9
$DIMDLI
 40
10.0
  9
$DIMRND
 40
0.0
  9
$DIMDLE
 40
0.0
  9
$DIMEXE
 40
2.0
  9
$DIMTP
 40
0.0
  9
$DIMTM
 40
0.0
  9
$DIMTXT
 40
3.0
  9
$DIMCEN
 40
0.0
  9
$DIMTSZ
 40
0.0
  9
$DIMTOL
 70
     0
  9
$DIMLIM
 70
     0
  9
$DIMTIH
 70
     0
  9
$DIMTOH
 70
     0
  9
$DIMSE1
 70
     0
  9
$DIMSE2
 70
     0
  9
$DIMTAD
 70
     0
  9
$DIMZIN
 70
     0
  9
$DIMBLK
  1

  9
$DIMASO
 70
     1
  9
$DIMSHO
 70
     1
  9
$DIMPOST
  1

  9
$DIMAPOST
  1

  9
$DIMALT
 70
     0
  9
$DIMALTD
 70
     2
  9
$DIMALTF
 40
0.0394
  9
$DIMLFAC
 40
1.0
  9
$DIMTOFL
 70
     1
  9
$DIMTVP
 40
1.0
  9
$DIMTIX
 70
     0
  9
$DIMSOXD
 70
     0
  9
$DIMSAH
 70
     1
  9
$DIMBLK1
  1
DOT1
  9
$DIMBLK2
  1
DOT1
  9
$DIMSTYLE
  2
YKK_OSADOT
  9
$DIMCLRD
 70
     0
  9
$DIMCLRE
 70
     0
  9
$DIMCLRT
 70
     0
  9
$DIMTFAC
 40
1.0
  9
$DIMGAP
 40
0.01
  9
$DIMJUST
 70
     0
  9
$DIMSD1
 70
     0
  9
$DIMSD2
 70
     0
  9
$DIMTOLJ
 70
     1
  9
$DIMTZIN
 70
    12
  9
$DIMALTZ
 70
    12
  9
$DIMALTTZ
 70
    12
  9
$DIMUPT
 70
     0
  9
$DIMDEC
 70
     4
  9
$DIMTDEC
 70
     4
  9
$DIMALTU
 70
     2
  9
$DIMALTTD
 70
     2
  9
$DIMTXSTY
  7
STANDARD
  9
$DIMAUNIT
 70
     0
  9
$DIMADEC
 70
     0
  9
$DIMALTRND
 40
0.0
  9
$DIMAZIN
 70
     0
  9
$DIMDSEP
 70
    46
  9
$DIMATFIT
 70
     3
  9
$DIMFRAC
 70
     0
  9
$DIMLDRBLK
  1

  9
$DIMLUNIT
 70
     2
  9
$DIMLWD
 70
    -2
  9
$DIMLWE
 70
    -2
  9
$DIMTMOVE
 70
     2
  9
$LUNITS
 70
     2
  9
$LUPREC
 70
     4
  9
$SKETCHINC
 40
1.0
  9
$FILLETRAD
 40
0.0
  9
$AUNITS
 70
     0
  9
$AUPREC
 70
     0
  9
$MENU
  1
.
  9
$ELEVATION
 40
0.0
  9
$PELEVATION
 40
0.0
  9
$THICKNESS
 40
0.0
  9
$LIMCHECK
 70
     0
  9
$CHAMFERA
 40
0.0
  9
$CHAMFERB
 40
0.0
  9
$CHAMFERC
 40
0.0
  9
$CHAMFERD
 40
0.0
  9
$SKPOLY
 70
     0
  9
$TDCREATE
 40
2452591.511588311
  9
$TDUCREATE
 40
2452591.136588310
  9
$TDUPDATE
 40
2457151.457173530
  9
$TDUUPDATE
 40
2457151.082173530
  9
$TDINDWG
 40
0.0037013889
  9
$TDUSRTIMER
 40
0.0037013889
  9
$USRTIMER
 70
     1
  9
$ANGBASE
 50
0.0
  9
$ANGDIR
 70
     0
  9
$PDMODE
 70
     0
  9
$PDSIZE
 40
0.0
  9
$PLINEWID
 40
0.0
  9
$SPLFRAME
 70
     0
  9
$SPLINETYPE
 70
     6
  9
$SPLINESEGS
 70
     8
  9
$HANDSEED
  5
37B
  9
$SURFTAB1
 70
     6
  9
$SURFTAB2
 70
     6
  9
$SURFTYPE
 70
     6
  9
$SURFU
 70
     6
  9
$SURFV
 70
     6
  9
$UCSBASE
  2

  9
$UCSNAME
  2

  9
$UCSORG
 10
0.0
 20
0.0
 30
0.0
  9
$UCSXDIR
 10
1.0
 20
0.0
 30
0.0
  9
$UCSYDIR
 10
0.0
 20
1.0
 30
0.0
  9
$UCSORTHOREF
  2

  9
$UCSORTHOVIEW
 70
     0
  9
$UCSORGTOP
 10
0.0
 20
0.0
 30
0.0
  9
$UCSORGBOTTOM
 10
0.0
 20
0.0
 30
0.0
  9
$UCSORGLEFT
 10
0.0
 20
0.0
 30
0.0
  9
$UCSORGRIGHT
 10
0.0
 20
0.0
 30
0.0
  9
$UCSORGFRONT
 10
0.0
 20
0.0
 30
0.0
  9
$UCSORGBACK
 10
0.0
 20
0.0
 30
0.0
  9
$PUCSBASE
  2

  9
$PUCSNAME
  2

  9
$PUCSORG
 10
0.0
 20
0.0
 30
0.0
  9
$PUCSXDIR
 10
1.0
 20
0.0
 30
0.0
  9
$PUCSYDIR
 10
0.0
 20
1.0
 30
0.0
  9
$PUCSORTHOREF
  2

  9
$PUCSORTHOVIEW
 70
     0
  9
$PUCSORGTOP
 10
0.0
 20
0.0
 30
0.0
  9
$PUCSORGBOTTOM
 10
0.0
 20
0.0
 30
0.0
  9
$PUCSORGLEFT
 10
0.0
 20
0.0
 30
0.0
  9
$PUCSORGRIGHT
 10
0.0
 20
0.0
 30
0.0
  9
$PUCSORGFRONT
 10
0.0
 20
0.0
 30
0.0
  9
$PUCSORGBACK
 10
0.0
 20
0.0
 30
0.0
  9
$USERI1
 70
     0
  9
$USERI2
 70
     1
  9
$USERI3
 70
     0
  9
$USERI4
 70
     0
  9
$USERI5
 70
     0
  9
$USERR1
 40
0.0
  9
$USERR2
 40
0.0
  9
$USERR3
 40
0.0
  9
$USERR4
 40
0.0
  9
$USERR5
 40
0.0
  9
$WORLDVIEW
 70
     1
  9
$SHADEDGE
 70
     3
  9
$SHADEDIF
 70
    70
  9
$TILEMODE
 70
     1
  9
$MAXACTVP
 70
    48
  9
$PINSBASE
 10
0.0
 20
0.0
 30
0.0
  9
$PLIMCHECK
 70
     0
  9
$PEXTMIN
 10
1.00000000E+20
 20
1.00000000E+20
 30
1.00000000E+20
  9
$PEXTMAX
 10
-1.00000000E+20
 20
-1.00000000E+20
 30
-1.00000000E+20
  9
$PLIMMIN
 10
0.0
 20
0.0
  9
$PLIMMAX
 10
420.0
 20
297.0
  9
$UNITMODE
 70
     0
  9
$VISRETAIN
 70
     1
  9
$PLINEGEN
 70
     0
  9
$PSLTSCALE
 70
     1
  9
$TREEDEPTH
 70
  3020
  9
$CMLSTYLE
  2
STANDARD
  9
$CMLJUST
 70
     0
  9
$CMLSCALE
 40
1.0
  9
$PROXYGRAPHICS
 70
     1
  9
$MEASUREMENT
 70
     1
  9
$CELWEIGHT
370
    -1
  9
$ENDCAPS
280
     0
  9
$JOINSTYLE
280
     0
  9
$LWDISPLAY
290
     0
  9
$INSUNITS
 70
     0
  9
$HYPERLINKBASE
  1

  9
$STYLESHEET
  1

  9
$XEDIT
290
     1
  9
$CEPSNTYPE
380
     0
  9
$PSTYLEMODE
290
     1
  9
$FINGERPRINTGUID
  2
{37B04102-F3C7-4483-AF24-6C911E87478C}
  9
$VERSIONGUID
  2
{CD7F53B6-2487-462E-A169-CBB7BA5C5254}
  9
$EXTNAMES
290
     1
  9
$PSVPSCALE
 40
0.0
  9
$OLESTARTUP
290
     0
  9
$SORTENTS
280
   127
  9
$INDEXCTL
280
     0
  9
$HIDETEXT
280
     0
  9
$XCLIPFRAME
290
     0
  9
$HALOGAP
280
     0
  9
$OBSCOLOR
 70
   257
  9
$OBSLTYPE
280
     0
  9
$INTERSECTIONDISPLAY
280
     0
  9
$INTERSECTIONCOLOR
 70
   257
  9
$DIMASSOC
280
     1
  9
$PROJECTNAME
  1

  0
ENDSEC
  0
SECTION
  2
CLASSES
  0
CLASS
  1
DICTIONARYVAR
  2
AcDbDictionaryVar
  3
ObjectDBX Classes
 90
        0
 91
        7
280
     0
281
     0
  0
CLASS
  1
ACDBDICTIONARYWDFLT
  2
AcDbDictionaryWithDefault
  3
ObjectDBX Classes
 90
        0
 91
        1
280
     1
281
     0
  0
CLASS
  1
MATERIAL
  2
AcDbMaterial
  3
ObjectDBX Classes
 90
     1153
 91
        3
280
     0
281
     0
  0
CLASS
  1
VISUALSTYLE
  2
AcDbVisualStyle
  3
ObjectDBX Classes
 90
     4095
 91
       24
280
     0
281
     0
  0
CLASS
  1
TABLESTYLE
  2
AcDbTableStyle
  3
ObjectDBX Classes
 90
     4095
 91
        1
280
     0
281
     0
  0
CLASS
  1
SCALE
  2
AcDbScale
  3
ObjectDBX Classes
 90
     1153
 91
       17
280
     0
281
     0
  0
CLASS
  1
MLEADERSTYLE
  2
AcDbMLeaderStyle
  3
ACDB_MLEADERSTYLE_CLASS
 90
     4095
 91
        1
280
     0
281
     0
  0
CLASS
  1
ACDBSECTIONVIEWSTYLE
  2
AcDbSectionViewStyle
  3
ObjectDBX Classes
 90
     1025
 91
        1
280
     0
281
     0
  0
CLASS
  1
ACDBDETAILVIEWSTYLE
  2
AcDbDetailViewStyle
  3
ObjectDBX Classes
 90
     1025
 91
        1
280
     0
281
     0
  0
CLASS
  1
CELLSTYLEMAP
  2
AcDbCellStyleMap
  3
ObjectDBX Classes
 90
     1152
 91
        2
280
     0
281
     0
  0
ENDSEC
  0
SECTION
  2
TABLES
  0
TABLE
  2
VPORT
  5
16
330
0
100
AcDbSymbolTable
 70
     1
  0
VPORT
  5
299
330
16
100
AcDbSymbolTableRecord
100
AcDbViewportTableRecord
  2
*ACTIVE
 70
     0
 10
0.0
 20
0.0
 11
1.0
 21
1.0
 12
396.70821279
 22
282.10000963
 13
0.0
 23
0.0
 14
10.0
 24
10.0
 15
10.0
 25
10.0
 16
0.0
 26
0.0
 36
1.0
 17
0.0
 27
0.0
 37
0.0
 40
569.16847331
 41
1.45652174
 42
50.0
 43
0.0
 44
0.0
 50
0.0
 51
0.0
 71
     0
 72
  1000
 73
     1
 74
     0
 75
     0
 76
     0
 77
     0
 78
     0
281
     0
 65
     1
110
0.0
120
0.0
130
0.0
111
1.0
121
0.0
131
0.0
112
0.0
122
1.0
132
0.0
 79
     0
146
0.0
1001
ACAD_NAV_VCDISPLAY
1070
     1
  0
ENDTAB
  0
TABLE
  2
LTYPE
  5
11
330
0
100
AcDbSymbolTable
 70
     4
  0
LTYPE
  5
12
330
11
100
AcDbSymbolTableRecord
100
AcDbLinetypeTableRecord
  2
BYBLOCK
 70
     0
  3

 72
    65
 73
     0
 40
0.0
  0
LTYPE
  5
13
330
11
100
AcDbSymbolTableRecord
100
AcDbLinetypeTableRecord
  2
BYLAYER
 70
     0
  3

 72
    65
 73
     0
 40
0.0
  0
LTYPE
  5
7
330
11
100
AcDbSymbolTableRecord
100
AcDbLinetypeTableRecord
  2
CONTINUOUS
 70
     0
  3
Solid line
 72
    65
 73
     0
 40
0.0
  0
LTYPE
  5
3A
330
11
100
AcDbSymbolTableRecord
100
AcDbLinetypeTableRecord
  2
HIDDEN
 70
     0
  3
__ __ __ __ __ __ __ __ __ __ __ __ __ __ __ __
 72
    65
 73
     2
 40
0.375
 49
0.25
 74
     0
 49
-0.125
 74
     0
  0
LTYPE
  5
232
330
11
100
AcDbSymbolTableRecord
100
AcDbLinetypeTableRecord
  2
YCENTER_1
 70
     0
  3
中心線尺度1--- － --- － ---
 72
    65
 73
     4
 40
13.0
 49
10.0
 74
     0
 49
-1.0
 74
     0
 49
1.0
 74
     0
 49
-1.0
 74
     0
  0
LTYPE
  5
EE
330
11
100
AcDbSymbolTableRecord
100
AcDbLinetypeTableRecord
  2
YHIDDEN_1
 70
     0
  3
破線尺度1－ － － － － － －
 72
    65
 73
     2
 40
4.0
 49
3.0
 74
     0
 49
-1.0
 74
     0
  0
ENDTAB
  0
TABLE
  2
LAYER
  5
E
330
0
100
AcDbSymbolTable
 70
     8
  0
LAYER
  5
6
330
E
100
AcDbSymbolTableRecord
100
AcDbLayerTableRecord
  2
0
 70
     0
 62
     7
  6
CONTINUOUS
370
    -3
390
29C
  0
LAYER
  5
31
330
E
100
AcDbSymbolTableRecord
100
AcDbLayerTableRecord
  2
YKK_ZWAK
 70
     0
 62
     7
  6
CONTINUOUS
370
    -3
390
29C
  0
LAYER
  5
2F
330
E
100
AcDbSymbolTableRecord
100
AcDbLayerTableRecord
  2
USER1
 70
     0
 62
     3
  6
CONTINUOUS
370
    -3
390
29C
  0
LAYER
  5
2C
330
E
100
AcDbSymbolTableRecord
100
AcDbLayerTableRecord
  2
YKK_11
 70
     0
 62
     7
  6
CONTINUOUS
370
    -3
390
29C
  0
LAYER
  5
F7
330
E
100
AcDbSymbolTableRecord
100
AcDbLayerTableRecord
  2
YKK_12
 70
     0
 62
     2
  6
CONTINUOUS
370
    -3
390
29C
  0
LAYER
  5
ED
330
E
100
AcDbSymbolTableRecord
100
AcDbLayerTableRecord
  2
YKK_13
 70
     0
 62
     4
  6
CONTINUOUS
370
    -3
390
29C
  0
LAYER
  5
231
330
E
100
AcDbSymbolTableRecord
100
AcDbLayerTableRecord
  2
YKK_A1
 70
     0
 62
     4
  6
CONTINUOUS
370
    -3
390
29C
  0
LAYER
  5
F1
330
E
100
AcDbSymbolTableRecord
100
AcDbLayerTableRecord
  2
YKK_D
 70
     0
 62
     6
  6
CONTINUOUS
370
    -3
390
29C
  0
ENDTAB
  0
TABLE
  2
STYLE
  5
F
330
0
100
AcDbSymbolTable
 70
     2
  0
STYLE
  5
10
330
F
100
AcDbSymbolTableRecord
100
AcDbTextStyleTableRecord
  2
STANDARD
 70
     0
 40
0.0
 41
1.0
 50
0.0
 71
     0
 42
3.0
  3
ROMANS.SHX
  4
EXTFONT.SHX
  0
STYLE
  5
40
330
F
100
AcDbSymbolTableRecord
100
AcDbTextStyleTableRecord
  2
YKK_OSSTYLE1
 70
     0
 40
0.0
 41
0.9
 50
0.0
 71
     0
 42
4.0
  3
romans.shx
  4
EXTFONT.SHX
  0
ENDTAB
  0
TABLE
  2
VIEW
  5
14
330
0
100
AcDbSymbolTable
 70
     0
  0
ENDTAB
  0
TABLE
  2
UCS
  5
15
330
0
100
AcDbSymbolTable
 70
     0
  0
ENDTAB
  0
TABLE
  2
APPID
  5
18
330
0
100
AcDbSymbolTable
 70
     7
  0
APPID
  5
19
330
18
100
AcDbSymbolTableRecord
100
AcDbRegAppTableRecord
  2
ACAD
 70
     0
  0
APPID
  5
296
330
18
100
AcDbSymbolTableRecord
100
AcDbRegAppTableRecord
  2
CONTENTTABDATA
 70
     0
  0
APPID
  5
297
330
18
100
AcDbSymbolTableRecord
100
AcDbRegAppTableRecord
  2
CONTENTCURRENTTAB
 70
     0
  0
APPID
  5
327
330
18
100
AcDbSymbolTableRecord
100
AcDbRegAppTableRecord
  2
ACAD_MLEADERVER
 70
     0
  0
APPID
  5
33B
330
18
100
AcDbSymbolTableRecord
100
AcDbRegAppTableRecord
  2
ACAD_PSEXT
 70
     0
  0
APPID
  5
33C
330
18
100
AcDbSymbolTableRecord
100
AcDbRegAppTableRecord
  2
ACAD_NAV_VCDISPLAY
 70
     0
  0
APPID
  5
33D
330
18
100
AcDbSymbolTableRecord
100
AcDbRegAppTableRecord
  2
YKK_AP_LOCKLAYER
 70
     0
  0
ENDTAB
  0
TABLE
  2
DIMSTYLE
  5
1A
330
0
100
AcDbSymbolTable
 70
     1
100
AcDbDimStyleTable
 71
     0
  0
DIMSTYLE
105
22
330
1A
100
AcDbSymbolTableRecord
100
AcDbDimStyleTableRecord
  2
YKK_OSADOT
 70
     0
 41
1.5
 42
2.0
 43
10.0
 44
2.0
 73
     0
 74
     0
 78
    12
140
3.0
141
0.0
143
0.0394
145
1.0
147
0.01
172
     1
173
     1
279
     2
284
    12
285
    12
286
    12
340
10
341
25
343
25
344
25
  0
ENDTAB
  0
TABLE
  2
BLOCK_RECORD
  5
1
330
0
100
AcDbSymbolTable
 70
     2
  0
BLOCK_RECORD
  5
2
102
{ACAD_XDICTIONARY
360
3
102
}
330
1
100
AcDbSymbolTableRecord
100
AcDbBlockTableRecord
  2
*MODEL_SPACE
340
2EE
  0
BLOCK_RECORD
  5
9
102
{ACAD_XDICTIONARY
360
A
102
}
330
1
100
AcDbSymbolTableRecord
100
AcDbBlockTableRecord
  2
*PAPER_SPACE
340
2EF
  0
BLOCK_RECORD
  5
25
330
1
100
AcDbSymbolTableRecord
100
AcDbBlockTableRecord
  2
DOT1
340
0
  0
BLOCK_RECORD
  5
32
330
1
100
AcDbSymbolTableRecord
100
AcDbBlockTableRecord
  2
A201
340
0
102
{BLKREFS
331
30
102
}
  0
ENDTAB
  0
ENDSEC
  0
SECTION
  2
BLOCKS
  0
BLOCK
  5
5
330
2
100
AcDbEntity
  8
0
100
AcDbBlockBegin
  2
*MODEL_SPACE
 70
     0
 10
0.0
 20
0.0
 30
0.0
  3
*MODEL_SPACE
  1

  0
ENDBLK
  5
8
330
2
100
AcDbEntity
  8
0
100
AcDbBlockEnd
  0
BLOCK
  5
C
330
9
100
AcDbEntity
 67
     1
  8
0
100
AcDbBlockBegin
  2
*PAPER_SPACE
 70
     0
 10
0.0
 20
0.0
 30
0.0
  3
*PAPER_SPACE
  1

  0
ENDBLK
  5
D
330
9
100
AcDbEntity
 67
     1
  8
0
100
AcDbBlockEnd
  0
BLOCK
  5
29
330
25
100
AcDbEntity
  8
0
100
AcDbBlockBegin
  2
DOT1
 70
     0
 10
0.0
 20
0.0
 30
0.0
  3
DOT1
  1

  0
CIRCLE
  5
26
330
25
100
AcDbEntity
  8
0
  6
ByBlock
 62
     0
370
    -2
100
AcDbCircle
 10
0.0
 20
0.0
 30
0.0
 40
0.5
  0
CIRCLE
  5
27
330
25
100
AcDbEntity
  8
0
  6
ByBlock
 62
     0
370
    -2
100
AcDbCircle
 10
0.0
 20
0.0
 30
0.0
 40
0.325
  0
LINE
  5
28
330
25
100
AcDbEntity
  8
0
  6
ByBlock
 62
     0
370
    -2
100
AcDbLine
 10
0.0
 20
0.0
 30
0.0
 11
-1.0
 21
0.0
 31
0.0
  0
ENDBLK
  5
2A
330
25
100
AcDbEntity
  8
0
100
AcDbBlockEnd
  0
BLOCK
  5
EA
330
32
100
AcDbEntity
  8
0
100
AcDbBlockBegin
  2
A201
 70
     0
 10
0.0
 20
0.0
 30
0.0
  3
A201
  1

  0
LINE
  5
33
330
32
100
AcDbEntity
  8
YKK_ZWAK
  6
Continuous
 62
   254
100
AcDbLine
 10
21.000001
 20
8.9995
 30
0.0
 11
544.000013
 21
8.9995
 31
0.0
  0
LINE
  5
34
330
32
100
AcDbEntity
  8
YKK_ZWAK
  6
Continuous
 62
   131
100
AcDbLine
 10
205.000005
 20
21.000001
 30
0.0
 11
297.000007
 21
21.000001
 31
0.0
  0
LINE
  5
35
330
32
100
AcDbEntity
  8
YKK_ZWAK
  6
Continuous
 62
   254
100
AcDbLine
 10
571.000014
 20
34.999501
 30
0.0
 11
21.000001
 21
34.999501
 31
0.0
  0
LINE
  5
36
330
32
100
AcDbEntity
  8
YKK_ZWAK
  6
Continuous
 62
   254
100
AcDbLine
 10
544.000013
 20
33.999501
 30
0.0
 11
21.000001
 21
33.999501
 31
0.0
  0
LINE
  5
37
330
32
100
AcDbEntity
  8
YKK_ZWAK
  6
Continuous
 62
   254
100
AcDbLine
 10
571.000014
 20
409.99951
 30
0.0
 11
21.000001
 21
409.99951
 31
0.0
  0
LINE
  5
38
330
32
100
AcDbEntity
  8
YKK_ZWAK
  6
Continuous
 62
   254
100
AcDbLine
 10
21.000001
 20
34.999501
 30
0.0
 11
21.000001
 21
409.99951
 31
0.0
  0
LINE
  5
39
330
32
100
AcDbEntity
  8
YKK_ZWAK
  6
HIDDEN
 62
   131
100
AcDbLine
 10
24.284751
 20
13.7865
 30
0.0
 11
201.565005
 21
13.7865
 31
0.0
  0
LINE
  5
3B
330
32
100
AcDbEntity
  8
YKK_ZWAK
  6
HIDDEN
 62
   131
100
AcDbLine
 10
24.284751
 20
18.7355
 30
0.0
 11
201.565005
 21
18.7355
 31
0.0
  0
LINE
  5
3C
330
32
100
AcDbEntity
  8
YKK_ZWAK
  6
HIDDEN
 62
   131
100
AcDbLine
 10
24.284751
 20
23.684501
 30
0.0
 11
201.565005
 21
23.684501
 31
0.0
  0
LINE
  5
3D
330
32
100
AcDbEntity
  8
YKK_ZWAK
  6
HIDDEN
 62
   131
100
AcDbLine
 10
24.284751
 20
28.633501
 30
0.0
 11
201.565005
 21
28.633501
 31
0.0
  0
LINE
  5
3E
330
32
100
AcDbEntity
  8
YKK_ZWAK
  6
Continuous
 62
   254
100
AcDbLine
 10
21.000001
 20
8.9995
 30
0.0
 11
21.000001
 21
33.999501
 31
0.0
  0
TEXT
  5
3F
330
32
100
AcDbEntity
  8
YKK_ZWAK
  6
Continuous
 62
   131
100
AcDbText
 10
24.367481
 20
29.394844
 30
0.0
 40
3.0
  1
変 更 記 事
 41
0.9
  7
YKK_OSSTYLE1
100
AcDbText
  0
TEXT
  5
41
330
32
100
AcDbEntity
  8
YKK_ZWAK
  6
Continuous
 62
   254
100
AcDbText
 10
289.94159
 20
12.3725
 30
0.0
 40
5.0
  1
殿
 41
0.9
  7
YKK_OSSTYLE1
100
AcDbText
  0
LINE
  5
42
330
32
100
AcDbEntity
  8
YKK_ZWAK
  6
Continuous
 62
   254
100
AcDbLine
 10
296.000007
 20
33.999501
 30
0.0
 11
296.000007
 21
8.9995
 31
0.0
  0
LINE
  5
43
330
32
100
AcDbEntity
  8
YKK_ZWAK
  6
Continuous
 62
   254
100
AcDbLine
 10
205.000005
 20
33.999501
 30
0.0
 11
205.000005
 21
8.9995
 31
0.0
  0
TEXT
  5
44
330
32
100
AcDbEntity
  8
YKK_ZWAK
  6
Continuous
 62
   131
100
AcDbText
 10
207.692335
 20
17.675001
 30
0.0
 40
3.0
  1
施　　工
 41
0.9
  7
YKK_OSSTYLE1
100
AcDbText
  0
TEXT
  5
45
330
32
100
AcDbEntity
  8
YKK_ZWAK
  6
Continuous
 62
   131
100
AcDbText
 10
207.692335
 20
30.047503
 30
0.0
 40
3.0
  1
設計監理
 41
0.9
  7
YKK_OSSTYLE1
100
AcDbText
  0
TEXT
  5
46
330
32
100
AcDbEntity
  8
YKK_ZWAK
  6
Continuous
 62
   254
100
AcDbText
 10
289.94159
 20
24.745001
 30
0.0
 40
5.0
  1
殿
 41
0.9
  7
YKK_OSSTYLE1
100
AcDbText
  0
LINE
  5
47
330
32
100
AcDbEntity
  8
YKK_ZWAK
  6
Continuous
 62
   254
100
AcDbLine
 10
19.000001
 20
222.4995055
 30
0.0
 11
21.000001
 21
222.4995055
 31
0.0
  0
LINE
  5
48
330
32
100
AcDbEntity
  8
YKK_ZWAK
  6
Continuous
 62
     8
100
AcDbLine
 10
296.010007
 20
411.99951
 30
0.0
 11
296.010007
 21
409.99951
 31
0.0
  0
LINE
  5
49
330
32
100
AcDbEntity
  8
YKK_ZWAK
  6
Continuous
 62
   254
100
AcDbLine
 10
571.000014
 20
409.99951
 30
0.0
 11
571.000014
 21
34.999501
 31
0.0
  0
LINE
  5
4A
330
32
100
AcDbEntity
  8
YKK_ZWAK
  6
Continuous
 62
   254
100
AcDbLine
 10
452.000011
 20
15.9995
 30
0.0
 11
523.999763
 21
15.9995
 31
0.0
  0
LINE
  5
4B
330
32
100
AcDbEntity
  8
YKK_ZWAK
  6
Continuous
 62
   131
100
AcDbLine
 10
437.703011
 20
29.000001
 30
0.0
 11
389.00001
 21
29.000001
 31
0.0
  0
LINE
  5
4C
330
32
100
AcDbEntity
  8
YKK_ZWAK
  6
Continuous
 62
   254
100
AcDbLine
 10
389.00001
 20
33.999501
 30
0.0
 11
389.00001
 21
8.9995
 31
0.0
  0
LINE
  5
4D
330
32
100
AcDbEntity
  8
YKK_ZWAK
  6
Continuous
 62
   131
100
AcDbLine
 10
297.000007
 20
21.000001
 30
0.0
 11
389.00001
 21
21.000001
 31
0.0
  0
TEXT
  5
4E
330
32
100
AcDbEntity
  8
YKK_ZWAK
  6
Continuous
 62
   131
100
AcDbText
 10
298.58378403
 20
17.465002
 30
0.0
 40
3.0
  1
図面内容
 41
0.9
  7
YKK_OSSTYLE1
100
AcDbText
  0
TEXT
  5
4F
330
32
100
AcDbEntity
  8
YKK_ZWAK
  6
Continuous
 62
   131
100
AcDbText
 10
298.86588
 20
30.047503
 30
0.0
 40
3.0
  1
工 事 名
 41
0.9
  7
YKK_OSSTYLE1
100
AcDbText
  0
TEXT
  5
50
330
32
100
AcDbEntity
  8
YKK_ZWAK
  6
Continuous
 62
   254
100
AcDbText
 10
377.16530176
 20
24.745001
 30
0.0
 40
5.0
  1
工事
 41
0.9
  7
YKK_OSSTYLE1
100
AcDbText
  0
LINE
  5
51
330
32
100
AcDbEntity
  8
YKK_ZWAK
  6
Continuous
 62
   254
100
AcDbLine
 10
452.000011
 20
33.999501
 30
0.0
 11
452.000011
 21
8.9995
 31
0.0
  0
LINE
  5
52
330
32
100
AcDbEntity
  8
YKK_ZWAK
  6
Continuous
 62
   254
100
AcDbLine
 10
437.000011
 20
33.999501
 30
0.0
 11
437.000011
 21
8.9995
 31
0.0
  0
LINE
  5
53
330
32
100
AcDbEntity
  8
YKK_ZWAK
  6
Continuous
 62
   131
100
AcDbLine
 10
443.051603
 20
10.181617
 30
0.0
 11
449.854371
 21
16.984384
 31
0.0
  0
LINE
  5
54
330
32
100
AcDbEntity
  8
YKK_ZWAK
  6
Continuous
 62
   131
100
AcDbLine
 10
421.00001
 20
33.999501
 30
0.0
 11
421.00001
 21
8.9995
 31
0.0
  0
LINE
  5
55
330
32
100
AcDbEntity
  8
YKK_ZWAK
  6
Continuous
 62
   131
100
AcDbLine
 10
405.00001
 20
33.999501
 30
0.0
 11
405.00001
 21
8.9995
 31
0.0
  0
TEXT
  5
56
330
32
100
AcDbEntity
  8
YKK_ZWAK
  6
Continuous
 62
   131
100
AcDbText
 10
392.18209354
 20
9.752325
 30
0.0
 40
3.5
  1
 ． ．
 41
0.9
  7
YKK_OSSTYLE1
100
AcDbText
  0
LINE
  5
57
330
32
100
AcDbEntity
  8
YKK_ZWAK
  6
Continuous
 62
   131
100
AcDbLine
 10
455.5999986
 20
10.4995
 30
0.0
 11
455.5999986
 21
8.9995
 31
0.0
  0
TEXT
  5
58
330
32
100
AcDbEntity
  8
YKK_ZWAK
  6
Continuous
 62
   131
100
AcDbText
 10
407.8246491
 20
29.87075
 30
0.0
 40
3.0
  1
担  当
 41
0.9
  7
YKK_OSSTYLE1
100
AcDbText
  0
TEXT
  5
59
330
32
100
AcDbEntity
  8
YKK_ZWAK
  6
Continuous
 62
   131
100
AcDbText
 10
392.5636631
 20
29.87075
 30
0.0
 40
3.0
  1
照  査
 41
0.9
  7
YKK_OSSTYLE1
100
AcDbText
  0
TEXT
  5
5A
330
32
100
AcDbEntity
  8
YKK_ZWAK
  6
Continuous
 62
   131
100
AcDbText
 10
424.0856971
 20
29.883751
 30
0.0
 40
3.0
  1
作  図
 41
0.9
  7
YKK_OSSTYLE1
100
AcDbText
  0
TEXT
  5
5B
330
32
100
AcDbEntity
  8
YKK_ZWAK
  6
Continuous
 62
   131
100
AcDbText
 10
453.905095
 20
30.047501
 30
0.0
 40
3.0
  1
御承認印
 41
0.9
  7
YKK_OSSTYLE1
100
AcDbText
  0
LINE
  5
5C
330
32
100
AcDbEntity
  8
YKK_ZWAK
  6
Continuous
 62
   131
100
AcDbLine
 10
437.703011
 20
29.000001
 30
0.0
 11
452.000011
 21
29.000001
 31
0.0
  0
LINE
  5
5D
330
32
100
AcDbEntity
  8
YKK_ZWAK
  6
Continuous
 62
   131
100
AcDbLine
 10
439.264403
 20
21.330812
 30
0.0
 11
446.188247
 21
28.254656
 31
0.0
  0
TEXT
  5
5E
330
32
100
AcDbEntity
  8
YKK_ZWAK
  6
Continuous
 62
   131
100
AcDbText
 10
439.5087681
 20
30.044463
 30
0.0
 40
3.0
  1
尺  度
 41
0.9
  7
YKK_OSSTYLE1
100
AcDbText
  0
CIRCLE
  5
5F
330
32
100
AcDbEntity
  8
YKK_ZWAK
  6
Continuous
 62
     8
100
AcDbCircle
 10
579.426014
 20
83.719502
 30
0.0
 40
6.299999999999999
  0
LINE
  5
60
330
32
100
AcDbEntity
  8
YKK_ZWAK
  6
Continuous
 62
     8
100
AcDbLine
 10
573.126014
 20
69.579502
 30
0.0
 11
585.726014
 21
69.579502
 31
0.0
  0
LINE
  5
61
330
32
100
AcDbEntity
  8
YKK_ZWAK
  6
Continuous
 62
     8
100
AcDbLine
 10
573.126014
 20
55.439501
 30
0.0
 11
585.726014
 21
55.439501
 31
0.0
  0
CIRCLE
  5
62
330
32
100
AcDbEntity
  8
YKK_ZWAK
  6
Continuous
 62
     8
100
AcDbCircle
 10
579.426014
 20
69.579502
 30
0.0
 40
6.299999999999999
  0
CIRCLE
  5
63
330
32
100
AcDbEntity
  8
YKK_ZWAK
  6
Continuous
 62
     8
100
AcDbCircle
 10
579.426014
 20
55.439501
 30
0.0
 40
6.299999999999999
  0
LINE
  5
64
330
32
100
AcDbEntity
  8
YKK_ZWAK
  6
Continuous
 62
     8
100
AcDbLine
 10
573.126014
 20
41.299501
 30
0.0
 11
585.726014
 21
41.299501
 31
0.0
  0
CIRCLE
  5
65
330
32
100
AcDbEntity
  8
YKK_ZWAK
  6
Continuous
 62
     8
100
AcDbCircle
 10
579.426014
 20
41.299501
 30
0.0
 40
6.299999999999999
  0
LINE
  5
66
330
32
100
AcDbEntity
  8
YKK_ZWAK
  6
Continuous
 62
   254
100
AcDbLine
 10
544.000013
 20
33.999501
 30
0.0
 11
544.000013
 21
8.9995
 31
0.0
  0
LINE
  5
67
330
32
100
AcDbEntity
  8
YKK_ZWAK
  6
Continuous
 62
   254
100
AcDbLine
 10
523.999763
 20
33.999501
 30
0.0
 11
523.999763
 21
8.9995
 31
0.0
  0
ARC
  5
68
330
32
100
AcDbEntity
  8
YKK_ZWAK
  6
Continuous
 62
   254
100
AcDbCircle
 10
567.23923515
 20
16.32442811
 30
0.0
 40
3.065267824757687
100
AcDbArc
 50
285.44291453
 51
349.90448123
  0
ARC
  5
69
330
32
100
AcDbEntity
  8
YKK_ZWAK
  6
Continuous
 62
   254
100
AcDbCircle
 10
553.606314
 20
13.7174867
 30
0.0
 40
7.916047100361496
100
AcDbArc
 50
168.7637177
 51
199.80079153
  0
ARC
  5
6A
330
32
100
AcDbEntity
  8
YKK_ZWAK
  6
Continuous
 62
   254
100
AcDbCircle
 10
550.84442657
 20
13.7651724
 30
0.0
 40
1.69178303147034
100
AcDbArc
 50
171.08203026
 51
216.71922793
  0
LINE
  5
6B
330
32
100
AcDbEntity
  8
YKK_ZWAK
  6
Continuous
 62
   254
100
AcDbLine
 10
562.610947
 20
9.566381
 30
0.0
 11
562.610947
 21
20.243049
 31
0.0
  0
LINE
  5
6C
330
32
100
AcDbEntity
  8
YKK_ZWAK
  6
Continuous
 62
   254
100
AcDbLine
 10
559.019868
 20
23.216355
 30
0.0
 11
559.019868
 21
9.566381
 31
0.0
  0
LINE
  5
6D
330
32
100
AcDbEntity
  8
YKK_ZWAK
  6
Continuous
 62
   254
100
AcDbLine
 10
557.513933
 20
20.011363
 30
0.0
 11
557.513933
 21
9.585666
 31
0.0
  0
LINE
  5
6E
330
32
100
AcDbEntity
  8
YKK_ZWAK
  6
Continuous
 62
   254
100
AcDbLine
 10
554.019393
 20
12.520312
 30
0.0
 11
554.019393
 21
19.470807
 31
0.0
  0
LINE
  5
6F
330
32
100
AcDbEntity
  8
YKK_ZWAK
  6
Continuous
 62
   254
100
AcDbLine
 10
557.28225
 20
9.547052
 30
0.0
 11
549.405042
 21
9.527722
 31
0.0
  0
LINE
  5
70
330
32
100
AcDbEntity
  8
YKK_ZWAK
  6
Continuous
 62
   254
100
AcDbLine
 10
550.00355
 20
12.520312
 30
0.0
 11
554.019393
 21
12.520312
 31
0.0
  0
ARC
  5
71
330
32
100
AcDbEntity
  8
YKK_ZWAK
  6
Continuous
 62
   254
100
AcDbCircle
 10
548.60007313
 20
12.25485189
 30
0.0
 40
2.730646981973357
100
AcDbArc
 50
207.31435415
 51
263.59464075
  0
ARC
  5
72
330
32
100
AcDbEntity
  8
YKK_ZWAK
  6
Continuous
 62
   254
100
AcDbCircle
 10
550.17864126
 20
13.59595698
 30
0.0
 40
1.089801345776779
100
AcDbArc
 50
230.97279559
 51
260.75491133
  0
LINE
  5
73
330
32
100
AcDbEntity
  8
YKK_ZWAK
  6
Continuous
 62
   254
100
AcDbLine
 10
549.405042
 20
9.527722
 30
0.0
 11
548.343169
 21
9.527722
 31
0.0
  0
LINE
  5
74
330
32
100
AcDbEntity
  8
YKK_ZWAK
  6
Continuous
 62
   254
100
AcDbLine
 10
557.513933
 20
9.585666
 30
0.0
 11
557.28225
 21
9.547052
 31
0.0
  0
LINE
  5
75
330
32
100
AcDbEntity
  8
YKK_ZWAK
  6
Continuous
 62
   254
100
AcDbLine
 10
553.71047
 20
12.520312
 30
0.0
 11
553.961471
 21
12.520312
 31
0.0
  0
LINE
  5
76
330
32
100
AcDbEntity
  8
YKK_ZWAK
  6
Continuous
 62
   254
100
AcDbLine
 10
554.019393
 20
12.521084
 30
0.0
 11
554.020164
 21
12.520312
 31
0.0
  0
LINE
  5
77
330
32
100
AcDbEntity
  8
YKK_ZWAK
  6
Continuous
 62
   254
100
AcDbLine
 10
562.051042
 20
9.566381
 30
0.0
 11
562.610947
 21
9.566381
 31
0.0
  0
LINE
  5
78
330
32
100
AcDbEntity
  8
YKK_ZWAK
  6
Continuous
 62
   254
100
AcDbLine
 10
559.019868
 20
9.566381
 30
0.0
 11
562.051042
 21
9.566381
 31
0.0
  0
TEXT
  5
79
330
32
100
AcDbEntity
  8
YKK_ZWAK
  6
Continuous
 62
   131
100
AcDbText
 10
528.4269094
 20
29.81226201
 30
0.0
 40
3.2
  1
図　番
 41
0.9
  7
YKK_OSSTYLE1
100
AcDbText
  0
TEXT
  5
7A
330
32
100
AcDbEntity
  8
YKK_ZWAK
  6
Continuous
 62
   131
100
AcDbText
 10
526.62767404
 20
16.79627903
 30
0.0
 40
3.2
  1
通し図番
 41
0.9
  7
YKK_OSSTYLE1
100
AcDbText
  0
LINE
  5
7B
330
32
100
AcDbEntity
  8
YKK_ZWAK
  6
Continuous
 62
   131
100
AcDbLine
 10
523.999763
 20
28.999501
 30
0.0
 11
544.000013
 21
28.999501
 31
0.0
  0
LINE
  5
7C
330
32
100
AcDbEntity
  8
YKK_ZWAK
  6
Continuous
 62
   131
100
AcDbLine
 10
544.000013
 20
16.0
 30
0.0
 11
523.999763
 21
16.0
 31
0.0
  0
LINE
  5
7D
330
32
100
AcDbEntity
  8
YKK_ZWAK
  6
Continuous
 62
   254
100
AcDbLine
 10
523.999763
 20
21.000001
 30
0.0
 11
544.000013
 21
21.000001
 31
0.0
  0
TEXT
  5
7E
330
32
100
AcDbEntity
  8
YKK_ZWAK
  6
Continuous
 62
   131
100
AcDbText
 10
504.12596439
 20
16.73585252
 30
0.0
 40
2.828
  1
年   月   日
 41
0.9
  7
YKK_OSSTYLE1
100
AcDbText
  0
ARC
  5
7F
330
32
100
AcDbEntity
  8
YKK_ZWAK
  6
Continuous
 62
   254
100
AcDbCircle
 10
550.80023932
 20
8.38955158
 30
0.0
 40
9.506414110787718
100
AcDbArc
 50
79.38097908
 51
112.0582515
  0
ARC
  5
80
330
32
100
AcDbEntity
  8
YKK_ZWAK
  6
Continuous
 62
   254
100
AcDbCircle
 10
552.02960157
 20
8.66870802
 30
0.0
 40
14.82019555938878
100
AcDbArc
 50
78.78009532
 51
91.46937906
  0
LINE
  5
81
330
32
100
AcDbEntity
  8
YKK_ZWAK
  6
Continuous
 62
   254
100
AcDbLine
 10
553.247106
 20
20.281664
 30
0.0
 11
550.60589668
 21
20.23169161
 31
0.0
  0
LINE
  5
82
330
32
100
AcDbEntity
  8
YKK_ZWAK
  6
Continuous
 62
   254
100
AcDbLine
 10
553.054042
 20
15.04953
 30
0.0
 11
550.200893
 21
15.046227
 31
0.0
  0
LINE
  5
83
330
32
100
AcDbEntity
  8
YKK_ZWAK
  6
Continuous
 62
   254
100
AcDbLine
 10
554.187226
 20
33.42965
 30
0.0
 11
550.949599
 21
27.69553
 31
0.0
  0
LINE
  5
84
330
32
100
AcDbEntity
  8
YKK_ZWAK
  6
Continuous
 62
   254
100
AcDbLine
 10
551.59718
 20
33.42965
 30
0.0
 11
554.187226
 21
33.42965
 31
0.0
  0
LINE
  5
85
330
32
100
AcDbEntity
  8
YKK_ZWAK
  6
Continuous
 62
   254
100
AcDbLine
 10
548.594154
 20
27.714815
 30
0.0
 11
545.311979
 21
33.352466
 31
0.0
  0
ARC
  5
86
330
32
100
AcDbEntity
  8
YKK_ZWAK
  6
Continuous
 62
   254
100
AcDbCircle
 10
549.68520483
 20
20.30975154
 30
0.0
 40
3.598113650678814
100
AcDbArc
 50
158.41083245
 51
179.71775245
  0
ARC
  5
87
330
32
100
AcDbEntity
  8
YKK_ZWAK
  6
Continuous
 62
   254
100
AcDbCircle
 10
548.59054743
 20
14.76560333
 30
0.0
 40
2.791490107652263
100
AcDbArc
 50
121.82711365
 51
169.08474902
  0
LINE
  5
88
330
32
100
AcDbEntity
  8
YKK_ZWAK
  6
Continuous
 62
   254
100
AcDbLine
 10
549.405042
 20
18.949491
 30
0.0
 11
546.084266
 21
18.949491
 31
0.0
  0
LINE
  5
89
330
32
100
AcDbEntity
  8
YKK_ZWAK
  6
Continuous
 62
   254
100
AcDbLine
 10
546.084266
 20
18.949491
 30
0.0
 11
546.084266
 21
20.32747631
 31
0.0
  0
ARC
  5
8A
330
32
100
AcDbEntity
  8
YKK_ZWAK
  6
Continuous
 62
   254
100
AcDbCircle
 10
550.20700835
 20
14.01426078
 30
0.0
 40
1.031984336873053
100
AcDbArc
 50
90.33952634
 51
178.0363902
  0
ARC
  5
8B
330
32
100
AcDbEntity
  8
YKK_ZWAK
  6
Continuous
 62
   254
100
AcDbCircle
 10
550.91098672
 20
18.99454401
 30
0.0
 40
1.5066184932453
100
AcDbArc
 50
138.46381796
 51
181.71359389
  0
ARC
  5
8C
330
32
100
AcDbEntity
  8
YKK_ZWAK
  6
Continuous
 62
   254
100
AcDbCircle
 10
550.51068793
 20
19.02046023
 30
0.0
 40
1.214967561291876
100
AcDbArc
 50
85.50551117
 51
126.78038212
  0
ARC
  5
8D
330
32
100
AcDbEntity
  8
YKK_ZWAK
  6
Continuous
 62
   254
100
AcDbCircle
 10
548.00461954
 20
21.10278181
 30
0.0
 40
1.745462511199758
100
AcDbArc
 50
109.02126645
 51
161.5126404
  0
ARC
  5
8E
330
32
100
AcDbEntity
  8
YKK_ZWAK
  6
Continuous
 62
   254
100
AcDbCircle
 10
551.65872095
 20
10.85588209
 30
0.0
 40
12.62863449008531
100
AcDbArc
 50
89.89164773
 51
109.30848271
  0
LINE
  5
8F
330
32
100
AcDbEntity
  8
YKK_ZWAK
  6
Continuous
 62
   254
100
AcDbLine
 10
548.594154
 20
24.529198
 30
0.0
 11
548.594154
 21
27.714815
 31
0.0
  0
LINE
  5
90
330
32
100
AcDbEntity
  8
YKK_ZWAK
  6
Continuous
 62
   254
100
AcDbLine
 10
550.949599
 20
24.529198
 30
0.0
 11
548.594154
 21
24.529198
 31
0.0
  0
LINE
  5
91
330
32
100
AcDbEntity
  8
YKK_ZWAK
  6
Continuous
 62
   254
100
AcDbLine
 10
550.949599
 20
27.69553
 30
0.0
 11
550.949599
 21
24.529198
 31
0.0
  0
LINE
  5
92
330
32
100
AcDbEntity
  8
YKK_ZWAK
  6
Continuous
 62
   254
100
AcDbLine
 10
545.311979
 20
33.352466
 30
0.0
 11
547.821884
 21
33.352466
 31
0.0
  0
LINE
  5
93
330
32
100
AcDbEntity
  8
YKK_ZWAK
  6
Continuous
 62
   254
100
AcDbLine
 10
551.59718
 20
33.42965
 30
0.0
 11
549.771867
 21
29.877219
 31
0.0
  0
LINE
  5
94
330
32
100
AcDbEntity
  8
YKK_ZWAK
  6
Continuous
 62
   254
100
AcDbLine
 10
549.617423
 20
29.993062
 30
0.0
 11
549.771867
 21
29.877219
 31
0.0
  0
LINE
  5
95
330
32
100
AcDbEntity
  8
YKK_ZWAK
  6
Continuous
 62
   254
100
AcDbLine
 10
547.821884
 20
33.352466
 30
0.0
 11
549.617423
 21
29.993062
 31
0.0
  0
ARC
  5
96
330
32
100
AcDbEntity
  8
YKK_ZWAK
  6
Continuous
 62
   254
100
AcDbCircle
 10
568.28604917
 20
28.29398617
 30
0.0
 40
1.544618833868573
100
AcDbArc
 50
0.00166292
 51
89.99603715
  0
ARC
  5
97
330
32
100
AcDbEntity
  8
YKK_ZWAK
  6
Continuous
 62
   254
100
AcDbCircle
 10
559.98514917
 20
28.23604217
 30
0.0
 40
1.544618833868573
100
AcDbArc
 50
0.00166292
 51
89.99603715
  0
LINE
  5
98
330
32
100
AcDbEntity
  8
YKK_ZWAK
  6
Continuous
 62
   254
100
AcDbLine
 10
562.553028
 20
24.625712
 30
0.0
 11
562.553028
 21
33.487594
 31
0.0
  0
LINE
  5
99
330
32
100
AcDbEntity
  8
YKK_ZWAK
  6
Continuous
 62
   254
100
AcDbLine
 10
554.328297
 20
24.548527
 30
0.0
 11
554.328297
 21
33.410366
 31
0.0
  0
LINE
  5
9A
330
32
100
AcDbEntity
  8
YKK_ZWAK
  6
Continuous
 62
   254
100
AcDbLine
 10
564.985674
 20
24.625712
 30
0.0
 11
562.553028
 21
24.625712
 31
0.0
  0
LINE
  5
9B
330
32
100
AcDbEntity
  8
YKK_ZWAK
  6
Continuous
 62
   254
100
AcDbLine
 10
567.302491
 20
23.216355
 30
0.0
 11
559.019868
 21
23.216355
 31
0.0
  0
LINE
  5
9C
330
32
100
AcDbEntity
  8
YKK_ZWAK
  6
Continuous
 62
   254
100
AcDbLine
 10
563.479759
 20
13.196086
 30
0.0
 11
567.283206
 21
13.196086
 31
0.0
  0
LINE
  5
9D
330
32
100
AcDbEntity
  8
YKK_ZWAK
  6
Continuous
 62
   254
100
AcDbLine
 10
566.008932
 20
16.150017
 30
0.0
 11
563.479759
 21
16.150017
 31
0.0
  0
LINE
  5
9E
330
32
100
AcDbEntity
  8
YKK_ZWAK
  6
Continuous
 62
   254
100
AcDbLine
 10
562.610947
 20
20.243049
 30
0.0
 11
565.931704
 21
20.243049
 31
0.0
  0
ARC
  5
9F
330
32
100
AcDbEntity
  8
YKK_ZWAK
  6
Continuous
 62
   254
100
AcDbCircle
 10
554.22066
 20
20.08146332
 30
0.0
 40
3.294016994121146
100
AcDbArc
 50
358.78059045
 51
38.76562608
  0
ARC
  5
A0
330
32
100
AcDbEntity
  8
YKK_ZWAK
  6
Continuous
 62
   254
100
AcDbCircle
 10
552.89717617
 20
19.17519964
 30
0.0
 40
1.16048018439929
100
AcDbArc
 50
14.7551995
 51
72.44994796
  0
LINE
  5
A1
330
32
100
AcDbEntity
  8
YKK_ZWAK
  6
Continuous
 62
   254
100
AcDbLine
 10
553.054042
 20
17.617318
 30
0.0
 11
553.054042
 21
15.04953
 31
0.0
  0
LINE
  5
A2
330
32
100
AcDbEntity
  8
YKK_ZWAK
  6
Continuous
 62
   254
100
AcDbLine
 10
552.552059
 20
17.733161
 30
0.0
 11
553.054042
 21
17.617318
 31
0.0
  0
LINE
  5
A3
330
32
100
AcDbEntity
  8
YKK_ZWAK
  6
Continuous
 62
   254
100
AcDbLine
 10
563.479759
 20
16.150017
 30
0.0
 11
563.479759
 21
13.196086
 31
0.0
  0
LINE
  5
A4
330
32
100
AcDbEntity
  8
YKK_ZWAK
  6
Continuous
 62
   254
100
AcDbLine
 10
558.981248
 20
27.869273
 30
0.0
 11
556.703043
 21
27.869273
 31
0.0
  0
ARC
  5
A5
330
32
100
AcDbEntity
  8
YKK_ZWAK
  6
Continuous
 62
   254
100
AcDbCircle
 10
554.37879626
 20
20.07343796
 30
0.0
 40
3.177485297559325
100
AcDbArc
 50
40.66422291
 51
80.31693569
  0
LINE
  5
A6
330
32
100
AcDbEntity
  8
YKK_ZWAK
  6
Continuous
 62
   254
100
AcDbLine
 10
556.703043
 20
24.548527
 30
0.0
 11
554.328297
 21
24.548527
 31
0.0
  0
LINE
  5
A7
330
32
100
AcDbEntity
  8
YKK_ZWAK
  6
Continuous
 62
   254
100
AcDbLine
 10
556.703043
 20
27.869273
 30
0.0
 11
556.703043
 21
24.548527
 31
0.0
  0
LINE
  5
A8
330
32
100
AcDbEntity
  8
YKK_ZWAK
  6
Continuous
 62
   254
100
AcDbLine
 10
561.529756
 20
28.236131
 30
0.0
 11
561.529756
 21
24.606427
 31
0.0
  0
LINE
  5
A9
330
32
100
AcDbEntity
  8
YKK_ZWAK
  6
Continuous
 62
   254
100
AcDbLine
 10
559.290171
 20
27.75343
 30
0.0
 11
558.981248
 21
27.869273
 31
0.0
  0
LINE
  5
AA
330
32
100
AcDbEntity
  8
YKK_ZWAK
  6
Continuous
 62
   254
100
AcDbLine
 10
559.290171
 20
24.606427
 30
0.0
 11
559.290171
 21
27.75343
 31
0.0
  0
LINE
  5
AB
330
32
100
AcDbEntity
  8
YKK_ZWAK
  6
Continuous
 62
   254
100
AcDbLine
 10
561.529756
 20
24.606427
 30
0.0
 11
559.290171
 21
24.606427
 31
0.0
  0
ARC
  5
AC
330
32
100
AcDbEntity
  8
YKK_ZWAK
  6
Continuous
 62
   254
100
AcDbCircle
 10
567.19412132
 20
20.11358836
 30
0.0
 40
3.10079004118515
100
AcDbArc
 50
14.44572328
 51
87.08746338
  0
ARC
  5
AD
330
32
100
AcDbEntity
  8
YKK_ZWAK
  6
Continuous
 62
   254
100
AcDbCircle
 10
564.36413966
 20
17.54165325
 30
0.0
 40
2.640498151312115
100
AcDbArc
 50
343.69020327
 51
354.7536235
  0
ARC
  5
AE
330
32
100
AcDbEntity
  8
YKK_ZWAK
  6
Continuous
 62
   254
100
AcDbCircle
 10
566.00966971
 20
17.08269286
 30
0.0
 40
0.9326761550249523
100
AcDbArc
 50
269.95468111
 51
342.90144849
  0
ARC
  5
AF
330
32
100
AcDbEntity
  8
YKK_ZWAK
  6
Continuous
 62
   254
100
AcDbCircle
 10
566.04623887
 20
19.3715952
 30
0.0
 40
0.8777839045469994
100
AcDbArc
 50
16.43123457
 51
96.91661396
  0
ARC
  5
B0
330
32
100
AcDbEntity
  8
YKK_ZWAK
  6
Continuous
 62
   254
100
AcDbCircle
 10
564.37945167
 20
18.85119468
 30
0.0
 40
2.623848066620805
100
AcDbArc
 50
4.93422741
 51
17.03551963
  0
LINE
  5
B1
330
32
100
AcDbEntity
  8
YKK_ZWAK
  6
Continuous
 62
   254
100
AcDbLine
 10
567.283206
 20
13.196086
 30
0.0
 11
568.055449
 21
13.369828
 31
0.0
  0
LINE
  5
B2
330
32
100
AcDbEntity
  8
YKK_ZWAK
  6
Continuous
 62
   254
100
AcDbLine
 10
566.980872
 20
19.173458
 30
0.0
 11
566.993576
 21
17.29190622
 31
0.0
  0
ARC
  5
B3
330
32
100
AcDbEntity
  8
YKK_ZWAK
  6
Continuous
 62
   254
100
AcDbCircle
 10
555.54697452
 20
18.15146785
 30
0.0
 40
14.90004285451682
100
AcDbArc
 50
350.99026817
 51
10.67624521
  0
LINE
  5
B4
330
32
100
AcDbEntity
  8
YKK_ZWAK
  6
Continuous
 62
   254
100
AcDbLine
 10
569.831709
 20
24.645041
 30
0.0
 11
567.572791
 21
24.645041
 31
0.0
  0
LINE
  5
B5
330
32
100
AcDbEntity
  8
YKK_ZWAK
  6
Continuous
 62
   254
100
AcDbLine
 10
567.572791
 20
27.772759
 30
0.0
 11
567.263877
 21
27.888602
 31
0.0
  0
LINE
  5
B6
330
32
100
AcDbEntity
  8
YKK_ZWAK
  6
Continuous
 62
   254
100
AcDbLine
 10
567.263877
 20
27.888602
 30
0.0
 11
564.985674
 21
27.888602
 31
0.0
  0
LINE
  5
B7
330
32
100
AcDbEntity
  8
YKK_ZWAK
  6
Continuous
 62
   254
100
AcDbLine
 10
564.985674
 20
27.888602
 30
0.0
 11
564.985674
 21
24.625712
 31
0.0
  0
LINE
  5
B8
330
32
100
AcDbEntity
  8
YKK_ZWAK
  6
Continuous
 62
   254
100
AcDbLine
 10
567.572791
 20
24.645041
 30
0.0
 11
567.572791
 21
27.772759
 31
0.0
  0
LINE
  5
B9
330
32
100
AcDbEntity
  8
YKK_ZWAK
  6
Continuous
 62
   254
100
AcDbLine
 10
567.572791
 20
24.681182
 30
0.0
 11
567.608933
 21
24.645041
 31
0.0
  0
LINE
  5
BA
330
32
100
AcDbEntity
  8
YKK_ZWAK
  6
Continuous
 62
   254
100
AcDbLine
 10
569.831709
 20
28.236131
 30
0.0
 11
569.831709
 21
24.645041
 31
0.0
  0
LINE
  5
BB
330
32
100
AcDbEntity
  8
YKK_ZWAK
  6
Continuous
 62
   254
100
AcDbLine
 10
562.553028
 20
33.487594
 30
0.0
 11
564.889116
 21
33.487594
 31
0.0
  0
LINE
  5
BC
330
32
100
AcDbEntity
  8
YKK_ZWAK
  6
Continuous
 62
   254
100
AcDbLine
 10
556.625823
 20
29.768591
 30
0.0
 11
559.03917
 21
33.44898
 31
0.0
  0
LINE
  5
BD
330
32
100
AcDbEntity
  8
YKK_ZWAK
  6
Continuous
 62
   254
100
AcDbLine
 10
556.625823
 20
33.410366
 30
0.0
 11
556.625823
 21
29.768591
 31
0.0
  0
LINE
  5
BE
330
32
100
AcDbEntity
  8
YKK_ZWAK
  6
Continuous
 62
   254
100
AcDbLine
 10
554.328297
 20
33.410366
 30
0.0
 11
556.625823
 21
33.410366
 31
0.0
  0
LINE
  5
BF
330
32
100
AcDbEntity
  8
YKK_ZWAK
  6
Continuous
 62
   254
100
AcDbLine
 10
559.985256
 20
29.780661
 30
0.0
 11
559.242942
 21
29.780661
 31
0.0
  0
LINE
  5
C0
330
32
100
AcDbEntity
  8
YKK_ZWAK
  6
Continuous
 62
   254
100
AcDbLine
 10
561.771363
 20
33.44898
 30
0.0
 11
559.242942
 21
29.780661
 31
0.0
  0
LINE
  5
C1
330
32
100
AcDbEntity
  8
YKK_ZWAK
  6
Continuous
 62
   254
100
AcDbLine
 10
559.03917
 20
33.44898
 30
0.0
 11
561.771363
 21
33.44898
 31
0.0
  0
LINE
  5
C2
330
32
100
AcDbEntity
  8
YKK_ZWAK
  6
Continuous
 62
   254
100
AcDbLine
 10
569.773765
 20
33.024222
 30
0.0
 11
567.543842
 21
29.838605
 31
0.0
  0
LINE
  5
C3
330
32
100
AcDbEntity
  8
YKK_ZWAK
  6
Continuous
 62
   254
100
AcDbLine
 10
567.341105
 20
33.487594
 30
0.0
 11
570.044065
 21
33.487594
 31
0.0
  0
LINE
  5
C4
330
32
100
AcDbEntity
  8
YKK_ZWAK
  6
Continuous
 62
   254
100
AcDbLine
 10
568.286156
 20
29.838605
 30
0.0
 11
567.543842
 21
29.838605
 31
0.0
  0
LINE
  5
C5
330
32
100
AcDbEntity
  8
YKK_ZWAK
  6
Continuous
 62
   254
100
AcDbLine
 10
564.889116
 20
29.779236
 30
0.0
 11
567.341105
 21
33.487594
 31
0.0
  0
LINE
  5
C6
330
32
100
AcDbEntity
  8
YKK_ZWAK
  6
Continuous
 62
   254
100
AcDbLine
 10
564.889116
 20
33.487594
 30
0.0
 11
564.889116
 21
29.779236
 31
0.0
  0
LINE
  5
C7
330
32
100
AcDbEntity
  8
YKK_ZWAK
  6
Continuous
 62
   254
100
AcDbLine
 10
570.044065
 20
33.487594
 30
0.0
 11
569.773765
 21
33.024222
 31
0.0
  0
LINE
  5
C8
330
32
100
AcDbEntity
  8
YKK_ZWAK
  6
Continuous
 62
     8
100
AcDbLine
 10
573.126014
 20
168.559504
 30
0.0
 11
585.726014
 21
168.559504
 31
0.0
  0
LINE
  5
C9
330
32
100
AcDbEntity
  8
YKK_ZWAK
  6
Continuous
 62
     8
100
AcDbLine
 10
573.126014
 20
154.419504
 30
0.0
 11
585.726014
 21
154.419504
 31
0.0
  0
LINE
  5
CA
330
32
100
AcDbEntity
  8
YKK_ZWAK
  6
Continuous
 62
     8
100
AcDbLine
 10
573.126014
 20
140.279503
 30
0.0
 11
585.726014
 21
140.279503
 31
0.0
  0
LINE
  5
CB
330
32
100
AcDbEntity
  8
YKK_ZWAK
  6
Continuous
 62
     8
100
AcDbLine
 10
573.126014
 20
126.139503
 30
0.0
 11
585.726014
 21
126.139503
 31
0.0
  0
LINE
  5
CC
330
32
100
AcDbEntity
  8
YKK_ZWAK
  6
Continuous
 62
     8
100
AcDbLine
 10
573.126014
 20
111.999503
 30
0.0
 11
585.726014
 21
111.999503
 31
0.0
  0
LINE
  5
CD
330
32
100
AcDbEntity
  8
YKK_ZWAK
  6
Continuous
 62
     8
100
AcDbLine
 10
573.126014
 20
97.859502
 30
0.0
 11
585.726014
 21
97.859502
 31
0.0
  0
LINE
  5
CE
330
32
100
AcDbEntity
  8
YKK_ZWAK
  6
Continuous
 62
     8
100
AcDbLine
 10
573.126014
 20
83.719502
 30
0.0
 11
585.726014
 21
83.719502
 31
0.0
  0
CIRCLE
  5
CF
330
32
100
AcDbEntity
  8
YKK_ZWAK
  6
Continuous
 62
     8
100
AcDbCircle
 10
579.426014
 20
168.559504
 30
0.0
 40
6.299999999999999
  0
CIRCLE
  5
D0
330
32
100
AcDbEntity
  8
YKK_ZWAK
  6
Continuous
 62
     8
100
AcDbCircle
 10
579.426014
 20
140.279503
 30
0.0
 40
6.299999999999999
  0
CIRCLE
  5
D1
330
32
100
AcDbEntity
  8
YKK_ZWAK
  6
Continuous
 62
     8
100
AcDbCircle
 10
579.426014
 20
111.999503
 30
0.0
 40
6.299999999999999
  0
CIRCLE
  5
D2
330
32
100
AcDbEntity
  8
YKK_ZWAK
  6
Continuous
 62
     8
100
AcDbCircle
 10
579.426014
 20
154.419504
 30
0.0
 40
6.299999999999999
  0
CIRCLE
  5
D3
330
32
100
AcDbEntity
  8
YKK_ZWAK
  6
Continuous
 62
     8
100
AcDbCircle
 10
579.426014
 20
126.139503
 30
0.0
 40
6.299999999999999
  0
CIRCLE
  5
D4
330
32
100
AcDbEntity
  8
YKK_ZWAK
  6
Continuous
 62
     8
100
AcDbCircle
 10
579.426014
 20
97.859502
 30
0.0
 40
6.299999999999999
  0
LINE
  5
D5
330
32
100
AcDbEntity
  8
YKK_ZWAK
  6
Continuous
 62
   254
100
AcDbLine
 10
571.000014
 20
222.4995055
 30
0.0
 11
573.000014
 21
222.4995055
 31
0.0
  0
TEXT
  5
D6
330
32
100
AcDbEntity
  8
YKK_ZWAK
  6
Continuous
 62
   131
100
AcDbText
 10
408.18209354
 20
9.752325
 30
0.0
 40
3.5
  1
 ． ．
 41
0.9
  7
YKK_OSSTYLE1
100
AcDbText
  0
TEXT
  5
D7
330
32
100
AcDbEntity
  8
YKK_ZWAK
  6
Continuous
 62
   131
100
AcDbText
 10
424.18209354
 20
9.752325
 30
0.0
 40
3.5
  1
 ． ．
 41
0.9
  7
YKK_OSSTYLE1
100
AcDbText
  0
LINE
  5
D8
330
32
100
AcDbEntity
  8
YKK_ZWAK
  6
Continuous
 62
   131
100
AcDbLine
 10
459.1999862
 20
10.4995
 30
0.0
 11
459.1999862
 21
8.9995
 31
0.0
  0
LINE
  5
D9
330
32
100
AcDbEntity
  8
YKK_ZWAK
  6
Continuous
 62
   131
100
AcDbLine
 10
462.7999738
 20
10.4995
 30
0.0
 11
462.7999738
 21
8.9995
 31
0.0
  0
LINE
  5
DA
330
32
100
AcDbEntity
  8
YKK_ZWAK
  6
Continuous
 62
   131
100
AcDbLine
 10
466.3999614
 20
10.4995
 30
0.0
 11
466.3999614
 21
8.9995
 31
0.0
  0
LINE
  5
DB
330
32
100
AcDbEntity
  8
YKK_ZWAK
  6
Continuous
 62
   131
100
AcDbLine
 10
469.999949
 20
10.4995
 30
0.0
 11
469.999949
 21
8.9995
 31
0.0
  0
LINE
  5
DC
330
32
100
AcDbEntity
  8
YKK_ZWAK
  6
Continuous
 62
   131
100
AcDbLine
 10
473.5999366
 20
10.4995
 30
0.0
 11
473.5999366
 21
8.9995
 31
0.0
  0
LINE
  5
DD
330
32
100
AcDbEntity
  8
YKK_ZWAK
  6
Continuous
 62
   131
100
AcDbLine
 10
477.1999242
 20
10.4995
 30
0.0
 11
477.1999242
 21
8.9995
 31
0.0
  0
LINE
  5
DE
330
32
100
AcDbEntity
  8
YKK_ZWAK
  6
Continuous
 62
   131
100
AcDbLine
 10
480.7999118
 20
10.4995
 30
0.0
 11
480.7999118
 21
8.9995
 31
0.0
  0
LINE
  5
DF
330
32
100
AcDbEntity
  8
YKK_ZWAK
  6
Continuous
 62
   131
100
AcDbLine
 10
484.3998994
 20
10.4995
 30
0.0
 11
484.3998994
 21
8.9995
 31
0.0
  0
LINE
  5
E0
330
32
100
AcDbEntity
  8
YKK_ZWAK
  6
Continuous
 62
   131
100
AcDbLine
 10
487.999887
 20
10.4995
 30
0.0
 11
487.999887
 21
8.9995
 31
0.0
  0
LINE
  5
E1
330
32
100
AcDbEntity
  8
YKK_ZWAK
  6
Continuous
 62
   131
100
AcDbLine
 10
491.5998746
 20
10.4995
 30
0.0
 11
491.5998746
 21
8.9995
 31
0.0
  0
LINE
  5
E2
330
32
100
AcDbEntity
  8
YKK_ZWAK
  6
Continuous
 62
   131
100
AcDbLine
 10
495.1998622
 20
10.4995
 30
0.0
 11
495.1998622
 21
8.9995
 31
0.0
  0
LINE
  5
E3
330
32
100
AcDbEntity
  8
YKK_ZWAK
  6
Continuous
 62
   131
100
AcDbLine
 10
498.7998498
 20
10.4995
 30
0.0
 11
498.7998498
 21
8.9995
 31
0.0
  0
LINE
  5
E4
330
32
100
AcDbEntity
  8
YKK_ZWAK
  6
Continuous
 62
   131
100
AcDbLine
 10
502.3998374
 20
10.4995
 30
0.0
 11
502.3998374
 21
8.9995
 31
0.0
  0
LINE
  5
E5
330
32
100
AcDbEntity
  8
YKK_ZWAK
  6
Continuous
 62
   131
100
AcDbLine
 10
505.999825
 20
10.4995
 30
0.0
 11
505.999825
 21
8.9995
 31
0.0
  0
LINE
  5
E6
330
32
100
AcDbEntity
  8
YKK_ZWAK
  6
Continuous
 62
   131
100
AcDbLine
 10
509.5998126
 20
10.4995
 30
0.0
 11
509.5998126
 21
8.9995
 31
0.0
  0
LINE
  5
E7
330
32
100
AcDbEntity
  8
YKK_ZWAK
  6
Continuous
 62
   131
100
AcDbLine
 10
513.1998002
 20
10.4995
 30
0.0
 11
513.1998002
 21
8.9995
 31
0.0
  0
LINE
  5
E8
330
32
100
AcDbEntity
  8
YKK_ZWAK
  6
Continuous
 62
   131
100
AcDbLine
 10
516.7997878
 20
10.4995
 30
0.0
 11
516.7997878
 21
8.9995
 31
0.0
  0
LINE
  5
E9
330
32
100
AcDbEntity
  8
YKK_ZWAK
  6
Continuous
 62
   131
100
AcDbLine
 10
520.3997754
 20
10.4995
 30
0.0
 11
520.3997754
 21
8.9995
 31
0.0
  0
ENDBLK
  5
EB
330
32
100
AcDbEntity
  8
0
100
AcDbBlockEnd
  0
ENDSEC
  0
SECTION
  2
ENTITIES
  0
LINE
  5
2B
330
2
100
AcDbEntity
  8
YKK_11
  6
ByBlock
 62
     0
100
AcDbLine
 10
379.89447635
 20
164.45113207
 30
0.0
 11
402.49447635
 21
164.45113207
 31
0.0
  0
LINE
  5
2D
330
2
100
AcDbEntity
  8
YKK_11
  6
ByBlock
 62
     0
100
AcDbLine
 10
402.49447635
 20
165.65113207
 30
0.0
 11
379.89447635
 21
165.65113207
 31
0.0
  0
TEXT
  5
2E
330
2
100
AcDbEntity
  8
USER1
 62
     3
100
AcDbText
 10
395.07705229
 20
7.85086503
 30
0.0
 40
4.2
  1
ガスチャンバー フラッシュパネル(枠見込33mm)
 72
     4
 11
454.37705229
 21
9.65086503
 31
0.0
100
AcDbText
  0
INSERT
  5
30
330
2
100
AcDbEntity
  8
YKK_ZWAK
100
AcDbBlockReference
  2
A201
 10
-26.6000014
 20
-12.5993
 30
0.0
 41
1.4
 42
1.4
 43
1.4
  0
LINE
  5
EC
330
2
100
AcDbEntity
  8
YKK_13
  6
YHIDDEN_1
100
AcDbLine
 10
398.19447643
 20
137.25113211
 30
0.0
 11
382.79447643
 21
137.25113211
 31
0.0
  0
LINE
  5
EF
330
2
100
AcDbEntity
  8
YKK_13
  6
YHIDDEN_1
100
AcDbLine
 10
398.79447643
 20
134.95113211
 30
0.0
 11
382.19447643
 21
134.95113211
 31
0.0
  0
LINE
  5
F0
330
2
100
AcDbEntity
  8
YKK_D
100
AcDbLine
 10
403.69448623
 20
110.35113046
 30
0.0
 11
392.57448013
 21
110.35113046
 31
0.0
  0
LINE
  5
F2
330
2
100
AcDbEntity
  8
YKK_D
100
AcDbLine
 10
378.69448623
 20
185.65111825
 30
0.0
 11
403.69448623
 21
185.65111825
 31
0.0
  0
TEXT
  5
F3
330
2
100
AcDbEntity
  8
YKK_D
100
AcDbText
 10
393.79295728
 20
111.35113046
 30
0.0
 40
6.0
  1
10
 41
0.8
100
AcDbText
1001
ACAD
1000
MTEXTBEGIN
1070
    73
1070
     1
1070
    44
1040
1.0
1070
    74
1070
     0
1000
MTEXTEND
  0
LINE
  5
F4
330
2
100
AcDbEntity
  8
YKK_11
  6
ByBlock
 62
     0
100
AcDbLine
 10
184.66035611
 20
280.25552363
 30
0.0
 11
184.66035611
 21
416.74665563
 31
0.0
  0
LINE
  5
F5
330
2
100
AcDbEntity
  8
YKK_11
  6
ByBlock
 62
     0
100
AcDbLine
 10
185.86035611
 20
280.25552363
 30
0.0
 11
185.86035611
 21
416.94665563
 31
0.0
  0
LINE
  5
F6
330
2
100
AcDbEntity
  8
YKK_12
  6
Continuous
100
AcDbLine
 10
180.66035621
 20
443.14665596
 30
0.0
 11
180.66035621
 21
280.25552339
 31
0.0
  0
LINE
  5
F8
330
2
100
AcDbEntity
  8
YKK_12
  6
Continuous
100
AcDbLine
 10
213.66035621
 20
408.14665596
 30
0.0
 11
213.66035621
 21
280.25552339
 31
0.0
  0
LINE
  5
F9
330
2
100
AcDbEntity
  8
YKK_12
  6
Continuous
100
AcDbLine
 10
212.46035621
 20
280.25552339
 30
0.0
 11
212.46035621
 21
418.14665596
 31
0.0
  0
LINE
  5
FA
330
2
100
AcDbEntity
  8
YKK_12
  6
Continuous
100
AcDbLine
 10
211.66035621
 20
280.25552339
 30
0.0
 11
211.66035621
 21
408.14665596
 31
0.0
  0
LINE
  5
FB
330
2
100
AcDbEntity
  8
YKK_D
100
AcDbLine
 10
237.16033706
 20
401.14665506
 30
0.0
 11
237.16033706
 21
150.14665506
 31
0.0
  0
LINE
  5
FC
330
2
100
AcDbEntity
  8
YKK_D
100
AcDbLine
 10
160.66035232
 20
418.14665506
 30
0.0
 11
160.66035232
 21
133.14665506
 31
0.0
  0
TEXT
  5
FD
330
2
100
AcDbEntity
  8
YKK_D
100
AcDbText
 10
159.66035232
 20
269.38472613
 30
0.0
 40
6.0
  1
H+20
 50
90.0
 41
0.8
100
AcDbText
1001
ACAD
1000
MTEXTBEGIN
1070
    73
1070
     1
1070
    44
1040
1.0
1070
    74
1070
     0
1000
MTEXTEND
  0
LINE
  5
FE
330
2
100
AcDbEntity
  8
YKK_D
100
AcDbLine
 10
180.66035232
 20
88.14665506
 30
0.0
 11
164.06035232
 21
88.14665506
 31
0.0
  0
TEXT
  5
FF
330
2
100
AcDbEntity
  8
YKK_D
100
AcDbText
 10
165.84816958
 20
89.14665506
 30
0.0
 40
6.0
  1
1.2
 41
0.8
100
AcDbText
1001
ACAD
1000
MTEXTBEGIN
1070
    73
1070
     1
1070
    44
1040
1.0
1070
    74
1070
     0
1000
MTEXTEND
  0
LINE
  5
100
330
2
100
AcDbEntity
  8
YKK_D
100
AcDbLine
 10
181.86034927
 20
88.14665506
 30
0.0
 11
201.86034927
 21
88.14665506
 31
0.0
  0
TEXT
  5
101
330
2
100
AcDbEntity
  8
YKK_D
100
AcDbText
 10
188.71720206
 20
89.14665506
 30
0.0
 40
6.0
  1
20
 41
0.8
100
AcDbText
1001
ACAD
1000
MTEXTBEGIN
1070
    73
1070
     1
1070
    44
1040
1.0
1070
    74
1070
     0
1000
MTEXTEND
  0
LINE
  5
102
330
2
100
AcDbEntity
  8
YKK_D
100
AcDbLine
 10
180.66035232
 20
104.14665506
 30
0.0
 11
180.66035232
 21
87.14665506
 31
0.0
  0
LINE
  5
103
330
2
100
AcDbEntity
  8
YKK_D
100
AcDbLine
 10
181.86034927
 20
104.14664838
 30
0.0
 11
181.86034927
 21
87.14665506
 31
0.0
  0
LINE
  5
104
330
2
100
AcDbEntity
  8
YKK_D
100
AcDbLine
 10
181.86034927
 20
102.14665077
 30
0.0
 11
181.86034927
 21
87.14665506
 31
0.0
  0
LINE
  5
105
330
2
100
AcDbEntity
  8
YKK_D
100
AcDbLine
 10
181.86034927
 20
88.14665506
 30
0.0
 11
183.56034927
 21
88.14665506
 31
0.0
  0
LINE
  5
106
330
2
100
AcDbEntity
  8
YKK_D
100
AcDbLine
 10
181.86034927
 20
88.14665506
 30
0.0
 11
180.66035232
 21
88.14665506
 31
0.0
  0
LWPOLYLINE
  5
107
330
2
100
AcDbEntity
  8
YKK_D
  6
ByBlock
100
AcDbPolyline
 90
        2
 70
     1
 43
0.85
 10
180.55410232
 20
88.14665506
 42
1.0
 10
180.76660232
 20
88.14665506
 42
1.0
  0
LWPOLYLINE
  5
108
330
2
100
AcDbEntity
  8
YKK_D
  6
ByBlock
100
AcDbPolyline
 90
        2
 70
     1
 43
0.85
 10
181.96659927
 20
88.14665506
 42
1.0
 10
181.75409927
 20
88.14665506
 42
1.0
  0
LWPOLYLINE
  5
109
330
2
100
AcDbEntity
  8
YKK_D
  6
ByBlock
100
AcDbPolyline
 90
        2
 70
     1
 43
0.85
 10
181.96659927
 20
88.14665506
 42
1.0
 10
181.75409927
 20
88.14665506
 42
1.0
  0
LINE
  5
10A
330
2
100
AcDbEntity
  8
YKK_D
100
AcDbLine
 10
201.86034927
 20
104.14665578
 30
0.0
 11
201.86034927
 21
87.14665506
 31
0.0
  0
LWPOLYLINE
  5
10B
330
2
100
AcDbEntity
  8
YKK_D
  6
ByBlock
100
AcDbPolyline
 90
        2
 70
     1
 43
0.85
 10
201.75409927
 20
88.14665506
 42
1.0
 10
201.96659927
 20
88.14665506
 42
1.0
  0
LINE
  5
10C
330
2
100
AcDbEntity
  8
YKK_11
  6
ByBlock
 62
     0
100
AcDbLine
 10
187.06035649
 20
184.75552353
 30
0.0
 11
187.06035649
 21
194.75552353
 31
0.0
  0
LINE
  5
10D
330
2
100
AcDbEntity
  8
YKK_11
  6
ByBlock
 62
     0
100
AcDbLine
 10
185.86035649
 20
194.75552353
 30
0.0
 11
185.86035649
 21
184.75552353
 31
0.0
  0
LINE
  5
10E
330
2
100
AcDbEntity
  8
YKK_11
  6
ByBlock
 62
     0
100
AcDbLine
 10
185.86035653
 20
277.25552383
 30
0.0
 11
185.86035653
 21
134.34665583
 31
0.0
  0
LINE
  5
10F
330
2
100
AcDbEntity
  8
YKK_11
  6
ByBlock
 62
     0
100
AcDbLine
 10
184.66035653
 20
277.25552383
 30
0.0
 11
184.66035653
 21
134.54665583
 31
0.0
  0
LINE
  5
110
330
2
100
AcDbEntity
  8
YKK_12
  6
Continuous
100
AcDbLine
 10
212.46035621
 20
133.14665596
 30
0.0
 11
212.46035621
 21
277.25552339
 31
0.0
  0
LINE
  5
111
330
2
100
AcDbEntity
  8
YKK_12
  6
Continuous
100
AcDbLine
 10
180.66035621
 20
277.25552339
 30
0.0
 11
180.66035621
 21
108.14665596
 31
0.0
  0
LINE
  5
112
330
2
100
AcDbEntity
  8
YKK_12
  6
Continuous
100
AcDbLine
 10
213.66035621
 20
277.25552339
 30
0.0
 11
213.66035621
 21
143.14665596
 31
0.0
  0
LINE
  5
113
330
2
100
AcDbEntity
  8
YKK_12
  6
Continuous
100
AcDbLine
 10
211.66035621
 20
143.14665596
 30
0.0
 11
211.66035621
 21
277.25552339
 31
0.0
  0
LINE
  5
114
330
2
100
AcDbEntity
  8
YKK_11
  6
ByBlock
 62
     0
100
AcDbLine
 10
183.06035602
 20
131.9466562
 30
0.0
 11
213.66035602
 21
131.9466562
 31
0.0
  0
LINE
  5
115
330
2
100
AcDbEntity
  8
YKK_11
  6
ByBlock
 62
     0
100
AcDbLine
 10
213.66035602
 20
133.1466562
 30
0.0
 11
183.06035602
 21
133.1466562
 31
0.0
  0
LINE
  5
116
330
2
100
AcDbEntity
  8
YKK_11
  6
ByBlock
 62
     0
100
AcDbLine
 10
185.86035653
 20
134.34665583
 30
0.0
 11
211.66035653
 21
134.34665583
 31
0.0
  0
LINE
  5
117
330
2
100
AcDbEntity
  8
YKK_12
  6
Continuous
100
AcDbLine
 10
185.86035621
 20
143.14665596
 30
0.0
 11
211.66035621
 21
143.14665596
 31
0.0
  0
ARC
  5
118
330
2
100
AcDbEntity
  8
YKK_13
  6
YHIDDEN_1
100
AcDbCircle
 10
210.26035621
 20
111.64665596
 30
0.0
 40
2.299999999999998
100
AcDbArc
 50
270.0
 51
0.0
  0
ARC
  5
119
330
2
100
AcDbEntity
  8
YKK_13
  6
YHIDDEN_1
100
AcDbCircle
 10
210.26035621
 20
128.24665596
 30
0.0
 40
2.299999999999998
100
AcDbArc
 50
0.0
 51
90.0
  0
LINE
  5
11A
330
2
100
AcDbEntity
  8
YKK_D
100
AcDbLine
 10
184.66035232
 20
158.14665506
 30
0.0
 11
213.66035232
 21
158.14665506
 31
0.0
  0
LINE
  5
11B
330
2
100
AcDbEntity
  8
YKK_D
100
AcDbLine
 10
180.66035232
 20
178.14665506
 30
0.0
 11
213.66035232
 21
178.14665506
 31
0.0
  0
LINE
  5
11C
330
2
100
AcDbEntity
  8
YKK_D
100
AcDbLine
 10
160.66035232
 20
108.14665506
 30
0.0
 11
160.66035232
 21
133.14665506
 31
0.0
  0
LINE
  5
11D
330
2
100
AcDbEntity
  8
YKK_D
100
AcDbLine
 10
176.66035852
 20
108.14665506
 30
0.0
 11
159.66035232
 21
108.14665506
 31
0.0
  0
LWPOLYLINE
  5
11E
330
2
100
AcDbEntity
  8
YKK_D
  6
ByBlock
100
AcDbPolyline
 90
        2
 70
     1
 43
0.85
 10
160.66035232
 20
108.25290506
 42
1.0
 10
160.66035232
 20
108.04040506
 42
1.0
  0
TEXT
  5
11F
330
2
100
AcDbEntity
  8
YKK_D
100
AcDbText
 10
159.66035232
 20
117.56442156
 30
0.0
 40
6.0
  1
25
 50
90.0
 41
0.8
100
AcDbText
1001
ACAD
1000
MTEXTBEGIN
1070
    73
1070
     1
1070
    44
1040
1.0
1070
    74
1070
     0
1000
MTEXTEND
  0
LINE
  5
120
330
2
100
AcDbEntity
  8
YKK_D
100
AcDbLine
 10
176.66035852
 20
133.14665506
 30
0.0
 11
159.66035232
 21
133.14665506
 31
0.0
  0
LWPOLYLINE
  5
121
330
2
100
AcDbEntity
  8
YKK_D
  6
ByBlock
100
AcDbPolyline
 90
        2
 70
     1
 43
0.85
 10
160.66035232
 20
133.04040506
 42
1.0
 10
160.66035232
 20
133.25290506
 42
1.0
  0
LWPOLYLINE
  5
122
330
2
100
AcDbEntity
  8
YKK_D
  6
ByBlock
100
AcDbPolyline
 90
        2
 70
     1
 43
0.85
 10
160.66035232
 20
133.25290506
 42
1.0
 10
160.66035232
 20
133.04040506
 42
1.0
  0
LINE
  5
123
330
2
100
AcDbEntity
  8
YKK_11
  6
ByBlock
 62
     0
100
AcDbLine
 10
183.06035602
 20
109.3466562
 30
0.0
 11
183.06035602
 21
131.9466562
 31
0.0
  0
LINE
  5
124
330
2
100
AcDbEntity
  8
YKK_11
  6
ByBlock
 62
     0
100
AcDbLine
 10
181.86035602
 20
131.9466562
 30
0.0
 11
181.86035602
 21
109.3466562
 31
0.0
  0
ARC
  5
125
330
2
100
AcDbEntity
  8
YKK_13
  6
YHIDDEN_1
100
AcDbCircle
 10
209.66035621
 20
127.64665596
 30
0.0
 40
0.6
100
AcDbArc
 50
0.0
 51
90.0
  0
LINE
  5
126
330
2
100
AcDbEntity
  8
YKK_11
  6
ByBlock
 62
     0
100
AcDbLine
 10
201.86303802
 20
109.3466562
 30
0.0
 11
183.06035602
 21
109.3466562
 31
0.0
  0
LINE
  5
127
330
2
100
AcDbEntity
  8
YKK_11
  6
ByBlock
 62
     0
100
AcDbLine
 10
183.06035602
 20
108.1466562
 30
0.0
 11
201.86035602
 21
108.1466562
 31
0.0
  0
LINE
  5
128
330
2
100
AcDbEntity
  8
YKK_13
  6
YHIDDEN_1
100
AcDbLine
 10
210.26035621
 20
109.34665596
 30
0.0
 11
183.56035621
 21
109.34665596
 31
0.0
  0
LINE
  5
129
330
2
100
AcDbEntity
  8
YKK_13
  6
YHIDDEN_1
100
AcDbLine
 10
183.56035621
 20
111.64665596
 30
0.0
 11
209.66035621
 21
111.64665596
 31
0.0
  0
ARC
  5
12A
330
2
100
AcDbEntity
  8
YKK_11
  6
ByBlock
 62
     0
100
AcDbCircle
 10
183.06035602
 20
109.3466562
 30
0.0
 40
1.199999999999999
100
AcDbArc
 50
180.00001985
 51
270.00000112
  0
LINE
  5
12B
330
2
100
AcDbEntity
  8
YKK_12
  6
Continuous
100
AcDbLine
 10
180.66035621
 20
108.14665596
 30
0.0
 11
183.55884982
 21
108.14665596
 31
0.0
  0
LINE
  5
12C
330
2
100
AcDbEntity
  8
YKK_13
  6
YHIDDEN_1
100
AcDbLine
 10
183.56035621
 20
111.64665596
 30
0.0
 11
183.56035621
 21
109.34665596
 31
0.0
  0
LINE
  5
12D
330
2
100
AcDbEntity
  8
YKK_13
  6
YHIDDEN_1
100
AcDbLine
 10
210.26035621
 20
127.64665596
 30
0.0
 11
210.26035621
 21
112.24665596
 31
0.0
  0
LINE
  5
12E
330
2
100
AcDbEntity
  8
YKK_11
  6
ByBlock
 62
     0
100
AcDbLine
 10
201.86035602
 20
108.1466562
 30
0.0
 11
201.86035602
 21
109.3466562
 31
0.0
  0
ARC
  5
12F
330
2
100
AcDbEntity
  8
YKK_13
  6
YHIDDEN_1
100
AcDbCircle
 10
209.66035621
 20
112.24665596
 30
0.0
 40
0.6
100
AcDbArc
 50
270.0
 51
0.0
  0
ARC
  5
130
330
2
100
AcDbEntity
  8
YKK_11
  6
ByBlock
 62
     0
100
AcDbCircle
 10
183.06035602
 20
131.9466562
 30
0.0
 40
1.199999999999999
100
AcDbArc
 50
89.99998128
 51
180.00001985
  0
ARC
  5
131
330
2
100
AcDbEntity
  8
YKK_11
  6
ByBlock
 62
     0
100
AcDbCircle
 10
186.06035653
 20
134.54665583
 30
0.0
 40
1.399999999999999
100
AcDbArc
 50
180.00001985
 51
270.00000112
  0
LINE
  5
132
330
2
100
AcDbEntity
  8
YKK_13
  6
YHIDDEN_1
100
AcDbLine
 10
210.26035621
 20
130.54665596
 30
0.0
 11
199.56035621
 21
130.54665596
 31
0.0
  0
LINE
  5
133
330
2
100
AcDbEntity
  8
YKK_13
  6
YHIDDEN_1
100
AcDbLine
 10
199.56035621
 20
128.24665596
 30
0.0
 11
209.66035621
 21
128.24665596
 31
0.0
  0
LINE
  5
134
330
2
100
AcDbEntity
  8
YKK_13
  6
YHIDDEN_1
100
AcDbLine
 10
199.56035621
 20
130.54665596
 30
0.0
 11
199.56035621
 21
128.24665596
 31
0.0
  0
LINE
  5
135
330
2
100
AcDbEntity
  8
YKK_D
100
AcDbLine
 10
180.66035232
 20
158.14665506
 30
0.0
 11
172.06035232
 21
158.14665506
 31
0.0
  0
TEXT
  5
136
330
2
100
AcDbEntity
  8
YKK_D
100
AcDbText
 10
173.1131442
 20
159.14665506
 30
0.0
 40
6.0
  1
4
 41
0.8
100
AcDbText
1001
ACAD
1000
MTEXTBEGIN
1070
    73
1070
     1
1070
    44
1040
1.0
1070
    74
1070
     0
1000
MTEXTEND
  0
LINE
  5
137
330
2
100
AcDbEntity
  8
YKK_D
100
AcDbLine
 10
184.66035232
 20
158.14665506
 30
0.0
 11
180.66035232
 21
158.14665506
 31
0.0
  0
LWPOLYLINE
  5
138
330
2
100
AcDbEntity
  8
YKK_D
  6
ByBlock
100
AcDbPolyline
 90
        2
 70
     1
 43
0.85
 10
180.76660232
 20
158.14665506
 42
1.0
 10
180.55410232
 20
158.14665506
 42
1.0
  0
LWPOLYLINE
  5
139
330
2
100
AcDbEntity
  8
YKK_D
  6
ByBlock
100
AcDbPolyline
 90
        2
 70
     1
 43
0.85
 10
184.76660232
 20
158.14665506
 42
1.0
 10
184.55410232
 20
158.14665506
 42
1.0
  0
LWPOLYLINE
  5
13A
330
2
100
AcDbEntity
  8
YKK_D
  6
ByBlock
100
AcDbPolyline
 90
        2
 70
     1
 43
0.85
 10
184.55410232
 20
158.14665506
 42
1.0
 10
184.76660232
 20
158.14665506
 42
1.0
  0
TEXT
  5
13B
330
2
100
AcDbEntity
  8
YKK_D
100
AcDbText
 10
196.07811882
 20
159.14665506
 30
0.0
 40
6.0
  1
29
 41
0.8
100
AcDbText
1001
ACAD
1000
MTEXTBEGIN
1070
    73
1070
     1
1070
    44
1040
1.0
1070
    74
1070
     0
1000
MTEXTEND
  0
TEXT
  5
13C
330
2
100
AcDbEntity
  8
YKK_D
100
AcDbText
 10
194.09030156
 20
179.14665506
 30
0.0
 40
6.0
  1
33
 41
0.8
100
AcDbText
1001
ACAD
1000
MTEXTBEGIN
1070
    73
1070
     1
1070
    44
1040
1.0
1070
    74
1070
     0
1000
MTEXTEND
  0
LWPOLYLINE
  5
13D
330
2
100
AcDbEntity
  8
YKK_D
  6
ByBlock
100
AcDbPolyline
 90
        2
 70
     1
 43
0.85
 10
180.76660232
 20
178.14665506
 42
1.0
 10
180.55410232
 20
178.14665506
 42
1.0
  0
LINE
  5
13E
330
2
100
AcDbEntity
  8
YKK_11
  6
ByBlock
 62
     0
100
AcDbLine
 10
185.86035649
 20
184.75552353
 30
0.0
 11
187.06035649
 21
184.75552353
 31
0.0
  0
LINE
  5
13F
330
2
100
AcDbEntity
  8
YKK_D
100
AcDbLine
 10
237.16033706
 20
143.14665506
 30
0.0
 11
237.16033706
 21
155.27101071
 31
0.0
  0
LINE
  5
140
330
2
100
AcDbEntity
  8
YKK_13
  6
YHIDDEN_1
100
AcDbLine
 10
212.56035621
 20
128.24665596
 30
0.0
 11
212.56035621
 21
111.64665596
 31
0.0
  0
LINE
  5
141
330
2
100
AcDbEntity
  8
YKK_D
100
AcDbLine
 10
237.16033706
 20
133.14665506
 30
0.0
 11
237.16033706
 21
122.02664896
 31
0.0
  0
TEXT
  5
142
330
2
100
AcDbEntity
  8
YKK_D
100
AcDbText
 10
236.16033706
 20
123.24512611
 30
0.0
 40
6.0
  1
10
 50
90.0
 41
0.8
100
AcDbText
1001
ACAD
1000
MTEXTBEGIN
1070
    73
1070
     1
1070
    44
1040
1.0
1070
    74
1070
     0
1000
MTEXTEND
  0
LINE
  5
143
330
2
100
AcDbEntity
  8
YKK_D
100
AcDbLine
 10
221.16034326
 20
143.14665506
 30
0.0
 11
238.16033706
 21
143.14665506
 31
0.0
  0
LINE
  5
144
330
2
100
AcDbEntity
  8
YKK_D
100
AcDbLine
 10
221.16035852
 20
133.14665506
 30
0.0
 11
238.16033706
 21
133.14665506
 31
0.0
  0
LINE
  5
145
330
2
100
AcDbEntity
  8
YKK_11
  6
ByBlock
 62
     0
100
AcDbLine
 10
213.66035602
 20
143.1466562
 30
0.0
 11
213.66035602
 21
133.1466562
 31
0.0
  0
LINE
  5
146
330
2
100
AcDbEntity
  8
YKK_11
  6
ByBlock
 62
     0
100
AcDbLine
 10
214.86035602
 20
133.1466562
 30
0.0
 11
214.86035602
 21
143.1466562
 31
0.0
  0
ARC
  5
147
330
2
100
AcDbEntity
  8
YKK_11
  6
ByBlock
 62
     0
100
AcDbCircle
 10
213.66035602
 20
133.1466562
 30
0.0
 40
1.199999999999999
100
AcDbArc
 50
270.00000112
 51
0.0
  0
LINE
  5
148
330
2
100
AcDbEntity
  8
YKK_11
  6
ByBlock
 62
     0
100
AcDbLine
 10
211.66035653
 20
134.34665583
 30
0.0
 11
211.66035653
 21
133.14665583
 31
0.0
  0
LINE
  5
149
330
2
100
AcDbEntity
  8
YKK_11
  6
ByBlock
 62
     0
100
AcDbLine
 10
214.86035602
 20
143.1466562
 30
0.0
 11
213.66035602
 21
143.1466562
 31
0.0
  0
LINE
  5
14A
330
2
100
AcDbEntity
  8
YKK_D
100
AcDbLine
 10
237.16033706
 20
143.14665506
 30
0.0
 11
237.16033706
 21
133.14665506
 31
0.0
  0
LWPOLYLINE
  5
14B
330
2
100
AcDbEntity
  8
YKK_D
  6
ByBlock
100
AcDbPolyline
 90
        2
 70
     1
 43
0.85
 10
237.16033706
 20
133.25290506
 42
1.0
 10
237.16033706
 20
133.04040506
 42
1.0
  0
LINE
  5
14C
330
2
100
AcDbEntity
  8
YKK_D
100
AcDbLine
 10
237.16033706
 20
143.14665506
 30
0.0
 11
233.66033706
 21
149.20883289
 31
0.0
  0
LINE
  5
14D
330
2
100
AcDbEntity
  8
YKK_D
100
AcDbLine
 10
240.66033706
 20
149.20883289
 30
0.0
 11
233.66033706
 21
149.20883289
 31
0.0
  0
LINE
  5
14E
330
2
100
AcDbEntity
  8
YKK_D
100
AcDbLine
 10
237.16033706
 20
143.14665506
 30
0.0
 11
240.66033706
 21
149.20883289
 31
0.0
  0
LWPOLYLINE
  5
14F
330
2
100
AcDbEntity
  8
YKK_D
  6
ByBlock
100
AcDbPolyline
 90
        2
 70
     1
 43
0.85
 10
213.55410232
 20
158.14665506
 42
1.0
 10
213.76660232
 20
158.14665506
 42
1.0
  0
LWPOLYLINE
  5
150
330
2
100
AcDbEntity
  8
YKK_D
  6
ByBlock
100
AcDbPolyline
 90
        2
 70
     1
 43
0.85
 10
213.55410232
 20
178.14665506
 42
1.0
 10
213.76660232
 20
178.14665506
 42
1.0
  0
LINE
  5
151
330
2
100
AcDbEntity
  8
YKK_11
  6
ByBlock
 62
     0
100
AcDbLine
 10
209.36035649
 20
195.95552353
 30
0.0
 11
209.36035649
 21
216.55552353
 31
0.0
  0
LINE
  5
152
330
2
100
AcDbEntity
  8
YKK_11
  6
ByBlock
 62
     0
100
AcDbLine
 10
208.16035649
 20
216.55552353
 30
0.0
 11
208.16035649
 21
195.95552353
 31
0.0
  0
LINE
  5
153
330
2
100
AcDbEntity
  8
YKK_11
  6
ByBlock
 62
     0
100
AcDbLine
 10
187.06035649
 20
194.75552353
 30
0.0
 11
208.16035649
 21
194.75552353
 31
0.0
  0
LINE
  5
154
330
2
100
AcDbEntity
  8
YKK_11
  6
ByBlock
 62
     0
100
AcDbLine
 10
208.16035649
 20
195.95552353
 30
0.0
 11
187.06035649
 21
195.95552353
 31
0.0
  0
ARC
  5
155
330
2
100
AcDbEntity
  8
YKK_11
  6
ByBlock
 62
     0
100
AcDbCircle
 10
187.06035649
 20
194.75552353
 30
0.0
 40
1.199999999999999
100
AcDbArc
 50
89.99998128
 51
180.00001985
  0
ARC
  5
156
330
2
100
AcDbEntity
  8
YKK_11
  6
ByBlock
 62
     0
100
AcDbCircle
 10
208.16035649
 20
195.95552353
 30
0.0
 40
1.199999999999999
100
AcDbArc
 50
270.00000112
 51
0.0
  0
LINE
  5
157
330
2
100
AcDbEntity
  8
YKK_11
  6
ByBlock
 62
     0
100
AcDbLine
 10
208.16035649
 20
217.75552353
 30
0.0
 11
187.06035649
 21
217.75552353
 31
0.0
  0
LINE
  5
158
330
2
100
AcDbEntity
  8
YKK_11
  6
ByBlock
 62
     0
100
AcDbLine
 10
187.06035649
 20
216.55552353
 30
0.0
 11
208.16035649
 21
216.55552353
 31
0.0
  0
LINE
  5
159
330
2
100
AcDbEntity
  8
YKK_11
  6
ByBlock
 62
     0
100
AcDbLine
 10
185.86035649
 20
227.75552353
 30
0.0
 11
185.86035649
 21
217.75552353
 31
0.0
  0
LINE
  5
15A
330
2
100
AcDbEntity
  8
YKK_11
  6
ByBlock
 62
     0
100
AcDbLine
 10
187.06035649
 20
217.75552353
 30
0.0
 11
187.06035649
 21
227.75552353
 31
0.0
  0
ARC
  5
15B
330
2
100
AcDbEntity
  8
YKK_11
  6
ByBlock
 62
     0
100
AcDbCircle
 10
187.06035649
 20
217.75552353
 30
0.0
 40
1.199999999999999
100
AcDbArc
 50
180.00001985
 51
270.00000112
  0
LINE
  5
15C
330
2
100
AcDbEntity
  8
YKK_11
  6
ByBlock
 62
     0
100
AcDbLine
 10
187.06035649
 20
227.75552353
 30
0.0
 11
185.86035649
 21
227.75552353
 31
0.0
  0
ARC
  5
15D
330
2
100
AcDbEntity
  8
YKK_11
  6
ByBlock
 62
     0
100
AcDbCircle
 10
208.16035649
 20
216.55552353
 30
0.0
 40
1.199999999999999
100
AcDbArc
 50
0.0
 51
89.99998128
  0
TEXT
  5
15E
330
2
100
AcDbEntity
  8
YKK_D
100
AcDbText
 10
236.16033706
 20
274.09944694
 30
0.0
 40
6.0
  1
H
 50
90.0
 41
0.8
100
AcDbText
1001
ACAD
1000
MTEXTBEGIN
1070
    73
1070
     1
1070
    44
1040
1.0
1070
    74
1070
     0
1000
MTEXTEND
  0
LINE
  5
15F
330
2
100
AcDbEntity
  8
YKK_11
  6
ByBlock
 62
     0
100
AcDbLine
 10
379.89447635
 20
144.45113207
 30
0.0
 11
379.89447635
 21
164.45113207
 31
0.0
  0
LINE
  5
160
330
2
100
AcDbEntity
  8
YKK_11
  6
ByBlock
 62
     0
100
AcDbLine
 10
378.69447635
 20
164.45113207
 30
0.0
 11
378.69447635
 21
144.45113207
 31
0.0
  0
LINE
  5
161
330
2
100
AcDbEntity
  8
YKK_13
  6
YHIDDEN_1
100
AcDbLine
 10
379.89447643
 20
137.25113211
 30
0.0
 11
379.89447643
 21
163.95113211
 31
0.0
  0
LINE
  5
162
330
2
100
AcDbEntity
  8
YKK_13
  6
YHIDDEN_1
100
AcDbLine
 10
382.19447643
 20
163.95113211
 30
0.0
 11
382.19447643
 21
137.85113211
 31
0.0
  0
LINE
  5
163
330
2
100
AcDbEntity
  8
YKK_D
100
AcDbLine
 10
358.69448623
 20
165.65111825
 30
0.0
 11
358.69448623
 21
144.45113656
 31
0.0
  0
TEXT
  5
164
330
2
100
AcDbEntity
  8
YKK_D
100
AcDbText
 10
357.69448623
 20
148.83791418
 30
0.0
 40
6.0
  1
21.2
 50
90.0
 41
0.8
100
AcDbText
1001
ACAD
1000
MTEXTBEGIN
1070
    73
1070
     1
1070
    44
1040
1.0
1070
    74
1070
     0
1000
MTEXTEND
  0
LINE
  5
165
330
2
100
AcDbEntity
  8
YKK_D
100
AcDbLine
 10
374.69447622
 20
144.45113656
 30
0.0
 11
357.69448623
 21
144.45113656
 31
0.0
  0
LWPOLYLINE
  5
166
330
2
100
AcDbEntity
  8
YKK_D
  6
ByBlock
100
AcDbPolyline
 90
        2
 70
     1
 43
0.85
 10
358.69448623
 20
144.55738656
 42
1.0
 10
358.69448623
 20
144.34488656
 42
1.0
  0
ARC
  5
167
330
2
100
AcDbEntity
  8
YKK_13
  6
YHIDDEN_1
100
AcDbCircle
 10
382.19447643
 20
137.25113211
 30
0.0
 40
2.299999999999998
100
AcDbArc
 50
180.0
 51
270.0
  0
LINE
  5
168
330
2
100
AcDbEntity
  8
YKK_11
  6
ByBlock
 62
     0
100
AcDbLine
 10
378.69447635
 20
144.45113207
 30
0.0
 11
379.89447635
 21
144.45113207
 31
0.0
  0
ARC
  5
169
330
2
100
AcDbEntity
  8
YKK_13
  6
YHIDDEN_1
100
AcDbCircle
 10
382.79447643
 20
137.85113211
 30
0.0
 40
0.6
100
AcDbArc
 50
180.0
 51
270.0
  0
LINE
  5
16A
330
2
100
AcDbEntity
  8
YKK_D
100
AcDbLine
 10
374.69447622
 20
165.65111825
 30
0.0
 11
357.69448623
 21
165.65111825
 31
0.0
  0
LWPOLYLINE
  5
16B
330
2
100
AcDbEntity
  8
YKK_D
  6
ByBlock
100
AcDbPolyline
 90
        2
 70
     1
 43
0.85
 10
358.69448623
 20
165.54486825
 42
1.0
 10
358.69448623
 20
165.75736825
 42
1.0
  0
LINE
  5
16C
330
2
100
AcDbEntity
  8
YKK_D
100
AcDbLine
 10
378.69448623
 20
169.65113208
 30
0.0
 11
378.69448623
 21
186.65111825
 31
0.0
  0
LINE
  5
16D
330
2
100
AcDbEntity
  8
YKK_13
  6
YHIDDEN_1
100
AcDbLine
 10
382.19447643
 20
163.95113211
 30
0.0
 11
379.89447643
 21
163.95113211
 31
0.0
  0
ARC
  5
16E
330
2
100
AcDbEntity
  8
YKK_11
  6
ByBlock
 62
     0
100
AcDbCircle
 10
379.89447635
 20
164.45113207
 30
0.0
 40
1.199999999999999
100
AcDbArc
 50
89.99998128
 51
180.00001985
  0
LWPOLYLINE
  5
16F
330
2
100
AcDbEntity
  8
YKK_D
  6
ByBlock
100
AcDbPolyline
 90
        2
 70
     1
 43
0.85
 10
378.80073623
 20
185.65111825
 42
1.0
 10
378.58823623
 20
185.65111825
 42
1.0
  0
TEXT
  5
170
330
2
100
AcDbEntity
  8
YKK_D
100
AcDbText
 10
388.11225273
 20
186.65111825
 30
0.0
 40
6.0
  1
25
 41
0.8
100
AcDbText
1001
ACAD
1000
MTEXTBEGIN
1070
    73
1070
     1
1070
    44
1040
1.0
1070
    74
1070
     0
1000
MTEXTEND
  0
LINE
  5
171
330
2
100
AcDbEntity
  8
YKK_D
100
AcDbLine
 10
180.66035232
 20
447.14664815
 30
0.0
 11
180.66035232
 21
464.14665506
 31
0.0
  0
LINE
  5
172
330
2
100
AcDbEntity
  8
YKK_D
100
AcDbLine
 10
181.86034927
 20
449.14665077
 30
0.0
 11
181.86034927
 21
464.14665506
 31
0.0
  0
LINE
  5
173
330
2
100
AcDbEntity
  8
YKK_D
100
AcDbLine
 10
181.86034927
 20
447.14664838
 30
0.0
 11
181.86034927
 21
464.14665506
 31
0.0
  0
LINE
  5
174
330
2
100
AcDbEntity
  8
YKK_D
100
AcDbLine
 10
201.86034927
 20
447.14664815
 30
0.0
 11
201.86034927
 21
464.14665506
 31
0.0
  0
LINE
  5
175
330
2
100
AcDbEntity
  8
YKK_11
  6
ByBlock
 62
     0
100
AcDbLine
 10
185.86035649
 20
372.75552353
 30
0.0
 11
185.86035649
 21
362.75552353
 31
0.0
  0
LINE
  5
176
330
2
100
AcDbEntity
  8
YKK_11
  6
ByBlock
 62
     0
100
AcDbLine
 10
187.06035649
 20
362.75552353
 30
0.0
 11
187.06035649
 21
372.75552353
 31
0.0
  0
LINE
  5
177
330
2
100
AcDbEntity
  8
YKK_11
  6
ByBlock
 62
     0
100
AcDbLine
 10
209.36035649
 20
340.95552353
 30
0.0
 11
209.36035649
 21
361.55552353
 31
0.0
  0
LINE
  5
178
330
2
100
AcDbEntity
  8
YKK_11
  6
ByBlock
 62
     0
100
AcDbLine
 10
208.16035649
 20
361.55552353
 30
0.0
 11
208.16035649
 21
340.95552353
 31
0.0
  0
LINE
  5
179
330
2
100
AcDbEntity
  8
YKK_11
  6
ByBlock
 62
     0
100
AcDbLine
 10
187.06035649
 20
339.75552353
 30
0.0
 11
208.16035649
 21
339.75552353
 31
0.0
  0
LINE
  5
17A
330
2
100
AcDbEntity
  8
YKK_11
  6
ByBlock
 62
     0
100
AcDbLine
 10
208.16035649
 20
340.95552353
 30
0.0
 11
187.06035649
 21
340.95552353
 31
0.0
  0
LINE
  5
17B
330
2
100
AcDbEntity
  8
YKK_11
  6
ByBlock
 62
     0
100
AcDbLine
 10
187.06035649
 20
329.75552353
 30
0.0
 11
187.06035649
 21
339.75552353
 31
0.0
  0
LINE
  5
17C
330
2
100
AcDbEntity
  8
YKK_11
  6
ByBlock
 62
     0
100
AcDbLine
 10
185.86035649
 20
339.75552353
 30
0.0
 11
185.86035649
 21
329.75552353
 31
0.0
  0
LINE
  5
17D
330
2
100
AcDbEntity
  8
YKK_11
  6
ByBlock
 62
     0
100
AcDbLine
 10
185.86035649
 20
329.75552353
 30
0.0
 11
187.06035649
 21
329.75552353
 31
0.0
  0
ARC
  5
17E
330
2
100
AcDbEntity
  8
YKK_11
  6
ByBlock
 62
     0
100
AcDbCircle
 10
187.06035649
 20
339.75552353
 30
0.0
 40
1.199999999999999
100
AcDbArc
 50
89.99998128
 51
180.00001985
  0
ARC
  5
17F
330
2
100
AcDbEntity
  8
YKK_11
  6
ByBlock
 62
     0
100
AcDbCircle
 10
208.16035649
 20
340.95552353
 30
0.0
 40
1.199999999999999
100
AcDbArc
 50
270.00000112
 51
0.0
  0
LINE
  5
180
330
2
100
AcDbEntity
  8
YKK_11
  6
ByBlock
 62
     0
100
AcDbLine
 10
208.16035649
 20
362.75552353
 30
0.0
 11
187.06035649
 21
362.75552353
 31
0.0
  0
LINE
  5
181
330
2
100
AcDbEntity
  8
YKK_11
  6
ByBlock
 62
     0
100
AcDbLine
 10
187.06035649
 20
361.55552353
 30
0.0
 11
208.16035649
 21
361.55552353
 31
0.0
  0
ARC
  5
182
330
2
100
AcDbEntity
  8
YKK_11
  6
ByBlock
 62
     0
100
AcDbCircle
 10
187.06035649
 20
362.75552353
 30
0.0
 40
1.199999999999999
100
AcDbArc
 50
180.00001985
 51
270.00000112
  0
ARC
  5
183
330
2
100
AcDbEntity
  8
YKK_11
  6
ByBlock
 62
     0
100
AcDbCircle
 10
208.16035649
 20
361.55552353
 30
0.0
 40
1.199999999999999
100
AcDbArc
 50
0.0
 51
89.99998128
  0
LINE
  5
184
330
2
100
AcDbEntity
  8
YKK_11
  6
ByBlock
 62
     0
100
AcDbLine
 10
183.06035602
 20
419.34665572
 30
0.0
 11
213.66035602
 21
419.34665572
 31
0.0
  0
LINE
  5
185
330
2
100
AcDbEntity
  8
YKK_11
  6
ByBlock
 62
     0
100
AcDbLine
 10
213.66035602
 20
418.14665572
 30
0.0
 11
183.06035602
 21
418.14665572
 31
0.0
  0
LINE
  5
186
330
2
100
AcDbEntity
  8
YKK_11
  6
ByBlock
 62
     0
100
AcDbLine
 10
185.86035611
 20
416.94665563
 30
0.0
 11
211.66035611
 21
416.94665563
 31
0.0
  0
LINE
  5
187
330
2
100
AcDbEntity
  8
YKK_12
  6
Continuous
100
AcDbLine
 10
185.86035621
 20
408.14665596
 30
0.0
 11
211.66035621
 21
408.14665596
 31
0.0
  0
ARC
  5
188
330
2
100
AcDbEntity
  8
YKK_13
  6
YHIDDEN_1
100
AcDbCircle
 10
210.26035621
 20
439.64665596
 30
0.0
 40
2.299999999999998
100
AcDbArc
 50
0.0
 51
90.0
  0
ARC
  5
189
330
2
100
AcDbEntity
  8
YKK_13
  6
YHIDDEN_1
100
AcDbCircle
 10
210.26035621
 20
423.04665596
 30
0.0
 40
2.299999999999998
100
AcDbArc
 50
270.0
 51
0.0
  0
LINE
  5
18A
330
2
100
AcDbEntity
  8
YKK_11
  6
ByBlock
 62
     0
100
AcDbLine
 10
187.06035649
 20
372.75552353
 30
0.0
 11
185.86035649
 21
372.75552353
 31
0.0
  0
LINE
  5
18B
330
2
100
AcDbEntity
  8
YKK_D
100
AcDbLine
 10
160.66035232
 20
443.14665506
 30
0.0
 11
160.66035232
 21
418.14665506
 31
0.0
  0
LINE
  5
18C
330
2
100
AcDbEntity
  8
YKK_D
100
AcDbLine
 10
176.66035852
 20
418.14665506
 30
0.0
 11
159.66035232
 21
418.14665506
 31
0.0
  0
LWPOLYLINE
  5
18D
330
2
100
AcDbEntity
  8
YKK_D
  6
ByBlock
100
AcDbPolyline
 90
        2
 70
     1
 43
0.85
 10
160.66035232
 20
418.25290506
 42
1.0
 10
160.66035232
 20
418.04040506
 42
1.0
  0
LWPOLYLINE
  5
18E
330
2
100
AcDbEntity
  8
YKK_D
  6
ByBlock
100
AcDbPolyline
 90
        2
 70
     1
 43
0.85
 10
160.66035232
 20
418.04040506
 42
1.0
 10
160.66035232
 20
418.25290506
 42
1.0
  0
TEXT
  5
18F
330
2
100
AcDbEntity
  8
YKK_D
100
AcDbText
 10
159.66035232
 20
427.56442156
 30
0.0
 40
6.0
  1
25
 50
90.0
 41
0.8
100
AcDbText
1001
ACAD
1000
MTEXTBEGIN
1070
    73
1070
     1
1070
    44
1040
1.0
1070
    74
1070
     0
1000
MTEXTEND
  0
LINE
  5
190
330
2
100
AcDbEntity
  8
YKK_D
100
AcDbLine
 10
176.66035852
 20
443.14665506
 30
0.0
 11
159.66035232
 21
443.14665506
 31
0.0
  0
LWPOLYLINE
  5
191
330
2
100
AcDbEntity
  8
YKK_D
  6
ByBlock
100
AcDbPolyline
 90
        2
 70
     1
 43
0.85
 10
160.66035232
 20
443.04040506
 42
1.0
 10
160.66035232
 20
443.25290506
 42
1.0
  0
LINE
  5
192
330
2
100
AcDbEntity
  8
YKK_11
  6
ByBlock
 62
     0
100
AcDbLine
 10
183.06035602
 20
441.94665572
 30
0.0
 11
183.06035602
 21
419.34665572
 31
0.0
  0
LINE
  5
193
330
2
100
AcDbEntity
  8
YKK_11
  6
ByBlock
 62
     0
100
AcDbLine
 10
181.86035602
 20
419.34665572
 30
0.0
 11
181.86035602
 21
441.94665572
 31
0.0
  0
LINE
  5
194
330
2
100
AcDbEntity
  8
YKK_13
  6
YHIDDEN_1
100
AcDbLine
 10
210.26035621
 20
423.64665596
 30
0.0
 11
210.26035621
 21
439.04665596
 31
0.0
  0
ARC
  5
195
330
2
100
AcDbEntity
  8
YKK_11
  6
ByBlock
 62
     0
100
AcDbCircle
 10
183.06035602
 20
419.34665572
 30
0.0
 40
1.199999999999999
100
AcDbArc
 50
180.00001985
 51
270.00000112
  0
ARC
  5
196
330
2
100
AcDbEntity
  8
YKK_11
  6
ByBlock
 62
     0
100
AcDbCircle
 10
186.06035611
 20
416.74665563
 30
0.0
 40
1.399999999999999
100
AcDbArc
 50
89.99998128
 51
180.00001985
  0
LINE
  5
197
330
2
100
AcDbEntity
  8
YKK_13
  6
YHIDDEN_1
100
AcDbLine
 10
210.26035621
 20
420.74665596
 30
0.0
 11
199.56035621
 21
420.74665596
 31
0.0
  0
LINE
  5
198
330
2
100
AcDbEntity
  8
YKK_13
  6
YHIDDEN_1
100
AcDbLine
 10
199.56035621
 20
423.04665596
 30
0.0
 11
209.66035621
 21
423.04665596
 31
0.0
  0
LINE
  5
199
330
2
100
AcDbEntity
  8
YKK_13
  6
YHIDDEN_1
100
AcDbLine
 10
199.56035621
 20
420.74665596
 30
0.0
 11
199.56035621
 21
423.04665596
 31
0.0
  0
ARC
  5
19A
330
2
100
AcDbEntity
  8
YKK_13
  6
YHIDDEN_1
100
AcDbCircle
 10
209.66035621
 20
423.64665596
 30
0.0
 40
0.6
100
AcDbArc
 50
270.0
 51
0.0
  0
LINE
  5
19B
330
2
100
AcDbEntity
  8
YKK_11
  6
ByBlock
 62
     0
100
AcDbLine
 10
201.86303802
 20
441.94665572
 30
0.0
 11
183.06035602
 21
441.94665572
 31
0.0
  0
LINE
  5
19C
330
2
100
AcDbEntity
  8
YKK_11
  6
ByBlock
 62
     0
100
AcDbLine
 10
183.06035602
 20
443.14665572
 30
0.0
 11
201.86035602
 21
443.14665572
 31
0.0
  0
LINE
  5
19D
330
2
100
AcDbEntity
  8
YKK_13
  6
YHIDDEN_1
100
AcDbLine
 10
210.26035621
 20
441.94665596
 30
0.0
 11
183.56035621
 21
441.94665596
 31
0.0
  0
LINE
  5
19E
330
2
100
AcDbEntity
  8
YKK_13
  6
YHIDDEN_1
100
AcDbLine
 10
183.56035621
 20
439.64665596
 30
0.0
 11
209.66035621
 21
439.64665596
 31
0.0
  0
ARC
  5
19F
330
2
100
AcDbEntity
  8
YKK_11
  6
ByBlock
 62
     0
100
AcDbCircle
 10
183.06035602
 20
441.94665572
 30
0.0
 40
1.199999999999999
100
AcDbArc
 50
89.99998128
 51
180.00001985
  0
LINE
  5
1A0
330
2
100
AcDbEntity
  8
YKK_12
  6
Continuous
100
AcDbLine
 10
180.66035621
 20
443.14665596
 30
0.0
 11
183.63268941
 21
443.14665596
 31
0.0
  0
LINE
  5
1A1
330
2
100
AcDbEntity
  8
YKK_13
  6
YHIDDEN_1
100
AcDbLine
 10
183.56035621
 20
439.64665596
 30
0.0
 11
183.56035621
 21
441.94665596
 31
0.0
  0
LINE
  5
1A2
330
2
100
AcDbEntity
  8
YKK_11
  6
ByBlock
 62
     0
100
AcDbLine
 10
201.86035602
 20
443.14665572
 30
0.0
 11
201.86035602
 21
441.94665572
 31
0.0
  0
ARC
  5
1A3
330
2
100
AcDbEntity
  8
YKK_13
  6
YHIDDEN_1
100
AcDbCircle
 10
209.66035621
 20
439.04665596
 30
0.0
 40
0.6
100
AcDbArc
 50
0.0
 51
90.0
  0
LINE
  5
1A4
330
2
100
AcDbEntity
  8
YKK_11
  6
ByBlock
 62
     0
100
AcDbLine
 10
213.66035602
 20
408.14665572
 30
0.0
 11
213.66035602
 21
418.14665572
 31
0.0
  0
LINE
  5
1A5
330
2
100
AcDbEntity
  8
YKK_11
  6
ByBlock
 62
     0
100
AcDbLine
 10
214.86035602
 20
418.14665572
 30
0.0
 11
214.86035602
 21
408.14665572
 31
0.0
  0
LINE
  5
1A6
330
2
100
AcDbEntity
  8
YKK_D
100
AcDbLine
 10
237.16033706
 20
408.14665506
 30
0.0
 11
237.16033706
 21
418.14665506
 31
0.0
  0
LINE
  5
1A7
330
2
100
AcDbEntity
  8
YKK_D
100
AcDbLine
 10
221.16034326
 20
408.14665506
 30
0.0
 11
238.16033706
 21
408.14665506
 31
0.0
  0
LINE
  5
1A8
330
2
100
AcDbEntity
  8
YKK_11
  6
ByBlock
 62
     0
100
AcDbLine
 10
214.86035602
 20
408.14665572
 30
0.0
 11
213.66035602
 21
408.14665572
 31
0.0
  0
LINE
  5
1A9
330
2
100
AcDbEntity
  8
YKK_D
100
AcDbLine
 10
237.16033706
 20
408.14665506
 30
0.0
 11
233.66033706
 21
402.08447723
 31
0.0
  0
LINE
  5
1AA
330
2
100
AcDbEntity
  8
YKK_D
100
AcDbLine
 10
237.16033706
 20
408.14665506
 30
0.0
 11
240.66033706
 21
402.08447723
 31
0.0
  0
LINE
  5
1AB
330
2
100
AcDbEntity
  8
YKK_D
100
AcDbLine
 10
237.16033706
 20
408.14665506
 30
0.0
 11
237.16033706
 21
396.02229941
 31
0.0
  0
LINE
  5
1AC
330
2
100
AcDbEntity
  8
YKK_D
100
AcDbLine
 10
233.66033706
 20
402.08447723
 30
0.0
 11
240.66033706
 21
402.08447723
 31
0.0
  0
LINE
  5
1AD
330
2
100
AcDbEntity
  8
YKK_13
  6
YHIDDEN_1
100
AcDbLine
 10
212.56035621
 20
423.04665596
 30
0.0
 11
212.56035621
 21
439.64665596
 31
0.0
  0
LINE
  5
1AE
330
2
100
AcDbEntity
  8
YKK_D
100
AcDbLine
 10
221.16035852
 20
418.14665506
 30
0.0
 11
238.16033706
 21
418.14665506
 31
0.0
  0
ARC
  5
1AF
330
2
100
AcDbEntity
  8
YKK_11
  6
ByBlock
 62
     0
100
AcDbCircle
 10
213.66035602
 20
418.14665572
 30
0.0
 40
1.199999999999999
100
AcDbArc
 50
0.0
 51
89.99998128
  0
LINE
  5
1B0
330
2
100
AcDbEntity
  8
YKK_11
  6
ByBlock
 62
     0
100
AcDbLine
 10
211.66035611
 20
416.94665563
 30
0.0
 11
211.66035611
 21
418.14665563
 31
0.0
  0
LINE
  5
1B1
330
2
100
AcDbEntity
  8
YKK_D
100
AcDbLine
 10
237.16033706
 20
418.14665506
 30
0.0
 11
237.16033706
 21
429.26666116
 31
0.0
  0
TEXT
  5
1B2
330
2
100
AcDbEntity
  8
YKK_D
100
AcDbText
 10
236.16033706
 20
421.44513832
 30
0.0
 40
6.0
  1
10
 50
90.0
 41
0.8
100
AcDbText
1001
ACAD
1000
MTEXTBEGIN
1070
    73
1070
     1
1070
    44
1040
1.0
1070
    74
1070
     0
1000
MTEXTEND
  0
LWPOLYLINE
  5
1B3
330
2
100
AcDbEntity
  8
YKK_D
  6
ByBlock
100
AcDbPolyline
 90
        2
 70
     1
 43
0.85
 10
237.16033706
 20
418.04040506
 42
1.0
 10
237.16033706
 20
418.25290506
 42
1.0
  0
LINE
  5
1B4
330
2
100
AcDbEntity
  8
YKK_D
100
AcDbLine
 10
180.66035232
 20
463.14665506
 30
0.0
 11
164.06035232
 21
463.14665506
 31
0.0
  0
TEXT
  5
1B5
330
2
100
AcDbEntity
  8
YKK_D
100
AcDbText
 10
165.84816958
 20
464.14665506
 30
0.0
 40
6.0
  1
1.2
 41
0.8
100
AcDbText
1001
ACAD
1000
MTEXTBEGIN
1070
    73
1070
     1
1070
    44
1040
1.0
1070
    74
1070
     0
1000
MTEXTEND
  0
LINE
  5
1B6
330
2
100
AcDbEntity
  8
YKK_D
100
AcDbLine
 10
181.86034927
 20
463.14665506
 30
0.0
 11
201.86034927
 21
463.14665506
 31
0.0
  0
TEXT
  5
1B7
330
2
100
AcDbEntity
  8
YKK_D
100
AcDbText
 10
188.71720206
 20
464.14665506
 30
0.0
 40
6.0
  1
20
 41
0.8
100
AcDbText
1001
ACAD
1000
MTEXTBEGIN
1070
    73
1070
     1
1070
    44
1040
1.0
1070
    74
1070
     0
1000
MTEXTEND
  0
LINE
  5
1B8
330
2
100
AcDbEntity
  8
YKK_D
100
AcDbLine
 10
181.86034927
 20
463.14665506
 30
0.0
 11
183.56034927
 21
463.14665506
 31
0.0
  0
LINE
  5
1B9
330
2
100
AcDbEntity
  8
YKK_D
100
AcDbLine
 10
181.86034927
 20
463.14665506
 30
0.0
 11
180.66035232
 21
463.14665506
 31
0.0
  0
LWPOLYLINE
  5
1BA
330
2
100
AcDbEntity
  8
YKK_D
  6
ByBlock
100
AcDbPolyline
 90
        2
 70
     1
 43
0.85
 10
180.55410232
 20
463.14665506
 42
1.0
 10
180.76660232
 20
463.14665506
 42
1.0
  0
LWPOLYLINE
  5
1BB
330
2
100
AcDbEntity
  8
YKK_D
  6
ByBlock
100
AcDbPolyline
 90
        2
 70
     1
 43
0.85
 10
181.96659927
 20
463.14665506
 42
1.0
 10
181.75409927
 20
463.14665506
 42
1.0
  0
LWPOLYLINE
  5
1BC
330
2
100
AcDbEntity
  8
YKK_D
  6
ByBlock
100
AcDbPolyline
 90
        2
 70
     1
 43
0.85
 10
181.96659927
 20
463.14665506
 42
1.0
 10
181.75409927
 20
463.14665506
 42
1.0
  0
LWPOLYLINE
  5
1BD
330
2
100
AcDbEntity
  8
YKK_D
  6
ByBlock
100
AcDbPolyline
 90
        2
 70
     1
 43
0.85
 10
201.75409927
 20
463.14665506
 42
1.0
 10
201.96659927
 20
463.14665506
 42
1.0
  0
TEXT
  5
1BE
330
2
100
AcDbEntity
  8
USER1
 62
     3
100
AcDbText
 10
436.33705229
 20
1.3753389
 30
0.0
 40
4.2
  1
〔2GC NFP〕
 72
     4
 11
454.37705229
 21
3.4753389
 31
0.0
100
AcDbText
  0
TEXT
  5
1BF
330
2
100
AcDbEntity
  8
USER1
 62
     3
100
AcDbText
 10
428.73899083
 20
21.07600508
 30
0.0
 40
7.0
  1
2GC33F01
 72
     4
 11
454.40565749
 21
24.57600508
 31
0.0
100
AcDbText
  0
TEXT
  5
1C0
330
2
100
AcDbEntity
  8
USER1
 62
     3
100
AcDbText
 10
595.53333193
 20
15.4007
 30
0.0
 40
5.6
  1
1
 72
     1
 11
597.7999986
 21
18.2007
 31
0.0
100
AcDbText
 73
     2
  0
TEXT
  5
1C1
330
2
100
AcDbEntity
  8
USER1
 62
     3
100
AcDbText
 10
587.9999986
 20
21.0007
 30
0.0
 40
5.6
  1
1
100
AcDbText
  0
LINE
  5
1C2
330
2
100
AcDbEntity
  8
YKK_11
  6
ByBlock
 62
     0
100
AcDbLine
 10
508.19447656
 20
161.65113166
 30
0.0
 11
608.29447656
 21
161.65113166
 31
0.0
  0
LINE
  5
1C3
330
2
100
AcDbEntity
  8
YKK_11
  6
ByBlock
 62
     0
100
AcDbLine
 10
508.19447656
 20
160.45113166
 30
0.0
 11
608.49447656
 21
160.45113166
 31
0.0
  0
LINE
  5
1C4
330
2
100
AcDbEntity
  8
YKK_12
  6
Continuous
100
AcDbLine
 10
609.69447643
 20
164.45113211
 30
0.0
 11
508.19447643
 21
164.45113211
 31
0.0
  0
LINE
  5
1C5
330
2
100
AcDbEntity
  8
YKK_12
  6
Continuous
100
AcDbLine
 10
609.69447643
 20
131.45113211
 30
0.0
 11
508.19447643
 21
131.45113211
 31
0.0
  0
LINE
  5
1C6
330
2
100
AcDbEntity
  8
YKK_12
  6
Continuous
100
AcDbLine
 10
508.19447643
 20
132.65113211
 30
0.0
 11
609.69447643
 21
132.65113211
 31
0.0
  0
LINE
  5
1C7
330
2
100
AcDbEntity
  8
YKK_12
  6
Continuous
100
AcDbLine
 10
508.19447643
 20
134.65113211
 30
0.0
 11
599.69447643
 21
134.65113211
 31
0.0
  0
LINE
  5
1C8
330
2
100
AcDbEntity
  8
YKK_D
100
AcDbLine
 10
420.69448623
 20
110.35113046
 30
0.0
 11
592.69445571
 21
110.35113046
 31
0.0
  0
LINE
  5
1C9
330
2
100
AcDbEntity
  8
YKK_D
100
AcDbLine
 10
403.69448623
 20
185.65111825
 30
0.0
 11
609.69445571
 21
185.65111825
 31
0.0
  0
LINE
  5
1CA
330
2
100
AcDbEntity
  8
YKK_11
  6
ByBlock
 62
     0
100
AcDbLine
 10
404.89447675
 20
160.45113165
 30
0.0
 11
505.19447675
 21
160.45113165
 31
0.0
  0
LINE
  5
1CB
330
2
100
AcDbEntity
  8
YKK_11
  6
ByBlock
 62
     0
100
AcDbLine
 10
405.09447675
 20
161.65113165
 30
0.0
 11
505.19447675
 21
161.65113165
 31
0.0
  0
LINE
  5
1CC
330
2
100
AcDbEntity
  8
YKK_12
  6
Continuous
100
AcDbLine
 10
403.69447643
 20
132.65113211
 30
0.0
 11
505.19447643
 21
132.65113211
 31
0.0
  0
LINE
  5
1CD
330
2
100
AcDbEntity
  8
YKK_12
  6
Continuous
100
AcDbLine
 10
505.19447643
 20
164.45113211
 30
0.0
 11
403.69447643
 21
164.45113211
 31
0.0
  0
LINE
  5
1CE
330
2
100
AcDbEntity
  8
YKK_12
  6
Continuous
100
AcDbLine
 10
505.19447643
 20
131.45113211
 30
0.0
 11
403.69447643
 21
131.45113211
 31
0.0
  0
LINE
  5
1CF
330
2
100
AcDbEntity
  8
YKK_12
  6
Continuous
100
AcDbLine
 10
413.69447643
 20
134.65113211
 30
0.0
 11
505.19447643
 21
134.65113211
 31
0.0
  0
LINE
  5
1D0
330
2
100
AcDbEntity
  8
YKK_11
  6
ByBlock
 62
     0
100
AcDbLine
 10
404.89447675
 20
134.65113165
 30
0.0
 11
404.89447675
 21
160.45113165
 31
0.0
  0
LINE
  5
1D1
330
2
100
AcDbEntity
  8
YKK_11
  6
ByBlock
 62
     0
100
AcDbLine
 10
402.49447635
 20
164.45113207
 30
0.0
 11
402.49447635
 21
133.85113207
 31
0.0
  0
LINE
  5
1D2
330
2
100
AcDbEntity
  8
YKK_11
  6
ByBlock
 62
     0
100
AcDbLine
 10
403.69447635
 20
133.85113207
 30
0.0
 11
403.69447635
 21
164.45113207
 31
0.0
  0
LINE
  5
1D3
330
2
100
AcDbEntity
  8
YKK_12
  6
Continuous
100
AcDbLine
 10
413.69447643
 20
160.45113211
 30
0.0
 11
413.69447643
 21
134.65113211
 31
0.0
  0
LINE
  5
1D4
330
2
100
AcDbEntity
  8
YKK_D
100
AcDbLine
 10
453.69448623
 20
165.65111825
 30
0.0
 11
453.69448623
 21
132.65113351
 31
0.0
  0
LINE
  5
1D5
330
2
100
AcDbEntity
  8
YKK_D
100
AcDbLine
 10
433.69448623
 20
161.65111825
 30
0.0
 11
433.69448623
 21
132.65113351
 31
0.0
  0
TEXT
  5
1D6
330
2
100
AcDbEntity
  8
YKK_D
100
AcDbText
 10
432.69448623
 20
144.06888475
 30
0.0
 40
6.0
  1
29
 50
90.0
 41
0.8
100
AcDbText
1001
ACAD
1000
MTEXTBEGIN
1070
    73
1070
     1
1070
    44
1040
1.0
1070
    74
1070
     0
1000
MTEXTEND
  0
TEXT
  5
1D7
330
2
100
AcDbEntity
  8
YKK_D
100
AcDbText
 10
452.69448623
 20
146.08106749
 30
0.0
 40
6.0
  1
33
 50
90.0
 41
0.8
100
AcDbText
1001
ACAD
1000
MTEXTBEGIN
1070
    73
1070
     1
1070
    44
1040
1.0
1070
    74
1070
     0
1000
MTEXTEND
  0
LINE
  5
1D8
330
2
100
AcDbEntity
  8
YKK_D
100
AcDbLine
 10
413.69448623
 20
110.35113046
 30
0.0
 11
403.69448623
 21
110.35113046
 31
0.0
  0
LINE
  5
1D9
330
2
100
AcDbEntity
  8
YKK_D
100
AcDbLine
 10
403.69448623
 20
126.35113189
 30
0.0
 11
403.69448623
 21
109.35113046
 31
0.0
  0
LWPOLYLINE
  5
1DA
330
2
100
AcDbEntity
  8
YKK_D
  6
ByBlock
100
AcDbPolyline
 90
        2
 70
     1
 43
0.85
 10
403.80073623
 20
110.35113046
 42
1.0
 10
403.58823623
 20
110.35113046
 42
1.0
  0
LINE
  5
1DB
330
2
100
AcDbEntity
  8
YKK_D
100
AcDbLine
 10
413.69448623
 20
126.35113189
 30
0.0
 11
413.69448623
 21
109.35113046
 31
0.0
  0
LINE
  5
1DC
330
2
100
AcDbEntity
  8
YKK_D
100
AcDbLine
 10
413.69448623
 20
110.35113046
 30
0.0
 11
425.81884188
 21
110.35113046
 31
0.0
  0
LINE
  5
1DD
330
2
100
AcDbEntity
  8
YKK_D
100
AcDbLine
 10
413.69448623
 20
110.35113046
 30
0.0
 11
419.75666406
 21
106.85113046
 31
0.0
  0
LINE
  5
1DE
330
2
100
AcDbEntity
  8
YKK_D
100
AcDbLine
 10
413.69448623
 20
110.35113046
 30
0.0
 11
419.75666406
 21
113.85113046
 31
0.0
  0
LINE
  5
1DF
330
2
100
AcDbEntity
  8
YKK_D
100
AcDbLine
 10
419.75666406
 20
106.85113046
 30
0.0
 11
419.75666406
 21
113.85113046
 31
0.0
  0
LINE
  5
1E0
330
2
100
AcDbEntity
  8
YKK_11
  6
ByBlock
 62
     0
100
AcDbLine
 10
413.69447635
 20
133.85113207
 30
0.0
 11
403.69447635
 21
133.85113207
 31
0.0
  0
LINE
  5
1E1
330
2
100
AcDbEntity
  8
YKK_11
  6
ByBlock
 62
     0
100
AcDbLine
 10
403.69447635
 20
132.65113207
 30
0.0
 11
413.69447635
 21
132.65113207
 31
0.0
  0
LINE
  5
1E2
330
2
100
AcDbEntity
  8
YKK_13
  6
YHIDDEN_1
100
AcDbLine
 10
401.09447643
 20
137.25113211
 30
0.0
 11
401.09447643
 21
147.95113211
 31
0.0
  0
LINE
  5
1E3
330
2
100
AcDbEntity
  8
YKK_13
  6
YHIDDEN_1
100
AcDbLine
 10
398.79447643
 20
147.95113211
 30
0.0
 11
398.79447643
 21
137.85113211
 31
0.0
  0
LINE
  5
1E4
330
2
100
AcDbEntity
  8
YKK_11
  6
ByBlock
 62
     0
100
AcDbLine
 10
403.69447675
 20
134.65113165
 30
0.0
 11
404.89447675
 21
134.65113165
 31
0.0
  0
ARC
  5
1E5
330
2
100
AcDbEntity
  8
YKK_11
  6
ByBlock
 62
     0
100
AcDbCircle
 10
403.69447635
 20
133.85113207
 30
0.0
 40
1.199999999999999
100
AcDbArc
 50
180.00001985
 51
270.00000112
  0
LINE
  5
1E6
330
2
100
AcDbEntity
  8
YKK_12
  6
Continuous
100
AcDbLine
 10
403.69447643
 20
132.65113211
 30
0.0
 11
403.69447643
 21
131.45113211
 31
0.0
  0
ARC
  5
1E7
330
2
100
AcDbEntity
  8
YKK_13
  6
YHIDDEN_1
100
AcDbCircle
 10
398.79447643
 20
137.25113211
 30
0.0
 40
2.299999999999998
100
AcDbArc
 50
270.0
 51
0.0
  0
ARC
  5
1E8
330
2
100
AcDbEntity
  8
YKK_13
  6
YHIDDEN_1
100
AcDbCircle
 10
398.19447643
 20
137.85113211
 30
0.0
 40
0.6
100
AcDbArc
 50
270.0
 51
0.0
  0
LINE
  5
1E9
330
2
100
AcDbEntity
  8
YKK_13
  6
YHIDDEN_1
100
AcDbLine
 10
401.09447643
 20
147.95113211
 30
0.0
 11
398.79447643
 21
147.95113211
 31
0.0
  0
LINE
  5
1EA
330
2
100
AcDbEntity
  8
YKK_11
  6
ByBlock
 62
     0
100
AcDbLine
 10
413.69447635
 20
132.65113207
 30
0.0
 11
413.69447635
 21
133.85113207
 31
0.0
  0
LWPOLYLINE
  5
1EB
330
2
100
AcDbEntity
  8
YKK_D
  6
ByBlock
100
AcDbPolyline
 90
        2
 70
     1
 43
0.85
 10
433.69448623
 20
132.75738351
 42
1.0
 10
433.69448623
 20
132.54488351
 42
1.0
  0
LWPOLYLINE
  5
1EC
330
2
100
AcDbEntity
  8
YKK_D
  6
ByBlock
100
AcDbPolyline
 90
        2
 70
     1
 43
0.85
 10
453.69448623
 20
132.75738351
 42
1.0
 10
453.69448623
 20
132.54488351
 42
1.0
  0
LINE
  5
1ED
330
2
100
AcDbEntity
  8
YKK_D
100
AcDbLine
 10
427.57259902
 20
165.65111825
 30
0.0
 11
434.69448623
 21
165.65111825
 31
0.0
  0
LINE
  5
1EE
330
2
100
AcDbEntity
  8
YKK_D
100
AcDbLine
 10
417.69447669
 20
165.65111825
 30
0.0
 11
454.69448623
 21
165.65111825
 31
0.0
  0
TEXT
  5
1EF
330
2
100
AcDbEntity
  8
YKK_D
100
AcDbText
 10
432.69448623
 20
170.10391013
 30
0.0
 40
6.0
  1
4
 50
90.0
 41
0.8
100
AcDbText
1001
ACAD
1000
MTEXTBEGIN
1070
    73
1070
     1
1070
    44
1040
1.0
1070
    74
1070
     0
1000
MTEXTEND
  0
LINE
  5
1F0
330
2
100
AcDbEntity
  8
YKK_D
100
AcDbLine
 10
403.69448623
 20
169.65113208
 30
0.0
 11
403.69448623
 21
186.65111825
 31
0.0
  0
ARC
  5
1F1
330
2
100
AcDbEntity
  8
YKK_11
  6
ByBlock
 62
     0
100
AcDbCircle
 10
405.09447675
 20
160.25113165
 30
0.0
 40
1.399999999999999
100
AcDbArc
 50
89.99998128
 51
180.00001985
  0
ARC
  5
1F2
330
2
100
AcDbEntity
  8
YKK_11
  6
ByBlock
 62
     0
100
AcDbCircle
 10
402.49447635
 20
164.45113207
 30
0.0
 40
1.199999999999999
100
AcDbArc
 50
0.0
 51
89.99998128
  0
LINE
  5
1F3
330
2
100
AcDbEntity
  8
YKK_D
100
AcDbLine
 10
403.69448623
 20
184.65113733
 30
0.0
 11
403.69448623
 21
186.65111825
 31
0.0
  0
LWPOLYLINE
  5
1F4
330
2
100
AcDbEntity
  8
YKK_D
  6
ByBlock
100
AcDbPolyline
 90
        2
 70
     1
 43
0.85
 10
403.58823623
 20
185.65111825
 42
1.0
 10
403.80073623
 20
185.65111825
 42
1.0
  0
LWPOLYLINE
  5
1F5
330
2
100
AcDbEntity
  8
YKK_D
  6
ByBlock
100
AcDbPolyline
 90
        2
 70
     1
 43
0.85
 10
403.80073623
 20
185.65111825
 42
1.0
 10
403.58823623
 20
185.65111825
 42
1.0
  0
LINE
  5
1F6
330
2
100
AcDbEntity
  8
YKK_D
100
AcDbLine
 10
433.69448623
 20
165.65111825
 30
0.0
 11
433.69448623
 21
174.25111825
 31
0.0
  0
LINE
  5
1F7
330
2
100
AcDbEntity
  8
YKK_D
100
AcDbLine
 10
433.69448623
 20
161.65111825
 30
0.0
 11
433.69448623
 21
165.65111825
 31
0.0
  0
LWPOLYLINE
  5
1F8
330
2
100
AcDbEntity
  8
YKK_D
  6
ByBlock
100
AcDbPolyline
 90
        2
 70
     1
 43
0.85
 10
433.69448623
 20
161.54486825
 42
1.0
 10
433.69448623
 20
161.75736825
 42
1.0
  0
LWPOLYLINE
  5
1F9
330
2
100
AcDbEntity
  8
YKK_D
  6
ByBlock
100
AcDbPolyline
 90
        2
 70
     1
 43
0.85
 10
433.69448623
 20
165.54486825
 42
1.0
 10
433.69448623
 20
165.75736825
 42
1.0
  0
LWPOLYLINE
  5
1FA
330
2
100
AcDbEntity
  8
YKK_D
  6
ByBlock
100
AcDbPolyline
 90
        2
 70
     1
 43
0.85
 10
433.69448623
 20
161.75736825
 42
1.0
 10
433.69448623
 20
161.54486825
 42
1.0
  0
LWPOLYLINE
  5
1FB
330
2
100
AcDbEntity
  8
YKK_D
  6
ByBlock
100
AcDbPolyline
 90
        2
 70
     1
 43
0.85
 10
453.69448623
 20
165.54486825
 42
1.0
 10
453.69448623
 20
165.75736825
 42
1.0
  0
TEXT
  5
1FC
330
2
100
AcDbEntity
  8
YKK_D
100
AcDbText
 10
505.15943033
 20
111.35113046
 30
0.0
 40
6.0
  1
W
 41
0.8
100
AcDbText
1001
ACAD
1000
MTEXTBEGIN
1070
    73
1070
     1
1070
    44
1040
1.0
1070
    74
1070
     0
1000
MTEXTEND
  0
TEXT
  5
1FD
330
2
100
AcDbEntity
  8
YKK_D
100
AcDbText
 10
500.55435419
 20
186.65111825
 30
0.0
 40
6.0
  1
W+20
 41
0.8
100
AcDbText
1001
ACAD
1000
MTEXTBEGIN
1070
    73
1070
     1
1070
    44
1040
1.0
1070
    74
1070
     0
1000
MTEXTEND
  0
LINE
  5
1FE
330
2
100
AcDbEntity
  8
YKK_11
  6
ByBlock
 62
     0
100
AcDbLine
 10
634.69447685
 20
144.45113237
 30
0.0
 11
634.69447685
 21
164.45113237
 31
0.0
  0
LINE
  5
1FF
330
2
100
AcDbEntity
  8
YKK_11
  6
ByBlock
 62
     0
100
AcDbLine
 10
633.49447685
 20
164.45113237
 30
0.0
 11
633.49447685
 21
144.45113237
 31
0.0
  0
LINE
  5
200
330
2
100
AcDbEntity
  8
YKK_11
  6
ByBlock
 62
     0
100
AcDbLine
 10
610.89447685
 20
133.85113237
 30
0.0
 11
610.89447685
 21
164.45113237
 31
0.0
  0
LINE
  5
201
330
2
100
AcDbEntity
  8
YKK_11
  6
ByBlock
 62
     0
100
AcDbLine
 10
609.69447685
 20
164.45113237
 30
0.0
 11
609.69447685
 21
133.85113237
 31
0.0
  0
LINE
  5
202
330
2
100
AcDbEntity
  8
YKK_11
  6
ByBlock
 62
     0
100
AcDbLine
 10
608.49447656
 20
160.45113166
 30
0.0
 11
608.49447656
 21
134.65113166
 31
0.0
  0
LINE
  5
203
330
2
100
AcDbEntity
  8
YKK_12
  6
Continuous
100
AcDbLine
 10
599.69447643
 20
160.45113211
 30
0.0
 11
599.69447643
 21
134.65113211
 31
0.0
  0
LINE
  5
204
330
2
100
AcDbEntity
  8
YKK_13
  6
YHIDDEN_1
100
AcDbLine
 10
633.49447643
 20
137.25113211
 30
0.0
 11
633.49447643
 21
163.95113211
 31
0.0
  0
LINE
  5
205
330
2
100
AcDbEntity
  8
YKK_13
  6
YHIDDEN_1
100
AcDbLine
 10
631.19447643
 20
163.95113211
 30
0.0
 11
631.19447643
 21
137.85113211
 31
0.0
  0
LINE
  5
206
330
2
100
AcDbEntity
  8
YKK_13
  6
YHIDDEN_1
100
AcDbLine
 10
612.29447643
 20
147.95113211
 30
0.0
 11
614.59447643
 21
147.95113211
 31
0.0
  0
ARC
  5
207
330
2
100
AcDbEntity
  8
YKK_13
  6
YHIDDEN_1
100
AcDbCircle
 10
614.59447643
 20
137.25113211
 30
0.0
 40
2.299999999999998
100
AcDbArc
 50
180.0
 51
270.0
  0
LINE
  5
208
330
2
100
AcDbEntity
  8
YKK_D
100
AcDbLine
 10
609.69445571
 20
110.35113046
 30
0.0
 11
620.8144313
 21
110.35113046
 31
0.0
  0
LINE
  5
209
330
2
100
AcDbEntity
  8
YKK_D
100
AcDbLine
 10
599.69445571
 20
110.35113046
 30
0.0
 11
593.63227788
 21
113.85113046
 31
0.0
  0
LINE
  5
20A
330
2
100
AcDbEntity
  8
YKK_D
100
AcDbLine
 10
599.69445571
 20
110.35113046
 30
0.0
 11
593.63227788
 21
106.85113046
 31
0.0
  0
LINE
  5
20B
330
2
100
AcDbEntity
  8
YKK_D
100
AcDbLine
 10
599.69445571
 20
110.35113046
 30
0.0
 11
587.57010006
 21
110.35113046
 31
0.0
  0
LINE
  5
20C
330
2
100
AcDbEntity
  8
YKK_D
100
AcDbLine
 10
593.63227788
 20
113.85113046
 30
0.0
 11
593.63227788
 21
106.85113046
 31
0.0
  0
LINE
  5
20D
330
2
100
AcDbEntity
  8
YKK_D
100
AcDbLine
 10
599.69445571
 20
126.35113189
 30
0.0
 11
599.69445571
 21
109.35113046
 31
0.0
  0
LINE
  5
20E
330
2
100
AcDbEntity
  8
YKK_D
100
AcDbLine
 10
609.69445571
 20
126.35113189
 30
0.0
 11
609.69445571
 21
109.35113046
 31
0.0
  0
LINE
  5
20F
330
2
100
AcDbEntity
  8
YKK_D
100
AcDbLine
 10
599.69445571
 20
110.35113046
 30
0.0
 11
609.69445571
 21
110.35113046
 31
0.0
  0
LWPOLYLINE
  5
210
330
2
100
AcDbEntity
  8
YKK_D
  6
ByBlock
100
AcDbPolyline
 90
        2
 70
     1
 43
0.85
 10
609.58820571
 20
110.35113046
 42
1.0
 10
609.80070571
 20
110.35113046
 42
1.0
  0
LINE
  5
211
330
2
100
AcDbEntity
  8
YKK_13
  6
YHIDDEN_1
100
AcDbLine
 10
612.29447643
 20
137.25113211
 30
0.0
 11
612.29447643
 21
147.95113211
 31
0.0
  0
LINE
  5
212
330
2
100
AcDbEntity
  8
YKK_11
  6
ByBlock
 62
     0
100
AcDbLine
 10
599.69447685
 20
132.65113237
 30
0.0
 11
609.69447685
 21
132.65113237
 31
0.0
  0
LINE
  5
213
330
2
100
AcDbEntity
  8
YKK_11
  6
ByBlock
 62
     0
100
AcDbLine
 10
609.69447685
 20
133.85113237
 30
0.0
 11
599.69682085
 21
133.85113237
 31
0.0
  0
LINE
  5
214
330
2
100
AcDbEntity
  8
YKK_11
  6
ByBlock
 62
     0
100
AcDbLine
 10
599.69447685
 20
133.85113237
 30
0.0
 11
599.69447685
 21
132.65113237
 31
0.0
  0
ARC
  5
215
330
2
100
AcDbEntity
  8
YKK_11
  6
ByBlock
 62
     0
100
AcDbCircle
 10
609.69447685
 20
133.85113237
 30
0.0
 40
1.199999999999999
100
AcDbArc
 50
270.00000112
 51
0.0
  0
LINE
  5
216
330
2
100
AcDbEntity
  8
YKK_11
  6
ByBlock
 62
     0
100
AcDbLine
 10
608.49447656
 20
134.65113166
 30
0.0
 11
609.69447656
 21
134.65113166
 31
0.0
  0
LINE
  5
217
330
2
100
AcDbEntity
  8
YKK_12
  6
Continuous
100
AcDbLine
 10
609.69447643
 20
132.65113211
 30
0.0
 11
609.69447643
 21
131.45113211
 31
0.0
  0
TEXT
  5
218
330
2
100
AcDbEntity
  8
YKK_D
100
AcDbText
 10
612.99290845
 20
111.35113046
 30
0.0
 40
6.0
  1
10
 41
0.8
100
AcDbText
1001
ACAD
1000
MTEXTBEGIN
1070
    73
1070
     1
1070
    44
1040
1.0
1070
    74
1070
     0
1000
MTEXTEND
  0
LINE
  5
219
330
2
100
AcDbEntity
  8
YKK_13
  6
YHIDDEN_1
100
AcDbLine
 10
615.19447643
 20
137.25113211
 30
0.0
 11
630.59447643
 21
137.25113211
 31
0.0
  0
LINE
  5
21A
330
2
100
AcDbEntity
  8
YKK_13
  6
YHIDDEN_1
100
AcDbLine
 10
614.59447643
 20
134.95113211
 30
0.0
 11
631.19447643
 21
134.95113211
 31
0.0
  0
LINE
  5
21B
330
2
100
AcDbEntity
  8
YKK_13
  6
YHIDDEN_1
100
AcDbLine
 10
614.59447643
 20
147.95113211
 30
0.0
 11
614.59447643
 21
137.85113211
 31
0.0
  0
ARC
  5
21C
330
2
100
AcDbEntity
  8
YKK_13
  6
YHIDDEN_1
100
AcDbCircle
 10
615.19447643
 20
137.85113211
 30
0.0
 40
0.5999999999999999
100
AcDbArc
 50
180.0
 51
270.0
  0
ARC
  5
21D
330
2
100
AcDbEntity
  8
YKK_13
  6
YHIDDEN_1
100
AcDbCircle
 10
631.19447643
 20
137.25113211
 30
0.0
 40
2.299999999999998
100
AcDbArc
 50
270.0
 51
0.0
  0
ARC
  5
21E
330
2
100
AcDbEntity
  8
YKK_13
  6
YHIDDEN_1
100
AcDbCircle
 10
630.59447643
 20
137.85113211
 30
0.0
 40
0.5999999999999999
100
AcDbArc
 50
270.0
 51
0.0
  0
LINE
  5
21F
330
2
100
AcDbEntity
  8
YKK_11
  6
ByBlock
 62
     0
100
AcDbLine
 10
633.49447685
 20
144.45113237
 30
0.0
 11
634.69447685
 21
144.45113237
 31
0.0
  0
LINE
  5
220
330
2
100
AcDbEntity
  8
YKK_11
  6
ByBlock
 62
     0
100
AcDbLine
 10
633.49447685
 20
165.65113237
 30
0.0
 11
610.89447685
 21
165.65113237
 31
0.0
  0
LINE
  5
221
330
2
100
AcDbEntity
  8
YKK_11
  6
ByBlock
 62
     0
100
AcDbLine
 10
610.89447685
 20
164.45113237
 30
0.0
 11
633.49447685
 21
164.45113237
 31
0.0
  0
LINE
  5
222
330
2
100
AcDbEntity
  8
YKK_D
100
AcDbLine
 10
634.69445571
 20
185.65111825
 30
0.0
 11
609.69445571
 21
185.65111825
 31
0.0
  0
LINE
  5
223
330
2
100
AcDbEntity
  8
YKK_D
100
AcDbLine
 10
609.69445571
 20
169.65113208
 30
0.0
 11
609.69445571
 21
186.65111825
 31
0.0
  0
LINE
  5
224
330
2
100
AcDbEntity
  8
YKK_D
100
AcDbLine
 10
609.69445571
 20
171.65113685
 30
0.0
 11
609.69445571
 21
186.65111825
 31
0.0
  0
ARC
  5
225
330
2
100
AcDbEntity
  8
YKK_11
  6
ByBlock
 62
     0
100
AcDbCircle
 10
608.29447656
 20
160.25113166
 30
0.0
 40
1.399999999999999
100
AcDbArc
 50
0.0
 51
89.99998128
  0
ARC
  5
226
330
2
100
AcDbEntity
  8
YKK_11
  6
ByBlock
 62
     0
100
AcDbCircle
 10
610.89447685
 20
164.45113237
 30
0.0
 40
1.199999999999999
100
AcDbArc
 50
89.99998128
 51
180.00001985
  0
LWPOLYLINE
  5
227
330
2
100
AcDbEntity
  8
YKK_D
  6
ByBlock
100
AcDbPolyline
 90
        2
 70
     1
 43
0.85
 10
609.80070571
 20
185.65111825
 42
1.0
 10
609.58820571
 20
185.65111825
 42
1.0
  0
LWPOLYLINE
  5
228
330
2
100
AcDbEntity
  8
YKK_D
  6
ByBlock
100
AcDbPolyline
 90
        2
 70
     1
 43
0.85
 10
609.58820571
 20
185.65111825
 42
1.0
 10
609.80070571
 20
185.65111825
 42
1.0
  0
LINE
  5
229
330
2
100
AcDbEntity
  8
YKK_D
100
AcDbLine
 10
634.69445571
 20
169.65113208
 30
0.0
 11
634.69445571
 21
186.65111825
 31
0.0
  0
ARC
  5
22A
330
2
100
AcDbEntity
  8
YKK_11
  6
ByBlock
 62
     0
100
AcDbCircle
 10
633.49447685
 20
164.45113237
 30
0.0
 40
1.199999999999999
100
AcDbArc
 50
0.0
 51
89.99998128
  0
LINE
  5
22B
330
2
100
AcDbEntity
  8
YKK_13
  6
YHIDDEN_1
100
AcDbLine
 10
631.19447643
 20
163.95113211
 30
0.0
 11
633.49447643
 21
163.95113211
 31
0.0
  0
TEXT
  5
22C
330
2
100
AcDbEntity
  8
YKK_D
100
AcDbText
 10
619.11222221
 20
186.65111825
 30
0.0
 40
6.0
  1
25
 41
0.8
100
AcDbText
1001
ACAD
1000
MTEXTBEGIN
1070
    73
1070
     1
1070
    44
1040
1.0
1070
    74
1070
     0
1000
MTEXTEND
  0
LWPOLYLINE
  5
22D
330
2
100
AcDbEntity
  8
YKK_D
  6
ByBlock
100
AcDbPolyline
 90
        2
 70
     1
 43
0.85
 10
634.58820571
 20
185.65111825
 42
1.0
 10
634.80070571
 20
185.65111825
 42
1.0
  0
LINE
  5
22E
330
2
100
AcDbEntity
  8
YKK_D
100
AcDbLine
 10
544.38068232
 20
454.82956712
 30
0.0
 11
544.38068232
 21
467.26956712
 31
0.0
  0
LINE
  5
22F
330
2
100
AcDbEntity
  8
YKK_D
100
AcDbLine
 10
559.38068232
 20
454.82956712
 30
0.0
 11
559.38068232
 21
467.26956712
 31
0.0
  0
LINE
  5
230
330
2
100
AcDbEntity
  8
YKK_A1
  6
YCENTER_1
100
AcDbLine
 10
497.13065404
 20
453.57955234
 30
0.0
 11
528.13065219
 21
357.57955806
 31
0.0
  0
LINE
  5
233
330
2
100
AcDbEntity
  8
YKK_A1
  6
YCENTER_1
100
AcDbLine
 10
497.13065404
 20
357.57955806
 30
0.0
 11
528.13065219
 21
453.57955234
 31
0.0
  0
LINE
  5
234
330
2
100
AcDbEntity
  8
YKK_A1
  6
Continuous
100
AcDbLine
 10
529.38067205
 20
454.82957566
 30
0.0
 11
495.88067405
 21
454.82957566
 31
0.0
  0
LINE
  5
235
330
2
100
AcDbEntity
  8
YKK_A1
  6
Continuous
100
AcDbLine
 10
495.88067405
 20
356.32958153
 30
0.0
 11
529.38067205
 21
356.32958153
 31
0.0
  0
LINE
  5
236
330
2
100
AcDbEntity
  8
YKK_A1
  6
Continuous
100
AcDbLine
 10
497.13067397
 20
357.57958145
 30
0.0
 11
528.13067213
 21
357.57958145
 31
0.0
  0
LINE
  5
237
330
2
100
AcDbEntity
  8
YKK_A1
  6
Continuous
100
AcDbLine
 10
528.13067213
 20
453.57957573
 30
0.0
 11
497.13067397
 21
453.57957573
 31
0.0
  0
LINE
  5
238
330
2
100
AcDbEntity
  8
YKK_D
100
AcDbLine
 10
497.13068232
 20
341.32956712
 30
0.0
 11
528.13068232
 21
341.32956712
 31
0.0
  0
LINE
  5
239
330
2
100
AcDbEntity
  8
YKK_D
100
AcDbLine
 10
522.63068232
 20
326.32956712
 30
0.0
 11
502.63068232
 21
326.32956712
 31
0.0
  0
TEXT
  5
23A
330
2
100
AcDbEntity
  8
YKK_D
100
AcDbText
 10
506.4905808
 20
342.32956712
 30
0.0
 40
6.0
  1
W+20
 41
0.8
100
AcDbText
1001
ACAD
1000
MTEXTBEGIN
1070
    73
1070
     1
1070
    44
1040
1.0
1070
    74
1070
     0
1000
MTEXTEND
  0
LINE
  5
23B
330
2
100
AcDbEntity
  8
YKK_D
100
AcDbLine
 10
527.63068232
 20
326.32956712
 30
0.0
 11
518.97042829
 21
326.32956712
 31
0.0
  0
LINE
  5
23C
330
2
100
AcDbEntity
  8
YKK_A1
  6
Continuous
100
AcDbLine
 10
495.88067405
 20
454.82957566
 30
0.0
 11
495.88067405
 21
356.32958153
 31
0.0
  0
LINE
  5
23D
330
2
100
AcDbEntity
  8
YKK_A1
  6
Continuous
100
AcDbLine
 10
497.13067397
 20
454.82957566
 30
0.0
 11
497.13067397
 21
356.32958153
 31
0.0
  0
LINE
  5
23E
330
2
100
AcDbEntity
  8
YKK_D
100
AcDbLine
 10
495.88068232
 20
352.32958142
 30
0.0
 11
495.88068232
 21
325.32956712
 31
0.0
  0
LINE
  5
23F
330
2
100
AcDbEntity
  8
YKK_D
100
AcDbLine
 10
497.63068232
 20
337.32958238
 30
0.0
 11
497.63068232
 21
325.32956712
 31
0.0
  0
LINE
  5
240
330
2
100
AcDbEntity
  8
YKK_D
100
AcDbLine
 10
497.63068232
 20
326.32956712
 30
0.0
 11
501.96080934
 21
323.82956712
 31
0.0
  0
LINE
  5
241
330
2
100
AcDbEntity
  8
YKK_D
100
AcDbLine
 10
501.96080934
 20
323.82956712
 30
0.0
 11
501.96080934
 21
328.82956712
 31
0.0
  0
LWPOLYLINE
  5
242
330
2
100
AcDbEntity
  8
YKK_D
  6
ByBlock
100
AcDbPolyline
 90
        2
 70
     1
 43
0.85
 10
495.77443232
 20
326.32956712
 42
1.0
 10
495.98693232
 20
326.32956712
 42
1.0
  0
LINE
  5
243
330
2
100
AcDbEntity
  8
YKK_D
100
AcDbLine
 10
495.88068232
 20
341.32956712
 30
0.0
 11
483.44068232
 21
341.32956712
 31
0.0
  0
LINE
  5
244
330
2
100
AcDbEntity
  8
YKK_D
100
AcDbLine
 10
495.88068232
 20
326.32956712
 30
0.0
 11
483.44068232
 21
326.32956712
 31
0.0
  0
TEXT
  5
245
330
2
100
AcDbEntity
  8
YKK_D
100
AcDbText
 10
484.89063156
 20
327.32956712
 30
0.0
 40
6.0
  1
35
 41
0.8
100
AcDbText
1001
ACAD
1000
MTEXTBEGIN
1070
    73
1070
     1
1070
    44
1040
1.0
1070
    74
1070
     0
1000
MTEXTEND
  0
TEXT
  5
246
330
2
100
AcDbEntity
  8
YKK_D
100
AcDbText
 10
484.87844882
 20
342.32956712
 30
0.0
 40
6.0
  1
25
 41
0.8
100
AcDbText
1001
ACAD
1000
MTEXTBEGIN
1070
    73
1070
     1
1070
    44
1040
1.0
1070
    74
1070
     0
1000
MTEXTEND
  0
LINE
  5
247
330
2
100
AcDbEntity
  8
YKK_D
100
AcDbLine
 10
497.13068232
 20
352.32958142
 30
0.0
 11
497.13068232
 21
340.32956712
 31
0.0
  0
LINE
  5
248
330
2
100
AcDbEntity
  8
YKK_D
100
AcDbLine
 10
497.13068232
 20
351.3295819
 30
0.0
 11
497.13068232
 21
340.32956712
 31
0.0
  0
LINE
  5
249
330
2
100
AcDbEntity
  8
YKK_D
100
AcDbLine
 10
497.63068232
 20
326.32956712
 30
0.0
 11
506.29093636
 21
326.32956712
 31
0.0
  0
LINE
  5
24A
330
2
100
AcDbEntity
  8
YKK_D
100
AcDbLine
 10
497.63068232
 20
326.32956712
 30
0.0
 11
495.88068232
 21
326.32956712
 31
0.0
  0
LINE
  5
24B
330
2
100
AcDbEntity
  8
YKK_D
100
AcDbLine
 10
497.63068232
 20
326.32956712
 30
0.0
 11
499.33068232
 21
326.32956712
 31
0.0
  0
LINE
  5
24C
330
2
100
AcDbEntity
  8
YKK_D
100
AcDbLine
 10
497.63068232
 20
326.32956712
 30
0.0
 11
501.96080934
 21
328.82956712
 31
0.0
  0
LINE
  5
24D
330
2
100
AcDbEntity
  8
YKK_D
100
AcDbLine
 10
497.13068232
 20
341.32956712
 30
0.0
 11
498.83068232
 21
341.32956712
 31
0.0
  0
LINE
  5
24E
330
2
100
AcDbEntity
  8
YKK_D
100
AcDbLine
 10
497.13068232
 20
341.32956712
 30
0.0
 11
495.88068232
 21
341.32956712
 31
0.0
  0
LWPOLYLINE
  5
24F
330
2
100
AcDbEntity
  8
YKK_D
  6
ByBlock
100
AcDbPolyline
 90
        2
 70
     1
 43
0.85
 10
495.77443232
 20
341.32956712
 42
1.0
 10
495.98693232
 20
341.32956712
 42
1.0
  0
LWPOLYLINE
  5
250
330
2
100
AcDbEntity
  8
YKK_D
  6
ByBlock
100
AcDbPolyline
 90
        2
 70
     1
 43
0.85
 10
497.23693232
 20
341.32956712
 42
1.0
 10
497.02443232
 20
341.32956712
 42
1.0
  0
LWPOLYLINE
  5
251
330
2
100
AcDbEntity
  8
YKK_D
  6
ByBlock
100
AcDbPolyline
 90
        2
 70
     1
 43
0.85
 10
497.23693232
 20
341.32956712
 42
1.0
 10
497.02443232
 20
341.32956712
 42
1.0
  0
TEXT
  5
252
330
2
100
AcDbEntity
  8
YKK_D
100
AcDbText
 10
511.09565694
 20
327.32956712
 30
0.0
 40
6.0
  1
W
 41
0.8
100
AcDbText
1001
ACAD
1000
MTEXTBEGIN
1070
    73
1070
     1
1070
    44
1040
1.0
1070
    74
1070
     0
1000
MTEXTEND
  0
LINE
  5
253
330
2
100
AcDbEntity
  8
YKK_A1
  6
Continuous
100
AcDbLine
 10
529.38067205
 20
356.32958153
 30
0.0
 11
529.38067205
 21
454.82957566
 31
0.0
  0
LINE
  5
254
330
2
100
AcDbEntity
  8
YKK_A1
  6
Continuous
100
AcDbLine
 10
528.13067213
 20
356.32958153
 30
0.0
 11
528.13067213
 21
454.82957566
 31
0.0
  0
LINE
  5
255
330
2
100
AcDbEntity
  8
YKK_D
100
AcDbLine
 10
544.38068232
 20
453.57956712
 30
0.0
 11
544.38068232
 21
357.57956712
 31
0.0
  0
LINE
  5
256
330
2
100
AcDbEntity
  8
YKK_D
100
AcDbLine
 10
559.38068232
 20
448.07956712
 30
0.0
 11
559.38068232
 21
363.07959764
 31
0.0
  0
LINE
  5
257
330
2
100
AcDbEntity
  8
YKK_D
100
AcDbLine
 10
527.63068232
 20
337.32958238
 30
0.0
 11
527.63068232
 21
325.32956712
 31
0.0
  0
LINE
  5
258
330
2
100
AcDbEntity
  8
YKK_D
100
AcDbLine
 10
529.38068232
 20
352.32958142
 30
0.0
 11
529.38068232
 21
325.32956712
 31
0.0
  0
LINE
  5
259
330
2
100
AcDbEntity
  8
YKK_D
100
AcDbLine
 10
527.63068232
 20
326.32956712
 30
0.0
 11
523.3005553
 21
323.82956712
 31
0.0
  0
LINE
  5
25A
330
2
100
AcDbEntity
  8
YKK_D
100
AcDbLine
 10
523.3005553
 20
328.82956712
 30
0.0
 11
523.3005553
 21
323.82956712
 31
0.0
  0
LWPOLYLINE
  5
25B
330
2
100
AcDbEntity
  8
YKK_D
  6
ByBlock
100
AcDbPolyline
 90
        2
 70
     1
 43
0.85
 10
529.48693232
 20
326.32956712
 42
1.0
 10
529.27443232
 20
326.32956712
 42
1.0
  0
LINE
  5
25C
330
2
100
AcDbEntity
  8
YKK_D
100
AcDbLine
 10
533.38067207
 20
356.32956712
 30
0.0
 11
560.38068232
 21
356.32956712
 31
0.0
  0
LINE
  5
25D
330
2
100
AcDbEntity
  8
YKK_D
100
AcDbLine
 10
548.38069377
 20
358.07959764
 30
0.0
 11
560.38068232
 21
358.07959764
 31
0.0
  0
LINE
  5
25E
330
2
100
AcDbEntity
  8
YKK_D
100
AcDbLine
 10
528.13068232
 20
352.32958142
 30
0.0
 11
528.13068232
 21
340.32956712
 31
0.0
  0
LINE
  5
25F
330
2
100
AcDbEntity
  8
YKK_D
100
AcDbLine
 10
528.13068232
 20
352.32958142
 30
0.0
 11
528.13068232
 21
340.32956712
 31
0.0
  0
TEXT
  5
260
330
2
100
AcDbEntity
  8
YKK_D
100
AcDbText
 10
534.21844882
 20
342.32956712
 30
0.0
 40
6.0
  1
25
 41
0.8
100
AcDbText
1001
ACAD
1000
MTEXTBEGIN
1070
    73
1070
     1
1070
    44
1040
1.0
1070
    74
1070
     0
1000
MTEXTEND
  0
LINE
  5
261
330
2
100
AcDbEntity
  8
YKK_D
100
AcDbLine
 10
529.38068232
 20
341.32956712
 30
0.0
 11
541.82068232
 21
341.32956712
 31
0.0
  0
LINE
  5
262
330
2
100
AcDbEntity
  8
YKK_D
100
AcDbLine
 10
529.38068232
 20
326.32956712
 30
0.0
 11
541.82068232
 21
326.32956712
 31
0.0
  0
TEXT
  5
263
330
2
100
AcDbEntity
  8
YKK_D
100
AcDbText
 10
534.23063156
 20
327.32956712
 30
0.0
 40
6.0
  1
35
 41
0.8
100
AcDbText
1001
ACAD
1000
MTEXTBEGIN
1070
    73
1070
     1
1070
    44
1040
1.0
1070
    74
1070
     0
1000
MTEXTEND
  0
LINE
  5
264
330
2
100
AcDbEntity
  8
YKK_D
100
AcDbLine
 10
527.63068232
 20
326.32956712
 30
0.0
 11
529.38068232
 21
326.32956712
 31
0.0
  0
LINE
  5
265
330
2
100
AcDbEntity
  8
YKK_D
100
AcDbLine
 10
527.63068232
 20
326.32956712
 30
0.0
 11
525.93068232
 21
326.32956712
 31
0.0
  0
LINE
  5
266
330
2
100
AcDbEntity
  8
YKK_D
100
AcDbLine
 10
527.63068232
 20
326.32956712
 30
0.0
 11
523.3005553
 21
328.82956712
 31
0.0
  0
LINE
  5
267
330
2
100
AcDbEntity
  8
YKK_D
100
AcDbLine
 10
528.13068232
 20
341.32956712
 30
0.0
 11
529.38068232
 21
341.32956712
 31
0.0
  0
LINE
  5
268
330
2
100
AcDbEntity
  8
YKK_D
100
AcDbLine
 10
528.13068232
 20
341.32956712
 30
0.0
 11
526.43068232
 21
341.32956712
 31
0.0
  0
LWPOLYLINE
  5
269
330
2
100
AcDbEntity
  8
YKK_D
  6
ByBlock
100
AcDbPolyline
 90
        2
 70
     1
 43
0.85
 10
528.02443232
 20
341.32956712
 42
1.0
 10
528.23693232
 20
341.32956712
 42
1.0
  0
LWPOLYLINE
  5
26A
330
2
100
AcDbEntity
  8
YKK_D
  6
ByBlock
100
AcDbPolyline
 90
        2
 70
     1
 43
0.85
 10
528.02443232
 20
341.32956712
 42
1.0
 10
528.23693232
 20
341.32956712
 42
1.0
  0
LWPOLYLINE
  5
26B
330
2
100
AcDbEntity
  8
YKK_D
  6
ByBlock
100
AcDbPolyline
 90
        2
 70
     1
 43
0.85
 10
529.48693232
 20
341.32956712
 42
1.0
 10
529.27443232
 20
341.32956712
 42
1.0
  0
LINE
  5
26C
330
2
100
AcDbEntity
  8
YKK_D
100
AcDbLine
 10
533.38067183
 20
357.57956712
 30
0.0
 11
545.38068232
 21
357.57956712
 31
0.0
  0
LINE
  5
26D
330
2
100
AcDbEntity
  8
YKK_D
100
AcDbLine
 10
533.38067183
 20
357.57956712
 30
0.0
 11
545.38068232
 21
357.57956712
 31
0.0
  0
LINE
  5
26E
330
2
100
AcDbEntity
  8
YKK_D
100
AcDbLine
 10
544.38068232
 20
357.57956712
 30
0.0
 11
544.38068232
 21
359.27956712
 31
0.0
  0
TEXT
  5
26F
330
2
100
AcDbEntity
  8
YKK_D
100
AcDbText
 10
543.683182
 20
349.61899528
 30
0.0
 40
6.0
  1
25
 50
90.0
 41
0.8
100
AcDbText
1001
ACAD
1000
MTEXTBEGIN
1070
    73
1070
     1
1070
    44
1040
1.0
1070
    74
1070
     0
1000
MTEXTEND
  0
LINE
  5
270
330
2
100
AcDbEntity
  8
YKK_D
100
AcDbLine
 10
544.38068232
 20
356.32956712
 30
0.0
 11
544.38068232
 21
354.62956712
 31
0.0
  0
LINE
  5
271
330
2
100
AcDbEntity
  8
YKK_D
100
AcDbLine
 10
544.38068232
 20
357.57956712
 30
0.0
 11
544.38068232
 21
356.32956712
 31
0.0
  0
LWPOLYLINE
  5
272
330
2
100
AcDbEntity
  8
YKK_D
  6
ByBlock
100
AcDbPolyline
 90
        2
 70
     1
 43
0.85
 10
544.38068232
 20
356.22331712
 42
1.0
 10
544.38068232
 20
356.43581712
 42
1.0
  0
LWPOLYLINE
  5
273
330
2
100
AcDbEntity
  8
YKK_D
  6
ByBlock
100
AcDbPolyline
 90
        2
 70
     1
 43
0.85
 10
544.38068232
 20
357.68581712
 42
1.0
 10
544.38068232
 20
357.47331712
 42
1.0
  0
LINE
  5
274
330
2
100
AcDbEntity
  8
YKK_D
100
AcDbLine
 10
559.38068232
 20
356.32956712
 30
0.0
 11
559.38068232
 21
343.88956712
 31
0.0
  0
TEXT
  5
275
330
2
100
AcDbEntity
  8
YKK_D
100
AcDbText
 10
558.38068232
 20
345.33951636
 30
0.0
 40
6.0
  1
35
 50
90.0
 41
0.8
100
AcDbText
1001
ACAD
1000
MTEXTBEGIN
1070
    73
1070
     1
1070
    44
1040
1.0
1070
    74
1070
     0
1000
MTEXTEND
  0
LINE
  5
276
330
2
100
AcDbEntity
  8
YKK_D
100
AcDbLine
 10
559.38068232
 20
358.07959764
 30
0.0
 11
559.38068232
 21
359.77959764
 31
0.0
  0
LINE
  5
277
330
2
100
AcDbEntity
  8
YKK_D
100
AcDbLine
 10
559.38068232
 20
358.07959764
 30
0.0
 11
561.88068232
 21
362.40972466
 31
0.0
  0
LINE
  5
278
330
2
100
AcDbEntity
  8
YKK_D
100
AcDbLine
 10
559.38068232
 20
358.07959764
 30
0.0
 11
556.88068232
 21
362.40972466
 31
0.0
  0
LINE
  5
279
330
2
100
AcDbEntity
  8
YKK_D
100
AcDbLine
 10
559.38068232
 20
358.07959764
 30
0.0
 11
559.38068232
 21
366.73985167
 31
0.0
  0
LWPOLYLINE
  5
27A
330
2
100
AcDbEntity
  8
YKK_D
  6
ByBlock
100
AcDbPolyline
 90
        2
 70
     1
 43
0.85
 10
559.38068232
 20
356.22331712
 42
1.0
 10
559.38068232
 20
356.43581712
 42
1.0
  0
LINE
  5
27B
330
2
100
AcDbEntity
  8
YKK_D
100
AcDbLine
 10
559.38068232
 20
358.07959764
 30
0.0
 11
559.38068232
 21
356.32956712
 31
0.0
  0
LINE
  5
27C
330
2
100
AcDbEntity
  8
YKK_D
100
AcDbLine
 10
561.88068232
 20
362.40972466
 30
0.0
 11
556.88068232
 21
362.40972466
 31
0.0
  0
TEXT
  5
27D
330
2
100
AcDbEntity
  8
YKK_D
100
AcDbText
 10
543.38068232
 20
399.31763819
 30
0.0
 40
6.0
  1
H+20
 50
90.0
 41
0.8
100
AcDbText
1001
ACAD
1000
MTEXTBEGIN
1070
    73
1070
     1
1070
    44
1040
1.0
1070
    74
1070
     0
1000
MTEXTEND
  0
TEXT
  5
27E
330
2
100
AcDbEntity
  8
YKK_D
100
AcDbText
 10
558.38068232
 20
404.032359
 30
0.0
 40
6.0
  1
H
 50
90.0
 41
0.8
100
AcDbText
1001
ACAD
1000
MTEXTBEGIN
1070
    73
1070
     1
1070
    44
1040
1.0
1070
    74
1070
     0
1000
MTEXTEND
  0
LINE
  5
27F
330
2
100
AcDbEntity
  8
YKK_D
100
AcDbLine
 10
548.38069377
 20
453.07956712
 30
0.0
 11
560.38068232
 21
453.07956712
 31
0.0
  0
LINE
  5
280
330
2
100
AcDbEntity
  8
YKK_D
100
AcDbLine
 10
533.38067207
 20
454.82956712
 30
0.0
 11
560.38068232
 21
454.82956712
 31
0.0
  0
LINE
  5
281
330
2
100
AcDbEntity
  8
YKK_D
100
AcDbLine
 10
533.38067183
 20
453.57956712
 30
0.0
 11
545.38068232
 21
453.57956712
 31
0.0
  0
LINE
  5
282
330
2
100
AcDbEntity
  8
YKK_D
100
AcDbLine
 10
534.38068805
 20
453.57956712
 30
0.0
 11
545.38068232
 21
453.57956712
 31
0.0
  0
LINE
  5
283
330
2
100
AcDbEntity
  8
YKK_D
100
AcDbLine
 10
544.38068232
 20
453.57956712
 30
0.0
 11
544.38068232
 21
451.87956712
 31
0.0
  0
LINE
  5
284
330
2
100
AcDbEntity
  8
YKK_D
100
AcDbLine
 10
544.38068232
 20
453.57956712
 30
0.0
 11
544.38068232
 21
454.82956712
 31
0.0
  0
LWPOLYLINE
  5
285
330
2
100
AcDbEntity
  8
YKK_D
  6
ByBlock
100
AcDbPolyline
 90
        2
 70
     1
 43
0.85
 10
544.38068232
 20
454.93581712
 42
1.0
 10
544.38068232
 20
454.72331712
 42
1.0
  0
LWPOLYLINE
  5
286
330
2
100
AcDbEntity
  8
YKK_D
  6
ByBlock
100
AcDbPolyline
 90
        2
 70
     1
 43
0.85
 10
544.38068232
 20
453.47331712
 42
1.0
 10
544.38068232
 20
453.68581712
 42
1.0
  0
LWPOLYLINE
  5
287
330
2
100
AcDbEntity
  8
YKK_D
  6
ByBlock
100
AcDbPolyline
 90
        2
 70
     1
 43
0.85
 10
544.38068232
 20
453.47331712
 42
1.0
 10
544.38068232
 20
453.68581712
 42
1.0
  0
LINE
  5
288
330
2
100
AcDbEntity
  8
YKK_D
100
AcDbLine
 10
559.38068232
 20
453.07956712
 30
0.0
 11
559.38068232
 21
444.41931308
 31
0.0
  0
LINE
  5
289
330
2
100
AcDbEntity
  8
YKK_D
100
AcDbLine
 10
559.38068232
 20
453.07956712
 30
0.0
 11
561.88068232
 21
448.7494401
 31
0.0
  0
LINE
  5
28A
330
2
100
AcDbEntity
  8
YKK_D
100
AcDbLine
 10
556.88068232
 20
448.7494401
 30
0.0
 11
561.88068232
 21
448.7494401
 31
0.0
  0
LWPOLYLINE
  5
28B
330
2
100
AcDbEntity
  8
YKK_D
  6
ByBlock
100
AcDbPolyline
 90
        2
 70
     1
 43
0.85
 10
559.38068232
 20
454.93581712
 42
1.0
 10
559.38068232
 20
454.72331712
 42
1.0
  0
LINE
  5
28C
330
2
100
AcDbEntity
  8
YKK_D
100
AcDbLine
 10
559.38068232
 20
453.07956712
 30
0.0
 11
559.38068232
 21
451.37956712
 31
0.0
  0
LINE
  5
28D
330
2
100
AcDbEntity
  8
YKK_D
100
AcDbLine
 10
559.38068232
 20
453.07956712
 30
0.0
 11
559.38068232
 21
454.82956712
 31
0.0
  0
LINE
  5
28E
330
2
100
AcDbEntity
  8
YKK_D
100
AcDbLine
 10
559.38068232
 20
453.07956712
 30
0.0
 11
556.88068232
 21
448.7494401
 31
0.0
  0
TEXT
  5
28F
330
2
100
AcDbEntity
  8
YKK_D
100
AcDbText
 10
543.38068232
 20
459.66733362
 30
0.0
 40
6.0
  1
25
 50
90.0
 41
0.8
100
AcDbText
1001
ACAD
1000
MTEXTBEGIN
1070
    73
1070
     1
1070
    44
1040
1.0
1070
    74
1070
     0
1000
MTEXTEND
  0
TEXT
  5
290
330
2
100
AcDbEntity
  8
YKK_D
100
AcDbText
 10
558.38068232
 20
459.67951636
 30
0.0
 40
6.0
  1
35
 50
90.0
 41
0.8
100
AcDbText
1001
ACAD
1000
MTEXTBEGIN
1070
    73
1070
     1
1070
    44
1040
1.0
1070
    74
1070
     0
1000
MTEXTEND
  0
ENDSEC
  0
SECTION
  2
OBJECTS
  0
DICTIONARY
  5
1E
330
0
100
AcDbDictionary
281
     1
  3
ACAD_CIP_PREVIOUS_PRODUCT_INFO
350
33A
  3
ACAD_COLOR
350
2CF
  3
ACAD_DETAILVIEWSTYLE
350
2E8
  3
ACAD_GROUP
350
1C
  3
ACAD_LAYOUT
350
2ED
  3
ACAD_MATERIAL
350
29D
  3
ACAD_MLEADERSTYLE
350
2E4
  3
ACAD_MLINESTYLE
350
1D
  3
ACAD_PLOTSETTINGS
350
2EC
  3
ACAD_PLOTSTYLENAME
350
29B
  3
ACAD_SCALELIST
350
2D2
  3
ACAD_SECTIONVIEWSTYLE
350
2E6
  3
ACAD_TABLESTYLE
350
2D0
  3
ACAD_VISUALSTYLE
350
2B6
  3
ACDB_RECOMPOSE_DATA
350
340
  3
AcDbVariableDictionary
350
32E
  3
CONTENTDICTIONARY
350
295
  0
DICTIONARY
  5
3
330
2
100
AcDbDictionary
280
     1
281
     1
  3
ACAD_LAYOUTSELFREF
360
4
  0
DICTIONARY
  5
A
330
9
100
AcDbDictionary
280
     1
281
     1
  3
ACAD_LAYOUTSELFREF
360
B
  0
XRECORD
  5
33A
102
{ACAD_REACTORS
330
1E
102
}
330
1E
100
AcDbXrecord
280
     1
300
ACD
300
2014
300
86063ACD_2014_0F
  0
DICTIONARY
  5
2CF
102
{ACAD_REACTORS
330
1E
102
}
330
1E
100
AcDbDictionary
281
     1
  0
DICTIONARY
  5
2E8
102
{ACAD_REACTORS
330
1E
102
}
330
1E
100
AcDbDictionary
281
     1
  3
Imperial24
350
2E9
  0
DICTIONARY
  5
1C
102
{ACAD_REACTORS
330
1E
102
}
330
1E
100
AcDbDictionary
281
     1
  0
DICTIONARY
  5
2ED
102
{ACAD_REACTORS
330
1E
102
}
330
1E
100
AcDbDictionary
281
     1
  3
Model
350
2EE
  3
レイアウト1
350
2EF
  0
DICTIONARY
  5
29D
102
{ACAD_REACTORS
330
1E
102
}
330
1E
100
AcDbDictionary
281
     1
  3
ByBlock
350
2A6
  3
ByLayer
350
29E
  3
Global
350
2AE
  0
DICTIONARY
  5
2E4
102
{ACAD_REACTORS
330
1E
102
}
330
1E
100
AcDbDictionary
281
     1
  3
Standard
350
2E5
  0
DICTIONARY
  5
1D
102
{ACAD_REACTORS
330
1E
102
}
330
1E
100
AcDbDictionary
281
     1
  3
STANDARD
350
21
  0
DICTIONARY
  5
2EC
102
{ACAD_REACTORS
330
1E
102
}
330
1E
100
AcDbDictionary
281
     1
  0
ACDBDICTIONARYWDFLT
  5
29B
102
{ACAD_REACTORS
330
1E
102
}
330
1E
100
AcDbDictionary
281
     1
  3
Normal
350
29C
100
AcDbDictionaryWithDefault
340
29C
  0
DICTIONARY
  5
2D2
102
{ACAD_REACTORS
330
1E
102
}
330
1E
100
AcDbDictionary
281
     1
  3
A0
350
2D3
  3
A1
350
2D4
  3
A2
350
2D5
  3
A3
350
2D6
  3
A4
350
2D7
  3
A5
350
2D8
  3
A6
350
2D9
  3
A7
350
2DA
  3
A8
350
2DB
  3
A9
350
2DC
  3
B0
350
2DD
  3
B1
350
2DE
  3
B2
350
2DF
  3
B3
350
2E0
  3
B4
350
2E1
  3
B5
350
2E2
  3
B6
350
2E3
  0
DICTIONARY
  5
2E6
102
{ACAD_REACTORS
330
1E
102
}
330
1E
100
AcDbDictionary
281
     1
  3
Imperial24
350
2E7
  0
DICTIONARY
  5
2D0
102
{ACAD_REACTORS
330
1E
102
}
330
1E
100
AcDbDictionary
281
     1
  3
Standard
350
2D1
  0
DICTIONARY
  5
2B6
102
{ACAD_REACTORS
330
1E
102
}
330
1E
100
AcDbDictionary
281
     1
  3
2dWireframe
350
2BC
  3
Basic
350
2BB
  3
Brighten
350
2C2
  3
ColorChange
350
2C6
  3
Conceptual
350
2BF
  3
Dim
350
2C1
  3
EdgeColorOff
350
2CE
  3
Facepattern
350
2C5
  3
Flat
350
2B7
  3
FlatWithEdges
350
2B8
  3
Gouraud
350
2B9
  3
GouraudWithEdges
350
2BA
  3
Hidden
350
2BE
  3
JitterOff
350
2CC
  3
Linepattern
350
2C4
  3
OverhangOff
350
2CD
  3
Realistic
350
2C0
  3
Shaded
350
2CB
  3
Shaded with edges
350
2CA
  3
Shades of Gray
350
2C7
  3
Sketchy
350
2C8
  3
Thicken
350
2C3
  3
Wireframe
350
2BD
  3
X-Ray
350
2C9
  0
XRECORD
  5
340
102
{ACAD_REACTORS
330
1E
102
}
330
1E
100
AcDbXrecord
280
     1
 90
        1
330
2D1
  0
DICTIONARY
  5
32E
102
{ACAD_REACTORS
330
1E
102
}
330
1E
100
AcDbDictionary
281
     1
  3
CANNOSCALE
350
333
  3
CMLEADERSTYLE
350
330
  3
CTABLESTYLE
350
32F
  3
CVIEWDETAILSTYLE
350
331
  3
CVIEWSECTIONSTYLE
350
332
  3
XCLIPFRAME
350
33E
  0
DICTIONARY
  5
295
102
{ACAD_REACTORS
330
1E
102
}
330
1E
100
AcDbDictionary
281
     1
  0
XRECORD
  5
4
102
{ACAD_REACTORS
330
3
102
}
330
3
100
AcDbXrecord
280
     1
340
2
  0
XRECORD
  5
B
102
{ACAD_REACTORS
330
A
102
}
330
A
100
AcDbXrecord
280
     1
340
9
  0
ACDBDETAILVIEWSTYLE
  5
2E9
102
{ACAD_XDICTIONARY
360
379
102
}
102
{ACAD_REACTORS
330
2E8
102
}
330
2E8
100
AcDbModelDocViewStyle
 70
     0
  3
Imperial24
290
     0
100
AcDbDetailViewStyle
 70
     0
 71
     0
 90
        3
 71
     1
340
10
 62
   256
 40
0.24
340
0
 62
   256
 40
0.24
300

 40
0.36
280
     3
 71
     2
340
7
 90
       25
 62
   256
 71
     3
340
10
 62
   256
 40
0.24
 90
        1
 40
0.75
 90
        1
300
%<\AcVar ViewType \f "%tc1">% %<\AcVar ViewDetailId>%\PSCALE %<\AcVar ViewScale \f "%sn">%
 71
     4
340
7
 90
       25
 62
   256
340
7
 90
       25
 62
   256
280
     0
  0
LAYOUT
  5
2EE
102
{ACAD_REACTORS
330
2ED
102
}
330
2ED
100
AcDbPlotSettings
  1

  2
C:\ACAD-I\support\plotters\Default Windows System Printer.pc3
  4
A4
  6

 40
3.17499995
 41
3.17499995
 42
3.17500305
 43
3.17498779
 44
209.88865662
 45
297.05300903
 46
0.0
 47
0.0
 48
0.0
 49
0.0
140
0.0
141
0.0
142
1.0
143
75.34915384
 70
 11952
 72
     0
 73
     1
 74
     0
  7
monochrome.ctb
 75
     0
147
0.01327155
 76
     0
 77
     2
 78
   300
148
875.72477782
149
55.62942893
100
AcDbLayout
  1
Model
 70
     1
 71
     0
 10
0.0
 20
0.0
 11
12.0
 21
9.0
 12
0.0
 22
0.0
 32
0.0
 14
0.0
 24
0.0
 34
0.0
 15
0.0
 25
0.0
 35
0.0
146
0.0
 13
0.0
 23
0.0
 33
0.0
 16
1.0
 26
0.0
 36
0.0
 17
0.0
 27
1.0
 37
0.0
 76
     0
330
2
1001
ACAD_PSEXT
1000
C:\ACAD-I\support\plotters\Default Windows System Printer.pc3
1000
Fiery PRO80 65-55C-KM PS3.0jp
1000
IP_10.230.204.212
1000

1070
     0
  0
LAYOUT
  5
2EF
102
{ACAD_REACTORS
330
2ED
102
}
330
2ED
100
AcDbPlotSettings
  1

  2
C:\ACAD-I\support\plotters\Default Windows System Printer.pc3
  4
A4
  6

 40
3.17499995
 41
3.17499995
 42
3.17500305
 43
3.17498779
 44
209.88865662
 45
297.05300903
 46
0.0
 47
0.0
 48
0.0
 49
0.0
140
0.0
141
0.0
142
1.0
143
1.0
 70
 15024
 72
     0
 73
     1
 74
     5
  7
monochrome.ctb
 75
    16
147
1.0
 76
     0
 77
     2
 78
   300
148
0.0
149
0.0
100
AcDbLayout
  1
レイアウト1
 70
     1
 71
     1
 10
0.0
 20
0.0
 11
420.0
 21
297.0
 12
0.0
 22
0.0
 32
0.0
 14
1.00000000E+20
 24
1.00000000E+20
 34
1.00000000E+20
 15
-1.00000000E+20
 25
-1.00000000E+20
 35
-1.00000000E+20
146
0.0
 13
0.0
 23
0.0
 33
0.0
 16
1.0
 26
0.0
 36
0.0
 17
0.0
 27
1.0
 37
0.0
 76
     0
330
9
1001
ACAD_PSEXT
1000
C:\ACAD-I\support\plotters\Default Windows System Printer.pc3
1000
Fiery PRO80 65-55C-KM PS3.0jp
1000
IP_10.230.204.212
1000

1070
     0
  0
MATERIAL
  5
2A6
102
{ACAD_XDICTIONARY
360
2A7
102
}
102
{ACAD_REACTORS
330
29D
102
}
330
29D
100
AcDbMaterial
  1
ByBlock
 72
     0
 43
0.02083333
 43
0.0
 43
0.0
 43
0.0
 43
0.0
 43
0.02083333
 43
0.0
 43
0.0
 43
0.0
 43
0.0
 43
1.0
 43
0.0
 43
0.0
 43
0.0
 43
0.0
 43
1.0
 77
     0
 47
0.02083333
 47
0.0
 47
0.0
 47
0.0
 47
0.0
 47
0.02083333
 47
0.0
 47
0.0
 47
0.0
 47
0.0
 47
1.0
 47
0.0
 47
0.0
 47
0.0
 47
0.0
 47
1.0
171
     0
 49
0.02083333
 49
0.0
 49
0.0
 49
0.0
 49
0.0
 49
0.02083333
 49
0.0
 49
0.0
 49
0.0
 49
0.0
 49
1.0
 49
0.0
 49
0.0
 49
0.0
 49
0.0
 49
1.0
175
     0
142
0.02083333
142
0.0
142
0.0
142
0.0
142
0.0
142
0.02083333
142
0.0
142
0.0
142
0.0
142
0.0
142
1.0
142
0.0
142
0.0
142
0.0
142
0.0
142
1.0
179
     0
144
0.02083333
144
0.0
144
0.0
144
0.0
144
0.0
144
0.02083333
144
0.0
144
0.0
144
0.0
144
0.0
144
1.0
144
0.0
144
0.0
144
0.0
144
0.0
144
1.0
147
0.02083333
147
0.0
147
0.0
147
0.0
147
0.0
147
0.02083333
147
0.0
147
0.0
147
0.0
147
0.0
147
1.0
147
0.0
147
0.0
147
0.0
147
0.0
147
1.0
  0
MATERIAL
  5
29E
102
{ACAD_XDICTIONARY
360
29F
102
}
102
{ACAD_REACTORS
330
29D
102
}
330
29D
100
AcDbMaterial
  1
ByLayer
 72
     0
 43
0.02083333
 43
0.0
 43
0.0
 43
0.0
 43
0.0
 43
0.02083333
 43
0.0
 43
0.0
 43
0.0
 43
0.0
 43
1.0
 43
0.0
 43
0.0
 43
0.0
 43
0.0
 43
1.0
 77
     0
 47
0.02083333
 47
0.0
 47
0.0
 47
0.0
 47
0.0
 47
0.02083333
 47
0.0
 47
0.0
 47
0.0
 47
0.0
 47
1.0
 47
0.0
 47
0.0
 47
0.0
 47
0.0
 47
1.0
171
     0
 49
0.02083333
 49
0.0
 49
0.0
 49
0.0
 49
0.0
 49
0.02083333
 49
0.0
 49
0.0
 49
0.0
 49
0.0
 49
1.0
 49
0.0
 49
0.0
 49
0.0
 49
0.0
 49
1.0
175
     0
142
0.02083333
142
0.0
142
0.0
142
0.0
142
0.0
142
0.02083333
142
0.0
142
0.0
142
0.0
142
0.0
142
1.0
142
0.0
142
0.0
142
0.0
142
0.0
142
1.0
179
     0
144
0.02083333
144
0.0
144
0.0
144
0.0
144
0.0
144
0.02083333
144
0.0
144
0.0
144
0.0
144
0.0
144
1.0
144
0.0
144
0.0
144
0.0
144
0.0
144
1.0
147
0.02083333
147
0.0
147
0.0
147
0.0
147
0.0
147
0.02083333
147
0.0
147
0.0
147
0.0
147
0.0
147
1.0
147
0.0
147
0.0
147
0.0
147
0.0
147
1.0
  0
MATERIAL
  5
2AE
102
{ACAD_XDICTIONARY
360
2AF
102
}
102
{ACAD_REACTORS
330
29D
102
}
330
29D
100
AcDbMaterial
  1
Global
 72
     0
 43
0.02083333
 43
0.0
 43
0.0
 43
0.0
 43
0.0
 43
0.02083333
 43
0.0
 43
0.0
 43
0.0
 43
0.0
 43
1.0
 43
0.0
 43
0.0
 43
0.0
 43
0.0
 43
1.0
 77
     0
 47
0.02083333
 47
0.0
 47
0.0
 47
0.0
 47
0.0
 47
0.02083333
 47
0.0
 47
0.0
 47
0.0
 47
0.0
 47
1.0
 47
0.0
 47
0.0
 47
0.0
 47
0.0
 47
1.0
171
     0
 49
0.02083333
 49
0.0
 49
0.0
 49
0.0
 49
0.0
 49
0.02083333
 49
0.0
 49
0.0
 49
0.0
 49
0.0
 49
1.0
 49
0.0
 49
0.0
 49
0.0
 49
0.0
 49
1.0
175
     0
142
0.02083333
142
0.0
142
0.0
142
0.0
142
0.0
142
0.02083333
142
0.0
142
0.0
142
0.0
142
0.0
142
1.0
142
0.0
142
0.0
142
0.0
142
0.0
142
1.0
179
     0
144
0.02083333
144
0.0
144
0.0
144
0.0
144
0.0
144
0.02083333
144
0.0
144
0.0
144
0.0
144
0.0
144
1.0
144
0.0
144
0.0
144
0.0
144
0.0
144
1.0
147
0.02083333
147
0.0
147
0.0
147
0.0
147
0.0
147
0.02083333
147
0.0
147
0.0
147
0.0
147
0.0
147
1.0
147
0.0
147
0.0
147
0.0
147
0.0
147
1.0
  0
MLEADERSTYLE
  5
2E5
102
{ACAD_XDICTIONARY
360
375
102
}
102
{ACAD_REACTORS
330
2E4
102
}
330
2E4
100
AcDbMLeaderStyle
170
     2
171
     1
172
     0
 90
        2
 40
0.0
 41
0.0
173
     1
 91
-1056964608
340
12
 92
       -2
290
     1
 42
0.09
291
     1
 43
0.36
  3
Standard
 44
0.18
300

342
10
174
     1
178
     6
175
     1
176
     0
 93
-1056964608
 45
0.18
292
     0
297
     0
 46
0.18
 94
-1056964608
 47
1.0
 49
1.0
140
1.0
293
     1
141
0.0
294
     1
177
     0
142
1.0
295
     0
296
     0
143
0.125
1001
ACAD_MLEADERVER
1070
     2
  0
MLINESTYLE
  5
21
102
{ACAD_REACTORS
330
1D
102
}
330
1D
100
AcDbMlineStyle
  2
STANDARD
 70
     0
  3

 62
   256
 51
90.0
 52
90.0
 71
     2
 49
0.5
 62
   256
  6
BYLAYER
 49
-0.5
 62
   256
  6
BYLAYER
  0
ACDBPLACEHOLDER
  5
29C
102
{ACAD_REACTORS
330
29B
102
}
330
29B
  0
SCALE
  5
2D3
102
{ACAD_REACTORS
330
2D2
102
}
330
2D2
100
AcDbScale
 70
     0
300
1:1
140
1.0
141
1.0
290
     1
  0
SCALE
  5
2D4
102
{ACAD_REACTORS
330
2D2
102
}
330
2D2
100
AcDbScale
 70
     0
300
1/128" = 1'-0"
140
0.0078125
141
12.0
290
     0
  0
SCALE
  5
2D5
102
{ACAD_REACTORS
330
2D2
102
}
330
2D2
100
AcDbScale
 70
     0
300
1/64" = 1'-0"
140
0.015625
141
12.0
290
     0
  0
SCALE
  5
2D6
102
{ACAD_REACTORS
330
2D2
102
}
330
2D2
100
AcDbScale
 70
     0
300
1/32" = 1'-0"
140
0.03125
141
12.0
290
     0
  0
SCALE
  5
2D7
102
{ACAD_REACTORS
330
2D2
102
}
330
2D2
100
AcDbScale
 70
     0
300
1/16" = 1'-0"
140
0.0625
141
12.0
290
     0
  0
SCALE
  5
2D8
102
{ACAD_REACTORS
330
2D2
102
}
330
2D2
100
AcDbScale
 70
     0
300
3/32" = 1'-0"
140
0.09375
141
12.0
290
     0
  0
SCALE
  5
2D9
102
{ACAD_REACTORS
330
2D2
102
}
330
2D2
100
AcDbScale
 70
     0
300
1/8" = 1'-0"
140
0.125
141
12.0
290
     0
  0
SCALE
  5
2DA
102
{ACAD_REACTORS
330
2D2
102
}
330
2D2
100
AcDbScale
 70
     0
300
3/16" = 1'-0"
140
0.1875
141
12.0
290
     0
  0
SCALE
  5
2DB
102
{ACAD_REACTORS
330
2D2
102
}
330
2D2
100
AcDbScale
 70
     0
300
1/4" = 1'-0"
140
0.25
141
12.0
290
     0
  0
SCALE
  5
2DC
102
{ACAD_REACTORS
330
2D2
102
}
330
2D2
100
AcDbScale
 70
     0
300
3/8" = 1'-0"
140
0.375
141
12.0
290
     0
  0
SCALE
  5
2DD
102
{ACAD_REACTORS
330
2D2
102
}
330
2D2
100
AcDbScale
 70
     0
300
1/2" = 1'-0"
140
0.5
141
12.0
290
     0
  0
SCALE
  5
2DE
102
{ACAD_REACTORS
330
2D2
102
}
330
2D2
100
AcDbScale
 70
     0
300
3/4" = 1'-0"
140
0.75
141
12.0
290
     0
  0
SCALE
  5
2DF
102
{ACAD_REACTORS
330
2D2
102
}
330
2D2
100
AcDbScale
 70
     0
300
1" = 1'-0"
140
1.0
141
12.0
290
     0
  0
SCALE
  5
2E0
102
{ACAD_REACTORS
330
2D2
102
}
330
2D2
100
AcDbScale
 70
     0
300
1-1/2" = 1'-0"
140
1.5
141
12.0
290
     0
  0
SCALE
  5
2E1
102
{ACAD_REACTORS
330
2D2
102
}
330
2D2
100
AcDbScale
 70
     0
300
3" = 1'-0"
140
3.0
141
12.0
290
     0
  0
SCALE
  5
2E2
102
{ACAD_REACTORS
330
2D2
102
}
330
2D2
100
AcDbScale
 70
     0
300
6" = 1'-0"
140
6.0
141
12.0
290
     0
  0
SCALE
  5
2E3
102
{ACAD_REACTORS
330
2D2
102
}
330
2D2
100
AcDbScale
 70
     0
300
1'-0" = 1'-0"
140
12.0
141
12.0
290
     0
  0
ACDBSECTIONVIEWSTYLE
  5
2E7
102
{ACAD_XDICTIONARY
360
377
102
}
102
{ACAD_REACTORS
330
2E6
102
}
330
2E6
100
AcDbModelDocViewStyle
 70
     0
  3
Imperial24
290
     0
100
AcDbSectionViewStyle
 70
     0
 71
     0
 90
      102
 71
     1
340
10
 62
   256
 40
5.0
340
0
340
0
 62
   256
 40
5.0
300
I, O, Q, S, X, Z
 40
10.0
 90
        0
 40
2.5
 90
        0
 71
     2
340
7
 90
       25
 62
   256
340
7
 90
       50
 62
   256
 40
5.0
 40
2.5
 40
5.0
 71
     3
340
10
 62
   256
 40
5.0
 90
        0
 40
15.0
 90
        1
300
%<\AcVar ViewSectionStartId>%-%<\AcVar ViewSectionEndId>% (%<\AcVar ViewScale \f "%sn">%)
 71
     4
 62
   256
 62
   257
300
ANSI31
 40
1.0
 90
        0
290
     0
290
     0
 90
        6
 40
0.0
 40
1.57079633
 40
0.26179939
 40
1.30899694
 40
-0.26179939
 40
1.83259571
  0
TABLESTYLE
  5
2D1
102
{ACAD_XDICTIONARY
360
2F0
102
}
102
{ACAD_REACTORS
330
2D0
102
}
330
2D0
100
AcDbTableStyle
  3
Standard
 70
     0
 71
     0
 40
0.06
 41
0.06
280
     0
281
     0
  7
STANDARD
140
0.18
170
     2
 62
     0
 63
     7
283
     0
274
    -2
284
     1
 64
     0
275
    -2
285
     1
 65
     0
276
    -2
286
     1
 66
     0
277
    -2
287
     1
 67
     0
278
    -2
288
     1
 68
     0
279
    -2
289
     1
 69
     0
  7
STANDARD
140
0.25
170
     5
 62
     0
 63
     7
283
     0
274
    -2
284
     1
 64
     0
275
    -2
285
     1
 65
     0
276
    -2
286
     1
 66
     0
277
    -2
287
     1
 67
     0
278
    -2
288
     1
 68
     0
279
    -2
289
     1
 69
     0
  7
STANDARD
140
0.18
170
     5
 62
     0
 63
     7
283
     0
274
    -2
284
     1
 64
     0
275
    -2
285
     1
 65
     0
276
    -2
286
     1
 66
     0
277
    -2
287
     1
 67
     0
278
    -2
288
     1
 68
     0
279
    -2
289
     1
 69
     0
  0
VISUALSTYLE
  5
2BC
102
{ACAD_XDICTIONARY
360
34E
102
}
102
{ACAD_REACTORS
330
2B6
102
}
330
2B6
100
AcDbVisualStyle
  2
2dWireframe
 70
     4
 71
     0
 72
     2
 73
     0
 90
        0
 40
-0.6
 41
-30.0
 62
     5
 63
     7
421
 16777215
 74
     1
 91
        4
 64
     7
 65
   257
 75
     1
175
     1
 42
1.0
 92
        0
 66
   257
 43
1.0
 76
     1
 77
     6
 78
     2
 67
     7
 79
     5
170
     0
171
     0
290
     0
174
     0
 93
        1
 44
0.0
173
     0
291
     0
 45
0.0
1001
ACAD
1000
AcDbSavedByObjectVersion
1070
     0
  0
VISUALSTYLE
  5
2BB
102
{ACAD_XDICTIONARY
360
34C
102
}
102
{ACAD_REACTORS
330
2B6
102
}
330
2B6
100
AcDbVisualStyle
  2
Basic
 70
     7
 71
     1
 72
     0
 73
     1
 90
        0
 40
-0.6
 41
-30.0
 62
     5
 63
     7
421
 16777215
 74
     0
 91
        4
 64
     7
 65
   257
 75
     1
175
     1
 42
1.0
 92
        8
 66
     7
 43
1.0
 76
     1
 77
     6
 78
     2
 67
     7
 79
     5
170
     0
171
     0
290
     0
174
     0
 93
        1
 44
0.0
173
     0
291
     1
 45
0.0
1001
ACAD
1000
AcDbSavedByObjectVersion
1070
     0
  0
VISUALSTYLE
  5
2C2
102
{ACAD_XDICTIONARY
360
35A
102
}
102
{ACAD_REACTORS
330
2B6
102
}
330
2B6
100
AcDbVisualStyle
  2
Brighten
 70
    12
 71
     2
 72
     2
 73
     0
 90
        0
 40
-0.6
 41
-30.0
 62
     5
 63
     7
421
 16777215
 74
     1
 91
        4
 64
     7
 65
   257
 75
     1
175
     1
 42
1.0
 92
        8
 66
     7
 43
1.0
 76
     1
 77
     6
 78
     2
 67
     7
 79
     5
170
     0
171
     0
290
     0
174
     0
 93
        1
 44
50.0
173
     0
291
     1
 45
0.0
1001
ACAD
1000
AcDbSavedByObjectVersion
1070
     0
  0
VISUALSTYLE
  5
2C6
102
{ACAD_XDICTIONARY
360
362
102
}
102
{ACAD_REACTORS
330
2B6
102
}
330
2B6
100
AcDbVisualStyle
  2
ColorChange
 70
    16
 71
     2
 72
     2
 73
     3
 90
        0
 40
-0.6
 41
-30.0
 62
     5
 63
     8
421
  8421504
 74
     1
 91
        4
 64
     7
 65
   257
 75
     1
175
     1
 42
1.0
 92
        8
 66
     8
424
  8421504
 43
1.0
 76
     1
 77
     6
 78
     2
 67
     7
 79
     5
170
     0
171
     0
290
     0
174
     0
 93
        1
 44
0.0
173
     0
291
     1
 45
0.0
1001
ACAD
1000
AcDbSavedByObjectVersion
1070
     0
  0
VISUALSTYLE
  5
2BF
102
{ACAD_XDICTIONARY
360
354
102
}
102
{ACAD_REACTORS
330
2B6
102
}
330
2B6
100
AcDbVisualStyle
  2
Conceptual
 70
     9
 71
     3
 72
     2
 73
     0
 90
        0
 40
-0.6
 41
-30.0
 62
     5
 63
     7
421
 16777215
 74
     2
 91
        2
 64
     7
 65
   257
 75
     1
175
     1
 42
179.0
 92
        8
 66
     7
 43
1.0
 76
     1
 77
     6
 78
     2
 67
     7
 79
     3
170
     0
171
     0
290
     0
174
     0
 93
        1
 44
0.0
173
     0
291
     0
 45
0.0
1001
ACAD
1000
AcDbSavedByObjectVersion
1070
     0
  0
VISUALSTYLE
  5
2C1
102
{ACAD_XDICTIONARY
360
358
102
}
102
{ACAD_REACTORS
330
2B6
102
}
330
2B6
100
AcDbVisualStyle
  2
Dim
 70
    11
 71
     2
 72
     2
 73
     0
 90
        0
 40
-0.6
 41
-30.0
 62
     5
 63
     7
421
 16777215
 74
     1
 91
        4
 64
     7
 65
   257
 75
     1
175
     1
 42
1.0
 92
        8
 66
     7
 43
1.0
 76
     1
 77
     6
 78
     2
 67
     7
 79
     5
170
     0
171
     0
290
     0
174
     0
 93
        1
 44
-50.0
173
     0
291
     1
 45
0.0
1001
ACAD
1000
AcDbSavedByObjectVersion
1070
     0
  0
VISUALSTYLE
  5
2CE
102
{ACAD_XDICTIONARY
360
372
102
}
102
{ACAD_REACTORS
330
2B6
102
}
330
2B6
100
AcDbVisualStyle
  2
EdgeColorOff
 70
    22
 71
     2
 72
     2
 73
     0
 90
        0
 40
-0.6
 41
-30.0
 62
     5
 63
     7
421
 16777215
 74
     1
 91
        4
 64
     7
 65
   257
 75
     1
175
     1
 42
1.0
 92
        8
 66
     7
 43
1.0
 76
     1
 77
     6
 78
     2
 67
     7
 79
     5
170
     0
171
     0
290
     0
174
     0
 93
        1
 44
0.0
173
     0
291
     1
 45
0.0
1001
ACAD
1000
AcDbSavedByObjectVersion
1070
     0
  0
VISUALSTYLE
  5
2C5
102
{ACAD_XDICTIONARY
360
360
102
}
102
{ACAD_REACTORS
330
2B6
102
}
330
2B6
100
AcDbVisualStyle
  2
Facepattern
 70
    15
 71
     2
 72
     2
 73
     0
 90
        0
 40
-0.6
 41
-30.0
 62
     5
 63
     7
421
 16777215
 74
     1
 91
        4
 64
     7
 65
   257
 75
     1
175
     1
 42
1.0
 92
        8
 66
     7
 43
1.0
 76
     1
 77
     6
 78
     2
 67
     7
 79
     5
170
     0
171
     0
290
     0
174
     0
 93
        1
 44
0.0
173
     0
291
     1
 45
0.0
1001
ACAD
1000
AcDbSavedByObjectVersion
1070
     0
  0
VISUALSTYLE
  5
2B7
102
{ACAD_XDICTIONARY
360
344
102
}
102
{ACAD_REACTORS
330
2B6
102
}
330
2B6
100
AcDbVisualStyle
  2
Flat
 70
     0
 71
     2
 72
     1
 73
     1
 90
        2
 40
-0.6
 41
30.0
 62
     5
 63
     7
421
 16777215
 74
     0
 91
        0
 64
     7
 65
   257
 75
     1
175
     1
 42
1.0
 92
        8
 66
     7
 43
1.0
 76
     1
 77
     6
 78
     2
 67
     7
 79
     5
170
     0
171
     0
290
     0
174
     0
 93
       13
 44
0.0
173
     0
291
     1
 45
0.0
1001
ACAD
1000
AcDbSavedByObjectVersion
1070
     0
  0
VISUALSTYLE
  5
2B8
102
{ACAD_XDICTIONARY
360
346
102
}
102
{ACAD_REACTORS
330
2B6
102
}
330
2B6
100
AcDbVisualStyle
  2
FlatWithEdges
 70
     1
 71
     2
 72
     1
 73
     1
 90
        2
 40
-0.6
 41
30.0
 62
     5
 63
     7
421
 16777215
 74
     1
 91
        0
 64
     7
 65
   257
 75
     1
175
     1
 42
1.0
 92
        0
 66
   257
 43
1.0
 76
     1
 77
     6
 78
     2
 67
     7
 79
     5
170
     0
171
     0
290
     0
174
     0
 93
       13
 44
0.0
173
     0
291
     1
 45
0.0
1001
ACAD
1000
AcDbSavedByObjectVersion
1070
     0
  0
VISUALSTYLE
  5
2B9
102
{ACAD_XDICTIONARY
360
348
102
}
102
{ACAD_REACTORS
330
2B6
102
}
330
2B6
100
AcDbVisualStyle
  2
Gouraud
 70
     2
 71
     2
 72
     2
 73
     1
 90
        2
 40
-0.6
 41
30.0
 62
     5
 63
     7
421
 16777215
 74
     0
 91
        0
 64
     7
 65
   257
 75
     1
175
     1
 42
1.0
 92
        0
 66
     7
 43
1.0
 76
     1
 77
     6
 78
     2
 67
     7
 79
     5
170
     0
171
     0
290
     0
174
     0
 93
       13
 44
0.0
173
     0
291
     1
 45
0.0
1001
ACAD
1000
AcDbSavedByObjectVersion
1070
     0
  0
VISUALSTYLE
  5
2BA
102
{ACAD_XDICTIONARY
360
34A
102
}
102
{ACAD_REACTORS
330
2B6
102
}
330
2B6
100
AcDbVisualStyle
  2
GouraudWithEdges
 70
     3
 71
     2
 72
     2
 73
     1
 90
        2
 40
-0.6
 41
30.0
 62
     5
 63
     7
421
 16777215
 74
     1
 91
        0
 64
     7
 65
   257
 75
     1
175
     1
 42
1.0
 92
        0
 66
   257
 43
1.0
 76
     1
 77
     6
 78
     2
 67
     7
 79
     5
170
     0
171
     0
290
     0
174
     0
 93
       13
 44
0.0
173
     0
291
     1
 45
0.0
1001
ACAD
1000
AcDbSavedByObjectVersion
1070
     0
  0
VISUALSTYLE
  5
2BE
102
{ACAD_XDICTIONARY
360
352
102
}
102
{ACAD_REACTORS
330
2B6
102
}
330
2B6
100
AcDbVisualStyle
  2
Hidden
 70
     6
 71
     1
 72
     2
 73
     2
 90
        0
 40
-0.6
 41
-30.0
 62
     5
 63
     7
421
 16777215
 74
     2
 91
        2
 64
     7
 65
   257
 75
     2
175
     1
 42
40.0
 92
        0
 66
   257
 43
1.0
 76
     1
 77
     6
 78
     2
 67
     7
 79
     3
170
     0
171
     0
290
     0
174
     0
 93
        1
 44
0.0
173
     0
291
     0
 45
0.0
1001
ACAD
1000
AcDbSavedByObjectVersion
1070
     0
  0
VISUALSTYLE
  5
2CC
102
{ACAD_XDICTIONARY
360
36E
102
}
102
{ACAD_REACTORS
330
2B6
102
}
330
2B6
100
AcDbVisualStyle
  2
JitterOff
 70
    20
 71
     2
 72
     2
 73
     0
 90
        0
 40
-0.6
 41
-30.0
 62
     5
 63
     7
421
 16777215
 74
     1
 91
        4
 64
     7
 65
   257
 75
     1
175
     1
 42
1.0
 92
       10
 66
     7
 43
1.0
 76
     1
 77
     6
 78
     2
 67
     7
 79
     5
170
     0
171
     0
290
     0
174
     0
 93
        1
 44
0.0
173
     0
291
     1
 45
0.0
1001
ACAD
1000
AcDbSavedByObjectVersion
1070
     0
  0
VISUALSTYLE
  5
2C4
102
{ACAD_XDICTIONARY
360
35E
102
}
102
{ACAD_REACTORS
330
2B6
102
}
330
2B6
100
AcDbVisualStyle
  2
Linepattern
 70
    14
 71
     2
 72
     2
 73
     0
 90
        0
 40
-0.6
 41
-30.0
 62
     5
 63
     7
421
 16777215
 74
     1
 91
        4
 64
     7
 65
   257
 75
     7
175
     7
 42
1.0
 92
        8
 66
     7
 43
1.0
 76
     1
 77
     6
 78
     2
 67
     7
 79
     5
170
     0
171
     0
290
     0
174
     0
 93
        1
 44
0.0
173
     0
291
     1
 45
0.0
1001
ACAD
1000
AcDbSavedByObjectVersion
1070
     0
  0
VISUALSTYLE
  5
2CD
102
{ACAD_XDICTIONARY
360
370
102
}
102
{ACAD_REACTORS
330
2B6
102
}
330
2B6
100
AcDbVisualStyle
  2
OverhangOff
 70
    21
 71
     2
 72
     2
 73
     0
 90
        0
 40
-0.6
 41
-30.0
 62
     5
 63
     7
421
 16777215
 74
     1
 91
        4
 64
     7
 65
   257
 75
     1
175
     1
 42
1.0
 92
        9
 66
     7
 43
1.0
 76
     1
 77
     6
 78
     2
 67
     7
 79
     5
170
     0
171
     0
290
     0
174
     0
 93
        1
 44
0.0
173
     0
291
     1
 45
0.0
1001
ACAD
1000
AcDbSavedByObjectVersion
1070
     0
  0
VISUALSTYLE
  5
2C0
102
{ACAD_XDICTIONARY
360
356
102
}
102
{ACAD_REACTORS
330
2B6
102
}
330
2B6
100
AcDbVisualStyle
  2
Realistic
 70
     8
 71
     2
 72
     2
 73
     0
 90
        2
 40
-0.6
 41
30.0
 62
     5
 63
     7
421
 16777215
 74
     0
 91
        0
 64
     7
 65
   257
 75
     1
175
     1
 42
1.0
 92
        8
 66
   257
 43
1.0
 76
     1
 77
     6
 78
     2
 67
     7
 79
     3
170
     0
171
     0
290
     0
174
     0
 93
       13
 44
0.0
173
     0
291
     0
 45
0.0
1001
ACAD
1000
AcDbSavedByObjectVersion
1070
     0
  0
VISUALSTYLE
  5
2CB
102
{ACAD_XDICTIONARY
360
36C
102
}
102
{ACAD_REACTORS
330
2B6
102
}
330
2B6
100
AcDbVisualStyle
  2
Shaded
 70
    27
 71
     2
 72
     2
 73
     1
 90
        2
 40
-0.6
 41
30.0
 62
     5
 63
     7
421
 16777215
 74
     0
 91
        4
 64
     7
 65
   257
 75
     1
175
     1
 42
1.0
 92
        8
 66
   257
 43
1.0
 76
     1
 77
     6
 78
     2
 67
     8
425
  7895160
 79
     3
170
     0
171
     0
290
     0
174
     0
 93
        5
 44
0.0
173
     0
291
     0
 45
0.0
1001
ACAD
1000
AcDbSavedByObjectVersion
1070
     0
  0
VISUALSTYLE
  5
2CA
102
{ACAD_XDICTIONARY
360
36A
102
}
102
{ACAD_REACTORS
330
2B6
102
}
330
2B6
100
AcDbVisualStyle
  2
Shaded with edges
 70
    26
 71
     2
 72
     2
 73
     1
 90
        2
 40
-0.6
 41
30.0
 62
     5
 63
     7
421
 16777215
 74
     1
 91
       10
 64
     7
 65
   257
 75
     2
175
     1
 42
1.0
 92
        8
 66
   257
 43
1.0
 76
     1
 77
     6
 78
     2
 67
     7
 79
     3
170
     0
171
     0
290
     0
174
     0
 93
        5
 44
0.0
173
     0
291
     0
 45
0.0
1001
ACAD
1000
AcDbSavedByObjectVersion
1070
     0
  0
VISUALSTYLE
  5
2C7
102
{ACAD_XDICTIONARY
360
364
102
}
102
{ACAD_REACTORS
330
2B6
102
}
330
2B6
100
AcDbVisualStyle
  2
Shades of Gray
 70
    23
 71
     2
 72
     2
 73
     3
 90
        0
 40
-0.6
 41
-30.0
 62
     5
 63
     7
421
 16777215
 74
     2
 91
        2
 64
     7
 65
     7
 75
     1
175
     1
 42
40.0
 92
        8
 66
     7
 43
1.0
 76
     1
 77
     6
 78
     2
 67
     7
 79
     3
170
     0
171
     0
290
     0
174
     0
 93
        1
 44
0.0
173
     0
291
     0
 45
0.0
1001
ACAD
1000
AcDbSavedByObjectVersion
1070
     0
  0
VISUALSTYLE
  5
2C8
102
{ACAD_XDICTIONARY
360
366
102
}
102
{ACAD_REACTORS
330
2B6
102
}
330
2B6
100
AcDbVisualStyle
  2
Sketchy
 70
    24
 71
     1
 72
     2
 73
     2
 90
        0
 40
-0.6
 41
-30.0
 62
     5
 63
     7
421
 16777215
 74
     2
 91
        2
 64
     7
 65
     7
 75
     1
175
     1
 42
40.0
 92
       11
 66
     7
 43
1.0
 76
     1
 77
     6
 78
     2
 67
     7
 79
     6
170
     0
171
     0
290
     0
174
     0
 93
        1
 44
0.0
173
     0
291
     0
 45
0.0
1001
ACAD
1000
AcDbSavedByObjectVersion
1070
     0
  0
VISUALSTYLE
  5
2C3
102
{ACAD_XDICTIONARY
360
35C
102
}
102
{ACAD_REACTORS
330
2B6
102
}
330
2B6
100
AcDbVisualStyle
  2
Thicken
 70
    13
 71
     2
 72
     2
 73
     0
 90
        0
 40
-0.6
 41
-30.0
 62
     5
 63
     7
421
 16777215
 74
     1
 91
        4
 64
     7
 65
   257
 75
     1
175
     1
 42
1.0
 92
       12
 66
     7
 43
1.0
 76
     1
 77
     6
 78
     2
 67
     7
 79
     5
170
     0
171
     0
290
     0
174
     0
 93
        1
 44
0.0
173
     0
291
     1
 45
0.0
1001
ACAD
1000
AcDbSavedByObjectVersion
1070
     0
  0
VISUALSTYLE
  5
2BD
102
{ACAD_XDICTIONARY
360
350
102
}
102
{ACAD_REACTORS
330
2B6
102
}
330
2B6
100
AcDbVisualStyle
  2
Wireframe
 70
     5
 71
     0
 72
     2
 73
     0
 90
        0
 40
-0.6
 41
-30.0
 62
     5
 63
     7
421
 16777215
 74
     1
 91
        4
 64
     7
 65
   257
 75
     1
175
     1
 42
1.0
 92
        0
 66
   257
 43
1.0
 76
     1
 77
     6
 78
     2
 67
     7
 79
     3
170
     0
171
     0
290
     0
174
     0
 93
        1
 44
0.0
173
     0
291
     0
 45
0.0
1001
ACAD
1000
AcDbSavedByObjectVersion
1070
     0
  0
VISUALSTYLE
  5
2C9
102
{ACAD_XDICTIONARY
360
368
102
}
102
{ACAD_REACTORS
330
2B6
102
}
330
2B6
100
AcDbVisualStyle
  2
X-Ray
 70
    25
 71
     2
 72
     2
 73
     1
 90
        1
 40
0.5
 41
-30.0
 62
     5
 63
     7
421
 16777215
 74
     1
 91
        0
 64
     7
 65
   257
 75
     1
175
     1
 42
1.0
 92
        8
 66
     7
 43
1.0
 76
     1
 77
     6
 78
     2
 67
     7
 79
     3
170
     0
171
     0
290
     0
174
     0
 93
       13
 44
0.0
173
     0
291
     0
 45
0.0
1001
ACAD
1000
AcDbSavedByObjectVersion
1070
     0
  0
DICTIONARYVAR
  5
333
102
{ACAD_REACTORS
330
32E
102
}
330
32E
100
DictionaryVariables
280
     0
  1
1:1
  0
DICTIONARYVAR
  5
330
102
{ACAD_REACTORS
330
32E
102
}
330
32E
100
DictionaryVariables
280
     0
  1
STANDARD
  0
DICTIONARYVAR
  5
32F
102
{ACAD_REACTORS
330
32E
102
}
330
32E
100
DictionaryVariables
280
     0
  1
STANDARD
  0
DICTIONARYVAR
  5
331
102
{ACAD_REACTORS
330
32E
102
}
330
32E
100
DictionaryVariables
280
     0
  1
Imperial24
  0
DICTIONARYVAR
  5
332
102
{ACAD_REACTORS
330
32E
102
}
330
32E
100
DictionaryVariables
280
     0
  1
Imperial24
  0
DICTIONARYVAR
  5
33E
102
{ACAD_REACTORS
330
32E
102
}
330
32E
100
DictionaryVariables
280
     0
  1
2
  0
DICTIONARY
  5
379
330
2E9
100
AcDbDictionary
280
     1
281
     1
  3
ACAD_XREC_ROUNDTRIP
360
37A
  0
DICTIONARY
  5
2A7
330
2A6
100
AcDbDictionary
280
     1
281
     1
  3
ACAD_XREC_ROUNDTRIP
360
342
  3
BUMPTILE
360
2A9
  3
DIFFUSETILE
360
2A8
  3
OPACITYTILE
360
2AC
  3
REFLECTIONTILE
360
2AB
  3
REFRACTIONTILE
360
2AD
  3
SPECULARTILE
360
2AA
  0
DICTIONARY
  5
29F
330
29E
100
AcDbDictionary
280
     1
281
     1
  3
ACAD_XREC_ROUNDTRIP
360
341
  3
BUMPTILE
360
2A1
  3
DIFFUSETILE
360
2A0
  3
OPACITYTILE
360
2A4
  3
REFLECTIONTILE
360
2A3
  3
REFRACTIONTILE
360
2A5
  3
SPECULARTILE
360
2A2
  0
DICTIONARY
  5
2AF
330
2AE
100
AcDbDictionary
280
     1
281
     1
  3
ACAD_XREC_ROUNDTRIP
360
343
  3
BUMPTILE
360
2B1
  3
DIFFUSETILE
360
2B0
  3
OPACITYTILE
360
2B4
  3
REFLECTIONTILE
360
2B3
  3
REFRACTIONTILE
360
2B5
  3
SPECULARTILE
360
2B2
  0
DICTIONARY
  5
375
330
2E5
100
AcDbDictionary
280
     1
281
     1
  3
ACAD_XREC_ROUNDTRIP
360
376
  0
DICTIONARY
  5
377
330
2E7
100
AcDbDictionary
280
     1
281
     1
  3
ACAD_XREC_ROUNDTRIP
360
378
  0
DICTIONARY
  5
2F0
330
2D1
100
AcDbDictionary
280
     1
281
     1
  3
ACAD_ROUNDTRIP_2008_TABLESTYLE_CELLSTYLEMAP
360
33F
  3
ACAD_XREC_ROUNDTRIP
360
374
  0
DICTIONARY
  5
34E
330
2BC
100
AcDbDictionary
280
     1
281
     1
  3
ACAD_XREC_ROUNDTRIP
360
34F
  0
DICTIONARY
  5
34C
330
2BB
100
AcDbDictionary
280
     1
281
     1
  3
ACAD_XREC_ROUNDTRIP
360
34D
  0
DICTIONARY
  5
35A
330
2C2
100
AcDbDictionary
280
     1
281
     1
  3
ACAD_XREC_ROUNDTRIP
360
35B
  0
DICTIONARY
  5
362
330
2C6
100
AcDbDictionary
280
     1
281
     1
  3
ACAD_XREC_ROUNDTRIP
360
363
  0
DICTIONARY
  5
354
330
2BF
100
AcDbDictionary
280
     1
281
     1
  3
ACAD_XREC_ROUNDTRIP
360
355
  0
DICTIONARY
  5
358
330
2C1
100
AcDbDictionary
280
     1
281
     1
  3
ACAD_XREC_ROUNDTRIP
360
359
  0
DICTIONARY
  5
372
330
2CE
100
AcDbDictionary
280
     1
281
     1
  3
ACAD_XREC_ROUNDTRIP
360
373
  0
DICTIONARY
  5
360
330
2C5
100
AcDbDictionary
280
     1
281
     1
  3
ACAD_XREC_ROUNDTRIP
360
361
  0
DICTIONARY
  5
344
330
2B7
100
AcDbDictionary
280
     1
281
     1
  3
ACAD_XREC_ROUNDTRIP
360
345
  0
DICTIONARY
  5
346
330
2B8
100
AcDbDictionary
280
     1
281
     1
  3
ACAD_XREC_ROUNDTRIP
360
347
  0
DICTIONARY
  5
348
330
2B9
100
AcDbDictionary
280
     1
281
     1
  3
ACAD_XREC_ROUNDTRIP
360
349
  0
DICTIONARY
  5
34A
330
2BA
100
AcDbDictionary
280
     1
281
     1
  3
ACAD_XREC_ROUNDTRIP
360
34B
  0
DICTIONARY
  5
352
330
2BE
100
AcDbDictionary
280
     1
281
     1
  3
ACAD_XREC_ROUNDTRIP
360
353
  0
DICTIONARY
  5
36E
330
2CC
100
AcDbDictionary
280
     1
281
     1
  3
ACAD_XREC_ROUNDTRIP
360
36F
  0
DICTIONARY
  5
35E
330
2C4
100
AcDbDictionary
280
     1
281
     1
  3
ACAD_XREC_ROUNDTRIP
360
35F
  0
DICTIONARY
  5
370
330
2CD
100
AcDbDictionary
280
     1
281
     1
  3
ACAD_XREC_ROUNDTRIP
360
371
  0
DICTIONARY
  5
356
330
2C0
100
AcDbDictionary
280
     1
281
     1
  3
ACAD_XREC_ROUNDTRIP
360
357
  0
DICTIONARY
  5
36C
330
2CB
100
AcDbDictionary
280
     1
281
     1
  3
ACAD_XREC_ROUNDTRIP
360
36D
  0
DICTIONARY
  5
36A
330
2CA
100
AcDbDictionary
280
     1
281
     1
  3
ACAD_XREC_ROUNDTRIP
360
36B
  0
DICTIONARY
  5
364
330
2C7
100
AcDbDictionary
280
     1
281
     1
  3
ACAD_XREC_ROUNDTRIP
360
365
  0
DICTIONARY
  5
366
330
2C8
100
AcDbDictionary
280
     1
281
     1
  3
ACAD_XREC_ROUNDTRIP
360
367
  0
DICTIONARY
  5
35C
330
2C3
100
AcDbDictionary
280
     1
281
     1
  3
ACAD_XREC_ROUNDTRIP
360
35D
  0
DICTIONARY
  5
350
330
2BD
100
AcDbDictionary
280
     1
281
     1
  3
ACAD_XREC_ROUNDTRIP
360
351
  0
DICTIONARY
  5
368
330
2C9
100
AcDbDictionary
280
     1
281
     1
  3
ACAD_XREC_ROUNDTRIP
360
369
  0
XRECORD
  5
37A
102
{ACAD_REACTORS
330
379
102
}
330
379
100
AcDbXrecord
280
     1
102
DISPLAYNAME
  1
Imperial24
102
FLAGS
 90
        0
  0
XRECORD
  5
342
102
{ACAD_REACTORS
330
2A7
102
}
330
2A7
100
AcDbXrecord
280
     1
102
MATERIAL
148
0.0
149
0.0
149
0.0
 93
        0
 94
      127
282
     0
 72
     0
 77
     0
171
     0
175
     0
179
     0
273
     0
  0
XRECORD
  5
2A9
102
{ACAD_REACTORS
330
2A7
102
}
330
2A7
100
AcDbXrecord
280
     1
270
     1
271
     1
  0
XRECORD
  5
2A8
102
{ACAD_REACTORS
330
2A7
102
}
330
2A7
100
AcDbXrecord
280
     1
270
     1
271
     1
  0
XRECORD
  5
2AC
102
{ACAD_REACTORS
330
2A7
102
}
330
2A7
100
AcDbXrecord
280
     1
270
     1
271
     1
  0
XRECORD
  5
2AB
102
{ACAD_REACTORS
330
2A7
102
}
330
2A7
100
AcDbXrecord
280
     1
270
     1
271
     1
  0
XRECORD
  5
2AD
102
{ACAD_REACTORS
330
2A7
102
}
330
2A7
100
AcDbXrecord
280
     1
270
     1
271
     1
  0
XRECORD
  5
2AA
102
{ACAD_REACTORS
330
2A7
102
}
330
2A7
100
AcDbXrecord
280
     1
270
     1
271
     1
  0
XRECORD
  5
341
102
{ACAD_REACTORS
330
29F
102
}
330
29F
100
AcDbXrecord
280
     1
102
MATERIAL
148
0.0
149
0.0
149
0.0
 93
        0
 94
      127
282
     0
 72
     0
 77
     0
171
     0
175
     0
179
     0
273
     0
  0
XRECORD
  5
2A1
102
{ACAD_REACTORS
330
29F
102
}
330
29F
100
AcDbXrecord
280
     1
270
     1
271
     1
  0
XRECORD
  5
2A0
102
{ACAD_REACTORS
330
29F
102
}
330
29F
100
AcDbXrecord
280
     1
270
     1
271
     1
  0
XRECORD
  5
2A4
102
{ACAD_REACTORS
330
29F
102
}
330
29F
100
AcDbXrecord
280
     1
270
     1
271
     1
  0
XRECORD
  5
2A3
102
{ACAD_REACTORS
330
29F
102
}
330
29F
100
AcDbXrecord
280
     1
270
     1
271
     1
  0
XRECORD
  5
2A5
102
{ACAD_REACTORS
330
29F
102
}
330
29F
100
AcDbXrecord
280
     1
270
     1
271
     1
  0
XRECORD
  5
2A2
102
{ACAD_REACTORS
330
29F
102
}
330
29F
100
AcDbXrecord
280
     1
270
     1
271
     1
  0
XRECORD
  5
343
102
{ACAD_REACTORS
330
2AF
102
}
330
2AF
100
AcDbXrecord
280
     1
102
MATERIAL
148
0.0
149
0.0
149
0.0
 93
        0
 94
      127
282
     0
 72
     0
 77
     0
171
     0
175
     0
179
     0
273
     0
  0
XRECORD
  5
2B1
102
{ACAD_REACTORS
330
2AF
102
}
330
2AF
100
AcDbXrecord
280
     1
270
     1
271
     1
  0
XRECORD
  5
2B0
102
{ACAD_REACTORS
330
2AF
102
}
330
2AF
100
AcDbXrecord
280
     1
270
     1
271
     1
  0
XRECORD
  5
2B4
102
{ACAD_REACTORS
330
2AF
102
}
330
2AF
100
AcDbXrecord
280
     1
270
     1
271
     1
  0
XRECORD
  5
2B3
102
{ACAD_REACTORS
330
2AF
102
}
330
2AF
100
AcDbXrecord
280
     1
270
     1
271
     1
  0
XRECORD
  5
2B5
102
{ACAD_REACTORS
330
2AF
102
}
330
2AF
100
AcDbXrecord
280
     1
270
     1
271
     1
  0
XRECORD
  5
2B2
102
{ACAD_REACTORS
330
2AF
102
}
330
2AF
100
AcDbXrecord
280
     1
270
     1
271
     1
  0
XRECORD
  5
376
102
{ACAD_REACTORS
330
375
102
}
330
375
100
AcDbXrecord
280
     1
102
ACAD_ROUNDTRIP_2012_MLEADER_STYLE
298
     1
  0
XRECORD
  5
378
102
{ACAD_REACTORS
330
377
102
}
330
377
100
AcDbXrecord
280
     1
102
DISPLAYNAME
  1
Imperial24
102
FLAGS
 90
        0
  0
CELLSTYLEMAP
  5
33F
102
{ACAD_REACTORS
330
2F0
102
}
330
2F0
100
AcDbCellStyleMap
 90
        3
300
CELLSTYLE
  1
TABLEFORMAT_BEGIN
 90
        5
170
     1
 91
        0
 92
    32768
 62
   257
 93
        1
300
CONTENTFORMAT
  1
CONTENTFORMAT_BEGIN
 90
        0
 91
        0
 92
      512
 93
        0
300

 40
0.0
140
1.0
 94
        5
 62
     0
340
10
144
0.25
309
CONTENTFORMAT_END
171
     0
 94
        0
309
TABLEFORMAT_END
  1
CELLSTYLE_BEGIN
 90
        1
 91
        1
300
_TITLE
309
CELLSTYLE_END
300
CELLSTYLE
  1
TABLEFORMAT_BEGIN
 90
        5
170
     1
 91
        0
 92
        0
 62
   257
 93
        1
300
CONTENTFORMAT
  1
CONTENTFORMAT_BEGIN
 90
        0
 91
        0
 92
      512
 93
        0
300

 40
0.0
140
1.0
 94
        5
 62
     0
340
10
144
0.18
309
CONTENTFORMAT_END
171
     0
 94
        0
309
TABLEFORMAT_END
  1
CELLSTYLE_BEGIN
 90
        2
 91
        1
300
_HEADER
309
CELLSTYLE_END
300
CELLSTYLE
  1
TABLEFORMAT_BEGIN
 90
        5
170
     1
 91
        0
 92
        0
 62
   257
 93
        1
300
CONTENTFORMAT
  1
CONTENTFORMAT_BEGIN
 90
        0
 91
        0
 92
      512
 93
        0
300

 40
0.0
140
1.0
 94
        2
 62
     0
340
10
144
0.18
309
CONTENTFORMAT_END
171
     0
 94
        0
309
TABLEFORMAT_END
  1
CELLSTYLE_BEGIN
 90
        3
 91
        2
300
_DATA
309
CELLSTYLE_END
  0
XRECORD
  5
374
102
{ACAD_REACTORS
330
2F0
102
}
330
2F0
100
AcDbXrecord
280
     1
102
ACAD_ROUNDTRIP_PRE2007_TABLESTYLE
 90
      512
 91
        0
  1

 92
      512
 93
        0
  2

 94
      512
 95
        0
  3

  0
XRECORD
  5
34F
102
{ACAD_REACTORS
330
34E
102
}
330
34E
100
AcDbXrecord
280
     1
102
RTVSPost2010Prop28
280
     1
102
RTVSPost2010PropOp28
 70
     1
102
RTVSPost2010Prop29
280
     1
102
RTVSPost2010PropOp29
 70
     1
102
RTVSPost2010Prop30
280
     0
102
RTVSPost2010PropOp30
 70
     1
102
RTVSPost2010Prop31
280
     0
102
RTVSPost2010PropOp31
 70
     1
102
RTVSPost2010Prop32
280
     0
102
RTVSPost2010PropOp32
 70
     1
102
RTVSPost2010Prop33
280
     0
102
RTVSPost2010PropOp33
 70
     1
102
RTVSPost2010Prop34
280
     0
102
RTVSPost2010PropOp34
 70
     1
102
RTVSPost2010Prop35
280
     0
102
RTVSPost2010PropOp35
 70
     1
102
RTVSPost2010Prop36
280
     0
102
RTVSPost2010PropOp36
 70
     1
102
RTVSPost2010Prop37
 90
       50
102
RTVSPost2010PropOp37
 70
     1
102
RTVSPost2010Prop38
140
0.0
102
RTVSPost2010PropOp38
 70
     1
102
RTVSPost2010Prop39
140
1.0
102
RTVSPost2010PropOp39
 70
     1
102
RTVSPost2010Prop40
 90
        0
102
RTVSPost2010PropOp40
 70
     1
102
RTVSPost2010Prop41ColorIndex
 90
       18
102
RTVSPost2010Prop41ColorRGB
 90
        0
102
RTVSPost2010PropOp41
 70
     1
102
RTVSPost2010Prop42
 90
       50
102
RTVSPost2010PropOp42
 70
     1
102
RTVSPost2010Prop43
 90
        3
102
RTVSPost2010PropOp43
 70
     1
102
RTVSPost2010Prop44ColorIndex
 90
        5
102
RTVSPost2010Prop44ColorRGB
 90
      255
102
RTVSPost2010PropOp44
 70
     1
102
RTVSPost2010Prop45
280
     0
102
RTVSPost2010PropOp45
 70
     1
102
RTVSPost2010Prop46
 90
       50
102
RTVSPost2010PropOp46
 70
     1
102
RTVSPost2010Prop47
 90
       50
102
RTVSPost2010PropOp47
 70
     1
102
RTVSPost2010Prop48
 90
       50
102
RTVSPost2010PropOp48
 70
     1
102
RTVSPost2010Prop49
280
     0
102
RTVSPost2010PropOp49
 70
     1
102
RTVSPost2010Prop50
 90
       50
102
RTVSPost2010PropOp50
 70
     1
102
RTVSPost2010Prop51ColorIndex
 90
      256
102
RTVSPost2010Prop51ColorRGB
 90
-16777216
102
RTVSPost2010PropOp51
 70
     0
102
RTVSPost2010Prop52
140
1.0
102
RTVSPost2010PropOp52
 70
     0
102
RTVSPost2010Prop53
 90
        2
102
RTVSPost2010PropOp53
 70
     1
102
RTVSPost2010Prop54
  1
strokes_ogs.tif
102
RTVSPost2010PropOp54
 70
     1
102
RTVSPost2010Prop55
280
     0
102
RTVSPost2010PropOp55
 70
     1
102
RTVSPost2010Prop56
140
1.0
102
RTVSPost2010PropOp56
 70
     1
102
RTVSPost2010Prop57
140
1.0
102
RTVSPost2010PropOp57
 70
     1
102
RTVSPropertyOp0
 70
     1
102
RTVSPropertyOp1
 70
     1
102
RTVSPropertyOp2
 70
     1
102
RTVSPropertyOp3
 70
     1
102
RTVSPropertyOp4
 70
     1
102
RTVSPropertyOp5
 70
     1
102
RTVSPropertyOp6
 70
     1
102
RTVSPropertyOp7
 70
     1
102
RTVSPropertyOp8
 70
     1
102
RTVSPropertyOp9
 70
     1
102
RTVSPropertyOp10
 70
     1
102
RTVSPropertyOp11
 70
     1
102
RTVSPropertyOp12
 70
     1
102
RTVSPropertyOp13
 70
     1
102
RTVSPropertyOp14
 70
     1
102
RTVSPropertyOp15
 70
     1
102
RTVSPropertyOp16
 70
     1
102
RTVSPropertyOp17
 70
     1
102
RTVSPropertyOp18
 70
     1
102
RTVSPropertyOp19
 70
     1
102
RTVSPropertyOp20
 70
     1
102
RTVSPropertyOp21
 70
     1
102
RTVSPropertyOp22
 70
     1
102
RTVSPropertyOp23
 70
     1
102
RTVSPropertyOp24
 70
     1
102
RTVSPropertyOp25
 70
     1
102
RTVSPropertyOp26
 70
     1
102
RTVSPropertyOp27
 70
     1
102
RTVSPropertyOp28
 70
     1
102
RTVSPropertyOp29
 70
     1
102
RTVSPropertyOp30
 70
     1
102
RTVSPropertyOp31
 70
     1
102
RTVSPropertyOp32
 70
     1
102
RTVSPropertyOp33
 70
     1
102
RTVSPropertyOp34
 70
     1
102
RTVSPropertyOp35
 70
     1
102
RTVSPropertyOp36
 70
     1
102
RTVSPropertyOp37
 70
     1
102
RTVSPropertyOp38
 70
     1
102
RTVSPropertyOp39
 70
     1
102
RTVSPropertyOp40
 70
     1
102
RTVSPropertyOp41
 70
     1
102
RTVSPropertyOp42
 70
     1
102
RTVSPropertyOp43
 70
     1
102
RTVSPropertyOp44
 70
     1
102
RTVSPropertyOp45
 70
     1
102
RTVSPropertyOp46
 70
     1
102
RTVSPropertyOp47
 70
     1
102
RTVSPropertyOp48
 70
     1
102
RTVSPropertyOp49
 70
     1
102
RTVSPropertyOp50
 70
     1
102
RTVSPropertyOp51
 70
     0
102
RTVSPropertyOp52
 70
     0
102
RTVSPropertyOp53
 70
     1
102
RTVSPropertyOp54
 70
     1
102
RTVSPropertyOp55
 70
     1
102
RTVSPropertyOp56
 70
     1
102
RTVSPropertyOp57
 70
     1
102
RTVSPropertyOp58
 70
     1
102
RTVSPropertyOp59
 70
     1
102
RTVSPropertyOp60
 70
     1
102
RTVSPropertyOp61
 70
     1
102
RTVSPropertyOp62
 70
     1
  0
XRECORD
  5
34D
102
{ACAD_REACTORS
330
34C
102
}
330
34C
100
AcDbXrecord
280
     1
102
RTVSPost2010Prop28
280
     0
102
RTVSPost2010PropOp28
 70
     1
102
RTVSPost2010Prop29
280
     1
102
RTVSPost2010PropOp29
 70
     1
102
RTVSPost2010Prop30
280
     1
102
RTVSPost2010PropOp30
 70
     1
102
RTVSPost2010Prop31
280
     0
102
RTVSPost2010PropOp31
 70
     1
102
RTVSPost2010Prop32
280
     0
102
RTVSPost2010PropOp32
 70
     1
102
RTVSPost2010Prop33
280
     0
102
RTVSPost2010PropOp33
 70
     1
102
RTVSPost2010Prop34
280
     0
102
RTVSPost2010PropOp34
 70
     1
102
RTVSPost2010Prop35
280
     0
102
RTVSPost2010PropOp35
 70
     1
102
RTVSPost2010Prop36
280
     0
102
RTVSPost2010PropOp36
 70
     1
102
RTVSPost2010Prop37
 90
       50
102
RTVSPost2010PropOp37
 70
     1
102
RTVSPost2010Prop38
140
0.0
102
RTVSPost2010PropOp38
 70
     1
102
RTVSPost2010Prop39
140
1.0
102
RTVSPost2010PropOp39
 70
     1
102
RTVSPost2010Prop40
 90
        0
102
RTVSPost2010PropOp40
 70
     1
102
RTVSPost2010Prop41ColorIndex
 90
       18
102
RTVSPost2010Prop41ColorRGB
 90
        0
102
RTVSPost2010PropOp41
 70
     1
102
RTVSPost2010Prop42
 90
       50
102
RTVSPost2010PropOp42
 70
     1
102
RTVSPost2010Prop43
 90
        3
102
RTVSPost2010PropOp43
 70
     1
102
RTVSPost2010Prop44ColorIndex
 90
        5
102
RTVSPost2010Prop44ColorRGB
 90
      255
102
RTVSPost2010PropOp44
 70
     1
102
RTVSPost2010Prop45
280
     0
102
RTVSPost2010PropOp45
 70
     1
102
RTVSPost2010Prop46
 90
       50
102
RTVSPost2010PropOp46
 70
     1
102
RTVSPost2010Prop47
 90
       50
102
RTVSPost2010PropOp47
 70
     1
102
RTVSPost2010Prop48
 90
       50
102
RTVSPost2010PropOp48
 70
     1
102
RTVSPost2010Prop49
280
     0
102
RTVSPost2010PropOp49
 70
     1
102
RTVSPost2010Prop50
 90
       50
102
RTVSPost2010PropOp50
 70
     1
102
RTVSPost2010Prop51ColorIndex
 90
      256
102
RTVSPost2010Prop51ColorRGB
 90
-16777216
102
RTVSPost2010PropOp51
 70
     0
102
RTVSPost2010Prop52
140
1.0
102
RTVSPost2010PropOp52
 70
     0
102
RTVSPost2010Prop53
 90
        2
102
RTVSPost2010PropOp53
 70
     1
102
RTVSPost2010Prop54
  1
strokes_ogs.tif
102
RTVSPost2010PropOp54
 70
     1
102
RTVSPost2010Prop55
280
     0
102
RTVSPost2010PropOp55
 70
     1
102
RTVSPost2010Prop56
140
1.0
102
RTVSPost2010PropOp56
 70
     1
102
RTVSPost2010Prop57
140
1.0
102
RTVSPost2010PropOp57
 70
     1
102
RTVSPropertyOp0
 70
     1
102
RTVSPropertyOp1
 70
     1
102
RTVSPropertyOp2
 70
     1
102
RTVSPropertyOp3
 70
     1
102
RTVSPropertyOp4
 70
     1
102
RTVSPropertyOp5
 70
     1
102
RTVSPropertyOp6
 70
     1
102
RTVSPropertyOp7
 70
     1
102
RTVSPropertyOp8
 70
     1
102
RTVSPropertyOp9
 70
     1
102
RTVSPropertyOp10
 70
     1
102
RTVSPropertyOp11
 70
     1
102
RTVSPropertyOp12
 70
     1
102
RTVSPropertyOp13
 70
     1
102
RTVSPropertyOp14
 70
     1
102
RTVSPropertyOp15
 70
     1
102
RTVSPropertyOp16
 70
     1
102
RTVSPropertyOp17
 70
     1
102
RTVSPropertyOp18
 70
     1
102
RTVSPropertyOp19
 70
     1
102
RTVSPropertyOp20
 70
     1
102
RTVSPropertyOp21
 70
     1
102
RTVSPropertyOp22
 70
     1
102
RTVSPropertyOp23
 70
     1
102
RTVSPropertyOp24
 70
     1
102
RTVSPropertyOp25
 70
     1
102
RTVSPropertyOp26
 70
     1
102
RTVSPropertyOp27
 70
     1
102
RTVSPropertyOp28
 70
     1
102
RTVSPropertyOp29
 70
     1
102
RTVSPropertyOp30
 70
     1
102
RTVSPropertyOp31
 70
     1
102
RTVSPropertyOp32
 70
     1
102
RTVSPropertyOp33
 70
     1
102
RTVSPropertyOp34
 70
     1
102
RTVSPropertyOp35
 70
     1
102
RTVSPropertyOp36
 70
     1
102
RTVSPropertyOp37
 70
     1
102
RTVSPropertyOp38
 70
     1
102
RTVSPropertyOp39
 70
     1
102
RTVSPropertyOp40
 70
     1
102
RTVSPropertyOp41
 70
     1
102
RTVSPropertyOp42
 70
     1
102
RTVSPropertyOp43
 70
     1
102
RTVSPropertyOp44
 70
     1
102
RTVSPropertyOp45
 70
     1
102
RTVSPropertyOp46
 70
     1
102
RTVSPropertyOp47
 70
     1
102
RTVSPropertyOp48
 70
     1
102
RTVSPropertyOp49
 70
     1
102
RTVSPropertyOp50
 70
     1
102
RTVSPropertyOp51
 70
     0
102
RTVSPropertyOp52
 70
     0
102
RTVSPropertyOp53
 70
     1
102
RTVSPropertyOp54
 70
     1
102
RTVSPropertyOp55
 70
     1
102
RTVSPropertyOp56
 70
     1
102
RTVSPropertyOp57
 70
     1
102
RTVSPropertyOp58
 70
     1
102
RTVSPropertyOp59
 70
     1
102
RTVSPropertyOp60
 70
     1
102
RTVSPropertyOp61
 70
     1
102
RTVSPropertyOp62
 70
     1
  0
XRECORD
  5
35B
102
{ACAD_REACTORS
330
35A
102
}
330
35A
100
AcDbXrecord
280
     1
102
RTVSPost2010Prop28
280
     0
102
RTVSPost2010PropOp28
 70
     1
102
RTVSPost2010Prop29
280
     1
102
RTVSPost2010PropOp29
 70
     1
102
RTVSPost2010Prop30
280
     1
102
RTVSPost2010PropOp30
 70
     1
102
RTVSPost2010Prop31
280
     0
102
RTVSPost2010PropOp31
 70
     1
102
RTVSPost2010Prop32
280
     0
102
RTVSPost2010PropOp32
 70
     1
102
RTVSPost2010Prop33
280
     0
102
RTVSPost2010PropOp33
 70
     1
102
RTVSPost2010Prop34
280
     0
102
RTVSPost2010PropOp34
 70
     1
102
RTVSPost2010Prop35
280
     0
102
RTVSPost2010PropOp35
 70
     1
102
RTVSPost2010Prop36
280
     0
102
RTVSPost2010PropOp36
 70
     1
102
RTVSPost2010Prop37
 90
       50
102
RTVSPost2010PropOp37
 70
     1
102
RTVSPost2010Prop38
140
0.0
102
RTVSPost2010PropOp38
 70
     1
102
RTVSPost2010Prop39
140
1.0
102
RTVSPost2010PropOp39
 70
     1
102
RTVSPost2010Prop40
 90
        0
102
RTVSPost2010PropOp40
 70
     1
102
RTVSPost2010Prop41ColorIndex
 90
       18
102
RTVSPost2010Prop41ColorRGB
 90
        0
102
RTVSPost2010PropOp41
 70
     1
102
RTVSPost2010Prop42
 90
       50
102
RTVSPost2010PropOp42
 70
     1
102
RTVSPost2010Prop43
 90
        3
102
RTVSPost2010PropOp43
 70
     1
102
RTVSPost2010Prop44ColorIndex
 90
        5
102
RTVSPost2010Prop44ColorRGB
 90
      255
102
RTVSPost2010PropOp44
 70
     1
102
RTVSPost2010Prop45
280
     0
102
RTVSPost2010PropOp45
 70
     1
102
RTVSPost2010Prop46
 90
       50
102
RTVSPost2010PropOp46
 70
     1
102
RTVSPost2010Prop47
 90
       50
102
RTVSPost2010PropOp47
 70
     1
102
RTVSPost2010Prop48
 90
       50
102
RTVSPost2010PropOp48
 70
     1
102
RTVSPost2010Prop49
280
     0
102
RTVSPost2010PropOp49
 70
     1
102
RTVSPost2010Prop50
 90
       50
102
RTVSPost2010PropOp50
 70
     1
102
RTVSPost2010Prop51ColorIndex
 90
      256
102
RTVSPost2010Prop51ColorRGB
 90
-16777216
102
RTVSPost2010PropOp51
 70
     0
102
RTVSPost2010Prop52
140
1.0
102
RTVSPost2010PropOp52
 70
     0
102
RTVSPost2010Prop53
 90
        2
102
RTVSPost2010PropOp53
 70
     1
102
RTVSPost2010Prop54
  1
strokes_ogs.tif
102
RTVSPost2010PropOp54
 70
     1
102
RTVSPost2010Prop55
280
     0
102
RTVSPost2010PropOp55
 70
     1
102
RTVSPost2010Prop56
140
1.0
102
RTVSPost2010PropOp56
 70
     1
102
RTVSPost2010Prop57
140
1.0
102
RTVSPost2010PropOp57
 70
     1
102
RTVSPropertyOp0
 70
     1
102
RTVSPropertyOp1
 70
     1
102
RTVSPropertyOp2
 70
     1
102
RTVSPropertyOp3
 70
     1
102
RTVSPropertyOp4
 70
     1
102
RTVSPropertyOp5
 70
     1
102
RTVSPropertyOp6
 70
     1
102
RTVSPropertyOp7
 70
     1
102
RTVSPropertyOp8
 70
     1
102
RTVSPropertyOp9
 70
     1
102
RTVSPropertyOp10
 70
     1
102
RTVSPropertyOp11
 70
     1
102
RTVSPropertyOp12
 70
     1
102
RTVSPropertyOp13
 70
     1
102
RTVSPropertyOp14
 70
     1
102
RTVSPropertyOp15
 70
     1
102
RTVSPropertyOp16
 70
     1
102
RTVSPropertyOp17
 70
     1
102
RTVSPropertyOp18
 70
     1
102
RTVSPropertyOp19
 70
     1
102
RTVSPropertyOp20
 70
     1
102
RTVSPropertyOp21
 70
     1
102
RTVSPropertyOp22
 70
     1
102
RTVSPropertyOp23
 70
     1
102
RTVSPropertyOp24
 70
     1
102
RTVSPropertyOp25
 70
     1
102
RTVSPropertyOp26
 70
     1
102
RTVSPropertyOp27
 70
     1
102
RTVSPropertyOp28
 70
     1
102
RTVSPropertyOp29
 70
     1
102
RTVSPropertyOp30
 70
     1
102
RTVSPropertyOp31
 70
     1
102
RTVSPropertyOp32
 70
     1
102
RTVSPropertyOp33
 70
     1
102
RTVSPropertyOp34
 70
     1
102
RTVSPropertyOp35
 70
     1
102
RTVSPropertyOp36
 70
     1
102
RTVSPropertyOp37
 70
     1
102
RTVSPropertyOp38
 70
     1
102
RTVSPropertyOp39
 70
     1
102
RTVSPropertyOp40
 70
     1
102
RTVSPropertyOp41
 70
     1
102
RTVSPropertyOp42
 70
     1
102
RTVSPropertyOp43
 70
     1
102
RTVSPropertyOp44
 70
     1
102
RTVSPropertyOp45
 70
     1
102
RTVSPropertyOp46
 70
     1
102
RTVSPropertyOp47
 70
     1
102
RTVSPropertyOp48
 70
     1
102
RTVSPropertyOp49
 70
     1
102
RTVSPropertyOp50
 70
     1
102
RTVSPropertyOp51
 70
     0
102
RTVSPropertyOp52
 70
     0
102
RTVSPropertyOp53
 70
     1
102
RTVSPropertyOp54
 70
     1
102
RTVSPropertyOp55
 70
     1
102
RTVSPropertyOp56
 70
     1
102
RTVSPropertyOp57
 70
     1
102
RTVSPropertyOp58
 70
     1
102
RTVSPropertyOp59
 70
     1
102
RTVSPropertyOp60
 70
     1
102
RTVSPropertyOp61
 70
     1
102
RTVSPropertyOp62
 70
     1
  0
XRECORD
  5
363
102
{ACAD_REACTORS
330
362
102
}
330
362
100
AcDbXrecord
280
     1
102
RTVSPost2010Prop28
280
     0
102
RTVSPost2010PropOp28
 70
     1
102
RTVSPost2010Prop29
280
     1
102
RTVSPost2010PropOp29
 70
     1
102
RTVSPost2010Prop30
280
     1
102
RTVSPost2010PropOp30
 70
     1
102
RTVSPost2010Prop31
280
     0
102
RTVSPost2010PropOp31
 70
     1
102
RTVSPost2010Prop32
280
     0
102
RTVSPost2010PropOp32
 70
     1
102
RTVSPost2010Prop33
280
     0
102
RTVSPost2010PropOp33
 70
     1
102
RTVSPost2010Prop34
280
     0
102
RTVSPost2010PropOp34
 70
     1
102
RTVSPost2010Prop35
280
     0
102
RTVSPost2010PropOp35
 70
     1
102
RTVSPost2010Prop36
280
     0
102
RTVSPost2010PropOp36
 70
     1
102
RTVSPost2010Prop37
 90
       50
102
RTVSPost2010PropOp37
 70
     1
102
RTVSPost2010Prop38
140
0.0
102
RTVSPost2010PropOp38
 70
     1
102
RTVSPost2010Prop39
140
1.0
102
RTVSPost2010PropOp39
 70
     1
102
RTVSPost2010Prop40
 90
        0
102
RTVSPost2010PropOp40
 70
     1
102
RTVSPost2010Prop41ColorIndex
 90
       18
102
RTVSPost2010Prop41ColorRGB
 90
        0
102
RTVSPost2010PropOp41
 70
     1
102
RTVSPost2010Prop42
 90
       50
102
RTVSPost2010PropOp42
 70
     1
102
RTVSPost2010Prop43
 90
        3
102
RTVSPost2010PropOp43
 70
     1
102
RTVSPost2010Prop44ColorIndex
 90
        5
102
RTVSPost2010Prop44ColorRGB
 90
      255
102
RTVSPost2010PropOp44
 70
     1
102
RTVSPost2010Prop45
280
     0
102
RTVSPost2010PropOp45
 70
     1
102
RTVSPost2010Prop46
 90
       50
102
RTVSPost2010PropOp46
 70
     1
102
RTVSPost2010Prop47
 90
       50
102
RTVSPost2010PropOp47
 70
     1
102
RTVSPost2010Prop48
 90
       50
102
RTVSPost2010PropOp48
 70
     1
102
RTVSPost2010Prop49
280
     0
102
RTVSPost2010PropOp49
 70
     1
102
RTVSPost2010Prop50
 90
       50
102
RTVSPost2010PropOp50
 70
     1
102
RTVSPost2010Prop51ColorIndex
 90
      256
102
RTVSPost2010Prop51ColorRGB
 90
-16777216
102
RTVSPost2010PropOp51
 70
     0
102
RTVSPost2010Prop52
140
1.0
102
RTVSPost2010PropOp52
 70
     0
102
RTVSPost2010Prop53
 90
        2
102
RTVSPost2010PropOp53
 70
     1
102
RTVSPost2010Prop54
  1
strokes_ogs.tif
102
RTVSPost2010PropOp54
 70
     1
102
RTVSPost2010Prop55
280
     0
102
RTVSPost2010PropOp55
 70
     1
102
RTVSPost2010Prop56
140
1.0
102
RTVSPost2010PropOp56
 70
     1
102
RTVSPost2010Prop57
140
1.0
102
RTVSPost2010PropOp57
 70
     1
102
RTVSPropertyOp0
 70
     1
102
RTVSPropertyOp1
 70
     1
102
RTVSPropertyOp2
 70
     1
102
RTVSPropertyOp3
 70
     1
102
RTVSPropertyOp4
 70
     1
102
RTVSPropertyOp5
 70
     1
102
RTVSPropertyOp6
 70
     1
102
RTVSPropertyOp7
 70
     1
102
RTVSPropertyOp8
 70
     1
102
RTVSPropertyOp9
 70
     1
102
RTVSPropertyOp10
 70
     1
102
RTVSPropertyOp11
 70
     1
102
RTVSPropertyOp12
 70
     1
102
RTVSPropertyOp13
 70
     1
102
RTVSPropertyOp14
 70
     1
102
RTVSPropertyOp15
 70
     1
102
RTVSPropertyOp16
 70
     1
102
RTVSPropertyOp17
 70
     1
102
RTVSPropertyOp18
 70
     1
102
RTVSPropertyOp19
 70
     1
102
RTVSPropertyOp20
 70
     1
102
RTVSPropertyOp21
 70
     1
102
RTVSPropertyOp22
 70
     1
102
RTVSPropertyOp23
 70
     1
102
RTVSPropertyOp24
 70
     1
102
RTVSPropertyOp25
 70
     1
102
RTVSPropertyOp26
 70
     1
102
RTVSPropertyOp27
 70
     1
102
RTVSPropertyOp28
 70
     1
102
RTVSPropertyOp29
 70
     1
102
RTVSPropertyOp30
 70
     1
102
RTVSPropertyOp31
 70
     1
102
RTVSPropertyOp32
 70
     1
102
RTVSPropertyOp33
 70
     1
102
RTVSPropertyOp34
 70
     1
102
RTVSPropertyOp35
 70
     1
102
RTVSPropertyOp36
 70
     1
102
RTVSPropertyOp37
 70
     1
102
RTVSPropertyOp38
 70
     1
102
RTVSPropertyOp39
 70
     1
102
RTVSPropertyOp40
 70
     1
102
RTVSPropertyOp41
 70
     1
102
RTVSPropertyOp42
 70
     1
102
RTVSPropertyOp43
 70
     1
102
RTVSPropertyOp44
 70
     1
102
RTVSPropertyOp45
 70
     1
102
RTVSPropertyOp46
 70
     1
102
RTVSPropertyOp47
 70
     1
102
RTVSPropertyOp48
 70
     1
102
RTVSPropertyOp49
 70
     1
102
RTVSPropertyOp50
 70
     1
102
RTVSPropertyOp51
 70
     0
102
RTVSPropertyOp52
 70
     0
102
RTVSPropertyOp53
 70
     1
102
RTVSPropertyOp54
 70
     1
102
RTVSPropertyOp55
 70
     1
102
RTVSPropertyOp56
 70
     1
102
RTVSPropertyOp57
 70
     1
102
RTVSPropertyOp58
 70
     1
102
RTVSPropertyOp59
 70
     1
102
RTVSPropertyOp60
 70
     1
102
RTVSPropertyOp61
 70
     1
102
RTVSPropertyOp62
 70
     1
  0
XRECORD
  5
355
102
{ACAD_REACTORS
330
354
102
}
330
354
100
AcDbXrecord
280
     1
102
RTVSPost2010Prop28
280
     0
102
RTVSPost2010PropOp28
 70
     1
102
RTVSPost2010Prop29
280
     1
102
RTVSPost2010PropOp29
 70
     1
102
RTVSPost2010Prop30
280
     1
102
RTVSPost2010PropOp30
 70
     1
102
RTVSPost2010Prop31
280
     0
102
RTVSPost2010PropOp31
 70
     1
102
RTVSPost2010Prop32
280
     0
102
RTVSPost2010PropOp32
 70
     1
102
RTVSPost2010Prop33
280
     0
102
RTVSPost2010PropOp33
 70
     1
102
RTVSPost2010Prop34
280
     0
102
RTVSPost2010PropOp34
 70
     1
102
RTVSPost2010Prop35
280
     0
102
RTVSPost2010PropOp35
 70
     1
102
RTVSPost2010Prop36
280
     0
102
RTVSPost2010PropOp36
 70
     1
102
RTVSPost2010Prop37
 90
       50
102
RTVSPost2010PropOp37
 70
     1
102
RTVSPost2010Prop38
140
0.0
102
RTVSPost2010PropOp38
 70
     1
102
RTVSPost2010Prop39
140
1.0
102
RTVSPost2010PropOp39
 70
     1
102
RTVSPost2010Prop40
 90
        0
102
RTVSPost2010PropOp40
 70
     1
102
RTVSPost2010Prop41ColorIndex
 90
       18
102
RTVSPost2010Prop41ColorRGB
 90
        0
102
RTVSPost2010PropOp41
 70
     1
102
RTVSPost2010Prop42
 90
       50
102
RTVSPost2010PropOp42
 70
     1
102
RTVSPost2010Prop43
 90
        3
102
RTVSPost2010PropOp43
 70
     1
102
RTVSPost2010Prop44ColorIndex
 90
        5
102
RTVSPost2010Prop44ColorRGB
 90
      255
102
RTVSPost2010PropOp44
 70
     1
102
RTVSPost2010Prop45
280
     0
102
RTVSPost2010PropOp45
 70
     1
102
RTVSPost2010Prop46
 90
       50
102
RTVSPost2010PropOp46
 70
     1
102
RTVSPost2010Prop47
 90
       50
102
RTVSPost2010PropOp47
 70
     1
102
RTVSPost2010Prop48
 90
       50
102
RTVSPost2010PropOp48
 70
     1
102
RTVSPost2010Prop49
280
     0
102
RTVSPost2010PropOp49
 70
     1
102
RTVSPost2010Prop50
 90
       50
102
RTVSPost2010PropOp50
 70
     1
102
RTVSPost2010Prop51ColorIndex
 90
      256
102
RTVSPost2010Prop51ColorRGB
 90
-16777216
102
RTVSPost2010PropOp51
 70
     0
102
RTVSPost2010Prop52
140
1.0
102
RTVSPost2010PropOp52
 70
     0
102
RTVSPost2010Prop53
 90
        2
102
RTVSPost2010PropOp53
 70
     1
102
RTVSPost2010Prop54
  1
strokes_ogs.tif
102
RTVSPost2010PropOp54
 70
     1
102
RTVSPost2010Prop55
280
     0
102
RTVSPost2010PropOp55
 70
     1
102
RTVSPost2010Prop56
140
1.0
102
RTVSPost2010PropOp56
 70
     1
102
RTVSPost2010Prop57
140
1.0
102
RTVSPost2010PropOp57
 70
     1
102
RTVSPropertyOp0
 70
     1
102
RTVSPropertyOp1
 70
     1
102
RTVSPropertyOp2
 70
     1
102
RTVSPropertyOp3
 70
     1
102
RTVSPropertyOp4
 70
     1
102
RTVSPropertyOp5
 70
     1
102
RTVSPropertyOp6
 70
     1
102
RTVSPropertyOp7
 70
     1
102
RTVSPropertyOp8
 70
     1
102
RTVSPropertyOp9
 70
     1
102
RTVSPropertyOp10
 70
     1
102
RTVSPropertyOp11
 70
     1
102
RTVSPropertyOp12
 70
     1
102
RTVSPropertyOp13
 70
     1
102
RTVSPropertyOp14
 70
     1
102
RTVSPropertyOp15
 70
     1
102
RTVSPropertyOp16
 70
     1
102
RTVSPropertyOp17
 70
     1
102
RTVSPropertyOp18
 70
     1
102
RTVSPropertyOp19
 70
     1
102
RTVSPropertyOp20
 70
     1
102
RTVSPropertyOp21
 70
     1
102
RTVSPropertyOp22
 70
     1
102
RTVSPropertyOp23
 70
     1
102
RTVSPropertyOp24
 70
     1
102
RTVSPropertyOp25
 70
     1
102
RTVSPropertyOp26
 70
     1
102
RTVSPropertyOp27
 70
     1
102
RTVSPropertyOp28
 70
     1
102
RTVSPropertyOp29
 70
     1
102
RTVSPropertyOp30
 70
     1
102
RTVSPropertyOp31
 70
     1
102
RTVSPropertyOp32
 70
     1
102
RTVSPropertyOp33
 70
     1
102
RTVSPropertyOp34
 70
     1
102
RTVSPropertyOp35
 70
     1
102
RTVSPropertyOp36
 70
     1
102
RTVSPropertyOp37
 70
     1
102
RTVSPropertyOp38
 70
     1
102
RTVSPropertyOp39
 70
     1
102
RTVSPropertyOp40
 70
     1
102
RTVSPropertyOp41
 70
     1
102
RTVSPropertyOp42
 70
     1
102
RTVSPropertyOp43
 70
     1
102
RTVSPropertyOp44
 70
     1
102
RTVSPropertyOp45
 70
     1
102
RTVSPropertyOp46
 70
     1
102
RTVSPropertyOp47
 70
     1
102
RTVSPropertyOp48
 70
     1
102
RTVSPropertyOp49
 70
     1
102
RTVSPropertyOp50
 70
     1
102
RTVSPropertyOp51
 70
     0
102
RTVSPropertyOp52
 70
     0
102
RTVSPropertyOp53
 70
     1
102
RTVSPropertyOp54
 70
     1
102
RTVSPropertyOp55
 70
     1
102
RTVSPropertyOp56
 70
     1
102
RTVSPropertyOp57
 70
     1
102
RTVSPropertyOp58
 70
     1
102
RTVSPropertyOp59
 70
     1
102
RTVSPropertyOp60
 70
     1
102
RTVSPropertyOp61
 70
     1
102
RTVSPropertyOp62
 70
     1
  0
XRECORD
  5
359
102
{ACAD_REACTORS
330
358
102
}
330
358
100
AcDbXrecord
280
     1
102
RTVSPost2010Prop28
280
     0
102
RTVSPost2010PropOp28
 70
     1
102
RTVSPost2010Prop29
280
     1
102
RTVSPost2010PropOp29
 70
     1
102
RTVSPost2010Prop30
280
     1
102
RTVSPost2010PropOp30
 70
     1
102
RTVSPost2010Prop31
280
     0
102
RTVSPost2010PropOp31
 70
     1
102
RTVSPost2010Prop32
280
     0
102
RTVSPost2010PropOp32
 70
     1
102
RTVSPost2010Prop33
280
     0
102
RTVSPost2010PropOp33
 70
     1
102
RTVSPost2010Prop34
280
     0
102
RTVSPost2010PropOp34
 70
     1
102
RTVSPost2010Prop35
280
     0
102
RTVSPost2010PropOp35
 70
     1
102
RTVSPost2010Prop36
280
     0
102
RTVSPost2010PropOp36
 70
     1
102
RTVSPost2010Prop37
 90
       50
102
RTVSPost2010PropOp37
 70
     1
102
RTVSPost2010Prop38
140
0.0
102
RTVSPost2010PropOp38
 70
     1
102
RTVSPost2010Prop39
140
1.0
102
RTVSPost2010PropOp39
 70
     1
102
RTVSPost2010Prop40
 90
        0
102
RTVSPost2010PropOp40
 70
     1
102
RTVSPost2010Prop41ColorIndex
 90
       18
102
RTVSPost2010Prop41ColorRGB
 90
        0
102
RTVSPost2010PropOp41
 70
     1
102
RTVSPost2010Prop42
 90
       50
102
RTVSPost2010PropOp42
 70
     1
102
RTVSPost2010Prop43
 90
        3
102
RTVSPost2010PropOp43
 70
     1
102
RTVSPost2010Prop44ColorIndex
 90
        5
102
RTVSPost2010Prop44ColorRGB
 90
      255
102
RTVSPost2010PropOp44
 70
     1
102
RTVSPost2010Prop45
280
     0
102
RTVSPost2010PropOp45
 70
     1
102
RTVSPost2010Prop46
 90
       50
102
RTVSPost2010PropOp46
 70
     1
102
RTVSPost2010Prop47
 90
       50
102
RTVSPost2010PropOp47
 70
     1
102
RTVSPost2010Prop48
 90
       50
102
RTVSPost2010PropOp48
 70
     1
102
RTVSPost2010Prop49
280
     0
102
RTVSPost2010PropOp49
 70
     1
102
RTVSPost2010Prop50
 90
       50
102
RTVSPost2010PropOp50
 70
     1
102
RTVSPost2010Prop51ColorIndex
 90
      256
102
RTVSPost2010Prop51ColorRGB
 90
-16777216
102
RTVSPost2010PropOp51
 70
     0
102
RTVSPost2010Prop52
140
1.0
102
RTVSPost2010PropOp52
 70
     0
102
RTVSPost2010Prop53
 90
        2
102
RTVSPost2010PropOp53
 70
     1
102
RTVSPost2010Prop54
  1
strokes_ogs.tif
102
RTVSPost2010PropOp54
 70
     1
102
RTVSPost2010Prop55
280
     0
102
RTVSPost2010PropOp55
 70
     1
102
RTVSPost2010Prop56
140
1.0
102
RTVSPost2010PropOp56
 70
     1
102
RTVSPost2010Prop57
140
1.0
102
RTVSPost2010PropOp57
 70
     1
102
RTVSPropertyOp0
 70
     1
102
RTVSPropertyOp1
 70
     1
102
RTVSPropertyOp2
 70
     1
102
RTVSPropertyOp3
 70
     1
102
RTVSPropertyOp4
 70
     1
102
RTVSPropertyOp5
 70
     1
102
RTVSPropertyOp6
 70
     1
102
RTVSPropertyOp7
 70
     1
102
RTVSPropertyOp8
 70
     1
102
RTVSPropertyOp9
 70
     1
102
RTVSPropertyOp10
 70
     1
102
RTVSPropertyOp11
 70
     1
102
RTVSPropertyOp12
 70
     1
102
RTVSPropertyOp13
 70
     1
102
RTVSPropertyOp14
 70
     1
102
RTVSPropertyOp15
 70
     1
102
RTVSPropertyOp16
 70
     1
102
RTVSPropertyOp17
 70
     1
102
RTVSPropertyOp18
 70
     1
102
RTVSPropertyOp19
 70
     1
102
RTVSPropertyOp20
 70
     1
102
RTVSPropertyOp21
 70
     1
102
RTVSPropertyOp22
 70
     1
102
RTVSPropertyOp23
 70
     1
102
RTVSPropertyOp24
 70
     1
102
RTVSPropertyOp25
 70
     1
102
RTVSPropertyOp26
 70
     1
102
RTVSPropertyOp27
 70
     1
102
RTVSPropertyOp28
 70
     1
102
RTVSPropertyOp29
 70
     1
102
RTVSPropertyOp30
 70
     1
102
RTVSPropertyOp31
 70
     1
102
RTVSPropertyOp32
 70
     1
102
RTVSPropertyOp33
 70
     1
102
RTVSPropertyOp34
 70
     1
102
RTVSPropertyOp35
 70
     1
102
RTVSPropertyOp36
 70
     1
102
RTVSPropertyOp37
 70
     1
102
RTVSPropertyOp38
 70
     1
102
RTVSPropertyOp39
 70
     1
102
RTVSPropertyOp40
 70
     1
102
RTVSPropertyOp41
 70
     1
102
RTVSPropertyOp42
 70
     1
102
RTVSPropertyOp43
 70
     1
102
RTVSPropertyOp44
 70
     1
102
RTVSPropertyOp45
 70
     1
102
RTVSPropertyOp46
 70
     1
102
RTVSPropertyOp47
 70
     1
102
RTVSPropertyOp48
 70
     1
102
RTVSPropertyOp49
 70
     1
102
RTVSPropertyOp50
 70
     1
102
RTVSPropertyOp51
 70
     0
102
RTVSPropertyOp52
 70
     0
102
RTVSPropertyOp53
 70
     1
102
RTVSPropertyOp54
 70
     1
102
RTVSPropertyOp55
 70
     1
102
RTVSPropertyOp56
 70
     1
102
RTVSPropertyOp57
 70
     1
102
RTVSPropertyOp58
 70
     1
102
RTVSPropertyOp59
 70
     1
102
RTVSPropertyOp60
 70
     1
102
RTVSPropertyOp61
 70
     1
102
RTVSPropertyOp62
 70
     1
  0
XRECORD
  5
373
102
{ACAD_REACTORS
330
372
102
}
330
372
100
AcDbXrecord
280
     1
102
RTVSPost2010Prop28
280
     0
102
RTVSPost2010PropOp28
 70
     0
102
RTVSPost2010Prop29
280
     1
102
RTVSPost2010PropOp29
 70
     0
102
RTVSPost2010Prop30
280
     1
102
RTVSPost2010PropOp30
 70
     0
102
RTVSPost2010Prop31
280
     0
102
RTVSPost2010PropOp31
 70
     0
102
RTVSPost2010Prop32
280
     0
102
RTVSPost2010PropOp32
 70
     0
102
RTVSPost2010Prop33
280
     0
102
RTVSPost2010PropOp33
 70
     0
102
RTVSPost2010Prop34
280
     0
102
RTVSPost2010PropOp34
 70
     0
102
RTVSPost2010Prop35
280
     0
102
RTVSPost2010PropOp35
 70
     0
102
RTVSPost2010Prop36
280
     0
102
RTVSPost2010PropOp36
 70
     0
102
RTVSPost2010Prop37
 90
       50
102
RTVSPost2010PropOp37
 70
     0
102
RTVSPost2010Prop38
140
0.0
102
RTVSPost2010PropOp38
 70
     0
102
RTVSPost2010Prop39
140
1.0
102
RTVSPost2010PropOp39
 70
     0
102
RTVSPost2010Prop40
 90
        0
102
RTVSPost2010PropOp40
 70
     0
102
RTVSPost2010Prop41ColorIndex
 90
       18
102
RTVSPost2010Prop41ColorRGB
 90
        0
102
RTVSPost2010PropOp41
 70
     0
102
RTVSPost2010Prop42
 90
       50
102
RTVSPost2010PropOp42
 70
     0
102
RTVSPost2010Prop43
 90
        3
102
RTVSPost2010PropOp43
 70
     0
102
RTVSPost2010Prop44ColorIndex
 90
        5
102
RTVSPost2010Prop44ColorRGB
 90
      255
102
RTVSPost2010PropOp44
 70
     0
102
RTVSPost2010Prop45
280
     0
102
RTVSPost2010PropOp45
 70
     0
102
RTVSPost2010Prop46
 90
       50
102
RTVSPost2010PropOp46
 70
     0
102
RTVSPost2010Prop47
 90
       50
102
RTVSPost2010PropOp47
 70
     0
102
RTVSPost2010Prop48
 90
       50
102
RTVSPost2010PropOp48
 70
     0
102
RTVSPost2010Prop49
280
     0
102
RTVSPost2010PropOp49
 70
     0
102
RTVSPost2010Prop50
 90
       50
102
RTVSPost2010PropOp50
 70
     0
102
RTVSPost2010Prop51ColorIndex
 90
      256
102
RTVSPost2010Prop51ColorRGB
 90
-16777216
102
RTVSPost2010PropOp51
 70
     0
102
RTVSPost2010Prop52
140
1.0
102
RTVSPost2010PropOp52
 70
     0
102
RTVSPost2010Prop53
 90
        2
102
RTVSPost2010PropOp53
 70
     0
102
RTVSPost2010Prop54
  1
strokes_ogs.tif
102
RTVSPost2010PropOp54
 70
     0
102
RTVSPost2010Prop55
280
     0
102
RTVSPost2010PropOp55
 70
     0
102
RTVSPost2010Prop56
140
1.0
102
RTVSPost2010PropOp56
 70
     0
102
RTVSPost2010Prop57
140
1.0
102
RTVSPost2010PropOp57
 70
     0
102
RTVSPropertyOp0
 70
     0
102
RTVSPropertyOp1
 70
     0
102
RTVSPropertyOp2
 70
     0
102
RTVSPropertyOp3
 70
     0
102
RTVSPropertyOp4
 70
     0
102
RTVSPropertyOp5
 70
     0
102
RTVSPropertyOp6
 70
     0
102
RTVSPropertyOp7
 70
     0
102
RTVSPropertyOp8
 70
     0
102
RTVSPropertyOp9
 70
     0
102
RTVSPropertyOp10
 70
     0
102
RTVSPropertyOp11
 70
     0
102
RTVSPropertyOp12
 70
     0
102
RTVSPropertyOp13
 70
     0
102
RTVSPropertyOp14
 70
     2
102
RTVSPropertyOp15
 70
     0
102
RTVSPropertyOp16
 70
     0
102
RTVSPropertyOp17
 70
     0
102
RTVSPropertyOp18
 70
     0
102
RTVSPropertyOp19
 70
     0
102
RTVSPropertyOp20
 70
     0
102
RTVSPropertyOp21
 70
     0
102
RTVSPropertyOp22
 70
     0
102
RTVSPropertyOp23
 70
     0
102
RTVSPropertyOp24
 70
     0
102
RTVSPropertyOp25
 70
     0
102
RTVSPropertyOp26
 70
     0
102
RTVSPropertyOp27
 70
     0
102
RTVSPropertyOp28
 70
     0
102
RTVSPropertyOp29
 70
     0
102
RTVSPropertyOp30
 70
     0
102
RTVSPropertyOp31
 70
     0
102
RTVSPropertyOp32
 70
     0
102
RTVSPropertyOp33
 70
     0
102
RTVSPropertyOp34
 70
     0
102
RTVSPropertyOp35
 70
     0
102
RTVSPropertyOp36
 70
     0
102
RTVSPropertyOp37
 70
     0
102
RTVSPropertyOp38
 70
     0
102
RTVSPropertyOp39
 70
     0
102
RTVSPropertyOp40
 70
     0
102
RTVSPropertyOp41
 70
     0
102
RTVSPropertyOp42
 70
     0
102
RTVSPropertyOp43
 70
     0
102
RTVSPropertyOp44
 70
     0
102
RTVSPropertyOp45
 70
     0
102
RTVSPropertyOp46
 70
     0
102
RTVSPropertyOp47
 70
     0
102
RTVSPropertyOp48
 70
     0
102
RTVSPropertyOp49
 70
     0
102
RTVSPropertyOp50
 70
     0
102
RTVSPropertyOp51
 70
     0
102
RTVSPropertyOp52
 70
     0
102
RTVSPropertyOp53
 70
     0
102
RTVSPropertyOp54
 70
     0
102
RTVSPropertyOp55
 70
     0
102
RTVSPropertyOp56
 70
     0
102
RTVSPropertyOp57
 70
     0
102
RTVSPropertyOp58
 70
     0
102
RTVSPropertyOp59
 70
     0
102
RTVSPropertyOp60
 70
     0
102
RTVSPropertyOp61
 70
     0
102
RTVSPropertyOp62
 70
     0
  0
XRECORD
  5
361
102
{ACAD_REACTORS
330
360
102
}
330
360
100
AcDbXrecord
280
     1
102
RTVSPost2010Prop28
280
     0
102
RTVSPost2010PropOp28
 70
     1
102
RTVSPost2010Prop29
280
     1
102
RTVSPost2010PropOp29
 70
     1
102
RTVSPost2010Prop30
280
     1
102
RTVSPost2010PropOp30
 70
     1
102
RTVSPost2010Prop31
280
     0
102
RTVSPost2010PropOp31
 70
     1
102
RTVSPost2010Prop32
280
     0
102
RTVSPost2010PropOp32
 70
     1
102
RTVSPost2010Prop33
280
     0
102
RTVSPost2010PropOp33
 70
     1
102
RTVSPost2010Prop34
280
     0
102
RTVSPost2010PropOp34
 70
     1
102
RTVSPost2010Prop35
280
     0
102
RTVSPost2010PropOp35
 70
     1
102
RTVSPost2010Prop36
280
     0
102
RTVSPost2010PropOp36
 70
     1
102
RTVSPost2010Prop37
 90
       50
102
RTVSPost2010PropOp37
 70
     1
102
RTVSPost2010Prop38
140
0.0
102
RTVSPost2010PropOp38
 70
     1
102
RTVSPost2010Prop39
140
1.0
102
RTVSPost2010PropOp39
 70
     1
102
RTVSPost2010Prop40
 90
        0
102
RTVSPost2010PropOp40
 70
     1
102
RTVSPost2010Prop41ColorIndex
 90
       18
102
RTVSPost2010Prop41ColorRGB
 90
        0
102
RTVSPost2010PropOp41
 70
     1
102
RTVSPost2010Prop42
 90
       50
102
RTVSPost2010PropOp42
 70
     1
102
RTVSPost2010Prop43
 90
        3
102
RTVSPost2010PropOp43
 70
     1
102
RTVSPost2010Prop44ColorIndex
 90
        5
102
RTVSPost2010Prop44ColorRGB
 90
      255
102
RTVSPost2010PropOp44
 70
     1
102
RTVSPost2010Prop45
280
     0
102
RTVSPost2010PropOp45
 70
     1
102
RTVSPost2010Prop46
 90
       50
102
RTVSPost2010PropOp46
 70
     1
102
RTVSPost2010Prop47
 90
       50
102
RTVSPost2010PropOp47
 70
     1
102
RTVSPost2010Prop48
 90
       50
102
RTVSPost2010PropOp48
 70
     1
102
RTVSPost2010Prop49
280
     0
102
RTVSPost2010PropOp49
 70
     1
102
RTVSPost2010Prop50
 90
       50
102
RTVSPost2010PropOp50
 70
     1
102
RTVSPost2010Prop51ColorIndex
 90
      256
102
RTVSPost2010Prop51ColorRGB
 90
-16777216
102
RTVSPost2010PropOp51
 70
     0
102
RTVSPost2010Prop52
140
1.0
102
RTVSPost2010PropOp52
 70
     0
102
RTVSPost2010Prop53
 90
        2
102
RTVSPost2010PropOp53
 70
     1
102
RTVSPost2010Prop54
  1
strokes_ogs.tif
102
RTVSPost2010PropOp54
 70
     1
102
RTVSPost2010Prop55
280
     0
102
RTVSPost2010PropOp55
 70
     1
102
RTVSPost2010Prop56
140
1.0
102
RTVSPost2010PropOp56
 70
     1
102
RTVSPost2010Prop57
140
1.0
102
RTVSPost2010PropOp57
 70
     1
102
RTVSPropertyOp0
 70
     1
102
RTVSPropertyOp1
 70
     1
102
RTVSPropertyOp2
 70
     1
102
RTVSPropertyOp3
 70
     1
102
RTVSPropertyOp4
 70
     1
102
RTVSPropertyOp5
 70
     1
102
RTVSPropertyOp6
 70
     1
102
RTVSPropertyOp7
 70
     1
102
RTVSPropertyOp8
 70
     1
102
RTVSPropertyOp9
 70
     1
102
RTVSPropertyOp10
 70
     1
102
RTVSPropertyOp11
 70
     1
102
RTVSPropertyOp12
 70
     1
102
RTVSPropertyOp13
 70
     1
102
RTVSPropertyOp14
 70
     1
102
RTVSPropertyOp15
 70
     1
102
RTVSPropertyOp16
 70
     1
102
RTVSPropertyOp17
 70
     1
102
RTVSPropertyOp18
 70
     1
102
RTVSPropertyOp19
 70
     1
102
RTVSPropertyOp20
 70
     1
102
RTVSPropertyOp21
 70
     1
102
RTVSPropertyOp22
 70
     1
102
RTVSPropertyOp23
 70
     1
102
RTVSPropertyOp24
 70
     1
102
RTVSPropertyOp25
 70
     1
102
RTVSPropertyOp26
 70
     1
102
RTVSPropertyOp27
 70
     1
102
RTVSPropertyOp28
 70
     1
102
RTVSPropertyOp29
 70
     1
102
RTVSPropertyOp30
 70
     1
102
RTVSPropertyOp31
 70
     1
102
RTVSPropertyOp32
 70
     1
102
RTVSPropertyOp33
 70
     1
102
RTVSPropertyOp34
 70
     1
102
RTVSPropertyOp35
 70
     1
102
RTVSPropertyOp36
 70
     1
102
RTVSPropertyOp37
 70
     1
102
RTVSPropertyOp38
 70
     1
102
RTVSPropertyOp39
 70
     1
102
RTVSPropertyOp40
 70
     1
102
RTVSPropertyOp41
 70
     1
102
RTVSPropertyOp42
 70
     1
102
RTVSPropertyOp43
 70
     1
102
RTVSPropertyOp44
 70
     1
102
RTVSPropertyOp45
 70
     1
102
RTVSPropertyOp46
 70
     1
102
RTVSPropertyOp47
 70
     1
102
RTVSPropertyOp48
 70
     1
102
RTVSPropertyOp49
 70
     1
102
RTVSPropertyOp50
 70
     1
102
RTVSPropertyOp51
 70
     0
102
RTVSPropertyOp52
 70
     0
102
RTVSPropertyOp53
 70
     1
102
RTVSPropertyOp54
 70
     1
102
RTVSPropertyOp55
 70
     1
102
RTVSPropertyOp56
 70
     1
102
RTVSPropertyOp57
 70
     1
102
RTVSPropertyOp58
 70
     1
102
RTVSPropertyOp59
 70
     1
102
RTVSPropertyOp60
 70
     1
102
RTVSPropertyOp61
 70
     1
102
RTVSPropertyOp62
 70
     1
  0
XRECORD
  5
345
102
{ACAD_REACTORS
330
344
102
}
330
344
100
AcDbXrecord
280
     1
102
RTVSPost2010Prop28
280
     0
102
RTVSPost2010PropOp28
 70
     1
102
RTVSPost2010Prop29
280
     1
102
RTVSPost2010PropOp29
 70
     1
102
RTVSPost2010Prop30
280
     1
102
RTVSPost2010PropOp30
 70
     1
102
RTVSPost2010Prop31
280
     0
102
RTVSPost2010PropOp31
 70
     1
102
RTVSPost2010Prop32
280
     0
102
RTVSPost2010PropOp32
 70
     1
102
RTVSPost2010Prop33
280
     0
102
RTVSPost2010PropOp33
 70
     1
102
RTVSPost2010Prop34
280
     0
102
RTVSPost2010PropOp34
 70
     1
102
RTVSPost2010Prop35
280
     0
102
RTVSPost2010PropOp35
 70
     1
102
RTVSPost2010Prop36
280
     0
102
RTVSPost2010PropOp36
 70
     1
102
RTVSPost2010Prop37
 90
       50
102
RTVSPost2010PropOp37
 70
     1
102
RTVSPost2010Prop38
140
0.0
102
RTVSPost2010PropOp38
 70
     1
102
RTVSPost2010Prop39
140
1.0
102
RTVSPost2010PropOp39
 70
     1
102
RTVSPost2010Prop40
 90
        0
102
RTVSPost2010PropOp40
 70
     1
102
RTVSPost2010Prop41ColorIndex
 90
       18
102
RTVSPost2010Prop41ColorRGB
 90
        0
102
RTVSPost2010PropOp41
 70
     1
102
RTVSPost2010Prop42
 90
       50
102
RTVSPost2010PropOp42
 70
     1
102
RTVSPost2010Prop43
 90
        3
102
RTVSPost2010PropOp43
 70
     1
102
RTVSPost2010Prop44ColorIndex
 90
        5
102
RTVSPost2010Prop44ColorRGB
 90
      255
102
RTVSPost2010PropOp44
 70
     1
102
RTVSPost2010Prop45
280
     0
102
RTVSPost2010PropOp45
 70
     1
102
RTVSPost2010Prop46
 90
       50
102
RTVSPost2010PropOp46
 70
     1
102
RTVSPost2010Prop47
 90
       50
102
RTVSPost2010PropOp47
 70
     1
102
RTVSPost2010Prop48
 90
       50
102
RTVSPost2010PropOp48
 70
     1
102
RTVSPost2010Prop49
280
     0
102
RTVSPost2010PropOp49
 70
     1
102
RTVSPost2010Prop50
 90
       50
102
RTVSPost2010PropOp50
 70
     1
102
RTVSPost2010Prop51ColorIndex
 90
      256
102
RTVSPost2010Prop51ColorRGB
 90
-16777216
102
RTVSPost2010PropOp51
 70
     0
102
RTVSPost2010Prop52
140
1.0
102
RTVSPost2010PropOp52
 70
     0
102
RTVSPost2010Prop53
 90
        2
102
RTVSPost2010PropOp53
 70
     1
102
RTVSPost2010Prop54
  1
strokes_ogs.tif
102
RTVSPost2010PropOp54
 70
     1
102
RTVSPost2010Prop55
280
     0
102
RTVSPost2010PropOp55
 70
     1
102
RTVSPost2010Prop56
140
1.0
102
RTVSPost2010PropOp56
 70
     1
102
RTVSPost2010Prop57
140
1.0
102
RTVSPost2010PropOp57
 70
     1
102
RTVSPropertyOp0
 70
     1
102
RTVSPropertyOp1
 70
     1
102
RTVSPropertyOp2
 70
     1
102
RTVSPropertyOp3
 70
     1
102
RTVSPropertyOp4
 70
     1
102
RTVSPropertyOp5
 70
     1
102
RTVSPropertyOp6
 70
     1
102
RTVSPropertyOp7
 70
     1
102
RTVSPropertyOp8
 70
     1
102
RTVSPropertyOp9
 70
     1
102
RTVSPropertyOp10
 70
     1
102
RTVSPropertyOp11
 70
     1
102
RTVSPropertyOp12
 70
     1
102
RTVSPropertyOp13
 70
     1
102
RTVSPropertyOp14
 70
     1
102
RTVSPropertyOp15
 70
     1
102
RTVSPropertyOp16
 70
     1
102
RTVSPropertyOp17
 70
     1
102
RTVSPropertyOp18
 70
     1
102
RTVSPropertyOp19
 70
     1
102
RTVSPropertyOp20
 70
     1
102
RTVSPropertyOp21
 70
     1
102
RTVSPropertyOp22
 70
     1
102
RTVSPropertyOp23
 70
     1
102
RTVSPropertyOp24
 70
     1
102
RTVSPropertyOp25
 70
     1
102
RTVSPropertyOp26
 70
     1
102
RTVSPropertyOp27
 70
     1
102
RTVSPropertyOp28
 70
     1
102
RTVSPropertyOp29
 70
     1
102
RTVSPropertyOp30
 70
     1
102
RTVSPropertyOp31
 70
     1
102
RTVSPropertyOp32
 70
     1
102
RTVSPropertyOp33
 70
     1
102
RTVSPropertyOp34
 70
     1
102
RTVSPropertyOp35
 70
     1
102
RTVSPropertyOp36
 70
     1
102
RTVSPropertyOp37
 70
     1
102
RTVSPropertyOp38
 70
     1
102
RTVSPropertyOp39
 70
     1
102
RTVSPropertyOp40
 70
     1
102
RTVSPropertyOp41
 70
     1
102
RTVSPropertyOp42
 70
     1
102
RTVSPropertyOp43
 70
     1
102
RTVSPropertyOp44
 70
     1
102
RTVSPropertyOp45
 70
     1
102
RTVSPropertyOp46
 70
     1
102
RTVSPropertyOp47
 70
     1
102
RTVSPropertyOp48
 70
     1
102
RTVSPropertyOp49
 70
     1
102
RTVSPropertyOp50
 70
     1
102
RTVSPropertyOp51
 70
     0
102
RTVSPropertyOp52
 70
     0
102
RTVSPropertyOp53
 70
     1
102
RTVSPropertyOp54
 70
     1
102
RTVSPropertyOp55
 70
     1
102
RTVSPropertyOp56
 70
     1
102
RTVSPropertyOp57
 70
     1
102
RTVSPropertyOp58
 70
     1
102
RTVSPropertyOp59
 70
     1
102
RTVSPropertyOp60
 70
     1
102
RTVSPropertyOp61
 70
     1
102
RTVSPropertyOp62
 70
     1
  0
XRECORD
  5
347
102
{ACAD_REACTORS
330
346
102
}
330
346
100
AcDbXrecord
280
     1
102
RTVSPost2010Prop28
280
     0
102
RTVSPost2010PropOp28
 70
     1
102
RTVSPost2010Prop29
280
     1
102
RTVSPost2010PropOp29
 70
     1
102
RTVSPost2010Prop30
280
     1
102
RTVSPost2010PropOp30
 70
     1
102
RTVSPost2010Prop31
280
     0
102
RTVSPost2010PropOp31
 70
     1
102
RTVSPost2010Prop32
280
     0
102
RTVSPost2010PropOp32
 70
     1
102
RTVSPost2010Prop33
280
     0
102
RTVSPost2010PropOp33
 70
     1
102
RTVSPost2010Prop34
280
     0
102
RTVSPost2010PropOp34
 70
     1
102
RTVSPost2010Prop35
280
     0
102
RTVSPost2010PropOp35
 70
     1
102
RTVSPost2010Prop36
280
     0
102
RTVSPost2010PropOp36
 70
     1
102
RTVSPost2010Prop37
 90
       50
102
RTVSPost2010PropOp37
 70
     1
102
RTVSPost2010Prop38
140
0.0
102
RTVSPost2010PropOp38
 70
     1
102
RTVSPost2010Prop39
140
1.0
102
RTVSPost2010PropOp39
 70
     1
102
RTVSPost2010Prop40
 90
        0
102
RTVSPost2010PropOp40
 70
     1
102
RTVSPost2010Prop41ColorIndex
 90
       18
102
RTVSPost2010Prop41ColorRGB
 90
        0
102
RTVSPost2010PropOp41
 70
     1
102
RTVSPost2010Prop42
 90
       50
102
RTVSPost2010PropOp42
 70
     1
102
RTVSPost2010Prop43
 90
        3
102
RTVSPost2010PropOp43
 70
     1
102
RTVSPost2010Prop44ColorIndex
 90
        5
102
RTVSPost2010Prop44ColorRGB
 90
      255
102
RTVSPost2010PropOp44
 70
     1
102
RTVSPost2010Prop45
280
     0
102
RTVSPost2010PropOp45
 70
     1
102
RTVSPost2010Prop46
 90
       50
102
RTVSPost2010PropOp46
 70
     1
102
RTVSPost2010Prop47
 90
       50
102
RTVSPost2010PropOp47
 70
     1
102
RTVSPost2010Prop48
 90
       50
102
RTVSPost2010PropOp48
 70
     1
102
RTVSPost2010Prop49
280
     0
102
RTVSPost2010PropOp49
 70
     1
102
RTVSPost2010Prop50
 90
       50
102
RTVSPost2010PropOp50
 70
     1
102
RTVSPost2010Prop51ColorIndex
 90
      256
102
RTVSPost2010Prop51ColorRGB
 90
-16777216
102
RTVSPost2010PropOp51
 70
     0
102
RTVSPost2010Prop52
140
1.0
102
RTVSPost2010PropOp52
 70
     0
102
RTVSPost2010Prop53
 90
        2
102
RTVSPost2010PropOp53
 70
     1
102
RTVSPost2010Prop54
  1
strokes_ogs.tif
102
RTVSPost2010PropOp54
 70
     1
102
RTVSPost2010Prop55
280
     0
102
RTVSPost2010PropOp55
 70
     1
102
RTVSPost2010Prop56
140
1.0
102
RTVSPost2010PropOp56
 70
     1
102
RTVSPost2010Prop57
140
1.0
102
RTVSPost2010PropOp57
 70
     1
102
RTVSPropertyOp0
 70
     1
102
RTVSPropertyOp1
 70
     1
102
RTVSPropertyOp2
 70
     1
102
RTVSPropertyOp3
 70
     1
102
RTVSPropertyOp4
 70
     1
102
RTVSPropertyOp5
 70
     1
102
RTVSPropertyOp6
 70
     1
102
RTVSPropertyOp7
 70
     1
102
RTVSPropertyOp8
 70
     1
102
RTVSPropertyOp9
 70
     1
102
RTVSPropertyOp10
 70
     1
102
RTVSPropertyOp11
 70
     1
102
RTVSPropertyOp12
 70
     1
102
RTVSPropertyOp13
 70
     1
102
RTVSPropertyOp14
 70
     1
102
RTVSPropertyOp15
 70
     1
102
RTVSPropertyOp16
 70
     1
102
RTVSPropertyOp17
 70
     1
102
RTVSPropertyOp18
 70
     1
102
RTVSPropertyOp19
 70
     1
102
RTVSPropertyOp20
 70
     1
102
RTVSPropertyOp21
 70
     1
102
RTVSPropertyOp22
 70
     1
102
RTVSPropertyOp23
 70
     1
102
RTVSPropertyOp24
 70
     1
102
RTVSPropertyOp25
 70
     1
102
RTVSPropertyOp26
 70
     1
102
RTVSPropertyOp27
 70
     1
102
RTVSPropertyOp28
 70
     1
102
RTVSPropertyOp29
 70
     1
102
RTVSPropertyOp30
 70
     1
102
RTVSPropertyOp31
 70
     1
102
RTVSPropertyOp32
 70
     1
102
RTVSPropertyOp33
 70
     1
102
RTVSPropertyOp34
 70
     1
102
RTVSPropertyOp35
 70
     1
102
RTVSPropertyOp36
 70
     1
102
RTVSPropertyOp37
 70
     1
102
RTVSPropertyOp38
 70
     1
102
RTVSPropertyOp39
 70
     1
102
RTVSPropertyOp40
 70
     1
102
RTVSPropertyOp41
 70
     1
102
RTVSPropertyOp42
 70
     1
102
RTVSPropertyOp43
 70
     1
102
RTVSPropertyOp44
 70
     1
102
RTVSPropertyOp45
 70
     1
102
RTVSPropertyOp46
 70
     1
102
RTVSPropertyOp47
 70
     1
102
RTVSPropertyOp48
 70
     1
102
RTVSPropertyOp49
 70
     1
102
RTVSPropertyOp50
 70
     1
102
RTVSPropertyOp51
 70
     0
102
RTVSPropertyOp52
 70
     0
102
RTVSPropertyOp53
 70
     1
102
RTVSPropertyOp54
 70
     1
102
RTVSPropertyOp55
 70
     1
102
RTVSPropertyOp56
 70
     1
102
RTVSPropertyOp57
 70
     1
102
RTVSPropertyOp58
 70
     1
102
RTVSPropertyOp59
 70
     1
102
RTVSPropertyOp60
 70
     1
102
RTVSPropertyOp61
 70
     1
102
RTVSPropertyOp62
 70
     1
  0
XRECORD
  5
349
102
{ACAD_REACTORS
330
348
102
}
330
348
100
AcDbXrecord
280
     1
102
RTVSPost2010Prop28
280
     0
102
RTVSPost2010PropOp28
 70
     1
102
RTVSPost2010Prop29
280
     1
102
RTVSPost2010PropOp29
 70
     1
102
RTVSPost2010Prop30
280
     1
102
RTVSPost2010PropOp30
 70
     1
102
RTVSPost2010Prop31
280
     0
102
RTVSPost2010PropOp31
 70
     1
102
RTVSPost2010Prop32
280
     0
102
RTVSPost2010PropOp32
 70
     1
102
RTVSPost2010Prop33
280
     0
102
RTVSPost2010PropOp33
 70
     1
102
RTVSPost2010Prop34
280
     0
102
RTVSPost2010PropOp34
 70
     1
102
RTVSPost2010Prop35
280
     0
102
RTVSPost2010PropOp35
 70
     1
102
RTVSPost2010Prop36
280
     0
102
RTVSPost2010PropOp36
 70
     1
102
RTVSPost2010Prop37
 90
       50
102
RTVSPost2010PropOp37
 70
     1
102
RTVSPost2010Prop38
140
0.0
102
RTVSPost2010PropOp38
 70
     1
102
RTVSPost2010Prop39
140
1.0
102
RTVSPost2010PropOp39
 70
     1
102
RTVSPost2010Prop40
 90
        0
102
RTVSPost2010PropOp40
 70
     1
102
RTVSPost2010Prop41ColorIndex
 90
       18
102
RTVSPost2010Prop41ColorRGB
 90
        0
102
RTVSPost2010PropOp41
 70
     1
102
RTVSPost2010Prop42
 90
       50
102
RTVSPost2010PropOp42
 70
     1
102
RTVSPost2010Prop43
 90
        3
102
RTVSPost2010PropOp43
 70
     1
102
RTVSPost2010Prop44ColorIndex
 90
        5
102
RTVSPost2010Prop44ColorRGB
 90
      255
102
RTVSPost2010PropOp44
 70
     1
102
RTVSPost2010Prop45
280
     0
102
RTVSPost2010PropOp45
 70
     1
102
RTVSPost2010Prop46
 90
       50
102
RTVSPost2010PropOp46
 70
     1
102
RTVSPost2010Prop47
 90
       50
102
RTVSPost2010PropOp47
 70
     1
102
RTVSPost2010Prop48
 90
       50
102
RTVSPost2010PropOp48
 70
     1
102
RTVSPost2010Prop49
280
     0
102
RTVSPost2010PropOp49
 70
     1
102
RTVSPost2010Prop50
 90
       50
102
RTVSPost2010PropOp50
 70
     1
102
RTVSPost2010Prop51ColorIndex
 90
      256
102
RTVSPost2010Prop51ColorRGB
 90
-16777216
102
RTVSPost2010PropOp51
 70
     0
102
RTVSPost2010Prop52
140
1.0
102
RTVSPost2010PropOp52
 70
     0
102
RTVSPost2010Prop53
 90
        2
102
RTVSPost2010PropOp53
 70
     1
102
RTVSPost2010Prop54
  1
strokes_ogs.tif
102
RTVSPost2010PropOp54
 70
     1
102
RTVSPost2010Prop55
280
     0
102
RTVSPost2010PropOp55
 70
     1
102
RTVSPost2010Prop56
140
1.0
102
RTVSPost2010PropOp56
 70
     1
102
RTVSPost2010Prop57
140
1.0
102
RTVSPost2010PropOp57
 70
     1
102
RTVSPropertyOp0
 70
     1
102
RTVSPropertyOp1
 70
     1
102
RTVSPropertyOp2
 70
     1
102
RTVSPropertyOp3
 70
     1
102
RTVSPropertyOp4
 70
     1
102
RTVSPropertyOp5
 70
     1
102
RTVSPropertyOp6
 70
     1
102
RTVSPropertyOp7
 70
     1
102
RTVSPropertyOp8
 70
     1
102
RTVSPropertyOp9
 70
     1
102
RTVSPropertyOp10
 70
     1
102
RTVSPropertyOp11
 70
     1
102
RTVSPropertyOp12
 70
     1
102
RTVSPropertyOp13
 70
     1
102
RTVSPropertyOp14
 70
     1
102
RTVSPropertyOp15
 70
     1
102
RTVSPropertyOp16
 70
     1
102
RTVSPropertyOp17
 70
     1
102
RTVSPropertyOp18
 70
     1
102
RTVSPropertyOp19
 70
     1
102
RTVSPropertyOp20
 70
     1
102
RTVSPropertyOp21
 70
     1
102
RTVSPropertyOp22
 70
     1
102
RTVSPropertyOp23
 70
     1
102
RTVSPropertyOp24
 70
     1
102
RTVSPropertyOp25
 70
     1
102
RTVSPropertyOp26
 70
     1
102
RTVSPropertyOp27
 70
     1
102
RTVSPropertyOp28
 70
     1
102
RTVSPropertyOp29
 70
     1
102
RTVSPropertyOp30
 70
     1
102
RTVSPropertyOp31
 70
     1
102
RTVSPropertyOp32
 70
     1
102
RTVSPropertyOp33
 70
     1
102
RTVSPropertyOp34
 70
     1
102
RTVSPropertyOp35
 70
     1
102
RTVSPropertyOp36
 70
     1
102
RTVSPropertyOp37
 70
     1
102
RTVSPropertyOp38
 70
     1
102
RTVSPropertyOp39
 70
     1
102
RTVSPropertyOp40
 70
     1
102
RTVSPropertyOp41
 70
     1
102
RTVSPropertyOp42
 70
     1
102
RTVSPropertyOp43
 70
     1
102
RTVSPropertyOp44
 70
     1
102
RTVSPropertyOp45
 70
     1
102
RTVSPropertyOp46
 70
     1
102
RTVSPropertyOp47
 70
     1
102
RTVSPropertyOp48
 70
     1
102
RTVSPropertyOp49
 70
     1
102
RTVSPropertyOp50
 70
     1
102
RTVSPropertyOp51
 70
     0
102
RTVSPropertyOp52
 70
     0
102
RTVSPropertyOp53
 70
     1
102
RTVSPropertyOp54
 70
     1
102
RTVSPropertyOp55
 70
     1
102
RTVSPropertyOp56
 70
     1
102
RTVSPropertyOp57
 70
     1
102
RTVSPropertyOp58
 70
     1
102
RTVSPropertyOp59
 70
     1
102
RTVSPropertyOp60
 70
     1
102
RTVSPropertyOp61
 70
     1
102
RTVSPropertyOp62
 70
     1
  0
XRECORD
  5
34B
102
{ACAD_REACTORS
330
34A
102
}
330
34A
100
AcDbXrecord
280
     1
102
RTVSPost2010Prop28
280
     0
102
RTVSPost2010PropOp28
 70
     1
102
RTVSPost2010Prop29
280
     1
102
RTVSPost2010PropOp29
 70
     1
102
RTVSPost2010Prop30
280
     1
102
RTVSPost2010PropOp30
 70
     1
102
RTVSPost2010Prop31
280
     0
102
RTVSPost2010PropOp31
 70
     1
102
RTVSPost2010Prop32
280
     0
102
RTVSPost2010PropOp32
 70
     1
102
RTVSPost2010Prop33
280
     0
102
RTVSPost2010PropOp33
 70
     1
102
RTVSPost2010Prop34
280
     0
102
RTVSPost2010PropOp34
 70
     1
102
RTVSPost2010Prop35
280
     0
102
RTVSPost2010PropOp35
 70
     1
102
RTVSPost2010Prop36
280
     0
102
RTVSPost2010PropOp36
 70
     1
102
RTVSPost2010Prop37
 90
       50
102
RTVSPost2010PropOp37
 70
     1
102
RTVSPost2010Prop38
140
0.0
102
RTVSPost2010PropOp38
 70
     1
102
RTVSPost2010Prop39
140
1.0
102
RTVSPost2010PropOp39
 70
     1
102
RTVSPost2010Prop40
 90
        0
102
RTVSPost2010PropOp40
 70
     1
102
RTVSPost2010Prop41ColorIndex
 90
       18
102
RTVSPost2010Prop41ColorRGB
 90
        0
102
RTVSPost2010PropOp41
 70
     1
102
RTVSPost2010Prop42
 90
       50
102
RTVSPost2010PropOp42
 70
     1
102
RTVSPost2010Prop43
 90
        3
102
RTVSPost2010PropOp43
 70
     1
102
RTVSPost2010Prop44ColorIndex
 90
        5
102
RTVSPost2010Prop44ColorRGB
 90
      255
102
RTVSPost2010PropOp44
 70
     1
102
RTVSPost2010Prop45
280
     0
102
RTVSPost2010PropOp45
 70
     1
102
RTVSPost2010Prop46
 90
       50
102
RTVSPost2010PropOp46
 70
     1
102
RTVSPost2010Prop47
 90
       50
102
RTVSPost2010PropOp47
 70
     1
102
RTVSPost2010Prop48
 90
       50
102
RTVSPost2010PropOp48
 70
     1
102
RTVSPost2010Prop49
280
     0
102
RTVSPost2010PropOp49
 70
     1
102
RTVSPost2010Prop50
 90
       50
102
RTVSPost2010PropOp50
 70
     1
102
RTVSPost2010Prop51ColorIndex
 90
      256
102
RTVSPost2010Prop51ColorRGB
 90
-16777216
102
RTVSPost2010PropOp51
 70
     0
102
RTVSPost2010Prop52
140
1.0
102
RTVSPost2010PropOp52
 70
     0
102
RTVSPost2010Prop53
 90
        2
102
RTVSPost2010PropOp53
 70
     1
102
RTVSPost2010Prop54
  1
strokes_ogs.tif
102
RTVSPost2010PropOp54
 70
     1
102
RTVSPost2010Prop55
280
     0
102
RTVSPost2010PropOp55
 70
     1
102
RTVSPost2010Prop56
140
1.0
102
RTVSPost2010PropOp56
 70
     1
102
RTVSPost2010Prop57
140
1.0
102
RTVSPost2010PropOp57
 70
     1
102
RTVSPropertyOp0
 70
     1
102
RTVSPropertyOp1
 70
     1
102
RTVSPropertyOp2
 70
     1
102
RTVSPropertyOp3
 70
     1
102
RTVSPropertyOp4
 70
     1
102
RTVSPropertyOp5
 70
     1
102
RTVSPropertyOp6
 70
     1
102
RTVSPropertyOp7
 70
     1
102
RTVSPropertyOp8
 70
     1
102
RTVSPropertyOp9
 70
     1
102
RTVSPropertyOp10
 70
     1
102
RTVSPropertyOp11
 70
     1
102
RTVSPropertyOp12
 70
     1
102
RTVSPropertyOp13
 70
     1
102
RTVSPropertyOp14
 70
     1
102
RTVSPropertyOp15
 70
     1
102
RTVSPropertyOp16
 70
     1
102
RTVSPropertyOp17
 70
     1
102
RTVSPropertyOp18
 70
     1
102
RTVSPropertyOp19
 70
     1
102
RTVSPropertyOp20
 70
     1
102
RTVSPropertyOp21
 70
     1
102
RTVSPropertyOp22
 70
     1
102
RTVSPropertyOp23
 70
     1
102
RTVSPropertyOp24
 70
     1
102
RTVSPropertyOp25
 70
     1
102
RTVSPropertyOp26
 70
     1
102
RTVSPropertyOp27
 70
     1
102
RTVSPropertyOp28
 70
     1
102
RTVSPropertyOp29
 70
     1
102
RTVSPropertyOp30
 70
     1
102
RTVSPropertyOp31
 70
     1
102
RTVSPropertyOp32
 70
     1
102
RTVSPropertyOp33
 70
     1
102
RTVSPropertyOp34
 70
     1
102
RTVSPropertyOp35
 70
     1
102
RTVSPropertyOp36
 70
     1
102
RTVSPropertyOp37
 70
     1
102
RTVSPropertyOp38
 70
     1
102
RTVSPropertyOp39
 70
     1
102
RTVSPropertyOp40
 70
     1
102
RTVSPropertyOp41
 70
     1
102
RTVSPropertyOp42
 70
     1
102
RTVSPropertyOp43
 70
     1
102
RTVSPropertyOp44
 70
     1
102
RTVSPropertyOp45
 70
     1
102
RTVSPropertyOp46
 70
     1
102
RTVSPropertyOp47
 70
     1
102
RTVSPropertyOp48
 70
     1
102
RTVSPropertyOp49
 70
     1
102
RTVSPropertyOp50
 70
     1
102
RTVSPropertyOp51
 70
     0
102
RTVSPropertyOp52
 70
     0
102
RTVSPropertyOp53
 70
     1
102
RTVSPropertyOp54
 70
     1
102
RTVSPropertyOp55
 70
     1
102
RTVSPropertyOp56
 70
     1
102
RTVSPropertyOp57
 70
     1
102
RTVSPropertyOp58
 70
     1
102
RTVSPropertyOp59
 70
     1
102
RTVSPropertyOp60
 70
     1
102
RTVSPropertyOp61
 70
     1
102
RTVSPropertyOp62
 70
     1
  0
XRECORD
  5
353
102
{ACAD_REACTORS
330
352
102
}
330
352
100
AcDbXrecord
280
     1
102
RTVSPost2010Prop28
280
     0
102
RTVSPost2010PropOp28
 70
     1
102
RTVSPost2010Prop29
280
     1
102
RTVSPost2010PropOp29
 70
     1
102
RTVSPost2010Prop30
280
     1
102
RTVSPost2010PropOp30
 70
     1
102
RTVSPost2010Prop31
280
     0
102
RTVSPost2010PropOp31
 70
     1
102
RTVSPost2010Prop32
280
     0
102
RTVSPost2010PropOp32
 70
     1
102
RTVSPost2010Prop33
280
     0
102
RTVSPost2010PropOp33
 70
     1
102
RTVSPost2010Prop34
280
     0
102
RTVSPost2010PropOp34
 70
     1
102
RTVSPost2010Prop35
280
     0
102
RTVSPost2010PropOp35
 70
     1
102
RTVSPost2010Prop36
280
     0
102
RTVSPost2010PropOp36
 70
     1
102
RTVSPost2010Prop37
 90
       50
102
RTVSPost2010PropOp37
 70
     1
102
RTVSPost2010Prop38
140
0.0
102
RTVSPost2010PropOp38
 70
     1
102
RTVSPost2010Prop39
140
1.0
102
RTVSPost2010PropOp39
 70
     1
102
RTVSPost2010Prop40
 90
        0
102
RTVSPost2010PropOp40
 70
     1
102
RTVSPost2010Prop41ColorIndex
 90
       18
102
RTVSPost2010Prop41ColorRGB
 90
        0
102
RTVSPost2010PropOp41
 70
     1
102
RTVSPost2010Prop42
 90
       50
102
RTVSPost2010PropOp42
 70
     1
102
RTVSPost2010Prop43
 90
        3
102
RTVSPost2010PropOp43
 70
     1
102
RTVSPost2010Prop44ColorIndex
 90
        5
102
RTVSPost2010Prop44ColorRGB
 90
      255
102
RTVSPost2010PropOp44
 70
     1
102
RTVSPost2010Prop45
280
     0
102
RTVSPost2010PropOp45
 70
     1
102
RTVSPost2010Prop46
 90
       50
102
RTVSPost2010PropOp46
 70
     1
102
RTVSPost2010Prop47
 90
       50
102
RTVSPost2010PropOp47
 70
     1
102
RTVSPost2010Prop48
 90
       50
102
RTVSPost2010PropOp48
 70
     1
102
RTVSPost2010Prop49
280
     0
102
RTVSPost2010PropOp49
 70
     1
102
RTVSPost2010Prop50
 90
       50
102
RTVSPost2010PropOp50
 70
     1
102
RTVSPost2010Prop51ColorIndex
 90
      256
102
RTVSPost2010Prop51ColorRGB
 90
-16777216
102
RTVSPost2010PropOp51
 70
     0
102
RTVSPost2010Prop52
140
1.0
102
RTVSPost2010PropOp52
 70
     0
102
RTVSPost2010Prop53
 90
        2
102
RTVSPost2010PropOp53
 70
     1
102
RTVSPost2010Prop54
  1
strokes_ogs.tif
102
RTVSPost2010PropOp54
 70
     1
102
RTVSPost2010Prop55
280
     0
102
RTVSPost2010PropOp55
 70
     1
102
RTVSPost2010Prop56
140
1.0
102
RTVSPost2010PropOp56
 70
     1
102
RTVSPost2010Prop57
140
1.0
102
RTVSPost2010PropOp57
 70
     1
102
RTVSPropertyOp0
 70
     1
102
RTVSPropertyOp1
 70
     1
102
RTVSPropertyOp2
 70
     1
102
RTVSPropertyOp3
 70
     1
102
RTVSPropertyOp4
 70
     1
102
RTVSPropertyOp5
 70
     1
102
RTVSPropertyOp6
 70
     1
102
RTVSPropertyOp7
 70
     1
102
RTVSPropertyOp8
 70
     1
102
RTVSPropertyOp9
 70
     1
102
RTVSPropertyOp10
 70
     1
102
RTVSPropertyOp11
 70
     1
102
RTVSPropertyOp12
 70
     1
102
RTVSPropertyOp13
 70
     1
102
RTVSPropertyOp14
 70
     1
102
RTVSPropertyOp15
 70
     1
102
RTVSPropertyOp16
 70
     1
102
RTVSPropertyOp17
 70
     1
102
RTVSPropertyOp18
 70
     1
102
RTVSPropertyOp19
 70
     1
102
RTVSPropertyOp20
 70
     1
102
RTVSPropertyOp21
 70
     1
102
RTVSPropertyOp22
 70
     1
102
RTVSPropertyOp23
 70
     1
102
RTVSPropertyOp24
 70
     1
102
RTVSPropertyOp25
 70
     1
102
RTVSPropertyOp26
 70
     1
102
RTVSPropertyOp27
 70
     1
102
RTVSPropertyOp28
 70
     1
102
RTVSPropertyOp29
 70
     1
102
RTVSPropertyOp30
 70
     1
102
RTVSPropertyOp31
 70
     1
102
RTVSPropertyOp32
 70
     1
102
RTVSPropertyOp33
 70
     1
102
RTVSPropertyOp34
 70
     1
102
RTVSPropertyOp35
 70
     1
102
RTVSPropertyOp36
 70
     1
102
RTVSPropertyOp37
 70
     1
102
RTVSPropertyOp38
 70
     1
102
RTVSPropertyOp39
 70
     1
102
RTVSPropertyOp40
 70
     1
102
RTVSPropertyOp41
 70
     1
102
RTVSPropertyOp42
 70
     1
102
RTVSPropertyOp43
 70
     1
102
RTVSPropertyOp44
 70
     1
102
RTVSPropertyOp45
 70
     1
102
RTVSPropertyOp46
 70
     1
102
RTVSPropertyOp47
 70
     1
102
RTVSPropertyOp48
 70
     1
102
RTVSPropertyOp49
 70
     1
102
RTVSPropertyOp50
 70
     1
102
RTVSPropertyOp51
 70
     0
102
RTVSPropertyOp52
 70
     0
102
RTVSPropertyOp53
 70
     1
102
RTVSPropertyOp54
 70
     1
102
RTVSPropertyOp55
 70
     1
102
RTVSPropertyOp56
 70
     1
102
RTVSPropertyOp57
 70
     1
102
RTVSPropertyOp58
 70
     1
102
RTVSPropertyOp59
 70
     1
102
RTVSPropertyOp60
 70
     1
102
RTVSPropertyOp61
 70
     1
102
RTVSPropertyOp62
 70
     1
  0
XRECORD
  5
36F
102
{ACAD_REACTORS
330
36E
102
}
330
36E
100
AcDbXrecord
280
     1
102
RTVSPost2010Prop28
280
     0
102
RTVSPost2010PropOp28
 70
     0
102
RTVSPost2010Prop29
280
     1
102
RTVSPost2010PropOp29
 70
     0
102
RTVSPost2010Prop30
280
     1
102
RTVSPost2010PropOp30
 70
     0
102
RTVSPost2010Prop31
280
     0
102
RTVSPost2010PropOp31
 70
     0
102
RTVSPost2010Prop32
280
     0
102
RTVSPost2010PropOp32
 70
     0
102
RTVSPost2010Prop33
280
     0
102
RTVSPost2010PropOp33
 70
     0
102
RTVSPost2010Prop34
280
     0
102
RTVSPost2010PropOp34
 70
     0
102
RTVSPost2010Prop35
280
     0
102
RTVSPost2010PropOp35
 70
     0
102
RTVSPost2010Prop36
280
     0
102
RTVSPost2010PropOp36
 70
     0
102
RTVSPost2010Prop37
 90
       50
102
RTVSPost2010PropOp37
 70
     0
102
RTVSPost2010Prop38
140
0.0
102
RTVSPost2010PropOp38
 70
     0
102
RTVSPost2010Prop39
140
1.0
102
RTVSPost2010PropOp39
 70
     0
102
RTVSPost2010Prop40
 90
        0
102
RTVSPost2010PropOp40
 70
     0
102
RTVSPost2010Prop41ColorIndex
 90
       18
102
RTVSPost2010Prop41ColorRGB
 90
        0
102
RTVSPost2010PropOp41
 70
     0
102
RTVSPost2010Prop42
 90
       50
102
RTVSPost2010PropOp42
 70
     0
102
RTVSPost2010Prop43
 90
        3
102
RTVSPost2010PropOp43
 70
     0
102
RTVSPost2010Prop44ColorIndex
 90
        5
102
RTVSPost2010Prop44ColorRGB
 90
      255
102
RTVSPost2010PropOp44
 70
     0
102
RTVSPost2010Prop45
280
     0
102
RTVSPost2010PropOp45
 70
     0
102
RTVSPost2010Prop46
 90
       50
102
RTVSPost2010PropOp46
 70
     0
102
RTVSPost2010Prop47
 90
       50
102
RTVSPost2010PropOp47
 70
     0
102
RTVSPost2010Prop48
 90
       50
102
RTVSPost2010PropOp48
 70
     0
102
RTVSPost2010Prop49
280
     0
102
RTVSPost2010PropOp49
 70
     0
102
RTVSPost2010Prop50
 90
       50
102
RTVSPost2010PropOp50
 70
     0
102
RTVSPost2010Prop51ColorIndex
 90
      256
102
RTVSPost2010Prop51ColorRGB
 90
-16777216
102
RTVSPost2010PropOp51
 70
     0
102
RTVSPost2010Prop52
140
1.0
102
RTVSPost2010PropOp52
 70
     0
102
RTVSPost2010Prop53
 90
        2
102
RTVSPost2010PropOp53
 70
     0
102
RTVSPost2010Prop54
  1
strokes_ogs.tif
102
RTVSPost2010PropOp54
 70
     0
102
RTVSPost2010Prop55
280
     0
102
RTVSPost2010PropOp55
 70
     0
102
RTVSPost2010Prop56
140
1.0
102
RTVSPost2010PropOp56
 70
     0
102
RTVSPost2010Prop57
140
1.0
102
RTVSPost2010PropOp57
 70
     0
102
RTVSPropertyOp0
 70
     0
102
RTVSPropertyOp1
 70
     0
102
RTVSPropertyOp2
 70
     0
102
RTVSPropertyOp3
 70
     0
102
RTVSPropertyOp4
 70
     0
102
RTVSPropertyOp5
 70
     0
102
RTVSPropertyOp6
 70
     0
102
RTVSPropertyOp7
 70
     0
102
RTVSPropertyOp8
 70
     0
102
RTVSPropertyOp9
 70
     0
102
RTVSPropertyOp10
 70
     0
102
RTVSPropertyOp11
 70
     0
102
RTVSPropertyOp12
 70
     0
102
RTVSPropertyOp13
 70
     0
102
RTVSPropertyOp14
 70
     2
102
RTVSPropertyOp15
 70
     0
102
RTVSPropertyOp16
 70
     0
102
RTVSPropertyOp17
 70
     0
102
RTVSPropertyOp18
 70
     0
102
RTVSPropertyOp19
 70
     0
102
RTVSPropertyOp20
 70
     0
102
RTVSPropertyOp21
 70
     0
102
RTVSPropertyOp22
 70
     0
102
RTVSPropertyOp23
 70
     0
102
RTVSPropertyOp24
 70
     0
102
RTVSPropertyOp25
 70
     0
102
RTVSPropertyOp26
 70
     0
102
RTVSPropertyOp27
 70
     0
102
RTVSPropertyOp28
 70
     0
102
RTVSPropertyOp29
 70
     0
102
RTVSPropertyOp30
 70
     0
102
RTVSPropertyOp31
 70
     0
102
RTVSPropertyOp32
 70
     0
102
RTVSPropertyOp33
 70
     0
102
RTVSPropertyOp34
 70
     0
102
RTVSPropertyOp35
 70
     0
102
RTVSPropertyOp36
 70
     0
102
RTVSPropertyOp37
 70
     0
102
RTVSPropertyOp38
 70
     0
102
RTVSPropertyOp39
 70
     0
102
RTVSPropertyOp40
 70
     0
102
RTVSPropertyOp41
 70
     0
102
RTVSPropertyOp42
 70
     0
102
RTVSPropertyOp43
 70
     0
102
RTVSPropertyOp44
 70
     0
102
RTVSPropertyOp45
 70
     0
102
RTVSPropertyOp46
 70
     0
102
RTVSPropertyOp47
 70
     0
102
RTVSPropertyOp48
 70
     0
102
RTVSPropertyOp49
 70
     0
102
RTVSPropertyOp50
 70
     0
102
RTVSPropertyOp51
 70
     0
102
RTVSPropertyOp52
 70
     0
102
RTVSPropertyOp53
 70
     0
102
RTVSPropertyOp54
 70
     0
102
RTVSPropertyOp55
 70
     0
102
RTVSPropertyOp56
 70
     0
102
RTVSPropertyOp57
 70
     0
102
RTVSPropertyOp58
 70
     0
102
RTVSPropertyOp59
 70
     0
102
RTVSPropertyOp60
 70
     0
102
RTVSPropertyOp61
 70
     0
102
RTVSPropertyOp62
 70
     0
  0
XRECORD
  5
35F
102
{ACAD_REACTORS
330
35E
102
}
330
35E
100
AcDbXrecord
280
     1
102
RTVSPost2010Prop28
280
     0
102
RTVSPost2010PropOp28
 70
     1
102
RTVSPost2010Prop29
280
     1
102
RTVSPost2010PropOp29
 70
     1
102
RTVSPost2010Prop30
280
     1
102
RTVSPost2010PropOp30
 70
     1
102
RTVSPost2010Prop31
280
     0
102
RTVSPost2010PropOp31
 70
     1
102
RTVSPost2010Prop32
280
     0
102
RTVSPost2010PropOp32
 70
     1
102
RTVSPost2010Prop33
280
     0
102
RTVSPost2010PropOp33
 70
     1
102
RTVSPost2010Prop34
280
     0
102
RTVSPost2010PropOp34
 70
     1
102
RTVSPost2010Prop35
280
     0
102
RTVSPost2010PropOp35
 70
     1
102
RTVSPost2010Prop36
280
     0
102
RTVSPost2010PropOp36
 70
     1
102
RTVSPost2010Prop37
 90
       50
102
RTVSPost2010PropOp37
 70
     1
102
RTVSPost2010Prop38
140
0.0
102
RTVSPost2010PropOp38
 70
     1
102
RTVSPost2010Prop39
140
1.0
102
RTVSPost2010PropOp39
 70
     1
102
RTVSPost2010Prop40
 90
        0
102
RTVSPost2010PropOp40
 70
     1
102
RTVSPost2010Prop41ColorIndex
 90
       18
102
RTVSPost2010Prop41ColorRGB
 90
        0
102
RTVSPost2010PropOp41
 70
     1
102
RTVSPost2010Prop42
 90
       50
102
RTVSPost2010PropOp42
 70
     1
102
RTVSPost2010Prop43
 90
        3
102
RTVSPost2010PropOp43
 70
     1
102
RTVSPost2010Prop44ColorIndex
 90
        5
102
RTVSPost2010Prop44ColorRGB
 90
      255
102
RTVSPost2010PropOp44
 70
     1
102
RTVSPost2010Prop45
280
     0
102
RTVSPost2010PropOp45
 70
     1
102
RTVSPost2010Prop46
 90
       50
102
RTVSPost2010PropOp46
 70
     1
102
RTVSPost2010Prop47
 90
       50
102
RTVSPost2010PropOp47
 70
     1
102
RTVSPost2010Prop48
 90
       50
102
RTVSPost2010PropOp48
 70
     1
102
RTVSPost2010Prop49
280
     0
102
RTVSPost2010PropOp49
 70
     1
102
RTVSPost2010Prop50
 90
       50
102
RTVSPost2010PropOp50
 70
     1
102
RTVSPost2010Prop51ColorIndex
 90
      256
102
RTVSPost2010Prop51ColorRGB
 90
-16777216
102
RTVSPost2010PropOp51
 70
     0
102
RTVSPost2010Prop52
140
1.0
102
RTVSPost2010PropOp52
 70
     0
102
RTVSPost2010Prop53
 90
        2
102
RTVSPost2010PropOp53
 70
     1
102
RTVSPost2010Prop54
  1
strokes_ogs.tif
102
RTVSPost2010PropOp54
 70
     1
102
RTVSPost2010Prop55
280
     0
102
RTVSPost2010PropOp55
 70
     1
102
RTVSPost2010Prop56
140
1.0
102
RTVSPost2010PropOp56
 70
     1
102
RTVSPost2010Prop57
140
1.0
102
RTVSPost2010PropOp57
 70
     1
102
RTVSPropertyOp0
 70
     1
102
RTVSPropertyOp1
 70
     1
102
RTVSPropertyOp2
 70
     1
102
RTVSPropertyOp3
 70
     1
102
RTVSPropertyOp4
 70
     1
102
RTVSPropertyOp5
 70
     1
102
RTVSPropertyOp6
 70
     1
102
RTVSPropertyOp7
 70
     1
102
RTVSPropertyOp8
 70
     1
102
RTVSPropertyOp9
 70
     1
102
RTVSPropertyOp10
 70
     1
102
RTVSPropertyOp11
 70
     1
102
RTVSPropertyOp12
 70
     1
102
RTVSPropertyOp13
 70
     1
102
RTVSPropertyOp14
 70
     1
102
RTVSPropertyOp15
 70
     1
102
RTVSPropertyOp16
 70
     1
102
RTVSPropertyOp17
 70
     1
102
RTVSPropertyOp18
 70
     1
102
RTVSPropertyOp19
 70
     1
102
RTVSPropertyOp20
 70
     1
102
RTVSPropertyOp21
 70
     1
102
RTVSPropertyOp22
 70
     1
102
RTVSPropertyOp23
 70
     1
102
RTVSPropertyOp24
 70
     1
102
RTVSPropertyOp25
 70
     1
102
RTVSPropertyOp26
 70
     1
102
RTVSPropertyOp27
 70
     1
102
RTVSPropertyOp28
 70
     1
102
RTVSPropertyOp29
 70
     1
102
RTVSPropertyOp30
 70
     1
102
RTVSPropertyOp31
 70
     1
102
RTVSPropertyOp32
 70
     1
102
RTVSPropertyOp33
 70
     1
102
RTVSPropertyOp34
 70
     1
102
RTVSPropertyOp35
 70
     1
102
RTVSPropertyOp36
 70
     1
102
RTVSPropertyOp37
 70
     1
102
RTVSPropertyOp38
 70
     1
102
RTVSPropertyOp39
 70
     1
102
RTVSPropertyOp40
 70
     1
102
RTVSPropertyOp41
 70
     1
102
RTVSPropertyOp42
 70
     1
102
RTVSPropertyOp43
 70
     1
102
RTVSPropertyOp44
 70
     1
102
RTVSPropertyOp45
 70
     1
102
RTVSPropertyOp46
 70
     1
102
RTVSPropertyOp47
 70
     1
102
RTVSPropertyOp48
 70
     1
102
RTVSPropertyOp49
 70
     1
102
RTVSPropertyOp50
 70
     1
102
RTVSPropertyOp51
 70
     0
102
RTVSPropertyOp52
 70
     0
102
RTVSPropertyOp53
 70
     1
102
RTVSPropertyOp54
 70
     1
102
RTVSPropertyOp55
 70
     1
102
RTVSPropertyOp56
 70
     1
102
RTVSPropertyOp57
 70
     1
102
RTVSPropertyOp58
 70
     1
102
RTVSPropertyOp59
 70
     1
102
RTVSPropertyOp60
 70
     1
102
RTVSPropertyOp61
 70
     1
102
RTVSPropertyOp62
 70
     1
  0
XRECORD
  5
371
102
{ACAD_REACTORS
330
370
102
}
330
370
100
AcDbXrecord
280
     1
102
RTVSPost2010Prop28
280
     0
102
RTVSPost2010PropOp28
 70
     0
102
RTVSPost2010Prop29
280
     1
102
RTVSPost2010PropOp29
 70
     0
102
RTVSPost2010Prop30
280
     1
102
RTVSPost2010PropOp30
 70
     0
102
RTVSPost2010Prop31
280
     0
102
RTVSPost2010PropOp31
 70
     0
102
RTVSPost2010Prop32
280
     0
102
RTVSPost2010PropOp32
 70
     0
102
RTVSPost2010Prop33
280
     0
102
RTVSPost2010PropOp33
 70
     0
102
RTVSPost2010Prop34
280
     0
102
RTVSPost2010PropOp34
 70
     0
102
RTVSPost2010Prop35
280
     0
102
RTVSPost2010PropOp35
 70
     0
102
RTVSPost2010Prop36
280
     0
102
RTVSPost2010PropOp36
 70
     0
102
RTVSPost2010Prop37
 90
       50
102
RTVSPost2010PropOp37
 70
     0
102
RTVSPost2010Prop38
140
0.0
102
RTVSPost2010PropOp38
 70
     0
102
RTVSPost2010Prop39
140
1.0
102
RTVSPost2010PropOp39
 70
     0
102
RTVSPost2010Prop40
 90
        0
102
RTVSPost2010PropOp40
 70
     0
102
RTVSPost2010Prop41ColorIndex
 90
       18
102
RTVSPost2010Prop41ColorRGB
 90
        0
102
RTVSPost2010PropOp41
 70
     0
102
RTVSPost2010Prop42
 90
       50
102
RTVSPost2010PropOp42
 70
     0
102
RTVSPost2010Prop43
 90
        3
102
RTVSPost2010PropOp43
 70
     0
102
RTVSPost2010Prop44ColorIndex
 90
        5
102
RTVSPost2010Prop44ColorRGB
 90
      255
102
RTVSPost2010PropOp44
 70
     0
102
RTVSPost2010Prop45
280
     0
102
RTVSPost2010PropOp45
 70
     0
102
RTVSPost2010Prop46
 90
       50
102
RTVSPost2010PropOp46
 70
     0
102
RTVSPost2010Prop47
 90
       50
102
RTVSPost2010PropOp47
 70
     0
102
RTVSPost2010Prop48
 90
       50
102
RTVSPost2010PropOp48
 70
     0
102
RTVSPost2010Prop49
280
     0
102
RTVSPost2010PropOp49
 70
     0
102
RTVSPost2010Prop50
 90
       50
102
RTVSPost2010PropOp50
 70
     0
102
RTVSPost2010Prop51ColorIndex
 90
      256
102
RTVSPost2010Prop51ColorRGB
 90
-16777216
102
RTVSPost2010PropOp51
 70
     0
102
RTVSPost2010Prop52
140
1.0
102
RTVSPost2010PropOp52
 70
     0
102
RTVSPost2010Prop53
 90
        2
102
RTVSPost2010PropOp53
 70
     0
102
RTVSPost2010Prop54
  1
strokes_ogs.tif
102
RTVSPost2010PropOp54
 70
     0
102
RTVSPost2010Prop55
280
     0
102
RTVSPost2010PropOp55
 70
     0
102
RTVSPost2010Prop56
140
1.0
102
RTVSPost2010PropOp56
 70
     0
102
RTVSPost2010Prop57
140
1.0
102
RTVSPost2010PropOp57
 70
     0
102
RTVSPropertyOp0
 70
     0
102
RTVSPropertyOp1
 70
     0
102
RTVSPropertyOp2
 70
     0
102
RTVSPropertyOp3
 70
     0
102
RTVSPropertyOp4
 70
     0
102
RTVSPropertyOp5
 70
     0
102
RTVSPropertyOp6
 70
     0
102
RTVSPropertyOp7
 70
     0
102
RTVSPropertyOp8
 70
     0
102
RTVSPropertyOp9
 70
     0
102
RTVSPropertyOp10
 70
     0
102
RTVSPropertyOp11
 70
     0
102
RTVSPropertyOp12
 70
     0
102
RTVSPropertyOp13
 70
     0
102
RTVSPropertyOp14
 70
     2
102
RTVSPropertyOp15
 70
     0
102
RTVSPropertyOp16
 70
     0
102
RTVSPropertyOp17
 70
     0
102
RTVSPropertyOp18
 70
     0
102
RTVSPropertyOp19
 70
     0
102
RTVSPropertyOp20
 70
     0
102
RTVSPropertyOp21
 70
     0
102
RTVSPropertyOp22
 70
     0
102
RTVSPropertyOp23
 70
     0
102
RTVSPropertyOp24
 70
     0
102
RTVSPropertyOp25
 70
     0
102
RTVSPropertyOp26
 70
     0
102
RTVSPropertyOp27
 70
     0
102
RTVSPropertyOp28
 70
     0
102
RTVSPropertyOp29
 70
     0
102
RTVSPropertyOp30
 70
     0
102
RTVSPropertyOp31
 70
     0
102
RTVSPropertyOp32
 70
     0
102
RTVSPropertyOp33
 70
     0
102
RTVSPropertyOp34
 70
     0
102
RTVSPropertyOp35
 70
     0
102
RTVSPropertyOp36
 70
     0
102
RTVSPropertyOp37
 70
     0
102
RTVSPropertyOp38
 70
     0
102
RTVSPropertyOp39
 70
     0
102
RTVSPropertyOp40
 70
     0
102
RTVSPropertyOp41
 70
     0
102
RTVSPropertyOp42
 70
     0
102
RTVSPropertyOp43
 70
     0
102
RTVSPropertyOp44
 70
     0
102
RTVSPropertyOp45
 70
     0
102
RTVSPropertyOp46
 70
     0
102
RTVSPropertyOp47
 70
     0
102
RTVSPropertyOp48
 70
     0
102
RTVSPropertyOp49
 70
     0
102
RTVSPropertyOp50
 70
     0
102
RTVSPropertyOp51
 70
     0
102
RTVSPropertyOp52
 70
     0
102
RTVSPropertyOp53
 70
     0
102
RTVSPropertyOp54
 70
     0
102
RTVSPropertyOp55
 70
     0
102
RTVSPropertyOp56
 70
     0
102
RTVSPropertyOp57
 70
     0
102
RTVSPropertyOp58
 70
     0
102
RTVSPropertyOp59
 70
     0
102
RTVSPropertyOp60
 70
     0
102
RTVSPropertyOp61
 70
     0
102
RTVSPropertyOp62
 70
     0
  0
XRECORD
  5
357
102
{ACAD_REACTORS
330
356
102
}
330
356
100
AcDbXrecord
280
     1
102
RTVSPost2010Prop28
280
     0
102
RTVSPost2010PropOp28
 70
     1
102
RTVSPost2010Prop29
280
     1
102
RTVSPost2010PropOp29
 70
     1
102
RTVSPost2010Prop30
280
     1
102
RTVSPost2010PropOp30
 70
     1
102
RTVSPost2010Prop31
280
     0
102
RTVSPost2010PropOp31
 70
     1
102
RTVSPost2010Prop32
280
     0
102
RTVSPost2010PropOp32
 70
     1
102
RTVSPost2010Prop33
280
     0
102
RTVSPost2010PropOp33
 70
     1
102
RTVSPost2010Prop34
280
     0
102
RTVSPost2010PropOp34
 70
     1
102
RTVSPost2010Prop35
280
     0
102
RTVSPost2010PropOp35
 70
     1
102
RTVSPost2010Prop36
280
     0
102
RTVSPost2010PropOp36
 70
     1
102
RTVSPost2010Prop37
 90
       50
102
RTVSPost2010PropOp37
 70
     1
102
RTVSPost2010Prop38
140
0.0
102
RTVSPost2010PropOp38
 70
     1
102
RTVSPost2010Prop39
140
1.0
102
RTVSPost2010PropOp39
 70
     1
102
RTVSPost2010Prop40
 90
        0
102
RTVSPost2010PropOp40
 70
     1
102
RTVSPost2010Prop41ColorIndex
 90
       18
102
RTVSPost2010Prop41ColorRGB
 90
        0
102
RTVSPost2010PropOp41
 70
     1
102
RTVSPost2010Prop42
 90
       50
102
RTVSPost2010PropOp42
 70
     1
102
RTVSPost2010Prop43
 90
        3
102
RTVSPost2010PropOp43
 70
     1
102
RTVSPost2010Prop44ColorIndex
 90
        5
102
RTVSPost2010Prop44ColorRGB
 90
      255
102
RTVSPost2010PropOp44
 70
     1
102
RTVSPost2010Prop45
280
     0
102
RTVSPost2010PropOp45
 70
     1
102
RTVSPost2010Prop46
 90
       50
102
RTVSPost2010PropOp46
 70
     1
102
RTVSPost2010Prop47
 90
       50
102
RTVSPost2010PropOp47
 70
     1
102
RTVSPost2010Prop48
 90
       50
102
RTVSPost2010PropOp48
 70
     1
102
RTVSPost2010Prop49
280
     0
102
RTVSPost2010PropOp49
 70
     1
102
RTVSPost2010Prop50
 90
       50
102
RTVSPost2010PropOp50
 70
     1
102
RTVSPost2010Prop51ColorIndex
 90
      256
102
RTVSPost2010Prop51ColorRGB
 90
-16777216
102
RTVSPost2010PropOp51
 70
     0
102
RTVSPost2010Prop52
140
1.0
102
RTVSPost2010PropOp52
 70
     0
102
RTVSPost2010Prop53
 90
        2
102
RTVSPost2010PropOp53
 70
     1
102
RTVSPost2010Prop54
  1
strokes_ogs.tif
102
RTVSPost2010PropOp54
 70
     1
102
RTVSPost2010Prop55
280
     0
102
RTVSPost2010PropOp55
 70
     1
102
RTVSPost2010Prop56
140
1.0
102
RTVSPost2010PropOp56
 70
     1
102
RTVSPost2010Prop57
140
1.0
102
RTVSPost2010PropOp57
 70
     1
102
RTVSPropertyOp0
 70
     1
102
RTVSPropertyOp1
 70
     1
102
RTVSPropertyOp2
 70
     1
102
RTVSPropertyOp3
 70
     1
102
RTVSPropertyOp4
 70
     1
102
RTVSPropertyOp5
 70
     1
102
RTVSPropertyOp6
 70
     1
102
RTVSPropertyOp7
 70
     1
102
RTVSPropertyOp8
 70
     1
102
RTVSPropertyOp9
 70
     1
102
RTVSPropertyOp10
 70
     1
102
RTVSPropertyOp11
 70
     1
102
RTVSPropertyOp12
 70
     1
102
RTVSPropertyOp13
 70
     1
102
RTVSPropertyOp14
 70
     1
102
RTVSPropertyOp15
 70
     1
102
RTVSPropertyOp16
 70
     1
102
RTVSPropertyOp17
 70
     1
102
RTVSPropertyOp18
 70
     1
102
RTVSPropertyOp19
 70
     1
102
RTVSPropertyOp20
 70
     1
102
RTVSPropertyOp21
 70
     1
102
RTVSPropertyOp22
 70
     1
102
RTVSPropertyOp23
 70
     1
102
RTVSPropertyOp24
 70
     1
102
RTVSPropertyOp25
 70
     1
102
RTVSPropertyOp26
 70
     1
102
RTVSPropertyOp27
 70
     1
102
RTVSPropertyOp28
 70
     1
102
RTVSPropertyOp29
 70
     1
102
RTVSPropertyOp30
 70
     1
102
RTVSPropertyOp31
 70
     1
102
RTVSPropertyOp32
 70
     1
102
RTVSPropertyOp33
 70
     1
102
RTVSPropertyOp34
 70
     1
102
RTVSPropertyOp35
 70
     1
102
RTVSPropertyOp36
 70
     1
102
RTVSPropertyOp37
 70
     1
102
RTVSPropertyOp38
 70
     1
102
RTVSPropertyOp39
 70
     1
102
RTVSPropertyOp40
 70
     1
102
RTVSPropertyOp41
 70
     1
102
RTVSPropertyOp42
 70
     1
102
RTVSPropertyOp43
 70
     1
102
RTVSPropertyOp44
 70
     1
102
RTVSPropertyOp45
 70
     1
102
RTVSPropertyOp46
 70
     1
102
RTVSPropertyOp47
 70
     1
102
RTVSPropertyOp48
 70
     1
102
RTVSPropertyOp49
 70
     1
102
RTVSPropertyOp50
 70
     1
102
RTVSPropertyOp51
 70
     0
102
RTVSPropertyOp52
 70
     0
102
RTVSPropertyOp53
 70
     1
102
RTVSPropertyOp54
 70
     1
102
RTVSPropertyOp55
 70
     1
102
RTVSPropertyOp56
 70
     1
102
RTVSPropertyOp57
 70
     1
102
RTVSPropertyOp58
 70
     1
102
RTVSPropertyOp59
 70
     1
102
RTVSPropertyOp60
 70
     1
102
RTVSPropertyOp61
 70
     1
102
RTVSPropertyOp62
 70
     1
  0
XRECORD
  5
36D
102
{ACAD_REACTORS
330
36C
102
}
330
36C
100
AcDbXrecord
280
     1
102
RTVSPost2010Prop28
280
     0
102
RTVSPost2010PropOp28
 70
     1
102
RTVSPost2010Prop29
280
     1
102
RTVSPost2010PropOp29
 70
     1
102
RTVSPost2010Prop30
280
     1
102
RTVSPost2010PropOp30
 70
     1
102
RTVSPost2010Prop31
280
     0
102
RTVSPost2010PropOp31
 70
     1
102
RTVSPost2010Prop32
280
     0
102
RTVSPost2010PropOp32
 70
     1
102
RTVSPost2010Prop33
280
     0
102
RTVSPost2010PropOp33
 70
     1
102
RTVSPost2010Prop34
280
     0
102
RTVSPost2010PropOp34
 70
     1
102
RTVSPost2010Prop35
280
     0
102
RTVSPost2010PropOp35
 70
     1
102
RTVSPost2010Prop36
280
     0
102
RTVSPost2010PropOp36
 70
     1
102
RTVSPost2010Prop37
 90
       50
102
RTVSPost2010PropOp37
 70
     1
102
RTVSPost2010Prop38
140
0.0
102
RTVSPost2010PropOp38
 70
     1
102
RTVSPost2010Prop39
140
1.0
102
RTVSPost2010PropOp39
 70
     1
102
RTVSPost2010Prop40
 90
        0
102
RTVSPost2010PropOp40
 70
     1
102
RTVSPost2010Prop41ColorIndex
 90
       18
102
RTVSPost2010Prop41ColorRGB
 90
        0
102
RTVSPost2010PropOp41
 70
     1
102
RTVSPost2010Prop42
 90
       50
102
RTVSPost2010PropOp42
 70
     1
102
RTVSPost2010Prop43
 90
        3
102
RTVSPost2010PropOp43
 70
     1
102
RTVSPost2010Prop44ColorIndex
 90
        5
102
RTVSPost2010Prop44ColorRGB
 90
      255
102
RTVSPost2010PropOp44
 70
     1
102
RTVSPost2010Prop45
280
     0
102
RTVSPost2010PropOp45
 70
     1
102
RTVSPost2010Prop46
 90
       50
102
RTVSPost2010PropOp46
 70
     1
102
RTVSPost2010Prop47
 90
       50
102
RTVSPost2010PropOp47
 70
     1
102
RTVSPost2010Prop48
 90
       50
102
RTVSPost2010PropOp48
 70
     1
102
RTVSPost2010Prop49
280
     0
102
RTVSPost2010PropOp49
 70
     1
102
RTVSPost2010Prop50
 90
       50
102
RTVSPost2010PropOp50
 70
     1
102
RTVSPost2010Prop51ColorIndex
 90
      256
102
RTVSPost2010Prop51ColorRGB
 90
-16777216
102
RTVSPost2010PropOp51
 70
     0
102
RTVSPost2010Prop52
140
1.0
102
RTVSPost2010PropOp52
 70
     0
102
RTVSPost2010Prop53
 90
        2
102
RTVSPost2010PropOp53
 70
     1
102
RTVSPost2010Prop54
  1
strokes_ogs.tif
102
RTVSPost2010PropOp54
 70
     1
102
RTVSPost2010Prop55
280
     0
102
RTVSPost2010PropOp55
 70
     1
102
RTVSPost2010Prop56
140
1.0
102
RTVSPost2010PropOp56
 70
     1
102
RTVSPost2010Prop57
140
1.0
102
RTVSPost2010PropOp57
 70
     1
102
RTVSPropertyOp0
 70
     1
102
RTVSPropertyOp1
 70
     1
102
RTVSPropertyOp2
 70
     1
102
RTVSPropertyOp3
 70
     1
102
RTVSPropertyOp4
 70
     1
102
RTVSPropertyOp5
 70
     1
102
RTVSPropertyOp6
 70
     1
102
RTVSPropertyOp7
 70
     1
102
RTVSPropertyOp8
 70
     1
102
RTVSPropertyOp9
 70
     1
102
RTVSPropertyOp10
 70
     1
102
RTVSPropertyOp11
 70
     1
102
RTVSPropertyOp12
 70
     1
102
RTVSPropertyOp13
 70
     1
102
RTVSPropertyOp14
 70
     1
102
RTVSPropertyOp15
 70
     1
102
RTVSPropertyOp16
 70
     1
102
RTVSPropertyOp17
 70
     1
102
RTVSPropertyOp18
 70
     1
102
RTVSPropertyOp19
 70
     1
102
RTVSPropertyOp20
 70
     1
102
RTVSPropertyOp21
 70
     1
102
RTVSPropertyOp22
 70
     1
102
RTVSPropertyOp23
 70
     1
102
RTVSPropertyOp24
 70
     1
102
RTVSPropertyOp25
 70
     1
102
RTVSPropertyOp26
 70
     1
102
RTVSPropertyOp27
 70
     1
102
RTVSPropertyOp28
 70
     1
102
RTVSPropertyOp29
 70
     1
102
RTVSPropertyOp30
 70
     1
102
RTVSPropertyOp31
 70
     1
102
RTVSPropertyOp32
 70
     1
102
RTVSPropertyOp33
 70
     1
102
RTVSPropertyOp34
 70
     1
102
RTVSPropertyOp35
 70
     1
102
RTVSPropertyOp36
 70
     1
102
RTVSPropertyOp37
 70
     1
102
RTVSPropertyOp38
 70
     1
102
RTVSPropertyOp39
 70
     1
102
RTVSPropertyOp40
 70
     1
102
RTVSPropertyOp41
 70
     1
102
RTVSPropertyOp42
 70
     1
102
RTVSPropertyOp43
 70
     1
102
RTVSPropertyOp44
 70
     1
102
RTVSPropertyOp45
 70
     1
102
RTVSPropertyOp46
 70
     1
102
RTVSPropertyOp47
 70
     1
102
RTVSPropertyOp48
 70
     1
102
RTVSPropertyOp49
 70
     1
102
RTVSPropertyOp50
 70
     1
102
RTVSPropertyOp51
 70
     0
102
RTVSPropertyOp52
 70
     0
102
RTVSPropertyOp53
 70
     1
102
RTVSPropertyOp54
 70
     1
102
RTVSPropertyOp55
 70
     1
102
RTVSPropertyOp56
 70
     1
102
RTVSPropertyOp57
 70
     1
102
RTVSPropertyOp58
 70
     1
102
RTVSPropertyOp59
 70
     1
102
RTVSPropertyOp60
 70
     1
102
RTVSPropertyOp61
 70
     1
102
RTVSPropertyOp62
 70
     1
  0
XRECORD
  5
36B
102
{ACAD_REACTORS
330
36A
102
}
330
36A
100
AcDbXrecord
280
     1
102
RTVSPost2010Prop28
280
     0
102
RTVSPost2010PropOp28
 70
     1
102
RTVSPost2010Prop29
280
     1
102
RTVSPost2010PropOp29
 70
     1
102
RTVSPost2010Prop30
280
     1
102
RTVSPost2010PropOp30
 70
     1
102
RTVSPost2010Prop31
280
     0
102
RTVSPost2010PropOp31
 70
     1
102
RTVSPost2010Prop32
280
     0
102
RTVSPost2010PropOp32
 70
     1
102
RTVSPost2010Prop33
280
     0
102
RTVSPost2010PropOp33
 70
     1
102
RTVSPost2010Prop34
280
     0
102
RTVSPost2010PropOp34
 70
     1
102
RTVSPost2010Prop35
280
     0
102
RTVSPost2010PropOp35
 70
     1
102
RTVSPost2010Prop36
280
     0
102
RTVSPost2010PropOp36
 70
     1
102
RTVSPost2010Prop37
 90
       50
102
RTVSPost2010PropOp37
 70
     1
102
RTVSPost2010Prop38
140
0.0
102
RTVSPost2010PropOp38
 70
     1
102
RTVSPost2010Prop39
140
1.0
102
RTVSPost2010PropOp39
 70
     1
102
RTVSPost2010Prop40
 90
        0
102
RTVSPost2010PropOp40
 70
     1
102
RTVSPost2010Prop41ColorIndex
 90
       18
102
RTVSPost2010Prop41ColorRGB
 90
        0
102
RTVSPost2010PropOp41
 70
     1
102
RTVSPost2010Prop42
 90
       50
102
RTVSPost2010PropOp42
 70
     1
102
RTVSPost2010Prop43
 90
        3
102
RTVSPost2010PropOp43
 70
     1
102
RTVSPost2010Prop44ColorIndex
 90
        5
102
RTVSPost2010Prop44ColorRGB
 90
      255
102
RTVSPost2010PropOp44
 70
     1
102
RTVSPost2010Prop45
280
     0
102
RTVSPost2010PropOp45
 70
     1
102
RTVSPost2010Prop46
 90
       50
102
RTVSPost2010PropOp46
 70
     1
102
RTVSPost2010Prop47
 90
       50
102
RTVSPost2010PropOp47
 70
     1
102
RTVSPost2010Prop48
 90
       50
102
RTVSPost2010PropOp48
 70
     1
102
RTVSPost2010Prop49
280
     0
102
RTVSPost2010PropOp49
 70
     1
102
RTVSPost2010Prop50
 90
       50
102
RTVSPost2010PropOp50
 70
     1
102
RTVSPost2010Prop51ColorIndex
 90
      256
102
RTVSPost2010Prop51ColorRGB
 90
-16777216
102
RTVSPost2010PropOp51
 70
     0
102
RTVSPost2010Prop52
140
1.0
102
RTVSPost2010PropOp52
 70
     0
102
RTVSPost2010Prop53
 90
        2
102
RTVSPost2010PropOp53
 70
     1
102
RTVSPost2010Prop54
  1
strokes_ogs.tif
102
RTVSPost2010PropOp54
 70
     1
102
RTVSPost2010Prop55
280
     0
102
RTVSPost2010PropOp55
 70
     1
102
RTVSPost2010Prop56
140
1.0
102
RTVSPost2010PropOp56
 70
     1
102
RTVSPost2010Prop57
140
1.0
102
RTVSPost2010PropOp57
 70
     1
102
RTVSPropertyOp0
 70
     1
102
RTVSPropertyOp1
 70
     1
102
RTVSPropertyOp2
 70
     1
102
RTVSPropertyOp3
 70
     1
102
RTVSPropertyOp4
 70
     1
102
RTVSPropertyOp5
 70
     1
102
RTVSPropertyOp6
 70
     1
102
RTVSPropertyOp7
 70
     1
102
RTVSPropertyOp8
 70
     1
102
RTVSPropertyOp9
 70
     1
102
RTVSPropertyOp10
 70
     1
102
RTVSPropertyOp11
 70
     1
102
RTVSPropertyOp12
 70
     1
102
RTVSPropertyOp13
 70
     1
102
RTVSPropertyOp14
 70
     1
102
RTVSPropertyOp15
 70
     1
102
RTVSPropertyOp16
 70
     1
102
RTVSPropertyOp17
 70
     1
102
RTVSPropertyOp18
 70
     1
102
RTVSPropertyOp19
 70
     1
102
RTVSPropertyOp20
 70
     1
102
RTVSPropertyOp21
 70
     1
102
RTVSPropertyOp22
 70
     1
102
RTVSPropertyOp23
 70
     1
102
RTVSPropertyOp24
 70
     1
102
RTVSPropertyOp25
 70
     1
102
RTVSPropertyOp26
 70
     1
102
RTVSPropertyOp27
 70
     1
102
RTVSPropertyOp28
 70
     1
102
RTVSPropertyOp29
 70
     1
102
RTVSPropertyOp30
 70
     1
102
RTVSPropertyOp31
 70
     1
102
RTVSPropertyOp32
 70
     1
102
RTVSPropertyOp33
 70
     1
102
RTVSPropertyOp34
 70
     1
102
RTVSPropertyOp35
 70
     1
102
RTVSPropertyOp36
 70
     1
102
RTVSPropertyOp37
 70
     1
102
RTVSPropertyOp38
 70
     1
102
RTVSPropertyOp39
 70
     1
102
RTVSPropertyOp40
 70
     1
102
RTVSPropertyOp41
 70
     1
102
RTVSPropertyOp42
 70
     1
102
RTVSPropertyOp43
 70
     1
102
RTVSPropertyOp44
 70
     1
102
RTVSPropertyOp45
 70
     1
102
RTVSPropertyOp46
 70
     1
102
RTVSPropertyOp47
 70
     1
102
RTVSPropertyOp48
 70
     1
102
RTVSPropertyOp49
 70
     1
102
RTVSPropertyOp50
 70
     1
102
RTVSPropertyOp51
 70
     0
102
RTVSPropertyOp52
 70
     0
102
RTVSPropertyOp53
 70
     1
102
RTVSPropertyOp54
 70
     1
102
RTVSPropertyOp55
 70
     1
102
RTVSPropertyOp56
 70
     1
102
RTVSPropertyOp57
 70
     1
102
RTVSPropertyOp58
 70
     1
102
RTVSPropertyOp59
 70
     1
102
RTVSPropertyOp60
 70
     1
102
RTVSPropertyOp61
 70
     1
102
RTVSPropertyOp62
 70
     1
  0
XRECORD
  5
365
102
{ACAD_REACTORS
330
364
102
}
330
364
100
AcDbXrecord
280
     1
102
RTVSPost2010Prop28
280
     0
102
RTVSPost2010PropOp28
 70
     1
102
RTVSPost2010Prop29
280
     1
102
RTVSPost2010PropOp29
 70
     1
102
RTVSPost2010Prop30
280
     1
102
RTVSPost2010PropOp30
 70
     1
102
RTVSPost2010Prop31
280
     0
102
RTVSPost2010PropOp31
 70
     1
102
RTVSPost2010Prop32
280
     0
102
RTVSPost2010PropOp32
 70
     1
102
RTVSPost2010Prop33
280
     0
102
RTVSPost2010PropOp33
 70
     1
102
RTVSPost2010Prop34
280
     0
102
RTVSPost2010PropOp34
 70
     1
102
RTVSPost2010Prop35
280
     0
102
RTVSPost2010PropOp35
 70
     1
102
RTVSPost2010Prop36
280
     0
102
RTVSPost2010PropOp36
 70
     1
102
RTVSPost2010Prop37
 90
       50
102
RTVSPost2010PropOp37
 70
     1
102
RTVSPost2010Prop38
140
0.0
102
RTVSPost2010PropOp38
 70
     1
102
RTVSPost2010Prop39
140
1.0
102
RTVSPost2010PropOp39
 70
     1
102
RTVSPost2010Prop40
 90
        0
102
RTVSPost2010PropOp40
 70
     1
102
RTVSPost2010Prop41ColorIndex
 90
       18
102
RTVSPost2010Prop41ColorRGB
 90
        0
102
RTVSPost2010PropOp41
 70
     1
102
RTVSPost2010Prop42
 90
       50
102
RTVSPost2010PropOp42
 70
     1
102
RTVSPost2010Prop43
 90
        3
102
RTVSPost2010PropOp43
 70
     1
102
RTVSPost2010Prop44ColorIndex
 90
        5
102
RTVSPost2010Prop44ColorRGB
 90
      255
102
RTVSPost2010PropOp44
 70
     1
102
RTVSPost2010Prop45
280
     0
102
RTVSPost2010PropOp45
 70
     1
102
RTVSPost2010Prop46
 90
       50
102
RTVSPost2010PropOp46
 70
     1
102
RTVSPost2010Prop47
 90
       50
102
RTVSPost2010PropOp47
 70
     1
102
RTVSPost2010Prop48
 90
       50
102
RTVSPost2010PropOp48
 70
     1
102
RTVSPost2010Prop49
280
     0
102
RTVSPost2010PropOp49
 70
     1
102
RTVSPost2010Prop50
 90
       50
102
RTVSPost2010PropOp50
 70
     1
102
RTVSPost2010Prop51ColorIndex
 90
      256
102
RTVSPost2010Prop51ColorRGB
 90
-16777216
102
RTVSPost2010PropOp51
 70
     0
102
RTVSPost2010Prop52
140
1.0
102
RTVSPost2010PropOp52
 70
     0
102
RTVSPost2010Prop53
 90
        2
102
RTVSPost2010PropOp53
 70
     1
102
RTVSPost2010Prop54
  1
strokes_ogs.tif
102
RTVSPost2010PropOp54
 70
     1
102
RTVSPost2010Prop55
280
     0
102
RTVSPost2010PropOp55
 70
     1
102
RTVSPost2010Prop56
140
1.0
102
RTVSPost2010PropOp56
 70
     1
102
RTVSPost2010Prop57
140
1.0
102
RTVSPost2010PropOp57
 70
     1
102
RTVSPropertyOp0
 70
     1
102
RTVSPropertyOp1
 70
     1
102
RTVSPropertyOp2
 70
     1
102
RTVSPropertyOp3
 70
     1
102
RTVSPropertyOp4
 70
     1
102
RTVSPropertyOp5
 70
     1
102
RTVSPropertyOp6
 70
     1
102
RTVSPropertyOp7
 70
     1
102
RTVSPropertyOp8
 70
     1
102
RTVSPropertyOp9
 70
     1
102
RTVSPropertyOp10
 70
     1
102
RTVSPropertyOp11
 70
     1
102
RTVSPropertyOp12
 70
     1
102
RTVSPropertyOp13
 70
     1
102
RTVSPropertyOp14
 70
     1
102
RTVSPropertyOp15
 70
     1
102
RTVSPropertyOp16
 70
     1
102
RTVSPropertyOp17
 70
     1
102
RTVSPropertyOp18
 70
     1
102
RTVSPropertyOp19
 70
     1
102
RTVSPropertyOp20
 70
     1
102
RTVSPropertyOp21
 70
     1
102
RTVSPropertyOp22
 70
     1
102
RTVSPropertyOp23
 70
     1
102
RTVSPropertyOp24
 70
     1
102
RTVSPropertyOp25
 70
     1
102
RTVSPropertyOp26
 70
     1
102
RTVSPropertyOp27
 70
     1
102
RTVSPropertyOp28
 70
     1
102
RTVSPropertyOp29
 70
     1
102
RTVSPropertyOp30
 70
     1
102
RTVSPropertyOp31
 70
     1
102
RTVSPropertyOp32
 70
     1
102
RTVSPropertyOp33
 70
     1
102
RTVSPropertyOp34
 70
     1
102
RTVSPropertyOp35
 70
     1
102
RTVSPropertyOp36
 70
     1
102
RTVSPropertyOp37
 70
     1
102
RTVSPropertyOp38
 70
     1
102
RTVSPropertyOp39
 70
     1
102
RTVSPropertyOp40
 70
     1
102
RTVSPropertyOp41
 70
     1
102
RTVSPropertyOp42
 70
     1
102
RTVSPropertyOp43
 70
     1
102
RTVSPropertyOp44
 70
     1
102
RTVSPropertyOp45
 70
     1
102
RTVSPropertyOp46
 70
     1
102
RTVSPropertyOp47
 70
     1
102
RTVSPropertyOp48
 70
     1
102
RTVSPropertyOp49
 70
     1
102
RTVSPropertyOp50
 70
     1
102
RTVSPropertyOp51
 70
     0
102
RTVSPropertyOp52
 70
     0
102
RTVSPropertyOp53
 70
     1
102
RTVSPropertyOp54
 70
     1
102
RTVSPropertyOp55
 70
     1
102
RTVSPropertyOp56
 70
     1
102
RTVSPropertyOp57
 70
     1
102
RTVSPropertyOp58
 70
     1
102
RTVSPropertyOp59
 70
     1
102
RTVSPropertyOp60
 70
     1
102
RTVSPropertyOp61
 70
     1
102
RTVSPropertyOp62
 70
     1
  0
XRECORD
  5
367
102
{ACAD_REACTORS
330
366
102
}
330
366
100
AcDbXrecord
280
     1
102
RTVSPost2010Prop28
280
     0
102
RTVSPost2010PropOp28
 70
     1
102
RTVSPost2010Prop29
280
     1
102
RTVSPost2010PropOp29
 70
     1
102
RTVSPost2010Prop30
280
     1
102
RTVSPost2010PropOp30
 70
     1
102
RTVSPost2010Prop31
280
     0
102
RTVSPost2010PropOp31
 70
     1
102
RTVSPost2010Prop32
280
     0
102
RTVSPost2010PropOp32
 70
     1
102
RTVSPost2010Prop33
280
     0
102
RTVSPost2010PropOp33
 70
     1
102
RTVSPost2010Prop34
280
     0
102
RTVSPost2010PropOp34
 70
     1
102
RTVSPost2010Prop35
280
     0
102
RTVSPost2010PropOp35
 70
     1
102
RTVSPost2010Prop36
280
     0
102
RTVSPost2010PropOp36
 70
     1
102
RTVSPost2010Prop37
 90
       50
102
RTVSPost2010PropOp37
 70
     1
102
RTVSPost2010Prop38
140
0.0
102
RTVSPost2010PropOp38
 70
     1
102
RTVSPost2010Prop39
140
1.0
102
RTVSPost2010PropOp39
 70
     1
102
RTVSPost2010Prop40
 90
        0
102
RTVSPost2010PropOp40
 70
     1
102
RTVSPost2010Prop41ColorIndex
 90
       18
102
RTVSPost2010Prop41ColorRGB
 90
        0
102
RTVSPost2010PropOp41
 70
     1
102
RTVSPost2010Prop42
 90
       50
102
RTVSPost2010PropOp42
 70
     1
102
RTVSPost2010Prop43
 90
        3
102
RTVSPost2010PropOp43
 70
     1
102
RTVSPost2010Prop44ColorIndex
 90
        5
102
RTVSPost2010Prop44ColorRGB
 90
      255
102
RTVSPost2010PropOp44
 70
     1
102
RTVSPost2010Prop45
280
     0
102
RTVSPost2010PropOp45
 70
     1
102
RTVSPost2010Prop46
 90
       50
102
RTVSPost2010PropOp46
 70
     1
102
RTVSPost2010Prop47
 90
       50
102
RTVSPost2010PropOp47
 70
     1
102
RTVSPost2010Prop48
 90
       50
102
RTVSPost2010PropOp48
 70
     1
102
RTVSPost2010Prop49
280
     0
102
RTVSPost2010PropOp49
 70
     1
102
RTVSPost2010Prop50
 90
       50
102
RTVSPost2010PropOp50
 70
     1
102
RTVSPost2010Prop51ColorIndex
 90
      256
102
RTVSPost2010Prop51ColorRGB
 90
-16777216
102
RTVSPost2010PropOp51
 70
     0
102
RTVSPost2010Prop52
140
1.0
102
RTVSPost2010PropOp52
 70
     0
102
RTVSPost2010Prop53
 90
        2
102
RTVSPost2010PropOp53
 70
     1
102
RTVSPost2010Prop54
  1
strokes_ogs.tif
102
RTVSPost2010PropOp54
 70
     1
102
RTVSPost2010Prop55
280
     0
102
RTVSPost2010PropOp55
 70
     1
102
RTVSPost2010Prop56
140
1.0
102
RTVSPost2010PropOp56
 70
     1
102
RTVSPost2010Prop57
140
1.0
102
RTVSPost2010PropOp57
 70
     1
102
RTVSPropertyOp0
 70
     1
102
RTVSPropertyOp1
 70
     1
102
RTVSPropertyOp2
 70
     1
102
RTVSPropertyOp3
 70
     1
102
RTVSPropertyOp4
 70
     1
102
RTVSPropertyOp5
 70
     1
102
RTVSPropertyOp6
 70
     1
102
RTVSPropertyOp7
 70
     1
102
RTVSPropertyOp8
 70
     1
102
RTVSPropertyOp9
 70
     1
102
RTVSPropertyOp10
 70
     1
102
RTVSPropertyOp11
 70
     1
102
RTVSPropertyOp12
 70
     1
102
RTVSPropertyOp13
 70
     1
102
RTVSPropertyOp14
 70
     1
102
RTVSPropertyOp15
 70
     1
102
RTVSPropertyOp16
 70
     1
102
RTVSPropertyOp17
 70
     1
102
RTVSPropertyOp18
 70
     1
102
RTVSPropertyOp19
 70
     1
102
RTVSPropertyOp20
 70
     1
102
RTVSPropertyOp21
 70
     1
102
RTVSPropertyOp22
 70
     1
102
RTVSPropertyOp23
 70
     1
102
RTVSPropertyOp24
 70
     1
102
RTVSPropertyOp25
 70
     1
102
RTVSPropertyOp26
 70
     1
102
RTVSPropertyOp27
 70
     1
102
RTVSPropertyOp28
 70
     1
102
RTVSPropertyOp29
 70
     1
102
RTVSPropertyOp30
 70
     1
102
RTVSPropertyOp31
 70
     1
102
RTVSPropertyOp32
 70
     1
102
RTVSPropertyOp33
 70
     1
102
RTVSPropertyOp34
 70
     1
102
RTVSPropertyOp35
 70
     1
102
RTVSPropertyOp36
 70
     1
102
RTVSPropertyOp37
 70
     1
102
RTVSPropertyOp38
 70
     1
102
RTVSPropertyOp39
 70
     1
102
RTVSPropertyOp40
 70
     1
102
RTVSPropertyOp41
 70
     1
102
RTVSPropertyOp42
 70
     1
102
RTVSPropertyOp43
 70
     1
102
RTVSPropertyOp44
 70
     1
102
RTVSPropertyOp45
 70
     1
102
RTVSPropertyOp46
 70
     1
102
RTVSPropertyOp47
 70
     1
102
RTVSPropertyOp48
 70
     1
102
RTVSPropertyOp49
 70
     1
102
RTVSPropertyOp50
 70
     1
102
RTVSPropertyOp51
 70
     0
102
RTVSPropertyOp52
 70
     0
102
RTVSPropertyOp53
 70
     1
102
RTVSPropertyOp54
 70
     1
102
RTVSPropertyOp55
 70
     1
102
RTVSPropertyOp56
 70
     1
102
RTVSPropertyOp57
 70
     1
102
RTVSPropertyOp58
 70
     1
102
RTVSPropertyOp59
 70
     1
102
RTVSPropertyOp60
 70
     1
102
RTVSPropertyOp61
 70
     1
102
RTVSPropertyOp62
 70
     1
  0
XRECORD
  5
35D
102
{ACAD_REACTORS
330
35C
102
}
330
35C
100
AcDbXrecord
280
     1
102
RTVSPost2010Prop28
280
     0
102
RTVSPost2010PropOp28
 70
     1
102
RTVSPost2010Prop29
280
     1
102
RTVSPost2010PropOp29
 70
     1
102
RTVSPost2010Prop30
280
     1
102
RTVSPost2010PropOp30
 70
     1
102
RTVSPost2010Prop31
280
     0
102
RTVSPost2010PropOp31
 70
     1
102
RTVSPost2010Prop32
280
     0
102
RTVSPost2010PropOp32
 70
     1
102
RTVSPost2010Prop33
280
     0
102
RTVSPost2010PropOp33
 70
     1
102
RTVSPost2010Prop34
280
     0
102
RTVSPost2010PropOp34
 70
     1
102
RTVSPost2010Prop35
280
     0
102
RTVSPost2010PropOp35
 70
     1
102
RTVSPost2010Prop36
280
     0
102
RTVSPost2010PropOp36
 70
     1
102
RTVSPost2010Prop37
 90
       50
102
RTVSPost2010PropOp37
 70
     1
102
RTVSPost2010Prop38
140
0.0
102
RTVSPost2010PropOp38
 70
     1
102
RTVSPost2010Prop39
140
1.0
102
RTVSPost2010PropOp39
 70
     1
102
RTVSPost2010Prop40
 90
        0
102
RTVSPost2010PropOp40
 70
     1
102
RTVSPost2010Prop41ColorIndex
 90
       18
102
RTVSPost2010Prop41ColorRGB
 90
        0
102
RTVSPost2010PropOp41
 70
     1
102
RTVSPost2010Prop42
 90
       50
102
RTVSPost2010PropOp42
 70
     1
102
RTVSPost2010Prop43
 90
        3
102
RTVSPost2010PropOp43
 70
     1
102
RTVSPost2010Prop44ColorIndex
 90
        5
102
RTVSPost2010Prop44ColorRGB
 90
      255
102
RTVSPost2010PropOp44
 70
     1
102
RTVSPost2010Prop45
280
     0
102
RTVSPost2010PropOp45
 70
     1
102
RTVSPost2010Prop46
 90
       50
102
RTVSPost2010PropOp46
 70
     1
102
RTVSPost2010Prop47
 90
       50
102
RTVSPost2010PropOp47
 70
     1
102
RTVSPost2010Prop48
 90
       50
102
RTVSPost2010PropOp48
 70
     1
102
RTVSPost2010Prop49
280
     0
102
RTVSPost2010PropOp49
 70
     1
102
RTVSPost2010Prop50
 90
       50
102
RTVSPost2010PropOp50
 70
     1
102
RTVSPost2010Prop51ColorIndex
 90
      256
102
RTVSPost2010Prop51ColorRGB
 90
-16777216
102
RTVSPost2010PropOp51
 70
     0
102
RTVSPost2010Prop52
140
1.0
102
RTVSPost2010PropOp52
 70
     0
102
RTVSPost2010Prop53
 90
        2
102
RTVSPost2010PropOp53
 70
     1
102
RTVSPost2010Prop54
  1
strokes_ogs.tif
102
RTVSPost2010PropOp54
 70
     1
102
RTVSPost2010Prop55
280
     0
102
RTVSPost2010PropOp55
 70
     1
102
RTVSPost2010Prop56
140
1.0
102
RTVSPost2010PropOp56
 70
     1
102
RTVSPost2010Prop57
140
1.0
102
RTVSPost2010PropOp57
 70
     1
102
RTVSPropertyOp0
 70
     1
102
RTVSPropertyOp1
 70
     1
102
RTVSPropertyOp2
 70
     1
102
RTVSPropertyOp3
 70
     1
102
RTVSPropertyOp4
 70
     1
102
RTVSPropertyOp5
 70
     1
102
RTVSPropertyOp6
 70
     1
102
RTVSPropertyOp7
 70
     1
102
RTVSPropertyOp8
 70
     1
102
RTVSPropertyOp9
 70
     1
102
RTVSPropertyOp10
 70
     1
102
RTVSPropertyOp11
 70
     1
102
RTVSPropertyOp12
 70
     1
102
RTVSPropertyOp13
 70
     1
102
RTVSPropertyOp14
 70
     1
102
RTVSPropertyOp15
 70
     1
102
RTVSPropertyOp16
 70
     1
102
RTVSPropertyOp17
 70
     1
102
RTVSPropertyOp18
 70
     1
102
RTVSPropertyOp19
 70
     1
102
RTVSPropertyOp20
 70
     1
102
RTVSPropertyOp21
 70
     1
102
RTVSPropertyOp22
 70
     1
102
RTVSPropertyOp23
 70
     1
102
RTVSPropertyOp24
 70
     1
102
RTVSPropertyOp25
 70
     1
102
RTVSPropertyOp26
 70
     1
102
RTVSPropertyOp27
 70
     1
102
RTVSPropertyOp28
 70
     1
102
RTVSPropertyOp29
 70
     1
102
RTVSPropertyOp30
 70
     1
102
RTVSPropertyOp31
 70
     1
102
RTVSPropertyOp32
 70
     1
102
RTVSPropertyOp33
 70
     1
102
RTVSPropertyOp34
 70
     1
102
RTVSPropertyOp35
 70
     1
102
RTVSPropertyOp36
 70
     1
102
RTVSPropertyOp37
 70
     1
102
RTVSPropertyOp38
 70
     1
102
RTVSPropertyOp39
 70
     1
102
RTVSPropertyOp40
 70
     1
102
RTVSPropertyOp41
 70
     1
102
RTVSPropertyOp42
 70
     1
102
RTVSPropertyOp43
 70
     1
102
RTVSPropertyOp44
 70
     1
102
RTVSPropertyOp45
 70
     1
102
RTVSPropertyOp46
 70
     1
102
RTVSPropertyOp47
 70
     1
102
RTVSPropertyOp48
 70
     1
102
RTVSPropertyOp49
 70
     1
102
RTVSPropertyOp50
 70
     1
102
RTVSPropertyOp51
 70
     0
102
RTVSPropertyOp52
 70
     0
102
RTVSPropertyOp53
 70
     1
102
RTVSPropertyOp54
 70
     1
102
RTVSPropertyOp55
 70
     1
102
RTVSPropertyOp56
 70
     1
102
RTVSPropertyOp57
 70
     1
102
RTVSPropertyOp58
 70
     1
102
RTVSPropertyOp59
 70
     1
102
RTVSPropertyOp60
 70
     1
102
RTVSPropertyOp61
 70
     1
102
RTVSPropertyOp62
 70
     1
  0
XRECORD
  5
351
102
{ACAD_REACTORS
330
350
102
}
330
350
100
AcDbXrecord
280
     1
102
RTVSPost2010Prop28
280
     0
102
RTVSPost2010PropOp28
 70
     1
102
RTVSPost2010Prop29
280
     1
102
RTVSPost2010PropOp29
 70
     1
102
RTVSPost2010Prop30
280
     1
102
RTVSPost2010PropOp30
 70
     1
102
RTVSPost2010Prop31
280
     0
102
RTVSPost2010PropOp31
 70
     1
102
RTVSPost2010Prop32
280
     0
102
RTVSPost2010PropOp32
 70
     1
102
RTVSPost2010Prop33
280
     0
102
RTVSPost2010PropOp33
 70
     1
102
RTVSPost2010Prop34
280
     0
102
RTVSPost2010PropOp34
 70
     1
102
RTVSPost2010Prop35
280
     0
102
RTVSPost2010PropOp35
 70
     1
102
RTVSPost2010Prop36
280
     0
102
RTVSPost2010PropOp36
 70
     1
102
RTVSPost2010Prop37
 90
       50
102
RTVSPost2010PropOp37
 70
     1
102
RTVSPost2010Prop38
140
0.0
102
RTVSPost2010PropOp38
 70
     1
102
RTVSPost2010Prop39
140
1.0
102
RTVSPost2010PropOp39
 70
     1
102
RTVSPost2010Prop40
 90
        0
102
RTVSPost2010PropOp40
 70
     1
102
RTVSPost2010Prop41ColorIndex
 90
       18
102
RTVSPost2010Prop41ColorRGB
 90
        0
102
RTVSPost2010PropOp41
 70
     1
102
RTVSPost2010Prop42
 90
       50
102
RTVSPost2010PropOp42
 70
     1
102
RTVSPost2010Prop43
 90
        3
102
RTVSPost2010PropOp43
 70
     1
102
RTVSPost2010Prop44ColorIndex
 90
        5
102
RTVSPost2010Prop44ColorRGB
 90
      255
102
RTVSPost2010PropOp44
 70
     1
102
RTVSPost2010Prop45
280
     0
102
RTVSPost2010PropOp45
 70
     1
102
RTVSPost2010Prop46
 90
       50
102
RTVSPost2010PropOp46
 70
     1
102
RTVSPost2010Prop47
 90
       50
102
RTVSPost2010PropOp47
 70
     1
102
RTVSPost2010Prop48
 90
       50
102
RTVSPost2010PropOp48
 70
     1
102
RTVSPost2010Prop49
280
     0
102
RTVSPost2010PropOp49
 70
     1
102
RTVSPost2010Prop50
 90
       50
102
RTVSPost2010PropOp50
 70
     1
102
RTVSPost2010Prop51ColorIndex
 90
      256
102
RTVSPost2010Prop51ColorRGB
 90
-16777216
102
RTVSPost2010PropOp51
 70
     0
102
RTVSPost2010Prop52
140
1.0
102
RTVSPost2010PropOp52
 70
     0
102
RTVSPost2010Prop53
 90
        2
102
RTVSPost2010PropOp53
 70
     1
102
RTVSPost2010Prop54
  1
strokes_ogs.tif
102
RTVSPost2010PropOp54
 70
     1
102
RTVSPost2010Prop55
280
     0
102
RTVSPost2010PropOp55
 70
     1
102
RTVSPost2010Prop56
140
1.0
102
RTVSPost2010PropOp56
 70
     1
102
RTVSPost2010Prop57
140
1.0
102
RTVSPost2010PropOp57
 70
     1
102
RTVSPropertyOp0
 70
     1
102
RTVSPropertyOp1
 70
     1
102
RTVSPropertyOp2
 70
     1
102
RTVSPropertyOp3
 70
     1
102
RTVSPropertyOp4
 70
     1
102
RTVSPropertyOp5
 70
     1
102
RTVSPropertyOp6
 70
     1
102
RTVSPropertyOp7
 70
     1
102
RTVSPropertyOp8
 70
     1
102
RTVSPropertyOp9
 70
     1
102
RTVSPropertyOp10
 70
     1
102
RTVSPropertyOp11
 70
     1
102
RTVSPropertyOp12
 70
     1
102
RTVSPropertyOp13
 70
     1
102
RTVSPropertyOp14
 70
     1
102
RTVSPropertyOp15
 70
     1
102
RTVSPropertyOp16
 70
     1
102
RTVSPropertyOp17
 70
     1
102
RTVSPropertyOp18
 70
     1
102
RTVSPropertyOp19
 70
     1
102
RTVSPropertyOp20
 70
     1
102
RTVSPropertyOp21
 70
     1
102
RTVSPropertyOp22
 70
     1
102
RTVSPropertyOp23
 70
     1
102
RTVSPropertyOp24
 70
     1
102
RTVSPropertyOp25
 70
     1
102
RTVSPropertyOp26
 70
     1
102
RTVSPropertyOp27
 70
     1
102
RTVSPropertyOp28
 70
     1
102
RTVSPropertyOp29
 70
     1
102
RTVSPropertyOp30
 70
     1
102
RTVSPropertyOp31
 70
     1
102
RTVSPropertyOp32
 70
     1
102
RTVSPropertyOp33
 70
     1
102
RTVSPropertyOp34
 70
     1
102
RTVSPropertyOp35
 70
     1
102
RTVSPropertyOp36
 70
     1
102
RTVSPropertyOp37
 70
     1
102
RTVSPropertyOp38
 70
     1
102
RTVSPropertyOp39
 70
     1
102
RTVSPropertyOp40
 70
     1
102
RTVSPropertyOp41
 70
     1
102
RTVSPropertyOp42
 70
     1
102
RTVSPropertyOp43
 70
     1
102
RTVSPropertyOp44
 70
     1
102
RTVSPropertyOp45
 70
     1
102
RTVSPropertyOp46
 70
     1
102
RTVSPropertyOp47
 70
     1
102
RTVSPropertyOp48
 70
     1
102
RTVSPropertyOp49
 70
     1
102
RTVSPropertyOp50
 70
     1
102
RTVSPropertyOp51
 70
     0
102
RTVSPropertyOp52
 70
     0
102
RTVSPropertyOp53
 70
     1
102
RTVSPropertyOp54
 70
     1
102
RTVSPropertyOp55
 70
     1
102
RTVSPropertyOp56
 70
     1
102
RTVSPropertyOp57
 70
     1
102
RTVSPropertyOp58
 70
     1
102
RTVSPropertyOp59
 70
     1
102
RTVSPropertyOp60
 70
     1
102
RTVSPropertyOp61
 70
     1
102
RTVSPropertyOp62
 70
     1
  0
XRECORD
  5
369
102
{ACAD_REACTORS
330
368
102
}
330
368
100
AcDbXrecord
280
     1
102
RTVSPost2010Prop28
280
     0
102
RTVSPost2010PropOp28
 70
     1
102
RTVSPost2010Prop29
280
     1
102
RTVSPost2010PropOp29
 70
     1
102
RTVSPost2010Prop30
280
     1
102
RTVSPost2010PropOp30
 70
     1
102
RTVSPost2010Prop31
280
     0
102
RTVSPost2010PropOp31
 70
     1
102
RTVSPost2010Prop32
280
     0
102
RTVSPost2010PropOp32
 70
     1
102
RTVSPost2010Prop33
280
     0
102
RTVSPost2010PropOp33
 70
     1
102
RTVSPost2010Prop34
280
     0
102
RTVSPost2010PropOp34
 70
     1
102
RTVSPost2010Prop35
280
     0
102
RTVSPost2010PropOp35
 70
     1
102
RTVSPost2010Prop36
280
     0
102
RTVSPost2010PropOp36
 70
     1
102
RTVSPost2010Prop37
 90
       50
102
RTVSPost2010PropOp37
 70
     1
102
RTVSPost2010Prop38
140
0.0
102
RTVSPost2010PropOp38
 70
     1
102
RTVSPost2010Prop39
140
1.0
102
RTVSPost2010PropOp39
 70
     1
102
RTVSPost2010Prop40
 90
        0
102
RTVSPost2010PropOp40
 70
     1
102
RTVSPost2010Prop41ColorIndex
 90
       18
102
RTVSPost2010Prop41ColorRGB
 90
        0
102
RTVSPost2010PropOp41
 70
     1
102
RTVSPost2010Prop42
 90
       50
102
RTVSPost2010PropOp42
 70
     1
102
RTVSPost2010Prop43
 90
        3
102
RTVSPost2010PropOp43
 70
     1
102
RTVSPost2010Prop44ColorIndex
 90
        5
102
RTVSPost2010Prop44ColorRGB
 90
      255
102
RTVSPost2010PropOp44
 70
     1
102
RTVSPost2010Prop45
280
     0
102
RTVSPost2010PropOp45
 70
     1
102
RTVSPost2010Prop46
 90
       50
102
RTVSPost2010PropOp46
 70
     1
102
RTVSPost2010Prop47
 90
       50
102
RTVSPost2010PropOp47
 70
     1
102
RTVSPost2010Prop48
 90
       50
102
RTVSPost2010PropOp48
 70
     1
102
RTVSPost2010Prop49
280
     0
102
RTVSPost2010PropOp49
 70
     1
102
RTVSPost2010Prop50
 90
       50
102
RTVSPost2010PropOp50
 70
     1
102
RTVSPost2010Prop51ColorIndex
 90
      256
102
RTVSPost2010Prop51ColorRGB
 90
-16777216
102
RTVSPost2010PropOp51
 70
     0
102
RTVSPost2010Prop52
140
1.0
102
RTVSPost2010PropOp52
 70
     0
102
RTVSPost2010Prop53
 90
        2
102
RTVSPost2010PropOp53
 70
     1
102
RTVSPost2010Prop54
  1
strokes_ogs.tif
102
RTVSPost2010PropOp54
 70
     1
102
RTVSPost2010Prop55
280
     0
102
RTVSPost2010PropOp55
 70
     1
102
RTVSPost2010Prop56
140
1.0
102
RTVSPost2010PropOp56
 70
     1
102
RTVSPost2010Prop57
140
1.0
102
RTVSPost2010PropOp57
 70
     1
102
RTVSPropertyOp0
 70
     1
102
RTVSPropertyOp1
 70
     1
102
RTVSPropertyOp2
 70
     1
102
RTVSPropertyOp3
 70
     1
102
RTVSPropertyOp4
 70
     1
102
RTVSPropertyOp5
 70
     1
102
RTVSPropertyOp6
 70
     1
102
RTVSPropertyOp7
 70
     1
102
RTVSPropertyOp8
 70
     1
102
RTVSPropertyOp9
 70
     1
102
RTVSPropertyOp10
 70
     1
102
RTVSPropertyOp11
 70
     1
102
RTVSPropertyOp12
 70
     1
102
RTVSPropertyOp13
 70
     1
102
RTVSPropertyOp14
 70
     1
102
RTVSPropertyOp15
 70
     1
102
RTVSPropertyOp16
 70
     1
102
RTVSPropertyOp17
 70
     1
102
RTVSPropertyOp18
 70
     1
102
RTVSPropertyOp19
 70
     1
102
RTVSPropertyOp20
 70
     1
102
RTVSPropertyOp21
 70
     1
102
RTVSPropertyOp22
 70
     1
102
RTVSPropertyOp23
 70
     1
102
RTVSPropertyOp24
 70
     1
102
RTVSPropertyOp25
 70
     1
102
RTVSPropertyOp26
 70
     1
102
RTVSPropertyOp27
 70
     1
102
RTVSPropertyOp28
 70
     1
102
RTVSPropertyOp29
 70
     1
102
RTVSPropertyOp30
 70
     1
102
RTVSPropertyOp31
 70
     1
102
RTVSPropertyOp32
 70
     1
102
RTVSPropertyOp33
 70
     1
102
RTVSPropertyOp34
 70
     1
102
RTVSPropertyOp35
 70
     1
102
RTVSPropertyOp36
 70
     1
102
RTVSPropertyOp37
 70
     1
102
RTVSPropertyOp38
 70
     1
102
RTVSPropertyOp39
 70
     1
102
RTVSPropertyOp40
 70
     1
102
RTVSPropertyOp41
 70
     1
102
RTVSPropertyOp42
 70
     1
102
RTVSPropertyOp43
 70
     1
102
RTVSPropertyOp44
 70
     1
102
RTVSPropertyOp45
 70
     1
102
RTVSPropertyOp46
 70
     1
102
RTVSPropertyOp47
 70
     1
102
RTVSPropertyOp48
 70
     1
102
RTVSPropertyOp49
 70
     1
102
RTVSPropertyOp50
 70
     1
102
RTVSPropertyOp51
 70
     0
102
RTVSPropertyOp52
 70
     0
102
RTVSPropertyOp53
 70
     1
102
RTVSPropertyOp54
 70
     1
102
RTVSPropertyOp55
 70
     1
102
RTVSPropertyOp56
 70
     1
102
RTVSPropertyOp57
 70
     1
102
RTVSPropertyOp58
 70
     1
102
RTVSPropertyOp59
 70
     1
102
RTVSPropertyOp60
 70
     1
102
RTVSPropertyOp61
 70
     1
102
RTVSPropertyOp62
 70
     1
  0
ENDSEC
  0
EOF
