  0
SECTION
  2
HEADER
  9
$ACADVER
  1
AC1018
  9
$ACADMAINTVER
 70
   104
  9
$DWGCODEPAGE
  3
ANSI_932
  9
$INSBASE
 10
0.0
 20
0.0
 30
0.0
  9
$EXTMIN
 10
-0.03458863
 20
-0.02459604
 30
-0.00000003
  9
$EXTMAX
 10
566.76060691
 20
403.0246098
 30
0.00000008
  9
$LIMMIN
 10
0.0
 20
0.0
  9
$LIMMAX
 10
420.0
 20
297.0
  9
$ORTHOMODE
 70
     0
  9
$REGENMODE
 70
     1
  9
$FILLMODE
 70
     1
  9
$QTEXTMODE
 70
     0
  9
$MIRRTEXT
 70
     0
  9
$LTSCALE
 40
1.0
  9
$ATTMODE
 70
     1
  9
$TEXTSIZE
 40
3.0
  9
$TRACEWID
 40
1.0
  9
$TEXTSTYLE
  7
STANDARD
  9
$CLAYER
  8
0
  9
$CELTYPE
  6
BYLAYER
  9
$CECOLOR
 62
   256
  9
$CELTSCALE
 40
1.0
  9
$DISPSILH
 70
     1
  9
$DIMSCALE
 40
1.0
  9
$DIMASZ
 40
1.5
  9
$DIMEXO
 40
2.0
  9
$DIMDLI
 40
10.0
  9
$DIMRND
 40
0.0
  9
$DIMDLE
 40
0.0
  9
$DIMEXE
 40
2.0
  9
$DIMTP
 40
0.0
  9
$DIMTM
 40
0.0
  9
$DIMTXT
 40
3.0
  9
$DIMCEN
 40
0.0
  9
$DIMTSZ
 40
0.0
  9
$DIMTOL
 70
     0
  9
$DIMLIM
 70
     0
  9
$DIMTIH
 70
     0
  9
$DIMTOH
 70
     0
  9
$DIMSE1
 70
     0
  9
$DIMSE2
 70
     0
  9
$DIMTAD
 70
     0
  9
$DIMZIN
 70
     0
  9
$DIMBLK
  1

  9
$DIMASO
 70
     1
  9
$DIMSHO
 70
     1
  9
$DIMPOST
  1

  9
$DIMAPOST
  1

  9
$DIMALT
 70
     0
  9
$DIMALTD
 70
     2
  9
$DIMALTF
 40
0.0394
  9
$DIMLFAC
 40
1.0
  9
$DIMTOFL
 70
     1
  9
$DIMTVP
 40
1.0
  9
$DIMTIX
 70
     0
  9
$DIMSOXD
 70
     0
  9
$DIMSAH
 70
     1
  9
$DIMBLK1
  1
DOT1
  9
$DIMBLK2
  1
DOT1
  9
$DIMSTYLE
  2
YKK_OSADOT
  9
$DIMCLRD
 70
     0
  9
$DIMCLRE
 70
     0
  9
$DIMCLRT
 70
     0
  9
$DIMTFAC
 40
1.0
  9
$DIMGAP
 40
0.01
  9
$DIMJUST
 70
     0
  9
$DIMSD1
 70
     0
  9
$DIMSD2
 70
     0
  9
$DIMTOLJ
 70
     1
  9
$DIMTZIN
 70
    12
  9
$DIMALTZ
 70
    12
  9
$DIMALTTZ
 70
    12
  9
$DIMUPT
 70
     0
  9
$DIMDEC
 70
     4
  9
$DIMTDEC
 70
     4
  9
$DIMALTU
 70
     2
  9
$DIMALTTD
 70
     2
  9
$DIMTXSTY
  7
STANDARD
  9
$DIMAUNIT
 70
     0
  9
$DIMADEC
 70
     0
  9
$DIMALTRND
 40
0.0
  9
$DIMAZIN
 70
     0
  9
$DIMDSEP
 70
    46
  9
$DIMATFIT
 70
     3
  9
$DIMFRAC
 70
     0
  9
$DIMLDRBLK
  1

  9
$DIMLUNIT
 70
     2
  9
$DIMLWD
 70
    -2
  9
$DIMLWE
 70
    -2
  9
$DIMTMOVE
 70
     2
  9
$LUNITS
 70
     2
  9
$LUPREC
 70
     4
  9
$SKETCHINC
 40
1.0
  9
$FILLETRAD
 40
0.0
  9
$AUNITS
 70
     0
  9
$AUPREC
 70
     0
  9
$MENU
  1
.
  9
$ELEVATION
 40
0.0
  9
$PELEVATION
 40
0.0
  9
$THICKNESS
 40
0.0
  9
$LIMCHECK
 70
     0
  9
$CHAMFERA
 40
0.0
  9
$CHAMFERB
 40
0.0
  9
$CHAMFERC
 40
0.0
  9
$CHAMFERD
 40
0.0
  9
$SKPOLY
 70
     0
  9
$TDCREATE
 40
2452591.511588311
  9
$TDUCREATE
 40
2452591.136588310
  9
$TDUPDATE
 40
2457151.456937917
  9
$TDUUPDATE
 40
2457151.081937917
  9
$TDINDWG
 40
0.0047613426
  9
$TDUSRTIMER
 40
0.0047613426
  9
$USRTIMER
 70
     1
  9
$ANGBASE
 50
0.0
  9
$ANGDIR
 70
     0
  9
$PDMODE
 70
     0
  9
$PDSIZE
 40
0.0
  9
$PLINEWID
 40
0.0
  9
$SPLFRAME
 70
     0
  9
$SPLINETYPE
 70
     6
  9
$SPLINESEGS
 70
     8
  9
$HANDSEED
  5
537
  9
$SURFTAB1
 70
     6
  9
$SURFTAB2
 70
     6
  9
$SURFTYPE
 70
     6
  9
$SURFU
 70
     6
  9
$SURFV
 70
     6
  9
$UCSBASE
  2

  9
$UCSNAME
  2

  9
$UCSORG
 10
0.0
 20
0.0
 30
0.0
  9
$UCSXDIR
 10
1.0
 20
0.0
 30
0.0
  9
$UCSYDIR
 10
0.0
 20
1.0
 30
0.0
  9
$UCSORTHOREF
  2

  9
$UCSORTHOVIEW
 70
     0
  9
$UCSORGTOP
 10
0.0
 20
0.0
 30
0.0
  9
$UCSORGBOTTOM
 10
0.0
 20
0.0
 30
0.0
  9
$UCSORGLEFT
 10
0.0
 20
0.0
 30
0.0
  9
$UCSORGRIGHT
 10
0.0
 20
0.0
 30
0.0
  9
$UCSORGFRONT
 10
0.0
 20
0.0
 30
0.0
  9
$UCSORGBACK
 10
0.0
 20
0.0
 30
0.0
  9
$PUCSBASE
  2

  9
$PUCSNAME
  2

  9
$PUCSORG
 10
0.0
 20
0.0
 30
0.0
  9
$PUCSXDIR
 10
1.0
 20
0.0
 30
0.0
  9
$PUCSYDIR
 10
0.0
 20
1.0
 30
0.0
  9
$PUCSORTHOREF
  2

  9
$PUCSORTHOVIEW
 70
     0
  9
$PUCSORGTOP
 10
0.0
 20
0.0
 30
0.0
  9
$PUCSORGBOTTOM
 10
0.0
 20
0.0
 30
0.0
  9
$PUCSORGLEFT
 10
0.0
 20
0.0
 30
0.0
  9
$PUCSORGRIGHT
 10
0.0
 20
0.0
 30
0.0
  9
$PUCSORGFRONT
 10
0.0
 20
0.0
 30
0.0
  9
$PUCSORGBACK
 10
0.0
 20
0.0
 30
0.0
  9
$USERI1
 70
     0
  9
$USERI2
 70
     1
  9
$USERI3
 70
     0
  9
$USERI4
 70
     0
  9
$USERI5
 70
     0
  9
$USERR1
 40
0.0
  9
$USERR2
 40
0.0
  9
$USERR3
 40
0.0
  9
$USERR4
 40
0.0
  9
$USERR5
 40
0.0
  9
$WORLDVIEW
 70
     1
  9
$SHADEDGE
 70
     3
  9
$SHADEDIF
 70
    70
  9
$TILEMODE
 70
     1
  9
$MAXACTVP
 70
    48
  9
$PINSBASE
 10
0.0
 20
0.0
 30
0.0
  9
$PLIMCHECK
 70
     0
  9
$PEXTMIN
 10
1.00000000E+20
 20
1.00000000E+20
 30
1.00000000E+20
  9
$PEXTMAX
 10
-1.00000000E+20
 20
-1.00000000E+20
 30
-1.00000000E+20
  9
$PLIMMIN
 10
0.0
 20
0.0
  9
$PLIMMAX
 10
420.0
 20
297.0
  9
$UNITMODE
 70
     0
  9
$VISRETAIN
 70
     1
  9
$PLINEGEN
 70
     0
  9
$PSLTSCALE
 70
     1
  9
$TREEDEPTH
 70
  3020
  9
$CMLSTYLE
  2
STANDARD
  9
$CMLJUST
 70
     0
  9
$CMLSCALE
 40
1.0
  9
$PROXYGRAPHICS
 70
     1
  9
$MEASUREMENT
 70
     1
  9
$CELWEIGHT
370
    -1
  9
$ENDCAPS
280
     0
  9
$JOINSTYLE
280
     0
  9
$LWDISPLAY
290
     0
  9
$INSUNITS
 70
     0
  9
$HYPERLINKBASE
  1

  9
$STYLESHEET
  1

  9
$XEDIT
290
     1
  9
$CEPSNTYPE
380
     0
  9
$PSTYLEMODE
290
     1
  9
$FINGERPRINTGUID
  2
{C2CDEF30-65D3-485D-8E93-5F75FE51D9F7}
  9
$VERSIONGUID
  2
{7D51C76B-7636-4F37-81E8-5D124B237E1E}
  9
$EXTNAMES
290
     1
  9
$PSVPSCALE
 40
0.0
  9
$OLESTARTUP
290
     0
  9
$SORTENTS
280
   127
  9
$INDEXCTL
280
     0
  9
$HIDETEXT
280
     0
  9
$XCLIPFRAME
290
     0
  9
$HALOGAP
280
     0
  9
$OBSCOLOR
 70
   257
  9
$OBSLTYPE
280
     0
  9
$INTERSECTIONDISPLAY
280
     0
  9
$INTERSECTIONCOLOR
 70
   257
  9
$DIMASSOC
280
     1
  9
$PROJECTNAME
  1

  0
ENDSEC
  0
SECTION
  2
CLASSES
  0
CLASS
  1
DICTIONARYVAR
  2
AcDbDictionaryVar
  3
ObjectDBX Classes
 90
        0
 91
        7
280
     0
281
     0
  0
CLASS
  1
ACDBDICTIONARYWDFLT
  2
AcDbDictionaryWithDefault
  3
ObjectDBX Classes
 90
        0
 91
        1
280
     1
281
     0
  0
CLASS
  1
MATERIAL
  2
AcDbMaterial
  3
ObjectDBX Classes
 90
     1153
 91
        3
280
     0
281
     0
  0
CLASS
  1
VISUALSTYLE
  2
AcDbVisualStyle
  3
ObjectDBX Classes
 90
     4095
 91
       24
280
     0
281
     0
  0
CLASS
  1
TABLESTYLE
  2
AcDbTableStyle
  3
ObjectDBX Classes
 90
     4095
 91
        1
280
     0
281
     0
  0
CLASS
  1
SCALE
  2
AcDbScale
  3
ObjectDBX Classes
 90
     1153
 91
       17
280
     0
281
     0
  0
CLASS
  1
MLEADERSTYLE
  2
AcDbMLeaderStyle
  3
ACDB_MLEADERSTYLE_CLASS
 90
     4095
 91
        1
280
     0
281
     0
  0
CLASS
  1
ACDBSECTIONVIEWSTYLE
  2
AcDbSectionViewStyle
  3
ObjectDBX Classes
 90
     1025
 91
        1
280
     0
281
     0
  0
CLASS
  1
ACDBDETAILVIEWSTYLE
  2
AcDbDetailViewStyle
  3
ObjectDBX Classes
 90
     1025
 91
        1
280
     0
281
     0
  0
CLASS
  1
CELLSTYLEMAP
  2
AcDbCellStyleMap
  3
ObjectDBX Classes
 90
     1152
 91
        2
280
     0
281
     0
  0
ENDSEC
  0
SECTION
  2
TABLES
  0
TABLE
  2
VPORT
  5
16
330
0
100
AcDbSymbolTable
 70
     1
  0
VPORT
  5
455
330
16
100
AcDbSymbolTableRecord
100
AcDbViewportTableRecord
  2
*ACTIVE
 70
     0
 10
0.0
 20
0.0
 11
1.0
 21
1.0
 12
283.36300914
 22
201.50000688
 13
0.0
 23
0.0
 14
10.0
 24
10.0
 15
10.0
 25
10.0
 16
0.0
 26
0.0
 36
1.0
 17
0.0
 27
0.0
 37
0.0
 40
406.54890951
 41
1.45652174
 42
50.0
 43
0.0
 44
0.0
 50
0.0
 51
0.0
 71
     0
 72
  1000
 73
     1
 74
     0
 75
     0
 76
     0
 77
     0
 78
     0
281
     0
 65
     1
110
0.0
120
0.0
130
0.0
111
1.0
121
0.0
131
0.0
112
0.0
122
1.0
132
0.0
 79
     0
146
0.0
1001
ACAD_NAV_VCDISPLAY
1070
     1
  0
ENDTAB
  0
TABLE
  2
LTYPE
  5
11
330
0
100
AcDbSymbolTable
 70
     4
  0
LTYPE
  5
12
330
11
100
AcDbSymbolTableRecord
100
AcDbLinetypeTableRecord
  2
BYBLOCK
 70
     0
  3

 72
    65
 73
     0
 40
0.0
  0
LTYPE
  5
13
330
11
100
AcDbSymbolTableRecord
100
AcDbLinetypeTableRecord
  2
BYLAYER
 70
     0
  3

 72
    65
 73
     0
 40
0.0
  0
LTYPE
  5
7
330
11
100
AcDbSymbolTableRecord
100
AcDbLinetypeTableRecord
  2
CONTINUOUS
 70
     0
  3
Solid line
 72
    65
 73
     0
 40
0.0
  0
LTYPE
  5
3C
330
11
100
AcDbSymbolTableRecord
100
AcDbLinetypeTableRecord
  2
HIDDEN
 70
     0
  3
__ __ __ __ __ __ __ __ __ __ __ __ __ __ __ __
 72
    65
 73
     2
 40
0.375
 49
0.25
 74
     0
 49
-0.125
 74
     0
  0
LTYPE
  5
F9
330
11
100
AcDbSymbolTableRecord
100
AcDbLinetypeTableRecord
  2
YCENTER_1
 70
     0
  3
中心線尺度1--- － --- － ---
 72
    65
 73
     4
 40
13.0
 49
10.0
 74
     0
 49
-1.0
 74
     0
 49
1.0
 74
     0
 49
-1.0
 74
     0
  0
LTYPE
  5
112
330
11
100
AcDbSymbolTableRecord
100
AcDbLinetypeTableRecord
  2
YHIDDEN_1
 70
     0
  3
破線尺度1－ － － － － － －
 72
    65
 73
     2
 40
4.0
 49
3.0
 74
     0
 49
-1.0
 74
     0
  0
ENDTAB
  0
TABLE
  2
LAYER
  5
E
330
0
100
AcDbSymbolTable
 70
     8
  0
LAYER
  5
6
330
E
100
AcDbSymbolTableRecord
100
AcDbLayerTableRecord
  2
0
 70
     0
 62
     7
  6
CONTINUOUS
370
    -3
390
458
  0
LAYER
  5
33
330
E
100
AcDbSymbolTableRecord
100
AcDbLayerTableRecord
  2
YKK_ZWAK
 70
     0
 62
     7
  6
CONTINUOUS
370
    -3
390
458
  0
LAYER
  5
31
330
E
100
AcDbSymbolTableRecord
100
AcDbLayerTableRecord
  2
USER1
 70
     0
 62
     3
  6
CONTINUOUS
370
    -3
390
458
  0
LAYER
  5
2C
330
E
100
AcDbSymbolTableRecord
100
AcDbLayerTableRecord
  2
YKK_11
 70
     0
 62
     7
  6
CONTINUOUS
370
    -3
390
458
  0
LAYER
  5
EF
330
E
100
AcDbSymbolTableRecord
100
AcDbLayerTableRecord
  2
YKK_12
 70
     0
 62
     2
  6
CONTINUOUS
370
    -3
390
458
  0
LAYER
  5
F8
330
E
100
AcDbSymbolTableRecord
100
AcDbLayerTableRecord
  2
YKK_13
 70
     0
 62
     4
  6
CONTINUOUS
370
    -3
390
458
  0
LAYER
  5
F1
330
E
100
AcDbSymbolTableRecord
100
AcDbLayerTableRecord
  2
YKK_A1
 70
     0
 62
     4
  6
CONTINUOUS
370
    -3
390
458
  0
LAYER
  5
FC
330
E
100
AcDbSymbolTableRecord
100
AcDbLayerTableRecord
  2
YKK_D
 70
     0
 62
     6
  6
CONTINUOUS
370
    -3
390
458
  0
ENDTAB
  0
TABLE
  2
STYLE
  5
F
330
0
100
AcDbSymbolTable
 70
     2
  0
STYLE
  5
10
330
F
100
AcDbSymbolTableRecord
100
AcDbTextStyleTableRecord
  2
STANDARD
 70
     0
 40
0.0
 41
1.0
 50
0.0
 71
     0
 42
3.0
  3
ROMANS.SHX
  4
EXTFONT.SHX
  0
STYLE
  5
42
330
F
100
AcDbSymbolTableRecord
100
AcDbTextStyleTableRecord
  2
YKK_OSSTYLE1
 70
     0
 40
0.0
 41
0.9
 50
0.0
 71
     0
 42
4.0
  3
romans.shx
  4
EXTFONT.SHX
  0
ENDTAB
  0
TABLE
  2
VIEW
  5
14
330
0
100
AcDbSymbolTable
 70
     0
  0
ENDTAB
  0
TABLE
  2
UCS
  5
15
330
0
100
AcDbSymbolTable
 70
     0
  0
ENDTAB
  0
TABLE
  2
APPID
  5
18
330
0
100
AcDbSymbolTable
 70
     7
  0
APPID
  5
19
330
18
100
AcDbSymbolTableRecord
100
AcDbRegAppTableRecord
  2
ACAD
 70
     0
  0
APPID
  5
452
330
18
100
AcDbSymbolTableRecord
100
AcDbRegAppTableRecord
  2
CONTENTTABDATA
 70
     0
  0
APPID
  5
453
330
18
100
AcDbSymbolTableRecord
100
AcDbRegAppTableRecord
  2
CONTENTCURRENTTAB
 70
     0
  0
APPID
  5
4E3
330
18
100
AcDbSymbolTableRecord
100
AcDbRegAppTableRecord
  2
ACAD_MLEADERVER
 70
     0
  0
APPID
  5
4F7
330
18
100
AcDbSymbolTableRecord
100
AcDbRegAppTableRecord
  2
ACAD_PSEXT
 70
     0
  0
APPID
  5
4F8
330
18
100
AcDbSymbolTableRecord
100
AcDbRegAppTableRecord
  2
ACAD_NAV_VCDISPLAY
 70
     0
  0
APPID
  5
4F9
330
18
100
AcDbSymbolTableRecord
100
AcDbRegAppTableRecord
  2
YKK_AP_LOCKLAYER
 70
     0
  0
ENDTAB
  0
TABLE
  2
DIMSTYLE
  5
1A
330
0
100
AcDbSymbolTable
 70
     1
100
AcDbDimStyleTable
 71
     0
  0
DIMSTYLE
105
22
330
1A
100
AcDbSymbolTableRecord
100
AcDbDimStyleTableRecord
  2
YKK_OSADOT
 70
     0
 41
1.5
 42
2.0
 43
10.0
 44
2.0
 73
     0
 74
     0
 78
    12
140
3.0
141
0.0
143
0.0394
145
1.0
147
0.01
172
     1
173
     1
279
     2
284
    12
285
    12
286
    12
340
10
341
25
343
25
344
25
  0
ENDTAB
  0
TABLE
  2
BLOCK_RECORD
  5
1
330
0
100
AcDbSymbolTable
 70
     2
  0
BLOCK_RECORD
  5
2
102
{ACAD_XDICTIONARY
360
3
102
}
330
1
100
AcDbSymbolTableRecord
100
AcDbBlockTableRecord
  2
*MODEL_SPACE
340
4AA
  0
BLOCK_RECORD
  5
9
102
{ACAD_XDICTIONARY
360
A
102
}
330
1
100
AcDbSymbolTableRecord
100
AcDbBlockTableRecord
  2
*PAPER_SPACE
340
4AB
  0
BLOCK_RECORD
  5
25
330
1
100
AcDbSymbolTableRecord
100
AcDbBlockTableRecord
  2
DOT1
340
0
  0
BLOCK_RECORD
  5
34
330
1
100
AcDbSymbolTableRecord
100
AcDbBlockTableRecord
  2
A201
340
0
102
{BLKREFS
331
32
102
}
  0
ENDTAB
  0
ENDSEC
  0
SECTION
  2
BLOCKS
  0
BLOCK
  5
5
330
2
100
AcDbEntity
  8
0
100
AcDbBlockBegin
  2
*MODEL_SPACE
 70
     0
 10
0.0
 20
0.0
 30
0.0
  3
*MODEL_SPACE
  1

  0
ENDBLK
  5
8
330
2
100
AcDbEntity
  8
0
100
AcDbBlockEnd
  0
BLOCK
  5
C
330
9
100
AcDbEntity
 67
     1
  8
0
100
AcDbBlockBegin
  2
*PAPER_SPACE
 70
     0
 10
0.0
 20
0.0
 30
0.0
  3
*PAPER_SPACE
  1

  0
ENDBLK
  5
D
330
9
100
AcDbEntity
 67
     1
  8
0
100
AcDbBlockEnd
  0
BLOCK
  5
29
330
25
100
AcDbEntity
  8
0
100
AcDbBlockBegin
  2
DOT1
 70
     0
 10
0.0
 20
0.0
 30
0.0
  3
DOT1
  1

  0
CIRCLE
  5
26
330
25
100
AcDbEntity
  8
0
  6
ByBlock
 62
     0
370
    -2
100
AcDbCircle
 10
0.0
 20
0.0
 30
0.0
 40
0.5
  0
CIRCLE
  5
27
330
25
100
AcDbEntity
  8
0
  6
ByBlock
 62
     0
370
    -2
100
AcDbCircle
 10
0.0
 20
0.0
 30
0.0
 40
0.325
  0
LINE
  5
28
330
25
100
AcDbEntity
  8
0
  6
ByBlock
 62
     0
370
    -2
100
AcDbLine
 10
0.0
 20
0.0
 30
0.0
 11
-1.0
 21
0.0
 31
0.0
  0
ENDBLK
  5
2A
330
25
100
AcDbEntity
  8
0
100
AcDbBlockEnd
  0
BLOCK
  5
EC
330
34
100
AcDbEntity
  8
0
100
AcDbBlockBegin
  2
A201
 70
     0
 10
0.0
 20
0.0
 30
0.0
  3
A201
  1

  0
LINE
  5
35
330
34
100
AcDbEntity
  8
YKK_ZWAK
  6
Continuous
 62
   254
100
AcDbLine
 10
21.000001
 20
8.9995
 30
0.0
 11
544.000013
 21
8.9995
 31
0.0
  0
LINE
  5
36
330
34
100
AcDbEntity
  8
YKK_ZWAK
  6
Continuous
 62
   131
100
AcDbLine
 10
205.000005
 20
21.000001
 30
0.0
 11
297.000007
 21
21.000001
 31
0.0
  0
LINE
  5
37
330
34
100
AcDbEntity
  8
YKK_ZWAK
  6
Continuous
 62
   254
100
AcDbLine
 10
571.000014
 20
34.999501
 30
0.0
 11
21.000001
 21
34.999501
 31
0.0
  0
LINE
  5
38
330
34
100
AcDbEntity
  8
YKK_ZWAK
  6
Continuous
 62
   254
100
AcDbLine
 10
544.000013
 20
33.999501
 30
0.0
 11
21.000001
 21
33.999501
 31
0.0
  0
LINE
  5
39
330
34
100
AcDbEntity
  8
YKK_ZWAK
  6
Continuous
 62
   254
100
AcDbLine
 10
571.000014
 20
409.99951
 30
0.0
 11
21.000001
 21
409.99951
 31
0.0
  0
LINE
  5
3A
330
34
100
AcDbEntity
  8
YKK_ZWAK
  6
Continuous
 62
   254
100
AcDbLine
 10
21.000001
 20
34.999501
 30
0.0
 11
21.000001
 21
409.99951
 31
0.0
  0
LINE
  5
3B
330
34
100
AcDbEntity
  8
YKK_ZWAK
  6
HIDDEN
 62
   131
100
AcDbLine
 10
24.284751
 20
13.7865
 30
0.0
 11
201.565005
 21
13.7865
 31
0.0
  0
LINE
  5
3D
330
34
100
AcDbEntity
  8
YKK_ZWAK
  6
HIDDEN
 62
   131
100
AcDbLine
 10
24.284751
 20
18.7355
 30
0.0
 11
201.565005
 21
18.7355
 31
0.0
  0
LINE
  5
3E
330
34
100
AcDbEntity
  8
YKK_ZWAK
  6
HIDDEN
 62
   131
100
AcDbLine
 10
24.284751
 20
23.684501
 30
0.0
 11
201.565005
 21
23.684501
 31
0.0
  0
LINE
  5
3F
330
34
100
AcDbEntity
  8
YKK_ZWAK
  6
HIDDEN
 62
   131
100
AcDbLine
 10
24.284751
 20
28.633501
 30
0.0
 11
201.565005
 21
28.633501
 31
0.0
  0
LINE
  5
40
330
34
100
AcDbEntity
  8
YKK_ZWAK
  6
Continuous
 62
   254
100
AcDbLine
 10
21.000001
 20
8.9995
 30
0.0
 11
21.000001
 21
33.999501
 31
0.0
  0
TEXT
  5
41
330
34
100
AcDbEntity
  8
YKK_ZWAK
  6
Continuous
 62
   131
100
AcDbText
 10
24.367481
 20
29.394844
 30
0.0
 40
3.0
  1
変 更 記 事
 41
0.9
  7
YKK_OSSTYLE1
100
AcDbText
  0
TEXT
  5
43
330
34
100
AcDbEntity
  8
YKK_ZWAK
  6
Continuous
 62
   254
100
AcDbText
 10
289.94159
 20
12.3725
 30
0.0
 40
5.0
  1
殿
 41
0.9
  7
YKK_OSSTYLE1
100
AcDbText
  0
LINE
  5
44
330
34
100
AcDbEntity
  8
YKK_ZWAK
  6
Continuous
 62
   254
100
AcDbLine
 10
296.000007
 20
33.999501
 30
0.0
 11
296.000007
 21
8.9995
 31
0.0
  0
LINE
  5
45
330
34
100
AcDbEntity
  8
YKK_ZWAK
  6
Continuous
 62
   254
100
AcDbLine
 10
205.000005
 20
33.999501
 30
0.0
 11
205.000005
 21
8.9995
 31
0.0
  0
TEXT
  5
46
330
34
100
AcDbEntity
  8
YKK_ZWAK
  6
Continuous
 62
   131
100
AcDbText
 10
207.692335
 20
17.675001
 30
0.0
 40
3.0
  1
施　　工
 41
0.9
  7
YKK_OSSTYLE1
100
AcDbText
  0
TEXT
  5
47
330
34
100
AcDbEntity
  8
YKK_ZWAK
  6
Continuous
 62
   131
100
AcDbText
 10
207.692335
 20
30.047503
 30
0.0
 40
3.0
  1
設計監理
 41
0.9
  7
YKK_OSSTYLE1
100
AcDbText
  0
TEXT
  5
48
330
34
100
AcDbEntity
  8
YKK_ZWAK
  6
Continuous
 62
   254
100
AcDbText
 10
289.94159
 20
24.745001
 30
0.0
 40
5.0
  1
殿
 41
0.9
  7
YKK_OSSTYLE1
100
AcDbText
  0
LINE
  5
49
330
34
100
AcDbEntity
  8
YKK_ZWAK
  6
Continuous
 62
   254
100
AcDbLine
 10
19.000001
 20
222.4995055
 30
0.0
 11
21.000001
 21
222.4995055
 31
0.0
  0
LINE
  5
4A
330
34
100
AcDbEntity
  8
YKK_ZWAK
  6
Continuous
 62
     8
100
AcDbLine
 10
296.010007
 20
411.99951
 30
0.0
 11
296.010007
 21
409.99951
 31
0.0
  0
LINE
  5
4B
330
34
100
AcDbEntity
  8
YKK_ZWAK
  6
Continuous
 62
   254
100
AcDbLine
 10
571.000014
 20
409.99951
 30
0.0
 11
571.000014
 21
34.999501
 31
0.0
  0
LINE
  5
4C
330
34
100
AcDbEntity
  8
YKK_ZWAK
  6
Continuous
 62
   254
100
AcDbLine
 10
452.000011
 20
15.9995
 30
0.0
 11
523.999763
 21
15.9995
 31
0.0
  0
LINE
  5
4D
330
34
100
AcDbEntity
  8
YKK_ZWAK
  6
Continuous
 62
   131
100
AcDbLine
 10
437.703011
 20
29.000001
 30
0.0
 11
389.00001
 21
29.000001
 31
0.0
  0
LINE
  5
4E
330
34
100
AcDbEntity
  8
YKK_ZWAK
  6
Continuous
 62
   254
100
AcDbLine
 10
389.00001
 20
33.999501
 30
0.0
 11
389.00001
 21
8.9995
 31
0.0
  0
LINE
  5
4F
330
34
100
AcDbEntity
  8
YKK_ZWAK
  6
Continuous
 62
   131
100
AcDbLine
 10
297.000007
 20
21.000001
 30
0.0
 11
389.00001
 21
21.000001
 31
0.0
  0
TEXT
  5
50
330
34
100
AcDbEntity
  8
YKK_ZWAK
  6
Continuous
 62
   131
100
AcDbText
 10
298.58378403
 20
17.465002
 30
0.0
 40
3.0
  1
図面内容
 41
0.9
  7
YKK_OSSTYLE1
100
AcDbText
  0
TEXT
  5
51
330
34
100
AcDbEntity
  8
YKK_ZWAK
  6
Continuous
 62
   131
100
AcDbText
 10
298.86588
 20
30.047503
 30
0.0
 40
3.0
  1
工 事 名
 41
0.9
  7
YKK_OSSTYLE1
100
AcDbText
  0
TEXT
  5
52
330
34
100
AcDbEntity
  8
YKK_ZWAK
  6
Continuous
 62
   254
100
AcDbText
 10
377.16530176
 20
24.745001
 30
0.0
 40
5.0
  1
工事
 41
0.9
  7
YKK_OSSTYLE1
100
AcDbText
  0
LINE
  5
53
330
34
100
AcDbEntity
  8
YKK_ZWAK
  6
Continuous
 62
   254
100
AcDbLine
 10
452.000011
 20
33.999501
 30
0.0
 11
452.000011
 21
8.9995
 31
0.0
  0
LINE
  5
54
330
34
100
AcDbEntity
  8
YKK_ZWAK
  6
Continuous
 62
   254
100
AcDbLine
 10
437.000011
 20
33.999501
 30
0.0
 11
437.000011
 21
8.9995
 31
0.0
  0
LINE
  5
55
330
34
100
AcDbEntity
  8
YKK_ZWAK
  6
Continuous
 62
   131
100
AcDbLine
 10
443.051603
 20
10.181617
 30
0.0
 11
449.854371
 21
16.984384
 31
0.0
  0
LINE
  5
56
330
34
100
AcDbEntity
  8
YKK_ZWAK
  6
Continuous
 62
   131
100
AcDbLine
 10
421.00001
 20
33.999501
 30
0.0
 11
421.00001
 21
8.9995
 31
0.0
  0
LINE
  5
57
330
34
100
AcDbEntity
  8
YKK_ZWAK
  6
Continuous
 62
   131
100
AcDbLine
 10
405.00001
 20
33.999501
 30
0.0
 11
405.00001
 21
8.9995
 31
0.0
  0
TEXT
  5
58
330
34
100
AcDbEntity
  8
YKK_ZWAK
  6
Continuous
 62
   131
100
AcDbText
 10
392.18209354
 20
9.752325
 30
0.0
 40
3.5
  1
 ． ．
 41
0.9
  7
YKK_OSSTYLE1
100
AcDbText
  0
LINE
  5
59
330
34
100
AcDbEntity
  8
YKK_ZWAK
  6
Continuous
 62
   131
100
AcDbLine
 10
455.5999986
 20
10.4995
 30
0.0
 11
455.5999986
 21
8.9995
 31
0.0
  0
TEXT
  5
5A
330
34
100
AcDbEntity
  8
YKK_ZWAK
  6
Continuous
 62
   131
100
AcDbText
 10
407.8246491
 20
29.87075
 30
0.0
 40
3.0
  1
担  当
 41
0.9
  7
YKK_OSSTYLE1
100
AcDbText
  0
TEXT
  5
5B
330
34
100
AcDbEntity
  8
YKK_ZWAK
  6
Continuous
 62
   131
100
AcDbText
 10
392.5636631
 20
29.87075
 30
0.0
 40
3.0
  1
照  査
 41
0.9
  7
YKK_OSSTYLE1
100
AcDbText
  0
TEXT
  5
5C
330
34
100
AcDbEntity
  8
YKK_ZWAK
  6
Continuous
 62
   131
100
AcDbText
 10
424.0856971
 20
29.883751
 30
0.0
 40
3.0
  1
作  図
 41
0.9
  7
YKK_OSSTYLE1
100
AcDbText
  0
TEXT
  5
5D
330
34
100
AcDbEntity
  8
YKK_ZWAK
  6
Continuous
 62
   131
100
AcDbText
 10
453.905095
 20
30.047501
 30
0.0
 40
3.0
  1
御承認印
 41
0.9
  7
YKK_OSSTYLE1
100
AcDbText
  0
LINE
  5
5E
330
34
100
AcDbEntity
  8
YKK_ZWAK
  6
Continuous
 62
   131
100
AcDbLine
 10
437.703011
 20
29.000001
 30
0.0
 11
452.000011
 21
29.000001
 31
0.0
  0
LINE
  5
5F
330
34
100
AcDbEntity
  8
YKK_ZWAK
  6
Continuous
 62
   131
100
AcDbLine
 10
439.264403
 20
21.330812
 30
0.0
 11
446.188247
 21
28.254656
 31
0.0
  0
TEXT
  5
60
330
34
100
AcDbEntity
  8
YKK_ZWAK
  6
Continuous
 62
   131
100
AcDbText
 10
439.5087681
 20
30.044463
 30
0.0
 40
3.0
  1
尺  度
 41
0.9
  7
YKK_OSSTYLE1
100
AcDbText
  0
CIRCLE
  5
61
330
34
100
AcDbEntity
  8
YKK_ZWAK
  6
Continuous
 62
     8
100
AcDbCircle
 10
579.426014
 20
83.719502
 30
0.0
 40
6.299999999999999
  0
LINE
  5
62
330
34
100
AcDbEntity
  8
YKK_ZWAK
  6
Continuous
 62
     8
100
AcDbLine
 10
573.126014
 20
69.579502
 30
0.0
 11
585.726014
 21
69.579502
 31
0.0
  0
LINE
  5
63
330
34
100
AcDbEntity
  8
YKK_ZWAK
  6
Continuous
 62
     8
100
AcDbLine
 10
573.126014
 20
55.439501
 30
0.0
 11
585.726014
 21
55.439501
 31
0.0
  0
CIRCLE
  5
64
330
34
100
AcDbEntity
  8
YKK_ZWAK
  6
Continuous
 62
     8
100
AcDbCircle
 10
579.426014
 20
69.579502
 30
0.0
 40
6.299999999999999
  0
CIRCLE
  5
65
330
34
100
AcDbEntity
  8
YKK_ZWAK
  6
Continuous
 62
     8
100
AcDbCircle
 10
579.426014
 20
55.439501
 30
0.0
 40
6.299999999999999
  0
LINE
  5
66
330
34
100
AcDbEntity
  8
YKK_ZWAK
  6
Continuous
 62
     8
100
AcDbLine
 10
573.126014
 20
41.299501
 30
0.0
 11
585.726014
 21
41.299501
 31
0.0
  0
CIRCLE
  5
67
330
34
100
AcDbEntity
  8
YKK_ZWAK
  6
Continuous
 62
     8
100
AcDbCircle
 10
579.426014
 20
41.299501
 30
0.0
 40
6.299999999999999
  0
LINE
  5
68
330
34
100
AcDbEntity
  8
YKK_ZWAK
  6
Continuous
 62
   254
100
AcDbLine
 10
544.000013
 20
33.999501
 30
0.0
 11
544.000013
 21
8.9995
 31
0.0
  0
LINE
  5
69
330
34
100
AcDbEntity
  8
YKK_ZWAK
  6
Continuous
 62
   254
100
AcDbLine
 10
523.999763
 20
33.999501
 30
0.0
 11
523.999763
 21
8.9995
 31
0.0
  0
ARC
  5
6A
330
34
100
AcDbEntity
  8
YKK_ZWAK
  6
Continuous
 62
   254
100
AcDbCircle
 10
567.23923515
 20
16.32442811
 30
0.0
 40
3.065267824757687
100
AcDbArc
 50
285.44291453
 51
349.90448123
  0
ARC
  5
6B
330
34
100
AcDbEntity
  8
YKK_ZWAK
  6
Continuous
 62
   254
100
AcDbCircle
 10
553.606314
 20
13.7174867
 30
0.0
 40
7.916047100361496
100
AcDbArc
 50
168.7637177
 51
199.80079153
  0
ARC
  5
6C
330
34
100
AcDbEntity
  8
YKK_ZWAK
  6
Continuous
 62
   254
100
AcDbCircle
 10
550.84442657
 20
13.7651724
 30
0.0
 40
1.69178303147034
100
AcDbArc
 50
171.08203026
 51
216.71922793
  0
LINE
  5
6D
330
34
100
AcDbEntity
  8
YKK_ZWAK
  6
Continuous
 62
   254
100
AcDbLine
 10
562.610947
 20
9.566381
 30
0.0
 11
562.610947
 21
20.243049
 31
0.0
  0
LINE
  5
6E
330
34
100
AcDbEntity
  8
YKK_ZWAK
  6
Continuous
 62
   254
100
AcDbLine
 10
559.019868
 20
23.216355
 30
0.0
 11
559.019868
 21
9.566381
 31
0.0
  0
LINE
  5
6F
330
34
100
AcDbEntity
  8
YKK_ZWAK
  6
Continuous
 62
   254
100
AcDbLine
 10
557.513933
 20
20.011363
 30
0.0
 11
557.513933
 21
9.585666
 31
0.0
  0
LINE
  5
70
330
34
100
AcDbEntity
  8
YKK_ZWAK
  6
Continuous
 62
   254
100
AcDbLine
 10
554.019393
 20
12.520312
 30
0.0
 11
554.019393
 21
19.470807
 31
0.0
  0
LINE
  5
71
330
34
100
AcDbEntity
  8
YKK_ZWAK
  6
Continuous
 62
   254
100
AcDbLine
 10
557.28225
 20
9.547052
 30
0.0
 11
549.405042
 21
9.527722
 31
0.0
  0
LINE
  5
72
330
34
100
AcDbEntity
  8
YKK_ZWAK
  6
Continuous
 62
   254
100
AcDbLine
 10
550.00355
 20
12.520312
 30
0.0
 11
554.019393
 21
12.520312
 31
0.0
  0
ARC
  5
73
330
34
100
AcDbEntity
  8
YKK_ZWAK
  6
Continuous
 62
   254
100
AcDbCircle
 10
548.60007313
 20
12.25485189
 30
0.0
 40
2.730646981973357
100
AcDbArc
 50
207.31435415
 51
263.59464075
  0
ARC
  5
74
330
34
100
AcDbEntity
  8
YKK_ZWAK
  6
Continuous
 62
   254
100
AcDbCircle
 10
550.17864126
 20
13.59595698
 30
0.0
 40
1.089801345776779
100
AcDbArc
 50
230.97279559
 51
260.75491133
  0
LINE
  5
75
330
34
100
AcDbEntity
  8
YKK_ZWAK
  6
Continuous
 62
   254
100
AcDbLine
 10
549.405042
 20
9.527722
 30
0.0
 11
548.343169
 21
9.527722
 31
0.0
  0
LINE
  5
76
330
34
100
AcDbEntity
  8
YKK_ZWAK
  6
Continuous
 62
   254
100
AcDbLine
 10
557.513933
 20
9.585666
 30
0.0
 11
557.28225
 21
9.547052
 31
0.0
  0
LINE
  5
77
330
34
100
AcDbEntity
  8
YKK_ZWAK
  6
Continuous
 62
   254
100
AcDbLine
 10
553.71047
 20
12.520312
 30
0.0
 11
553.961471
 21
12.520312
 31
0.0
  0
LINE
  5
78
330
34
100
AcDbEntity
  8
YKK_ZWAK
  6
Continuous
 62
   254
100
AcDbLine
 10
554.019393
 20
12.521084
 30
0.0
 11
554.020164
 21
12.520312
 31
0.0
  0
LINE
  5
79
330
34
100
AcDbEntity
  8
YKK_ZWAK
  6
Continuous
 62
   254
100
AcDbLine
 10
562.051042
 20
9.566381
 30
0.0
 11
562.610947
 21
9.566381
 31
0.0
  0
LINE
  5
7A
330
34
100
AcDbEntity
  8
YKK_ZWAK
  6
Continuous
 62
   254
100
AcDbLine
 10
559.019868
 20
9.566381
 30
0.0
 11
562.051042
 21
9.566381
 31
0.0
  0
TEXT
  5
7B
330
34
100
AcDbEntity
  8
YKK_ZWAK
  6
Continuous
 62
   131
100
AcDbText
 10
528.4269094
 20
29.81226201
 30
0.0
 40
3.2
  1
図　番
 41
0.9
  7
YKK_OSSTYLE1
100
AcDbText
  0
TEXT
  5
7C
330
34
100
AcDbEntity
  8
YKK_ZWAK
  6
Continuous
 62
   131
100
AcDbText
 10
526.62767404
 20
16.79627903
 30
0.0
 40
3.2
  1
通し図番
 41
0.9
  7
YKK_OSSTYLE1
100
AcDbText
  0
LINE
  5
7D
330
34
100
AcDbEntity
  8
YKK_ZWAK
  6
Continuous
 62
   131
100
AcDbLine
 10
523.999763
 20
28.999501
 30
0.0
 11
544.000013
 21
28.999501
 31
0.0
  0
LINE
  5
7E
330
34
100
AcDbEntity
  8
YKK_ZWAK
  6
Continuous
 62
   131
100
AcDbLine
 10
544.000013
 20
16.0
 30
0.0
 11
523.999763
 21
16.0
 31
0.0
  0
LINE
  5
7F
330
34
100
AcDbEntity
  8
YKK_ZWAK
  6
Continuous
 62
   254
100
AcDbLine
 10
523.999763
 20
21.000001
 30
0.0
 11
544.000013
 21
21.000001
 31
0.0
  0
TEXT
  5
80
330
34
100
AcDbEntity
  8
YKK_ZWAK
  6
Continuous
 62
   131
100
AcDbText
 10
504.12596439
 20
16.73585252
 30
0.0
 40
2.828
  1
年   月   日
 41
0.9
  7
YKK_OSSTYLE1
100
AcDbText
  0
ARC
  5
81
330
34
100
AcDbEntity
  8
YKK_ZWAK
  6
Continuous
 62
   254
100
AcDbCircle
 10
550.80023932
 20
8.38955158
 30
0.0
 40
9.506414110787718
100
AcDbArc
 50
79.38097908
 51
112.0582515
  0
ARC
  5
82
330
34
100
AcDbEntity
  8
YKK_ZWAK
  6
Continuous
 62
   254
100
AcDbCircle
 10
552.02960157
 20
8.66870802
 30
0.0
 40
14.82019555938878
100
AcDbArc
 50
78.78009532
 51
91.46937906
  0
LINE
  5
83
330
34
100
AcDbEntity
  8
YKK_ZWAK
  6
Continuous
 62
   254
100
AcDbLine
 10
553.247106
 20
20.281664
 30
0.0
 11
550.60589668
 21
20.23169161
 31
0.0
  0
LINE
  5
84
330
34
100
AcDbEntity
  8
YKK_ZWAK
  6
Continuous
 62
   254
100
AcDbLine
 10
553.054042
 20
15.04953
 30
0.0
 11
550.200893
 21
15.046227
 31
0.0
  0
LINE
  5
85
330
34
100
AcDbEntity
  8
YKK_ZWAK
  6
Continuous
 62
   254
100
AcDbLine
 10
554.187226
 20
33.42965
 30
0.0
 11
550.949599
 21
27.69553
 31
0.0
  0
LINE
  5
86
330
34
100
AcDbEntity
  8
YKK_ZWAK
  6
Continuous
 62
   254
100
AcDbLine
 10
551.59718
 20
33.42965
 30
0.0
 11
554.187226
 21
33.42965
 31
0.0
  0
LINE
  5
87
330
34
100
AcDbEntity
  8
YKK_ZWAK
  6
Continuous
 62
   254
100
AcDbLine
 10
548.594154
 20
27.714815
 30
0.0
 11
545.311979
 21
33.352466
 31
0.0
  0
ARC
  5
88
330
34
100
AcDbEntity
  8
YKK_ZWAK
  6
Continuous
 62
   254
100
AcDbCircle
 10
549.68520483
 20
20.30975154
 30
0.0
 40
3.598113650678814
100
AcDbArc
 50
158.41083245
 51
179.71775245
  0
ARC
  5
89
330
34
100
AcDbEntity
  8
YKK_ZWAK
  6
Continuous
 62
   254
100
AcDbCircle
 10
548.59054743
 20
14.76560333
 30
0.0
 40
2.791490107652263
100
AcDbArc
 50
121.82711365
 51
169.08474902
  0
LINE
  5
8A
330
34
100
AcDbEntity
  8
YKK_ZWAK
  6
Continuous
 62
   254
100
AcDbLine
 10
549.405042
 20
18.949491
 30
0.0
 11
546.084266
 21
18.949491
 31
0.0
  0
LINE
  5
8B
330
34
100
AcDbEntity
  8
YKK_ZWAK
  6
Continuous
 62
   254
100
AcDbLine
 10
546.084266
 20
18.949491
 30
0.0
 11
546.084266
 21
20.32747631
 31
0.0
  0
ARC
  5
8C
330
34
100
AcDbEntity
  8
YKK_ZWAK
  6
Continuous
 62
   254
100
AcDbCircle
 10
550.20700835
 20
14.01426078
 30
0.0
 40
1.031984336873053
100
AcDbArc
 50
90.33952634
 51
178.0363902
  0
ARC
  5
8D
330
34
100
AcDbEntity
  8
YKK_ZWAK
  6
Continuous
 62
   254
100
AcDbCircle
 10
550.91098672
 20
18.99454401
 30
0.0
 40
1.5066184932453
100
AcDbArc
 50
138.46381796
 51
181.71359389
  0
ARC
  5
8E
330
34
100
AcDbEntity
  8
YKK_ZWAK
  6
Continuous
 62
   254
100
AcDbCircle
 10
550.51068793
 20
19.02046023
 30
0.0
 40
1.214967561291876
100
AcDbArc
 50
85.50551117
 51
126.78038212
  0
ARC
  5
8F
330
34
100
AcDbEntity
  8
YKK_ZWAK
  6
Continuous
 62
   254
100
AcDbCircle
 10
548.00461954
 20
21.10278181
 30
0.0
 40
1.745462511199758
100
AcDbArc
 50
109.02126645
 51
161.5126404
  0
ARC
  5
90
330
34
100
AcDbEntity
  8
YKK_ZWAK
  6
Continuous
 62
   254
100
AcDbCircle
 10
551.65872095
 20
10.85588209
 30
0.0
 40
12.62863449008531
100
AcDbArc
 50
89.89164773
 51
109.30848271
  0
LINE
  5
91
330
34
100
AcDbEntity
  8
YKK_ZWAK
  6
Continuous
 62
   254
100
AcDbLine
 10
548.594154
 20
24.529198
 30
0.0
 11
548.594154
 21
27.714815
 31
0.0
  0
LINE
  5
92
330
34
100
AcDbEntity
  8
YKK_ZWAK
  6
Continuous
 62
   254
100
AcDbLine
 10
550.949599
 20
24.529198
 30
0.0
 11
548.594154
 21
24.529198
 31
0.0
  0
LINE
  5
93
330
34
100
AcDbEntity
  8
YKK_ZWAK
  6
Continuous
 62
   254
100
AcDbLine
 10
550.949599
 20
27.69553
 30
0.0
 11
550.949599
 21
24.529198
 31
0.0
  0
LINE
  5
94
330
34
100
AcDbEntity
  8
YKK_ZWAK
  6
Continuous
 62
   254
100
AcDbLine
 10
545.311979
 20
33.352466
 30
0.0
 11
547.821884
 21
33.352466
 31
0.0
  0
LINE
  5
95
330
34
100
AcDbEntity
  8
YKK_ZWAK
  6
Continuous
 62
   254
100
AcDbLine
 10
551.59718
 20
33.42965
 30
0.0
 11
549.771867
 21
29.877219
 31
0.0
  0
LINE
  5
96
330
34
100
AcDbEntity
  8
YKK_ZWAK
  6
Continuous
 62
   254
100
AcDbLine
 10
549.617423
 20
29.993062
 30
0.0
 11
549.771867
 21
29.877219
 31
0.0
  0
LINE
  5
97
330
34
100
AcDbEntity
  8
YKK_ZWAK
  6
Continuous
 62
   254
100
AcDbLine
 10
547.821884
 20
33.352466
 30
0.0
 11
549.617423
 21
29.993062
 31
0.0
  0
ARC
  5
98
330
34
100
AcDbEntity
  8
YKK_ZWAK
  6
Continuous
 62
   254
100
AcDbCircle
 10
568.28604917
 20
28.29398617
 30
0.0
 40
1.544618833868573
100
AcDbArc
 50
0.00166292
 51
89.99603715
  0
ARC
  5
99
330
34
100
AcDbEntity
  8
YKK_ZWAK
  6
Continuous
 62
   254
100
AcDbCircle
 10
559.98514917
 20
28.23604217
 30
0.0
 40
1.544618833868573
100
AcDbArc
 50
0.00166292
 51
89.99603715
  0
LINE
  5
9A
330
34
100
AcDbEntity
  8
YKK_ZWAK
  6
Continuous
 62
   254
100
AcDbLine
 10
562.553028
 20
24.625712
 30
0.0
 11
562.553028
 21
33.487594
 31
0.0
  0
LINE
  5
9B
330
34
100
AcDbEntity
  8
YKK_ZWAK
  6
Continuous
 62
   254
100
AcDbLine
 10
554.328297
 20
24.548527
 30
0.0
 11
554.328297
 21
33.410366
 31
0.0
  0
LINE
  5
9C
330
34
100
AcDbEntity
  8
YKK_ZWAK
  6
Continuous
 62
   254
100
AcDbLine
 10
564.985674
 20
24.625712
 30
0.0
 11
562.553028
 21
24.625712
 31
0.0
  0
LINE
  5
9D
330
34
100
AcDbEntity
  8
YKK_ZWAK
  6
Continuous
 62
   254
100
AcDbLine
 10
567.302491
 20
23.216355
 30
0.0
 11
559.019868
 21
23.216355
 31
0.0
  0
LINE
  5
9E
330
34
100
AcDbEntity
  8
YKK_ZWAK
  6
Continuous
 62
   254
100
AcDbLine
 10
563.479759
 20
13.196086
 30
0.0
 11
567.283206
 21
13.196086
 31
0.0
  0
LINE
  5
9F
330
34
100
AcDbEntity
  8
YKK_ZWAK
  6
Continuous
 62
   254
100
AcDbLine
 10
566.008932
 20
16.150017
 30
0.0
 11
563.479759
 21
16.150017
 31
0.0
  0
LINE
  5
A0
330
34
100
AcDbEntity
  8
YKK_ZWAK
  6
Continuous
 62
   254
100
AcDbLine
 10
562.610947
 20
20.243049
 30
0.0
 11
565.931704
 21
20.243049
 31
0.0
  0
ARC
  5
A1
330
34
100
AcDbEntity
  8
YKK_ZWAK
  6
Continuous
 62
   254
100
AcDbCircle
 10
554.22066
 20
20.08146332
 30
0.0
 40
3.294016994121146
100
AcDbArc
 50
358.78059045
 51
38.76562608
  0
ARC
  5
A2
330
34
100
AcDbEntity
  8
YKK_ZWAK
  6
Continuous
 62
   254
100
AcDbCircle
 10
552.89717617
 20
19.17519964
 30
0.0
 40
1.16048018439929
100
AcDbArc
 50
14.7551995
 51
72.44994796
  0
LINE
  5
A3
330
34
100
AcDbEntity
  8
YKK_ZWAK
  6
Continuous
 62
   254
100
AcDbLine
 10
553.054042
 20
17.617318
 30
0.0
 11
553.054042
 21
15.04953
 31
0.0
  0
LINE
  5
A4
330
34
100
AcDbEntity
  8
YKK_ZWAK
  6
Continuous
 62
   254
100
AcDbLine
 10
552.552059
 20
17.733161
 30
0.0
 11
553.054042
 21
17.617318
 31
0.0
  0
LINE
  5
A5
330
34
100
AcDbEntity
  8
YKK_ZWAK
  6
Continuous
 62
   254
100
AcDbLine
 10
563.479759
 20
16.150017
 30
0.0
 11
563.479759
 21
13.196086
 31
0.0
  0
LINE
  5
A6
330
34
100
AcDbEntity
  8
YKK_ZWAK
  6
Continuous
 62
   254
100
AcDbLine
 10
558.981248
 20
27.869273
 30
0.0
 11
556.703043
 21
27.869273
 31
0.0
  0
ARC
  5
A7
330
34
100
AcDbEntity
  8
YKK_ZWAK
  6
Continuous
 62
   254
100
AcDbCircle
 10
554.37879626
 20
20.07343796
 30
0.0
 40
3.177485297559325
100
AcDbArc
 50
40.66422291
 51
80.31693569
  0
LINE
  5
A8
330
34
100
AcDbEntity
  8
YKK_ZWAK
  6
Continuous
 62
   254
100
AcDbLine
 10
556.703043
 20
24.548527
 30
0.0
 11
554.328297
 21
24.548527
 31
0.0
  0
LINE
  5
A9
330
34
100
AcDbEntity
  8
YKK_ZWAK
  6
Continuous
 62
   254
100
AcDbLine
 10
556.703043
 20
27.869273
 30
0.0
 11
556.703043
 21
24.548527
 31
0.0
  0
LINE
  5
AA
330
34
100
AcDbEntity
  8
YKK_ZWAK
  6
Continuous
 62
   254
100
AcDbLine
 10
561.529756
 20
28.236131
 30
0.0
 11
561.529756
 21
24.606427
 31
0.0
  0
LINE
  5
AB
330
34
100
AcDbEntity
  8
YKK_ZWAK
  6
Continuous
 62
   254
100
AcDbLine
 10
559.290171
 20
27.75343
 30
0.0
 11
558.981248
 21
27.869273
 31
0.0
  0
LINE
  5
AC
330
34
100
AcDbEntity
  8
YKK_ZWAK
  6
Continuous
 62
   254
100
AcDbLine
 10
559.290171
 20
24.606427
 30
0.0
 11
559.290171
 21
27.75343
 31
0.0
  0
LINE
  5
AD
330
34
100
AcDbEntity
  8
YKK_ZWAK
  6
Continuous
 62
   254
100
AcDbLine
 10
561.529756
 20
24.606427
 30
0.0
 11
559.290171
 21
24.606427
 31
0.0
  0
ARC
  5
AE
330
34
100
AcDbEntity
  8
YKK_ZWAK
  6
Continuous
 62
   254
100
AcDbCircle
 10
567.19412132
 20
20.11358836
 30
0.0
 40
3.10079004118515
100
AcDbArc
 50
14.44572328
 51
87.08746338
  0
ARC
  5
AF
330
34
100
AcDbEntity
  8
YKK_ZWAK
  6
Continuous
 62
   254
100
AcDbCircle
 10
564.36413966
 20
17.54165325
 30
0.0
 40
2.640498151312115
100
AcDbArc
 50
343.69020327
 51
354.7536235
  0
ARC
  5
B0
330
34
100
AcDbEntity
  8
YKK_ZWAK
  6
Continuous
 62
   254
100
AcDbCircle
 10
566.00966971
 20
17.08269286
 30
0.0
 40
0.9326761550249523
100
AcDbArc
 50
269.95468111
 51
342.90144849
  0
ARC
  5
B1
330
34
100
AcDbEntity
  8
YKK_ZWAK
  6
Continuous
 62
   254
100
AcDbCircle
 10
566.04623887
 20
19.3715952
 30
0.0
 40
0.8777839045469994
100
AcDbArc
 50
16.43123457
 51
96.91661396
  0
ARC
  5
B2
330
34
100
AcDbEntity
  8
YKK_ZWAK
  6
Continuous
 62
   254
100
AcDbCircle
 10
564.37945167
 20
18.85119468
 30
0.0
 40
2.623848066620805
100
AcDbArc
 50
4.93422741
 51
17.03551963
  0
LINE
  5
B3
330
34
100
AcDbEntity
  8
YKK_ZWAK
  6
Continuous
 62
   254
100
AcDbLine
 10
567.283206
 20
13.196086
 30
0.0
 11
568.055449
 21
13.369828
 31
0.0
  0
LINE
  5
B4
330
34
100
AcDbEntity
  8
YKK_ZWAK
  6
Continuous
 62
   254
100
AcDbLine
 10
566.980872
 20
19.173458
 30
0.0
 11
566.993576
 21
17.29190622
 31
0.0
  0
ARC
  5
B5
330
34
100
AcDbEntity
  8
YKK_ZWAK
  6
Continuous
 62
   254
100
AcDbCircle
 10
555.54697452
 20
18.15146785
 30
0.0
 40
14.90004285451682
100
AcDbArc
 50
350.99026817
 51
10.67624521
  0
LINE
  5
B6
330
34
100
AcDbEntity
  8
YKK_ZWAK
  6
Continuous
 62
   254
100
AcDbLine
 10
569.831709
 20
24.645041
 30
0.0
 11
567.572791
 21
24.645041
 31
0.0
  0
LINE
  5
B7
330
34
100
AcDbEntity
  8
YKK_ZWAK
  6
Continuous
 62
   254
100
AcDbLine
 10
567.572791
 20
27.772759
 30
0.0
 11
567.263877
 21
27.888602
 31
0.0
  0
LINE
  5
B8
330
34
100
AcDbEntity
  8
YKK_ZWAK
  6
Continuous
 62
   254
100
AcDbLine
 10
567.263877
 20
27.888602
 30
0.0
 11
564.985674
 21
27.888602
 31
0.0
  0
LINE
  5
B9
330
34
100
AcDbEntity
  8
YKK_ZWAK
  6
Continuous
 62
   254
100
AcDbLine
 10
564.985674
 20
27.888602
 30
0.0
 11
564.985674
 21
24.625712
 31
0.0
  0
LINE
  5
BA
330
34
100
AcDbEntity
  8
YKK_ZWAK
  6
Continuous
 62
   254
100
AcDbLine
 10
567.572791
 20
24.645041
 30
0.0
 11
567.572791
 21
27.772759
 31
0.0
  0
LINE
  5
BB
330
34
100
AcDbEntity
  8
YKK_ZWAK
  6
Continuous
 62
   254
100
AcDbLine
 10
567.572791
 20
24.681182
 30
0.0
 11
567.608933
 21
24.645041
 31
0.0
  0
LINE
  5
BC
330
34
100
AcDbEntity
  8
YKK_ZWAK
  6
Continuous
 62
   254
100
AcDbLine
 10
569.831709
 20
28.236131
 30
0.0
 11
569.831709
 21
24.645041
 31
0.0
  0
LINE
  5
BD
330
34
100
AcDbEntity
  8
YKK_ZWAK
  6
Continuous
 62
   254
100
AcDbLine
 10
562.553028
 20
33.487594
 30
0.0
 11
564.889116
 21
33.487594
 31
0.0
  0
LINE
  5
BE
330
34
100
AcDbEntity
  8
YKK_ZWAK
  6
Continuous
 62
   254
100
AcDbLine
 10
556.625823
 20
29.768591
 30
0.0
 11
559.03917
 21
33.44898
 31
0.0
  0
LINE
  5
BF
330
34
100
AcDbEntity
  8
YKK_ZWAK
  6
Continuous
 62
   254
100
AcDbLine
 10
556.625823
 20
33.410366
 30
0.0
 11
556.625823
 21
29.768591
 31
0.0
  0
LINE
  5
C0
330
34
100
AcDbEntity
  8
YKK_ZWAK
  6
Continuous
 62
   254
100
AcDbLine
 10
554.328297
 20
33.410366
 30
0.0
 11
556.625823
 21
33.410366
 31
0.0
  0
LINE
  5
C1
330
34
100
AcDbEntity
  8
YKK_ZWAK
  6
Continuous
 62
   254
100
AcDbLine
 10
559.985256
 20
29.780661
 30
0.0
 11
559.242942
 21
29.780661
 31
0.0
  0
LINE
  5
C2
330
34
100
AcDbEntity
  8
YKK_ZWAK
  6
Continuous
 62
   254
100
AcDbLine
 10
561.771363
 20
33.44898
 30
0.0
 11
559.242942
 21
29.780661
 31
0.0
  0
LINE
  5
C3
330
34
100
AcDbEntity
  8
YKK_ZWAK
  6
Continuous
 62
   254
100
AcDbLine
 10
559.03917
 20
33.44898
 30
0.0
 11
561.771363
 21
33.44898
 31
0.0
  0
LINE
  5
C4
330
34
100
AcDbEntity
  8
YKK_ZWAK
  6
Continuous
 62
   254
100
AcDbLine
 10
569.773765
 20
33.024222
 30
0.0
 11
567.543842
 21
29.838605
 31
0.0
  0
LINE
  5
C5
330
34
100
AcDbEntity
  8
YKK_ZWAK
  6
Continuous
 62
   254
100
AcDbLine
 10
567.341105
 20
33.487594
 30
0.0
 11
570.044065
 21
33.487594
 31
0.0
  0
LINE
  5
C6
330
34
100
AcDbEntity
  8
YKK_ZWAK
  6
Continuous
 62
   254
100
AcDbLine
 10
568.286156
 20
29.838605
 30
0.0
 11
567.543842
 21
29.838605
 31
0.0
  0
LINE
  5
C7
330
34
100
AcDbEntity
  8
YKK_ZWAK
  6
Continuous
 62
   254
100
AcDbLine
 10
564.889116
 20
29.779236
 30
0.0
 11
567.341105
 21
33.487594
 31
0.0
  0
LINE
  5
C8
330
34
100
AcDbEntity
  8
YKK_ZWAK
  6
Continuous
 62
   254
100
AcDbLine
 10
564.889116
 20
33.487594
 30
0.0
 11
564.889116
 21
29.779236
 31
0.0
  0
LINE
  5
C9
330
34
100
AcDbEntity
  8
YKK_ZWAK
  6
Continuous
 62
   254
100
AcDbLine
 10
570.044065
 20
33.487594
 30
0.0
 11
569.773765
 21
33.024222
 31
0.0
  0
LINE
  5
CA
330
34
100
AcDbEntity
  8
YKK_ZWAK
  6
Continuous
 62
     8
100
AcDbLine
 10
573.126014
 20
168.559504
 30
0.0
 11
585.726014
 21
168.559504
 31
0.0
  0
LINE
  5
CB
330
34
100
AcDbEntity
  8
YKK_ZWAK
  6
Continuous
 62
     8
100
AcDbLine
 10
573.126014
 20
154.419504
 30
0.0
 11
585.726014
 21
154.419504
 31
0.0
  0
LINE
  5
CC
330
34
100
AcDbEntity
  8
YKK_ZWAK
  6
Continuous
 62
     8
100
AcDbLine
 10
573.126014
 20
140.279503
 30
0.0
 11
585.726014
 21
140.279503
 31
0.0
  0
LINE
  5
CD
330
34
100
AcDbEntity
  8
YKK_ZWAK
  6
Continuous
 62
     8
100
AcDbLine
 10
573.126014
 20
126.139503
 30
0.0
 11
585.726014
 21
126.139503
 31
0.0
  0
LINE
  5
CE
330
34
100
AcDbEntity
  8
YKK_ZWAK
  6
Continuous
 62
     8
100
AcDbLine
 10
573.126014
 20
111.999503
 30
0.0
 11
585.726014
 21
111.999503
 31
0.0
  0
LINE
  5
CF
330
34
100
AcDbEntity
  8
YKK_ZWAK
  6
Continuous
 62
     8
100
AcDbLine
 10
573.126014
 20
97.859502
 30
0.0
 11
585.726014
 21
97.859502
 31
0.0
  0
LINE
  5
D0
330
34
100
AcDbEntity
  8
YKK_ZWAK
  6
Continuous
 62
     8
100
AcDbLine
 10
573.126014
 20
83.719502
 30
0.0
 11
585.726014
 21
83.719502
 31
0.0
  0
CIRCLE
  5
D1
330
34
100
AcDbEntity
  8
YKK_ZWAK
  6
Continuous
 62
     8
100
AcDbCircle
 10
579.426014
 20
168.559504
 30
0.0
 40
6.299999999999999
  0
CIRCLE
  5
D2
330
34
100
AcDbEntity
  8
YKK_ZWAK
  6
Continuous
 62
     8
100
AcDbCircle
 10
579.426014
 20
140.279503
 30
0.0
 40
6.299999999999999
  0
CIRCLE
  5
D3
330
34
100
AcDbEntity
  8
YKK_ZWAK
  6
Continuous
 62
     8
100
AcDbCircle
 10
579.426014
 20
111.999503
 30
0.0
 40
6.299999999999999
  0
CIRCLE
  5
D4
330
34
100
AcDbEntity
  8
YKK_ZWAK
  6
Continuous
 62
     8
100
AcDbCircle
 10
579.426014
 20
154.419504
 30
0.0
 40
6.299999999999999
  0
CIRCLE
  5
D5
330
34
100
AcDbEntity
  8
YKK_ZWAK
  6
Continuous
 62
     8
100
AcDbCircle
 10
579.426014
 20
126.139503
 30
0.0
 40
6.299999999999999
  0
CIRCLE
  5
D6
330
34
100
AcDbEntity
  8
YKK_ZWAK
  6
Continuous
 62
     8
100
AcDbCircle
 10
579.426014
 20
97.859502
 30
0.0
 40
6.299999999999999
  0
LINE
  5
D7
330
34
100
AcDbEntity
  8
YKK_ZWAK
  6
Continuous
 62
   254
100
AcDbLine
 10
571.000014
 20
222.4995055
 30
0.0
 11
573.000014
 21
222.4995055
 31
0.0
  0
TEXT
  5
D8
330
34
100
AcDbEntity
  8
YKK_ZWAK
  6
Continuous
 62
   131
100
AcDbText
 10
408.18209354
 20
9.752325
 30
0.0
 40
3.5
  1
 ． ．
 41
0.9
  7
YKK_OSSTYLE1
100
AcDbText
  0
TEXT
  5
D9
330
34
100
AcDbEntity
  8
YKK_ZWAK
  6
Continuous
 62
   131
100
AcDbText
 10
424.18209354
 20
9.752325
 30
0.0
 40
3.5
  1
 ． ．
 41
0.9
  7
YKK_OSSTYLE1
100
AcDbText
  0
LINE
  5
DA
330
34
100
AcDbEntity
  8
YKK_ZWAK
  6
Continuous
 62
   131
100
AcDbLine
 10
459.1999862
 20
10.4995
 30
0.0
 11
459.1999862
 21
8.9995
 31
0.0
  0
LINE
  5
DB
330
34
100
AcDbEntity
  8
YKK_ZWAK
  6
Continuous
 62
   131
100
AcDbLine
 10
462.7999738
 20
10.4995
 30
0.0
 11
462.7999738
 21
8.9995
 31
0.0
  0
LINE
  5
DC
330
34
100
AcDbEntity
  8
YKK_ZWAK
  6
Continuous
 62
   131
100
AcDbLine
 10
466.3999614
 20
10.4995
 30
0.0
 11
466.3999614
 21
8.9995
 31
0.0
  0
LINE
  5
DD
330
34
100
AcDbEntity
  8
YKK_ZWAK
  6
Continuous
 62
   131
100
AcDbLine
 10
469.999949
 20
10.4995
 30
0.0
 11
469.999949
 21
8.9995
 31
0.0
  0
LINE
  5
DE
330
34
100
AcDbEntity
  8
YKK_ZWAK
  6
Continuous
 62
   131
100
AcDbLine
 10
473.5999366
 20
10.4995
 30
0.0
 11
473.5999366
 21
8.9995
 31
0.0
  0
LINE
  5
DF
330
34
100
AcDbEntity
  8
YKK_ZWAK
  6
Continuous
 62
   131
100
AcDbLine
 10
477.1999242
 20
10.4995
 30
0.0
 11
477.1999242
 21
8.9995
 31
0.0
  0
LINE
  5
E0
330
34
100
AcDbEntity
  8
YKK_ZWAK
  6
Continuous
 62
   131
100
AcDbLine
 10
480.7999118
 20
10.4995
 30
0.0
 11
480.7999118
 21
8.9995
 31
0.0
  0
LINE
  5
E1
330
34
100
AcDbEntity
  8
YKK_ZWAK
  6
Continuous
 62
   131
100
AcDbLine
 10
484.3998994
 20
10.4995
 30
0.0
 11
484.3998994
 21
8.9995
 31
0.0
  0
LINE
  5
E2
330
34
100
AcDbEntity
  8
YKK_ZWAK
  6
Continuous
 62
   131
100
AcDbLine
 10
487.999887
 20
10.4995
 30
0.0
 11
487.999887
 21
8.9995
 31
0.0
  0
LINE
  5
E3
330
34
100
AcDbEntity
  8
YKK_ZWAK
  6
Continuous
 62
   131
100
AcDbLine
 10
491.5998746
 20
10.4995
 30
0.0
 11
491.5998746
 21
8.9995
 31
0.0
  0
LINE
  5
E4
330
34
100
AcDbEntity
  8
YKK_ZWAK
  6
Continuous
 62
   131
100
AcDbLine
 10
495.1998622
 20
10.4995
 30
0.0
 11
495.1998622
 21
8.9995
 31
0.0
  0
LINE
  5
E5
330
34
100
AcDbEntity
  8
YKK_ZWAK
  6
Continuous
 62
   131
100
AcDbLine
 10
498.7998498
 20
10.4995
 30
0.0
 11
498.7998498
 21
8.9995
 31
0.0
  0
LINE
  5
E6
330
34
100
AcDbEntity
  8
YKK_ZWAK
  6
Continuous
 62
   131
100
AcDbLine
 10
502.3998374
 20
10.4995
 30
0.0
 11
502.3998374
 21
8.9995
 31
0.0
  0
LINE
  5
E7
330
34
100
AcDbEntity
  8
YKK_ZWAK
  6
Continuous
 62
   131
100
AcDbLine
 10
505.999825
 20
10.4995
 30
0.0
 11
505.999825
 21
8.9995
 31
0.0
  0
LINE
  5
E8
330
34
100
AcDbEntity
  8
YKK_ZWAK
  6
Continuous
 62
   131
100
AcDbLine
 10
509.5998126
 20
10.4995
 30
0.0
 11
509.5998126
 21
8.9995
 31
0.0
  0
LINE
  5
E9
330
34
100
AcDbEntity
  8
YKK_ZWAK
  6
Continuous
 62
   131
100
AcDbLine
 10
513.1998002
 20
10.4995
 30
0.0
 11
513.1998002
 21
8.9995
 31
0.0
  0
LINE
  5
EA
330
34
100
AcDbEntity
  8
YKK_ZWAK
  6
Continuous
 62
   131
100
AcDbLine
 10
516.7997878
 20
10.4995
 30
0.0
 11
516.7997878
 21
8.9995
 31
0.0
  0
LINE
  5
EB
330
34
100
AcDbEntity
  8
YKK_ZWAK
  6
Continuous
 62
   131
100
AcDbLine
 10
520.3997754
 20
10.4995
 30
0.0
 11
520.3997754
 21
8.9995
 31
0.0
  0
ENDBLK
  5
ED
330
34
100
AcDbEntity
  8
0
100
AcDbBlockEnd
  0
ENDSEC
  0
SECTION
  2
ENTITIES
  0
LINE
  5
2B
330
2
100
AcDbEntity
  8
YKK_11
  6
ByBlock
 62
     0
100
AcDbLine
 10
289.4917549
 20
91.37317699
 30
0.0
 11
279.4917549
 21
91.37317699
 31
0.0
  0
LINE
  5
2D
330
2
100
AcDbEntity
  8
YKK_11
  6
ByBlock
 62
     0
100
AcDbLine
 10
279.4917549
 20
90.17317699
 30
0.0
 11
289.4917549
 21
90.17317699
 31
0.0
  0
ARC
  5
2E
330
2
100
AcDbEntity
  8
YKK_11
  6
ByBlock
 62
     0
100
AcDbCircle
 10
284.69175512
 20
117.97317658
 30
0.0
 40
1.199999999999999
100
AcDbArc
 50
89.99998128
 51
180.00001985
  0
ARC
  5
2F
330
2
100
AcDbEntity
  8
YKK_11
  6
ByBlock
 62
     0
100
AcDbCircle
 10
284.69175512
 20
95.37317658
 30
0.0
 40
1.199999999999999
100
AcDbArc
 50
180.00001985
 51
270.00000112
  0
TEXT
  5
30
330
2
100
AcDbEntity
  8
USER1
 62
     3
100
AcDbText
 10
281.75360878
 20
5.60776074
 30
0.0
 40
3.0
  1
点検口 片開き自閉式スプリング丁番仕様(枠見込33mm)
 41
0.9
 72
     4
 11
324.55503735
 21
6.89347502
 31
0.0
100
AcDbText
  0
INSERT
  5
32
330
2
100
AcDbEntity
  8
YKK_ZWAK
100
AcDbBlockReference
  2
A201
 10
-19.000001
 20
-8.9995
 30
0.0
  0
LINE
  5
EE
330
2
100
AcDbEntity
  8
YKK_12
  6
Continuous
100
AcDbLine
 10
279.4917549
 20
121.97317658
 30
0.0
 11
373.4917549
 21
121.97317658
 31
0.0
  0
LINE
  5
F0
330
2
100
AcDbEntity
  8
YKK_A1
  6
Continuous
100
AcDbLine
 10
313.42579395
 20
305.1211679
 30
0.0
 11
269.92579654
 21
305.1211679
 31
0.0
  0
LINE
  5
F2
330
2
100
AcDbEntity
  8
YKK_A1
  6
Continuous
100
AcDbLine
 10
269.92579654
 20
255.12117088
 30
0.0
 11
313.42579395
 21
255.12117088
 31
0.0
  0
LINE
  5
F3
330
2
100
AcDbEntity
  8
YKK_A1
  6
Continuous
100
AcDbLine
 10
271.17579647
 20
303.87116798
 30
0.0
 11
312.17579402
 21
303.87116798
 31
0.0
  0
LINE
  5
F4
330
2
100
AcDbEntity
  8
YKK_A1
  6
Continuous
100
AcDbLine
 10
271.17579647
 20
256.37117081
 30
0.0
 11
312.17579402
 21
256.37117081
 31
0.0
  0
LINE
  5
F5
330
2
100
AcDbEntity
  8
YKK_A1
  6
Continuous
100
AcDbLine
 10
271.37579646
 20
303.72116799
 30
0.0
 11
311.97579404
 21
303.72116799
 31
0.0
  0
LINE
  5
F6
330
2
100
AcDbEntity
  8
YKK_A1
  6
Continuous
100
AcDbLine
 10
271.37579646
 20
256.62117079
 30
0.0
 11
311.97579404
 21
256.62117079
 31
0.0
  0
LINE
  5
F7
330
2
100
AcDbEntity
  8
YKK_13
  6
YCENTER_1
100
AcDbLine
 10
282.6917549
 20
110.97317658
 30
0.0
 11
302.6917549
 21
110.97317658
 31
0.0
  0
LINE
  5
FA
330
2
100
AcDbEntity
  8
YKK_13
  6
Continuous
100
AcDbLine
 10
278.2917549
 20
86.97317658
 30
0.0
 11
291.3917549
 21
86.97317658
 31
0.0
  0
LINE
  5
FB
330
2
100
AcDbEntity
  8
YKK_D
100
AcDbLine
 10
289.49176834
 20
51.97318156
 30
0.0
 11
279.49176834
 21
51.97318156
 31
0.0
  0
LINE
  5
FD
330
2
100
AcDbEntity
  8
YKK_D
100
AcDbLine
 10
283.49176834
 20
163.17317851
 30
0.0
 11
279.49176834
 21
163.17317851
 31
0.0
  0
LINE
  5
FE
330
2
100
AcDbEntity
  8
YKK_D
100
AcDbLine
 10
271.37579144
 20
240.1211604
 30
0.0
 11
311.97579754
 21
240.1211604
 31
0.0
  0
LINE
  5
FF
330
2
100
AcDbEntity
  8
YKK_D
100
AcDbLine
 10
276.67580975
 20
225.12117565
 30
0.0
 11
306.67577923
 21
225.12117565
 31
0.0
  0
LWPOLYLINE
  5
100
330
2
100
AcDbEntity
  8
YKK_D
  6
ByBlock
100
AcDbPolyline
 90
        2
 70
     1
 43
0.85
 10
283.59801834
 20
143.17317851
 42
1.0
 10
283.38551834
 20
143.17317851
 42
1.0
  0
TEXT
  5
101
330
2
100
AcDbEntity
  8
YKK_D
100
AcDbText
 10
280.79456022
 20
164.17317851
 30
0.0
 40
6.0
  1
4
 41
0.8
100
AcDbText
1001
ACAD
1000
MTEXTBEGIN
1070
    73
1070
     1
1070
    44
1040
1.0
1070
    74
1070
     0
1000
MTEXTEND
  0
LWPOLYLINE
  5
102
330
2
100
AcDbEntity
  8
YKK_D
  6
ByBlock
100
AcDbPolyline
 90
        2
 70
     1
 43
0.85
 10
283.38551834
 20
163.17317851
 42
1.0
 10
283.59801834
 20
163.17317851
 42
1.0
  0
LWPOLYLINE
  5
103
330
2
100
AcDbEntity
  8
YKK_D
  6
ByBlock
100
AcDbPolyline
 90
        2
 70
     1
 43
0.85
 10
283.59801834
 20
163.17317851
 42
1.0
 10
283.38551834
 20
163.17317851
 42
1.0
  0
LINE
  5
104
330
2
100
AcDbEntity
  8
YKK_11
  6
ByBlock
 62
     0
100
AcDbLine
 10
111.05639909
 20
196.84913904
 30
0.0
 11
111.05639909
 21
307.00142104
 31
0.0
  0
LINE
  5
105
330
2
100
AcDbEntity
  8
YKK_11
  6
ByBlock
 62
     0
100
AcDbLine
 10
84.45639887
 20
211.00142095
 30
0.0
 11
84.45639887
 21
197.00142095
 31
0.0
  0
LINE
  5
106
330
2
100
AcDbEntity
  8
YKK_11
  6
ByBlock
 62
     0
100
AcDbLine
 10
108.25639887
 20
197.00142095
 30
0.0
 11
108.25639887
 21
211.00142095
 31
0.0
  0
LINE
  5
107
330
2
100
AcDbEntity
  8
YKK_11
  6
ByBlock
 62
     0
100
AcDbLine
 10
107.05639887
 20
211.00142095
 30
0.0
 11
107.05639887
 21
197.00142095
 31
0.0
  0
LINE
  5
108
330
2
100
AcDbEntity
  8
YKK_11
  6
ByBlock
 62
     0
100
AcDbLine
 10
83.25639887
 20
300.80142095
 30
0.0
 11
83.25639887
 21
196.84913895
 31
0.0
  0
LINE
  5
109
330
2
100
AcDbEntity
  8
YKK_11
  6
ByBlock
 62
     0
100
AcDbLine
 10
112.25639852
 20
211.00142107
 30
0.0
 11
112.25639852
 21
197.00142107
 31
0.0
  0
LINE
  5
10A
330
2
100
AcDbEntity
  8
YKK_12
  6
Continuous
100
AcDbLine
 10
79.25639887
 20
332.00142104
 30
0.0
 11
79.25639887
 21
197.35261198
 31
0.0
  0
LINE
  5
10B
330
2
100
AcDbEntity
  8
YKK_D
100
AcDbLine
 10
149.4564016
 20
290.00143198
 30
0.0
 11
149.4564016
 21
122.00142435
 31
0.0
  0
LINE
  5
10C
330
2
100
AcDbEntity
  8
YKK_D
100
AcDbLine
 10
60.06425072
 20
110.00142435
 30
0.0
 11
60.06425072
 21
302.00143198
 31
0.0
  0
LINE
  5
10D
330
2
100
AcDbEntity
  8
YKK_11
  6
ByBlock
 62
     0
100
AcDbLine
 10
109.95639933
 20
103.80142123
 30
0.0
 11
81.65639933
 21
103.80142123
 31
0.0
  0
LINE
  5
10E
330
2
100
AcDbEntity
  8
YKK_11
  6
ByBlock
 62
     0
100
AcDbLine
 10
81.65639933
 20
105.00142123
 30
0.0
 11
112.25639933
 21
105.00142123
 31
0.0
  0
ARC
  5
10F
330
2
100
AcDbEntity
  8
YKK_11
  6
ByBlock
 62
     0
100
AcDbCircle
 10
105.8563985
 20
111.20142062
 30
0.0
 40
1.199999999999999
100
AcDbArc
 50
270.00000112
 51
0.0
  0
LINE
  5
110
330
2
100
AcDbEntity
  8
YKK_11
  6
ByBlock
 62
     0
100
AcDbLine
 10
107.0563985
 20
120.00142062
 30
0.0
 11
105.8563985
 21
120.00142062
 31
0.0
  0
LINE
  5
111
330
2
100
AcDbEntity
  8
YKK_13
  6
YHIDDEN_1
100
AcDbLine
 10
108.85639887
 20
81.20142104
 30
0.0
 11
82.15639887
 21
81.20142104
 31
0.0
  0
LINE
  5
113
330
2
100
AcDbEntity
  8
YKK_13
  6
YHIDDEN_1
100
AcDbLine
 10
108.85639887
 20
102.40142104
 30
0.0
 11
98.15639887
 21
102.40142104
 31
0.0
  0
LINE
  5
114
330
2
100
AcDbEntity
  8
YKK_13
  6
YHIDDEN_1
100
AcDbLine
 10
82.15639887
 20
83.50142104
 30
0.0
 11
108.25639887
 21
83.50142104
 31
0.0
  0
LINE
  5
115
330
2
100
AcDbEntity
  8
YKK_13
  6
YHIDDEN_1
100
AcDbLine
 10
98.15639887
 20
100.10142104
 30
0.0
 11
108.25639887
 21
100.10142104
 31
0.0
  0
LINE
  5
116
330
2
100
AcDbEntity
  8
YKK_D
100
AcDbLine
 10
83.25639702
 20
145.00142435
 30
0.0
 11
108.25640465
 21
145.00142435
 31
0.0
  0
LINE
  5
117
330
2
100
AcDbEntity
  8
YKK_D
100
AcDbLine
 10
79.25639702
 20
76.00142102
 30
0.0
 11
79.25639702
 21
60.50436167
 31
0.0
  0
LINE
  5
118
330
2
100
AcDbEntity
  8
YKK_D
100
AcDbLine
 10
100.4564016
 20
76.00142102
 30
0.0
 11
100.4564016
 21
60.30486826
 31
0.0
  0
LINE
  5
119
330
2
100
AcDbEntity
  8
YKK_D
100
AcDbLine
 10
80.4564016
 20
76.00142102
 30
0.0
 11
80.4564016
 21
60.30486826
 31
0.0
  0
LINE
  5
11A
330
2
100
AcDbEntity
  8
YKK_D
100
AcDbLine
 10
100.4564016
 20
61.30486826
 30
0.0
 11
80.4564016
 21
61.30486826
 31
0.0
  0
LINE
  5
11B
330
2
100
AcDbEntity
  8
YKK_D
100
AcDbLine
 10
79.25639702
 20
61.50436167
 30
0.0
 11
62.65639702
 21
61.50436167
 31
0.0
  0
TEXT
  5
11C
330
2
100
AcDbEntity
  8
YKK_D
100
AcDbText
 10
64.44421428
 20
62.50436167
 30
0.0
 40
6.0
  1
1.2
 41
0.8
100
AcDbText
1001
ACAD
1000
MTEXTBEGIN
1070
    73
1070
     1
1070
    44
1040
1.0
1070
    74
1070
     0
1000
MTEXTEND
  0
LINE
  5
11D
330
2
100
AcDbEntity
  8
YKK_D
100
AcDbLine
 10
80.4564016
 20
61.50436167
 30
0.0
 11
82.1564016
 21
61.50436167
 31
0.0
  0
LINE
  5
11E
330
2
100
AcDbEntity
  8
YKK_D
100
AcDbLine
 10
80.4564016
 20
61.50436167
 30
0.0
 11
79.25639702
 21
61.50436167
 31
0.0
  0
LWPOLYLINE
  5
11F
330
2
100
AcDbEntity
  8
YKK_D
  6
ByBlock
100
AcDbPolyline
 90
        2
 70
     1
 43
0.85
 10
80.5626516
 20
61.30486826
 42
1.0
 10
80.3501516
 20
61.30486826
 42
1.0
  0
LWPOLYLINE
  5
120
330
2
100
AcDbEntity
  8
YKK_D
  6
ByBlock
100
AcDbPolyline
 90
        2
 70
     1
 43
0.85
 10
79.15014702
 20
61.50436167
 42
1.0
 10
79.36264702
 20
61.50436167
 42
1.0
  0
LWPOLYLINE
  5
121
330
2
100
AcDbEntity
  8
YKK_D
  6
ByBlock
100
AcDbPolyline
 90
        2
 70
     1
 43
0.85
 10
80.5626516
 20
61.50436167
 42
1.0
 10
80.3501516
 20
61.50436167
 42
1.0
  0
TEXT
  5
122
330
2
100
AcDbEntity
  8
YKK_D
100
AcDbText
 10
87.31325439
 20
62.30486826
 30
0.0
 40
6.0
  1
20
 41
0.8
100
AcDbText
1001
ACAD
1000
MTEXTBEGIN
1070
    73
1070
     1
1070
    44
1040
1.0
1070
    74
1070
     0
1000
MTEXTEND
  0
LWPOLYLINE
  5
123
330
2
100
AcDbEntity
  8
YKK_D
  6
ByBlock
100
AcDbPolyline
 90
        2
 70
     1
 43
0.85
 10
100.3501516
 20
61.30486826
 42
1.0
 10
100.5626516
 20
61.30486826
 42
1.0
  0
LINE
  5
124
330
2
100
AcDbEntity
  8
YKK_11
  6
ByBlock
 62
     0
100
AcDbLine
 10
84.4563985
 20
111.20142062
 30
0.0
 11
84.4563985
 21
195.00142062
 31
0.0
  0
LINE
  5
125
330
2
100
AcDbEntity
  8
YKK_11
  6
ByBlock
 62
     0
100
AcDbLine
 10
83.2563985
 20
111.20142062
 30
0.0
 11
83.2563985
 21
195.00142062
 31
0.0
  0
LINE
  5
126
330
2
100
AcDbEntity
  8
YKK_12
  6
Continuous
100
AcDbLine
 10
79.25639887
 20
80.00142104
 30
0.0
 11
79.25639887
 21
195.00142104
 31
0.0
  0
LINE
  5
127
330
2
100
AcDbEntity
  8
YKK_D
100
AcDbLine
 10
75.25639893
 20
110.00142435
 30
0.0
 11
59.06425072
 21
110.00142435
 31
0.0
  0
LINE
  5
128
330
2
100
AcDbEntity
  8
YKK_D
100
AcDbLine
 10
75.25639893
 20
80.00142054
 30
0.0
 11
58.86658073
 21
80.00142054
 31
0.0
  0
LINE
  5
129
330
2
100
AcDbEntity
  8
YKK_D
100
AcDbLine
 10
75.25639893
 20
105.00142435
 30
0.0
 11
58.86658073
 21
105.00142435
 31
0.0
  0
LINE
  5
12A
330
2
100
AcDbEntity
  8
YKK_D
100
AcDbLine
 10
59.86657311
 20
110.00142435
 30
0.0
 11
59.86657311
 21
105.00142435
 31
0.0
  0
LINE
  5
12B
330
2
100
AcDbEntity
  8
YKK_D
100
AcDbLine
 10
59.86658073
 20
80.00142054
 30
0.0
 11
59.86658073
 21
105.00142435
 31
0.0
  0
TEXT
  5
12C
330
2
100
AcDbEntity
  8
YKK_D
100
AcDbText
 10
58.86658073
 20
89.41919085
 30
0.0
 40
6.0
  1
25
 50
90.0
 41
0.8
100
AcDbText
1001
ACAD
1000
MTEXTBEGIN
1070
    73
1070
     1
1070
    44
1040
1.0
1070
    74
1070
     0
1000
MTEXTEND
  0
LWPOLYLINE
  5
12D
330
2
100
AcDbEntity
  8
YKK_D
  6
ByBlock
100
AcDbPolyline
 90
        2
 70
     1
 43
0.85
 10
59.86658073
 20
80.10767054
 42
1.0
 10
59.86658073
 20
79.89517054
 42
1.0
  0
LWPOLYLINE
  5
12E
330
2
100
AcDbEntity
  8
YKK_D
  6
ByBlock
100
AcDbPolyline
 90
        2
 70
     1
 43
0.85
 10
59.86657311
 20
105.10767435
 42
1.0
 10
59.86657311
 20
104.89517435
 42
1.0
  0
LWPOLYLINE
  5
12F
330
2
100
AcDbEntity
  8
YKK_D
  6
ByBlock
100
AcDbPolyline
 90
        2
 70
     1
 43
0.85
 10
59.86658073
 20
104.89517435
 42
1.0
 10
59.86658073
 20
105.10767435
 42
1.0
  0
TEXT
  5
130
330
2
100
AcDbEntity
  8
YKK_D
100
AcDbText
 10
58.86657311
 20
106.84076446
 30
0.0
 40
6.0
  1
5
 50
90.0
 41
0.8
100
AcDbText
1001
ACAD
1000
MTEXTBEGIN
1070
    73
1070
     1
1070
    44
1040
1.0
1070
    74
1070
     0
1000
MTEXTEND
  0
LWPOLYLINE
  5
131
330
2
100
AcDbEntity
  8
YKK_D
  6
ByBlock
100
AcDbPolyline
 90
        2
 70
     1
 43
0.85
 10
59.86657311
 20
109.89517435
 42
1.0
 10
59.86657311
 20
110.10767435
 42
1.0
  0
LWPOLYLINE
  5
132
330
2
100
AcDbEntity
  8
YKK_D
  6
ByBlock
100
AcDbPolyline
 90
        2
 70
     1
 43
0.85
 10
60.06425072
 20
110.10767435
 42
1.0
 10
60.06425072
 20
109.89517435
 42
1.0
  0
LINE
  5
133
330
2
100
AcDbEntity
  8
YKK_11
  6
ByBlock
 62
     0
100
AcDbLine
 10
100.45639933
 20
80.00142123
 30
0.0
 11
81.65639933
 21
80.00142123
 31
0.0
  0
LINE
  5
134
330
2
100
AcDbEntity
  8
YKK_11
  6
ByBlock
 62
     0
100
AcDbLine
 10
81.65639933
 20
81.20142123
 30
0.0
 11
100.45639933
 21
81.20142123
 31
0.0
  0
LINE
  5
135
330
2
100
AcDbEntity
  8
YKK_11
  6
ByBlock
 62
     0
100
AcDbLine
 10
80.45639933
 20
81.20142123
 30
0.0
 11
80.45639933
 21
103.80142123
 31
0.0
  0
LINE
  5
136
330
2
100
AcDbEntity
  8
YKK_11
  6
ByBlock
 62
     0
100
AcDbLine
 10
81.65639933
 20
103.80142123
 30
0.0
 11
81.65639933
 21
81.20142123
 31
0.0
  0
LINE
  5
137
330
2
100
AcDbEntity
  8
YKK_13
  6
YHIDDEN_1
100
AcDbLine
 10
82.15639887
 20
83.50142104
 30
0.0
 11
82.15639887
 21
81.20142104
 31
0.0
  0
ARC
  5
138
330
2
100
AcDbEntity
  8
YKK_11
  6
ByBlock
 62
     0
100
AcDbCircle
 10
81.65639933
 20
81.20142123
 30
0.0
 40
1.199999999999999
100
AcDbArc
 50
180.00001985
 51
270.00000112
  0
LINE
  5
139
330
2
100
AcDbEntity
  8
YKK_12
  6
Continuous
100
AcDbLine
 10
79.25639887
 20
80.00142104
 30
0.0
 11
81.65639887
 21
80.00142104
 31
0.0
  0
ARC
  5
13A
330
2
100
AcDbEntity
  8
YKK_11
  6
ByBlock
 62
     0
100
AcDbCircle
 10
81.65639933
 20
103.80142123
 30
0.0
 40
1.199999999999999
100
AcDbArc
 50
89.99998128
 51
180.00001985
  0
LINE
  5
13B
330
2
100
AcDbEntity
  8
YKK_11
  6
ByBlock
 62
     0
100
AcDbLine
 10
100.45639933
 20
81.20142123
 30
0.0
 11
100.45639933
 21
80.00142123
 31
0.0
  0
LINE
  5
13C
330
2
100
AcDbEntity
  8
YKK_13
  6
YHIDDEN_1
100
AcDbLine
 10
98.15639887
 20
102.40142104
 30
0.0
 11
98.15639887
 21
100.10142104
 31
0.0
  0
ARC
  5
13D
330
2
100
AcDbEntity
  8
YKK_11
  6
ByBlock
 62
     0
100
AcDbCircle
 10
84.4563985
 20
111.20142062
 30
0.0
 40
1.199999999999999
100
AcDbArc
 50
180.00001985
 51
270.00000112
  0
LINE
  5
13E
330
2
100
AcDbEntity
  8
YKK_11
  6
ByBlock
 62
     0
100
AcDbLine
 10
105.8563985
 20
110.00142062
 30
0.0
 11
84.4563985
 21
110.00142062
 31
0.0
  0
LINE
  5
13F
330
2
100
AcDbEntity
  8
YKK_11
  6
ByBlock
 62
     0
100
AcDbLine
 10
105.8563985
 20
111.20142062
 30
0.0
 11
84.4563985
 21
111.20142062
 31
0.0
  0
LINE
  5
140
330
2
100
AcDbEntity
  8
YKK_11
  6
ByBlock
 62
     0
100
AcDbLine
 10
105.8563985
 20
120.00142062
 30
0.0
 11
105.8563985
 21
111.20142062
 31
0.0
  0
LINE
  5
141
330
2
100
AcDbEntity
  8
YKK_D
100
AcDbLine
 10
79.25639702
 20
145.00142435
 30
0.0
 11
70.65639702
 21
145.00142435
 31
0.0
  0
TEXT
  5
142
330
2
100
AcDbEntity
  8
YKK_D
100
AcDbText
 10
71.7091889
 20
146.00142435
 30
0.0
 40
6.0
  1
4
 41
0.8
100
AcDbText
1001
ACAD
1000
MTEXTBEGIN
1070
    73
1070
     1
1070
    44
1040
1.0
1070
    74
1070
     0
1000
MTEXTEND
  0
LINE
  5
143
330
2
100
AcDbEntity
  8
YKK_D
100
AcDbLine
 10
83.25639702
 20
145.00142435
 30
0.0
 11
79.25639702
 21
145.00142435
 31
0.0
  0
LWPOLYLINE
  5
144
330
2
100
AcDbEntity
  8
YKK_D
  6
ByBlock
100
AcDbPolyline
 90
        2
 70
     1
 43
0.85
 10
79.36264702
 20
145.00142435
 42
1.0
 10
79.15014702
 20
145.00142435
 42
1.0
  0
LWPOLYLINE
  5
145
330
2
100
AcDbEntity
  8
YKK_D
  6
ByBlock
100
AcDbPolyline
 90
        2
 70
     1
 43
0.85
 10
83.36264702
 20
145.00142435
 42
1.0
 10
83.15014702
 20
145.00142435
 42
1.0
  0
LWPOLYLINE
  5
146
330
2
100
AcDbEntity
  8
YKK_D
  6
ByBlock
100
AcDbPolyline
 90
        2
 70
     1
 43
0.85
 10
83.15014702
 20
145.00142435
 42
1.0
 10
83.36264702
 20
145.00142435
 42
1.0
  0
TEXT
  5
147
330
2
100
AcDbEntity
  8
YKK_D
100
AcDbText
 10
92.67417115
 20
146.00142435
 30
0.0
 40
6.0
  1
25
 41
0.8
100
AcDbText
1001
ACAD
1000
MTEXTBEGIN
1070
    73
1070
     1
1070
    44
1040
1.0
1070
    74
1070
     0
1000
MTEXTEND
  0
LINE
  5
148
330
2
100
AcDbEntity
  8
YKK_D
100
AcDbLine
 10
279.49176834
 20
82.9731768
 30
0.0
 11
279.49176834
 21
50.97318156
 31
0.0
  0
LINE
  5
149
330
2
100
AcDbEntity
  8
YKK_D
100
AcDbLine
 10
279.49176834
 20
51.97318156
 30
0.0
 11
268.37176224
 21
51.97318156
 31
0.0
  0
TEXT
  5
14A
330
2
100
AcDbEntity
  8
YKK_D
100
AcDbText
 10
269.59023939
 20
52.97318156
 30
0.0
 40
6.0
  1
10
 41
0.8
100
AcDbText
1001
ACAD
1000
MTEXTBEGIN
1070
    73
1070
     1
1070
    44
1040
1.0
1070
    74
1070
     0
1000
MTEXTEND
  0
LWPOLYLINE
  5
14B
330
2
100
AcDbEntity
  8
YKK_D
  6
ByBlock
100
AcDbPolyline
 90
        2
 70
     1
 43
0.85
 10
279.59801834
 20
51.97318156
 42
1.0
 10
279.38551834
 20
51.97318156
 42
1.0
  0
LINE
  5
14C
330
2
100
AcDbEntity
  8
YKK_11
  6
ByBlock
 62
     0
100
AcDbLine
 10
111.0563985
 20
195.00142127
 30
0.0
 11
111.0563985
 21
105.00142127
 31
0.0
  0
LINE
  5
14D
330
2
100
AcDbEntity
  8
YKK_11
  6
ByBlock
 62
     0
100
AcDbLine
 10
112.2563985
 20
105.50142127
 30
0.0
 11
112.2563985
 21
195.00142127
 31
0.0
  0
LINE
  5
14E
330
2
100
AcDbEntity
  8
YKK_11
  6
ByBlock
 62
     0
100
AcDbLine
 10
108.2563985
 20
195.00142062
 30
0.0
 11
108.2563985
 21
120.20142062
 31
0.0
  0
LINE
  5
14F
330
2
100
AcDbEntity
  8
YKK_11
  6
ByBlock
 62
     0
100
AcDbLine
 10
107.0563985
 20
120.20142062
 30
0.0
 11
107.0563985
 21
195.00142062
 31
0.0
  0
LINE
  5
150
330
2
100
AcDbEntity
  8
YKK_D
100
AcDbLine
 10
149.4564016
 20
115.00142435
 30
0.0
 11
152.9564016
 21
121.06360218
 31
0.0
  0
LINE
  5
151
330
2
100
AcDbEntity
  8
YKK_D
100
AcDbLine
 10
152.9564016
 20
121.06360218
 30
0.0
 11
145.9564016
 21
121.06360218
 31
0.0
  0
LINE
  5
152
330
2
100
AcDbEntity
  8
YKK_11
  6
ByBlock
 62
     0
100
AcDbLine
 10
113.45639933
 20
115.00142123
 30
0.0
 11
113.45639933
 21
105.00142123
 31
0.0
  0
LINE
  5
153
330
2
100
AcDbEntity
  8
YKK_11
  6
ByBlock
 62
     0
100
AcDbLine
 10
112.25639933
 20
105.00142123
 30
0.0
 11
112.25639933
 21
115.00142123
 31
0.0
  0
LINE
  5
154
330
2
100
AcDbEntity
  8
YKK_D
100
AcDbLine
 10
149.4564016
 20
115.00142435
 30
0.0
 11
149.4564016
 21
105.00142435
 31
0.0
  0
LINE
  5
155
330
2
100
AcDbEntity
  8
YKK_D
100
AcDbLine
 10
119.75639893
 20
105.00142435
 30
0.0
 11
150.4564016
 21
105.00142435
 31
0.0
  0
LINE
  5
156
330
2
100
AcDbEntity
  8
YKK_13
  6
YHIDDEN_1
100
AcDbLine
 10
108.85639887
 20
99.50142104
 30
0.0
 11
108.85639887
 21
84.10142104
 31
0.0
  0
LINE
  5
157
330
2
100
AcDbEntity
  8
YKK_13
  6
YHIDDEN_1
100
AcDbLine
 10
111.15639887
 20
100.10142104
 30
0.0
 11
111.15639887
 21
83.50142104
 31
0.0
  0
ARC
  5
158
330
2
100
AcDbEntity
  8
YKK_13
  6
YHIDDEN_1
100
AcDbCircle
 10
108.85639887
 20
83.50142104
 30
0.0
 40
2.299999999999998
100
AcDbArc
 50
270.0
 51
0.0
  0
ARC
  5
159
330
2
100
AcDbEntity
  8
YKK_13
  6
YHIDDEN_1
100
AcDbCircle
 10
108.25639887
 20
84.10142104
 30
0.0
 40
0.6
100
AcDbArc
 50
270.0
 51
0.0
  0
LINE
  5
15A
330
2
100
AcDbEntity
  8
YKK_11
  6
ByBlock
 62
     0
100
AcDbLine
 10
112.25639933
 20
103.80142123
 30
0.0
 11
109.95639933
 21
103.80142123
 31
0.0
  0
LINE
  5
15B
330
2
100
AcDbEntity
  8
YKK_11
  6
ByBlock
 62
     0
100
AcDbLine
 10
109.95639852
 20
103.80142107
 30
0.0
 11
109.85639852
 21
103.80142107
 31
0.0
  0
ARC
  5
15C
330
2
100
AcDbEntity
  8
YKK_13
  6
YHIDDEN_1
100
AcDbCircle
 10
108.85639887
 20
100.10142104
 30
0.0
 40
2.299999999999998
100
AcDbArc
 50
0.0
 51
90.0
  0
ARC
  5
15D
330
2
100
AcDbEntity
  8
YKK_13
  6
YHIDDEN_1
100
AcDbCircle
 10
108.25639887
 20
99.50142104
 30
0.0
 40
0.6
100
AcDbArc
 50
0.0
 51
90.0
  0
ARC
  5
15E
330
2
100
AcDbEntity
  8
YKK_11
  6
ByBlock
 62
     0
100
AcDbCircle
 10
112.25639933
 20
105.00142123
 30
0.0
 40
1.199999999999999
100
AcDbArc
 50
270.00000112
 51
0.0
  0
LINE
  5
15F
330
2
100
AcDbEntity
  8
YKK_D
100
AcDbLine
 10
149.4564016
 20
105.00142435
 30
0.0
 11
149.4564016
 21
93.88142588
 31
0.0
  0
TEXT
  5
160
330
2
100
AcDbEntity
  8
YKK_D
100
AcDbText
 10
148.4564016
 20
95.09990304
 30
0.0
 40
6.0
  1
10
 50
90.0
 41
0.8
100
AcDbText
1001
ACAD
1000
MTEXTBEGIN
1070
    73
1070
     1
1070
    44
1040
1.0
1070
    74
1070
     0
1000
MTEXTEND
  0
LWPOLYLINE
  5
161
330
2
100
AcDbEntity
  8
YKK_D
  6
ByBlock
100
AcDbPolyline
 90
        2
 70
     1
 43
0.85
 10
149.4564016
 20
105.10767435
 42
1.0
 10
149.4564016
 20
104.89517435
 42
1.0
  0
LINE
  5
162
330
2
100
AcDbEntity
  8
YKK_D
100
AcDbLine
 10
119.75639893
 20
115.00142435
 30
0.0
 11
150.4564016
 21
115.00142435
 31
0.0
  0
LINE
  5
163
330
2
100
AcDbEntity
  8
YKK_11
  6
ByBlock
 62
     0
100
AcDbLine
 10
107.0563985
 20
110.00142062
 30
0.0
 11
107.0563985
 21
119.70142062
 31
0.0
  0
LINE
  5
164
330
2
100
AcDbEntity
  8
YKK_11
  6
ByBlock
 62
     0
100
AcDbLine
 10
108.2563985
 20
119.70142062
 30
0.0
 11
108.2563985
 21
110.00142062
 31
0.0
  0
LINE
  5
165
330
2
100
AcDbEntity
  8
YKK_11
  6
ByBlock
 62
     0
100
AcDbLine
 10
108.2563985
 20
110.00142062
 30
0.0
 11
107.0563985
 21
110.00142062
 31
0.0
  0
LINE
  5
166
330
2
100
AcDbEntity
  8
YKK_11
  6
ByBlock
 62
     0
100
AcDbLine
 10
107.0563985
 20
119.70142062
 30
0.0
 11
107.0563985
 21
120.20142062
 31
0.0
  0
LINE
  5
167
330
2
100
AcDbEntity
  8
YKK_11
  6
ByBlock
 62
     0
100
AcDbLine
 10
108.2563985
 20
120.20142062
 30
0.0
 11
108.2563985
 21
119.70142062
 31
0.0
  0
LINE
  5
168
330
2
100
AcDbEntity
  8
YKK_11
  6
ByBlock
 62
     0
100
AcDbLine
 10
112.25639933
 20
115.00142123
 30
0.0
 11
113.45639933
 21
115.00142123
 31
0.0
  0
LINE
  5
169
330
2
100
AcDbEntity
  8
YKK_D
100
AcDbLine
 10
149.4564016
 20
115.00142435
 30
0.0
 11
149.4564016
 21
127.12578001
 31
0.0
  0
LINE
  5
16A
330
2
100
AcDbEntity
  8
YKK_D
100
AcDbLine
 10
130.45639969
 20
115.00142435
 30
0.0
 11
150.4564016
 21
115.00142435
 31
0.0
  0
LINE
  5
16B
330
2
100
AcDbEntity
  8
YKK_D
100
AcDbLine
 10
149.4564016
 20
115.00142435
 30
0.0
 11
145.9564016
 21
121.06360218
 31
0.0
  0
LINE
  5
16C
330
2
100
AcDbEntity
  8
YKK_D
100
AcDbLine
 10
112.25640465
 20
145.00142435
 30
0.0
 11
120.85640465
 21
145.00142435
 31
0.0
  0
LINE
  5
16D
330
2
100
AcDbEntity
  8
YKK_D
100
AcDbLine
 10
108.25640465
 20
145.00142435
 30
0.0
 11
112.25640465
 21
145.00142435
 31
0.0
  0
LWPOLYLINE
  5
16E
330
2
100
AcDbEntity
  8
YKK_D
  6
ByBlock
100
AcDbPolyline
 90
        2
 70
     1
 43
0.85
 10
108.15015465
 20
145.00142435
 42
1.0
 10
108.36265465
 20
145.00142435
 42
1.0
  0
LWPOLYLINE
  5
16F
330
2
100
AcDbEntity
  8
YKK_D
  6
ByBlock
100
AcDbPolyline
 90
        2
 70
     1
 43
0.85
 10
108.36265465
 20
145.00142435
 42
1.0
 10
108.15015465
 20
145.00142435
 42
1.0
  0
LWPOLYLINE
  5
170
330
2
100
AcDbEntity
  8
YKK_D
  6
ByBlock
100
AcDbPolyline
 90
        2
 70
     1
 43
0.85
 10
112.15015465
 20
145.00142435
 42
1.0
 10
112.36265465
 20
145.00142435
 42
1.0
  0
TEXT
  5
171
330
2
100
AcDbEntity
  8
YKK_D
100
AcDbText
 10
116.70919653
 20
146.00142435
 30
0.0
 40
6.0
  1
4
 41
0.8
100
AcDbText
1001
ACAD
1000
MTEXTBEGIN
1070
    73
1070
     1
1070
    44
1040
1.0
1070
    74
1070
     0
1000
MTEXTEND
  0
LINE
  5
172
330
2
100
AcDbEntity
  8
YKK_D
100
AcDbLine
 10
254.49176834
 20
127.17317661
 30
0.0
 11
254.49176834
 21
164.17317851
 31
0.0
  0
LINE
  5
173
330
2
100
AcDbEntity
  8
YKK_D
100
AcDbLine
 10
279.49176834
 20
127.17317661
 30
0.0
 11
279.49176834
 21
164.17317851
 31
0.0
  0
LINE
  5
174
330
2
100
AcDbEntity
  8
YKK_D
100
AcDbLine
 10
250.49175499
 20
123.17317851
 30
0.0
 11
233.49176834
 21
123.17317851
 31
0.0
  0
LINE
  5
175
330
2
100
AcDbEntity
  8
YKK_D
100
AcDbLine
 10
250.49175499
 20
103.17317851
 30
0.0
 11
233.49176834
 21
103.17317851
 31
0.0
  0
LINE
  5
176
330
2
100
AcDbEntity
  8
YKK_D
100
AcDbLine
 10
234.49176834
 20
123.17317851
 30
0.0
 11
234.49176834
 21
103.17317851
 31
0.0
  0
LWPOLYLINE
  5
177
330
2
100
AcDbEntity
  8
YKK_D
  6
ByBlock
100
AcDbPolyline
 90
        2
 70
     1
 43
0.85
 10
234.49176834
 20
103.27942851
 42
1.0
 10
234.49176834
 20
103.06692851
 42
1.0
  0
TEXT
  5
178
330
2
100
AcDbEntity
  8
YKK_D
100
AcDbText
 10
233.49176834
 20
106.95998054
 30
0.0
 40
6.0
  1
21.2
 50
90.0
 41
0.8
100
AcDbText
1001
ACAD
1000
MTEXTBEGIN
1070
    73
1070
     1
1070
    44
1040
1.0
1070
    74
1070
     0
1000
MTEXTEND
  0
LWPOLYLINE
  5
179
330
2
100
AcDbEntity
  8
YKK_D
  6
ByBlock
100
AcDbPolyline
 90
        2
 70
     1
 43
0.85
 10
234.49176834
 20
123.06692851
 42
1.0
 10
234.49176834
 20
123.27942851
 42
1.0
  0
LINE
  5
17A
330
2
100
AcDbEntity
  8
YKK_11
  6
ByBlock
 62
     0
100
AcDbLine
 10
278.2917549
 20
121.97317699
 30
0.0
 11
278.2917549
 21
95.27317699
 31
0.0
  0
LINE
  5
17B
330
2
100
AcDbEntity
  8
YKK_11
  6
ByBlock
 62
     0
100
AcDbLine
 10
255.6917549
 20
103.17317699
 30
0.0
 11
255.6917549
 21
121.97317699
 31
0.0
  0
LINE
  5
17C
330
2
100
AcDbEntity
  8
YKK_11
  6
ByBlock
 62
     0
100
AcDbLine
 10
254.4917549
 20
121.97317699
 30
0.0
 11
254.4917549
 21
103.17317699
 31
0.0
  0
LINE
  5
17D
330
2
100
AcDbEntity
  8
YKK_11
  6
ByBlock
 62
     0
100
AcDbLine
 10
279.4917549
 20
91.37317699
 30
0.0
 11
279.4917549
 21
121.97317699
 31
0.0
  0
LINE
  5
17E
330
2
100
AcDbEntity
  8
YKK_13
  6
YHIDDEN_1
100
AcDbLine
 10
255.6917549
 20
94.77317658
 30
0.0
 11
255.6917549
 21
121.47317658
 31
0.0
  0
LINE
  5
17F
330
2
100
AcDbEntity
  8
YKK_13
  6
YHIDDEN_1
100
AcDbLine
 10
257.9917549
 20
121.47317658
 30
0.0
 11
257.9917549
 21
95.37317658
 31
0.0
  0
LINE
  5
180
330
2
100
AcDbEntity
  8
YKK_13
  6
YHIDDEN_1
100
AcDbLine
 10
273.9917549
 20
94.77317658
 30
0.0
 11
258.5917549
 21
94.77317658
 31
0.0
  0
LINE
  5
181
330
2
100
AcDbEntity
  8
YKK_13
  6
YHIDDEN_1
100
AcDbLine
 10
274.5917549
 20
92.47317658
 30
0.0
 11
257.9917549
 21
92.47317658
 31
0.0
  0
ARC
  5
182
330
2
100
AcDbEntity
  8
YKK_13
  6
YHIDDEN_1
100
AcDbCircle
 10
257.9917549
 20
94.77317658
 30
0.0
 40
2.299999999999998
100
AcDbArc
 50
180.0
 51
270.0
  0
ARC
  5
183
330
2
100
AcDbEntity
  8
YKK_13
  6
YHIDDEN_1
100
AcDbCircle
 10
258.5917549
 20
95.37317658
 30
0.0
 40
0.6
100
AcDbArc
 50
180.0
 51
270.0
  0
LINE
  5
184
330
2
100
AcDbEntity
  8
YKK_11
  6
ByBlock
 62
     0
100
AcDbLine
 10
254.4917549
 20
103.17317699
 30
0.0
 11
255.6917549
 21
103.17317699
 31
0.0
  0
ARC
  5
185
330
2
100
AcDbEntity
  8
YKK_11
  6
ByBlock
 62
     0
100
AcDbCircle
 10
279.4917549
 20
91.37317699
 30
0.0
 40
1.199999999999999
100
AcDbArc
 50
180.00001985
 51
270.00000112
  0
LINE
  5
186
330
2
100
AcDbEntity
  8
YKK_13
  6
Continuous
100
AcDbLine
 10
275.0917549
 20
105.47317658
 30
0.0
 11
275.0917549
 21
90.17317658
 31
0.0
  0
ARC
  5
187
330
2
100
AcDbEntity
  8
YKK_13
  6
Continuous
100
AcDbCircle
 10
278.2917549
 20
90.17317658
 30
0.0
 40
3.2
100
AcDbArc
 50
180.0
 51
270.0
  0
LINE
  5
188
330
2
100
AcDbEntity
  8
YKK_13
  6
YHIDDEN_1
100
AcDbLine
 10
276.8917549
 20
94.77317658
 30
0.0
 11
276.8917549
 21
105.47317658
 31
0.0
  0
LINE
  5
189
330
2
100
AcDbEntity
  8
YKK_13
  6
YHIDDEN_1
100
AcDbLine
 10
274.5917549
 20
105.47317658
 30
0.0
 11
274.5917549
 21
95.37317658
 31
0.0
  0
ARC
  5
18A
330
2
100
AcDbEntity
  8
YKK_13
  6
YHIDDEN_1
100
AcDbCircle
 10
274.5917549
 20
94.77317658
 30
0.0
 40
2.299999999999998
100
AcDbArc
 50
270.0
 51
0.0
  0
ARC
  5
18B
330
2
100
AcDbEntity
  8
YKK_13
  6
YHIDDEN_1
100
AcDbCircle
 10
273.9917549
 20
95.37317658
 30
0.0
 40
0.6
100
AcDbArc
 50
270.0
 51
0.0
  0
LINE
  5
18C
330
2
100
AcDbEntity
  8
YKK_11
  6
ByBlock
 62
     0
100
AcDbLine
 10
278.2917549
 20
95.27317699
 30
0.0
 11
278.2917549
 21
91.37317699
 31
0.0
  0
LINE
  5
18D
330
2
100
AcDbEntity
  8
YKK_13
  6
Continuous
100
AcDbLine
 10
278.2917549
 20
105.47317658
 30
0.0
 11
275.0917549
 21
105.47317658
 31
0.0
  0
LINE
  5
18E
330
2
100
AcDbEntity
  8
YKK_13
  6
YHIDDEN_1
100
AcDbLine
 10
276.8917549
 20
105.47317658
 30
0.0
 11
274.5917549
 21
105.47317658
 31
0.0
  0
LINE
  5
18F
330
2
100
AcDbEntity
  8
YKK_11
  6
ByBlock
 62
     0
100
AcDbLine
 10
255.6917549
 20
121.97317699
 30
0.0
 11
278.2917549
 21
121.97317699
 31
0.0
  0
LINE
  5
190
330
2
100
AcDbEntity
  8
YKK_11
  6
ByBlock
 62
     0
100
AcDbLine
 10
278.2917549
 20
123.17317699
 30
0.0
 11
255.6917549
 21
123.17317699
 31
0.0
  0
ARC
  5
191
330
2
100
AcDbEntity
  8
YKK_11
  6
ByBlock
 62
     0
100
AcDbCircle
 10
255.6917549
 20
121.97317699
 30
0.0
 40
1.199999999999999
100
AcDbArc
 50
89.99998128
 51
180.00001985
  0
LINE
  5
192
330
2
100
AcDbEntity
  8
YKK_13
  6
YHIDDEN_1
100
AcDbLine
 10
257.9917549
 20
121.47317658
 30
0.0
 11
255.6917549
 21
121.47317658
 31
0.0
  0
ARC
  5
193
330
2
100
AcDbEntity
  8
YKK_11
  6
ByBlock
 62
     0
100
AcDbCircle
 10
278.2917549
 20
121.97317699
 30
0.0
 40
1.199999999999999
100
AcDbArc
 50
0.0
 51
89.99998128
  0
TEXT
  5
194
330
2
100
AcDbEntity
  8
YKK_D
100
AcDbText
 10
263.90953484
 20
164.17317851
 30
0.0
 40
6.0
  1
25
 41
0.8
100
AcDbText
1001
ACAD
1000
MTEXTBEGIN
1070
    73
1070
     1
1070
    44
1040
1.0
1070
    74
1070
     0
1000
MTEXTEND
  0
LINE
  5
195
330
2
100
AcDbEntity
  8
YKK_D
100
AcDbLine
 10
254.49176834
 20
163.17317851
 30
0.0
 11
279.49176834
 21
163.17317851
 31
0.0
  0
LWPOLYLINE
  5
196
330
2
100
AcDbEntity
  8
YKK_D
  6
ByBlock
100
AcDbPolyline
 90
        2
 70
     1
 43
0.85
 10
254.59801834
 20
163.17317851
 42
1.0
 10
254.38551834
 20
163.17317851
 42
1.0
  0
LWPOLYLINE
  5
197
330
2
100
AcDbEntity
  8
YKK_D
  6
ByBlock
100
AcDbPolyline
 90
        2
 70
     1
 43
0.85
 10
279.38551834
 20
163.17317851
 42
1.0
 10
279.59801834
 20
163.17317851
 42
1.0
  0
LWPOLYLINE
  5
198
330
2
100
AcDbEntity
  8
YKK_D
  6
ByBlock
100
AcDbPolyline
 90
        2
 70
     1
 43
0.85
 10
279.59801834
 20
163.17317851
 42
1.0
 10
279.38551834
 20
163.17317851
 42
1.0
  0
LINE
  5
199
330
2
100
AcDbEntity
  8
YKK_11
  6
ByBlock
 62
     0
100
AcDbLine
 10
109.95639887
 20
308.20142112
 30
0.0
 11
81.65639887
 21
308.20142112
 31
0.0
  0
LINE
  5
19A
330
2
100
AcDbEntity
  8
YKK_11
  6
ByBlock
 62
     0
100
AcDbLine
 10
81.65639887
 20
307.00142112
 30
0.0
 11
112.25639887
 21
307.00142112
 31
0.0
  0
ARC
  5
19B
330
2
100
AcDbEntity
  8
YKK_11
  6
ByBlock
 62
     0
100
AcDbCircle
 10
104.75639887
 20
299.70142095
 30
0.0
 40
2.299999999999998
100
AcDbArc
 50
0.0
 51
89.99998128
  0
LINE
  5
19C
330
2
100
AcDbEntity
  8
YKK_11
  6
ByBlock
 62
     0
100
AcDbLine
 10
107.05639887
 20
292.00142095
 30
0.0
 11
105.85639887
 21
292.00142095
 31
0.0
  0
LINE
  5
19D
330
2
100
AcDbEntity
  8
YKK_11
  6
ByBlock
 62
     0
100
AcDbLine
 10
109.95639852
 20
308.20142107
 30
0.0
 11
82.15639852
 21
308.20142107
 31
0.0
  0
LINE
  5
19E
330
2
100
AcDbEntity
  8
YKK_13
  6
Continuous
100
AcDbLine
 10
84.45639887
 20
283.80142104
 30
0.0
 11
129.45639887
 21
283.80142104
 31
0.0
  0
LINE
  5
19F
330
2
100
AcDbEntity
  8
YKK_13
  6
Continuous
100
AcDbLine
 10
129.45639887
 20
217.80142104
 30
0.0
 11
84.45639887
 21
217.80142104
 31
0.0
  0
LINE
  5
1A0
330
2
100
AcDbEntity
  8
YKK_13
  6
YHIDDEN_1
100
AcDbLine
 10
108.85639887
 20
330.80142104
 30
0.0
 11
82.15639887
 21
330.80142104
 31
0.0
  0
LINE
  5
1A1
330
2
100
AcDbEntity
  8
YKK_13
  6
YHIDDEN_1
100
AcDbLine
 10
108.85639887
 20
309.60142104
 30
0.0
 11
98.15639887
 21
309.60142104
 31
0.0
  0
LINE
  5
1A2
330
2
100
AcDbEntity
  8
YKK_13
  6
YHIDDEN_1
100
AcDbLine
 10
82.15639887
 20
328.50142104
 30
0.0
 11
108.25639887
 21
328.50142104
 31
0.0
  0
LINE
  5
1A3
330
2
100
AcDbEntity
  8
YKK_13
  6
YHIDDEN_1
100
AcDbLine
 10
98.15639887
 20
311.90142104
 30
0.0
 11
108.25639887
 21
311.90142104
 31
0.0
  0
LINE
  5
1A4
330
2
100
AcDbEntity
  8
YKK_11
  6
ByBlock
 62
     0
100
AcDbLine
 10
80.45639887
 20
330.80142112
 30
0.0
 11
80.45639887
 21
308.20142112
 31
0.0
  0
LINE
  5
1A5
330
2
100
AcDbEntity
  8
YKK_11
  6
ByBlock
 62
     0
100
AcDbLine
 10
81.65639887
 20
308.20142112
 30
0.0
 11
81.65639887
 21
330.80142112
 31
0.0
  0
LINE
  5
1A6
330
2
100
AcDbEntity
  8
YKK_D
100
AcDbLine
 10
60.29587151
 20
332.00143198
 30
0.0
 11
60.29587151
 21
307.00143198
 31
0.0
  0
LINE
  5
1A7
330
2
100
AcDbEntity
  8
YKK_11
  6
ByBlock
 62
     0
100
AcDbLine
 10
84.45639887
 20
300.80142095
 30
0.0
 11
84.45639887
 21
226.00142095
 31
0.0
  0
LINE
  5
1A8
330
2
100
AcDbEntity
  8
YKK_13
  6
YCENTER_1
100
AcDbLine
 10
90.95639887
 20
295.82026179
 30
0.0
 11
90.95639887
 21
205.95948791
 31
0.0
  0
TEXT
  5
1A9
330
2
100
AcDbEntity
  8
YKK_D
100
AcDbText
 10
59.06425072
 20
202.894833
 30
0.0
 40
6.0
  1
DH
 50
90.0
 41
0.8
100
AcDbText
1001
ACAD
1000
MTEXTBEGIN
1070
    73
1070
     1
1070
    44
1040
1.0
1070
    74
1070
     0
1000
MTEXTEND
  0
ARC
  5
1AA
330
2
100
AcDbEntity
  8
YKK_13
  6
Continuous
100
AcDbCircle
 10
84.34322774
 20
232.85663708
 30
0.0
 40
1.5
100
AcDbArc
 50
274.32693055
 51
85.67306945
  0
ARC
  5
1AB
330
2
100
AcDbEntity
  8
YKK_13
  6
Continuous
100
AcDbCircle
 10
90.89265819
 20
234.2274481
 30
0.0
 40
1.5
100
AcDbArc
 50
87.5645518
 51
272.4354482
  0
LINE
  5
1AC
330
2
100
AcDbEntity
  8
YKK_11
  6
ByBlock
 62
     0
100
AcDbLine
 10
84.45639887
 20
226.00142095
 30
0.0
 11
84.45639887
 21
216.00142095
 31
0.0
  0
LINE
  5
1AD
330
2
100
AcDbEntity
  8
YKK_13
  6
Continuous
100
AcDbLine
 10
102.45639887
 20
217.80142104
 30
0.0
 11
102.45639887
 21
214.30142104
 31
0.0
  0
LINE
  5
1AE
330
2
100
AcDbEntity
  8
YKK_13
  6
Continuous
100
AcDbLine
 10
84.45639887
 20
216.60142104
 30
0.0
 11
102.45639887
 21
216.60142104
 31
0.0
  0
LINE
  5
1AF
330
2
100
AcDbEntity
  8
YKK_13
  6
Continuous
100
AcDbLine
 10
102.45639887
 20
214.30142104
 30
0.0
 11
84.45639887
 21
214.30142104
 31
0.0
  0
LINE
  5
1B0
330
2
100
AcDbEntity
  8
YKK_13
  6
Continuous
100
AcDbLine
 10
86.45639887
 20
212.80142104
 30
0.0
 11
95.45639887
 21
212.80142104
 31
0.0
  0
LINE
  5
1B1
330
2
100
AcDbEntity
  8
YKK_11
  6
ByBlock
 62
     0
100
AcDbLine
 10
84.45639887
 20
216.00142095
 30
0.0
 11
84.45639887
 21
211.00142095
 31
0.0
  0
LINE
  5
1B2
330
2
100
AcDbEntity
  8
YKK_13
  6
Continuous
100
AcDbLine
 10
86.45639887
 20
212.80142104
 30
0.0
 11
85.95639887
 21
214.30142104
 31
0.0
  0
LINE
  5
1B3
330
2
100
AcDbEntity
  8
YKK_13
  6
Continuous
100
AcDbLine
 10
95.45639887
 20
212.80142104
 30
0.0
 11
95.95639887
 21
214.30142104
 31
0.0
  0
LINE
  5
1B4
330
2
100
AcDbEntity
  8
YKK_13
  6
Continuous
100
AcDbLine
 10
84.45639887
 20
229.80142104
 30
0.0
 11
90.95639887
 21
229.80142104
 31
0.0
  0
LINE
  5
1B5
330
2
100
AcDbEntity
  8
YKK_13
  6
YCENTER_1
100
AcDbLine
 10
98.45639887
 20
228.30142104
 30
0.0
 11
98.45639887
 21
222.30142104
 31
0.0
  0
LINE
  5
1B6
330
2
100
AcDbEntity
  8
YKK_13
  6
YCENTER_1
100
AcDbLine
 10
95.45639887
 20
225.30142104
 30
0.0
 11
101.41562024
 21
225.30142104
 31
0.0
  0
LINE
  5
1B7
330
2
100
AcDbEntity
  8
YKK_13
  6
YCENTER_1
100
AcDbLine
 10
98.45639887
 20
253.80142104
 30
0.0
 11
98.45639887
 21
247.80142104
 31
0.0
  0
CIRCLE
  5
1B8
330
2
100
AcDbEntity
  8
YKK_13
  6
Continuous
100
AcDbCircle
 10
87.46563063
 20
238.18756884
 30
0.0
 40
1.5
  0
LINE
  5
1B9
330
2
100
AcDbEntity
  8
YKK_13
  6
Continuous
100
AcDbLine
 10
84.45639887
 20
245.80142104
 30
0.0
 11
90.95639887
 21
245.80142104
 31
0.0
  0
LINE
  5
1BA
330
2
100
AcDbEntity
  8
YKK_13
  6
Continuous
100
AcDbLine
 10
84.45639887
 20
242.80142104
 30
0.0
 11
90.95639887
 21
242.80142104
 31
0.0
  0
LINE
  5
1BB
330
2
100
AcDbEntity
  8
YKK_13
  6
Continuous
100
AcDbLine
 10
84.45639887
 20
241.80142104
 30
0.0
 11
90.95639887
 21
241.80142104
 31
0.0
  0
LINE
  5
1BC
330
2
100
AcDbEntity
  8
YKK_13
  6
YCENTER_1
100
AcDbLine
 10
95.45639887
 20
250.80142104
 30
0.0
 11
101.45639887
 21
250.80142104
 31
0.0
  0
LINE
  5
1BD
330
2
100
AcDbEntity
  8
YKK_D
100
AcDbLine
 10
75.25639893
 20
307.00143198
 30
0.0
 11
59.29587151
 21
307.00143198
 31
0.0
  0
LINE
  5
1BE
330
2
100
AcDbEntity
  8
YKK_D
100
AcDbLine
 10
75.25639893
 20
302.00143198
 30
0.0
 11
59.27205254
 21
302.00143198
 31
0.0
  0
LINE
  5
1BF
330
2
100
AcDbEntity
  8
YKK_D
100
AcDbLine
 10
60.27205254
 20
302.00143198
 30
0.0
 11
60.27205254
 21
307.00143198
 31
0.0
  0
TEXT
  5
1C0
330
2
100
AcDbEntity
  8
YKK_D
100
AcDbText
 10
59.27205254
 20
302.14077209
 30
0.0
 40
6.0
  1
3
 50
90.0
 41
0.8
100
AcDbText
1001
ACAD
1000
MTEXTBEGIN
1070
    73
1070
     1
1070
    44
1040
1.0
1070
    74
1070
     0
1000
MTEXTEND
  0
LWPOLYLINE
  5
1C1
330
2
100
AcDbEntity
  8
YKK_D
  6
ByBlock
100
AcDbPolyline
 90
        2
 70
     1
 43
0.85
 10
60.27205254
 20
302.10768198
 42
1.0
 10
60.27205254
 20
301.89518198
 42
1.0
  0
LWPOLYLINE
  5
1C2
330
2
100
AcDbEntity
  8
YKK_D
  6
ByBlock
100
AcDbPolyline
 90
        2
 70
     1
 43
0.85
 10
60.06425072
 20
301.89518198
 42
1.0
 10
60.06425072
 20
302.10768198
 42
1.0
  0
LWPOLYLINE
  5
1C3
330
2
100
AcDbEntity
  8
YKK_D
  6
ByBlock
100
AcDbPolyline
 90
        2
 70
     1
 43
0.85
 10
60.27205254
 20
306.89518198
 42
1.0
 10
60.27205254
 20
307.10768198
 42
1.0
  0
LWPOLYLINE
  5
1C4
330
2
100
AcDbEntity
  8
YKK_D
  6
ByBlock
100
AcDbPolyline
 90
        2
 70
     1
 43
0.85
 10
60.29587151
 20
307.10768198
 42
1.0
 10
60.29587151
 20
306.89518198
 42
1.0
  0
TEXT
  5
1C5
330
2
100
AcDbEntity
  8
YKK_D
100
AcDbText
 10
59.29587151
 20
316.41919848
 30
0.0
 40
6.0
  1
25
 50
90.0
 41
0.8
100
AcDbText
1001
ACAD
1000
MTEXTBEGIN
1070
    73
1070
     1
1070
    44
1040
1.0
1070
    74
1070
     0
1000
MTEXTEND
  0
LINE
  5
1C6
330
2
100
AcDbEntity
  8
YKK_11
  6
ByBlock
 62
     0
100
AcDbLine
 10
105.85639887
 20
292.00142095
 30
0.0
 11
105.85639887
 21
300.80142095
 31
0.0
  0
LINE
  5
1C7
330
2
100
AcDbEntity
  8
YKK_13
  6
YCENTER_1
100
AcDbLine
 10
95.45639887
 20
276.30142104
 30
0.0
 11
101.52039203
 21
276.30142104
 31
0.0
  0
LINE
  5
1C8
330
2
100
AcDbEntity
  8
YKK_13
  6
YCENTER_1
100
AcDbLine
 10
98.45639887
 20
279.30142104
 30
0.0
 11
98.45639887
 21
273.30142104
 31
0.0
  0
ARC
  5
1C9
330
2
100
AcDbEntity
  8
YKK_13
  6
Continuous
100
AcDbCircle
 10
90.95639887
 20
285.00142104
 30
0.0
 40
5.0
100
AcDbArc
 50
27.3871075
 51
152.6128925
  0
LINE
  5
1CA
330
2
100
AcDbEntity
  8
YKK_13
  6
Continuous
100
AcDbLine
 10
102.45639887
 20
287.30142104
 30
0.0
 11
84.45639887
 21
287.30142104
 31
0.0
  0
LINE
  5
1CB
330
2
100
AcDbEntity
  8
YKK_13
  6
Continuous
100
AcDbLine
 10
84.45639887
 20
285.00142104
 30
0.0
 11
102.45639887
 21
285.00142104
 31
0.0
  0
LINE
  5
1CC
330
2
100
AcDbEntity
  8
YKK_13
  6
Continuous
100
AcDbLine
 10
102.45639887
 20
283.80142104
 30
0.0
 11
102.45639887
 21
287.30142104
 31
0.0
  0
ARC
  5
1CD
330
2
100
AcDbEntity
  8
YKK_11
  6
ByBlock
 62
     0
100
AcDbCircle
 10
84.45639887
 20
300.80142095
 30
0.0
 40
1.199999999999999
100
AcDbArc
 50
89.99998128
 51
180.00001985
  0
ARC
  5
1CE
330
2
100
AcDbEntity
  8
YKK_11
  6
ByBlock
 62
     0
100
AcDbCircle
 10
81.65639887
 20
308.20142112
 30
0.0
 40
1.199999999999999
100
AcDbArc
 50
180.00001985
 51
270.00000112
  0
LINE
  5
1CF
330
2
100
AcDbEntity
  8
YKK_13
  6
YHIDDEN_1
100
AcDbLine
 10
98.15639887
 20
309.60142104
 30
0.0
 11
98.15639887
 21
311.90142104
 31
0.0
  0
LINE
  5
1D0
330
2
100
AcDbEntity
  8
YKK_11
  6
ByBlock
 62
     0
100
AcDbLine
 10
104.75639887
 20
302.00142095
 30
0.0
 11
84.45639887
 21
302.00142095
 31
0.0
  0
LINE
  5
1D1
330
2
100
AcDbEntity
  8
YKK_11
  6
ByBlock
 62
     0
100
AcDbLine
 10
105.85639887
 20
300.80142095
 30
0.0
 11
84.45639887
 21
300.80142095
 31
0.0
  0
LINE
  5
1D2
330
2
100
AcDbEntity
  8
YKK_D
100
AcDbLine
 10
79.25639702
 20
352.00143198
 30
0.0
 11
60.13639854
 21
352.00143198
 31
0.0
  0
LINE
  5
1D3
330
2
100
AcDbEntity
  8
YKK_D
100
AcDbLine
 10
75.25639893
 20
332.00143198
 30
0.0
 11
59.29587151
 21
332.00143198
 31
0.0
  0
LWPOLYLINE
  5
1D4
330
2
100
AcDbEntity
  8
YKK_D
  6
ByBlock
100
AcDbPolyline
 90
        2
 70
     1
 43
0.85
 10
60.29587151
 20
331.89518198
 42
1.0
 10
60.29587151
 20
332.10768198
 42
1.0
  0
LINE
  5
1D5
330
2
100
AcDbEntity
  8
YKK_D
100
AcDbLine
 10
79.25639702
 20
336.00142102
 30
0.0
 11
79.25639702
 21
373.00143198
 31
0.0
  0
LINE
  5
1D6
330
2
100
AcDbEntity
  8
YKK_D
100
AcDbLine
 10
80.4564016
 20
355.9363933
 30
0.0
 11
80.4564016
 21
373.00143198
 31
0.0
  0
LINE
  5
1D7
330
2
100
AcDbEntity
  8
YKK_D
100
AcDbLine
 10
80.4564016
 20
355.9363933
 30
0.0
 11
80.4564016
 21
373.00143198
 31
0.0
  0
LINE
  5
1D8
330
2
100
AcDbEntity
  8
YKK_D
100
AcDbLine
 10
100.4564016
 20
336.00142102
 30
0.0
 11
100.4564016
 21
373.00143198
 31
0.0
  0
TEXT
  5
1D9
330
2
100
AcDbEntity
  8
YKK_D
100
AcDbText
 10
62.28482494
 20
353.00143198
 30
0.0
 40
6.0
  1
13.2
 41
0.8
100
AcDbText
1001
ACAD
1000
MTEXTBEGIN
1070
    73
1070
     1
1070
    44
1040
1.0
1070
    74
1070
     0
1000
MTEXTEND
  0
LINE
  5
1DA
330
2
100
AcDbEntity
  8
YKK_11
  6
ByBlock
 62
     0
100
AcDbLine
 10
100.45639887
 20
332.00142112
 30
0.0
 11
81.65639887
 21
332.00142112
 31
0.0
  0
LINE
  5
1DB
330
2
100
AcDbEntity
  8
YKK_11
  6
ByBlock
 62
     0
100
AcDbLine
 10
81.65639887
 20
330.80142112
 30
0.0
 11
100.45639887
 21
330.80142112
 31
0.0
  0
LINE
  5
1DC
330
2
100
AcDbEntity
  8
YKK_D
100
AcDbLine
 10
90.9564016
 20
352.00143198
 30
0.0
 11
79.25639702
 21
352.00143198
 31
0.0
  0
ARC
  5
1DD
330
2
100
AcDbEntity
  8
YKK_11
  6
ByBlock
 62
     0
100
AcDbCircle
 10
81.65639887
 20
330.80142112
 30
0.0
 40
1.199999999999999
100
AcDbArc
 50
89.99998128
 51
180.00001985
  0
LINE
  5
1DE
330
2
100
AcDbEntity
  8
YKK_12
  6
Continuous
100
AcDbLine
 10
79.25639887
 20
332.00142104
 30
0.0
 11
81.65639887
 21
332.00142104
 31
0.0
  0
LINE
  5
1DF
330
2
100
AcDbEntity
  8
YKK_13
  6
YHIDDEN_1
100
AcDbLine
 10
82.15639887
 20
328.50142104
 30
0.0
 11
82.15639887
 21
330.80142104
 31
0.0
  0
LWPOLYLINE
  5
1E0
330
2
100
AcDbEntity
  8
YKK_D
  6
ByBlock
100
AcDbPolyline
 90
        2
 70
     1
 43
0.85
 10
79.36264702
 20
352.00143198
 42
1.0
 10
79.15014702
 20
352.00143198
 42
1.0
  0
LINE
  5
1E1
330
2
100
AcDbEntity
  8
YKK_D
100
AcDbLine
 10
90.9564016
 20
336.00142054
 30
0.0
 11
90.9564016
 21
353.00143198
 31
0.0
  0
LINE
  5
1E2
330
2
100
AcDbEntity
  8
YKK_11
  6
ByBlock
 62
     0
100
AcDbLine
 10
100.45639887
 20
330.80142112
 30
0.0
 11
100.45639887
 21
332.00142112
 31
0.0
  0
LWPOLYLINE
  5
1E3
330
2
100
AcDbEntity
  8
YKK_D
  6
ByBlock
100
AcDbPolyline
 90
        2
 70
     1
 43
0.85
 10
90.8501516
 20
352.00143198
 42
1.0
 10
91.0626516
 20
352.00143198
 42
1.0
  0
LINE
  5
1E4
330
2
100
AcDbEntity
  8
YKK_D
100
AcDbLine
 10
80.4564016
 20
372.00143198
 30
0.0
 11
100.4564016
 21
372.00143198
 31
0.0
  0
TEXT
  5
1E5
330
2
100
AcDbEntity
  8
YKK_D
100
AcDbText
 10
64.44421428
 20
373.00143198
 30
0.0
 40
6.0
  1
1.2
 41
0.8
100
AcDbText
1001
ACAD
1000
MTEXTBEGIN
1070
    73
1070
     1
1070
    44
1040
1.0
1070
    74
1070
     0
1000
MTEXTEND
  0
LINE
  5
1E6
330
2
100
AcDbEntity
  8
YKK_D
100
AcDbLine
 10
79.25639702
 20
372.00143198
 30
0.0
 11
62.65639702
 21
372.00143198
 31
0.0
  0
LINE
  5
1E7
330
2
100
AcDbEntity
  8
YKK_D
100
AcDbLine
 10
80.4564016
 20
372.00143198
 30
0.0
 11
82.1564016
 21
372.00143198
 31
0.0
  0
LINE
  5
1E8
330
2
100
AcDbEntity
  8
YKK_D
100
AcDbLine
 10
80.4564016
 20
372.00143198
 30
0.0
 11
79.25639702
 21
372.00143198
 31
0.0
  0
LWPOLYLINE
  5
1E9
330
2
100
AcDbEntity
  8
YKK_D
  6
ByBlock
100
AcDbPolyline
 90
        2
 70
     1
 43
0.85
 10
80.5626516
 20
372.00143198
 42
1.0
 10
80.3501516
 20
372.00143198
 42
1.0
  0
LWPOLYLINE
  5
1EA
330
2
100
AcDbEntity
  8
YKK_D
  6
ByBlock
100
AcDbPolyline
 90
        2
 70
     1
 43
0.85
 10
79.15014702
 20
372.00143198
 42
1.0
 10
79.36264702
 20
372.00143198
 42
1.0
  0
LWPOLYLINE
  5
1EB
330
2
100
AcDbEntity
  8
YKK_D
  6
ByBlock
100
AcDbPolyline
 90
        2
 70
     1
 43
0.85
 10
80.5626516
 20
372.00143198
 42
1.0
 10
80.3501516
 20
372.00143198
 42
1.0
  0
TEXT
  5
1EC
330
2
100
AcDbEntity
  8
YKK_D
100
AcDbText
 10
87.31325439
 20
373.00143198
 30
0.0
 40
6.0
  1
20
 41
0.8
100
AcDbText
1001
ACAD
1000
MTEXTBEGIN
1070
    73
1070
     1
1070
    44
1040
1.0
1070
    74
1070
     0
1000
MTEXTEND
  0
LWPOLYLINE
  5
1ED
330
2
100
AcDbEntity
  8
YKK_D
  6
ByBlock
100
AcDbPolyline
 90
        2
 70
     1
 43
0.85
 10
100.3501516
 20
372.00143198
 42
1.0
 10
100.5626516
 20
372.00143198
 42
1.0
  0
LINE
  5
1EE
330
2
100
AcDbEntity
  8
YKK_13
  6
YHIDDEN_1
100
AcDbLine
 10
108.85639887
 20
312.50142104
 30
0.0
 11
108.85639887
 21
327.90142104
 31
0.0
  0
LINE
  5
1EF
330
2
100
AcDbEntity
  8
YKK_13
  6
YHIDDEN_1
100
AcDbLine
 10
111.15639887
 20
311.90142104
 30
0.0
 11
111.15639887
 21
328.50142104
 31
0.0
  0
LINE
  5
1F0
330
2
100
AcDbEntity
  8
YKK_11
  6
ByBlock
 62
     0
100
AcDbLine
 10
112.25639909
 20
306.50142104
 30
0.0
 11
112.25639909
 21
226.00142104
 31
0.0
  0
LINE
  5
1F1
330
2
100
AcDbEntity
  8
YKK_11
  6
ByBlock
 62
     0
100
AcDbLine
 10
108.25639887
 20
226.00142095
 30
0.0
 11
108.25639887
 21
291.80142095
 31
0.0
  0
LINE
  5
1F2
330
2
100
AcDbEntity
  8
YKK_11
  6
ByBlock
 62
     0
100
AcDbLine
 10
107.05639887
 20
291.80142095
 30
0.0
 11
107.05639887
 21
226.00142095
 31
0.0
  0
LINE
  5
1F3
330
2
100
AcDbEntity
  8
YKK_13
  6
Continuous
100
AcDbLine
 10
114.45639887
 20
283.80142104
 30
0.0
 11
114.45639887
 21
217.80142104
 31
0.0
  0
LINE
  5
1F4
330
2
100
AcDbEntity
  8
YKK_13
  6
Continuous
100
AcDbLine
 10
129.45639887
 20
283.80142104
 30
0.0
 11
129.45639887
 21
217.80142104
 31
0.0
  0
LINE
  5
1F5
330
2
100
AcDbEntity
  8
YKK_11
  6
ByBlock
 62
     0
100
AcDbLine
 10
108.25639887
 20
216.00142095
 30
0.0
 11
108.25639887
 21
226.00142095
 31
0.0
  0
LINE
  5
1F6
330
2
100
AcDbEntity
  8
YKK_11
  6
ByBlock
 62
     0
100
AcDbLine
 10
107.05639887
 20
226.00142095
 30
0.0
 11
107.05639887
 21
216.00142095
 31
0.0
  0
LINE
  5
1F7
330
2
100
AcDbEntity
  8
YKK_11
  6
ByBlock
 62
     0
100
AcDbLine
 10
112.25639852
 20
226.00142107
 30
0.0
 11
112.25639852
 21
216.00142107
 31
0.0
  0
LINE
  5
1F8
330
2
100
AcDbEntity
  8
YKK_11
  6
ByBlock
 62
     0
100
AcDbLine
 10
108.25639887
 20
211.00142095
 30
0.0
 11
108.25639887
 21
216.00142095
 31
0.0
  0
LINE
  5
1F9
330
2
100
AcDbEntity
  8
YKK_11
  6
ByBlock
 62
     0
100
AcDbLine
 10
107.05639887
 20
216.00142095
 30
0.0
 11
107.05639887
 21
211.00142095
 31
0.0
  0
LINE
  5
1FA
330
2
100
AcDbEntity
  8
YKK_11
  6
ByBlock
 62
     0
100
AcDbLine
 10
112.25639852
 20
216.00142107
 30
0.0
 11
112.25639852
 21
211.00142107
 31
0.0
  0
LINE
  5
1FB
330
2
100
AcDbEntity
  8
YKK_13
  6
YCENTER_1
100
AcDbLine
 10
124.45639887
 20
222.30142104
 30
0.0
 11
124.45639887
 21
228.30142104
 31
0.0
  0
LINE
  5
1FC
330
2
100
AcDbEntity
  8
YKK_13
  6
YCENTER_1
100
AcDbLine
 10
121.45639887
 20
225.30142104
 30
0.0
 11
127.50379481
 21
225.30142104
 31
0.0
  0
TEXT
  5
1FD
330
2
100
AcDbEntity
  8
YKK_D
100
AcDbText
 10
148.4564016
 20
204.45422386
 30
0.0
 40
6.0
  1
H
 50
90.0
 41
0.8
100
AcDbText
1001
ACAD
1000
MTEXTBEGIN
1070
    73
1070
     1
1070
    44
1040
1.0
1070
    74
1070
     0
1000
MTEXTEND
  0
LINE
  5
1FE
330
2
100
AcDbEntity
  8
YKK_13
  6
YCENTER_1
100
AcDbLine
 10
118.95639887
 20
253.80142104
 30
0.0
 11
118.95639887
 21
247.80142104
 31
0.0
  0
LINE
  5
1FF
330
2
100
AcDbEntity
  8
YKK_13
  6
YCENTER_1
100
AcDbLine
 10
115.97889841
 20
250.80142104
 30
0.0
 11
121.63657483
 21
250.80142104
 31
0.0
  0
LINE
  5
200
330
2
100
AcDbEntity
  8
YKK_D
100
AcDbLine
 10
149.4564016
 20
297.00143198
 30
0.0
 11
152.9564016
 21
290.93925416
 31
0.0
  0
LINE
  5
201
330
2
100
AcDbEntity
  8
YKK_D
100
AcDbLine
 10
145.9564016
 20
290.93925416
 30
0.0
 11
152.9564016
 21
290.93925416
 31
0.0
  0
LINE
  5
202
330
2
100
AcDbEntity
  8
YKK_11
  6
ByBlock
 62
     0
100
AcDbLine
 10
108.25639887
 20
292.30142095
 30
0.0
 11
108.25639887
 21
302.00142095
 31
0.0
  0
LINE
  5
203
330
2
100
AcDbEntity
  8
YKK_11
  6
ByBlock
 62
     0
100
AcDbLine
 10
107.05639887
 20
302.00142095
 30
0.0
 11
107.05639887
 21
292.30142095
 31
0.0
  0
LINE
  5
204
330
2
100
AcDbEntity
  8
YKK_D
100
AcDbLine
 10
149.4564016
 20
297.00143198
 30
0.0
 11
145.9564016
 21
290.93925416
 31
0.0
  0
LINE
  5
205
330
2
100
AcDbEntity
  8
YKK_D
100
AcDbLine
 10
149.4564016
 20
297.00143198
 30
0.0
 11
149.4564016
 21
284.87707633
 31
0.0
  0
LINE
  5
206
330
2
100
AcDbEntity
  8
YKK_13
  6
YCENTER_1
100
AcDbLine
 10
121.32225947
 20
276.30142104
 30
0.0
 11
127.6085666
 21
276.30142104
 31
0.0
  0
LINE
  5
207
330
2
100
AcDbEntity
  8
YKK_13
  6
YCENTER_1
100
AcDbLine
 10
124.45639887
 20
279.30142104
 30
0.0
 11
124.45639887
 21
273.30142104
 31
0.0
  0
LINE
  5
208
330
2
100
AcDbEntity
  8
YKK_11
  6
ByBlock
 62
     0
100
AcDbLine
 10
108.25639887
 20
291.80142095
 30
0.0
 11
108.25639887
 21
292.30142095
 31
0.0
  0
LINE
  5
209
330
2
100
AcDbEntity
  8
YKK_11
  6
ByBlock
 62
     0
100
AcDbLine
 10
107.05639887
 20
292.30142095
 30
0.0
 11
107.05639887
 21
291.80142095
 31
0.0
  0
LINE
  5
20A
330
2
100
AcDbEntity
  8
YKK_D
100
AcDbLine
 10
119.75639893
 20
297.00143198
 30
0.0
 11
150.4564016
 21
297.00143198
 31
0.0
  0
LINE
  5
20B
330
2
100
AcDbEntity
  8
YKK_D
100
AcDbLine
 10
119.75639893
 20
307.00143198
 30
0.0
 11
150.4564016
 21
307.00143198
 31
0.0
  0
LINE
  5
20C
330
2
100
AcDbEntity
  8
YKK_D
100
AcDbLine
 10
119.75639893
 20
297.00143198
 30
0.0
 11
150.4564016
 21
297.00143198
 31
0.0
  0
ARC
  5
20D
330
2
100
AcDbEntity
  8
YKK_13
  6
YHIDDEN_1
100
AcDbCircle
 10
108.85639887
 20
311.90142104
 30
0.0
 40
2.299999999999998
100
AcDbArc
 50
270.0
 51
0.0
  0
LINE
  5
20E
330
2
100
AcDbEntity
  8
YKK_11
  6
ByBlock
 62
     0
100
AcDbLine
 10
113.45639887
 20
297.00142112
 30
0.0
 11
113.45639887
 21
307.00142112
 31
0.0
  0
LINE
  5
20F
330
2
100
AcDbEntity
  8
YKK_11
  6
ByBlock
 62
     0
100
AcDbLine
 10
112.25639887
 20
307.00142112
 30
0.0
 11
112.25639887
 21
297.00142112
 31
0.0
  0
LINE
  5
210
330
2
100
AcDbEntity
  8
YKK_11
  6
ByBlock
 62
     0
100
AcDbLine
 10
108.25639887
 20
302.00142095
 30
0.0
 11
107.05639887
 21
302.00142095
 31
0.0
  0
LINE
  5
211
330
2
100
AcDbEntity
  8
YKK_11
  6
ByBlock
 62
     0
100
AcDbLine
 10
112.25639887
 20
297.00142112
 30
0.0
 11
113.45639887
 21
297.00142112
 31
0.0
  0
LINE
  5
212
330
2
100
AcDbEntity
  8
YKK_11
  6
ByBlock
 62
     0
100
AcDbLine
 10
112.25639887
 20
308.20142112
 30
0.0
 11
109.95639887
 21
308.20142112
 31
0.0
  0
ARC
  5
213
330
2
100
AcDbEntity
  8
YKK_11
  6
ByBlock
 62
     0
100
AcDbCircle
 10
112.25639887
 20
307.00142112
 30
0.0
 40
1.199999999999999
100
AcDbArc
 50
0.0
 51
89.99998128
  0
ARC
  5
214
330
2
100
AcDbEntity
  8
YKK_13
  6
YHIDDEN_1
100
AcDbCircle
 10
108.25639887
 20
312.50142104
 30
0.0
 40
0.6
100
AcDbArc
 50
270.0
 51
0.0
  0
LINE
  5
215
330
2
100
AcDbEntity
  8
YKK_D
100
AcDbLine
 10
149.4564016
 20
307.00143198
 30
0.0
 11
149.4564016
 21
318.12143809
 31
0.0
  0
TEXT
  5
216
330
2
100
AcDbEntity
  8
YKK_D
100
AcDbText
 10
148.4564016
 20
310.29991524
 30
0.0
 40
6.0
  1
10
 50
90.0
 41
0.8
100
AcDbText
1001
ACAD
1000
MTEXTBEGIN
1070
    73
1070
     1
1070
    44
1040
1.0
1070
    74
1070
     0
1000
MTEXTEND
  0
LINE
  5
217
330
2
100
AcDbEntity
  8
YKK_D
100
AcDbLine
 10
149.4564016
 20
297.00143198
 30
0.0
 11
149.4564016
 21
307.00143198
 31
0.0
  0
LWPOLYLINE
  5
218
330
2
100
AcDbEntity
  8
YKK_D
  6
ByBlock
100
AcDbPolyline
 90
        2
 70
     1
 43
0.85
 10
149.4564016
 20
306.89518198
 42
1.0
 10
149.4564016
 20
307.10768198
 42
1.0
  0
LINE
  5
219
330
2
100
AcDbEntity
  8
YKK_A1
  6
Continuous
100
AcDbLine
 10
269.92579654
 20
305.1211679
 30
0.0
 11
269.92579654
 21
255.12117088
 31
0.0
  0
LINE
  5
21A
330
2
100
AcDbEntity
  8
YKK_A1
  6
Continuous
100
AcDbLine
 10
271.17579647
 20
255.12117088
 30
0.0
 11
271.17579647
 21
305.1211679
 31
0.0
  0
LINE
  5
21B
330
2
100
AcDbEntity
  8
YKK_A1
  6
Continuous
100
AcDbLine
 10
271.37579646
 20
256.62117079
 30
0.0
 11
271.37579646
 21
303.72116799
 31
0.0
  0
LINE
  5
21C
330
2
100
AcDbEntity
  8
YKK_D
100
AcDbLine
 10
254.92580975
 20
277.6211604
 30
0.0
 11
254.92580975
 21
256.6211604
 31
0.0
  0
LINE
  5
21D
330
2
100
AcDbEntity
  8
YKK_D
100
AcDbLine
 10
271.67580975
 20
234.80531109
 30
0.0
 11
271.67580975
 21
224.12117565
 31
0.0
  0
LINE
  5
21E
330
2
100
AcDbEntity
  8
YKK_D
100
AcDbLine
 10
271.2758006
 20
240.1211604
 30
0.0
 11
265.17273159
 21
232.57638421
 31
0.0
  0
LINE
  5
21F
330
2
100
AcDbEntity
  8
YKK_D
100
AcDbLine
 10
269.92580975
 20
252.12116779
 30
0.0
 11
269.92580975
 21
224.1211604
 31
0.0
  0
LINE
  5
220
330
2
100
AcDbEntity
  8
YKK_D
100
AcDbLine
 10
271.67580975
 20
234.80531109
 30
0.0
 11
271.67580975
 21
224.1211604
 31
0.0
  0
LINE
  5
221
330
2
100
AcDbEntity
  8
YKK_D
100
AcDbLine
 10
265.17273159
 20
232.57638421
 30
0.0
 11
259.97273159
 21
232.57638421
 31
0.0
  0
LINE
  5
222
330
2
100
AcDbEntity
  8
YKK_D
100
AcDbLine
 10
269.92580975
 20
225.1211604
 30
0.0
 11
257.48580975
 21
225.1211604
 31
0.0
  0
TEXT
  5
223
330
2
100
AcDbEntity
  8
YKK_D
100
AcDbText
 10
258.93575899
 20
226.1211604
 30
0.0
 40
6.0
  1
35
 41
0.8
100
AcDbText
1001
ACAD
1000
MTEXTBEGIN
1070
    73
1070
     1
1070
    44
1040
1.0
1070
    74
1070
     0
1000
MTEXTEND
  0
LINE
  5
224
330
2
100
AcDbEntity
  8
YKK_D
100
AcDbLine
 10
271.67580975
 20
225.1211604
 30
0.0
 11
273.37580975
 21
225.1211604
 31
0.0
  0
LINE
  5
225
330
2
100
AcDbEntity
  8
YKK_D
100
AcDbLine
 10
271.67580975
 20
225.12117565
 30
0.0
 11
276.00593677
 21
222.62117565
 31
0.0
  0
LINE
  5
226
330
2
100
AcDbEntity
  8
YKK_D
100
AcDbLine
 10
271.67580975
 20
225.12117565
 30
0.0
 11
276.00593677
 21
227.62117565
 31
0.0
  0
LINE
  5
227
330
2
100
AcDbEntity
  8
YKK_D
100
AcDbLine
 10
271.67580975
 20
225.12117565
 30
0.0
 11
280.33606379
 21
225.12117565
 31
0.0
  0
LWPOLYLINE
  5
228
330
2
100
AcDbEntity
  8
YKK_D
  6
ByBlock
100
AcDbPolyline
 90
        2
 70
     1
 43
0.85
 10
269.81955975
 20
225.1211604
 42
1.0
 10
270.03205975
 20
225.1211604
 42
1.0
  0
LINE
  5
229
330
2
100
AcDbEntity
  8
YKK_D
100
AcDbLine
 10
271.67580975
 20
225.1211604
 30
0.0
 11
269.92580975
 21
225.1211604
 31
0.0
  0
LINE
  5
22A
330
2
100
AcDbEntity
  8
YKK_D
100
AcDbLine
 10
276.00593677
 20
222.62117565
 30
0.0
 11
276.00593677
 21
227.62117565
 31
0.0
  0
LINE
  5
22B
330
2
100
AcDbEntity
  8
YKK_D
100
AcDbLine
 10
266.92580093
 20
256.6211604
 30
0.0
 11
253.92580975
 21
256.6211604
 31
0.0
  0
LINE
  5
22C
330
2
100
AcDbEntity
  8
YKK_D
100
AcDbLine
 10
269.92580975
 20
240.1211604
 30
0.0
 11
257.48580975
 21
240.1211604
 31
0.0
  0
TEXT
  5
22D
330
2
100
AcDbEntity
  8
YKK_D
100
AcDbText
 10
258.92357625
 20
241.1211604
 30
0.0
 40
6.0
  1
25
 41
0.8
100
AcDbText
1001
ACAD
1000
MTEXTBEGIN
1070
    73
1070
     1
1070
    44
1040
1.0
1070
    74
1070
     0
1000
MTEXTEND
  0
LWPOLYLINE
  5
22E
330
2
100
AcDbEntity
  8
YKK_D
  6
ByBlock
100
AcDbPolyline
 90
        2
 70
     1
 43
0.85
 10
254.92580975
 20
256.7274104
 42
1.0
 10
254.92580975
 20
256.5149104
 42
1.0
  0
LINE
  5
22F
330
2
100
AcDbEntity
  8
YKK_D
100
AcDbLine
 10
271.37579144
 20
252.12116779
 30
0.0
 11
271.37579144
 21
239.1211604
 31
0.0
  0
LINE
  5
230
330
2
100
AcDbEntity
  8
YKK_D
100
AcDbLine
 10
269.92580975
 20
252.12116779
 30
0.0
 11
269.92580975
 21
239.1211604
 31
0.0
  0
LINE
  5
231
330
2
100
AcDbEntity
  8
YKK_D
100
AcDbLine
 10
271.17580975
 20
252.12116779
 30
0.0
 11
271.17580975
 21
239.1211604
 31
0.0
  0
LINE
  5
232
330
2
100
AcDbEntity
  8
YKK_D
100
AcDbLine
 10
271.17580975
 20
252.12116779
 30
0.0
 11
271.17580975
 21
239.1211604
 31
0.0
  0
LINE
  5
233
330
2
100
AcDbEntity
  8
YKK_D
100
AcDbLine
 10
271.17580975
 20
240.1211604
 30
0.0
 11
272.87580975
 21
240.1211604
 31
0.0
  0
LINE
  5
234
330
2
100
AcDbEntity
  8
YKK_D
100
AcDbLine
 10
271.37579144
 20
240.1211604
 30
0.0
 11
273.07579144
 21
240.1211604
 31
0.0
  0
TEXT
  5
235
330
2
100
AcDbEntity
  8
YKK_D
100
AcDbText
 10
261.02552347
 20
233.57638421
 30
0.0
 40
6.0
  1
4
 41
0.8
100
AcDbText
1001
ACAD
1000
MTEXTBEGIN
1070
    73
1070
     1
1070
    44
1040
1.0
1070
    74
1070
     0
1000
MTEXTEND
  0
LINE
  5
236
330
2
100
AcDbEntity
  8
YKK_D
100
AcDbLine
 10
271.17580975
 20
240.1211604
 30
0.0
 11
269.92580975
 21
240.1211604
 31
0.0
  0
LINE
  5
237
330
2
100
AcDbEntity
  8
YKK_D
100
AcDbLine
 10
271.17580975
 20
240.1211604
 30
0.0
 11
269.47580975
 21
240.1211604
 31
0.0
  0
LINE
  5
238
330
2
100
AcDbEntity
  8
YKK_D
100
AcDbLine
 10
271.17580975
 20
240.1211604
 30
0.0
 11
271.37579144
 21
240.1211604
 31
0.0
  0
LINE
  5
239
330
2
100
AcDbEntity
  8
YKK_D
100
AcDbLine
 10
271.17580975
 20
240.1211604
 30
0.0
 11
271.37579144
 21
240.1211604
 31
0.0
  0
LWPOLYLINE
  5
23A
330
2
100
AcDbEntity
  8
YKK_D
  6
ByBlock
100
AcDbPolyline
 90
        2
 70
     1
 43
0.85
 10
271.48204144
 20
240.1211604
 42
1.0
 10
271.26954144
 20
240.1211604
 42
1.0
  0
LWPOLYLINE
  5
23B
330
2
100
AcDbEntity
  8
YKK_D
  6
ByBlock
100
AcDbPolyline
 90
        2
 70
     1
 43
0.85
 10
271.06955975
 20
240.1211604
 42
1.0
 10
271.28205975
 20
240.1211604
 42
1.0
  0
LWPOLYLINE
  5
23C
330
2
100
AcDbEntity
  8
YKK_D
  6
ByBlock
100
AcDbPolyline
 90
        2
 70
     1
 43
0.85
 10
269.81955975
 20
240.1211604
 42
1.0
 10
270.03205975
 20
240.1211604
 42
1.0
  0
LWPOLYLINE
  5
23D
330
2
100
AcDbEntity
  8
YKK_D
  6
ByBlock
100
AcDbPolyline
 90
        2
 70
     1
 43
0.85
 10
271.28205975
 20
240.1211604
 42
1.0
 10
271.06955975
 20
240.1211604
 42
1.0
  0
LWPOLYLINE
  5
23E
330
2
100
AcDbEntity
  8
YKK_D
  6
ByBlock
100
AcDbPolyline
 90
        2
 70
     1
 43
0.85
 10
271.48204144
 20
240.1211604
 42
1.0
 10
271.26954144
 20
240.1211604
 42
1.0
  0
LINE
  5
23F
330
2
100
AcDbEntity
  8
YKK_A1
  6
Continuous
100
AcDbLine
 10
271.67579644
 20
255.12117088
 30
0.0
 11
271.67579644
 21
255.17117088
 31
0.0
  0
LINE
  5
240
330
2
100
AcDbEntity
  8
YKK_A1
  6
YHIDDEN_1
100
AcDbLine
 10
269.92579654
 20
264.37117033
 30
0.0
 11
269.92183997
 21
264.37117033
 31
0.0
  0
LINE
  5
241
330
2
100
AcDbEntity
  8
YKK_A1
  6
YHIDDEN_1
100
AcDbLine
 10
272.92579636
 20
256.62117079
 30
0.0
 11
272.92579636
 21
256.61294052
 31
0.0
  0
LINE
  5
242
330
2
100
AcDbEntity
  8
YKK_D
100
AcDbLine
 10
266.92580117
 20
277.6211604
 30
0.0
 11
253.92580975
 21
277.6211604
 31
0.0
  0
TEXT
  5
243
330
2
100
AcDbEntity
  8
YKK_D
100
AcDbText
 10
253.92580975
 20
265.53740405
 30
0.0
 40
6.0
  1
C
 50
90.0
 41
0.8
100
AcDbText
1001
ACAD
1000
MTEXTBEGIN
1070
    73
1070
     1
1070
    44
1040
1.0
1070
    74
1070
     0
1000
MTEXTEND
  0
LWPOLYLINE
  5
244
330
2
100
AcDbEntity
  8
YKK_D
  6
ByBlock
100
AcDbPolyline
 90
        2
 70
     1
 43
0.85
 10
254.92580975
 20
277.5149104
 42
1.0
 10
254.92580975
 20
277.7274104
 42
1.0
  0
LINE
  5
245
330
2
100
AcDbEntity
  8
YKK_A1
  6
YCENTER_1
100
AcDbLine
 10
272.3257964
 20
277.62116954
 30
0.0
 11
280.38173383
 21
277.62116954
 31
0.0
  0
ARC
  5
246
330
2
100
AcDbEntity
  8
YKK_A1
  6
Continuous
100
AcDbCircle
 10
276.60079614
 20
276.6961696
 30
0.0
 40
0.2249999865889549
100
AcDbArc
 50
270.0
 51
90.0
  0
CIRCLE
  5
247
330
2
100
AcDbEntity
  8
YKK_A1
  6
Continuous
100
AcDbCircle
 10
276.42579615
 20
276.20866963
 30
0.0
 40
0.0874999947845936
  0
ARC
  5
248
330
2
100
AcDbEntity
  8
YKK_A1
  6
Continuous
100
AcDbCircle
 10
276.25079617
 20
276.6961696
 30
0.0
 40
0.2249999865889549
100
AcDbArc
 50
90.0
 51
270.0
  0
ARC
  5
249
330
2
100
AcDbEntity
  8
YKK_A1
  6
Continuous
100
AcDbCircle
 10
276.25079617
 20
276.6961696
 30
0.0
 40
0.2749999836087227
100
AcDbArc
 50
90.0
 51
270.0
  0
ARC
  5
24A
330
2
100
AcDbEntity
  8
YKK_A1
  6
Continuous
100
AcDbCircle
 10
276.60079614
 20
276.6961696
 30
0.0
 40
0.2749999836087227
100
AcDbArc
 50
270.0
 51
90.0
  0
ARC
  5
24B
330
2
100
AcDbEntity
  8
YKK_A1
  6
Continuous
100
AcDbCircle
 10
276.42579615
 20
277.52116955
 30
0.0
 40
0.3999999761581421
100
AcDbArc
 50
180.0
 51
0.0
  0
LINE
  5
24C
330
2
100
AcDbEntity
  8
YKK_A1
  6
Continuous
100
AcDbLine
 10
276.60079614
 20
276.97116958
 30
0.0
 11
276.25079617
 21
276.97116958
 31
0.0
  0
LINE
  5
24D
330
2
100
AcDbEntity
  8
YKK_A1
  6
Continuous
100
AcDbLine
 10
276.25079617
 20
276.42116961
 30
0.0
 11
276.60079614
 21
276.42116961
 31
0.0
  0
LINE
  5
24E
330
2
100
AcDbEntity
  8
YKK_A1
  6
Continuous
100
AcDbLine
 10
276.60079614
 20
276.92116958
 30
0.0
 11
276.25079617
 21
276.92116958
 31
0.0
  0
LINE
  5
24F
330
2
100
AcDbEntity
  8
YKK_A1
  6
Continuous
100
AcDbLine
 10
276.25079617
 20
276.47116961
 30
0.0
 11
276.60079614
 21
276.47116961
 31
0.0
  0
LINE
  5
250
330
2
100
AcDbEntity
  8
YKK_A1
  6
Continuous
100
AcDbLine
 10
275.82579619
 20
275.62116966
 30
0.0
 11
275.82579619
 21
279.62116942
 31
0.0
  0
LINE
  5
251
330
2
100
AcDbEntity
  8
YKK_A1
  6
Continuous
100
AcDbLine
 10
277.02579612
 20
275.62116966
 30
0.0
 11
277.02579612
 21
279.62116942
 31
0.0
  0
LINE
  5
252
330
2
100
AcDbEntity
  8
YKK_A1
  6
Continuous
100
AcDbLine
 10
275.87579619
 20
275.57116967
 30
0.0
 11
276.97579612
 21
275.57116967
 31
0.0
  0
LINE
  5
253
330
2
100
AcDbEntity
  8
YKK_A1
  6
Continuous
100
AcDbLine
 10
275.87579619
 20
279.67116942
 30
0.0
 11
276.97579612
 21
279.67116942
 31
0.0
  0
LINE
  5
254
330
2
100
AcDbEntity
  8
YKK_A1
  6
Continuous
100
AcDbLine
 10
276.02579618
 20
279.02116946
 30
0.0
 11
276.82579613
 21
279.02116946
 31
0.0
  0
LINE
  5
255
330
2
100
AcDbEntity
  8
YKK_A1
  6
Continuous
100
AcDbLine
 10
276.02579618
 20
279.02116946
 30
0.0
 11
276.02579618
 21
277.52116955
 31
0.0
  0
LINE
  5
256
330
2
100
AcDbEntity
  8
YKK_A1
  6
Continuous
100
AcDbLine
 10
276.82579613
 20
279.02116946
 30
0.0
 11
276.82579613
 21
277.52116955
 31
0.0
  0
ARC
  5
257
330
2
100
AcDbEntity
  8
YKK_A1
  6
Continuous
100
AcDbCircle
 10
275.87579619
 20
279.62116942
 30
0.0
 40
0.0499999970197678
100
AcDbArc
 50
90.0
 51
180.0
  0
ARC
  5
258
330
2
100
AcDbEntity
  8
YKK_A1
  6
Continuous
100
AcDbCircle
 10
275.87579619
 20
275.62116966
 30
0.0
 40
0.0499999970197678
100
AcDbArc
 50
180.0
 51
270.0
  0
ARC
  5
259
330
2
100
AcDbEntity
  8
YKK_A1
  6
Continuous
100
AcDbCircle
 10
276.97579612
 20
275.62116966
 30
0.0
 40
0.0499999970197678
100
AcDbArc
 50
270.0
 51
0.0
  0
ARC
  5
25A
330
2
100
AcDbEntity
  8
YKK_A1
  6
Continuous
100
AcDbCircle
 10
276.97579612
 20
279.62116942
 30
0.0
 40
0.0499999970197678
100
AcDbArc
 50
0.0
 51
90.0
  0
LINE
  5
25B
330
2
100
AcDbEntity
  8
YKK_A1
  6
Continuous
100
AcDbLine
 10
277.10079611
 20
275.59616966
 30
0.0
 11
277.10079611
 21
279.64616942
 31
0.0
  0
LINE
  5
25C
330
2
100
AcDbEntity
  8
YKK_A1
  6
Continuous
100
AcDbLine
 10
277.00079612
 20
279.74616942
 30
0.0
 11
275.85079619
 21
279.74616942
 31
0.0
  0
LINE
  5
25D
330
2
100
AcDbEntity
  8
YKK_A1
  6
Continuous
100
AcDbLine
 10
275.7507962
 20
279.64616942
 30
0.0
 11
275.7507962
 21
275.59616966
 31
0.0
  0
LINE
  5
25E
330
2
100
AcDbEntity
  8
YKK_A1
  6
Continuous
100
AcDbLine
 10
275.85079619
 20
275.49616967
 30
0.0
 11
277.00079612
 21
275.49616967
 31
0.0
  0
ARC
  5
25F
330
2
100
AcDbEntity
  8
YKK_A1
  6
Continuous
100
AcDbCircle
 10
275.85079619
 20
279.64616942
 30
0.0
 40
0.0999999940395355
100
AcDbArc
 50
90.0
 51
180.0
  0
ARC
  5
260
330
2
100
AcDbEntity
  8
YKK_A1
  6
Continuous
100
AcDbCircle
 10
275.85079619
 20
275.59616966
 30
0.0
 40
0.0999999940395355
100
AcDbArc
 50
180.0
 51
270.0
  0
ARC
  5
261
330
2
100
AcDbEntity
  8
YKK_A1
  6
Continuous
100
AcDbCircle
 10
277.00079612
 20
275.59616966
 30
0.0
 40
0.0999999940395355
100
AcDbArc
 50
270.0
 51
0.0
  0
ARC
  5
262
330
2
100
AcDbEntity
  8
YKK_A1
  6
Continuous
100
AcDbCircle
 10
277.00079612
 20
279.64616942
 30
0.0
 40
0.0999999940395355
100
AcDbArc
 50
0.0
 51
90.0
  0
LINE
  5
263
330
2
100
AcDbEntity
  8
YKK_A1
  6
YHIDDEN_1
100
AcDbLine
 10
269.92579654
 20
295.87116846
 30
0.0
 11
269.91545915
 21
295.87116846
 31
0.0
  0
LINE
  5
264
330
2
100
AcDbEntity
  8
YKK_A1
  6
YCENTER_1
100
AcDbLine
 10
279.17579599
 20
305.1211679
 30
0.0
 11
279.17579599
 21
305.37848831
 31
0.0
  0
ARC
  5
265
330
2
100
AcDbEntity
  8
YKK_13
  6
YHIDDEN_1
100
AcDbCircle
 10
108.85639887
 20
328.50142104
 30
0.0
 40
2.299999999999998
100
AcDbArc
 50
0.0
 51
90.0
  0
ARC
  5
266
330
2
100
AcDbEntity
  8
YKK_13
  6
YHIDDEN_1
100
AcDbCircle
 10
108.25639887
 20
327.90142104
 30
0.0
 40
0.6
100
AcDbArc
 50
0.0
 51
90.0
  0
LINE
  5
267
330
2
100
AcDbEntity
  8
YKK_11
  6
ByBlock
 62
     0
100
AcDbLine
 10
469.49175503
 20
88.97317699
 30
0.0
 11
375.49175503
 21
88.97317699
 31
0.0
  0
LINE
  5
268
330
2
100
AcDbEntity
  8
YKK_11
  6
ByBlock
 62
     0
100
AcDbLine
 10
375.49175503
 20
90.17317699
 30
0.0
 11
469.49175503
 21
90.17317699
 31
0.0
  0
LINE
  5
269
330
2
100
AcDbEntity
  8
YKK_11
  6
ByBlock
 62
     0
100
AcDbLine
 10
469.49175503
 20
91.37317673
 30
0.0
 11
459.49175503
 21
91.37317673
 31
0.0
  0
LINE
  5
26A
330
2
100
AcDbEntity
  8
YKK_11
  6
ByBlock
 62
     0
100
AcDbLine
 10
463.79175519
 20
95.37317639
 30
0.0
 11
455.49175519
 21
95.37317639
 31
0.0
  0
LINE
  5
26B
330
2
100
AcDbEntity
  8
YKK_11
  6
ByBlock
 62
     0
100
AcDbLine
 10
455.49175519
 20
96.57317639
 30
0.0
 11
463.79175519
 21
96.57317639
 31
0.0
  0
LINE
  5
26C
330
2
100
AcDbEntity
  8
YKK_11
  6
ByBlock
 62
     0
100
AcDbLine
 10
375.49175519
 20
117.97317639
 30
0.0
 11
464.29175519
 21
117.97317639
 31
0.0
  0
LINE
  5
26D
330
2
100
AcDbEntity
  8
YKK_11
  6
ByBlock
 62
     0
100
AcDbLine
 10
464.29175519
 20
94.17317639
 30
0.0
 11
455.49175519
 21
94.17317639
 31
0.0
  0
LINE
  5
26E
330
2
100
AcDbEntity
  8
YKK_11
  6
ByBlock
 62
     0
100
AcDbLine
 10
375.49175519
 20
119.17317639
 30
0.0
 11
464.29175519
 21
119.17317639
 31
0.0
  0
LINE
  5
26F
330
2
100
AcDbEntity
  8
YKK_12
  6
Continuous
100
AcDbLine
 10
469.4917549
 20
121.97317658
 30
0.0
 11
375.4917549
 21
121.97317658
 31
0.0
  0
LINE
  5
270
330
2
100
AcDbEntity
  8
YKK_D
100
AcDbLine
 10
465.49176834
 20
163.17317851
 30
0.0
 11
283.49176834
 21
163.17317851
 31
0.0
  0
LINE
  5
271
330
2
100
AcDbEntity
  8
YKK_D
100
AcDbLine
 10
459.49176834
 20
51.97318156
 30
0.0
 11
469.49176834
 21
51.97318156
 31
0.0
  0
LINE
  5
272
330
2
100
AcDbEntity
  8
YKK_13
  6
Continuous
100
AcDbLine
 10
298.2917549
 20
87.67317658
 30
0.0
 11
298.2917549
 21
71.97317658
 31
0.0
  0
LINE
  5
273
330
2
100
AcDbEntity
  8
YKK_13
  6
Continuous
100
AcDbLine
 10
295.0917549
 20
86.97317658
 30
0.0
 11
295.0917549
 21
71.97317658
 31
0.0
  0
LINE
  5
274
330
2
100
AcDbEntity
  8
YKK_13
  6
Continuous
100
AcDbLine
 10
291.8917549
 20
71.97317658
 30
0.0
 11
291.8917549
 21
86.47317658
 31
0.0
  0
LINE
  5
275
330
2
100
AcDbEntity
  8
YKK_D
100
AcDbLine
 10
289.49176834
 20
82.9731768
 30
0.0
 11
289.49176834
 21
50.97318156
 31
0.0
  0
LINE
  5
276
330
2
100
AcDbEntity
  8
YKK_D
100
AcDbLine
 10
459.49176834
 20
82.9731768
 30
0.0
 11
459.49176834
 21
50.97318156
 31
0.0
  0
LINE
  5
277
330
2
100
AcDbEntity
  8
YKK_D
100
AcDbLine
 10
289.49176834
 20
82.9731768
 30
0.0
 11
289.49176834
 21
50.97318156
 31
0.0
  0
LINE
  5
278
330
2
100
AcDbEntity
  8
YKK_D
100
AcDbLine
 10
459.49176834
 20
82.9731768
 30
0.0
 11
459.49176834
 21
50.97318156
 31
0.0
  0
LINE
  5
279
330
2
100
AcDbEntity
  8
YKK_D
100
AcDbLine
 10
296.49176834
 20
51.97318156
 30
0.0
 11
452.49176834
 21
51.97318156
 31
0.0
  0
TEXT
  5
27A
330
2
100
AcDbEntity
  8
USER1
 62
     3
100
AcDbText
 10
305.95503735
 20
1.19667064
 30
0.0
 40
3.0
  1
〔2PT NAA/R(L)〕
 72
     4
 11
324.55503735
 21
2.48238493
 31
0.0
100
AcDbText
  0
TEXT
  5
27B
330
2
100
AcDbEntity
  8
USER1
 62
     3
100
AcDbText
 10
306.12308868
 20
15.05428934
 30
0.0
 40
5.0
  1
2PT33A05
 72
     4
 11
324.57546964
 21
17.55428934
 31
0.0
100
AcDbText
  0
LINE
  5
27C
330
2
100
AcDbEntity
  8
YKK_D
100
AcDbLine
 10
289.49176834
 20
51.97318156
 30
0.0
 11
295.55394617
 21
48.47318156
 31
0.0
  0
LINE
  5
27D
330
2
100
AcDbEntity
  8
YKK_D
100
AcDbLine
 10
289.49176834
 20
51.97318156
 30
0.0
 11
295.55394617
 21
55.47318156
 31
0.0
  0
LINE
  5
27E
330
2
100
AcDbEntity
  8
YKK_D
100
AcDbLine
 10
289.49176834
 20
51.97318156
 30
0.0
 11
301.61612399
 21
51.97318156
 31
0.0
  0
LINE
  5
27F
330
2
100
AcDbEntity
  8
YKK_D
100
AcDbLine
 10
295.55394617
 20
48.47318156
 30
0.0
 11
295.55394617
 21
55.47318156
 31
0.0
  0
LINE
  5
280
330
2
100
AcDbEntity
  8
YKK_13
  6
Continuous
100
AcDbLine
 10
291.8917549
 20
71.97317658
 30
0.0
 11
295.0917549
 21
71.97317658
 31
0.0
  0
LINE
  5
281
330
2
100
AcDbEntity
  8
YKK_13
  6
Continuous
100
AcDbLine
 10
298.2917549
 20
71.97317658
 30
0.0
 11
295.0917549
 21
71.97317658
 31
0.0
  0
TEXT
  5
282
330
2
100
AcDbEntity
  8
USER1
 62
     3
100
AcDbText
 10
425.38095138
 20
11.0005
 30
0.0
 40
4.0
  1
1
 72
     1
 11
426.999999
 21
13.0005
 31
0.0
100
AcDbText
 73
     2
  0
TEXT
  5
283
330
2
100
AcDbEntity
  8
YKK_D
100
AcDbText
 10
372.95674296
 20
52.97318156
 30
0.0
 40
6.0
  1
W
 41
0.8
100
AcDbText
1001
ACAD
1000
MTEXTBEGIN
1070
    73
1070
     1
1070
    44
1040
1.0
1070
    74
1070
     0
1000
MTEXTEND
  0
TEXT
  5
284
330
2
100
AcDbEntity
  8
USER1
 62
     3
100
AcDbText
 10
419.999999
 20
15.0005
 30
0.0
 40
4.0
  1
1
100
AcDbText
  0
LINE
  5
285
330
2
100
AcDbEntity
  8
YKK_D
100
AcDbLine
 10
459.49176834
 20
51.97318156
 30
0.0
 11
447.36741269
 21
51.97318156
 31
0.0
  0
LINE
  5
286
330
2
100
AcDbEntity
  8
YKK_D
100
AcDbLine
 10
459.49176834
 20
51.97318156
 30
0.0
 11
453.42959051
 21
48.47318156
 31
0.0
  0
LINE
  5
287
330
2
100
AcDbEntity
  8
YKK_D
100
AcDbLine
 10
453.42959051
 20
55.47318156
 30
0.0
 11
453.42959051
 21
48.47318156
 31
0.0
  0
LINE
  5
288
330
2
100
AcDbEntity
  8
YKK_D
100
AcDbLine
 10
459.49176834
 20
51.97318156
 30
0.0
 11
453.42959051
 21
55.47318156
 31
0.0
  0
LINE
  5
289
330
2
100
AcDbEntity
  8
YKK_11
  6
ByBlock
 62
     0
100
AcDbLine
 10
373.49175443
 20
88.97317625
 30
0.0
 11
312.40835643
 21
88.97317625
 31
0.0
  0
LINE
  5
28A
330
2
100
AcDbEntity
  8
YKK_11
  6
ByBlock
 62
     0
100
AcDbLine
 10
373.49175443
 20
90.17317625
 30
0.0
 11
313.25823443
 21
90.17317625
 31
0.0
  0
LINE
  5
28B
330
2
100
AcDbEntity
  8
YKK_11
  6
ByBlock
 62
     0
100
AcDbLine
 10
373.49175512
 20
95.37317658
 30
0.0
 11
313.49175512
 21
95.37317658
 31
0.0
  0
LINE
  5
28C
330
2
100
AcDbEntity
  8
YKK_11
  6
ByBlock
 62
     0
100
AcDbLine
 10
373.49175512
 20
96.57317658
 30
0.0
 11
313.49175512
 21
96.57317658
 31
0.0
  0
LINE
  5
28D
330
2
100
AcDbEntity
  8
YKK_11
  6
ByBlock
 62
     0
100
AcDbLine
 10
284.69175512
 20
119.17317658
 30
0.0
 11
373.49175512
 21
119.17317658
 31
0.0
  0
LINE
  5
28E
330
2
100
AcDbEntity
  8
YKK_11
  6
ByBlock
 62
     0
100
AcDbLine
 10
373.49175512
 20
117.97317658
 30
0.0
 11
284.69175512
 21
117.97317658
 31
0.0
  0
LINE
  5
28F
330
2
100
AcDbEntity
  8
YKK_D
100
AcDbLine
 10
283.49176834
 20
127.17317661
 30
0.0
 11
283.49176834
 21
164.17317851
 31
0.0
  0
LINE
  5
290
330
2
100
AcDbEntity
  8
YKK_D
100
AcDbLine
 10
292.69175003
 20
127.17317661
 30
0.0
 11
292.69175003
 21
144.17317851
 31
0.0
  0
LINE
  5
291
330
2
100
AcDbEntity
  8
YKK_D
100
AcDbLine
 10
283.49176834
 20
127.17317661
 30
0.0
 11
283.49176834
 21
164.17317851
 31
0.0
  0
TEXT
  5
292
330
2
100
AcDbEntity
  8
YKK_D
100
AcDbText
 10
340.54120682
 20
126.48940105
 30
0.0
 40
6.0
  1
11.5
 50
90.0
 41
0.8
100
AcDbText
1001
ACAD
1000
MTEXTBEGIN
1070
    73
1070
     1
1070
    44
1040
1.0
1070
    74
1070
     0
1000
MTEXTEND
  0
LINE
  5
293
330
2
100
AcDbEntity
  8
YKK_D
100
AcDbLine
 10
321.33534859
 20
110.97318156
 30
0.0
 11
344.49176834
 21
110.97318156
 31
0.0
  0
LINE
  5
294
330
2
100
AcDbEntity
  8
YKK_D
100
AcDbLine
 10
321.33534859
 20
94.17317851
 30
0.0
 11
364.49176834
 21
94.17317851
 31
0.0
  0
LINE
  5
295
330
2
100
AcDbEntity
  8
YKK_D
100
AcDbLine
 10
321.33535049
 20
123.17317851
 30
0.0
 11
364.49176834
 21
123.17317851
 31
0.0
  0
LINE
  5
296
330
2
100
AcDbEntity
  8
YKK_11
  6
ByBlock
 62
     0
100
AcDbLine
 10
283.49175512
 20
95.37317658
 30
0.0
 11
283.49175512
 21
117.97317658
 31
0.0
  0
LINE
  5
297
330
2
100
AcDbEntity
  8
YKK_11
  6
ByBlock
 62
     0
100
AcDbLine
 10
284.69175512
 20
117.97317658
 30
0.0
 11
284.69175512
 21
95.87317658
 31
0.0
  0
LINE
  5
298
330
2
100
AcDbEntity
  8
YKK_13
  6
YCENTER_1
100
AcDbLine
 10
292.6917549
 20
100.97317658
 30
0.0
 11
292.6917549
 21
120.97317658
 31
0.0
  0
CIRCLE
  5
299
330
2
100
AcDbEntity
  8
YKK_13
  6
Continuous
100
AcDbCircle
 10
292.6917549
 20
110.97317658
 30
0.0
 40
5.0
  0
ARC
  5
29A
330
2
100
AcDbEntity
  8
YKK_13
  6
Continuous
100
AcDbCircle
 10
292.6917549
 20
110.97317658
 30
0.0
 40
7.0
100
AcDbArc
 50
314.15791671
 51
90.0
  0
LINE
  5
29B
330
2
100
AcDbEntity
  8
YKK_13
  6
YHIDDEN_1
100
AcDbLine
 10
285.1917549
 20
96.57317658
 30
0.0
 11
285.1917549
 21
117.97317658
 31
0.0
  0
LINE
  5
29C
330
2
100
AcDbEntity
  8
YKK_13
  6
Continuous
100
AcDbLine
 10
310.2917549
 20
114.27317658
 30
0.0
 11
310.2917549
 21
91.87317658
 31
0.0
  0
LINE
  5
29D
330
2
100
AcDbEntity
  8
YKK_13
  6
Continuous
100
AcDbLine
 10
313.4917549
 20
114.77317658
 30
0.0
 11
313.4917549
 21
91.37317658
 31
0.0
  0
LINE
  5
29E
330
2
100
AcDbEntity
  8
YKK_11
  6
ByBlock
 62
     0
100
AcDbLine
 10
310.29175512
 20
95.37317658
 30
0.0
 11
293.69175512
 21
95.37317658
 31
0.0
  0
LINE
  5
29F
330
2
100
AcDbEntity
  8
YKK_11
  6
ByBlock
 62
     0
100
AcDbLine
 10
293.69175512
 20
96.57317658
 30
0.0
 11
310.29175512
 21
96.57317658
 31
0.0
  0
LINE
  5
2A0
330
2
100
AcDbEntity
  8
YKK_13
  6
Continuous
100
AcDbLine
 10
309.7917549
 20
91.37317658
 30
0.0
 11
298.2917549
 21
91.37317658
 31
0.0
  0
LINE
  5
2A1
330
2
100
AcDbEntity
  8
YKK_13
  6
Continuous
100
AcDbLine
 10
310.2917549
 20
88.17317658
 30
0.0
 11
298.7917549
 21
88.17317658
 31
0.0
  0
LINE
  5
2A2
330
2
100
AcDbEntity
  8
YKK_11
  6
ByBlock
 62
     0
100
AcDbLine
 10
289.4917549
 20
90.17317699
 30
0.0
 11
289.4917549
 21
91.37317699
 31
0.0
  0
ARC
  5
2A3
330
2
100
AcDbEntity
  8
YKK_13
  6
Continuous
100
AcDbCircle
 10
298.2917549
 20
88.17317658
 30
0.0
 40
3.2
100
AcDbArc
 50
90.0
 51
180.0
  0
LINE
  5
2A4
330
2
100
AcDbEntity
  8
YKK_11
  6
ByBlock
 62
     0
100
AcDbLine
 10
295.79375543
 20
90.17317625
 30
0.0
 11
289.49175443
 21
90.17317625
 31
0.0
  0
ARC
  5
2A5
330
2
100
AcDbEntity
  8
YKK_13
  6
Continuous
100
AcDbCircle
 10
291.8917549
 20
86.97317658
 30
0.0
 40
3.2
100
AcDbArc
 50
0.0
 51
90.0
  0
LINE
  5
2A6
330
2
100
AcDbEntity
  8
YKK_13
  6
YCENTER_1
100
AcDbLine
 10
288.5479433
 20
82.97317658
 30
0.0
 11
301.56228942
 21
82.97317658
 31
0.0
  0
LINE
  5
2A7
330
2
100
AcDbEntity
  8
YKK_13
  6
YCENTER_1
100
AcDbLine
 10
288.5479433
 20
77.47317658
 30
0.0
 11
301.56228942
 21
77.47317658
 31
0.0
  0
ARC
  5
2A8
330
2
100
AcDbEntity
  8
YKK_13
  6
Continuous
100
AcDbCircle
 10
291.3917549
 20
86.47317658
 30
0.0
 40
0.5
100
AcDbArc
 50
0.0
 51
90.0
  0
LINE
  5
2A9
330
2
100
AcDbEntity
  8
YKK_13
  6
Continuous
100
AcDbLine
 10
295.0917549
 20
88.17317658
 30
0.0
 11
295.0917549
 21
86.97317658
 31
0.0
  0
ARC
  5
2AA
330
2
100
AcDbEntity
  8
YKK_13
  6
Continuous
100
AcDbCircle
 10
298.7917549
 20
87.67317658
 30
0.0
 40
0.5
100
AcDbArc
 50
90.0
 51
180.0
  0
LINE
  5
2AB
330
2
100
AcDbEntity
  8
YKK_13
  6
Continuous
100
AcDbLine
 10
287.70442086
 20
96.37317658
 30
0.0
 11
297.56822335
 21
105.95121925
 31
0.0
  0
LINE
  5
2AC
330
2
100
AcDbEntity
  8
YKK_11
  6
ByBlock
 62
     0
100
AcDbLine
 10
293.19175512
 20
95.37317658
 30
0.0
 11
285.19175512
 21
95.37317658
 31
0.0
  0
LINE
  5
2AD
330
2
100
AcDbEntity
  8
YKK_11
  6
ByBlock
 62
     0
100
AcDbLine
 10
293.19175512
 20
94.17317658
 30
0.0
 11
284.69175512
 21
94.17317658
 31
0.0
  0
LINE
  5
2AE
330
2
100
AcDbEntity
  8
YKK_11
  6
ByBlock
 62
     0
100
AcDbLine
 10
287.91038812
 20
96.57317658
 30
0.0
 11
293.19175512
 21
96.57317658
 31
0.0
  0
LINE
  5
2AF
330
2
100
AcDbEntity
  8
YKK_11
  6
ByBlock
 62
     0
100
AcDbLine
 10
285.19175512
 20
95.37317658
 30
0.0
 11
285.19175512
 21
96.37317658
 31
0.0
  0
LINE
  5
2B0
330
2
100
AcDbEntity
  8
YKK_11
  6
ByBlock
 62
     0
100
AcDbLine
 10
284.69175512
 20
95.87317658
 30
0.0
 11
285.19175512
 21
95.37317658
 31
0.0
  0
LINE
  5
2B1
330
2
100
AcDbEntity
  8
YKK_13
  6
Continuous
100
AcDbLine
 10
284.6917549
 20
96.37317658
 30
0.0
 11
287.70442086
 21
96.37317658
 31
0.0
  0
LINE
  5
2B2
330
2
100
AcDbEntity
  8
YKK_11
  6
ByBlock
 62
     0
100
AcDbLine
 10
293.69175512
 20
95.37317658
 30
0.0
 11
293.19175512
 21
95.37317658
 31
0.0
  0
LINE
  5
2B3
330
2
100
AcDbEntity
  8
YKK_11
  6
ByBlock
 62
     0
100
AcDbLine
 10
293.49175512
 20
94.17317658
 30
0.0
 11
293.19175512
 21
94.17317658
 31
0.0
  0
LINE
  5
2B4
330
2
100
AcDbEntity
  8
YKK_11
  6
ByBlock
 62
     0
100
AcDbLine
 10
293.49175512
 20
95.37317658
 30
0.0
 11
293.49175512
 21
94.17317658
 31
0.0
  0
LINE
  5
2B5
330
2
100
AcDbEntity
  8
YKK_11
  6
ByBlock
 62
     0
100
AcDbLine
 10
293.19175512
 20
96.57317658
 30
0.0
 11
293.69175512
 21
96.57317658
 31
0.0
  0
ARC
  5
2B6
330
2
100
AcDbEntity
  8
YKK_13
  6
Continuous
100
AcDbCircle
 10
310.2917549
 20
91.37317658
 30
0.0
 40
3.2
100
AcDbArc
 50
270.0
 51
0.0
  0
ARC
  5
2B7
330
2
100
AcDbEntity
  8
YKK_13
  6
Continuous
100
AcDbCircle
 10
309.7917549
 20
91.87317658
 30
0.0
 40
0.5
100
AcDbArc
 50
270.0
 51
0.0
  0
LINE
  5
2B8
330
2
100
AcDbEntity
  8
YKK_13
  6
Continuous
100
AcDbLine
 10
309.7917549
 20
114.77317658
 30
0.0
 11
298.57053029
 21
114.77317658
 31
0.0
  0
ARC
  5
2B9
330
2
100
AcDbEntity
  8
YKK_13
  6
Continuous
100
AcDbCircle
 10
310.2917549
 20
114.77317658
 30
0.0
 40
3.2
100
AcDbArc
 50
0.0
 51
90.0
  0
ARC
  5
2BA
330
2
100
AcDbEntity
  8
YKK_13
  6
Continuous
100
AcDbCircle
 10
309.7917549
 20
114.27317658
 30
0.0
 40
0.5
100
AcDbArc
 50
0.0
 51
90.0
  0
LINE
  5
2BB
330
2
100
AcDbEntity
  8
YKK_D
100
AcDbLine
 10
363.49176834
 20
94.17317851
 30
0.0
 11
363.49176834
 21
119.17317851
 31
0.0
  0
TEXT
  5
2BC
330
2
100
AcDbEntity
  8
YKK_D
100
AcDbText
 10
362.49176834
 20
103.59094501
 30
0.0
 40
6.0
  1
25
 50
90.0
 41
0.8
100
AcDbText
1001
ACAD
1000
MTEXTBEGIN
1070
    73
1070
     1
1070
    44
1040
1.0
1070
    74
1070
     0
1000
MTEXTEND
  0
LINE
  5
2BD
330
2
100
AcDbEntity
  8
YKK_D
100
AcDbLine
 10
363.49176834
 20
94.17317851
 30
0.0
 11
363.49176834
 21
90.17317851
 31
0.0
  0
TEXT
  5
2BE
330
2
100
AcDbEntity
  8
YKK_D
100
AcDbText
 10
362.49176834
 20
82.62597039
 30
0.0
 40
6.0
  1
4
 50
90.0
 41
0.8
100
AcDbText
1001
ACAD
1000
MTEXTBEGIN
1070
    73
1070
     1
1070
    44
1040
1.0
1070
    74
1070
     0
1000
MTEXTEND
  0
LINE
  5
2BF
330
2
100
AcDbEntity
  8
YKK_D
100
AcDbLine
 10
363.49176834
 20
90.17317851
 30
0.0
 11
363.49176834
 21
81.57317851
 31
0.0
  0
LWPOLYLINE
  5
2C0
330
2
100
AcDbEntity
  8
YKK_D
  6
ByBlock
100
AcDbPolyline
 90
        2
 70
     1
 43
0.85
 10
363.49176834
 20
90.27942851
 42
1.0
 10
363.49176834
 20
90.06692851
 42
1.0
  0
LWPOLYLINE
  5
2C1
330
2
100
AcDbEntity
  8
YKK_D
  6
ByBlock
100
AcDbPolyline
 90
        2
 70
     1
 43
0.85
 10
363.49176834
 20
94.06692851
 42
1.0
 10
363.49176834
 20
94.27942851
 42
1.0
  0
LWPOLYLINE
  5
2C2
330
2
100
AcDbEntity
  8
YKK_D
  6
ByBlock
100
AcDbPolyline
 90
        2
 70
     1
 43
0.85
 10
363.49176834
 20
94.27942851
 42
1.0
 10
363.49176834
 20
94.06692851
 42
1.0
  0
LINE
  5
2C3
330
2
100
AcDbEntity
  8
YKK_D
100
AcDbLine
 10
343.49176834
 20
110.97318156
 30
0.0
 11
343.49176834
 21
123.17317851
 31
0.0
  0
LWPOLYLINE
  5
2C4
330
2
100
AcDbEntity
  8
YKK_D
  6
ByBlock
100
AcDbPolyline
 90
        2
 70
     1
 43
0.85
 10
343.49176834
 20
111.07943156
 42
1.0
 10
343.49176834
 20
110.86693156
 42
1.0
  0
LWPOLYLINE
  5
2C5
330
2
100
AcDbEntity
  8
YKK_D
  6
ByBlock
100
AcDbPolyline
 90
        2
 70
     1
 43
0.85
 10
343.49176834
 20
123.06692851
 42
1.0
 10
343.49176834
 20
123.27942851
 42
1.0
  0
LINE
  5
2C6
330
2
100
AcDbEntity
  8
YKK_D
100
AcDbLine
 10
363.49176834
 20
119.17317851
 30
0.0
 11
363.49176834
 21
123.17317851
 31
0.0
  0
LWPOLYLINE
  5
2C7
330
2
100
AcDbEntity
  8
YKK_D
  6
ByBlock
100
AcDbPolyline
 90
        2
 70
     1
 43
0.85
 10
363.49176834
 20
119.27942851
 42
1.0
 10
363.49176834
 20
119.06692851
 42
1.0
  0
LWPOLYLINE
  5
2C8
330
2
100
AcDbEntity
  8
YKK_D
  6
ByBlock
100
AcDbPolyline
 90
        2
 70
     1
 43
0.85
 10
363.49176834
 20
119.06692851
 42
1.0
 10
363.49176834
 20
119.27942851
 42
1.0
  0
TEXT
  5
2C9
330
2
100
AcDbEntity
  8
YKK_D
100
AcDbText
 10
362.49176834
 20
127.62597039
 30
0.0
 40
6.0
  1
4
 50
90.0
 41
0.8
100
AcDbText
1001
ACAD
1000
MTEXTBEGIN
1070
    73
1070
     1
1070
    44
1040
1.0
1070
    74
1070
     0
1000
MTEXTEND
  0
LINE
  5
2CA
330
2
100
AcDbEntity
  8
YKK_D
100
AcDbLine
 10
363.49176834
 20
123.17317851
 30
0.0
 11
363.49176834
 21
131.77317851
 31
0.0
  0
LWPOLYLINE
  5
2CB
330
2
100
AcDbEntity
  8
YKK_D
  6
ByBlock
100
AcDbPolyline
 90
        2
 70
     1
 43
0.85
 10
363.49176834
 20
123.06692851
 42
1.0
 10
363.49176834
 20
123.27942851
 42
1.0
  0
TEXT
  5
2CC
330
2
100
AcDbEntity
  8
YKK_D
100
AcDbText
 10
295.67961246
 20
144.88246806
 30
0.0
 40
6.0
  1
13.2
 41
0.8
100
AcDbText
1001
ACAD
1000
MTEXTBEGIN
1070
    73
1070
     1
1070
    44
1040
1.0
1070
    74
1070
     0
1000
MTEXTEND
  0
LINE
  5
2CD
330
2
100
AcDbEntity
  8
YKK_D
100
AcDbLine
 10
292.69175003
 20
143.17317851
 30
0.0
 11
283.49176834
 21
143.17317851
 31
0.0
  0
LWPOLYLINE
  5
2CE
330
2
100
AcDbEntity
  8
YKK_D
  6
ByBlock
100
AcDbPolyline
 90
        2
 70
     1
 43
0.85
 10
292.58550003
 20
143.17317851
 42
1.0
 10
292.79800003
 20
143.17317851
 42
1.0
  0
LINE
  5
2CF
330
2
100
AcDbEntity
  8
YKK_11
  6
ByBlock
 62
     0
100
AcDbLine
 10
375.49175519
 20
96.57317639
 30
0.0
 11
455.49175519
 21
96.57317639
 31
0.0
  0
LINE
  5
2D0
330
2
100
AcDbEntity
  8
YKK_11
  6
ByBlock
 62
     0
100
AcDbLine
 10
455.49175519
 20
95.37317639
 30
0.0
 11
375.49175519
 21
95.37317639
 31
0.0
  0
LINE
  5
2D1
330
2
100
AcDbEntity
  8
YKK_11
  6
ByBlock
 62
     0
100
AcDbLine
 10
459.49175503
 20
91.37317673
 30
0.0
 11
459.49175503
 21
90.17317673
 31
0.0
  0
LINE
  5
2D2
330
2
100
AcDbEntity
  8
YKK_11
  6
ByBlock
 62
     0
100
AcDbLine
 10
455.49175519
 20
94.17317639
 30
0.0
 11
455.49175519
 21
95.37317639
 31
0.0
  0
TEXT
  5
2D3
330
2
100
AcDbEntity
  8
YKK_D
100
AcDbText
 10
371.27552469
 20
164.17317851
 30
0.0
 40
6.0
  1
DW
 41
0.8
100
AcDbText
1001
ACAD
1000
MTEXTBEGIN
1070
    73
1070
     1
1070
    44
1040
1.0
1070
    74
1070
     0
1000
MTEXTEND
  0
LINE
  5
2D4
330
2
100
AcDbEntity
  8
YKK_D
100
AcDbLine
 10
469.49176834
 20
82.9731768
 30
0.0
 11
469.49176834
 21
50.97318156
 31
0.0
  0
LINE
  5
2D5
330
2
100
AcDbEntity
  8
YKK_D
100
AcDbLine
 10
469.49176834
 20
51.97318156
 30
0.0
 11
480.61177444
 21
51.97318156
 31
0.0
  0
LWPOLYLINE
  5
2D6
330
2
100
AcDbEntity
  8
YKK_D
  6
ByBlock
100
AcDbPolyline
 90
        2
 70
     1
 43
0.85
 10
469.38551834
 20
51.97318156
 42
1.0
 10
469.59801834
 20
51.97318156
 42
1.0
  0
TEXT
  5
2D7
330
2
100
AcDbEntity
  8
YKK_D
100
AcDbText
 10
472.7902516
 20
52.97318156
 30
0.0
 40
6.0
  1
10
 41
0.8
100
AcDbText
1001
ACAD
1000
MTEXTBEGIN
1070
    73
1070
     1
1070
    44
1040
1.0
1070
    74
1070
     0
1000
MTEXTEND
  0
LINE
  5
2D8
330
2
100
AcDbEntity
  8
YKK_D
100
AcDbLine
 10
465.49176834
 20
127.17317661
 30
0.0
 11
465.49176834
 21
164.17317851
 31
0.0
  0
LINE
  5
2D9
330
2
100
AcDbEntity
  8
YKK_D
100
AcDbLine
 10
465.49176834
 20
127.17317661
 30
0.0
 11
465.49176834
 21
164.17317851
 31
0.0
  0
LINE
  5
2DA
330
2
100
AcDbEntity
  8
YKK_D
100
AcDbLine
 10
494.49176834
 20
127.17317661
 30
0.0
 11
494.49176834
 21
164.17317851
 31
0.0
  0
LINE
  5
2DB
330
2
100
AcDbEntity
  8
YKK_D
100
AcDbLine
 10
469.49176834
 20
127.17317661
 30
0.0
 11
469.49176834
 21
164.17317851
 31
0.0
  0
LINE
  5
2DC
330
2
100
AcDbEntity
  8
YKK_11
  6
ByBlock
 62
     0
100
AcDbLine
 10
470.69175503
 20
121.97317673
 30
0.0
 11
470.69175503
 21
95.27317673
 31
0.0
  0
LINE
  5
2DD
330
2
100
AcDbEntity
  8
YKK_11
  6
ByBlock
 62
     0
100
AcDbLine
 10
493.29175503
 20
103.17317673
 30
0.0
 11
493.29175503
 21
121.97317673
 31
0.0
  0
LINE
  5
2DE
330
2
100
AcDbEntity
  8
YKK_11
  6
ByBlock
 62
     0
100
AcDbLine
 10
494.49175503
 20
121.97317673
 30
0.0
 11
494.49175503
 21
103.17317673
 31
0.0
  0
LINE
  5
2DF
330
2
100
AcDbEntity
  8
YKK_11
  6
ByBlock
 62
     0
100
AcDbLine
 10
469.49175503
 20
121.97317673
 30
0.0
 11
469.49175503
 21
91.37317673
 31
0.0
  0
LINE
  5
2E0
330
2
100
AcDbEntity
  8
YKK_11
  6
ByBlock
 62
     0
100
AcDbLine
 10
463.79175519
 20
95.37317639
 30
0.0
 11
463.79175519
 21
117.97317639
 31
0.0
  0
LINE
  5
2E1
330
2
100
AcDbEntity
  8
YKK_11
  6
ByBlock
 62
     0
100
AcDbLine
 10
464.29175519
 20
117.97317639
 30
0.0
 11
464.29175519
 21
95.87317639
 31
0.0
  0
LINE
  5
2E2
330
2
100
AcDbEntity
  8
YKK_11
  6
ByBlock
 62
     0
100
AcDbLine
 10
465.49175519
 20
117.97317639
 30
0.0
 11
465.49175519
 21
95.37317639
 31
0.0
  0
LINE
  5
2E3
330
2
100
AcDbEntity
  8
YKK_13
  6
YHIDDEN_1
100
AcDbLine
 10
493.2917549
 20
94.77317658
 30
0.0
 11
493.2917549
 21
121.47317658
 31
0.0
  0
LINE
  5
2E4
330
2
100
AcDbEntity
  8
YKK_13
  6
YHIDDEN_1
100
AcDbLine
 10
490.9917549
 20
121.47317658
 30
0.0
 11
490.9917549
 21
95.37317658
 31
0.0
  0
LINE
  5
2E5
330
2
100
AcDbEntity
  8
YKK_13
  6
YHIDDEN_1
100
AcDbLine
 10
474.9917549
 20
94.77317658
 30
0.0
 11
490.3917549
 21
94.77317658
 31
0.0
  0
LINE
  5
2E6
330
2
100
AcDbEntity
  8
YKK_13
  6
YHIDDEN_1
100
AcDbLine
 10
474.3917549
 20
92.47317658
 30
0.0
 11
490.9917549
 21
92.47317658
 31
0.0
  0
ARC
  5
2E7
330
2
100
AcDbEntity
  8
YKK_11
  6
ByBlock
 62
     0
100
AcDbCircle
 10
469.49175503
 20
91.37317673
 30
0.0
 40
1.199999999999999
100
AcDbArc
 50
270.00000112
 51
0.0
  0
LINE
  5
2E8
330
2
100
AcDbEntity
  8
YKK_11
  6
ByBlock
 62
     0
100
AcDbLine
 10
469.49175503
 20
90.17317699
 30
0.0
 11
469.49175503
 21
88.97317699
 31
0.0
  0
LINE
  5
2E9
330
2
100
AcDbEntity
  8
YKK_11
  6
ByBlock
 62
     0
100
AcDbLine
 10
464.29175519
 20
95.87317639
 30
0.0
 11
463.79175519
 21
95.37317639
 31
0.0
  0
ARC
  5
2EA
330
2
100
AcDbEntity
  8
YKK_11
  6
ByBlock
 62
     0
100
AcDbCircle
 10
464.29175519
 20
95.37317639
 30
0.0
 40
1.199999999999999
100
AcDbArc
 50
270.00000112
 51
0.0
  0
LINE
  5
2EB
330
2
100
AcDbEntity
  8
YKK_11
  6
ByBlock
 62
     0
100
AcDbLine
 10
470.69175503
 20
95.27317673
 30
0.0
 11
470.69175503
 21
91.37317673
 31
0.0
  0
LINE
  5
2EC
330
2
100
AcDbEntity
  8
YKK_13
  6
YHIDDEN_1
100
AcDbLine
 10
472.0917549
 20
94.77317658
 30
0.0
 11
472.0917549
 21
105.47317658
 31
0.0
  0
LINE
  5
2ED
330
2
100
AcDbEntity
  8
YKK_13
  6
YHIDDEN_1
100
AcDbLine
 10
474.3917549
 20
105.47317658
 30
0.0
 11
474.3917549
 21
95.37317658
 31
0.0
  0
ARC
  5
2EE
330
2
100
AcDbEntity
  8
YKK_13
  6
YHIDDEN_1
100
AcDbCircle
 10
474.3917549
 20
94.77317658
 30
0.0
 40
2.299999999999998
100
AcDbArc
 50
180.0
 51
270.0
  0
ARC
  5
2EF
330
2
100
AcDbEntity
  8
YKK_13
  6
YHIDDEN_1
100
AcDbCircle
 10
474.9917549
 20
95.37317658
 30
0.0
 40
0.5999999999999999
100
AcDbArc
 50
180.0
 51
270.0
  0
LINE
  5
2F0
330
2
100
AcDbEntity
  8
YKK_13
  6
YHIDDEN_1
100
AcDbLine
 10
472.0917549
 20
105.47317658
 30
0.0
 11
474.3917549
 21
105.47317658
 31
0.0
  0
LINE
  5
2F1
330
2
100
AcDbEntity
  8
YKK_11
  6
ByBlock
 62
     0
100
AcDbLine
 10
494.49175503
 20
103.17317673
 30
0.0
 11
493.29175503
 21
103.17317673
 31
0.0
  0
ARC
  5
2F2
330
2
100
AcDbEntity
  8
YKK_13
  6
YHIDDEN_1
100
AcDbCircle
 10
490.9917549
 20
94.77317658
 30
0.0
 40
2.299999999999998
100
AcDbArc
 50
270.0
 51
0.0
  0
ARC
  5
2F3
330
2
100
AcDbEntity
  8
YKK_13
  6
YHIDDEN_1
100
AcDbCircle
 10
490.3917549
 20
95.37317658
 30
0.0
 40
0.5999999999999999
100
AcDbArc
 50
270.0
 51
0.0
  0
LINE
  5
2F4
330
2
100
AcDbEntity
  8
YKK_11
  6
ByBlock
 62
     0
100
AcDbLine
 10
493.29175503
 20
121.97317673
 30
0.0
 11
470.69175503
 21
121.97317673
 31
0.0
  0
LINE
  5
2F5
330
2
100
AcDbEntity
  8
YKK_11
  6
ByBlock
 62
     0
100
AcDbLine
 10
493.29175503
 20
123.17317673
 30
0.0
 11
470.69175503
 21
123.17317673
 31
0.0
  0
ARC
  5
2F6
330
2
100
AcDbEntity
  8
YKK_11
  6
ByBlock
 62
     0
100
AcDbCircle
 10
470.69175503
 20
121.97317673
 30
0.0
 40
1.199999999999999
100
AcDbArc
 50
89.99998128
 51
180.00001985
  0
ARC
  5
2F7
330
2
100
AcDbEntity
  8
YKK_11
  6
ByBlock
 62
     0
100
AcDbCircle
 10
464.29175519
 20
117.97317639
 30
0.0
 40
1.199999999999999
100
AcDbArc
 50
0.0
 51
89.99998128
  0
ARC
  5
2F8
330
2
100
AcDbEntity
  8
YKK_11
  6
ByBlock
 62
     0
100
AcDbCircle
 10
493.29175503
 20
121.97317673
 30
0.0
 40
1.199999999999999
100
AcDbArc
 50
0.0
 51
89.99998128
  0
LINE
  5
2F9
330
2
100
AcDbEntity
  8
YKK_13
  6
YHIDDEN_1
100
AcDbLine
 10
490.9917549
 20
121.47317658
 30
0.0
 11
493.2917549
 21
121.47317658
 31
0.0
  0
TEXT
  5
2FA
330
2
100
AcDbEntity
  8
YKK_D
100
AcDbText
 10
465.09456022
 20
164.17317851
 30
0.0
 40
6.0
  1
4
 41
0.8
100
AcDbText
1001
ACAD
1000
MTEXTBEGIN
1070
    73
1070
     1
1070
    44
1040
1.0
1070
    74
1070
     0
1000
MTEXTEND
  0
TEXT
  5
2FB
330
2
100
AcDbEntity
  8
YKK_D
100
AcDbText
 10
478.90953484
 20
164.17317851
 30
0.0
 40
6.0
  1
25
 41
0.8
100
AcDbText
1001
ACAD
1000
MTEXTBEGIN
1070
    73
1070
     1
1070
    44
1040
1.0
1070
    74
1070
     0
1000
MTEXTEND
  0
LINE
  5
2FC
330
2
100
AcDbEntity
  8
YKK_D
100
AcDbLine
 10
494.49176834
 20
163.17317851
 30
0.0
 11
469.49176834
 21
163.17317851
 31
0.0
  0
LINE
  5
2FD
330
2
100
AcDbEntity
  8
YKK_D
100
AcDbLine
 10
465.49176834
 20
163.17317851
 30
0.0
 11
469.49176834
 21
163.17317851
 31
0.0
  0
LWPOLYLINE
  5
2FE
330
2
100
AcDbEntity
  8
YKK_D
  6
ByBlock
100
AcDbPolyline
 90
        2
 70
     1
 43
0.85
 10
465.59801834
 20
163.17317851
 42
1.0
 10
465.38551834
 20
163.17317851
 42
1.0
  0
LWPOLYLINE
  5
2FF
330
2
100
AcDbEntity
  8
YKK_D
  6
ByBlock
100
AcDbPolyline
 90
        2
 70
     1
 43
0.85
 10
465.38551834
 20
163.17317851
 42
1.0
 10
465.59801834
 20
163.17317851
 42
1.0
  0
LWPOLYLINE
  5
300
330
2
100
AcDbEntity
  8
YKK_D
  6
ByBlock
100
AcDbPolyline
 90
        2
 70
     1
 43
0.85
 10
469.59801834
 20
163.17317851
 42
1.0
 10
469.38551834
 20
163.17317851
 42
1.0
  0
LWPOLYLINE
  5
301
330
2
100
AcDbEntity
  8
YKK_D
  6
ByBlock
100
AcDbPolyline
 90
        2
 70
     1
 43
0.85
 10
469.38551834
 20
163.17317851
 42
1.0
 10
469.59801834
 20
163.17317851
 42
1.0
  0
LWPOLYLINE
  5
302
330
2
100
AcDbEntity
  8
YKK_D
  6
ByBlock
100
AcDbPolyline
 90
        2
 70
     1
 43
0.85
 10
494.38551834
 20
163.17317851
 42
1.0
 10
494.59801834
 20
163.17317851
 42
1.0
  0
LINE
  5
303
330
2
100
AcDbEntity
  8
YKK_A1
  6
Continuous
100
AcDbLine
 10
465.26792335
 20
355.12116492
 30
0.0
 11
421.76792594
 21
355.12116492
 31
0.0
  0
LINE
  5
304
330
2
100
AcDbEntity
  8
YKK_A1
  6
Continuous
100
AcDbLine
 10
421.76792594
 20
255.12117088
 30
0.0
 11
465.26792335
 21
255.12117088
 31
0.0
  0
LINE
  5
305
330
2
100
AcDbEntity
  8
YKK_A1
  6
Continuous
100
AcDbLine
 10
423.01792587
 20
353.871165
 30
0.0
 11
464.01792342
 21
353.871165
 31
0.0
  0
LINE
  5
306
330
2
100
AcDbEntity
  8
YKK_A1
  6
Continuous
100
AcDbLine
 10
423.01792587
 20
256.37117081
 30
0.0
 11
464.01792342
 21
256.37117081
 31
0.0
  0
LINE
  5
307
330
2
100
AcDbEntity
  8
YKK_A1
  6
Continuous
100
AcDbLine
 10
423.21792586
 20
353.72116501
 30
0.0
 11
463.81792344
 21
353.72116501
 31
0.0
  0
LINE
  5
308
330
2
100
AcDbEntity
  8
YKK_A1
  6
Continuous
100
AcDbLine
 10
423.21792586
 20
256.62117079
 30
0.0
 11
463.81792344
 21
256.62117079
 31
0.0
  0
LINE
  5
309
330
2
100
AcDbEntity
  8
YKK_D
100
AcDbLine
 10
423.21792401
 20
240.1211604
 30
0.0
 11
463.81793011
 21
240.1211604
 31
0.0
  0
LINE
  5
30A
330
2
100
AcDbEntity
  8
YKK_D
100
AcDbLine
 10
463.5179118
 20
225.12117565
 30
0.0
 11
459.18778478
 21
227.62117565
 31
0.0
  0
LINE
  5
30B
330
2
100
AcDbEntity
  8
YKK_D
100
AcDbLine
 10
463.5179118
 20
225.12117565
 30
0.0
 11
459.18778478
 21
222.62117565
 31
0.0
  0
LINE
  5
30C
330
2
100
AcDbEntity
  8
YKK_D
100
AcDbLine
 10
463.5179118
 20
225.12117565
 30
0.0
 11
454.85765776
 21
225.12117565
 31
0.0
  0
LINE
  5
30D
330
2
100
AcDbEntity
  8
YKK_A1
  6
Continuous
100
AcDbLine
 10
421.76792594
 20
355.12116492
 30
0.0
 11
421.76792594
 21
255.12117088
 31
0.0
  0
LINE
  5
30E
330
2
100
AcDbEntity
  8
YKK_A1
  6
Continuous
100
AcDbLine
 10
423.01792587
 20
255.12117088
 30
0.0
 11
423.01792587
 21
353.871165
 31
0.0
  0
LINE
  5
30F
330
2
100
AcDbEntity
  8
YKK_A1
  6
Continuous
100
AcDbLine
 10
423.21792586
 20
256.62117079
 30
0.0
 11
423.21792586
 21
353.72116501
 31
0.0
  0
LINE
  5
310
330
2
100
AcDbEntity
  8
YKK_A1
  6
Continuous
100
AcDbLine
 10
313.42579395
 20
255.12117088
 30
0.0
 11
313.42579395
 21
305.1211679
 31
0.0
  0
LINE
  5
311
330
2
100
AcDbEntity
  8
YKK_A1
  6
Continuous
100
AcDbLine
 10
311.17579408
 20
267.87117012
 30
0.0
 11
311.17579408
 21
262.87117042
 31
0.0
  0
LINE
  5
312
330
2
100
AcDbEntity
  8
YKK_A1
  6
Continuous
100
AcDbLine
 10
312.67579399
 20
267.87117012
 30
0.0
 11
312.67579399
 21
262.87117042
 31
0.0
  0
LINE
  5
313
330
2
100
AcDbEntity
  8
YKK_D
100
AcDbLine
 10
343.42577923
 20
298.3711604
 30
0.0
 11
343.42577923
 21
261.8711604
 31
0.0
  0
LINE
  5
314
330
2
100
AcDbEntity
  8
YKK_D
100
AcDbLine
 10
328.42577923
 20
303.7211665
 30
0.0
 11
328.42577923
 21
256.6211604
 31
0.0
  0
LINE
  5
315
330
2
100
AcDbEntity
  8
YKK_D
100
AcDbLine
 10
338.77770824
 20
262.18303494
 30
0.0
 11
338.77770824
 21
271.22303494
 31
0.0
  0
LINE
  5
316
330
2
100
AcDbEntity
  8
YKK_D
100
AcDbLine
 10
343.42577923
 20
256.8711604
 30
0.0
 11
343.42577923
 21
265.53141443
 31
0.0
  0
LINE
  5
317
330
2
100
AcDbEntity
  8
YKK_D
100
AcDbLine
 10
316.42579807
 20
255.1211604
 30
0.0
 11
344.42577923
 21
255.1211604
 31
0.0
  0
LINE
  5
318
330
2
100
AcDbEntity
  8
YKK_D
100
AcDbLine
 10
316.42579807
 20
256.3711604
 30
0.0
 11
329.42577923
 21
256.3711604
 31
0.0
  0
LINE
  5
319
330
2
100
AcDbEntity
  8
YKK_D
100
AcDbLine
 10
316.42576755
 20
256.6211604
 30
0.0
 11
329.42577923
 21
256.6211604
 31
0.0
  0
LINE
  5
31A
330
2
100
AcDbEntity
  8
YKK_D
100
AcDbLine
 10
316.42579807
 20
255.1211604
 30
0.0
 11
329.42577923
 21
255.1211604
 31
0.0
  0
LINE
  5
31B
330
2
100
AcDbEntity
  8
YKK_D
100
AcDbLine
 10
316.42579807
 20
256.3711604
 30
0.0
 11
329.42577923
 21
256.3711604
 31
0.0
  0
TEXT
  5
31C
330
2
100
AcDbEntity
  8
YKK_D
100
AcDbText
 10
328.24098572
 20
247.2213517
 30
0.0
 40
6.0
  1
25
 50
90.0
 41
0.8
100
AcDbText
1001
ACAD
1000
MTEXTBEGIN
1070
    73
1070
     1
1070
    44
1040
1.0
1070
    74
1070
     0
1000
MTEXTEND
  0
LINE
  5
31D
330
2
100
AcDbEntity
  8
YKK_D
100
AcDbLine
 10
311.67577923
 20
234.82364262
 30
0.0
 11
311.67577923
 21
224.12117565
 31
0.0
  0
LINE
  5
31E
330
2
100
AcDbEntity
  8
YKK_D
100
AcDbLine
 10
312.07578839
 20
240.1211604
 30
0.0
 11
315.34380363
 21
231.94350206
 31
0.0
  0
LINE
  5
31F
330
2
100
AcDbEntity
  8
YKK_D
100
AcDbLine
 10
313.42577923
 20
252.12116779
 30
0.0
 11
313.42577923
 21
224.1211604
 31
0.0
  0
LINE
  5
320
330
2
100
AcDbEntity
  8
YKK_D
100
AcDbLine
 10
311.67577923
 20
234.82364262
 30
0.0
 11
311.67577923
 21
224.1211604
 31
0.0
  0
TEXT
  5
321
330
2
100
AcDbEntity
  8
YKK_D
100
AcDbText
 10
316.39659551
 20
232.94350206
 30
0.0
 40
6.0
  1
4
 41
0.8
100
AcDbText
1001
ACAD
1000
MTEXTBEGIN
1070
    73
1070
     1
1070
    44
1040
1.0
1070
    74
1070
     0
1000
MTEXTEND
  0
LINE
  5
322
330
2
100
AcDbEntity
  8
YKK_D
100
AcDbLine
 10
311.67577923
 20
225.12117565
 30
0.0
 11
303.0155252
 21
225.12117565
 31
0.0
  0
TEXT
  5
323
330
2
100
AcDbEntity
  8
YKK_D
100
AcDbText
 10
290.14078437
 20
226.12117565
 30
0.0
 40
6.0
  1
W
 41
0.8
100
AcDbText
1001
ACAD
1000
MTEXTBEGIN
1070
    73
1070
     1
1070
    44
1040
1.0
1070
    74
1070
     0
1000
MTEXTEND
  0
LINE
  5
324
330
2
100
AcDbEntity
  8
YKK_D
100
AcDbLine
 10
315.34380363
 20
231.94350206
 30
0.0
 11
320.54380363
 21
231.94350206
 31
0.0
  0
LINE
  5
325
330
2
100
AcDbEntity
  8
YKK_D
100
AcDbLine
 10
313.42577923
 20
225.1211604
 30
0.0
 11
325.86577923
 21
225.1211604
 31
0.0
  0
LINE
  5
326
330
2
100
AcDbEntity
  8
YKK_D
100
AcDbLine
 10
311.67577923
 20
225.12117565
 30
0.0
 11
307.34565222
 21
222.62117565
 31
0.0
  0
LINE
  5
327
330
2
100
AcDbEntity
  8
YKK_D
100
AcDbLine
 10
307.34565222
 20
227.62117565
 30
0.0
 11
307.34565222
 21
222.62117565
 31
0.0
  0
LWPOLYLINE
  5
328
330
2
100
AcDbEntity
  8
YKK_D
  6
ByBlock
100
AcDbPolyline
 90
        2
 70
     1
 43
0.85
 10
313.53202923
 20
225.1211604
 42
1.0
 10
313.31952923
 20
225.1211604
 42
1.0
  0
LINE
  5
329
330
2
100
AcDbEntity
  8
YKK_D
100
AcDbLine
 10
311.67577923
 20
225.1211604
 30
0.0
 11
309.97577923
 21
225.1211604
 31
0.0
  0
LINE
  5
32A
330
2
100
AcDbEntity
  8
YKK_D
100
AcDbLine
 10
311.67577923
 20
225.12117565
 30
0.0
 11
307.34565222
 21
227.62117565
 31
0.0
  0
LINE
  5
32B
330
2
100
AcDbEntity
  8
YKK_D
100
AcDbLine
 10
311.67577923
 20
225.1211604
 30
0.0
 11
313.42577923
 21
225.1211604
 31
0.0
  0
TEXT
  5
32C
330
2
100
AcDbEntity
  8
YKK_D
100
AcDbText
 10
318.27572847
 20
226.1211604
 30
0.0
 40
6.0
  1
35
 41
0.8
100
AcDbText
1001
ACAD
1000
MTEXTBEGIN
1070
    73
1070
     1
1070
    44
1040
1.0
1070
    74
1070
     0
1000
MTEXTEND
  0
TEXT
  5
32D
330
2
100
AcDbEntity
  8
YKK_D
100
AcDbText
 10
288.4595661
 20
241.1211604
 30
0.0
 40
6.0
  1
DW
 41
0.8
100
AcDbText
1001
ACAD
1000
MTEXTBEGIN
1070
    73
1070
     1
1070
    44
1040
1.0
1070
    74
1070
     0
1000
MTEXTEND
  0
LINE
  5
32E
330
2
100
AcDbEntity
  8
YKK_A1
  6
Continuous
100
AcDbLine
 10
298.71363543
 20
256.87117078
 30
0.0
 11
298.66363543
 21
256.87117078
 31
0.0
  0
LINE
  5
32F
330
2
100
AcDbEntity
  8
YKK_D
100
AcDbLine
 10
312.17577923
 20
252.12116779
 30
0.0
 11
312.17577923
 21
239.1211604
 31
0.0
  0
LINE
  5
330
330
2
100
AcDbEntity
  8
YKK_D
100
AcDbLine
 10
311.97579754
 20
252.12116779
 30
0.0
 11
311.97579754
 21
239.1211604
 31
0.0
  0
LINE
  5
331
330
2
100
AcDbEntity
  8
YKK_D
100
AcDbLine
 10
313.42577923
 20
252.12116779
 30
0.0
 11
313.42577923
 21
239.1211604
 31
0.0
  0
LINE
  5
332
330
2
100
AcDbEntity
  8
YKK_D
100
AcDbLine
 10
312.17577923
 20
252.12116779
 30
0.0
 11
312.17577923
 21
239.1211604
 31
0.0
  0
LINE
  5
333
330
2
100
AcDbEntity
  8
YKK_D
100
AcDbLine
 10
313.42577923
 20
240.1211604
 30
0.0
 11
325.86577923
 21
240.1211604
 31
0.0
  0
LINE
  5
334
330
2
100
AcDbEntity
  8
YKK_D
100
AcDbLine
 10
311.97579754
 20
240.1211604
 30
0.0
 11
310.27579754
 21
240.1211604
 31
0.0
  0
LINE
  5
335
330
2
100
AcDbEntity
  8
YKK_D
100
AcDbLine
 10
312.17577923
 20
240.1211604
 30
0.0
 11
310.47577923
 21
240.1211604
 31
0.0
  0
LINE
  5
336
330
2
100
AcDbEntity
  8
YKK_D
100
AcDbLine
 10
312.17577923
 20
240.1211604
 30
0.0
 11
313.87577923
 21
240.1211604
 31
0.0
  0
LINE
  5
337
330
2
100
AcDbEntity
  8
YKK_D
100
AcDbLine
 10
312.17577923
 20
240.1211604
 30
0.0
 11
311.97579754
 21
240.1211604
 31
0.0
  0
LINE
  5
338
330
2
100
AcDbEntity
  8
YKK_D
100
AcDbLine
 10
312.17577923
 20
240.1211604
 30
0.0
 11
311.97579754
 21
240.1211604
 31
0.0
  0
LINE
  5
339
330
2
100
AcDbEntity
  8
YKK_D
100
AcDbLine
 10
312.17577923
 20
240.1211604
 30
0.0
 11
313.42577923
 21
240.1211604
 31
0.0
  0
LWPOLYLINE
  5
33A
330
2
100
AcDbEntity
  8
YKK_D
  6
ByBlock
100
AcDbPolyline
 90
        2
 70
     1
 43
0.85
 10
313.53202923
 20
240.1211604
 42
1.0
 10
313.31952923
 20
240.1211604
 42
1.0
  0
LWPOLYLINE
  5
33B
330
2
100
AcDbEntity
  8
YKK_D
  6
ByBlock
100
AcDbPolyline
 90
        2
 70
     1
 43
0.85
 10
312.06952923
 20
240.1211604
 42
1.0
 10
312.28202923
 20
240.1211604
 42
1.0
  0
LWPOLYLINE
  5
33C
330
2
100
AcDbEntity
  8
YKK_D
  6
ByBlock
100
AcDbPolyline
 90
        2
 70
     1
 43
0.85
 10
311.86954754
 20
240.1211604
 42
1.0
 10
312.08204754
 20
240.1211604
 42
1.0
  0
LWPOLYLINE
  5
33D
330
2
100
AcDbEntity
  8
YKK_D
  6
ByBlock
100
AcDbPolyline
 90
        2
 70
     1
 43
0.85
 10
312.28202923
 20
240.1211604
 42
1.0
 10
312.06952923
 20
240.1211604
 42
1.0
  0
LWPOLYLINE
  5
33E
330
2
100
AcDbEntity
  8
YKK_D
  6
ByBlock
100
AcDbPolyline
 90
        2
 70
     1
 43
0.85
 10
311.86954754
 20
240.1211604
 42
1.0
 10
312.08204754
 20
240.1211604
 42
1.0
  0
TEXT
  5
33F
330
2
100
AcDbEntity
  8
YKK_D
100
AcDbText
 10
318.26354573
 20
241.1211604
 30
0.0
 40
6.0
  1
25
 41
0.8
100
AcDbText
1001
ACAD
1000
MTEXTBEGIN
1070
    73
1070
     1
1070
    44
1040
1.0
1070
    74
1070
     0
1000
MTEXTEND
  0
LINE
  5
340
330
2
100
AcDbEntity
  8
YKK_A1
  6
Continuous
100
AcDbLine
 10
312.17579402
 20
255.12117088
 30
0.0
 11
312.17579402
 21
262.87117042
 31
0.0
  0
LINE
  5
341
330
2
100
AcDbEntity
  8
YKK_A1
  6
YHIDDEN_1
100
AcDbLine
 10
310.42579413
 20
256.37117081
 30
0.0
 11
310.42579413
 21
256.35940542
 31
0.0
  0
LINE
  5
342
330
2
100
AcDbEntity
  8
YKK_A1
  6
Continuous
100
AcDbLine
 10
311.67579405
 20
255.12117088
 30
0.0
 11
311.67579405
 21
255.17117088
 31
0.0
  0
LINE
  5
343
330
2
100
AcDbEntity
  8
YKK_A1
  6
Continuous
100
AcDbLine
 10
311.17579408
 20
262.87117042
 30
0.0
 11
312.67579399
 21
262.87117042
 31
0.0
  0
LINE
  5
344
330
2
100
AcDbEntity
  8
YKK_A1
  6
Continuous
100
AcDbLine
 10
311.97579404
 20
262.87117042
 30
0.0
 11
311.97579404
 21
256.62117079
 31
0.0
  0
LINE
  5
345
330
2
100
AcDbEntity
  8
YKK_A1
  6
Continuous
100
AcDbLine
 10
312.17579402
 20
256.87117078
 30
0.0
 11
312.12579403
 21
256.87117078
 31
0.0
  0
LINE
  5
346
330
2
100
AcDbEntity
  8
YKK_D
100
AcDbLine
 10
343.42577923
 20
255.1211604
 30
0.0
 11
343.42577923
 21
242.6811604
 31
0.0
  0
TEXT
  5
347
330
2
100
AcDbEntity
  8
YKK_D
100
AcDbText
 10
342.42577923
 20
244.13110963
 30
0.0
 40
6.0
  1
35
 50
90.0
 41
0.8
100
AcDbText
1001
ACAD
1000
MTEXTBEGIN
1070
    73
1070
     1
1070
    44
1040
1.0
1070
    74
1070
     0
1000
MTEXTEND
  0
LINE
  5
348
330
2
100
AcDbEntity
  8
YKK_D
100
AcDbLine
 10
333.34142293
 20
256.8711604
 30
0.0
 11
344.42577923
 21
256.8711604
 31
0.0
  0
LINE
  5
349
330
2
100
AcDbEntity
  8
YKK_D
100
AcDbLine
 10
333.34142293
 20
256.8711604
 30
0.0
 11
344.42577923
 21
256.8711604
 31
0.0
  0
LINE
  5
34A
330
2
100
AcDbEntity
  8
YKK_D
100
AcDbLine
 10
328.42577923
 20
256.4961604
 30
0.0
 11
338.77770824
 21
262.18303494
 31
0.0
  0
LINE
  5
34B
330
2
100
AcDbEntity
  8
YKK_D
100
AcDbLine
 10
328.42577923
 20
256.3711604
 30
0.0
 11
328.42577923
 21
256.6211604
 31
0.0
  0
LINE
  5
34C
330
2
100
AcDbEntity
  8
YKK_D
100
AcDbLine
 10
328.42577923
 20
256.3711604
 30
0.0
 11
328.42577923
 21
256.6211604
 31
0.0
  0
LINE
  5
34D
330
2
100
AcDbEntity
  8
YKK_D
100
AcDbLine
 10
328.42577923
 20
256.3711604
 30
0.0
 11
328.42577923
 21
258.0711604
 31
0.0
  0
LWPOLYLINE
  5
34E
330
2
100
AcDbEntity
  8
YKK_D
  6
ByBlock
100
AcDbPolyline
 90
        2
 70
     1
 43
0.85
 10
328.42577923
 20
256.7274104
 42
1.0
 10
328.42577923
 20
256.5149104
 42
1.0
  0
LWPOLYLINE
  5
34F
330
2
100
AcDbEntity
  8
YKK_D
  6
ByBlock
100
AcDbPolyline
 90
        2
 70
     1
 43
0.85
 10
328.42577923
 20
256.7274104
 42
1.0
 10
328.42577923
 20
256.5149104
 42
1.0
  0
LINE
  5
350
330
2
100
AcDbEntity
  8
YKK_D
100
AcDbLine
 10
328.42577923
 20
256.3711604
 30
0.0
 11
328.42577923
 21
254.6711604
 31
0.0
  0
LINE
  5
351
330
2
100
AcDbEntity
  8
YKK_D
100
AcDbLine
 10
328.42577923
 20
255.1211604
 30
0.0
 11
328.42577923
 21
253.4211604
 31
0.0
  0
LINE
  5
352
330
2
100
AcDbEntity
  8
YKK_D
100
AcDbLine
 10
328.42577923
 20
255.1211604
 30
0.0
 11
328.42577923
 21
256.3711604
 31
0.0
  0
LWPOLYLINE
  5
353
330
2
100
AcDbEntity
  8
YKK_D
  6
ByBlock
100
AcDbPolyline
 90
        2
 70
     1
 43
0.85
 10
328.42577923
 20
256.4774104
 42
1.0
 10
328.42577923
 20
256.2649104
 42
1.0
  0
LWPOLYLINE
  5
354
330
2
100
AcDbEntity
  8
YKK_D
  6
ByBlock
100
AcDbPolyline
 90
        2
 70
     1
 43
0.85
 10
328.42577923
 20
255.0149104
 42
1.0
 10
328.42577923
 20
255.2274104
 42
1.0
  0
LWPOLYLINE
  5
355
330
2
100
AcDbEntity
  8
YKK_D
  6
ByBlock
100
AcDbPolyline
 90
        2
 70
     1
 43
0.85
 10
328.42577923
 20
256.2649104
 42
1.0
 10
328.42577923
 20
256.4774104
 42
1.0
  0
LINE
  5
356
330
2
100
AcDbEntity
  8
YKK_D
100
AcDbLine
 10
328.42577923
 20
256.6211604
 30
0.0
 11
328.42577923
 21
258.3211604
 31
0.0
  0
LINE
  5
357
330
2
100
AcDbEntity
  8
YKK_D
100
AcDbLine
 10
343.42577923
 20
256.8711604
 30
0.0
 11
343.42577923
 21
255.1211604
 31
0.0
  0
LWPOLYLINE
  5
358
330
2
100
AcDbEntity
  8
YKK_D
  6
ByBlock
100
AcDbPolyline
 90
        2
 70
     1
 43
0.85
 10
343.42577923
 20
255.0149104
 42
1.0
 10
343.42577923
 20
255.2274104
 42
1.0
  0
LINE
  5
359
330
2
100
AcDbEntity
  8
YKK_D
100
AcDbLine
 10
343.42577923
 20
256.8711604
 30
0.0
 11
345.92577923
 21
261.20128741
 31
0.0
  0
LINE
  5
35A
330
2
100
AcDbEntity
  8
YKK_D
100
AcDbLine
 10
345.92577923
 20
261.20128741
 30
0.0
 11
340.92577923
 21
261.20128741
 31
0.0
  0
LINE
  5
35B
330
2
100
AcDbEntity
  8
YKK_D
100
AcDbLine
 10
343.42577923
 20
256.8711604
 30
0.0
 11
343.42577923
 21
258.5711604
 31
0.0
  0
LINE
  5
35C
330
2
100
AcDbEntity
  8
YKK_D
100
AcDbLine
 10
343.42577923
 20
256.8711604
 30
0.0
 11
340.92577923
 21
261.20128741
 31
0.0
  0
LINE
  5
35D
330
2
100
AcDbEntity
  8
YKK_D
100
AcDbLine
 10
316.42579807
 20
305.1211604
 30
0.0
 11
344.42577923
 21
305.1211604
 31
0.0
  0
LINE
  5
35E
330
2
100
AcDbEntity
  8
YKK_D
100
AcDbLine
 10
316.42579807
 20
305.1211604
 30
0.0
 11
329.42577923
 21
305.1211604
 31
0.0
  0
LINE
  5
35F
330
2
100
AcDbEntity
  8
YKK_D
100
AcDbLine
 10
316.42579807
 20
303.8711604
 30
0.0
 11
329.42577923
 21
303.8711604
 31
0.0
  0
LINE
  5
360
330
2
100
AcDbEntity
  8
YKK_D
100
AcDbLine
 10
316.42576755
 20
303.7211665
 30
0.0
 11
329.42577923
 21
303.7211665
 31
0.0
  0
LINE
  5
361
330
2
100
AcDbEntity
  8
YKK_D
100
AcDbLine
 10
316.42579807
 20
303.8711604
 30
0.0
 11
329.42577923
 21
303.8711604
 31
0.0
  0
LINE
  5
362
330
2
100
AcDbEntity
  8
YKK_A1
  6
Continuous
100
AcDbLine
 10
311.97579404
 20
303.72116799
 30
0.0
 11
311.97579404
 21
295.37116848
 31
0.0
  0
LINE
  5
363
330
2
100
AcDbEntity
  8
YKK_A1
  6
Continuous
100
AcDbLine
 10
312.17579402
 20
295.37116848
 30
0.0
 11
312.17579402
 21
305.1211679
 31
0.0
  0
LINE
  5
364
330
2
100
AcDbEntity
  8
YKK_A1
  6
Continuous
100
AcDbLine
 10
312.17579402
 20
267.87117012
 30
0.0
 11
312.17579402
 21
290.37116878
 31
0.0
  0
LINE
  5
365
330
2
100
AcDbEntity
  8
YKK_A1
  6
Continuous
100
AcDbLine
 10
311.97579404
 20
290.37116878
 30
0.0
 11
311.97579404
 21
267.87117012
 31
0.0
  0
TEXT
  5
366
330
2
100
AcDbEntity
  8
YKK_D
100
AcDbText
 10
327.42577923
 20
277.06457972
 30
0.0
 40
6.0
  1
DH
 50
90.0
 41
0.8
100
AcDbText
1001
ACAD
1000
MTEXTBEGIN
1070
    73
1070
     1
1070
    44
1040
1.0
1070
    74
1070
     0
1000
MTEXTEND
  0
LINE
  5
367
330
2
100
AcDbEntity
  8
YKK_A1
  6
Continuous
100
AcDbLine
 10
311.17579408
 20
267.87117012
 30
0.0
 11
312.67579399
 21
267.87117012
 31
0.0
  0
LINE
  5
368
330
2
100
AcDbEntity
  8
YKK_A1
  6
Continuous
100
AcDbLine
 10
311.17579408
 20
295.37116848
 30
0.0
 11
312.67579399
 21
295.37116848
 31
0.0
  0
LINE
  5
369
330
2
100
AcDbEntity
  8
YKK_A1
  6
Continuous
100
AcDbLine
 10
311.17579408
 20
290.37116878
 30
0.0
 11
312.67579399
 21
290.37116878
 31
0.0
  0
LINE
  5
36A
330
2
100
AcDbEntity
  8
YKK_A1
  6
Continuous
100
AcDbLine
 10
311.17579408
 20
295.37116848
 30
0.0
 11
311.17579408
 21
290.37116878
 31
0.0
  0
LINE
  5
36B
330
2
100
AcDbEntity
  8
YKK_A1
  6
Continuous
100
AcDbLine
 10
312.67579399
 20
295.37116848
 30
0.0
 11
312.67579399
 21
290.37116878
 31
0.0
  0
TEXT
  5
36C
330
2
100
AcDbEntity
  8
YKK_D
100
AcDbText
 10
327.42577923
 20
309.95892689
 30
0.0
 40
6.0
  1
25
 50
90.0
 41
0.8
100
AcDbText
1001
ACAD
1000
MTEXTBEGIN
1070
    73
1070
     1
1070
    44
1040
1.0
1070
    74
1070
     0
1000
MTEXTEND
  0
LINE
  5
36D
330
2
100
AcDbEntity
  8
YKK_A1
  6
Continuous
100
AcDbLine
 10
313.42579395
 20
303.37116801
 30
0.0
 11
313.37579395
 21
303.37116801
 31
0.0
  0
LINE
  5
36E
330
2
100
AcDbEntity
  8
YKK_D
100
AcDbLine
 10
337.72636924
 20
297.67169728
 30
0.0
 11
337.72636924
 21
292.47169728
 31
0.0
  0
LINE
  5
36F
330
2
100
AcDbEntity
  8
YKK_D
100
AcDbLine
 10
343.42577923
 20
303.3711604
 30
0.0
 11
343.42577923
 21
294.71090636
 31
0.0
  0
TEXT
  5
370
330
2
100
AcDbEntity
  8
YKK_D
100
AcDbText
 10
336.72636924
 20
293.56103738
 30
0.0
 40
6.0
  1
3
 50
90.0
 41
0.8
100
AcDbText
1001
ACAD
1000
MTEXTBEGIN
1070
    73
1070
     1
1070
    44
1040
1.0
1070
    74
1070
     0
1000
MTEXTEND
  0
TEXT
  5
371
330
2
100
AcDbEntity
  8
YKK_D
100
AcDbText
 10
342.42577923
 20
278.57395227
 30
0.0
 40
6.0
  1
H
 50
90.0
 41
0.8
100
AcDbText
1001
ACAD
1000
MTEXTBEGIN
1070
    73
1070
     1
1070
    44
1040
1.0
1070
    74
1070
     0
1000
MTEXTEND
  0
TEXT
  5
372
330
2
100
AcDbEntity
  8
YKK_D
100
AcDbText
 10
337.76247981
 20
265.19237504
 30
0.0
 40
6.0
  1
5 
 50
90.0
 41
0.8
100
AcDbText
1001
ACAD
1000
MTEXTBEGIN
1070
    73
1070
     1
1070
    44
1040
1.0
1070
    74
1070
     0
1000
MTEXTEND
  0
LINE
  5
373
330
2
100
AcDbEntity
  8
YKK_D
100
AcDbLine
 10
343.42577923
 20
305.1211604
 30
0.0
 11
343.42577923
 21
317.5611604
 31
0.0
  0
LINE
  5
374
330
2
100
AcDbEntity
  8
YKK_D
100
AcDbLine
 10
328.42577923
 20
305.1211604
 30
0.0
 11
328.42577923
 21
317.5611604
 31
0.0
  0
TEXT
  5
375
330
2
100
AcDbEntity
  8
YKK_D
100
AcDbText
 10
342.42577923
 20
309.97110963
 30
0.0
 40
6.0
  1
35
 50
90.0
 41
0.8
100
AcDbText
1001
ACAD
1000
MTEXTBEGIN
1070
    73
1070
     1
1070
    44
1040
1.0
1070
    74
1070
     0
1000
MTEXTEND
  0
LINE
  5
376
330
2
100
AcDbEntity
  8
YKK_D
100
AcDbLine
 10
334.21366109
 20
303.3711604
 30
0.0
 11
344.42577923
 21
303.3711604
 31
0.0
  0
LINE
  5
377
330
2
100
AcDbEntity
  8
YKK_D
100
AcDbLine
 10
333.34142293
 20
303.3711604
 30
0.0
 11
344.42577923
 21
303.3711604
 31
0.0
  0
LINE
  5
378
330
2
100
AcDbEntity
  8
YKK_D
100
AcDbLine
 10
328.42577923
 20
303.8711604
 30
0.0
 11
328.42577923
 21
302.1711604
 31
0.0
  0
LINE
  5
379
330
2
100
AcDbEntity
  8
YKK_D
100
AcDbLine
 10
328.42577923
 20
303.8711604
 30
0.0
 11
328.42577923
 21
303.7211665
 31
0.0
  0
LINE
  5
37A
330
2
100
AcDbEntity
  8
YKK_D
100
AcDbLine
 10
328.42577923
 20
303.8711604
 30
0.0
 11
328.42577923
 21
303.7211665
 31
0.0
  0
LWPOLYLINE
  5
37B
330
2
100
AcDbEntity
  8
YKK_D
  6
ByBlock
100
AcDbPolyline
 90
        2
 70
     1
 43
0.85
 10
328.42577923
 20
303.6149165
 42
1.0
 10
328.42577923
 20
303.8274165
 42
1.0
  0
LWPOLYLINE
  5
37C
330
2
100
AcDbEntity
  8
YKK_D
  6
ByBlock
100
AcDbPolyline
 90
        2
 70
     1
 43
0.85
 10
328.42577923
 20
303.9774104
 42
1.0
 10
328.42577923
 20
303.7649104
 42
1.0
  0
LWPOLYLINE
  5
37D
330
2
100
AcDbEntity
  8
YKK_D
  6
ByBlock
100
AcDbPolyline
 90
        2
 70
     1
 43
0.85
 10
328.42577923
 20
303.6149165
 42
1.0
 10
328.42577923
 20
303.8274165
 42
1.0
  0
LWPOLYLINE
  5
37E
330
2
100
AcDbEntity
  8
YKK_D
  6
ByBlock
100
AcDbPolyline
 90
        2
 70
     1
 43
0.85
 10
328.42577923
 20
303.7649104
 42
1.0
 10
328.42577923
 20
303.9774104
 42
1.0
  0
LINE
  5
37F
330
2
100
AcDbEntity
  8
YKK_D
100
AcDbLine
 10
328.42577923
 20
303.79616345
 30
0.0
 11
337.72636924
 21
297.67169728
 31
0.0
  0
LINE
  5
380
330
2
100
AcDbEntity
  8
YKK_D
100
AcDbLine
 10
328.42577923
 20
303.7211665
 30
0.0
 11
328.42577923
 21
302.0211665
 31
0.0
  0
LINE
  5
381
330
2
100
AcDbEntity
  8
YKK_D
100
AcDbLine
 10
328.42577923
 20
303.8711604
 30
0.0
 11
328.42577923
 21
305.1211604
 31
0.0
  0
LINE
  5
382
330
2
100
AcDbEntity
  8
YKK_D
100
AcDbLine
 10
328.42577923
 20
303.8711604
 30
0.0
 11
328.42577923
 21
305.5711604
 31
0.0
  0
LWPOLYLINE
  5
383
330
2
100
AcDbEntity
  8
YKK_D
  6
ByBlock
100
AcDbPolyline
 90
        2
 70
     1
 43
0.85
 10
328.42577923
 20
305.2274104
 42
1.0
 10
328.42577923
 20
305.0149104
 42
1.0
  0
LINE
  5
384
330
2
100
AcDbEntity
  8
YKK_D
100
AcDbLine
 10
343.42577923
 20
303.3711604
 30
0.0
 11
343.42577923
 21
305.1211604
 31
0.0
  0
LINE
  5
385
330
2
100
AcDbEntity
  8
YKK_D
100
AcDbLine
 10
343.42577923
 20
303.3711604
 30
0.0
 11
345.92577923
 21
299.04103338
 31
0.0
  0
LINE
  5
386
330
2
100
AcDbEntity
  8
YKK_D
100
AcDbLine
 10
340.92577923
 20
299.04103338
 30
0.0
 11
345.92577923
 21
299.04103338
 31
0.0
  0
LINE
  5
387
330
2
100
AcDbEntity
  8
YKK_D
100
AcDbLine
 10
343.42577923
 20
303.3711604
 30
0.0
 11
343.42577923
 21
301.6711604
 31
0.0
  0
LINE
  5
388
330
2
100
AcDbEntity
  8
YKK_D
100
AcDbLine
 10
343.42577923
 20
303.3711604
 30
0.0
 11
340.92577923
 21
299.04103338
 31
0.0
  0
LWPOLYLINE
  5
389
330
2
100
AcDbEntity
  8
YKK_D
  6
ByBlock
100
AcDbPolyline
 90
        2
 70
     1
 43
0.85
 10
343.42577923
 20
305.2274104
 42
1.0
 10
343.42577923
 20
305.0149104
 42
1.0
  0
LINE
  5
38A
330
2
100
AcDbEntity
  8
YKK_D
100
AcDbLine
 10
406.7679118
 20
305.66879833
 30
0.0
 11
406.7679118
 21
256.6211604
 31
0.0
  0
LINE
  5
38B
330
2
100
AcDbEntity
  8
YKK_D
100
AcDbLine
 10
418.76789988
 20
256.6211604
 30
0.0
 11
405.7679118
 21
256.6211604
 31
0.0
  0
LINE
  5
38C
330
2
100
AcDbEntity
  8
YKK_D
100
AcDbLine
 10
421.7679118
 20
240.1211604
 30
0.0
 11
409.3279118
 21
240.1211604
 31
0.0
  0
LINE
  5
38D
330
2
100
AcDbEntity
  8
YKK_D
100
AcDbLine
 10
423.11791791
 20
240.1211604
 30
0.0
 11
415.99963121
 21
232.76316747
 31
0.0
  0
LINE
  5
38E
330
2
100
AcDbEntity
  8
YKK_D
100
AcDbLine
 10
421.7679118
 20
225.1211604
 30
0.0
 11
409.3279118
 21
225.1211604
 31
0.0
  0
TEXT
  5
38F
330
2
100
AcDbEntity
  8
YKK_D
100
AcDbText
 10
410.7656783
 20
241.1211604
 30
0.0
 40
6.0
  1
25
 41
0.8
100
AcDbText
1001
ACAD
1000
MTEXTBEGIN
1070
    73
1070
     1
1070
    44
1040
1.0
1070
    74
1070
     0
1000
MTEXTEND
  0
TEXT
  5
390
330
2
100
AcDbEntity
  8
YKK_D
100
AcDbText
 10
410.77786104
 20
226.1211604
 30
0.0
 40
6.0
  1
35
 41
0.8
100
AcDbText
1001
ACAD
1000
MTEXTBEGIN
1070
    73
1070
     1
1070
    44
1040
1.0
1070
    74
1070
     0
1000
MTEXTEND
  0
LINE
  5
391
330
2
100
AcDbEntity
  8
YKK_D
100
AcDbLine
 10
415.99963121
 20
232.76316747
 30
0.0
 11
410.79963121
 21
232.76316747
 31
0.0
  0
TEXT
  5
392
330
2
100
AcDbEntity
  8
YKK_D
100
AcDbText
 10
411.85242308
 20
233.76316747
 30
0.0
 40
6.0
  1
4
 41
0.8
100
AcDbText
1001
ACAD
1000
MTEXTBEGIN
1070
    73
1070
     1
1070
    44
1040
1.0
1070
    74
1070
     0
1000
MTEXTEND
  0
LWPOLYLINE
  5
393
330
2
100
AcDbEntity
  8
YKK_D
  6
ByBlock
100
AcDbPolyline
 90
        2
 70
     1
 43
0.85
 10
406.7679118
 20
256.7274104
 42
1.0
 10
406.7679118
 20
256.5149104
 42
1.0
  0
LINE
  5
394
330
2
100
AcDbEntity
  8
YKK_D
100
AcDbLine
 10
423.5179118
 20
234.83073986
 30
0.0
 11
423.5179118
 21
224.12117565
 31
0.0
  0
LINE
  5
395
330
2
100
AcDbEntity
  8
YKK_D
100
AcDbLine
 10
421.7679118
 20
252.12116957
 30
0.0
 11
421.7679118
 21
224.1211604
 31
0.0
  0
LINE
  5
396
330
2
100
AcDbEntity
  8
YKK_D
100
AcDbLine
 10
423.5179118
 20
234.83073986
 30
0.0
 11
423.5179118
 21
224.1211604
 31
0.0
  0
LINE
  5
397
330
2
100
AcDbEntity
  8
YKK_D
100
AcDbLine
 10
428.5179118
 20
225.12117565
 30
0.0
 11
458.5179118
 21
225.12117565
 31
0.0
  0
LINE
  5
398
330
2
100
AcDbEntity
  8
YKK_D
100
AcDbLine
 10
423.5179118
 20
225.12117565
 30
0.0
 11
427.84803882
 21
222.62117565
 31
0.0
  0
LINE
  5
399
330
2
100
AcDbEntity
  8
YKK_D
100
AcDbLine
 10
423.5179118
 20
225.12117565
 30
0.0
 11
427.84803882
 21
227.62117565
 31
0.0
  0
LINE
  5
39A
330
2
100
AcDbEntity
  8
YKK_D
100
AcDbLine
 10
423.5179118
 20
225.12117565
 30
0.0
 11
432.17816584
 21
225.12117565
 31
0.0
  0
LWPOLYLINE
  5
39B
330
2
100
AcDbEntity
  8
YKK_D
  6
ByBlock
100
AcDbPolyline
 90
        2
 70
     1
 43
0.85
 10
421.6616618
 20
225.1211604
 42
1.0
 10
421.8741618
 20
225.1211604
 42
1.0
  0
LINE
  5
39C
330
2
100
AcDbEntity
  8
YKK_D
100
AcDbLine
 10
423.5179118
 20
225.1211604
 30
0.0
 11
425.2179118
 21
225.1211604
 31
0.0
  0
LINE
  5
39D
330
2
100
AcDbEntity
  8
YKK_D
100
AcDbLine
 10
423.5179118
 20
225.1211604
 30
0.0
 11
421.7679118
 21
225.1211604
 31
0.0
  0
LINE
  5
39E
330
2
100
AcDbEntity
  8
YKK_D
100
AcDbLine
 10
427.84803882
 20
222.62117565
 30
0.0
 11
427.84803882
 21
227.62117565
 31
0.0
  0
TEXT
  5
39F
330
2
100
AcDbEntity
  8
YKK_D
100
AcDbText
 10
441.98288642
 20
226.12117565
 30
0.0
 40
6.0
  1
W
 41
0.8
100
AcDbText
1001
ACAD
1000
MTEXTBEGIN
1070
    73
1070
     1
1070
    44
1040
1.0
1070
    74
1070
     0
1000
MTEXTEND
  0
LINE
  5
3A0
330
2
100
AcDbEntity
  8
YKK_D
100
AcDbLine
 10
459.18778478
 20
227.62117565
 30
0.0
 11
459.18778478
 21
222.62117565
 31
0.0
  0
LINE
  5
3A1
330
2
100
AcDbEntity
  8
YKK_D
100
AcDbLine
 10
423.21792401
 20
252.12116946
 30
0.0
 11
423.21792401
 21
239.1211604
 31
0.0
  0
LINE
  5
3A2
330
2
100
AcDbEntity
  8
YKK_D
100
AcDbLine
 10
421.7679118
 20
252.12116957
 30
0.0
 11
421.7679118
 21
239.1211604
 31
0.0
  0
LINE
  5
3A3
330
2
100
AcDbEntity
  8
YKK_D
100
AcDbLine
 10
423.0179118
 20
252.12116957
 30
0.0
 11
423.0179118
 21
239.1211604
 31
0.0
  0
LINE
  5
3A4
330
2
100
AcDbEntity
  8
YKK_D
100
AcDbLine
 10
423.0179118
 20
240.1211604
 30
0.0
 11
421.3179118
 21
240.1211604
 31
0.0
  0
LWPOLYLINE
  5
3A5
330
2
100
AcDbEntity
  8
YKK_D
  6
ByBlock
100
AcDbPolyline
 90
        2
 70
     1
 43
0.85
 10
421.6616618
 20
240.1211604
 42
1.0
 10
421.8741618
 20
240.1211604
 42
1.0
  0
LINE
  5
3A6
330
2
100
AcDbEntity
  8
YKK_D
100
AcDbLine
 10
423.0179118
 20
240.1211604
 30
0.0
 11
424.7179118
 21
240.1211604
 31
0.0
  0
LINE
  5
3A7
330
2
100
AcDbEntity
  8
YKK_D
100
AcDbLine
 10
423.0179118
 20
240.1211604
 30
0.0
 11
421.7679118
 21
240.1211604
 31
0.0
  0
LINE
  5
3A8
330
2
100
AcDbEntity
  8
YKK_D
100
AcDbLine
 10
423.21792401
 20
240.1211604
 30
0.0
 11
424.91792401
 21
240.1211604
 31
0.0
  0
LINE
  5
3A9
330
2
100
AcDbEntity
  8
YKK_D
100
AcDbLine
 10
423.0179118
 20
240.1211604
 30
0.0
 11
423.21792401
 21
240.1211604
 31
0.0
  0
LINE
  5
3AA
330
2
100
AcDbEntity
  8
YKK_D
100
AcDbLine
 10
423.0179118
 20
240.1211604
 30
0.0
 11
423.21792401
 21
240.1211604
 31
0.0
  0
LWPOLYLINE
  5
3AB
330
2
100
AcDbEntity
  8
YKK_D
  6
ByBlock
100
AcDbPolyline
 90
        2
 70
     1
 43
0.85
 10
423.32417401
 20
240.1211604
 42
1.0
 10
423.11167401
 20
240.1211604
 42
1.0
  0
LWPOLYLINE
  5
3AC
330
2
100
AcDbEntity
  8
YKK_D
  6
ByBlock
100
AcDbPolyline
 90
        2
 70
     1
 43
0.85
 10
422.9116618
 20
240.1211604
 42
1.0
 10
423.1241618
 20
240.1211604
 42
1.0
  0
LWPOLYLINE
  5
3AD
330
2
100
AcDbEntity
  8
YKK_D
  6
ByBlock
100
AcDbPolyline
 90
        2
 70
     1
 43
0.85
 10
423.32417401
 20
240.1211604
 42
1.0
 10
423.11167401
 20
240.1211604
 42
1.0
  0
LINE
  5
3AE
330
2
100
AcDbEntity
  8
YKK_A1
  6
Continuous
100
AcDbLine
 10
423.51792584
 20
255.12117088
 30
0.0
 11
423.51792584
 21
255.17117088
 31
0.0
  0
LINE
  5
3AF
330
2
100
AcDbEntity
  8
YKK_A1
  6
YHIDDEN_1
100
AcDbLine
 10
424.46792578
 20
256.62117079
 30
0.0
 11
424.46792578
 21
256.61294052
 31
0.0
  0
LINE
  5
3B0
330
2
100
AcDbEntity
  8
YKK_A1
  6
YHIDDEN_1
100
AcDbLine
 10
421.76792594
 20
264.37117033
 30
0.0
 11
421.76396937
 21
264.37117033
 31
0.0
  0
TEXT
  5
3B1
330
2
100
AcDbEntity
  8
YKK_D
100
AcDbText
 10
440.30166815
 20
241.1211604
 30
0.0
 40
6.0
  1
DW
 41
0.8
100
AcDbText
1001
ACAD
1000
MTEXTBEGIN
1070
    73
1070
     1
1070
    44
1040
1.0
1070
    74
1070
     0
1000
MTEXTEND
  0
LINE
  5
3B2
330
2
100
AcDbEntity
  8
YKK_D
100
AcDbLine
 10
418.76796044
 20
305.66879833
 30
0.0
 11
405.7679118
 21
305.66879833
 31
0.0
  0
TEXT
  5
3B3
330
2
100
AcDbEntity
  8
YKK_D
100
AcDbText
 10
405.7679118
 20
279.56123828
 30
0.0
 40
6.0
  1
C
 50
90.0
 41
0.8
100
AcDbText
1001
ACAD
1000
MTEXTBEGIN
1070
    73
1070
     1
1070
    44
1040
1.0
1070
    74
1070
     0
1000
MTEXTEND
  0
LWPOLYLINE
  5
3B4
330
2
100
AcDbEntity
  8
YKK_D
  6
ByBlock
100
AcDbPolyline
 90
        2
 70
     1
 43
0.85
 10
406.7679118
 20
305.56254833
 42
1.0
 10
406.7679118
 20
305.77504833
 42
1.0
  0
LINE
  5
3B5
330
2
100
AcDbEntity
  8
YKK_A1
  6
YCENTER_1
100
AcDbLine
 10
423.21792586
 20
305.66881328
 30
0.0
 11
433.21284765
 21
305.66881328
 31
0.0
  0
ARC
  5
3B6
330
2
100
AcDbEntity
  8
YKK_A1
  6
Continuous
100
AcDbCircle
 10
428.44292554
 20
303.99381338
 30
0.0
 40
0.2749999836087227
100
AcDbArc
 50
270.0
 51
90.0
  0
ARC
  5
3B7
330
2
100
AcDbEntity
  8
YKK_A1
  6
Continuous
100
AcDbCircle
 10
428.09292557
 20
303.99381338
 30
0.0
 40
0.2249999865889549
100
AcDbArc
 50
90.0
 51
270.0
  0
ARC
  5
3B8
330
2
100
AcDbEntity
  8
YKK_A1
  6
Continuous
100
AcDbCircle
 10
428.09292557
 20
303.99381338
 30
0.0
 40
0.2749999836087227
100
AcDbArc
 50
90.0
 51
270.0
  0
ARC
  5
3B9
330
2
100
AcDbEntity
  8
YKK_A1
  6
Continuous
100
AcDbCircle
 10
428.44292554
 20
303.99381338
 30
0.0
 40
0.2249999865889549
100
AcDbArc
 50
270.0
 51
90.0
  0
LINE
  5
3BA
330
2
100
AcDbEntity
  8
YKK_A1
  6
Continuous
100
AcDbLine
 10
428.94292551
 20
302.89381344
 30
0.0
 11
428.94292551
 21
308.44381311
 31
0.0
  0
LINE
  5
3BB
330
2
100
AcDbEntity
  8
YKK_A1
  6
Continuous
100
AcDbLine
 10
427.5929256
 20
308.44381311
 30
0.0
 11
427.5929256
 21
302.89381344
 31
0.0
  0
LINE
  5
3BC
330
2
100
AcDbEntity
  8
YKK_A1
  6
Continuous
100
AcDbLine
 10
427.66792559
 20
302.91881344
 30
0.0
 11
427.66792559
 21
308.41881311
 31
0.0
  0
LINE
  5
3BD
330
2
100
AcDbEntity
  8
YKK_A1
  6
Continuous
100
AcDbLine
 10
428.86792552
 20
302.91881344
 30
0.0
 11
428.86792552
 21
308.41881311
 31
0.0
  0
LINE
  5
3BE
330
2
100
AcDbEntity
  8
YKK_A1
  6
Continuous
100
AcDbLine
 10
428.09292557
 20
303.71881339
 30
0.0
 11
428.44292554
 21
303.71881339
 31
0.0
  0
CIRCLE
  5
3BF
330
2
100
AcDbEntity
  8
YKK_A1
  6
Continuous
100
AcDbCircle
 10
428.26792555
 20
303.50631341
 30
0.0
 40
0.0874999947845936
  0
LINE
  5
3C0
330
2
100
AcDbEntity
  8
YKK_A1
  6
Continuous
100
AcDbLine
 10
428.09292557
 20
303.76881339
 30
0.0
 11
428.44292554
 21
303.76881339
 31
0.0
  0
LINE
  5
3C1
330
2
100
AcDbEntity
  8
YKK_A1
  6
Continuous
100
AcDbLine
 10
427.69292559
 20
302.79381345
 30
0.0
 11
428.84292552
 21
302.79381345
 31
0.0
  0
ARC
  5
3C2
330
2
100
AcDbEntity
  8
YKK_A1
  6
Continuous
100
AcDbCircle
 10
427.69292559
 20
302.89381344
 30
0.0
 40
0.0999999940395355
100
AcDbArc
 50
180.0
 51
270.0
  0
ARC
  5
3C3
330
2
100
AcDbEntity
  8
YKK_A1
  6
Continuous
100
AcDbCircle
 10
428.84292552
 20
302.89381344
 30
0.0
 40
0.0999999940395355
100
AcDbArc
 50
270.0
 51
0.0
  0
LINE
  5
3C4
330
2
100
AcDbEntity
  8
YKK_A1
  6
Continuous
100
AcDbLine
 10
427.71792559
 20
302.86881344
 30
0.0
 11
428.81792552
 21
302.86881344
 31
0.0
  0
ARC
  5
3C5
330
2
100
AcDbEntity
  8
YKK_A1
  6
Continuous
100
AcDbCircle
 10
427.71792559
 20
302.91881344
 30
0.0
 40
0.0499999970197678
100
AcDbArc
 50
180.0
 51
270.0
  0
ARC
  5
3C6
330
2
100
AcDbEntity
  8
YKK_A1
  6
Continuous
100
AcDbCircle
 10
428.81792552
 20
302.91881344
 30
0.0
 40
0.0499999970197678
100
AcDbArc
 50
270.0
 51
0.0
  0
ARC
  5
3C7
330
2
100
AcDbEntity
  8
YKK_A1
  6
Continuous
100
AcDbCircle
 10
428.26792555
 20
304.81881333
 30
0.0
 40
0.3999999761581421
100
AcDbArc
 50
180.0
 51
0.0
  0
LINE
  5
3C8
330
2
100
AcDbEntity
  8
YKK_A1
  6
Continuous
100
AcDbLine
 10
428.44292554
 20
304.26881336
 30
0.0
 11
428.09292557
 21
304.26881336
 31
0.0
  0
LINE
  5
3C9
330
2
100
AcDbEntity
  8
YKK_A1
  6
Continuous
100
AcDbLine
 10
428.44292554
 20
304.21881336
 30
0.0
 11
428.09292557
 21
304.21881336
 31
0.0
  0
LINE
  5
3CA
330
2
100
AcDbEntity
  8
YKK_A1
  6
Continuous
100
AcDbLine
 10
428.84292552
 20
308.54381311
 30
0.0
 11
427.69292559
 21
308.54381311
 31
0.0
  0
ARC
  5
3CB
330
2
100
AcDbEntity
  8
YKK_A1
  6
Continuous
100
AcDbCircle
 10
427.69292559
 20
308.44381311
 30
0.0
 40
0.0999999940395355
100
AcDbArc
 50
90.0
 51
180.0
  0
ARC
  5
3CC
330
2
100
AcDbEntity
  8
YKK_A1
  6
Continuous
100
AcDbCircle
 10
428.84292552
 20
308.44381311
 30
0.0
 40
0.0999999940395355
100
AcDbArc
 50
0.0
 51
90.0
  0
LINE
  5
3CD
330
2
100
AcDbEntity
  8
YKK_A1
  6
Continuous
100
AcDbLine
 10
427.71792559
 20
308.46881311
 30
0.0
 11
428.81792552
 21
308.46881311
 31
0.0
  0
LINE
  5
3CE
330
2
100
AcDbEntity
  8
YKK_A1
  6
Continuous
100
AcDbLine
 10
427.86792558
 20
307.81881315
 30
0.0
 11
428.66792553
 21
307.81881315
 31
0.0
  0
LINE
  5
3CF
330
2
100
AcDbEntity
  8
YKK_A1
  6
Continuous
100
AcDbLine
 10
427.86792558
 20
307.81881315
 30
0.0
 11
427.86792558
 21
304.81881333
 31
0.0
  0
LINE
  5
3D0
330
2
100
AcDbEntity
  8
YKK_A1
  6
Continuous
100
AcDbLine
 10
428.66792553
 20
307.81881315
 30
0.0
 11
428.66792553
 21
304.81881333
 31
0.0
  0
ARC
  5
3D1
330
2
100
AcDbEntity
  8
YKK_A1
  6
Continuous
100
AcDbCircle
 10
427.71792559
 20
308.41881311
 30
0.0
 40
0.0499999970197678
100
AcDbArc
 50
90.0
 51
180.0
  0
ARC
  5
3D2
330
2
100
AcDbEntity
  8
YKK_A1
  6
Continuous
100
AcDbCircle
 10
428.81792552
 20
308.41881311
 30
0.0
 40
0.0499999970197678
100
AcDbArc
 50
0.0
 51
90.0
  0
LINE
  5
3D3
330
2
100
AcDbEntity
  8
YKK_A1
  6
YHIDDEN_1
100
AcDbLine
 10
421.76792594
 20
345.87116547
 30
0.0
 11
421.75758855
 21
345.87116547
 31
0.0
  0
LINE
  5
3D4
330
2
100
AcDbEntity
  8
YKK_A1
  6
YCENTER_1
100
AcDbLine
 10
431.01792539
 20
355.12116492
 30
0.0
 11
431.01792539
 21
355.37848533
 31
0.0
  0
LINE
  5
3D5
330
2
100
AcDbEntity
  8
YKK_A1
  6
YCENTER_1
100
AcDbLine
 10
456.0179239
 20
355.12116492
 30
0.0
 11
456.0179239
 21
355.28654868
 31
0.0
  0
LINE
  5
3D6
330
2
100
AcDbEntity
  8
YKK_A1
  6
Continuous
100
AcDbLine
 10
465.26792335
 20
255.12117088
 30
0.0
 11
465.26792335
 21
355.12116492
 31
0.0
  0
LINE
  5
3D7
330
2
100
AcDbEntity
  8
YKK_A1
  6
Continuous
100
AcDbLine
 10
463.81792344
 20
340.3711658
 30
0.0
 11
463.81792344
 21
305.66881328
 31
0.0
  0
LINE
  5
3D8
330
2
100
AcDbEntity
  8
YKK_A1
  6
Continuous
100
AcDbLine
 10
464.01792342
 20
305.66881328
 30
0.0
 11
464.01792342
 21
340.3711658
 31
0.0
  0
LINE
  5
3D9
330
2
100
AcDbEntity
  8
YKK_D
100
AcDbLine
 10
480.2679118
 20
353.7211665
 30
0.0
 11
480.2679118
 21
256.6211604
 31
0.0
  0
LINE
  5
3DA
330
2
100
AcDbEntity
  8
YKK_D
100
AcDbLine
 10
495.2679118
 20
348.3711604
 30
0.0
 11
495.2679118
 21
261.8711604
 31
0.0
  0
LINE
  5
3DB
330
2
100
AcDbEntity
  8
YKK_A1
  6
Continuous
100
AcDbLine
 10
463.31792347
 20
267.87117012
 30
0.0
 11
463.31792347
 21
262.87117042
 31
0.0
  0
LINE
  5
3DC
330
2
100
AcDbEntity
  8
YKK_A1
  6
Continuous
100
AcDbLine
 10
464.51792339
 20
267.87117012
 30
0.0
 11
464.51792339
 21
262.87117042
 31
0.0
  0
LINE
  5
3DD
330
2
100
AcDbEntity
  8
YKK_D
100
AcDbLine
 10
490.88325575
 20
261.903354
 30
0.0
 11
490.88325575
 21
270.943354
 31
0.0
  0
LINE
  5
3DE
330
2
100
AcDbEntity
  8
YKK_D
100
AcDbLine
 10
495.2679118
 20
256.8711604
 30
0.0
 11
495.2679118
 21
265.53141443
 31
0.0
  0
LINE
  5
3DF
330
2
100
AcDbEntity
  8
YKK_D
100
AcDbLine
 10
465.2679118
 20
252.12116957
 30
0.0
 11
465.2679118
 21
224.1211604
 31
0.0
  0
LINE
  5
3E0
330
2
100
AcDbEntity
  8
YKK_D
100
AcDbLine
 10
463.5179118
 20
234.6256789
 30
0.0
 11
463.5179118
 21
224.1211604
 31
0.0
  0
LINE
  5
3E1
330
2
100
AcDbEntity
  8
YKK_D
100
AcDbLine
 10
463.5179118
 20
234.6256789
 30
0.0
 11
463.5179118
 21
224.12117565
 31
0.0
  0
LINE
  5
3E2
330
2
100
AcDbEntity
  8
YKK_D
100
AcDbLine
 10
463.91792096
 20
240.1211604
 30
0.0
 11
467.93099148
 21
232.20214651
 31
0.0
  0
LINE
  5
3E3
330
2
100
AcDbEntity
  8
YKK_D
100
AcDbLine
 10
465.2679118
 20
225.1211604
 30
0.0
 11
477.7079118
 21
225.1211604
 31
0.0
  0
LINE
  5
3E4
330
2
100
AcDbEntity
  8
YKK_D
100
AcDbLine
 10
467.93099148
 20
232.20214651
 30
0.0
 11
473.13099148
 21
232.20214651
 31
0.0
  0
TEXT
  5
3E5
330
2
100
AcDbEntity
  8
YKK_D
100
AcDbText
 10
470.11786104
 20
226.1211604
 30
0.0
 40
6.0
  1
35
 41
0.8
100
AcDbText
1001
ACAD
1000
MTEXTBEGIN
1070
    73
1070
     1
1070
    44
1040
1.0
1070
    74
1070
     0
1000
MTEXTEND
  0
LWPOLYLINE
  5
3E6
330
2
100
AcDbEntity
  8
YKK_D
  6
ByBlock
100
AcDbPolyline
 90
        2
 70
     1
 43
0.85
 10
465.3741618
 20
225.1211604
 42
1.0
 10
465.1616618
 20
225.1211604
 42
1.0
  0
LINE
  5
3E7
330
2
100
AcDbEntity
  8
YKK_D
100
AcDbLine
 10
463.5179118
 20
225.1211604
 30
0.0
 11
461.8179118
 21
225.1211604
 31
0.0
  0
LINE
  5
3E8
330
2
100
AcDbEntity
  8
YKK_D
100
AcDbLine
 10
463.5179118
 20
225.1211604
 30
0.0
 11
465.2679118
 21
225.1211604
 31
0.0
  0
LINE
  5
3E9
330
2
100
AcDbEntity
  8
YKK_D
100
AcDbLine
 10
468.2678969
 20
255.1211604
 30
0.0
 11
496.2679118
 21
255.1211604
 31
0.0
  0
LINE
  5
3EA
330
2
100
AcDbEntity
  8
YKK_D
100
AcDbLine
 10
480.2679118
 20
256.4961604
 30
0.0
 11
490.88325575
 21
261.903354
 31
0.0
  0
LINE
  5
3EB
330
2
100
AcDbEntity
  8
YKK_D
100
AcDbLine
 10
465.2679118
 20
252.12116957
 30
0.0
 11
465.2679118
 21
239.1211604
 31
0.0
  0
LINE
  5
3EC
330
2
100
AcDbEntity
  8
YKK_D
100
AcDbLine
 10
464.0179118
 20
252.12116957
 30
0.0
 11
464.0179118
 21
239.1211604
 31
0.0
  0
LINE
  5
3ED
330
2
100
AcDbEntity
  8
YKK_D
100
AcDbLine
 10
463.81793011
 20
252.12116946
 30
0.0
 11
463.81793011
 21
239.1211604
 31
0.0
  0
TEXT
  5
3EE
330
2
100
AcDbEntity
  8
YKK_D
100
AcDbText
 10
479.95316111
 20
247.32792812
 30
0.0
 40
6.0
  1
25
 50
90.0
 41
0.8
100
AcDbText
1001
ACAD
1000
MTEXTBEGIN
1070
    73
1070
     1
1070
    44
1040
1.0
1070
    74
1070
     0
1000
MTEXTEND
  0
LINE
  5
3EF
330
2
100
AcDbEntity
  8
YKK_D
100
AcDbLine
 10
465.2679118
 20
240.1211604
 30
0.0
 11
477.7079118
 21
240.1211604
 31
0.0
  0
TEXT
  5
3F0
330
2
100
AcDbEntity
  8
YKK_D
100
AcDbText
 10
470.1056783
 20
241.1211604
 30
0.0
 40
6.0
  1
25
 41
0.8
100
AcDbText
1001
ACAD
1000
MTEXTBEGIN
1070
    73
1070
     1
1070
    44
1040
1.0
1070
    74
1070
     0
1000
MTEXTEND
  0
TEXT
  5
3F1
330
2
100
AcDbEntity
  8
YKK_D
100
AcDbText
 10
468.98378336
 20
233.20214651
 30
0.0
 40
6.0
  1
4
 41
0.8
100
AcDbText
1001
ACAD
1000
MTEXTBEGIN
1070
    73
1070
     1
1070
    44
1040
1.0
1070
    74
1070
     0
1000
MTEXTEND
  0
LINE
  5
3F2
330
2
100
AcDbEntity
  8
YKK_D
100
AcDbLine
 10
464.0179118
 20
240.1211604
 30
0.0
 11
462.3179118
 21
240.1211604
 31
0.0
  0
LINE
  5
3F3
330
2
100
AcDbEntity
  8
YKK_D
100
AcDbLine
 10
464.0179118
 20
240.1211604
 30
0.0
 11
465.2679118
 21
240.1211604
 31
0.0
  0
LINE
  5
3F4
330
2
100
AcDbEntity
  8
YKK_D
100
AcDbLine
 10
463.81793011
 20
240.1211604
 30
0.0
 11
462.11793011
 21
240.1211604
 31
0.0
  0
LINE
  5
3F5
330
2
100
AcDbEntity
  8
YKK_D
100
AcDbLine
 10
464.0179118
 20
240.1211604
 30
0.0
 11
465.7179118
 21
240.1211604
 31
0.0
  0
LINE
  5
3F6
330
2
100
AcDbEntity
  8
YKK_D
100
AcDbLine
 10
463.81793011
 20
240.1211604
 30
0.0
 11
464.0179118
 21
240.1211604
 31
0.0
  0
LINE
  5
3F7
330
2
100
AcDbEntity
  8
YKK_D
100
AcDbLine
 10
463.81793011
 20
240.1211604
 30
0.0
 11
464.0179118
 21
240.1211604
 31
0.0
  0
LWPOLYLINE
  5
3F8
330
2
100
AcDbEntity
  8
YKK_D
  6
ByBlock
100
AcDbPolyline
 90
        2
 70
     1
 43
0.85
 10
463.71168011
 20
240.1211604
 42
1.0
 10
463.92418011
 20
240.1211604
 42
1.0
  0
LWPOLYLINE
  5
3F9
330
2
100
AcDbEntity
  8
YKK_D
  6
ByBlock
100
AcDbPolyline
 90
        2
 70
     1
 43
0.85
 10
463.71168011
 20
240.1211604
 42
1.0
 10
463.92418011
 20
240.1211604
 42
1.0
  0
LWPOLYLINE
  5
3FA
330
2
100
AcDbEntity
  8
YKK_D
  6
ByBlock
100
AcDbPolyline
 90
        2
 70
     1
 43
0.85
 10
465.3741618
 20
240.1211604
 42
1.0
 10
465.1616618
 20
240.1211604
 42
1.0
  0
LWPOLYLINE
  5
3FB
330
2
100
AcDbEntity
  8
YKK_D
  6
ByBlock
100
AcDbPolyline
 90
        2
 70
     1
 43
0.85
 10
463.9116618
 20
240.1211604
 42
1.0
 10
464.1241618
 20
240.1211604
 42
1.0
  0
LINE
  5
3FC
330
2
100
AcDbEntity
  8
YKK_D
100
AcDbLine
 10
468.2679273
 20
256.6211604
 30
0.0
 11
481.2679118
 21
256.6211604
 31
0.0
  0
LINE
  5
3FD
330
2
100
AcDbEntity
  8
YKK_D
100
AcDbLine
 10
468.2678969
 20
255.1211604
 30
0.0
 11
481.2679118
 21
255.1211604
 31
0.0
  0
LINE
  5
3FE
330
2
100
AcDbEntity
  8
YKK_D
100
AcDbLine
 10
468.26789678
 20
256.3711604
 30
0.0
 11
481.2679118
 21
256.3711604
 31
0.0
  0
LINE
  5
3FF
330
2
100
AcDbEntity
  8
YKK_A1
  6
Continuous
100
AcDbLine
 10
464.01792342
 20
255.12117088
 30
0.0
 11
464.01792342
 21
262.87117042
 31
0.0
  0
LINE
  5
400
330
2
100
AcDbEntity
  8
YKK_A1
  6
Continuous
100
AcDbLine
 10
463.51792345
 20
255.12117088
 30
0.0
 11
463.51792345
 21
255.17117088
 31
0.0
  0
LINE
  5
401
330
2
100
AcDbEntity
  8
YKK_A1
  6
YHIDDEN_1
100
AcDbLine
 10
462.56792351
 20
256.37117081
 30
0.0
 11
462.56792351
 21
256.35940542
 31
0.0
  0
LINE
  5
402
330
2
100
AcDbEntity
  8
YKK_A1
  6
Continuous
100
AcDbLine
 10
465.26792335
 20
256.87117078
 30
0.0
 11
465.21792335
 21
256.87117078
 31
0.0
  0
LINE
  5
403
330
2
100
AcDbEntity
  8
YKK_A1
  6
Continuous
100
AcDbLine
 10
463.31792347
 20
262.87117042
 30
0.0
 11
464.51792339
 21
262.87117042
 31
0.0
  0
LINE
  5
404
330
2
100
AcDbEntity
  8
YKK_A1
  6
Continuous
100
AcDbLine
 10
463.81792344
 20
262.87117042
 30
0.0
 11
463.81792344
 21
256.62117079
 31
0.0
  0
LINE
  5
405
330
2
100
AcDbEntity
  8
YKK_A1
  6
YHIDDEN_1
100
AcDbLine
 10
465.26792335
 20
258.12117071
 30
0.0
 11
465.27934202
 21
258.12117071
 31
0.0
  0
LINE
  5
406
330
2
100
AcDbEntity
  8
YKK_D
100
AcDbLine
 10
480.2679118
 20
256.6211604
 30
0.0
 11
480.2679118
 21
256.3711604
 31
0.0
  0
LINE
  5
407
330
2
100
AcDbEntity
  8
YKK_D
100
AcDbLine
 10
480.2679118
 20
256.6211604
 30
0.0
 11
480.2679118
 21
256.3711604
 31
0.0
  0
LINE
  5
408
330
2
100
AcDbEntity
  8
YKK_D
100
AcDbLine
 10
480.2679118
 20
256.3711604
 30
0.0
 11
480.2679118
 21
258.0711604
 31
0.0
  0
LWPOLYLINE
  5
409
330
2
100
AcDbEntity
  8
YKK_D
  6
ByBlock
100
AcDbPolyline
 90
        2
 70
     1
 43
0.85
 10
480.2679118
 20
256.7274104
 42
1.0
 10
480.2679118
 20
256.5149104
 42
1.0
  0
LWPOLYLINE
  5
40A
330
2
100
AcDbEntity
  8
YKK_D
  6
ByBlock
100
AcDbPolyline
 90
        2
 70
     1
 43
0.85
 10
480.2679118
 20
256.7274104
 42
1.0
 10
480.2679118
 20
256.5149104
 42
1.0
  0
LINE
  5
40B
330
2
100
AcDbEntity
  8
YKK_D
100
AcDbLine
 10
480.2679118
 20
256.3711604
 30
0.0
 11
480.2679118
 21
254.6711604
 31
0.0
  0
LINE
  5
40C
330
2
100
AcDbEntity
  8
YKK_D
100
AcDbLine
 10
480.2679118
 20
255.1211604
 30
0.0
 11
480.2679118
 21
253.4211604
 31
0.0
  0
LINE
  5
40D
330
2
100
AcDbEntity
  8
YKK_D
100
AcDbLine
 10
480.2679118
 20
255.1211604
 30
0.0
 11
480.2679118
 21
256.3711604
 31
0.0
  0
LWPOLYLINE
  5
40E
330
2
100
AcDbEntity
  8
YKK_D
  6
ByBlock
100
AcDbPolyline
 90
        2
 70
     1
 43
0.85
 10
480.2679118
 20
256.4774104
 42
1.0
 10
480.2679118
 20
256.2649104
 42
1.0
  0
LWPOLYLINE
  5
40F
330
2
100
AcDbEntity
  8
YKK_D
  6
ByBlock
100
AcDbPolyline
 90
        2
 70
     1
 43
0.85
 10
480.2679118
 20
255.0149104
 42
1.0
 10
480.2679118
 20
255.2274104
 42
1.0
  0
LWPOLYLINE
  5
410
330
2
100
AcDbEntity
  8
YKK_D
  6
ByBlock
100
AcDbPolyline
 90
        2
 70
     1
 43
0.85
 10
480.2679118
 20
256.2649104
 42
1.0
 10
480.2679118
 20
256.4774104
 42
1.0
  0
LINE
  5
411
330
2
100
AcDbEntity
  8
YKK_D
100
AcDbLine
 10
480.2679118
 20
256.6211604
 30
0.0
 11
480.2679118
 21
258.3211604
 31
0.0
  0
LINE
  5
412
330
2
100
AcDbEntity
  8
YKK_D
100
AcDbLine
 10
495.2679118
 20
255.1211604
 30
0.0
 11
495.2679118
 21
242.6811604
 31
0.0
  0
TEXT
  5
413
330
2
100
AcDbEntity
  8
YKK_D
100
AcDbText
 10
494.2679118
 20
244.13110963
 30
0.0
 40
6.0
  1
35
 50
90.0
 41
0.8
100
AcDbText
1001
ACAD
1000
MTEXTBEGIN
1070
    73
1070
     1
1070
    44
1040
1.0
1070
    74
1070
     0
1000
MTEXTEND
  0
LINE
  5
414
330
2
100
AcDbEntity
  8
YKK_D
100
AcDbLine
 10
485.34242428
 20
256.8711604
 30
0.0
 11
496.2679118
 21
256.8711604
 31
0.0
  0
LINE
  5
415
330
2
100
AcDbEntity
  8
YKK_D
100
AcDbLine
 10
485.34242428
 20
256.8711604
 30
0.0
 11
496.2679118
 21
256.8711604
 31
0.0
  0
LINE
  5
416
330
2
100
AcDbEntity
  8
YKK_D
100
AcDbLine
 10
495.2679118
 20
256.8711604
 30
0.0
 11
492.7679118
 21
261.20128741
 31
0.0
  0
LINE
  5
417
330
2
100
AcDbEntity
  8
YKK_D
100
AcDbLine
 10
497.7679118
 20
261.20128741
 30
0.0
 11
492.7679118
 21
261.20128741
 31
0.0
  0
LINE
  5
418
330
2
100
AcDbEntity
  8
YKK_D
100
AcDbLine
 10
495.2679118
 20
256.8711604
 30
0.0
 11
495.2679118
 21
255.1211604
 31
0.0
  0
LWPOLYLINE
  5
419
330
2
100
AcDbEntity
  8
YKK_D
  6
ByBlock
100
AcDbPolyline
 90
        2
 70
     1
 43
0.85
 10
495.2679118
 20
255.0149104
 42
1.0
 10
495.2679118
 20
255.2274104
 42
1.0
  0
LINE
  5
41A
330
2
100
AcDbEntity
  8
YKK_D
100
AcDbLine
 10
495.2679118
 20
256.8711604
 30
0.0
 11
495.2679118
 21
258.5711604
 31
0.0
  0
LINE
  5
41B
330
2
100
AcDbEntity
  8
YKK_D
100
AcDbLine
 10
495.2679118
 20
256.8711604
 30
0.0
 11
497.7679118
 21
261.20128741
 31
0.0
  0
LINE
  5
41C
330
2
100
AcDbEntity
  8
YKK_A1
  6
Continuous
100
AcDbLine
 10
464.01792342
 20
267.87117012
 30
0.0
 11
464.01792342
 21
300.66881358
 31
0.0
  0
LINE
  5
41D
330
2
100
AcDbEntity
  8
YKK_A1
  6
Continuous
100
AcDbLine
 10
463.81792344
 20
300.66881358
 30
0.0
 11
463.81792344
 21
267.87117012
 31
0.0
  0
LINE
  5
41E
330
2
100
AcDbEntity
  8
YKK_A1
  6
Continuous
100
AcDbLine
 10
463.31792347
 20
267.87117012
 30
0.0
 11
464.51792339
 21
267.87117012
 31
0.0
  0
TEXT
  5
41F
330
2
100
AcDbEntity
  8
YKK_D
100
AcDbText
 10
489.86802733
 20
264.9126941
 30
0.0
 40
6.0
  1
5 
 50
90.0
 41
0.8
100
AcDbText
1001
ACAD
1000
MTEXTBEGIN
1070
    73
1070
     1
1070
    44
1040
1.0
1070
    74
1070
     0
1000
MTEXTEND
  0
LINE
  5
420
330
2
100
AcDbEntity
  8
YKK_A1
  6
Continuous
100
AcDbLine
 10
463.31792347
 20
300.66881358
 30
0.0
 11
463.31792347
 21
305.66881328
 31
0.0
  0
LINE
  5
421
330
2
100
AcDbEntity
  8
YKK_A1
  6
Continuous
100
AcDbLine
 10
464.51792339
 20
300.66881358
 30
0.0
 11
464.51792339
 21
305.66881328
 31
0.0
  0
LINE
  5
422
330
2
100
AcDbEntity
  8
YKK_A1
  6
Continuous
100
AcDbLine
 10
463.31792347
 20
300.66881358
 30
0.0
 11
464.51792339
 21
300.66881358
 31
0.0
  0
LINE
  5
423
330
2
100
AcDbEntity
  8
YKK_A1
  6
Continuous
100
AcDbLine
 10
463.31792347
 20
305.66881328
 30
0.0
 11
464.51792339
 21
305.66881328
 31
0.0
  0
TEXT
  5
424
330
2
100
AcDbEntity
  8
YKK_D
100
AcDbText
 10
479.2679118
 20
302.06457972
 30
0.0
 40
6.0
  1
DH
 50
90.0
 41
0.8
100
AcDbText
1001
ACAD
1000
MTEXTBEGIN
1070
    73
1070
     1
1070
    44
1040
1.0
1070
    74
1070
     0
1000
MTEXTEND
  0
TEXT
  5
425
330
2
100
AcDbEntity
  8
YKK_D
100
AcDbText
 10
494.2679118
 20
303.57395227
 30
0.0
 40
6.0
  1
H
 50
90.0
 41
0.8
100
AcDbText
1001
ACAD
1000
MTEXTBEGIN
1070
    73
1070
     1
1070
    44
1040
1.0
1070
    74
1070
     0
1000
MTEXTEND
  0
LINE
  5
426
330
2
100
AcDbEntity
  8
YKK_D
100
AcDbLine
 10
480.2679118
 20
355.1211604
 30
0.0
 11
480.2679118
 21
367.5611604
 31
0.0
  0
LINE
  5
427
330
2
100
AcDbEntity
  8
YKK_D
100
AcDbLine
 10
495.2679118
 20
355.1211604
 30
0.0
 11
495.2679118
 21
367.5611604
 31
0.0
  0
LINE
  5
428
330
2
100
AcDbEntity
  8
YKK_D
100
AcDbLine
 10
480.2679118
 20
353.79616345
 30
0.0
 11
490.04710971
 21
347.73537468
 31
0.0
  0
LINE
  5
429
330
2
100
AcDbEntity
  8
YKK_D
100
AcDbLine
 10
468.2678969
 20
355.1211604
 30
0.0
 11
496.2679118
 21
355.1211604
 31
0.0
  0
LINE
  5
42A
330
2
100
AcDbEntity
  8
YKK_A1
  6
Continuous
100
AcDbLine
 10
463.31792347
 20
345.3711655
 30
0.0
 11
463.31792347
 21
340.3711658
 31
0.0
  0
LINE
  5
42B
330
2
100
AcDbEntity
  8
YKK_A1
  6
Continuous
100
AcDbLine
 10
464.51792339
 20
345.3711655
 30
0.0
 11
464.51792339
 21
340.3711658
 31
0.0
  0
LINE
  5
42C
330
2
100
AcDbEntity
  8
YKK_A1
  6
Continuous
100
AcDbLine
 10
463.31792347
 20
340.3711658
 30
0.0
 11
464.51792339
 21
340.3711658
 31
0.0
  0
LINE
  5
42D
330
2
100
AcDbEntity
  8
YKK_D
100
AcDbLine
 10
468.2678969
 20
355.1211604
 30
0.0
 11
481.2679118
 21
355.1211604
 31
0.0
  0
LINE
  5
42E
330
2
100
AcDbEntity
  8
YKK_D
100
AcDbLine
 10
468.26789678
 20
353.8711604
 30
0.0
 11
481.2679118
 21
353.8711604
 31
0.0
  0
LINE
  5
42F
330
2
100
AcDbEntity
  8
YKK_D
100
AcDbLine
 10
468.2679273
 20
353.7211665
 30
0.0
 11
481.2679118
 21
353.7211665
 31
0.0
  0
LINE
  5
430
330
2
100
AcDbEntity
  8
YKK_A1
  6
Continuous
100
AcDbLine
 10
463.81792344
 20
353.72116501
 30
0.0
 11
463.81792344
 21
345.3711655
 31
0.0
  0
LINE
  5
431
330
2
100
AcDbEntity
  8
YKK_A1
  6
Continuous
100
AcDbLine
 10
464.01792342
 20
345.3711655
 30
0.0
 11
464.01792342
 21
355.12116492
 31
0.0
  0
LINE
  5
432
330
2
100
AcDbEntity
  8
YKK_A1
  6
Continuous
100
AcDbLine
 10
463.31792347
 20
345.3711655
 30
0.0
 11
464.51792339
 21
345.3711655
 31
0.0
  0
LINE
  5
433
330
2
100
AcDbEntity
  8
YKK_A1
  6
Continuous
100
AcDbLine
 10
465.26792335
 20
353.37116503
 30
0.0
 11
465.21792335
 21
353.37116503
 31
0.0
  0
LINE
  5
434
330
2
100
AcDbEntity
  8
YKK_A1
  6
YHIDDEN_1
100
AcDbLine
 10
465.26792335
 20
352.47116508
 30
0.0
 11
465.28565493
 21
352.47116508
 31
0.0
  0
LINE
  5
435
330
2
100
AcDbEntity
  8
YKK_D
100
AcDbLine
 10
480.2679118
 20
353.8711604
 30
0.0
 11
480.2679118
 21
352.1711604
 31
0.0
  0
LINE
  5
436
330
2
100
AcDbEntity
  8
YKK_D
100
AcDbLine
 10
480.2679118
 20
353.8711604
 30
0.0
 11
480.2679118
 21
355.1211604
 31
0.0
  0
LINE
  5
437
330
2
100
AcDbEntity
  8
YKK_D
100
AcDbLine
 10
480.2679118
 20
353.8711604
 30
0.0
 11
480.2679118
 21
355.5711604
 31
0.0
  0
LINE
  5
438
330
2
100
AcDbEntity
  8
YKK_D
100
AcDbLine
 10
480.2679118
 20
353.7211665
 30
0.0
 11
480.2679118
 21
352.0211665
 31
0.0
  0
LINE
  5
439
330
2
100
AcDbEntity
  8
YKK_D
100
AcDbLine
 10
480.2679118
 20
353.8711604
 30
0.0
 11
480.2679118
 21
353.7211665
 31
0.0
  0
LINE
  5
43A
330
2
100
AcDbEntity
  8
YKK_D
100
AcDbLine
 10
480.2679118
 20
353.8711604
 30
0.0
 11
480.2679118
 21
353.7211665
 31
0.0
  0
LWPOLYLINE
  5
43B
330
2
100
AcDbEntity
  8
YKK_D
  6
ByBlock
100
AcDbPolyline
 90
        2
 70
     1
 43
0.85
 10
480.2679118
 20
353.6149165
 42
1.0
 10
480.2679118
 20
353.8274165
 42
1.0
  0
LWPOLYLINE
  5
43C
330
2
100
AcDbEntity
  8
YKK_D
  6
ByBlock
100
AcDbPolyline
 90
        2
 70
     1
 43
0.85
 10
480.2679118
 20
353.6149165
 42
1.0
 10
480.2679118
 20
353.8274165
 42
1.0
  0
LWPOLYLINE
  5
43D
330
2
100
AcDbEntity
  8
YKK_D
  6
ByBlock
100
AcDbPolyline
 90
        2
 70
     1
 43
0.85
 10
480.2679118
 20
353.9774104
 42
1.0
 10
480.2679118
 20
353.7649104
 42
1.0
  0
LWPOLYLINE
  5
43E
330
2
100
AcDbEntity
  8
YKK_D
  6
ByBlock
100
AcDbPolyline
 90
        2
 70
     1
 43
0.85
 10
480.2679118
 20
355.2274104
 42
1.0
 10
480.2679118
 20
355.0149104
 42
1.0
  0
LINE
  5
43F
330
2
100
AcDbEntity
  8
YKK_D
100
AcDbLine
 10
490.04710971
 20
347.73537468
 30
0.0
 11
490.04710971
 21
338.69537468
 31
0.0
  0
TEXT
  5
440
330
2
100
AcDbEntity
  8
YKK_D
100
AcDbText
 10
489.03188128
 20
341.70471478
 30
0.0
 40
6.0
  1
3 
 50
90.0
 41
0.8
100
AcDbText
1001
ACAD
1000
MTEXTBEGIN
1070
    73
1070
     1
1070
    44
1040
1.0
1070
    74
1070
     0
1000
MTEXTEND
  0
LINE
  5
441
330
2
100
AcDbEntity
  8
YKK_D
100
AcDbLine
 10
485.44892872
 20
353.3711604
 30
0.0
 11
496.2679118
 21
353.3711604
 31
0.0
  0
LINE
  5
442
330
2
100
AcDbEntity
  8
YKK_D
100
AcDbLine
 10
485.44892872
 20
353.3711604
 30
0.0
 11
496.2679118
 21
353.3711604
 31
0.0
  0
LINE
  5
443
330
2
100
AcDbEntity
  8
YKK_D
100
AcDbLine
 10
495.2679118
 20
353.3711604
 30
0.0
 11
492.7679118
 21
349.04103338
 31
0.0
  0
LINE
  5
444
330
2
100
AcDbEntity
  8
YKK_D
100
AcDbLine
 10
492.7679118
 20
349.04103338
 30
0.0
 11
497.7679118
 21
349.04103338
 31
0.0
  0
LINE
  5
445
330
2
100
AcDbEntity
  8
YKK_D
100
AcDbLine
 10
495.2679118
 20
353.3711604
 30
0.0
 11
497.7679118
 21
349.04103338
 31
0.0
  0
LINE
  5
446
330
2
100
AcDbEntity
  8
YKK_D
100
AcDbLine
 10
495.2679118
 20
353.3711604
 30
0.0
 11
495.2679118
 21
344.71090636
 31
0.0
  0
LINE
  5
447
330
2
100
AcDbEntity
  8
YKK_D
100
AcDbLine
 10
495.2679118
 20
353.3711604
 30
0.0
 11
495.2679118
 21
351.6711604
 31
0.0
  0
LINE
  5
448
330
2
100
AcDbEntity
  8
YKK_D
100
AcDbLine
 10
495.2679118
 20
353.3711604
 30
0.0
 11
495.2679118
 21
355.1211604
 31
0.0
  0
LWPOLYLINE
  5
449
330
2
100
AcDbEntity
  8
YKK_D
  6
ByBlock
100
AcDbPolyline
 90
        2
 70
     1
 43
0.85
 10
495.2679118
 20
355.2274104
 42
1.0
 10
495.2679118
 20
355.0149104
 42
1.0
  0
TEXT
  5
44A
330
2
100
AcDbEntity
  8
USER1
100
AcDbText
 10
473.55369073
 20
373.63232799
 30
0.0
 40
6.0
  1
外観姿図
 41
0.8
100
AcDbText
1001
ACAD
1000
MTEXTBEGIN
1070
    73
1070
     1
1070
    44
1040
1.0
1070
    74
1070
     0
1000
MTEXTEND
  0
TEXT
  5
44B
330
2
100
AcDbEntity
  8
YKK_D
100
AcDbText
 10
479.2679118
 20
359.95892689
 30
0.0
 40
6.0
  1
25
 50
90.0
 41
0.8
100
AcDbText
1001
ACAD
1000
MTEXTBEGIN
1070
    73
1070
     1
1070
    44
1040
1.0
1070
    74
1070
     0
1000
MTEXTEND
  0
TEXT
  5
44C
330
2
100
AcDbEntity
  8
YKK_D
100
AcDbText
 10
494.2679118
 20
359.97110963
 30
0.0
 40
6.0
  1
35
 50
90.0
 41
0.8
100
AcDbText
1001
ACAD
1000
MTEXTBEGIN
1070
    73
1070
     1
1070
    44
1040
1.0
1070
    74
1070
     0
1000
MTEXTEND
  0
ENDSEC
  0
SECTION
  2
OBJECTS
  0
DICTIONARY
  5
1E
330
0
100
AcDbDictionary
281
     1
  3
ACAD_CIP_PREVIOUS_PRODUCT_INFO
350
4F6
  3
ACAD_COLOR
350
48B
  3
ACAD_DETAILVIEWSTYLE
350
4A4
  3
ACAD_GROUP
350
1C
  3
ACAD_LAYOUT
350
4A9
  3
ACAD_MATERIAL
350
459
  3
ACAD_MLEADERSTYLE
350
4A0
  3
ACAD_MLINESTYLE
350
1D
  3
ACAD_PLOTSETTINGS
350
4A8
  3
ACAD_PLOTSTYLENAME
350
457
  3
ACAD_SCALELIST
350
48E
  3
ACAD_SECTIONVIEWSTYLE
350
4A2
  3
ACAD_TABLESTYLE
350
48C
  3
ACAD_VISUALSTYLE
350
472
  3
ACDB_RECOMPOSE_DATA
350
4FC
  3
AcDbVariableDictionary
350
4EA
  3
CONTENTDICTIONARY
350
451
  0
DICTIONARY
  5
3
330
2
100
AcDbDictionary
280
     1
281
     1
  3
ACAD_LAYOUTSELFREF
360
4
  0
DICTIONARY
  5
A
330
9
100
AcDbDictionary
280
     1
281
     1
  3
ACAD_LAYOUTSELFREF
360
B
  0
XRECORD
  5
4F6
102
{ACAD_REACTORS
330
1E
102
}
330
1E
100
AcDbXrecord
280
     1
300
ACD
300
2014
300
86063ACD_2014_0F
  0
DICTIONARY
  5
48B
102
{ACAD_REACTORS
330
1E
102
}
330
1E
100
AcDbDictionary
281
     1
  0
DICTIONARY
  5
4A4
102
{ACAD_REACTORS
330
1E
102
}
330
1E
100
AcDbDictionary
281
     1
  3
Imperial24
350
4A5
  0
DICTIONARY
  5
1C
102
{ACAD_REACTORS
330
1E
102
}
330
1E
100
AcDbDictionary
281
     1
  0
DICTIONARY
  5
4A9
102
{ACAD_REACTORS
330
1E
102
}
330
1E
100
AcDbDictionary
281
     1
  3
Model
350
4AA
  3
レイアウト1
350
4AB
  0
DICTIONARY
  5
459
102
{ACAD_REACTORS
330
1E
102
}
330
1E
100
AcDbDictionary
281
     1
  3
ByBlock
350
462
  3
ByLayer
350
45A
  3
Global
350
46A
  0
DICTIONARY
  5
4A0
102
{ACAD_REACTORS
330
1E
102
}
330
1E
100
AcDbDictionary
281
     1
  3
Standard
350
4A1
  0
DICTIONARY
  5
1D
102
{ACAD_REACTORS
330
1E
102
}
330
1E
100
AcDbDictionary
281
     1
  3
STANDARD
350
21
  0
DICTIONARY
  5
4A8
102
{ACAD_REACTORS
330
1E
102
}
330
1E
100
AcDbDictionary
281
     1
  0
ACDBDICTIONARYWDFLT
  5
457
102
{ACAD_REACTORS
330
1E
102
}
330
1E
100
AcDbDictionary
281
     1
  3
Normal
350
458
100
AcDbDictionaryWithDefault
340
458
  0
DICTIONARY
  5
48E
102
{ACAD_REACTORS
330
1E
102
}
330
1E
100
AcDbDictionary
281
     1
  3
A0
350
48F
  3
A1
350
490
  3
A2
350
491
  3
A3
350
492
  3
A4
350
493
  3
A5
350
494
  3
A6
350
495
  3
A7
350
496
  3
A8
350
497
  3
A9
350
498
  3
B0
350
499
  3
B1
350
49A
  3
B2
350
49B
  3
B3
350
49C
  3
B4
350
49D
  3
B5
350
49E
  3
B6
350
49F
  0
DICTIONARY
  5
4A2
102
{ACAD_REACTORS
330
1E
102
}
330
1E
100
AcDbDictionary
281
     1
  3
Imperial24
350
4A3
  0
DICTIONARY
  5
48C
102
{ACAD_REACTORS
330
1E
102
}
330
1E
100
AcDbDictionary
281
     1
  3
Standard
350
48D
  0
DICTIONARY
  5
472
102
{ACAD_REACTORS
330
1E
102
}
330
1E
100
AcDbDictionary
281
     1
  3
2dWireframe
350
478
  3
Basic
350
477
  3
Brighten
350
47E
  3
ColorChange
350
482
  3
Conceptual
350
47B
  3
Dim
350
47D
  3
EdgeColorOff
350
48A
  3
Facepattern
350
481
  3
Flat
350
473
  3
FlatWithEdges
350
474
  3
Gouraud
350
475
  3
GouraudWithEdges
350
476
  3
Hidden
350
47A
  3
JitterOff
350
488
  3
Linepattern
350
480
  3
OverhangOff
350
489
  3
Realistic
350
47C
  3
Shaded
350
487
  3
Shaded with edges
350
486
  3
Shades of Gray
350
483
  3
Sketchy
350
484
  3
Thicken
350
47F
  3
Wireframe
350
479
  3
X-Ray
350
485
  0
XRECORD
  5
4FC
102
{ACAD_REACTORS
330
1E
102
}
330
1E
100
AcDbXrecord
280
     1
 90
        1
330
48D
  0
DICTIONARY
  5
4EA
102
{ACAD_REACTORS
330
1E
102
}
330
1E
100
AcDbDictionary
281
     1
  3
CANNOSCALE
350
4EF
  3
CMLEADERSTYLE
350
4EC
  3
CTABLESTYLE
350
4EB
  3
CVIEWDETAILSTYLE
350
4ED
  3
CVIEWSECTIONSTYLE
350
4EE
  3
XCLIPFRAME
350
4FA
  0
DICTIONARY
  5
451
102
{ACAD_REACTORS
330
1E
102
}
330
1E
100
AcDbDictionary
281
     1
  0
XRECORD
  5
4
102
{ACAD_REACTORS
330
3
102
}
330
3
100
AcDbXrecord
280
     1
340
2
  0
XRECORD
  5
B
102
{ACAD_REACTORS
330
A
102
}
330
A
100
AcDbXrecord
280
     1
340
9
  0
ACDBDETAILVIEWSTYLE
  5
4A5
102
{ACAD_XDICTIONARY
360
535
102
}
102
{ACAD_REACTORS
330
4A4
102
}
330
4A4
100
AcDbModelDocViewStyle
 70
     0
  3
Imperial24
290
     0
100
AcDbDetailViewStyle
 70
     0
 71
     0
 90
        3
 71
     1
340
10
 62
   256
 40
0.24
340
0
 62
   256
 40
0.24
300

 40
0.36
280
     3
 71
     2
340
7
 90
       25
 62
   256
 71
     3
340
10
 62
   256
 40
0.24
 90
        1
 40
0.75
 90
        1
300
%<\AcVar ViewType \f "%tc1">% %<\AcVar ViewDetailId>%\PSCALE %<\AcVar ViewScale \f "%sn">%
 71
     4
340
7
 90
       25
 62
   256
340
7
 90
       25
 62
   256
280
     0
  0
LAYOUT
  5
4AA
102
{ACAD_REACTORS
330
4A9
102
}
330
4A9
100
AcDbPlotSettings
  1

  2
C:\ACAD-I\support\plotters\Default Windows System Printer.pc3
  4
A4
  6

 40
3.17499995
 41
3.17499995
 42
3.17500305
 43
3.17498779
 44
209.88865662
 45
297.05300903
 46
0.0
 47
0.0
 48
0.0
 49
0.0
140
0.0
141
0.0
142
1.0
143
53.82082417
 70
 11952
 72
     0
 73
     1
 74
     0
  7
monochrome.ctb
 75
     0
147
0.01858017
 76
     0
 77
     2
 78
   300
148
625.51769844
149
39.73530638
100
AcDbLayout
  1
Model
 70
     1
 71
     0
 10
0.0
 20
0.0
 11
12.0
 21
9.0
 12
0.0
 22
0.0
 32
0.0
 14
0.0
 24
0.0
 34
0.0
 15
0.0
 25
0.0
 35
0.0
146
0.0
 13
0.0
 23
0.0
 33
0.0
 16
1.0
 26
0.0
 36
0.0
 17
0.0
 27
1.0
 37
0.0
 76
     0
330
2
1001
ACAD_PSEXT
1000
C:\ACAD-I\support\plotters\Default Windows System Printer.pc3
1000
Fiery PRO80 65-55C-KM PS3.0jp
1000
IP_10.230.204.212
1000

1070
     0
  0
LAYOUT
  5
4AB
102
{ACAD_REACTORS
330
4A9
102
}
330
4A9
100
AcDbPlotSettings
  1

  2
C:\ACAD-I\support\plotters\Default Windows System Printer.pc3
  4
A4
  6

 40
3.17499995
 41
3.17499995
 42
3.17500305
 43
3.17498779
 44
209.88865662
 45
297.05300903
 46
0.0
 47
0.0
 48
0.0
 49
0.0
140
0.0
141
0.0
142
1.0
143
1.0
 70
 15024
 72
     0
 73
     1
 74
     5
  7
monochrome.ctb
 75
    16
147
1.0
 76
     0
 77
     2
 78
   300
148
0.0
149
0.0
100
AcDbLayout
  1
レイアウト1
 70
     1
 71
     1
 10
0.0
 20
0.0
 11
420.0
 21
297.0
 12
0.0
 22
0.0
 32
0.0
 14
1.00000000E+20
 24
1.00000000E+20
 34
1.00000000E+20
 15
-1.00000000E+20
 25
-1.00000000E+20
 35
-1.00000000E+20
146
0.0
 13
0.0
 23
0.0
 33
0.0
 16
1.0
 26
0.0
 36
0.0
 17
0.0
 27
1.0
 37
0.0
 76
     0
330
9
1001
ACAD_PSEXT
1000
C:\ACAD-I\support\plotters\Default Windows System Printer.pc3
1000
Fiery PRO80 65-55C-KM PS3.0jp
1000
IP_10.230.204.212
1000

1070
     0
  0
MATERIAL
  5
462
102
{ACAD_XDICTIONARY
360
463
102
}
102
{ACAD_REACTORS
330
459
102
}
330
459
100
AcDbMaterial
  1
ByBlock
 72
     0
 43
0.02083333
 43
0.0
 43
0.0
 43
0.0
 43
0.0
 43
0.02083333
 43
0.0
 43
0.0
 43
0.0
 43
0.0
 43
1.0
 43
0.0
 43
0.0
 43
0.0
 43
0.0
 43
1.0
 77
     0
 47
0.02083333
 47
0.0
 47
0.0
 47
0.0
 47
0.0
 47
0.02083333
 47
0.0
 47
0.0
 47
0.0
 47
0.0
 47
1.0
 47
0.0
 47
0.0
 47
0.0
 47
0.0
 47
1.0
171
     0
 49
0.02083333
 49
0.0
 49
0.0
 49
0.0
 49
0.0
 49
0.02083333
 49
0.0
 49
0.0
 49
0.0
 49
0.0
 49
1.0
 49
0.0
 49
0.0
 49
0.0
 49
0.0
 49
1.0
175
     0
142
0.02083333
142
0.0
142
0.0
142
0.0
142
0.0
142
0.02083333
142
0.0
142
0.0
142
0.0
142
0.0
142
1.0
142
0.0
142
0.0
142
0.0
142
0.0
142
1.0
179
     0
144
0.02083333
144
0.0
144
0.0
144
0.0
144
0.0
144
0.02083333
144
0.0
144
0.0
144
0.0
144
0.0
144
1.0
144
0.0
144
0.0
144
0.0
144
0.0
144
1.0
147
0.02083333
147
0.0
147
0.0
147
0.0
147
0.0
147
0.02083333
147
0.0
147
0.0
147
0.0
147
0.0
147
1.0
147
0.0
147
0.0
147
0.0
147
0.0
147
1.0
  0
MATERIAL
  5
45A
102
{ACAD_XDICTIONARY
360
45B
102
}
102
{ACAD_REACTORS
330
459
102
}
330
459
100
AcDbMaterial
  1
ByLayer
 72
     0
 43
0.02083333
 43
0.0
 43
0.0
 43
0.0
 43
0.0
 43
0.02083333
 43
0.0
 43
0.0
 43
0.0
 43
0.0
 43
1.0
 43
0.0
 43
0.0
 43
0.0
 43
0.0
 43
1.0
 77
     0
 47
0.02083333
 47
0.0
 47
0.0
 47
0.0
 47
0.0
 47
0.02083333
 47
0.0
 47
0.0
 47
0.0
 47
0.0
 47
1.0
 47
0.0
 47
0.0
 47
0.0
 47
0.0
 47
1.0
171
     0
 49
0.02083333
 49
0.0
 49
0.0
 49
0.0
 49
0.0
 49
0.02083333
 49
0.0
 49
0.0
 49
0.0
 49
0.0
 49
1.0
 49
0.0
 49
0.0
 49
0.0
 49
0.0
 49
1.0
175
     0
142
0.02083333
142
0.0
142
0.0
142
0.0
142
0.0
142
0.02083333
142
0.0
142
0.0
142
0.0
142
0.0
142
1.0
142
0.0
142
0.0
142
0.0
142
0.0
142
1.0
179
     0
144
0.02083333
144
0.0
144
0.0
144
0.0
144
0.0
144
0.02083333
144
0.0
144
0.0
144
0.0
144
0.0
144
1.0
144
0.0
144
0.0
144
0.0
144
0.0
144
1.0
147
0.02083333
147
0.0
147
0.0
147
0.0
147
0.0
147
0.02083333
147
0.0
147
0.0
147
0.0
147
0.0
147
1.0
147
0.0
147
0.0
147
0.0
147
0.0
147
1.0
  0
MATERIAL
  5
46A
102
{ACAD_XDICTIONARY
360
46B
102
}
102
{ACAD_REACTORS
330
459
102
}
330
459
100
AcDbMaterial
  1
Global
 72
     0
 43
0.02083333
 43
0.0
 43
0.0
 43
0.0
 43
0.0
 43
0.02083333
 43
0.0
 43
0.0
 43
0.0
 43
0.0
 43
1.0
 43
0.0
 43
0.0
 43
0.0
 43
0.0
 43
1.0
 77
     0
 47
0.02083333
 47
0.0
 47
0.0
 47
0.0
 47
0.0
 47
0.02083333
 47
0.0
 47
0.0
 47
0.0
 47
0.0
 47
1.0
 47
0.0
 47
0.0
 47
0.0
 47
0.0
 47
1.0
171
     0
 49
0.02083333
 49
0.0
 49
0.0
 49
0.0
 49
0.0
 49
0.02083333
 49
0.0
 49
0.0
 49
0.0
 49
0.0
 49
1.0
 49
0.0
 49
0.0
 49
0.0
 49
0.0
 49
1.0
175
     0
142
0.02083333
142
0.0
142
0.0
142
0.0
142
0.0
142
0.02083333
142
0.0
142
0.0
142
0.0
142
0.0
142
1.0
142
0.0
142
0.0
142
0.0
142
0.0
142
1.0
179
     0
144
0.02083333
144
0.0
144
0.0
144
0.0
144
0.0
144
0.02083333
144
0.0
144
0.0
144
0.0
144
0.0
144
1.0
144
0.0
144
0.0
144
0.0
144
0.0
144
1.0
147
0.02083333
147
0.0
147
0.0
147
0.0
147
0.0
147
0.02083333
147
0.0
147
0.0
147
0.0
147
0.0
147
1.0
147
0.0
147
0.0
147
0.0
147
0.0
147
1.0
  0
MLEADERSTYLE
  5
4A1
102
{ACAD_XDICTIONARY
360
531
102
}
102
{ACAD_REACTORS
330
4A0
102
}
330
4A0
100
AcDbMLeaderStyle
170
     2
171
     1
172
     0
 90
        2
 40
0.0
 41
0.0
173
     1
 91
-1056964608
340
12
 92
       -2
290
     1
 42
0.09
291
     1
 43
0.36
  3
Standard
 44
0.18
300

342
10
174
     1
178
     6
175
     1
176
     0
 93
-1056964608
 45
0.18
292
     0
297
     0
 46
0.18
 94
-1056964608
 47
1.0
 49
1.0
140
1.0
293
     1
141
0.0
294
     1
177
     0
142
1.0
295
     0
296
     0
143
0.125
1001
ACAD_MLEADERVER
1070
     2
  0
MLINESTYLE
  5
21
102
{ACAD_REACTORS
330
1D
102
}
330
1D
100
AcDbMlineStyle
  2
STANDARD
 70
     0
  3

 62
   256
 51
90.0
 52
90.0
 71
     2
 49
0.5
 62
   256
  6
BYLAYER
 49
-0.5
 62
   256
  6
BYLAYER
  0
ACDBPLACEHOLDER
  5
458
102
{ACAD_REACTORS
330
457
102
}
330
457
  0
SCALE
  5
48F
102
{ACAD_REACTORS
330
48E
102
}
330
48E
100
AcDbScale
 70
     0
300
1:1
140
1.0
141
1.0
290
     1
  0
SCALE
  5
490
102
{ACAD_REACTORS
330
48E
102
}
330
48E
100
AcDbScale
 70
     0
300
1/128" = 1'-0"
140
0.0078125
141
12.0
290
     0
  0
SCALE
  5
491
102
{ACAD_REACTORS
330
48E
102
}
330
48E
100
AcDbScale
 70
     0
300
1/64" = 1'-0"
140
0.015625
141
12.0
290
     0
  0
SCALE
  5
492
102
{ACAD_REACTORS
330
48E
102
}
330
48E
100
AcDbScale
 70
     0
300
1/32" = 1'-0"
140
0.03125
141
12.0
290
     0
  0
SCALE
  5
493
102
{ACAD_REACTORS
330
48E
102
}
330
48E
100
AcDbScale
 70
     0
300
1/16" = 1'-0"
140
0.0625
141
12.0
290
     0
  0
SCALE
  5
494
102
{ACAD_REACTORS
330
48E
102
}
330
48E
100
AcDbScale
 70
     0
300
3/32" = 1'-0"
140
0.09375
141
12.0
290
     0
  0
SCALE
  5
495
102
{ACAD_REACTORS
330
48E
102
}
330
48E
100
AcDbScale
 70
     0
300
1/8" = 1'-0"
140
0.125
141
12.0
290
     0
  0
SCALE
  5
496
102
{ACAD_REACTORS
330
48E
102
}
330
48E
100
AcDbScale
 70
     0
300
3/16" = 1'-0"
140
0.1875
141
12.0
290
     0
  0
SCALE
  5
497
102
{ACAD_REACTORS
330
48E
102
}
330
48E
100
AcDbScale
 70
     0
300
1/4" = 1'-0"
140
0.25
141
12.0
290
     0
  0
SCALE
  5
498
102
{ACAD_REACTORS
330
48E
102
}
330
48E
100
AcDbScale
 70
     0
300
3/8" = 1'-0"
140
0.375
141
12.0
290
     0
  0
SCALE
  5
499
102
{ACAD_REACTORS
330
48E
102
}
330
48E
100
AcDbScale
 70
     0
300
1/2" = 1'-0"
140
0.5
141
12.0
290
     0
  0
SCALE
  5
49A
102
{ACAD_REACTORS
330
48E
102
}
330
48E
100
AcDbScale
 70
     0
300
3/4" = 1'-0"
140
0.75
141
12.0
290
     0
  0
SCALE
  5
49B
102
{ACAD_REACTORS
330
48E
102
}
330
48E
100
AcDbScale
 70
     0
300
1" = 1'-0"
140
1.0
141
12.0
290
     0
  0
SCALE
  5
49C
102
{ACAD_REACTORS
330
48E
102
}
330
48E
100
AcDbScale
 70
     0
300
1-1/2" = 1'-0"
140
1.5
141
12.0
290
     0
  0
SCALE
  5
49D
102
{ACAD_REACTORS
330
48E
102
}
330
48E
100
AcDbScale
 70
     0
300
3" = 1'-0"
140
3.0
141
12.0
290
     0
  0
SCALE
  5
49E
102
{ACAD_REACTORS
330
48E
102
}
330
48E
100
AcDbScale
 70
     0
300
6" = 1'-0"
140
6.0
141
12.0
290
     0
  0
SCALE
  5
49F
102
{ACAD_REACTORS
330
48E
102
}
330
48E
100
AcDbScale
 70
     0
300
1'-0" = 1'-0"
140
12.0
141
12.0
290
     0
  0
ACDBSECTIONVIEWSTYLE
  5
4A3
102
{ACAD_XDICTIONARY
360
533
102
}
102
{ACAD_REACTORS
330
4A2
102
}
330
4A2
100
AcDbModelDocViewStyle
 70
     0
  3
Imperial24
290
     0
100
AcDbSectionViewStyle
 70
     0
 71
     0
 90
      102
 71
     1
340
10
 62
   256
 40
5.0
340
0
340
0
 62
   256
 40
5.0
300
I, O, Q, S, X, Z
 40
10.0
 90
        0
 40
2.5
 90
        0
 71
     2
340
7
 90
       25
 62
   256
340
7
 90
       50
 62
   256
 40
5.0
 40
2.5
 40
5.0
 71
     3
340
10
 62
   256
 40
5.0
 90
        0
 40
15.0
 90
        1
300
%<\AcVar ViewSectionStartId>%-%<\AcVar ViewSectionEndId>% (%<\AcVar ViewScale \f "%sn">%)
 71
     4
 62
   256
 62
   257
300
ANSI31
 40
1.0
 90
        0
290
     0
290
     0
 90
        6
 40
0.0
 40
1.57079633
 40
0.26179939
 40
1.30899694
 40
-0.26179939
 40
1.83259571
  0
TABLESTYLE
  5
48D
102
{ACAD_XDICTIONARY
360
4AC
102
}
102
{ACAD_REACTORS
330
48C
102
}
330
48C
100
AcDbTableStyle
  3
Standard
 70
     0
 71
     0
 40
0.06
 41
0.06
280
     0
281
     0
  7
STANDARD
140
0.18
170
     2
 62
     0
 63
     7
283
     0
274
    -2
284
     1
 64
     0
275
    -2
285
     1
 65
     0
276
    -2
286
     1
 66
     0
277
    -2
287
     1
 67
     0
278
    -2
288
     1
 68
     0
279
    -2
289
     1
 69
     0
  7
STANDARD
140
0.25
170
     5
 62
     0
 63
     7
283
     0
274
    -2
284
     1
 64
     0
275
    -2
285
     1
 65
     0
276
    -2
286
     1
 66
     0
277
    -2
287
     1
 67
     0
278
    -2
288
     1
 68
     0
279
    -2
289
     1
 69
     0
  7
STANDARD
140
0.18
170
     5
 62
     0
 63
     7
283
     0
274
    -2
284
     1
 64
     0
275
    -2
285
     1
 65
     0
276
    -2
286
     1
 66
     0
277
    -2
287
     1
 67
     0
278
    -2
288
     1
 68
     0
279
    -2
289
     1
 69
     0
  0
VISUALSTYLE
  5
478
102
{ACAD_XDICTIONARY
360
50A
102
}
102
{ACAD_REACTORS
330
472
102
}
330
472
100
AcDbVisualStyle
  2
2dWireframe
 70
     4
 71
     0
 72
     2
 73
     0
 90
        0
 40
-0.6
 41
-30.0
 62
     5
 63
     7
421
 16777215
 74
     1
 91
        4
 64
     7
 65
   257
 75
     1
175
     1
 42
1.0
 92
        0
 66
   257
 43
1.0
 76
     1
 77
     6
 78
     2
 67
     7
 79
     5
170
     0
171
     0
290
     0
174
     0
 93
        1
 44
0.0
173
     0
291
     0
 45
0.0
1001
ACAD
1000
AcDbSavedByObjectVersion
1070
     0
  0
VISUALSTYLE
  5
477
102
{ACAD_XDICTIONARY
360
508
102
}
102
{ACAD_REACTORS
330
472
102
}
330
472
100
AcDbVisualStyle
  2
Basic
 70
     7
 71
     1
 72
     0
 73
     1
 90
        0
 40
-0.6
 41
-30.0
 62
     5
 63
     7
421
 16777215
 74
     0
 91
        4
 64
     7
 65
   257
 75
     1
175
     1
 42
1.0
 92
        8
 66
     7
 43
1.0
 76
     1
 77
     6
 78
     2
 67
     7
 79
     5
170
     0
171
     0
290
     0
174
     0
 93
        1
 44
0.0
173
     0
291
     1
 45
0.0
1001
ACAD
1000
AcDbSavedByObjectVersion
1070
     0
  0
VISUALSTYLE
  5
47E
102
{ACAD_XDICTIONARY
360
516
102
}
102
{ACAD_REACTORS
330
472
102
}
330
472
100
AcDbVisualStyle
  2
Brighten
 70
    12
 71
     2
 72
     2
 73
     0
 90
        0
 40
-0.6
 41
-30.0
 62
     5
 63
     7
421
 16777215
 74
     1
 91
        4
 64
     7
 65
   257
 75
     1
175
     1
 42
1.0
 92
        8
 66
     7
 43
1.0
 76
     1
 77
     6
 78
     2
 67
     7
 79
     5
170
     0
171
     0
290
     0
174
     0
 93
        1
 44
50.0
173
     0
291
     1
 45
0.0
1001
ACAD
1000
AcDbSavedByObjectVersion
1070
     0
  0
VISUALSTYLE
  5
482
102
{ACAD_XDICTIONARY
360
51E
102
}
102
{ACAD_REACTORS
330
472
102
}
330
472
100
AcDbVisualStyle
  2
ColorChange
 70
    16
 71
     2
 72
     2
 73
     3
 90
        0
 40
-0.6
 41
-30.0
 62
     5
 63
     8
421
  8421504
 74
     1
 91
        4
 64
     7
 65
   257
 75
     1
175
     1
 42
1.0
 92
        8
 66
     8
424
  8421504
 43
1.0
 76
     1
 77
     6
 78
     2
 67
     7
 79
     5
170
     0
171
     0
290
     0
174
     0
 93
        1
 44
0.0
173
     0
291
     1
 45
0.0
1001
ACAD
1000
AcDbSavedByObjectVersion
1070
     0
  0
VISUALSTYLE
  5
47B
102
{ACAD_XDICTIONARY
360
510
102
}
102
{ACAD_REACTORS
330
472
102
}
330
472
100
AcDbVisualStyle
  2
Conceptual
 70
     9
 71
     3
 72
     2
 73
     0
 90
        0
 40
-0.6
 41
-30.0
 62
     5
 63
     7
421
 16777215
 74
     2
 91
        2
 64
     7
 65
   257
 75
     1
175
     1
 42
179.0
 92
        8
 66
     7
 43
1.0
 76
     1
 77
     6
 78
     2
 67
     7
 79
     3
170
     0
171
     0
290
     0
174
     0
 93
        1
 44
0.0
173
     0
291
     0
 45
0.0
1001
ACAD
1000
AcDbSavedByObjectVersion
1070
     0
  0
VISUALSTYLE
  5
47D
102
{ACAD_XDICTIONARY
360
514
102
}
102
{ACAD_REACTORS
330
472
102
}
330
472
100
AcDbVisualStyle
  2
Dim
 70
    11
 71
     2
 72
     2
 73
     0
 90
        0
 40
-0.6
 41
-30.0
 62
     5
 63
     7
421
 16777215
 74
     1
 91
        4
 64
     7
 65
   257
 75
     1
175
     1
 42
1.0
 92
        8
 66
     7
 43
1.0
 76
     1
 77
     6
 78
     2
 67
     7
 79
     5
170
     0
171
     0
290
     0
174
     0
 93
        1
 44
-50.0
173
     0
291
     1
 45
0.0
1001
ACAD
1000
AcDbSavedByObjectVersion
1070
     0
  0
VISUALSTYLE
  5
48A
102
{ACAD_XDICTIONARY
360
52E
102
}
102
{ACAD_REACTORS
330
472
102
}
330
472
100
AcDbVisualStyle
  2
EdgeColorOff
 70
    22
 71
     2
 72
     2
 73
     0
 90
        0
 40
-0.6
 41
-30.0
 62
     5
 63
     7
421
 16777215
 74
     1
 91
        4
 64
     7
 65
   257
 75
     1
175
     1
 42
1.0
 92
        8
 66
     7
 43
1.0
 76
     1
 77
     6
 78
     2
 67
     7
 79
     5
170
     0
171
     0
290
     0
174
     0
 93
        1
 44
0.0
173
     0
291
     1
 45
0.0
1001
ACAD
1000
AcDbSavedByObjectVersion
1070
     0
  0
VISUALSTYLE
  5
481
102
{ACAD_XDICTIONARY
360
51C
102
}
102
{ACAD_REACTORS
330
472
102
}
330
472
100
AcDbVisualStyle
  2
Facepattern
 70
    15
 71
     2
 72
     2
 73
     0
 90
        0
 40
-0.6
 41
-30.0
 62
     5
 63
     7
421
 16777215
 74
     1
 91
        4
 64
     7
 65
   257
 75
     1
175
     1
 42
1.0
 92
        8
 66
     7
 43
1.0
 76
     1
 77
     6
 78
     2
 67
     7
 79
     5
170
     0
171
     0
290
     0
174
     0
 93
        1
 44
0.0
173
     0
291
     1
 45
0.0
1001
ACAD
1000
AcDbSavedByObjectVersion
1070
     0
  0
VISUALSTYLE
  5
473
102
{ACAD_XDICTIONARY
360
500
102
}
102
{ACAD_REACTORS
330
472
102
}
330
472
100
AcDbVisualStyle
  2
Flat
 70
     0
 71
     2
 72
     1
 73
     1
 90
        2
 40
-0.6
 41
30.0
 62
     5
 63
     7
421
 16777215
 74
     0
 91
        0
 64
     7
 65
   257
 75
     1
175
     1
 42
1.0
 92
        8
 66
     7
 43
1.0
 76
     1
 77
     6
 78
     2
 67
     7
 79
     5
170
     0
171
     0
290
     0
174
     0
 93
       13
 44
0.0
173
     0
291
     1
 45
0.0
1001
ACAD
1000
AcDbSavedByObjectVersion
1070
     0
  0
VISUALSTYLE
  5
474
102
{ACAD_XDICTIONARY
360
502
102
}
102
{ACAD_REACTORS
330
472
102
}
330
472
100
AcDbVisualStyle
  2
FlatWithEdges
 70
     1
 71
     2
 72
     1
 73
     1
 90
        2
 40
-0.6
 41
30.0
 62
     5
 63
     7
421
 16777215
 74
     1
 91
        0
 64
     7
 65
   257
 75
     1
175
     1
 42
1.0
 92
        0
 66
   257
 43
1.0
 76
     1
 77
     6
 78
     2
 67
     7
 79
     5
170
     0
171
     0
290
     0
174
     0
 93
       13
 44
0.0
173
     0
291
     1
 45
0.0
1001
ACAD
1000
AcDbSavedByObjectVersion
1070
     0
  0
VISUALSTYLE
  5
475
102
{ACAD_XDICTIONARY
360
504
102
}
102
{ACAD_REACTORS
330
472
102
}
330
472
100
AcDbVisualStyle
  2
Gouraud
 70
     2
 71
     2
 72
     2
 73
     1
 90
        2
 40
-0.6
 41
30.0
 62
     5
 63
     7
421
 16777215
 74
     0
 91
        0
 64
     7
 65
   257
 75
     1
175
     1
 42
1.0
 92
        0
 66
     7
 43
1.0
 76
     1
 77
     6
 78
     2
 67
     7
 79
     5
170
     0
171
     0
290
     0
174
     0
 93
       13
 44
0.0
173
     0
291
     1
 45
0.0
1001
ACAD
1000
AcDbSavedByObjectVersion
1070
     0
  0
VISUALSTYLE
  5
476
102
{ACAD_XDICTIONARY
360
506
102
}
102
{ACAD_REACTORS
330
472
102
}
330
472
100
AcDbVisualStyle
  2
GouraudWithEdges
 70
     3
 71
     2
 72
     2
 73
     1
 90
        2
 40
-0.6
 41
30.0
 62
     5
 63
     7
421
 16777215
 74
     1
 91
        0
 64
     7
 65
   257
 75
     1
175
     1
 42
1.0
 92
        0
 66
   257
 43
1.0
 76
     1
 77
     6
 78
     2
 67
     7
 79
     5
170
     0
171
     0
290
     0
174
     0
 93
       13
 44
0.0
173
     0
291
     1
 45
0.0
1001
ACAD
1000
AcDbSavedByObjectVersion
1070
     0
  0
VISUALSTYLE
  5
47A
102
{ACAD_XDICTIONARY
360
50E
102
}
102
{ACAD_REACTORS
330
472
102
}
330
472
100
AcDbVisualStyle
  2
Hidden
 70
     6
 71
     1
 72
     2
 73
     2
 90
        0
 40
-0.6
 41
-30.0
 62
     5
 63
     7
421
 16777215
 74
     2
 91
        2
 64
     7
 65
   257
 75
     2
175
     1
 42
40.0
 92
        0
 66
   257
 43
1.0
 76
     1
 77
     6
 78
     2
 67
     7
 79
     3
170
     0
171
     0
290
     0
174
     0
 93
        1
 44
0.0
173
     0
291
     0
 45
0.0
1001
ACAD
1000
AcDbSavedByObjectVersion
1070
     0
  0
VISUALSTYLE
  5
488
102
{ACAD_XDICTIONARY
360
52A
102
}
102
{ACAD_REACTORS
330
472
102
}
330
472
100
AcDbVisualStyle
  2
JitterOff
 70
    20
 71
     2
 72
     2
 73
     0
 90
        0
 40
-0.6
 41
-30.0
 62
     5
 63
     7
421
 16777215
 74
     1
 91
        4
 64
     7
 65
   257
 75
     1
175
     1
 42
1.0
 92
       10
 66
     7
 43
1.0
 76
     1
 77
     6
 78
     2
 67
     7
 79
     5
170
     0
171
     0
290
     0
174
     0
 93
        1
 44
0.0
173
     0
291
     1
 45
0.0
1001
ACAD
1000
AcDbSavedByObjectVersion
1070
     0
  0
VISUALSTYLE
  5
480
102
{ACAD_XDICTIONARY
360
51A
102
}
102
{ACAD_REACTORS
330
472
102
}
330
472
100
AcDbVisualStyle
  2
Linepattern
 70
    14
 71
     2
 72
     2
 73
     0
 90
        0
 40
-0.6
 41
-30.0
 62
     5
 63
     7
421
 16777215
 74
     1
 91
        4
 64
     7
 65
   257
 75
     7
175
     7
 42
1.0
 92
        8
 66
     7
 43
1.0
 76
     1
 77
     6
 78
     2
 67
     7
 79
     5
170
     0
171
     0
290
     0
174
     0
 93
        1
 44
0.0
173
     0
291
     1
 45
0.0
1001
ACAD
1000
AcDbSavedByObjectVersion
1070
     0
  0
VISUALSTYLE
  5
489
102
{ACAD_XDICTIONARY
360
52C
102
}
102
{ACAD_REACTORS
330
472
102
}
330
472
100
AcDbVisualStyle
  2
OverhangOff
 70
    21
 71
     2
 72
     2
 73
     0
 90
        0
 40
-0.6
 41
-30.0
 62
     5
 63
     7
421
 16777215
 74
     1
 91
        4
 64
     7
 65
   257
 75
     1
175
     1
 42
1.0
 92
        9
 66
     7
 43
1.0
 76
     1
 77
     6
 78
     2
 67
     7
 79
     5
170
     0
171
     0
290
     0
174
     0
 93
        1
 44
0.0
173
     0
291
     1
 45
0.0
1001
ACAD
1000
AcDbSavedByObjectVersion
1070
     0
  0
VISUALSTYLE
  5
47C
102
{ACAD_XDICTIONARY
360
512
102
}
102
{ACAD_REACTORS
330
472
102
}
330
472
100
AcDbVisualStyle
  2
Realistic
 70
     8
 71
     2
 72
     2
 73
     0
 90
        2
 40
-0.6
 41
30.0
 62
     5
 63
     7
421
 16777215
 74
     0
 91
        0
 64
     7
 65
   257
 75
     1
175
     1
 42
1.0
 92
        8
 66
   257
 43
1.0
 76
     1
 77
     6
 78
     2
 67
     7
 79
     3
170
     0
171
     0
290
     0
174
     0
 93
       13
 44
0.0
173
     0
291
     0
 45
0.0
1001
ACAD
1000
AcDbSavedByObjectVersion
1070
     0
  0
VISUALSTYLE
  5
487
102
{ACAD_XDICTIONARY
360
528
102
}
102
{ACAD_REACTORS
330
472
102
}
330
472
100
AcDbVisualStyle
  2
Shaded
 70
    27
 71
     2
 72
     2
 73
     1
 90
        2
 40
-0.6
 41
30.0
 62
     5
 63
     7
421
 16777215
 74
     0
 91
        4
 64
     7
 65
   257
 75
     1
175
     1
 42
1.0
 92
        8
 66
   257
 43
1.0
 76
     1
 77
     6
 78
     2
 67
     8
425
  7895160
 79
     3
170
     0
171
     0
290
     0
174
     0
 93
        5
 44
0.0
173
     0
291
     0
 45
0.0
1001
ACAD
1000
AcDbSavedByObjectVersion
1070
     0
  0
VISUALSTYLE
  5
486
102
{ACAD_XDICTIONARY
360
526
102
}
102
{ACAD_REACTORS
330
472
102
}
330
472
100
AcDbVisualStyle
  2
Shaded with edges
 70
    26
 71
     2
 72
     2
 73
     1
 90
        2
 40
-0.6
 41
30.0
 62
     5
 63
     7
421
 16777215
 74
     1
 91
       10
 64
     7
 65
   257
 75
     2
175
     1
 42
1.0
 92
        8
 66
   257
 43
1.0
 76
     1
 77
     6
 78
     2
 67
     7
 79
     3
170
     0
171
     0
290
     0
174
     0
 93
        5
 44
0.0
173
     0
291
     0
 45
0.0
1001
ACAD
1000
AcDbSavedByObjectVersion
1070
     0
  0
VISUALSTYLE
  5
483
102
{ACAD_XDICTIONARY
360
520
102
}
102
{ACAD_REACTORS
330
472
102
}
330
472
100
AcDbVisualStyle
  2
Shades of Gray
 70
    23
 71
     2
 72
     2
 73
     3
 90
        0
 40
-0.6
 41
-30.0
 62
     5
 63
     7
421
 16777215
 74
     2
 91
        2
 64
     7
 65
     7
 75
     1
175
     1
 42
40.0
 92
        8
 66
     7
 43
1.0
 76
     1
 77
     6
 78
     2
 67
     7
 79
     3
170
     0
171
     0
290
     0
174
     0
 93
        1
 44
0.0
173
     0
291
     0
 45
0.0
1001
ACAD
1000
AcDbSavedByObjectVersion
1070
     0
  0
VISUALSTYLE
  5
484
102
{ACAD_XDICTIONARY
360
522
102
}
102
{ACAD_REACTORS
330
472
102
}
330
472
100
AcDbVisualStyle
  2
Sketchy
 70
    24
 71
     1
 72
     2
 73
     2
 90
        0
 40
-0.6
 41
-30.0
 62
     5
 63
     7
421
 16777215
 74
     2
 91
        2
 64
     7
 65
     7
 75
     1
175
     1
 42
40.0
 92
       11
 66
     7
 43
1.0
 76
     1
 77
     6
 78
     2
 67
     7
 79
     6
170
     0
171
     0
290
     0
174
     0
 93
        1
 44
0.0
173
     0
291
     0
 45
0.0
1001
ACAD
1000
AcDbSavedByObjectVersion
1070
     0
  0
VISUALSTYLE
  5
47F
102
{ACAD_XDICTIONARY
360
518
102
}
102
{ACAD_REACTORS
330
472
102
}
330
472
100
AcDbVisualStyle
  2
Thicken
 70
    13
 71
     2
 72
     2
 73
     0
 90
        0
 40
-0.6
 41
-30.0
 62
     5
 63
     7
421
 16777215
 74
     1
 91
        4
 64
     7
 65
   257
 75
     1
175
     1
 42
1.0
 92
       12
 66
     7
 43
1.0
 76
     1
 77
     6
 78
     2
 67
     7
 79
     5
170
     0
171
     0
290
     0
174
     0
 93
        1
 44
0.0
173
     0
291
     1
 45
0.0
1001
ACAD
1000
AcDbSavedByObjectVersion
1070
     0
  0
VISUALSTYLE
  5
479
102
{ACAD_XDICTIONARY
360
50C
102
}
102
{ACAD_REACTORS
330
472
102
}
330
472
100
AcDbVisualStyle
  2
Wireframe
 70
     5
 71
     0
 72
     2
 73
     0
 90
        0
 40
-0.6
 41
-30.0
 62
     5
 63
     7
421
 16777215
 74
     1
 91
        4
 64
     7
 65
   257
 75
     1
175
     1
 42
1.0
 92
        0
 66
   257
 43
1.0
 76
     1
 77
     6
 78
     2
 67
     7
 79
     3
170
     0
171
     0
290
     0
174
     0
 93
        1
 44
0.0
173
     0
291
     0
 45
0.0
1001
ACAD
1000
AcDbSavedByObjectVersion
1070
     0
  0
VISUALSTYLE
  5
485
102
{ACAD_XDICTIONARY
360
524
102
}
102
{ACAD_REACTORS
330
472
102
}
330
472
100
AcDbVisualStyle
  2
X-Ray
 70
    25
 71
     2
 72
     2
 73
     1
 90
        1
 40
0.5
 41
-30.0
 62
     5
 63
     7
421
 16777215
 74
     1
 91
        0
 64
     7
 65
   257
 75
     1
175
     1
 42
1.0
 92
        8
 66
     7
 43
1.0
 76
     1
 77
     6
 78
     2
 67
     7
 79
     3
170
     0
171
     0
290
     0
174
     0
 93
       13
 44
0.0
173
     0
291
     0
 45
0.0
1001
ACAD
1000
AcDbSavedByObjectVersion
1070
     0
  0
DICTIONARYVAR
  5
4EF
102
{ACAD_REACTORS
330
4EA
102
}
330
4EA
100
DictionaryVariables
280
     0
  1
1:1
  0
DICTIONARYVAR
  5
4EC
102
{ACAD_REACTORS
330
4EA
102
}
330
4EA
100
DictionaryVariables
280
     0
  1
STANDARD
  0
DICTIONARYVAR
  5
4EB
102
{ACAD_REACTORS
330
4EA
102
}
330
4EA
100
DictionaryVariables
280
     0
  1
STANDARD
  0
DICTIONARYVAR
  5
4ED
102
{ACAD_REACTORS
330
4EA
102
}
330
4EA
100
DictionaryVariables
280
     0
  1
Imperial24
  0
DICTIONARYVAR
  5
4EE
102
{ACAD_REACTORS
330
4EA
102
}
330
4EA
100
DictionaryVariables
280
     0
  1
Imperial24
  0
DICTIONARYVAR
  5
4FA
102
{ACAD_REACTORS
330
4EA
102
}
330
4EA
100
DictionaryVariables
280
     0
  1
2
  0
DICTIONARY
  5
535
330
4A5
100
AcDbDictionary
280
     1
281
     1
  3
ACAD_XREC_ROUNDTRIP
360
536
  0
DICTIONARY
  5
463
330
462
100
AcDbDictionary
280
     1
281
     1
  3
ACAD_XREC_ROUNDTRIP
360
4FE
  3
BUMPTILE
360
465
  3
DIFFUSETILE
360
464
  3
OPACITYTILE
360
468
  3
REFLECTIONTILE
360
467
  3
REFRACTIONTILE
360
469
  3
SPECULARTILE
360
466
  0
DICTIONARY
  5
45B
330
45A
100
AcDbDictionary
280
     1
281
     1
  3
ACAD_XREC_ROUNDTRIP
360
4FD
  3
BUMPTILE
360
45D
  3
DIFFUSETILE
360
45C
  3
OPACITYTILE
360
460
  3
REFLECTIONTILE
360
45F
  3
REFRACTIONTILE
360
461
  3
SPECULARTILE
360
45E
  0
DICTIONARY
  5
46B
330
46A
100
AcDbDictionary
280
     1
281
     1
  3
ACAD_XREC_ROUNDTRIP
360
4FF
  3
BUMPTILE
360
46D
  3
DIFFUSETILE
360
46C
  3
OPACITYTILE
360
470
  3
REFLECTIONTILE
360
46F
  3
REFRACTIONTILE
360
471
  3
SPECULARTILE
360
46E
  0
DICTIONARY
  5
531
330
4A1
100
AcDbDictionary
280
     1
281
     1
  3
ACAD_XREC_ROUNDTRIP
360
532
  0
DICTIONARY
  5
533
330
4A3
100
AcDbDictionary
280
     1
281
     1
  3
ACAD_XREC_ROUNDTRIP
360
534
  0
DICTIONARY
  5
4AC
330
48D
100
AcDbDictionary
280
     1
281
     1
  3
ACAD_ROUNDTRIP_2008_TABLESTYLE_CELLSTYLEMAP
360
4FB
  3
ACAD_XREC_ROUNDTRIP
360
530
  0
DICTIONARY
  5
50A
330
478
100
AcDbDictionary
280
     1
281
     1
  3
ACAD_XREC_ROUNDTRIP
360
50B
  0
DICTIONARY
  5
508
330
477
100
AcDbDictionary
280
     1
281
     1
  3
ACAD_XREC_ROUNDTRIP
360
509
  0
DICTIONARY
  5
516
330
47E
100
AcDbDictionary
280
     1
281
     1
  3
ACAD_XREC_ROUNDTRIP
360
517
  0
DICTIONARY
  5
51E
330
482
100
AcDbDictionary
280
     1
281
     1
  3
ACAD_XREC_ROUNDTRIP
360
51F
  0
DICTIONARY
  5
510
330
47B
100
AcDbDictionary
280
     1
281
     1
  3
ACAD_XREC_ROUNDTRIP
360
511
  0
DICTIONARY
  5
514
330
47D
100
AcDbDictionary
280
     1
281
     1
  3
ACAD_XREC_ROUNDTRIP
360
515
  0
DICTIONARY
  5
52E
330
48A
100
AcDbDictionary
280
     1
281
     1
  3
ACAD_XREC_ROUNDTRIP
360
52F
  0
DICTIONARY
  5
51C
330
481
100
AcDbDictionary
280
     1
281
     1
  3
ACAD_XREC_ROUNDTRIP
360
51D
  0
DICTIONARY
  5
500
330
473
100
AcDbDictionary
280
     1
281
     1
  3
ACAD_XREC_ROUNDTRIP
360
501
  0
DICTIONARY
  5
502
330
474
100
AcDbDictionary
280
     1
281
     1
  3
ACAD_XREC_ROUNDTRIP
360
503
  0
DICTIONARY
  5
504
330
475
100
AcDbDictionary
280
     1
281
     1
  3
ACAD_XREC_ROUNDTRIP
360
505
  0
DICTIONARY
  5
506
330
476
100
AcDbDictionary
280
     1
281
     1
  3
ACAD_XREC_ROUNDTRIP
360
507
  0
DICTIONARY
  5
50E
330
47A
100
AcDbDictionary
280
     1
281
     1
  3
ACAD_XREC_ROUNDTRIP
360
50F
  0
DICTIONARY
  5
52A
330
488
100
AcDbDictionary
280
     1
281
     1
  3
ACAD_XREC_ROUNDTRIP
360
52B
  0
DICTIONARY
  5
51A
330
480
100
AcDbDictionary
280
     1
281
     1
  3
ACAD_XREC_ROUNDTRIP
360
51B
  0
DICTIONARY
  5
52C
330
489
100
AcDbDictionary
280
     1
281
     1
  3
ACAD_XREC_ROUNDTRIP
360
52D
  0
DICTIONARY
  5
512
330
47C
100
AcDbDictionary
280
     1
281
     1
  3
ACAD_XREC_ROUNDTRIP
360
513
  0
DICTIONARY
  5
528
330
487
100
AcDbDictionary
280
     1
281
     1
  3
ACAD_XREC_ROUNDTRIP
360
529
  0
DICTIONARY
  5
526
330
486
100
AcDbDictionary
280
     1
281
     1
  3
ACAD_XREC_ROUNDTRIP
360
527
  0
DICTIONARY
  5
520
330
483
100
AcDbDictionary
280
     1
281
     1
  3
ACAD_XREC_ROUNDTRIP
360
521
  0
DICTIONARY
  5
522
330
484
100
AcDbDictionary
280
     1
281
     1
  3
ACAD_XREC_ROUNDTRIP
360
523
  0
DICTIONARY
  5
518
330
47F
100
AcDbDictionary
280
     1
281
     1
  3
ACAD_XREC_ROUNDTRIP
360
519
  0
DICTIONARY
  5
50C
330
479
100
AcDbDictionary
280
     1
281
     1
  3
ACAD_XREC_ROUNDTRIP
360
50D
  0
DICTIONARY
  5
524
330
485
100
AcDbDictionary
280
     1
281
     1
  3
ACAD_XREC_ROUNDTRIP
360
525
  0
XRECORD
  5
536
102
{ACAD_REACTORS
330
535
102
}
330
535
100
AcDbXrecord
280
     1
102
DISPLAYNAME
  1
Imperial24
102
FLAGS
 90
        0
  0
XRECORD
  5
4FE
102
{ACAD_REACTORS
330
463
102
}
330
463
100
AcDbXrecord
280
     1
102
MATERIAL
148
0.0
149
0.0
149
0.0
 93
        0
 94
      127
282
     0
 72
     0
 77
     0
171
     0
175
     0
179
     0
273
     0
  0
XRECORD
  5
465
102
{ACAD_REACTORS
330
463
102
}
330
463
100
AcDbXrecord
280
     1
270
     1
271
     1
  0
XRECORD
  5
464
102
{ACAD_REACTORS
330
463
102
}
330
463
100
AcDbXrecord
280
     1
270
     1
271
     1
  0
XRECORD
  5
468
102
{ACAD_REACTORS
330
463
102
}
330
463
100
AcDbXrecord
280
     1
270
     1
271
     1
  0
XRECORD
  5
467
102
{ACAD_REACTORS
330
463
102
}
330
463
100
AcDbXrecord
280
     1
270
     1
271
     1
  0
XRECORD
  5
469
102
{ACAD_REACTORS
330
463
102
}
330
463
100
AcDbXrecord
280
     1
270
     1
271
     1
  0
XRECORD
  5
466
102
{ACAD_REACTORS
330
463
102
}
330
463
100
AcDbXrecord
280
     1
270
     1
271
     1
  0
XRECORD
  5
4FD
102
{ACAD_REACTORS
330
45B
102
}
330
45B
100
AcDbXrecord
280
     1
102
MATERIAL
148
0.0
149
0.0
149
0.0
 93
        0
 94
      127
282
     0
 72
     0
 77
     0
171
     0
175
     0
179
     0
273
     0
  0
XRECORD
  5
45D
102
{ACAD_REACTORS
330
45B
102
}
330
45B
100
AcDbXrecord
280
     1
270
     1
271
     1
  0
XRECORD
  5
45C
102
{ACAD_REACTORS
330
45B
102
}
330
45B
100
AcDbXrecord
280
     1
270
     1
271
     1
  0
XRECORD
  5
460
102
{ACAD_REACTORS
330
45B
102
}
330
45B
100
AcDbXrecord
280
     1
270
     1
271
     1
  0
XRECORD
  5
45F
102
{ACAD_REACTORS
330
45B
102
}
330
45B
100
AcDbXrecord
280
     1
270
     1
271
     1
  0
XRECORD
  5
461
102
{ACAD_REACTORS
330
45B
102
}
330
45B
100
AcDbXrecord
280
     1
270
     1
271
     1
  0
XRECORD
  5
45E
102
{ACAD_REACTORS
330
45B
102
}
330
45B
100
AcDbXrecord
280
     1
270
     1
271
     1
  0
XRECORD
  5
4FF
102
{ACAD_REACTORS
330
46B
102
}
330
46B
100
AcDbXrecord
280
     1
102
MATERIAL
148
0.0
149
0.0
149
0.0
 93
        0
 94
      127
282
     0
 72
     0
 77
     0
171
     0
175
     0
179
     0
273
     0
  0
XRECORD
  5
46D
102
{ACAD_REACTORS
330
46B
102
}
330
46B
100
AcDbXrecord
280
     1
270
     1
271
     1
  0
XRECORD
  5
46C
102
{ACAD_REACTORS
330
46B
102
}
330
46B
100
AcDbXrecord
280
     1
270
     1
271
     1
  0
XRECORD
  5
470
102
{ACAD_REACTORS
330
46B
102
}
330
46B
100
AcDbXrecord
280
     1
270
     1
271
     1
  0
XRECORD
  5
46F
102
{ACAD_REACTORS
330
46B
102
}
330
46B
100
AcDbXrecord
280
     1
270
     1
271
     1
  0
XRECORD
  5
471
102
{ACAD_REACTORS
330
46B
102
}
330
46B
100
AcDbXrecord
280
     1
270
     1
271
     1
  0
XRECORD
  5
46E
102
{ACAD_REACTORS
330
46B
102
}
330
46B
100
AcDbXrecord
280
     1
270
     1
271
     1
  0
XRECORD
  5
532
102
{ACAD_REACTORS
330
531
102
}
330
531
100
AcDbXrecord
280
     1
102
ACAD_ROUNDTRIP_2012_MLEADER_STYLE
298
     1
  0
XRECORD
  5
534
102
{ACAD_REACTORS
330
533
102
}
330
533
100
AcDbXrecord
280
     1
102
DISPLAYNAME
  1
Imperial24
102
FLAGS
 90
        0
  0
CELLSTYLEMAP
  5
4FB
102
{ACAD_REACTORS
330
4AC
102
}
330
4AC
100
AcDbCellStyleMap
 90
        3
300
CELLSTYLE
  1
TABLEFORMAT_BEGIN
 90
        5
170
     1
 91
        0
 92
    32768
 62
   257
 93
        1
300
CONTENTFORMAT
  1
CONTENTFORMAT_BEGIN
 90
        0
 91
        0
 92
      512
 93
        0
300

 40
0.0
140
1.0
 94
        5
 62
     0
340
10
144
0.25
309
CONTENTFORMAT_END
171
     0
 94
        0
309
TABLEFORMAT_END
  1
CELLSTYLE_BEGIN
 90
        1
 91
        1
300
_TITLE
309
CELLSTYLE_END
300
CELLSTYLE
  1
TABLEFORMAT_BEGIN
 90
        5
170
     1
 91
        0
 92
        0
 62
   257
 93
        1
300
CONTENTFORMAT
  1
CONTENTFORMAT_BEGIN
 90
        0
 91
        0
 92
      512
 93
        0
300

 40
0.0
140
1.0
 94
        5
 62
     0
340
10
144
0.18
309
CONTENTFORMAT_END
171
     0
 94
        0
309
TABLEFORMAT_END
  1
CELLSTYLE_BEGIN
 90
        2
 91
        1
300
_HEADER
309
CELLSTYLE_END
300
CELLSTYLE
  1
TABLEFORMAT_BEGIN
 90
        5
170
     1
 91
        0
 92
        0
 62
   257
 93
        1
300
CONTENTFORMAT
  1
CONTENTFORMAT_BEGIN
 90
        0
 91
        0
 92
      512
 93
        0
300

 40
0.0
140
1.0
 94
        2
 62
     0
340
10
144
0.18
309
CONTENTFORMAT_END
171
     0
 94
        0
309
TABLEFORMAT_END
  1
CELLSTYLE_BEGIN
 90
        3
 91
        2
300
_DATA
309
CELLSTYLE_END
  0
XRECORD
  5
530
102
{ACAD_REACTORS
330
4AC
102
}
330
4AC
100
AcDbXrecord
280
     1
102
ACAD_ROUNDTRIP_PRE2007_TABLESTYLE
 90
      512
 91
        0
  1

 92
      512
 93
        0
  2

 94
      512
 95
        0
  3

  0
XRECORD
  5
50B
102
{ACAD_REACTORS
330
50A
102
}
330
50A
100
AcDbXrecord
280
     1
102
RTVSPost2010Prop28
280
     1
102
RTVSPost2010PropOp28
 70
     1
102
RTVSPost2010Prop29
280
     1
102
RTVSPost2010PropOp29
 70
     1
102
RTVSPost2010Prop30
280
     0
102
RTVSPost2010PropOp30
 70
     1
102
RTVSPost2010Prop31
280
     0
102
RTVSPost2010PropOp31
 70
     1
102
RTVSPost2010Prop32
280
     0
102
RTVSPost2010PropOp32
 70
     1
102
RTVSPost2010Prop33
280
     0
102
RTVSPost2010PropOp33
 70
     1
102
RTVSPost2010Prop34
280
     0
102
RTVSPost2010PropOp34
 70
     1
102
RTVSPost2010Prop35
280
     0
102
RTVSPost2010PropOp35
 70
     1
102
RTVSPost2010Prop36
280
     0
102
RTVSPost2010PropOp36
 70
     1
102
RTVSPost2010Prop37
 90
       50
102
RTVSPost2010PropOp37
 70
     1
102
RTVSPost2010Prop38
140
0.0
102
RTVSPost2010PropOp38
 70
     1
102
RTVSPost2010Prop39
140
1.0
102
RTVSPost2010PropOp39
 70
     1
102
RTVSPost2010Prop40
 90
        0
102
RTVSPost2010PropOp40
 70
     1
102
RTVSPost2010Prop41ColorIndex
 90
       18
102
RTVSPost2010Prop41ColorRGB
 90
        0
102
RTVSPost2010PropOp41
 70
     1
102
RTVSPost2010Prop42
 90
       50
102
RTVSPost2010PropOp42
 70
     1
102
RTVSPost2010Prop43
 90
        3
102
RTVSPost2010PropOp43
 70
     1
102
RTVSPost2010Prop44ColorIndex
 90
        5
102
RTVSPost2010Prop44ColorRGB
 90
      255
102
RTVSPost2010PropOp44
 70
     1
102
RTVSPost2010Prop45
280
     0
102
RTVSPost2010PropOp45
 70
     1
102
RTVSPost2010Prop46
 90
       50
102
RTVSPost2010PropOp46
 70
     1
102
RTVSPost2010Prop47
 90
       50
102
RTVSPost2010PropOp47
 70
     1
102
RTVSPost2010Prop48
 90
       50
102
RTVSPost2010PropOp48
 70
     1
102
RTVSPost2010Prop49
280
     0
102
RTVSPost2010PropOp49
 70
     1
102
RTVSPost2010Prop50
 90
       50
102
RTVSPost2010PropOp50
 70
     1
102
RTVSPost2010Prop51ColorIndex
 90
      256
102
RTVSPost2010Prop51ColorRGB
 90
-16777216
102
RTVSPost2010PropOp51
 70
     0
102
RTVSPost2010Prop52
140
1.0
102
RTVSPost2010PropOp52
 70
     0
102
RTVSPost2010Prop53
 90
        2
102
RTVSPost2010PropOp53
 70
     1
102
RTVSPost2010Prop54
  1
strokes_ogs.tif
102
RTVSPost2010PropOp54
 70
     1
102
RTVSPost2010Prop55
280
     0
102
RTVSPost2010PropOp55
 70
     1
102
RTVSPost2010Prop56
140
1.0
102
RTVSPost2010PropOp56
 70
     1
102
RTVSPost2010Prop57
140
1.0
102
RTVSPost2010PropOp57
 70
     1
102
RTVSPropertyOp0
 70
     1
102
RTVSPropertyOp1
 70
     1
102
RTVSPropertyOp2
 70
     1
102
RTVSPropertyOp3
 70
     1
102
RTVSPropertyOp4
 70
     1
102
RTVSPropertyOp5
 70
     1
102
RTVSPropertyOp6
 70
     1
102
RTVSPropertyOp7
 70
     1
102
RTVSPropertyOp8
 70
     1
102
RTVSPropertyOp9
 70
     1
102
RTVSPropertyOp10
 70
     1
102
RTVSPropertyOp11
 70
     1
102
RTVSPropertyOp12
 70
     1
102
RTVSPropertyOp13
 70
     1
102
RTVSPropertyOp14
 70
     1
102
RTVSPropertyOp15
 70
     1
102
RTVSPropertyOp16
 70
     1
102
RTVSPropertyOp17
 70
     1
102
RTVSPropertyOp18
 70
     1
102
RTVSPropertyOp19
 70
     1
102
RTVSPropertyOp20
 70
     1
102
RTVSPropertyOp21
 70
     1
102
RTVSPropertyOp22
 70
     1
102
RTVSPropertyOp23
 70
     1
102
RTVSPropertyOp24
 70
     1
102
RTVSPropertyOp25
 70
     1
102
RTVSPropertyOp26
 70
     1
102
RTVSPropertyOp27
 70
     1
102
RTVSPropertyOp28
 70
     1
102
RTVSPropertyOp29
 70
     1
102
RTVSPropertyOp30
 70
     1
102
RTVSPropertyOp31
 70
     1
102
RTVSPropertyOp32
 70
     1
102
RTVSPropertyOp33
 70
     1
102
RTVSPropertyOp34
 70
     1
102
RTVSPropertyOp35
 70
     1
102
RTVSPropertyOp36
 70
     1
102
RTVSPropertyOp37
 70
     1
102
RTVSPropertyOp38
 70
     1
102
RTVSPropertyOp39
 70
     1
102
RTVSPropertyOp40
 70
     1
102
RTVSPropertyOp41
 70
     1
102
RTVSPropertyOp42
 70
     1
102
RTVSPropertyOp43
 70
     1
102
RTVSPropertyOp44
 70
     1
102
RTVSPropertyOp45
 70
     1
102
RTVSPropertyOp46
 70
     1
102
RTVSPropertyOp47
 70
     1
102
RTVSPropertyOp48
 70
     1
102
RTVSPropertyOp49
 70
     1
102
RTVSPropertyOp50
 70
     1
102
RTVSPropertyOp51
 70
     0
102
RTVSPropertyOp52
 70
     0
102
RTVSPropertyOp53
 70
     1
102
RTVSPropertyOp54
 70
     1
102
RTVSPropertyOp55
 70
     1
102
RTVSPropertyOp56
 70
     1
102
RTVSPropertyOp57
 70
     1
102
RTVSPropertyOp58
 70
     1
102
RTVSPropertyOp59
 70
     1
102
RTVSPropertyOp60
 70
     1
102
RTVSPropertyOp61
 70
     1
102
RTVSPropertyOp62
 70
     1
  0
XRECORD
  5
509
102
{ACAD_REACTORS
330
508
102
}
330
508
100
AcDbXrecord
280
     1
102
RTVSPost2010Prop28
280
     0
102
RTVSPost2010PropOp28
 70
     1
102
RTVSPost2010Prop29
280
     1
102
RTVSPost2010PropOp29
 70
     1
102
RTVSPost2010Prop30
280
     1
102
RTVSPost2010PropOp30
 70
     1
102
RTVSPost2010Prop31
280
     0
102
RTVSPost2010PropOp31
 70
     1
102
RTVSPost2010Prop32
280
     0
102
RTVSPost2010PropOp32
 70
     1
102
RTVSPost2010Prop33
280
     0
102
RTVSPost2010PropOp33
 70
     1
102
RTVSPost2010Prop34
280
     0
102
RTVSPost2010PropOp34
 70
     1
102
RTVSPost2010Prop35
280
     0
102
RTVSPost2010PropOp35
 70
     1
102
RTVSPost2010Prop36
280
     0
102
RTVSPost2010PropOp36
 70
     1
102
RTVSPost2010Prop37
 90
       50
102
RTVSPost2010PropOp37
 70
     1
102
RTVSPost2010Prop38
140
0.0
102
RTVSPost2010PropOp38
 70
     1
102
RTVSPost2010Prop39
140
1.0
102
RTVSPost2010PropOp39
 70
     1
102
RTVSPost2010Prop40
 90
        0
102
RTVSPost2010PropOp40
 70
     1
102
RTVSPost2010Prop41ColorIndex
 90
       18
102
RTVSPost2010Prop41ColorRGB
 90
        0
102
RTVSPost2010PropOp41
 70
     1
102
RTVSPost2010Prop42
 90
       50
102
RTVSPost2010PropOp42
 70
     1
102
RTVSPost2010Prop43
 90
        3
102
RTVSPost2010PropOp43
 70
     1
102
RTVSPost2010Prop44ColorIndex
 90
        5
102
RTVSPost2010Prop44ColorRGB
 90
      255
102
RTVSPost2010PropOp44
 70
     1
102
RTVSPost2010Prop45
280
     0
102
RTVSPost2010PropOp45
 70
     1
102
RTVSPost2010Prop46
 90
       50
102
RTVSPost2010PropOp46
 70
     1
102
RTVSPost2010Prop47
 90
       50
102
RTVSPost2010PropOp47
 70
     1
102
RTVSPost2010Prop48
 90
       50
102
RTVSPost2010PropOp48
 70
     1
102
RTVSPost2010Prop49
280
     0
102
RTVSPost2010PropOp49
 70
     1
102
RTVSPost2010Prop50
 90
       50
102
RTVSPost2010PropOp50
 70
     1
102
RTVSPost2010Prop51ColorIndex
 90
      256
102
RTVSPost2010Prop51ColorRGB
 90
-16777216
102
RTVSPost2010PropOp51
 70
     0
102
RTVSPost2010Prop52
140
1.0
102
RTVSPost2010PropOp52
 70
     0
102
RTVSPost2010Prop53
 90
        2
102
RTVSPost2010PropOp53
 70
     1
102
RTVSPost2010Prop54
  1
strokes_ogs.tif
102
RTVSPost2010PropOp54
 70
     1
102
RTVSPost2010Prop55
280
     0
102
RTVSPost2010PropOp55
 70
     1
102
RTVSPost2010Prop56
140
1.0
102
RTVSPost2010PropOp56
 70
     1
102
RTVSPost2010Prop57
140
1.0
102
RTVSPost2010PropOp57
 70
     1
102
RTVSPropertyOp0
 70
     1
102
RTVSPropertyOp1
 70
     1
102
RTVSPropertyOp2
 70
     1
102
RTVSPropertyOp3
 70
     1
102
RTVSPropertyOp4
 70
     1
102
RTVSPropertyOp5
 70
     1
102
RTVSPropertyOp6
 70
     1
102
RTVSPropertyOp7
 70
     1
102
RTVSPropertyOp8
 70
     1
102
RTVSPropertyOp9
 70
     1
102
RTVSPropertyOp10
 70
     1
102
RTVSPropertyOp11
 70
     1
102
RTVSPropertyOp12
 70
     1
102
RTVSPropertyOp13
 70
     1
102
RTVSPropertyOp14
 70
     1
102
RTVSPropertyOp15
 70
     1
102
RTVSPropertyOp16
 70
     1
102
RTVSPropertyOp17
 70
     1
102
RTVSPropertyOp18
 70
     1
102
RTVSPropertyOp19
 70
     1
102
RTVSPropertyOp20
 70
     1
102
RTVSPropertyOp21
 70
     1
102
RTVSPropertyOp22
 70
     1
102
RTVSPropertyOp23
 70
     1
102
RTVSPropertyOp24
 70
     1
102
RTVSPropertyOp25
 70
     1
102
RTVSPropertyOp26
 70
     1
102
RTVSPropertyOp27
 70
     1
102
RTVSPropertyOp28
 70
     1
102
RTVSPropertyOp29
 70
     1
102
RTVSPropertyOp30
 70
     1
102
RTVSPropertyOp31
 70
     1
102
RTVSPropertyOp32
 70
     1
102
RTVSPropertyOp33
 70
     1
102
RTVSPropertyOp34
 70
     1
102
RTVSPropertyOp35
 70
     1
102
RTVSPropertyOp36
 70
     1
102
RTVSPropertyOp37
 70
     1
102
RTVSPropertyOp38
 70
     1
102
RTVSPropertyOp39
 70
     1
102
RTVSPropertyOp40
 70
     1
102
RTVSPropertyOp41
 70
     1
102
RTVSPropertyOp42
 70
     1
102
RTVSPropertyOp43
 70
     1
102
RTVSPropertyOp44
 70
     1
102
RTVSPropertyOp45
 70
     1
102
RTVSPropertyOp46
 70
     1
102
RTVSPropertyOp47
 70
     1
102
RTVSPropertyOp48
 70
     1
102
RTVSPropertyOp49
 70
     1
102
RTVSPropertyOp50
 70
     1
102
RTVSPropertyOp51
 70
     0
102
RTVSPropertyOp52
 70
     0
102
RTVSPropertyOp53
 70
     1
102
RTVSPropertyOp54
 70
     1
102
RTVSPropertyOp55
 70
     1
102
RTVSPropertyOp56
 70
     1
102
RTVSPropertyOp57
 70
     1
102
RTVSPropertyOp58
 70
     1
102
RTVSPropertyOp59
 70
     1
102
RTVSPropertyOp60
 70
     1
102
RTVSPropertyOp61
 70
     1
102
RTVSPropertyOp62
 70
     1
  0
XRECORD
  5
517
102
{ACAD_REACTORS
330
516
102
}
330
516
100
AcDbXrecord
280
     1
102
RTVSPost2010Prop28
280
     0
102
RTVSPost2010PropOp28
 70
     1
102
RTVSPost2010Prop29
280
     1
102
RTVSPost2010PropOp29
 70
     1
102
RTVSPost2010Prop30
280
     1
102
RTVSPost2010PropOp30
 70
     1
102
RTVSPost2010Prop31
280
     0
102
RTVSPost2010PropOp31
 70
     1
102
RTVSPost2010Prop32
280
     0
102
RTVSPost2010PropOp32
 70
     1
102
RTVSPost2010Prop33
280
     0
102
RTVSPost2010PropOp33
 70
     1
102
RTVSPost2010Prop34
280
     0
102
RTVSPost2010PropOp34
 70
     1
102
RTVSPost2010Prop35
280
     0
102
RTVSPost2010PropOp35
 70
     1
102
RTVSPost2010Prop36
280
     0
102
RTVSPost2010PropOp36
 70
     1
102
RTVSPost2010Prop37
 90
       50
102
RTVSPost2010PropOp37
 70
     1
102
RTVSPost2010Prop38
140
0.0
102
RTVSPost2010PropOp38
 70
     1
102
RTVSPost2010Prop39
140
1.0
102
RTVSPost2010PropOp39
 70
     1
102
RTVSPost2010Prop40
 90
        0
102
RTVSPost2010PropOp40
 70
     1
102
RTVSPost2010Prop41ColorIndex
 90
       18
102
RTVSPost2010Prop41ColorRGB
 90
        0
102
RTVSPost2010PropOp41
 70
     1
102
RTVSPost2010Prop42
 90
       50
102
RTVSPost2010PropOp42
 70
     1
102
RTVSPost2010Prop43
 90
        3
102
RTVSPost2010PropOp43
 70
     1
102
RTVSPost2010Prop44ColorIndex
 90
        5
102
RTVSPost2010Prop44ColorRGB
 90
      255
102
RTVSPost2010PropOp44
 70
     1
102
RTVSPost2010Prop45
280
     0
102
RTVSPost2010PropOp45
 70
     1
102
RTVSPost2010Prop46
 90
       50
102
RTVSPost2010PropOp46
 70
     1
102
RTVSPost2010Prop47
 90
       50
102
RTVSPost2010PropOp47
 70
     1
102
RTVSPost2010Prop48
 90
       50
102
RTVSPost2010PropOp48
 70
     1
102
RTVSPost2010Prop49
280
     0
102
RTVSPost2010PropOp49
 70
     1
102
RTVSPost2010Prop50
 90
       50
102
RTVSPost2010PropOp50
 70
     1
102
RTVSPost2010Prop51ColorIndex
 90
      256
102
RTVSPost2010Prop51ColorRGB
 90
-16777216
102
RTVSPost2010PropOp51
 70
     0
102
RTVSPost2010Prop52
140
1.0
102
RTVSPost2010PropOp52
 70
     0
102
RTVSPost2010Prop53
 90
        2
102
RTVSPost2010PropOp53
 70
     1
102
RTVSPost2010Prop54
  1
strokes_ogs.tif
102
RTVSPost2010PropOp54
 70
     1
102
RTVSPost2010Prop55
280
     0
102
RTVSPost2010PropOp55
 70
     1
102
RTVSPost2010Prop56
140
1.0
102
RTVSPost2010PropOp56
 70
     1
102
RTVSPost2010Prop57
140
1.0
102
RTVSPost2010PropOp57
 70
     1
102
RTVSPropertyOp0
 70
     1
102
RTVSPropertyOp1
 70
     1
102
RTVSPropertyOp2
 70
     1
102
RTVSPropertyOp3
 70
     1
102
RTVSPropertyOp4
 70
     1
102
RTVSPropertyOp5
 70
     1
102
RTVSPropertyOp6
 70
     1
102
RTVSPropertyOp7
 70
     1
102
RTVSPropertyOp8
 70
     1
102
RTVSPropertyOp9
 70
     1
102
RTVSPropertyOp10
 70
     1
102
RTVSPropertyOp11
 70
     1
102
RTVSPropertyOp12
 70
     1
102
RTVSPropertyOp13
 70
     1
102
RTVSPropertyOp14
 70
     1
102
RTVSPropertyOp15
 70
     1
102
RTVSPropertyOp16
 70
     1
102
RTVSPropertyOp17
 70
     1
102
RTVSPropertyOp18
 70
     1
102
RTVSPropertyOp19
 70
     1
102
RTVSPropertyOp20
 70
     1
102
RTVSPropertyOp21
 70
     1
102
RTVSPropertyOp22
 70
     1
102
RTVSPropertyOp23
 70
     1
102
RTVSPropertyOp24
 70
     1
102
RTVSPropertyOp25
 70
     1
102
RTVSPropertyOp26
 70
     1
102
RTVSPropertyOp27
 70
     1
102
RTVSPropertyOp28
 70
     1
102
RTVSPropertyOp29
 70
     1
102
RTVSPropertyOp30
 70
     1
102
RTVSPropertyOp31
 70
     1
102
RTVSPropertyOp32
 70
     1
102
RTVSPropertyOp33
 70
     1
102
RTVSPropertyOp34
 70
     1
102
RTVSPropertyOp35
 70
     1
102
RTVSPropertyOp36
 70
     1
102
RTVSPropertyOp37
 70
     1
102
RTVSPropertyOp38
 70
     1
102
RTVSPropertyOp39
 70
     1
102
RTVSPropertyOp40
 70
     1
102
RTVSPropertyOp41
 70
     1
102
RTVSPropertyOp42
 70
     1
102
RTVSPropertyOp43
 70
     1
102
RTVSPropertyOp44
 70
     1
102
RTVSPropertyOp45
 70
     1
102
RTVSPropertyOp46
 70
     1
102
RTVSPropertyOp47
 70
     1
102
RTVSPropertyOp48
 70
     1
102
RTVSPropertyOp49
 70
     1
102
RTVSPropertyOp50
 70
     1
102
RTVSPropertyOp51
 70
     0
102
RTVSPropertyOp52
 70
     0
102
RTVSPropertyOp53
 70
     1
102
RTVSPropertyOp54
 70
     1
102
RTVSPropertyOp55
 70
     1
102
RTVSPropertyOp56
 70
     1
102
RTVSPropertyOp57
 70
     1
102
RTVSPropertyOp58
 70
     1
102
RTVSPropertyOp59
 70
     1
102
RTVSPropertyOp60
 70
     1
102
RTVSPropertyOp61
 70
     1
102
RTVSPropertyOp62
 70
     1
  0
XRECORD
  5
51F
102
{ACAD_REACTORS
330
51E
102
}
330
51E
100
AcDbXrecord
280
     1
102
RTVSPost2010Prop28
280
     0
102
RTVSPost2010PropOp28
 70
     1
102
RTVSPost2010Prop29
280
     1
102
RTVSPost2010PropOp29
 70
     1
102
RTVSPost2010Prop30
280
     1
102
RTVSPost2010PropOp30
 70
     1
102
RTVSPost2010Prop31
280
     0
102
RTVSPost2010PropOp31
 70
     1
102
RTVSPost2010Prop32
280
     0
102
RTVSPost2010PropOp32
 70
     1
102
RTVSPost2010Prop33
280
     0
102
RTVSPost2010PropOp33
 70
     1
102
RTVSPost2010Prop34
280
     0
102
RTVSPost2010PropOp34
 70
     1
102
RTVSPost2010Prop35
280
     0
102
RTVSPost2010PropOp35
 70
     1
102
RTVSPost2010Prop36
280
     0
102
RTVSPost2010PropOp36
 70
     1
102
RTVSPost2010Prop37
 90
       50
102
RTVSPost2010PropOp37
 70
     1
102
RTVSPost2010Prop38
140
0.0
102
RTVSPost2010PropOp38
 70
     1
102
RTVSPost2010Prop39
140
1.0
102
RTVSPost2010PropOp39
 70
     1
102
RTVSPost2010Prop40
 90
        0
102
RTVSPost2010PropOp40
 70
     1
102
RTVSPost2010Prop41ColorIndex
 90
       18
102
RTVSPost2010Prop41ColorRGB
 90
        0
102
RTVSPost2010PropOp41
 70
     1
102
RTVSPost2010Prop42
 90
       50
102
RTVSPost2010PropOp42
 70
     1
102
RTVSPost2010Prop43
 90
        3
102
RTVSPost2010PropOp43
 70
     1
102
RTVSPost2010Prop44ColorIndex
 90
        5
102
RTVSPost2010Prop44ColorRGB
 90
      255
102
RTVSPost2010PropOp44
 70
     1
102
RTVSPost2010Prop45
280
     0
102
RTVSPost2010PropOp45
 70
     1
102
RTVSPost2010Prop46
 90
       50
102
RTVSPost2010PropOp46
 70
     1
102
RTVSPost2010Prop47
 90
       50
102
RTVSPost2010PropOp47
 70
     1
102
RTVSPost2010Prop48
 90
       50
102
RTVSPost2010PropOp48
 70
     1
102
RTVSPost2010Prop49
280
     0
102
RTVSPost2010PropOp49
 70
     1
102
RTVSPost2010Prop50
 90
       50
102
RTVSPost2010PropOp50
 70
     1
102
RTVSPost2010Prop51ColorIndex
 90
      256
102
RTVSPost2010Prop51ColorRGB
 90
-16777216
102
RTVSPost2010PropOp51
 70
     0
102
RTVSPost2010Prop52
140
1.0
102
RTVSPost2010PropOp52
 70
     0
102
RTVSPost2010Prop53
 90
        2
102
RTVSPost2010PropOp53
 70
     1
102
RTVSPost2010Prop54
  1
strokes_ogs.tif
102
RTVSPost2010PropOp54
 70
     1
102
RTVSPost2010Prop55
280
     0
102
RTVSPost2010PropOp55
 70
     1
102
RTVSPost2010Prop56
140
1.0
102
RTVSPost2010PropOp56
 70
     1
102
RTVSPost2010Prop57
140
1.0
102
RTVSPost2010PropOp57
 70
     1
102
RTVSPropertyOp0
 70
     1
102
RTVSPropertyOp1
 70
     1
102
RTVSPropertyOp2
 70
     1
102
RTVSPropertyOp3
 70
     1
102
RTVSPropertyOp4
 70
     1
102
RTVSPropertyOp5
 70
     1
102
RTVSPropertyOp6
 70
     1
102
RTVSPropertyOp7
 70
     1
102
RTVSPropertyOp8
 70
     1
102
RTVSPropertyOp9
 70
     1
102
RTVSPropertyOp10
 70
     1
102
RTVSPropertyOp11
 70
     1
102
RTVSPropertyOp12
 70
     1
102
RTVSPropertyOp13
 70
     1
102
RTVSPropertyOp14
 70
     1
102
RTVSPropertyOp15
 70
     1
102
RTVSPropertyOp16
 70
     1
102
RTVSPropertyOp17
 70
     1
102
RTVSPropertyOp18
 70
     1
102
RTVSPropertyOp19
 70
     1
102
RTVSPropertyOp20
 70
     1
102
RTVSPropertyOp21
 70
     1
102
RTVSPropertyOp22
 70
     1
102
RTVSPropertyOp23
 70
     1
102
RTVSPropertyOp24
 70
     1
102
RTVSPropertyOp25
 70
     1
102
RTVSPropertyOp26
 70
     1
102
RTVSPropertyOp27
 70
     1
102
RTVSPropertyOp28
 70
     1
102
RTVSPropertyOp29
 70
     1
102
RTVSPropertyOp30
 70
     1
102
RTVSPropertyOp31
 70
     1
102
RTVSPropertyOp32
 70
     1
102
RTVSPropertyOp33
 70
     1
102
RTVSPropertyOp34
 70
     1
102
RTVSPropertyOp35
 70
     1
102
RTVSPropertyOp36
 70
     1
102
RTVSPropertyOp37
 70
     1
102
RTVSPropertyOp38
 70
     1
102
RTVSPropertyOp39
 70
     1
102
RTVSPropertyOp40
 70
     1
102
RTVSPropertyOp41
 70
     1
102
RTVSPropertyOp42
 70
     1
102
RTVSPropertyOp43
 70
     1
102
RTVSPropertyOp44
 70
     1
102
RTVSPropertyOp45
 70
     1
102
RTVSPropertyOp46
 70
     1
102
RTVSPropertyOp47
 70
     1
102
RTVSPropertyOp48
 70
     1
102
RTVSPropertyOp49
 70
     1
102
RTVSPropertyOp50
 70
     1
102
RTVSPropertyOp51
 70
     0
102
RTVSPropertyOp52
 70
     0
102
RTVSPropertyOp53
 70
     1
102
RTVSPropertyOp54
 70
     1
102
RTVSPropertyOp55
 70
     1
102
RTVSPropertyOp56
 70
     1
102
RTVSPropertyOp57
 70
     1
102
RTVSPropertyOp58
 70
     1
102
RTVSPropertyOp59
 70
     1
102
RTVSPropertyOp60
 70
     1
102
RTVSPropertyOp61
 70
     1
102
RTVSPropertyOp62
 70
     1
  0
XRECORD
  5
511
102
{ACAD_REACTORS
330
510
102
}
330
510
100
AcDbXrecord
280
     1
102
RTVSPost2010Prop28
280
     0
102
RTVSPost2010PropOp28
 70
     1
102
RTVSPost2010Prop29
280
     1
102
RTVSPost2010PropOp29
 70
     1
102
RTVSPost2010Prop30
280
     1
102
RTVSPost2010PropOp30
 70
     1
102
RTVSPost2010Prop31
280
     0
102
RTVSPost2010PropOp31
 70
     1
102
RTVSPost2010Prop32
280
     0
102
RTVSPost2010PropOp32
 70
     1
102
RTVSPost2010Prop33
280
     0
102
RTVSPost2010PropOp33
 70
     1
102
RTVSPost2010Prop34
280
     0
102
RTVSPost2010PropOp34
 70
     1
102
RTVSPost2010Prop35
280
     0
102
RTVSPost2010PropOp35
 70
     1
102
RTVSPost2010Prop36
280
     0
102
RTVSPost2010PropOp36
 70
     1
102
RTVSPost2010Prop37
 90
       50
102
RTVSPost2010PropOp37
 70
     1
102
RTVSPost2010Prop38
140
0.0
102
RTVSPost2010PropOp38
 70
     1
102
RTVSPost2010Prop39
140
1.0
102
RTVSPost2010PropOp39
 70
     1
102
RTVSPost2010Prop40
 90
        0
102
RTVSPost2010PropOp40
 70
     1
102
RTVSPost2010Prop41ColorIndex
 90
       18
102
RTVSPost2010Prop41ColorRGB
 90
        0
102
RTVSPost2010PropOp41
 70
     1
102
RTVSPost2010Prop42
 90
       50
102
RTVSPost2010PropOp42
 70
     1
102
RTVSPost2010Prop43
 90
        3
102
RTVSPost2010PropOp43
 70
     1
102
RTVSPost2010Prop44ColorIndex
 90
        5
102
RTVSPost2010Prop44ColorRGB
 90
      255
102
RTVSPost2010PropOp44
 70
     1
102
RTVSPost2010Prop45
280
     0
102
RTVSPost2010PropOp45
 70
     1
102
RTVSPost2010Prop46
 90
       50
102
RTVSPost2010PropOp46
 70
     1
102
RTVSPost2010Prop47
 90
       50
102
RTVSPost2010PropOp47
 70
     1
102
RTVSPost2010Prop48
 90
       50
102
RTVSPost2010PropOp48
 70
     1
102
RTVSPost2010Prop49
280
     0
102
RTVSPost2010PropOp49
 70
     1
102
RTVSPost2010Prop50
 90
       50
102
RTVSPost2010PropOp50
 70
     1
102
RTVSPost2010Prop51ColorIndex
 90
      256
102
RTVSPost2010Prop51ColorRGB
 90
-16777216
102
RTVSPost2010PropOp51
 70
     0
102
RTVSPost2010Prop52
140
1.0
102
RTVSPost2010PropOp52
 70
     0
102
RTVSPost2010Prop53
 90
        2
102
RTVSPost2010PropOp53
 70
     1
102
RTVSPost2010Prop54
  1
strokes_ogs.tif
102
RTVSPost2010PropOp54
 70
     1
102
RTVSPost2010Prop55
280
     0
102
RTVSPost2010PropOp55
 70
     1
102
RTVSPost2010Prop56
140
1.0
102
RTVSPost2010PropOp56
 70
     1
102
RTVSPost2010Prop57
140
1.0
102
RTVSPost2010PropOp57
 70
     1
102
RTVSPropertyOp0
 70
     1
102
RTVSPropertyOp1
 70
     1
102
RTVSPropertyOp2
 70
     1
102
RTVSPropertyOp3
 70
     1
102
RTVSPropertyOp4
 70
     1
102
RTVSPropertyOp5
 70
     1
102
RTVSPropertyOp6
 70
     1
102
RTVSPropertyOp7
 70
     1
102
RTVSPropertyOp8
 70
     1
102
RTVSPropertyOp9
 70
     1
102
RTVSPropertyOp10
 70
     1
102
RTVSPropertyOp11
 70
     1
102
RTVSPropertyOp12
 70
     1
102
RTVSPropertyOp13
 70
     1
102
RTVSPropertyOp14
 70
     1
102
RTVSPropertyOp15
 70
     1
102
RTVSPropertyOp16
 70
     1
102
RTVSPropertyOp17
 70
     1
102
RTVSPropertyOp18
 70
     1
102
RTVSPropertyOp19
 70
     1
102
RTVSPropertyOp20
 70
     1
102
RTVSPropertyOp21
 70
     1
102
RTVSPropertyOp22
 70
     1
102
RTVSPropertyOp23
 70
     1
102
RTVSPropertyOp24
 70
     1
102
RTVSPropertyOp25
 70
     1
102
RTVSPropertyOp26
 70
     1
102
RTVSPropertyOp27
 70
     1
102
RTVSPropertyOp28
 70
     1
102
RTVSPropertyOp29
 70
     1
102
RTVSPropertyOp30
 70
     1
102
RTVSPropertyOp31
 70
     1
102
RTVSPropertyOp32
 70
     1
102
RTVSPropertyOp33
 70
     1
102
RTVSPropertyOp34
 70
     1
102
RTVSPropertyOp35
 70
     1
102
RTVSPropertyOp36
 70
     1
102
RTVSPropertyOp37
 70
     1
102
RTVSPropertyOp38
 70
     1
102
RTVSPropertyOp39
 70
     1
102
RTVSPropertyOp40
 70
     1
102
RTVSPropertyOp41
 70
     1
102
RTVSPropertyOp42
 70
     1
102
RTVSPropertyOp43
 70
     1
102
RTVSPropertyOp44
 70
     1
102
RTVSPropertyOp45
 70
     1
102
RTVSPropertyOp46
 70
     1
102
RTVSPropertyOp47
 70
     1
102
RTVSPropertyOp48
 70
     1
102
RTVSPropertyOp49
 70
     1
102
RTVSPropertyOp50
 70
     1
102
RTVSPropertyOp51
 70
     0
102
RTVSPropertyOp52
 70
     0
102
RTVSPropertyOp53
 70
     1
102
RTVSPropertyOp54
 70
     1
102
RTVSPropertyOp55
 70
     1
102
RTVSPropertyOp56
 70
     1
102
RTVSPropertyOp57
 70
     1
102
RTVSPropertyOp58
 70
     1
102
RTVSPropertyOp59
 70
     1
102
RTVSPropertyOp60
 70
     1
102
RTVSPropertyOp61
 70
     1
102
RTVSPropertyOp62
 70
     1
  0
XRECORD
  5
515
102
{ACAD_REACTORS
330
514
102
}
330
514
100
AcDbXrecord
280
     1
102
RTVSPost2010Prop28
280
     0
102
RTVSPost2010PropOp28
 70
     1
102
RTVSPost2010Prop29
280
     1
102
RTVSPost2010PropOp29
 70
     1
102
RTVSPost2010Prop30
280
     1
102
RTVSPost2010PropOp30
 70
     1
102
RTVSPost2010Prop31
280
     0
102
RTVSPost2010PropOp31
 70
     1
102
RTVSPost2010Prop32
280
     0
102
RTVSPost2010PropOp32
 70
     1
102
RTVSPost2010Prop33
280
     0
102
RTVSPost2010PropOp33
 70
     1
102
RTVSPost2010Prop34
280
     0
102
RTVSPost2010PropOp34
 70
     1
102
RTVSPost2010Prop35
280
     0
102
RTVSPost2010PropOp35
 70
     1
102
RTVSPost2010Prop36
280
     0
102
RTVSPost2010PropOp36
 70
     1
102
RTVSPost2010Prop37
 90
       50
102
RTVSPost2010PropOp37
 70
     1
102
RTVSPost2010Prop38
140
0.0
102
RTVSPost2010PropOp38
 70
     1
102
RTVSPost2010Prop39
140
1.0
102
RTVSPost2010PropOp39
 70
     1
102
RTVSPost2010Prop40
 90
        0
102
RTVSPost2010PropOp40
 70
     1
102
RTVSPost2010Prop41ColorIndex
 90
       18
102
RTVSPost2010Prop41ColorRGB
 90
        0
102
RTVSPost2010PropOp41
 70
     1
102
RTVSPost2010Prop42
 90
       50
102
RTVSPost2010PropOp42
 70
     1
102
RTVSPost2010Prop43
 90
        3
102
RTVSPost2010PropOp43
 70
     1
102
RTVSPost2010Prop44ColorIndex
 90
        5
102
RTVSPost2010Prop44ColorRGB
 90
      255
102
RTVSPost2010PropOp44
 70
     1
102
RTVSPost2010Prop45
280
     0
102
RTVSPost2010PropOp45
 70
     1
102
RTVSPost2010Prop46
 90
       50
102
RTVSPost2010PropOp46
 70
     1
102
RTVSPost2010Prop47
 90
       50
102
RTVSPost2010PropOp47
 70
     1
102
RTVSPost2010Prop48
 90
       50
102
RTVSPost2010PropOp48
 70
     1
102
RTVSPost2010Prop49
280
     0
102
RTVSPost2010PropOp49
 70
     1
102
RTVSPost2010Prop50
 90
       50
102
RTVSPost2010PropOp50
 70
     1
102
RTVSPost2010Prop51ColorIndex
 90
      256
102
RTVSPost2010Prop51ColorRGB
 90
-16777216
102
RTVSPost2010PropOp51
 70
     0
102
RTVSPost2010Prop52
140
1.0
102
RTVSPost2010PropOp52
 70
     0
102
RTVSPost2010Prop53
 90
        2
102
RTVSPost2010PropOp53
 70
     1
102
RTVSPost2010Prop54
  1
strokes_ogs.tif
102
RTVSPost2010PropOp54
 70
     1
102
RTVSPost2010Prop55
280
     0
102
RTVSPost2010PropOp55
 70
     1
102
RTVSPost2010Prop56
140
1.0
102
RTVSPost2010PropOp56
 70
     1
102
RTVSPost2010Prop57
140
1.0
102
RTVSPost2010PropOp57
 70
     1
102
RTVSPropertyOp0
 70
     1
102
RTVSPropertyOp1
 70
     1
102
RTVSPropertyOp2
 70
     1
102
RTVSPropertyOp3
 70
     1
102
RTVSPropertyOp4
 70
     1
102
RTVSPropertyOp5
 70
     1
102
RTVSPropertyOp6
 70
     1
102
RTVSPropertyOp7
 70
     1
102
RTVSPropertyOp8
 70
     1
102
RTVSPropertyOp9
 70
     1
102
RTVSPropertyOp10
 70
     1
102
RTVSPropertyOp11
 70
     1
102
RTVSPropertyOp12
 70
     1
102
RTVSPropertyOp13
 70
     1
102
RTVSPropertyOp14
 70
     1
102
RTVSPropertyOp15
 70
     1
102
RTVSPropertyOp16
 70
     1
102
RTVSPropertyOp17
 70
     1
102
RTVSPropertyOp18
 70
     1
102
RTVSPropertyOp19
 70
     1
102
RTVSPropertyOp20
 70
     1
102
RTVSPropertyOp21
 70
     1
102
RTVSPropertyOp22
 70
     1
102
RTVSPropertyOp23
 70
     1
102
RTVSPropertyOp24
 70
     1
102
RTVSPropertyOp25
 70
     1
102
RTVSPropertyOp26
 70
     1
102
RTVSPropertyOp27
 70
     1
102
RTVSPropertyOp28
 70
     1
102
RTVSPropertyOp29
 70
     1
102
RTVSPropertyOp30
 70
     1
102
RTVSPropertyOp31
 70
     1
102
RTVSPropertyOp32
 70
     1
102
RTVSPropertyOp33
 70
     1
102
RTVSPropertyOp34
 70
     1
102
RTVSPropertyOp35
 70
     1
102
RTVSPropertyOp36
 70
     1
102
RTVSPropertyOp37
 70
     1
102
RTVSPropertyOp38
 70
     1
102
RTVSPropertyOp39
 70
     1
102
RTVSPropertyOp40
 70
     1
102
RTVSPropertyOp41
 70
     1
102
RTVSPropertyOp42
 70
     1
102
RTVSPropertyOp43
 70
     1
102
RTVSPropertyOp44
 70
     1
102
RTVSPropertyOp45
 70
     1
102
RTVSPropertyOp46
 70
     1
102
RTVSPropertyOp47
 70
     1
102
RTVSPropertyOp48
 70
     1
102
RTVSPropertyOp49
 70
     1
102
RTVSPropertyOp50
 70
     1
102
RTVSPropertyOp51
 70
     0
102
RTVSPropertyOp52
 70
     0
102
RTVSPropertyOp53
 70
     1
102
RTVSPropertyOp54
 70
     1
102
RTVSPropertyOp55
 70
     1
102
RTVSPropertyOp56
 70
     1
102
RTVSPropertyOp57
 70
     1
102
RTVSPropertyOp58
 70
     1
102
RTVSPropertyOp59
 70
     1
102
RTVSPropertyOp60
 70
     1
102
RTVSPropertyOp61
 70
     1
102
RTVSPropertyOp62
 70
     1
  0
XRECORD
  5
52F
102
{ACAD_REACTORS
330
52E
102
}
330
52E
100
AcDbXrecord
280
     1
102
RTVSPost2010Prop28
280
     0
102
RTVSPost2010PropOp28
 70
     0
102
RTVSPost2010Prop29
280
     1
102
RTVSPost2010PropOp29
 70
     0
102
RTVSPost2010Prop30
280
     1
102
RTVSPost2010PropOp30
 70
     0
102
RTVSPost2010Prop31
280
     0
102
RTVSPost2010PropOp31
 70
     0
102
RTVSPost2010Prop32
280
     0
102
RTVSPost2010PropOp32
 70
     0
102
RTVSPost2010Prop33
280
     0
102
RTVSPost2010PropOp33
 70
     0
102
RTVSPost2010Prop34
280
     0
102
RTVSPost2010PropOp34
 70
     0
102
RTVSPost2010Prop35
280
     0
102
RTVSPost2010PropOp35
 70
     0
102
RTVSPost2010Prop36
280
     0
102
RTVSPost2010PropOp36
 70
     0
102
RTVSPost2010Prop37
 90
       50
102
RTVSPost2010PropOp37
 70
     0
102
RTVSPost2010Prop38
140
0.0
102
RTVSPost2010PropOp38
 70
     0
102
RTVSPost2010Prop39
140
1.0
102
RTVSPost2010PropOp39
 70
     0
102
RTVSPost2010Prop40
 90
        0
102
RTVSPost2010PropOp40
 70
     0
102
RTVSPost2010Prop41ColorIndex
 90
       18
102
RTVSPost2010Prop41ColorRGB
 90
        0
102
RTVSPost2010PropOp41
 70
     0
102
RTVSPost2010Prop42
 90
       50
102
RTVSPost2010PropOp42
 70
     0
102
RTVSPost2010Prop43
 90
        3
102
RTVSPost2010PropOp43
 70
     0
102
RTVSPost2010Prop44ColorIndex
 90
        5
102
RTVSPost2010Prop44ColorRGB
 90
      255
102
RTVSPost2010PropOp44
 70
     0
102
RTVSPost2010Prop45
280
     0
102
RTVSPost2010PropOp45
 70
     0
102
RTVSPost2010Prop46
 90
       50
102
RTVSPost2010PropOp46
 70
     0
102
RTVSPost2010Prop47
 90
       50
102
RTVSPost2010PropOp47
 70
     0
102
RTVSPost2010Prop48
 90
       50
102
RTVSPost2010PropOp48
 70
     0
102
RTVSPost2010Prop49
280
     0
102
RTVSPost2010PropOp49
 70
     0
102
RTVSPost2010Prop50
 90
       50
102
RTVSPost2010PropOp50
 70
     0
102
RTVSPost2010Prop51ColorIndex
 90
      256
102
RTVSPost2010Prop51ColorRGB
 90
-16777216
102
RTVSPost2010PropOp51
 70
     0
102
RTVSPost2010Prop52
140
1.0
102
RTVSPost2010PropOp52
 70
     0
102
RTVSPost2010Prop53
 90
        2
102
RTVSPost2010PropOp53
 70
     0
102
RTVSPost2010Prop54
  1
strokes_ogs.tif
102
RTVSPost2010PropOp54
 70
     0
102
RTVSPost2010Prop55
280
     0
102
RTVSPost2010PropOp55
 70
     0
102
RTVSPost2010Prop56
140
1.0
102
RTVSPost2010PropOp56
 70
     0
102
RTVSPost2010Prop57
140
1.0
102
RTVSPost2010PropOp57
 70
     0
102
RTVSPropertyOp0
 70
     0
102
RTVSPropertyOp1
 70
     0
102
RTVSPropertyOp2
 70
     0
102
RTVSPropertyOp3
 70
     0
102
RTVSPropertyOp4
 70
     0
102
RTVSPropertyOp5
 70
     0
102
RTVSPropertyOp6
 70
     0
102
RTVSPropertyOp7
 70
     0
102
RTVSPropertyOp8
 70
     0
102
RTVSPropertyOp9
 70
     0
102
RTVSPropertyOp10
 70
     0
102
RTVSPropertyOp11
 70
     0
102
RTVSPropertyOp12
 70
     0
102
RTVSPropertyOp13
 70
     0
102
RTVSPropertyOp14
 70
     2
102
RTVSPropertyOp15
 70
     0
102
RTVSPropertyOp16
 70
     0
102
RTVSPropertyOp17
 70
     0
102
RTVSPropertyOp18
 70
     0
102
RTVSPropertyOp19
 70
     0
102
RTVSPropertyOp20
 70
     0
102
RTVSPropertyOp21
 70
     0
102
RTVSPropertyOp22
 70
     0
102
RTVSPropertyOp23
 70
     0
102
RTVSPropertyOp24
 70
     0
102
RTVSPropertyOp25
 70
     0
102
RTVSPropertyOp26
 70
     0
102
RTVSPropertyOp27
 70
     0
102
RTVSPropertyOp28
 70
     0
102
RTVSPropertyOp29
 70
     0
102
RTVSPropertyOp30
 70
     0
102
RTVSPropertyOp31
 70
     0
102
RTVSPropertyOp32
 70
     0
102
RTVSPropertyOp33
 70
     0
102
RTVSPropertyOp34
 70
     0
102
RTVSPropertyOp35
 70
     0
102
RTVSPropertyOp36
 70
     0
102
RTVSPropertyOp37
 70
     0
102
RTVSPropertyOp38
 70
     0
102
RTVSPropertyOp39
 70
     0
102
RTVSPropertyOp40
 70
     0
102
RTVSPropertyOp41
 70
     0
102
RTVSPropertyOp42
 70
     0
102
RTVSPropertyOp43
 70
     0
102
RTVSPropertyOp44
 70
     0
102
RTVSPropertyOp45
 70
     0
102
RTVSPropertyOp46
 70
     0
102
RTVSPropertyOp47
 70
     0
102
RTVSPropertyOp48
 70
     0
102
RTVSPropertyOp49
 70
     0
102
RTVSPropertyOp50
 70
     0
102
RTVSPropertyOp51
 70
     0
102
RTVSPropertyOp52
 70
     0
102
RTVSPropertyOp53
 70
     0
102
RTVSPropertyOp54
 70
     0
102
RTVSPropertyOp55
 70
     0
102
RTVSPropertyOp56
 70
     0
102
RTVSPropertyOp57
 70
     0
102
RTVSPropertyOp58
 70
     0
102
RTVSPropertyOp59
 70
     0
102
RTVSPropertyOp60
 70
     0
102
RTVSPropertyOp61
 70
     0
102
RTVSPropertyOp62
 70
     0
  0
XRECORD
  5
51D
102
{ACAD_REACTORS
330
51C
102
}
330
51C
100
AcDbXrecord
280
     1
102
RTVSPost2010Prop28
280
     0
102
RTVSPost2010PropOp28
 70
     1
102
RTVSPost2010Prop29
280
     1
102
RTVSPost2010PropOp29
 70
     1
102
RTVSPost2010Prop30
280
     1
102
RTVSPost2010PropOp30
 70
     1
102
RTVSPost2010Prop31
280
     0
102
RTVSPost2010PropOp31
 70
     1
102
RTVSPost2010Prop32
280
     0
102
RTVSPost2010PropOp32
 70
     1
102
RTVSPost2010Prop33
280
     0
102
RTVSPost2010PropOp33
 70
     1
102
RTVSPost2010Prop34
280
     0
102
RTVSPost2010PropOp34
 70
     1
102
RTVSPost2010Prop35
280
     0
102
RTVSPost2010PropOp35
 70
     1
102
RTVSPost2010Prop36
280
     0
102
RTVSPost2010PropOp36
 70
     1
102
RTVSPost2010Prop37
 90
       50
102
RTVSPost2010PropOp37
 70
     1
102
RTVSPost2010Prop38
140
0.0
102
RTVSPost2010PropOp38
 70
     1
102
RTVSPost2010Prop39
140
1.0
102
RTVSPost2010PropOp39
 70
     1
102
RTVSPost2010Prop40
 90
        0
102
RTVSPost2010PropOp40
 70
     1
102
RTVSPost2010Prop41ColorIndex
 90
       18
102
RTVSPost2010Prop41ColorRGB
 90
        0
102
RTVSPost2010PropOp41
 70
     1
102
RTVSPost2010Prop42
 90
       50
102
RTVSPost2010PropOp42
 70
     1
102
RTVSPost2010Prop43
 90
        3
102
RTVSPost2010PropOp43
 70
     1
102
RTVSPost2010Prop44ColorIndex
 90
        5
102
RTVSPost2010Prop44ColorRGB
 90
      255
102
RTVSPost2010PropOp44
 70
     1
102
RTVSPost2010Prop45
280
     0
102
RTVSPost2010PropOp45
 70
     1
102
RTVSPost2010Prop46
 90
       50
102
RTVSPost2010PropOp46
 70
     1
102
RTVSPost2010Prop47
 90
       50
102
RTVSPost2010PropOp47
 70
     1
102
RTVSPost2010Prop48
 90
       50
102
RTVSPost2010PropOp48
 70
     1
102
RTVSPost2010Prop49
280
     0
102
RTVSPost2010PropOp49
 70
     1
102
RTVSPost2010Prop50
 90
       50
102
RTVSPost2010PropOp50
 70
     1
102
RTVSPost2010Prop51ColorIndex
 90
      256
102
RTVSPost2010Prop51ColorRGB
 90
-16777216
102
RTVSPost2010PropOp51
 70
     0
102
RTVSPost2010Prop52
140
1.0
102
RTVSPost2010PropOp52
 70
     0
102
RTVSPost2010Prop53
 90
        2
102
RTVSPost2010PropOp53
 70
     1
102
RTVSPost2010Prop54
  1
strokes_ogs.tif
102
RTVSPost2010PropOp54
 70
     1
102
RTVSPost2010Prop55
280
     0
102
RTVSPost2010PropOp55
 70
     1
102
RTVSPost2010Prop56
140
1.0
102
RTVSPost2010PropOp56
 70
     1
102
RTVSPost2010Prop57
140
1.0
102
RTVSPost2010PropOp57
 70
     1
102
RTVSPropertyOp0
 70
     1
102
RTVSPropertyOp1
 70
     1
102
RTVSPropertyOp2
 70
     1
102
RTVSPropertyOp3
 70
     1
102
RTVSPropertyOp4
 70
     1
102
RTVSPropertyOp5
 70
     1
102
RTVSPropertyOp6
 70
     1
102
RTVSPropertyOp7
 70
     1
102
RTVSPropertyOp8
 70
     1
102
RTVSPropertyOp9
 70
     1
102
RTVSPropertyOp10
 70
     1
102
RTVSPropertyOp11
 70
     1
102
RTVSPropertyOp12
 70
     1
102
RTVSPropertyOp13
 70
     1
102
RTVSPropertyOp14
 70
     1
102
RTVSPropertyOp15
 70
     1
102
RTVSPropertyOp16
 70
     1
102
RTVSPropertyOp17
 70
     1
102
RTVSPropertyOp18
 70
     1
102
RTVSPropertyOp19
 70
     1
102
RTVSPropertyOp20
 70
     1
102
RTVSPropertyOp21
 70
     1
102
RTVSPropertyOp22
 70
     1
102
RTVSPropertyOp23
 70
     1
102
RTVSPropertyOp24
 70
     1
102
RTVSPropertyOp25
 70
     1
102
RTVSPropertyOp26
 70
     1
102
RTVSPropertyOp27
 70
     1
102
RTVSPropertyOp28
 70
     1
102
RTVSPropertyOp29
 70
     1
102
RTVSPropertyOp30
 70
     1
102
RTVSPropertyOp31
 70
     1
102
RTVSPropertyOp32
 70
     1
102
RTVSPropertyOp33
 70
     1
102
RTVSPropertyOp34
 70
     1
102
RTVSPropertyOp35
 70
     1
102
RTVSPropertyOp36
 70
     1
102
RTVSPropertyOp37
 70
     1
102
RTVSPropertyOp38
 70
     1
102
RTVSPropertyOp39
 70
     1
102
RTVSPropertyOp40
 70
     1
102
RTVSPropertyOp41
 70
     1
102
RTVSPropertyOp42
 70
     1
102
RTVSPropertyOp43
 70
     1
102
RTVSPropertyOp44
 70
     1
102
RTVSPropertyOp45
 70
     1
102
RTVSPropertyOp46
 70
     1
102
RTVSPropertyOp47
 70
     1
102
RTVSPropertyOp48
 70
     1
102
RTVSPropertyOp49
 70
     1
102
RTVSPropertyOp50
 70
     1
102
RTVSPropertyOp51
 70
     0
102
RTVSPropertyOp52
 70
     0
102
RTVSPropertyOp53
 70
     1
102
RTVSPropertyOp54
 70
     1
102
RTVSPropertyOp55
 70
     1
102
RTVSPropertyOp56
 70
     1
102
RTVSPropertyOp57
 70
     1
102
RTVSPropertyOp58
 70
     1
102
RTVSPropertyOp59
 70
     1
102
RTVSPropertyOp60
 70
     1
102
RTVSPropertyOp61
 70
     1
102
RTVSPropertyOp62
 70
     1
  0
XRECORD
  5
501
102
{ACAD_REACTORS
330
500
102
}
330
500
100
AcDbXrecord
280
     1
102
RTVSPost2010Prop28
280
     0
102
RTVSPost2010PropOp28
 70
     1
102
RTVSPost2010Prop29
280
     1
102
RTVSPost2010PropOp29
 70
     1
102
RTVSPost2010Prop30
280
     1
102
RTVSPost2010PropOp30
 70
     1
102
RTVSPost2010Prop31
280
     0
102
RTVSPost2010PropOp31
 70
     1
102
RTVSPost2010Prop32
280
     0
102
RTVSPost2010PropOp32
 70
     1
102
RTVSPost2010Prop33
280
     0
102
RTVSPost2010PropOp33
 70
     1
102
RTVSPost2010Prop34
280
     0
102
RTVSPost2010PropOp34
 70
     1
102
RTVSPost2010Prop35
280
     0
102
RTVSPost2010PropOp35
 70
     1
102
RTVSPost2010Prop36
280
     0
102
RTVSPost2010PropOp36
 70
     1
102
RTVSPost2010Prop37
 90
       50
102
RTVSPost2010PropOp37
 70
     1
102
RTVSPost2010Prop38
140
0.0
102
RTVSPost2010PropOp38
 70
     1
102
RTVSPost2010Prop39
140
1.0
102
RTVSPost2010PropOp39
 70
     1
102
RTVSPost2010Prop40
 90
        0
102
RTVSPost2010PropOp40
 70
     1
102
RTVSPost2010Prop41ColorIndex
 90
       18
102
RTVSPost2010Prop41ColorRGB
 90
        0
102
RTVSPost2010PropOp41
 70
     1
102
RTVSPost2010Prop42
 90
       50
102
RTVSPost2010PropOp42
 70
     1
102
RTVSPost2010Prop43
 90
        3
102
RTVSPost2010PropOp43
 70
     1
102
RTVSPost2010Prop44ColorIndex
 90
        5
102
RTVSPost2010Prop44ColorRGB
 90
      255
102
RTVSPost2010PropOp44
 70
     1
102
RTVSPost2010Prop45
280
     0
102
RTVSPost2010PropOp45
 70
     1
102
RTVSPost2010Prop46
 90
       50
102
RTVSPost2010PropOp46
 70
     1
102
RTVSPost2010Prop47
 90
       50
102
RTVSPost2010PropOp47
 70
     1
102
RTVSPost2010Prop48
 90
       50
102
RTVSPost2010PropOp48
 70
     1
102
RTVSPost2010Prop49
280
     0
102
RTVSPost2010PropOp49
 70
     1
102
RTVSPost2010Prop50
 90
       50
102
RTVSPost2010PropOp50
 70
     1
102
RTVSPost2010Prop51ColorIndex
 90
      256
102
RTVSPost2010Prop51ColorRGB
 90
-16777216
102
RTVSPost2010PropOp51
 70
     0
102
RTVSPost2010Prop52
140
1.0
102
RTVSPost2010PropOp52
 70
     0
102
RTVSPost2010Prop53
 90
        2
102
RTVSPost2010PropOp53
 70
     1
102
RTVSPost2010Prop54
  1
strokes_ogs.tif
102
RTVSPost2010PropOp54
 70
     1
102
RTVSPost2010Prop55
280
     0
102
RTVSPost2010PropOp55
 70
     1
102
RTVSPost2010Prop56
140
1.0
102
RTVSPost2010PropOp56
 70
     1
102
RTVSPost2010Prop57
140
1.0
102
RTVSPost2010PropOp57
 70
     1
102
RTVSPropertyOp0
 70
     1
102
RTVSPropertyOp1
 70
     1
102
RTVSPropertyOp2
 70
     1
102
RTVSPropertyOp3
 70
     1
102
RTVSPropertyOp4
 70
     1
102
RTVSPropertyOp5
 70
     1
102
RTVSPropertyOp6
 70
     1
102
RTVSPropertyOp7
 70
     1
102
RTVSPropertyOp8
 70
     1
102
RTVSPropertyOp9
 70
     1
102
RTVSPropertyOp10
 70
     1
102
RTVSPropertyOp11
 70
     1
102
RTVSPropertyOp12
 70
     1
102
RTVSPropertyOp13
 70
     1
102
RTVSPropertyOp14
 70
     1
102
RTVSPropertyOp15
 70
     1
102
RTVSPropertyOp16
 70
     1
102
RTVSPropertyOp17
 70
     1
102
RTVSPropertyOp18
 70
     1
102
RTVSPropertyOp19
 70
     1
102
RTVSPropertyOp20
 70
     1
102
RTVSPropertyOp21
 70
     1
102
RTVSPropertyOp22
 70
     1
102
RTVSPropertyOp23
 70
     1
102
RTVSPropertyOp24
 70
     1
102
RTVSPropertyOp25
 70
     1
102
RTVSPropertyOp26
 70
     1
102
RTVSPropertyOp27
 70
     1
102
RTVSPropertyOp28
 70
     1
102
RTVSPropertyOp29
 70
     1
102
RTVSPropertyOp30
 70
     1
102
RTVSPropertyOp31
 70
     1
102
RTVSPropertyOp32
 70
     1
102
RTVSPropertyOp33
 70
     1
102
RTVSPropertyOp34
 70
     1
102
RTVSPropertyOp35
 70
     1
102
RTVSPropertyOp36
 70
     1
102
RTVSPropertyOp37
 70
     1
102
RTVSPropertyOp38
 70
     1
102
RTVSPropertyOp39
 70
     1
102
RTVSPropertyOp40
 70
     1
102
RTVSPropertyOp41
 70
     1
102
RTVSPropertyOp42
 70
     1
102
RTVSPropertyOp43
 70
     1
102
RTVSPropertyOp44
 70
     1
102
RTVSPropertyOp45
 70
     1
102
RTVSPropertyOp46
 70
     1
102
RTVSPropertyOp47
 70
     1
102
RTVSPropertyOp48
 70
     1
102
RTVSPropertyOp49
 70
     1
102
RTVSPropertyOp50
 70
     1
102
RTVSPropertyOp51
 70
     0
102
RTVSPropertyOp52
 70
     0
102
RTVSPropertyOp53
 70
     1
102
RTVSPropertyOp54
 70
     1
102
RTVSPropertyOp55
 70
     1
102
RTVSPropertyOp56
 70
     1
102
RTVSPropertyOp57
 70
     1
102
RTVSPropertyOp58
 70
     1
102
RTVSPropertyOp59
 70
     1
102
RTVSPropertyOp60
 70
     1
102
RTVSPropertyOp61
 70
     1
102
RTVSPropertyOp62
 70
     1
  0
XRECORD
  5
503
102
{ACAD_REACTORS
330
502
102
}
330
502
100
AcDbXrecord
280
     1
102
RTVSPost2010Prop28
280
     0
102
RTVSPost2010PropOp28
 70
     1
102
RTVSPost2010Prop29
280
     1
102
RTVSPost2010PropOp29
 70
     1
102
RTVSPost2010Prop30
280
     1
102
RTVSPost2010PropOp30
 70
     1
102
RTVSPost2010Prop31
280
     0
102
RTVSPost2010PropOp31
 70
     1
102
RTVSPost2010Prop32
280
     0
102
RTVSPost2010PropOp32
 70
     1
102
RTVSPost2010Prop33
280
     0
102
RTVSPost2010PropOp33
 70
     1
102
RTVSPost2010Prop34
280
     0
102
RTVSPost2010PropOp34
 70
     1
102
RTVSPost2010Prop35
280
     0
102
RTVSPost2010PropOp35
 70
     1
102
RTVSPost2010Prop36
280
     0
102
RTVSPost2010PropOp36
 70
     1
102
RTVSPost2010Prop37
 90
       50
102
RTVSPost2010PropOp37
 70
     1
102
RTVSPost2010Prop38
140
0.0
102
RTVSPost2010PropOp38
 70
     1
102
RTVSPost2010Prop39
140
1.0
102
RTVSPost2010PropOp39
 70
     1
102
RTVSPost2010Prop40
 90
        0
102
RTVSPost2010PropOp40
 70
     1
102
RTVSPost2010Prop41ColorIndex
 90
       18
102
RTVSPost2010Prop41ColorRGB
 90
        0
102
RTVSPost2010PropOp41
 70
     1
102
RTVSPost2010Prop42
 90
       50
102
RTVSPost2010PropOp42
 70
     1
102
RTVSPost2010Prop43
 90
        3
102
RTVSPost2010PropOp43
 70
     1
102
RTVSPost2010Prop44ColorIndex
 90
        5
102
RTVSPost2010Prop44ColorRGB
 90
      255
102
RTVSPost2010PropOp44
 70
     1
102
RTVSPost2010Prop45
280
     0
102
RTVSPost2010PropOp45
 70
     1
102
RTVSPost2010Prop46
 90
       50
102
RTVSPost2010PropOp46
 70
     1
102
RTVSPost2010Prop47
 90
       50
102
RTVSPost2010PropOp47
 70
     1
102
RTVSPost2010Prop48
 90
       50
102
RTVSPost2010PropOp48
 70
     1
102
RTVSPost2010Prop49
280
     0
102
RTVSPost2010PropOp49
 70
     1
102
RTVSPost2010Prop50
 90
       50
102
RTVSPost2010PropOp50
 70
     1
102
RTVSPost2010Prop51ColorIndex
 90
      256
102
RTVSPost2010Prop51ColorRGB
 90
-16777216
102
RTVSPost2010PropOp51
 70
     0
102
RTVSPost2010Prop52
140
1.0
102
RTVSPost2010PropOp52
 70
     0
102
RTVSPost2010Prop53
 90
        2
102
RTVSPost2010PropOp53
 70
     1
102
RTVSPost2010Prop54
  1
strokes_ogs.tif
102
RTVSPost2010PropOp54
 70
     1
102
RTVSPost2010Prop55
280
     0
102
RTVSPost2010PropOp55
 70
     1
102
RTVSPost2010Prop56
140
1.0
102
RTVSPost2010PropOp56
 70
     1
102
RTVSPost2010Prop57
140
1.0
102
RTVSPost2010PropOp57
 70
     1
102
RTVSPropertyOp0
 70
     1
102
RTVSPropertyOp1
 70
     1
102
RTVSPropertyOp2
 70
     1
102
RTVSPropertyOp3
 70
     1
102
RTVSPropertyOp4
 70
     1
102
RTVSPropertyOp5
 70
     1
102
RTVSPropertyOp6
 70
     1
102
RTVSPropertyOp7
 70
     1
102
RTVSPropertyOp8
 70
     1
102
RTVSPropertyOp9
 70
     1
102
RTVSPropertyOp10
 70
     1
102
RTVSPropertyOp11
 70
     1
102
RTVSPropertyOp12
 70
     1
102
RTVSPropertyOp13
 70
     1
102
RTVSPropertyOp14
 70
     1
102
RTVSPropertyOp15
 70
     1
102
RTVSPropertyOp16
 70
     1
102
RTVSPropertyOp17
 70
     1
102
RTVSPropertyOp18
 70
     1
102
RTVSPropertyOp19
 70
     1
102
RTVSPropertyOp20
 70
     1
102
RTVSPropertyOp21
 70
     1
102
RTVSPropertyOp22
 70
     1
102
RTVSPropertyOp23
 70
     1
102
RTVSPropertyOp24
 70
     1
102
RTVSPropertyOp25
 70
     1
102
RTVSPropertyOp26
 70
     1
102
RTVSPropertyOp27
 70
     1
102
RTVSPropertyOp28
 70
     1
102
RTVSPropertyOp29
 70
     1
102
RTVSPropertyOp30
 70
     1
102
RTVSPropertyOp31
 70
     1
102
RTVSPropertyOp32
 70
     1
102
RTVSPropertyOp33
 70
     1
102
RTVSPropertyOp34
 70
     1
102
RTVSPropertyOp35
 70
     1
102
RTVSPropertyOp36
 70
     1
102
RTVSPropertyOp37
 70
     1
102
RTVSPropertyOp38
 70
     1
102
RTVSPropertyOp39
 70
     1
102
RTVSPropertyOp40
 70
     1
102
RTVSPropertyOp41
 70
     1
102
RTVSPropertyOp42
 70
     1
102
RTVSPropertyOp43
 70
     1
102
RTVSPropertyOp44
 70
     1
102
RTVSPropertyOp45
 70
     1
102
RTVSPropertyOp46
 70
     1
102
RTVSPropertyOp47
 70
     1
102
RTVSPropertyOp48
 70
     1
102
RTVSPropertyOp49
 70
     1
102
RTVSPropertyOp50
 70
     1
102
RTVSPropertyOp51
 70
     0
102
RTVSPropertyOp52
 70
     0
102
RTVSPropertyOp53
 70
     1
102
RTVSPropertyOp54
 70
     1
102
RTVSPropertyOp55
 70
     1
102
RTVSPropertyOp56
 70
     1
102
RTVSPropertyOp57
 70
     1
102
RTVSPropertyOp58
 70
     1
102
RTVSPropertyOp59
 70
     1
102
RTVSPropertyOp60
 70
     1
102
RTVSPropertyOp61
 70
     1
102
RTVSPropertyOp62
 70
     1
  0
XRECORD
  5
505
102
{ACAD_REACTORS
330
504
102
}
330
504
100
AcDbXrecord
280
     1
102
RTVSPost2010Prop28
280
     0
102
RTVSPost2010PropOp28
 70
     1
102
RTVSPost2010Prop29
280
     1
102
RTVSPost2010PropOp29
 70
     1
102
RTVSPost2010Prop30
280
     1
102
RTVSPost2010PropOp30
 70
     1
102
RTVSPost2010Prop31
280
     0
102
RTVSPost2010PropOp31
 70
     1
102
RTVSPost2010Prop32
280
     0
102
RTVSPost2010PropOp32
 70
     1
102
RTVSPost2010Prop33
280
     0
102
RTVSPost2010PropOp33
 70
     1
102
RTVSPost2010Prop34
280
     0
102
RTVSPost2010PropOp34
 70
     1
102
RTVSPost2010Prop35
280
     0
102
RTVSPost2010PropOp35
 70
     1
102
RTVSPost2010Prop36
280
     0
102
RTVSPost2010PropOp36
 70
     1
102
RTVSPost2010Prop37
 90
       50
102
RTVSPost2010PropOp37
 70
     1
102
RTVSPost2010Prop38
140
0.0
102
RTVSPost2010PropOp38
 70
     1
102
RTVSPost2010Prop39
140
1.0
102
RTVSPost2010PropOp39
 70
     1
102
RTVSPost2010Prop40
 90
        0
102
RTVSPost2010PropOp40
 70
     1
102
RTVSPost2010Prop41ColorIndex
 90
       18
102
RTVSPost2010Prop41ColorRGB
 90
        0
102
RTVSPost2010PropOp41
 70
     1
102
RTVSPost2010Prop42
 90
       50
102
RTVSPost2010PropOp42
 70
     1
102
RTVSPost2010Prop43
 90
        3
102
RTVSPost2010PropOp43
 70
     1
102
RTVSPost2010Prop44ColorIndex
 90
        5
102
RTVSPost2010Prop44ColorRGB
 90
      255
102
RTVSPost2010PropOp44
 70
     1
102
RTVSPost2010Prop45
280
     0
102
RTVSPost2010PropOp45
 70
     1
102
RTVSPost2010Prop46
 90
       50
102
RTVSPost2010PropOp46
 70
     1
102
RTVSPost2010Prop47
 90
       50
102
RTVSPost2010PropOp47
 70
     1
102
RTVSPost2010Prop48
 90
       50
102
RTVSPost2010PropOp48
 70
     1
102
RTVSPost2010Prop49
280
     0
102
RTVSPost2010PropOp49
 70
     1
102
RTVSPost2010Prop50
 90
       50
102
RTVSPost2010PropOp50
 70
     1
102
RTVSPost2010Prop51ColorIndex
 90
      256
102
RTVSPost2010Prop51ColorRGB
 90
-16777216
102
RTVSPost2010PropOp51
 70
     0
102
RTVSPost2010Prop52
140
1.0
102
RTVSPost2010PropOp52
 70
     0
102
RTVSPost2010Prop53
 90
        2
102
RTVSPost2010PropOp53
 70
     1
102
RTVSPost2010Prop54
  1
strokes_ogs.tif
102
RTVSPost2010PropOp54
 70
     1
102
RTVSPost2010Prop55
280
     0
102
RTVSPost2010PropOp55
 70
     1
102
RTVSPost2010Prop56
140
1.0
102
RTVSPost2010PropOp56
 70
     1
102
RTVSPost2010Prop57
140
1.0
102
RTVSPost2010PropOp57
 70
     1
102
RTVSPropertyOp0
 70
     1
102
RTVSPropertyOp1
 70
     1
102
RTVSPropertyOp2
 70
     1
102
RTVSPropertyOp3
 70
     1
102
RTVSPropertyOp4
 70
     1
102
RTVSPropertyOp5
 70
     1
102
RTVSPropertyOp6
 70
     1
102
RTVSPropertyOp7
 70
     1
102
RTVSPropertyOp8
 70
     1
102
RTVSPropertyOp9
 70
     1
102
RTVSPropertyOp10
 70
     1
102
RTVSPropertyOp11
 70
     1
102
RTVSPropertyOp12
 70
     1
102
RTVSPropertyOp13
 70
     1
102
RTVSPropertyOp14
 70
     1
102
RTVSPropertyOp15
 70
     1
102
RTVSPropertyOp16
 70
     1
102
RTVSPropertyOp17
 70
     1
102
RTVSPropertyOp18
 70
     1
102
RTVSPropertyOp19
 70
     1
102
RTVSPropertyOp20
 70
     1
102
RTVSPropertyOp21
 70
     1
102
RTVSPropertyOp22
 70
     1
102
RTVSPropertyOp23
 70
     1
102
RTVSPropertyOp24
 70
     1
102
RTVSPropertyOp25
 70
     1
102
RTVSPropertyOp26
 70
     1
102
RTVSPropertyOp27
 70
     1
102
RTVSPropertyOp28
 70
     1
102
RTVSPropertyOp29
 70
     1
102
RTVSPropertyOp30
 70
     1
102
RTVSPropertyOp31
 70
     1
102
RTVSPropertyOp32
 70
     1
102
RTVSPropertyOp33
 70
     1
102
RTVSPropertyOp34
 70
     1
102
RTVSPropertyOp35
 70
     1
102
RTVSPropertyOp36
 70
     1
102
RTVSPropertyOp37
 70
     1
102
RTVSPropertyOp38
 70
     1
102
RTVSPropertyOp39
 70
     1
102
RTVSPropertyOp40
 70
     1
102
RTVSPropertyOp41
 70
     1
102
RTVSPropertyOp42
 70
     1
102
RTVSPropertyOp43
 70
     1
102
RTVSPropertyOp44
 70
     1
102
RTVSPropertyOp45
 70
     1
102
RTVSPropertyOp46
 70
     1
102
RTVSPropertyOp47
 70
     1
102
RTVSPropertyOp48
 70
     1
102
RTVSPropertyOp49
 70
     1
102
RTVSPropertyOp50
 70
     1
102
RTVSPropertyOp51
 70
     0
102
RTVSPropertyOp52
 70
     0
102
RTVSPropertyOp53
 70
     1
102
RTVSPropertyOp54
 70
     1
102
RTVSPropertyOp55
 70
     1
102
RTVSPropertyOp56
 70
     1
102
RTVSPropertyOp57
 70
     1
102
RTVSPropertyOp58
 70
     1
102
RTVSPropertyOp59
 70
     1
102
RTVSPropertyOp60
 70
     1
102
RTVSPropertyOp61
 70
     1
102
RTVSPropertyOp62
 70
     1
  0
XRECORD
  5
507
102
{ACAD_REACTORS
330
506
102
}
330
506
100
AcDbXrecord
280
     1
102
RTVSPost2010Prop28
280
     0
102
RTVSPost2010PropOp28
 70
     1
102
RTVSPost2010Prop29
280
     1
102
RTVSPost2010PropOp29
 70
     1
102
RTVSPost2010Prop30
280
     1
102
RTVSPost2010PropOp30
 70
     1
102
RTVSPost2010Prop31
280
     0
102
RTVSPost2010PropOp31
 70
     1
102
RTVSPost2010Prop32
280
     0
102
RTVSPost2010PropOp32
 70
     1
102
RTVSPost2010Prop33
280
     0
102
RTVSPost2010PropOp33
 70
     1
102
RTVSPost2010Prop34
280
     0
102
RTVSPost2010PropOp34
 70
     1
102
RTVSPost2010Prop35
280
     0
102
RTVSPost2010PropOp35
 70
     1
102
RTVSPost2010Prop36
280
     0
102
RTVSPost2010PropOp36
 70
     1
102
RTVSPost2010Prop37
 90
       50
102
RTVSPost2010PropOp37
 70
     1
102
RTVSPost2010Prop38
140
0.0
102
RTVSPost2010PropOp38
 70
     1
102
RTVSPost2010Prop39
140
1.0
102
RTVSPost2010PropOp39
 70
     1
102
RTVSPost2010Prop40
 90
        0
102
RTVSPost2010PropOp40
 70
     1
102
RTVSPost2010Prop41ColorIndex
 90
       18
102
RTVSPost2010Prop41ColorRGB
 90
        0
102
RTVSPost2010PropOp41
 70
     1
102
RTVSPost2010Prop42
 90
       50
102
RTVSPost2010PropOp42
 70
     1
102
RTVSPost2010Prop43
 90
        3
102
RTVSPost2010PropOp43
 70
     1
102
RTVSPost2010Prop44ColorIndex
 90
        5
102
RTVSPost2010Prop44ColorRGB
 90
      255
102
RTVSPost2010PropOp44
 70
     1
102
RTVSPost2010Prop45
280
     0
102
RTVSPost2010PropOp45
 70
     1
102
RTVSPost2010Prop46
 90
       50
102
RTVSPost2010PropOp46
 70
     1
102
RTVSPost2010Prop47
 90
       50
102
RTVSPost2010PropOp47
 70
     1
102
RTVSPost2010Prop48
 90
       50
102
RTVSPost2010PropOp48
 70
     1
102
RTVSPost2010Prop49
280
     0
102
RTVSPost2010PropOp49
 70
     1
102
RTVSPost2010Prop50
 90
       50
102
RTVSPost2010PropOp50
 70
     1
102
RTVSPost2010Prop51ColorIndex
 90
      256
102
RTVSPost2010Prop51ColorRGB
 90
-16777216
102
RTVSPost2010PropOp51
 70
     0
102
RTVSPost2010Prop52
140
1.0
102
RTVSPost2010PropOp52
 70
     0
102
RTVSPost2010Prop53
 90
        2
102
RTVSPost2010PropOp53
 70
     1
102
RTVSPost2010Prop54
  1
strokes_ogs.tif
102
RTVSPost2010PropOp54
 70
     1
102
RTVSPost2010Prop55
280
     0
102
RTVSPost2010PropOp55
 70
     1
102
RTVSPost2010Prop56
140
1.0
102
RTVSPost2010PropOp56
 70
     1
102
RTVSPost2010Prop57
140
1.0
102
RTVSPost2010PropOp57
 70
     1
102
RTVSPropertyOp0
 70
     1
102
RTVSPropertyOp1
 70
     1
102
RTVSPropertyOp2
 70
     1
102
RTVSPropertyOp3
 70
     1
102
RTVSPropertyOp4
 70
     1
102
RTVSPropertyOp5
 70
     1
102
RTVSPropertyOp6
 70
     1
102
RTVSPropertyOp7
 70
     1
102
RTVSPropertyOp8
 70
     1
102
RTVSPropertyOp9
 70
     1
102
RTVSPropertyOp10
 70
     1
102
RTVSPropertyOp11
 70
     1
102
RTVSPropertyOp12
 70
     1
102
RTVSPropertyOp13
 70
     1
102
RTVSPropertyOp14
 70
     1
102
RTVSPropertyOp15
 70
     1
102
RTVSPropertyOp16
 70
     1
102
RTVSPropertyOp17
 70
     1
102
RTVSPropertyOp18
 70
     1
102
RTVSPropertyOp19
 70
     1
102
RTVSPropertyOp20
 70
     1
102
RTVSPropertyOp21
 70
     1
102
RTVSPropertyOp22
 70
     1
102
RTVSPropertyOp23
 70
     1
102
RTVSPropertyOp24
 70
     1
102
RTVSPropertyOp25
 70
     1
102
RTVSPropertyOp26
 70
     1
102
RTVSPropertyOp27
 70
     1
102
RTVSPropertyOp28
 70
     1
102
RTVSPropertyOp29
 70
     1
102
RTVSPropertyOp30
 70
     1
102
RTVSPropertyOp31
 70
     1
102
RTVSPropertyOp32
 70
     1
102
RTVSPropertyOp33
 70
     1
102
RTVSPropertyOp34
 70
     1
102
RTVSPropertyOp35
 70
     1
102
RTVSPropertyOp36
 70
     1
102
RTVSPropertyOp37
 70
     1
102
RTVSPropertyOp38
 70
     1
102
RTVSPropertyOp39
 70
     1
102
RTVSPropertyOp40
 70
     1
102
RTVSPropertyOp41
 70
     1
102
RTVSPropertyOp42
 70
     1
102
RTVSPropertyOp43
 70
     1
102
RTVSPropertyOp44
 70
     1
102
RTVSPropertyOp45
 70
     1
102
RTVSPropertyOp46
 70
     1
102
RTVSPropertyOp47
 70
     1
102
RTVSPropertyOp48
 70
     1
102
RTVSPropertyOp49
 70
     1
102
RTVSPropertyOp50
 70
     1
102
RTVSPropertyOp51
 70
     0
102
RTVSPropertyOp52
 70
     0
102
RTVSPropertyOp53
 70
     1
102
RTVSPropertyOp54
 70
     1
102
RTVSPropertyOp55
 70
     1
102
RTVSPropertyOp56
 70
     1
102
RTVSPropertyOp57
 70
     1
102
RTVSPropertyOp58
 70
     1
102
RTVSPropertyOp59
 70
     1
102
RTVSPropertyOp60
 70
     1
102
RTVSPropertyOp61
 70
     1
102
RTVSPropertyOp62
 70
     1
  0
XRECORD
  5
50F
102
{ACAD_REACTORS
330
50E
102
}
330
50E
100
AcDbXrecord
280
     1
102
RTVSPost2010Prop28
280
     0
102
RTVSPost2010PropOp28
 70
     1
102
RTVSPost2010Prop29
280
     1
102
RTVSPost2010PropOp29
 70
     1
102
RTVSPost2010Prop30
280
     1
102
RTVSPost2010PropOp30
 70
     1
102
RTVSPost2010Prop31
280
     0
102
RTVSPost2010PropOp31
 70
     1
102
RTVSPost2010Prop32
280
     0
102
RTVSPost2010PropOp32
 70
     1
102
RTVSPost2010Prop33
280
     0
102
RTVSPost2010PropOp33
 70
     1
102
RTVSPost2010Prop34
280
     0
102
RTVSPost2010PropOp34
 70
     1
102
RTVSPost2010Prop35
280
     0
102
RTVSPost2010PropOp35
 70
     1
102
RTVSPost2010Prop36
280
     0
102
RTVSPost2010PropOp36
 70
     1
102
RTVSPost2010Prop37
 90
       50
102
RTVSPost2010PropOp37
 70
     1
102
RTVSPost2010Prop38
140
0.0
102
RTVSPost2010PropOp38
 70
     1
102
RTVSPost2010Prop39
140
1.0
102
RTVSPost2010PropOp39
 70
     1
102
RTVSPost2010Prop40
 90
        0
102
RTVSPost2010PropOp40
 70
     1
102
RTVSPost2010Prop41ColorIndex
 90
       18
102
RTVSPost2010Prop41ColorRGB
 90
        0
102
RTVSPost2010PropOp41
 70
     1
102
RTVSPost2010Prop42
 90
       50
102
RTVSPost2010PropOp42
 70
     1
102
RTVSPost2010Prop43
 90
        3
102
RTVSPost2010PropOp43
 70
     1
102
RTVSPost2010Prop44ColorIndex
 90
        5
102
RTVSPost2010Prop44ColorRGB
 90
      255
102
RTVSPost2010PropOp44
 70
     1
102
RTVSPost2010Prop45
280
     0
102
RTVSPost2010PropOp45
 70
     1
102
RTVSPost2010Prop46
 90
       50
102
RTVSPost2010PropOp46
 70
     1
102
RTVSPost2010Prop47
 90
       50
102
RTVSPost2010PropOp47
 70
     1
102
RTVSPost2010Prop48
 90
       50
102
RTVSPost2010PropOp48
 70
     1
102
RTVSPost2010Prop49
280
     0
102
RTVSPost2010PropOp49
 70
     1
102
RTVSPost2010Prop50
 90
       50
102
RTVSPost2010PropOp50
 70
     1
102
RTVSPost2010Prop51ColorIndex
 90
      256
102
RTVSPost2010Prop51ColorRGB
 90
-16777216
102
RTVSPost2010PropOp51
 70
     0
102
RTVSPost2010Prop52
140
1.0
102
RTVSPost2010PropOp52
 70
     0
102
RTVSPost2010Prop53
 90
        2
102
RTVSPost2010PropOp53
 70
     1
102
RTVSPost2010Prop54
  1
strokes_ogs.tif
102
RTVSPost2010PropOp54
 70
     1
102
RTVSPost2010Prop55
280
     0
102
RTVSPost2010PropOp55
 70
     1
102
RTVSPost2010Prop56
140
1.0
102
RTVSPost2010PropOp56
 70
     1
102
RTVSPost2010Prop57
140
1.0
102
RTVSPost2010PropOp57
 70
     1
102
RTVSPropertyOp0
 70
     1
102
RTVSPropertyOp1
 70
     1
102
RTVSPropertyOp2
 70
     1
102
RTVSPropertyOp3
 70
     1
102
RTVSPropertyOp4
 70
     1
102
RTVSPropertyOp5
 70
     1
102
RTVSPropertyOp6
 70
     1
102
RTVSPropertyOp7
 70
     1
102
RTVSPropertyOp8
 70
     1
102
RTVSPropertyOp9
 70
     1
102
RTVSPropertyOp10
 70
     1
102
RTVSPropertyOp11
 70
     1
102
RTVSPropertyOp12
 70
     1
102
RTVSPropertyOp13
 70
     1
102
RTVSPropertyOp14
 70
     1
102
RTVSPropertyOp15
 70
     1
102
RTVSPropertyOp16
 70
     1
102
RTVSPropertyOp17
 70
     1
102
RTVSPropertyOp18
 70
     1
102
RTVSPropertyOp19
 70
     1
102
RTVSPropertyOp20
 70
     1
102
RTVSPropertyOp21
 70
     1
102
RTVSPropertyOp22
 70
     1
102
RTVSPropertyOp23
 70
     1
102
RTVSPropertyOp24
 70
     1
102
RTVSPropertyOp25
 70
     1
102
RTVSPropertyOp26
 70
     1
102
RTVSPropertyOp27
 70
     1
102
RTVSPropertyOp28
 70
     1
102
RTVSPropertyOp29
 70
     1
102
RTVSPropertyOp30
 70
     1
102
RTVSPropertyOp31
 70
     1
102
RTVSPropertyOp32
 70
     1
102
RTVSPropertyOp33
 70
     1
102
RTVSPropertyOp34
 70
     1
102
RTVSPropertyOp35
 70
     1
102
RTVSPropertyOp36
 70
     1
102
RTVSPropertyOp37
 70
     1
102
RTVSPropertyOp38
 70
     1
102
RTVSPropertyOp39
 70
     1
102
RTVSPropertyOp40
 70
     1
102
RTVSPropertyOp41
 70
     1
102
RTVSPropertyOp42
 70
     1
102
RTVSPropertyOp43
 70
     1
102
RTVSPropertyOp44
 70
     1
102
RTVSPropertyOp45
 70
     1
102
RTVSPropertyOp46
 70
     1
102
RTVSPropertyOp47
 70
     1
102
RTVSPropertyOp48
 70
     1
102
RTVSPropertyOp49
 70
     1
102
RTVSPropertyOp50
 70
     1
102
RTVSPropertyOp51
 70
     0
102
RTVSPropertyOp52
 70
     0
102
RTVSPropertyOp53
 70
     1
102
RTVSPropertyOp54
 70
     1
102
RTVSPropertyOp55
 70
     1
102
RTVSPropertyOp56
 70
     1
102
RTVSPropertyOp57
 70
     1
102
RTVSPropertyOp58
 70
     1
102
RTVSPropertyOp59
 70
     1
102
RTVSPropertyOp60
 70
     1
102
RTVSPropertyOp61
 70
     1
102
RTVSPropertyOp62
 70
     1
  0
XRECORD
  5
52B
102
{ACAD_REACTORS
330
52A
102
}
330
52A
100
AcDbXrecord
280
     1
102
RTVSPost2010Prop28
280
     0
102
RTVSPost2010PropOp28
 70
     0
102
RTVSPost2010Prop29
280
     1
102
RTVSPost2010PropOp29
 70
     0
102
RTVSPost2010Prop30
280
     1
102
RTVSPost2010PropOp30
 70
     0
102
RTVSPost2010Prop31
280
     0
102
RTVSPost2010PropOp31
 70
     0
102
RTVSPost2010Prop32
280
     0
102
RTVSPost2010PropOp32
 70
     0
102
RTVSPost2010Prop33
280
     0
102
RTVSPost2010PropOp33
 70
     0
102
RTVSPost2010Prop34
280
     0
102
RTVSPost2010PropOp34
 70
     0
102
RTVSPost2010Prop35
280
     0
102
RTVSPost2010PropOp35
 70
     0
102
RTVSPost2010Prop36
280
     0
102
RTVSPost2010PropOp36
 70
     0
102
RTVSPost2010Prop37
 90
       50
102
RTVSPost2010PropOp37
 70
     0
102
RTVSPost2010Prop38
140
0.0
102
RTVSPost2010PropOp38
 70
     0
102
RTVSPost2010Prop39
140
1.0
102
RTVSPost2010PropOp39
 70
     0
102
RTVSPost2010Prop40
 90
        0
102
RTVSPost2010PropOp40
 70
     0
102
RTVSPost2010Prop41ColorIndex
 90
       18
102
RTVSPost2010Prop41ColorRGB
 90
        0
102
RTVSPost2010PropOp41
 70
     0
102
RTVSPost2010Prop42
 90
       50
102
RTVSPost2010PropOp42
 70
     0
102
RTVSPost2010Prop43
 90
        3
102
RTVSPost2010PropOp43
 70
     0
102
RTVSPost2010Prop44ColorIndex
 90
        5
102
RTVSPost2010Prop44ColorRGB
 90
      255
102
RTVSPost2010PropOp44
 70
     0
102
RTVSPost2010Prop45
280
     0
102
RTVSPost2010PropOp45
 70
     0
102
RTVSPost2010Prop46
 90
       50
102
RTVSPost2010PropOp46
 70
     0
102
RTVSPost2010Prop47
 90
       50
102
RTVSPost2010PropOp47
 70
     0
102
RTVSPost2010Prop48
 90
       50
102
RTVSPost2010PropOp48
 70
     0
102
RTVSPost2010Prop49
280
     0
102
RTVSPost2010PropOp49
 70
     0
102
RTVSPost2010Prop50
 90
       50
102
RTVSPost2010PropOp50
 70
     0
102
RTVSPost2010Prop51ColorIndex
 90
      256
102
RTVSPost2010Prop51ColorRGB
 90
-16777216
102
RTVSPost2010PropOp51
 70
     0
102
RTVSPost2010Prop52
140
1.0
102
RTVSPost2010PropOp52
 70
     0
102
RTVSPost2010Prop53
 90
        2
102
RTVSPost2010PropOp53
 70
     0
102
RTVSPost2010Prop54
  1
strokes_ogs.tif
102
RTVSPost2010PropOp54
 70
     0
102
RTVSPost2010Prop55
280
     0
102
RTVSPost2010PropOp55
 70
     0
102
RTVSPost2010Prop56
140
1.0
102
RTVSPost2010PropOp56
 70
     0
102
RTVSPost2010Prop57
140
1.0
102
RTVSPost2010PropOp57
 70
     0
102
RTVSPropertyOp0
 70
     0
102
RTVSPropertyOp1
 70
     0
102
RTVSPropertyOp2
 70
     0
102
RTVSPropertyOp3
 70
     0
102
RTVSPropertyOp4
 70
     0
102
RTVSPropertyOp5
 70
     0
102
RTVSPropertyOp6
 70
     0
102
RTVSPropertyOp7
 70
     0
102
RTVSPropertyOp8
 70
     0
102
RTVSPropertyOp9
 70
     0
102
RTVSPropertyOp10
 70
     0
102
RTVSPropertyOp11
 70
     0
102
RTVSPropertyOp12
 70
     0
102
RTVSPropertyOp13
 70
     0
102
RTVSPropertyOp14
 70
     2
102
RTVSPropertyOp15
 70
     0
102
RTVSPropertyOp16
 70
     0
102
RTVSPropertyOp17
 70
     0
102
RTVSPropertyOp18
 70
     0
102
RTVSPropertyOp19
 70
     0
102
RTVSPropertyOp20
 70
     0
102
RTVSPropertyOp21
 70
     0
102
RTVSPropertyOp22
 70
     0
102
RTVSPropertyOp23
 70
     0
102
RTVSPropertyOp24
 70
     0
102
RTVSPropertyOp25
 70
     0
102
RTVSPropertyOp26
 70
     0
102
RTVSPropertyOp27
 70
     0
102
RTVSPropertyOp28
 70
     0
102
RTVSPropertyOp29
 70
     0
102
RTVSPropertyOp30
 70
     0
102
RTVSPropertyOp31
 70
     0
102
RTVSPropertyOp32
 70
     0
102
RTVSPropertyOp33
 70
     0
102
RTVSPropertyOp34
 70
     0
102
RTVSPropertyOp35
 70
     0
102
RTVSPropertyOp36
 70
     0
102
RTVSPropertyOp37
 70
     0
102
RTVSPropertyOp38
 70
     0
102
RTVSPropertyOp39
 70
     0
102
RTVSPropertyOp40
 70
     0
102
RTVSPropertyOp41
 70
     0
102
RTVSPropertyOp42
 70
     0
102
RTVSPropertyOp43
 70
     0
102
RTVSPropertyOp44
 70
     0
102
RTVSPropertyOp45
 70
     0
102
RTVSPropertyOp46
 70
     0
102
RTVSPropertyOp47
 70
     0
102
RTVSPropertyOp48
 70
     0
102
RTVSPropertyOp49
 70
     0
102
RTVSPropertyOp50
 70
     0
102
RTVSPropertyOp51
 70
     0
102
RTVSPropertyOp52
 70
     0
102
RTVSPropertyOp53
 70
     0
102
RTVSPropertyOp54
 70
     0
102
RTVSPropertyOp55
 70
     0
102
RTVSPropertyOp56
 70
     0
102
RTVSPropertyOp57
 70
     0
102
RTVSPropertyOp58
 70
     0
102
RTVSPropertyOp59
 70
     0
102
RTVSPropertyOp60
 70
     0
102
RTVSPropertyOp61
 70
     0
102
RTVSPropertyOp62
 70
     0
  0
XRECORD
  5
51B
102
{ACAD_REACTORS
330
51A
102
}
330
51A
100
AcDbXrecord
280
     1
102
RTVSPost2010Prop28
280
     0
102
RTVSPost2010PropOp28
 70
     1
102
RTVSPost2010Prop29
280
     1
102
RTVSPost2010PropOp29
 70
     1
102
RTVSPost2010Prop30
280
     1
102
RTVSPost2010PropOp30
 70
     1
102
RTVSPost2010Prop31
280
     0
102
RTVSPost2010PropOp31
 70
     1
102
RTVSPost2010Prop32
280
     0
102
RTVSPost2010PropOp32
 70
     1
102
RTVSPost2010Prop33
280
     0
102
RTVSPost2010PropOp33
 70
     1
102
RTVSPost2010Prop34
280
     0
102
RTVSPost2010PropOp34
 70
     1
102
RTVSPost2010Prop35
280
     0
102
RTVSPost2010PropOp35
 70
     1
102
RTVSPost2010Prop36
280
     0
102
RTVSPost2010PropOp36
 70
     1
102
RTVSPost2010Prop37
 90
       50
102
RTVSPost2010PropOp37
 70
     1
102
RTVSPost2010Prop38
140
0.0
102
RTVSPost2010PropOp38
 70
     1
102
RTVSPost2010Prop39
140
1.0
102
RTVSPost2010PropOp39
 70
     1
102
RTVSPost2010Prop40
 90
        0
102
RTVSPost2010PropOp40
 70
     1
102
RTVSPost2010Prop41ColorIndex
 90
       18
102
RTVSPost2010Prop41ColorRGB
 90
        0
102
RTVSPost2010PropOp41
 70
     1
102
RTVSPost2010Prop42
 90
       50
102
RTVSPost2010PropOp42
 70
     1
102
RTVSPost2010Prop43
 90
        3
102
RTVSPost2010PropOp43
 70
     1
102
RTVSPost2010Prop44ColorIndex
 90
        5
102
RTVSPost2010Prop44ColorRGB
 90
      255
102
RTVSPost2010PropOp44
 70
     1
102
RTVSPost2010Prop45
280
     0
102
RTVSPost2010PropOp45
 70
     1
102
RTVSPost2010Prop46
 90
       50
102
RTVSPost2010PropOp46
 70
     1
102
RTVSPost2010Prop47
 90
       50
102
RTVSPost2010PropOp47
 70
     1
102
RTVSPost2010Prop48
 90
       50
102
RTVSPost2010PropOp48
 70
     1
102
RTVSPost2010Prop49
280
     0
102
RTVSPost2010PropOp49
 70
     1
102
RTVSPost2010Prop50
 90
       50
102
RTVSPost2010PropOp50
 70
     1
102
RTVSPost2010Prop51ColorIndex
 90
      256
102
RTVSPost2010Prop51ColorRGB
 90
-16777216
102
RTVSPost2010PropOp51
 70
     0
102
RTVSPost2010Prop52
140
1.0
102
RTVSPost2010PropOp52
 70
     0
102
RTVSPost2010Prop53
 90
        2
102
RTVSPost2010PropOp53
 70
     1
102
RTVSPost2010Prop54
  1
strokes_ogs.tif
102
RTVSPost2010PropOp54
 70
     1
102
RTVSPost2010Prop55
280
     0
102
RTVSPost2010PropOp55
 70
     1
102
RTVSPost2010Prop56
140
1.0
102
RTVSPost2010PropOp56
 70
     1
102
RTVSPost2010Prop57
140
1.0
102
RTVSPost2010PropOp57
 70
     1
102
RTVSPropertyOp0
 70
     1
102
RTVSPropertyOp1
 70
     1
102
RTVSPropertyOp2
 70
     1
102
RTVSPropertyOp3
 70
     1
102
RTVSPropertyOp4
 70
     1
102
RTVSPropertyOp5
 70
     1
102
RTVSPropertyOp6
 70
     1
102
RTVSPropertyOp7
 70
     1
102
RTVSPropertyOp8
 70
     1
102
RTVSPropertyOp9
 70
     1
102
RTVSPropertyOp10
 70
     1
102
RTVSPropertyOp11
 70
     1
102
RTVSPropertyOp12
 70
     1
102
RTVSPropertyOp13
 70
     1
102
RTVSPropertyOp14
 70
     1
102
RTVSPropertyOp15
 70
     1
102
RTVSPropertyOp16
 70
     1
102
RTVSPropertyOp17
 70
     1
102
RTVSPropertyOp18
 70
     1
102
RTVSPropertyOp19
 70
     1
102
RTVSPropertyOp20
 70
     1
102
RTVSPropertyOp21
 70
     1
102
RTVSPropertyOp22
 70
     1
102
RTVSPropertyOp23
 70
     1
102
RTVSPropertyOp24
 70
     1
102
RTVSPropertyOp25
 70
     1
102
RTVSPropertyOp26
 70
     1
102
RTVSPropertyOp27
 70
     1
102
RTVSPropertyOp28
 70
     1
102
RTVSPropertyOp29
 70
     1
102
RTVSPropertyOp30
 70
     1
102
RTVSPropertyOp31
 70
     1
102
RTVSPropertyOp32
 70
     1
102
RTVSPropertyOp33
 70
     1
102
RTVSPropertyOp34
 70
     1
102
RTVSPropertyOp35
 70
     1
102
RTVSPropertyOp36
 70
     1
102
RTVSPropertyOp37
 70
     1
102
RTVSPropertyOp38
 70
     1
102
RTVSPropertyOp39
 70
     1
102
RTVSPropertyOp40
 70
     1
102
RTVSPropertyOp41
 70
     1
102
RTVSPropertyOp42
 70
     1
102
RTVSPropertyOp43
 70
     1
102
RTVSPropertyOp44
 70
     1
102
RTVSPropertyOp45
 70
     1
102
RTVSPropertyOp46
 70
     1
102
RTVSPropertyOp47
 70
     1
102
RTVSPropertyOp48
 70
     1
102
RTVSPropertyOp49
 70
     1
102
RTVSPropertyOp50
 70
     1
102
RTVSPropertyOp51
 70
     0
102
RTVSPropertyOp52
 70
     0
102
RTVSPropertyOp53
 70
     1
102
RTVSPropertyOp54
 70
     1
102
RTVSPropertyOp55
 70
     1
102
RTVSPropertyOp56
 70
     1
102
RTVSPropertyOp57
 70
     1
102
RTVSPropertyOp58
 70
     1
102
RTVSPropertyOp59
 70
     1
102
RTVSPropertyOp60
 70
     1
102
RTVSPropertyOp61
 70
     1
102
RTVSPropertyOp62
 70
     1
  0
XRECORD
  5
52D
102
{ACAD_REACTORS
330
52C
102
}
330
52C
100
AcDbXrecord
280
     1
102
RTVSPost2010Prop28
280
     0
102
RTVSPost2010PropOp28
 70
     0
102
RTVSPost2010Prop29
280
     1
102
RTVSPost2010PropOp29
 70
     0
102
RTVSPost2010Prop30
280
     1
102
RTVSPost2010PropOp30
 70
     0
102
RTVSPost2010Prop31
280
     0
102
RTVSPost2010PropOp31
 70
     0
102
RTVSPost2010Prop32
280
     0
102
RTVSPost2010PropOp32
 70
     0
102
RTVSPost2010Prop33
280
     0
102
RTVSPost2010PropOp33
 70
     0
102
RTVSPost2010Prop34
280
     0
102
RTVSPost2010PropOp34
 70
     0
102
RTVSPost2010Prop35
280
     0
102
RTVSPost2010PropOp35
 70
     0
102
RTVSPost2010Prop36
280
     0
102
RTVSPost2010PropOp36
 70
     0
102
RTVSPost2010Prop37
 90
       50
102
RTVSPost2010PropOp37
 70
     0
102
RTVSPost2010Prop38
140
0.0
102
RTVSPost2010PropOp38
 70
     0
102
RTVSPost2010Prop39
140
1.0
102
RTVSPost2010PropOp39
 70
     0
102
RTVSPost2010Prop40
 90
        0
102
RTVSPost2010PropOp40
 70
     0
102
RTVSPost2010Prop41ColorIndex
 90
       18
102
RTVSPost2010Prop41ColorRGB
 90
        0
102
RTVSPost2010PropOp41
 70
     0
102
RTVSPost2010Prop42
 90
       50
102
RTVSPost2010PropOp42
 70
     0
102
RTVSPost2010Prop43
 90
        3
102
RTVSPost2010PropOp43
 70
     0
102
RTVSPost2010Prop44ColorIndex
 90
        5
102
RTVSPost2010Prop44ColorRGB
 90
      255
102
RTVSPost2010PropOp44
 70
     0
102
RTVSPost2010Prop45
280
     0
102
RTVSPost2010PropOp45
 70
     0
102
RTVSPost2010Prop46
 90
       50
102
RTVSPost2010PropOp46
 70
     0
102
RTVSPost2010Prop47
 90
       50
102
RTVSPost2010PropOp47
 70
     0
102
RTVSPost2010Prop48
 90
       50
102
RTVSPost2010PropOp48
 70
     0
102
RTVSPost2010Prop49
280
     0
102
RTVSPost2010PropOp49
 70
     0
102
RTVSPost2010Prop50
 90
       50
102
RTVSPost2010PropOp50
 70
     0
102
RTVSPost2010Prop51ColorIndex
 90
      256
102
RTVSPost2010Prop51ColorRGB
 90
-16777216
102
RTVSPost2010PropOp51
 70
     0
102
RTVSPost2010Prop52
140
1.0
102
RTVSPost2010PropOp52
 70
     0
102
RTVSPost2010Prop53
 90
        2
102
RTVSPost2010PropOp53
 70
     0
102
RTVSPost2010Prop54
  1
strokes_ogs.tif
102
RTVSPost2010PropOp54
 70
     0
102
RTVSPost2010Prop55
280
     0
102
RTVSPost2010PropOp55
 70
     0
102
RTVSPost2010Prop56
140
1.0
102
RTVSPost2010PropOp56
 70
     0
102
RTVSPost2010Prop57
140
1.0
102
RTVSPost2010PropOp57
 70
     0
102
RTVSPropertyOp0
 70
     0
102
RTVSPropertyOp1
 70
     0
102
RTVSPropertyOp2
 70
     0
102
RTVSPropertyOp3
 70
     0
102
RTVSPropertyOp4
 70
     0
102
RTVSPropertyOp5
 70
     0
102
RTVSPropertyOp6
 70
     0
102
RTVSPropertyOp7
 70
     0
102
RTVSPropertyOp8
 70
     0
102
RTVSPropertyOp9
 70
     0
102
RTVSPropertyOp10
 70
     0
102
RTVSPropertyOp11
 70
     0
102
RTVSPropertyOp12
 70
     0
102
RTVSPropertyOp13
 70
     0
102
RTVSPropertyOp14
 70
     2
102
RTVSPropertyOp15
 70
     0
102
RTVSPropertyOp16
 70
     0
102
RTVSPropertyOp17
 70
     0
102
RTVSPropertyOp18
 70
     0
102
RTVSPropertyOp19
 70
     0
102
RTVSPropertyOp20
 70
     0
102
RTVSPropertyOp21
 70
     0
102
RTVSPropertyOp22
 70
     0
102
RTVSPropertyOp23
 70
     0
102
RTVSPropertyOp24
 70
     0
102
RTVSPropertyOp25
 70
     0
102
RTVSPropertyOp26
 70
     0
102
RTVSPropertyOp27
 70
     0
102
RTVSPropertyOp28
 70
     0
102
RTVSPropertyOp29
 70
     0
102
RTVSPropertyOp30
 70
     0
102
RTVSPropertyOp31
 70
     0
102
RTVSPropertyOp32
 70
     0
102
RTVSPropertyOp33
 70
     0
102
RTVSPropertyOp34
 70
     0
102
RTVSPropertyOp35
 70
     0
102
RTVSPropertyOp36
 70
     0
102
RTVSPropertyOp37
 70
     0
102
RTVSPropertyOp38
 70
     0
102
RTVSPropertyOp39
 70
     0
102
RTVSPropertyOp40
 70
     0
102
RTVSPropertyOp41
 70
     0
102
RTVSPropertyOp42
 70
     0
102
RTVSPropertyOp43
 70
     0
102
RTVSPropertyOp44
 70
     0
102
RTVSPropertyOp45
 70
     0
102
RTVSPropertyOp46
 70
     0
102
RTVSPropertyOp47
 70
     0
102
RTVSPropertyOp48
 70
     0
102
RTVSPropertyOp49
 70
     0
102
RTVSPropertyOp50
 70
     0
102
RTVSPropertyOp51
 70
     0
102
RTVSPropertyOp52
 70
     0
102
RTVSPropertyOp53
 70
     0
102
RTVSPropertyOp54
 70
     0
102
RTVSPropertyOp55
 70
     0
102
RTVSPropertyOp56
 70
     0
102
RTVSPropertyOp57
 70
     0
102
RTVSPropertyOp58
 70
     0
102
RTVSPropertyOp59
 70
     0
102
RTVSPropertyOp60
 70
     0
102
RTVSPropertyOp61
 70
     0
102
RTVSPropertyOp62
 70
     0
  0
XRECORD
  5
513
102
{ACAD_REACTORS
330
512
102
}
330
512
100
AcDbXrecord
280
     1
102
RTVSPost2010Prop28
280
     0
102
RTVSPost2010PropOp28
 70
     1
102
RTVSPost2010Prop29
280
     1
102
RTVSPost2010PropOp29
 70
     1
102
RTVSPost2010Prop30
280
     1
102
RTVSPost2010PropOp30
 70
     1
102
RTVSPost2010Prop31
280
     0
102
RTVSPost2010PropOp31
 70
     1
102
RTVSPost2010Prop32
280
     0
102
RTVSPost2010PropOp32
 70
     1
102
RTVSPost2010Prop33
280
     0
102
RTVSPost2010PropOp33
 70
     1
102
RTVSPost2010Prop34
280
     0
102
RTVSPost2010PropOp34
 70
     1
102
RTVSPost2010Prop35
280
     0
102
RTVSPost2010PropOp35
 70
     1
102
RTVSPost2010Prop36
280
     0
102
RTVSPost2010PropOp36
 70
     1
102
RTVSPost2010Prop37
 90
       50
102
RTVSPost2010PropOp37
 70
     1
102
RTVSPost2010Prop38
140
0.0
102
RTVSPost2010PropOp38
 70
     1
102
RTVSPost2010Prop39
140
1.0
102
RTVSPost2010PropOp39
 70
     1
102
RTVSPost2010Prop40
 90
        0
102
RTVSPost2010PropOp40
 70
     1
102
RTVSPost2010Prop41ColorIndex
 90
       18
102
RTVSPost2010Prop41ColorRGB
 90
        0
102
RTVSPost2010PropOp41
 70
     1
102
RTVSPost2010Prop42
 90
       50
102
RTVSPost2010PropOp42
 70
     1
102
RTVSPost2010Prop43
 90
        3
102
RTVSPost2010PropOp43
 70
     1
102
RTVSPost2010Prop44ColorIndex
 90
        5
102
RTVSPost2010Prop44ColorRGB
 90
      255
102
RTVSPost2010PropOp44
 70
     1
102
RTVSPost2010Prop45
280
     0
102
RTVSPost2010PropOp45
 70
     1
102
RTVSPost2010Prop46
 90
       50
102
RTVSPost2010PropOp46
 70
     1
102
RTVSPost2010Prop47
 90
       50
102
RTVSPost2010PropOp47
 70
     1
102
RTVSPost2010Prop48
 90
       50
102
RTVSPost2010PropOp48
 70
     1
102
RTVSPost2010Prop49
280
     0
102
RTVSPost2010PropOp49
 70
     1
102
RTVSPost2010Prop50
 90
       50
102
RTVSPost2010PropOp50
 70
     1
102
RTVSPost2010Prop51ColorIndex
 90
      256
102
RTVSPost2010Prop51ColorRGB
 90
-16777216
102
RTVSPost2010PropOp51
 70
     0
102
RTVSPost2010Prop52
140
1.0
102
RTVSPost2010PropOp52
 70
     0
102
RTVSPost2010Prop53
 90
        2
102
RTVSPost2010PropOp53
 70
     1
102
RTVSPost2010Prop54
  1
strokes_ogs.tif
102
RTVSPost2010PropOp54
 70
     1
102
RTVSPost2010Prop55
280
     0
102
RTVSPost2010PropOp55
 70
     1
102
RTVSPost2010Prop56
140
1.0
102
RTVSPost2010PropOp56
 70
     1
102
RTVSPost2010Prop57
140
1.0
102
RTVSPost2010PropOp57
 70
     1
102
RTVSPropertyOp0
 70
     1
102
RTVSPropertyOp1
 70
     1
102
RTVSPropertyOp2
 70
     1
102
RTVSPropertyOp3
 70
     1
102
RTVSPropertyOp4
 70
     1
102
RTVSPropertyOp5
 70
     1
102
RTVSPropertyOp6
 70
     1
102
RTVSPropertyOp7
 70
     1
102
RTVSPropertyOp8
 70
     1
102
RTVSPropertyOp9
 70
     1
102
RTVSPropertyOp10
 70
     1
102
RTVSPropertyOp11
 70
     1
102
RTVSPropertyOp12
 70
     1
102
RTVSPropertyOp13
 70
     1
102
RTVSPropertyOp14
 70
     1
102
RTVSPropertyOp15
 70
     1
102
RTVSPropertyOp16
 70
     1
102
RTVSPropertyOp17
 70
     1
102
RTVSPropertyOp18
 70
     1
102
RTVSPropertyOp19
 70
     1
102
RTVSPropertyOp20
 70
     1
102
RTVSPropertyOp21
 70
     1
102
RTVSPropertyOp22
 70
     1
102
RTVSPropertyOp23
 70
     1
102
RTVSPropertyOp24
 70
     1
102
RTVSPropertyOp25
 70
     1
102
RTVSPropertyOp26
 70
     1
102
RTVSPropertyOp27
 70
     1
102
RTVSPropertyOp28
 70
     1
102
RTVSPropertyOp29
 70
     1
102
RTVSPropertyOp30
 70
     1
102
RTVSPropertyOp31
 70
     1
102
RTVSPropertyOp32
 70
     1
102
RTVSPropertyOp33
 70
     1
102
RTVSPropertyOp34
 70
     1
102
RTVSPropertyOp35
 70
     1
102
RTVSPropertyOp36
 70
     1
102
RTVSPropertyOp37
 70
     1
102
RTVSPropertyOp38
 70
     1
102
RTVSPropertyOp39
 70
     1
102
RTVSPropertyOp40
 70
     1
102
RTVSPropertyOp41
 70
     1
102
RTVSPropertyOp42
 70
     1
102
RTVSPropertyOp43
 70
     1
102
RTVSPropertyOp44
 70
     1
102
RTVSPropertyOp45
 70
     1
102
RTVSPropertyOp46
 70
     1
102
RTVSPropertyOp47
 70
     1
102
RTVSPropertyOp48
 70
     1
102
RTVSPropertyOp49
 70
     1
102
RTVSPropertyOp50
 70
     1
102
RTVSPropertyOp51
 70
     0
102
RTVSPropertyOp52
 70
     0
102
RTVSPropertyOp53
 70
     1
102
RTVSPropertyOp54
 70
     1
102
RTVSPropertyOp55
 70
     1
102
RTVSPropertyOp56
 70
     1
102
RTVSPropertyOp57
 70
     1
102
RTVSPropertyOp58
 70
     1
102
RTVSPropertyOp59
 70
     1
102
RTVSPropertyOp60
 70
     1
102
RTVSPropertyOp61
 70
     1
102
RTVSPropertyOp62
 70
     1
  0
XRECORD
  5
529
102
{ACAD_REACTORS
330
528
102
}
330
528
100
AcDbXrecord
280
     1
102
RTVSPost2010Prop28
280
     0
102
RTVSPost2010PropOp28
 70
     1
102
RTVSPost2010Prop29
280
     1
102
RTVSPost2010PropOp29
 70
     1
102
RTVSPost2010Prop30
280
     1
102
RTVSPost2010PropOp30
 70
     1
102
RTVSPost2010Prop31
280
     0
102
RTVSPost2010PropOp31
 70
     1
102
RTVSPost2010Prop32
280
     0
102
RTVSPost2010PropOp32
 70
     1
102
RTVSPost2010Prop33
280
     0
102
RTVSPost2010PropOp33
 70
     1
102
RTVSPost2010Prop34
280
     0
102
RTVSPost2010PropOp34
 70
     1
102
RTVSPost2010Prop35
280
     0
102
RTVSPost2010PropOp35
 70
     1
102
RTVSPost2010Prop36
280
     0
102
RTVSPost2010PropOp36
 70
     1
102
RTVSPost2010Prop37
 90
       50
102
RTVSPost2010PropOp37
 70
     1
102
RTVSPost2010Prop38
140
0.0
102
RTVSPost2010PropOp38
 70
     1
102
RTVSPost2010Prop39
140
1.0
102
RTVSPost2010PropOp39
 70
     1
102
RTVSPost2010Prop40
 90
        0
102
RTVSPost2010PropOp40
 70
     1
102
RTVSPost2010Prop41ColorIndex
 90
       18
102
RTVSPost2010Prop41ColorRGB
 90
        0
102
RTVSPost2010PropOp41
 70
     1
102
RTVSPost2010Prop42
 90
       50
102
RTVSPost2010PropOp42
 70
     1
102
RTVSPost2010Prop43
 90
        3
102
RTVSPost2010PropOp43
 70
     1
102
RTVSPost2010Prop44ColorIndex
 90
        5
102
RTVSPost2010Prop44ColorRGB
 90
      255
102
RTVSPost2010PropOp44
 70
     1
102
RTVSPost2010Prop45
280
     0
102
RTVSPost2010PropOp45
 70
     1
102
RTVSPost2010Prop46
 90
       50
102
RTVSPost2010PropOp46
 70
     1
102
RTVSPost2010Prop47
 90
       50
102
RTVSPost2010PropOp47
 70
     1
102
RTVSPost2010Prop48
 90
       50
102
RTVSPost2010PropOp48
 70
     1
102
RTVSPost2010Prop49
280
     0
102
RTVSPost2010PropOp49
 70
     1
102
RTVSPost2010Prop50
 90
       50
102
RTVSPost2010PropOp50
 70
     1
102
RTVSPost2010Prop51ColorIndex
 90
      256
102
RTVSPost2010Prop51ColorRGB
 90
-16777216
102
RTVSPost2010PropOp51
 70
     0
102
RTVSPost2010Prop52
140
1.0
102
RTVSPost2010PropOp52
 70
     0
102
RTVSPost2010Prop53
 90
        2
102
RTVSPost2010PropOp53
 70
     1
102
RTVSPost2010Prop54
  1
strokes_ogs.tif
102
RTVSPost2010PropOp54
 70
     1
102
RTVSPost2010Prop55
280
     0
102
RTVSPost2010PropOp55
 70
     1
102
RTVSPost2010Prop56
140
1.0
102
RTVSPost2010PropOp56
 70
     1
102
RTVSPost2010Prop57
140
1.0
102
RTVSPost2010PropOp57
 70
     1
102
RTVSPropertyOp0
 70
     1
102
RTVSPropertyOp1
 70
     1
102
RTVSPropertyOp2
 70
     1
102
RTVSPropertyOp3
 70
     1
102
RTVSPropertyOp4
 70
     1
102
RTVSPropertyOp5
 70
     1
102
RTVSPropertyOp6
 70
     1
102
RTVSPropertyOp7
 70
     1
102
RTVSPropertyOp8
 70
     1
102
RTVSPropertyOp9
 70
     1
102
RTVSPropertyOp10
 70
     1
102
RTVSPropertyOp11
 70
     1
102
RTVSPropertyOp12
 70
     1
102
RTVSPropertyOp13
 70
     1
102
RTVSPropertyOp14
 70
     1
102
RTVSPropertyOp15
 70
     1
102
RTVSPropertyOp16
 70
     1
102
RTVSPropertyOp17
 70
     1
102
RTVSPropertyOp18
 70
     1
102
RTVSPropertyOp19
 70
     1
102
RTVSPropertyOp20
 70
     1
102
RTVSPropertyOp21
 70
     1
102
RTVSPropertyOp22
 70
     1
102
RTVSPropertyOp23
 70
     1
102
RTVSPropertyOp24
 70
     1
102
RTVSPropertyOp25
 70
     1
102
RTVSPropertyOp26
 70
     1
102
RTVSPropertyOp27
 70
     1
102
RTVSPropertyOp28
 70
     1
102
RTVSPropertyOp29
 70
     1
102
RTVSPropertyOp30
 70
     1
102
RTVSPropertyOp31
 70
     1
102
RTVSPropertyOp32
 70
     1
102
RTVSPropertyOp33
 70
     1
102
RTVSPropertyOp34
 70
     1
102
RTVSPropertyOp35
 70
     1
102
RTVSPropertyOp36
 70
     1
102
RTVSPropertyOp37
 70
     1
102
RTVSPropertyOp38
 70
     1
102
RTVSPropertyOp39
 70
     1
102
RTVSPropertyOp40
 70
     1
102
RTVSPropertyOp41
 70
     1
102
RTVSPropertyOp42
 70
     1
102
RTVSPropertyOp43
 70
     1
102
RTVSPropertyOp44
 70
     1
102
RTVSPropertyOp45
 70
     1
102
RTVSPropertyOp46
 70
     1
102
RTVSPropertyOp47
 70
     1
102
RTVSPropertyOp48
 70
     1
102
RTVSPropertyOp49
 70
     1
102
RTVSPropertyOp50
 70
     1
102
RTVSPropertyOp51
 70
     0
102
RTVSPropertyOp52
 70
     0
102
RTVSPropertyOp53
 70
     1
102
RTVSPropertyOp54
 70
     1
102
RTVSPropertyOp55
 70
     1
102
RTVSPropertyOp56
 70
     1
102
RTVSPropertyOp57
 70
     1
102
RTVSPropertyOp58
 70
     1
102
RTVSPropertyOp59
 70
     1
102
RTVSPropertyOp60
 70
     1
102
RTVSPropertyOp61
 70
     1
102
RTVSPropertyOp62
 70
     1
  0
XRECORD
  5
527
102
{ACAD_REACTORS
330
526
102
}
330
526
100
AcDbXrecord
280
     1
102
RTVSPost2010Prop28
280
     0
102
RTVSPost2010PropOp28
 70
     1
102
RTVSPost2010Prop29
280
     1
102
RTVSPost2010PropOp29
 70
     1
102
RTVSPost2010Prop30
280
     1
102
RTVSPost2010PropOp30
 70
     1
102
RTVSPost2010Prop31
280
     0
102
RTVSPost2010PropOp31
 70
     1
102
RTVSPost2010Prop32
280
     0
102
RTVSPost2010PropOp32
 70
     1
102
RTVSPost2010Prop33
280
     0
102
RTVSPost2010PropOp33
 70
     1
102
RTVSPost2010Prop34
280
     0
102
RTVSPost2010PropOp34
 70
     1
102
RTVSPost2010Prop35
280
     0
102
RTVSPost2010PropOp35
 70
     1
102
RTVSPost2010Prop36
280
     0
102
RTVSPost2010PropOp36
 70
     1
102
RTVSPost2010Prop37
 90
       50
102
RTVSPost2010PropOp37
 70
     1
102
RTVSPost2010Prop38
140
0.0
102
RTVSPost2010PropOp38
 70
     1
102
RTVSPost2010Prop39
140
1.0
102
RTVSPost2010PropOp39
 70
     1
102
RTVSPost2010Prop40
 90
        0
102
RTVSPost2010PropOp40
 70
     1
102
RTVSPost2010Prop41ColorIndex
 90
       18
102
RTVSPost2010Prop41ColorRGB
 90
        0
102
RTVSPost2010PropOp41
 70
     1
102
RTVSPost2010Prop42
 90
       50
102
RTVSPost2010PropOp42
 70
     1
102
RTVSPost2010Prop43
 90
        3
102
RTVSPost2010PropOp43
 70
     1
102
RTVSPost2010Prop44ColorIndex
 90
        5
102
RTVSPost2010Prop44ColorRGB
 90
      255
102
RTVSPost2010PropOp44
 70
     1
102
RTVSPost2010Prop45
280
     0
102
RTVSPost2010PropOp45
 70
     1
102
RTVSPost2010Prop46
 90
       50
102
RTVSPost2010PropOp46
 70
     1
102
RTVSPost2010Prop47
 90
       50
102
RTVSPost2010PropOp47
 70
     1
102
RTVSPost2010Prop48
 90
       50
102
RTVSPost2010PropOp48
 70
     1
102
RTVSPost2010Prop49
280
     0
102
RTVSPost2010PropOp49
 70
     1
102
RTVSPost2010Prop50
 90
       50
102
RTVSPost2010PropOp50
 70
     1
102
RTVSPost2010Prop51ColorIndex
 90
      256
102
RTVSPost2010Prop51ColorRGB
 90
-16777216
102
RTVSPost2010PropOp51
 70
     0
102
RTVSPost2010Prop52
140
1.0
102
RTVSPost2010PropOp52
 70
     0
102
RTVSPost2010Prop53
 90
        2
102
RTVSPost2010PropOp53
 70
     1
102
RTVSPost2010Prop54
  1
strokes_ogs.tif
102
RTVSPost2010PropOp54
 70
     1
102
RTVSPost2010Prop55
280
     0
102
RTVSPost2010PropOp55
 70
     1
102
RTVSPost2010Prop56
140
1.0
102
RTVSPost2010PropOp56
 70
     1
102
RTVSPost2010Prop57
140
1.0
102
RTVSPost2010PropOp57
 70
     1
102
RTVSPropertyOp0
 70
     1
102
RTVSPropertyOp1
 70
     1
102
RTVSPropertyOp2
 70
     1
102
RTVSPropertyOp3
 70
     1
102
RTVSPropertyOp4
 70
     1
102
RTVSPropertyOp5
 70
     1
102
RTVSPropertyOp6
 70
     1
102
RTVSPropertyOp7
 70
     1
102
RTVSPropertyOp8
 70
     1
102
RTVSPropertyOp9
 70
     1
102
RTVSPropertyOp10
 70
     1
102
RTVSPropertyOp11
 70
     1
102
RTVSPropertyOp12
 70
     1
102
RTVSPropertyOp13
 70
     1
102
RTVSPropertyOp14
 70
     1
102
RTVSPropertyOp15
 70
     1
102
RTVSPropertyOp16
 70
     1
102
RTVSPropertyOp17
 70
     1
102
RTVSPropertyOp18
 70
     1
102
RTVSPropertyOp19
 70
     1
102
RTVSPropertyOp20
 70
     1
102
RTVSPropertyOp21
 70
     1
102
RTVSPropertyOp22
 70
     1
102
RTVSPropertyOp23
 70
     1
102
RTVSPropertyOp24
 70
     1
102
RTVSPropertyOp25
 70
     1
102
RTVSPropertyOp26
 70
     1
102
RTVSPropertyOp27
 70
     1
102
RTVSPropertyOp28
 70
     1
102
RTVSPropertyOp29
 70
     1
102
RTVSPropertyOp30
 70
     1
102
RTVSPropertyOp31
 70
     1
102
RTVSPropertyOp32
 70
     1
102
RTVSPropertyOp33
 70
     1
102
RTVSPropertyOp34
 70
     1
102
RTVSPropertyOp35
 70
     1
102
RTVSPropertyOp36
 70
     1
102
RTVSPropertyOp37
 70
     1
102
RTVSPropertyOp38
 70
     1
102
RTVSPropertyOp39
 70
     1
102
RTVSPropertyOp40
 70
     1
102
RTVSPropertyOp41
 70
     1
102
RTVSPropertyOp42
 70
     1
102
RTVSPropertyOp43
 70
     1
102
RTVSPropertyOp44
 70
     1
102
RTVSPropertyOp45
 70
     1
102
RTVSPropertyOp46
 70
     1
102
RTVSPropertyOp47
 70
     1
102
RTVSPropertyOp48
 70
     1
102
RTVSPropertyOp49
 70
     1
102
RTVSPropertyOp50
 70
     1
102
RTVSPropertyOp51
 70
     0
102
RTVSPropertyOp52
 70
     0
102
RTVSPropertyOp53
 70
     1
102
RTVSPropertyOp54
 70
     1
102
RTVSPropertyOp55
 70
     1
102
RTVSPropertyOp56
 70
     1
102
RTVSPropertyOp57
 70
     1
102
RTVSPropertyOp58
 70
     1
102
RTVSPropertyOp59
 70
     1
102
RTVSPropertyOp60
 70
     1
102
RTVSPropertyOp61
 70
     1
102
RTVSPropertyOp62
 70
     1
  0
XRECORD
  5
521
102
{ACAD_REACTORS
330
520
102
}
330
520
100
AcDbXrecord
280
     1
102
RTVSPost2010Prop28
280
     0
102
RTVSPost2010PropOp28
 70
     1
102
RTVSPost2010Prop29
280
     1
102
RTVSPost2010PropOp29
 70
     1
102
RTVSPost2010Prop30
280
     1
102
RTVSPost2010PropOp30
 70
     1
102
RTVSPost2010Prop31
280
     0
102
RTVSPost2010PropOp31
 70
     1
102
RTVSPost2010Prop32
280
     0
102
RTVSPost2010PropOp32
 70
     1
102
RTVSPost2010Prop33
280
     0
102
RTVSPost2010PropOp33
 70
     1
102
RTVSPost2010Prop34
280
     0
102
RTVSPost2010PropOp34
 70
     1
102
RTVSPost2010Prop35
280
     0
102
RTVSPost2010PropOp35
 70
     1
102
RTVSPost2010Prop36
280
     0
102
RTVSPost2010PropOp36
 70
     1
102
RTVSPost2010Prop37
 90
       50
102
RTVSPost2010PropOp37
 70
     1
102
RTVSPost2010Prop38
140
0.0
102
RTVSPost2010PropOp38
 70
     1
102
RTVSPost2010Prop39
140
1.0
102
RTVSPost2010PropOp39
 70
     1
102
RTVSPost2010Prop40
 90
        0
102
RTVSPost2010PropOp40
 70
     1
102
RTVSPost2010Prop41ColorIndex
 90
       18
102
RTVSPost2010Prop41ColorRGB
 90
        0
102
RTVSPost2010PropOp41
 70
     1
102
RTVSPost2010Prop42
 90
       50
102
RTVSPost2010PropOp42
 70
     1
102
RTVSPost2010Prop43
 90
        3
102
RTVSPost2010PropOp43
 70
     1
102
RTVSPost2010Prop44ColorIndex
 90
        5
102
RTVSPost2010Prop44ColorRGB
 90
      255
102
RTVSPost2010PropOp44
 70
     1
102
RTVSPost2010Prop45
280
     0
102
RTVSPost2010PropOp45
 70
     1
102
RTVSPost2010Prop46
 90
       50
102
RTVSPost2010PropOp46
 70
     1
102
RTVSPost2010Prop47
 90
       50
102
RTVSPost2010PropOp47
 70
     1
102
RTVSPost2010Prop48
 90
       50
102
RTVSPost2010PropOp48
 70
     1
102
RTVSPost2010Prop49
280
     0
102
RTVSPost2010PropOp49
 70
     1
102
RTVSPost2010Prop50
 90
       50
102
RTVSPost2010PropOp50
 70
     1
102
RTVSPost2010Prop51ColorIndex
 90
      256
102
RTVSPost2010Prop51ColorRGB
 90
-16777216
102
RTVSPost2010PropOp51
 70
     0
102
RTVSPost2010Prop52
140
1.0
102
RTVSPost2010PropOp52
 70
     0
102
RTVSPost2010Prop53
 90
        2
102
RTVSPost2010PropOp53
 70
     1
102
RTVSPost2010Prop54
  1
strokes_ogs.tif
102
RTVSPost2010PropOp54
 70
     1
102
RTVSPost2010Prop55
280
     0
102
RTVSPost2010PropOp55
 70
     1
102
RTVSPost2010Prop56
140
1.0
102
RTVSPost2010PropOp56
 70
     1
102
RTVSPost2010Prop57
140
1.0
102
RTVSPost2010PropOp57
 70
     1
102
RTVSPropertyOp0
 70
     1
102
RTVSPropertyOp1
 70
     1
102
RTVSPropertyOp2
 70
     1
102
RTVSPropertyOp3
 70
     1
102
RTVSPropertyOp4
 70
     1
102
RTVSPropertyOp5
 70
     1
102
RTVSPropertyOp6
 70
     1
102
RTVSPropertyOp7
 70
     1
102
RTVSPropertyOp8
 70
     1
102
RTVSPropertyOp9
 70
     1
102
RTVSPropertyOp10
 70
     1
102
RTVSPropertyOp11
 70
     1
102
RTVSPropertyOp12
 70
     1
102
RTVSPropertyOp13
 70
     1
102
RTVSPropertyOp14
 70
     1
102
RTVSPropertyOp15
 70
     1
102
RTVSPropertyOp16
 70
     1
102
RTVSPropertyOp17
 70
     1
102
RTVSPropertyOp18
 70
     1
102
RTVSPropertyOp19
 70
     1
102
RTVSPropertyOp20
 70
     1
102
RTVSPropertyOp21
 70
     1
102
RTVSPropertyOp22
 70
     1
102
RTVSPropertyOp23
 70
     1
102
RTVSPropertyOp24
 70
     1
102
RTVSPropertyOp25
 70
     1
102
RTVSPropertyOp26
 70
     1
102
RTVSPropertyOp27
 70
     1
102
RTVSPropertyOp28
 70
     1
102
RTVSPropertyOp29
 70
     1
102
RTVSPropertyOp30
 70
     1
102
RTVSPropertyOp31
 70
     1
102
RTVSPropertyOp32
 70
     1
102
RTVSPropertyOp33
 70
     1
102
RTVSPropertyOp34
 70
     1
102
RTVSPropertyOp35
 70
     1
102
RTVSPropertyOp36
 70
     1
102
RTVSPropertyOp37
 70
     1
102
RTVSPropertyOp38
 70
     1
102
RTVSPropertyOp39
 70
     1
102
RTVSPropertyOp40
 70
     1
102
RTVSPropertyOp41
 70
     1
102
RTVSPropertyOp42
 70
     1
102
RTVSPropertyOp43
 70
     1
102
RTVSPropertyOp44
 70
     1
102
RTVSPropertyOp45
 70
     1
102
RTVSPropertyOp46
 70
     1
102
RTVSPropertyOp47
 70
     1
102
RTVSPropertyOp48
 70
     1
102
RTVSPropertyOp49
 70
     1
102
RTVSPropertyOp50
 70
     1
102
RTVSPropertyOp51
 70
     0
102
RTVSPropertyOp52
 70
     0
102
RTVSPropertyOp53
 70
     1
102
RTVSPropertyOp54
 70
     1
102
RTVSPropertyOp55
 70
     1
102
RTVSPropertyOp56
 70
     1
102
RTVSPropertyOp57
 70
     1
102
RTVSPropertyOp58
 70
     1
102
RTVSPropertyOp59
 70
     1
102
RTVSPropertyOp60
 70
     1
102
RTVSPropertyOp61
 70
     1
102
RTVSPropertyOp62
 70
     1
  0
XRECORD
  5
523
102
{ACAD_REACTORS
330
522
102
}
330
522
100
AcDbXrecord
280
     1
102
RTVSPost2010Prop28
280
     0
102
RTVSPost2010PropOp28
 70
     1
102
RTVSPost2010Prop29
280
     1
102
RTVSPost2010PropOp29
 70
     1
102
RTVSPost2010Prop30
280
     1
102
RTVSPost2010PropOp30
 70
     1
102
RTVSPost2010Prop31
280
     0
102
RTVSPost2010PropOp31
 70
     1
102
RTVSPost2010Prop32
280
     0
102
RTVSPost2010PropOp32
 70
     1
102
RTVSPost2010Prop33
280
     0
102
RTVSPost2010PropOp33
 70
     1
102
RTVSPost2010Prop34
280
     0
102
RTVSPost2010PropOp34
 70
     1
102
RTVSPost2010Prop35
280
     0
102
RTVSPost2010PropOp35
 70
     1
102
RTVSPost2010Prop36
280
     0
102
RTVSPost2010PropOp36
 70
     1
102
RTVSPost2010Prop37
 90
       50
102
RTVSPost2010PropOp37
 70
     1
102
RTVSPost2010Prop38
140
0.0
102
RTVSPost2010PropOp38
 70
     1
102
RTVSPost2010Prop39
140
1.0
102
RTVSPost2010PropOp39
 70
     1
102
RTVSPost2010Prop40
 90
        0
102
RTVSPost2010PropOp40
 70
     1
102
RTVSPost2010Prop41ColorIndex
 90
       18
102
RTVSPost2010Prop41ColorRGB
 90
        0
102
RTVSPost2010PropOp41
 70
     1
102
RTVSPost2010Prop42
 90
       50
102
RTVSPost2010PropOp42
 70
     1
102
RTVSPost2010Prop43
 90
        3
102
RTVSPost2010PropOp43
 70
     1
102
RTVSPost2010Prop44ColorIndex
 90
        5
102
RTVSPost2010Prop44ColorRGB
 90
      255
102
RTVSPost2010PropOp44
 70
     1
102
RTVSPost2010Prop45
280
     0
102
RTVSPost2010PropOp45
 70
     1
102
RTVSPost2010Prop46
 90
       50
102
RTVSPost2010PropOp46
 70
     1
102
RTVSPost2010Prop47
 90
       50
102
RTVSPost2010PropOp47
 70
     1
102
RTVSPost2010Prop48
 90
       50
102
RTVSPost2010PropOp48
 70
     1
102
RTVSPost2010Prop49
280
     0
102
RTVSPost2010PropOp49
 70
     1
102
RTVSPost2010Prop50
 90
       50
102
RTVSPost2010PropOp50
 70
     1
102
RTVSPost2010Prop51ColorIndex
 90
      256
102
RTVSPost2010Prop51ColorRGB
 90
-16777216
102
RTVSPost2010PropOp51
 70
     0
102
RTVSPost2010Prop52
140
1.0
102
RTVSPost2010PropOp52
 70
     0
102
RTVSPost2010Prop53
 90
        2
102
RTVSPost2010PropOp53
 70
     1
102
RTVSPost2010Prop54
  1
strokes_ogs.tif
102
RTVSPost2010PropOp54
 70
     1
102
RTVSPost2010Prop55
280
     0
102
RTVSPost2010PropOp55
 70
     1
102
RTVSPost2010Prop56
140
1.0
102
RTVSPost2010PropOp56
 70
     1
102
RTVSPost2010Prop57
140
1.0
102
RTVSPost2010PropOp57
 70
     1
102
RTVSPropertyOp0
 70
     1
102
RTVSPropertyOp1
 70
     1
102
RTVSPropertyOp2
 70
     1
102
RTVSPropertyOp3
 70
     1
102
RTVSPropertyOp4
 70
     1
102
RTVSPropertyOp5
 70
     1
102
RTVSPropertyOp6
 70
     1
102
RTVSPropertyOp7
 70
     1
102
RTVSPropertyOp8
 70
     1
102
RTVSPropertyOp9
 70
     1
102
RTVSPropertyOp10
 70
     1
102
RTVSPropertyOp11
 70
     1
102
RTVSPropertyOp12
 70
     1
102
RTVSPropertyOp13
 70
     1
102
RTVSPropertyOp14
 70
     1
102
RTVSPropertyOp15
 70
     1
102
RTVSPropertyOp16
 70
     1
102
RTVSPropertyOp17
 70
     1
102
RTVSPropertyOp18
 70
     1
102
RTVSPropertyOp19
 70
     1
102
RTVSPropertyOp20
 70
     1
102
RTVSPropertyOp21
 70
     1
102
RTVSPropertyOp22
 70
     1
102
RTVSPropertyOp23
 70
     1
102
RTVSPropertyOp24
 70
     1
102
RTVSPropertyOp25
 70
     1
102
RTVSPropertyOp26
 70
     1
102
RTVSPropertyOp27
 70
     1
102
RTVSPropertyOp28
 70
     1
102
RTVSPropertyOp29
 70
     1
102
RTVSPropertyOp30
 70
     1
102
RTVSPropertyOp31
 70
     1
102
RTVSPropertyOp32
 70
     1
102
RTVSPropertyOp33
 70
     1
102
RTVSPropertyOp34
 70
     1
102
RTVSPropertyOp35
 70
     1
102
RTVSPropertyOp36
 70
     1
102
RTVSPropertyOp37
 70
     1
102
RTVSPropertyOp38
 70
     1
102
RTVSPropertyOp39
 70
     1
102
RTVSPropertyOp40
 70
     1
102
RTVSPropertyOp41
 70
     1
102
RTVSPropertyOp42
 70
     1
102
RTVSPropertyOp43
 70
     1
102
RTVSPropertyOp44
 70
     1
102
RTVSPropertyOp45
 70
     1
102
RTVSPropertyOp46
 70
     1
102
RTVSPropertyOp47
 70
     1
102
RTVSPropertyOp48
 70
     1
102
RTVSPropertyOp49
 70
     1
102
RTVSPropertyOp50
 70
     1
102
RTVSPropertyOp51
 70
     0
102
RTVSPropertyOp52
 70
     0
102
RTVSPropertyOp53
 70
     1
102
RTVSPropertyOp54
 70
     1
102
RTVSPropertyOp55
 70
     1
102
RTVSPropertyOp56
 70
     1
102
RTVSPropertyOp57
 70
     1
102
RTVSPropertyOp58
 70
     1
102
RTVSPropertyOp59
 70
     1
102
RTVSPropertyOp60
 70
     1
102
RTVSPropertyOp61
 70
     1
102
RTVSPropertyOp62
 70
     1
  0
XRECORD
  5
519
102
{ACAD_REACTORS
330
518
102
}
330
518
100
AcDbXrecord
280
     1
102
RTVSPost2010Prop28
280
     0
102
RTVSPost2010PropOp28
 70
     1
102
RTVSPost2010Prop29
280
     1
102
RTVSPost2010PropOp29
 70
     1
102
RTVSPost2010Prop30
280
     1
102
RTVSPost2010PropOp30
 70
     1
102
RTVSPost2010Prop31
280
     0
102
RTVSPost2010PropOp31
 70
     1
102
RTVSPost2010Prop32
280
     0
102
RTVSPost2010PropOp32
 70
     1
102
RTVSPost2010Prop33
280
     0
102
RTVSPost2010PropOp33
 70
     1
102
RTVSPost2010Prop34
280
     0
102
RTVSPost2010PropOp34
 70
     1
102
RTVSPost2010Prop35
280
     0
102
RTVSPost2010PropOp35
 70
     1
102
RTVSPost2010Prop36
280
     0
102
RTVSPost2010PropOp36
 70
     1
102
RTVSPost2010Prop37
 90
       50
102
RTVSPost2010PropOp37
 70
     1
102
RTVSPost2010Prop38
140
0.0
102
RTVSPost2010PropOp38
 70
     1
102
RTVSPost2010Prop39
140
1.0
102
RTVSPost2010PropOp39
 70
     1
102
RTVSPost2010Prop40
 90
        0
102
RTVSPost2010PropOp40
 70
     1
102
RTVSPost2010Prop41ColorIndex
 90
       18
102
RTVSPost2010Prop41ColorRGB
 90
        0
102
RTVSPost2010PropOp41
 70
     1
102
RTVSPost2010Prop42
 90
       50
102
RTVSPost2010PropOp42
 70
     1
102
RTVSPost2010Prop43
 90
        3
102
RTVSPost2010PropOp43
 70
     1
102
RTVSPost2010Prop44ColorIndex
 90
        5
102
RTVSPost2010Prop44ColorRGB
 90
      255
102
RTVSPost2010PropOp44
 70
     1
102
RTVSPost2010Prop45
280
     0
102
RTVSPost2010PropOp45
 70
     1
102
RTVSPost2010Prop46
 90
       50
102
RTVSPost2010PropOp46
 70
     1
102
RTVSPost2010Prop47
 90
       50
102
RTVSPost2010PropOp47
 70
     1
102
RTVSPost2010Prop48
 90
       50
102
RTVSPost2010PropOp48
 70
     1
102
RTVSPost2010Prop49
280
     0
102
RTVSPost2010PropOp49
 70
     1
102
RTVSPost2010Prop50
 90
       50
102
RTVSPost2010PropOp50
 70
     1
102
RTVSPost2010Prop51ColorIndex
 90
      256
102
RTVSPost2010Prop51ColorRGB
 90
-16777216
102
RTVSPost2010PropOp51
 70
     0
102
RTVSPost2010Prop52
140
1.0
102
RTVSPost2010PropOp52
 70
     0
102
RTVSPost2010Prop53
 90
        2
102
RTVSPost2010PropOp53
 70
     1
102
RTVSPost2010Prop54
  1
strokes_ogs.tif
102
RTVSPost2010PropOp54
 70
     1
102
RTVSPost2010Prop55
280
     0
102
RTVSPost2010PropOp55
 70
     1
102
RTVSPost2010Prop56
140
1.0
102
RTVSPost2010PropOp56
 70
     1
102
RTVSPost2010Prop57
140
1.0
102
RTVSPost2010PropOp57
 70
     1
102
RTVSPropertyOp0
 70
     1
102
RTVSPropertyOp1
 70
     1
102
RTVSPropertyOp2
 70
     1
102
RTVSPropertyOp3
 70
     1
102
RTVSPropertyOp4
 70
     1
102
RTVSPropertyOp5
 70
     1
102
RTVSPropertyOp6
 70
     1
102
RTVSPropertyOp7
 70
     1
102
RTVSPropertyOp8
 70
     1
102
RTVSPropertyOp9
 70
     1
102
RTVSPropertyOp10
 70
     1
102
RTVSPropertyOp11
 70
     1
102
RTVSPropertyOp12
 70
     1
102
RTVSPropertyOp13
 70
     1
102
RTVSPropertyOp14
 70
     1
102
RTVSPropertyOp15
 70
     1
102
RTVSPropertyOp16
 70
     1
102
RTVSPropertyOp17
 70
     1
102
RTVSPropertyOp18
 70
     1
102
RTVSPropertyOp19
 70
     1
102
RTVSPropertyOp20
 70
     1
102
RTVSPropertyOp21
 70
     1
102
RTVSPropertyOp22
 70
     1
102
RTVSPropertyOp23
 70
     1
102
RTVSPropertyOp24
 70
     1
102
RTVSPropertyOp25
 70
     1
102
RTVSPropertyOp26
 70
     1
102
RTVSPropertyOp27
 70
     1
102
RTVSPropertyOp28
 70
     1
102
RTVSPropertyOp29
 70
     1
102
RTVSPropertyOp30
 70
     1
102
RTVSPropertyOp31
 70
     1
102
RTVSPropertyOp32
 70
     1
102
RTVSPropertyOp33
 70
     1
102
RTVSPropertyOp34
 70
     1
102
RTVSPropertyOp35
 70
     1
102
RTVSPropertyOp36
 70
     1
102
RTVSPropertyOp37
 70
     1
102
RTVSPropertyOp38
 70
     1
102
RTVSPropertyOp39
 70
     1
102
RTVSPropertyOp40
 70
     1
102
RTVSPropertyOp41
 70
     1
102
RTVSPropertyOp42
 70
     1
102
RTVSPropertyOp43
 70
     1
102
RTVSPropertyOp44
 70
     1
102
RTVSPropertyOp45
 70
     1
102
RTVSPropertyOp46
 70
     1
102
RTVSPropertyOp47
 70
     1
102
RTVSPropertyOp48
 70
     1
102
RTVSPropertyOp49
 70
     1
102
RTVSPropertyOp50
 70
     1
102
RTVSPropertyOp51
 70
     0
102
RTVSPropertyOp52
 70
     0
102
RTVSPropertyOp53
 70
     1
102
RTVSPropertyOp54
 70
     1
102
RTVSPropertyOp55
 70
     1
102
RTVSPropertyOp56
 70
     1
102
RTVSPropertyOp57
 70
     1
102
RTVSPropertyOp58
 70
     1
102
RTVSPropertyOp59
 70
     1
102
RTVSPropertyOp60
 70
     1
102
RTVSPropertyOp61
 70
     1
102
RTVSPropertyOp62
 70
     1
  0
XRECORD
  5
50D
102
{ACAD_REACTORS
330
50C
102
}
330
50C
100
AcDbXrecord
280
     1
102
RTVSPost2010Prop28
280
     0
102
RTVSPost2010PropOp28
 70
     1
102
RTVSPost2010Prop29
280
     1
102
RTVSPost2010PropOp29
 70
     1
102
RTVSPost2010Prop30
280
     1
102
RTVSPost2010PropOp30
 70
     1
102
RTVSPost2010Prop31
280
     0
102
RTVSPost2010PropOp31
 70
     1
102
RTVSPost2010Prop32
280
     0
102
RTVSPost2010PropOp32
 70
     1
102
RTVSPost2010Prop33
280
     0
102
RTVSPost2010PropOp33
 70
     1
102
RTVSPost2010Prop34
280
     0
102
RTVSPost2010PropOp34
 70
     1
102
RTVSPost2010Prop35
280
     0
102
RTVSPost2010PropOp35
 70
     1
102
RTVSPost2010Prop36
280
     0
102
RTVSPost2010PropOp36
 70
     1
102
RTVSPost2010Prop37
 90
       50
102
RTVSPost2010PropOp37
 70
     1
102
RTVSPost2010Prop38
140
0.0
102
RTVSPost2010PropOp38
 70
     1
102
RTVSPost2010Prop39
140
1.0
102
RTVSPost2010PropOp39
 70
     1
102
RTVSPost2010Prop40
 90
        0
102
RTVSPost2010PropOp40
 70
     1
102
RTVSPost2010Prop41ColorIndex
 90
       18
102
RTVSPost2010Prop41ColorRGB
 90
        0
102
RTVSPost2010PropOp41
 70
     1
102
RTVSPost2010Prop42
 90
       50
102
RTVSPost2010PropOp42
 70
     1
102
RTVSPost2010Prop43
 90
        3
102
RTVSPost2010PropOp43
 70
     1
102
RTVSPost2010Prop44ColorIndex
 90
        5
102
RTVSPost2010Prop44ColorRGB
 90
      255
102
RTVSPost2010PropOp44
 70
     1
102
RTVSPost2010Prop45
280
     0
102
RTVSPost2010PropOp45
 70
     1
102
RTVSPost2010Prop46
 90
       50
102
RTVSPost2010PropOp46
 70
     1
102
RTVSPost2010Prop47
 90
       50
102
RTVSPost2010PropOp47
 70
     1
102
RTVSPost2010Prop48
 90
       50
102
RTVSPost2010PropOp48
 70
     1
102
RTVSPost2010Prop49
280
     0
102
RTVSPost2010PropOp49
 70
     1
102
RTVSPost2010Prop50
 90
       50
102
RTVSPost2010PropOp50
 70
     1
102
RTVSPost2010Prop51ColorIndex
 90
      256
102
RTVSPost2010Prop51ColorRGB
 90
-16777216
102
RTVSPost2010PropOp51
 70
     0
102
RTVSPost2010Prop52
140
1.0
102
RTVSPost2010PropOp52
 70
     0
102
RTVSPost2010Prop53
 90
        2
102
RTVSPost2010PropOp53
 70
     1
102
RTVSPost2010Prop54
  1
strokes_ogs.tif
102
RTVSPost2010PropOp54
 70
     1
102
RTVSPost2010Prop55
280
     0
102
RTVSPost2010PropOp55
 70
     1
102
RTVSPost2010Prop56
140
1.0
102
RTVSPost2010PropOp56
 70
     1
102
RTVSPost2010Prop57
140
1.0
102
RTVSPost2010PropOp57
 70
     1
102
RTVSPropertyOp0
 70
     1
102
RTVSPropertyOp1
 70
     1
102
RTVSPropertyOp2
 70
     1
102
RTVSPropertyOp3
 70
     1
102
RTVSPropertyOp4
 70
     1
102
RTVSPropertyOp5
 70
     1
102
RTVSPropertyOp6
 70
     1
102
RTVSPropertyOp7
 70
     1
102
RTVSPropertyOp8
 70
     1
102
RTVSPropertyOp9
 70
     1
102
RTVSPropertyOp10
 70
     1
102
RTVSPropertyOp11
 70
     1
102
RTVSPropertyOp12
 70
     1
102
RTVSPropertyOp13
 70
     1
102
RTVSPropertyOp14
 70
     1
102
RTVSPropertyOp15
 70
     1
102
RTVSPropertyOp16
 70
     1
102
RTVSPropertyOp17
 70
     1
102
RTVSPropertyOp18
 70
     1
102
RTVSPropertyOp19
 70
     1
102
RTVSPropertyOp20
 70
     1
102
RTVSPropertyOp21
 70
     1
102
RTVSPropertyOp22
 70
     1
102
RTVSPropertyOp23
 70
     1
102
RTVSPropertyOp24
 70
     1
102
RTVSPropertyOp25
 70
     1
102
RTVSPropertyOp26
 70
     1
102
RTVSPropertyOp27
 70
     1
102
RTVSPropertyOp28
 70
     1
102
RTVSPropertyOp29
 70
     1
102
RTVSPropertyOp30
 70
     1
102
RTVSPropertyOp31
 70
     1
102
RTVSPropertyOp32
 70
     1
102
RTVSPropertyOp33
 70
     1
102
RTVSPropertyOp34
 70
     1
102
RTVSPropertyOp35
 70
     1
102
RTVSPropertyOp36
 70
     1
102
RTVSPropertyOp37
 70
     1
102
RTVSPropertyOp38
 70
     1
102
RTVSPropertyOp39
 70
     1
102
RTVSPropertyOp40
 70
     1
102
RTVSPropertyOp41
 70
     1
102
RTVSPropertyOp42
 70
     1
102
RTVSPropertyOp43
 70
     1
102
RTVSPropertyOp44
 70
     1
102
RTVSPropertyOp45
 70
     1
102
RTVSPropertyOp46
 70
     1
102
RTVSPropertyOp47
 70
     1
102
RTVSPropertyOp48
 70
     1
102
RTVSPropertyOp49
 70
     1
102
RTVSPropertyOp50
 70
     1
102
RTVSPropertyOp51
 70
     0
102
RTVSPropertyOp52
 70
     0
102
RTVSPropertyOp53
 70
     1
102
RTVSPropertyOp54
 70
     1
102
RTVSPropertyOp55
 70
     1
102
RTVSPropertyOp56
 70
     1
102
RTVSPropertyOp57
 70
     1
102
RTVSPropertyOp58
 70
     1
102
RTVSPropertyOp59
 70
     1
102
RTVSPropertyOp60
 70
     1
102
RTVSPropertyOp61
 70
     1
102
RTVSPropertyOp62
 70
     1
  0
XRECORD
  5
525
102
{ACAD_REACTORS
330
524
102
}
330
524
100
AcDbXrecord
280
     1
102
RTVSPost2010Prop28
280
     0
102
RTVSPost2010PropOp28
 70
     1
102
RTVSPost2010Prop29
280
     1
102
RTVSPost2010PropOp29
 70
     1
102
RTVSPost2010Prop30
280
     1
102
RTVSPost2010PropOp30
 70
     1
102
RTVSPost2010Prop31
280
     0
102
RTVSPost2010PropOp31
 70
     1
102
RTVSPost2010Prop32
280
     0
102
RTVSPost2010PropOp32
 70
     1
102
RTVSPost2010Prop33
280
     0
102
RTVSPost2010PropOp33
 70
     1
102
RTVSPost2010Prop34
280
     0
102
RTVSPost2010PropOp34
 70
     1
102
RTVSPost2010Prop35
280
     0
102
RTVSPost2010PropOp35
 70
     1
102
RTVSPost2010Prop36
280
     0
102
RTVSPost2010PropOp36
 70
     1
102
RTVSPost2010Prop37
 90
       50
102
RTVSPost2010PropOp37
 70
     1
102
RTVSPost2010Prop38
140
0.0
102
RTVSPost2010PropOp38
 70
     1
102
RTVSPost2010Prop39
140
1.0
102
RTVSPost2010PropOp39
 70
     1
102
RTVSPost2010Prop40
 90
        0
102
RTVSPost2010PropOp40
 70
     1
102
RTVSPost2010Prop41ColorIndex
 90
       18
102
RTVSPost2010Prop41ColorRGB
 90
        0
102
RTVSPost2010PropOp41
 70
     1
102
RTVSPost2010Prop42
 90
       50
102
RTVSPost2010PropOp42
 70
     1
102
RTVSPost2010Prop43
 90
        3
102
RTVSPost2010PropOp43
 70
     1
102
RTVSPost2010Prop44ColorIndex
 90
        5
102
RTVSPost2010Prop44ColorRGB
 90
      255
102
RTVSPost2010PropOp44
 70
     1
102
RTVSPost2010Prop45
280
     0
102
RTVSPost2010PropOp45
 70
     1
102
RTVSPost2010Prop46
 90
       50
102
RTVSPost2010PropOp46
 70
     1
102
RTVSPost2010Prop47
 90
       50
102
RTVSPost2010PropOp47
 70
     1
102
RTVSPost2010Prop48
 90
       50
102
RTVSPost2010PropOp48
 70
     1
102
RTVSPost2010Prop49
280
     0
102
RTVSPost2010PropOp49
 70
     1
102
RTVSPost2010Prop50
 90
       50
102
RTVSPost2010PropOp50
 70
     1
102
RTVSPost2010Prop51ColorIndex
 90
      256
102
RTVSPost2010Prop51ColorRGB
 90
-16777216
102
RTVSPost2010PropOp51
 70
     0
102
RTVSPost2010Prop52
140
1.0
102
RTVSPost2010PropOp52
 70
     0
102
RTVSPost2010Prop53
 90
        2
102
RTVSPost2010PropOp53
 70
     1
102
RTVSPost2010Prop54
  1
strokes_ogs.tif
102
RTVSPost2010PropOp54
 70
     1
102
RTVSPost2010Prop55
280
     0
102
RTVSPost2010PropOp55
 70
     1
102
RTVSPost2010Prop56
140
1.0
102
RTVSPost2010PropOp56
 70
     1
102
RTVSPost2010Prop57
140
1.0
102
RTVSPost2010PropOp57
 70
     1
102
RTVSPropertyOp0
 70
     1
102
RTVSPropertyOp1
 70
     1
102
RTVSPropertyOp2
 70
     1
102
RTVSPropertyOp3
 70
     1
102
RTVSPropertyOp4
 70
     1
102
RTVSPropertyOp5
 70
     1
102
RTVSPropertyOp6
 70
     1
102
RTVSPropertyOp7
 70
     1
102
RTVSPropertyOp8
 70
     1
102
RTVSPropertyOp9
 70
     1
102
RTVSPropertyOp10
 70
     1
102
RTVSPropertyOp11
 70
     1
102
RTVSPropertyOp12
 70
     1
102
RTVSPropertyOp13
 70
     1
102
RTVSPropertyOp14
 70
     1
102
RTVSPropertyOp15
 70
     1
102
RTVSPropertyOp16
 70
     1
102
RTVSPropertyOp17
 70
     1
102
RTVSPropertyOp18
 70
     1
102
RTVSPropertyOp19
 70
     1
102
RTVSPropertyOp20
 70
     1
102
RTVSPropertyOp21
 70
     1
102
RTVSPropertyOp22
 70
     1
102
RTVSPropertyOp23
 70
     1
102
RTVSPropertyOp24
 70
     1
102
RTVSPropertyOp25
 70
     1
102
RTVSPropertyOp26
 70
     1
102
RTVSPropertyOp27
 70
     1
102
RTVSPropertyOp28
 70
     1
102
RTVSPropertyOp29
 70
     1
102
RTVSPropertyOp30
 70
     1
102
RTVSPropertyOp31
 70
     1
102
RTVSPropertyOp32
 70
     1
102
RTVSPropertyOp33
 70
     1
102
RTVSPropertyOp34
 70
     1
102
RTVSPropertyOp35
 70
     1
102
RTVSPropertyOp36
 70
     1
102
RTVSPropertyOp37
 70
     1
102
RTVSPropertyOp38
 70
     1
102
RTVSPropertyOp39
 70
     1
102
RTVSPropertyOp40
 70
     1
102
RTVSPropertyOp41
 70
     1
102
RTVSPropertyOp42
 70
     1
102
RTVSPropertyOp43
 70
     1
102
RTVSPropertyOp44
 70
     1
102
RTVSPropertyOp45
 70
     1
102
RTVSPropertyOp46
 70
     1
102
RTVSPropertyOp47
 70
     1
102
RTVSPropertyOp48
 70
     1
102
RTVSPropertyOp49
 70
     1
102
RTVSPropertyOp50
 70
     1
102
RTVSPropertyOp51
 70
     0
102
RTVSPropertyOp52
 70
     0
102
RTVSPropertyOp53
 70
     1
102
RTVSPropertyOp54
 70
     1
102
RTVSPropertyOp55
 70
     1
102
RTVSPropertyOp56
 70
     1
102
RTVSPropertyOp57
 70
     1
102
RTVSPropertyOp58
 70
     1
102
RTVSPropertyOp59
 70
     1
102
RTVSPropertyOp60
 70
     1
102
RTVSPropertyOp61
 70
     1
102
RTVSPropertyOp62
 70
     1
  0
ENDSEC
  0
EOF
