  0
SECTION
  2
HEADER
  9
$ACADVER
  1
AC1018
  9
$ACADMAINTVER
 70
   104
  9
$DWGCODEPAGE
  3
ANSI_932
  9
$LASTSAVEDBY
  1
0003051
  9
$INSBASE
 10
0.0
 20
0.0
 30
0.0
  9
$EXTMIN
 10
-0.01209808
 20
-0.00860297
 30
0.0
  9
$EXTMAX
 10
793.42852736
 20
564.20862485
 30
0.0
  9
$LIMMIN
 10
0.0
 20
0.0
  9
$LIMMAX
 10
420.0
 20
297.0
  9
$ORTHOMODE
 70
     0
  9
$REGENMODE
 70
     1
  9
$FILLMODE
 70
     1
  9
$QTEXTMODE
 70
     0
  9
$MIRRTEXT
 70
     0
  9
$LTSCALE
 40
1.0
  9
$ATTMODE
 70
     1
  9
$TEXTSIZE
 40
3.0
  9
$TRACEWID
 40
1.0
  9
$TEXTSTYLE
  7
STANDARD
  9
$CLAYER
  8
0
  9
$CELTYPE
  6
BYLAYER
  9
$CECOLOR
 62
   256
  9
$CELTSCALE
 40
1.0
  9
$DISPSILH
 70
     1
  9
$DIMSCALE
 40
1.0
  9
$DIMASZ
 40
1.5
  9
$DIMEXO
 40
2.0
  9
$DIMDLI
 40
10.0
  9
$DIMRND
 40
0.0
  9
$DIMDLE
 40
0.0
  9
$DIMEXE
 40
2.0
  9
$DIMTP
 40
0.0
  9
$DIMTM
 40
0.0
  9
$DIMTXT
 40
3.0
  9
$DIMCEN
 40
0.0
  9
$DIMTSZ
 40
0.0
  9
$DIMTOL
 70
     0
  9
$DIMLIM
 70
     0
  9
$DIMTIH
 70
     0
  9
$DIMTOH
 70
     0
  9
$DIMSE1
 70
     0
  9
$DIMSE2
 70
     0
  9
$DIMTAD
 70
     0
  9
$DIMZIN
 70
     0
  9
$DIMBLK
  1

  9
$DIMASO
 70
     1
  9
$DIMSHO
 70
     1
  9
$DIMPOST
  1

  9
$DIMAPOST
  1

  9
$DIMALT
 70
     0
  9
$DIMALTD
 70
     2
  9
$DIMALTF
 40
0.0394
  9
$DIMLFAC
 40
1.0
  9
$DIMTOFL
 70
     1
  9
$DIMTVP
 40
1.0
  9
$DIMTIX
 70
     0
  9
$DIMSOXD
 70
     0
  9
$DIMSAH
 70
     1
  9
$DIMBLK1
  1
DOT1
  9
$DIMBLK2
  1
DOT1
  9
$DIMSTYLE
  2
YKK_OSADOT
  9
$DIMCLRD
 70
     0
  9
$DIMCLRE
 70
     0
  9
$DIMCLRT
 70
     0
  9
$DIMTFAC
 40
1.0
  9
$DIMGAP
 40
0.01
  9
$DIMJUST
 70
     0
  9
$DIMSD1
 70
     0
  9
$DIMSD2
 70
     0
  9
$DIMTOLJ
 70
     1
  9
$DIMTZIN
 70
    12
  9
$DIMALTZ
 70
    12
  9
$DIMALTTZ
 70
    12
  9
$DIMUPT
 70
     0
  9
$DIMDEC
 70
     4
  9
$DIMTDEC
 70
     4
  9
$DIMALTU
 70
     2
  9
$DIMALTTD
 70
     2
  9
$DIMTXSTY
  7
STANDARD
  9
$DIMAUNIT
 70
     0
  9
$DIMADEC
 70
     0
  9
$DIMALTRND
 40
0.0
  9
$DIMAZIN
 70
     0
  9
$DIMDSEP
 70
    46
  9
$DIMATFIT
 70
     3
  9
$DIMFRAC
 70
     0
  9
$DIMLDRBLK
  1

  9
$DIMLUNIT
 70
     2
  9
$DIMLWD
 70
    -2
  9
$DIMLWE
 70
    -2
  9
$DIMTMOVE
 70
     2
  9
$LUNITS
 70
     2
  9
$LUPREC
 70
     4
  9
$SKETCHINC
 40
1.0
  9
$FILLETRAD
 40
0.0
  9
$AUNITS
 70
     0
  9
$AUPREC
 70
     0
  9
$MENU
  1
.
  9
$ELEVATION
 40
0.0
  9
$PELEVATION
 40
0.0
  9
$THICKNESS
 40
0.0
  9
$LIMCHECK
 70
     0
  9
$CHAMFERA
 40
0.0
  9
$CHAMFERB
 40
0.0
  9
$CHAMFERC
 40
0.0
  9
$CHAMFERD
 40
0.0
  9
$SKPOLY
 70
     0
  9
$TDCREATE
 40
2452591.511588311
  9
$TDUCREATE
 40
2452591.136588310
  9
$TDUPDATE
 40
2457837.480053403
  9
$TDUUPDATE
 40
2457837.105053403
  9
$TDINDWG
 40
0.0077376157
  9
$TDUSRTIMER
 40
0.0077376157
  9
$USRTIMER
 70
     1
  9
$ANGBASE
 50
0.0
  9
$ANGDIR
 70
     0
  9
$PDMODE
 70
     0
  9
$PDSIZE
 40
0.0
  9
$PLINEWID
 40
0.0
  9
$SPLFRAME
 70
     0
  9
$SPLINETYPE
 70
     6
  9
$SPLINESEGS
 70
     8
  9
$HANDSEED
  5
713
  9
$SURFTAB1
 70
     6
  9
$SURFTAB2
 70
     6
  9
$SURFTYPE
 70
     6
  9
$SURFU
 70
     6
  9
$SURFV
 70
     6
  9
$UCSBASE
  2

  9
$UCSNAME
  2

  9
$UCSORG
 10
0.0
 20
0.0
 30
0.0
  9
$UCSXDIR
 10
1.0
 20
0.0
 30
0.0
  9
$UCSYDIR
 10
0.0
 20
1.0
 30
0.0
  9
$UCSORTHOREF
  2

  9
$UCSORTHOVIEW
 70
     0
  9
$UCSORGTOP
 10
0.0
 20
0.0
 30
0.0
  9
$UCSORGBOTTOM
 10
0.0
 20
0.0
 30
0.0
  9
$UCSORGLEFT
 10
0.0
 20
0.0
 30
0.0
  9
$UCSORGRIGHT
 10
0.0
 20
0.0
 30
0.0
  9
$UCSORGFRONT
 10
0.0
 20
0.0
 30
0.0
  9
$UCSORGBACK
 10
0.0
 20
0.0
 30
0.0
  9
$PUCSBASE
  2

  9
$PUCSNAME
  2

  9
$PUCSORG
 10
0.0
 20
0.0
 30
0.0
  9
$PUCSXDIR
 10
1.0
 20
0.0
 30
0.0
  9
$PUCSYDIR
 10
0.0
 20
1.0
 30
0.0
  9
$PUCSORTHOREF
  2

  9
$PUCSORTHOVIEW
 70
     0
  9
$PUCSORGTOP
 10
0.0
 20
0.0
 30
0.0
  9
$PUCSORGBOTTOM
 10
0.0
 20
0.0
 30
0.0
  9
$PUCSORGLEFT
 10
0.0
 20
0.0
 30
0.0
  9
$PUCSORGRIGHT
 10
0.0
 20
0.0
 30
0.0
  9
$PUCSORGFRONT
 10
0.0
 20
0.0
 30
0.0
  9
$PUCSORGBACK
 10
0.0
 20
0.0
 30
0.0
  9
$USERI1
 70
     0
  9
$USERI2
 70
     0
  9
$USERI3
 70
     0
  9
$USERI4
 70
     0
  9
$USERI5
 70
     0
  9
$USERR1
 40
0.0
  9
$USERR2
 40
0.0
  9
$USERR3
 40
0.0
  9
$USERR4
 40
0.0
  9
$USERR5
 40
0.0
  9
$WORLDVIEW
 70
     1
  9
$SHADEDGE
 70
     3
  9
$SHADEDIF
 70
    70
  9
$TILEMODE
 70
     1
  9
$MAXACTVP
 70
    48
  9
$PINSBASE
 10
0.0
 20
0.0
 30
0.0
  9
$PLIMCHECK
 70
     0
  9
$PEXTMIN
 10
1.00000000E+20
 20
1.00000000E+20
 30
1.00000000E+20
  9
$PEXTMAX
 10
-1.00000000E+20
 20
-1.00000000E+20
 30
-1.00000000E+20
  9
$PLIMMIN
 10
0.0
 20
0.0
  9
$PLIMMAX
 10
420.0
 20
297.0
  9
$UNITMODE
 70
     0
  9
$VISRETAIN
 70
     1
  9
$PLINEGEN
 70
     0
  9
$PSLTSCALE
 70
     1
  9
$TREEDEPTH
 70
  3020
  9
$CMLSTYLE
  2
STANDARD
  9
$CMLJUST
 70
     0
  9
$CMLSCALE
 40
1.0
  9
$PROXYGRAPHICS
 70
     1
  9
$MEASUREMENT
 70
     1
  9
$CELWEIGHT
370
    -1
  9
$ENDCAPS
280
     0
  9
$JOINSTYLE
280
     0
  9
$LWDISPLAY
290
     0
  9
$INSUNITS
 70
     0
  9
$HYPERLINKBASE
  1

  9
$STYLESHEET
  1

  9
$XEDIT
290
     1
  9
$CEPSNTYPE
380
     0
  9
$PSTYLEMODE
290
     1
  9
$FINGERPRINTGUID
  2
{06FDB1B3-37B5-4CC5-B4C0-B98CE9454A00}
  9
$VERSIONGUID
  2
{B2E3E928-E93A-46D5-8D32-C46471DF557A}
  9
$EXTNAMES
290
     1
  9
$PSVPSCALE
 40
0.0
  9
$OLESTARTUP
290
     0
  9
$SORTENTS
280
   127
  9
$INDEXCTL
280
     0
  9
$HIDETEXT
280
     0
  9
$XCLIPFRAME
290
     0
  9
$HALOGAP
280
     0
  9
$OBSCOLOR
 70
   257
  9
$OBSLTYPE
280
     0
  9
$INTERSECTIONDISPLAY
280
     0
  9
$INTERSECTIONCOLOR
 70
   257
  9
$DIMASSOC
280
     1
  9
$PROJECTNAME
  1

  0
ENDSEC
  0
SECTION
  2
CLASSES
  0
CLASS
  1
DICTIONARYVAR
  2
AcDbDictionaryVar
  3
ObjectDBX Classes
 90
        0
 91
        7
280
     0
281
     0
  0
CLASS
  1
ACDBDICTIONARYWDFLT
  2
AcDbDictionaryWithDefault
  3
ObjectDBX Classes
 90
        0
 91
        1
280
     1
281
     0
  0
CLASS
  1
MATERIAL
  2
AcDbMaterial
  3
ObjectDBX Classes
 90
     1153
 91
        3
280
     0
281
     0
  0
CLASS
  1
VISUALSTYLE
  2
AcDbVisualStyle
  3
ObjectDBX Classes
 90
     4095
 91
       24
280
     0
281
     0
  0
CLASS
  1
TABLESTYLE
  2
AcDbTableStyle
  3
ObjectDBX Classes
 90
     4095
 91
        1
280
     0
281
     0
  0
CLASS
  1
SCALE
  2
AcDbScale
  3
ObjectDBX Classes
 90
     1153
 91
       17
280
     0
281
     0
  0
CLASS
  1
MLEADERSTYLE
  2
AcDbMLeaderStyle
  3
ACDB_MLEADERSTYLE_CLASS
 90
     4095
 91
        1
280
     0
281
     0
  0
CLASS
  1
ACDBSECTIONVIEWSTYLE
  2
AcDbSectionViewStyle
  3
ObjectDBX Classes
 90
     1025
 91
        2
280
     0
281
     0
  0
CLASS
  1
ACDBDETAILVIEWSTYLE
  2
AcDbDetailViewStyle
  3
ObjectDBX Classes
 90
     1025
 91
        2
280
     0
281
     0
  0
CLASS
  1
CELLSTYLEMAP
  2
AcDbCellStyleMap
  3
ObjectDBX Classes
 90
     1152
 91
        2
280
     0
281
     0
  0
ENDSEC
  0
SECTION
  2
TABLES
  0
TABLE
  2
VPORT
  5
16
102
{ACAD_XDICTIONARY
360
68E
102
}
330
0
100
AcDbSymbolTable
 70
     1
  0
VPORT
  5
5CE
330
16
100
AcDbSymbolTableRecord
100
AcDbViewportTableRecord
  2
*ACTIVE
 70
     0
 10
0.0
 20
0.0
 11
1.0
 21
1.0
 12
396.70821464
 22
282.10001094
 13
0.0
 23
0.0
 14
10.0
 24
10.0
 15
10.0
 25
10.0
 16
0.0
 26
0.0
 36
1.0
 17
0.0
 27
0.0
 37
0.0
 40
568.12184531
 41
1.89953811
 42
50.0
 43
0.0
 44
0.0
 50
0.0
 51
0.0
 71
     0
 72
  1000
 73
     1
 74
     0
 75
     0
 76
     0
 77
     0
 78
     0
281
     0
 65
     1
110
0.0
120
0.0
130
0.0
111
1.0
121
0.0
131
0.0
112
0.0
122
1.0
132
0.0
 79
     0
146
0.0
1001
ACAD_NAV_VCDISPLAY
1070
     1
  0
ENDTAB
  0
TABLE
  2
LTYPE
  5
11
330
0
100
AcDbSymbolTable
 70
     4
  0
LTYPE
  5
12
330
11
100
AcDbSymbolTableRecord
100
AcDbLinetypeTableRecord
  2
BYBLOCK
 70
     0
  3

 72
    65
 73
     0
 40
0.0
  0
LTYPE
  5
13
330
11
100
AcDbSymbolTableRecord
100
AcDbLinetypeTableRecord
  2
BYLAYER
 70
     0
  3

 72
    65
 73
     0
 40
0.0
  0
LTYPE
  5
7
330
11
100
AcDbSymbolTableRecord
100
AcDbLinetypeTableRecord
  2
CONTINUOUS
 70
     0
  3
Solid line
 72
    65
 73
     0
 40
0.0
  0
LTYPE
  5
3C
330
11
100
AcDbSymbolTableRecord
100
AcDbLinetypeTableRecord
  2
HIDDEN
 70
     0
  3
__ __ __ __ __ __ __ __ __ __ __ __ __ __ __ __
 72
    65
 73
     2
 40
0.375
 49
0.25
 74
     0
 49
-0.125
 74
     0
  0
LTYPE
  5
1A5
330
11
100
AcDbSymbolTableRecord
100
AcDbLinetypeTableRecord
  2
YCENTER_1
 70
     0
  3
中心線尺度1--- － --- － ---
 72
    65
 73
     4
 40
13.0
 49
10.0
 74
     0
 49
-1.0
 74
     0
 49
1.0
 74
     0
 49
-1.0
 74
     0
  0
LTYPE
  5
113
330
11
100
AcDbSymbolTableRecord
100
AcDbLinetypeTableRecord
  2
YHIDDEN_1
 70
     0
  3
破線尺度1－ － － － － － －
 72
    65
 73
     2
 40
4.0
 49
3.0
 74
     0
 49
-1.0
 74
     0
  0
ENDTAB
  0
TABLE
  2
LAYER
  5
E
330
0
100
AcDbSymbolTable
 70
     8
  0
LAYER
  5
6
102
{ACAD_XDICTIONARY
360
67C
102
}
330
E
100
AcDbSymbolTableRecord
100
AcDbLayerTableRecord
  2
0
 70
     0
 62
     7
  6
CONTINUOUS
370
    -3
390
5D1
  0
LAYER
  5
33
102
{ACAD_XDICTIONARY
360
67E
102
}
330
E
100
AcDbSymbolTableRecord
100
AcDbLayerTableRecord
  2
YKK_ZWAK
 70
     0
 62
     7
  6
CONTINUOUS
370
    -3
390
5D1
  0
LAYER
  5
31
102
{ACAD_XDICTIONARY
360
680
102
}
330
E
100
AcDbSymbolTableRecord
100
AcDbLayerTableRecord
  2
USER1
 70
     0
 62
     3
  6
CONTINUOUS
370
    -3
390
5D1
  0
LAYER
  5
2C
102
{ACAD_XDICTIONARY
360
682
102
}
330
E
100
AcDbSymbolTableRecord
100
AcDbLayerTableRecord
  2
YKK_11
 70
     0
 62
     7
  6
CONTINUOUS
370
    -3
390
5D1
  0
LAYER
  5
EF
102
{ACAD_XDICTIONARY
360
684
102
}
330
E
100
AcDbSymbolTableRecord
100
AcDbLayerTableRecord
  2
YKK_12
 70
     0
 62
     2
  6
CONTINUOUS
370
    -3
390
5D1
  0
LAYER
  5
112
102
{ACAD_XDICTIONARY
360
686
102
}
330
E
100
AcDbSymbolTableRecord
100
AcDbLayerTableRecord
  2
YKK_13
 70
     0
 62
     4
  6
CONTINUOUS
370
    -3
390
5D1
  0
LAYER
  5
39B
102
{ACAD_XDICTIONARY
360
688
102
}
330
E
100
AcDbSymbolTableRecord
100
AcDbLayerTableRecord
  2
YKK_A1
 70
     0
 62
     4
  6
CONTINUOUS
370
    -3
390
5D1
  0
LAYER
  5
FA
102
{ACAD_XDICTIONARY
360
68A
102
}
330
E
100
AcDbSymbolTableRecord
100
AcDbLayerTableRecord
  2
YKK_D
 70
     0
 62
     6
  6
CONTINUOUS
370
    -3
390
5D1
  0
ENDTAB
  0
TABLE
  2
STYLE
  5
F
330
0
100
AcDbSymbolTable
 70
     2
  0
STYLE
  5
10
330
F
100
AcDbSymbolTableRecord
100
AcDbTextStyleTableRecord
  2
STANDARD
 70
     0
 40
0.0
 41
1.0
 50
0.0
 71
     0
 42
3.0
  3
ROMANS.SHX
  4
EXTFONT.SHX
  0
STYLE
  5
42
330
F
100
AcDbSymbolTableRecord
100
AcDbTextStyleTableRecord
  2
YKK_OSSTYLE1
 70
     0
 40
0.0
 41
0.9
 50
0.0
 71
     0
 42
4.0
  3
romans.shx
  4
EXTFONT.SHX
  0
ENDTAB
  0
TABLE
  2
VIEW
  5
14
330
0
100
AcDbSymbolTable
 70
     0
  0
ENDTAB
  0
TABLE
  2
UCS
  5
15
330
0
100
AcDbSymbolTable
 70
     0
  0
ENDTAB
  0
TABLE
  2
APPID
  5
18
330
0
100
AcDbSymbolTable
 70
     7
  0
APPID
  5
19
330
18
100
AcDbSymbolTableRecord
100
AcDbRegAppTableRecord
  2
ACAD
 70
     0
  0
APPID
  5
5CA
330
18
100
AcDbSymbolTableRecord
100
AcDbRegAppTableRecord
  2
CONTENTTABDATA
 70
     0
  0
APPID
  5
5CB
330
18
100
AcDbSymbolTableRecord
100
AcDbRegAppTableRecord
  2
CONTENTCURRENTTAB
 70
     0
  0
APPID
  5
65C
330
18
100
AcDbSymbolTableRecord
100
AcDbRegAppTableRecord
  2
ACAD_MLEADERVER
 70
     0
  0
APPID
  5
670
330
18
100
AcDbSymbolTableRecord
100
AcDbRegAppTableRecord
  2
ACAD_PSEXT
 70
     0
  0
APPID
  5
671
330
18
100
AcDbSymbolTableRecord
100
AcDbRegAppTableRecord
  2
ACAD_NAV_VCDISPLAY
 70
     0
  0
APPID
  5
672
330
18
100
AcDbSymbolTableRecord
100
AcDbRegAppTableRecord
  2
YKK_AP_LOCKLAYER
 70
     0
  0
ENDTAB
  0
TABLE
  2
DIMSTYLE
  5
1A
330
0
100
AcDbSymbolTable
 70
     1
100
AcDbDimStyleTable
 71
     0
  0
DIMSTYLE
105
22
330
1A
100
AcDbSymbolTableRecord
100
AcDbDimStyleTableRecord
  2
YKK_OSADOT
 70
     0
 41
1.5
 42
2.0
 43
10.0
 44
2.0
 73
     0
 74
     0
 78
    12
140
3.0
141
0.0
143
0.0394
145
1.0
147
0.01
172
     1
173
     1
279
     2
284
    12
285
    12
286
    12
340
10
341
25
343
25
344
25
  0
ENDTAB
  0
TABLE
  2
BLOCK_RECORD
  5
1
330
0
100
AcDbSymbolTable
 70
     2
  0
BLOCK_RECORD
  5
2
102
{ACAD_XDICTIONARY
360
3
102
}
330
1
100
AcDbSymbolTableRecord
100
AcDbBlockTableRecord
  2
*MODEL_SPACE
340
623
  0
BLOCK_RECORD
  5
9
102
{ACAD_XDICTIONARY
360
A
102
}
330
1
100
AcDbSymbolTableRecord
100
AcDbBlockTableRecord
  2
*PAPER_SPACE
340
624
  0
BLOCK_RECORD
  5
25
330
1
100
AcDbSymbolTableRecord
100
AcDbBlockTableRecord
  2
DOT1
340
0
  0
BLOCK_RECORD
  5
34
330
1
100
AcDbSymbolTableRecord
100
AcDbBlockTableRecord
  2
A201
340
0
102
{BLKREFS
331
32
102
}
  0
ENDTAB
  0
ENDSEC
  0
SECTION
  2
BLOCKS
  0
BLOCK
  5
5
330
2
100
AcDbEntity
  8
0
100
AcDbBlockBegin
  2
*MODEL_SPACE
 70
     0
 10
0.0
 20
0.0
 30
0.0
  3
*MODEL_SPACE
  1

  0
ENDBLK
  5
8
330
2
100
AcDbEntity
  8
0
100
AcDbBlockEnd
  0
BLOCK
  5
C
330
9
100
AcDbEntity
 67
     1
  8
0
100
AcDbBlockBegin
  2
*PAPER_SPACE
 70
     0
 10
0.0
 20
0.0
 30
0.0
  3
*PAPER_SPACE
  1

  0
ENDBLK
  5
D
330
9
100
AcDbEntity
 67
     1
  8
0
100
AcDbBlockEnd
  0
BLOCK
  5
29
330
25
100
AcDbEntity
  8
0
100
AcDbBlockBegin
  2
DOT1
 70
     0
 10
0.0
 20
0.0
 30
0.0
  3
DOT1
  1

  0
CIRCLE
  5
26
330
25
100
AcDbEntity
  8
0
  6
ByBlock
 62
     0
370
    -2
100
AcDbCircle
 10
0.0
 20
0.0
 30
0.0
 40
0.5
  0
CIRCLE
  5
27
330
25
100
AcDbEntity
  8
0
  6
ByBlock
 62
     0
370
    -2
100
AcDbCircle
 10
0.0
 20
0.0
 30
0.0
 40
0.325
  0
LINE
  5
28
330
25
100
AcDbEntity
  8
0
  6
ByBlock
 62
     0
370
    -2
100
AcDbLine
 10
0.0
 20
0.0
 30
0.0
 11
-1.0
 21
0.0
 31
0.0
  0
ENDBLK
  5
2A
330
25
100
AcDbEntity
  8
0
100
AcDbBlockEnd
  0
BLOCK
  5
EC
330
34
100
AcDbEntity
  8
0
100
AcDbBlockBegin
  2
A201
 70
     0
 10
0.0
 20
0.0
 30
0.0
  3
A201
  1

  0
LINE
  5
35
330
34
100
AcDbEntity
  8
YKK_ZWAK
  6
Continuous
 62
   254
100
AcDbLine
 10
21.000001
 20
8.9995
 30
0.0
 11
544.000013
 21
8.9995
 31
0.0
  0
LINE
  5
36
330
34
100
AcDbEntity
  8
YKK_ZWAK
  6
Continuous
 62
   131
100
AcDbLine
 10
205.000005
 20
21.000001
 30
0.0
 11
297.000007
 21
21.000001
 31
0.0
  0
LINE
  5
37
330
34
100
AcDbEntity
  8
YKK_ZWAK
  6
Continuous
 62
   254
100
AcDbLine
 10
571.000014
 20
34.999501
 30
0.0
 11
21.000001
 21
34.999501
 31
0.0
  0
LINE
  5
38
330
34
100
AcDbEntity
  8
YKK_ZWAK
  6
Continuous
 62
   254
100
AcDbLine
 10
544.000013
 20
33.999501
 30
0.0
 11
21.000001
 21
33.999501
 31
0.0
  0
LINE
  5
39
330
34
100
AcDbEntity
  8
YKK_ZWAK
  6
Continuous
 62
   254
100
AcDbLine
 10
571.000014
 20
409.99951
 30
0.0
 11
21.000001
 21
409.99951
 31
0.0
  0
LINE
  5
3A
330
34
100
AcDbEntity
  8
YKK_ZWAK
  6
Continuous
 62
   254
100
AcDbLine
 10
21.000001
 20
34.999501
 30
0.0
 11
21.000001
 21
409.99951
 31
0.0
  0
LINE
  5
3B
330
34
100
AcDbEntity
  8
YKK_ZWAK
  6
HIDDEN
 62
   131
100
AcDbLine
 10
24.284751
 20
13.7865
 30
0.0
 11
201.565005
 21
13.7865
 31
0.0
  0
LINE
  5
3D
330
34
100
AcDbEntity
  8
YKK_ZWAK
  6
HIDDEN
 62
   131
100
AcDbLine
 10
24.284751
 20
18.7355
 30
0.0
 11
201.565005
 21
18.7355
 31
0.0
  0
LINE
  5
3E
330
34
100
AcDbEntity
  8
YKK_ZWAK
  6
HIDDEN
 62
   131
100
AcDbLine
 10
24.284751
 20
23.684501
 30
0.0
 11
201.565005
 21
23.684501
 31
0.0
  0
LINE
  5
3F
330
34
100
AcDbEntity
  8
YKK_ZWAK
  6
HIDDEN
 62
   131
100
AcDbLine
 10
24.284751
 20
28.633501
 30
0.0
 11
201.565005
 21
28.633501
 31
0.0
  0
LINE
  5
40
330
34
100
AcDbEntity
  8
YKK_ZWAK
  6
Continuous
 62
   254
100
AcDbLine
 10
21.000001
 20
8.9995
 30
0.0
 11
21.000001
 21
33.999501
 31
0.0
  0
TEXT
  5
41
330
34
100
AcDbEntity
  8
YKK_ZWAK
  6
Continuous
 62
   131
100
AcDbText
 10
24.367481
 20
29.394844
 30
0.0
 40
3.0
  1
変 更 記 事
 41
0.9
  7
YKK_OSSTYLE1
100
AcDbText
  0
TEXT
  5
43
330
34
100
AcDbEntity
  8
YKK_ZWAK
  6
Continuous
 62
   254
100
AcDbText
 10
289.94159
 20
12.3725
 30
0.0
 40
5.0
  1
殿
 41
0.9
  7
YKK_OSSTYLE1
100
AcDbText
  0
LINE
  5
44
330
34
100
AcDbEntity
  8
YKK_ZWAK
  6
Continuous
 62
   254
100
AcDbLine
 10
296.000007
 20
33.999501
 30
0.0
 11
296.000007
 21
8.9995
 31
0.0
  0
LINE
  5
45
330
34
100
AcDbEntity
  8
YKK_ZWAK
  6
Continuous
 62
   254
100
AcDbLine
 10
205.000005
 20
33.999501
 30
0.0
 11
205.000005
 21
8.9995
 31
0.0
  0
TEXT
  5
46
330
34
100
AcDbEntity
  8
YKK_ZWAK
  6
Continuous
 62
   131
100
AcDbText
 10
207.692335
 20
17.675001
 30
0.0
 40
3.0
  1
施　　工
 41
0.9
  7
YKK_OSSTYLE1
100
AcDbText
  0
TEXT
  5
47
330
34
100
AcDbEntity
  8
YKK_ZWAK
  6
Continuous
 62
   131
100
AcDbText
 10
207.692335
 20
30.047503
 30
0.0
 40
3.0
  1
設計監理
 41
0.9
  7
YKK_OSSTYLE1
100
AcDbText
  0
TEXT
  5
48
330
34
100
AcDbEntity
  8
YKK_ZWAK
  6
Continuous
 62
   254
100
AcDbText
 10
289.94159
 20
24.745001
 30
0.0
 40
5.0
  1
殿
 41
0.9
  7
YKK_OSSTYLE1
100
AcDbText
  0
LINE
  5
49
330
34
100
AcDbEntity
  8
YKK_ZWAK
  6
Continuous
 62
   254
100
AcDbLine
 10
19.000001
 20
222.4995055
 30
0.0
 11
21.000001
 21
222.4995055
 31
0.0
  0
LINE
  5
4A
330
34
100
AcDbEntity
  8
YKK_ZWAK
  6
Continuous
 62
     8
100
AcDbLine
 10
296.010007
 20
411.99951
 30
0.0
 11
296.010007
 21
409.99951
 31
0.0
  0
LINE
  5
4B
330
34
100
AcDbEntity
  8
YKK_ZWAK
  6
Continuous
 62
   254
100
AcDbLine
 10
571.000014
 20
409.99951
 30
0.0
 11
571.000014
 21
34.999501
 31
0.0
  0
LINE
  5
4C
330
34
100
AcDbEntity
  8
YKK_ZWAK
  6
Continuous
 62
   254
100
AcDbLine
 10
452.000011
 20
15.9995
 30
0.0
 11
523.999763
 21
15.9995
 31
0.0
  0
LINE
  5
4D
330
34
100
AcDbEntity
  8
YKK_ZWAK
  6
Continuous
 62
   131
100
AcDbLine
 10
437.703011
 20
29.000001
 30
0.0
 11
389.00001
 21
29.000001
 31
0.0
  0
LINE
  5
4E
330
34
100
AcDbEntity
  8
YKK_ZWAK
  6
Continuous
 62
   254
100
AcDbLine
 10
389.00001
 20
33.999501
 30
0.0
 11
389.00001
 21
8.9995
 31
0.0
  0
LINE
  5
4F
330
34
100
AcDbEntity
  8
YKK_ZWAK
  6
Continuous
 62
   131
100
AcDbLine
 10
297.000007
 20
21.000001
 30
0.0
 11
389.00001
 21
21.000001
 31
0.0
  0
TEXT
  5
50
330
34
100
AcDbEntity
  8
YKK_ZWAK
  6
Continuous
 62
   131
100
AcDbText
 10
298.58378403
 20
17.465002
 30
0.0
 40
3.0
  1
図面内容
 41
0.9
  7
YKK_OSSTYLE1
100
AcDbText
  0
TEXT
  5
51
330
34
100
AcDbEntity
  8
YKK_ZWAK
  6
Continuous
 62
   131
100
AcDbText
 10
298.86588
 20
30.047503
 30
0.0
 40
3.0
  1
工 事 名
 41
0.9
  7
YKK_OSSTYLE1
100
AcDbText
  0
TEXT
  5
52
330
34
100
AcDbEntity
  8
YKK_ZWAK
  6
Continuous
 62
   254
100
AcDbText
 10
377.16530176
 20
24.745001
 30
0.0
 40
5.0
  1
工事
 41
0.9
  7
YKK_OSSTYLE1
100
AcDbText
  0
LINE
  5
53
330
34
100
AcDbEntity
  8
YKK_ZWAK
  6
Continuous
 62
   254
100
AcDbLine
 10
452.000011
 20
33.999501
 30
0.0
 11
452.000011
 21
8.9995
 31
0.0
  0
LINE
  5
54
330
34
100
AcDbEntity
  8
YKK_ZWAK
  6
Continuous
 62
   254
100
AcDbLine
 10
437.000011
 20
33.999501
 30
0.0
 11
437.000011
 21
8.9995
 31
0.0
  0
LINE
  5
55
330
34
100
AcDbEntity
  8
YKK_ZWAK
  6
Continuous
 62
   131
100
AcDbLine
 10
443.051603
 20
10.181617
 30
0.0
 11
449.854371
 21
16.984384
 31
0.0
  0
LINE
  5
56
330
34
100
AcDbEntity
  8
YKK_ZWAK
  6
Continuous
 62
   131
100
AcDbLine
 10
421.00001
 20
33.999501
 30
0.0
 11
421.00001
 21
8.9995
 31
0.0
  0
LINE
  5
57
330
34
100
AcDbEntity
  8
YKK_ZWAK
  6
Continuous
 62
   131
100
AcDbLine
 10
405.00001
 20
33.999501
 30
0.0
 11
405.00001
 21
8.9995
 31
0.0
  0
TEXT
  5
58
330
34
100
AcDbEntity
  8
YKK_ZWAK
  6
Continuous
 62
   131
100
AcDbText
 10
392.18209354
 20
9.752325
 30
0.0
 40
3.5
  1
 ． ．
 41
0.9
  7
YKK_OSSTYLE1
100
AcDbText
  0
LINE
  5
59
330
34
100
AcDbEntity
  8
YKK_ZWAK
  6
Continuous
 62
   131
100
AcDbLine
 10
455.5999986
 20
10.4995
 30
0.0
 11
455.5999986
 21
8.9995
 31
0.0
  0
TEXT
  5
5A
330
34
100
AcDbEntity
  8
YKK_ZWAK
  6
Continuous
 62
   131
100
AcDbText
 10
407.8246491
 20
29.87075
 30
0.0
 40
3.0
  1
担  当
 41
0.9
  7
YKK_OSSTYLE1
100
AcDbText
  0
TEXT
  5
5B
330
34
100
AcDbEntity
  8
YKK_ZWAK
  6
Continuous
 62
   131
100
AcDbText
 10
392.5636631
 20
29.87075
 30
0.0
 40
3.0
  1
照  査
 41
0.9
  7
YKK_OSSTYLE1
100
AcDbText
  0
TEXT
  5
5C
330
34
100
AcDbEntity
  8
YKK_ZWAK
  6
Continuous
 62
   131
100
AcDbText
 10
424.0856971
 20
29.883751
 30
0.0
 40
3.0
  1
作  図
 41
0.9
  7
YKK_OSSTYLE1
100
AcDbText
  0
TEXT
  5
5D
330
34
100
AcDbEntity
  8
YKK_ZWAK
  6
Continuous
 62
   131
100
AcDbText
 10
453.905095
 20
30.047501
 30
0.0
 40
3.0
  1
御承認印
 41
0.9
  7
YKK_OSSTYLE1
100
AcDbText
  0
LINE
  5
5E
330
34
100
AcDbEntity
  8
YKK_ZWAK
  6
Continuous
 62
   131
100
AcDbLine
 10
437.703011
 20
29.000001
 30
0.0
 11
452.000011
 21
29.000001
 31
0.0
  0
LINE
  5
5F
330
34
100
AcDbEntity
  8
YKK_ZWAK
  6
Continuous
 62
   131
100
AcDbLine
 10
439.264403
 20
21.330812
 30
0.0
 11
446.188247
 21
28.254656
 31
0.0
  0
TEXT
  5
60
330
34
100
AcDbEntity
  8
YKK_ZWAK
  6
Continuous
 62
   131
100
AcDbText
 10
439.5087681
 20
30.044463
 30
0.0
 40
3.0
  1
尺  度
 41
0.9
  7
YKK_OSSTYLE1
100
AcDbText
  0
CIRCLE
  5
61
330
34
100
AcDbEntity
  8
YKK_ZWAK
  6
Continuous
 62
     8
100
AcDbCircle
 10
579.426014
 20
83.719502
 30
0.0
 40
6.299999999999999
  0
LINE
  5
62
330
34
100
AcDbEntity
  8
YKK_ZWAK
  6
Continuous
 62
     8
100
AcDbLine
 10
573.126014
 20
69.579502
 30
0.0
 11
585.726014
 21
69.579502
 31
0.0
  0
LINE
  5
63
330
34
100
AcDbEntity
  8
YKK_ZWAK
  6
Continuous
 62
     8
100
AcDbLine
 10
573.126014
 20
55.439501
 30
0.0
 11
585.726014
 21
55.439501
 31
0.0
  0
CIRCLE
  5
64
330
34
100
AcDbEntity
  8
YKK_ZWAK
  6
Continuous
 62
     8
100
AcDbCircle
 10
579.426014
 20
69.579502
 30
0.0
 40
6.299999999999999
  0
CIRCLE
  5
65
330
34
100
AcDbEntity
  8
YKK_ZWAK
  6
Continuous
 62
     8
100
AcDbCircle
 10
579.426014
 20
55.439501
 30
0.0
 40
6.299999999999999
  0
LINE
  5
66
330
34
100
AcDbEntity
  8
YKK_ZWAK
  6
Continuous
 62
     8
100
AcDbLine
 10
573.126014
 20
41.299501
 30
0.0
 11
585.726014
 21
41.299501
 31
0.0
  0
CIRCLE
  5
67
330
34
100
AcDbEntity
  8
YKK_ZWAK
  6
Continuous
 62
     8
100
AcDbCircle
 10
579.426014
 20
41.299501
 30
0.0
 40
6.299999999999999
  0
LINE
  5
68
330
34
100
AcDbEntity
  8
YKK_ZWAK
  6
Continuous
 62
   254
100
AcDbLine
 10
544.000013
 20
33.999501
 30
0.0
 11
544.000013
 21
8.9995
 31
0.0
  0
LINE
  5
69
330
34
100
AcDbEntity
  8
YKK_ZWAK
  6
Continuous
 62
   254
100
AcDbLine
 10
523.999763
 20
33.999501
 30
0.0
 11
523.999763
 21
8.9995
 31
0.0
  0
ARC
  5
6A
330
34
100
AcDbEntity
  8
YKK_ZWAK
  6
Continuous
 62
   254
100
AcDbCircle
 10
567.23923515
 20
16.32442811
 30
0.0
 40
3.065267824757687
100
AcDbArc
 50
285.44291453
 51
349.90448123
  0
ARC
  5
6B
330
34
100
AcDbEntity
  8
YKK_ZWAK
  6
Continuous
 62
   254
100
AcDbCircle
 10
553.606314
 20
13.7174867
 30
0.0
 40
7.916047100361496
100
AcDbArc
 50
168.7637177
 51
199.80079153
  0
ARC
  5
6C
330
34
100
AcDbEntity
  8
YKK_ZWAK
  6
Continuous
 62
   254
100
AcDbCircle
 10
550.84442657
 20
13.7651724
 30
0.0
 40
1.69178303147034
100
AcDbArc
 50
171.08203026
 51
216.71922793
  0
LINE
  5
6D
330
34
100
AcDbEntity
  8
YKK_ZWAK
  6
Continuous
 62
   254
100
AcDbLine
 10
562.610947
 20
9.566381
 30
0.0
 11
562.610947
 21
20.243049
 31
0.0
  0
LINE
  5
6E
330
34
100
AcDbEntity
  8
YKK_ZWAK
  6
Continuous
 62
   254
100
AcDbLine
 10
559.019868
 20
23.216355
 30
0.0
 11
559.019868
 21
9.566381
 31
0.0
  0
LINE
  5
6F
330
34
100
AcDbEntity
  8
YKK_ZWAK
  6
Continuous
 62
   254
100
AcDbLine
 10
557.513933
 20
20.011363
 30
0.0
 11
557.513933
 21
9.585666
 31
0.0
  0
LINE
  5
70
330
34
100
AcDbEntity
  8
YKK_ZWAK
  6
Continuous
 62
   254
100
AcDbLine
 10
554.019393
 20
12.520312
 30
0.0
 11
554.019393
 21
19.470807
 31
0.0
  0
LINE
  5
71
330
34
100
AcDbEntity
  8
YKK_ZWAK
  6
Continuous
 62
   254
100
AcDbLine
 10
557.28225
 20
9.547052
 30
0.0
 11
549.405042
 21
9.527722
 31
0.0
  0
LINE
  5
72
330
34
100
AcDbEntity
  8
YKK_ZWAK
  6
Continuous
 62
   254
100
AcDbLine
 10
550.00355
 20
12.520312
 30
0.0
 11
554.019393
 21
12.520312
 31
0.0
  0
ARC
  5
73
330
34
100
AcDbEntity
  8
YKK_ZWAK
  6
Continuous
 62
   254
100
AcDbCircle
 10
548.60007313
 20
12.25485189
 30
0.0
 40
2.730646981973357
100
AcDbArc
 50
207.31435415
 51
263.59464075
  0
ARC
  5
74
330
34
100
AcDbEntity
  8
YKK_ZWAK
  6
Continuous
 62
   254
100
AcDbCircle
 10
550.17864126
 20
13.59595698
 30
0.0
 40
1.089801345776779
100
AcDbArc
 50
230.97279559
 51
260.75491133
  0
LINE
  5
75
330
34
100
AcDbEntity
  8
YKK_ZWAK
  6
Continuous
 62
   254
100
AcDbLine
 10
549.405042
 20
9.527722
 30
0.0
 11
548.343169
 21
9.527722
 31
0.0
  0
LINE
  5
76
330
34
100
AcDbEntity
  8
YKK_ZWAK
  6
Continuous
 62
   254
100
AcDbLine
 10
557.513933
 20
9.585666
 30
0.0
 11
557.28225
 21
9.547052
 31
0.0
  0
LINE
  5
77
330
34
100
AcDbEntity
  8
YKK_ZWAK
  6
Continuous
 62
   254
100
AcDbLine
 10
553.71047
 20
12.520312
 30
0.0
 11
553.961471
 21
12.520312
 31
0.0
  0
LINE
  5
78
330
34
100
AcDbEntity
  8
YKK_ZWAK
  6
Continuous
 62
   254
100
AcDbLine
 10
554.019393
 20
12.521084
 30
0.0
 11
554.020164
 21
12.520312
 31
0.0
  0
LINE
  5
79
330
34
100
AcDbEntity
  8
YKK_ZWAK
  6
Continuous
 62
   254
100
AcDbLine
 10
562.051042
 20
9.566381
 30
0.0
 11
562.610947
 21
9.566381
 31
0.0
  0
LINE
  5
7A
330
34
100
AcDbEntity
  8
YKK_ZWAK
  6
Continuous
 62
   254
100
AcDbLine
 10
559.019868
 20
9.566381
 30
0.0
 11
562.051042
 21
9.566381
 31
0.0
  0
TEXT
  5
7B
330
34
100
AcDbEntity
  8
YKK_ZWAK
  6
Continuous
 62
   131
100
AcDbText
 10
528.4269094
 20
29.81226201
 30
0.0
 40
3.2
  1
図　番
 41
0.9
  7
YKK_OSSTYLE1
100
AcDbText
  0
TEXT
  5
7C
330
34
100
AcDbEntity
  8
YKK_ZWAK
  6
Continuous
 62
   131
100
AcDbText
 10
526.62767404
 20
16.79627903
 30
0.0
 40
3.2
  1
通し図番
 41
0.9
  7
YKK_OSSTYLE1
100
AcDbText
  0
LINE
  5
7D
330
34
100
AcDbEntity
  8
YKK_ZWAK
  6
Continuous
 62
   131
100
AcDbLine
 10
523.999763
 20
28.999501
 30
0.0
 11
544.000013
 21
28.999501
 31
0.0
  0
LINE
  5
7E
330
34
100
AcDbEntity
  8
YKK_ZWAK
  6
Continuous
 62
   131
100
AcDbLine
 10
544.000013
 20
16.0
 30
0.0
 11
523.999763
 21
16.0
 31
0.0
  0
LINE
  5
7F
330
34
100
AcDbEntity
  8
YKK_ZWAK
  6
Continuous
 62
   254
100
AcDbLine
 10
523.999763
 20
21.000001
 30
0.0
 11
544.000013
 21
21.000001
 31
0.0
  0
TEXT
  5
80
330
34
100
AcDbEntity
  8
YKK_ZWAK
  6
Continuous
 62
   131
100
AcDbText
 10
504.12596439
 20
16.73585252
 30
0.0
 40
2.828
  1
年   月   日
 41
0.9
  7
YKK_OSSTYLE1
100
AcDbText
  0
ARC
  5
81
330
34
100
AcDbEntity
  8
YKK_ZWAK
  6
Continuous
 62
   254
100
AcDbCircle
 10
550.80023932
 20
8.38955158
 30
0.0
 40
9.506414110787718
100
AcDbArc
 50
79.38097908
 51
112.0582515
  0
ARC
  5
82
330
34
100
AcDbEntity
  8
YKK_ZWAK
  6
Continuous
 62
   254
100
AcDbCircle
 10
552.02960157
 20
8.66870802
 30
0.0
 40
14.82019555938878
100
AcDbArc
 50
78.78009532
 51
91.46937906
  0
LINE
  5
83
330
34
100
AcDbEntity
  8
YKK_ZWAK
  6
Continuous
 62
   254
100
AcDbLine
 10
553.247106
 20
20.281664
 30
0.0
 11
550.60589668
 21
20.23169161
 31
0.0
  0
LINE
  5
84
330
34
100
AcDbEntity
  8
YKK_ZWAK
  6
Continuous
 62
   254
100
AcDbLine
 10
553.054042
 20
15.04953
 30
0.0
 11
550.200893
 21
15.046227
 31
0.0
  0
LINE
  5
85
330
34
100
AcDbEntity
  8
YKK_ZWAK
  6
Continuous
 62
   254
100
AcDbLine
 10
554.187226
 20
33.42965
 30
0.0
 11
550.949599
 21
27.69553
 31
0.0
  0
LINE
  5
86
330
34
100
AcDbEntity
  8
YKK_ZWAK
  6
Continuous
 62
   254
100
AcDbLine
 10
551.59718
 20
33.42965
 30
0.0
 11
554.187226
 21
33.42965
 31
0.0
  0
LINE
  5
87
330
34
100
AcDbEntity
  8
YKK_ZWAK
  6
Continuous
 62
   254
100
AcDbLine
 10
548.594154
 20
27.714815
 30
0.0
 11
545.311979
 21
33.352466
 31
0.0
  0
ARC
  5
88
330
34
100
AcDbEntity
  8
YKK_ZWAK
  6
Continuous
 62
   254
100
AcDbCircle
 10
549.68520483
 20
20.30975154
 30
0.0
 40
3.598113650678814
100
AcDbArc
 50
158.41083245
 51
179.71775245
  0
ARC
  5
89
330
34
100
AcDbEntity
  8
YKK_ZWAK
  6
Continuous
 62
   254
100
AcDbCircle
 10
548.59054743
 20
14.76560333
 30
0.0
 40
2.791490107652263
100
AcDbArc
 50
121.82711365
 51
169.08474902
  0
LINE
  5
8A
330
34
100
AcDbEntity
  8
YKK_ZWAK
  6
Continuous
 62
   254
100
AcDbLine
 10
549.405042
 20
18.949491
 30
0.0
 11
546.084266
 21
18.949491
 31
0.0
  0
LINE
  5
8B
330
34
100
AcDbEntity
  8
YKK_ZWAK
  6
Continuous
 62
   254
100
AcDbLine
 10
546.084266
 20
18.949491
 30
0.0
 11
546.084266
 21
20.32747631
 31
0.0
  0
ARC
  5
8C
330
34
100
AcDbEntity
  8
YKK_ZWAK
  6
Continuous
 62
   254
100
AcDbCircle
 10
550.20700835
 20
14.01426078
 30
0.0
 40
1.031984336873053
100
AcDbArc
 50
90.33952634
 51
178.0363902
  0
ARC
  5
8D
330
34
100
AcDbEntity
  8
YKK_ZWAK
  6
Continuous
 62
   254
100
AcDbCircle
 10
550.91098672
 20
18.99454401
 30
0.0
 40
1.5066184932453
100
AcDbArc
 50
138.46381796
 51
181.71359389
  0
ARC
  5
8E
330
34
100
AcDbEntity
  8
YKK_ZWAK
  6
Continuous
 62
   254
100
AcDbCircle
 10
550.51068793
 20
19.02046023
 30
0.0
 40
1.214967561291876
100
AcDbArc
 50
85.50551117
 51
126.78038212
  0
ARC
  5
8F
330
34
100
AcDbEntity
  8
YKK_ZWAK
  6
Continuous
 62
   254
100
AcDbCircle
 10
548.00461954
 20
21.10278181
 30
0.0
 40
1.745462511199758
100
AcDbArc
 50
109.02126645
 51
161.5126404
  0
ARC
  5
90
330
34
100
AcDbEntity
  8
YKK_ZWAK
  6
Continuous
 62
   254
100
AcDbCircle
 10
551.65872095
 20
10.85588209
 30
0.0
 40
12.62863449008531
100
AcDbArc
 50
89.89164773
 51
109.30848271
  0
LINE
  5
91
330
34
100
AcDbEntity
  8
YKK_ZWAK
  6
Continuous
 62
   254
100
AcDbLine
 10
548.594154
 20
24.529198
 30
0.0
 11
548.594154
 21
27.714815
 31
0.0
  0
LINE
  5
92
330
34
100
AcDbEntity
  8
YKK_ZWAK
  6
Continuous
 62
   254
100
AcDbLine
 10
550.949599
 20
24.529198
 30
0.0
 11
548.594154
 21
24.529198
 31
0.0
  0
LINE
  5
93
330
34
100
AcDbEntity
  8
YKK_ZWAK
  6
Continuous
 62
   254
100
AcDbLine
 10
550.949599
 20
27.69553
 30
0.0
 11
550.949599
 21
24.529198
 31
0.0
  0
LINE
  5
94
330
34
100
AcDbEntity
  8
YKK_ZWAK
  6
Continuous
 62
   254
100
AcDbLine
 10
545.311979
 20
33.352466
 30
0.0
 11
547.821884
 21
33.352466
 31
0.0
  0
LINE
  5
95
330
34
100
AcDbEntity
  8
YKK_ZWAK
  6
Continuous
 62
   254
100
AcDbLine
 10
551.59718
 20
33.42965
 30
0.0
 11
549.771867
 21
29.877219
 31
0.0
  0
LINE
  5
96
330
34
100
AcDbEntity
  8
YKK_ZWAK
  6
Continuous
 62
   254
100
AcDbLine
 10
549.617423
 20
29.993062
 30
0.0
 11
549.771867
 21
29.877219
 31
0.0
  0
LINE
  5
97
330
34
100
AcDbEntity
  8
YKK_ZWAK
  6
Continuous
 62
   254
100
AcDbLine
 10
547.821884
 20
33.352466
 30
0.0
 11
549.617423
 21
29.993062
 31
0.0
  0
ARC
  5
98
330
34
100
AcDbEntity
  8
YKK_ZWAK
  6
Continuous
 62
   254
100
AcDbCircle
 10
568.28604917
 20
28.29398617
 30
0.0
 40
1.544618833868573
100
AcDbArc
 50
0.00166292
 51
89.99603715
  0
ARC
  5
99
330
34
100
AcDbEntity
  8
YKK_ZWAK
  6
Continuous
 62
   254
100
AcDbCircle
 10
559.98514917
 20
28.23604217
 30
0.0
 40
1.544618833868573
100
AcDbArc
 50
0.00166292
 51
89.99603715
  0
LINE
  5
9A
330
34
100
AcDbEntity
  8
YKK_ZWAK
  6
Continuous
 62
   254
100
AcDbLine
 10
562.553028
 20
24.625712
 30
0.0
 11
562.553028
 21
33.487594
 31
0.0
  0
LINE
  5
9B
330
34
100
AcDbEntity
  8
YKK_ZWAK
  6
Continuous
 62
   254
100
AcDbLine
 10
554.328297
 20
24.548527
 30
0.0
 11
554.328297
 21
33.410366
 31
0.0
  0
LINE
  5
9C
330
34
100
AcDbEntity
  8
YKK_ZWAK
  6
Continuous
 62
   254
100
AcDbLine
 10
564.985674
 20
24.625712
 30
0.0
 11
562.553028
 21
24.625712
 31
0.0
  0
LINE
  5
9D
330
34
100
AcDbEntity
  8
YKK_ZWAK
  6
Continuous
 62
   254
100
AcDbLine
 10
567.302491
 20
23.216355
 30
0.0
 11
559.019868
 21
23.216355
 31
0.0
  0
LINE
  5
9E
330
34
100
AcDbEntity
  8
YKK_ZWAK
  6
Continuous
 62
   254
100
AcDbLine
 10
563.479759
 20
13.196086
 30
0.0
 11
567.283206
 21
13.196086
 31
0.0
  0
LINE
  5
9F
330
34
100
AcDbEntity
  8
YKK_ZWAK
  6
Continuous
 62
   254
100
AcDbLine
 10
566.008932
 20
16.150017
 30
0.0
 11
563.479759
 21
16.150017
 31
0.0
  0
LINE
  5
A0
330
34
100
AcDbEntity
  8
YKK_ZWAK
  6
Continuous
 62
   254
100
AcDbLine
 10
562.610947
 20
20.243049
 30
0.0
 11
565.931704
 21
20.243049
 31
0.0
  0
ARC
  5
A1
330
34
100
AcDbEntity
  8
YKK_ZWAK
  6
Continuous
 62
   254
100
AcDbCircle
 10
554.22066
 20
20.08146332
 30
0.0
 40
3.294016994121146
100
AcDbArc
 50
358.78059045
 51
38.76562608
  0
ARC
  5
A2
330
34
100
AcDbEntity
  8
YKK_ZWAK
  6
Continuous
 62
   254
100
AcDbCircle
 10
552.89717617
 20
19.17519964
 30
0.0
 40
1.16048018439929
100
AcDbArc
 50
14.7551995
 51
72.44994796
  0
LINE
  5
A3
330
34
100
AcDbEntity
  8
YKK_ZWAK
  6
Continuous
 62
   254
100
AcDbLine
 10
553.054042
 20
17.617318
 30
0.0
 11
553.054042
 21
15.04953
 31
0.0
  0
LINE
  5
A4
330
34
100
AcDbEntity
  8
YKK_ZWAK
  6
Continuous
 62
   254
100
AcDbLine
 10
552.552059
 20
17.733161
 30
0.0
 11
553.054042
 21
17.617318
 31
0.0
  0
LINE
  5
A5
330
34
100
AcDbEntity
  8
YKK_ZWAK
  6
Continuous
 62
   254
100
AcDbLine
 10
563.479759
 20
16.150017
 30
0.0
 11
563.479759
 21
13.196086
 31
0.0
  0
LINE
  5
A6
330
34
100
AcDbEntity
  8
YKK_ZWAK
  6
Continuous
 62
   254
100
AcDbLine
 10
558.981248
 20
27.869273
 30
0.0
 11
556.703043
 21
27.869273
 31
0.0
  0
ARC
  5
A7
330
34
100
AcDbEntity
  8
YKK_ZWAK
  6
Continuous
 62
   254
100
AcDbCircle
 10
554.37879626
 20
20.07343796
 30
0.0
 40
3.177485297559325
100
AcDbArc
 50
40.66422291
 51
80.31693569
  0
LINE
  5
A8
330
34
100
AcDbEntity
  8
YKK_ZWAK
  6
Continuous
 62
   254
100
AcDbLine
 10
556.703043
 20
24.548527
 30
0.0
 11
554.328297
 21
24.548527
 31
0.0
  0
LINE
  5
A9
330
34
100
AcDbEntity
  8
YKK_ZWAK
  6
Continuous
 62
   254
100
AcDbLine
 10
556.703043
 20
27.869273
 30
0.0
 11
556.703043
 21
24.548527
 31
0.0
  0
LINE
  5
AA
330
34
100
AcDbEntity
  8
YKK_ZWAK
  6
Continuous
 62
   254
100
AcDbLine
 10
561.529756
 20
28.236131
 30
0.0
 11
561.529756
 21
24.606427
 31
0.0
  0
LINE
  5
AB
330
34
100
AcDbEntity
  8
YKK_ZWAK
  6
Continuous
 62
   254
100
AcDbLine
 10
559.290171
 20
27.75343
 30
0.0
 11
558.981248
 21
27.869273
 31
0.0
  0
LINE
  5
AC
330
34
100
AcDbEntity
  8
YKK_ZWAK
  6
Continuous
 62
   254
100
AcDbLine
 10
559.290171
 20
24.606427
 30
0.0
 11
559.290171
 21
27.75343
 31
0.0
  0
LINE
  5
AD
330
34
100
AcDbEntity
  8
YKK_ZWAK
  6
Continuous
 62
   254
100
AcDbLine
 10
561.529756
 20
24.606427
 30
0.0
 11
559.290171
 21
24.606427
 31
0.0
  0
ARC
  5
AE
330
34
100
AcDbEntity
  8
YKK_ZWAK
  6
Continuous
 62
   254
100
AcDbCircle
 10
567.19412132
 20
20.11358836
 30
0.0
 40
3.10079004118515
100
AcDbArc
 50
14.44572328
 51
87.08746338
  0
ARC
  5
AF
330
34
100
AcDbEntity
  8
YKK_ZWAK
  6
Continuous
 62
   254
100
AcDbCircle
 10
564.36413966
 20
17.54165325
 30
0.0
 40
2.640498151312115
100
AcDbArc
 50
343.69020327
 51
354.7536235
  0
ARC
  5
B0
330
34
100
AcDbEntity
  8
YKK_ZWAK
  6
Continuous
 62
   254
100
AcDbCircle
 10
566.00966971
 20
17.08269286
 30
0.0
 40
0.9326761550249523
100
AcDbArc
 50
269.95468111
 51
342.90144849
  0
ARC
  5
B1
330
34
100
AcDbEntity
  8
YKK_ZWAK
  6
Continuous
 62
   254
100
AcDbCircle
 10
566.04623887
 20
19.3715952
 30
0.0
 40
0.8777839045469994
100
AcDbArc
 50
16.43123457
 51
96.91661396
  0
ARC
  5
B2
330
34
100
AcDbEntity
  8
YKK_ZWAK
  6
Continuous
 62
   254
100
AcDbCircle
 10
564.37945167
 20
18.85119468
 30
0.0
 40
2.623848066620805
100
AcDbArc
 50
4.93422741
 51
17.03551963
  0
LINE
  5
B3
330
34
100
AcDbEntity
  8
YKK_ZWAK
  6
Continuous
 62
   254
100
AcDbLine
 10
567.283206
 20
13.196086
 30
0.0
 11
568.055449
 21
13.369828
 31
0.0
  0
LINE
  5
B4
330
34
100
AcDbEntity
  8
YKK_ZWAK
  6
Continuous
 62
   254
100
AcDbLine
 10
566.980872
 20
19.173458
 30
0.0
 11
566.993576
 21
17.29190622
 31
0.0
  0
ARC
  5
B5
330
34
100
AcDbEntity
  8
YKK_ZWAK
  6
Continuous
 62
   254
100
AcDbCircle
 10
555.54697452
 20
18.15146785
 30
0.0
 40
14.90004285451682
100
AcDbArc
 50
350.99026817
 51
10.67624521
  0
LINE
  5
B6
330
34
100
AcDbEntity
  8
YKK_ZWAK
  6
Continuous
 62
   254
100
AcDbLine
 10
569.831709
 20
24.645041
 30
0.0
 11
567.572791
 21
24.645041
 31
0.0
  0
LINE
  5
B7
330
34
100
AcDbEntity
  8
YKK_ZWAK
  6
Continuous
 62
   254
100
AcDbLine
 10
567.572791
 20
27.772759
 30
0.0
 11
567.263877
 21
27.888602
 31
0.0
  0
LINE
  5
B8
330
34
100
AcDbEntity
  8
YKK_ZWAK
  6
Continuous
 62
   254
100
AcDbLine
 10
567.263877
 20
27.888602
 30
0.0
 11
564.985674
 21
27.888602
 31
0.0
  0
LINE
  5
B9
330
34
100
AcDbEntity
  8
YKK_ZWAK
  6
Continuous
 62
   254
100
AcDbLine
 10
564.985674
 20
27.888602
 30
0.0
 11
564.985674
 21
24.625712
 31
0.0
  0
LINE
  5
BA
330
34
100
AcDbEntity
  8
YKK_ZWAK
  6
Continuous
 62
   254
100
AcDbLine
 10
567.572791
 20
24.645041
 30
0.0
 11
567.572791
 21
27.772759
 31
0.0
  0
LINE
  5
BB
330
34
100
AcDbEntity
  8
YKK_ZWAK
  6
Continuous
 62
   254
100
AcDbLine
 10
567.572791
 20
24.681182
 30
0.0
 11
567.608933
 21
24.645041
 31
0.0
  0
LINE
  5
BC
330
34
100
AcDbEntity
  8
YKK_ZWAK
  6
Continuous
 62
   254
100
AcDbLine
 10
569.831709
 20
28.236131
 30
0.0
 11
569.831709
 21
24.645041
 31
0.0
  0
LINE
  5
BD
330
34
100
AcDbEntity
  8
YKK_ZWAK
  6
Continuous
 62
   254
100
AcDbLine
 10
562.553028
 20
33.487594
 30
0.0
 11
564.889116
 21
33.487594
 31
0.0
  0
LINE
  5
BE
330
34
100
AcDbEntity
  8
YKK_ZWAK
  6
Continuous
 62
   254
100
AcDbLine
 10
556.625823
 20
29.768591
 30
0.0
 11
559.03917
 21
33.44898
 31
0.0
  0
LINE
  5
BF
330
34
100
AcDbEntity
  8
YKK_ZWAK
  6
Continuous
 62
   254
100
AcDbLine
 10
556.625823
 20
33.410366
 30
0.0
 11
556.625823
 21
29.768591
 31
0.0
  0
LINE
  5
C0
330
34
100
AcDbEntity
  8
YKK_ZWAK
  6
Continuous
 62
   254
100
AcDbLine
 10
554.328297
 20
33.410366
 30
0.0
 11
556.625823
 21
33.410366
 31
0.0
  0
LINE
  5
C1
330
34
100
AcDbEntity
  8
YKK_ZWAK
  6
Continuous
 62
   254
100
AcDbLine
 10
559.985256
 20
29.780661
 30
0.0
 11
559.242942
 21
29.780661
 31
0.0
  0
LINE
  5
C2
330
34
100
AcDbEntity
  8
YKK_ZWAK
  6
Continuous
 62
   254
100
AcDbLine
 10
561.771363
 20
33.44898
 30
0.0
 11
559.242942
 21
29.780661
 31
0.0
  0
LINE
  5
C3
330
34
100
AcDbEntity
  8
YKK_ZWAK
  6
Continuous
 62
   254
100
AcDbLine
 10
559.03917
 20
33.44898
 30
0.0
 11
561.771363
 21
33.44898
 31
0.0
  0
LINE
  5
C4
330
34
100
AcDbEntity
  8
YKK_ZWAK
  6
Continuous
 62
   254
100
AcDbLine
 10
569.773765
 20
33.024222
 30
0.0
 11
567.543842
 21
29.838605
 31
0.0
  0
LINE
  5
C5
330
34
100
AcDbEntity
  8
YKK_ZWAK
  6
Continuous
 62
   254
100
AcDbLine
 10
567.341105
 20
33.487594
 30
0.0
 11
570.044065
 21
33.487594
 31
0.0
  0
LINE
  5
C6
330
34
100
AcDbEntity
  8
YKK_ZWAK
  6
Continuous
 62
   254
100
AcDbLine
 10
568.286156
 20
29.838605
 30
0.0
 11
567.543842
 21
29.838605
 31
0.0
  0
LINE
  5
C7
330
34
100
AcDbEntity
  8
YKK_ZWAK
  6
Continuous
 62
   254
100
AcDbLine
 10
564.889116
 20
29.779236
 30
0.0
 11
567.341105
 21
33.487594
 31
0.0
  0
LINE
  5
C8
330
34
100
AcDbEntity
  8
YKK_ZWAK
  6
Continuous
 62
   254
100
AcDbLine
 10
564.889116
 20
33.487594
 30
0.0
 11
564.889116
 21
29.779236
 31
0.0
  0
LINE
  5
C9
330
34
100
AcDbEntity
  8
YKK_ZWAK
  6
Continuous
 62
   254
100
AcDbLine
 10
570.044065
 20
33.487594
 30
0.0
 11
569.773765
 21
33.024222
 31
0.0
  0
LINE
  5
CA
330
34
100
AcDbEntity
  8
YKK_ZWAK
  6
Continuous
 62
     8
100
AcDbLine
 10
573.126014
 20
168.559504
 30
0.0
 11
585.726014
 21
168.559504
 31
0.0
  0
LINE
  5
CB
330
34
100
AcDbEntity
  8
YKK_ZWAK
  6
Continuous
 62
     8
100
AcDbLine
 10
573.126014
 20
154.419504
 30
0.0
 11
585.726014
 21
154.419504
 31
0.0
  0
LINE
  5
CC
330
34
100
AcDbEntity
  8
YKK_ZWAK
  6
Continuous
 62
     8
100
AcDbLine
 10
573.126014
 20
140.279503
 30
0.0
 11
585.726014
 21
140.279503
 31
0.0
  0
LINE
  5
CD
330
34
100
AcDbEntity
  8
YKK_ZWAK
  6
Continuous
 62
     8
100
AcDbLine
 10
573.126014
 20
126.139503
 30
0.0
 11
585.726014
 21
126.139503
 31
0.0
  0
LINE
  5
CE
330
34
100
AcDbEntity
  8
YKK_ZWAK
  6
Continuous
 62
     8
100
AcDbLine
 10
573.126014
 20
111.999503
 30
0.0
 11
585.726014
 21
111.999503
 31
0.0
  0
LINE
  5
CF
330
34
100
AcDbEntity
  8
YKK_ZWAK
  6
Continuous
 62
     8
100
AcDbLine
 10
573.126014
 20
97.859502
 30
0.0
 11
585.726014
 21
97.859502
 31
0.0
  0
LINE
  5
D0
330
34
100
AcDbEntity
  8
YKK_ZWAK
  6
Continuous
 62
     8
100
AcDbLine
 10
573.126014
 20
83.719502
 30
0.0
 11
585.726014
 21
83.719502
 31
0.0
  0
CIRCLE
  5
D1
330
34
100
AcDbEntity
  8
YKK_ZWAK
  6
Continuous
 62
     8
100
AcDbCircle
 10
579.426014
 20
168.559504
 30
0.0
 40
6.299999999999999
  0
CIRCLE
  5
D2
330
34
100
AcDbEntity
  8
YKK_ZWAK
  6
Continuous
 62
     8
100
AcDbCircle
 10
579.426014
 20
140.279503
 30
0.0
 40
6.299999999999999
  0
CIRCLE
  5
D3
330
34
100
AcDbEntity
  8
YKK_ZWAK
  6
Continuous
 62
     8
100
AcDbCircle
 10
579.426014
 20
111.999503
 30
0.0
 40
6.299999999999999
  0
CIRCLE
  5
D4
330
34
100
AcDbEntity
  8
YKK_ZWAK
  6
Continuous
 62
     8
100
AcDbCircle
 10
579.426014
 20
154.419504
 30
0.0
 40
6.299999999999999
  0
CIRCLE
  5
D5
330
34
100
AcDbEntity
  8
YKK_ZWAK
  6
Continuous
 62
     8
100
AcDbCircle
 10
579.426014
 20
126.139503
 30
0.0
 40
6.299999999999999
  0
CIRCLE
  5
D6
330
34
100
AcDbEntity
  8
YKK_ZWAK
  6
Continuous
 62
     8
100
AcDbCircle
 10
579.426014
 20
97.859502
 30
0.0
 40
6.299999999999999
  0
LINE
  5
D7
330
34
100
AcDbEntity
  8
YKK_ZWAK
  6
Continuous
 62
   254
100
AcDbLine
 10
571.000014
 20
222.4995055
 30
0.0
 11
573.000014
 21
222.4995055
 31
0.0
  0
TEXT
  5
D8
330
34
100
AcDbEntity
  8
YKK_ZWAK
  6
Continuous
 62
   131
100
AcDbText
 10
408.18209354
 20
9.752325
 30
0.0
 40
3.5
  1
 ． ．
 41
0.9
  7
YKK_OSSTYLE1
100
AcDbText
  0
TEXT
  5
D9
330
34
100
AcDbEntity
  8
YKK_ZWAK
  6
Continuous
 62
   131
100
AcDbText
 10
424.18209354
 20
9.752325
 30
0.0
 40
3.5
  1
 ． ．
 41
0.9
  7
YKK_OSSTYLE1
100
AcDbText
  0
LINE
  5
DA
330
34
100
AcDbEntity
  8
YKK_ZWAK
  6
Continuous
 62
   131
100
AcDbLine
 10
459.1999862
 20
10.4995
 30
0.0
 11
459.1999862
 21
8.9995
 31
0.0
  0
LINE
  5
DB
330
34
100
AcDbEntity
  8
YKK_ZWAK
  6
Continuous
 62
   131
100
AcDbLine
 10
462.7999738
 20
10.4995
 30
0.0
 11
462.7999738
 21
8.9995
 31
0.0
  0
LINE
  5
DC
330
34
100
AcDbEntity
  8
YKK_ZWAK
  6
Continuous
 62
   131
100
AcDbLine
 10
466.3999614
 20
10.4995
 30
0.0
 11
466.3999614
 21
8.9995
 31
0.0
  0
LINE
  5
DD
330
34
100
AcDbEntity
  8
YKK_ZWAK
  6
Continuous
 62
   131
100
AcDbLine
 10
469.999949
 20
10.4995
 30
0.0
 11
469.999949
 21
8.9995
 31
0.0
  0
LINE
  5
DE
330
34
100
AcDbEntity
  8
YKK_ZWAK
  6
Continuous
 62
   131
100
AcDbLine
 10
473.5999366
 20
10.4995
 30
0.0
 11
473.5999366
 21
8.9995
 31
0.0
  0
LINE
  5
DF
330
34
100
AcDbEntity
  8
YKK_ZWAK
  6
Continuous
 62
   131
100
AcDbLine
 10
477.1999242
 20
10.4995
 30
0.0
 11
477.1999242
 21
8.9995
 31
0.0
  0
LINE
  5
E0
330
34
100
AcDbEntity
  8
YKK_ZWAK
  6
Continuous
 62
   131
100
AcDbLine
 10
480.7999118
 20
10.4995
 30
0.0
 11
480.7999118
 21
8.9995
 31
0.0
  0
LINE
  5
E1
330
34
100
AcDbEntity
  8
YKK_ZWAK
  6
Continuous
 62
   131
100
AcDbLine
 10
484.3998994
 20
10.4995
 30
0.0
 11
484.3998994
 21
8.9995
 31
0.0
  0
LINE
  5
E2
330
34
100
AcDbEntity
  8
YKK_ZWAK
  6
Continuous
 62
   131
100
AcDbLine
 10
487.999887
 20
10.4995
 30
0.0
 11
487.999887
 21
8.9995
 31
0.0
  0
LINE
  5
E3
330
34
100
AcDbEntity
  8
YKK_ZWAK
  6
Continuous
 62
   131
100
AcDbLine
 10
491.5998746
 20
10.4995
 30
0.0
 11
491.5998746
 21
8.9995
 31
0.0
  0
LINE
  5
E4
330
34
100
AcDbEntity
  8
YKK_ZWAK
  6
Continuous
 62
   131
100
AcDbLine
 10
495.1998622
 20
10.4995
 30
0.0
 11
495.1998622
 21
8.9995
 31
0.0
  0
LINE
  5
E5
330
34
100
AcDbEntity
  8
YKK_ZWAK
  6
Continuous
 62
   131
100
AcDbLine
 10
498.7998498
 20
10.4995
 30
0.0
 11
498.7998498
 21
8.9995
 31
0.0
  0
LINE
  5
E6
330
34
100
AcDbEntity
  8
YKK_ZWAK
  6
Continuous
 62
   131
100
AcDbLine
 10
502.3998374
 20
10.4995
 30
0.0
 11
502.3998374
 21
8.9995
 31
0.0
  0
LINE
  5
E7
330
34
100
AcDbEntity
  8
YKK_ZWAK
  6
Continuous
 62
   131
100
AcDbLine
 10
505.999825
 20
10.4995
 30
0.0
 11
505.999825
 21
8.9995
 31
0.0
  0
LINE
  5
E8
330
34
100
AcDbEntity
  8
YKK_ZWAK
  6
Continuous
 62
   131
100
AcDbLine
 10
509.5998126
 20
10.4995
 30
0.0
 11
509.5998126
 21
8.9995
 31
0.0
  0
LINE
  5
E9
330
34
100
AcDbEntity
  8
YKK_ZWAK
  6
Continuous
 62
   131
100
AcDbLine
 10
513.1998002
 20
10.4995
 30
0.0
 11
513.1998002
 21
8.9995
 31
0.0
  0
LINE
  5
EA
330
34
100
AcDbEntity
  8
YKK_ZWAK
  6
Continuous
 62
   131
100
AcDbLine
 10
516.7997878
 20
10.4995
 30
0.0
 11
516.7997878
 21
8.9995
 31
0.0
  0
LINE
  5
EB
330
34
100
AcDbEntity
  8
YKK_ZWAK
  6
Continuous
 62
   131
100
AcDbLine
 10
520.3997754
 20
10.4995
 30
0.0
 11
520.3997754
 21
8.9995
 31
0.0
  0
ENDBLK
  5
ED
330
34
100
AcDbEntity
  8
0
100
AcDbBlockEnd
  0
ENDSEC
  0
SECTION
  2
ENTITIES
  0
LINE
  5
2B
330
2
100
AcDbEntity
  8
YKK_11
  6
ByBlock
 62
     0
100
AcDbLine
 10
358.88008072
 20
137.68675653
 30
0.0
 11
425.87036872
 21
137.68675653
 31
0.0
  0
LINE
  5
2D
330
2
100
AcDbEntity
  8
YKK_11
  6
ByBlock
 62
     0
100
AcDbLine
 10
425.87036872
 20
138.88675653
 30
0.0
 11
358.88008072
 21
138.88675653
 31
0.0
  0
LINE
  5
2E
330
2
100
AcDbEntity
  8
YKK_11
  6
ByBlock
 62
     0
100
AcDbLine
 10
358.88008043
 20
243.87435895
 30
0.0
 11
426.68008043
 21
243.87435895
 31
0.0
  0
LINE
  5
2F
330
2
100
AcDbEntity
  8
YKK_11
  6
ByBlock
 62
     0
100
AcDbLine
 10
426.68008043
 20
245.07435895
 30
0.0
 11
358.88008043
 21
245.07435895
 31
0.0
  0
TEXT
  5
30
330
2
100
AcDbEntity
  8
USER1
 62
     3
100
AcDbText
 10
393.56305229
 20
1.6753389
 30
0.0
 40
4.2
  1
〔1ロック、2ロック〕(枠見込33mm)〔2PT NAB/R(L)、2PT NAB/W〕
 41
0.65
 72
     4
 11
454.37705229
 21
3.4753389
 31
0.0
100
AcDbText
  0
INSERT
  5
32
330
2
100
AcDbEntity
  8
YKK_ZWAK
100
AcDbBlockReference
  2
A201
 10
-26.6000014
 20
-12.5993
 30
0.0
 41
1.4
 42
1.4
 43
1.4
  0
LINE
  5
EE
330
2
100
AcDbEntity
  8
YKK_12
  6
Continuous
100
AcDbLine
 10
353.6800808
 20
108.68675653
 30
0.0
 11
425.87036872
 21
108.68675653
 31
0.0
  0
LINE
  5
F0
330
2
100
AcDbEntity
  8
YKK_12
  6
Continuous
100
AcDbLine
 10
353.6800808
 20
109.88675653
 30
0.0
 11
425.87036872
 21
109.88675653
 31
0.0
  0
LINE
  5
F1
330
2
100
AcDbEntity
  8
YKK_12
  6
Continuous
100
AcDbLine
 10
357.6800808
 20
141.68675653
 30
0.0
 11
425.87036872
 21
141.68675653
 31
0.0
  0
LINE
  5
F2
330
2
100
AcDbEntity
  8
YKK_12
  6
Continuous
100
AcDbLine
 10
426.6800808
 20
216.07435929
 30
0.0
 11
353.6800808
 21
216.07435929
 31
0.0
  0
LINE
  5
F3
330
2
100
AcDbEntity
  8
YKK_12
  6
Continuous
100
AcDbLine
 10
357.72021318
 20
247.87435929
 30
0.0
 11
426.6800808
 21
247.87435929
 31
0.0
  0
LINE
  5
F4
330
2
100
AcDbEntity
  8
YKK_12
  6
Continuous
100
AcDbLine
 10
353.6800808
 20
214.87435929
 30
0.0
 11
426.6800808
 21
214.87435929
 31
0.0
  0
LINE
  5
F5
330
2
100
AcDbEntity
  8
YKK_12
  6
Continuous
100
AcDbLine
 10
359.3800808
 20
116.28675653
 30
0.0
 11
425.87036872
 21
116.28675653
 31
0.0
  0
LINE
  5
F6
330
2
100
AcDbEntity
  8
YKK_12
  6
Continuous
100
AcDbLine
 10
359.3800808
 20
115.08675653
 30
0.0
 11
425.87036872
 21
115.08675653
 31
0.0
  0
LINE
  5
F7
330
2
100
AcDbEntity
  8
YKK_12
  6
Continuous
100
AcDbLine
 10
359.3800808
 20
222.47435929
 30
0.0
 11
426.6800808
 21
222.47435929
 31
0.0
  0
LINE
  5
F8
330
2
100
AcDbEntity
  8
YKK_12
  6
Continuous
100
AcDbLine
 10
426.6800808
 20
221.27435929
 30
0.0
 11
359.3800808
 21
221.27435929
 31
0.0
  0
LINE
  5
F9
330
2
100
AcDbEntity
  8
YKK_D
100
AcDbLine
 10
370.68008817
 20
87.58675815
 30
0.0
 11
659.68008817
 21
87.58675815
 31
0.0
  0
LINE
  5
FB
330
2
100
AcDbEntity
  8
YKK_D
100
AcDbLine
 10
370.68008817
 20
194.87434818
 30
0.0
 11
659.68008817
 21
194.87434818
 31
0.0
  0
LINE
  5
FC
330
2
100
AcDbEntity
  8
YKK_D
100
AcDbLine
 10
371.68007863
 20
142.88675357
 30
0.0
 11
408.68008817
 21
142.88675357
 31
0.0
  0
LINE
  5
FD
330
2
100
AcDbEntity
  8
YKK_D
100
AcDbLine
 10
371.68007815
 20
109.88675357
 30
0.0
 11
408.68008817
 21
109.88675357
 31
0.0
  0
LINE
  5
FE
330
2
100
AcDbEntity
  8
YKK_D
100
AcDbLine
 10
357.68008817
 20
171.88675357
 30
0.0
 11
512.18008817
 21
171.88675357
 31
0.0
  0
LINE
  5
FF
330
2
100
AcDbEntity
  8
YKK_D
100
AcDbLine
 10
371.68007863
 20
249.07436038
 30
0.0
 11
408.68008817
 21
249.07436038
 31
0.0
  0
LINE
  5
100
330
2
100
AcDbEntity
  8
YKK_D
100
AcDbLine
 10
357.68008817
 20
277.57436038
 30
0.0
 11
498.68008817
 21
277.57436038
 31
0.0
  0
LINE
  5
101
330
2
100
AcDbEntity
  8
YKK_11
  6
ByBlock
 62
     0
100
AcDbLine
 10
138.14052138
 20
433.92081987
 30
0.0
 11
138.14052138
 21
260.54691987
 31
0.0
  0
LINE
  5
102
330
2
100
AcDbEntity
  8
YKK_11
  6
ByBlock
 62
     0
100
AcDbLine
 10
139.34052138
 20
260.54691987
 30
0.0
 11
139.34052138
 21
433.92081987
 31
0.0
  0
LINE
  5
103
330
2
100
AcDbEntity
  8
YKK_11
  6
ByBlock
 62
     0
100
AcDbLine
 10
115.54052138
 20
260.54691987
 30
0.0
 11
115.54052138
 21
432.72081987
 31
0.0
  0
LINE
  5
104
330
2
100
AcDbEntity
  8
YKK_11
  6
ByBlock
 62
     0
100
AcDbLine
 10
114.34052138
 20
432.72081987
 30
0.0
 11
114.34052138
 21
260.54691987
 31
0.0
  0
LINE
  5
105
330
2
100
AcDbEntity
  8
YKK_12
  6
Continuous
100
AcDbLine
 10
143.34052106
 20
260.54691996
 30
0.0
 11
143.34052106
 21
436.42081971
 31
0.0
  0
LINE
  5
106
330
2
100
AcDbEntity
  8
YKK_12
  6
Continuous
100
AcDbLine
 10
142.14052106
 20
436.92081971
 30
0.0
 11
142.14052106
 21
260.54691996
 31
0.0
  0
LINE
  5
107
330
2
100
AcDbEntity
  8
YKK_12
  6
Continuous
100
AcDbLine
 10
110.34052106
 20
461.92081971
 30
0.0
 11
110.34052106
 21
260.54691996
 31
0.0
  0
LINE
  5
108
330
2
100
AcDbEntity
  8
YKK_D
100
AcDbLine
 10
166.84051637
 20
131.92082645
 30
0.0
 11
166.84051637
 21
419.92082645
 31
0.0
  0
LINE
  5
109
330
2
100
AcDbEntity
  8
YKK_D
100
AcDbLine
 10
90.34051637
 20
119.92082645
 30
0.0
 11
90.34051637
 21
433.92082645
 31
0.0
  0
TEXT
  5
10A
330
2
100
AcDbEntity
  8
YKK_D
100
AcDbText
 10
89.34051637
 20
273.81422746
 30
0.0
 40
6.0
  1
DH
 50
90.0
 41
0.8
100
AcDbText
1001
ACAD
1000
MTEXTBEGIN
1070
    73
1070
     1
1070
    44
1040
1.0
1070
    74
1070
     0
1000
MTEXTEND
  0
TEXT
  5
10B
330
2
100
AcDbEntity
  8
YKK_D
100
AcDbText
 10
354.98288005
 20
278.57436038
 30
0.0
 40
6.0
  1
4
 41
0.8
100
AcDbText
1001
ACAD
1000
MTEXTBEGIN
1070
    73
1070
     1
1070
    44
1040
1.0
1070
    74
1070
     0
1000
MTEXTEND
  0
TEXT
  5
10C
330
2
100
AcDbEntity
  8
YKK_D
100
AcDbText
 10
338.09785467
 20
278.57436038
 30
0.0
 40
6.0
  1
25
 41
0.8
100
AcDbText
1001
ACAD
1000
MTEXTBEGIN
1070
    73
1070
     1
1070
    44
1040
1.0
1070
    74
1070
     0
1000
MTEXTEND
  0
TEXT
  5
10D
330
2
100
AcDbEntity
  8
YKK_D
100
AcDbText
 10
145.67486953
 20
208.88547183
 30
0.0
 40
6.0
  1
4
 41
0.8
100
AcDbText
1001
ACAD
1000
MTEXTBEGIN
1070
    73
1070
     1
1070
    44
1040
1.0
1070
    74
1070
     0
1000
MTEXTEND
  0
LINE
  5
10E
330
2
100
AcDbEntity
  8
YKK_11
  6
ByBlock
 62
     0
100
AcDbLine
 10
111.5405215
 20
91.12082012
 30
0.0
 11
111.5405215
 21
113.72082012
 31
0.0
  0
LINE
  5
10F
330
2
100
AcDbEntity
  8
YKK_11
  6
ByBlock
 62
     0
100
AcDbLine
 10
112.7405215
 20
113.72082012
 30
0.0
 11
112.7405215
 21
91.12082012
 31
0.0
  0
LINE
  5
110
330
2
100
AcDbEntity
  8
YKK_12
  6
Continuous
100
AcDbLine
 10
110.34052106
 20
89.92081971
 30
0.0
 11
110.34052106
 21
254.26330436
 31
0.0
  0
LINE
  5
111
330
2
100
AcDbEntity
  8
YKK_13
  6
YHIDDEN_1
100
AcDbLine
 10
139.94052106
 20
109.42081971
 30
0.0
 11
139.94052106
 21
94.02081971
 31
0.0
  0
LINE
  5
114
330
2
100
AcDbEntity
  8
YKK_13
  6
YHIDDEN_1
100
AcDbLine
 10
142.24052106
 20
110.02081971
 30
0.0
 11
142.24052106
 21
93.42081971
 31
0.0
  0
LINE
  5
115
330
2
100
AcDbEntity
  8
YKK_D
100
AcDbLine
 10
90.34051637
 20
89.92081882
 30
0.0
 11
90.34051637
 21
114.92082645
 31
0.0
  0
TEXT
  5
116
330
2
100
AcDbEntity
  8
YKK_D
100
AcDbText
 10
89.34051637
 20
99.33859295
 30
0.0
 40
6.0
  1
25
 50
90.0
 41
0.8
100
AcDbText
1001
ACAD
1000
MTEXTBEGIN
1070
    73
1070
     1
1070
    44
1040
1.0
1070
    74
1070
     0
1000
MTEXTEND
  0
LINE
  5
117
330
2
100
AcDbEntity
  8
YKK_11
  6
ByBlock
 62
     0
100
AcDbLine
 10
131.5405215
 20
89.92082012
 30
0.0
 11
112.7405215
 21
89.92082012
 31
0.0
  0
LINE
  5
118
330
2
100
AcDbEntity
  8
YKK_11
  6
ByBlock
 62
     0
100
AcDbLine
 10
112.7405215
 20
91.12082012
 30
0.0
 11
131.5405215
 21
91.12082012
 31
0.0
  0
LINE
  5
119
330
2
100
AcDbEntity
  8
YKK_13
  6
YHIDDEN_1
100
AcDbLine
 10
139.94052106
 20
91.12081971
 30
0.0
 11
113.24052106
 21
91.12081971
 31
0.0
  0
LINE
  5
11A
330
2
100
AcDbEntity
  8
YKK_13
  6
YHIDDEN_1
100
AcDbLine
 10
113.24052106
 20
93.42081971
 30
0.0
 11
139.34052106
 21
93.42081971
 31
0.0
  0
LINE
  5
11B
330
2
100
AcDbEntity
  8
YKK_D
100
AcDbLine
 10
131.54052095
 20
69.92081882
 30
0.0
 11
111.54052095
 21
69.92081882
 31
0.0
  0
LINE
  5
11C
330
2
100
AcDbEntity
  8
YKK_D
100
AcDbLine
 10
111.54052095
 20
85.92081977
 30
0.0
 11
111.54052095
 21
68.92081882
 31
0.0
  0
LWPOLYLINE
  5
11D
330
2
100
AcDbEntity
  8
YKK_D
  6
ByBlock
100
AcDbPolyline
 90
        2
 70
     1
 43
0.85
 10
111.64677095
 20
69.92081882
 42
1.0
 10
111.43427095
 20
69.92081882
 42
1.0
  0
LINE
  5
11E
330
2
100
AcDbEntity
  8
YKK_D
100
AcDbLine
 10
106.34052114
 20
89.92081882
 30
0.0
 11
89.34051637
 21
89.92081882
 31
0.0
  0
LWPOLYLINE
  5
11F
330
2
100
AcDbEntity
  8
YKK_D
  6
ByBlock
100
AcDbPolyline
 90
        2
 70
     1
 43
0.85
 10
90.34051637
 20
90.02706882
 42
1.0
 10
90.34051637
 20
89.81456882
 42
1.0
  0
ARC
  5
120
330
2
100
AcDbEntity
  8
YKK_11
  6
ByBlock
 62
     0
100
AcDbCircle
 10
112.7405215
 20
91.12082012
 30
0.0
 40
1.199999999999999
100
AcDbArc
 50
180.00001985
 51
270.00000112
  0
LINE
  5
121
330
2
100
AcDbEntity
  8
YKK_12
  6
Continuous
100
AcDbLine
 10
110.34052106
 20
89.92081971
 30
0.0
 11
112.74052106
 21
89.92081971
 31
0.0
  0
LINE
  5
122
330
2
100
AcDbEntity
  8
YKK_13
  6
YHIDDEN_1
100
AcDbLine
 10
113.24052106
 20
93.42081971
 30
0.0
 11
113.24052106
 21
91.12081971
 31
0.0
  0
LINE
  5
123
330
2
100
AcDbEntity
  8
YKK_D
100
AcDbLine
 10
131.54052095
 20
85.92081977
 30
0.0
 11
131.54052095
 21
68.92081882
 31
0.0
  0
TEXT
  5
124
330
2
100
AcDbEntity
  8
YKK_D
100
AcDbText
 10
118.39737374
 20
70.92081882
 30
0.0
 40
6.0
  1
20
 41
0.8
100
AcDbText
1001
ACAD
1000
MTEXTBEGIN
1070
    73
1070
     1
1070
    44
1040
1.0
1070
    74
1070
     0
1000
MTEXTEND
  0
LWPOLYLINE
  5
125
330
2
100
AcDbEntity
  8
YKK_D
  6
ByBlock
100
AcDbPolyline
 90
        2
 70
     1
 43
0.85
 10
131.43427095
 20
69.92081882
 42
1.0
 10
131.64677095
 20
69.92081882
 42
1.0
  0
LINE
  5
126
330
2
100
AcDbEntity
  8
YKK_11
  6
ByBlock
 62
     0
100
AcDbLine
 10
131.5405215
 20
91.12082012
 30
0.0
 11
131.5405215
 21
89.92082012
 31
0.0
  0
ARC
  5
127
330
2
100
AcDbEntity
  8
YKK_13
  6
YHIDDEN_1
100
AcDbCircle
 10
139.94052106
 20
93.42081971
 30
0.0
 40
2.299999999999998
100
AcDbArc
 50
270.0
 51
0.0
  0
ARC
  5
128
330
2
100
AcDbEntity
  8
YKK_13
  6
YHIDDEN_1
100
AcDbCircle
 10
139.34052106
 20
94.02081971
 30
0.0
 40
0.6
100
AcDbArc
 50
270.0
 51
0.0
  0
LINE
  5
129
330
2
100
AcDbEntity
  8
YKK_11
  6
ByBlock
 62
     0
100
AcDbLine
 10
115.54052065
 20
200.72352754
 30
0.0
 11
115.54052065
 21
191.92352754
 31
0.0
  0
LINE
  5
12A
330
2
100
AcDbEntity
  8
YKK_11
  6
ByBlock
 62
     0
100
AcDbLine
 10
116.73961465
 20
192.42352754
 30
0.0
 11
116.73961465
 21
200.72352754
 31
0.0
  0
LINE
  5
12B
330
2
100
AcDbEntity
  8
YKK_11
  6
ByBlock
 62
     0
100
AcDbLine
 10
114.34052066
 20
254.26330467
 30
0.0
 11
114.34052066
 21
121.12081967
 31
0.0
  0
LINE
  5
12C
330
2
100
AcDbEntity
  8
YKK_11
  6
ByBlock
 62
     0
100
AcDbLine
 10
138.14052066
 20
191.92352767
 30
0.0
 11
138.14052066
 21
254.26330467
 31
0.0
  0
LINE
  5
12D
330
2
100
AcDbEntity
  8
YKK_11
  6
ByBlock
 62
     0
100
AcDbLine
 10
115.54052066
 20
254.26330467
 30
0.0
 11
115.54052066
 21
121.62081967
 31
0.0
  0
LINE
  5
12E
330
2
100
AcDbEntity
  8
YKK_11
  6
ByBlock
 62
     0
100
AcDbLine
 10
139.34052066
 20
119.92081967
 30
0.0
 11
139.34052066
 21
254.26330467
 31
0.0
  0
LINE
  5
12F
330
2
100
AcDbEntity
  8
YKK_12
  6
Continuous
100
AcDbLine
 10
143.34052106
 20
254.26330436
 30
0.0
 11
143.34052106
 21
115.42081971
 31
0.0
  0
LINE
  5
130
330
2
100
AcDbEntity
  8
YKK_12
  6
Continuous
100
AcDbLine
 10
142.14052106
 20
114.92081971
 30
0.0
 11
142.14052106
 21
254.26330436
 31
0.0
  0
TEXT
  5
131
330
2
100
AcDbEntity
  8
YKK_D
100
AcDbText
 10
89.34051637
 20
115.06016655
 30
0.0
 40
6.0
  1
5
 50
90.0
 41
0.8
100
AcDbText
1001
ACAD
1000
MTEXTBEGIN
1070
    73
1070
     1
1070
    44
1040
1.0
1070
    74
1070
     0
1000
MTEXTEND
  0
LINE
  5
132
330
2
100
AcDbEntity
  8
YKK_11
  6
ByBlock
 62
     0
100
AcDbLine
 10
138.14052066
 20
169.92352767
 30
0.0
 11
138.14052066
 21
119.92081967
 31
0.0
  0
LINE
  5
133
330
2
100
AcDbEntity
  8
YKK_11
  6
ByBlock
 62
     0
100
AcDbLine
 10
115.54052066
 20
119.92081967
 30
0.0
 11
136.94052066
 21
119.92081967
 31
0.0
  0
LINE
  5
134
330
2
100
AcDbEntity
  8
YKK_11
  6
ByBlock
 62
     0
100
AcDbLine
 10
116.04052066
 20
121.12081967
 30
0.0
 11
136.94052066
 21
121.12081967
 31
0.0
  0
LINE
  5
135
330
2
100
AcDbEntity
  8
YKK_11
  6
ByBlock
 62
     0
100
AcDbLine
 10
112.7405215
 20
114.92082012
 30
0.0
 11
143.3405215
 21
114.92082012
 31
0.0
  0
LINE
  5
136
330
2
100
AcDbEntity
  8
YKK_11
  6
ByBlock
 62
     0
100
AcDbLine
 10
143.3405215
 20
113.72082012
 30
0.0
 11
112.7405215
 21
113.72082012
 31
0.0
  0
LINE
  5
137
330
2
100
AcDbEntity
  8
YKK_D
100
AcDbLine
 10
106.34052114
 20
119.92082645
 30
0.0
 11
89.34051637
 21
119.92082645
 31
0.0
  0
LINE
  5
138
330
2
100
AcDbEntity
  8
YKK_D
100
AcDbLine
 10
102.43538503
 20
114.92082645
 30
0.0
 11
89.34051637
 21
114.92082645
 31
0.0
  0
LINE
  5
139
330
2
100
AcDbEntity
  8
YKK_D
100
AcDbLine
 10
106.34052114
 20
114.92082645
 30
0.0
 11
89.34051637
 21
114.92082645
 31
0.0
  0
LINE
  5
13A
330
2
100
AcDbEntity
  8
YKK_D
100
AcDbLine
 10
90.34051637
 20
114.92082645
 30
0.0
 11
90.34051637
 21
119.92082645
 31
0.0
  0
LWPOLYLINE
  5
13B
330
2
100
AcDbEntity
  8
YKK_D
  6
ByBlock
100
AcDbPolyline
 90
        2
 70
     1
 43
0.85
 10
90.34051637
 20
115.02707645
 42
1.0
 10
90.34051637
 20
114.81457645
 42
1.0
  0
LWPOLYLINE
  5
13C
330
2
100
AcDbEntity
  8
YKK_D
  6
ByBlock
100
AcDbPolyline
 90
        2
 70
     1
 43
0.85
 10
90.34051637
 20
114.81457645
 42
1.0
 10
90.34051637
 20
115.02707645
 42
1.0
  0
LWPOLYLINE
  5
13D
330
2
100
AcDbEntity
  8
YKK_D
  6
ByBlock
100
AcDbPolyline
 90
        2
 70
     1
 43
0.85
 10
90.34051637
 20
119.81457645
 42
1.0
 10
90.34051637
 20
120.02707645
 42
1.0
  0
LWPOLYLINE
  5
13E
330
2
100
AcDbEntity
  8
YKK_D
  6
ByBlock
100
AcDbPolyline
 90
        2
 70
     1
 43
0.85
 10
90.34051637
 20
120.02707645
 42
1.0
 10
90.34051637
 20
119.81457645
 42
1.0
  0
ARC
  5
13F
330
2
100
AcDbEntity
  8
YKK_11
  6
ByBlock
 62
     0
100
AcDbCircle
 10
112.7405215
 20
113.72082012
 30
0.0
 40
1.199999999999999
100
AcDbArc
 50
89.99998128
 51
180.00001985
  0
ARC
  5
140
330
2
100
AcDbEntity
  8
YKK_11
  6
ByBlock
 62
     0
100
AcDbCircle
 10
115.54052066
 20
121.12081967
 30
0.0
 40
1.199999999999999
100
AcDbArc
 50
180.00001985
 51
270.00000112
  0
LINE
  5
141
330
2
100
AcDbEntity
  8
YKK_11
  6
ByBlock
 62
     0
100
AcDbLine
 10
115.54052066
 20
121.62081967
 30
0.0
 11
116.04052066
 21
121.12081967
 31
0.0
  0
LINE
  5
142
330
2
100
AcDbEntity
  8
YKK_11
  6
ByBlock
 62
     0
100
AcDbLine
 10
136.94052066
 20
121.12081967
 30
0.0
 11
136.94052066
 21
131.12081967
 31
0.0
  0
LINE
  5
143
330
2
100
AcDbEntity
  8
YKK_13
  6
YHIDDEN_1
100
AcDbLine
 10
139.94052106
 20
112.32081971
 30
0.0
 11
129.24052106
 21
112.32081971
 31
0.0
  0
LINE
  5
144
330
2
100
AcDbEntity
  8
YKK_13
  6
YHIDDEN_1
100
AcDbLine
 10
129.24052106
 20
110.02081971
 30
0.0
 11
139.34052106
 21
110.02081971
 31
0.0
  0
LINE
  5
145
330
2
100
AcDbEntity
  8
YKK_13
  6
YHIDDEN_1
100
AcDbLine
 10
129.24052106
 20
112.32081971
 30
0.0
 11
129.24052106
 21
110.02081971
 31
0.0
  0
LINE
  5
146
330
2
100
AcDbEntity
  8
YKK_11
  6
ByBlock
 62
     0
100
AcDbLine
 10
144.5405215
 20
124.92082012
 30
0.0
 11
144.5405215
 21
114.92082012
 31
0.0
  0
LINE
  5
147
330
2
100
AcDbEntity
  8
YKK_11
  6
ByBlock
 62
     0
100
AcDbLine
 10
143.3405215
 20
114.92082012
 30
0.0
 11
143.3405215
 21
124.92082012
 31
0.0
  0
LINE
  5
148
330
2
100
AcDbEntity
  8
YKK_11
  6
ByBlock
 62
     0
100
AcDbLine
 10
141.04052104
 20
113.72081989
 30
0.0
 11
140.94052104
 21
113.72081989
 31
0.0
  0
ARC
  5
149
330
2
100
AcDbEntity
  8
YKK_13
  6
YHIDDEN_1
100
AcDbCircle
 10
139.94052106
 20
110.02081971
 30
0.0
 40
2.299999999999998
100
AcDbArc
 50
0.0
 51
90.0
  0
ARC
  5
14A
330
2
100
AcDbEntity
  8
YKK_13
  6
YHIDDEN_1
100
AcDbCircle
 10
139.34052106
 20
109.42081971
 30
0.0
 40
0.6
100
AcDbArc
 50
0.0
 51
90.0
  0
ARC
  5
14B
330
2
100
AcDbEntity
  8
YKK_11
  6
ByBlock
 62
     0
100
AcDbCircle
 10
143.3405215
 20
114.92082012
 30
0.0
 40
1.199999999999999
100
AcDbArc
 50
270.00000112
 51
0.0
  0
ARC
  5
14C
330
2
100
AcDbEntity
  8
YKK_11
  6
ByBlock
 62
     0
100
AcDbCircle
 10
136.94052066
 20
121.12081967
 30
0.0
 40
1.199999999999999
100
AcDbArc
 50
270.00000112
 51
0.0
  0
LINE
  5
14D
330
2
100
AcDbEntity
  8
YKK_11
  6
ByBlock
 62
     0
100
AcDbLine
 10
138.14052066
 20
119.92081967
 30
0.0
 11
139.34052066
 21
119.92081967
 31
0.0
  0
LINE
  5
14E
330
2
100
AcDbEntity
  8
YKK_11
  6
ByBlock
 62
     0
100
AcDbLine
 10
143.3405215
 20
124.92082012
 30
0.0
 11
144.5405215
 21
124.92082012
 31
0.0
  0
LINE
  5
14F
330
2
100
AcDbEntity
  8
YKK_11
  6
ByBlock
 62
     0
100
AcDbLine
 10
136.94052066
 20
131.12081967
 30
0.0
 11
138.14052066
 21
131.12081967
 31
0.0
  0
LINE
  5
150
330
2
100
AcDbEntity
  8
YKK_11
  6
ByBlock
 62
     0
100
AcDbLine
 10
138.14142765
 20
190.72352754
 30
0.0
 11
116.74052065
 21
190.72352754
 31
0.0
  0
LINE
  5
151
330
2
100
AcDbEntity
  8
YKK_11
  6
ByBlock
 62
     0
100
AcDbLine
 10
116.74052065
 20
171.12352754
 30
0.0
 11
138.14142765
 21
171.12352754
 31
0.0
  0
LINE
  5
152
330
2
100
AcDbEntity
  8
YKK_11
  6
ByBlock
 62
     0
100
AcDbLine
 10
138.34142765
 20
169.92352754
 30
0.0
 11
116.73961465
 21
169.92352754
 31
0.0
  0
LINE
  5
153
330
2
100
AcDbEntity
  8
YKK_11
  6
ByBlock
 62
     0
100
AcDbLine
 10
117.23961465
 20
191.92352754
 30
0.0
 11
138.34142765
 21
191.92352754
 31
0.0
  0
ARC
  5
154
330
2
100
AcDbEntity
  8
YKK_11
  6
ByBlock
 62
     0
100
AcDbCircle
 10
116.74052065
 20
169.92352754
 30
0.0
 40
1.199999999999999
100
AcDbArc
 50
89.99998128
 51
180.00001985
  0
LINE
  5
155
330
2
100
AcDbEntity
  8
YKK_11
  6
ByBlock
 62
     0
100
AcDbLine
 10
115.54052065
 20
161.12352754
 30
0.0
 11
115.54052065
 21
169.92352754
 31
0.0
  0
LINE
  5
156
330
2
100
AcDbEntity
  8
YKK_11
  6
ByBlock
 62
     0
100
AcDbLine
 10
116.73961465
 20
161.12352754
 30
0.0
 11
115.53961465
 21
161.12352754
 31
0.0
  0
LINE
  5
157
330
2
100
AcDbEntity
  8
YKK_11
  6
ByBlock
 62
     0
100
AcDbLine
 10
116.73961465
 20
169.92352754
 30
0.0
 11
116.73961465
 21
161.12352754
 31
0.0
  0
ARC
  5
158
330
2
100
AcDbEntity
  8
YKK_11
  6
ByBlock
 62
     0
100
AcDbCircle
 10
116.74052065
 20
191.92352754
 30
0.0
 40
1.199999999999999
100
AcDbArc
 50
180.00001985
 51
270.00000112
  0
LINE
  5
159
330
2
100
AcDbEntity
  8
YKK_11
  6
ByBlock
 62
     0
100
AcDbLine
 10
115.54052065
 20
191.92352754
 30
0.0
 11
115.54052065
 21
190.72352754
 31
0.0
  0
LINE
  5
15A
330
2
100
AcDbEntity
  8
YKK_11
  6
ByBlock
 62
     0
100
AcDbLine
 10
117.23961465
 20
191.92352754
 30
0.0
 11
116.73961465
 21
192.42352754
 31
0.0
  0
LINE
  5
15B
330
2
100
AcDbEntity
  8
YKK_11
  6
ByBlock
 62
     0
100
AcDbLine
 10
138.14142765
 20
171.12352754
 30
0.0
 11
138.14142765
 21
190.72352754
 31
0.0
  0
LINE
  5
15C
330
2
100
AcDbEntity
  8
YKK_11
  6
ByBlock
 62
     0
100
AcDbLine
 10
139.33961465
 20
190.98372754
 30
0.0
 11
139.33961465
 21
170.92352754
 31
0.0
  0
LINE
  5
15D
330
2
100
AcDbEntity
  8
YKK_11
  6
ByBlock
 62
     0
100
AcDbLine
 10
138.14052066
 20
171.59342767
 30
0.0
 11
138.14052066
 21
190.25362767
 31
0.0
  0
ARC
  5
15E
330
2
100
AcDbEntity
  8
YKK_11
  6
ByBlock
 62
     0
100
AcDbCircle
 10
138.34142765
 20
170.92352754
 30
0.0
 40
1.0
100
AcDbArc
 50
270.00000112
 51
0.0
  0
ARC
  5
15F
330
2
100
AcDbEntity
  8
YKK_11
  6
ByBlock
 62
     0
100
AcDbCircle
 10
138.34142765
 20
190.92352754
 30
0.0
 40
1.0
100
AcDbArc
 50
0.0
 51
89.99998128
  0
LINE
  5
160
330
2
100
AcDbEntity
  8
YKK_D
100
AcDbLine
 10
110.34051637
 20
227.24838687
 30
0.0
 11
143.34053163
 21
227.24838687
 31
0.0
  0
LINE
  5
161
330
2
100
AcDbEntity
  8
YKK_D
100
AcDbLine
 10
114.34050874
 20
207.24838687
 30
0.0
 11
139.34053163
 21
207.24838687
 31
0.0
  0
LINE
  5
162
330
2
100
AcDbEntity
  8
YKK_11
  6
ByBlock
 62
     0
100
AcDbLine
 10
116.73961465
 20
200.72352754
 30
0.0
 11
115.53961465
 21
200.72352754
 31
0.0
  0
TEXT
  5
163
330
2
100
AcDbEntity
  8
YKK_D
100
AcDbText
 10
106.44697951
 20
208.88547183
 30
0.0
 40
6.0
  1
4
 41
0.8
100
AcDbText
1001
ACAD
1000
MTEXTBEGIN
1070
    73
1070
     1
1070
    44
1040
1.0
1070
    74
1070
     0
1000
MTEXTEND
  0
LINE
  5
164
330
2
100
AcDbEntity
  8
YKK_D
100
AcDbLine
 10
110.34050874
 20
207.24838687
 30
0.0
 11
114.34050874
 21
207.24838687
 31
0.0
  0
LWPOLYLINE
  5
165
330
2
100
AcDbEntity
  8
YKK_D
  6
ByBlock
100
AcDbPolyline
 90
        2
 70
     1
 43
0.85
 10
110.44675874
 20
207.24838687
 42
1.0
 10
110.23425874
 20
207.24838687
 42
1.0
  0
LWPOLYLINE
  5
166
330
2
100
AcDbEntity
  8
YKK_D
  6
ByBlock
100
AcDbPolyline
 90
        2
 70
     1
 43
0.85
 10
114.23425874
 20
207.24838687
 42
1.0
 10
114.44675874
 20
207.24838687
 42
1.0
  0
LWPOLYLINE
  5
167
330
2
100
AcDbEntity
  8
YKK_D
  6
ByBlock
100
AcDbPolyline
 90
        2
 70
     1
 43
0.85
 10
114.44675874
 20
207.24838687
 42
1.0
 10
114.23425874
 20
207.24838687
 42
1.0
  0
LWPOLYLINE
  5
168
330
2
100
AcDbEntity
  8
YKK_D
  6
ByBlock
100
AcDbPolyline
 90
        2
 70
     1
 43
0.85
 10
110.44676637
 20
227.24838687
 42
1.0
 10
110.23426637
 20
227.24838687
 42
1.0
  0
TEXT
  5
169
330
2
100
AcDbEntity
  8
YKK_D
100
AcDbText
 10
123.75828287
 20
208.24838687
 30
0.0
 40
6.0
  1
25
 41
0.8
100
AcDbText
1001
ACAD
1000
MTEXTBEGIN
1070
    73
1070
     1
1070
    44
1040
1.0
1070
    74
1070
     0
1000
MTEXTEND
  0
LINE
  5
16A
330
2
100
AcDbEntity
  8
YKK_D
100
AcDbLine
 10
139.34053163
 20
207.24838687
 30
0.0
 11
143.34053163
 21
207.24838687
 31
0.0
  0
LWPOLYLINE
  5
16B
330
2
100
AcDbEntity
  8
YKK_D
  6
ByBlock
100
AcDbPolyline
 90
        2
 70
     1
 43
0.85
 10
139.44678163
 20
207.24838687
 42
1.0
 10
139.23428163
 20
207.24838687
 42
1.0
  0
LWPOLYLINE
  5
16C
330
2
100
AcDbEntity
  8
YKK_D
  6
ByBlock
100
AcDbPolyline
 90
        2
 70
     1
 43
0.85
 10
139.23428163
 20
207.24838687
 42
1.0
 10
139.44678163
 20
207.24838687
 42
1.0
  0
LWPOLYLINE
  5
16D
330
2
100
AcDbEntity
  8
YKK_D
  6
ByBlock
100
AcDbPolyline
 90
        2
 70
     1
 43
0.85
 10
143.23428163
 20
207.24838687
 42
1.0
 10
143.44678163
 20
207.24838687
 42
1.0
  0
TEXT
  5
16E
330
2
100
AcDbEntity
  8
YKK_D
100
AcDbText
 10
123.77047324
 20
228.24838687
 30
0.0
 40
6.0
  1
33
 41
0.8
100
AcDbText
1001
ACAD
1000
MTEXTBEGIN
1070
    73
1070
     1
1070
    44
1040
1.0
1070
    74
1070
     0
1000
MTEXTEND
  0
LWPOLYLINE
  5
16F
330
2
100
AcDbEntity
  8
YKK_D
  6
ByBlock
100
AcDbPolyline
 90
        2
 70
     1
 43
0.85
 10
143.23428163
 20
227.24838687
 42
1.0
 10
143.44678163
 20
227.24838687
 42
1.0
  0
LINE
  5
170
330
2
100
AcDbEntity
  8
YKK_D
100
AcDbLine
 10
166.84051637
 20
114.92082645
 30
0.0
 11
166.84051637
 21
103.80082797
 31
0.0
  0
LINE
  5
171
330
2
100
AcDbEntity
  8
YKK_D
100
AcDbLine
 10
387.68008817
 20
109.88675357
 30
0.0
 11
387.68008817
 21
101.28675357
 31
0.0
  0
TEXT
  5
172
330
2
100
AcDbEntity
  8
YKK_D
100
AcDbText
 10
386.68008817
 20
102.33954545
 30
0.0
 40
6.0
  1
4
 50
90.0
 41
0.8
100
AcDbText
1001
ACAD
1000
MTEXTBEGIN
1070
    73
1070
     1
1070
    44
1040
1.0
1070
    74
1070
     0
1000
MTEXTEND
  0
LINE
  5
173
330
2
100
AcDbEntity
  8
YKK_D
100
AcDbLine
 10
363.68008817
 20
87.58675815
 30
0.0
 11
369.742266
 21
84.08675815
 31
0.0
  0
LINE
  5
174
330
2
100
AcDbEntity
  8
YKK_D
100
AcDbLine
 10
363.68008817
 20
87.58675815
 30
0.0
 11
369.742266
 21
91.08675815
 31
0.0
  0
LINE
  5
175
330
2
100
AcDbEntity
  8
YKK_D
100
AcDbLine
 10
363.68008817
 20
87.58675815
 30
0.0
 11
375.80444382
 21
87.58675815
 31
0.0
  0
LINE
  5
176
330
2
100
AcDbEntity
  8
YKK_D
100
AcDbLine
 10
353.68008817
 20
87.58675815
 30
0.0
 11
342.56008207
 21
87.58675815
 31
0.0
  0
TEXT
  5
177
330
2
100
AcDbEntity
  8
YKK_D
100
AcDbText
 10
343.77855922
 20
88.58675815
 30
0.0
 40
6.0
  1
10
 41
0.8
100
AcDbText
1001
ACAD
1000
MTEXTBEGIN
1070
    73
1070
     1
1070
    44
1040
1.0
1070
    74
1070
     0
1000
MTEXTEND
  0
LINE
  5
178
330
2
100
AcDbEntity
  8
YKK_D
100
AcDbLine
 10
363.68008817
 20
104.68675662
 30
0.0
 11
363.68008817
 21
86.58675815
 31
0.0
  0
LINE
  5
179
330
2
100
AcDbEntity
  8
YKK_D
100
AcDbLine
 10
353.68008817
 20
103.58675815
 30
0.0
 11
353.68008817
 21
86.58675815
 31
0.0
  0
LINE
  5
17A
330
2
100
AcDbEntity
  8
YKK_D
100
AcDbLine
 10
363.68008817
 20
103.58675815
 30
0.0
 11
363.68008817
 21
86.58675815
 31
0.0
  0
LINE
  5
17B
330
2
100
AcDbEntity
  8
YKK_D
100
AcDbLine
 10
363.68008817
 20
87.58675815
 30
0.0
 11
353.68008817
 21
87.58675815
 31
0.0
  0
LWPOLYLINE
  5
17C
330
2
100
AcDbEntity
  8
YKK_D
  6
ByBlock
100
AcDbPolyline
 90
        2
 70
     1
 43
0.85
 10
353.78633817
 20
87.58675815
 42
1.0
 10
353.57383817
 20
87.58675815
 42
1.0
  0
LINE
  5
17D
330
2
100
AcDbEntity
  8
YKK_D
100
AcDbLine
 10
369.742266
 20
84.08675815
 30
0.0
 11
369.742266
 21
91.08675815
 31
0.0
  0
LINE
  5
17E
330
2
100
AcDbEntity
  8
YKK_D
100
AcDbLine
 10
166.84051637
 20
124.92082645
 30
0.0
 11
170.34051637
 21
130.98300427
 31
0.0
  0
LINE
  5
17F
330
2
100
AcDbEntity
  8
YKK_D
100
AcDbLine
 10
166.84051637
 20
124.92082645
 30
0.0
 11
163.34051637
 21
130.98300427
 31
0.0
  0
LINE
  5
180
330
2
100
AcDbEntity
  8
YKK_D
100
AcDbLine
 10
166.84051637
 20
124.92082645
 30
0.0
 11
166.84051637
 21
137.0451821
 31
0.0
  0
LINE
  5
181
330
2
100
AcDbEntity
  8
YKK_D
100
AcDbLine
 10
150.84052114
 20
124.92082645
 30
0.0
 11
167.84051637
 21
124.92082645
 31
0.0
  0
LINE
  5
182
330
2
100
AcDbEntity
  8
YKK_D
100
AcDbLine
 10
150.84052114
 20
114.92082645
 30
0.0
 11
167.84051637
 21
114.92082645
 31
0.0
  0
LINE
  5
183
330
2
100
AcDbEntity
  8
YKK_D
100
AcDbLine
 10
150.84052114
 20
124.92082645
 30
0.0
 11
167.84051637
 21
124.92082645
 31
0.0
  0
TEXT
  5
184
330
2
100
AcDbEntity
  8
YKK_D
100
AcDbText
 10
165.84051637
 20
105.01930513
 30
0.0
 40
6.0
  1
10
 50
90.0
 41
0.8
100
AcDbText
1001
ACAD
1000
MTEXTBEGIN
1070
    73
1070
     1
1070
    44
1040
1.0
1070
    74
1070
     0
1000
MTEXTEND
  0
LINE
  5
185
330
2
100
AcDbEntity
  8
YKK_D
100
AcDbLine
 10
166.84051637
 20
124.92082645
 30
0.0
 11
166.84051637
 21
114.92082645
 31
0.0
  0
LWPOLYLINE
  5
186
330
2
100
AcDbEntity
  8
YKK_D
  6
ByBlock
100
AcDbPolyline
 90
        2
 70
     1
 43
0.85
 10
166.84051637
 20
115.02707645
 42
1.0
 10
166.84051637
 20
114.81457645
 42
1.0
  0
LINE
  5
187
330
2
100
AcDbEntity
  8
YKK_D
100
AcDbLine
 10
170.34051637
 20
130.98300427
 30
0.0
 11
163.34051637
 21
130.98300427
 31
0.0
  0
TEXT
  5
188
330
2
100
AcDbEntity
  8
YKK_D
100
AcDbText
 10
165.84051637
 20
274.37361833
 30
0.0
 40
6.0
  1
H
 50
90.0
 41
0.8
100
AcDbText
1001
ACAD
1000
MTEXTBEGIN
1070
    73
1070
     1
1070
    44
1040
1.0
1070
    74
1070
     0
1000
MTEXTEND
  0
LINE
  5
189
330
2
100
AcDbEntity
  8
YKK_D
100
AcDbLine
 10
363.68008817
 20
210.87435914
 30
0.0
 11
363.68008817
 21
193.87434818
 31
0.0
  0
LINE
  5
18A
330
2
100
AcDbEntity
  8
YKK_D
100
AcDbLine
 10
363.68008817
 20
210.87435914
 30
0.0
 11
363.68008817
 21
193.87436344
 31
0.0
  0
LINE
  5
18B
330
2
100
AcDbEntity
  8
YKK_D
100
AcDbLine
 10
353.68008817
 20
210.87435914
 30
0.0
 11
353.68008817
 21
193.87436344
 31
0.0
  0
LINE
  5
18C
330
2
100
AcDbEntity
  8
YKK_D
100
AcDbLine
 10
363.68008817
 20
194.87434818
 30
0.0
 11
369.742266
 21
191.37434818
 31
0.0
  0
LINE
  5
18D
330
2
100
AcDbEntity
  8
YKK_D
100
AcDbLine
 10
369.742266
 20
191.37434818
 30
0.0
 11
369.742266
 21
198.37434818
 31
0.0
  0
LINE
  5
18E
330
2
100
AcDbEntity
  8
YKK_11
  6
ByBlock
 62
     0
100
AcDbLine
 10
329.88008079
 20
141.68675653
 30
0.0
 11
352.48008079
 21
141.68675653
 31
0.0
  0
LINE
  5
18F
330
2
100
AcDbEntity
  8
YKK_11
  6
ByBlock
 62
     0
100
AcDbLine
 10
352.48008079
 20
142.88675653
 30
0.0
 11
329.88008079
 21
142.88675653
 31
0.0
  0
LINE
  5
190
330
2
100
AcDbEntity
  8
YKK_13
  6
YHIDDEN_1
100
AcDbLine
 10
348.1800808
 20
114.48675653
 30
0.0
 11
332.7800808
 21
114.48675653
 31
0.0
  0
LINE
  5
191
330
2
100
AcDbEntity
  8
YKK_13
  6
YHIDDEN_1
100
AcDbLine
 10
348.7800808
 20
112.18675653
 30
0.0
 11
332.1800808
 21
112.18675653
 31
0.0
  0
LINE
  5
192
330
2
100
AcDbEntity
  8
YKK_D
100
AcDbLine
 10
328.68008817
 20
171.88675357
 30
0.0
 11
353.68008817
 21
171.88675357
 31
0.0
  0
LINE
  5
193
330
2
100
AcDbEntity
  8
YKK_D
100
AcDbLine
 10
328.68008817
 20
146.88675023
 30
0.0
 11
328.68008817
 21
172.88675357
 31
0.0
  0
TEXT
  5
194
330
2
100
AcDbEntity
  8
YKK_D
100
AcDbText
 10
307.68007291
 20
126.07356476
 30
0.0
 40
6.0
  1
21.2
 50
90.0
 41
0.8
100
AcDbText
1001
ACAD
1000
MTEXTBEGIN
1070
    73
1070
     1
1070
    44
1040
1.0
1070
    74
1070
     0
1000
MTEXTEND
  0
LINE
  5
195
330
2
100
AcDbEntity
  8
YKK_11
  6
ByBlock
 62
     0
100
AcDbLine
 10
329.88008079
 20
121.68675653
 30
0.0
 11
329.88008079
 21
141.68675653
 31
0.0
  0
LINE
  5
196
330
2
100
AcDbEntity
  8
YKK_11
  6
ByBlock
 62
     0
100
AcDbLine
 10
328.68008079
 20
141.68675653
 30
0.0
 11
328.68008079
 21
121.68675653
 31
0.0
  0
LINE
  5
197
330
2
100
AcDbEntity
  8
YKK_13
  6
YHIDDEN_1
100
AcDbLine
 10
329.8800808
 20
114.48675653
 30
0.0
 11
329.8800808
 21
141.18675653
 31
0.0
  0
LINE
  5
198
330
2
100
AcDbEntity
  8
YKK_13
  6
YHIDDEN_1
100
AcDbLine
 10
332.1800808
 20
141.18675653
 30
0.0
 11
332.1800808
 21
115.08675653
 31
0.0
  0
LINE
  5
199
330
2
100
AcDbEntity
  8
YKK_D
100
AcDbLine
 10
308.68007291
 20
142.88675357
 30
0.0
 11
308.68007291
 21
121.68675662
 31
0.0
  0
LINE
  5
19A
330
2
100
AcDbEntity
  8
YKK_D
100
AcDbLine
 10
324.68007815
 20
121.68675662
 30
0.0
 11
307.68007291
 21
121.68675662
 31
0.0
  0
LWPOLYLINE
  5
19B
330
2
100
AcDbEntity
  8
YKK_D
  6
ByBlock
100
AcDbPolyline
 90
        2
 70
     1
 43
0.85
 10
308.68007291
 20
121.79300662
 42
1.0
 10
308.68007291
 20
121.58050662
 42
1.0
  0
ARC
  5
19C
330
2
100
AcDbEntity
  8
YKK_13
  6
YHIDDEN_1
100
AcDbCircle
 10
332.1800808
 20
114.48675653
 30
0.0
 40
2.299999999999998
100
AcDbArc
 50
180.0
 51
270.0
  0
ARC
  5
19D
330
2
100
AcDbEntity
  8
YKK_13
  6
YHIDDEN_1
100
AcDbCircle
 10
332.7800808
 20
115.08675653
 30
0.0
 40
0.6
100
AcDbArc
 50
180.0
 51
270.0
  0
LINE
  5
19E
330
2
100
AcDbEntity
  8
YKK_11
  6
ByBlock
 62
     0
100
AcDbLine
 10
328.68008079
 20
121.68675653
 30
0.0
 11
329.88008079
 21
121.68675653
 31
0.0
  0
LINE
  5
19F
330
2
100
AcDbEntity
  8
YKK_D
100
AcDbLine
 10
324.68007815
 20
142.88675357
 30
0.0
 11
307.68007291
 21
142.88675357
 31
0.0
  0
LWPOLYLINE
  5
1A0
330
2
100
AcDbEntity
  8
YKK_D
  6
ByBlock
100
AcDbPolyline
 90
        2
 70
     1
 43
0.85
 10
308.68007291
 20
142.78050357
 42
1.0
 10
308.68007291
 20
142.99300357
 42
1.0
  0
ARC
  5
1A1
330
2
100
AcDbEntity
  8
YKK_11
  6
ByBlock
 62
     0
100
AcDbCircle
 10
329.88008079
 20
141.68675653
 30
0.0
 40
1.199999999999999
100
AcDbArc
 50
89.99998128
 51
180.00001985
  0
LINE
  5
1A2
330
2
100
AcDbEntity
  8
YKK_13
  6
YHIDDEN_1
100
AcDbLine
 10
332.1800808
 20
141.18675653
 30
0.0
 11
329.8800808
 21
141.18675653
 31
0.0
  0
LWPOLYLINE
  5
1A3
330
2
100
AcDbEntity
  8
YKK_D
  6
ByBlock
100
AcDbPolyline
 90
        2
 70
     1
 43
0.85
 10
328.78633817
 20
171.88675357
 42
1.0
 10
328.57383817
 20
171.88675357
 42
1.0
  0
LINE
  5
1A4
330
2
100
AcDbEntity
  8
YKK_13
  6
YCENTER_1
100
AcDbLine
 10
355.6800808
 20
115.10977466
 30
0.0
 11
355.6800808
 21
159.38675653
 31
0.0
  0
CIRCLE
  5
1A6
330
2
100
AcDbEntity
  8
YKK_13
  6
Continuous
100
AcDbCircle
 10
355.6800808
 20
151.88675653
 30
0.0
 40
4.5
  0
CIRCLE
  5
1A7
330
2
100
AcDbEntity
  8
YKK_13
  6
Continuous
100
AcDbCircle
 10
355.6800808
 20
151.88675653
 30
0.0
 40
5.0
  0
LINE
  5
1A8
330
2
100
AcDbEntity
  8
YKK_D
100
AcDbLine
 10
387.68008817
 20
150.07461368
 30
0.0
 11
387.68008817
 21
142.88675357
 31
0.0
  0
TEXT
  5
1A9
330
2
100
AcDbEntity
  8
YKK_D
100
AcDbText
 10
386.68008817
 20
145.92740556
 30
0.0
 40
6.0
  1
4
 50
90.0
 41
0.8
100
AcDbText
1001
ACAD
1000
MTEXTBEGIN
1070
    73
1070
     1
1070
    44
1040
1.0
1070
    74
1070
     0
1000
MTEXTEND
  0
LINE
  5
1AA
330
2
100
AcDbEntity
  8
YKK_11
  6
ByBlock
 62
     0
100
AcDbLine
 10
358.88008072
 20
113.88675653
 30
0.0
 11
367.68008072
 21
113.88675653
 31
0.0
  0
LINE
  5
1AB
330
2
100
AcDbEntity
  8
YKK_11
  6
ByBlock
 62
     0
100
AcDbLine
 10
352.48008079
 20
141.68675653
 30
0.0
 11
352.48008079
 21
111.08675653
 31
0.0
  0
LINE
  5
1AC
330
2
100
AcDbEntity
  8
YKK_11
  6
ByBlock
 62
     0
100
AcDbLine
 10
353.68008079
 20
111.08675653
 30
0.0
 11
353.68008079
 21
141.68675653
 31
0.0
  0
LINE
  5
1AD
330
2
100
AcDbEntity
  8
YKK_11
  6
ByBlock
 62
     0
100
AcDbLine
 10
358.88008072
 20
115.58675653
 30
0.0
 11
358.88008072
 21
137.68675653
 31
0.0
  0
LINE
  5
1AE
330
2
100
AcDbEntity
  8
YKK_11
  6
ByBlock
 62
     0
100
AcDbLine
 10
357.68008072
 20
137.68675653
 30
0.0
 11
357.68008072
 21
115.08675653
 31
0.0
  0
LINE
  5
1AF
330
2
100
AcDbEntity
  8
YKK_12
  6
Continuous
100
AcDbLine
 10
359.3800808
 20
137.68675653
 30
0.0
 11
359.3800808
 21
115.08675653
 31
0.0
  0
LINE
  5
1B0
330
2
100
AcDbEntity
  8
YKK_13
  6
Continuous
100
AcDbLine
 10
357.6800808
 20
147.30418084
 30
0.0
 11
357.6800808
 21
116.88675653
 31
0.0
  0
LINE
  5
1B1
330
2
100
AcDbEntity
  8
YKK_13
  6
Continuous
100
AcDbLine
 10
353.6800808
 20
147.30418084
 30
0.0
 11
353.6800808
 21
116.88675653
 31
0.0
  0
LINE
  5
1B2
330
2
100
AcDbEntity
  8
YKK_13
  6
YHIDDEN_1
100
AcDbLine
 10
351.0800808
 20
125.18675653
 30
0.0
 11
348.7800808
 21
125.18675653
 31
0.0
  0
ARC
  5
1B3
330
2
100
AcDbEntity
  8
YKK_13
  6
YHIDDEN_1
100
AcDbCircle
 10
348.7800808
 20
114.48675653
 30
0.0
 40
2.299999999999998
100
AcDbArc
 50
270.0
 51
0.0
  0
LINE
  5
1B4
330
2
100
AcDbEntity
  8
YKK_13
  6
YHIDDEN_1
100
AcDbLine
 10
348.7800808
 20
125.18675653
 30
0.0
 11
348.7800808
 21
115.08675653
 31
0.0
  0
ARC
  5
1B5
330
2
100
AcDbEntity
  8
YKK_13
  6
YHIDDEN_1
100
AcDbCircle
 10
348.1800808
 20
115.08675653
 30
0.0
 40
0.6
100
AcDbArc
 50
270.0
 51
0.0
  0
LINE
  5
1B6
330
2
100
AcDbEntity
  8
YKK_13
  6
YHIDDEN_1
100
AcDbLine
 10
351.0800808
 20
114.48675653
 30
0.0
 11
351.0800808
 21
125.18675653
 31
0.0
  0
LINE
  5
1B7
330
2
100
AcDbEntity
  8
YKK_11
  6
ByBlock
 62
     0
100
AcDbLine
 10
363.68008079
 20
111.08675653
 30
0.0
 11
353.68008079
 21
111.08675653
 31
0.0
  0
LINE
  5
1B8
330
2
100
AcDbEntity
  8
YKK_11
  6
ByBlock
 62
     0
100
AcDbLine
 10
353.68008079
 20
109.88675653
 30
0.0
 11
363.68008079
 21
109.88675653
 31
0.0
  0
ARC
  5
1B9
330
2
100
AcDbEntity
  8
YKK_11
  6
ByBlock
 62
     0
100
AcDbCircle
 10
358.88008072
 20
115.08675653
 30
0.0
 40
1.199999999999999
100
AcDbArc
 50
180.00001985
 51
270.00000112
  0
ARC
  5
1BA
330
2
100
AcDbEntity
  8
YKK_11
  6
ByBlock
 62
     0
100
AcDbCircle
 10
353.68008079
 20
111.08675653
 30
0.0
 40
1.199999999999999
100
AcDbArc
 50
180.00001985
 51
270.00000112
  0
LINE
  5
1BB
330
2
100
AcDbEntity
  8
YKK_12
  6
Continuous
100
AcDbLine
 10
353.6800808
 20
109.88675653
 30
0.0
 11
353.6800808
 21
108.68675653
 31
0.0
  0
LINE
  5
1BC
330
2
100
AcDbEntity
  8
YKK_11
  6
ByBlock
 62
     0
100
AcDbLine
 10
363.68008079
 20
109.88675653
 30
0.0
 11
363.68008079
 21
111.08675653
 31
0.0
  0
LINE
  5
1BD
330
2
100
AcDbEntity
  8
YKK_11
  6
ByBlock
 62
     0
100
AcDbLine
 10
359.38008072
 20
115.08675653
 30
0.0
 11
358.88008072
 21
115.58675653
 31
0.0
  0
LINE
  5
1BE
330
2
100
AcDbEntity
  8
YKK_13
  6
Continuous
100
AcDbLine
 10
353.6800808
 20
116.88675653
 30
0.0
 11
357.6800808
 21
116.88675653
 31
0.0
  0
ARC
  5
1BF
330
2
100
AcDbEntity
  8
YKK_11
  6
ByBlock
 62
     0
100
AcDbCircle
 10
358.88008072
 20
137.68675653
 30
0.0
 40
1.199999999999999
100
AcDbArc
 50
89.99998128
 51
180.00001985
  0
LINE
  5
1C0
330
2
100
AcDbEntity
  8
YKK_13
  6
YHIDDEN_1
100
AcDbLine
 10
357.6800808
 20
141.68675653
 30
0.0
 11
357.6800808
 21
137.68675653
 31
0.0
  0
ARC
  5
1C1
330
2
100
AcDbEntity
  8
YKK_11
  6
ByBlock
 62
     0
100
AcDbCircle
 10
352.48008079
 20
141.68675653
 30
0.0
 40
1.199999999999999
100
AcDbArc
 50
0.0
 51
89.99998128
  0
LINE
  5
1C2
330
2
100
AcDbEntity
  8
YKK_D
100
AcDbLine
 10
387.68008817
 20
113.88675357
 30
0.0
 11
387.68008817
 21
138.88675357
 31
0.0
  0
TEXT
  5
1C3
330
2
100
AcDbEntity
  8
YKK_D
100
AcDbText
 10
386.68008817
 20
123.30452007
 30
0.0
 40
6.0
  1
25
 50
90.0
 41
0.8
100
AcDbText
1001
ACAD
1000
MTEXTBEGIN
1070
    73
1070
     1
1070
    44
1040
1.0
1070
    74
1070
     0
1000
MTEXTEND
  0
LINE
  5
1C4
330
2
100
AcDbEntity
  8
YKK_D
100
AcDbLine
 10
371.68007815
 20
113.88675357
 30
0.0
 11
388.68008817
 21
113.88675357
 31
0.0
  0
LINE
  5
1C5
330
2
100
AcDbEntity
  8
YKK_D
100
AcDbLine
 10
371.68007815
 20
109.88675357
 30
0.0
 11
388.68008817
 21
109.88675357
 31
0.0
  0
LINE
  5
1C6
330
2
100
AcDbEntity
  8
YKK_D
100
AcDbLine
 10
371.68007815
 20
113.88675357
 30
0.0
 11
388.68008817
 21
113.88675357
 31
0.0
  0
LINE
  5
1C7
330
2
100
AcDbEntity
  8
YKK_11
  6
ByBlock
 62
     0
100
AcDbLine
 10
367.68008072
 20
113.88675653
 30
0.0
 11
367.68008072
 21
115.08675653
 31
0.0
  0
LINE
  5
1C8
330
2
100
AcDbEntity
  8
YKK_D
100
AcDbLine
 10
387.68008817
 20
113.88675357
 30
0.0
 11
387.68008817
 21
109.88675357
 31
0.0
  0
LWPOLYLINE
  5
1C9
330
2
100
AcDbEntity
  8
YKK_D
  6
ByBlock
100
AcDbPolyline
 90
        2
 70
     1
 43
0.85
 10
387.68008817
 20
109.99300357
 42
1.0
 10
387.68008817
 20
109.78050357
 42
1.0
  0
LWPOLYLINE
  5
1CA
330
2
100
AcDbEntity
  8
YKK_D
  6
ByBlock
100
AcDbPolyline
 90
        2
 70
     1
 43
0.85
 10
387.68008817
 20
113.78050357
 42
1.0
 10
387.68008817
 20
113.99300357
 42
1.0
  0
LWPOLYLINE
  5
1CB
330
2
100
AcDbEntity
  8
YKK_D
  6
ByBlock
100
AcDbPolyline
 90
        2
 70
     1
 43
0.85
 10
387.68008817
 20
113.99300357
 42
1.0
 10
387.68008817
 20
113.78050357
 42
1.0
  0
LINE
  5
1CC
330
2
100
AcDbEntity
  8
YKK_D
100
AcDbLine
 10
371.68007863
 20
142.88675357
 30
0.0
 11
388.68008817
 21
142.88675357
 31
0.0
  0
LWPOLYLINE
  5
1CD
330
2
100
AcDbEntity
  8
YKK_D
  6
ByBlock
100
AcDbPolyline
 90
        2
 70
     1
 43
0.85
 10
387.68008817
 20
138.99300357
 42
1.0
 10
387.68008817
 20
138.78050357
 42
1.0
  0
LWPOLYLINE
  5
1CE
330
2
100
AcDbEntity
  8
YKK_D
  6
ByBlock
100
AcDbPolyline
 90
        2
 70
     1
 43
0.85
 10
387.68008817
 20
138.78050357
 42
1.0
 10
387.68008817
 20
138.99300357
 42
1.0
  0
LINE
  5
1CF
330
2
100
AcDbEntity
  8
YKK_D
100
AcDbLine
 10
387.68008817
 20
142.88675357
 30
0.0
 11
387.68008817
 21
138.88675357
 31
0.0
  0
LWPOLYLINE
  5
1D0
330
2
100
AcDbEntity
  8
YKK_D
  6
ByBlock
100
AcDbPolyline
 90
        2
 70
     1
 43
0.85
 10
387.68008817
 20
142.78050357
 42
1.0
 10
387.68008817
 20
142.99300357
 42
1.0
  0
LINE
  5
1D1
330
2
100
AcDbEntity
  8
YKK_D
100
AcDbLine
 10
357.68008817
 20
155.88674976
 30
0.0
 11
357.68008817
 21
172.88675357
 31
0.0
  0
LINE
  5
1D2
330
2
100
AcDbEntity
  8
YKK_D
100
AcDbLine
 10
353.68008817
 20
161.90982868
 30
0.0
 11
353.68008817
 21
172.88675357
 31
0.0
  0
LINE
  5
1D3
330
2
100
AcDbEntity
  8
YKK_D
100
AcDbLine
 10
353.68008817
 20
155.88676549
 30
0.0
 11
353.68008817
 21
172.88675357
 31
0.0
  0
LINE
  5
1D4
330
2
100
AcDbEntity
  8
YKK_D
100
AcDbLine
 10
357.68008817
 20
160.10376693
 30
0.0
 11
357.68008817
 21
172.88675357
 31
0.0
  0
LWPOLYLINE
  5
1D5
330
2
100
AcDbEntity
  8
YKK_D
  6
ByBlock
100
AcDbPolyline
 90
        2
 70
     1
 43
0.85
 10
353.78633817
 20
171.88675357
 42
1.0
 10
353.57383817
 20
171.88675357
 42
1.0
  0
LWPOLYLINE
  5
1D6
330
2
100
AcDbEntity
  8
YKK_D
  6
ByBlock
100
AcDbPolyline
 90
        2
 70
     1
 43
0.85
 10
353.57383817
 20
171.88675357
 42
1.0
 10
353.78633817
 20
171.88675357
 42
1.0
  0
LWPOLYLINE
  5
1D7
330
2
100
AcDbEntity
  8
YKK_D
  6
ByBlock
100
AcDbPolyline
 90
        2
 70
     1
 43
0.85
 10
357.57383817
 20
171.88675357
 42
1.0
 10
357.78633817
 20
171.88675357
 42
1.0
  0
LWPOLYLINE
  5
1D8
330
2
100
AcDbEntity
  8
YKK_D
  6
ByBlock
100
AcDbPolyline
 90
        2
 70
     1
 43
0.85
 10
357.78633817
 20
171.88675357
 42
1.0
 10
357.57383817
 20
171.88675357
 42
1.0
  0
LINE
  5
1D9
330
2
100
AcDbEntity
  8
YKK_13
  6
YCENTER_1
100
AcDbLine
 10
348.1800808
 20
151.88675653
 30
0.0
 11
363.1800808
 21
151.88675653
 31
0.0
  0
LINE
  5
1DA
330
2
100
AcDbEntity
  8
YKK_D
100
AcDbLine
 10
353.68008817
 20
171.88675357
 30
0.0
 11
357.68008817
 21
171.88675357
 31
0.0
  0
TEXT
  5
1DB
330
2
100
AcDbEntity
  8
YKK_D
100
AcDbText
 10
338.09785467
 20
172.88675357
 30
0.0
 40
6.0
  1
25
 41
0.8
100
AcDbText
1001
ACAD
1000
MTEXTBEGIN
1070
    73
1070
     1
1070
    44
1040
1.0
1070
    74
1070
     0
1000
MTEXTEND
  0
TEXT
  5
1DC
330
2
100
AcDbEntity
  8
YKK_D
100
AcDbText
 10
353.28288005
 20
172.88675357
 30
0.0
 40
6.0
  1
4
 41
0.8
100
AcDbText
1001
ACAD
1000
MTEXTBEGIN
1070
    73
1070
     1
1070
    44
1040
1.0
1070
    74
1070
     0
1000
MTEXTEND
  0
LINE
  5
1DD
330
2
100
AcDbEntity
  8
YKK_11
  6
ByBlock
 62
     0
100
AcDbLine
 10
329.88008071
 20
247.87435925
 30
0.0
 11
352.48008071
 21
247.87435925
 31
0.0
  0
LINE
  5
1DE
330
2
100
AcDbEntity
  8
YKK_11
  6
ByBlock
 62
     0
100
AcDbLine
 10
352.48008071
 20
249.07435925
 30
0.0
 11
329.88008071
 21
249.07435925
 31
0.0
  0
LINE
  5
1DF
330
2
100
AcDbEntity
  8
YKK_13
  6
YHIDDEN_1
100
AcDbLine
 10
349.2800808
 20
221.17435929
 30
0.0
 11
333.0800808
 21
221.17435929
 31
0.0
  0
LINE
  5
1E0
330
2
100
AcDbEntity
  8
YKK_13
  6
YHIDDEN_1
100
AcDbLine
 10
349.8800808
 20
218.87435929
 30
0.0
 11
332.4800808
 21
218.87435929
 31
0.0
  0
LINE
  5
1E1
330
2
100
AcDbEntity
  8
YKK_D
100
AcDbLine
 10
328.68008817
 20
277.57436038
 30
0.0
 11
353.68008817
 21
277.57436038
 31
0.0
  0
LINE
  5
1E2
330
2
100
AcDbEntity
  8
YKK_11
  6
ByBlock
 62
     0
100
AcDbLine
 10
329.88008071
 20
227.87435925
 30
0.0
 11
329.88008071
 21
247.87435925
 31
0.0
  0
LINE
  5
1E3
330
2
100
AcDbEntity
  8
YKK_11
  6
ByBlock
 62
     0
100
AcDbLine
 10
328.68008071
 20
247.87435925
 30
0.0
 11
328.68008071
 21
227.87435925
 31
0.0
  0
LINE
  5
1E4
330
2
100
AcDbEntity
  8
YKK_13
  6
YHIDDEN_1
100
AcDbLine
 10
330.1800808
 20
221.17435929
 30
0.0
 11
330.1800808
 21
247.87435929
 31
0.0
  0
LINE
  5
1E5
330
2
100
AcDbEntity
  8
YKK_13
  6
YHIDDEN_1
100
AcDbLine
 10
332.4800808
 20
247.87435929
 30
0.0
 11
332.4800808
 21
221.77435929
 31
0.0
  0
LINE
  5
1E6
330
2
100
AcDbEntity
  8
YKK_D
100
AcDbLine
 10
308.68007291
 20
249.07436038
 30
0.0
 11
308.68007291
 21
227.87436344
 31
0.0
  0
TEXT
  5
1E7
330
2
100
AcDbEntity
  8
YKK_D
100
AcDbText
 10
307.68007291
 20
232.26115631
 30
0.0
 40
6.0
  1
21.2
 50
90.0
 41
0.8
100
AcDbText
1001
ACAD
1000
MTEXTBEGIN
1070
    73
1070
     1
1070
    44
1040
1.0
1070
    74
1070
     0
1000
MTEXTEND
  0
LINE
  5
1E8
330
2
100
AcDbEntity
  8
YKK_D
100
AcDbLine
 10
322.68007577
 20
227.87436344
 30
0.0
 11
307.68007291
 21
227.87436344
 31
0.0
  0
LWPOLYLINE
  5
1E9
330
2
100
AcDbEntity
  8
YKK_D
  6
ByBlock
100
AcDbPolyline
 90
        2
 70
     1
 43
0.85
 10
308.68007291
 20
227.98061344
 42
1.0
 10
308.68007291
 20
227.76811344
 42
1.0
  0
ARC
  5
1EA
330
2
100
AcDbEntity
  8
YKK_13
  6
YHIDDEN_1
100
AcDbCircle
 10
332.4800808
 20
221.17435929
 30
0.0
 40
2.299999999999998
100
AcDbArc
 50
180.0
 51
270.0
  0
ARC
  5
1EB
330
2
100
AcDbEntity
  8
YKK_13
  6
YHIDDEN_1
100
AcDbCircle
 10
333.0800808
 20
221.77435929
 30
0.0
 40
0.6
100
AcDbArc
 50
180.0
 51
270.0
  0
LINE
  5
1EC
330
2
100
AcDbEntity
  8
YKK_11
  6
ByBlock
 62
     0
100
AcDbLine
 10
328.68008071
 20
227.87435925
 30
0.0
 11
329.88008071
 21
227.87435925
 31
0.0
  0
LINE
  5
1ED
330
2
100
AcDbEntity
  8
YKK_D
100
AcDbLine
 10
328.68008817
 20
253.07433797
 30
0.0
 11
328.68008817
 21
278.57436038
 31
0.0
  0
LINE
  5
1EE
330
2
100
AcDbEntity
  8
YKK_D
100
AcDbLine
 10
324.68007815
 20
249.07436038
 30
0.0
 11
307.68007291
 21
249.07436038
 31
0.0
  0
LWPOLYLINE
  5
1EF
330
2
100
AcDbEntity
  8
YKK_D
  6
ByBlock
100
AcDbPolyline
 90
        2
 70
     1
 43
0.85
 10
308.68007291
 20
248.96811038
 42
1.0
 10
308.68007291
 20
249.18061038
 42
1.0
  0
ARC
  5
1F0
330
2
100
AcDbEntity
  8
YKK_11
  6
ByBlock
 62
     0
100
AcDbCircle
 10
329.88008071
 20
247.87435925
 30
0.0
 40
1.199999999999999
100
AcDbArc
 50
89.99998128
 51
180.00001985
  0
LINE
  5
1F1
330
2
100
AcDbEntity
  8
YKK_13
  6
YHIDDEN_1
100
AcDbLine
 10
332.4800808
 20
247.87435929
 30
0.0
 11
330.1800808
 21
247.87435929
 31
0.0
  0
LWPOLYLINE
  5
1F2
330
2
100
AcDbEntity
  8
YKK_D
  6
ByBlock
100
AcDbPolyline
 90
        2
 70
     1
 43
0.85
 10
328.78633817
 20
277.57436038
 42
1.0
 10
328.57383817
 20
277.57436038
 42
1.0
  0
LINE
  5
1F3
330
2
100
AcDbEntity
  8
YKK_11
  6
ByBlock
 62
     0
100
AcDbLine
 10
352.48008071
 20
247.87435925
 30
0.0
 11
352.48008071
 21
217.27435925
 31
0.0
  0
LINE
  5
1F4
330
2
100
AcDbEntity
  8
YKK_11
  6
ByBlock
 62
     0
100
AcDbLine
 10
353.68008071
 20
217.27435925
 30
0.0
 11
353.68008071
 21
247.87435925
 31
0.0
  0
LINE
  5
1F5
330
2
100
AcDbEntity
  8
YKK_11
  6
ByBlock
 62
     0
100
AcDbLine
 10
358.88008043
 20
221.27435895
 30
0.0
 11
358.88008043
 21
243.87435895
 31
0.0
  0
LINE
  5
1F6
330
2
100
AcDbEntity
  8
YKK_11
  6
ByBlock
 62
     0
100
AcDbLine
 10
357.68008043
 20
243.87435895
 30
0.0
 11
357.68008043
 21
221.27435895
 31
0.0
  0
LINE
  5
1F7
330
2
100
AcDbEntity
  8
YKK_12
  6
Continuous
100
AcDbLine
 10
359.3800808
 20
243.87435929
 30
0.0
 11
359.3800808
 21
221.27435929
 31
0.0
  0
LINE
  5
1F8
330
2
100
AcDbEntity
  8
YKK_13
  6
YCENTER_1
100
AcDbLine
 10
355.6800808
 20
219.23553767
 30
0.0
 11
355.6800808
 21
264.57435929
 31
0.0
  0
LINE
  5
1F9
330
2
100
AcDbEntity
  8
YKK_13
  6
Continuous
100
AcDbLine
 10
353.6800808
 20
252.37820687
 30
0.0
 11
353.6800808
 21
222.57435929
 31
0.0
  0
LINE
  5
1FA
330
2
100
AcDbEntity
  8
YKK_13
  6
Continuous
100
AcDbLine
 10
357.6800808
 20
252.37820687
 30
0.0
 11
357.6800808
 21
222.57435929
 31
0.0
  0
LINE
  5
1FB
330
2
100
AcDbEntity
  8
YKK_D
100
AcDbLine
 10
387.68008817
 20
220.07436038
 30
0.0
 11
387.68008817
 21
245.07436038
 31
0.0
  0
LINE
  5
1FC
330
2
100
AcDbEntity
  8
YKK_11
  6
ByBlock
 62
     0
100
AcDbLine
 10
367.68008043
 20
221.27435895
 30
0.0
 11
358.88008043
 21
221.27435895
 31
0.0
  0
LINE
  5
1FD
330
2
100
AcDbEntity
  8
YKK_11
  6
ByBlock
 62
     0
100
AcDbLine
 10
358.88008043
 20
220.07435895
 30
0.0
 11
367.68008043
 21
220.07435895
 31
0.0
  0
LINE
  5
1FE
330
2
100
AcDbEntity
  8
YKK_D
100
AcDbLine
 10
363.68008817
 20
194.87434818
 30
0.0
 11
369.742266
 21
198.37434818
 31
0.0
  0
LINE
  5
1FF
330
2
100
AcDbEntity
  8
YKK_D
100
AcDbLine
 10
363.68008817
 20
194.87434818
 30
0.0
 11
375.80444382
 21
194.87434818
 31
0.0
  0
ARC
  5
200
330
2
100
AcDbEntity
  8
YKK_11
  6
ByBlock
 62
     0
100
AcDbCircle
 10
353.68008071
 20
217.27435925
 30
0.0
 40
1.199999999999999
100
AcDbArc
 50
180.00001985
 51
270.00000112
  0
LINE
  5
201
330
2
100
AcDbEntity
  8
YKK_12
  6
Continuous
100
AcDbLine
 10
353.6800808
 20
216.07435929
 30
0.0
 11
353.6800808
 21
214.87435929
 31
0.0
  0
LINE
  5
202
330
2
100
AcDbEntity
  8
YKK_D
100
AcDbLine
 10
353.68008817
 20
194.87436344
 30
0.0
 11
342.56008207
 21
194.87436344
 31
0.0
  0
TEXT
  5
203
330
2
100
AcDbEntity
  8
YKK_D
100
AcDbText
 10
343.77855922
 20
195.87436344
 30
0.0
 40
6.0
  1
10
 41
0.8
100
AcDbText
1001
ACAD
1000
MTEXTBEGIN
1070
    73
1070
     1
1070
    44
1040
1.0
1070
    74
1070
     0
1000
MTEXTEND
  0
LINE
  5
204
330
2
100
AcDbEntity
  8
YKK_D
100
AcDbLine
 10
363.68008817
 20
194.87436344
 30
0.0
 11
353.68008817
 21
194.87436344
 31
0.0
  0
LWPOLYLINE
  5
205
330
2
100
AcDbEntity
  8
YKK_D
  6
ByBlock
100
AcDbPolyline
 90
        2
 70
     1
 43
0.85
 10
353.78633817
 20
194.87436344
 42
1.0
 10
353.57383817
 20
194.87436344
 42
1.0
  0
LINE
  5
206
330
2
100
AcDbEntity
  8
YKK_13
  6
YHIDDEN_1
100
AcDbLine
 10
352.1800808
 20
231.07435929
 30
0.0
 11
349.8800808
 21
231.07435929
 31
0.0
  0
ARC
  5
207
330
2
100
AcDbEntity
  8
YKK_13
  6
YHIDDEN_1
100
AcDbCircle
 10
349.8800808
 20
221.17435929
 30
0.0
 40
2.299999999999998
100
AcDbArc
 50
270.0
 51
0.0
  0
LINE
  5
208
330
2
100
AcDbEntity
  8
YKK_13
  6
YHIDDEN_1
100
AcDbLine
 10
349.8800808
 20
231.07435929
 30
0.0
 11
349.8800808
 21
221.77435929
 31
0.0
  0
ARC
  5
209
330
2
100
AcDbEntity
  8
YKK_13
  6
YHIDDEN_1
100
AcDbCircle
 10
349.2800808
 20
221.77435929
 30
0.0
 40
0.6
100
AcDbArc
 50
270.0
 51
0.0
  0
LINE
  5
20A
330
2
100
AcDbEntity
  8
YKK_13
  6
YHIDDEN_1
100
AcDbLine
 10
352.1800808
 20
221.17435929
 30
0.0
 11
352.1800808
 21
231.07435929
 31
0.0
  0
LINE
  5
20B
330
2
100
AcDbEntity
  8
YKK_11
  6
ByBlock
 62
     0
100
AcDbLine
 10
363.68008071
 20
217.27435925
 30
0.0
 11
353.68008071
 21
217.27435925
 31
0.0
  0
LINE
  5
20C
330
2
100
AcDbEntity
  8
YKK_11
  6
ByBlock
 62
     0
100
AcDbLine
 10
353.68008071
 20
216.07435925
 30
0.0
 11
363.68008071
 21
216.07435925
 31
0.0
  0
ARC
  5
20D
330
2
100
AcDbEntity
  8
YKK_11
  6
ByBlock
 62
     0
100
AcDbCircle
 10
358.88008043
 20
221.27435895
 30
0.0
 40
1.199999999999999
100
AcDbArc
 50
180.00001985
 51
270.00000112
  0
LINE
  5
20E
330
2
100
AcDbEntity
  8
YKK_13
  6
Continuous
100
AcDbLine
 10
353.6800808
 20
222.57435929
 30
0.0
 11
357.6800808
 21
222.57435929
 31
0.0
  0
LINE
  5
20F
330
2
100
AcDbEntity
  8
YKK_11
  6
ByBlock
 62
     0
100
AcDbLine
 10
363.68008071
 20
216.07435925
 30
0.0
 11
363.68008071
 21
217.27435925
 31
0.0
  0
LINE
  5
210
330
2
100
AcDbEntity
  8
YKK_D
100
AcDbLine
 10
387.68008817
 20
216.07436038
 30
0.0
 11
387.68008817
 21
207.47436038
 31
0.0
  0
LWPOLYLINE
  5
211
330
2
100
AcDbEntity
  8
YKK_D
  6
ByBlock
100
AcDbPolyline
 90
        2
 70
     1
 43
0.85
 10
387.68008817
 20
216.18061038
 42
1.0
 10
387.68008817
 20
215.96811038
 42
1.0
  0
TEXT
  5
212
330
2
100
AcDbEntity
  8
YKK_D
100
AcDbText
 10
386.68008817
 20
208.52715226
 30
0.0
 40
6.0
  1
4
 50
90.0
 41
0.8
100
AcDbText
1001
ACAD
1000
MTEXTBEGIN
1070
    73
1070
     1
1070
    44
1040
1.0
1070
    74
1070
     0
1000
MTEXTEND
  0
LINE
  5
213
330
2
100
AcDbEntity
  8
YKK_D
100
AcDbLine
 10
371.68007815
 20
220.07436038
 30
0.0
 11
388.68008817
 21
220.07436038
 31
0.0
  0
TEXT
  5
214
330
2
100
AcDbEntity
  8
YKK_D
100
AcDbText
 10
386.68008817
 20
229.49212688
 30
0.0
 40
6.0
  1
25
 50
90.0
 41
0.8
100
AcDbText
1001
ACAD
1000
MTEXTBEGIN
1070
    73
1070
     1
1070
    44
1040
1.0
1070
    74
1070
     0
1000
MTEXTEND
  0
LINE
  5
215
330
2
100
AcDbEntity
  8
YKK_11
  6
ByBlock
 62
     0
100
AcDbLine
 10
367.68008043
 20
220.07435895
 30
0.0
 11
367.68008043
 21
221.27435895
 31
0.0
  0
LINE
  5
216
330
2
100
AcDbEntity
  8
YKK_D
100
AcDbLine
 10
387.68008817
 20
220.07436038
 30
0.0
 11
387.68008817
 21
216.07436038
 31
0.0
  0
LWPOLYLINE
  5
217
330
2
100
AcDbEntity
  8
YKK_D
  6
ByBlock
100
AcDbPolyline
 90
        2
 70
     1
 43
0.85
 10
387.68008817
 20
219.96811038
 42
1.0
 10
387.68008817
 20
220.18061038
 42
1.0
  0
LWPOLYLINE
  5
218
330
2
100
AcDbEntity
  8
YKK_D
  6
ByBlock
100
AcDbPolyline
 90
        2
 70
     1
 43
0.85
 10
387.68008817
 20
220.18061038
 42
1.0
 10
387.68008817
 20
219.96811038
 42
1.0
  0
CIRCLE
  5
219
330
2
100
AcDbEntity
  8
YKK_13
  6
Continuous
100
AcDbCircle
 10
355.6800808
 20
257.57435929
 30
0.0
 40
5.0
  0
LINE
  5
21A
330
2
100
AcDbEntity
  8
YKK_13
  6
YCENTER_1
100
AcDbLine
 10
348.6800808
 20
257.57435929
 30
0.0
 11
362.6800808
 21
257.57435929
 31
0.0
  0
ARC
  5
21B
330
2
100
AcDbEntity
  8
YKK_11
  6
ByBlock
 62
     0
100
AcDbCircle
 10
352.48008071
 20
247.87435925
 30
0.0
 40
1.199999999999999
100
AcDbArc
 50
0.0
 51
89.99998128
  0
ARC
  5
21C
330
2
100
AcDbEntity
  8
YKK_11
  6
ByBlock
 62
     0
100
AcDbCircle
 10
358.88008043
 20
243.87435895
 30
0.0
 40
1.199999999999999
100
AcDbArc
 50
89.99998128
 51
180.00001985
  0
ARC
  5
21D
330
2
100
AcDbEntity
  8
YKK_13
  6
Continuous
100
AcDbCircle
 10
358.6800808
 20
252.37820687
 30
0.0
 40
1.0
100
AcDbArc
 50
120.0
 51
180.0
  0
ARC
  5
21E
330
2
100
AcDbEntity
  8
YKK_13
  6
Continuous
100
AcDbCircle
 10
352.6800808
 20
252.37820687
 30
0.0
 40
1.0
100
AcDbArc
 50
0.0
 51
60.0
  0
LINE
  5
21F
330
2
100
AcDbEntity
  8
YKK_D
100
AcDbLine
 10
357.68008817
 20
268.07434894
 30
0.0
 11
357.68008817
 21
278.57436038
 31
0.0
  0
LINE
  5
220
330
2
100
AcDbEntity
  8
YKK_D
100
AcDbLine
 10
353.68008817
 20
261.5743375
 30
0.0
 11
353.68008817
 21
278.57436038
 31
0.0
  0
LINE
  5
221
330
2
100
AcDbEntity
  8
YKK_D
100
AcDbLine
 10
357.68008817
 20
261.5743375
 30
0.0
 11
357.68008817
 21
278.57436038
 31
0.0
  0
LINE
  5
222
330
2
100
AcDbEntity
  8
YKK_D
100
AcDbLine
 10
357.68008817
 20
277.57436038
 30
0.0
 11
353.68008817
 21
277.57436038
 31
0.0
  0
LWPOLYLINE
  5
223
330
2
100
AcDbEntity
  8
YKK_D
  6
ByBlock
100
AcDbPolyline
 90
        2
 70
     1
 43
0.85
 10
353.78633817
 20
277.57436038
 42
1.0
 10
353.57383817
 20
277.57436038
 42
1.0
  0
LWPOLYLINE
  5
224
330
2
100
AcDbEntity
  8
YKK_D
  6
ByBlock
100
AcDbPolyline
 90
        2
 70
     1
 43
0.85
 10
353.57383817
 20
277.57436038
 42
1.0
 10
353.78633817
 20
277.57436038
 42
1.0
  0
LWPOLYLINE
  5
225
330
2
100
AcDbEntity
  8
YKK_D
  6
ByBlock
100
AcDbPolyline
 90
        2
 70
     1
 43
0.85
 10
357.57383817
 20
277.57436038
 42
1.0
 10
357.78633817
 20
277.57436038
 42
1.0
  0
LWPOLYLINE
  5
226
330
2
100
AcDbEntity
  8
YKK_D
  6
ByBlock
100
AcDbPolyline
 90
        2
 70
     1
 43
0.85
 10
357.78633817
 20
277.57436038
 42
1.0
 10
357.57383817
 20
277.57436038
 42
1.0
  0
LINE
  5
227
330
2
100
AcDbEntity
  8
YKK_D
100
AcDbLine
 10
371.68007863
 20
249.07436038
 30
0.0
 11
388.68008817
 21
249.07436038
 31
0.0
  0
TEXT
  5
228
330
2
100
AcDbEntity
  8
YKK_D
100
AcDbText
 10
386.98258784
 20
249.8230507
 30
0.0
 40
6.0
  1
4
 50
90.0
 41
0.8
100
AcDbText
1001
ACAD
1000
MTEXTBEGIN
1070
    73
1070
     1
1070
    44
1040
1.0
1070
    74
1070
     0
1000
MTEXTEND
  0
LINE
  5
229
330
2
100
AcDbEntity
  8
YKK_D
100
AcDbLine
 10
387.68008817
 20
249.07436038
 30
0.0
 11
387.68008817
 21
245.07436038
 31
0.0
  0
LWPOLYLINE
  5
22A
330
2
100
AcDbEntity
  8
YKK_D
  6
ByBlock
100
AcDbPolyline
 90
        2
 70
     1
 43
0.85
 10
387.68008817
 20
248.96811038
 42
1.0
 10
387.68008817
 20
249.18061038
 42
1.0
  0
LWPOLYLINE
  5
22B
330
2
100
AcDbEntity
  8
YKK_D
  6
ByBlock
100
AcDbPolyline
 90
        2
 70
     1
 43
0.85
 10
387.68008817
 20
245.18061038
 42
1.0
 10
387.68008817
 20
244.96811038
 42
1.0
  0
LWPOLYLINE
  5
22C
330
2
100
AcDbEntity
  8
YKK_D
  6
ByBlock
100
AcDbPolyline
 90
        2
 70
     1
 43
0.85
 10
387.68008817
 20
244.96811038
 42
1.0
 10
387.68008817
 20
245.18061038
 42
1.0
  0
LINE
  5
22D
330
2
100
AcDbEntity
  8
YKK_11
  6
ByBlock
 62
     0
100
AcDbLine
 10
111.54052099
 20
460.72082003
 30
0.0
 11
111.54052099
 21
438.12082003
 31
0.0
  0
LINE
  5
22E
330
2
100
AcDbEntity
  8
YKK_11
  6
ByBlock
 62
     0
100
AcDbLine
 10
112.74052099
 20
438.12082003
 30
0.0
 11
112.74052099
 21
460.72082003
 31
0.0
  0
LINE
  5
22F
330
2
100
AcDbEntity
  8
YKK_13
  6
YHIDDEN_1
100
AcDbLine
 10
142.24052106
 20
441.82081971
 30
0.0
 11
142.24052106
 21
458.42081971
 31
0.0
  0
ARC
  5
230
330
2
100
AcDbEntity
  8
YKK_13
  6
YHIDDEN_1
100
AcDbCircle
 10
139.34052106
 20
457.82081971
 30
0.0
 40
0.6
100
AcDbArc
 50
0.0
 51
90.0
  0
LINE
  5
231
330
2
100
AcDbEntity
  8
YKK_D
100
AcDbLine
 10
90.34051637
 20
461.92082645
 30
0.0
 11
90.34051637
 21
436.92082645
 31
0.0
  0
TEXT
  5
232
330
2
100
AcDbEntity
  8
YKK_D
100
AcDbText
 10
89.34051637
 20
433.91016655
 30
0.0
 40
6.0
  1
3
 50
90.0
 41
0.8
100
AcDbText
1001
ACAD
1000
MTEXTBEGIN
1070
    73
1070
     1
1070
    44
1040
1.0
1070
    74
1070
     0
1000
MTEXTEND
  0
TEXT
  5
233
330
2
100
AcDbEntity
  8
YKK_D
100
AcDbText
 10
89.34051637
 20
446.33859295
 30
0.0
 40
6.0
  1
25
 50
90.0
 41
0.8
100
AcDbText
1001
ACAD
1000
MTEXTBEGIN
1070
    73
1070
     1
1070
    44
1040
1.0
1070
    74
1070
     0
1000
MTEXTEND
  0
LINE
  5
234
330
2
100
AcDbEntity
  8
YKK_11
  6
ByBlock
 62
     0
100
AcDbLine
 10
143.34052099
 20
438.12082003
 30
0.0
 11
112.74052099
 21
438.12082003
 31
0.0
  0
LINE
  5
235
330
2
100
AcDbEntity
  8
YKK_11
  6
ByBlock
 62
     0
100
AcDbLine
 10
112.74052099
 20
436.92082003
 30
0.0
 11
143.34052099
 21
436.92082003
 31
0.0
  0
LINE
  5
236
330
2
100
AcDbEntity
  8
YKK_11
  6
ByBlock
 62
     0
100
AcDbLine
 10
115.54052138
 20
432.72081987
 30
0.0
 11
136.94052138
 21
432.72081987
 31
0.0
  0
LINE
  5
237
330
2
100
AcDbEntity
  8
YKK_11
  6
ByBlock
 62
     0
100
AcDbLine
 10
136.94052138
 20
433.92081987
 30
0.0
 11
115.54052138
 21
433.92081987
 31
0.0
  0
LINE
  5
238
330
2
100
AcDbEntity
  8
YKK_D
100
AcDbLine
 10
90.34051637
 20
436.92082645
 30
0.0
 11
90.34051637
 21
433.92082645
 31
0.0
  0
LINE
  5
239
330
2
100
AcDbEntity
  8
YKK_D
100
AcDbLine
 10
106.34052114
 20
433.92082645
 30
0.0
 11
89.34051637
 21
433.92082645
 31
0.0
  0
LWPOLYLINE
  5
23A
330
2
100
AcDbEntity
  8
YKK_D
  6
ByBlock
100
AcDbPolyline
 90
        2
 70
     1
 43
0.85
 10
90.34051637
 20
434.02707645
 42
1.0
 10
90.34051637
 20
433.81457645
 42
1.0
  0
LWPOLYLINE
  5
23B
330
2
100
AcDbEntity
  8
YKK_D
  6
ByBlock
100
AcDbPolyline
 90
        2
 70
     1
 43
0.85
 10
90.34051637
 20
433.81457645
 42
1.0
 10
90.34051637
 20
434.02707645
 42
1.0
  0
ARC
  5
23C
330
2
100
AcDbEntity
  8
YKK_11
  6
ByBlock
 62
     0
100
AcDbCircle
 10
115.54052138
 20
432.72081987
 30
0.0
 40
1.199999999999999
100
AcDbArc
 50
89.99998128
 51
180.00001985
  0
LINE
  5
23D
330
2
100
AcDbEntity
  8
YKK_D
100
AcDbLine
 10
102.71326761
 20
436.92082645
 30
0.0
 11
89.34051637
 21
436.92082645
 31
0.0
  0
LINE
  5
23E
330
2
100
AcDbEntity
  8
YKK_D
100
AcDbLine
 10
106.34052114
 20
436.92082645
 30
0.0
 11
89.34051637
 21
436.92082645
 31
0.0
  0
LWPOLYLINE
  5
23F
330
2
100
AcDbEntity
  8
YKK_D
  6
ByBlock
100
AcDbPolyline
 90
        2
 70
     1
 43
0.85
 10
90.34051637
 20
436.81457645
 42
1.0
 10
90.34051637
 20
437.02707645
 42
1.0
  0
LWPOLYLINE
  5
240
330
2
100
AcDbEntity
  8
YKK_D
  6
ByBlock
100
AcDbPolyline
 90
        2
 70
     1
 43
0.85
 10
90.34051637
 20
437.02707645
 42
1.0
 10
90.34051637
 20
436.81457645
 42
1.0
  0
ARC
  5
241
330
2
100
AcDbEntity
  8
YKK_11
  6
ByBlock
 62
     0
100
AcDbCircle
 10
112.74052099
 20
438.12082003
 30
0.0
 40
1.199999999999999
100
AcDbArc
 50
180.00001985
 51
270.00000112
  0
LINE
  5
242
330
2
100
AcDbEntity
  8
YKK_11
  6
ByBlock
 62
     0
100
AcDbLine
 10
144.54052099
 20
426.92082003
 30
0.0
 11
144.54052099
 21
436.92082003
 31
0.0
  0
LINE
  5
243
330
2
100
AcDbEntity
  8
YKK_11
  6
ByBlock
 62
     0
100
AcDbLine
 10
143.34052099
 20
436.92082003
 30
0.0
 11
143.34052099
 21
426.92082003
 31
0.0
  0
LINE
  5
244
330
2
100
AcDbEntity
  8
YKK_11
  6
ByBlock
 62
     0
100
AcDbLine
 10
136.94052138
 20
432.72081987
 30
0.0
 11
136.94052138
 21
420.72081987
 31
0.0
  0
LINE
  5
245
330
2
100
AcDbEntity
  8
YKK_11
  6
ByBlock
 62
     0
100
AcDbLine
 10
136.94052138
 20
420.72081987
 30
0.0
 11
138.14052138
 21
420.72081987
 31
0.0
  0
LINE
  5
246
330
2
100
AcDbEntity
  8
YKK_11
  6
ByBlock
 62
     0
100
AcDbLine
 10
139.34052138
 20
433.92081987
 30
0.0
 11
138.14052138
 21
433.92081987
 31
0.0
  0
ARC
  5
247
330
2
100
AcDbEntity
  8
YKK_11
  6
ByBlock
 62
     0
100
AcDbCircle
 10
136.94052138
 20
432.72081987
 30
0.0
 40
1.199999999999999
100
AcDbArc
 50
0.0
 51
89.99998128
  0
LINE
  5
248
330
2
100
AcDbEntity
  8
YKK_11
  6
ByBlock
 62
     0
100
AcDbLine
 10
143.34052099
 20
426.92082003
 30
0.0
 11
144.54052099
 21
426.92082003
 31
0.0
  0
LINE
  5
249
330
2
100
AcDbEntity
  8
YKK_13
  6
YHIDDEN_1
100
AcDbLine
 10
139.94052106
 20
439.52081971
 30
0.0
 11
129.24052106
 21
439.52081971
 31
0.0
  0
LINE
  5
24A
330
2
100
AcDbEntity
  8
YKK_13
  6
YHIDDEN_1
100
AcDbLine
 10
129.24052106
 20
441.82081971
 30
0.0
 11
139.34052106
 21
441.82081971
 31
0.0
  0
LINE
  5
24B
330
2
100
AcDbEntity
  8
YKK_13
  6
YHIDDEN_1
100
AcDbLine
 10
129.24052106
 20
439.52081971
 30
0.0
 11
129.24052106
 21
441.82081971
 31
0.0
  0
LINE
  5
24C
330
2
100
AcDbEntity
  8
YKK_13
  6
YHIDDEN_1
100
AcDbLine
 10
139.94052106
 20
442.42081971
 30
0.0
 11
139.94052106
 21
457.82081971
 31
0.0
  0
ARC
  5
24D
330
2
100
AcDbEntity
  8
YKK_13
  6
YHIDDEN_1
100
AcDbCircle
 10
139.94052106
 20
441.82081971
 30
0.0
 40
2.299999999999998
100
AcDbArc
 50
270.0
 51
0.0
  0
ARC
  5
24E
330
2
100
AcDbEntity
  8
YKK_13
  6
YHIDDEN_1
100
AcDbCircle
 10
139.34052106
 20
442.42081971
 30
0.0
 40
0.6
100
AcDbArc
 50
270.0
 51
0.0
  0
ARC
  5
24F
330
2
100
AcDbEntity
  8
YKK_11
  6
ByBlock
 62
     0
100
AcDbCircle
 10
143.34052099
 20
436.92082003
 30
0.0
 40
1.199999999999999
100
AcDbArc
 50
0.0
 51
89.99998128
  0
LINE
  5
250
330
2
100
AcDbEntity
  8
YKK_11
  6
ByBlock
 62
     0
100
AcDbLine
 10
131.54052099
 20
461.92082003
 30
0.0
 11
112.74052099
 21
461.92082003
 31
0.0
  0
LINE
  5
251
330
2
100
AcDbEntity
  8
YKK_11
  6
ByBlock
 62
     0
100
AcDbLine
 10
112.74052099
 20
460.72082003
 30
0.0
 11
131.54052099
 21
460.72082003
 31
0.0
  0
LINE
  5
252
330
2
100
AcDbEntity
  8
YKK_13
  6
YHIDDEN_1
100
AcDbLine
 10
139.94052106
 20
460.72081971
 30
0.0
 11
113.24052106
 21
460.72081971
 31
0.0
  0
LINE
  5
253
330
2
100
AcDbEntity
  8
YKK_13
  6
YHIDDEN_1
100
AcDbLine
 10
113.24052106
 20
458.42081971
 30
0.0
 11
139.34052106
 21
458.42081971
 31
0.0
  0
LINE
  5
254
330
2
100
AcDbEntity
  8
YKK_D
100
AcDbLine
 10
111.54052095
 20
481.92082645
 30
0.0
 11
131.54052095
 21
481.92082645
 31
0.0
  0
LINE
  5
255
330
2
100
AcDbEntity
  8
YKK_D
100
AcDbLine
 10
110.340524
 20
465.92081977
 30
0.0
 11
110.340524
 21
482.92082645
 31
0.0
  0
LINE
  5
256
330
2
100
AcDbEntity
  8
YKK_D
100
AcDbLine
 10
111.54052095
 20
465.92081977
 30
0.0
 11
111.54052095
 21
482.92082645
 31
0.0
  0
LINE
  5
257
330
2
100
AcDbEntity
  8
YKK_D
100
AcDbLine
 10
111.54052095
 20
468.24137689
 30
0.0
 11
111.54052095
 21
482.92082645
 31
0.0
  0
LINE
  5
258
330
2
100
AcDbEntity
  8
YKK_D
100
AcDbLine
 10
106.34052114
 20
461.92082645
 30
0.0
 11
89.34051637
 21
461.92082645
 31
0.0
  0
LWPOLYLINE
  5
259
330
2
100
AcDbEntity
  8
YKK_D
  6
ByBlock
100
AcDbPolyline
 90
        2
 70
     1
 43
0.85
 10
90.34051637
 20
461.81457645
 42
1.0
 10
90.34051637
 20
462.02707645
 42
1.0
  0
ARC
  5
25A
330
2
100
AcDbEntity
  8
YKK_11
  6
ByBlock
 62
     0
100
AcDbCircle
 10
112.74052099
 20
460.72082003
 30
0.0
 40
1.199999999999999
100
AcDbArc
 50
89.99998128
 51
180.00001985
  0
LINE
  5
25B
330
2
100
AcDbEntity
  8
YKK_12
  6
Continuous
100
AcDbLine
 10
110.34052106
 20
461.92081971
 30
0.0
 11
112.74052106
 21
461.92081971
 31
0.0
  0
LINE
  5
25C
330
2
100
AcDbEntity
  8
YKK_13
  6
YHIDDEN_1
100
AcDbLine
 10
113.24052106
 20
458.42081971
 30
0.0
 11
113.24052106
 21
460.72081971
 31
0.0
  0
LINE
  5
25D
330
2
100
AcDbEntity
  8
YKK_D
100
AcDbLine
 10
110.340524
 20
481.92082645
 30
0.0
 11
93.740524
 21
481.92082645
 31
0.0
  0
TEXT
  5
25E
330
2
100
AcDbEntity
  8
YKK_D
100
AcDbText
 10
95.52834126
 20
482.92082645
 30
0.0
 40
6.0
  1
1.2
 41
0.8
100
AcDbText
1001
ACAD
1000
MTEXTBEGIN
1070
    73
1070
     1
1070
    44
1040
1.0
1070
    74
1070
     0
1000
MTEXTEND
  0
LINE
  5
25F
330
2
100
AcDbEntity
  8
YKK_D
100
AcDbLine
 10
111.54052095
 20
481.92082645
 30
0.0
 11
113.24052095
 21
481.92082645
 31
0.0
  0
LINE
  5
260
330
2
100
AcDbEntity
  8
YKK_D
100
AcDbLine
 10
111.54052095
 20
481.92082645
 30
0.0
 11
110.340524
 21
481.92082645
 31
0.0
  0
LWPOLYLINE
  5
261
330
2
100
AcDbEntity
  8
YKK_D
  6
ByBlock
100
AcDbPolyline
 90
        2
 70
     1
 43
0.85
 10
111.64677095
 20
481.92082645
 42
1.0
 10
111.43427095
 20
481.92082645
 42
1.0
  0
LWPOLYLINE
  5
262
330
2
100
AcDbEntity
  8
YKK_D
  6
ByBlock
100
AcDbPolyline
 90
        2
 70
     1
 43
0.85
 10
110.234274
 20
481.92082645
 42
1.0
 10
110.446774
 20
481.92082645
 42
1.0
  0
LWPOLYLINE
  5
263
330
2
100
AcDbEntity
  8
YKK_D
  6
ByBlock
100
AcDbPolyline
 90
        2
 70
     1
 43
0.85
 10
111.64677095
 20
481.92082645
 42
1.0
 10
111.43427095
 20
481.92082645
 42
1.0
  0
LINE
  5
264
330
2
100
AcDbEntity
  8
YKK_D
100
AcDbLine
 10
131.54052095
 20
465.92081977
 30
0.0
 11
131.54052095
 21
482.92082645
 31
0.0
  0
LINE
  5
265
330
2
100
AcDbEntity
  8
YKK_11
  6
ByBlock
 62
     0
100
AcDbLine
 10
131.54052099
 20
460.72082003
 30
0.0
 11
131.54052099
 21
461.92082003
 31
0.0
  0
ARC
  5
266
330
2
100
AcDbEntity
  8
YKK_13
  6
YHIDDEN_1
100
AcDbCircle
 10
139.94052106
 20
458.42081971
 30
0.0
 40
2.299999999999998
100
AcDbArc
 50
0.0
 51
90.0
  0
TEXT
  5
267
330
2
100
AcDbEntity
  8
YKK_D
100
AcDbText
 10
118.39737374
 20
482.92082645
 30
0.0
 40
6.0
  1
20
 41
0.8
100
AcDbText
1001
ACAD
1000
MTEXTBEGIN
1070
    73
1070
     1
1070
    44
1040
1.0
1070
    74
1070
     0
1000
MTEXTEND
  0
LWPOLYLINE
  5
268
330
2
100
AcDbEntity
  8
YKK_D
  6
ByBlock
100
AcDbPolyline
 90
        2
 70
     1
 43
0.85
 10
131.43427095
 20
481.92082645
 42
1.0
 10
131.64677095
 20
481.92082645
 42
1.0
  0
LINE
  5
269
330
2
100
AcDbEntity
  8
YKK_D
100
AcDbLine
 10
166.84051637
 20
426.92082645
 30
0.0
 11
166.84051637
 21
436.92082645
 31
0.0
  0
LINE
  5
26A
330
2
100
AcDbEntity
  8
YKK_D
100
AcDbLine
 10
150.84052114
 20
426.92082645
 30
0.0
 11
167.84051637
 21
426.92082645
 31
0.0
  0
LINE
  5
26B
330
2
100
AcDbEntity
  8
YKK_D
100
AcDbLine
 10
150.84052114
 20
426.92082645
 30
0.0
 11
167.84051637
 21
426.92082645
 31
0.0
  0
LINE
  5
26C
330
2
100
AcDbEntity
  8
YKK_D
100
AcDbLine
 10
166.84051637
 20
426.92082645
 30
0.0
 11
163.34051637
 21
420.85864862
 31
0.0
  0
LINE
  5
26D
330
2
100
AcDbEntity
  8
YKK_D
100
AcDbLine
 10
163.34051637
 20
420.85864862
 30
0.0
 11
170.34051637
 21
420.85864862
 31
0.0
  0
LINE
  5
26E
330
2
100
AcDbEntity
  8
YKK_D
100
AcDbLine
 10
166.84051637
 20
426.92082645
 30
0.0
 11
170.34051637
 21
420.85864862
 31
0.0
  0
LINE
  5
26F
330
2
100
AcDbEntity
  8
YKK_D
100
AcDbLine
 10
166.84051637
 20
426.92082645
 30
0.0
 11
166.84051637
 21
414.79647079
 31
0.0
  0
LINE
  5
270
330
2
100
AcDbEntity
  8
YKK_D
100
AcDbLine
 10
150.84052114
 20
436.92082645
 30
0.0
 11
167.84051637
 21
436.92082645
 31
0.0
  0
TEXT
  5
271
330
2
100
AcDbEntity
  8
YKK_D
100
AcDbText
 10
165.84051637
 20
440.21930971
 30
0.0
 40
6.0
  1
10
 50
90.0
 41
0.8
100
AcDbText
1001
ACAD
1000
MTEXTBEGIN
1070
    73
1070
     1
1070
    44
1040
1.0
1070
    74
1070
     0
1000
MTEXTEND
  0
LINE
  5
272
330
2
100
AcDbEntity
  8
YKK_D
100
AcDbLine
 10
166.84051637
 20
436.92082645
 30
0.0
 11
166.84051637
 21
448.04083255
 31
0.0
  0
LWPOLYLINE
  5
273
330
2
100
AcDbEntity
  8
YKK_D
  6
ByBlock
100
AcDbPolyline
 90
        2
 70
     1
 43
0.85
 10
166.84051637
 20
436.81457645
 42
1.0
 10
166.84051637
 20
437.02707645
 42
1.0
  0
TEXT
  5
274
330
2
100
AcDbEntity
  8
YKK_D
100
AcDbText
 10
498.28288005
 20
278.57436038
 30
0.0
 40
6.0
  1
4
 41
0.8
100
AcDbText
1001
ACAD
1000
MTEXTBEGIN
1070
    73
1070
     1
1070
    44
1040
1.0
1070
    74
1070
     0
1000
MTEXTEND
  0
TEXT
  5
275
330
2
100
AcDbEntity
  8
YKK_D
100
AcDbText
 10
512.09785467
 20
278.57436038
 30
0.0
 40
6.0
  1
25
 41
0.8
100
AcDbText
1001
ACAD
1000
MTEXTBEGIN
1070
    73
1070
     1
1070
    44
1040
1.0
1070
    74
1070
     0
1000
MTEXTEND
  0
TEXT
  5
276
330
2
100
AcDbEntity
  8
YKK_D
100
AcDbText
 10
528.98288005
 20
278.57436038
 30
0.0
 40
6.0
  1
4
 41
0.8
100
AcDbText
1001
ACAD
1000
MTEXTBEGIN
1070
    73
1070
     1
1070
    44
1040
1.0
1070
    74
1070
     0
1000
MTEXTEND
  0
TEXT
  5
277
330
2
100
AcDbEntity
  8
YKK_D
100
AcDbText
 10
673.98288005
 20
278.57436038
 30
0.0
 40
6.0
  1
4
 41
0.8
100
AcDbText
1001
ACAD
1000
MTEXTBEGIN
1070
    73
1070
     1
1070
    44
1040
1.0
1070
    74
1070
     0
1000
MTEXTEND
  0
TEXT
  5
278
330
2
100
AcDbEntity
  8
YKK_D
100
AcDbText
 10
686.09785467
 20
278.57436038
 30
0.0
 40
6.0
  1
25
 41
0.8
100
AcDbText
1001
ACAD
1000
MTEXTBEGIN
1070
    73
1070
     1
1070
    44
1040
1.0
1070
    74
1070
     0
1000
MTEXTEND
  0
TEXT
  5
279
330
2
100
AcDbEntity
  8
YKK_D
100
AcDbText
 10
597.52628106
 20
278.57436038
 30
0.0
 40
6.0
  1
DW2
 41
0.8
100
AcDbText
1001
ACAD
1000
MTEXTBEGIN
1070
    73
1070
     1
1070
    44
1040
1.0
1070
    74
1070
     0
1000
MTEXTEND
  0
TEXT
  5
27A
330
2
100
AcDbEntity
  8
YKK_D
100
AcDbText
 10
423.96485974
 20
278.57436038
 30
0.0
 40
6.0
  1
DW1
 41
0.8
100
AcDbText
1001
ACAD
1000
MTEXTBEGIN
1070
    73
1070
     1
1070
    44
1040
1.0
1070
    74
1070
     0
1000
MTEXTEND
  0
LINE
  5
27B
330
2
100
AcDbEntity
  8
YKK_11
  6
ByBlock
 62
     0
100
AcDbLine
 10
597.3683198
 20
137.68675653
 30
0.0
 11
671.4800808
 21
137.68675653
 31
0.0
  0
LINE
  5
27C
330
2
100
AcDbEntity
  8
YKK_11
  6
ByBlock
 62
     0
100
AcDbLine
 10
671.4800808
 20
138.88675653
 30
0.0
 11
597.3683198
 21
138.88675653
 31
0.0
  0
LINE
  5
27D
330
2
100
AcDbEntity
  8
YKK_11
  6
ByBlock
 62
     0
100
AcDbLine
 10
671.48008116
 20
245.07435895
 30
0.0
 11
603.68008116
 21
245.07435895
 31
0.0
  0
LINE
  5
27E
330
2
100
AcDbEntity
  8
YKK_11
  6
ByBlock
 62
     0
100
AcDbLine
 10
603.68008116
 20
243.87435895
 30
0.0
 11
671.48008116
 21
243.87435895
 31
0.0
  0
LINE
  5
27F
330
2
100
AcDbEntity
  8
YKK_12
  6
Continuous
100
AcDbLine
 10
672.6800808
 20
141.68675653
 30
0.0
 11
597.36831985
 21
141.68675653
 31
0.0
  0
LINE
  5
280
330
2
100
AcDbEntity
  8
YKK_12
  6
Continuous
100
AcDbLine
 10
676.6800808
 20
108.68675653
 30
0.0
 11
597.36831985
 21
108.68675653
 31
0.0
  0
LINE
  5
281
330
2
100
AcDbEntity
  8
YKK_12
  6
Continuous
100
AcDbLine
 10
676.6800808
 20
109.88675653
 30
0.0
 11
597.36831985
 21
109.88675653
 31
0.0
  0
LINE
  5
282
330
2
100
AcDbEntity
  8
YKK_12
  6
Continuous
100
AcDbLine
 10
676.6800808
 20
216.07435929
 30
0.0
 11
603.6800808
 21
216.07435929
 31
0.0
  0
LINE
  5
283
330
2
100
AcDbEntity
  8
YKK_12
  6
Continuous
100
AcDbLine
 10
603.6800808
 20
247.87435929
 30
0.0
 11
672.6800808
 21
247.87435929
 31
0.0
  0
LINE
  5
284
330
2
100
AcDbEntity
  8
YKK_12
  6
Continuous
100
AcDbLine
 10
603.6800808
 20
214.87435929
 30
0.0
 11
676.6800808
 21
214.87435929
 31
0.0
  0
LINE
  5
285
330
2
100
AcDbEntity
  8
YKK_12
  6
Continuous
100
AcDbLine
 10
670.9800808
 20
116.28675653
 30
0.0
 11
597.36831985
 21
116.28675653
 31
0.0
  0
LINE
  5
286
330
2
100
AcDbEntity
  8
YKK_12
  6
Continuous
100
AcDbLine
 10
670.9800808
 20
115.08675653
 30
0.0
 11
597.36831985
 21
115.08675653
 31
0.0
  0
LINE
  5
287
330
2
100
AcDbEntity
  8
YKK_12
  6
Continuous
100
AcDbLine
 10
603.6800808
 20
221.27435929
 30
0.0
 11
670.9800808
 21
221.27435929
 31
0.0
  0
LINE
  5
288
330
2
100
AcDbEntity
  8
YKK_12
  6
Continuous
100
AcDbLine
 10
670.9800808
 20
222.47435929
 30
0.0
 11
603.6800808
 21
222.47435929
 31
0.0
  0
LINE
  5
289
330
2
100
AcDbEntity
  8
YKK_D
100
AcDbLine
 10
672.68008817
 20
277.57436038
 30
0.0
 11
531.68008817
 21
277.57436038
 31
0.0
  0
LINE
  5
28A
330
2
100
AcDbEntity
  8
YKK_D
100
AcDbLine
 10
518.18008817
 20
171.88675357
 30
0.0
 11
672.68008817
 21
171.88675357
 31
0.0
  0
TEXT
  5
28B
330
2
100
AcDbEntity
  8
USER1
 62
     3
100
AcDbText
 10
438.83705229
 20
7.55086503
 30
0.0
 40
4.2
  1
点検口 両開き
 72
     4
 11
454.37705229
 21
9.65086503
 31
0.0
100
AcDbText
  0
TEXT
  5
28C
330
2
100
AcDbEntity
  8
USER1
 62
     3
100
AcDbText
 10
428.57232416
 20
21.07600508
 30
0.0
 40
7.0
  1
2PT33A06
 72
     4
 11
454.40565749
 21
24.57600508
 31
0.0
100
AcDbText
  0
TEXT
  5
28D
330
2
100
AcDbEntity
  8
YKK_D
100
AcDbText
 10
513.64506279
 20
88.58675815
 30
0.0
 40
6.0
  1
W
 41
0.8
100
AcDbText
1001
ACAD
1000
MTEXTBEGIN
1070
    73
1070
     1
1070
    44
1040
1.0
1070
    74
1070
     0
1000
MTEXTEND
  0
TEXT
  5
28E
330
2
100
AcDbEntity
  8
USER1
 62
     3
100
AcDbText
 10
595.53333193
 20
15.4007
 30
0.0
 40
5.6
  1
1
 72
     1
 11
597.7999986
 21
18.2007
 31
0.0
100
AcDbText
 73
     2
  0
TEXT
  5
28F
330
2
100
AcDbEntity
  8
USER1
 62
     3
100
AcDbText
 10
587.9999986
 20
21.0007
 30
0.0
 40
5.6
  1
1
100
AcDbText
  0
LINE
  5
290
330
2
100
AcDbEntity
  8
YKK_11
  6
ByBlock
 62
     0
100
AcDbLine
 10
523.3800808
 20
143.68675653
 30
0.0
 11
498.5800808
 21
143.68675653
 31
0.0
  0
LINE
  5
291
330
2
100
AcDbEntity
  8
YKK_11
  6
ByBlock
 62
     0
100
AcDbLine
 10
500.1800808
 20
140.48675653
 30
0.0
 11
523.3800808
 21
140.48675653
 31
0.0
  0
LINE
  5
292
330
2
100
AcDbEntity
  8
YKK_11
  6
ByBlock
 62
     0
100
AcDbLine
 10
593.6309308
 20
137.68675653
 30
0.0
 11
519.3800808
 21
137.68675653
 31
0.0
  0
LINE
  5
293
330
2
100
AcDbEntity
  8
YKK_11
  6
ByBlock
 62
     0
100
AcDbLine
 10
519.3800808
 20
113.88675653
 30
0.0
 11
528.1800808
 21
113.88675653
 31
0.0
  0
LINE
  5
294
330
2
100
AcDbEntity
  8
YKK_11
  6
ByBlock
 62
     0
100
AcDbLine
 10
593.6309308
 20
138.88675653
 30
0.0
 11
519.3800808
 21
138.88675653
 31
0.0
  0
LINE
  5
295
330
2
100
AcDbEntity
  8
YKK_11
  6
ByBlock
 62
     0
100
AcDbLine
 10
523.3800808
 20
142.08675653
 30
0.0
 11
499.3800808
 21
142.08675653
 31
0.0
  0
LINE
  5
296
330
2
100
AcDbEntity
  8
YKK_11
  6
ByBlock
 62
     0
100
AcDbLine
 10
503.88008061
 20
246.67435953
 30
0.0
 11
526.48008061
 21
246.67435953
 31
0.0
  0
LINE
  5
297
330
2
100
AcDbEntity
  8
YKK_11
  6
ByBlock
 62
     0
100
AcDbLine
 10
526.48008061
 20
245.47435953
 30
0.0
 11
503.88008061
 21
245.47435953
 31
0.0
  0
LINE
  5
298
330
2
100
AcDbEntity
  8
YKK_12
  6
Continuous
100
AcDbLine
 10
428.97817147
 20
109.88675653
 30
0.0
 11
593.72089905
 21
109.88675653
 31
0.0
  0
LINE
  5
299
330
2
100
AcDbEntity
  8
YKK_12
  6
Continuous
100
AcDbLine
 10
428.97817147
 20
108.68675653
 30
0.0
 11
593.63787046
 21
108.68675653
 31
0.0
  0
LINE
  5
29A
330
2
100
AcDbEntity
  8
YKK_12
  6
Continuous
100
AcDbLine
 10
429.6800808
 20
247.87435929
 30
0.0
 11
600.6800808
 21
247.87435929
 31
0.0
  0
LINE
  5
29B
330
2
100
AcDbEntity
  8
YKK_12
  6
Continuous
100
AcDbLine
 10
600.6800808
 20
216.07435929
 30
0.0
 11
429.6800808
 21
216.07435929
 31
0.0
  0
LINE
  5
29C
330
2
100
AcDbEntity
  8
YKK_12
  6
Continuous
100
AcDbLine
 10
429.6800808
 20
214.87435929
 30
0.0
 11
600.6800808
 21
214.87435929
 31
0.0
  0
LINE
  5
29D
330
2
100
AcDbEntity
  8
YKK_12
  6
Continuous
100
AcDbLine
 10
519.8800808
 20
116.28675653
 30
0.0
 11
593.63093035
 21
116.28675653
 31
0.0
  0
LINE
  5
29E
330
2
100
AcDbEntity
  8
YKK_12
  6
Continuous
100
AcDbLine
 10
519.8800808
 20
115.08675653
 30
0.0
 11
593.63093035
 21
115.08675653
 31
0.0
  0
LINE
  5
29F
330
2
100
AcDbEntity
  8
YKK_13
  6
YHIDDEN_1
100
AcDbLine
 10
506.4800808
 20
216.47435929
 30
0.0
 11
523.8800808
 21
216.47435929
 31
0.0
  0
LINE
  5
2A0
330
2
100
AcDbEntity
  8
YKK_13
  6
YHIDDEN_1
100
AcDbLine
 10
506.9800808
 20
218.77435929
 30
0.0
 11
523.3800808
 21
218.77435929
 31
0.0
  0
LINE
  5
2A1
330
2
100
AcDbEntity
  8
YKK_13
  6
Continuous
100
AcDbLine
 10
520.8800808
 20
119.48675653
 30
0.0
 11
519.3800808
 21
119.48675653
 31
0.0
  0
LINE
  5
2A2
330
2
100
AcDbEntity
  8
YKK_13
  6
Continuous
100
AcDbLine
 10
519.3800808
 20
134.48675653
 30
0.0
 11
520.8800808
 21
134.48675653
 31
0.0
  0
LINE
  5
2A3
330
2
100
AcDbEntity
  8
YKK_D
100
AcDbLine
 10
527.68008817
 20
277.57436038
 30
0.0
 11
502.68008817
 21
277.57436038
 31
0.0
  0
LINE
  5
2A4
330
2
100
AcDbEntity
  8
YKK_11
  6
ByBlock
 62
     0
100
AcDbLine
 10
429.0611898
 20
137.68675653
 30
0.0
 11
510.9800808
 21
137.68675653
 31
0.0
  0
LINE
  5
2A5
330
2
100
AcDbEntity
  8
YKK_11
  6
ByBlock
 62
     0
100
AcDbLine
 10
510.9800808
 20
138.88675653
 30
0.0
 11
429.0611898
 21
138.88675653
 31
0.0
  0
LINE
  5
2A6
330
2
100
AcDbEntity
  8
YKK_12
  6
Continuous
100
AcDbLine
 10
429.22683879
 20
141.68675653
 30
0.0
 11
496.9800808
 21
141.68675653
 31
0.0
  0
LINE
  5
2A7
330
2
100
AcDbEntity
  8
YKK_12
  6
Continuous
100
AcDbLine
 10
429.06118953
 20
116.28675653
 30
0.0
 11
510.4800808
 21
116.28675653
 31
0.0
  0
LINE
  5
2A8
330
2
100
AcDbEntity
  8
YKK_12
  6
Continuous
100
AcDbLine
 10
429.06118953
 20
115.08675653
 30
0.0
 11
510.4800808
 21
115.08675653
 31
0.0
  0
LINE
  5
2A9
330
2
100
AcDbEntity
  8
YKK_D
100
AcDbLine
 10
407.68008817
 20
142.88675357
 30
0.0
 11
407.68008817
 21
109.88675357
 31
0.0
  0
TEXT
  5
2AA
330
2
100
AcDbEntity
  8
YKK_D
100
AcDbText
 10
406.68008817
 20
123.31670281
 30
0.0
 40
6.0
  1
33
 50
90.0
 41
0.8
100
AcDbText
1001
ACAD
1000
MTEXTBEGIN
1070
    73
1070
     1
1070
    44
1040
1.0
1070
    74
1070
     0
1000
MTEXTEND
  0
LWPOLYLINE
  5
2AB
330
2
100
AcDbEntity
  8
YKK_D
  6
ByBlock
100
AcDbPolyline
 90
        2
 70
     1
 43
0.85
 10
407.68008817
 20
109.99300357
 42
1.0
 10
407.68008817
 20
109.78050357
 42
1.0
  0
LWPOLYLINE
  5
2AC
330
2
100
AcDbEntity
  8
YKK_D
  6
ByBlock
100
AcDbPolyline
 90
        2
 70
     1
 43
0.85
 10
407.68008817
 20
142.78050357
 42
1.0
 10
407.68008817
 20
142.99300357
 42
1.0
  0
TEXT
  5
2AD
330
2
100
AcDbEntity
  8
YKK_D
100
AcDbText
 10
430.71485974
 20
172.88675357
 30
0.0
 40
6.0
  1
DW1
 41
0.8
100
AcDbText
1001
ACAD
1000
MTEXTBEGIN
1070
    73
1070
     1
1070
    44
1040
1.0
1070
    74
1070
     0
1000
MTEXTEND
  0
LINE
  5
2AE
330
2
100
AcDbEntity
  8
YKK_D
100
AcDbLine
 10
518.18008817
 20
146.88675071
 30
0.0
 11
518.18008817
 21
172.88675357
 31
0.0
  0
LINE
  5
2AF
330
2
100
AcDbEntity
  8
YKK_D
100
AcDbLine
 10
512.18008817
 20
146.88675071
 30
0.0
 11
512.18008817
 21
172.88675357
 31
0.0
  0
LINE
  5
2B0
330
2
100
AcDbEntity
  8
YKK_11
  6
ByBlock
 62
     0
100
AcDbLine
 10
519.3800808
 20
137.68675653
 30
0.0
 11
519.3800808
 21
115.58675653
 31
0.0
  0
LINE
  5
2B1
330
2
100
AcDbEntity
  8
YKK_11
  6
ByBlock
 62
     0
100
AcDbLine
 10
518.1800808
 20
137.68675653
 30
0.0
 11
518.1800808
 21
115.08675653
 31
0.0
  0
LINE
  5
2B2
330
2
100
AcDbEntity
  8
YKK_11
  6
ByBlock
 62
     0
100
AcDbLine
 10
510.9800808
 20
137.68675653
 30
0.0
 11
510.9800808
 21
115.58675653
 31
0.0
  0
LINE
  5
2B3
330
2
100
AcDbEntity
  8
YKK_11
  6
ByBlock
 62
     0
100
AcDbLine
 10
512.1800808
 20
115.08675653
 30
0.0
 11
512.1800808
 21
137.68675653
 31
0.0
  0
LINE
  5
2B4
330
2
100
AcDbEntity
  8
YKK_12
  6
Continuous
100
AcDbLine
 10
510.4800808
 20
137.68675653
 30
0.0
 11
510.4800808
 21
115.08675653
 31
0.0
  0
LINE
  5
2B5
330
2
100
AcDbEntity
  8
YKK_11
  6
ByBlock
 62
     0
100
AcDbLine
 10
502.1800808
 20
113.88675653
 30
0.0
 11
510.9800808
 21
113.88675653
 31
0.0
  0
LINE
  5
2B6
330
2
100
AcDbEntity
  8
YKK_11
  6
ByBlock
 62
     0
100
AcDbLine
 10
502.1800808
 20
115.08675653
 30
0.0
 11
502.1800808
 21
113.88675653
 31
0.0
  0
LINE
  5
2B7
330
2
100
AcDbEntity
  8
YKK_12
  6
Continuous
100
AcDbLine
 10
519.8800808
 20
119.48675653
 30
0.0
 11
519.8800808
 21
115.08675653
 31
0.0
  0
LINE
  5
2B8
330
2
100
AcDbEntity
  8
YKK_11
  6
ByBlock
 62
     0
100
AcDbLine
 10
510.9800808
 20
115.58675653
 30
0.0
 11
510.4800808
 21
115.08675653
 31
0.0
  0
ARC
  5
2B9
330
2
100
AcDbEntity
  8
YKK_11
  6
ByBlock
 62
     0
100
AcDbCircle
 10
510.9800808
 20
115.08675653
 30
0.0
 40
1.199999999999999
100
AcDbArc
 50
270.00000112
 51
0.0
  0
LINE
  5
2BA
330
2
100
AcDbEntity
  8
YKK_11
  6
ByBlock
 62
     0
100
AcDbLine
 10
519.3800808
 20
115.58675653
 30
0.0
 11
519.8800808
 21
115.08675653
 31
0.0
  0
ARC
  5
2BB
330
2
100
AcDbEntity
  8
YKK_11
  6
ByBlock
 62
     0
100
AcDbCircle
 10
519.3800808
 20
115.08675653
 30
0.0
 40
1.199999999999999
100
AcDbArc
 50
180.00001985
 51
270.00000112
  0
ARC
  5
2BC
330
2
100
AcDbEntity
  8
YKK_11
  6
ByBlock
 62
     0
100
AcDbCircle
 10
498.5800808
 20
142.08675653
 30
0.0
 40
1.6
100
AcDbArc
 50
89.99998128
 51
180.00001985
  0
LINE
  5
2BD
330
2
100
AcDbEntity
  8
YKK_11
  6
ByBlock
 62
     0
100
AcDbLine
 10
496.9800808
 20
142.08675653
 30
0.0
 11
496.9800808
 21
138.88675653
 31
0.0
  0
ARC
  5
2BE
330
2
100
AcDbEntity
  8
YKK_11
  6
ByBlock
 62
     0
100
AcDbCircle
 10
500.1800808
 20
140.48675653
 30
0.0
 40
1.6
100
AcDbArc
 50
89.99998128
 51
270.00000112
  0
LINE
  5
2BF
330
2
100
AcDbEntity
  8
YKK_11
  6
ByBlock
 62
     0
100
AcDbLine
 10
498.5800808
 20
141.28675653
 30
0.0
 11
498.5800808
 21
138.88675653
 31
0.0
  0
ARC
  5
2C0
330
2
100
AcDbEntity
  8
YKK_11
  6
ByBlock
 62
     0
100
AcDbCircle
 10
499.3800808
 20
141.28675653
 30
0.0
 40
0.8
100
AcDbArc
 50
89.99998128
 51
180.00001985
  0
LINE
  5
2C1
330
2
100
AcDbEntity
  8
YKK_11
  6
ByBlock
 62
     0
100
AcDbLine
 10
511.4800808
 20
138.77762753
 30
0.0
 11
511.4800808
 21
140.48675653
 31
0.0
  0
ARC
  5
2C2
330
2
100
AcDbEntity
  8
YKK_11
  6
ByBlock
 62
     0
100
AcDbCircle
 10
519.3800808
 20
137.68675653
 30
0.0
 40
1.199999999999999
100
AcDbArc
 50
89.99998128
 51
180.00001985
  0
ARC
  5
2C3
330
2
100
AcDbEntity
  8
YKK_11
  6
ByBlock
 62
     0
100
AcDbCircle
 10
510.9800808
 20
137.68675653
 30
0.0
 40
1.199999999999999
100
AcDbArc
 50
0.0
 51
89.99998128
  0
LINE
  5
2C4
330
2
100
AcDbEntity
  8
YKK_12
  6
Continuous
100
AcDbLine
 10
519.8800808
 20
137.68675653
 30
0.0
 11
519.8800808
 21
134.48675653
 31
0.0
  0
LWPOLYLINE
  5
2C5
330
2
100
AcDbEntity
  8
YKK_D
  6
ByBlock
100
AcDbPolyline
 90
        2
 70
     1
 43
0.85
 10
512.28633817
 20
171.88675357
 42
1.0
 10
512.07383817
 20
171.88675357
 42
1.0
  0
LWPOLYLINE
  5
2C6
330
2
100
AcDbEntity
  8
YKK_D
  6
ByBlock
100
AcDbPolyline
 90
        2
 70
     1
 43
0.85
 10
512.07383817
 20
171.88675357
 42
1.0
 10
512.28633817
 20
171.88675357
 42
1.0
  0
LWPOLYLINE
  5
2C7
330
2
100
AcDbEntity
  8
YKK_D
  6
ByBlock
100
AcDbPolyline
 90
        2
 70
     1
 43
0.85
 10
518.07383817
 20
171.88675357
 42
1.0
 10
518.28633817
 20
171.88675357
 42
1.0
  0
LWPOLYLINE
  5
2C8
330
2
100
AcDbEntity
  8
YKK_D
  6
ByBlock
100
AcDbPolyline
 90
        2
 70
     1
 43
0.85
 10
518.28633817
 20
171.88675357
 42
1.0
 10
518.07383817
 20
171.88675357
 42
1.0
  0
LINE
  5
2C9
330
2
100
AcDbEntity
  8
YKK_D
100
AcDbLine
 10
512.18008817
 20
171.88675357
 30
0.0
 11
518.18008817
 21
171.88675357
 31
0.0
  0
TEXT
  5
2CA
330
2
100
AcDbEntity
  8
YKK_D
100
AcDbText
 10
513.62069731
 20
172.88675357
 30
0.0
 40
6.0
  1
6
 41
0.8
100
AcDbText
1001
ACAD
1000
MTEXTBEGIN
1070
    73
1070
     1
1070
    44
1040
1.0
1070
    74
1070
     0
1000
MTEXTEND
  0
LINE
  5
2CB
330
2
100
AcDbEntity
  8
YKK_11
  6
ByBlock
 62
     0
100
AcDbLine
 10
497.4800808
 20
243.87435946
 30
0.0
 11
429.6800808
 21
243.87435946
 31
0.0
  0
LINE
  5
2CC
330
2
100
AcDbEntity
  8
YKK_11
  6
ByBlock
 62
     0
100
AcDbLine
 10
429.6800808
 20
245.07435946
 30
0.0
 11
497.4800808
 21
245.07435946
 31
0.0
  0
LINE
  5
2CD
330
2
100
AcDbEntity
  8
YKK_12
  6
Continuous
100
AcDbLine
 10
429.6800808
 20
222.47435929
 30
0.0
 11
496.9800808
 21
222.47435929
 31
0.0
  0
LINE
  5
2CE
330
2
100
AcDbEntity
  8
YKK_12
  6
Continuous
100
AcDbLine
 10
496.9800808
 20
221.27435929
 30
0.0
 11
429.6800808
 21
221.27435929
 31
0.0
  0
LINE
  5
2CF
330
2
100
AcDbEntity
  8
YKK_D
100
AcDbLine
 10
407.68008817
 20
249.07436038
 30
0.0
 11
407.68008817
 21
216.07436038
 31
0.0
  0
LWPOLYLINE
  5
2D0
330
2
100
AcDbEntity
  8
YKK_D
  6
ByBlock
100
AcDbPolyline
 90
        2
 70
     1
 43
0.85
 10
407.68008817
 20
216.18061038
 42
1.0
 10
407.68008817
 20
215.96811038
 42
1.0
  0
TEXT
  5
2D1
330
2
100
AcDbEntity
  8
YKK_D
100
AcDbText
 10
406.68008817
 20
229.50430962
 30
0.0
 40
6.0
  1
33
 50
90.0
 41
0.8
100
AcDbText
1001
ACAD
1000
MTEXTBEGIN
1070
    73
1070
     1
1070
    44
1040
1.0
1070
    74
1070
     0
1000
MTEXTEND
  0
LWPOLYLINE
  5
2D2
330
2
100
AcDbEntity
  8
YKK_D
  6
ByBlock
100
AcDbPolyline
 90
        2
 70
     1
 43
0.85
 10
407.68008817
 20
248.96811038
 42
1.0
 10
407.68008817
 20
249.18061038
 42
1.0
  0
LINE
  5
2D3
330
2
100
AcDbEntity
  8
YKK_11
  6
ByBlock
 62
     0
100
AcDbLine
 10
497.4800808
 20
221.27435946
 30
0.0
 11
497.4800808
 21
243.87435946
 31
0.0
  0
LINE
  5
2D4
330
2
100
AcDbEntity
  8
YKK_11
  6
ByBlock
 62
     0
100
AcDbLine
 10
498.6800808
 20
243.87435946
 30
0.0
 11
498.6800808
 21
221.27435946
 31
0.0
  0
LINE
  5
2D5
330
2
100
AcDbEntity
  8
YKK_11
  6
ByBlock
 62
     0
100
AcDbLine
 10
502.68008061
 20
217.27435953
 30
0.0
 11
502.68008061
 21
245.47435953
 31
0.0
  0
LINE
  5
2D6
330
2
100
AcDbEntity
  8
YKK_11
  6
ByBlock
 62
     0
100
AcDbLine
 10
503.88008061
 20
245.47435953
 30
0.0
 11
503.88008061
 21
217.27435953
 31
0.0
  0
LINE
  5
2D7
330
2
100
AcDbEntity
  8
YKK_12
  6
Continuous
100
AcDbLine
 10
496.9800808
 20
243.87435929
 30
0.0
 11
496.9800808
 21
221.27435929
 31
0.0
  0
LINE
  5
2D8
330
2
100
AcDbEntity
  8
YKK_13
  6
YHIDDEN_1
100
AcDbLine
 10
504.1800808
 20
245.47435929
 30
0.0
 11
504.1800808
 21
218.77435929
 31
0.0
  0
LINE
  5
2D9
330
2
100
AcDbEntity
  8
YKK_13
  6
YHIDDEN_1
100
AcDbLine
 10
506.4800808
 20
245.47435929
 30
0.0
 11
506.4800808
 21
219.27435929
 31
0.0
  0
LINE
  5
2DA
330
2
100
AcDbEntity
  8
YKK_11
  6
ByBlock
 62
     0
100
AcDbLine
 10
488.6800808
 20
221.27435946
 30
0.0
 11
497.4800808
 21
221.27435946
 31
0.0
  0
LINE
  5
2DB
330
2
100
AcDbEntity
  8
YKK_11
  6
ByBlock
 62
     0
100
AcDbLine
 10
497.4800808
 20
220.07435946
 30
0.0
 11
488.6800808
 21
220.07435946
 31
0.0
  0
LINE
  5
2DC
330
2
100
AcDbEntity
  8
YKK_11
  6
ByBlock
 62
     0
100
AcDbLine
 10
488.6800808
 20
220.07435946
 30
0.0
 11
488.6800808
 21
221.27435946
 31
0.0
  0
ARC
  5
2DD
330
2
100
AcDbEntity
  8
YKK_11
  6
ByBlock
 62
     0
100
AcDbCircle
 10
502.68008061
 20
217.27435953
 30
0.0
 40
1.199999999999999
100
AcDbArc
 50
270.00000112
 51
0.0
  0
TEXT
  5
2DE
330
2
100
AcDbEntity
  8
YKK_D
100
AcDbText
 10
513.64506279
 20
195.87434818
 30
0.0
 40
6.0
  1
W
 41
0.8
100
AcDbText
1001
ACAD
1000
MTEXTBEGIN
1070
    73
1070
     1
1070
    44
1040
1.0
1070
    74
1070
     0
1000
MTEXTEND
  0
ARC
  5
2DF
330
2
100
AcDbEntity
  8
YKK_13
  6
YHIDDEN_1
100
AcDbCircle
 10
506.4800808
 20
218.77435929
 30
0.0
 40
2.299999999999998
100
AcDbArc
 50
180.0
 51
270.0
  0
LINE
  5
2E0
330
2
100
AcDbEntity
  8
YKK_11
  6
ByBlock
 62
     0
100
AcDbLine
 10
492.68008061
 20
217.27435953
 30
0.0
 11
502.68008061
 21
217.27435953
 31
0.0
  0
LINE
  5
2E1
330
2
100
AcDbEntity
  8
YKK_11
  6
ByBlock
 62
     0
100
AcDbLine
 10
502.68008061
 20
216.07435953
 30
0.0
 11
492.68008061
 21
216.07435953
 31
0.0
  0
LINE
  5
2E2
330
2
100
AcDbEntity
  8
YKK_11
  6
ByBlock
 62
     0
100
AcDbLine
 10
492.68008061
 20
216.07435953
 30
0.0
 11
492.68008061
 21
217.27435953
 31
0.0
  0
ARC
  5
2E3
330
2
100
AcDbEntity
  8
YKK_11
  6
ByBlock
 62
     0
100
AcDbCircle
 10
497.4800808
 20
221.27435946
 30
0.0
 40
1.199999999999999
100
AcDbArc
 50
270.00000112
 51
0.0
  0
ARC
  5
2E4
330
2
100
AcDbEntity
  8
YKK_13
  6
YHIDDEN_1
100
AcDbCircle
 10
506.9800808
 20
219.27435929
 30
0.0
 40
0.5
100
AcDbArc
 50
180.0
 51
270.0
  0
LINE
  5
2E5
330
2
100
AcDbEntity
  8
YKK_D
100
AcDbLine
 10
498.68008817
 20
255.07434799
 30
0.0
 11
498.68008817
 21
278.57436038
 31
0.0
  0
LINE
  5
2E6
330
2
100
AcDbEntity
  8
YKK_D
100
AcDbLine
 10
498.68008817
 20
253.0743375
 30
0.0
 11
498.68008817
 21
278.57436038
 31
0.0
  0
LINE
  5
2E7
330
2
100
AcDbEntity
  8
YKK_D
100
AcDbLine
 10
502.68008817
 20
253.07436849
 30
0.0
 11
502.68008817
 21
278.57436038
 31
0.0
  0
LINE
  5
2E8
330
2
100
AcDbEntity
  8
YKK_13
  6
YHIDDEN_1
100
AcDbLine
 10
506.4800808
 20
245.47435929
 30
0.0
 11
504.1800808
 21
245.47435929
 31
0.0
  0
ARC
  5
2E9
330
2
100
AcDbEntity
  8
YKK_11
  6
ByBlock
 62
     0
100
AcDbCircle
 10
497.4800808
 20
243.87435946
 30
0.0
 40
1.199999999999999
100
AcDbArc
 50
0.0
 51
89.99998128
  0
ARC
  5
2EA
330
2
100
AcDbEntity
  8
YKK_11
  6
ByBlock
 62
     0
100
AcDbCircle
 10
503.88008061
 20
245.47435953
 30
0.0
 40
1.199999999999999
100
AcDbArc
 50
89.99998128
 51
180.00001985
  0
LINE
  5
2EB
330
2
100
AcDbEntity
  8
YKK_D
100
AcDbLine
 10
498.68008817
 20
277.57436038
 30
0.0
 11
502.68008817
 21
277.57436038
 31
0.0
  0
LWPOLYLINE
  5
2EC
330
2
100
AcDbEntity
  8
YKK_D
  6
ByBlock
100
AcDbPolyline
 90
        2
 70
     1
 43
0.85
 10
502.57383817
 20
277.57436038
 42
1.0
 10
502.78633817
 20
277.57436038
 42
1.0
  0
LWPOLYLINE
  5
2ED
330
2
100
AcDbEntity
  8
YKK_D
  6
ByBlock
100
AcDbPolyline
 90
        2
 70
     1
 43
0.85
 10
498.78633817
 20
277.57436038
 42
1.0
 10
498.57383817
 20
277.57436038
 42
1.0
  0
LWPOLYLINE
  5
2EE
330
2
100
AcDbEntity
  8
YKK_D
  6
ByBlock
100
AcDbPolyline
 90
        2
 70
     1
 43
0.85
 10
502.78633817
 20
277.57436038
 42
1.0
 10
502.57383817
 20
277.57436038
 42
1.0
  0
LWPOLYLINE
  5
2EF
330
2
100
AcDbEntity
  8
YKK_D
  6
ByBlock
100
AcDbPolyline
 90
        2
 70
     1
 43
0.85
 10
498.57383817
 20
277.57436038
 42
1.0
 10
498.78633817
 20
277.57436038
 42
1.0
  0
LINE
  5
2F0
330
2
100
AcDbEntity
  8
YKK_12
  6
Continuous
100
AcDbLine
 10
524.92927414
 20
141.68675653
 30
0.0
 11
593.96998482
 21
141.68675653
 31
0.0
  0
CIRCLE
  5
2F1
330
2
100
AcDbEntity
  8
YKK_13
  6
Continuous
100
AcDbCircle
 10
528.8800808
 20
126.98675653
 30
0.0
 40
2.5
  0
LINE
  5
2F2
330
2
100
AcDbEntity
  8
YKK_13
  6
YCENTER_1
100
AcDbLine
 10
528.8800808
 20
122.48675653
 30
0.0
 11
528.8800808
 21
131.48675653
 31
0.0
  0
CIRCLE
  5
2F3
330
2
100
AcDbEntity
  8
YKK_13
  6
Continuous
100
AcDbCircle
 10
528.8800808
 20
126.98675653
 30
0.0
 40
2.0
  0
LINE
  5
2F4
330
2
100
AcDbEntity
  8
YKK_13
  6
Continuous
100
AcDbLine
 10
520.8800808
 20
134.48675653
 30
0.0
 11
520.8800808
 21
119.48675653
 31
0.0
  0
LINE
  5
2F5
330
2
100
AcDbEntity
  8
YKK_13
  6
Continuous
100
AcDbLine
 10
533.8800808
 20
133.48675653
 30
0.0
 11
533.8800808
 21
120.48675653
 31
0.0
  0
LINE
  5
2F6
330
2
100
AcDbEntity
  8
YKK_11
  6
ByBlock
 62
     0
100
AcDbLine
 10
528.1800808
 20
113.88675653
 30
0.0
 11
528.1800808
 21
115.08675653
 31
0.0
  0
LINE
  5
2F7
330
2
100
AcDbEntity
  8
YKK_13
  6
YCENTER_1
100
AcDbLine
 10
524.3800808
 20
126.98675653
 30
0.0
 11
533.3800808
 21
126.98675653
 31
0.0
  0
LINE
  5
2F8
330
2
100
AcDbEntity
  8
YKK_13
  6
Continuous
100
AcDbLine
 10
520.8800808
 20
120.48675653
 30
0.0
 11
533.8800808
 21
120.48675653
 31
0.0
  0
LINE
  5
2F9
330
2
100
AcDbEntity
  8
YKK_13
  6
Continuous
100
AcDbLine
 10
533.8800808
 20
133.48675653
 30
0.0
 11
520.8800808
 21
133.48675653
 31
0.0
  0
ARC
  5
2FA
330
2
100
AcDbEntity
  8
YKK_11
  6
ByBlock
 62
     0
100
AcDbCircle
 10
523.3800808
 20
142.08675653
 30
0.0
 40
1.6
100
AcDbArc
 50
270.00000112
 51
89.99998128
  0
TEXT
  5
2FB
330
2
100
AcDbEntity
  8
YKK_D
100
AcDbText
 10
590.77628106
 20
172.88675357
 30
0.0
 40
6.0
  1
DW2
 41
0.8
100
AcDbText
1001
ACAD
1000
MTEXTBEGIN
1070
    73
1070
     1
1070
    44
1040
1.0
1070
    74
1070
     0
1000
MTEXTEND
  0
LINE
  5
2FC
330
2
100
AcDbEntity
  8
YKK_11
  6
ByBlock
 62
     0
100
AcDbLine
 10
532.88008076
 20
243.87435908
 30
0.0
 11
600.68008076
 21
243.87435908
 31
0.0
  0
LINE
  5
2FD
330
2
100
AcDbEntity
  8
YKK_11
  6
ByBlock
 62
     0
100
AcDbLine
 10
600.68008076
 20
245.07435908
 30
0.0
 11
532.88008076
 21
245.07435908
 31
0.0
  0
LINE
  5
2FE
330
2
100
AcDbEntity
  8
YKK_12
  6
Continuous
100
AcDbLine
 10
533.3800808
 20
221.27435929
 30
0.0
 11
600.6800808
 21
221.27435929
 31
0.0
  0
LINE
  5
2FF
330
2
100
AcDbEntity
  8
YKK_12
  6
Continuous
100
AcDbLine
 10
600.6800808
 20
222.47435929
 30
0.0
 11
533.3800808
 21
222.47435929
 31
0.0
  0
LINE
  5
300
330
2
100
AcDbEntity
  8
YKK_11
  6
ByBlock
 62
     0
100
AcDbLine
 10
532.88008076
 20
221.27435908
 30
0.0
 11
532.88008076
 21
243.87435908
 31
0.0
  0
LINE
  5
301
330
2
100
AcDbEntity
  8
YKK_11
  6
ByBlock
 62
     0
100
AcDbLine
 10
531.68008076
 20
243.87435908
 30
0.0
 11
531.68008076
 21
221.27435908
 31
0.0
  0
LINE
  5
302
330
2
100
AcDbEntity
  8
YKK_11
  6
ByBlock
 62
     0
100
AcDbLine
 10
526.48008061
 20
217.27435953
 30
0.0
 11
526.48008061
 21
245.47435953
 31
0.0
  0
LINE
  5
303
330
2
100
AcDbEntity
  8
YKK_11
  6
ByBlock
 62
     0
100
AcDbLine
 10
527.68008061
 20
245.47435953
 30
0.0
 11
527.68008061
 21
217.27435953
 31
0.0
  0
LINE
  5
304
330
2
100
AcDbEntity
  8
YKK_12
  6
Continuous
100
AcDbLine
 10
533.3800808
 20
243.87435929
 30
0.0
 11
533.3800808
 21
221.27435929
 31
0.0
  0
LINE
  5
305
330
2
100
AcDbEntity
  8
YKK_13
  6
YHIDDEN_1
100
AcDbLine
 10
526.1800808
 20
245.47435929
 30
0.0
 11
526.1800808
 21
218.77435929
 31
0.0
  0
LINE
  5
306
330
2
100
AcDbEntity
  8
YKK_13
  6
YHIDDEN_1
100
AcDbLine
 10
523.8800808
 20
245.47435929
 30
0.0
 11
523.8800808
 21
219.27435929
 31
0.0
  0
ARC
  5
307
330
2
100
AcDbEntity
  8
YKK_11
  6
ByBlock
 62
     0
100
AcDbCircle
 10
527.68008061
 20
217.27435953
 30
0.0
 40
1.199999999999999
100
AcDbArc
 50
180.00001985
 51
270.00000112
  0
LINE
  5
308
330
2
100
AcDbEntity
  8
YKK_11
  6
ByBlock
 62
     0
100
AcDbLine
 10
541.68008076
 20
221.27435908
 30
0.0
 11
532.88008076
 21
221.27435908
 31
0.0
  0
LINE
  5
309
330
2
100
AcDbEntity
  8
YKK_11
  6
ByBlock
 62
     0
100
AcDbLine
 10
532.88008076
 20
220.07435908
 30
0.0
 11
541.68008076
 21
220.07435908
 31
0.0
  0
LINE
  5
30A
330
2
100
AcDbEntity
  8
YKK_11
  6
ByBlock
 62
     0
100
AcDbLine
 10
537.68008061
 20
216.07435953
 30
0.0
 11
527.68008061
 21
216.07435953
 31
0.0
  0
LINE
  5
30B
330
2
100
AcDbEntity
  8
YKK_11
  6
ByBlock
 62
     0
100
AcDbLine
 10
527.68008061
 20
217.27435953
 30
0.0
 11
537.68008061
 21
217.27435953
 31
0.0
  0
ARC
  5
30C
330
2
100
AcDbEntity
  8
YKK_13
  6
YHIDDEN_1
100
AcDbCircle
 10
523.8800808
 20
218.77435929
 30
0.0
 40
2.299999999999998
100
AcDbArc
 50
270.0
 51
0.0
  0
ARC
  5
30D
330
2
100
AcDbEntity
  8
YKK_13
  6
YHIDDEN_1
100
AcDbCircle
 10
523.3800808
 20
219.27435929
 30
0.0
 40
0.5
100
AcDbArc
 50
270.0
 51
0.0
  0
ARC
  5
30E
330
2
100
AcDbEntity
  8
YKK_11
  6
ByBlock
 62
     0
100
AcDbCircle
 10
532.88008076
 20
221.27435908
 30
0.0
 40
1.199999999999999
100
AcDbArc
 50
180.00001985
 51
270.00000112
  0
LINE
  5
30F
330
2
100
AcDbEntity
  8
YKK_11
  6
ByBlock
 62
     0
100
AcDbLine
 10
541.68008076
 20
220.07435908
 30
0.0
 11
541.68008076
 21
221.27435908
 31
0.0
  0
LINE
  5
310
330
2
100
AcDbEntity
  8
YKK_11
  6
ByBlock
 62
     0
100
AcDbLine
 10
537.68008061
 20
217.27435953
 30
0.0
 11
537.68008061
 21
216.07435953
 31
0.0
  0
LINE
  5
311
330
2
100
AcDbEntity
  8
YKK_D
100
AcDbLine
 10
531.68008817
 20
253.0743375
 30
0.0
 11
531.68008817
 21
278.57436038
 31
0.0
  0
LINE
  5
312
330
2
100
AcDbEntity
  8
YKK_D
100
AcDbLine
 10
527.68008817
 20
253.07436849
 30
0.0
 11
527.68008817
 21
278.57436038
 31
0.0
  0
ARC
  5
313
330
2
100
AcDbEntity
  8
YKK_11
  6
ByBlock
 62
     0
100
AcDbCircle
 10
526.48008061
 20
245.47435953
 30
0.0
 40
1.199999999999999
100
AcDbArc
 50
0.0
 51
89.99998128
  0
LINE
  5
314
330
2
100
AcDbEntity
  8
YKK_13
  6
YHIDDEN_1
100
AcDbLine
 10
523.8800808
 20
245.47435929
 30
0.0
 11
526.1800808
 21
245.47435929
 31
0.0
  0
ARC
  5
315
330
2
100
AcDbEntity
  8
YKK_11
  6
ByBlock
 62
     0
100
AcDbCircle
 10
532.88008076
 20
243.87435908
 30
0.0
 40
1.199999999999999
100
AcDbArc
 50
89.99998128
 51
180.00001985
  0
LINE
  5
316
330
2
100
AcDbEntity
  8
YKK_D
100
AcDbLine
 10
531.68008817
 20
277.57436038
 30
0.0
 11
527.68008817
 21
277.57436038
 31
0.0
  0
LWPOLYLINE
  5
317
330
2
100
AcDbEntity
  8
YKK_D
  6
ByBlock
100
AcDbPolyline
 90
        2
 70
     1
 43
0.85
 10
527.57383817
 20
277.57436038
 42
1.0
 10
527.78633817
 20
277.57436038
 42
1.0
  0
LWPOLYLINE
  5
318
330
2
100
AcDbEntity
  8
YKK_D
  6
ByBlock
100
AcDbPolyline
 90
        2
 70
     1
 43
0.85
 10
527.78633817
 20
277.57436038
 42
1.0
 10
527.57383817
 20
277.57436038
 42
1.0
  0
LWPOLYLINE
  5
319
330
2
100
AcDbEntity
  8
YKK_D
  6
ByBlock
100
AcDbPolyline
 90
        2
 70
     1
 43
0.85
 10
531.57383817
 20
277.57436038
 42
1.0
 10
531.78633817
 20
277.57436038
 42
1.0
  0
LWPOLYLINE
  5
31A
330
2
100
AcDbEntity
  8
YKK_D
  6
ByBlock
100
AcDbPolyline
 90
        2
 70
     1
 43
0.85
 10
531.78633817
 20
277.57436038
 42
1.0
 10
531.57383817
 20
277.57436038
 42
1.0
  0
LINE
  5
31B
330
2
100
AcDbEntity
  8
YKK_D
100
AcDbLine
 10
666.68008817
 20
87.58675815
 30
0.0
 11
676.68008817
 21
87.58675815
 31
0.0
  0
LINE
  5
31C
330
2
100
AcDbEntity
  8
YKK_D
100
AcDbLine
 10
666.68008817
 20
87.58675815
 30
0.0
 11
654.55573252
 21
87.58675815
 31
0.0
  0
LINE
  5
31D
330
2
100
AcDbEntity
  8
YKK_D
100
AcDbLine
 10
666.68008817
 20
104.68675662
 30
0.0
 11
666.68008817
 21
86.58675815
 31
0.0
  0
LINE
  5
31E
330
2
100
AcDbEntity
  8
YKK_D
100
AcDbLine
 10
666.68008817
 20
103.58675815
 30
0.0
 11
666.68008817
 21
86.58675815
 31
0.0
  0
LINE
  5
31F
330
2
100
AcDbEntity
  8
YKK_D
100
AcDbLine
 10
666.68008817
 20
87.58675815
 30
0.0
 11
660.61791034
 21
91.08675815
 31
0.0
  0
LINE
  5
320
330
2
100
AcDbEntity
  8
YKK_D
100
AcDbLine
 10
666.68008817
 20
87.58675815
 30
0.0
 11
660.61791034
 21
84.08675815
 31
0.0
  0
LINE
  5
321
330
2
100
AcDbEntity
  8
YKK_D
100
AcDbLine
 10
660.61791034
 20
91.08675815
 30
0.0
 11
660.61791034
 21
84.08675815
 31
0.0
  0
LINE
  5
322
330
2
100
AcDbEntity
  8
YKK_D
100
AcDbLine
 10
676.68008817
 20
103.58675815
 30
0.0
 11
676.68008817
 21
86.58675815
 31
0.0
  0
LINE
  5
323
330
2
100
AcDbEntity
  8
YKK_D
100
AcDbLine
 10
676.68008817
 20
87.58675815
 30
0.0
 11
687.80006375
 21
87.58675815
 31
0.0
  0
TEXT
  5
324
330
2
100
AcDbEntity
  8
YKK_D
100
AcDbText
 10
679.97854091
 20
88.58675815
 30
0.0
 40
6.0
  1
10
 41
0.8
100
AcDbText
1001
ACAD
1000
MTEXTBEGIN
1070
    73
1070
     1
1070
    44
1040
1.0
1070
    74
1070
     0
1000
MTEXTEND
  0
LWPOLYLINE
  5
325
330
2
100
AcDbEntity
  8
YKK_D
  6
ByBlock
100
AcDbPolyline
 90
        2
 70
     1
 43
0.85
 10
676.57383817
 20
87.58675815
 42
1.0
 10
676.78633817
 20
87.58675815
 42
1.0
  0
LINE
  5
326
330
2
100
AcDbEntity
  8
YKK_D
100
AcDbLine
 10
666.68008817
 20
210.87435914
 30
0.0
 11
666.68008817
 21
193.87434818
 31
0.0
  0
LINE
  5
327
330
2
100
AcDbEntity
  8
YKK_D
100
AcDbLine
 10
676.68008817
 20
210.87435914
 30
0.0
 11
676.68008817
 21
193.87436344
 31
0.0
  0
LINE
  5
328
330
2
100
AcDbEntity
  8
YKK_D
100
AcDbLine
 10
666.68008817
 20
210.87435914
 30
0.0
 11
666.68008817
 21
193.87436344
 31
0.0
  0
LINE
  5
329
330
2
100
AcDbEntity
  8
YKK_D
100
AcDbLine
 10
666.68008817
 20
194.87434818
 30
0.0
 11
660.61791034
 21
191.37434818
 31
0.0
  0
LINE
  5
32A
330
2
100
AcDbEntity
  8
YKK_D
100
AcDbLine
 10
660.61791034
 20
198.37434818
 30
0.0
 11
660.61791034
 21
191.37434818
 31
0.0
  0
LINE
  5
32B
330
2
100
AcDbEntity
  8
YKK_13
  6
YCENTER_1
100
AcDbLine
 10
674.6800808
 20
115.10977466
 30
0.0
 11
674.6800808
 21
159.38675653
 31
0.0
  0
CIRCLE
  5
32C
330
2
100
AcDbEntity
  8
YKK_13
  6
Continuous
100
AcDbCircle
 10
674.6800808
 20
151.88675653
 30
0.0
 40
5.0
  0
CIRCLE
  5
32D
330
2
100
AcDbEntity
  8
YKK_13
  6
Continuous
100
AcDbCircle
 10
674.6800808
 20
151.88675653
 30
0.0
 40
4.5
  0
LINE
  5
32E
330
2
100
AcDbEntity
  8
YKK_D
100
AcDbLine
 10
701.68008817
 20
146.88675023
 30
0.0
 11
701.68008817
 21
172.88675357
 31
0.0
  0
LINE
  5
32F
330
2
100
AcDbEntity
  8
YKK_11
  6
ByBlock
 62
     0
100
AcDbLine
 10
676.68008124
 20
111.08675634
 30
0.0
 11
666.68008124
 21
111.08675634
 31
0.0
  0
LINE
  5
330
330
2
100
AcDbEntity
  8
YKK_13
  6
Continuous
100
AcDbLine
 10
676.6800808
 20
116.88675653
 30
0.0
 11
672.6800808
 21
116.88675653
 31
0.0
  0
LINE
  5
331
330
2
100
AcDbEntity
  8
YKK_11
  6
ByBlock
 62
     0
100
AcDbLine
 10
671.4800808
 20
137.68675653
 30
0.0
 11
671.4800808
 21
115.58675653
 31
0.0
  0
LINE
  5
332
330
2
100
AcDbEntity
  8
YKK_11
  6
ByBlock
 62
     0
100
AcDbLine
 10
672.6800808
 20
115.08675653
 30
0.0
 11
672.6800808
 21
137.68675653
 31
0.0
  0
LINE
  5
333
330
2
100
AcDbEntity
  8
YKK_12
  6
Continuous
100
AcDbLine
 10
670.9800808
 20
137.68675653
 30
0.0
 11
670.9800808
 21
115.08675653
 31
0.0
  0
LINE
  5
334
330
2
100
AcDbEntity
  8
YKK_13
  6
Continuous
100
AcDbLine
 10
672.6800808
 20
147.30418084
 30
0.0
 11
672.6800808
 21
116.88675653
 31
0.0
  0
LINE
  5
335
330
2
100
AcDbEntity
  8
YKK_11
  6
ByBlock
 62
     0
100
AcDbLine
 10
662.6800808
 20
113.88675653
 30
0.0
 11
671.4800808
 21
113.88675653
 31
0.0
  0
LINE
  5
336
330
2
100
AcDbEntity
  8
YKK_11
  6
ByBlock
 62
     0
100
AcDbLine
 10
666.68008124
 20
111.08675634
 30
0.0
 11
666.68008124
 21
109.88675634
 31
0.0
  0
LINE
  5
337
330
2
100
AcDbEntity
  8
YKK_11
  6
ByBlock
 62
     0
100
AcDbLine
 10
662.6800808
 20
115.08675653
 30
0.0
 11
662.6800808
 21
113.88675653
 31
0.0
  0
LINE
  5
338
330
2
100
AcDbEntity
  8
YKK_11
  6
ByBlock
 62
     0
100
AcDbLine
 10
671.4800808
 20
115.58675653
 30
0.0
 11
670.9800808
 21
115.08675653
 31
0.0
  0
ARC
  5
339
330
2
100
AcDbEntity
  8
YKK_11
  6
ByBlock
 62
     0
100
AcDbCircle
 10
671.4800808
 20
115.08675653
 30
0.0
 40
1.199999999999999
100
AcDbArc
 50
270.00000112
 51
0.0
  0
ARC
  5
33A
330
2
100
AcDbEntity
  8
YKK_11
  6
ByBlock
 62
     0
100
AcDbCircle
 10
671.4800808
 20
137.68675653
 30
0.0
 40
1.199999999999999
100
AcDbArc
 50
0.0
 51
89.99998128
  0
LINE
  5
33B
330
2
100
AcDbEntity
  8
YKK_11
  6
ByBlock
 62
     0
100
AcDbLine
 10
676.68008124
 20
141.68675634
 30
0.0
 11
676.68008124
 21
111.08675634
 31
0.0
  0
LINE
  5
33C
330
2
100
AcDbEntity
  8
YKK_11
  6
ByBlock
 62
     0
100
AcDbLine
 10
701.68008124
 20
121.68675634
 30
0.0
 11
701.68008124
 21
141.68675634
 31
0.0
  0
LINE
  5
33D
330
2
100
AcDbEntity
  8
YKK_11
  6
ByBlock
 62
     0
100
AcDbLine
 10
700.48008124
 20
141.68675634
 30
0.0
 11
700.48008124
 21
121.68675634
 31
0.0
  0
LINE
  5
33E
330
2
100
AcDbEntity
  8
YKK_11
  6
ByBlock
 62
     0
100
AcDbLine
 10
677.88008124
 20
111.08675634
 30
0.0
 11
677.88008124
 21
141.68675634
 31
0.0
  0
LINE
  5
33F
330
2
100
AcDbEntity
  8
YKK_13
  6
Continuous
100
AcDbLine
 10
676.6800808
 20
147.30418084
 30
0.0
 11
676.6800808
 21
116.88675653
 31
0.0
  0
LINE
  5
340
330
2
100
AcDbEntity
  8
YKK_13
  6
YHIDDEN_1
100
AcDbLine
 10
700.4800808
 20
114.48675653
 30
0.0
 11
700.4800808
 21
141.18675653
 31
0.0
  0
LINE
  5
341
330
2
100
AcDbEntity
  8
YKK_13
  6
YHIDDEN_1
100
AcDbLine
 10
698.1800808
 20
141.18675653
 30
0.0
 11
698.1800808
 21
115.08675653
 31
0.0
  0
LINE
  5
342
330
2
100
AcDbEntity
  8
YKK_13
  6
YHIDDEN_1
100
AcDbLine
 10
682.1800808
 20
114.48675653
 30
0.0
 11
697.5800808
 21
114.48675653
 31
0.0
  0
LINE
  5
343
330
2
100
AcDbEntity
  8
YKK_13
  6
YHIDDEN_1
100
AcDbLine
 10
681.5800808
 20
112.18675653
 30
0.0
 11
698.1800808
 21
112.18675653
 31
0.0
  0
LINE
  5
344
330
2
100
AcDbEntity
  8
YKK_13
  6
YHIDDEN_1
100
AcDbLine
 10
679.2800808
 20
114.48675653
 30
0.0
 11
679.2800808
 21
125.18675653
 31
0.0
  0
LINE
  5
345
330
2
100
AcDbEntity
  8
YKK_13
  6
YHIDDEN_1
100
AcDbLine
 10
681.5800808
 20
125.18675653
 30
0.0
 11
681.5800808
 21
115.08675653
 31
0.0
  0
ARC
  5
346
330
2
100
AcDbEntity
  8
YKK_11
  6
ByBlock
 62
     0
100
AcDbCircle
 10
676.68008124
 20
111.08675634
 30
0.0
 40
1.199999999999999
100
AcDbArc
 50
270.00000112
 51
0.0
  0
LINE
  5
347
330
2
100
AcDbEntity
  8
YKK_12
  6
Continuous
100
AcDbLine
 10
676.6800808
 20
109.88675653
 30
0.0
 11
676.6800808
 21
108.68675653
 31
0.0
  0
ARC
  5
348
330
2
100
AcDbEntity
  8
YKK_13
  6
YHIDDEN_1
100
AcDbCircle
 10
681.5800808
 20
114.48675653
 30
0.0
 40
2.299999999999998
100
AcDbArc
 50
180.0
 51
270.0
  0
ARC
  5
349
330
2
100
AcDbEntity
  8
YKK_13
  6
YHIDDEN_1
100
AcDbCircle
 10
682.1800808
 20
115.08675653
 30
0.0
 40
0.5999999999999999
100
AcDbArc
 50
180.0
 51
270.0
  0
LINE
  5
34A
330
2
100
AcDbEntity
  8
YKK_13
  6
YHIDDEN_1
100
AcDbLine
 10
679.2800808
 20
125.18675653
 30
0.0
 11
681.5800808
 21
125.18675653
 31
0.0
  0
ARC
  5
34B
330
2
100
AcDbEntity
  8
YKK_13
  6
YHIDDEN_1
100
AcDbCircle
 10
698.1800808
 20
114.48675653
 30
0.0
 40
2.299999999999998
100
AcDbArc
 50
270.0
 51
0.0
  0
ARC
  5
34C
330
2
100
AcDbEntity
  8
YKK_13
  6
YHIDDEN_1
100
AcDbCircle
 10
697.5800808
 20
115.08675653
 30
0.0
 40
0.5999999999999999
100
AcDbArc
 50
270.0
 51
0.0
  0
LINE
  5
34D
330
2
100
AcDbEntity
  8
YKK_11
  6
ByBlock
 62
     0
100
AcDbLine
 10
700.48008124
 20
121.68675634
 30
0.0
 11
701.68008124
 21
121.68675634
 31
0.0
  0
LINE
  5
34E
330
2
100
AcDbEntity
  8
YKK_11
  6
ByBlock
 62
     0
100
AcDbLine
 10
700.48008124
 20
142.88675634
 30
0.0
 11
677.88008124
 21
142.88675634
 31
0.0
  0
LINE
  5
34F
330
2
100
AcDbEntity
  8
YKK_11
  6
ByBlock
 62
     0
100
AcDbLine
 10
677.88008124
 20
141.68675634
 30
0.0
 11
700.48008124
 21
141.68675634
 31
0.0
  0
ARC
  5
350
330
2
100
AcDbEntity
  8
YKK_11
  6
ByBlock
 62
     0
100
AcDbCircle
 10
677.88008124
 20
141.68675634
 30
0.0
 40
1.199999999999999
100
AcDbArc
 50
89.99998128
 51
180.00001985
  0
LINE
  5
351
330
2
100
AcDbEntity
  8
YKK_13
  6
YHIDDEN_1
100
AcDbLine
 10
698.1800808
 20
141.18675653
 30
0.0
 11
700.4800808
 21
141.18675653
 31
0.0
  0
ARC
  5
352
330
2
100
AcDbEntity
  8
YKK_11
  6
ByBlock
 62
     0
100
AcDbCircle
 10
700.48008124
 20
141.68675634
 30
0.0
 40
1.199999999999999
100
AcDbArc
 50
0.0
 51
89.99998128
  0
LINE
  5
353
330
2
100
AcDbEntity
  8
YKK_13
  6
YCENTER_1
100
AcDbLine
 10
682.1800808
 20
151.88675653
 30
0.0
 11
667.1800808
 21
151.88675653
 31
0.0
  0
LINE
  5
354
330
2
100
AcDbEntity
  8
YKK_D
100
AcDbLine
 10
672.68008817
 20
171.88675357
 30
0.0
 11
676.68008817
 21
171.88675357
 31
0.0
  0
TEXT
  5
355
330
2
100
AcDbEntity
  8
YKK_D
100
AcDbText
 10
672.28288005
 20
172.88675357
 30
0.0
 40
6.0
  1
4
 41
0.8
100
AcDbText
1001
ACAD
1000
MTEXTBEGIN
1070
    73
1070
     1
1070
    44
1040
1.0
1070
    74
1070
     0
1000
MTEXTEND
  0
LINE
  5
356
330
2
100
AcDbEntity
  8
YKK_D
100
AcDbLine
 10
672.68008817
 20
155.88674976
 30
0.0
 11
672.68008817
 21
172.88675357
 31
0.0
  0
LWPOLYLINE
  5
357
330
2
100
AcDbEntity
  8
YKK_D
  6
ByBlock
100
AcDbPolyline
 90
        2
 70
     1
 43
0.85
 10
672.57383817
 20
171.88675357
 42
1.0
 10
672.78633817
 20
171.88675357
 42
1.0
  0
LWPOLYLINE
  5
358
330
2
100
AcDbEntity
  8
YKK_D
  6
ByBlock
100
AcDbPolyline
 90
        2
 70
     1
 43
0.85
 10
672.78633817
 20
171.88675357
 42
1.0
 10
672.57383817
 20
171.88675357
 42
1.0
  0
LINE
  5
359
330
2
100
AcDbEntity
  8
YKK_D
100
AcDbLine
 10
676.68008817
 20
155.88675071
 30
0.0
 11
676.68008817
 21
172.88675357
 31
0.0
  0
LWPOLYLINE
  5
35A
330
2
100
AcDbEntity
  8
YKK_D
  6
ByBlock
100
AcDbPolyline
 90
        2
 70
     1
 43
0.85
 10
676.78633817
 20
171.88675357
 42
1.0
 10
676.57383817
 20
171.88675357
 42
1.0
  0
LWPOLYLINE
  5
35B
330
2
100
AcDbEntity
  8
YKK_D
  6
ByBlock
100
AcDbPolyline
 90
        2
 70
     1
 43
0.85
 10
676.57383817
 20
171.88675357
 42
1.0
 10
676.78633817
 20
171.88675357
 42
1.0
  0
LWPOLYLINE
  5
35C
330
2
100
AcDbEntity
  8
YKK_D
  6
ByBlock
100
AcDbPolyline
 90
        2
 70
     1
 43
0.85
 10
701.57383817
 20
171.88675357
 42
1.0
 10
701.78633817
 20
171.88675357
 42
1.0
  0
LINE
  5
35D
330
2
100
AcDbEntity
  8
YKK_D
100
AcDbLine
 10
701.68008817
 20
171.88675357
 30
0.0
 11
676.68008817
 21
171.88675357
 31
0.0
  0
TEXT
  5
35E
330
2
100
AcDbEntity
  8
YKK_D
100
AcDbText
 10
686.09785467
 20
172.88675357
 30
0.0
 40
6.0
  1
25
 41
0.8
100
AcDbText
1001
ACAD
1000
MTEXTBEGIN
1070
    73
1070
     1
1070
    44
1040
1.0
1070
    74
1070
     0
1000
MTEXTEND
  0
LINE
  5
35F
330
2
100
AcDbEntity
  8
YKK_11
  6
ByBlock
 62
     0
100
AcDbLine
 10
701.68008122
 20
227.87435956
 30
0.0
 11
701.68008122
 21
247.87435956
 31
0.0
  0
LINE
  5
360
330
2
100
AcDbEntity
  8
YKK_11
  6
ByBlock
 62
     0
100
AcDbLine
 10
700.48008122
 20
247.87435956
 30
0.0
 11
700.48008122
 21
227.87435956
 31
0.0
  0
LINE
  5
361
330
2
100
AcDbEntity
  8
YKK_11
  6
ByBlock
 62
     0
100
AcDbLine
 10
677.88008122
 20
217.27435956
 30
0.0
 11
677.88008122
 21
247.87435956
 31
0.0
  0
LINE
  5
362
330
2
100
AcDbEntity
  8
YKK_11
  6
ByBlock
 62
     0
100
AcDbLine
 10
676.68008122
 20
247.87435956
 30
0.0
 11
676.68008122
 21
217.27435956
 31
0.0
  0
LINE
  5
363
330
2
100
AcDbEntity
  8
YKK_11
  6
ByBlock
 62
     0
100
AcDbLine
 10
672.68008116
 20
221.27435895
 30
0.0
 11
672.68008116
 21
243.87435895
 31
0.0
  0
LINE
  5
364
330
2
100
AcDbEntity
  8
YKK_11
  6
ByBlock
 62
     0
100
AcDbLine
 10
671.48008116
 20
243.87435895
 30
0.0
 11
671.48008116
 21
221.27435895
 31
0.0
  0
LINE
  5
365
330
2
100
AcDbEntity
  8
YKK_12
  6
Continuous
100
AcDbLine
 10
670.9800808
 20
243.87435929
 30
0.0
 11
670.9800808
 21
221.27435929
 31
0.0
  0
LINE
  5
366
330
2
100
AcDbEntity
  8
YKK_13
  6
YCENTER_1
100
AcDbLine
 10
674.6800808
 20
219.23553767
 30
0.0
 11
674.6800808
 21
264.57435929
 31
0.0
  0
LINE
  5
367
330
2
100
AcDbEntity
  8
YKK_13
  6
Continuous
100
AcDbLine
 10
676.6800808
 20
252.37820687
 30
0.0
 11
676.6800808
 21
222.57435929
 31
0.0
  0
LINE
  5
368
330
2
100
AcDbEntity
  8
YKK_13
  6
Continuous
100
AcDbLine
 10
672.6800808
 20
252.37820687
 30
0.0
 11
672.6800808
 21
222.57435929
 31
0.0
  0
LINE
  5
369
330
2
100
AcDbEntity
  8
YKK_13
  6
YHIDDEN_1
100
AcDbLine
 10
700.1800808
 20
221.17435929
 30
0.0
 11
700.1800808
 21
247.87435929
 31
0.0
  0
LINE
  5
36A
330
2
100
AcDbEntity
  8
YKK_13
  6
YHIDDEN_1
100
AcDbLine
 10
697.8800808
 20
247.87435929
 30
0.0
 11
697.8800808
 21
221.77435929
 31
0.0
  0
LINE
  5
36B
330
2
100
AcDbEntity
  8
YKK_11
  6
ByBlock
 62
     0
100
AcDbLine
 10
666.68008122
 20
216.07435956
 30
0.0
 11
676.68008122
 21
216.07435956
 31
0.0
  0
LINE
  5
36C
330
2
100
AcDbEntity
  8
YKK_11
  6
ByBlock
 62
     0
100
AcDbLine
 10
676.68008122
 20
217.27435956
 30
0.0
 11
666.68242522
 21
217.27435956
 31
0.0
  0
LINE
  5
36D
330
2
100
AcDbEntity
  8
YKK_13
  6
Continuous
100
AcDbLine
 10
676.6800808
 20
222.57435929
 30
0.0
 11
672.6800808
 21
222.57435929
 31
0.0
  0
LINE
  5
36E
330
2
100
AcDbEntity
  8
YKK_D
100
AcDbLine
 10
666.68008817
 20
194.87436344
 30
0.0
 11
676.68008817
 21
194.87436344
 31
0.0
  0
LINE
  5
36F
330
2
100
AcDbEntity
  8
YKK_D
100
AcDbLine
 10
666.68008817
 20
194.87434818
 30
0.0
 11
654.55573252
 21
194.87434818
 31
0.0
  0
LINE
  5
370
330
2
100
AcDbEntity
  8
YKK_D
100
AcDbLine
 10
666.68008817
 20
194.87434818
 30
0.0
 11
660.61791034
 21
198.37434818
 31
0.0
  0
LINE
  5
371
330
2
100
AcDbEntity
  8
YKK_11
  6
ByBlock
 62
     0
100
AcDbLine
 10
662.68008116
 20
220.07435895
 30
0.0
 11
671.48008116
 21
220.07435895
 31
0.0
  0
LINE
  5
372
330
2
100
AcDbEntity
  8
YKK_11
  6
ByBlock
 62
     0
100
AcDbLine
 10
671.48008116
 20
221.27435895
 30
0.0
 11
662.68008116
 21
221.27435895
 31
0.0
  0
LINE
  5
373
330
2
100
AcDbEntity
  8
YKK_11
  6
ByBlock
 62
     0
100
AcDbLine
 10
666.68008122
 20
217.27435956
 30
0.0
 11
666.68008122
 21
216.07435956
 31
0.0
  0
LINE
  5
374
330
2
100
AcDbEntity
  8
YKK_11
  6
ByBlock
 62
     0
100
AcDbLine
 10
662.68008116
 20
221.27435895
 30
0.0
 11
662.68008116
 21
220.07435895
 31
0.0
  0
ARC
  5
375
330
2
100
AcDbEntity
  8
YKK_11
  6
ByBlock
 62
     0
100
AcDbCircle
 10
671.48008116
 20
221.27435895
 30
0.0
 40
1.199999999999999
100
AcDbArc
 50
270.00000112
 51
0.0
  0
ARC
  5
376
330
2
100
AcDbEntity
  8
YKK_11
  6
ByBlock
 62
     0
100
AcDbCircle
 10
676.68008122
 20
217.27435956
 30
0.0
 40
1.199999999999999
100
AcDbArc
 50
270.00000112
 51
0.0
  0
LINE
  5
377
330
2
100
AcDbEntity
  8
YKK_13
  6
Continuous
100
AcDbLine
 10
676.6800808
 20
216.07435929
 30
0.0
 11
676.6800808
 21
214.87435929
 31
0.0
  0
LINE
  5
378
330
2
100
AcDbEntity
  8
YKK_D
100
AcDbLine
 10
676.68008817
 20
194.87436344
 30
0.0
 11
687.80006375
 21
194.87436344
 31
0.0
  0
TEXT
  5
379
330
2
100
AcDbEntity
  8
YKK_D
100
AcDbText
 10
679.97854091
 20
195.87436344
 30
0.0
 40
6.0
  1
10
 41
0.8
100
AcDbText
1001
ACAD
1000
MTEXTBEGIN
1070
    73
1070
     1
1070
    44
1040
1.0
1070
    74
1070
     0
1000
MTEXTEND
  0
LWPOLYLINE
  5
37A
330
2
100
AcDbEntity
  8
YKK_D
  6
ByBlock
100
AcDbPolyline
 90
        2
 70
     1
 43
0.85
 10
676.57383817
 20
194.87436344
 42
1.0
 10
676.78633817
 20
194.87436344
 42
1.0
  0
LINE
  5
37B
330
2
100
AcDbEntity
  8
YKK_13
  6
YHIDDEN_1
100
AcDbLine
 10
681.0800808
 20
221.17435929
 30
0.0
 11
697.2800808
 21
221.17435929
 31
0.0
  0
LINE
  5
37C
330
2
100
AcDbEntity
  8
YKK_13
  6
YHIDDEN_1
100
AcDbLine
 10
680.4800808
 20
218.87435929
 30
0.0
 11
697.8800808
 21
218.87435929
 31
0.0
  0
LINE
  5
37D
330
2
100
AcDbEntity
  8
YKK_13
  6
YHIDDEN_1
100
AcDbLine
 10
678.1800808
 20
221.17435929
 30
0.0
 11
678.1800808
 21
231.07435929
 31
0.0
  0
LINE
  5
37E
330
2
100
AcDbEntity
  8
YKK_13
  6
YHIDDEN_1
100
AcDbLine
 10
680.4800808
 20
231.07435929
 30
0.0
 11
680.4800808
 21
221.77435929
 31
0.0
  0
ARC
  5
37F
330
2
100
AcDbEntity
  8
YKK_13
  6
YHIDDEN_1
100
AcDbCircle
 10
680.4800808
 20
221.17435929
 30
0.0
 40
2.299999999999998
100
AcDbArc
 50
180.0
 51
270.0
  0
ARC
  5
380
330
2
100
AcDbEntity
  8
YKK_13
  6
YHIDDEN_1
100
AcDbCircle
 10
681.0800808
 20
221.77435929
 30
0.0
 40
0.6
100
AcDbArc
 50
180.0
 51
270.0
  0
LINE
  5
381
330
2
100
AcDbEntity
  8
YKK_13
  6
YHIDDEN_1
100
AcDbLine
 10
678.1800808
 20
231.07435929
 30
0.0
 11
680.4800808
 21
231.07435929
 31
0.0
  0
ARC
  5
382
330
2
100
AcDbEntity
  8
YKK_13
  6
YHIDDEN_1
100
AcDbCircle
 10
697.8800808
 20
221.17435929
 30
0.0
 40
2.299999999999998
100
AcDbArc
 50
270.0
 51
0.0
  0
ARC
  5
383
330
2
100
AcDbEntity
  8
YKK_13
  6
YHIDDEN_1
100
AcDbCircle
 10
697.2800808
 20
221.77435929
 30
0.0
 40
0.6
100
AcDbArc
 50
270.0
 51
0.0
  0
LINE
  5
384
330
2
100
AcDbEntity
  8
YKK_11
  6
ByBlock
 62
     0
100
AcDbLine
 10
700.48008122
 20
227.87435956
 30
0.0
 11
701.68008122
 21
227.87435956
 31
0.0
  0
LINE
  5
385
330
2
100
AcDbEntity
  8
YKK_13
  6
YCENTER_1
100
AcDbLine
 10
681.6800808
 20
257.57435929
 30
0.0
 11
667.6800808
 21
257.57435929
 31
0.0
  0
CIRCLE
  5
386
330
2
100
AcDbEntity
  8
YKK_13
  6
Continuous
100
AcDbCircle
 10
674.6800808
 20
257.57435929
 30
0.0
 40
5.0
  0
LINE
  5
387
330
2
100
AcDbEntity
  8
YKK_D
100
AcDbLine
 10
676.68008817
 20
277.57436038
 30
0.0
 11
672.68008817
 21
277.57436038
 31
0.0
  0
ARC
  5
388
330
2
100
AcDbEntity
  8
YKK_11
  6
ByBlock
 62
     0
100
AcDbCircle
 10
671.48008116
 20
243.87435895
 30
0.0
 40
1.199999999999999
100
AcDbArc
 50
0.0
 51
89.99998128
  0
ARC
  5
389
330
2
100
AcDbEntity
  8
YKK_13
  6
Continuous
100
AcDbCircle
 10
671.6800808
 20
252.37820687
 30
0.0
 40
1.0
100
AcDbArc
 50
0.0
 51
60.0
  0
LINE
  5
38A
330
2
100
AcDbEntity
  8
YKK_D
100
AcDbLine
 10
672.68008817
 20
261.5743375
 30
0.0
 11
672.68008817
 21
278.57436038
 31
0.0
  0
LWPOLYLINE
  5
38B
330
2
100
AcDbEntity
  8
YKK_D
  6
ByBlock
100
AcDbPolyline
 90
        2
 70
     1
 43
0.85
 10
672.78633817
 20
277.57436038
 42
1.0
 10
672.57383817
 20
277.57436038
 42
1.0
  0
LWPOLYLINE
  5
38C
330
2
100
AcDbEntity
  8
YKK_D
  6
ByBlock
100
AcDbPolyline
 90
        2
 70
     1
 43
0.85
 10
672.57383817
 20
277.57436038
 42
1.0
 10
672.78633817
 20
277.57436038
 42
1.0
  0
LINE
  5
38D
330
2
100
AcDbEntity
  8
YKK_D
100
AcDbLine
 10
701.68008817
 20
253.07433797
 30
0.0
 11
701.68008817
 21
278.57436038
 31
0.0
  0
LINE
  5
38E
330
2
100
AcDbEntity
  8
YKK_11
  6
ByBlock
 62
     0
100
AcDbLine
 10
700.48008122
 20
249.07435956
 30
0.0
 11
677.88008122
 21
249.07435956
 31
0.0
  0
LINE
  5
38F
330
2
100
AcDbEntity
  8
YKK_11
  6
ByBlock
 62
     0
100
AcDbLine
 10
677.88008122
 20
247.87435956
 30
0.0
 11
700.48008122
 21
247.87435956
 31
0.0
  0
ARC
  5
390
330
2
100
AcDbEntity
  8
YKK_11
  6
ByBlock
 62
     0
100
AcDbCircle
 10
677.88008122
 20
247.87435956
 30
0.0
 40
1.199999999999999
100
AcDbArc
 50
89.99998128
 51
180.00001985
  0
ARC
  5
391
330
2
100
AcDbEntity
  8
YKK_13
  6
Continuous
100
AcDbCircle
 10
677.6800808
 20
252.37820687
 30
0.0
 40
1.0
100
AcDbArc
 50
120.0
 51
180.0
  0
ARC
  5
392
330
2
100
AcDbEntity
  8
YKK_11
  6
ByBlock
 62
     0
100
AcDbCircle
 10
700.48008122
 20
247.87435956
 30
0.0
 40
1.199999999999999
100
AcDbArc
 50
0.0
 51
89.99998128
  0
LINE
  5
393
330
2
100
AcDbEntity
  8
YKK_13
  6
YHIDDEN_1
100
AcDbLine
 10
697.8800808
 20
247.87435929
 30
0.0
 11
700.1800808
 21
247.87435929
 31
0.0
  0
LINE
  5
394
330
2
100
AcDbEntity
  8
YKK_D
100
AcDbLine
 10
701.68008817
 20
277.57436038
 30
0.0
 11
676.68008817
 21
277.57436038
 31
0.0
  0
LINE
  5
395
330
2
100
AcDbEntity
  8
YKK_D
100
AcDbLine
 10
676.68008817
 20
261.5743375
 30
0.0
 11
676.68008817
 21
278.57436038
 31
0.0
  0
LINE
  5
396
330
2
100
AcDbEntity
  8
YKK_D
100
AcDbLine
 10
676.68008817
 20
268.07434894
 30
0.0
 11
676.68008817
 21
278.57436038
 31
0.0
  0
LWPOLYLINE
  5
397
330
2
100
AcDbEntity
  8
YKK_D
  6
ByBlock
100
AcDbPolyline
 90
        2
 70
     1
 43
0.85
 10
676.57383817
 20
277.57436038
 42
1.0
 10
676.78633817
 20
277.57436038
 42
1.0
  0
LWPOLYLINE
  5
398
330
2
100
AcDbEntity
  8
YKK_D
  6
ByBlock
100
AcDbPolyline
 90
        2
 70
     1
 43
0.85
 10
676.78633817
 20
277.57436038
 42
1.0
 10
676.57383817
 20
277.57436038
 42
1.0
  0
LWPOLYLINE
  5
399
330
2
100
AcDbEntity
  8
YKK_D
  6
ByBlock
100
AcDbPolyline
 90
        2
 70
     1
 43
0.85
 10
701.57383817
 20
277.57436038
 42
1.0
 10
701.78633817
 20
277.57436038
 42
1.0
  0
LINE
  5
39A
330
2
100
AcDbEntity
  8
YKK_A1
  6
YCENTER_1
100
AcDbLine
 10
640.40607751
 20
444.41382582
 30
0.0
 11
645.91678743
 21
444.41382582
 31
0.0
  0
LINE
  5
39C
330
2
100
AcDbEntity
  8
YKK_A1
  6
Continuous
100
AcDbLine
 10
668.83107793
 20
493.91382655
 30
0.0
 11
610.33107706
 21
493.91382655
 31
0.0
  0
LINE
  5
39D
330
2
100
AcDbEntity
  8
YKK_A1
  6
Continuous
100
AcDbLine
 10
610.33107706
 20
395.41382509
 30
0.0
 11
668.83107793
 21
395.41382509
 31
0.0
  0
LINE
  5
39E
330
2
100
AcDbEntity
  8
YKK_A1
  6
Continuous
100
AcDbLine
 10
611.58107708
 20
396.6638251
 30
0.0
 11
667.58107792
 21
396.6638251
 31
0.0
  0
LINE
  5
39F
330
2
100
AcDbEntity
  8
YKK_A1
  6
Continuous
100
AcDbLine
 10
667.58107792
 20
492.66382653
 30
0.0
 11
611.58107708
 21
492.66382653
 31
0.0
  0
LINE
  5
3A0
330
2
100
AcDbEntity
  8
YKK_A1
  6
Continuous
100
AcDbLine
 10
640.40607751
 20
396.91382511
 30
0.0
 11
667.38107791
 21
396.91382511
 31
0.0
  0
LINE
  5
3A1
330
2
100
AcDbEntity
  8
YKK_A1
  6
Continuous
100
AcDbLine
 10
640.40607751
 20
492.51382653
 30
0.0
 11
667.38107791
 21
492.51382653
 31
0.0
  0
LINE
  5
3A2
330
2
100
AcDbEntity
  8
YKK_A1
  6
YCENTER_1
100
AcDbLine
 10
640.40607751
 20
492.51382653
 30
0.0
 11
667.38107791
 21
444.71382582
 31
0.0
  0
LINE
  5
3A3
330
2
100
AcDbEntity
  8
YKK_A1
  6
YCENTER_1
100
AcDbLine
 10
640.40607751
 20
396.91382511
 30
0.0
 11
667.38107791
 21
444.71382582
 31
0.0
  0
LINE
  5
3A9
330
2
100
AcDbEntity
  8
YKK_A1
  6
Continuous
100
AcDbLine
 10
610.33107706
 20
493.91382655
 30
0.0
 11
610.33107706
 21
395.41382509
 31
0.0
  0
LINE
  5
3AA
330
2
100
AcDbEntity
  8
YKK_A1
  6
Continuous
100
AcDbLine
 10
611.78107708
 20
446.61382585
 30
0.0
 11
611.78107708
 21
483.7138264
 31
0.0
  0
LINE
  5
3AB
330
2
100
AcDbEntity
  8
YKK_A1
  6
Continuous
100
AcDbLine
 10
611.58107708
 20
446.61382585
 30
0.0
 11
611.58107708
 21
483.7138264
 31
0.0
  0
LINE
  5
3AC
330
2
100
AcDbEntity
  8
YKK_A1
  6
Continuous
100
AcDbLine
 10
640.40607751
 20
492.51382653
 30
0.0
 11
640.40607751
 21
396.91382511
 31
0.0
  0
LINE
  5
3AD
330
2
100
AcDbEntity
  8
YKK_A1
  6
Continuous
100
AcDbLine
 10
640.20607751
 20
492.66382653
 30
0.0
 11
640.20607751
 21
396.6638251
 31
0.0
  0
LINE
  5
3AE
330
2
100
AcDbEntity
  8
YKK_A1
  6
Continuous
100
AcDbLine
 10
638.75607749
 20
492.51382653
 30
0.0
 11
638.75607749
 21
396.91382511
 31
0.0
  0
LINE
  5
3AF
330
2
100
AcDbEntity
  8
YKK_A1
  6
Continuous
100
AcDbLine
 10
638.95607749
 20
492.66382653
 30
0.0
 11
638.95607749
 21
396.6638251
 31
0.0
  0
LINE
  5
3B0
330
2
100
AcDbEntity
  8
YKK_A1
  6
YCENTER_1
100
AcDbLine
 10
638.75607749
 20
492.51382653
 30
0.0
 11
611.78107708
 21
444.71382582
 31
0.0
  0
LINE
  5
3B1
330
2
100
AcDbEntity
  8
YKK_A1
  6
Continuous
100
AcDbLine
 10
526.63928373
 20
395.41382509
 30
0.0
 11
526.63928373
 21
493.91382655
 31
0.0
  0
LINE
  5
3B2
330
2
100
AcDbEntity
  8
YKK_A1
  6
Continuous
100
AcDbLine
 10
468.13928286
 20
493.91382655
 30
0.0
 11
468.13928286
 21
395.41382509
 31
0.0
  0
LINE
  5
3B3
330
2
100
AcDbEntity
  8
YKK_A1
  6
Continuous
100
AcDbLine
 10
525.18928371
 20
446.61382585
 30
0.0
 11
525.18928371
 21
483.7138264
 31
0.0
  0
LINE
  5
3B4
330
2
100
AcDbEntity
  8
YKK_A1
  6
Continuous
100
AcDbLine
 10
525.38928371
 20
446.61382585
 30
0.0
 11
525.38928371
 21
483.7138264
 31
0.0
  0
LINE
  5
3B5
330
2
100
AcDbEntity
  8
YKK_A1
  6
Continuous
100
AcDbLine
 10
469.58928288
 20
446.61382585
 30
0.0
 11
469.58928288
 21
483.7138264
 31
0.0
  0
LINE
  5
3B6
330
2
100
AcDbEntity
  8
YKK_A1
  6
Continuous
100
AcDbLine
 10
469.38928288
 20
446.61382585
 30
0.0
 11
469.38928288
 21
483.7138264
 31
0.0
  0
LINE
  5
3B7
330
2
100
AcDbEntity
  8
YKK_A1
  6
Continuous
100
AcDbLine
 10
498.2142833
 20
492.51382653
 30
0.0
 11
498.2142833
 21
396.91382511
 31
0.0
  0
LINE
  5
3B8
330
2
100
AcDbEntity
  8
YKK_A1
  6
Continuous
100
AcDbLine
 10
498.0142833
 20
492.66382653
 30
0.0
 11
498.0142833
 21
396.6638251
 31
0.0
  0
LINE
  5
3B9
330
2
100
AcDbEntity
  8
YKK_A1
  6
Continuous
100
AcDbLine
 10
496.56428328
 20
492.51382653
 30
0.0
 11
496.56428328
 21
396.91382511
 31
0.0
  0
LINE
  5
3BA
330
2
100
AcDbEntity
  8
YKK_A1
  6
Continuous
100
AcDbLine
 10
496.76428328
 20
492.66382653
 30
0.0
 11
496.76428328
 21
396.6638251
 31
0.0
  0
LINE
  5
3BB
330
2
100
AcDbEntity
  8
YKK_A1
  6
YCENTER_1
100
AcDbLine
 10
498.2142833
 20
492.51382653
 30
0.0
 11
525.18928371
 21
444.71382582
 31
0.0
  0
LINE
  5
3BC
330
2
100
AcDbEntity
  8
YKK_A1
  6
YCENTER_1
100
AcDbLine
 10
496.56428328
 20
492.51382653
 30
0.0
 11
469.58928288
 21
444.71382582
 31
0.0
  0
LINE
  5
3BF
330
2
100
AcDbEntity
  8
YKK_A1
  6
Continuous
100
AcDbLine
 10
468.13928286
 20
395.41382509
 30
0.0
 11
526.63928373
 21
395.41382509
 31
0.0
  0
LINE
  5
3C0
330
2
100
AcDbEntity
  8
YKK_A1
  6
Continuous
100
AcDbLine
 10
469.38928288
 20
396.6638251
 30
0.0
 11
525.38928371
 21
396.6638251
 31
0.0
  0
LINE
  5
3C1
330
2
100
AcDbEntity
  8
YKK_A1
  6
Continuous
100
AcDbLine
 10
498.2142833
 20
396.91382511
 30
0.0
 11
525.18928371
 21
396.91382511
 31
0.0
  0
LINE
  5
3C2
330
2
100
AcDbEntity
  8
YKK_A1
  6
YCENTER_1
100
AcDbLine
 10
498.2142833
 20
396.91382511
 30
0.0
 11
525.18928371
 21
444.71382582
 31
0.0
  0
LINE
  5
3DF
330
2
100
AcDbEntity
  8
YKK_A1
  6
Continuous
100
AcDbLine
 10
469.38928288
 20
442.81382579
 30
0.0
 11
469.38928288
 21
405.71382524
 31
0.0
  0
LINE
  5
3E0
330
2
100
AcDbEntity
  8
YKK_A1
  6
Continuous
100
AcDbLine
 10
469.58928288
 20
442.81382579
 30
0.0
 11
469.58928288
 21
405.71382524
 31
0.0
  0
LINE
  5
3E1
330
2
100
AcDbEntity
  8
YKK_A1
  6
YCENTER_1
100
AcDbLine
 10
496.56428328
 20
396.91382511
 30
0.0
 11
469.58928288
 21
444.71382582
 31
0.0
  0
LINE
  5
3E2
330
2
100
AcDbEntity
  8
YKK_A1
  6
Continuous
100
AcDbLine
 10
496.56428328
 20
396.91382511
 30
0.0
 11
469.58928288
 21
396.91382511
 31
0.0
  0
LINE
  5
3F8
330
2
100
AcDbEntity
  8
YKK_A1
  6
Continuous
100
AcDbLine
 10
469.23928287
 20
401.91382518
 30
0.0
 11
469.23928287
 21
405.71382524
 31
0.0
  0
LINE
  5
3F9
330
2
100
AcDbEntity
  8
YKK_A1
  6
Continuous
100
AcDbLine
 10
469.73928288
 20
405.71382524
 30
0.0
 11
469.73928288
 21
401.91382518
 31
0.0
  0
LINE
  5
3FA
330
2
100
AcDbEntity
  8
YKK_A1
  6
Continuous
100
AcDbLine
 10
469.38928288
 20
401.91382518
 30
0.0
 11
469.38928288
 21
395.41382509
 31
0.0
  0
LINE
  5
3FB
330
2
100
AcDbEntity
  8
YKK_A1
  6
Continuous
100
AcDbLine
 10
469.58928288
 20
396.91382511
 30
0.0
 11
469.58928288
 21
401.91382518
 31
0.0
  0
LINE
  5
3FC
330
2
100
AcDbEntity
  8
YKK_A1
  6
Continuous
100
AcDbLine
 10
469.73928288
 20
401.91382518
 30
0.0
 11
469.23928287
 21
401.91382518
 31
0.0
  0
LINE
  5
3FD
330
2
100
AcDbEntity
  8
YKK_A1
  6
Continuous
100
AcDbLine
 10
469.73928288
 20
403.81382521
 30
0.0
 11
469.23928287
 21
403.81382521
 31
0.0
  0
LINE
  5
3FE
330
2
100
AcDbEntity
  8
YKK_A1
  6
Continuous
100
AcDbLine
 10
469.23928287
 20
405.71382524
 30
0.0
 11
469.73928288
 21
405.71382524
 31
0.0
  0
LINE
  5
41E
330
2
100
AcDbEntity
  8
YKK_A1
  6
Continuous
100
AcDbLine
 10
469.73928288
 20
444.71382582
 30
0.0
 11
469.23928287
 21
444.71382582
 31
0.0
  0
LINE
  5
41F
330
2
100
AcDbEntity
  8
YKK_A1
  6
Continuous
100
AcDbLine
 10
469.23928287
 20
442.81382579
 30
0.0
 11
469.23928287
 21
446.61382585
 31
0.0
  0
LINE
  5
420
330
2
100
AcDbEntity
  8
YKK_A1
  6
Continuous
100
AcDbLine
 10
469.23928287
 20
446.61382585
 30
0.0
 11
469.73928288
 21
446.61382585
 31
0.0
  0
LINE
  5
421
330
2
100
AcDbEntity
  8
YKK_A1
  6
Continuous
100
AcDbLine
 10
469.73928288
 20
446.61382585
 30
0.0
 11
469.73928288
 21
442.81382579
 31
0.0
  0
LINE
  5
422
330
2
100
AcDbEntity
  8
YKK_A1
  6
Continuous
100
AcDbLine
 10
469.73928288
 20
442.81382579
 30
0.0
 11
469.23928287
 21
442.81382579
 31
0.0
  0
LINE
  5
423
330
2
100
AcDbEntity
  8
YKK_A1
  6
YCENTER_1
100
AcDbLine
 10
500.96428335
 20
441.76382581
 30
0.0
 11
500.96428335
 21
447.06382583
 31
0.0
  0
LINE
  5
424
330
2
100
AcDbEntity
  8
YKK_A1
  6
YCENTER_1
100
AcDbLine
 10
498.2142833
 20
444.41382582
 30
0.0
 11
503.72499322
 21
444.41382582
 31
0.0
  0
LINE
  5
425
330
2
100
AcDbEntity
  8
YKK_A1
  6
Continuous
100
AcDbLine
 10
501.56428335
 20
441.66382577
 30
0.0
 11
501.56428335
 21
447.16382586
 31
0.0
  0
LINE
  5
426
330
2
100
AcDbEntity
  8
YKK_A1
  6
Continuous
100
AcDbLine
 10
500.36428334
 20
441.66382577
 30
0.0
 11
500.36428334
 21
447.16382586
 31
0.0
  0
LINE
  5
427
330
2
100
AcDbEntity
  8
YKK_A1
  6
Continuous
100
AcDbLine
 10
501.51428335
 20
441.61382577
 30
0.0
 11
500.41428334
 21
441.61382577
 31
0.0
  0
LINE
  5
428
330
2
100
AcDbEntity
  8
YKK_A1
  6
Continuous
100
AcDbLine
 10
501.51428335
 20
447.21382586
 30
0.0
 11
500.41428334
 21
447.21382586
 31
0.0
  0
LINE
  5
429
330
2
100
AcDbEntity
  8
YKK_A1
  6
Continuous
100
AcDbLine
 10
501.36428335
 20
446.56382585
 30
0.0
 11
500.56428334
 21
446.56382585
 31
0.0
  0
LINE
  5
42A
330
2
100
AcDbEntity
  8
YKK_A1
  6
Continuous
100
AcDbLine
 10
501.36428335
 20
446.56382585
 30
0.0
 11
501.36428335
 21
443.5638258
 31
0.0
  0
LINE
  5
42B
330
2
100
AcDbEntity
  8
YKK_A1
  6
Continuous
100
AcDbLine
 10
500.56428334
 20
446.56382585
 30
0.0
 11
500.56428334
 21
443.5638258
 31
0.0
  0
LINE
  5
42C
330
2
100
AcDbEntity
  8
YKK_A1
  6
Continuous
100
AcDbLine
 10
500.28928334
 20
441.63882577
 30
0.0
 11
500.28928334
 21
447.18882586
 31
0.0
  0
LINE
  5
42D
330
2
100
AcDbEntity
  8
YKK_A1
  6
Continuous
100
AcDbLine
 10
500.38928334
 20
447.28882586
 30
0.0
 11
501.53928335
 21
447.28882586
 31
0.0
  0
LINE
  5
42E
330
2
100
AcDbEntity
  8
YKK_A1
  6
Continuous
100
AcDbLine
 10
501.63928336
 20
447.18882586
 30
0.0
 11
501.63928336
 21
441.63882577
 31
0.0
  0
LINE
  5
42F
330
2
100
AcDbEntity
  8
YKK_A1
  6
Continuous
100
AcDbLine
 10
501.53928335
 20
441.53882577
 30
0.0
 11
500.38928334
 21
441.53882577
 31
0.0
  0
LINE
  5
430
330
2
100
AcDbEntity
  8
YKK_A1
  6
Continuous
100
AcDbLine
 10
500.78928334
 20
442.96382579
 30
0.0
 11
501.13928335
 21
442.96382579
 31
0.0
  0
LINE
  5
431
330
2
100
AcDbEntity
  8
YKK_A1
  6
Continuous
100
AcDbLine
 10
501.13928335
 20
442.51382579
 30
0.0
 11
500.78928334
 21
442.51382579
 31
0.0
  0
LINE
  5
432
330
2
100
AcDbEntity
  8
YKK_A1
  6
Continuous
100
AcDbLine
 10
500.78928334
 20
443.0138258
 30
0.0
 11
501.13928335
 21
443.0138258
 31
0.0
  0
LINE
  5
433
330
2
100
AcDbEntity
  8
YKK_A1
  6
Continuous
100
AcDbLine
 10
501.13928335
 20
442.46382579
 30
0.0
 11
500.78928334
 21
442.46382579
 31
0.0
  0
CIRCLE
  5
434
330
2
100
AcDbEntity
  8
YKK_A1
  6
Continuous
100
AcDbCircle
 10
500.96428335
 20
442.25132578
 30
0.0
 40
0.0875000013038516
  0
ARC
  5
435
330
2
100
AcDbEntity
  8
YKK_A1
  6
Continuous
100
AcDbCircle
 10
501.51428335
 20
447.16382586
 30
0.0
 40
0.0500000007450581
100
AcDbArc
 50
0.0
 51
90.0
  0
ARC
  5
436
330
2
100
AcDbEntity
  8
YKK_A1
  6
Continuous
100
AcDbCircle
 10
501.51428335
 20
441.66382577
 30
0.0
 40
0.0500000007450581
100
AcDbArc
 50
270.0
 51
0.0
  0
ARC
  5
437
330
2
100
AcDbEntity
  8
YKK_A1
  6
Continuous
100
AcDbCircle
 10
500.41428334
 20
441.66382577
 30
0.0
 40
0.0500000007450581
100
AcDbArc
 50
180.0
 51
270.0
  0
ARC
  5
438
330
2
100
AcDbEntity
  8
YKK_A1
  6
Continuous
100
AcDbCircle
 10
500.41428334
 20
447.16382586
 30
0.0
 40
0.0500000007450581
100
AcDbArc
 50
90.0
 51
180.0
  0
ARC
  5
439
330
2
100
AcDbEntity
  8
YKK_A1
  6
Continuous
100
AcDbCircle
 10
501.53928335
 20
447.18882586
 30
0.0
 40
0.1000000014901161
100
AcDbArc
 50
0.0
 51
90.0
  0
ARC
  5
43A
330
2
100
AcDbEntity
  8
YKK_A1
  6
Continuous
100
AcDbCircle
 10
501.53928335
 20
441.63882577
 30
0.0
 40
0.1000000014901161
100
AcDbArc
 50
270.0
 51
0.0
  0
ARC
  5
43B
330
2
100
AcDbEntity
  8
YKK_A1
  6
Continuous
100
AcDbCircle
 10
500.38928334
 20
441.63882577
 30
0.0
 40
0.1000000014901161
100
AcDbArc
 50
180.0
 51
270.0
  0
ARC
  5
43C
330
2
100
AcDbEntity
  8
YKK_A1
  6
Continuous
100
AcDbCircle
 10
500.38928334
 20
447.18882586
 30
0.0
 40
0.1000000014901161
100
AcDbArc
 50
90.0
 51
180.0
  0
ARC
  5
43D
330
2
100
AcDbEntity
  8
YKK_A1
  6
Continuous
100
AcDbCircle
 10
500.78928334
 20
442.73882579
 30
0.0
 40
0.2250000033527612
100
AcDbArc
 50
90.0
 51
270.0
  0
ARC
  5
43E
330
2
100
AcDbEntity
  8
YKK_A1
  6
Continuous
100
AcDbCircle
 10
501.13928335
 20
442.73882579
 30
0.0
 40
0.2250000033527612
100
AcDbArc
 50
270.0
 51
90.0
  0
ARC
  5
43F
330
2
100
AcDbEntity
  8
YKK_A1
  6
Continuous
100
AcDbCircle
 10
500.78928334
 20
442.73882579
 30
0.0
 40
0.2750000040978193
100
AcDbArc
 50
90.0
 51
270.0
  0
ARC
  5
440
330
2
100
AcDbEntity
  8
YKK_A1
  6
Continuous
100
AcDbCircle
 10
501.13928335
 20
442.73882579
 30
0.0
 40
0.2750000040978193
100
AcDbArc
 50
270.0
 51
90.0
  0
ARC
  5
441
330
2
100
AcDbEntity
  8
YKK_A1
  6
Continuous
100
AcDbCircle
 10
500.96428335
 20
443.5638258
 30
0.0
 40
0.4000000059604645
100
AcDbArc
 50
180.0
 51
0.0
  0
LINE
  5
455
330
2
100
AcDbEntity
  8
YKK_A1
  6
Continuous
100
AcDbLine
 10
525.18928371
 20
442.81382579
 30
0.0
 11
525.18928371
 21
405.71382524
 31
0.0
  0
LINE
  5
456
330
2
100
AcDbEntity
  8
YKK_A1
  6
Continuous
100
AcDbLine
 10
525.38928371
 20
442.81382579
 30
0.0
 11
525.38928371
 21
405.71382524
 31
0.0
  0
LINE
  5
46E
330
2
100
AcDbEntity
  8
YKK_A1
  6
Continuous
100
AcDbLine
 10
525.53928371
 20
401.91382518
 30
0.0
 11
525.53928371
 21
405.71382524
 31
0.0
  0
LINE
  5
46F
330
2
100
AcDbEntity
  8
YKK_A1
  6
Continuous
100
AcDbLine
 10
525.0392837
 20
405.71382524
 30
0.0
 11
525.0392837
 21
401.91382518
 31
0.0
  0
LINE
  5
470
330
2
100
AcDbEntity
  8
YKK_A1
  6
Continuous
100
AcDbLine
 10
525.38928371
 20
395.41382509
 30
0.0
 11
525.38928371
 21
401.91382518
 31
0.0
  0
LINE
  5
471
330
2
100
AcDbEntity
  8
YKK_A1
  6
Continuous
100
AcDbLine
 10
525.18928371
 20
396.91382511
 30
0.0
 11
525.18928371
 21
401.91382518
 31
0.0
  0
LINE
  5
472
330
2
100
AcDbEntity
  8
YKK_A1
  6
Continuous
100
AcDbLine
 10
525.0392837
 20
401.91382518
 30
0.0
 11
525.53928371
 21
401.91382518
 31
0.0
  0
LINE
  5
473
330
2
100
AcDbEntity
  8
YKK_A1
  6
Continuous
100
AcDbLine
 10
525.0392837
 20
403.81382521
 30
0.0
 11
525.53928371
 21
403.81382521
 31
0.0
  0
LINE
  5
474
330
2
100
AcDbEntity
  8
YKK_A1
  6
Continuous
100
AcDbLine
 10
525.53928371
 20
405.71382524
 30
0.0
 11
525.0392837
 21
405.71382524
 31
0.0
  0
LINE
  5
48D
330
2
100
AcDbEntity
  8
YKK_A1
  6
Continuous
100
AcDbLine
 10
525.0392837
 20
444.71382582
 30
0.0
 11
525.53928371
 21
444.71382582
 31
0.0
  0
LINE
  5
48E
330
2
100
AcDbEntity
  8
YKK_A1
  6
Continuous
100
AcDbLine
 10
525.53928371
 20
442.81382579
 30
0.0
 11
525.53928371
 21
446.61382585
 31
0.0
  0
LINE
  5
48F
330
2
100
AcDbEntity
  8
YKK_A1
  6
Continuous
100
AcDbLine
 10
525.53928371
 20
446.61382585
 30
0.0
 11
525.0392837
 21
446.61382585
 31
0.0
  0
LINE
  5
490
330
2
100
AcDbEntity
  8
YKK_A1
  6
Continuous
100
AcDbLine
 10
525.0392837
 20
446.61382585
 30
0.0
 11
525.0392837
 21
442.81382579
 31
0.0
  0
LINE
  5
491
330
2
100
AcDbEntity
  8
YKK_A1
  6
Continuous
100
AcDbLine
 10
525.0392837
 20
442.81382579
 30
0.0
 11
525.53928371
 21
442.81382579
 31
0.0
  0
LINE
  5
492
330
2
100
AcDbEntity
  8
YKK_A1
  6
Continuous
100
AcDbLine
 10
611.58107708
 20
442.81382579
 30
0.0
 11
611.58107708
 21
405.71382524
 31
0.0
  0
LINE
  5
493
330
2
100
AcDbEntity
  8
YKK_A1
  6
Continuous
100
AcDbLine
 10
611.78107708
 20
442.81382579
 30
0.0
 11
611.78107708
 21
405.71382524
 31
0.0
  0
LINE
  5
494
330
2
100
AcDbEntity
  8
YKK_A1
  6
YCENTER_1
100
AcDbLine
 10
638.75607749
 20
396.91382511
 30
0.0
 11
611.78107708
 21
444.71382582
 31
0.0
  0
LINE
  5
496
330
2
100
AcDbEntity
  8
YKK_A1
  6
Continuous
100
AcDbLine
 10
638.75607749
 20
396.91382511
 30
0.0
 11
611.78107708
 21
396.91382511
 31
0.0
  0
LINE
  5
4AE
330
2
100
AcDbEntity
  8
YKK_A1
  6
Continuous
100
AcDbLine
 10
611.43107708
 20
401.91382518
 30
0.0
 11
611.43107708
 21
405.71382524
 31
0.0
  0
LINE
  5
4AF
330
2
100
AcDbEntity
  8
YKK_A1
  6
Continuous
100
AcDbLine
 10
611.93107709
 20
405.71382524
 30
0.0
 11
611.93107709
 21
401.91382518
 31
0.0
  0
LINE
  5
4B0
330
2
100
AcDbEntity
  8
YKK_A1
  6
Continuous
100
AcDbLine
 10
611.58107708
 20
401.91382518
 30
0.0
 11
611.58107708
 21
395.41382509
 31
0.0
  0
LINE
  5
4B1
330
2
100
AcDbEntity
  8
YKK_A1
  6
Continuous
100
AcDbLine
 10
611.78107708
 20
396.91382511
 30
0.0
 11
611.78107708
 21
401.91382518
 31
0.0
  0
LINE
  5
4B2
330
2
100
AcDbEntity
  8
YKK_A1
  6
Continuous
100
AcDbLine
 10
611.93107709
 20
401.91382518
 30
0.0
 11
611.43107708
 21
401.91382518
 31
0.0
  0
LINE
  5
4B3
330
2
100
AcDbEntity
  8
YKK_A1
  6
Continuous
100
AcDbLine
 10
611.93107709
 20
403.81382521
 30
0.0
 11
611.43107708
 21
403.81382521
 31
0.0
  0
LINE
  5
4B4
330
2
100
AcDbEntity
  8
YKK_A1
  6
Continuous
100
AcDbLine
 10
611.43107708
 20
405.71382524
 30
0.0
 11
611.93107709
 21
405.71382524
 31
0.0
  0
LINE
  5
4D5
330
2
100
AcDbEntity
  8
YKK_A1
  6
Continuous
100
AcDbLine
 10
611.93107709
 20
444.71382582
 30
0.0
 11
611.43107708
 21
444.71382582
 31
0.0
  0
LINE
  5
4D6
330
2
100
AcDbEntity
  8
YKK_A1
  6
Continuous
100
AcDbLine
 10
611.43107708
 20
442.81382579
 30
0.0
 11
611.43107708
 21
446.61382585
 31
0.0
  0
LINE
  5
4D7
330
2
100
AcDbEntity
  8
YKK_A1
  6
Continuous
100
AcDbLine
 10
611.43107708
 20
446.61382585
 30
0.0
 11
611.93107709
 21
446.61382585
 31
0.0
  0
LINE
  5
4D8
330
2
100
AcDbEntity
  8
YKK_A1
  6
Continuous
100
AcDbLine
 10
611.93107709
 20
446.61382585
 30
0.0
 11
611.93107709
 21
442.81382579
 31
0.0
  0
LINE
  5
4D9
330
2
100
AcDbEntity
  8
YKK_A1
  6
Continuous
100
AcDbLine
 10
611.93107709
 20
442.81382579
 30
0.0
 11
611.43107708
 21
442.81382579
 31
0.0
  0
LINE
  5
4DA
330
2
100
AcDbEntity
  8
YKK_A1
  6
YCENTER_1
100
AcDbLine
 10
638.65607745
 20
444.41382582
 30
0.0
 11
633.35607744
 21
444.41382582
 31
0.0
  0
LINE
  5
4DB
330
2
100
AcDbEntity
  8
YKK_A1
  6
YCENTER_1
100
AcDbLine
 10
636.00607744
 20
441.76382581
 30
0.0
 11
636.00607744
 21
447.06382583
 31
0.0
  0
LINE
  5
4DC
330
2
100
AcDbEntity
  8
YKK_A1
  6
Continuous
100
AcDbLine
 10
635.40607744
 20
441.66382577
 30
0.0
 11
635.40607744
 21
447.16382586
 31
0.0
  0
LINE
  5
4DD
330
2
100
AcDbEntity
  8
YKK_A1
  6
Continuous
100
AcDbLine
 10
636.60607745
 20
441.66382577
 30
0.0
 11
636.60607745
 21
447.16382586
 31
0.0
  0
LINE
  5
4DE
330
2
100
AcDbEntity
  8
YKK_A1
  6
Continuous
100
AcDbLine
 10
635.45607744
 20
441.61382577
 30
0.0
 11
636.55607745
 21
441.61382577
 31
0.0
  0
LINE
  5
4DF
330
2
100
AcDbEntity
  8
YKK_A1
  6
Continuous
100
AcDbLine
 10
635.45607744
 20
447.21382586
 30
0.0
 11
636.55607745
 21
447.21382586
 31
0.0
  0
LINE
  5
4E0
330
2
100
AcDbEntity
  8
YKK_A1
  6
Continuous
100
AcDbLine
 10
635.60607744
 20
446.56382585
 30
0.0
 11
636.40607745
 21
446.56382585
 31
0.0
  0
LINE
  5
4E1
330
2
100
AcDbEntity
  8
YKK_A1
  6
Continuous
100
AcDbLine
 10
635.60607744
 20
446.56382585
 30
0.0
 11
635.60607744
 21
443.5638258
 31
0.0
  0
LINE
  5
4E2
330
2
100
AcDbEntity
  8
YKK_A1
  6
Continuous
100
AcDbLine
 10
636.40607745
 20
446.56382585
 30
0.0
 11
636.40607745
 21
443.5638258
 31
0.0
  0
LINE
  5
4E3
330
2
100
AcDbEntity
  8
YKK_A1
  6
Continuous
100
AcDbLine
 10
636.68107745
 20
441.63882577
 30
0.0
 11
636.68107745
 21
447.18882586
 31
0.0
  0
LINE
  5
4E4
330
2
100
AcDbEntity
  8
YKK_A1
  6
Continuous
100
AcDbLine
 10
636.58107745
 20
447.28882586
 30
0.0
 11
635.43107744
 21
447.28882586
 31
0.0
  0
LINE
  5
4E5
330
2
100
AcDbEntity
  8
YKK_A1
  6
Continuous
100
AcDbLine
 10
635.33107743
 20
447.18882586
 30
0.0
 11
635.33107743
 21
441.63882577
 31
0.0
  0
LINE
  5
4E6
330
2
100
AcDbEntity
  8
YKK_A1
  6
Continuous
100
AcDbLine
 10
635.43107744
 20
441.53882577
 30
0.0
 11
636.58107745
 21
441.53882577
 31
0.0
  0
LINE
  5
4E7
330
2
100
AcDbEntity
  8
YKK_A1
  6
Continuous
100
AcDbLine
 10
636.18107745
 20
442.96382579
 30
0.0
 11
635.83107744
 21
442.96382579
 31
0.0
  0
LINE
  5
4E8
330
2
100
AcDbEntity
  8
YKK_A1
  6
Continuous
100
AcDbLine
 10
635.83107744
 20
442.51382579
 30
0.0
 11
636.18107745
 21
442.51382579
 31
0.0
  0
LINE
  5
4E9
330
2
100
AcDbEntity
  8
YKK_A1
  6
Continuous
100
AcDbLine
 10
636.18107745
 20
443.0138258
 30
0.0
 11
635.83107744
 21
443.0138258
 31
0.0
  0
LINE
  5
4EA
330
2
100
AcDbEntity
  8
YKK_A1
  6
Continuous
100
AcDbLine
 10
635.83107744
 20
442.46382579
 30
0.0
 11
636.18107745
 21
442.46382579
 31
0.0
  0
CIRCLE
  5
4EB
330
2
100
AcDbEntity
  8
YKK_A1
  6
Continuous
100
AcDbCircle
 10
636.00607744
 20
442.25132578
 30
0.0
 40
0.0875000013038516
  0
ARC
  5
4EC
330
2
100
AcDbEntity
  8
YKK_A1
  6
Continuous
100
AcDbCircle
 10
635.45607744
 20
447.16382586
 30
0.0
 40
0.0500000007450581
100
AcDbArc
 50
90.0
 51
180.0
  0
ARC
  5
4ED
330
2
100
AcDbEntity
  8
YKK_A1
  6
Continuous
100
AcDbCircle
 10
635.45607744
 20
441.66382577
 30
0.0
 40
0.0500000007450581
100
AcDbArc
 50
180.0
 51
270.0
  0
ARC
  5
4EE
330
2
100
AcDbEntity
  8
YKK_A1
  6
Continuous
100
AcDbCircle
 10
636.55607745
 20
441.66382577
 30
0.0
 40
0.0500000007450581
100
AcDbArc
 50
270.0
 51
0.0
  0
ARC
  5
4EF
330
2
100
AcDbEntity
  8
YKK_A1
  6
Continuous
100
AcDbCircle
 10
636.55607745
 20
447.16382586
 30
0.0
 40
0.0500000007450581
100
AcDbArc
 50
0.0
 51
90.0
  0
ARC
  5
4F0
330
2
100
AcDbEntity
  8
YKK_A1
  6
Continuous
100
AcDbCircle
 10
635.43107744
 20
447.18882586
 30
0.0
 40
0.1000000014901161
100
AcDbArc
 50
90.0
 51
180.0
  0
ARC
  5
4F1
330
2
100
AcDbEntity
  8
YKK_A1
  6
Continuous
100
AcDbCircle
 10
635.43107744
 20
441.63882577
 30
0.0
 40
0.1000000014901161
100
AcDbArc
 50
180.0
 51
270.0
  0
ARC
  5
4F2
330
2
100
AcDbEntity
  8
YKK_A1
  6
Continuous
100
AcDbCircle
 10
636.58107745
 20
441.63882577
 30
0.0
 40
0.1000000014901161
100
AcDbArc
 50
270.0
 51
0.0
  0
ARC
  5
4F3
330
2
100
AcDbEntity
  8
YKK_A1
  6
Continuous
100
AcDbCircle
 10
636.58107745
 20
447.18882586
 30
0.0
 40
0.1000000014901161
100
AcDbArc
 50
0.0
 51
90.0
  0
ARC
  5
4F4
330
2
100
AcDbEntity
  8
YKK_A1
  6
Continuous
100
AcDbCircle
 10
636.18107745
 20
442.73882579
 30
0.0
 40
0.2250000033527612
100
AcDbArc
 50
270.0
 51
90.0
  0
ARC
  5
4F5
330
2
100
AcDbEntity
  8
YKK_A1
  6
Continuous
100
AcDbCircle
 10
635.83107744
 20
442.73882579
 30
0.0
 40
0.2250000033527612
100
AcDbArc
 50
90.0
 51
270.0
  0
ARC
  5
4F6
330
2
100
AcDbEntity
  8
YKK_A1
  6
Continuous
100
AcDbCircle
 10
636.18107745
 20
442.73882579
 30
0.0
 40
0.2750000040978193
100
AcDbArc
 50
270.0
 51
90.0
  0
ARC
  5
4F7
330
2
100
AcDbEntity
  8
YKK_A1
  6
Continuous
100
AcDbCircle
 10
635.83107744
 20
442.73882579
 30
0.0
 40
0.2750000040978193
100
AcDbArc
 50
90.0
 51
270.0
  0
ARC
  5
4F8
330
2
100
AcDbEntity
  8
YKK_A1
  6
Continuous
100
AcDbCircle
 10
636.00607744
 20
443.5638258
 30
0.0
 40
0.4000000059604645
100
AcDbArc
 50
180.0
 51
0.0
  0
LINE
  5
4F9
330
2
100
AcDbEntity
  8
YKK_A1
  6
YCENTER_1
100
AcDbLine
 10
643.15607755
 20
441.76382581
 30
0.0
 11
643.15607755
 21
447.06382583
 31
0.0
  0
LINE
  5
4FA
330
2
100
AcDbEntity
  8
YKK_A1
  6
Continuous
100
AcDbLine
 10
643.75607756
 20
441.66382577
 30
0.0
 11
643.75607756
 21
447.16382586
 31
0.0
  0
LINE
  5
4FB
330
2
100
AcDbEntity
  8
YKK_A1
  6
Continuous
100
AcDbLine
 10
642.55607754
 20
441.66382577
 30
0.0
 11
642.55607754
 21
447.16382586
 31
0.0
  0
LINE
  5
4FC
330
2
100
AcDbEntity
  8
YKK_A1
  6
Continuous
100
AcDbLine
 10
643.70607756
 20
441.61382577
 30
0.0
 11
642.60607754
 21
441.61382577
 31
0.0
  0
LINE
  5
4FD
330
2
100
AcDbEntity
  8
YKK_A1
  6
Continuous
100
AcDbLine
 10
643.70607756
 20
447.21382586
 30
0.0
 11
642.60607754
 21
447.21382586
 31
0.0
  0
LINE
  5
4FE
330
2
100
AcDbEntity
  8
YKK_A1
  6
Continuous
100
AcDbLine
 10
643.55607756
 20
446.56382585
 30
0.0
 11
642.75607755
 21
446.56382585
 31
0.0
  0
LINE
  5
4FF
330
2
100
AcDbEntity
  8
YKK_A1
  6
Continuous
100
AcDbLine
 10
643.55607756
 20
446.56382585
 30
0.0
 11
643.55607756
 21
443.5638258
 31
0.0
  0
LINE
  5
500
330
2
100
AcDbEntity
  8
YKK_A1
  6
Continuous
100
AcDbLine
 10
642.75607755
 20
446.56382585
 30
0.0
 11
642.75607755
 21
443.5638258
 31
0.0
  0
LINE
  5
501
330
2
100
AcDbEntity
  8
YKK_A1
  6
Continuous
100
AcDbLine
 10
642.48107754
 20
441.63882577
 30
0.0
 11
642.48107754
 21
447.18882586
 31
0.0
  0
LINE
  5
502
330
2
100
AcDbEntity
  8
YKK_A1
  6
Continuous
100
AcDbLine
 10
642.58107754
 20
447.28882586
 30
0.0
 11
643.73107756
 21
447.28882586
 31
0.0
  0
LINE
  5
503
330
2
100
AcDbEntity
  8
YKK_A1
  6
Continuous
100
AcDbLine
 10
643.83107756
 20
447.18882586
 30
0.0
 11
643.83107756
 21
441.63882577
 31
0.0
  0
LINE
  5
504
330
2
100
AcDbEntity
  8
YKK_A1
  6
Continuous
100
AcDbLine
 10
643.73107756
 20
441.53882577
 30
0.0
 11
642.58107754
 21
441.53882577
 31
0.0
  0
LINE
  5
505
330
2
100
AcDbEntity
  8
YKK_A1
  6
Continuous
100
AcDbLine
 10
642.98107755
 20
442.96382579
 30
0.0
 11
643.33107755
 21
442.96382579
 31
0.0
  0
LINE
  5
506
330
2
100
AcDbEntity
  8
YKK_A1
  6
Continuous
100
AcDbLine
 10
643.33107755
 20
442.51382579
 30
0.0
 11
642.98107755
 21
442.51382579
 31
0.0
  0
LINE
  5
507
330
2
100
AcDbEntity
  8
YKK_A1
  6
Continuous
100
AcDbLine
 10
642.98107755
 20
443.0138258
 30
0.0
 11
643.33107755
 21
443.0138258
 31
0.0
  0
LINE
  5
508
330
2
100
AcDbEntity
  8
YKK_A1
  6
Continuous
100
AcDbLine
 10
643.33107755
 20
442.46382579
 30
0.0
 11
642.98107755
 21
442.46382579
 31
0.0
  0
CIRCLE
  5
509
330
2
100
AcDbEntity
  8
YKK_A1
  6
Continuous
100
AcDbCircle
 10
643.15607755
 20
442.25132578
 30
0.0
 40
0.0875000013038516
  0
ARC
  5
50A
330
2
100
AcDbEntity
  8
YKK_A1
  6
Continuous
100
AcDbCircle
 10
643.70607756
 20
447.16382586
 30
0.0
 40
0.0500000007450581
100
AcDbArc
 50
0.0
 51
90.0
  0
ARC
  5
50B
330
2
100
AcDbEntity
  8
YKK_A1
  6
Continuous
100
AcDbCircle
 10
643.70607756
 20
441.66382577
 30
0.0
 40
0.0500000007450581
100
AcDbArc
 50
270.0
 51
0.0
  0
ARC
  5
50C
330
2
100
AcDbEntity
  8
YKK_A1
  6
Continuous
100
AcDbCircle
 10
642.60607754
 20
441.66382577
 30
0.0
 40
0.0500000007450581
100
AcDbArc
 50
180.0
 51
270.0
  0
ARC
  5
50D
330
2
100
AcDbEntity
  8
YKK_A1
  6
Continuous
100
AcDbCircle
 10
642.60607754
 20
447.16382586
 30
0.0
 40
0.0500000007450581
100
AcDbArc
 50
90.0
 51
180.0
  0
ARC
  5
50E
330
2
100
AcDbEntity
  8
YKK_A1
  6
Continuous
100
AcDbCircle
 10
643.73107756
 20
447.18882586
 30
0.0
 40
0.1000000014901161
100
AcDbArc
 50
0.0
 51
90.0
  0
ARC
  5
50F
330
2
100
AcDbEntity
  8
YKK_A1
  6
Continuous
100
AcDbCircle
 10
643.73107756
 20
441.63882577
 30
0.0
 40
0.1000000014901161
100
AcDbArc
 50
270.0
 51
0.0
  0
ARC
  5
510
330
2
100
AcDbEntity
  8
YKK_A1
  6
Continuous
100
AcDbCircle
 10
642.58107754
 20
441.63882577
 30
0.0
 40
0.1000000014901161
100
AcDbArc
 50
180.0
 51
270.0
  0
ARC
  5
511
330
2
100
AcDbEntity
  8
YKK_A1
  6
Continuous
100
AcDbCircle
 10
642.58107754
 20
447.18882586
 30
0.0
 40
0.1000000014901161
100
AcDbArc
 50
90.0
 51
180.0
  0
ARC
  5
512
330
2
100
AcDbEntity
  8
YKK_A1
  6
Continuous
100
AcDbCircle
 10
642.98107755
 20
442.73882579
 30
0.0
 40
0.2250000033527612
100
AcDbArc
 50
90.0
 51
270.0
  0
ARC
  5
513
330
2
100
AcDbEntity
  8
YKK_A1
  6
Continuous
100
AcDbCircle
 10
643.33107755
 20
442.73882579
 30
0.0
 40
0.2250000033527612
100
AcDbArc
 50
270.0
 51
90.0
  0
ARC
  5
514
330
2
100
AcDbEntity
  8
YKK_A1
  6
Continuous
100
AcDbCircle
 10
642.98107755
 20
442.73882579
 30
0.0
 40
0.2750000040978193
100
AcDbArc
 50
90.0
 51
270.0
  0
ARC
  5
515
330
2
100
AcDbEntity
  8
YKK_A1
  6
Continuous
100
AcDbCircle
 10
643.33107755
 20
442.73882579
 30
0.0
 40
0.2750000040978193
100
AcDbArc
 50
270.0
 51
90.0
  0
ARC
  5
516
330
2
100
AcDbEntity
  8
YKK_A1
  6
Continuous
100
AcDbCircle
 10
643.15607755
 20
443.5638258
 30
0.0
 40
0.4000000059604645
100
AcDbArc
 50
180.0
 51
0.0
  0
LINE
  5
517
330
2
100
AcDbEntity
  8
YKK_A1
  6
Continuous
100
AcDbLine
 10
526.63928373
 20
493.91382655
 30
0.0
 11
468.13928286
 21
493.91382655
 31
0.0
  0
LINE
  5
518
330
2
100
AcDbEntity
  8
YKK_A1
  6
Continuous
100
AcDbLine
 10
525.38928371
 20
492.66382653
 30
0.0
 11
469.38928288
 21
492.66382653
 31
0.0
  0
LINE
  5
519
330
2
100
AcDbEntity
  8
YKK_A1
  6
Continuous
100
AcDbLine
 10
498.2142833
 20
492.51382653
 30
0.0
 11
525.18928371
 21
492.51382653
 31
0.0
  0
LINE
  5
51A
330
2
100
AcDbEntity
  8
YKK_A1
  6
Continuous
100
AcDbLine
 10
496.56428328
 20
492.51382653
 30
0.0
 11
469.58928288
 21
492.51382653
 31
0.0
  0
LINE
  5
51B
330
2
100
AcDbEntity
  8
YKK_A1
  6
Continuous
100
AcDbLine
 10
469.58928288
 20
487.51382646
 30
0.0
 11
469.58928288
 21
492.51382653
 31
0.0
  0
LINE
  5
51C
330
2
100
AcDbEntity
  8
YKK_A1
  6
Continuous
100
AcDbLine
 10
469.38928288
 20
493.91382655
 30
0.0
 11
469.38928288
 21
487.51382646
 31
0.0
  0
LINE
  5
51D
330
2
100
AcDbEntity
  8
YKK_A1
  6
Continuous
100
AcDbLine
 10
469.73928288
 20
485.61382643
 30
0.0
 11
469.23928287
 21
485.61382643
 31
0.0
  0
LINE
  5
51E
330
2
100
AcDbEntity
  8
YKK_A1
  6
Continuous
100
AcDbLine
 10
469.23928287
 20
487.51382646
 30
0.0
 11
469.23928287
 21
483.7138264
 31
0.0
  0
LINE
  5
51F
330
2
100
AcDbEntity
  8
YKK_A1
  6
Continuous
100
AcDbLine
 10
469.23928287
 20
483.7138264
 30
0.0
 11
469.73928288
 21
483.7138264
 31
0.0
  0
LINE
  5
520
330
2
100
AcDbEntity
  8
YKK_A1
  6
Continuous
100
AcDbLine
 10
469.73928288
 20
483.7138264
 30
0.0
 11
469.73928288
 21
487.51382646
 31
0.0
  0
LINE
  5
521
330
2
100
AcDbEntity
  8
YKK_A1
  6
Continuous
100
AcDbLine
 10
469.73928288
 20
487.51382646
 30
0.0
 11
469.23928287
 21
487.51382646
 31
0.0
  0
LINE
  5
52B
330
2
100
AcDbEntity
  8
YKK_A1
  6
Continuous
100
AcDbLine
 10
525.18928371
 20
487.51382646
 30
0.0
 11
525.18928371
 21
492.51382653
 31
0.0
  0
LINE
  5
52C
330
2
100
AcDbEntity
  8
YKK_A1
  6
Continuous
100
AcDbLine
 10
525.38928371
 20
487.51382646
 30
0.0
 11
525.38928371
 21
493.91382655
 31
0.0
  0
LINE
  5
52D
330
2
100
AcDbEntity
  8
YKK_A1
  6
Continuous
100
AcDbLine
 10
525.0392837
 20
485.61382643
 30
0.0
 11
525.53928371
 21
485.61382643
 31
0.0
  0
LINE
  5
52E
330
2
100
AcDbEntity
  8
YKK_A1
  6
Continuous
100
AcDbLine
 10
525.53928371
 20
487.51382646
 30
0.0
 11
525.53928371
 21
483.7138264
 31
0.0
  0
LINE
  5
52F
330
2
100
AcDbEntity
  8
YKK_A1
  6
Continuous
100
AcDbLine
 10
525.53928371
 20
483.7138264
 30
0.0
 11
525.0392837
 21
483.7138264
 31
0.0
  0
LINE
  5
530
330
2
100
AcDbEntity
  8
YKK_A1
  6
Continuous
100
AcDbLine
 10
525.0392837
 20
483.7138264
 30
0.0
 11
525.0392837
 21
487.51382646
 31
0.0
  0
LINE
  5
531
330
2
100
AcDbEntity
  8
YKK_A1
  6
Continuous
100
AcDbLine
 10
525.0392837
 20
487.51382646
 30
0.0
 11
525.53928371
 21
487.51382646
 31
0.0
  0
LINE
  5
547
330
2
100
AcDbEntity
  8
YKK_A1
  6
Continuous
100
AcDbLine
 10
638.75607749
 20
492.51382653
 30
0.0
 11
611.78107708
 21
492.51382653
 31
0.0
  0
LINE
  5
548
330
2
100
AcDbEntity
  8
YKK_A1
  6
Continuous
100
AcDbLine
 10
611.78107708
 20
487.51382646
 30
0.0
 11
611.78107708
 21
492.51382653
 31
0.0
  0
LINE
  5
549
330
2
100
AcDbEntity
  8
YKK_A1
  6
Continuous
100
AcDbLine
 10
611.58107708
 20
493.91382655
 30
0.0
 11
611.58107708
 21
487.51382646
 31
0.0
  0
LINE
  5
54A
330
2
100
AcDbEntity
  8
YKK_A1
  6
Continuous
100
AcDbLine
 10
611.93107709
 20
485.61382643
 30
0.0
 11
611.43107708
 21
485.61382643
 31
0.0
  0
LINE
  5
54B
330
2
100
AcDbEntity
  8
YKK_A1
  6
Continuous
100
AcDbLine
 10
611.43107708
 20
487.51382646
 30
0.0
 11
611.43107708
 21
483.7138264
 31
0.0
  0
LINE
  5
54C
330
2
100
AcDbEntity
  8
YKK_A1
  6
Continuous
100
AcDbLine
 10
611.43107708
 20
483.7138264
 30
0.0
 11
611.93107709
 21
483.7138264
 31
0.0
  0
LINE
  5
54D
330
2
100
AcDbEntity
  8
YKK_A1
  6
Continuous
100
AcDbLine
 10
611.93107709
 20
483.7138264
 30
0.0
 11
611.93107709
 21
487.51382646
 31
0.0
  0
LINE
  5
54E
330
2
100
AcDbEntity
  8
YKK_A1
  6
Continuous
100
AcDbLine
 10
611.93107709
 20
487.51382646
 30
0.0
 11
611.43107708
 21
487.51382646
 31
0.0
  0
LINE
  5
54F
330
2
100
AcDbEntity
  8
YKK_A1
  6
Continuous
100
AcDbLine
 10
668.83107793
 20
395.41382509
 30
0.0
 11
668.83107793
 21
493.91382655
 31
0.0
  0
LINE
  5
550
330
2
100
AcDbEntity
  8
YKK_A1
  6
Continuous
100
AcDbLine
 10
667.38107791
 20
446.61382585
 30
0.0
 11
667.38107791
 21
483.7138264
 31
0.0
  0
LINE
  5
551
330
2
100
AcDbEntity
  8
YKK_A1
  6
Continuous
100
AcDbLine
 10
667.58107792
 20
446.61382585
 30
0.0
 11
667.58107792
 21
483.7138264
 31
0.0
  0
LINE
  5
55F
330
2
100
AcDbEntity
  8
YKK_A1
  6
Continuous
100
AcDbLine
 10
667.38107791
 20
442.81382579
 30
0.0
 11
667.38107791
 21
405.71382524
 31
0.0
  0
LINE
  5
560
330
2
100
AcDbEntity
  8
YKK_A1
  6
Continuous
100
AcDbLine
 10
667.58107792
 20
442.81382579
 30
0.0
 11
667.58107792
 21
405.71382524
 31
0.0
  0
LINE
  5
578
330
2
100
AcDbEntity
  8
YKK_A1
  6
Continuous
100
AcDbLine
 10
667.73107792
 20
401.91382518
 30
0.0
 11
667.73107792
 21
405.71382524
 31
0.0
  0
LINE
  5
579
330
2
100
AcDbEntity
  8
YKK_A1
  6
Continuous
100
AcDbLine
 10
667.23107791
 20
405.71382524
 30
0.0
 11
667.23107791
 21
401.91382518
 31
0.0
  0
LINE
  5
57A
330
2
100
AcDbEntity
  8
YKK_A1
  6
Continuous
100
AcDbLine
 10
667.58107792
 20
395.41382509
 30
0.0
 11
667.58107792
 21
401.91382518
 31
0.0
  0
LINE
  5
57B
330
2
100
AcDbEntity
  8
YKK_A1
  6
Continuous
100
AcDbLine
 10
667.38107791
 20
396.91382511
 30
0.0
 11
667.38107791
 21
401.91382518
 31
0.0
  0
LINE
  5
57C
330
2
100
AcDbEntity
  8
YKK_A1
  6
Continuous
100
AcDbLine
 10
667.23107791
 20
401.91382518
 30
0.0
 11
667.73107792
 21
401.91382518
 31
0.0
  0
LINE
  5
57D
330
2
100
AcDbEntity
  8
YKK_A1
  6
Continuous
100
AcDbLine
 10
667.23107791
 20
403.81382521
 30
0.0
 11
667.73107792
 21
403.81382521
 31
0.0
  0
LINE
  5
57E
330
2
100
AcDbEntity
  8
YKK_A1
  6
Continuous
100
AcDbLine
 10
667.73107792
 20
405.71382524
 30
0.0
 11
667.23107791
 21
405.71382524
 31
0.0
  0
LINE
  5
598
330
2
100
AcDbEntity
  8
YKK_A1
  6
Continuous
100
AcDbLine
 10
667.23107791
 20
444.71382582
 30
0.0
 11
667.73107792
 21
444.71382582
 31
0.0
  0
LINE
  5
599
330
2
100
AcDbEntity
  8
YKK_A1
  6
Continuous
100
AcDbLine
 10
667.73107792
 20
442.81382579
 30
0.0
 11
667.73107792
 21
446.61382585
 31
0.0
  0
LINE
  5
59A
330
2
100
AcDbEntity
  8
YKK_A1
  6
Continuous
100
AcDbLine
 10
667.73107792
 20
446.61382585
 30
0.0
 11
667.23107791
 21
446.61382585
 31
0.0
  0
LINE
  5
59B
330
2
100
AcDbEntity
  8
YKK_A1
  6
Continuous
100
AcDbLine
 10
667.23107791
 20
446.61382585
 30
0.0
 11
667.23107791
 21
442.81382579
 31
0.0
  0
LINE
  5
59C
330
2
100
AcDbEntity
  8
YKK_A1
  6
Continuous
100
AcDbLine
 10
667.23107791
 20
442.81382579
 30
0.0
 11
667.73107792
 21
442.81382579
 31
0.0
  0
LINE
  5
5A7
330
2
100
AcDbEntity
  8
YKK_A1
  6
Continuous
100
AcDbLine
 10
667.38107791
 20
487.51382646
 30
0.0
 11
667.38107791
 21
492.51382653
 31
0.0
  0
LINE
  5
5A8
330
2
100
AcDbEntity
  8
YKK_A1
  6
Continuous
100
AcDbLine
 10
667.58107792
 20
487.51382646
 30
0.0
 11
667.58107792
 21
493.91382655
 31
0.0
  0
LINE
  5
5A9
330
2
100
AcDbEntity
  8
YKK_A1
  6
Continuous
100
AcDbLine
 10
667.23107791
 20
485.61382643
 30
0.0
 11
667.73107792
 21
485.61382643
 31
0.0
  0
LINE
  5
5AA
330
2
100
AcDbEntity
  8
YKK_A1
  6
Continuous
100
AcDbLine
 10
667.73107792
 20
487.51382646
 30
0.0
 11
667.73107792
 21
483.7138264
 31
0.0
  0
LINE
  5
5AB
330
2
100
AcDbEntity
  8
YKK_A1
  6
Continuous
100
AcDbLine
 10
667.73107792
 20
483.7138264
 30
0.0
 11
667.23107791
 21
483.7138264
 31
0.0
  0
LINE
  5
5AC
330
2
100
AcDbEntity
  8
YKK_A1
  6
Continuous
100
AcDbLine
 10
667.23107791
 20
483.7138264
 30
0.0
 11
667.23107791
 21
487.51382646
 31
0.0
  0
LINE
  5
5AD
330
2
100
AcDbEntity
  8
YKK_A1
  6
Continuous
100
AcDbLine
 10
667.23107791
 20
487.51382646
 30
0.0
 11
667.73107792
 21
487.51382646
 31
0.0
  0
TEXT
  5
5C4
330
2
100
AcDbEntity
  8
USER1
100
AcDbText
 10
672.36668275
 20
519.53394838
 30
0.0
 40
6.0
  1
外観姿図
 41
0.8
100
AcDbText
1001
ACAD
1000
MTEXTBEGIN
1070
    73
1070
     1
1070
    44
1040
1.0
1070
    74
1070
     0
1000
MTEXTEND
  0
ENDSEC
  0
SECTION
  2
OBJECTS
  0
DICTIONARY
  5
1E
330
0
100
AcDbDictionary
281
     1
  3
ACAD_CIP_PREVIOUS_PRODUCT_INFO
350
66F
  3
ACAD_COLOR
350
604
  3
ACAD_DETAILVIEWSTYLE
350
61D
  3
ACAD_GROUP
350
1C
  3
ACAD_LAYOUT
350
622
  3
ACAD_MATERIAL
350
5D2
  3
ACAD_MLEADERSTYLE
350
619
  3
ACAD_MLINESTYLE
350
1D
  3
ACAD_PLOTSETTINGS
350
621
  3
ACAD_PLOTSTYLENAME
350
5D0
  3
ACAD_SCALELIST
350
607
  3
ACAD_SECTIONVIEWSTYLE
350
61B
  3
ACAD_TABLESTYLE
350
605
  3
ACAD_VISUALSTYLE
350
5EB
  3
ACDB_RECOMPOSE_DATA
350
6D4
  3
AcDbVariableDictionary
350
663
  3
CONTENTDICTIONARY
350
5C9
  0
DICTIONARY
  5
68E
330
16
100
AcDbDictionary
280
     1
281
     1
  0
DICTIONARY
  5
67C
330
6
100
AcDbDictionary
280
     1
281
     1
  3
ADSK_XREC_LAYER_RECONCILED
360
67D
  0
DICTIONARY
  5
67E
330
33
100
AcDbDictionary
280
     1
281
     1
  3
ADSK_XREC_LAYER_RECONCILED
360
67F
  0
DICTIONARY
  5
680
330
31
100
AcDbDictionary
280
     1
281
     1
  3
ADSK_XREC_LAYER_RECONCILED
360
681
  0
DICTIONARY
  5
682
330
2C
100
AcDbDictionary
280
     1
281
     1
  3
ADSK_XREC_LAYER_RECONCILED
360
683
  0
DICTIONARY
  5
684
330
EF
100
AcDbDictionary
280
     1
281
     1
  3
ADSK_XREC_LAYER_RECONCILED
360
685
  0
DICTIONARY
  5
686
330
112
100
AcDbDictionary
280
     1
281
     1
  3
ADSK_XREC_LAYER_RECONCILED
360
687
  0
DICTIONARY
  5
688
330
39B
100
AcDbDictionary
280
     1
281
     1
  3
ADSK_XREC_LAYER_RECONCILED
360
689
  0
DICTIONARY
  5
68A
330
FA
100
AcDbDictionary
280
     1
281
     1
  3
ADSK_XREC_LAYER_RECONCILED
360
68B
  0
DICTIONARY
  5
3
330
2
100
AcDbDictionary
280
     1
281
     1
  3
ACAD_LAYOUTSELFREF
360
4
  0
DICTIONARY
  5
A
330
9
100
AcDbDictionary
280
     1
281
     1
  3
ACAD_LAYOUTSELFREF
360
B
  0
XRECORD
  5
66F
102
{ACAD_REACTORS
330
1E
102
}
330
1E
100
AcDbXrecord
280
     1
300
ACD
300
2014
300
86063ACD_2014_0F
  0
DICTIONARY
  5
604
102
{ACAD_REACTORS
330
1E
102
}
330
1E
100
AcDbDictionary
281
     1
  0
DICTIONARY
  5
61D
102
{ACAD_REACTORS
330
1E
102
}
330
1E
100
AcDbDictionary
281
     1
  3
Imperial24
350
61E
  3
Metric50
350
6CD
  0
DICTIONARY
  5
1C
102
{ACAD_REACTORS
330
1E
102
}
330
1E
100
AcDbDictionary
281
     1
  0
DICTIONARY
  5
622
102
{ACAD_REACTORS
330
1E
102
}
330
1E
100
AcDbDictionary
281
     1
  3
Model
350
623
  3
レイアウト1
350
624
  0
DICTIONARY
  5
5D2
102
{ACAD_REACTORS
330
1E
102
}
330
1E
100
AcDbDictionary
281
     1
  3
ByBlock
350
5DB
  3
ByLayer
350
5D3
  3
Global
350
5E3
  0
DICTIONARY
  5
619
102
{ACAD_REACTORS
330
1E
102
}
330
1E
100
AcDbDictionary
281
     1
  3
Standard
350
61A
  0
DICTIONARY
  5
1D
102
{ACAD_REACTORS
330
1E
102
}
330
1E
100
AcDbDictionary
281
     1
  3
STANDARD
350
21
  0
DICTIONARY
  5
621
102
{ACAD_REACTORS
330
1E
102
}
330
1E
100
AcDbDictionary
281
     1
  0
ACDBDICTIONARYWDFLT
  5
5D0
102
{ACAD_REACTORS
330
1E
102
}
330
1E
100
AcDbDictionary
281
     1
  3
Normal
350
5D1
100
AcDbDictionaryWithDefault
340
5D1
  0
DICTIONARY
  5
607
102
{ACAD_REACTORS
330
1E
102
}
330
1E
100
AcDbDictionary
281
     1
  3
A0
350
608
  3
A1
350
609
  3
A2
350
60A
  3
A3
350
60B
  3
A4
350
60C
  3
A5
350
60D
  3
A6
350
60E
  3
A7
350
60F
  3
A8
350
610
  3
A9
350
611
  3
B0
350
612
  3
B1
350
613
  3
B2
350
614
  3
B3
350
615
  3
B4
350
616
  3
B5
350
617
  3
B6
350
618
  0
DICTIONARY
  5
61B
102
{ACAD_REACTORS
330
1E
102
}
330
1E
100
AcDbDictionary
281
     1
  3
Imperial24
350
61C
  3
Metric50
350
6CC
  0
DICTIONARY
  5
605
102
{ACAD_REACTORS
330
1E
102
}
330
1E
100
AcDbDictionary
281
     1
  3
Standard
350
606
  0
DICTIONARY
  5
5EB
102
{ACAD_REACTORS
330
1E
102
}
330
1E
100
AcDbDictionary
281
     1
  3
2dWireframe
350
5F1
  3
Basic
350
5F0
  3
Brighten
350
5F7
  3
ColorChange
350
5FB
  3
Conceptual
350
5F4
  3
Dim
350
5F6
  3
EdgeColorOff
350
603
  3
Facepattern
350
5FA
  3
Flat
350
5EC
  3
FlatWithEdges
350
5ED
  3
Gouraud
350
5EE
  3
GouraudWithEdges
350
5EF
  3
Hidden
350
5F3
  3
JitterOff
350
601
  3
Linepattern
350
5F9
  3
OverhangOff
350
602
  3
Realistic
350
5F5
  3
Shaded
350
600
  3
Shaded with edges
350
5FF
  3
Shades of Gray
350
5FC
  3
Sketchy
350
5FD
  3
Thicken
350
5F8
  3
Wireframe
350
5F2
  3
X-Ray
350
5FE
  0
XRECORD
  5
6D4
102
{ACAD_REACTORS
330
1E
102
}
330
1E
100
AcDbXrecord
280
     1
 90
        1
330
606
  0
DICTIONARY
  5
663
102
{ACAD_REACTORS
330
1E
102
}
330
1E
100
AcDbDictionary
281
     1
  3
CANNOSCALE
350
668
  3
CMLEADERSTYLE
350
665
  3
CTABLESTYLE
350
664
  3
CVIEWDETAILSTYLE
350
666
  3
CVIEWSECTIONSTYLE
350
667
  3
XCLIPFRAME
350
6D2
  0
DICTIONARY
  5
5C9
102
{ACAD_REACTORS
330
1E
102
}
330
1E
100
AcDbDictionary
281
     1
  0
XRECORD
  5
67D
102
{ACAD_REACTORS
330
67C
102
}
330
67C
100
AcDbXrecord
280
     1
290
     1
  0
XRECORD
  5
67F
102
{ACAD_REACTORS
330
67E
102
}
330
67E
100
AcDbXrecord
280
     1
290
     1
  0
XRECORD
  5
681
102
{ACAD_REACTORS
330
680
102
}
330
680
100
AcDbXrecord
280
     1
290
     1
  0
XRECORD
  5
683
102
{ACAD_REACTORS
330
682
102
}
330
682
100
AcDbXrecord
280
     1
290
     1
  0
XRECORD
  5
685
102
{ACAD_REACTORS
330
684
102
}
330
684
100
AcDbXrecord
280
     1
290
     1
  0
XRECORD
  5
687
102
{ACAD_REACTORS
330
686
102
}
330
686
100
AcDbXrecord
280
     1
290
     1
  0
XRECORD
  5
689
102
{ACAD_REACTORS
330
688
102
}
330
688
100
AcDbXrecord
280
     1
290
     1
  0
XRECORD
  5
68B
102
{ACAD_REACTORS
330
68A
102
}
330
68A
100
AcDbXrecord
280
     1
290
     1
  0
XRECORD
  5
4
102
{ACAD_REACTORS
330
3
102
}
330
3
100
AcDbXrecord
280
     1
340
2
  0
XRECORD
  5
B
102
{ACAD_REACTORS
330
A
102
}
330
A
100
AcDbXrecord
280
     1
340
9
  0
ACDBDETAILVIEWSTYLE
  5
61E
102
{ACAD_XDICTIONARY
360
70D
102
}
102
{ACAD_REACTORS
330
61D
102
}
330
61D
100
AcDbModelDocViewStyle
 70
     0
  3
Imperial24
290
     0
100
AcDbDetailViewStyle
 70
     0
 71
     0
 90
        3
 71
     1
340
10
 62
   256
 40
0.24
340
0
 62
   256
 40
0.24
300

 40
0.36
280
     3
 71
     2
340
7
 90
       25
 62
   256
 71
     3
340
10
 62
   256
 40
0.24
 90
        1
 40
0.75
 90
        1
300
%<\AcVar ViewType \f "%tc1">% %<\AcVar ViewDetailId>%\PSCALE %<\AcVar ViewScale \f "%sn">%
 71
     4
340
7
 90
       25
 62
   256
340
7
 90
       25
 62
   256
280
     0
  0
ACDBDETAILVIEWSTYLE
  5
6CD
102
{ACAD_XDICTIONARY
360
711
102
}
102
{ACAD_REACTORS
330
61D
102
}
330
61D
100
AcDbModelDocViewStyle
 70
     0
  3
Metric50
290
     0
100
AcDbDetailViewStyle
 70
     0
 71
     0
 90
        3
 71
     1
340
10
 62
   256
 40
5.0
340
0
 62
   256
 40
5.0
300

 40
0.0
280
     1
 71
     2
340
7
 90
       25
 62
   256
 71
     3
340
10
 62
   256
 40
5.0
 90
        0
 40
15.0
 90
        1
300
%<\AcVar ViewDetailId>% (%<\AcVar ViewScale \f "%sn">%)
 71
     4
340
7
 90
       25
 62
   256
340
7
 90
       25
 62
   256
280
     0
  0
LAYOUT
  5
623
102
{ACAD_REACTORS
330
622
102
}
330
622
100
AcDbPlotSettings
  1

  2
C:\ACAD-I\support\plotters\Default Windows System Printer.pc3
  4
A4
  6

 40
4.90008307
 41
4.90005732
 42
4.90008545
 43
4.90008545
 44
210.01567078
 45
297.01065063
 46
0.0
 47
0.0
 48
0.0
 49
0.0
140
0.0
141
0.0
142
1.0
143
94.12033036
 70
 11952
 72
     0
 73
     1
 74
     0
  7
monochrome.ctb
 75
     0
147
0.0106247
 76
     0
 77
     2
 78
   300
148
875.72477782
149
55.62942893
100
AcDbLayout
  1
Model
 70
     1
 71
     0
 10
0.0
 20
0.0
 11
12.0
 21
9.0
 12
0.0
 22
0.0
 32
0.0
 14
0.0
 24
0.0
 34
0.0
 15
0.0
 25
0.0
 35
0.0
146
0.0
 13
0.0
 23
0.0
 33
0.0
 16
1.0
 26
0.0
 36
0.0
 17
0.0
 27
1.0
 37
0.0
 76
     0
330
2
331
5CE
1001
ACAD_PSEXT
1000
C:\ACAD-I\support\plotters\Default Windows System Printer.pc3
1000
FX ApeosPort-V C7776
1000
172.16.176.175
1000

1070
     0
  0
LAYOUT
  5
624
102
{ACAD_REACTORS
330
622
102
}
330
622
100
AcDbPlotSettings
  1

  2
C:\ACAD-I\support\plotters\Default Windows System Printer.pc3
  4
A4
  6

 40
4.90008307
 41
4.90005732
 42
4.90008545
 43
4.90008545
 44
210.01567078
 45
297.01065063
 46
0.0
 47
0.0
 48
0.0
 49
0.0
140
0.0
141
0.0
142
1.0
143
1.0
 70
 15024
 72
     0
 73
     1
 74
     5
  7
monochrome.ctb
 75
    16
147
1.0
 76
     0
 77
     2
 78
   300
148
0.0
149
0.0
100
AcDbLayout
  1
レイアウト1
 70
     1
 71
     1
 10
0.0
 20
0.0
 11
420.0
 21
297.0
 12
0.0
 22
0.0
 32
0.0
 14
1.00000000E+20
 24
1.00000000E+20
 34
1.00000000E+20
 15
-1.00000000E+20
 25
-1.00000000E+20
 35
-1.00000000E+20
146
0.0
 13
0.0
 23
0.0
 33
0.0
 16
1.0
 26
0.0
 36
0.0
 17
0.0
 27
1.0
 37
0.0
 76
     0
330
9
1001
ACAD_PSEXT
1000
C:\ACAD-I\support\plotters\Default Windows System Printer.pc3
1000
FX ApeosPort-V C7776
1000
172.16.176.175
1000

1070
     0
  0
MATERIAL
  5
5DB
102
{ACAD_XDICTIONARY
360
5DC
102
}
102
{ACAD_REACTORS
330
5D2
102
}
330
5D2
100
AcDbMaterial
  1
ByBlock
 72
     0
 43
0.02083333
 43
0.0
 43
0.0
 43
0.0
 43
0.0
 43
0.02083333
 43
0.0
 43
0.0
 43
0.0
 43
0.0
 43
1.0
 43
0.0
 43
0.0
 43
0.0
 43
0.0
 43
1.0
 77
     0
 47
0.02083333
 47
0.0
 47
0.0
 47
0.0
 47
0.0
 47
0.02083333
 47
0.0
 47
0.0
 47
0.0
 47
0.0
 47
1.0
 47
0.0
 47
0.0
 47
0.0
 47
0.0
 47
1.0
171
     0
 49
0.02083333
 49
0.0
 49
0.0
 49
0.0
 49
0.0
 49
0.02083333
 49
0.0
 49
0.0
 49
0.0
 49
0.0
 49
1.0
 49
0.0
 49
0.0
 49
0.0
 49
0.0
 49
1.0
175
     0
142
0.02083333
142
0.0
142
0.0
142
0.0
142
0.0
142
0.02083333
142
0.0
142
0.0
142
0.0
142
0.0
142
1.0
142
0.0
142
0.0
142
0.0
142
0.0
142
1.0
179
     0
144
0.02083333
144
0.0
144
0.0
144
0.0
144
0.0
144
0.02083333
144
0.0
144
0.0
144
0.0
144
0.0
144
1.0
144
0.0
144
0.0
144
0.0
144
0.0
144
1.0
147
0.02083333
147
0.0
147
0.0
147
0.0
147
0.0
147
0.02083333
147
0.0
147
0.0
147
0.0
147
0.0
147
1.0
147
0.0
147
0.0
147
0.0
147
0.0
147
1.0
  0
MATERIAL
  5
5D3
102
{ACAD_XDICTIONARY
360
5D4
102
}
102
{ACAD_REACTORS
330
5D2
102
}
330
5D2
100
AcDbMaterial
  1
ByLayer
 72
     0
 43
0.02083333
 43
0.0
 43
0.0
 43
0.0
 43
0.0
 43
0.02083333
 43
0.0
 43
0.0
 43
0.0
 43
0.0
 43
1.0
 43
0.0
 43
0.0
 43
0.0
 43
0.0
 43
1.0
 77
     0
 47
0.02083333
 47
0.0
 47
0.0
 47
0.0
 47
0.0
 47
0.02083333
 47
0.0
 47
0.0
 47
0.0
 47
0.0
 47
1.0
 47
0.0
 47
0.0
 47
0.0
 47
0.0
 47
1.0
171
     0
 49
0.02083333
 49
0.0
 49
0.0
 49
0.0
 49
0.0
 49
0.02083333
 49
0.0
 49
0.0
 49
0.0
 49
0.0
 49
1.0
 49
0.0
 49
0.0
 49
0.0
 49
0.0
 49
1.0
175
     0
142
0.02083333
142
0.0
142
0.0
142
0.0
142
0.0
142
0.02083333
142
0.0
142
0.0
142
0.0
142
0.0
142
1.0
142
0.0
142
0.0
142
0.0
142
0.0
142
1.0
179
     0
144
0.02083333
144
0.0
144
0.0
144
0.0
144
0.0
144
0.02083333
144
0.0
144
0.0
144
0.0
144
0.0
144
1.0
144
0.0
144
0.0
144
0.0
144
0.0
144
1.0
147
0.02083333
147
0.0
147
0.0
147
0.0
147
0.0
147
0.02083333
147
0.0
147
0.0
147
0.0
147
0.0
147
1.0
147
0.0
147
0.0
147
0.0
147
0.0
147
1.0
  0
MATERIAL
  5
5E3
102
{ACAD_XDICTIONARY
360
5E4
102
}
102
{ACAD_REACTORS
330
5D2
102
}
330
5D2
100
AcDbMaterial
  1
Global
 72
     0
 43
0.02083333
 43
0.0
 43
0.0
 43
0.0
 43
0.0
 43
0.02083333
 43
0.0
 43
0.0
 43
0.0
 43
0.0
 43
1.0
 43
0.0
 43
0.0
 43
0.0
 43
0.0
 43
1.0
 77
     0
 47
0.02083333
 47
0.0
 47
0.0
 47
0.0
 47
0.0
 47
0.02083333
 47
0.0
 47
0.0
 47
0.0
 47
0.0
 47
1.0
 47
0.0
 47
0.0
 47
0.0
 47
0.0
 47
1.0
171
     0
 49
0.02083333
 49
0.0
 49
0.0
 49
0.0
 49
0.0
 49
0.02083333
 49
0.0
 49
0.0
 49
0.0
 49
0.0
 49
1.0
 49
0.0
 49
0.0
 49
0.0
 49
0.0
 49
1.0
175
     0
142
0.02083333
142
0.0
142
0.0
142
0.0
142
0.0
142
0.02083333
142
0.0
142
0.0
142
0.0
142
0.0
142
1.0
142
0.0
142
0.0
142
0.0
142
0.0
142
1.0
179
     0
144
0.02083333
144
0.0
144
0.0
144
0.0
144
0.0
144
0.02083333
144
0.0
144
0.0
144
0.0
144
0.0
144
1.0
144
0.0
144
0.0
144
0.0
144
0.0
144
1.0
147
0.02083333
147
0.0
147
0.0
147
0.0
147
0.0
147
0.02083333
147
0.0
147
0.0
147
0.0
147
0.0
147
1.0
147
0.0
147
0.0
147
0.0
147
0.0
147
1.0
  0
MLEADERSTYLE
  5
61A
102
{ACAD_XDICTIONARY
360
709
102
}
102
{ACAD_REACTORS
330
619
102
}
330
619
100
AcDbMLeaderStyle
170
     2
171
     1
172
     0
 90
        2
 40
0.0
 41
0.0
173
     1
 91
-1056964608
340
12
 92
       -2
290
     1
 42
0.09
291
     1
 43
0.36
  3
Standard
 44
0.18
300

342
10
174
     1
178
     6
175
     1
176
     0
 93
-1056964608
 45
0.18
292
     0
297
     0
 46
0.18
 94
-1056964608
 47
1.0
 49
1.0
140
1.0
293
     1
141
0.0
294
     1
177
     0
142
1.0
295
     0
296
     0
143
0.125
1001
ACAD_MLEADERVER
1070
     2
  0
MLINESTYLE
  5
21
102
{ACAD_REACTORS
330
1D
102
}
330
1D
100
AcDbMlineStyle
  2
STANDARD
 70
     0
  3

 62
   256
 51
90.0
 52
90.0
 71
     2
 49
0.5
 62
   256
  6
BYLAYER
 49
-0.5
 62
   256
  6
BYLAYER
  0
ACDBPLACEHOLDER
  5
5D1
102
{ACAD_REACTORS
330
5D0
102
}
330
5D0
  0
SCALE
  5
608
102
{ACAD_REACTORS
330
607
102
}
330
607
100
AcDbScale
 70
     0
300
1:1
140
1.0
141
1.0
290
     1
  0
SCALE
  5
609
102
{ACAD_REACTORS
330
607
102
}
330
607
100
AcDbScale
 70
     0
300
1/128" = 1'-0"
140
0.0078125
141
12.0
290
     0
  0
SCALE
  5
60A
102
{ACAD_REACTORS
330
607
102
}
330
607
100
AcDbScale
 70
     0
300
1/64" = 1'-0"
140
0.015625
141
12.0
290
     0
  0
SCALE
  5
60B
102
{ACAD_REACTORS
330
607
102
}
330
607
100
AcDbScale
 70
     0
300
1/32" = 1'-0"
140
0.03125
141
12.0
290
     0
  0
SCALE
  5
60C
102
{ACAD_REACTORS
330
607
102
}
330
607
100
AcDbScale
 70
     0
300
1/16" = 1'-0"
140
0.0625
141
12.0
290
     0
  0
SCALE
  5
60D
102
{ACAD_REACTORS
330
607
102
}
330
607
100
AcDbScale
 70
     0
300
3/32" = 1'-0"
140
0.09375
141
12.0
290
     0
  0
SCALE
  5
60E
102
{ACAD_REACTORS
330
607
102
}
330
607
100
AcDbScale
 70
     0
300
1/8" = 1'-0"
140
0.125
141
12.0
290
     0
  0
SCALE
  5
60F
102
{ACAD_REACTORS
330
607
102
}
330
607
100
AcDbScale
 70
     0
300
3/16" = 1'-0"
140
0.1875
141
12.0
290
     0
  0
SCALE
  5
610
102
{ACAD_REACTORS
330
607
102
}
330
607
100
AcDbScale
 70
     0
300
1/4" = 1'-0"
140
0.25
141
12.0
290
     0
  0
SCALE
  5
611
102
{ACAD_REACTORS
330
607
102
}
330
607
100
AcDbScale
 70
     0
300
3/8" = 1'-0"
140
0.375
141
12.0
290
     0
  0
SCALE
  5
612
102
{ACAD_REACTORS
330
607
102
}
330
607
100
AcDbScale
 70
     0
300
1/2" = 1'-0"
140
0.5
141
12.0
290
     0
  0
SCALE
  5
613
102
{ACAD_REACTORS
330
607
102
}
330
607
100
AcDbScale
 70
     0
300
3/4" = 1'-0"
140
0.75
141
12.0
290
     0
  0
SCALE
  5
614
102
{ACAD_REACTORS
330
607
102
}
330
607
100
AcDbScale
 70
     0
300
1" = 1'-0"
140
1.0
141
12.0
290
     0
  0
SCALE
  5
615
102
{ACAD_REACTORS
330
607
102
}
330
607
100
AcDbScale
 70
     0
300
1-1/2" = 1'-0"
140
1.5
141
12.0
290
     0
  0
SCALE
  5
616
102
{ACAD_REACTORS
330
607
102
}
330
607
100
AcDbScale
 70
     0
300
3" = 1'-0"
140
3.0
141
12.0
290
     0
  0
SCALE
  5
617
102
{ACAD_REACTORS
330
607
102
}
330
607
100
AcDbScale
 70
     0
300
6" = 1'-0"
140
6.0
141
12.0
290
     0
  0
SCALE
  5
618
102
{ACAD_REACTORS
330
607
102
}
330
607
100
AcDbScale
 70
     0
300
1'-0" = 1'-0"
140
12.0
141
12.0
290
     0
  0
ACDBSECTIONVIEWSTYLE
  5
61C
102
{ACAD_XDICTIONARY
360
70B
102
}
102
{ACAD_REACTORS
330
61B
102
}
330
61B
100
AcDbModelDocViewStyle
 70
     0
  3
Imperial24
290
     0
100
AcDbSectionViewStyle
 70
     0
 71
     0
 90
      102
 71
     1
340
10
 62
   256
 40
5.0
340
0
340
0
 62
   256
 40
5.0
300
I, O, Q, S, X, Z
 40
10.0
 90
        0
 40
2.5
 90
        0
 71
     2
340
7
 90
       25
 62
   256
340
7
 90
       50
 62
   256
 40
5.0
 40
2.5
 40
5.0
 71
     3
340
10
 62
   256
 40
5.0
 90
        0
 40
15.0
 90
        1
300
%<\AcVar ViewSectionStartId>%-%<\AcVar ViewSectionEndId>% (%<\AcVar ViewScale \f "%sn">%)
 71
     4
 62
   256
 62
   257
300
ANSI31
 40
1.0
 90
        0
290
     0
290
     0
 90
        6
 40
0.0
 40
1.57079633
 40
0.26179939
 40
1.30899694
 40
-0.26179939
 40
1.83259571
  0
ACDBSECTIONVIEWSTYLE
  5
6CC
102
{ACAD_XDICTIONARY
360
70F
102
}
102
{ACAD_REACTORS
330
61B
102
}
330
61B
100
AcDbModelDocViewStyle
 70
     0
  3
Metric50
290
     0
100
AcDbSectionViewStyle
 70
     0
 71
     0
 90
      102
 71
     1
340
10
 62
   256
 40
5.0
340
0
340
0
 62
   256
 40
5.0
300
I, O, Q, S, X, Z
 40
10.0
 90
        0
 40
2.5
 90
        0
 71
     2
340
7
 90
       25
 62
   256
340
7
 90
       50
 62
   256
 40
5.0
 40
2.5
 40
5.0
 71
     3
340
10
 62
   256
 40
5.0
 90
        0
 40
15.0
 90
        1
300
%<\AcVar ViewSectionStartId>%-%<\AcVar ViewSectionEndId>% (%<\AcVar ViewScale \f "%sn">%)
 71
     4
 62
   256
 62
   257
300
ANSI31
 40
1.0
 90
        0
290
     0
290
     0
 90
        6
 40
0.0
 40
1.57079633
 40
0.26179939
 40
1.30899694
 40
-0.26179939
 40
1.83259571
  0
TABLESTYLE
  5
606
102
{ACAD_XDICTIONARY
360
625
102
}
102
{ACAD_REACTORS
330
605
102
}
330
605
100
AcDbTableStyle
  3
Standard
 70
     0
 71
     0
 40
0.06
 41
0.06
280
     0
281
     0
  7
STANDARD
140
0.18
170
     2
 62
     0
 63
     7
283
     0
274
    -2
284
     1
 64
     0
275
    -2
285
     1
 65
     0
276
    -2
286
     1
 66
     0
277
    -2
287
     1
 67
     0
278
    -2
288
     1
 68
     0
279
    -2
289
     1
 69
     0
  7
STANDARD
140
0.25
170
     5
 62
     0
 63
     7
283
     0
274
    -2
284
     1
 64
     0
275
    -2
285
     1
 65
     0
276
    -2
286
     1
 66
     0
277
    -2
287
     1
 67
     0
278
    -2
288
     1
 68
     0
279
    -2
289
     1
 69
     0
  7
STANDARD
140
0.18
170
     5
 62
     0
 63
     7
283
     0
274
    -2
284
     1
 64
     0
275
    -2
285
     1
 65
     0
276
    -2
286
     1
 66
     0
277
    -2
287
     1
 67
     0
278
    -2
288
     1
 68
     0
279
    -2
289
     1
 69
     0
  0
VISUALSTYLE
  5
5F1
102
{ACAD_XDICTIONARY
360
6E2
102
}
102
{ACAD_REACTORS
330
5EB
102
}
330
5EB
100
AcDbVisualStyle
  2
2dWireframe
 70
     4
 71
     0
 72
     2
 73
     0
 90
        0
 40
-0.6
 41
-30.0
 62
     5
 63
     7
421
 16777215
 74
     1
 91
        4
 64
     7
 65
   257
 75
     1
175
     1
 42
1.0
 92
        0
 66
   257
 43
1.0
 76
     1
 77
     6
 78
     2
 67
     7
 79
     5
170
     0
171
     0
290
     0
174
     0
 93
        1
 44
0.0
173
     0
291
     0
 45
0.0
1001
ACAD
1000
AcDbSavedByObjectVersion
1070
     0
  0
VISUALSTYLE
  5
5F0
102
{ACAD_XDICTIONARY
360
6E0
102
}
102
{ACAD_REACTORS
330
5EB
102
}
330
5EB
100
AcDbVisualStyle
  2
Basic
 70
     7
 71
     1
 72
     0
 73
     1
 90
        0
 40
-0.6
 41
-30.0
 62
     5
 63
     7
421
 16777215
 74
     0
 91
        4
 64
     7
 65
   257
 75
     1
175
     1
 42
1.0
 92
        8
 66
     7
 43
1.0
 76
     1
 77
     6
 78
     2
 67
     7
 79
     5
170
     0
171
     0
290
     0
174
     0
 93
        1
 44
0.0
173
     0
291
     1
 45
0.0
1001
ACAD
1000
AcDbSavedByObjectVersion
1070
     0
  0
VISUALSTYLE
  5
5F7
102
{ACAD_XDICTIONARY
360
6EE
102
}
102
{ACAD_REACTORS
330
5EB
102
}
330
5EB
100
AcDbVisualStyle
  2
Brighten
 70
    12
 71
     2
 72
     2
 73
     0
 90
        0
 40
-0.6
 41
-30.0
 62
     5
 63
     7
421
 16777215
 74
     1
 91
        4
 64
     7
 65
   257
 75
     1
175
     1
 42
1.0
 92
        8
 66
     7
 43
1.0
 76
     1
 77
     6
 78
     2
 67
     7
 79
     5
170
     0
171
     0
290
     0
174
     0
 93
        1
 44
50.0
173
     0
291
     1
 45
0.0
1001
ACAD
1000
AcDbSavedByObjectVersion
1070
     0
  0
VISUALSTYLE
  5
5FB
102
{ACAD_XDICTIONARY
360
6F6
102
}
102
{ACAD_REACTORS
330
5EB
102
}
330
5EB
100
AcDbVisualStyle
  2
ColorChange
 70
    16
 71
     2
 72
     2
 73
     3
 90
        0
 40
-0.6
 41
-30.0
 62
     5
 63
     8
421
  8421504
 74
     1
 91
        4
 64
     7
 65
   257
 75
     1
175
     1
 42
1.0
 92
        8
 66
     8
424
  8421504
 43
1.0
 76
     1
 77
     6
 78
     2
 67
     7
 79
     5
170
     0
171
     0
290
     0
174
     0
 93
        1
 44
0.0
173
     0
291
     1
 45
0.0
1001
ACAD
1000
AcDbSavedByObjectVersion
1070
     0
  0
VISUALSTYLE
  5
5F4
102
{ACAD_XDICTIONARY
360
6E8
102
}
102
{ACAD_REACTORS
330
5EB
102
}
330
5EB
100
AcDbVisualStyle
  2
Conceptual
 70
     9
 71
     3
 72
     2
 73
     0
 90
        0
 40
-0.6
 41
-30.0
 62
     5
 63
     7
421
 16777215
 74
     2
 91
        2
 64
     7
 65
   257
 75
     1
175
     1
 42
179.0
 92
        8
 66
     7
 43
1.0
 76
     1
 77
     6
 78
     2
 67
     7
 79
     3
170
     0
171
     0
290
     0
174
     0
 93
        1
 44
0.0
173
     0
291
     0
 45
0.0
1001
ACAD
1000
AcDbSavedByObjectVersion
1070
     0
  0
VISUALSTYLE
  5
5F6
102
{ACAD_XDICTIONARY
360
6EC
102
}
102
{ACAD_REACTORS
330
5EB
102
}
330
5EB
100
AcDbVisualStyle
  2
Dim
 70
    11
 71
     2
 72
     2
 73
     0
 90
        0
 40
-0.6
 41
-30.0
 62
     5
 63
     7
421
 16777215
 74
     1
 91
        4
 64
     7
 65
   257
 75
     1
175
     1
 42
1.0
 92
        8
 66
     7
 43
1.0
 76
     1
 77
     6
 78
     2
 67
     7
 79
     5
170
     0
171
     0
290
     0
174
     0
 93
        1
 44
-50.0
173
     0
291
     1
 45
0.0
1001
ACAD
1000
AcDbSavedByObjectVersion
1070
     0
  0
VISUALSTYLE
  5
603
102
{ACAD_XDICTIONARY
360
706
102
}
102
{ACAD_REACTORS
330
5EB
102
}
330
5EB
100
AcDbVisualStyle
  2
EdgeColorOff
 70
    22
 71
     2
 72
     2
 73
     0
 90
        0
 40
-0.6
 41
-30.0
 62
     5
 63
     7
421
 16777215
 74
     1
 91
        4
 64
     7
 65
   257
 75
     1
175
     1
 42
1.0
 92
        8
 66
     7
 43
1.0
 76
     1
 77
     6
 78
     2
 67
     7
 79
     5
170
     0
171
     0
290
     0
174
     0
 93
        1
 44
0.0
173
     0
291
     1
 45
0.0
1001
ACAD
1000
AcDbSavedByObjectVersion
1070
     0
  0
VISUALSTYLE
  5
5FA
102
{ACAD_XDICTIONARY
360
6F4
102
}
102
{ACAD_REACTORS
330
5EB
102
}
330
5EB
100
AcDbVisualStyle
  2
Facepattern
 70
    15
 71
     2
 72
     2
 73
     0
 90
        0
 40
-0.6
 41
-30.0
 62
     5
 63
     7
421
 16777215
 74
     1
 91
        4
 64
     7
 65
   257
 75
     1
175
     1
 42
1.0
 92
        8
 66
     7
 43
1.0
 76
     1
 77
     6
 78
     2
 67
     7
 79
     5
170
     0
171
     0
290
     0
174
     0
 93
        1
 44
0.0
173
     0
291
     1
 45
0.0
1001
ACAD
1000
AcDbSavedByObjectVersion
1070
     0
  0
VISUALSTYLE
  5
5EC
102
{ACAD_XDICTIONARY
360
6D8
102
}
102
{ACAD_REACTORS
330
5EB
102
}
330
5EB
100
AcDbVisualStyle
  2
Flat
 70
     0
 71
     2
 72
     1
 73
     1
 90
        2
 40
-0.6
 41
30.0
 62
     5
 63
     7
421
 16777215
 74
     0
 91
        0
 64
     7
 65
   257
 75
     1
175
     1
 42
1.0
 92
        8
 66
     7
 43
1.0
 76
     1
 77
     6
 78
     2
 67
     7
 79
     5
170
     0
171
     0
290
     0
174
     0
 93
       13
 44
0.0
173
     0
291
     1
 45
0.0
1001
ACAD
1000
AcDbSavedByObjectVersion
1070
     0
  0
VISUALSTYLE
  5
5ED
102
{ACAD_XDICTIONARY
360
6DA
102
}
102
{ACAD_REACTORS
330
5EB
102
}
330
5EB
100
AcDbVisualStyle
  2
FlatWithEdges
 70
     1
 71
     2
 72
     1
 73
     1
 90
        2
 40
-0.6
 41
30.0
 62
     5
 63
     7
421
 16777215
 74
     1
 91
        0
 64
     7
 65
   257
 75
     1
175
     1
 42
1.0
 92
        0
 66
   257
 43
1.0
 76
     1
 77
     6
 78
     2
 67
     7
 79
     5
170
     0
171
     0
290
     0
174
     0
 93
       13
 44
0.0
173
     0
291
     1
 45
0.0
1001
ACAD
1000
AcDbSavedByObjectVersion
1070
     0
  0
VISUALSTYLE
  5
5EE
102
{ACAD_XDICTIONARY
360
6DC
102
}
102
{ACAD_REACTORS
330
5EB
102
}
330
5EB
100
AcDbVisualStyle
  2
Gouraud
 70
     2
 71
     2
 72
     2
 73
     1
 90
        2
 40
-0.6
 41
30.0
 62
     5
 63
     7
421
 16777215
 74
     0
 91
        0
 64
     7
 65
   257
 75
     1
175
     1
 42
1.0
 92
        0
 66
     7
 43
1.0
 76
     1
 77
     6
 78
     2
 67
     7
 79
     5
170
     0
171
     0
290
     0
174
     0
 93
       13
 44
0.0
173
     0
291
     1
 45
0.0
1001
ACAD
1000
AcDbSavedByObjectVersion
1070
     0
  0
VISUALSTYLE
  5
5EF
102
{ACAD_XDICTIONARY
360
6DE
102
}
102
{ACAD_REACTORS
330
5EB
102
}
330
5EB
100
AcDbVisualStyle
  2
GouraudWithEdges
 70
     3
 71
     2
 72
     2
 73
     1
 90
        2
 40
-0.6
 41
30.0
 62
     5
 63
     7
421
 16777215
 74
     1
 91
        0
 64
     7
 65
   257
 75
     1
175
     1
 42
1.0
 92
        0
 66
   257
 43
1.0
 76
     1
 77
     6
 78
     2
 67
     7
 79
     5
170
     0
171
     0
290
     0
174
     0
 93
       13
 44
0.0
173
     0
291
     1
 45
0.0
1001
ACAD
1000
AcDbSavedByObjectVersion
1070
     0
  0
VISUALSTYLE
  5
5F3
102
{ACAD_XDICTIONARY
360
6E6
102
}
102
{ACAD_REACTORS
330
5EB
102
}
330
5EB
100
AcDbVisualStyle
  2
Hidden
 70
     6
 71
     1
 72
     2
 73
     2
 90
        0
 40
-0.6
 41
-30.0
 62
     5
 63
     7
421
 16777215
 74
     2
 91
        2
 64
     7
 65
   257
 75
     2
175
     1
 42
40.0
 92
        0
 66
   257
 43
1.0
 76
     1
 77
     6
 78
     2
 67
     7
 79
     3
170
     0
171
     0
290
     0
174
     0
 93
        1
 44
0.0
173
     0
291
     0
 45
0.0
1001
ACAD
1000
AcDbSavedByObjectVersion
1070
     0
  0
VISUALSTYLE
  5
601
102
{ACAD_XDICTIONARY
360
702
102
}
102
{ACAD_REACTORS
330
5EB
102
}
330
5EB
100
AcDbVisualStyle
  2
JitterOff
 70
    20
 71
     2
 72
     2
 73
     0
 90
        0
 40
-0.6
 41
-30.0
 62
     5
 63
     7
421
 16777215
 74
     1
 91
        4
 64
     7
 65
   257
 75
     1
175
     1
 42
1.0
 92
       10
 66
     7
 43
1.0
 76
     1
 77
     6
 78
     2
 67
     7
 79
     5
170
     0
171
     0
290
     0
174
     0
 93
        1
 44
0.0
173
     0
291
     1
 45
0.0
1001
ACAD
1000
AcDbSavedByObjectVersion
1070
     0
  0
VISUALSTYLE
  5
5F9
102
{ACAD_XDICTIONARY
360
6F2
102
}
102
{ACAD_REACTORS
330
5EB
102
}
330
5EB
100
AcDbVisualStyle
  2
Linepattern
 70
    14
 71
     2
 72
     2
 73
     0
 90
        0
 40
-0.6
 41
-30.0
 62
     5
 63
     7
421
 16777215
 74
     1
 91
        4
 64
     7
 65
   257
 75
     7
175
     7
 42
1.0
 92
        8
 66
     7
 43
1.0
 76
     1
 77
     6
 78
     2
 67
     7
 79
     5
170
     0
171
     0
290
     0
174
     0
 93
        1
 44
0.0
173
     0
291
     1
 45
0.0
1001
ACAD
1000
AcDbSavedByObjectVersion
1070
     0
  0
VISUALSTYLE
  5
602
102
{ACAD_XDICTIONARY
360
704
102
}
102
{ACAD_REACTORS
330
5EB
102
}
330
5EB
100
AcDbVisualStyle
  2
OverhangOff
 70
    21
 71
     2
 72
     2
 73
     0
 90
        0
 40
-0.6
 41
-30.0
 62
     5
 63
     7
421
 16777215
 74
     1
 91
        4
 64
     7
 65
   257
 75
     1
175
     1
 42
1.0
 92
        9
 66
     7
 43
1.0
 76
     1
 77
     6
 78
     2
 67
     7
 79
     5
170
     0
171
     0
290
     0
174
     0
 93
        1
 44
0.0
173
     0
291
     1
 45
0.0
1001
ACAD
1000
AcDbSavedByObjectVersion
1070
     0
  0
VISUALSTYLE
  5
5F5
102
{ACAD_XDICTIONARY
360
6EA
102
}
102
{ACAD_REACTORS
330
5EB
102
}
330
5EB
100
AcDbVisualStyle
  2
Realistic
 70
     8
 71
     2
 72
     2
 73
     0
 90
        2
 40
-0.6
 41
30.0
 62
     5
 63
     7
421
 16777215
 74
     0
 91
        0
 64
     7
 65
   257
 75
     1
175
     1
 42
1.0
 92
        8
 66
   257
 43
1.0
 76
     1
 77
     6
 78
     2
 67
     7
 79
     3
170
     0
171
     0
290
     0
174
     0
 93
       13
 44
0.0
173
     0
291
     0
 45
0.0
1001
ACAD
1000
AcDbSavedByObjectVersion
1070
     0
  0
VISUALSTYLE
  5
600
102
{ACAD_XDICTIONARY
360
700
102
}
102
{ACAD_REACTORS
330
5EB
102
}
330
5EB
100
AcDbVisualStyle
  2
Shaded
 70
    27
 71
     2
 72
     2
 73
     1
 90
        2
 40
-0.6
 41
30.0
 62
     5
 63
     7
421
 16777215
 74
     0
 91
        4
 64
     7
 65
   257
 75
     1
175
     1
 42
1.0
 92
        8
 66
   257
 43
1.0
 76
     1
 77
     6
 78
     2
 67
     8
425
  7895160
 79
     3
170
     0
171
     0
290
     0
174
     0
 93
        5
 44
0.0
173
     0
291
     0
 45
0.0
1001
ACAD
1000
AcDbSavedByObjectVersion
1070
     0
  0
VISUALSTYLE
  5
5FF
102
{ACAD_XDICTIONARY
360
6FE
102
}
102
{ACAD_REACTORS
330
5EB
102
}
330
5EB
100
AcDbVisualStyle
  2
Shaded with edges
 70
    26
 71
     2
 72
     2
 73
     1
 90
        2
 40
-0.6
 41
30.0
 62
     5
 63
     7
421
 16777215
 74
     1
 91
       10
 64
     7
 65
   257
 75
     2
175
     1
 42
1.0
 92
        8
 66
   257
 43
1.0
 76
     1
 77
     6
 78
     2
 67
     7
 79
     3
170
     0
171
     0
290
     0
174
     0
 93
        5
 44
0.0
173
     0
291
     0
 45
0.0
1001
ACAD
1000
AcDbSavedByObjectVersion
1070
     0
  0
VISUALSTYLE
  5
5FC
102
{ACAD_XDICTIONARY
360
6F8
102
}
102
{ACAD_REACTORS
330
5EB
102
}
330
5EB
100
AcDbVisualStyle
  2
Shades of Gray
 70
    23
 71
     2
 72
     2
 73
     3
 90
        0
 40
-0.6
 41
-30.0
 62
     5
 63
     7
421
 16777215
 74
     2
 91
        2
 64
     7
 65
     7
 75
     1
175
     1
 42
40.0
 92
        8
 66
     7
 43
1.0
 76
     1
 77
     6
 78
     2
 67
     7
 79
     3
170
     0
171
     0
290
     0
174
     0
 93
        1
 44
0.0
173
     0
291
     0
 45
0.0
1001
ACAD
1000
AcDbSavedByObjectVersion
1070
     0
  0
VISUALSTYLE
  5
5FD
102
{ACAD_XDICTIONARY
360
6FA
102
}
102
{ACAD_REACTORS
330
5EB
102
}
330
5EB
100
AcDbVisualStyle
  2
Sketchy
 70
    24
 71
     1
 72
     2
 73
     2
 90
        0
 40
-0.6
 41
-30.0
 62
     5
 63
     7
421
 16777215
 74
     2
 91
        2
 64
     7
 65
     7
 75
     1
175
     1
 42
40.0
 92
       11
 66
     7
 43
1.0
 76
     1
 77
     6
 78
     2
 67
     7
 79
     6
170
     0
171
     0
290
     0
174
     0
 93
        1
 44
0.0
173
     0
291
     0
 45
0.0
1001
ACAD
1000
AcDbSavedByObjectVersion
1070
     0
  0
VISUALSTYLE
  5
5F8
102
{ACAD_XDICTIONARY
360
6F0
102
}
102
{ACAD_REACTORS
330
5EB
102
}
330
5EB
100
AcDbVisualStyle
  2
Thicken
 70
    13
 71
     2
 72
     2
 73
     0
 90
        0
 40
-0.6
 41
-30.0
 62
     5
 63
     7
421
 16777215
 74
     1
 91
        4
 64
     7
 65
   257
 75
     1
175
     1
 42
1.0
 92
       12
 66
     7
 43
1.0
 76
     1
 77
     6
 78
     2
 67
     7
 79
     5
170
     0
171
     0
290
     0
174
     0
 93
        1
 44
0.0
173
     0
291
     1
 45
0.0
1001
ACAD
1000
AcDbSavedByObjectVersion
1070
     0
  0
VISUALSTYLE
  5
5F2
102
{ACAD_XDICTIONARY
360
6E4
102
}
102
{ACAD_REACTORS
330
5EB
102
}
330
5EB
100
AcDbVisualStyle
  2
Wireframe
 70
     5
 71
     0
 72
     2
 73
     0
 90
        0
 40
-0.6
 41
-30.0
 62
     5
 63
     7
421
 16777215
 74
     1
 91
        4
 64
     7
 65
   257
 75
     1
175
     1
 42
1.0
 92
        0
 66
   257
 43
1.0
 76
     1
 77
     6
 78
     2
 67
     7
 79
     3
170
     0
171
     0
290
     0
174
     0
 93
        1
 44
0.0
173
     0
291
     0
 45
0.0
1001
ACAD
1000
AcDbSavedByObjectVersion
1070
     0
  0
VISUALSTYLE
  5
5FE
102
{ACAD_XDICTIONARY
360
6FC
102
}
102
{ACAD_REACTORS
330
5EB
102
}
330
5EB
100
AcDbVisualStyle
  2
X-Ray
 70
    25
 71
     2
 72
     2
 73
     1
 90
        1
 40
0.5
 41
-30.0
 62
     5
 63
     7
421
 16777215
 74
     1
 91
        0
 64
     7
 65
   257
 75
     1
175
     1
 42
1.0
 92
        8
 66
     7
 43
1.0
 76
     1
 77
     6
 78
     2
 67
     7
 79
     3
170
     0
171
     0
290
     0
174
     0
 93
       13
 44
0.0
173
     0
291
     0
 45
0.0
1001
ACAD
1000
AcDbSavedByObjectVersion
1070
     0
  0
DICTIONARYVAR
  5
668
102
{ACAD_REACTORS
330
663
102
}
330
663
100
DictionaryVariables
280
     0
  1
1:1
  0
DICTIONARYVAR
  5
665
102
{ACAD_REACTORS
330
663
102
}
330
663
100
DictionaryVariables
280
     0
  1
STANDARD
  0
DICTIONARYVAR
  5
664
102
{ACAD_REACTORS
330
663
102
}
330
663
100
DictionaryVariables
280
     0
  1
STANDARD
  0
DICTIONARYVAR
  5
666
102
{ACAD_REACTORS
330
663
102
}
330
663
100
DictionaryVariables
280
     0
  1
Imperial24
  0
DICTIONARYVAR
  5
667
102
{ACAD_REACTORS
330
663
102
}
330
663
100
DictionaryVariables
280
     0
  1
Imperial24
  0
DICTIONARYVAR
  5
6D2
102
{ACAD_REACTORS
330
663
102
}
330
663
100
DictionaryVariables
280
     0
  1
2
  0
DICTIONARY
  5
70D
330
61E
100
AcDbDictionary
280
     1
281
     1
  3
ACAD_XREC_ROUNDTRIP
360
70E
  0
DICTIONARY
  5
711
330
6CD
100
AcDbDictionary
280
     1
281
     1
  3
ACAD_XREC_ROUNDTRIP
360
712
  0
DICTIONARY
  5
5DC
330
5DB
100
AcDbDictionary
280
     1
281
     1
  3
ACAD_XREC_ROUNDTRIP
360
6D6
  3
BUMPTILE
360
5DE
  3
DIFFUSETILE
360
5DD
  3
OPACITYTILE
360
5E1
  3
REFLECTIONTILE
360
5E0
  3
REFRACTIONTILE
360
5E2
  3
SPECULARTILE
360
5DF
  0
DICTIONARY
  5
5D4
330
5D3
100
AcDbDictionary
280
     1
281
     1
  3
ACAD_XREC_ROUNDTRIP
360
6D5
  3
BUMPTILE
360
5D6
  3
DIFFUSETILE
360
5D5
  3
OPACITYTILE
360
5D9
  3
REFLECTIONTILE
360
5D8
  3
REFRACTIONTILE
360
5DA
  3
SPECULARTILE
360
5D7
  0
DICTIONARY
  5
5E4
330
5E3
100
AcDbDictionary
280
     1
281
     1
  3
ACAD_XREC_ROUNDTRIP
360
6D7
  3
BUMPTILE
360
5E6
  3
DIFFUSETILE
360
5E5
  3
OPACITYTILE
360
5E9
  3
REFLECTIONTILE
360
5E8
  3
REFRACTIONTILE
360
5EA
  3
SPECULARTILE
360
5E7
  0
DICTIONARY
  5
709
330
61A
100
AcDbDictionary
280
     1
281
     1
  3
ACAD_XREC_ROUNDTRIP
360
70A
  0
DICTIONARY
  5
70B
330
61C
100
AcDbDictionary
280
     1
281
     1
  3
ACAD_XREC_ROUNDTRIP
360
70C
  0
DICTIONARY
  5
70F
330
6CC
100
AcDbDictionary
280
     1
281
     1
  3
ACAD_XREC_ROUNDTRIP
360
710
  0
DICTIONARY
  5
625
330
606
100
AcDbDictionary
280
     1
281
     1
  3
ACAD_ROUNDTRIP_2008_TABLESTYLE_CELLSTYLEMAP
360
6D3
  3
ACAD_XREC_ROUNDTRIP
360
708
  0
DICTIONARY
  5
6E2
330
5F1
100
AcDbDictionary
280
     1
281
     1
  3
ACAD_XREC_ROUNDTRIP
360
6E3
  0
DICTIONARY
  5
6E0
330
5F0
100
AcDbDictionary
280
     1
281
     1
  3
ACAD_XREC_ROUNDTRIP
360
6E1
  0
DICTIONARY
  5
6EE
330
5F7
100
AcDbDictionary
280
     1
281
     1
  3
ACAD_XREC_ROUNDTRIP
360
6EF
  0
DICTIONARY
  5
6F6
330
5FB
100
AcDbDictionary
280
     1
281
     1
  3
ACAD_XREC_ROUNDTRIP
360
6F7
  0
DICTIONARY
  5
6E8
330
5F4
100
AcDbDictionary
280
     1
281
     1
  3
ACAD_XREC_ROUNDTRIP
360
6E9
  0
DICTIONARY
  5
6EC
330
5F6
100
AcDbDictionary
280
     1
281
     1
  3
ACAD_XREC_ROUNDTRIP
360
6ED
  0
DICTIONARY
  5
706
330
603
100
AcDbDictionary
280
     1
281
     1
  3
ACAD_XREC_ROUNDTRIP
360
707
  0
DICTIONARY
  5
6F4
330
5FA
100
AcDbDictionary
280
     1
281
     1
  3
ACAD_XREC_ROUNDTRIP
360
6F5
  0
DICTIONARY
  5
6D8
330
5EC
100
AcDbDictionary
280
     1
281
     1
  3
ACAD_XREC_ROUNDTRIP
360
6D9
  0
DICTIONARY
  5
6DA
330
5ED
100
AcDbDictionary
280
     1
281
     1
  3
ACAD_XREC_ROUNDTRIP
360
6DB
  0
DICTIONARY
  5
6DC
330
5EE
100
AcDbDictionary
280
     1
281
     1
  3
ACAD_XREC_ROUNDTRIP
360
6DD
  0
DICTIONARY
  5
6DE
330
5EF
100
AcDbDictionary
280
     1
281
     1
  3
ACAD_XREC_ROUNDTRIP
360
6DF
  0
DICTIONARY
  5
6E6
330
5F3
100
AcDbDictionary
280
     1
281
     1
  3
ACAD_XREC_ROUNDTRIP
360
6E7
  0
DICTIONARY
  5
702
330
601
100
AcDbDictionary
280
     1
281
     1
  3
ACAD_XREC_ROUNDTRIP
360
703
  0
DICTIONARY
  5
6F2
330
5F9
100
AcDbDictionary
280
     1
281
     1
  3
ACAD_XREC_ROUNDTRIP
360
6F3
  0
DICTIONARY
  5
704
330
602
100
AcDbDictionary
280
     1
281
     1
  3
ACAD_XREC_ROUNDTRIP
360
705
  0
DICTIONARY
  5
6EA
330
5F5
100
AcDbDictionary
280
     1
281
     1
  3
ACAD_XREC_ROUNDTRIP
360
6EB
  0
DICTIONARY
  5
700
330
600
100
AcDbDictionary
280
     1
281
     1
  3
ACAD_XREC_ROUNDTRIP
360
701
  0
DICTIONARY
  5
6FE
330
5FF
100
AcDbDictionary
280
     1
281
     1
  3
ACAD_XREC_ROUNDTRIP
360
6FF
  0
DICTIONARY
  5
6F8
330
5FC
100
AcDbDictionary
280
     1
281
     1
  3
ACAD_XREC_ROUNDTRIP
360
6F9
  0
DICTIONARY
  5
6FA
330
5FD
100
AcDbDictionary
280
     1
281
     1
  3
ACAD_XREC_ROUNDTRIP
360
6FB
  0
DICTIONARY
  5
6F0
330
5F8
100
AcDbDictionary
280
     1
281
     1
  3
ACAD_XREC_ROUNDTRIP
360
6F1
  0
DICTIONARY
  5
6E4
330
5F2
100
AcDbDictionary
280
     1
281
     1
  3
ACAD_XREC_ROUNDTRIP
360
6E5
  0
DICTIONARY
  5
6FC
330
5FE
100
AcDbDictionary
280
     1
281
     1
  3
ACAD_XREC_ROUNDTRIP
360
6FD
  0
XRECORD
  5
70E
102
{ACAD_REACTORS
330
70D
102
}
330
70D
100
AcDbXrecord
280
     1
102
DISPLAYNAME
  1
Imperial24
102
FLAGS
 90
        0
  0
XRECORD
  5
712
102
{ACAD_REACTORS
330
711
102
}
330
711
100
AcDbXrecord
280
     1
102
DISPLAYNAME
  1
Metric50
102
FLAGS
 90
        0
  0
XRECORD
  5
6D6
102
{ACAD_REACTORS
330
5DC
102
}
330
5DC
100
AcDbXrecord
280
     1
102
MATERIAL
148
0.0
149
0.0
149
0.0
 93
        0
 94
      127
282
     0
 72
     0
 77
     0
171
     0
175
     0
179
     0
273
     0
  0
XRECORD
  5
5DE
102
{ACAD_REACTORS
330
5DC
102
}
330
5DC
100
AcDbXrecord
280
     1
270
     1
271
     1
  0
XRECORD
  5
5DD
102
{ACAD_REACTORS
330
5DC
102
}
330
5DC
100
AcDbXrecord
280
     1
270
     1
271
     1
  0
XRECORD
  5
5E1
102
{ACAD_REACTORS
330
5DC
102
}
330
5DC
100
AcDbXrecord
280
     1
270
     1
271
     1
  0
XRECORD
  5
5E0
102
{ACAD_REACTORS
330
5DC
102
}
330
5DC
100
AcDbXrecord
280
     1
270
     1
271
     1
  0
XRECORD
  5
5E2
102
{ACAD_REACTORS
330
5DC
102
}
330
5DC
100
AcDbXrecord
280
     1
270
     1
271
     1
  0
XRECORD
  5
5DF
102
{ACAD_REACTORS
330
5DC
102
}
330
5DC
100
AcDbXrecord
280
     1
270
     1
271
     1
  0
XRECORD
  5
6D5
102
{ACAD_REACTORS
330
5D4
102
}
330
5D4
100
AcDbXrecord
280
     1
102
MATERIAL
148
0.0
149
0.0
149
0.0
 93
        0
 94
      127
282
     0
 72
     0
 77
     0
171
     0
175
     0
179
     0
273
     0
  0
XRECORD
  5
5D6
102
{ACAD_REACTORS
330
5D4
102
}
330
5D4
100
AcDbXrecord
280
     1
270
     1
271
     1
  0
XRECORD
  5
5D5
102
{ACAD_REACTORS
330
5D4
102
}
330
5D4
100
AcDbXrecord
280
     1
270
     1
271
     1
  0
XRECORD
  5
5D9
102
{ACAD_REACTORS
330
5D4
102
}
330
5D4
100
AcDbXrecord
280
     1
270
     1
271
     1
  0
XRECORD
  5
5D8
102
{ACAD_REACTORS
330
5D4
102
}
330
5D4
100
AcDbXrecord
280
     1
270
     1
271
     1
  0
XRECORD
  5
5DA
102
{ACAD_REACTORS
330
5D4
102
}
330
5D4
100
AcDbXrecord
280
     1
270
     1
271
     1
  0
XRECORD
  5
5D7
102
{ACAD_REACTORS
330
5D4
102
}
330
5D4
100
AcDbXrecord
280
     1
270
     1
271
     1
  0
XRECORD
  5
6D7
102
{ACAD_REACTORS
330
5E4
102
}
330
5E4
100
AcDbXrecord
280
     1
102
MATERIAL
148
0.0
149
0.0
149
0.0
 93
        0
 94
      127
282
     0
 72
     0
 77
     0
171
     0
175
     0
179
     0
273
     0
  0
XRECORD
  5
5E6
102
{ACAD_REACTORS
330
5E4
102
}
330
5E4
100
AcDbXrecord
280
     1
270
     1
271
     1
  0
XRECORD
  5
5E5
102
{ACAD_REACTORS
330
5E4
102
}
330
5E4
100
AcDbXrecord
280
     1
270
     1
271
     1
  0
XRECORD
  5
5E9
102
{ACAD_REACTORS
330
5E4
102
}
330
5E4
100
AcDbXrecord
280
     1
270
     1
271
     1
  0
XRECORD
  5
5E8
102
{ACAD_REACTORS
330
5E4
102
}
330
5E4
100
AcDbXrecord
280
     1
270
     1
271
     1
  0
XRECORD
  5
5EA
102
{ACAD_REACTORS
330
5E4
102
}
330
5E4
100
AcDbXrecord
280
     1
270
     1
271
     1
  0
XRECORD
  5
5E7
102
{ACAD_REACTORS
330
5E4
102
}
330
5E4
100
AcDbXrecord
280
     1
270
     1
271
     1
  0
XRECORD
  5
70A
102
{ACAD_REACTORS
330
709
102
}
330
709
100
AcDbXrecord
280
     1
102
ACAD_ROUNDTRIP_2012_MLEADER_STYLE
298
     1
  0
XRECORD
  5
70C
102
{ACAD_REACTORS
330
70B
102
}
330
70B
100
AcDbXrecord
280
     1
102
DISPLAYNAME
  1
Imperial24
102
FLAGS
 90
        0
  0
XRECORD
  5
710
102
{ACAD_REACTORS
330
70F
102
}
330
70F
100
AcDbXrecord
280
     1
102
DISPLAYNAME
  1
Metric50
102
FLAGS
 90
        0
  0
CELLSTYLEMAP
  5
6D3
102
{ACAD_REACTORS
330
625
102
}
330
625
100
AcDbCellStyleMap
 90
        3
300
CELLSTYLE
  1
TABLEFORMAT_BEGIN
 90
        5
170
     1
 91
        0
 92
    32768
 62
   257
 93
        1
300
CONTENTFORMAT
  1
CONTENTFORMAT_BEGIN
 90
        0
 91
        0
 92
      512
 93
        0
300

 40
0.0
140
1.0
 94
        5
 62
     0
340
10
144
0.25
309
CONTENTFORMAT_END
171
     0
 94
        0
309
TABLEFORMAT_END
  1
CELLSTYLE_BEGIN
 90
        1
 91
        1
300
_TITLE
309
CELLSTYLE_END
300
CELLSTYLE
  1
TABLEFORMAT_BEGIN
 90
        5
170
     1
 91
        0
 92
        0
 62
   257
 93
        1
300
CONTENTFORMAT
  1
CONTENTFORMAT_BEGIN
 90
        0
 91
        0
 92
      512
 93
        0
300

 40
0.0
140
1.0
 94
        5
 62
     0
340
10
144
0.18
309
CONTENTFORMAT_END
171
     0
 94
        0
309
TABLEFORMAT_END
  1
CELLSTYLE_BEGIN
 90
        2
 91
        1
300
_HEADER
309
CELLSTYLE_END
300
CELLSTYLE
  1
TABLEFORMAT_BEGIN
 90
        5
170
     1
 91
        0
 92
        0
 62
   257
 93
        1
300
CONTENTFORMAT
  1
CONTENTFORMAT_BEGIN
 90
        0
 91
        0
 92
      512
 93
        0
300

 40
0.0
140
1.0
 94
        2
 62
     0
340
10
144
0.18
309
CONTENTFORMAT_END
171
     0
 94
        0
309
TABLEFORMAT_END
  1
CELLSTYLE_BEGIN
 90
        3
 91
        2
300
_DATA
309
CELLSTYLE_END
  0
XRECORD
  5
708
102
{ACAD_REACTORS
330
625
102
}
330
625
100
AcDbXrecord
280
     1
102
ACAD_ROUNDTRIP_PRE2007_TABLESTYLE
 90
      512
 91
        0
  1

 92
      512
 93
        0
  2

 94
      512
 95
        0
  3

  0
XRECORD
  5
6E3
102
{ACAD_REACTORS
330
6E2
102
}
330
6E2
100
AcDbXrecord
280
     1
102
RTVSPost2010Prop28
280
     1
102
RTVSPost2010PropOp28
 70
     1
102
RTVSPost2010Prop29
280
     1
102
RTVSPost2010PropOp29
 70
     1
102
RTVSPost2010Prop30
280
     0
102
RTVSPost2010PropOp30
 70
     1
102
RTVSPost2010Prop31
280
     0
102
RTVSPost2010PropOp31
 70
     1
102
RTVSPost2010Prop32
280
     0
102
RTVSPost2010PropOp32
 70
     1
102
RTVSPost2010Prop33
280
     0
102
RTVSPost2010PropOp33
 70
     1
102
RTVSPost2010Prop34
280
     0
102
RTVSPost2010PropOp34
 70
     1
102
RTVSPost2010Prop35
280
     0
102
RTVSPost2010PropOp35
 70
     1
102
RTVSPost2010Prop36
280
     0
102
RTVSPost2010PropOp36
 70
     1
102
RTVSPost2010Prop37
 90
       50
102
RTVSPost2010PropOp37
 70
     1
102
RTVSPost2010Prop38
140
0.0
102
RTVSPost2010PropOp38
 70
     1
102
RTVSPost2010Prop39
140
1.0
102
RTVSPost2010PropOp39
 70
     1
102
RTVSPost2010Prop40
 90
        0
102
RTVSPost2010PropOp40
 70
     1
102
RTVSPost2010Prop41ColorIndex
 90
       18
102
RTVSPost2010Prop41ColorRGB
 90
        0
102
RTVSPost2010PropOp41
 70
     1
102
RTVSPost2010Prop42
 90
       50
102
RTVSPost2010PropOp42
 70
     1
102
RTVSPost2010Prop43
 90
        3
102
RTVSPost2010PropOp43
 70
     1
102
RTVSPost2010Prop44ColorIndex
 90
        5
102
RTVSPost2010Prop44ColorRGB
 90
      255
102
RTVSPost2010PropOp44
 70
     1
102
RTVSPost2010Prop45
280
     0
102
RTVSPost2010PropOp45
 70
     1
102
RTVSPost2010Prop46
 90
       50
102
RTVSPost2010PropOp46
 70
     1
102
RTVSPost2010Prop47
 90
       50
102
RTVSPost2010PropOp47
 70
     1
102
RTVSPost2010Prop48
 90
       50
102
RTVSPost2010PropOp48
 70
     1
102
RTVSPost2010Prop49
280
     0
102
RTVSPost2010PropOp49
 70
     1
102
RTVSPost2010Prop50
 90
       50
102
RTVSPost2010PropOp50
 70
     1
102
RTVSPost2010Prop51ColorIndex
 90
      256
102
RTVSPost2010Prop51ColorRGB
 90
-16777216
102
RTVSPost2010PropOp51
 70
     0
102
RTVSPost2010Prop52
140
1.0
102
RTVSPost2010PropOp52
 70
     0
102
RTVSPost2010Prop53
 90
        2
102
RTVSPost2010PropOp53
 70
     1
102
RTVSPost2010Prop54
  1
strokes_ogs.tif
102
RTVSPost2010PropOp54
 70
     1
102
RTVSPost2010Prop55
280
     0
102
RTVSPost2010PropOp55
 70
     1
102
RTVSPost2010Prop56
140
1.0
102
RTVSPost2010PropOp56
 70
     1
102
RTVSPost2010Prop57
140
1.0
102
RTVSPost2010PropOp57
 70
     1
102
RTVSPropertyOp0
 70
     1
102
RTVSPropertyOp1
 70
     1
102
RTVSPropertyOp2
 70
     1
102
RTVSPropertyOp3
 70
     1
102
RTVSPropertyOp4
 70
     1
102
RTVSPropertyOp5
 70
     1
102
RTVSPropertyOp6
 70
     1
102
RTVSPropertyOp7
 70
     1
102
RTVSPropertyOp8
 70
     1
102
RTVSPropertyOp9
 70
     1
102
RTVSPropertyOp10
 70
     1
102
RTVSPropertyOp11
 70
     1
102
RTVSPropertyOp12
 70
     1
102
RTVSPropertyOp13
 70
     1
102
RTVSPropertyOp14
 70
     1
102
RTVSPropertyOp15
 70
     1
102
RTVSPropertyOp16
 70
     1
102
RTVSPropertyOp17
 70
     1
102
RTVSPropertyOp18
 70
     1
102
RTVSPropertyOp19
 70
     1
102
RTVSPropertyOp20
 70
     1
102
RTVSPropertyOp21
 70
     1
102
RTVSPropertyOp22
 70
     1
102
RTVSPropertyOp23
 70
     1
102
RTVSPropertyOp24
 70
     1
102
RTVSPropertyOp25
 70
     1
102
RTVSPropertyOp26
 70
     1
102
RTVSPropertyOp27
 70
     1
102
RTVSPropertyOp28
 70
     1
102
RTVSPropertyOp29
 70
     1
102
RTVSPropertyOp30
 70
     1
102
RTVSPropertyOp31
 70
     1
102
RTVSPropertyOp32
 70
     1
102
RTVSPropertyOp33
 70
     1
102
RTVSPropertyOp34
 70
     1
102
RTVSPropertyOp35
 70
     1
102
RTVSPropertyOp36
 70
     1
102
RTVSPropertyOp37
 70
     1
102
RTVSPropertyOp38
 70
     1
102
RTVSPropertyOp39
 70
     1
102
RTVSPropertyOp40
 70
     1
102
RTVSPropertyOp41
 70
     1
102
RTVSPropertyOp42
 70
     1
102
RTVSPropertyOp43
 70
     1
102
RTVSPropertyOp44
 70
     1
102
RTVSPropertyOp45
 70
     1
102
RTVSPropertyOp46
 70
     1
102
RTVSPropertyOp47
 70
     1
102
RTVSPropertyOp48
 70
     1
102
RTVSPropertyOp49
 70
     1
102
RTVSPropertyOp50
 70
     1
102
RTVSPropertyOp51
 70
     0
102
RTVSPropertyOp52
 70
     0
102
RTVSPropertyOp53
 70
     1
102
RTVSPropertyOp54
 70
     1
102
RTVSPropertyOp55
 70
     1
102
RTVSPropertyOp56
 70
     1
102
RTVSPropertyOp57
 70
     1
102
RTVSPropertyOp58
 70
     1
102
RTVSPropertyOp59
 70
     1
102
RTVSPropertyOp60
 70
     1
102
RTVSPropertyOp61
 70
     1
102
RTVSPropertyOp62
 70
     1
  0
XRECORD
  5
6E1
102
{ACAD_REACTORS
330
6E0
102
}
330
6E0
100
AcDbXrecord
280
     1
102
RTVSPost2010Prop28
280
     0
102
RTVSPost2010PropOp28
 70
     1
102
RTVSPost2010Prop29
280
     1
102
RTVSPost2010PropOp29
 70
     1
102
RTVSPost2010Prop30
280
     1
102
RTVSPost2010PropOp30
 70
     1
102
RTVSPost2010Prop31
280
     0
102
RTVSPost2010PropOp31
 70
     1
102
RTVSPost2010Prop32
280
     0
102
RTVSPost2010PropOp32
 70
     1
102
RTVSPost2010Prop33
280
     0
102
RTVSPost2010PropOp33
 70
     1
102
RTVSPost2010Prop34
280
     0
102
RTVSPost2010PropOp34
 70
     1
102
RTVSPost2010Prop35
280
     0
102
RTVSPost2010PropOp35
 70
     1
102
RTVSPost2010Prop36
280
     0
102
RTVSPost2010PropOp36
 70
     1
102
RTVSPost2010Prop37
 90
       50
102
RTVSPost2010PropOp37
 70
     1
102
RTVSPost2010Prop38
140
0.0
102
RTVSPost2010PropOp38
 70
     1
102
RTVSPost2010Prop39
140
1.0
102
RTVSPost2010PropOp39
 70
     1
102
RTVSPost2010Prop40
 90
        0
102
RTVSPost2010PropOp40
 70
     1
102
RTVSPost2010Prop41ColorIndex
 90
       18
102
RTVSPost2010Prop41ColorRGB
 90
        0
102
RTVSPost2010PropOp41
 70
     1
102
RTVSPost2010Prop42
 90
       50
102
RTVSPost2010PropOp42
 70
     1
102
RTVSPost2010Prop43
 90
        3
102
RTVSPost2010PropOp43
 70
     1
102
RTVSPost2010Prop44ColorIndex
 90
        5
102
RTVSPost2010Prop44ColorRGB
 90
      255
102
RTVSPost2010PropOp44
 70
     1
102
RTVSPost2010Prop45
280
     0
102
RTVSPost2010PropOp45
 70
     1
102
RTVSPost2010Prop46
 90
       50
102
RTVSPost2010PropOp46
 70
     1
102
RTVSPost2010Prop47
 90
       50
102
RTVSPost2010PropOp47
 70
     1
102
RTVSPost2010Prop48
 90
       50
102
RTVSPost2010PropOp48
 70
     1
102
RTVSPost2010Prop49
280
     0
102
RTVSPost2010PropOp49
 70
     1
102
RTVSPost2010Prop50
 90
       50
102
RTVSPost2010PropOp50
 70
     1
102
RTVSPost2010Prop51ColorIndex
 90
      256
102
RTVSPost2010Prop51ColorRGB
 90
-16777216
102
RTVSPost2010PropOp51
 70
     0
102
RTVSPost2010Prop52
140
1.0
102
RTVSPost2010PropOp52
 70
     0
102
RTVSPost2010Prop53
 90
        2
102
RTVSPost2010PropOp53
 70
     1
102
RTVSPost2010Prop54
  1
strokes_ogs.tif
102
RTVSPost2010PropOp54
 70
     1
102
RTVSPost2010Prop55
280
     0
102
RTVSPost2010PropOp55
 70
     1
102
RTVSPost2010Prop56
140
1.0
102
RTVSPost2010PropOp56
 70
     1
102
RTVSPost2010Prop57
140
1.0
102
RTVSPost2010PropOp57
 70
     1
102
RTVSPropertyOp0
 70
     1
102
RTVSPropertyOp1
 70
     1
102
RTVSPropertyOp2
 70
     1
102
RTVSPropertyOp3
 70
     1
102
RTVSPropertyOp4
 70
     1
102
RTVSPropertyOp5
 70
     1
102
RTVSPropertyOp6
 70
     1
102
RTVSPropertyOp7
 70
     1
102
RTVSPropertyOp8
 70
     1
102
RTVSPropertyOp9
 70
     1
102
RTVSPropertyOp10
 70
     1
102
RTVSPropertyOp11
 70
     1
102
RTVSPropertyOp12
 70
     1
102
RTVSPropertyOp13
 70
     1
102
RTVSPropertyOp14
 70
     1
102
RTVSPropertyOp15
 70
     1
102
RTVSPropertyOp16
 70
     1
102
RTVSPropertyOp17
 70
     1
102
RTVSPropertyOp18
 70
     1
102
RTVSPropertyOp19
 70
     1
102
RTVSPropertyOp20
 70
     1
102
RTVSPropertyOp21
 70
     1
102
RTVSPropertyOp22
 70
     1
102
RTVSPropertyOp23
 70
     1
102
RTVSPropertyOp24
 70
     1
102
RTVSPropertyOp25
 70
     1
102
RTVSPropertyOp26
 70
     1
102
RTVSPropertyOp27
 70
     1
102
RTVSPropertyOp28
 70
     1
102
RTVSPropertyOp29
 70
     1
102
RTVSPropertyOp30
 70
     1
102
RTVSPropertyOp31
 70
     1
102
RTVSPropertyOp32
 70
     1
102
RTVSPropertyOp33
 70
     1
102
RTVSPropertyOp34
 70
     1
102
RTVSPropertyOp35
 70
     1
102
RTVSPropertyOp36
 70
     1
102
RTVSPropertyOp37
 70
     1
102
RTVSPropertyOp38
 70
     1
102
RTVSPropertyOp39
 70
     1
102
RTVSPropertyOp40
 70
     1
102
RTVSPropertyOp41
 70
     1
102
RTVSPropertyOp42
 70
     1
102
RTVSPropertyOp43
 70
     1
102
RTVSPropertyOp44
 70
     1
102
RTVSPropertyOp45
 70
     1
102
RTVSPropertyOp46
 70
     1
102
RTVSPropertyOp47
 70
     1
102
RTVSPropertyOp48
 70
     1
102
RTVSPropertyOp49
 70
     1
102
RTVSPropertyOp50
 70
     1
102
RTVSPropertyOp51
 70
     0
102
RTVSPropertyOp52
 70
     0
102
RTVSPropertyOp53
 70
     1
102
RTVSPropertyOp54
 70
     1
102
RTVSPropertyOp55
 70
     1
102
RTVSPropertyOp56
 70
     1
102
RTVSPropertyOp57
 70
     1
102
RTVSPropertyOp58
 70
     1
102
RTVSPropertyOp59
 70
     1
102
RTVSPropertyOp60
 70
     1
102
RTVSPropertyOp61
 70
     1
102
RTVSPropertyOp62
 70
     1
  0
XRECORD
  5
6EF
102
{ACAD_REACTORS
330
6EE
102
}
330
6EE
100
AcDbXrecord
280
     1
102
RTVSPost2010Prop28
280
     0
102
RTVSPost2010PropOp28
 70
     1
102
RTVSPost2010Prop29
280
     1
102
RTVSPost2010PropOp29
 70
     1
102
RTVSPost2010Prop30
280
     1
102
RTVSPost2010PropOp30
 70
     1
102
RTVSPost2010Prop31
280
     0
102
RTVSPost2010PropOp31
 70
     1
102
RTVSPost2010Prop32
280
     0
102
RTVSPost2010PropOp32
 70
     1
102
RTVSPost2010Prop33
280
     0
102
RTVSPost2010PropOp33
 70
     1
102
RTVSPost2010Prop34
280
     0
102
RTVSPost2010PropOp34
 70
     1
102
RTVSPost2010Prop35
280
     0
102
RTVSPost2010PropOp35
 70
     1
102
RTVSPost2010Prop36
280
     0
102
RTVSPost2010PropOp36
 70
     1
102
RTVSPost2010Prop37
 90
       50
102
RTVSPost2010PropOp37
 70
     1
102
RTVSPost2010Prop38
140
0.0
102
RTVSPost2010PropOp38
 70
     1
102
RTVSPost2010Prop39
140
1.0
102
RTVSPost2010PropOp39
 70
     1
102
RTVSPost2010Prop40
 90
        0
102
RTVSPost2010PropOp40
 70
     1
102
RTVSPost2010Prop41ColorIndex
 90
       18
102
RTVSPost2010Prop41ColorRGB
 90
        0
102
RTVSPost2010PropOp41
 70
     1
102
RTVSPost2010Prop42
 90
       50
102
RTVSPost2010PropOp42
 70
     1
102
RTVSPost2010Prop43
 90
        3
102
RTVSPost2010PropOp43
 70
     1
102
RTVSPost2010Prop44ColorIndex
 90
        5
102
RTVSPost2010Prop44ColorRGB
 90
      255
102
RTVSPost2010PropOp44
 70
     1
102
RTVSPost2010Prop45
280
     0
102
RTVSPost2010PropOp45
 70
     1
102
RTVSPost2010Prop46
 90
       50
102
RTVSPost2010PropOp46
 70
     1
102
RTVSPost2010Prop47
 90
       50
102
RTVSPost2010PropOp47
 70
     1
102
RTVSPost2010Prop48
 90
       50
102
RTVSPost2010PropOp48
 70
     1
102
RTVSPost2010Prop49
280
     0
102
RTVSPost2010PropOp49
 70
     1
102
RTVSPost2010Prop50
 90
       50
102
RTVSPost2010PropOp50
 70
     1
102
RTVSPost2010Prop51ColorIndex
 90
      256
102
RTVSPost2010Prop51ColorRGB
 90
-16777216
102
RTVSPost2010PropOp51
 70
     0
102
RTVSPost2010Prop52
140
1.0
102
RTVSPost2010PropOp52
 70
     0
102
RTVSPost2010Prop53
 90
        2
102
RTVSPost2010PropOp53
 70
     1
102
RTVSPost2010Prop54
  1
strokes_ogs.tif
102
RTVSPost2010PropOp54
 70
     1
102
RTVSPost2010Prop55
280
     0
102
RTVSPost2010PropOp55
 70
     1
102
RTVSPost2010Prop56
140
1.0
102
RTVSPost2010PropOp56
 70
     1
102
RTVSPost2010Prop57
140
1.0
102
RTVSPost2010PropOp57
 70
     1
102
RTVSPropertyOp0
 70
     1
102
RTVSPropertyOp1
 70
     1
102
RTVSPropertyOp2
 70
     1
102
RTVSPropertyOp3
 70
     1
102
RTVSPropertyOp4
 70
     1
102
RTVSPropertyOp5
 70
     1
102
RTVSPropertyOp6
 70
     1
102
RTVSPropertyOp7
 70
     1
102
RTVSPropertyOp8
 70
     1
102
RTVSPropertyOp9
 70
     1
102
RTVSPropertyOp10
 70
     1
102
RTVSPropertyOp11
 70
     1
102
RTVSPropertyOp12
 70
     1
102
RTVSPropertyOp13
 70
     1
102
RTVSPropertyOp14
 70
     1
102
RTVSPropertyOp15
 70
     1
102
RTVSPropertyOp16
 70
     1
102
RTVSPropertyOp17
 70
     1
102
RTVSPropertyOp18
 70
     1
102
RTVSPropertyOp19
 70
     1
102
RTVSPropertyOp20
 70
     1
102
RTVSPropertyOp21
 70
     1
102
RTVSPropertyOp22
 70
     1
102
RTVSPropertyOp23
 70
     1
102
RTVSPropertyOp24
 70
     1
102
RTVSPropertyOp25
 70
     1
102
RTVSPropertyOp26
 70
     1
102
RTVSPropertyOp27
 70
     1
102
RTVSPropertyOp28
 70
     1
102
RTVSPropertyOp29
 70
     1
102
RTVSPropertyOp30
 70
     1
102
RTVSPropertyOp31
 70
     1
102
RTVSPropertyOp32
 70
     1
102
RTVSPropertyOp33
 70
     1
102
RTVSPropertyOp34
 70
     1
102
RTVSPropertyOp35
 70
     1
102
RTVSPropertyOp36
 70
     1
102
RTVSPropertyOp37
 70
     1
102
RTVSPropertyOp38
 70
     1
102
RTVSPropertyOp39
 70
     1
102
RTVSPropertyOp40
 70
     1
102
RTVSPropertyOp41
 70
     1
102
RTVSPropertyOp42
 70
     1
102
RTVSPropertyOp43
 70
     1
102
RTVSPropertyOp44
 70
     1
102
RTVSPropertyOp45
 70
     1
102
RTVSPropertyOp46
 70
     1
102
RTVSPropertyOp47
 70
     1
102
RTVSPropertyOp48
 70
     1
102
RTVSPropertyOp49
 70
     1
102
RTVSPropertyOp50
 70
     1
102
RTVSPropertyOp51
 70
     0
102
RTVSPropertyOp52
 70
     0
102
RTVSPropertyOp53
 70
     1
102
RTVSPropertyOp54
 70
     1
102
RTVSPropertyOp55
 70
     1
102
RTVSPropertyOp56
 70
     1
102
RTVSPropertyOp57
 70
     1
102
RTVSPropertyOp58
 70
     1
102
RTVSPropertyOp59
 70
     1
102
RTVSPropertyOp60
 70
     1
102
RTVSPropertyOp61
 70
     1
102
RTVSPropertyOp62
 70
     1
  0
XRECORD
  5
6F7
102
{ACAD_REACTORS
330
6F6
102
}
330
6F6
100
AcDbXrecord
280
     1
102
RTVSPost2010Prop28
280
     0
102
RTVSPost2010PropOp28
 70
     1
102
RTVSPost2010Prop29
280
     1
102
RTVSPost2010PropOp29
 70
     1
102
RTVSPost2010Prop30
280
     1
102
RTVSPost2010PropOp30
 70
     1
102
RTVSPost2010Prop31
280
     0
102
RTVSPost2010PropOp31
 70
     1
102
RTVSPost2010Prop32
280
     0
102
RTVSPost2010PropOp32
 70
     1
102
RTVSPost2010Prop33
280
     0
102
RTVSPost2010PropOp33
 70
     1
102
RTVSPost2010Prop34
280
     0
102
RTVSPost2010PropOp34
 70
     1
102
RTVSPost2010Prop35
280
     0
102
RTVSPost2010PropOp35
 70
     1
102
RTVSPost2010Prop36
280
     0
102
RTVSPost2010PropOp36
 70
     1
102
RTVSPost2010Prop37
 90
       50
102
RTVSPost2010PropOp37
 70
     1
102
RTVSPost2010Prop38
140
0.0
102
RTVSPost2010PropOp38
 70
     1
102
RTVSPost2010Prop39
140
1.0
102
RTVSPost2010PropOp39
 70
     1
102
RTVSPost2010Prop40
 90
        0
102
RTVSPost2010PropOp40
 70
     1
102
RTVSPost2010Prop41ColorIndex
 90
       18
102
RTVSPost2010Prop41ColorRGB
 90
        0
102
RTVSPost2010PropOp41
 70
     1
102
RTVSPost2010Prop42
 90
       50
102
RTVSPost2010PropOp42
 70
     1
102
RTVSPost2010Prop43
 90
        3
102
RTVSPost2010PropOp43
 70
     1
102
RTVSPost2010Prop44ColorIndex
 90
        5
102
RTVSPost2010Prop44ColorRGB
 90
      255
102
RTVSPost2010PropOp44
 70
     1
102
RTVSPost2010Prop45
280
     0
102
RTVSPost2010PropOp45
 70
     1
102
RTVSPost2010Prop46
 90
       50
102
RTVSPost2010PropOp46
 70
     1
102
RTVSPost2010Prop47
 90
       50
102
RTVSPost2010PropOp47
 70
     1
102
RTVSPost2010Prop48
 90
       50
102
RTVSPost2010PropOp48
 70
     1
102
RTVSPost2010Prop49
280
     0
102
RTVSPost2010PropOp49
 70
     1
102
RTVSPost2010Prop50
 90
       50
102
RTVSPost2010PropOp50
 70
     1
102
RTVSPost2010Prop51ColorIndex
 90
      256
102
RTVSPost2010Prop51ColorRGB
 90
-16777216
102
RTVSPost2010PropOp51
 70
     0
102
RTVSPost2010Prop52
140
1.0
102
RTVSPost2010PropOp52
 70
     0
102
RTVSPost2010Prop53
 90
        2
102
RTVSPost2010PropOp53
 70
     1
102
RTVSPost2010Prop54
  1
strokes_ogs.tif
102
RTVSPost2010PropOp54
 70
     1
102
RTVSPost2010Prop55
280
     0
102
RTVSPost2010PropOp55
 70
     1
102
RTVSPost2010Prop56
140
1.0
102
RTVSPost2010PropOp56
 70
     1
102
RTVSPost2010Prop57
140
1.0
102
RTVSPost2010PropOp57
 70
     1
102
RTVSPropertyOp0
 70
     1
102
RTVSPropertyOp1
 70
     1
102
RTVSPropertyOp2
 70
     1
102
RTVSPropertyOp3
 70
     1
102
RTVSPropertyOp4
 70
     1
102
RTVSPropertyOp5
 70
     1
102
RTVSPropertyOp6
 70
     1
102
RTVSPropertyOp7
 70
     1
102
RTVSPropertyOp8
 70
     1
102
RTVSPropertyOp9
 70
     1
102
RTVSPropertyOp10
 70
     1
102
RTVSPropertyOp11
 70
     1
102
RTVSPropertyOp12
 70
     1
102
RTVSPropertyOp13
 70
     1
102
RTVSPropertyOp14
 70
     1
102
RTVSPropertyOp15
 70
     1
102
RTVSPropertyOp16
 70
     1
102
RTVSPropertyOp17
 70
     1
102
RTVSPropertyOp18
 70
     1
102
RTVSPropertyOp19
 70
     1
102
RTVSPropertyOp20
 70
     1
102
RTVSPropertyOp21
 70
     1
102
RTVSPropertyOp22
 70
     1
102
RTVSPropertyOp23
 70
     1
102
RTVSPropertyOp24
 70
     1
102
RTVSPropertyOp25
 70
     1
102
RTVSPropertyOp26
 70
     1
102
RTVSPropertyOp27
 70
     1
102
RTVSPropertyOp28
 70
     1
102
RTVSPropertyOp29
 70
     1
102
RTVSPropertyOp30
 70
     1
102
RTVSPropertyOp31
 70
     1
102
RTVSPropertyOp32
 70
     1
102
RTVSPropertyOp33
 70
     1
102
RTVSPropertyOp34
 70
     1
102
RTVSPropertyOp35
 70
     1
102
RTVSPropertyOp36
 70
     1
102
RTVSPropertyOp37
 70
     1
102
RTVSPropertyOp38
 70
     1
102
RTVSPropertyOp39
 70
     1
102
RTVSPropertyOp40
 70
     1
102
RTVSPropertyOp41
 70
     1
102
RTVSPropertyOp42
 70
     1
102
RTVSPropertyOp43
 70
     1
102
RTVSPropertyOp44
 70
     1
102
RTVSPropertyOp45
 70
     1
102
RTVSPropertyOp46
 70
     1
102
RTVSPropertyOp47
 70
     1
102
RTVSPropertyOp48
 70
     1
102
RTVSPropertyOp49
 70
     1
102
RTVSPropertyOp50
 70
     1
102
RTVSPropertyOp51
 70
     0
102
RTVSPropertyOp52
 70
     0
102
RTVSPropertyOp53
 70
     1
102
RTVSPropertyOp54
 70
     1
102
RTVSPropertyOp55
 70
     1
102
RTVSPropertyOp56
 70
     1
102
RTVSPropertyOp57
 70
     1
102
RTVSPropertyOp58
 70
     1
102
RTVSPropertyOp59
 70
     1
102
RTVSPropertyOp60
 70
     1
102
RTVSPropertyOp61
 70
     1
102
RTVSPropertyOp62
 70
     1
  0
XRECORD
  5
6E9
102
{ACAD_REACTORS
330
6E8
102
}
330
6E8
100
AcDbXrecord
280
     1
102
RTVSPost2010Prop28
280
     0
102
RTVSPost2010PropOp28
 70
     1
102
RTVSPost2010Prop29
280
     1
102
RTVSPost2010PropOp29
 70
     1
102
RTVSPost2010Prop30
280
     1
102
RTVSPost2010PropOp30
 70
     1
102
RTVSPost2010Prop31
280
     0
102
RTVSPost2010PropOp31
 70
     1
102
RTVSPost2010Prop32
280
     0
102
RTVSPost2010PropOp32
 70
     1
102
RTVSPost2010Prop33
280
     0
102
RTVSPost2010PropOp33
 70
     1
102
RTVSPost2010Prop34
280
     0
102
RTVSPost2010PropOp34
 70
     1
102
RTVSPost2010Prop35
280
     0
102
RTVSPost2010PropOp35
 70
     1
102
RTVSPost2010Prop36
280
     0
102
RTVSPost2010PropOp36
 70
     1
102
RTVSPost2010Prop37
 90
       50
102
RTVSPost2010PropOp37
 70
     1
102
RTVSPost2010Prop38
140
0.0
102
RTVSPost2010PropOp38
 70
     1
102
RTVSPost2010Prop39
140
1.0
102
RTVSPost2010PropOp39
 70
     1
102
RTVSPost2010Prop40
 90
        0
102
RTVSPost2010PropOp40
 70
     1
102
RTVSPost2010Prop41ColorIndex
 90
       18
102
RTVSPost2010Prop41ColorRGB
 90
        0
102
RTVSPost2010PropOp41
 70
     1
102
RTVSPost2010Prop42
 90
       50
102
RTVSPost2010PropOp42
 70
     1
102
RTVSPost2010Prop43
 90
        3
102
RTVSPost2010PropOp43
 70
     1
102
RTVSPost2010Prop44ColorIndex
 90
        5
102
RTVSPost2010Prop44ColorRGB
 90
      255
102
RTVSPost2010PropOp44
 70
     1
102
RTVSPost2010Prop45
280
     0
102
RTVSPost2010PropOp45
 70
     1
102
RTVSPost2010Prop46
 90
       50
102
RTVSPost2010PropOp46
 70
     1
102
RTVSPost2010Prop47
 90
       50
102
RTVSPost2010PropOp47
 70
     1
102
RTVSPost2010Prop48
 90
       50
102
RTVSPost2010PropOp48
 70
     1
102
RTVSPost2010Prop49
280
     0
102
RTVSPost2010PropOp49
 70
     1
102
RTVSPost2010Prop50
 90
       50
102
RTVSPost2010PropOp50
 70
     1
102
RTVSPost2010Prop51ColorIndex
 90
      256
102
RTVSPost2010Prop51ColorRGB
 90
-16777216
102
RTVSPost2010PropOp51
 70
     0
102
RTVSPost2010Prop52
140
1.0
102
RTVSPost2010PropOp52
 70
     0
102
RTVSPost2010Prop53
 90
        2
102
RTVSPost2010PropOp53
 70
     1
102
RTVSPost2010Prop54
  1
strokes_ogs.tif
102
RTVSPost2010PropOp54
 70
     1
102
RTVSPost2010Prop55
280
     0
102
RTVSPost2010PropOp55
 70
     1
102
RTVSPost2010Prop56
140
1.0
102
RTVSPost2010PropOp56
 70
     1
102
RTVSPost2010Prop57
140
1.0
102
RTVSPost2010PropOp57
 70
     1
102
RTVSPropertyOp0
 70
     1
102
RTVSPropertyOp1
 70
     1
102
RTVSPropertyOp2
 70
     1
102
RTVSPropertyOp3
 70
     1
102
RTVSPropertyOp4
 70
     1
102
RTVSPropertyOp5
 70
     1
102
RTVSPropertyOp6
 70
     1
102
RTVSPropertyOp7
 70
     1
102
RTVSPropertyOp8
 70
     1
102
RTVSPropertyOp9
 70
     1
102
RTVSPropertyOp10
 70
     1
102
RTVSPropertyOp11
 70
     1
102
RTVSPropertyOp12
 70
     1
102
RTVSPropertyOp13
 70
     1
102
RTVSPropertyOp14
 70
     1
102
RTVSPropertyOp15
 70
     1
102
RTVSPropertyOp16
 70
     1
102
RTVSPropertyOp17
 70
     1
102
RTVSPropertyOp18
 70
     1
102
RTVSPropertyOp19
 70
     1
102
RTVSPropertyOp20
 70
     1
102
RTVSPropertyOp21
 70
     1
102
RTVSPropertyOp22
 70
     1
102
RTVSPropertyOp23
 70
     1
102
RTVSPropertyOp24
 70
     1
102
RTVSPropertyOp25
 70
     1
102
RTVSPropertyOp26
 70
     1
102
RTVSPropertyOp27
 70
     1
102
RTVSPropertyOp28
 70
     1
102
RTVSPropertyOp29
 70
     1
102
RTVSPropertyOp30
 70
     1
102
RTVSPropertyOp31
 70
     1
102
RTVSPropertyOp32
 70
     1
102
RTVSPropertyOp33
 70
     1
102
RTVSPropertyOp34
 70
     1
102
RTVSPropertyOp35
 70
     1
102
RTVSPropertyOp36
 70
     1
102
RTVSPropertyOp37
 70
     1
102
RTVSPropertyOp38
 70
     1
102
RTVSPropertyOp39
 70
     1
102
RTVSPropertyOp40
 70
     1
102
RTVSPropertyOp41
 70
     1
102
RTVSPropertyOp42
 70
     1
102
RTVSPropertyOp43
 70
     1
102
RTVSPropertyOp44
 70
     1
102
RTVSPropertyOp45
 70
     1
102
RTVSPropertyOp46
 70
     1
102
RTVSPropertyOp47
 70
     1
102
RTVSPropertyOp48
 70
     1
102
RTVSPropertyOp49
 70
     1
102
RTVSPropertyOp50
 70
     1
102
RTVSPropertyOp51
 70
     0
102
RTVSPropertyOp52
 70
     0
102
RTVSPropertyOp53
 70
     1
102
RTVSPropertyOp54
 70
     1
102
RTVSPropertyOp55
 70
     1
102
RTVSPropertyOp56
 70
     1
102
RTVSPropertyOp57
 70
     1
102
RTVSPropertyOp58
 70
     1
102
RTVSPropertyOp59
 70
     1
102
RTVSPropertyOp60
 70
     1
102
RTVSPropertyOp61
 70
     1
102
RTVSPropertyOp62
 70
     1
  0
XRECORD
  5
6ED
102
{ACAD_REACTORS
330
6EC
102
}
330
6EC
100
AcDbXrecord
280
     1
102
RTVSPost2010Prop28
280
     0
102
RTVSPost2010PropOp28
 70
     1
102
RTVSPost2010Prop29
280
     1
102
RTVSPost2010PropOp29
 70
     1
102
RTVSPost2010Prop30
280
     1
102
RTVSPost2010PropOp30
 70
     1
102
RTVSPost2010Prop31
280
     0
102
RTVSPost2010PropOp31
 70
     1
102
RTVSPost2010Prop32
280
     0
102
RTVSPost2010PropOp32
 70
     1
102
RTVSPost2010Prop33
280
     0
102
RTVSPost2010PropOp33
 70
     1
102
RTVSPost2010Prop34
280
     0
102
RTVSPost2010PropOp34
 70
     1
102
RTVSPost2010Prop35
280
     0
102
RTVSPost2010PropOp35
 70
     1
102
RTVSPost2010Prop36
280
     0
102
RTVSPost2010PropOp36
 70
     1
102
RTVSPost2010Prop37
 90
       50
102
RTVSPost2010PropOp37
 70
     1
102
RTVSPost2010Prop38
140
0.0
102
RTVSPost2010PropOp38
 70
     1
102
RTVSPost2010Prop39
140
1.0
102
RTVSPost2010PropOp39
 70
     1
102
RTVSPost2010Prop40
 90
        0
102
RTVSPost2010PropOp40
 70
     1
102
RTVSPost2010Prop41ColorIndex
 90
       18
102
RTVSPost2010Prop41ColorRGB
 90
        0
102
RTVSPost2010PropOp41
 70
     1
102
RTVSPost2010Prop42
 90
       50
102
RTVSPost2010PropOp42
 70
     1
102
RTVSPost2010Prop43
 90
        3
102
RTVSPost2010PropOp43
 70
     1
102
RTVSPost2010Prop44ColorIndex
 90
        5
102
RTVSPost2010Prop44ColorRGB
 90
      255
102
RTVSPost2010PropOp44
 70
     1
102
RTVSPost2010Prop45
280
     0
102
RTVSPost2010PropOp45
 70
     1
102
RTVSPost2010Prop46
 90
       50
102
RTVSPost2010PropOp46
 70
     1
102
RTVSPost2010Prop47
 90
       50
102
RTVSPost2010PropOp47
 70
     1
102
RTVSPost2010Prop48
 90
       50
102
RTVSPost2010PropOp48
 70
     1
102
RTVSPost2010Prop49
280
     0
102
RTVSPost2010PropOp49
 70
     1
102
RTVSPost2010Prop50
 90
       50
102
RTVSPost2010PropOp50
 70
     1
102
RTVSPost2010Prop51ColorIndex
 90
      256
102
RTVSPost2010Prop51ColorRGB
 90
-16777216
102
RTVSPost2010PropOp51
 70
     0
102
RTVSPost2010Prop52
140
1.0
102
RTVSPost2010PropOp52
 70
     0
102
RTVSPost2010Prop53
 90
        2
102
RTVSPost2010PropOp53
 70
     1
102
RTVSPost2010Prop54
  1
strokes_ogs.tif
102
RTVSPost2010PropOp54
 70
     1
102
RTVSPost2010Prop55
280
     0
102
RTVSPost2010PropOp55
 70
     1
102
RTVSPost2010Prop56
140
1.0
102
RTVSPost2010PropOp56
 70
     1
102
RTVSPost2010Prop57
140
1.0
102
RTVSPost2010PropOp57
 70
     1
102
RTVSPropertyOp0
 70
     1
102
RTVSPropertyOp1
 70
     1
102
RTVSPropertyOp2
 70
     1
102
RTVSPropertyOp3
 70
     1
102
RTVSPropertyOp4
 70
     1
102
RTVSPropertyOp5
 70
     1
102
RTVSPropertyOp6
 70
     1
102
RTVSPropertyOp7
 70
     1
102
RTVSPropertyOp8
 70
     1
102
RTVSPropertyOp9
 70
     1
102
RTVSPropertyOp10
 70
     1
102
RTVSPropertyOp11
 70
     1
102
RTVSPropertyOp12
 70
     1
102
RTVSPropertyOp13
 70
     1
102
RTVSPropertyOp14
 70
     1
102
RTVSPropertyOp15
 70
     1
102
RTVSPropertyOp16
 70
     1
102
RTVSPropertyOp17
 70
     1
102
RTVSPropertyOp18
 70
     1
102
RTVSPropertyOp19
 70
     1
102
RTVSPropertyOp20
 70
     1
102
RTVSPropertyOp21
 70
     1
102
RTVSPropertyOp22
 70
     1
102
RTVSPropertyOp23
 70
     1
102
RTVSPropertyOp24
 70
     1
102
RTVSPropertyOp25
 70
     1
102
RTVSPropertyOp26
 70
     1
102
RTVSPropertyOp27
 70
     1
102
RTVSPropertyOp28
 70
     1
102
RTVSPropertyOp29
 70
     1
102
RTVSPropertyOp30
 70
     1
102
RTVSPropertyOp31
 70
     1
102
RTVSPropertyOp32
 70
     1
102
RTVSPropertyOp33
 70
     1
102
RTVSPropertyOp34
 70
     1
102
RTVSPropertyOp35
 70
     1
102
RTVSPropertyOp36
 70
     1
102
RTVSPropertyOp37
 70
     1
102
RTVSPropertyOp38
 70
     1
102
RTVSPropertyOp39
 70
     1
102
RTVSPropertyOp40
 70
     1
102
RTVSPropertyOp41
 70
     1
102
RTVSPropertyOp42
 70
     1
102
RTVSPropertyOp43
 70
     1
102
RTVSPropertyOp44
 70
     1
102
RTVSPropertyOp45
 70
     1
102
RTVSPropertyOp46
 70
     1
102
RTVSPropertyOp47
 70
     1
102
RTVSPropertyOp48
 70
     1
102
RTVSPropertyOp49
 70
     1
102
RTVSPropertyOp50
 70
     1
102
RTVSPropertyOp51
 70
     0
102
RTVSPropertyOp52
 70
     0
102
RTVSPropertyOp53
 70
     1
102
RTVSPropertyOp54
 70
     1
102
RTVSPropertyOp55
 70
     1
102
RTVSPropertyOp56
 70
     1
102
RTVSPropertyOp57
 70
     1
102
RTVSPropertyOp58
 70
     1
102
RTVSPropertyOp59
 70
     1
102
RTVSPropertyOp60
 70
     1
102
RTVSPropertyOp61
 70
     1
102
RTVSPropertyOp62
 70
     1
  0
XRECORD
  5
707
102
{ACAD_REACTORS
330
706
102
}
330
706
100
AcDbXrecord
280
     1
102
RTVSPost2010Prop28
280
     0
102
RTVSPost2010PropOp28
 70
     0
102
RTVSPost2010Prop29
280
     1
102
RTVSPost2010PropOp29
 70
     0
102
RTVSPost2010Prop30
280
     1
102
RTVSPost2010PropOp30
 70
     0
102
RTVSPost2010Prop31
280
     0
102
RTVSPost2010PropOp31
 70
     0
102
RTVSPost2010Prop32
280
     0
102
RTVSPost2010PropOp32
 70
     0
102
RTVSPost2010Prop33
280
     0
102
RTVSPost2010PropOp33
 70
     0
102
RTVSPost2010Prop34
280
     0
102
RTVSPost2010PropOp34
 70
     0
102
RTVSPost2010Prop35
280
     0
102
RTVSPost2010PropOp35
 70
     0
102
RTVSPost2010Prop36
280
     0
102
RTVSPost2010PropOp36
 70
     0
102
RTVSPost2010Prop37
 90
       50
102
RTVSPost2010PropOp37
 70
     0
102
RTVSPost2010Prop38
140
0.0
102
RTVSPost2010PropOp38
 70
     0
102
RTVSPost2010Prop39
140
1.0
102
RTVSPost2010PropOp39
 70
     0
102
RTVSPost2010Prop40
 90
        0
102
RTVSPost2010PropOp40
 70
     0
102
RTVSPost2010Prop41ColorIndex
 90
       18
102
RTVSPost2010Prop41ColorRGB
 90
        0
102
RTVSPost2010PropOp41
 70
     0
102
RTVSPost2010Prop42
 90
       50
102
RTVSPost2010PropOp42
 70
     0
102
RTVSPost2010Prop43
 90
        3
102
RTVSPost2010PropOp43
 70
     0
102
RTVSPost2010Prop44ColorIndex
 90
        5
102
RTVSPost2010Prop44ColorRGB
 90
      255
102
RTVSPost2010PropOp44
 70
     0
102
RTVSPost2010Prop45
280
     0
102
RTVSPost2010PropOp45
 70
     0
102
RTVSPost2010Prop46
 90
       50
102
RTVSPost2010PropOp46
 70
     0
102
RTVSPost2010Prop47
 90
       50
102
RTVSPost2010PropOp47
 70
     0
102
RTVSPost2010Prop48
 90
       50
102
RTVSPost2010PropOp48
 70
     0
102
RTVSPost2010Prop49
280
     0
102
RTVSPost2010PropOp49
 70
     0
102
RTVSPost2010Prop50
 90
       50
102
RTVSPost2010PropOp50
 70
     0
102
RTVSPost2010Prop51ColorIndex
 90
      256
102
RTVSPost2010Prop51ColorRGB
 90
-16777216
102
RTVSPost2010PropOp51
 70
     0
102
RTVSPost2010Prop52
140
1.0
102
RTVSPost2010PropOp52
 70
     0
102
RTVSPost2010Prop53
 90
        2
102
RTVSPost2010PropOp53
 70
     0
102
RTVSPost2010Prop54
  1
strokes_ogs.tif
102
RTVSPost2010PropOp54
 70
     0
102
RTVSPost2010Prop55
280
     0
102
RTVSPost2010PropOp55
 70
     0
102
RTVSPost2010Prop56
140
1.0
102
RTVSPost2010PropOp56
 70
     0
102
RTVSPost2010Prop57
140
1.0
102
RTVSPost2010PropOp57
 70
     0
102
RTVSPropertyOp0
 70
     0
102
RTVSPropertyOp1
 70
     0
102
RTVSPropertyOp2
 70
     0
102
RTVSPropertyOp3
 70
     0
102
RTVSPropertyOp4
 70
     0
102
RTVSPropertyOp5
 70
     0
102
RTVSPropertyOp6
 70
     0
102
RTVSPropertyOp7
 70
     0
102
RTVSPropertyOp8
 70
     0
102
RTVSPropertyOp9
 70
     0
102
RTVSPropertyOp10
 70
     0
102
RTVSPropertyOp11
 70
     0
102
RTVSPropertyOp12
 70
     0
102
RTVSPropertyOp13
 70
     0
102
RTVSPropertyOp14
 70
     2
102
RTVSPropertyOp15
 70
     0
102
RTVSPropertyOp16
 70
     0
102
RTVSPropertyOp17
 70
     0
102
RTVSPropertyOp18
 70
     0
102
RTVSPropertyOp19
 70
     0
102
RTVSPropertyOp20
 70
     0
102
RTVSPropertyOp21
 70
     0
102
RTVSPropertyOp22
 70
     0
102
RTVSPropertyOp23
 70
     0
102
RTVSPropertyOp24
 70
     0
102
RTVSPropertyOp25
 70
     0
102
RTVSPropertyOp26
 70
     0
102
RTVSPropertyOp27
 70
     0
102
RTVSPropertyOp28
 70
     0
102
RTVSPropertyOp29
 70
     0
102
RTVSPropertyOp30
 70
     0
102
RTVSPropertyOp31
 70
     0
102
RTVSPropertyOp32
 70
     0
102
RTVSPropertyOp33
 70
     0
102
RTVSPropertyOp34
 70
     0
102
RTVSPropertyOp35
 70
     0
102
RTVSPropertyOp36
 70
     0
102
RTVSPropertyOp37
 70
     0
102
RTVSPropertyOp38
 70
     0
102
RTVSPropertyOp39
 70
     0
102
RTVSPropertyOp40
 70
     0
102
RTVSPropertyOp41
 70
     0
102
RTVSPropertyOp42
 70
     0
102
RTVSPropertyOp43
 70
     0
102
RTVSPropertyOp44
 70
     0
102
RTVSPropertyOp45
 70
     0
102
RTVSPropertyOp46
 70
     0
102
RTVSPropertyOp47
 70
     0
102
RTVSPropertyOp48
 70
     0
102
RTVSPropertyOp49
 70
     0
102
RTVSPropertyOp50
 70
     0
102
RTVSPropertyOp51
 70
     0
102
RTVSPropertyOp52
 70
     0
102
RTVSPropertyOp53
 70
     0
102
RTVSPropertyOp54
 70
     0
102
RTVSPropertyOp55
 70
     0
102
RTVSPropertyOp56
 70
     0
102
RTVSPropertyOp57
 70
     0
102
RTVSPropertyOp58
 70
     0
102
RTVSPropertyOp59
 70
     0
102
RTVSPropertyOp60
 70
     0
102
RTVSPropertyOp61
 70
     0
102
RTVSPropertyOp62
 70
     0
  0
XRECORD
  5
6F5
102
{ACAD_REACTORS
330
6F4
102
}
330
6F4
100
AcDbXrecord
280
     1
102
RTVSPost2010Prop28
280
     0
102
RTVSPost2010PropOp28
 70
     1
102
RTVSPost2010Prop29
280
     1
102
RTVSPost2010PropOp29
 70
     1
102
RTVSPost2010Prop30
280
     1
102
RTVSPost2010PropOp30
 70
     1
102
RTVSPost2010Prop31
280
     0
102
RTVSPost2010PropOp31
 70
     1
102
RTVSPost2010Prop32
280
     0
102
RTVSPost2010PropOp32
 70
     1
102
RTVSPost2010Prop33
280
     0
102
RTVSPost2010PropOp33
 70
     1
102
RTVSPost2010Prop34
280
     0
102
RTVSPost2010PropOp34
 70
     1
102
RTVSPost2010Prop35
280
     0
102
RTVSPost2010PropOp35
 70
     1
102
RTVSPost2010Prop36
280
     0
102
RTVSPost2010PropOp36
 70
     1
102
RTVSPost2010Prop37
 90
       50
102
RTVSPost2010PropOp37
 70
     1
102
RTVSPost2010Prop38
140
0.0
102
RTVSPost2010PropOp38
 70
     1
102
RTVSPost2010Prop39
140
1.0
102
RTVSPost2010PropOp39
 70
     1
102
RTVSPost2010Prop40
 90
        0
102
RTVSPost2010PropOp40
 70
     1
102
RTVSPost2010Prop41ColorIndex
 90
       18
102
RTVSPost2010Prop41ColorRGB
 90
        0
102
RTVSPost2010PropOp41
 70
     1
102
RTVSPost2010Prop42
 90
       50
102
RTVSPost2010PropOp42
 70
     1
102
RTVSPost2010Prop43
 90
        3
102
RTVSPost2010PropOp43
 70
     1
102
RTVSPost2010Prop44ColorIndex
 90
        5
102
RTVSPost2010Prop44ColorRGB
 90
      255
102
RTVSPost2010PropOp44
 70
     1
102
RTVSPost2010Prop45
280
     0
102
RTVSPost2010PropOp45
 70
     1
102
RTVSPost2010Prop46
 90
       50
102
RTVSPost2010PropOp46
 70
     1
102
RTVSPost2010Prop47
 90
       50
102
RTVSPost2010PropOp47
 70
     1
102
RTVSPost2010Prop48
 90
       50
102
RTVSPost2010PropOp48
 70
     1
102
RTVSPost2010Prop49
280
     0
102
RTVSPost2010PropOp49
 70
     1
102
RTVSPost2010Prop50
 90
       50
102
RTVSPost2010PropOp50
 70
     1
102
RTVSPost2010Prop51ColorIndex
 90
      256
102
RTVSPost2010Prop51ColorRGB
 90
-16777216
102
RTVSPost2010PropOp51
 70
     0
102
RTVSPost2010Prop52
140
1.0
102
RTVSPost2010PropOp52
 70
     0
102
RTVSPost2010Prop53
 90
        2
102
RTVSPost2010PropOp53
 70
     1
102
RTVSPost2010Prop54
  1
strokes_ogs.tif
102
RTVSPost2010PropOp54
 70
     1
102
RTVSPost2010Prop55
280
     0
102
RTVSPost2010PropOp55
 70
     1
102
RTVSPost2010Prop56
140
1.0
102
RTVSPost2010PropOp56
 70
     1
102
RTVSPost2010Prop57
140
1.0
102
RTVSPost2010PropOp57
 70
     1
102
RTVSPropertyOp0
 70
     1
102
RTVSPropertyOp1
 70
     1
102
RTVSPropertyOp2
 70
     1
102
RTVSPropertyOp3
 70
     1
102
RTVSPropertyOp4
 70
     1
102
RTVSPropertyOp5
 70
     1
102
RTVSPropertyOp6
 70
     1
102
RTVSPropertyOp7
 70
     1
102
RTVSPropertyOp8
 70
     1
102
RTVSPropertyOp9
 70
     1
102
RTVSPropertyOp10
 70
     1
102
RTVSPropertyOp11
 70
     1
102
RTVSPropertyOp12
 70
     1
102
RTVSPropertyOp13
 70
     1
102
RTVSPropertyOp14
 70
     1
102
RTVSPropertyOp15
 70
     1
102
RTVSPropertyOp16
 70
     1
102
RTVSPropertyOp17
 70
     1
102
RTVSPropertyOp18
 70
     1
102
RTVSPropertyOp19
 70
     1
102
RTVSPropertyOp20
 70
     1
102
RTVSPropertyOp21
 70
     1
102
RTVSPropertyOp22
 70
     1
102
RTVSPropertyOp23
 70
     1
102
RTVSPropertyOp24
 70
     1
102
RTVSPropertyOp25
 70
     1
102
RTVSPropertyOp26
 70
     1
102
RTVSPropertyOp27
 70
     1
102
RTVSPropertyOp28
 70
     1
102
RTVSPropertyOp29
 70
     1
102
RTVSPropertyOp30
 70
     1
102
RTVSPropertyOp31
 70
     1
102
RTVSPropertyOp32
 70
     1
102
RTVSPropertyOp33
 70
     1
102
RTVSPropertyOp34
 70
     1
102
RTVSPropertyOp35
 70
     1
102
RTVSPropertyOp36
 70
     1
102
RTVSPropertyOp37
 70
     1
102
RTVSPropertyOp38
 70
     1
102
RTVSPropertyOp39
 70
     1
102
RTVSPropertyOp40
 70
     1
102
RTVSPropertyOp41
 70
     1
102
RTVSPropertyOp42
 70
     1
102
RTVSPropertyOp43
 70
     1
102
RTVSPropertyOp44
 70
     1
102
RTVSPropertyOp45
 70
     1
102
RTVSPropertyOp46
 70
     1
102
RTVSPropertyOp47
 70
     1
102
RTVSPropertyOp48
 70
     1
102
RTVSPropertyOp49
 70
     1
102
RTVSPropertyOp50
 70
     1
102
RTVSPropertyOp51
 70
     0
102
RTVSPropertyOp52
 70
     0
102
RTVSPropertyOp53
 70
     1
102
RTVSPropertyOp54
 70
     1
102
RTVSPropertyOp55
 70
     1
102
RTVSPropertyOp56
 70
     1
102
RTVSPropertyOp57
 70
     1
102
RTVSPropertyOp58
 70
     1
102
RTVSPropertyOp59
 70
     1
102
RTVSPropertyOp60
 70
     1
102
RTVSPropertyOp61
 70
     1
102
RTVSPropertyOp62
 70
     1
  0
XRECORD
  5
6D9
102
{ACAD_REACTORS
330
6D8
102
}
330
6D8
100
AcDbXrecord
280
     1
102
RTVSPost2010Prop28
280
     0
102
RTVSPost2010PropOp28
 70
     1
102
RTVSPost2010Prop29
280
     1
102
RTVSPost2010PropOp29
 70
     1
102
RTVSPost2010Prop30
280
     1
102
RTVSPost2010PropOp30
 70
     1
102
RTVSPost2010Prop31
280
     0
102
RTVSPost2010PropOp31
 70
     1
102
RTVSPost2010Prop32
280
     0
102
RTVSPost2010PropOp32
 70
     1
102
RTVSPost2010Prop33
280
     0
102
RTVSPost2010PropOp33
 70
     1
102
RTVSPost2010Prop34
280
     0
102
RTVSPost2010PropOp34
 70
     1
102
RTVSPost2010Prop35
280
     0
102
RTVSPost2010PropOp35
 70
     1
102
RTVSPost2010Prop36
280
     0
102
RTVSPost2010PropOp36
 70
     1
102
RTVSPost2010Prop37
 90
       50
102
RTVSPost2010PropOp37
 70
     1
102
RTVSPost2010Prop38
140
0.0
102
RTVSPost2010PropOp38
 70
     1
102
RTVSPost2010Prop39
140
1.0
102
RTVSPost2010PropOp39
 70
     1
102
RTVSPost2010Prop40
 90
        0
102
RTVSPost2010PropOp40
 70
     1
102
RTVSPost2010Prop41ColorIndex
 90
       18
102
RTVSPost2010Prop41ColorRGB
 90
        0
102
RTVSPost2010PropOp41
 70
     1
102
RTVSPost2010Prop42
 90
       50
102
RTVSPost2010PropOp42
 70
     1
102
RTVSPost2010Prop43
 90
        3
102
RTVSPost2010PropOp43
 70
     1
102
RTVSPost2010Prop44ColorIndex
 90
        5
102
RTVSPost2010Prop44ColorRGB
 90
      255
102
RTVSPost2010PropOp44
 70
     1
102
RTVSPost2010Prop45
280
     0
102
RTVSPost2010PropOp45
 70
     1
102
RTVSPost2010Prop46
 90
       50
102
RTVSPost2010PropOp46
 70
     1
102
RTVSPost2010Prop47
 90
       50
102
RTVSPost2010PropOp47
 70
     1
102
RTVSPost2010Prop48
 90
       50
102
RTVSPost2010PropOp48
 70
     1
102
RTVSPost2010Prop49
280
     0
102
RTVSPost2010PropOp49
 70
     1
102
RTVSPost2010Prop50
 90
       50
102
RTVSPost2010PropOp50
 70
     1
102
RTVSPost2010Prop51ColorIndex
 90
      256
102
RTVSPost2010Prop51ColorRGB
 90
-16777216
102
RTVSPost2010PropOp51
 70
     0
102
RTVSPost2010Prop52
140
1.0
102
RTVSPost2010PropOp52
 70
     0
102
RTVSPost2010Prop53
 90
        2
102
RTVSPost2010PropOp53
 70
     1
102
RTVSPost2010Prop54
  1
strokes_ogs.tif
102
RTVSPost2010PropOp54
 70
     1
102
RTVSPost2010Prop55
280
     0
102
RTVSPost2010PropOp55
 70
     1
102
RTVSPost2010Prop56
140
1.0
102
RTVSPost2010PropOp56
 70
     1
102
RTVSPost2010Prop57
140
1.0
102
RTVSPost2010PropOp57
 70
     1
102
RTVSPropertyOp0
 70
     1
102
RTVSPropertyOp1
 70
     1
102
RTVSPropertyOp2
 70
     1
102
RTVSPropertyOp3
 70
     1
102
RTVSPropertyOp4
 70
     1
102
RTVSPropertyOp5
 70
     1
102
RTVSPropertyOp6
 70
     1
102
RTVSPropertyOp7
 70
     1
102
RTVSPropertyOp8
 70
     1
102
RTVSPropertyOp9
 70
     1
102
RTVSPropertyOp10
 70
     1
102
RTVSPropertyOp11
 70
     1
102
RTVSPropertyOp12
 70
     1
102
RTVSPropertyOp13
 70
     1
102
RTVSPropertyOp14
 70
     1
102
RTVSPropertyOp15
 70
     1
102
RTVSPropertyOp16
 70
     1
102
RTVSPropertyOp17
 70
     1
102
RTVSPropertyOp18
 70
     1
102
RTVSPropertyOp19
 70
     1
102
RTVSPropertyOp20
 70
     1
102
RTVSPropertyOp21
 70
     1
102
RTVSPropertyOp22
 70
     1
102
RTVSPropertyOp23
 70
     1
102
RTVSPropertyOp24
 70
     1
102
RTVSPropertyOp25
 70
     1
102
RTVSPropertyOp26
 70
     1
102
RTVSPropertyOp27
 70
     1
102
RTVSPropertyOp28
 70
     1
102
RTVSPropertyOp29
 70
     1
102
RTVSPropertyOp30
 70
     1
102
RTVSPropertyOp31
 70
     1
102
RTVSPropertyOp32
 70
     1
102
RTVSPropertyOp33
 70
     1
102
RTVSPropertyOp34
 70
     1
102
RTVSPropertyOp35
 70
     1
102
RTVSPropertyOp36
 70
     1
102
RTVSPropertyOp37
 70
     1
102
RTVSPropertyOp38
 70
     1
102
RTVSPropertyOp39
 70
     1
102
RTVSPropertyOp40
 70
     1
102
RTVSPropertyOp41
 70
     1
102
RTVSPropertyOp42
 70
     1
102
RTVSPropertyOp43
 70
     1
102
RTVSPropertyOp44
 70
     1
102
RTVSPropertyOp45
 70
     1
102
RTVSPropertyOp46
 70
     1
102
RTVSPropertyOp47
 70
     1
102
RTVSPropertyOp48
 70
     1
102
RTVSPropertyOp49
 70
     1
102
RTVSPropertyOp50
 70
     1
102
RTVSPropertyOp51
 70
     0
102
RTVSPropertyOp52
 70
     0
102
RTVSPropertyOp53
 70
     1
102
RTVSPropertyOp54
 70
     1
102
RTVSPropertyOp55
 70
     1
102
RTVSPropertyOp56
 70
     1
102
RTVSPropertyOp57
 70
     1
102
RTVSPropertyOp58
 70
     1
102
RTVSPropertyOp59
 70
     1
102
RTVSPropertyOp60
 70
     1
102
RTVSPropertyOp61
 70
     1
102
RTVSPropertyOp62
 70
     1
  0
XRECORD
  5
6DB
102
{ACAD_REACTORS
330
6DA
102
}
330
6DA
100
AcDbXrecord
280
     1
102
RTVSPost2010Prop28
280
     0
102
RTVSPost2010PropOp28
 70
     1
102
RTVSPost2010Prop29
280
     1
102
RTVSPost2010PropOp29
 70
     1
102
RTVSPost2010Prop30
280
     1
102
RTVSPost2010PropOp30
 70
     1
102
RTVSPost2010Prop31
280
     0
102
RTVSPost2010PropOp31
 70
     1
102
RTVSPost2010Prop32
280
     0
102
RTVSPost2010PropOp32
 70
     1
102
RTVSPost2010Prop33
280
     0
102
RTVSPost2010PropOp33
 70
     1
102
RTVSPost2010Prop34
280
     0
102
RTVSPost2010PropOp34
 70
     1
102
RTVSPost2010Prop35
280
     0
102
RTVSPost2010PropOp35
 70
     1
102
RTVSPost2010Prop36
280
     0
102
RTVSPost2010PropOp36
 70
     1
102
RTVSPost2010Prop37
 90
       50
102
RTVSPost2010PropOp37
 70
     1
102
RTVSPost2010Prop38
140
0.0
102
RTVSPost2010PropOp38
 70
     1
102
RTVSPost2010Prop39
140
1.0
102
RTVSPost2010PropOp39
 70
     1
102
RTVSPost2010Prop40
 90
        0
102
RTVSPost2010PropOp40
 70
     1
102
RTVSPost2010Prop41ColorIndex
 90
       18
102
RTVSPost2010Prop41ColorRGB
 90
        0
102
RTVSPost2010PropOp41
 70
     1
102
RTVSPost2010Prop42
 90
       50
102
RTVSPost2010PropOp42
 70
     1
102
RTVSPost2010Prop43
 90
        3
102
RTVSPost2010PropOp43
 70
     1
102
RTVSPost2010Prop44ColorIndex
 90
        5
102
RTVSPost2010Prop44ColorRGB
 90
      255
102
RTVSPost2010PropOp44
 70
     1
102
RTVSPost2010Prop45
280
     0
102
RTVSPost2010PropOp45
 70
     1
102
RTVSPost2010Prop46
 90
       50
102
RTVSPost2010PropOp46
 70
     1
102
RTVSPost2010Prop47
 90
       50
102
RTVSPost2010PropOp47
 70
     1
102
RTVSPost2010Prop48
 90
       50
102
RTVSPost2010PropOp48
 70
     1
102
RTVSPost2010Prop49
280
     0
102
RTVSPost2010PropOp49
 70
     1
102
RTVSPost2010Prop50
 90
       50
102
RTVSPost2010PropOp50
 70
     1
102
RTVSPost2010Prop51ColorIndex
 90
      256
102
RTVSPost2010Prop51ColorRGB
 90
-16777216
102
RTVSPost2010PropOp51
 70
     0
102
RTVSPost2010Prop52
140
1.0
102
RTVSPost2010PropOp52
 70
     0
102
RTVSPost2010Prop53
 90
        2
102
RTVSPost2010PropOp53
 70
     1
102
RTVSPost2010Prop54
  1
strokes_ogs.tif
102
RTVSPost2010PropOp54
 70
     1
102
RTVSPost2010Prop55
280
     0
102
RTVSPost2010PropOp55
 70
     1
102
RTVSPost2010Prop56
140
1.0
102
RTVSPost2010PropOp56
 70
     1
102
RTVSPost2010Prop57
140
1.0
102
RTVSPost2010PropOp57
 70
     1
102
RTVSPropertyOp0
 70
     1
102
RTVSPropertyOp1
 70
     1
102
RTVSPropertyOp2
 70
     1
102
RTVSPropertyOp3
 70
     1
102
RTVSPropertyOp4
 70
     1
102
RTVSPropertyOp5
 70
     1
102
RTVSPropertyOp6
 70
     1
102
RTVSPropertyOp7
 70
     1
102
RTVSPropertyOp8
 70
     1
102
RTVSPropertyOp9
 70
     1
102
RTVSPropertyOp10
 70
     1
102
RTVSPropertyOp11
 70
     1
102
RTVSPropertyOp12
 70
     1
102
RTVSPropertyOp13
 70
     1
102
RTVSPropertyOp14
 70
     1
102
RTVSPropertyOp15
 70
     1
102
RTVSPropertyOp16
 70
     1
102
RTVSPropertyOp17
 70
     1
102
RTVSPropertyOp18
 70
     1
102
RTVSPropertyOp19
 70
     1
102
RTVSPropertyOp20
 70
     1
102
RTVSPropertyOp21
 70
     1
102
RTVSPropertyOp22
 70
     1
102
RTVSPropertyOp23
 70
     1
102
RTVSPropertyOp24
 70
     1
102
RTVSPropertyOp25
 70
     1
102
RTVSPropertyOp26
 70
     1
102
RTVSPropertyOp27
 70
     1
102
RTVSPropertyOp28
 70
     1
102
RTVSPropertyOp29
 70
     1
102
RTVSPropertyOp30
 70
     1
102
RTVSPropertyOp31
 70
     1
102
RTVSPropertyOp32
 70
     1
102
RTVSPropertyOp33
 70
     1
102
RTVSPropertyOp34
 70
     1
102
RTVSPropertyOp35
 70
     1
102
RTVSPropertyOp36
 70
     1
102
RTVSPropertyOp37
 70
     1
102
RTVSPropertyOp38
 70
     1
102
RTVSPropertyOp39
 70
     1
102
RTVSPropertyOp40
 70
     1
102
RTVSPropertyOp41
 70
     1
102
RTVSPropertyOp42
 70
     1
102
RTVSPropertyOp43
 70
     1
102
RTVSPropertyOp44
 70
     1
102
RTVSPropertyOp45
 70
     1
102
RTVSPropertyOp46
 70
     1
102
RTVSPropertyOp47
 70
     1
102
RTVSPropertyOp48
 70
     1
102
RTVSPropertyOp49
 70
     1
102
RTVSPropertyOp50
 70
     1
102
RTVSPropertyOp51
 70
     0
102
RTVSPropertyOp52
 70
     0
102
RTVSPropertyOp53
 70
     1
102
RTVSPropertyOp54
 70
     1
102
RTVSPropertyOp55
 70
     1
102
RTVSPropertyOp56
 70
     1
102
RTVSPropertyOp57
 70
     1
102
RTVSPropertyOp58
 70
     1
102
RTVSPropertyOp59
 70
     1
102
RTVSPropertyOp60
 70
     1
102
RTVSPropertyOp61
 70
     1
102
RTVSPropertyOp62
 70
     1
  0
XRECORD
  5
6DD
102
{ACAD_REACTORS
330
6DC
102
}
330
6DC
100
AcDbXrecord
280
     1
102
RTVSPost2010Prop28
280
     0
102
RTVSPost2010PropOp28
 70
     1
102
RTVSPost2010Prop29
280
     1
102
RTVSPost2010PropOp29
 70
     1
102
RTVSPost2010Prop30
280
     1
102
RTVSPost2010PropOp30
 70
     1
102
RTVSPost2010Prop31
280
     0
102
RTVSPost2010PropOp31
 70
     1
102
RTVSPost2010Prop32
280
     0
102
RTVSPost2010PropOp32
 70
     1
102
RTVSPost2010Prop33
280
     0
102
RTVSPost2010PropOp33
 70
     1
102
RTVSPost2010Prop34
280
     0
102
RTVSPost2010PropOp34
 70
     1
102
RTVSPost2010Prop35
280
     0
102
RTVSPost2010PropOp35
 70
     1
102
RTVSPost2010Prop36
280
     0
102
RTVSPost2010PropOp36
 70
     1
102
RTVSPost2010Prop37
 90
       50
102
RTVSPost2010PropOp37
 70
     1
102
RTVSPost2010Prop38
140
0.0
102
RTVSPost2010PropOp38
 70
     1
102
RTVSPost2010Prop39
140
1.0
102
RTVSPost2010PropOp39
 70
     1
102
RTVSPost2010Prop40
 90
        0
102
RTVSPost2010PropOp40
 70
     1
102
RTVSPost2010Prop41ColorIndex
 90
       18
102
RTVSPost2010Prop41ColorRGB
 90
        0
102
RTVSPost2010PropOp41
 70
     1
102
RTVSPost2010Prop42
 90
       50
102
RTVSPost2010PropOp42
 70
     1
102
RTVSPost2010Prop43
 90
        3
102
RTVSPost2010PropOp43
 70
     1
102
RTVSPost2010Prop44ColorIndex
 90
        5
102
RTVSPost2010Prop44ColorRGB
 90
      255
102
RTVSPost2010PropOp44
 70
     1
102
RTVSPost2010Prop45
280
     0
102
RTVSPost2010PropOp45
 70
     1
102
RTVSPost2010Prop46
 90
       50
102
RTVSPost2010PropOp46
 70
     1
102
RTVSPost2010Prop47
 90
       50
102
RTVSPost2010PropOp47
 70
     1
102
RTVSPost2010Prop48
 90
       50
102
RTVSPost2010PropOp48
 70
     1
102
RTVSPost2010Prop49
280
     0
102
RTVSPost2010PropOp49
 70
     1
102
RTVSPost2010Prop50
 90
       50
102
RTVSPost2010PropOp50
 70
     1
102
RTVSPost2010Prop51ColorIndex
 90
      256
102
RTVSPost2010Prop51ColorRGB
 90
-16777216
102
RTVSPost2010PropOp51
 70
     0
102
RTVSPost2010Prop52
140
1.0
102
RTVSPost2010PropOp52
 70
     0
102
RTVSPost2010Prop53
 90
        2
102
RTVSPost2010PropOp53
 70
     1
102
RTVSPost2010Prop54
  1
strokes_ogs.tif
102
RTVSPost2010PropOp54
 70
     1
102
RTVSPost2010Prop55
280
     0
102
RTVSPost2010PropOp55
 70
     1
102
RTVSPost2010Prop56
140
1.0
102
RTVSPost2010PropOp56
 70
     1
102
RTVSPost2010Prop57
140
1.0
102
RTVSPost2010PropOp57
 70
     1
102
RTVSPropertyOp0
 70
     1
102
RTVSPropertyOp1
 70
     1
102
RTVSPropertyOp2
 70
     1
102
RTVSPropertyOp3
 70
     1
102
RTVSPropertyOp4
 70
     1
102
RTVSPropertyOp5
 70
     1
102
RTVSPropertyOp6
 70
     1
102
RTVSPropertyOp7
 70
     1
102
RTVSPropertyOp8
 70
     1
102
RTVSPropertyOp9
 70
     1
102
RTVSPropertyOp10
 70
     1
102
RTVSPropertyOp11
 70
     1
102
RTVSPropertyOp12
 70
     1
102
RTVSPropertyOp13
 70
     1
102
RTVSPropertyOp14
 70
     1
102
RTVSPropertyOp15
 70
     1
102
RTVSPropertyOp16
 70
     1
102
RTVSPropertyOp17
 70
     1
102
RTVSPropertyOp18
 70
     1
102
RTVSPropertyOp19
 70
     1
102
RTVSPropertyOp20
 70
     1
102
RTVSPropertyOp21
 70
     1
102
RTVSPropertyOp22
 70
     1
102
RTVSPropertyOp23
 70
     1
102
RTVSPropertyOp24
 70
     1
102
RTVSPropertyOp25
 70
     1
102
RTVSPropertyOp26
 70
     1
102
RTVSPropertyOp27
 70
     1
102
RTVSPropertyOp28
 70
     1
102
RTVSPropertyOp29
 70
     1
102
RTVSPropertyOp30
 70
     1
102
RTVSPropertyOp31
 70
     1
102
RTVSPropertyOp32
 70
     1
102
RTVSPropertyOp33
 70
     1
102
RTVSPropertyOp34
 70
     1
102
RTVSPropertyOp35
 70
     1
102
RTVSPropertyOp36
 70
     1
102
RTVSPropertyOp37
 70
     1
102
RTVSPropertyOp38
 70
     1
102
RTVSPropertyOp39
 70
     1
102
RTVSPropertyOp40
 70
     1
102
RTVSPropertyOp41
 70
     1
102
RTVSPropertyOp42
 70
     1
102
RTVSPropertyOp43
 70
     1
102
RTVSPropertyOp44
 70
     1
102
RTVSPropertyOp45
 70
     1
102
RTVSPropertyOp46
 70
     1
102
RTVSPropertyOp47
 70
     1
102
RTVSPropertyOp48
 70
     1
102
RTVSPropertyOp49
 70
     1
102
RTVSPropertyOp50
 70
     1
102
RTVSPropertyOp51
 70
     0
102
RTVSPropertyOp52
 70
     0
102
RTVSPropertyOp53
 70
     1
102
RTVSPropertyOp54
 70
     1
102
RTVSPropertyOp55
 70
     1
102
RTVSPropertyOp56
 70
     1
102
RTVSPropertyOp57
 70
     1
102
RTVSPropertyOp58
 70
     1
102
RTVSPropertyOp59
 70
     1
102
RTVSPropertyOp60
 70
     1
102
RTVSPropertyOp61
 70
     1
102
RTVSPropertyOp62
 70
     1
  0
XRECORD
  5
6DF
102
{ACAD_REACTORS
330
6DE
102
}
330
6DE
100
AcDbXrecord
280
     1
102
RTVSPost2010Prop28
280
     0
102
RTVSPost2010PropOp28
 70
     1
102
RTVSPost2010Prop29
280
     1
102
RTVSPost2010PropOp29
 70
     1
102
RTVSPost2010Prop30
280
     1
102
RTVSPost2010PropOp30
 70
     1
102
RTVSPost2010Prop31
280
     0
102
RTVSPost2010PropOp31
 70
     1
102
RTVSPost2010Prop32
280
     0
102
RTVSPost2010PropOp32
 70
     1
102
RTVSPost2010Prop33
280
     0
102
RTVSPost2010PropOp33
 70
     1
102
RTVSPost2010Prop34
280
     0
102
RTVSPost2010PropOp34
 70
     1
102
RTVSPost2010Prop35
280
     0
102
RTVSPost2010PropOp35
 70
     1
102
RTVSPost2010Prop36
280
     0
102
RTVSPost2010PropOp36
 70
     1
102
RTVSPost2010Prop37
 90
       50
102
RTVSPost2010PropOp37
 70
     1
102
RTVSPost2010Prop38
140
0.0
102
RTVSPost2010PropOp38
 70
     1
102
RTVSPost2010Prop39
140
1.0
102
RTVSPost2010PropOp39
 70
     1
102
RTVSPost2010Prop40
 90
        0
102
RTVSPost2010PropOp40
 70
     1
102
RTVSPost2010Prop41ColorIndex
 90
       18
102
RTVSPost2010Prop41ColorRGB
 90
        0
102
RTVSPost2010PropOp41
 70
     1
102
RTVSPost2010Prop42
 90
       50
102
RTVSPost2010PropOp42
 70
     1
102
RTVSPost2010Prop43
 90
        3
102
RTVSPost2010PropOp43
 70
     1
102
RTVSPost2010Prop44ColorIndex
 90
        5
102
RTVSPost2010Prop44ColorRGB
 90
      255
102
RTVSPost2010PropOp44
 70
     1
102
RTVSPost2010Prop45
280
     0
102
RTVSPost2010PropOp45
 70
     1
102
RTVSPost2010Prop46
 90
       50
102
RTVSPost2010PropOp46
 70
     1
102
RTVSPost2010Prop47
 90
       50
102
RTVSPost2010PropOp47
 70
     1
102
RTVSPost2010Prop48
 90
       50
102
RTVSPost2010PropOp48
 70
     1
102
RTVSPost2010Prop49
280
     0
102
RTVSPost2010PropOp49
 70
     1
102
RTVSPost2010Prop50
 90
       50
102
RTVSPost2010PropOp50
 70
     1
102
RTVSPost2010Prop51ColorIndex
 90
      256
102
RTVSPost2010Prop51ColorRGB
 90
-16777216
102
RTVSPost2010PropOp51
 70
     0
102
RTVSPost2010Prop52
140
1.0
102
RTVSPost2010PropOp52
 70
     0
102
RTVSPost2010Prop53
 90
        2
102
RTVSPost2010PropOp53
 70
     1
102
RTVSPost2010Prop54
  1
strokes_ogs.tif
102
RTVSPost2010PropOp54
 70
     1
102
RTVSPost2010Prop55
280
     0
102
RTVSPost2010PropOp55
 70
     1
102
RTVSPost2010Prop56
140
1.0
102
RTVSPost2010PropOp56
 70
     1
102
RTVSPost2010Prop57
140
1.0
102
RTVSPost2010PropOp57
 70
     1
102
RTVSPropertyOp0
 70
     1
102
RTVSPropertyOp1
 70
     1
102
RTVSPropertyOp2
 70
     1
102
RTVSPropertyOp3
 70
     1
102
RTVSPropertyOp4
 70
     1
102
RTVSPropertyOp5
 70
     1
102
RTVSPropertyOp6
 70
     1
102
RTVSPropertyOp7
 70
     1
102
RTVSPropertyOp8
 70
     1
102
RTVSPropertyOp9
 70
     1
102
RTVSPropertyOp10
 70
     1
102
RTVSPropertyOp11
 70
     1
102
RTVSPropertyOp12
 70
     1
102
RTVSPropertyOp13
 70
     1
102
RTVSPropertyOp14
 70
     1
102
RTVSPropertyOp15
 70
     1
102
RTVSPropertyOp16
 70
     1
102
RTVSPropertyOp17
 70
     1
102
RTVSPropertyOp18
 70
     1
102
RTVSPropertyOp19
 70
     1
102
RTVSPropertyOp20
 70
     1
102
RTVSPropertyOp21
 70
     1
102
RTVSPropertyOp22
 70
     1
102
RTVSPropertyOp23
 70
     1
102
RTVSPropertyOp24
 70
     1
102
RTVSPropertyOp25
 70
     1
102
RTVSPropertyOp26
 70
     1
102
RTVSPropertyOp27
 70
     1
102
RTVSPropertyOp28
 70
     1
102
RTVSPropertyOp29
 70
     1
102
RTVSPropertyOp30
 70
     1
102
RTVSPropertyOp31
 70
     1
102
RTVSPropertyOp32
 70
     1
102
RTVSPropertyOp33
 70
     1
102
RTVSPropertyOp34
 70
     1
102
RTVSPropertyOp35
 70
     1
102
RTVSPropertyOp36
 70
     1
102
RTVSPropertyOp37
 70
     1
102
RTVSPropertyOp38
 70
     1
102
RTVSPropertyOp39
 70
     1
102
RTVSPropertyOp40
 70
     1
102
RTVSPropertyOp41
 70
     1
102
RTVSPropertyOp42
 70
     1
102
RTVSPropertyOp43
 70
     1
102
RTVSPropertyOp44
 70
     1
102
RTVSPropertyOp45
 70
     1
102
RTVSPropertyOp46
 70
     1
102
RTVSPropertyOp47
 70
     1
102
RTVSPropertyOp48
 70
     1
102
RTVSPropertyOp49
 70
     1
102
RTVSPropertyOp50
 70
     1
102
RTVSPropertyOp51
 70
     0
102
RTVSPropertyOp52
 70
     0
102
RTVSPropertyOp53
 70
     1
102
RTVSPropertyOp54
 70
     1
102
RTVSPropertyOp55
 70
     1
102
RTVSPropertyOp56
 70
     1
102
RTVSPropertyOp57
 70
     1
102
RTVSPropertyOp58
 70
     1
102
RTVSPropertyOp59
 70
     1
102
RTVSPropertyOp60
 70
     1
102
RTVSPropertyOp61
 70
     1
102
RTVSPropertyOp62
 70
     1
  0
XRECORD
  5
6E7
102
{ACAD_REACTORS
330
6E6
102
}
330
6E6
100
AcDbXrecord
280
     1
102
RTVSPost2010Prop28
280
     0
102
RTVSPost2010PropOp28
 70
     1
102
RTVSPost2010Prop29
280
     1
102
RTVSPost2010PropOp29
 70
     1
102
RTVSPost2010Prop30
280
     1
102
RTVSPost2010PropOp30
 70
     1
102
RTVSPost2010Prop31
280
     0
102
RTVSPost2010PropOp31
 70
     1
102
RTVSPost2010Prop32
280
     0
102
RTVSPost2010PropOp32
 70
     1
102
RTVSPost2010Prop33
280
     0
102
RTVSPost2010PropOp33
 70
     1
102
RTVSPost2010Prop34
280
     0
102
RTVSPost2010PropOp34
 70
     1
102
RTVSPost2010Prop35
280
     0
102
RTVSPost2010PropOp35
 70
     1
102
RTVSPost2010Prop36
280
     0
102
RTVSPost2010PropOp36
 70
     1
102
RTVSPost2010Prop37
 90
       50
102
RTVSPost2010PropOp37
 70
     1
102
RTVSPost2010Prop38
140
0.0
102
RTVSPost2010PropOp38
 70
     1
102
RTVSPost2010Prop39
140
1.0
102
RTVSPost2010PropOp39
 70
     1
102
RTVSPost2010Prop40
 90
        0
102
RTVSPost2010PropOp40
 70
     1
102
RTVSPost2010Prop41ColorIndex
 90
       18
102
RTVSPost2010Prop41ColorRGB
 90
        0
102
RTVSPost2010PropOp41
 70
     1
102
RTVSPost2010Prop42
 90
       50
102
RTVSPost2010PropOp42
 70
     1
102
RTVSPost2010Prop43
 90
        3
102
RTVSPost2010PropOp43
 70
     1
102
RTVSPost2010Prop44ColorIndex
 90
        5
102
RTVSPost2010Prop44ColorRGB
 90
      255
102
RTVSPost2010PropOp44
 70
     1
102
RTVSPost2010Prop45
280
     0
102
RTVSPost2010PropOp45
 70
     1
102
RTVSPost2010Prop46
 90
       50
102
RTVSPost2010PropOp46
 70
     1
102
RTVSPost2010Prop47
 90
       50
102
RTVSPost2010PropOp47
 70
     1
102
RTVSPost2010Prop48
 90
       50
102
RTVSPost2010PropOp48
 70
     1
102
RTVSPost2010Prop49
280
     0
102
RTVSPost2010PropOp49
 70
     1
102
RTVSPost2010Prop50
 90
       50
102
RTVSPost2010PropOp50
 70
     1
102
RTVSPost2010Prop51ColorIndex
 90
      256
102
RTVSPost2010Prop51ColorRGB
 90
-16777216
102
RTVSPost2010PropOp51
 70
     0
102
RTVSPost2010Prop52
140
1.0
102
RTVSPost2010PropOp52
 70
     0
102
RTVSPost2010Prop53
 90
        2
102
RTVSPost2010PropOp53
 70
     1
102
RTVSPost2010Prop54
  1
strokes_ogs.tif
102
RTVSPost2010PropOp54
 70
     1
102
RTVSPost2010Prop55
280
     0
102
RTVSPost2010PropOp55
 70
     1
102
RTVSPost2010Prop56
140
1.0
102
RTVSPost2010PropOp56
 70
     1
102
RTVSPost2010Prop57
140
1.0
102
RTVSPost2010PropOp57
 70
     1
102
RTVSPropertyOp0
 70
     1
102
RTVSPropertyOp1
 70
     1
102
RTVSPropertyOp2
 70
     1
102
RTVSPropertyOp3
 70
     1
102
RTVSPropertyOp4
 70
     1
102
RTVSPropertyOp5
 70
     1
102
RTVSPropertyOp6
 70
     1
102
RTVSPropertyOp7
 70
     1
102
RTVSPropertyOp8
 70
     1
102
RTVSPropertyOp9
 70
     1
102
RTVSPropertyOp10
 70
     1
102
RTVSPropertyOp11
 70
     1
102
RTVSPropertyOp12
 70
     1
102
RTVSPropertyOp13
 70
     1
102
RTVSPropertyOp14
 70
     1
102
RTVSPropertyOp15
 70
     1
102
RTVSPropertyOp16
 70
     1
102
RTVSPropertyOp17
 70
     1
102
RTVSPropertyOp18
 70
     1
102
RTVSPropertyOp19
 70
     1
102
RTVSPropertyOp20
 70
     1
102
RTVSPropertyOp21
 70
     1
102
RTVSPropertyOp22
 70
     1
102
RTVSPropertyOp23
 70
     1
102
RTVSPropertyOp24
 70
     1
102
RTVSPropertyOp25
 70
     1
102
RTVSPropertyOp26
 70
     1
102
RTVSPropertyOp27
 70
     1
102
RTVSPropertyOp28
 70
     1
102
RTVSPropertyOp29
 70
     1
102
RTVSPropertyOp30
 70
     1
102
RTVSPropertyOp31
 70
     1
102
RTVSPropertyOp32
 70
     1
102
RTVSPropertyOp33
 70
     1
102
RTVSPropertyOp34
 70
     1
102
RTVSPropertyOp35
 70
     1
102
RTVSPropertyOp36
 70
     1
102
RTVSPropertyOp37
 70
     1
102
RTVSPropertyOp38
 70
     1
102
RTVSPropertyOp39
 70
     1
102
RTVSPropertyOp40
 70
     1
102
RTVSPropertyOp41
 70
     1
102
RTVSPropertyOp42
 70
     1
102
RTVSPropertyOp43
 70
     1
102
RTVSPropertyOp44
 70
     1
102
RTVSPropertyOp45
 70
     1
102
RTVSPropertyOp46
 70
     1
102
RTVSPropertyOp47
 70
     1
102
RTVSPropertyOp48
 70
     1
102
RTVSPropertyOp49
 70
     1
102
RTVSPropertyOp50
 70
     1
102
RTVSPropertyOp51
 70
     0
102
RTVSPropertyOp52
 70
     0
102
RTVSPropertyOp53
 70
     1
102
RTVSPropertyOp54
 70
     1
102
RTVSPropertyOp55
 70
     1
102
RTVSPropertyOp56
 70
     1
102
RTVSPropertyOp57
 70
     1
102
RTVSPropertyOp58
 70
     1
102
RTVSPropertyOp59
 70
     1
102
RTVSPropertyOp60
 70
     1
102
RTVSPropertyOp61
 70
     1
102
RTVSPropertyOp62
 70
     1
  0
XRECORD
  5
703
102
{ACAD_REACTORS
330
702
102
}
330
702
100
AcDbXrecord
280
     1
102
RTVSPost2010Prop28
280
     0
102
RTVSPost2010PropOp28
 70
     0
102
RTVSPost2010Prop29
280
     1
102
RTVSPost2010PropOp29
 70
     0
102
RTVSPost2010Prop30
280
     1
102
RTVSPost2010PropOp30
 70
     0
102
RTVSPost2010Prop31
280
     0
102
RTVSPost2010PropOp31
 70
     0
102
RTVSPost2010Prop32
280
     0
102
RTVSPost2010PropOp32
 70
     0
102
RTVSPost2010Prop33
280
     0
102
RTVSPost2010PropOp33
 70
     0
102
RTVSPost2010Prop34
280
     0
102
RTVSPost2010PropOp34
 70
     0
102
RTVSPost2010Prop35
280
     0
102
RTVSPost2010PropOp35
 70
     0
102
RTVSPost2010Prop36
280
     0
102
RTVSPost2010PropOp36
 70
     0
102
RTVSPost2010Prop37
 90
       50
102
RTVSPost2010PropOp37
 70
     0
102
RTVSPost2010Prop38
140
0.0
102
RTVSPost2010PropOp38
 70
     0
102
RTVSPost2010Prop39
140
1.0
102
RTVSPost2010PropOp39
 70
     0
102
RTVSPost2010Prop40
 90
        0
102
RTVSPost2010PropOp40
 70
     0
102
RTVSPost2010Prop41ColorIndex
 90
       18
102
RTVSPost2010Prop41ColorRGB
 90
        0
102
RTVSPost2010PropOp41
 70
     0
102
RTVSPost2010Prop42
 90
       50
102
RTVSPost2010PropOp42
 70
     0
102
RTVSPost2010Prop43
 90
        3
102
RTVSPost2010PropOp43
 70
     0
102
RTVSPost2010Prop44ColorIndex
 90
        5
102
RTVSPost2010Prop44ColorRGB
 90
      255
102
RTVSPost2010PropOp44
 70
     0
102
RTVSPost2010Prop45
280
     0
102
RTVSPost2010PropOp45
 70
     0
102
RTVSPost2010Prop46
 90
       50
102
RTVSPost2010PropOp46
 70
     0
102
RTVSPost2010Prop47
 90
       50
102
RTVSPost2010PropOp47
 70
     0
102
RTVSPost2010Prop48
 90
       50
102
RTVSPost2010PropOp48
 70
     0
102
RTVSPost2010Prop49
280
     0
102
RTVSPost2010PropOp49
 70
     0
102
RTVSPost2010Prop50
 90
       50
102
RTVSPost2010PropOp50
 70
     0
102
RTVSPost2010Prop51ColorIndex
 90
      256
102
RTVSPost2010Prop51ColorRGB
 90
-16777216
102
RTVSPost2010PropOp51
 70
     0
102
RTVSPost2010Prop52
140
1.0
102
RTVSPost2010PropOp52
 70
     0
102
RTVSPost2010Prop53
 90
        2
102
RTVSPost2010PropOp53
 70
     0
102
RTVSPost2010Prop54
  1
strokes_ogs.tif
102
RTVSPost2010PropOp54
 70
     0
102
RTVSPost2010Prop55
280
     0
102
RTVSPost2010PropOp55
 70
     0
102
RTVSPost2010Prop56
140
1.0
102
RTVSPost2010PropOp56
 70
     0
102
RTVSPost2010Prop57
140
1.0
102
RTVSPost2010PropOp57
 70
     0
102
RTVSPropertyOp0
 70
     0
102
RTVSPropertyOp1
 70
     0
102
RTVSPropertyOp2
 70
     0
102
RTVSPropertyOp3
 70
     0
102
RTVSPropertyOp4
 70
     0
102
RTVSPropertyOp5
 70
     0
102
RTVSPropertyOp6
 70
     0
102
RTVSPropertyOp7
 70
     0
102
RTVSPropertyOp8
 70
     0
102
RTVSPropertyOp9
 70
     0
102
RTVSPropertyOp10
 70
     0
102
RTVSPropertyOp11
 70
     0
102
RTVSPropertyOp12
 70
     0
102
RTVSPropertyOp13
 70
     0
102
RTVSPropertyOp14
 70
     2
102
RTVSPropertyOp15
 70
     0
102
RTVSPropertyOp16
 70
     0
102
RTVSPropertyOp17
 70
     0
102
RTVSPropertyOp18
 70
     0
102
RTVSPropertyOp19
 70
     0
102
RTVSPropertyOp20
 70
     0
102
RTVSPropertyOp21
 70
     0
102
RTVSPropertyOp22
 70
     0
102
RTVSPropertyOp23
 70
     0
102
RTVSPropertyOp24
 70
     0
102
RTVSPropertyOp25
 70
     0
102
RTVSPropertyOp26
 70
     0
102
RTVSPropertyOp27
 70
     0
102
RTVSPropertyOp28
 70
     0
102
RTVSPropertyOp29
 70
     0
102
RTVSPropertyOp30
 70
     0
102
RTVSPropertyOp31
 70
     0
102
RTVSPropertyOp32
 70
     0
102
RTVSPropertyOp33
 70
     0
102
RTVSPropertyOp34
 70
     0
102
RTVSPropertyOp35
 70
     0
102
RTVSPropertyOp36
 70
     0
102
RTVSPropertyOp37
 70
     0
102
RTVSPropertyOp38
 70
     0
102
RTVSPropertyOp39
 70
     0
102
RTVSPropertyOp40
 70
     0
102
RTVSPropertyOp41
 70
     0
102
RTVSPropertyOp42
 70
     0
102
RTVSPropertyOp43
 70
     0
102
RTVSPropertyOp44
 70
     0
102
RTVSPropertyOp45
 70
     0
102
RTVSPropertyOp46
 70
     0
102
RTVSPropertyOp47
 70
     0
102
RTVSPropertyOp48
 70
     0
102
RTVSPropertyOp49
 70
     0
102
RTVSPropertyOp50
 70
     0
102
RTVSPropertyOp51
 70
     0
102
RTVSPropertyOp52
 70
     0
102
RTVSPropertyOp53
 70
     0
102
RTVSPropertyOp54
 70
     0
102
RTVSPropertyOp55
 70
     0
102
RTVSPropertyOp56
 70
     0
102
RTVSPropertyOp57
 70
     0
102
RTVSPropertyOp58
 70
     0
102
RTVSPropertyOp59
 70
     0
102
RTVSPropertyOp60
 70
     0
102
RTVSPropertyOp61
 70
     0
102
RTVSPropertyOp62
 70
     0
  0
XRECORD
  5
6F3
102
{ACAD_REACTORS
330
6F2
102
}
330
6F2
100
AcDbXrecord
280
     1
102
RTVSPost2010Prop28
280
     0
102
RTVSPost2010PropOp28
 70
     1
102
RTVSPost2010Prop29
280
     1
102
RTVSPost2010PropOp29
 70
     1
102
RTVSPost2010Prop30
280
     1
102
RTVSPost2010PropOp30
 70
     1
102
RTVSPost2010Prop31
280
     0
102
RTVSPost2010PropOp31
 70
     1
102
RTVSPost2010Prop32
280
     0
102
RTVSPost2010PropOp32
 70
     1
102
RTVSPost2010Prop33
280
     0
102
RTVSPost2010PropOp33
 70
     1
102
RTVSPost2010Prop34
280
     0
102
RTVSPost2010PropOp34
 70
     1
102
RTVSPost2010Prop35
280
     0
102
RTVSPost2010PropOp35
 70
     1
102
RTVSPost2010Prop36
280
     0
102
RTVSPost2010PropOp36
 70
     1
102
RTVSPost2010Prop37
 90
       50
102
RTVSPost2010PropOp37
 70
     1
102
RTVSPost2010Prop38
140
0.0
102
RTVSPost2010PropOp38
 70
     1
102
RTVSPost2010Prop39
140
1.0
102
RTVSPost2010PropOp39
 70
     1
102
RTVSPost2010Prop40
 90
        0
102
RTVSPost2010PropOp40
 70
     1
102
RTVSPost2010Prop41ColorIndex
 90
       18
102
RTVSPost2010Prop41ColorRGB
 90
        0
102
RTVSPost2010PropOp41
 70
     1
102
RTVSPost2010Prop42
 90
       50
102
RTVSPost2010PropOp42
 70
     1
102
RTVSPost2010Prop43
 90
        3
102
RTVSPost2010PropOp43
 70
     1
102
RTVSPost2010Prop44ColorIndex
 90
        5
102
RTVSPost2010Prop44ColorRGB
 90
      255
102
RTVSPost2010PropOp44
 70
     1
102
RTVSPost2010Prop45
280
     0
102
RTVSPost2010PropOp45
 70
     1
102
RTVSPost2010Prop46
 90
       50
102
RTVSPost2010PropOp46
 70
     1
102
RTVSPost2010Prop47
 90
       50
102
RTVSPost2010PropOp47
 70
     1
102
RTVSPost2010Prop48
 90
       50
102
RTVSPost2010PropOp48
 70
     1
102
RTVSPost2010Prop49
280
     0
102
RTVSPost2010PropOp49
 70
     1
102
RTVSPost2010Prop50
 90
       50
102
RTVSPost2010PropOp50
 70
     1
102
RTVSPost2010Prop51ColorIndex
 90
      256
102
RTVSPost2010Prop51ColorRGB
 90
-16777216
102
RTVSPost2010PropOp51
 70
     0
102
RTVSPost2010Prop52
140
1.0
102
RTVSPost2010PropOp52
 70
     0
102
RTVSPost2010Prop53
 90
        2
102
RTVSPost2010PropOp53
 70
     1
102
RTVSPost2010Prop54
  1
strokes_ogs.tif
102
RTVSPost2010PropOp54
 70
     1
102
RTVSPost2010Prop55
280
     0
102
RTVSPost2010PropOp55
 70
     1
102
RTVSPost2010Prop56
140
1.0
102
RTVSPost2010PropOp56
 70
     1
102
RTVSPost2010Prop57
140
1.0
102
RTVSPost2010PropOp57
 70
     1
102
RTVSPropertyOp0
 70
     1
102
RTVSPropertyOp1
 70
     1
102
RTVSPropertyOp2
 70
     1
102
RTVSPropertyOp3
 70
     1
102
RTVSPropertyOp4
 70
     1
102
RTVSPropertyOp5
 70
     1
102
RTVSPropertyOp6
 70
     1
102
RTVSPropertyOp7
 70
     1
102
RTVSPropertyOp8
 70
     1
102
RTVSPropertyOp9
 70
     1
102
RTVSPropertyOp10
 70
     1
102
RTVSPropertyOp11
 70
     1
102
RTVSPropertyOp12
 70
     1
102
RTVSPropertyOp13
 70
     1
102
RTVSPropertyOp14
 70
     1
102
RTVSPropertyOp15
 70
     1
102
RTVSPropertyOp16
 70
     1
102
RTVSPropertyOp17
 70
     1
102
RTVSPropertyOp18
 70
     1
102
RTVSPropertyOp19
 70
     1
102
RTVSPropertyOp20
 70
     1
102
RTVSPropertyOp21
 70
     1
102
RTVSPropertyOp22
 70
     1
102
RTVSPropertyOp23
 70
     1
102
RTVSPropertyOp24
 70
     1
102
RTVSPropertyOp25
 70
     1
102
RTVSPropertyOp26
 70
     1
102
RTVSPropertyOp27
 70
     1
102
RTVSPropertyOp28
 70
     1
102
RTVSPropertyOp29
 70
     1
102
RTVSPropertyOp30
 70
     1
102
RTVSPropertyOp31
 70
     1
102
RTVSPropertyOp32
 70
     1
102
RTVSPropertyOp33
 70
     1
102
RTVSPropertyOp34
 70
     1
102
RTVSPropertyOp35
 70
     1
102
RTVSPropertyOp36
 70
     1
102
RTVSPropertyOp37
 70
     1
102
RTVSPropertyOp38
 70
     1
102
RTVSPropertyOp39
 70
     1
102
RTVSPropertyOp40
 70
     1
102
RTVSPropertyOp41
 70
     1
102
RTVSPropertyOp42
 70
     1
102
RTVSPropertyOp43
 70
     1
102
RTVSPropertyOp44
 70
     1
102
RTVSPropertyOp45
 70
     1
102
RTVSPropertyOp46
 70
     1
102
RTVSPropertyOp47
 70
     1
102
RTVSPropertyOp48
 70
     1
102
RTVSPropertyOp49
 70
     1
102
RTVSPropertyOp50
 70
     1
102
RTVSPropertyOp51
 70
     0
102
RTVSPropertyOp52
 70
     0
102
RTVSPropertyOp53
 70
     1
102
RTVSPropertyOp54
 70
     1
102
RTVSPropertyOp55
 70
     1
102
RTVSPropertyOp56
 70
     1
102
RTVSPropertyOp57
 70
     1
102
RTVSPropertyOp58
 70
     1
102
RTVSPropertyOp59
 70
     1
102
RTVSPropertyOp60
 70
     1
102
RTVSPropertyOp61
 70
     1
102
RTVSPropertyOp62
 70
     1
  0
XRECORD
  5
705
102
{ACAD_REACTORS
330
704
102
}
330
704
100
AcDbXrecord
280
     1
102
RTVSPost2010Prop28
280
     0
102
RTVSPost2010PropOp28
 70
     0
102
RTVSPost2010Prop29
280
     1
102
RTVSPost2010PropOp29
 70
     0
102
RTVSPost2010Prop30
280
     1
102
RTVSPost2010PropOp30
 70
     0
102
RTVSPost2010Prop31
280
     0
102
RTVSPost2010PropOp31
 70
     0
102
RTVSPost2010Prop32
280
     0
102
RTVSPost2010PropOp32
 70
     0
102
RTVSPost2010Prop33
280
     0
102
RTVSPost2010PropOp33
 70
     0
102
RTVSPost2010Prop34
280
     0
102
RTVSPost2010PropOp34
 70
     0
102
RTVSPost2010Prop35
280
     0
102
RTVSPost2010PropOp35
 70
     0
102
RTVSPost2010Prop36
280
     0
102
RTVSPost2010PropOp36
 70
     0
102
RTVSPost2010Prop37
 90
       50
102
RTVSPost2010PropOp37
 70
     0
102
RTVSPost2010Prop38
140
0.0
102
RTVSPost2010PropOp38
 70
     0
102
RTVSPost2010Prop39
140
1.0
102
RTVSPost2010PropOp39
 70
     0
102
RTVSPost2010Prop40
 90
        0
102
RTVSPost2010PropOp40
 70
     0
102
RTVSPost2010Prop41ColorIndex
 90
       18
102
RTVSPost2010Prop41ColorRGB
 90
        0
102
RTVSPost2010PropOp41
 70
     0
102
RTVSPost2010Prop42
 90
       50
102
RTVSPost2010PropOp42
 70
     0
102
RTVSPost2010Prop43
 90
        3
102
RTVSPost2010PropOp43
 70
     0
102
RTVSPost2010Prop44ColorIndex
 90
        5
102
RTVSPost2010Prop44ColorRGB
 90
      255
102
RTVSPost2010PropOp44
 70
     0
102
RTVSPost2010Prop45
280
     0
102
RTVSPost2010PropOp45
 70
     0
102
RTVSPost2010Prop46
 90
       50
102
RTVSPost2010PropOp46
 70
     0
102
RTVSPost2010Prop47
 90
       50
102
RTVSPost2010PropOp47
 70
     0
102
RTVSPost2010Prop48
 90
       50
102
RTVSPost2010PropOp48
 70
     0
102
RTVSPost2010Prop49
280
     0
102
RTVSPost2010PropOp49
 70
     0
102
RTVSPost2010Prop50
 90
       50
102
RTVSPost2010PropOp50
 70
     0
102
RTVSPost2010Prop51ColorIndex
 90
      256
102
RTVSPost2010Prop51ColorRGB
 90
-16777216
102
RTVSPost2010PropOp51
 70
     0
102
RTVSPost2010Prop52
140
1.0
102
RTVSPost2010PropOp52
 70
     0
102
RTVSPost2010Prop53
 90
        2
102
RTVSPost2010PropOp53
 70
     0
102
RTVSPost2010Prop54
  1
strokes_ogs.tif
102
RTVSPost2010PropOp54
 70
     0
102
RTVSPost2010Prop55
280
     0
102
RTVSPost2010PropOp55
 70
     0
102
RTVSPost2010Prop56
140
1.0
102
RTVSPost2010PropOp56
 70
     0
102
RTVSPost2010Prop57
140
1.0
102
RTVSPost2010PropOp57
 70
     0
102
RTVSPropertyOp0
 70
     0
102
RTVSPropertyOp1
 70
     0
102
RTVSPropertyOp2
 70
     0
102
RTVSPropertyOp3
 70
     0
102
RTVSPropertyOp4
 70
     0
102
RTVSPropertyOp5
 70
     0
102
RTVSPropertyOp6
 70
     0
102
RTVSPropertyOp7
 70
     0
102
RTVSPropertyOp8
 70
     0
102
RTVSPropertyOp9
 70
     0
102
RTVSPropertyOp10
 70
     0
102
RTVSPropertyOp11
 70
     0
102
RTVSPropertyOp12
 70
     0
102
RTVSPropertyOp13
 70
     0
102
RTVSPropertyOp14
 70
     2
102
RTVSPropertyOp15
 70
     0
102
RTVSPropertyOp16
 70
     0
102
RTVSPropertyOp17
 70
     0
102
RTVSPropertyOp18
 70
     0
102
RTVSPropertyOp19
 70
     0
102
RTVSPropertyOp20
 70
     0
102
RTVSPropertyOp21
 70
     0
102
RTVSPropertyOp22
 70
     0
102
RTVSPropertyOp23
 70
     0
102
RTVSPropertyOp24
 70
     0
102
RTVSPropertyOp25
 70
     0
102
RTVSPropertyOp26
 70
     0
102
RTVSPropertyOp27
 70
     0
102
RTVSPropertyOp28
 70
     0
102
RTVSPropertyOp29
 70
     0
102
RTVSPropertyOp30
 70
     0
102
RTVSPropertyOp31
 70
     0
102
RTVSPropertyOp32
 70
     0
102
RTVSPropertyOp33
 70
     0
102
RTVSPropertyOp34
 70
     0
102
RTVSPropertyOp35
 70
     0
102
RTVSPropertyOp36
 70
     0
102
RTVSPropertyOp37
 70
     0
102
RTVSPropertyOp38
 70
     0
102
RTVSPropertyOp39
 70
     0
102
RTVSPropertyOp40
 70
     0
102
RTVSPropertyOp41
 70
     0
102
RTVSPropertyOp42
 70
     0
102
RTVSPropertyOp43
 70
     0
102
RTVSPropertyOp44
 70
     0
102
RTVSPropertyOp45
 70
     0
102
RTVSPropertyOp46
 70
     0
102
RTVSPropertyOp47
 70
     0
102
RTVSPropertyOp48
 70
     0
102
RTVSPropertyOp49
 70
     0
102
RTVSPropertyOp50
 70
     0
102
RTVSPropertyOp51
 70
     0
102
RTVSPropertyOp52
 70
     0
102
RTVSPropertyOp53
 70
     0
102
RTVSPropertyOp54
 70
     0
102
RTVSPropertyOp55
 70
     0
102
RTVSPropertyOp56
 70
     0
102
RTVSPropertyOp57
 70
     0
102
RTVSPropertyOp58
 70
     0
102
RTVSPropertyOp59
 70
     0
102
RTVSPropertyOp60
 70
     0
102
RTVSPropertyOp61
 70
     0
102
RTVSPropertyOp62
 70
     0
  0
XRECORD
  5
6EB
102
{ACAD_REACTORS
330
6EA
102
}
330
6EA
100
AcDbXrecord
280
     1
102
RTVSPost2010Prop28
280
     0
102
RTVSPost2010PropOp28
 70
     1
102
RTVSPost2010Prop29
280
     1
102
RTVSPost2010PropOp29
 70
     1
102
RTVSPost2010Prop30
280
     1
102
RTVSPost2010PropOp30
 70
     1
102
RTVSPost2010Prop31
280
     0
102
RTVSPost2010PropOp31
 70
     1
102
RTVSPost2010Prop32
280
     0
102
RTVSPost2010PropOp32
 70
     1
102
RTVSPost2010Prop33
280
     0
102
RTVSPost2010PropOp33
 70
     1
102
RTVSPost2010Prop34
280
     0
102
RTVSPost2010PropOp34
 70
     1
102
RTVSPost2010Prop35
280
     0
102
RTVSPost2010PropOp35
 70
     1
102
RTVSPost2010Prop36
280
     0
102
RTVSPost2010PropOp36
 70
     1
102
RTVSPost2010Prop37
 90
       50
102
RTVSPost2010PropOp37
 70
     1
102
RTVSPost2010Prop38
140
0.0
102
RTVSPost2010PropOp38
 70
     1
102
RTVSPost2010Prop39
140
1.0
102
RTVSPost2010PropOp39
 70
     1
102
RTVSPost2010Prop40
 90
        0
102
RTVSPost2010PropOp40
 70
     1
102
RTVSPost2010Prop41ColorIndex
 90
       18
102
RTVSPost2010Prop41ColorRGB
 90
        0
102
RTVSPost2010PropOp41
 70
     1
102
RTVSPost2010Prop42
 90
       50
102
RTVSPost2010PropOp42
 70
     1
102
RTVSPost2010Prop43
 90
        3
102
RTVSPost2010PropOp43
 70
     1
102
RTVSPost2010Prop44ColorIndex
 90
        5
102
RTVSPost2010Prop44ColorRGB
 90
      255
102
RTVSPost2010PropOp44
 70
     1
102
RTVSPost2010Prop45
280
     0
102
RTVSPost2010PropOp45
 70
     1
102
RTVSPost2010Prop46
 90
       50
102
RTVSPost2010PropOp46
 70
     1
102
RTVSPost2010Prop47
 90
       50
102
RTVSPost2010PropOp47
 70
     1
102
RTVSPost2010Prop48
 90
       50
102
RTVSPost2010PropOp48
 70
     1
102
RTVSPost2010Prop49
280
     0
102
RTVSPost2010PropOp49
 70
     1
102
RTVSPost2010Prop50
 90
       50
102
RTVSPost2010PropOp50
 70
     1
102
RTVSPost2010Prop51ColorIndex
 90
      256
102
RTVSPost2010Prop51ColorRGB
 90
-16777216
102
RTVSPost2010PropOp51
 70
     0
102
RTVSPost2010Prop52
140
1.0
102
RTVSPost2010PropOp52
 70
     0
102
RTVSPost2010Prop53
 90
        2
102
RTVSPost2010PropOp53
 70
     1
102
RTVSPost2010Prop54
  1
strokes_ogs.tif
102
RTVSPost2010PropOp54
 70
     1
102
RTVSPost2010Prop55
280
     0
102
RTVSPost2010PropOp55
 70
     1
102
RTVSPost2010Prop56
140
1.0
102
RTVSPost2010PropOp56
 70
     1
102
RTVSPost2010Prop57
140
1.0
102
RTVSPost2010PropOp57
 70
     1
102
RTVSPropertyOp0
 70
     1
102
RTVSPropertyOp1
 70
     1
102
RTVSPropertyOp2
 70
     1
102
RTVSPropertyOp3
 70
     1
102
RTVSPropertyOp4
 70
     1
102
RTVSPropertyOp5
 70
     1
102
RTVSPropertyOp6
 70
     1
102
RTVSPropertyOp7
 70
     1
102
RTVSPropertyOp8
 70
     1
102
RTVSPropertyOp9
 70
     1
102
RTVSPropertyOp10
 70
     1
102
RTVSPropertyOp11
 70
     1
102
RTVSPropertyOp12
 70
     1
102
RTVSPropertyOp13
 70
     1
102
RTVSPropertyOp14
 70
     1
102
RTVSPropertyOp15
 70
     1
102
RTVSPropertyOp16
 70
     1
102
RTVSPropertyOp17
 70
     1
102
RTVSPropertyOp18
 70
     1
102
RTVSPropertyOp19
 70
     1
102
RTVSPropertyOp20
 70
     1
102
RTVSPropertyOp21
 70
     1
102
RTVSPropertyOp22
 70
     1
102
RTVSPropertyOp23
 70
     1
102
RTVSPropertyOp24
 70
     1
102
RTVSPropertyOp25
 70
     1
102
RTVSPropertyOp26
 70
     1
102
RTVSPropertyOp27
 70
     1
102
RTVSPropertyOp28
 70
     1
102
RTVSPropertyOp29
 70
     1
102
RTVSPropertyOp30
 70
     1
102
RTVSPropertyOp31
 70
     1
102
RTVSPropertyOp32
 70
     1
102
RTVSPropertyOp33
 70
     1
102
RTVSPropertyOp34
 70
     1
102
RTVSPropertyOp35
 70
     1
102
RTVSPropertyOp36
 70
     1
102
RTVSPropertyOp37
 70
     1
102
RTVSPropertyOp38
 70
     1
102
RTVSPropertyOp39
 70
     1
102
RTVSPropertyOp40
 70
     1
102
RTVSPropertyOp41
 70
     1
102
RTVSPropertyOp42
 70
     1
102
RTVSPropertyOp43
 70
     1
102
RTVSPropertyOp44
 70
     1
102
RTVSPropertyOp45
 70
     1
102
RTVSPropertyOp46
 70
     1
102
RTVSPropertyOp47
 70
     1
102
RTVSPropertyOp48
 70
     1
102
RTVSPropertyOp49
 70
     1
102
RTVSPropertyOp50
 70
     1
102
RTVSPropertyOp51
 70
     0
102
RTVSPropertyOp52
 70
     0
102
RTVSPropertyOp53
 70
     1
102
RTVSPropertyOp54
 70
     1
102
RTVSPropertyOp55
 70
     1
102
RTVSPropertyOp56
 70
     1
102
RTVSPropertyOp57
 70
     1
102
RTVSPropertyOp58
 70
     1
102
RTVSPropertyOp59
 70
     1
102
RTVSPropertyOp60
 70
     1
102
RTVSPropertyOp61
 70
     1
102
RTVSPropertyOp62
 70
     1
  0
XRECORD
  5
701
102
{ACAD_REACTORS
330
700
102
}
330
700
100
AcDbXrecord
280
     1
102
RTVSPost2010Prop28
280
     0
102
RTVSPost2010PropOp28
 70
     1
102
RTVSPost2010Prop29
280
     1
102
RTVSPost2010PropOp29
 70
     1
102
RTVSPost2010Prop30
280
     1
102
RTVSPost2010PropOp30
 70
     1
102
RTVSPost2010Prop31
280
     0
102
RTVSPost2010PropOp31
 70
     1
102
RTVSPost2010Prop32
280
     0
102
RTVSPost2010PropOp32
 70
     1
102
RTVSPost2010Prop33
280
     0
102
RTVSPost2010PropOp33
 70
     1
102
RTVSPost2010Prop34
280
     0
102
RTVSPost2010PropOp34
 70
     1
102
RTVSPost2010Prop35
280
     0
102
RTVSPost2010PropOp35
 70
     1
102
RTVSPost2010Prop36
280
     0
102
RTVSPost2010PropOp36
 70
     1
102
RTVSPost2010Prop37
 90
       50
102
RTVSPost2010PropOp37
 70
     1
102
RTVSPost2010Prop38
140
0.0
102
RTVSPost2010PropOp38
 70
     1
102
RTVSPost2010Prop39
140
1.0
102
RTVSPost2010PropOp39
 70
     1
102
RTVSPost2010Prop40
 90
        0
102
RTVSPost2010PropOp40
 70
     1
102
RTVSPost2010Prop41ColorIndex
 90
       18
102
RTVSPost2010Prop41ColorRGB
 90
        0
102
RTVSPost2010PropOp41
 70
     1
102
RTVSPost2010Prop42
 90
       50
102
RTVSPost2010PropOp42
 70
     1
102
RTVSPost2010Prop43
 90
        3
102
RTVSPost2010PropOp43
 70
     1
102
RTVSPost2010Prop44ColorIndex
 90
        5
102
RTVSPost2010Prop44ColorRGB
 90
      255
102
RTVSPost2010PropOp44
 70
     1
102
RTVSPost2010Prop45
280
     0
102
RTVSPost2010PropOp45
 70
     1
102
RTVSPost2010Prop46
 90
       50
102
RTVSPost2010PropOp46
 70
     1
102
RTVSPost2010Prop47
 90
       50
102
RTVSPost2010PropOp47
 70
     1
102
RTVSPost2010Prop48
 90
       50
102
RTVSPost2010PropOp48
 70
     1
102
RTVSPost2010Prop49
280
     0
102
RTVSPost2010PropOp49
 70
     1
102
RTVSPost2010Prop50
 90
       50
102
RTVSPost2010PropOp50
 70
     1
102
RTVSPost2010Prop51ColorIndex
 90
      256
102
RTVSPost2010Prop51ColorRGB
 90
-16777216
102
RTVSPost2010PropOp51
 70
     0
102
RTVSPost2010Prop52
140
1.0
102
RTVSPost2010PropOp52
 70
     0
102
RTVSPost2010Prop53
 90
        2
102
RTVSPost2010PropOp53
 70
     1
102
RTVSPost2010Prop54
  1
strokes_ogs.tif
102
RTVSPost2010PropOp54
 70
     1
102
RTVSPost2010Prop55
280
     0
102
RTVSPost2010PropOp55
 70
     1
102
RTVSPost2010Prop56
140
1.0
102
RTVSPost2010PropOp56
 70
     1
102
RTVSPost2010Prop57
140
1.0
102
RTVSPost2010PropOp57
 70
     1
102
RTVSPropertyOp0
 70
     1
102
RTVSPropertyOp1
 70
     1
102
RTVSPropertyOp2
 70
     1
102
RTVSPropertyOp3
 70
     1
102
RTVSPropertyOp4
 70
     1
102
RTVSPropertyOp5
 70
     1
102
RTVSPropertyOp6
 70
     1
102
RTVSPropertyOp7
 70
     1
102
RTVSPropertyOp8
 70
     1
102
RTVSPropertyOp9
 70
     1
102
RTVSPropertyOp10
 70
     1
102
RTVSPropertyOp11
 70
     1
102
RTVSPropertyOp12
 70
     1
102
RTVSPropertyOp13
 70
     1
102
RTVSPropertyOp14
 70
     1
102
RTVSPropertyOp15
 70
     1
102
RTVSPropertyOp16
 70
     1
102
RTVSPropertyOp17
 70
     1
102
RTVSPropertyOp18
 70
     1
102
RTVSPropertyOp19
 70
     1
102
RTVSPropertyOp20
 70
     1
102
RTVSPropertyOp21
 70
     1
102
RTVSPropertyOp22
 70
     1
102
RTVSPropertyOp23
 70
     1
102
RTVSPropertyOp24
 70
     1
102
RTVSPropertyOp25
 70
     1
102
RTVSPropertyOp26
 70
     1
102
RTVSPropertyOp27
 70
     1
102
RTVSPropertyOp28
 70
     1
102
RTVSPropertyOp29
 70
     1
102
RTVSPropertyOp30
 70
     1
102
RTVSPropertyOp31
 70
     1
102
RTVSPropertyOp32
 70
     1
102
RTVSPropertyOp33
 70
     1
102
RTVSPropertyOp34
 70
     1
102
RTVSPropertyOp35
 70
     1
102
RTVSPropertyOp36
 70
     1
102
RTVSPropertyOp37
 70
     1
102
RTVSPropertyOp38
 70
     1
102
RTVSPropertyOp39
 70
     1
102
RTVSPropertyOp40
 70
     1
102
RTVSPropertyOp41
 70
     1
102
RTVSPropertyOp42
 70
     1
102
RTVSPropertyOp43
 70
     1
102
RTVSPropertyOp44
 70
     1
102
RTVSPropertyOp45
 70
     1
102
RTVSPropertyOp46
 70
     1
102
RTVSPropertyOp47
 70
     1
102
RTVSPropertyOp48
 70
     1
102
RTVSPropertyOp49
 70
     1
102
RTVSPropertyOp50
 70
     1
102
RTVSPropertyOp51
 70
     0
102
RTVSPropertyOp52
 70
     0
102
RTVSPropertyOp53
 70
     1
102
RTVSPropertyOp54
 70
     1
102
RTVSPropertyOp55
 70
     1
102
RTVSPropertyOp56
 70
     1
102
RTVSPropertyOp57
 70
     1
102
RTVSPropertyOp58
 70
     1
102
RTVSPropertyOp59
 70
     1
102
RTVSPropertyOp60
 70
     1
102
RTVSPropertyOp61
 70
     1
102
RTVSPropertyOp62
 70
     1
  0
XRECORD
  5
6FF
102
{ACAD_REACTORS
330
6FE
102
}
330
6FE
100
AcDbXrecord
280
     1
102
RTVSPost2010Prop28
280
     0
102
RTVSPost2010PropOp28
 70
     1
102
RTVSPost2010Prop29
280
     1
102
RTVSPost2010PropOp29
 70
     1
102
RTVSPost2010Prop30
280
     1
102
RTVSPost2010PropOp30
 70
     1
102
RTVSPost2010Prop31
280
     0
102
RTVSPost2010PropOp31
 70
     1
102
RTVSPost2010Prop32
280
     0
102
RTVSPost2010PropOp32
 70
     1
102
RTVSPost2010Prop33
280
     0
102
RTVSPost2010PropOp33
 70
     1
102
RTVSPost2010Prop34
280
     0
102
RTVSPost2010PropOp34
 70
     1
102
RTVSPost2010Prop35
280
     0
102
RTVSPost2010PropOp35
 70
     1
102
RTVSPost2010Prop36
280
     0
102
RTVSPost2010PropOp36
 70
     1
102
RTVSPost2010Prop37
 90
       50
102
RTVSPost2010PropOp37
 70
     1
102
RTVSPost2010Prop38
140
0.0
102
RTVSPost2010PropOp38
 70
     1
102
RTVSPost2010Prop39
140
1.0
102
RTVSPost2010PropOp39
 70
     1
102
RTVSPost2010Prop40
 90
        0
102
RTVSPost2010PropOp40
 70
     1
102
RTVSPost2010Prop41ColorIndex
 90
       18
102
RTVSPost2010Prop41ColorRGB
 90
        0
102
RTVSPost2010PropOp41
 70
     1
102
RTVSPost2010Prop42
 90
       50
102
RTVSPost2010PropOp42
 70
     1
102
RTVSPost2010Prop43
 90
        3
102
RTVSPost2010PropOp43
 70
     1
102
RTVSPost2010Prop44ColorIndex
 90
        5
102
RTVSPost2010Prop44ColorRGB
 90
      255
102
RTVSPost2010PropOp44
 70
     1
102
RTVSPost2010Prop45
280
     0
102
RTVSPost2010PropOp45
 70
     1
102
RTVSPost2010Prop46
 90
       50
102
RTVSPost2010PropOp46
 70
     1
102
RTVSPost2010Prop47
 90
       50
102
RTVSPost2010PropOp47
 70
     1
102
RTVSPost2010Prop48
 90
       50
102
RTVSPost2010PropOp48
 70
     1
102
RTVSPost2010Prop49
280
     0
102
RTVSPost2010PropOp49
 70
     1
102
RTVSPost2010Prop50
 90
       50
102
RTVSPost2010PropOp50
 70
     1
102
RTVSPost2010Prop51ColorIndex
 90
      256
102
RTVSPost2010Prop51ColorRGB
 90
-16777216
102
RTVSPost2010PropOp51
 70
     0
102
RTVSPost2010Prop52
140
1.0
102
RTVSPost2010PropOp52
 70
     0
102
RTVSPost2010Prop53
 90
        2
102
RTVSPost2010PropOp53
 70
     1
102
RTVSPost2010Prop54
  1
strokes_ogs.tif
102
RTVSPost2010PropOp54
 70
     1
102
RTVSPost2010Prop55
280
     0
102
RTVSPost2010PropOp55
 70
     1
102
RTVSPost2010Prop56
140
1.0
102
RTVSPost2010PropOp56
 70
     1
102
RTVSPost2010Prop57
140
1.0
102
RTVSPost2010PropOp57
 70
     1
102
RTVSPropertyOp0
 70
     1
102
RTVSPropertyOp1
 70
     1
102
RTVSPropertyOp2
 70
     1
102
RTVSPropertyOp3
 70
     1
102
RTVSPropertyOp4
 70
     1
102
RTVSPropertyOp5
 70
     1
102
RTVSPropertyOp6
 70
     1
102
RTVSPropertyOp7
 70
     1
102
RTVSPropertyOp8
 70
     1
102
RTVSPropertyOp9
 70
     1
102
RTVSPropertyOp10
 70
     1
102
RTVSPropertyOp11
 70
     1
102
RTVSPropertyOp12
 70
     1
102
RTVSPropertyOp13
 70
     1
102
RTVSPropertyOp14
 70
     1
102
RTVSPropertyOp15
 70
     1
102
RTVSPropertyOp16
 70
     1
102
RTVSPropertyOp17
 70
     1
102
RTVSPropertyOp18
 70
     1
102
RTVSPropertyOp19
 70
     1
102
RTVSPropertyOp20
 70
     1
102
RTVSPropertyOp21
 70
     1
102
RTVSPropertyOp22
 70
     1
102
RTVSPropertyOp23
 70
     1
102
RTVSPropertyOp24
 70
     1
102
RTVSPropertyOp25
 70
     1
102
RTVSPropertyOp26
 70
     1
102
RTVSPropertyOp27
 70
     1
102
RTVSPropertyOp28
 70
     1
102
RTVSPropertyOp29
 70
     1
102
RTVSPropertyOp30
 70
     1
102
RTVSPropertyOp31
 70
     1
102
RTVSPropertyOp32
 70
     1
102
RTVSPropertyOp33
 70
     1
102
RTVSPropertyOp34
 70
     1
102
RTVSPropertyOp35
 70
     1
102
RTVSPropertyOp36
 70
     1
102
RTVSPropertyOp37
 70
     1
102
RTVSPropertyOp38
 70
     1
102
RTVSPropertyOp39
 70
     1
102
RTVSPropertyOp40
 70
     1
102
RTVSPropertyOp41
 70
     1
102
RTVSPropertyOp42
 70
     1
102
RTVSPropertyOp43
 70
     1
102
RTVSPropertyOp44
 70
     1
102
RTVSPropertyOp45
 70
     1
102
RTVSPropertyOp46
 70
     1
102
RTVSPropertyOp47
 70
     1
102
RTVSPropertyOp48
 70
     1
102
RTVSPropertyOp49
 70
     1
102
RTVSPropertyOp50
 70
     1
102
RTVSPropertyOp51
 70
     0
102
RTVSPropertyOp52
 70
     0
102
RTVSPropertyOp53
 70
     1
102
RTVSPropertyOp54
 70
     1
102
RTVSPropertyOp55
 70
     1
102
RTVSPropertyOp56
 70
     1
102
RTVSPropertyOp57
 70
     1
102
RTVSPropertyOp58
 70
     1
102
RTVSPropertyOp59
 70
     1
102
RTVSPropertyOp60
 70
     1
102
RTVSPropertyOp61
 70
     1
102
RTVSPropertyOp62
 70
     1
  0
XRECORD
  5
6F9
102
{ACAD_REACTORS
330
6F8
102
}
330
6F8
100
AcDbXrecord
280
     1
102
RTVSPost2010Prop28
280
     0
102
RTVSPost2010PropOp28
 70
     1
102
RTVSPost2010Prop29
280
     1
102
RTVSPost2010PropOp29
 70
     1
102
RTVSPost2010Prop30
280
     1
102
RTVSPost2010PropOp30
 70
     1
102
RTVSPost2010Prop31
280
     0
102
RTVSPost2010PropOp31
 70
     1
102
RTVSPost2010Prop32
280
     0
102
RTVSPost2010PropOp32
 70
     1
102
RTVSPost2010Prop33
280
     0
102
RTVSPost2010PropOp33
 70
     1
102
RTVSPost2010Prop34
280
     0
102
RTVSPost2010PropOp34
 70
     1
102
RTVSPost2010Prop35
280
     0
102
RTVSPost2010PropOp35
 70
     1
102
RTVSPost2010Prop36
280
     0
102
RTVSPost2010PropOp36
 70
     1
102
RTVSPost2010Prop37
 90
       50
102
RTVSPost2010PropOp37
 70
     1
102
RTVSPost2010Prop38
140
0.0
102
RTVSPost2010PropOp38
 70
     1
102
RTVSPost2010Prop39
140
1.0
102
RTVSPost2010PropOp39
 70
     1
102
RTVSPost2010Prop40
 90
        0
102
RTVSPost2010PropOp40
 70
     1
102
RTVSPost2010Prop41ColorIndex
 90
       18
102
RTVSPost2010Prop41ColorRGB
 90
        0
102
RTVSPost2010PropOp41
 70
     1
102
RTVSPost2010Prop42
 90
       50
102
RTVSPost2010PropOp42
 70
     1
102
RTVSPost2010Prop43
 90
        3
102
RTVSPost2010PropOp43
 70
     1
102
RTVSPost2010Prop44ColorIndex
 90
        5
102
RTVSPost2010Prop44ColorRGB
 90
      255
102
RTVSPost2010PropOp44
 70
     1
102
RTVSPost2010Prop45
280
     0
102
RTVSPost2010PropOp45
 70
     1
102
RTVSPost2010Prop46
 90
       50
102
RTVSPost2010PropOp46
 70
     1
102
RTVSPost2010Prop47
 90
       50
102
RTVSPost2010PropOp47
 70
     1
102
RTVSPost2010Prop48
 90
       50
102
RTVSPost2010PropOp48
 70
     1
102
RTVSPost2010Prop49
280
     0
102
RTVSPost2010PropOp49
 70
     1
102
RTVSPost2010Prop50
 90
       50
102
RTVSPost2010PropOp50
 70
     1
102
RTVSPost2010Prop51ColorIndex
 90
      256
102
RTVSPost2010Prop51ColorRGB
 90
-16777216
102
RTVSPost2010PropOp51
 70
     0
102
RTVSPost2010Prop52
140
1.0
102
RTVSPost2010PropOp52
 70
     0
102
RTVSPost2010Prop53
 90
        2
102
RTVSPost2010PropOp53
 70
     1
102
RTVSPost2010Prop54
  1
strokes_ogs.tif
102
RTVSPost2010PropOp54
 70
     1
102
RTVSPost2010Prop55
280
     0
102
RTVSPost2010PropOp55
 70
     1
102
RTVSPost2010Prop56
140
1.0
102
RTVSPost2010PropOp56
 70
     1
102
RTVSPost2010Prop57
140
1.0
102
RTVSPost2010PropOp57
 70
     1
102
RTVSPropertyOp0
 70
     1
102
RTVSPropertyOp1
 70
     1
102
RTVSPropertyOp2
 70
     1
102
RTVSPropertyOp3
 70
     1
102
RTVSPropertyOp4
 70
     1
102
RTVSPropertyOp5
 70
     1
102
RTVSPropertyOp6
 70
     1
102
RTVSPropertyOp7
 70
     1
102
RTVSPropertyOp8
 70
     1
102
RTVSPropertyOp9
 70
     1
102
RTVSPropertyOp10
 70
     1
102
RTVSPropertyOp11
 70
     1
102
RTVSPropertyOp12
 70
     1
102
RTVSPropertyOp13
 70
     1
102
RTVSPropertyOp14
 70
     1
102
RTVSPropertyOp15
 70
     1
102
RTVSPropertyOp16
 70
     1
102
RTVSPropertyOp17
 70
     1
102
RTVSPropertyOp18
 70
     1
102
RTVSPropertyOp19
 70
     1
102
RTVSPropertyOp20
 70
     1
102
RTVSPropertyOp21
 70
     1
102
RTVSPropertyOp22
 70
     1
102
RTVSPropertyOp23
 70
     1
102
RTVSPropertyOp24
 70
     1
102
RTVSPropertyOp25
 70
     1
102
RTVSPropertyOp26
 70
     1
102
RTVSPropertyOp27
 70
     1
102
RTVSPropertyOp28
 70
     1
102
RTVSPropertyOp29
 70
     1
102
RTVSPropertyOp30
 70
     1
102
RTVSPropertyOp31
 70
     1
102
RTVSPropertyOp32
 70
     1
102
RTVSPropertyOp33
 70
     1
102
RTVSPropertyOp34
 70
     1
102
RTVSPropertyOp35
 70
     1
102
RTVSPropertyOp36
 70
     1
102
RTVSPropertyOp37
 70
     1
102
RTVSPropertyOp38
 70
     1
102
RTVSPropertyOp39
 70
     1
102
RTVSPropertyOp40
 70
     1
102
RTVSPropertyOp41
 70
     1
102
RTVSPropertyOp42
 70
     1
102
RTVSPropertyOp43
 70
     1
102
RTVSPropertyOp44
 70
     1
102
RTVSPropertyOp45
 70
     1
102
RTVSPropertyOp46
 70
     1
102
RTVSPropertyOp47
 70
     1
102
RTVSPropertyOp48
 70
     1
102
RTVSPropertyOp49
 70
     1
102
RTVSPropertyOp50
 70
     1
102
RTVSPropertyOp51
 70
     0
102
RTVSPropertyOp52
 70
     0
102
RTVSPropertyOp53
 70
     1
102
RTVSPropertyOp54
 70
     1
102
RTVSPropertyOp55
 70
     1
102
RTVSPropertyOp56
 70
     1
102
RTVSPropertyOp57
 70
     1
102
RTVSPropertyOp58
 70
     1
102
RTVSPropertyOp59
 70
     1
102
RTVSPropertyOp60
 70
     1
102
RTVSPropertyOp61
 70
     1
102
RTVSPropertyOp62
 70
     1
  0
XRECORD
  5
6FB
102
{ACAD_REACTORS
330
6FA
102
}
330
6FA
100
AcDbXrecord
280
     1
102
RTVSPost2010Prop28
280
     0
102
RTVSPost2010PropOp28
 70
     1
102
RTVSPost2010Prop29
280
     1
102
RTVSPost2010PropOp29
 70
     1
102
RTVSPost2010Prop30
280
     1
102
RTVSPost2010PropOp30
 70
     1
102
RTVSPost2010Prop31
280
     0
102
RTVSPost2010PropOp31
 70
     1
102
RTVSPost2010Prop32
280
     0
102
RTVSPost2010PropOp32
 70
     1
102
RTVSPost2010Prop33
280
     0
102
RTVSPost2010PropOp33
 70
     1
102
RTVSPost2010Prop34
280
     0
102
RTVSPost2010PropOp34
 70
     1
102
RTVSPost2010Prop35
280
     0
102
RTVSPost2010PropOp35
 70
     1
102
RTVSPost2010Prop36
280
     0
102
RTVSPost2010PropOp36
 70
     1
102
RTVSPost2010Prop37
 90
       50
102
RTVSPost2010PropOp37
 70
     1
102
RTVSPost2010Prop38
140
0.0
102
RTVSPost2010PropOp38
 70
     1
102
RTVSPost2010Prop39
140
1.0
102
RTVSPost2010PropOp39
 70
     1
102
RTVSPost2010Prop40
 90
        0
102
RTVSPost2010PropOp40
 70
     1
102
RTVSPost2010Prop41ColorIndex
 90
       18
102
RTVSPost2010Prop41ColorRGB
 90
        0
102
RTVSPost2010PropOp41
 70
     1
102
RTVSPost2010Prop42
 90
       50
102
RTVSPost2010PropOp42
 70
     1
102
RTVSPost2010Prop43
 90
        3
102
RTVSPost2010PropOp43
 70
     1
102
RTVSPost2010Prop44ColorIndex
 90
        5
102
RTVSPost2010Prop44ColorRGB
 90
      255
102
RTVSPost2010PropOp44
 70
     1
102
RTVSPost2010Prop45
280
     0
102
RTVSPost2010PropOp45
 70
     1
102
RTVSPost2010Prop46
 90
       50
102
RTVSPost2010PropOp46
 70
     1
102
RTVSPost2010Prop47
 90
       50
102
RTVSPost2010PropOp47
 70
     1
102
RTVSPost2010Prop48
 90
       50
102
RTVSPost2010PropOp48
 70
     1
102
RTVSPost2010Prop49
280
     0
102
RTVSPost2010PropOp49
 70
     1
102
RTVSPost2010Prop50
 90
       50
102
RTVSPost2010PropOp50
 70
     1
102
RTVSPost2010Prop51ColorIndex
 90
      256
102
RTVSPost2010Prop51ColorRGB
 90
-16777216
102
RTVSPost2010PropOp51
 70
     0
102
RTVSPost2010Prop52
140
1.0
102
RTVSPost2010PropOp52
 70
     0
102
RTVSPost2010Prop53
 90
        2
102
RTVSPost2010PropOp53
 70
     1
102
RTVSPost2010Prop54
  1
strokes_ogs.tif
102
RTVSPost2010PropOp54
 70
     1
102
RTVSPost2010Prop55
280
     0
102
RTVSPost2010PropOp55
 70
     1
102
RTVSPost2010Prop56
140
1.0
102
RTVSPost2010PropOp56
 70
     1
102
RTVSPost2010Prop57
140
1.0
102
RTVSPost2010PropOp57
 70
     1
102
RTVSPropertyOp0
 70
     1
102
RTVSPropertyOp1
 70
     1
102
RTVSPropertyOp2
 70
     1
102
RTVSPropertyOp3
 70
     1
102
RTVSPropertyOp4
 70
     1
102
RTVSPropertyOp5
 70
     1
102
RTVSPropertyOp6
 70
     1
102
RTVSPropertyOp7
 70
     1
102
RTVSPropertyOp8
 70
     1
102
RTVSPropertyOp9
 70
     1
102
RTVSPropertyOp10
 70
     1
102
RTVSPropertyOp11
 70
     1
102
RTVSPropertyOp12
 70
     1
102
RTVSPropertyOp13
 70
     1
102
RTVSPropertyOp14
 70
     1
102
RTVSPropertyOp15
 70
     1
102
RTVSPropertyOp16
 70
     1
102
RTVSPropertyOp17
 70
     1
102
RTVSPropertyOp18
 70
     1
102
RTVSPropertyOp19
 70
     1
102
RTVSPropertyOp20
 70
     1
102
RTVSPropertyOp21
 70
     1
102
RTVSPropertyOp22
 70
     1
102
RTVSPropertyOp23
 70
     1
102
RTVSPropertyOp24
 70
     1
102
RTVSPropertyOp25
 70
     1
102
RTVSPropertyOp26
 70
     1
102
RTVSPropertyOp27
 70
     1
102
RTVSPropertyOp28
 70
     1
102
RTVSPropertyOp29
 70
     1
102
RTVSPropertyOp30
 70
     1
102
RTVSPropertyOp31
 70
     1
102
RTVSPropertyOp32
 70
     1
102
RTVSPropertyOp33
 70
     1
102
RTVSPropertyOp34
 70
     1
102
RTVSPropertyOp35
 70
     1
102
RTVSPropertyOp36
 70
     1
102
RTVSPropertyOp37
 70
     1
102
RTVSPropertyOp38
 70
     1
102
RTVSPropertyOp39
 70
     1
102
RTVSPropertyOp40
 70
     1
102
RTVSPropertyOp41
 70
     1
102
RTVSPropertyOp42
 70
     1
102
RTVSPropertyOp43
 70
     1
102
RTVSPropertyOp44
 70
     1
102
RTVSPropertyOp45
 70
     1
102
RTVSPropertyOp46
 70
     1
102
RTVSPropertyOp47
 70
     1
102
RTVSPropertyOp48
 70
     1
102
RTVSPropertyOp49
 70
     1
102
RTVSPropertyOp50
 70
     1
102
RTVSPropertyOp51
 70
     0
102
RTVSPropertyOp52
 70
     0
102
RTVSPropertyOp53
 70
     1
102
RTVSPropertyOp54
 70
     1
102
RTVSPropertyOp55
 70
     1
102
RTVSPropertyOp56
 70
     1
102
RTVSPropertyOp57
 70
     1
102
RTVSPropertyOp58
 70
     1
102
RTVSPropertyOp59
 70
     1
102
RTVSPropertyOp60
 70
     1
102
RTVSPropertyOp61
 70
     1
102
RTVSPropertyOp62
 70
     1
  0
XRECORD
  5
6F1
102
{ACAD_REACTORS
330
6F0
102
}
330
6F0
100
AcDbXrecord
280
     1
102
RTVSPost2010Prop28
280
     0
102
RTVSPost2010PropOp28
 70
     1
102
RTVSPost2010Prop29
280
     1
102
RTVSPost2010PropOp29
 70
     1
102
RTVSPost2010Prop30
280
     1
102
RTVSPost2010PropOp30
 70
     1
102
RTVSPost2010Prop31
280
     0
102
RTVSPost2010PropOp31
 70
     1
102
RTVSPost2010Prop32
280
     0
102
RTVSPost2010PropOp32
 70
     1
102
RTVSPost2010Prop33
280
     0
102
RTVSPost2010PropOp33
 70
     1
102
RTVSPost2010Prop34
280
     0
102
RTVSPost2010PropOp34
 70
     1
102
RTVSPost2010Prop35
280
     0
102
RTVSPost2010PropOp35
 70
     1
102
RTVSPost2010Prop36
280
     0
102
RTVSPost2010PropOp36
 70
     1
102
RTVSPost2010Prop37
 90
       50
102
RTVSPost2010PropOp37
 70
     1
102
RTVSPost2010Prop38
140
0.0
102
RTVSPost2010PropOp38
 70
     1
102
RTVSPost2010Prop39
140
1.0
102
RTVSPost2010PropOp39
 70
     1
102
RTVSPost2010Prop40
 90
        0
102
RTVSPost2010PropOp40
 70
     1
102
RTVSPost2010Prop41ColorIndex
 90
       18
102
RTVSPost2010Prop41ColorRGB
 90
        0
102
RTVSPost2010PropOp41
 70
     1
102
RTVSPost2010Prop42
 90
       50
102
RTVSPost2010PropOp42
 70
     1
102
RTVSPost2010Prop43
 90
        3
102
RTVSPost2010PropOp43
 70
     1
102
RTVSPost2010Prop44ColorIndex
 90
        5
102
RTVSPost2010Prop44ColorRGB
 90
      255
102
RTVSPost2010PropOp44
 70
     1
102
RTVSPost2010Prop45
280
     0
102
RTVSPost2010PropOp45
 70
     1
102
RTVSPost2010Prop46
 90
       50
102
RTVSPost2010PropOp46
 70
     1
102
RTVSPost2010Prop47
 90
       50
102
RTVSPost2010PropOp47
 70
     1
102
RTVSPost2010Prop48
 90
       50
102
RTVSPost2010PropOp48
 70
     1
102
RTVSPost2010Prop49
280
     0
102
RTVSPost2010PropOp49
 70
     1
102
RTVSPost2010Prop50
 90
       50
102
RTVSPost2010PropOp50
 70
     1
102
RTVSPost2010Prop51ColorIndex
 90
      256
102
RTVSPost2010Prop51ColorRGB
 90
-16777216
102
RTVSPost2010PropOp51
 70
     0
102
RTVSPost2010Prop52
140
1.0
102
RTVSPost2010PropOp52
 70
     0
102
RTVSPost2010Prop53
 90
        2
102
RTVSPost2010PropOp53
 70
     1
102
RTVSPost2010Prop54
  1
strokes_ogs.tif
102
RTVSPost2010PropOp54
 70
     1
102
RTVSPost2010Prop55
280
     0
102
RTVSPost2010PropOp55
 70
     1
102
RTVSPost2010Prop56
140
1.0
102
RTVSPost2010PropOp56
 70
     1
102
RTVSPost2010Prop57
140
1.0
102
RTVSPost2010PropOp57
 70
     1
102
RTVSPropertyOp0
 70
     1
102
RTVSPropertyOp1
 70
     1
102
RTVSPropertyOp2
 70
     1
102
RTVSPropertyOp3
 70
     1
102
RTVSPropertyOp4
 70
     1
102
RTVSPropertyOp5
 70
     1
102
RTVSPropertyOp6
 70
     1
102
RTVSPropertyOp7
 70
     1
102
RTVSPropertyOp8
 70
     1
102
RTVSPropertyOp9
 70
     1
102
RTVSPropertyOp10
 70
     1
102
RTVSPropertyOp11
 70
     1
102
RTVSPropertyOp12
 70
     1
102
RTVSPropertyOp13
 70
     1
102
RTVSPropertyOp14
 70
     1
102
RTVSPropertyOp15
 70
     1
102
RTVSPropertyOp16
 70
     1
102
RTVSPropertyOp17
 70
     1
102
RTVSPropertyOp18
 70
     1
102
RTVSPropertyOp19
 70
     1
102
RTVSPropertyOp20
 70
     1
102
RTVSPropertyOp21
 70
     1
102
RTVSPropertyOp22
 70
     1
102
RTVSPropertyOp23
 70
     1
102
RTVSPropertyOp24
 70
     1
102
RTVSPropertyOp25
 70
     1
102
RTVSPropertyOp26
 70
     1
102
RTVSPropertyOp27
 70
     1
102
RTVSPropertyOp28
 70
     1
102
RTVSPropertyOp29
 70
     1
102
RTVSPropertyOp30
 70
     1
102
RTVSPropertyOp31
 70
     1
102
RTVSPropertyOp32
 70
     1
102
RTVSPropertyOp33
 70
     1
102
RTVSPropertyOp34
 70
     1
102
RTVSPropertyOp35
 70
     1
102
RTVSPropertyOp36
 70
     1
102
RTVSPropertyOp37
 70
     1
102
RTVSPropertyOp38
 70
     1
102
RTVSPropertyOp39
 70
     1
102
RTVSPropertyOp40
 70
     1
102
RTVSPropertyOp41
 70
     1
102
RTVSPropertyOp42
 70
     1
102
RTVSPropertyOp43
 70
     1
102
RTVSPropertyOp44
 70
     1
102
RTVSPropertyOp45
 70
     1
102
RTVSPropertyOp46
 70
     1
102
RTVSPropertyOp47
 70
     1
102
RTVSPropertyOp48
 70
     1
102
RTVSPropertyOp49
 70
     1
102
RTVSPropertyOp50
 70
     1
102
RTVSPropertyOp51
 70
     0
102
RTVSPropertyOp52
 70
     0
102
RTVSPropertyOp53
 70
     1
102
RTVSPropertyOp54
 70
     1
102
RTVSPropertyOp55
 70
     1
102
RTVSPropertyOp56
 70
     1
102
RTVSPropertyOp57
 70
     1
102
RTVSPropertyOp58
 70
     1
102
RTVSPropertyOp59
 70
     1
102
RTVSPropertyOp60
 70
     1
102
RTVSPropertyOp61
 70
     1
102
RTVSPropertyOp62
 70
     1
  0
XRECORD
  5
6E5
102
{ACAD_REACTORS
330
6E4
102
}
330
6E4
100
AcDbXrecord
280
     1
102
RTVSPost2010Prop28
280
     0
102
RTVSPost2010PropOp28
 70
     1
102
RTVSPost2010Prop29
280
     1
102
RTVSPost2010PropOp29
 70
     1
102
RTVSPost2010Prop30
280
     1
102
RTVSPost2010PropOp30
 70
     1
102
RTVSPost2010Prop31
280
     0
102
RTVSPost2010PropOp31
 70
     1
102
RTVSPost2010Prop32
280
     0
102
RTVSPost2010PropOp32
 70
     1
102
RTVSPost2010Prop33
280
     0
102
RTVSPost2010PropOp33
 70
     1
102
RTVSPost2010Prop34
280
     0
102
RTVSPost2010PropOp34
 70
     1
102
RTVSPost2010Prop35
280
     0
102
RTVSPost2010PropOp35
 70
     1
102
RTVSPost2010Prop36
280
     0
102
RTVSPost2010PropOp36
 70
     1
102
RTVSPost2010Prop37
 90
       50
102
RTVSPost2010PropOp37
 70
     1
102
RTVSPost2010Prop38
140
0.0
102
RTVSPost2010PropOp38
 70
     1
102
RTVSPost2010Prop39
140
1.0
102
RTVSPost2010PropOp39
 70
     1
102
RTVSPost2010Prop40
 90
        0
102
RTVSPost2010PropOp40
 70
     1
102
RTVSPost2010Prop41ColorIndex
 90
       18
102
RTVSPost2010Prop41ColorRGB
 90
        0
102
RTVSPost2010PropOp41
 70
     1
102
RTVSPost2010Prop42
 90
       50
102
RTVSPost2010PropOp42
 70
     1
102
RTVSPost2010Prop43
 90
        3
102
RTVSPost2010PropOp43
 70
     1
102
RTVSPost2010Prop44ColorIndex
 90
        5
102
RTVSPost2010Prop44ColorRGB
 90
      255
102
RTVSPost2010PropOp44
 70
     1
102
RTVSPost2010Prop45
280
     0
102
RTVSPost2010PropOp45
 70
     1
102
RTVSPost2010Prop46
 90
       50
102
RTVSPost2010PropOp46
 70
     1
102
RTVSPost2010Prop47
 90
       50
102
RTVSPost2010PropOp47
 70
     1
102
RTVSPost2010Prop48
 90
       50
102
RTVSPost2010PropOp48
 70
     1
102
RTVSPost2010Prop49
280
     0
102
RTVSPost2010PropOp49
 70
     1
102
RTVSPost2010Prop50
 90
       50
102
RTVSPost2010PropOp50
 70
     1
102
RTVSPost2010Prop51ColorIndex
 90
      256
102
RTVSPost2010Prop51ColorRGB
 90
-16777216
102
RTVSPost2010PropOp51
 70
     0
102
RTVSPost2010Prop52
140
1.0
102
RTVSPost2010PropOp52
 70
     0
102
RTVSPost2010Prop53
 90
        2
102
RTVSPost2010PropOp53
 70
     1
102
RTVSPost2010Prop54
  1
strokes_ogs.tif
102
RTVSPost2010PropOp54
 70
     1
102
RTVSPost2010Prop55
280
     0
102
RTVSPost2010PropOp55
 70
     1
102
RTVSPost2010Prop56
140
1.0
102
RTVSPost2010PropOp56
 70
     1
102
RTVSPost2010Prop57
140
1.0
102
RTVSPost2010PropOp57
 70
     1
102
RTVSPropertyOp0
 70
     1
102
RTVSPropertyOp1
 70
     1
102
RTVSPropertyOp2
 70
     1
102
RTVSPropertyOp3
 70
     1
102
RTVSPropertyOp4
 70
     1
102
RTVSPropertyOp5
 70
     1
102
RTVSPropertyOp6
 70
     1
102
RTVSPropertyOp7
 70
     1
102
RTVSPropertyOp8
 70
     1
102
RTVSPropertyOp9
 70
     1
102
RTVSPropertyOp10
 70
     1
102
RTVSPropertyOp11
 70
     1
102
RTVSPropertyOp12
 70
     1
102
RTVSPropertyOp13
 70
     1
102
RTVSPropertyOp14
 70
     1
102
RTVSPropertyOp15
 70
     1
102
RTVSPropertyOp16
 70
     1
102
RTVSPropertyOp17
 70
     1
102
RTVSPropertyOp18
 70
     1
102
RTVSPropertyOp19
 70
     1
102
RTVSPropertyOp20
 70
     1
102
RTVSPropertyOp21
 70
     1
102
RTVSPropertyOp22
 70
     1
102
RTVSPropertyOp23
 70
     1
102
RTVSPropertyOp24
 70
     1
102
RTVSPropertyOp25
 70
     1
102
RTVSPropertyOp26
 70
     1
102
RTVSPropertyOp27
 70
     1
102
RTVSPropertyOp28
 70
     1
102
RTVSPropertyOp29
 70
     1
102
RTVSPropertyOp30
 70
     1
102
RTVSPropertyOp31
 70
     1
102
RTVSPropertyOp32
 70
     1
102
RTVSPropertyOp33
 70
     1
102
RTVSPropertyOp34
 70
     1
102
RTVSPropertyOp35
 70
     1
102
RTVSPropertyOp36
 70
     1
102
RTVSPropertyOp37
 70
     1
102
RTVSPropertyOp38
 70
     1
102
RTVSPropertyOp39
 70
     1
102
RTVSPropertyOp40
 70
     1
102
RTVSPropertyOp41
 70
     1
102
RTVSPropertyOp42
 70
     1
102
RTVSPropertyOp43
 70
     1
102
RTVSPropertyOp44
 70
     1
102
RTVSPropertyOp45
 70
     1
102
RTVSPropertyOp46
 70
     1
102
RTVSPropertyOp47
 70
     1
102
RTVSPropertyOp48
 70
     1
102
RTVSPropertyOp49
 70
     1
102
RTVSPropertyOp50
 70
     1
102
RTVSPropertyOp51
 70
     0
102
RTVSPropertyOp52
 70
     0
102
RTVSPropertyOp53
 70
     1
102
RTVSPropertyOp54
 70
     1
102
RTVSPropertyOp55
 70
     1
102
RTVSPropertyOp56
 70
     1
102
RTVSPropertyOp57
 70
     1
102
RTVSPropertyOp58
 70
     1
102
RTVSPropertyOp59
 70
     1
102
RTVSPropertyOp60
 70
     1
102
RTVSPropertyOp61
 70
     1
102
RTVSPropertyOp62
 70
     1
  0
XRECORD
  5
6FD
102
{ACAD_REACTORS
330
6FC
102
}
330
6FC
100
AcDbXrecord
280
     1
102
RTVSPost2010Prop28
280
     0
102
RTVSPost2010PropOp28
 70
     1
102
RTVSPost2010Prop29
280
     1
102
RTVSPost2010PropOp29
 70
     1
102
RTVSPost2010Prop30
280
     1
102
RTVSPost2010PropOp30
 70
     1
102
RTVSPost2010Prop31
280
     0
102
RTVSPost2010PropOp31
 70
     1
102
RTVSPost2010Prop32
280
     0
102
RTVSPost2010PropOp32
 70
     1
102
RTVSPost2010Prop33
280
     0
102
RTVSPost2010PropOp33
 70
     1
102
RTVSPost2010Prop34
280
     0
102
RTVSPost2010PropOp34
 70
     1
102
RTVSPost2010Prop35
280
     0
102
RTVSPost2010PropOp35
 70
     1
102
RTVSPost2010Prop36
280
     0
102
RTVSPost2010PropOp36
 70
     1
102
RTVSPost2010Prop37
 90
       50
102
RTVSPost2010PropOp37
 70
     1
102
RTVSPost2010Prop38
140
0.0
102
RTVSPost2010PropOp38
 70
     1
102
RTVSPost2010Prop39
140
1.0
102
RTVSPost2010PropOp39
 70
     1
102
RTVSPost2010Prop40
 90
        0
102
RTVSPost2010PropOp40
 70
     1
102
RTVSPost2010Prop41ColorIndex
 90
       18
102
RTVSPost2010Prop41ColorRGB
 90
        0
102
RTVSPost2010PropOp41
 70
     1
102
RTVSPost2010Prop42
 90
       50
102
RTVSPost2010PropOp42
 70
     1
102
RTVSPost2010Prop43
 90
        3
102
RTVSPost2010PropOp43
 70
     1
102
RTVSPost2010Prop44ColorIndex
 90
        5
102
RTVSPost2010Prop44ColorRGB
 90
      255
102
RTVSPost2010PropOp44
 70
     1
102
RTVSPost2010Prop45
280
     0
102
RTVSPost2010PropOp45
 70
     1
102
RTVSPost2010Prop46
 90
       50
102
RTVSPost2010PropOp46
 70
     1
102
RTVSPost2010Prop47
 90
       50
102
RTVSPost2010PropOp47
 70
     1
102
RTVSPost2010Prop48
 90
       50
102
RTVSPost2010PropOp48
 70
     1
102
RTVSPost2010Prop49
280
     0
102
RTVSPost2010PropOp49
 70
     1
102
RTVSPost2010Prop50
 90
       50
102
RTVSPost2010PropOp50
 70
     1
102
RTVSPost2010Prop51ColorIndex
 90
      256
102
RTVSPost2010Prop51ColorRGB
 90
-16777216
102
RTVSPost2010PropOp51
 70
     0
102
RTVSPost2010Prop52
140
1.0
102
RTVSPost2010PropOp52
 70
     0
102
RTVSPost2010Prop53
 90
        2
102
RTVSPost2010PropOp53
 70
     1
102
RTVSPost2010Prop54
  1
strokes_ogs.tif
102
RTVSPost2010PropOp54
 70
     1
102
RTVSPost2010Prop55
280
     0
102
RTVSPost2010PropOp55
 70
     1
102
RTVSPost2010Prop56
140
1.0
102
RTVSPost2010PropOp56
 70
     1
102
RTVSPost2010Prop57
140
1.0
102
RTVSPost2010PropOp57
 70
     1
102
RTVSPropertyOp0
 70
     1
102
RTVSPropertyOp1
 70
     1
102
RTVSPropertyOp2
 70
     1
102
RTVSPropertyOp3
 70
     1
102
RTVSPropertyOp4
 70
     1
102
RTVSPropertyOp5
 70
     1
102
RTVSPropertyOp6
 70
     1
102
RTVSPropertyOp7
 70
     1
102
RTVSPropertyOp8
 70
     1
102
RTVSPropertyOp9
 70
     1
102
RTVSPropertyOp10
 70
     1
102
RTVSPropertyOp11
 70
     1
102
RTVSPropertyOp12
 70
     1
102
RTVSPropertyOp13
 70
     1
102
RTVSPropertyOp14
 70
     1
102
RTVSPropertyOp15
 70
     1
102
RTVSPropertyOp16
 70
     1
102
RTVSPropertyOp17
 70
     1
102
RTVSPropertyOp18
 70
     1
102
RTVSPropertyOp19
 70
     1
102
RTVSPropertyOp20
 70
     1
102
RTVSPropertyOp21
 70
     1
102
RTVSPropertyOp22
 70
     1
102
RTVSPropertyOp23
 70
     1
102
RTVSPropertyOp24
 70
     1
102
RTVSPropertyOp25
 70
     1
102
RTVSPropertyOp26
 70
     1
102
RTVSPropertyOp27
 70
     1
102
RTVSPropertyOp28
 70
     1
102
RTVSPropertyOp29
 70
     1
102
RTVSPropertyOp30
 70
     1
102
RTVSPropertyOp31
 70
     1
102
RTVSPropertyOp32
 70
     1
102
RTVSPropertyOp33
 70
     1
102
RTVSPropertyOp34
 70
     1
102
RTVSPropertyOp35
 70
     1
102
RTVSPropertyOp36
 70
     1
102
RTVSPropertyOp37
 70
     1
102
RTVSPropertyOp38
 70
     1
102
RTVSPropertyOp39
 70
     1
102
RTVSPropertyOp40
 70
     1
102
RTVSPropertyOp41
 70
     1
102
RTVSPropertyOp42
 70
     1
102
RTVSPropertyOp43
 70
     1
102
RTVSPropertyOp44
 70
     1
102
RTVSPropertyOp45
 70
     1
102
RTVSPropertyOp46
 70
     1
102
RTVSPropertyOp47
 70
     1
102
RTVSPropertyOp48
 70
     1
102
RTVSPropertyOp49
 70
     1
102
RTVSPropertyOp50
 70
     1
102
RTVSPropertyOp51
 70
     0
102
RTVSPropertyOp52
 70
     0
102
RTVSPropertyOp53
 70
     1
102
RTVSPropertyOp54
 70
     1
102
RTVSPropertyOp55
 70
     1
102
RTVSPropertyOp56
 70
     1
102
RTVSPropertyOp57
 70
     1
102
RTVSPropertyOp58
 70
     1
102
RTVSPropertyOp59
 70
     1
102
RTVSPropertyOp60
 70
     1
102
RTVSPropertyOp61
 70
     1
102
RTVSPropertyOp62
 70
     1
  0
ENDSEC
  0
EOF
