  0
SECTION
  2
HEADER
  9
$ACADVER
  1
AC1018
  9
$ACADMAINTVER
 70
   104
  9
$DWGCODEPAGE
  3
ANSI_932
  9
$INSBASE
 10
0.0
 20
0.0
 30
0.0
  9
$EXTMIN
 10
-2.84842408
 20
-0.03443446
 30
-0.00000003
  9
$EXTMAX
 10
790.66484967
 20
564.23445371
 30
0.00000008
  9
$LIMMIN
 10
0.0
 20
0.0
  9
$LIMMAX
 10
594.0
 20
420.0
  9
$ORTHOMODE
 70
     1
  9
$REGENMODE
 70
     1
  9
$FILLMODE
 70
     1
  9
$QTEXTMODE
 70
     0
  9
$MIRRTEXT
 70
     0
  9
$LTSCALE
 40
1.0
  9
$ATTMODE
 70
     1
  9
$TEXTSIZE
 40
0.2
  9
$TRACEWID
 40
0.05
  9
$TEXTSTYLE
  7
STANDARD
  9
$CLAYER
  8
0
  9
$CELTYPE
  6
BYLAYER
  9
$CECOLOR
 62
   256
  9
$CELTSCALE
 40
1.0
  9
$DISPSILH
 70
     1
  9
$DIMSCALE
 40
1.0
  9
$DIMASZ
 40
0.18
  9
$DIMEXO
 40
0.0625
  9
$DIMDLI
 40
0.38
  9
$DIMRND
 40
0.0
  9
$DIMDLE
 40
0.0
  9
$DIMEXE
 40
0.18
  9
$DIMTP
 40
0.0
  9
$DIMTM
 40
0.0
  9
$DIMTXT
 40
0.18
  9
$DIMCEN
 40
0.09
  9
$DIMTSZ
 40
0.0
  9
$DIMTOL
 70
     0
  9
$DIMLIM
 70
     0
  9
$DIMTIH
 70
     1
  9
$DIMTOH
 70
     1
  9
$DIMSE1
 70
     0
  9
$DIMSE2
 70
     0
  9
$DIMTAD
 70
     0
  9
$DIMZIN
 70
     0
  9
$DIMBLK
  1

  9
$DIMASO
 70
     1
  9
$DIMSHO
 70
     1
  9
$DIMPOST
  1

  9
$DIMAPOST
  1

  9
$DIMALT
 70
     0
  9
$DIMALTD
 70
     2
  9
$DIMALTF
 40
25.4
  9
$DIMLFAC
 40
1.0
  9
$DIMTOFL
 70
     0
  9
$DIMTVP
 40
0.0
  9
$DIMTIX
 70
     0
  9
$DIMSOXD
 70
     0
  9
$DIMSAH
 70
     0
  9
$DIMBLK1
  1

  9
$DIMBLK2
  1

  9
$DIMSTYLE
  2
STANDARD
  9
$DIMCLRD
 70
     0
  9
$DIMCLRE
 70
     0
  9
$DIMCLRT
 70
     0
  9
$DIMTFAC
 40
1.0
  9
$DIMGAP
 40
0.09
  9
$DIMJUST
 70
     0
  9
$DIMSD1
 70
     0
  9
$DIMSD2
 70
     0
  9
$DIMTOLJ
 70
     1
  9
$DIMTZIN
 70
     0
  9
$DIMALTZ
 70
     0
  9
$DIMALTTZ
 70
     0
  9
$DIMUPT
 70
     0
  9
$DIMDEC
 70
     4
  9
$DIMTDEC
 70
     4
  9
$DIMALTU
 70
     2
  9
$DIMALTTD
 70
     2
  9
$DIMTXSTY
  7
STANDARD
  9
$DIMAUNIT
 70
     0
  9
$DIMADEC
 70
     0
  9
$DIMALTRND
 40
0.0
  9
$DIMAZIN
 70
     0
  9
$DIMDSEP
 70
    46
  9
$DIMATFIT
 70
     3
  9
$DIMFRAC
 70
     0
  9
$DIMLDRBLK
  1

  9
$DIMLUNIT
 70
     2
  9
$DIMLWD
 70
    -2
  9
$DIMLWE
 70
    -2
  9
$DIMTMOVE
 70
     2
  9
$LUNITS
 70
     2
  9
$LUPREC
 70
     4
  9
$SKETCHINC
 40
0.1
  9
$FILLETRAD
 40
0.0
  9
$AUNITS
 70
     0
  9
$AUPREC
 70
     0
  9
$MENU
  1
ACAD
  9
$ELEVATION
 40
0.0
  9
$PELEVATION
 40
0.0
  9
$THICKNESS
 40
0.0
  9
$LIMCHECK
 70
     0
  9
$CHAMFERA
 40
0.0
  9
$CHAMFERB
 40
0.0
  9
$CHAMFERC
 40
0.0
  9
$CHAMFERD
 40
0.0
  9
$SKPOLY
 70
     0
  9
$TDCREATE
 40
2452082.466029329
  9
$TDUCREATE
 40
2452082.091029329
  9
$TDUPDATE
 40
2457151.456973299
  9
$TDUUPDATE
 40
2457151.081973299
  9
$TDINDWG
 40
0.0245886690
  9
$TDUSRTIMER
 40
0.0245886690
  9
$USRTIMER
 70
     1
  9
$ANGBASE
 50
0.0
  9
$ANGDIR
 70
     0
  9
$PDMODE
 70
     0
  9
$PDSIZE
 40
0.0
  9
$PLINEWID
 40
0.0
  9
$SPLFRAME
 70
     0
  9
$SPLINETYPE
 70
     6
  9
$SPLINESEGS
 70
     8
  9
$HANDSEED
  5
5DE
  9
$SURFTAB1
 70
     6
  9
$SURFTAB2
 70
     6
  9
$SURFTYPE
 70
     6
  9
$SURFU
 70
     6
  9
$SURFV
 70
     6
  9
$UCSBASE
  2

  9
$UCSNAME
  2

  9
$UCSORG
 10
0.0
 20
0.0
 30
0.0
  9
$UCSXDIR
 10
1.0
 20
0.0
 30
0.0
  9
$UCSYDIR
 10
0.0
 20
1.0
 30
0.0
  9
$UCSORTHOREF
  2

  9
$UCSORTHOVIEW
 70
     0
  9
$UCSORGTOP
 10
0.0
 20
0.0
 30
0.0
  9
$UCSORGBOTTOM
 10
0.0
 20
0.0
 30
0.0
  9
$UCSORGLEFT
 10
0.0
 20
0.0
 30
0.0
  9
$UCSORGRIGHT
 10
0.0
 20
0.0
 30
0.0
  9
$UCSORGFRONT
 10
0.0
 20
0.0
 30
0.0
  9
$UCSORGBACK
 10
0.0
 20
0.0
 30
0.0
  9
$PUCSBASE
  2

  9
$PUCSNAME
  2

  9
$PUCSORG
 10
0.0
 20
0.0
 30
0.0
  9
$PUCSXDIR
 10
1.0
 20
0.0
 30
0.0
  9
$PUCSYDIR
 10
0.0
 20
1.0
 30
0.0
  9
$PUCSORTHOREF
  2

  9
$PUCSORTHOVIEW
 70
     0
  9
$PUCSORGTOP
 10
0.0
 20
0.0
 30
0.0
  9
$PUCSORGBOTTOM
 10
0.0
 20
0.0
 30
0.0
  9
$PUCSORGLEFT
 10
0.0
 20
0.0
 30
0.0
  9
$PUCSORGRIGHT
 10
0.0
 20
0.0
 30
0.0
  9
$PUCSORGFRONT
 10
0.0
 20
0.0
 30
0.0
  9
$PUCSORGBACK
 10
0.0
 20
0.0
 30
0.0
  9
$USERI1
 70
     0
  9
$USERI2
 70
     0
  9
$USERI3
 70
     0
  9
$USERI4
 70
     0
  9
$USERI5
 70
     0
  9
$USERR1
 40
0.0
  9
$USERR2
 40
0.0
  9
$USERR3
 40
0.0
  9
$USERR4
 40
0.0
  9
$USERR5
 40
0.0
  9
$WORLDVIEW
 70
     1
  9
$SHADEDGE
 70
     3
  9
$SHADEDIF
 70
    70
  9
$TILEMODE
 70
     1
  9
$MAXACTVP
 70
    16
  9
$PINSBASE
 10
0.0
 20
0.0
 30
0.0
  9
$PLIMCHECK
 70
     0
  9
$PEXTMIN
 10
1.00000000E+20
 20
1.00000000E+20
 30
1.00000000E+20
  9
$PEXTMAX
 10
-1.00000000E+20
 20
-1.00000000E+20
 30
-1.00000000E+20
  9
$PLIMMIN
 10
0.0
 20
0.0
  9
$PLIMMAX
 10
12.0
 20
9.0
  9
$UNITMODE
 70
     0
  9
$VISRETAIN
 70
     1
  9
$PLINEGEN
 70
     0
  9
$PSLTSCALE
 70
     1
  9
$TREEDEPTH
 70
  3020
  9
$CMLSTYLE
  2
STANDARD
  9
$CMLJUST
 70
     0
  9
$CMLSCALE
 40
1.0
  9
$PROXYGRAPHICS
 70
     1
  9
$MEASUREMENT
 70
     1
  9
$CELWEIGHT
370
    -1
  9
$ENDCAPS
280
     0
  9
$JOINSTYLE
280
     0
  9
$LWDISPLAY
290
     0
  9
$INSUNITS
 70
     0
  9
$HYPERLINKBASE
  1

  9
$STYLESHEET
  1

  9
$XEDIT
290
     1
  9
$CEPSNTYPE
380
     0
  9
$PSTYLEMODE
290
     1
  9
$FINGERPRINTGUID
  2
{9FA83D10-B08A-4E85-8744-857C1B086DF6}
  9
$VERSIONGUID
  2
{FBBD1F8A-BB1D-4B8F-A481-E87C5D5BAA3E}
  9
$EXTNAMES
290
     1
  9
$PSVPSCALE
 40
0.0
  9
$OLESTARTUP
290
     0
  9
$SORTENTS
280
   127
  9
$INDEXCTL
280
     0
  9
$HIDETEXT
280
     0
  9
$XCLIPFRAME
290
     0
  9
$HALOGAP
280
     0
  9
$OBSCOLOR
 70
   257
  9
$OBSLTYPE
280
     0
  9
$INTERSECTIONDISPLAY
280
     0
  9
$INTERSECTIONCOLOR
 70
   257
  9
$DIMASSOC
280
     1
  9
$PROJECTNAME
  1

  0
ENDSEC
  0
SECTION
  2
CLASSES
  0
CLASS
  1
DICTIONARYVAR
  2
AcDbDictionaryVar
  3
ObjectDBX Classes
 90
        0
 91
        8
280
     0
281
     0
  0
CLASS
  1
ACDBDICTIONARYWDFLT
  2
AcDbDictionaryWithDefault
  3
ObjectDBX Classes
 90
        0
 91
        1
280
     0
281
     0
  0
CLASS
  1
MATERIAL
  2
AcDbMaterial
  3
ObjectDBX Classes
 90
     1153
 91
        3
280
     0
281
     0
  0
CLASS
  1
VISUALSTYLE
  2
AcDbVisualStyle
  3
ObjectDBX Classes
 90
     4095
 91
       24
280
     0
281
     0
  0
CLASS
  1
TABLESTYLE
  2
AcDbTableStyle
  3
ObjectDBX Classes
 90
     4095
 91
        1
280
     0
281
     0
  0
CLASS
  1
SCALE
  2
AcDbScale
  3
ObjectDBX Classes
 90
     1153
 91
       17
280
     0
281
     0
  0
CLASS
  1
MLEADERSTYLE
  2
AcDbMLeaderStyle
  3
ACDB_MLEADERSTYLE_CLASS
 90
     4095
 91
        1
280
     0
281
     0
  0
CLASS
  1
ACDBSECTIONVIEWSTYLE
  2
AcDbSectionViewStyle
  3
ObjectDBX Classes
 90
     1025
 91
        1
280
     0
281
     0
  0
CLASS
  1
ACDBDETAILVIEWSTYLE
  2
AcDbDetailViewStyle
  3
ObjectDBX Classes
 90
     1025
 91
        1
280
     0
281
     0
  0
CLASS
  1
CELLSTYLEMAP
  2
AcDbCellStyleMap
  3
ObjectDBX Classes
 90
     1152
 91
        2
280
     0
281
     0
  0
ENDSEC
  0
SECTION
  2
TABLES
  0
TABLE
  2
VPORT
  5
4C5
330
0
100
AcDbSymbolTable
 70
     1
  0
VPORT
  5
4F9
330
4C5
100
AcDbSymbolTableRecord
100
AcDbViewportTableRecord
  2
*ACTIVE
 70
     0
 10
0.0
 20
0.0
 11
1.0
 21
1.0
 12
393.90821279
 22
282.10000963
 13
0.0
 23
0.0
 14
1.0
 24
1.0
 15
0.0
 25
0.0
 16
0.0
 26
0.0
 36
1.0
 17
0.0
 27
0.0
 37
0.0
 40
569.16847331
 41
1.45652174
 42
50.0
 43
0.0
 44
0.0
 50
0.0
 51
0.0
 71
     0
 72
   100
 73
     1
 74
     0
 75
     0
 76
     0
 77
     0
 78
     0
281
     0
 65
     1
110
0.0
120
0.0
130
0.0
111
1.0
121
0.0
131
0.0
112
0.0
122
1.0
132
0.0
 79
     0
146
0.0
1001
ACAD_NAV_VCDISPLAY
1070
     1
  0
ENDTAB
  0
TABLE
  2
LTYPE
  5
4C2
330
0
100
AcDbSymbolTable
 70
     5
  0
LTYPE
  5
4CE
330
4C2
100
AcDbSymbolTableRecord
100
AcDbLinetypeTableRecord
  2
BYBLOCK
 70
     0
  3

 72
    65
 73
     0
 40
0.0
  0
LTYPE
  5
4CF
330
4C2
100
AcDbSymbolTableRecord
100
AcDbLinetypeTableRecord
  2
BYLAYER
 70
     0
  3

 72
    65
 73
     0
 40
0.0
  0
LTYPE
  5
4D0
330
4C2
100
AcDbSymbolTableRecord
100
AcDbLinetypeTableRecord
  2
CONTINUOUS
 70
     0
  3
Solid line
 72
    65
 73
     0
 40
0.0
  0
LTYPE
  5
4DA
330
4C2
100
AcDbSymbolTableRecord
100
AcDbLinetypeTableRecord
  2
DASHDOT
 70
     0
  3
__ . __ . __ . __ . __ . __ . __ . __ . __ . __
 72
    65
 73
     4
 40
1.0
 49
0.5
 74
     0
 49
-0.25
 74
     0
 49
0.0
 74
     0
 49
-0.25
 74
     0
  0
LTYPE
  5
4DB
330
4C2
100
AcDbSymbolTableRecord
100
AcDbLinetypeTableRecord
  2
HIDDEN
 70
     0
  3
__ __ __ __ __ __ __ __ __ __ __ __ __ __ __ __
 72
    65
 73
     2
 40
0.375
 49
0.25
 74
     0
 49
-0.125
 74
     0
  0
LTYPE
  5
4DC
330
4C2
100
AcDbSymbolTableRecord
100
AcDbLinetypeTableRecord
  2
HASENP
 70
     0
  3

 72
    65
 73
     2
 40
3.5
 49
2.5
 74
     0
 49
-1.0
 74
     0
  0
LTYPE
  5
4DD
330
4C2
100
AcDbSymbolTableRecord
100
AcDbLinetypeTableRecord
  2
ITTENSAP
 70
     0
  3

 72
    65
 73
     4
 40
5.5
 49
3.0
 74
     0
 49
-1.0
 74
     0
 49
0.5
 74
     0
 49
-1.0
 74
     0
  0
ENDTAB
  0
TABLE
  2
LAYER
  5
4BF
330
0
100
AcDbSymbolTable
 70
    14
  0
LAYER
  5
4CB
330
4BF
100
AcDbSymbolTableRecord
100
AcDbLayerTableRecord
  2
0
 70
     0
 62
     7
  6
CONTINUOUS
370
    -3
390
4FC
  0
LAYER
  5
4E1
330
4BF
100
AcDbSymbolTableRecord
100
AcDbLayerTableRecord
  2
YKK_H1
 70
     0
 62
     7
  6
CONTINUOUS
370
    -3
390
4FC
  0
LAYER
  5
4E2
330
4BF
100
AcDbSymbolTableRecord
100
AcDbLayerTableRecord
  2
YKK_H2
 70
     0
 62
     2
  6
CONTINUOUS
370
    -3
390
4FC
  0
LAYER
  5
4E3
330
4BF
100
AcDbSymbolTableRecord
100
AcDbLayerTableRecord
  2
YKK_H3
 70
     0
 62
   194
  6
CONTINUOUS
370
    -3
390
4FC
  0
LAYER
  5
4E4
330
4BF
100
AcDbSymbolTableRecord
100
AcDbLayerTableRecord
  2
YKK_D
 70
     0
 62
     6
  6
CONTINUOUS
370
    -3
390
4FC
  0
LAYER
  5
4E5
330
4BF
100
AcDbSymbolTableRecord
100
AcDbLayerTableRecord
  2
YKK_ZWAK
 70
     0
 62
     7
  6
CONTINUOUS
370
    -3
390
4FC
  0
LAYER
  5
4E6
330
4BF
100
AcDbSymbolTableRecord
100
AcDbLayerTableRecord
  2
USER1
 70
     0
 62
     3
  6
CONTINUOUS
370
    -3
390
4FC
  0
LAYER
  5
4E7
330
4BF
100
AcDbSymbolTableRecord
100
AcDbLayerTableRecord
  2
YKK_N1
 70
     0
 62
     2
  6
CONTINUOUS
370
    -3
390
4FC
  0
LAYER
  5
4E8
330
4BF
100
AcDbSymbolTableRecord
100
AcDbLayerTableRecord
  2
YKK_A1
 70
     0
 62
     4
  6
CONTINUOUS
370
    -3
390
4FC
  0
LAYER
  5
4E9
330
4BF
100
AcDbSymbolTableRecord
100
AcDbLayerTableRecord
  2
YKK_A2
 70
     0
 62
     3
  6
CONTINUOUS
370
    -3
390
4FC
  0
LAYER
  5
4EA
330
4BF
100
AcDbSymbolTableRecord
100
AcDbLayerTableRecord
  2
YKK_W1
 70
     0
 62
     7
  6
CONTINUOUS
370
    -3
390
4FC
  0
LAYER
  5
4EB
330
4BF
100
AcDbSymbolTableRecord
100
AcDbLayerTableRecord
  2
YKK_W2
 70
     0
 62
     2
  6
CONTINUOUS
370
    -3
390
4FC
  0
LAYER
  5
4EC
330
4BF
100
AcDbSymbolTableRecord
100
AcDbLayerTableRecord
  2
YKK_W4
 70
     0
 62
     3
  6
CONTINUOUS
370
    -3
390
4FC
  0
LAYER
  5
4ED
330
4BF
100
AcDbSymbolTableRecord
100
AcDbLayerTableRecord
  2
YKK_W3
 70
     0
 62
   194
  6
CONTINUOUS
370
    -3
390
4FC
  0
ENDTAB
  0
TABLE
  2
STYLE
  5
4C0
330
0
100
AcDbSymbolTable
 70
     2
  0
STYLE
  5
4CC
330
4C0
100
AcDbSymbolTableRecord
100
AcDbTextStyleTableRecord
  2
STANDARD
 70
     0
 40
0.0
 41
1.0
 50
0.0
 71
     0
 42
0.2
  3
txt
  4
BIGFONT
  0
STYLE
  5
4D9
330
4C0
100
AcDbSymbolTableRecord
100
AcDbTextStyleTableRecord
  2
YKK_OSSTYLE1
 70
     0
 40
0.0
 41
0.9
 50
0.0
 71
     0
 42
4.0
  3
romans.shx
  4
EXTFONT.SHX
  0
ENDTAB
  0
TABLE
  2
VIEW
  5
4C3
330
0
100
AcDbSymbolTable
 70
     0
  0
ENDTAB
  0
TABLE
  2
UCS
  5
4C4
330
0
100
AcDbSymbolTable
 70
     0
  0
ENDTAB
  0
TABLE
  2
APPID
  5
4C6
330
0
100
AcDbSymbolTable
 70
     5
  0
APPID
  5
4CD
330
4C6
100
AcDbSymbolTableRecord
100
AcDbRegAppTableRecord
  2
ACAD
 70
     0
  0
APPID
  5
589
330
4C6
100
AcDbSymbolTableRecord
100
AcDbRegAppTableRecord
  2
ACAD_MLEADERVER
 70
     0
  0
APPID
  5
59E
330
4C6
100
AcDbSymbolTableRecord
100
AcDbRegAppTableRecord
  2
ACAD_PSEXT
 70
     0
  0
APPID
  5
59F
330
4C6
100
AcDbSymbolTableRecord
100
AcDbRegAppTableRecord
  2
ACAD_NAV_VCDISPLAY
 70
     0
  0
APPID
  5
5A0
330
4C6
100
AcDbSymbolTableRecord
100
AcDbRegAppTableRecord
  2
YKK_AP_LOCKLAYER
 70
     0
  0
ENDTAB
  0
TABLE
  2
DIMSTYLE
  5
4C7
330
0
100
AcDbSymbolTable
 70
     1
100
AcDbDimStyleTable
 71
     0
  0
DIMSTYLE
105
4E0
330
4C7
100
AcDbSymbolTableRecord
100
AcDbDimStyleTableRecord
  2
STANDARD
 70
     0
279
     2
340
4CC
  0
ENDTAB
  0
TABLE
  2
BLOCK_RECORD
  5
4BE
330
0
100
AcDbSymbolTable
 70
     0
  0
BLOCK_RECORD
  5
4D4
330
4BE
100
AcDbSymbolTableRecord
100
AcDbBlockTableRecord
  2
*MODEL_SPACE
340
550
  0
BLOCK_RECORD
  5
4D1
330
4BE
100
AcDbSymbolTableRecord
100
AcDbBlockTableRecord
  2
*PAPER_SPACE
340
551
  0
ENDTAB
  0
ENDSEC
  0
SECTION
  2
BLOCKS
  0
BLOCK
  5
4F0
330
4D4
100
AcDbEntity
  8
0
100
AcDbBlockBegin
  2
*MODEL_SPACE
 70
     0
 10
0.0
 20
0.0
 30
0.0
  3
*MODEL_SPACE
  1

  0
ENDBLK
  5
4F1
330
4D4
100
AcDbEntity
  8
0
100
AcDbBlockEnd
  0
BLOCK
  5
4EE
330
4D1
100
AcDbEntity
 67
     1
  8
0
100
AcDbBlockBegin
  2
*PAPER_SPACE
 70
     0
 10
0.0
 20
0.0
 30
0.0
  3
*PAPER_SPACE
  1

  0
ENDBLK
  5
4EF
330
4D1
100
AcDbEntity
 67
     1
  8
0
100
AcDbBlockEnd
  0
ENDSEC
  0
SECTION
  2
ENTITIES
  0
TEXT
  5
1D
330
4D4
100
AcDbEntity
  8
YKK_ZWAK
  6
Continuous
 62
   131
100
AcDbText
 10
389.0122306
 20
29.4672042
 30
0.0
 40
4.2
  1
工 事 名
 41
0.9
  7
YKK_OSSTYLE1
100
AcDbText
  0
TEXT
  5
20
330
4D4
100
AcDbEntity
  8
YKK_ZWAK
  6
Continuous
 62
   131
100
AcDbText
 10
388.61729624
 20
11.8517028
 30
0.0
 40
4.2
  1
図面内容
 41
0.9
  7
YKK_OSSTYLE1
100
AcDbText
  0
LINE
  5
21
330
4D4
100
AcDbEntity
  8
YKK_ZWAK
  6
Continuous
 62
   131
100
AcDbLine
 10
386.4000084
 20
16.8007014
 30
0.0
 11
515.2000126
 21
16.8007014
 31
0.0
  0
LINE
  5
22
330
4D4
100
AcDbEntity
  8
YKK_ZWAK
  6
Continuous
 62
   254
100
AcDbLine
 10
770.0000182
 20
561.400014
 30
0.0
 11
0.0
 21
561.400014
 31
0.0
  0
LINE
  5
23
330
4D4
100
AcDbEntity
  8
YKK_ZWAK
  6
Continuous
 62
   254
100
AcDbLine
 10
732.2000168
 20
35.0000014
 30
0.0
 11
0.0
 21
35.0000014
 31
0.0
  0
LINE
  5
24
330
4D4
100
AcDbEntity
  8
YKK_ZWAK
  6
Continuous
 62
   254
100
AcDbLine
 10
770.0000182
 20
36.4000014
 30
0.0
 11
0.0
 21
36.4000014
 31
0.0
  0
LINE
  5
25
330
4D4
100
AcDbEntity
  8
YKK_ZWAK
  6
Continuous
 62
   254
100
AcDbLine
 10
0.0
 20
0.0
 30
0.0
 11
732.2000168
 21
0.0
 31
0.0
  0
LINE
  5
26
330
4D4
100
AcDbEntity
  8
YKK_D
100
AcDbLine
 10
385.89394432
 20
109.28225583
 30
0.0
 11
635.8939138
 21
109.28225583
 31
0.0
  0
LINE
  5
28
330
4D4
100
AcDbEntity
  8
YKK_W3
100
AcDbLine
 10
385.89393954
 20
150.88225775
 30
0.0
 11
439.89393954
 21
150.88225775
 31
0.0
  0
LINE
  5
2A
330
4D4
100
AcDbEntity
  8
YKK_D
100
AcDbLine
 10
374.89394432
 20
242.78225583
 30
0.0
 11
507.8939138
 21
242.78225583
 31
0.0
  0
LINE
  5
2B
330
4D4
100
AcDbEntity
  8
YKK_W1
100
AcDbLine
 10
376.49393954
 20
205.28225775
 30
0.0
 11
439.89393954
 21
205.28225775
 31
0.0
  0
LINE
  5
2D
330
4D4
100
AcDbEntity
  8
YKK_W1
100
AcDbLine
 10
376.29393954
 20
204.08225775
 30
0.0
 11
439.89393954
 21
204.08225775
 31
0.0
  0
LINE
  5
2E
330
4D4
100
AcDbEntity
  8
YKK_W1
100
AcDbLine
 10
376.59393954
 20
182.68225775
 30
0.0
 11
439.89393954
 21
182.68225775
 31
0.0
  0
LINE
  5
2F
330
4D4
100
AcDbEntity
  8
YKK_W1
100
AcDbLine
 10
376.29393954
 20
181.48225775
 30
0.0
 11
439.89393954
 21
181.48225775
 31
0.0
  0
LINE
  5
30
330
4D4
100
AcDbEntity
  8
YKK_W3
100
AcDbLine
 10
374.89393954
 20
207.68225775
 30
0.0
 11
439.89393954
 21
207.68225775
 31
0.0
  0
LINE
  5
31
330
4D4
100
AcDbEntity
  8
YKK_W3
100
AcDbLine
 10
384.39393954
 20
177.28225775
 30
0.0
 11
439.89393954
 21
177.28225775
 31
0.0
  0
LINE
  5
32
330
4D4
100
AcDbEntity
  8
YKK_ZWAK
  6
Continuous
 62
   254
100
AcDbLine
 10
0.0
 20
36.4000014
 30
0.0
 11
0.0
 21
561.400014
 31
0.0
  0
LINE
  5
33
330
4D4
100
AcDbEntity
  8
YKK_D
100
AcDbLine
 10
104.94310449
 20
470.49710479
 30
0.0
 11
104.94310449
 21
139.28226104
 31
0.0
  0
LINE
  5
34
330
4D4
100
AcDbEntity
  8
YKK_D
100
AcDbLine
 10
224.94309687
 20
458.49710479
 30
0.0
 11
224.94309687
 21
149.28226104
 31
0.0
  0
LINE
  5
35
330
4D4
100
AcDbEntity
  8
YKK_H3
100
AcDbLine
 10
156.94310566
 20
147.68226278
 30
0.0
 11
156.94310566
 21
302.38968984
 31
0.0
  0
LINE
  5
37
330
4D4
100
AcDbEntity
  8
YKK_H3
100
AcDbLine
 10
124.94310566
 20
109.28226278
 30
0.0
 11
124.94310566
 21
302.38968984
 31
0.0
  0
LINE
  5
38
330
4D4
100
AcDbEntity
  8
YKK_H1
100
AcDbLine
 10
130.14310566
 20
302.38968984
 30
0.0
 11
130.14310566
 21
140.68226278
 31
0.0
  0
LINE
  5
3A
330
4D4
100
AcDbEntity
  8
YKK_H1
100
AcDbLine
 10
128.94310566
 20
140.88226278
 30
0.0
 11
128.94310566
 21
302.38968984
 31
0.0
  0
LINE
  5
3B
330
4D4
100
AcDbEntity
  8
YKK_H1
100
AcDbLine
 10
153.94310566
 20
139.28226278
 30
0.0
 11
153.94310566
 21
302.38968984
 31
0.0
  0
LINE
  5
3C
330
4D4
100
AcDbEntity
  8
YKK_H1
100
AcDbLine
 10
152.74310566
 20
302.38968984
 30
0.0
 11
152.74310566
 21
229.82547903
 31
0.0
  0
LINE
  5
3D
330
4D4
100
AcDbEntity
  8
YKK_H3
100
AcDbLine
 10
184.94310566
 20
119.28226278
 30
0.0
 11
184.94310566
 21
302.38968984
 31
0.0
  0
LINE
  5
3E
330
4D4
100
AcDbEntity
  8
YKK_ZWAK
  6
HIDDEN
 62
   131
100
AcDbLine
 10
4.59865
 20
27.4876014
 30
0.0
 11
252.7910056
 21
27.4876014
 31
0.0
  0
LINE
  5
40
330
4D4
100
AcDbEntity
  8
YKK_ZWAK
  6
HIDDEN
 62
   131
100
AcDbLine
 10
4.59865
 20
20.5590014
 30
0.0
 11
252.7910056
 21
20.5590014
 31
0.0
  0
LINE
  5
41
330
4D4
100
AcDbEntity
  8
YKK_ZWAK
  6
HIDDEN
 62
   131
100
AcDbLine
 10
4.59865
 20
13.6304
 30
0.0
 11
252.7910056
 21
13.6304
 31
0.0
  0
LINE
  5
42
330
4D4
100
AcDbEntity
  8
YKK_ZWAK
  6
HIDDEN
 62
   131
100
AcDbLine
 10
4.59865
 20
6.7018
 30
0.0
 11
252.7910056
 21
6.7018
 31
0.0
  0
LINE
  5
43
330
4D4
100
AcDbEntity
  8
YKK_H2
  6
HASENP
100
AcDbLine
 10
181.13488343
 20
125.0003849
 30
0.0
 11
137.736842
 21
113.1003849
 31
0.0
  0
LINE
  5
46
330
4D4
100
AcDbEntity
  8
YKK_H2
  6
HASENP
100
AcDbLine
 10
138.34506422
 20
110.88226278
 30
0.0
 11
181.74310566
 21
122.78226278
 31
0.0
  0
LINE
  5
47
330
4D4
100
AcDbEntity
  8
YKK_D
100
AcDbLine
 10
124.94310449
 20
189.28226104
 30
0.0
 11
184.94311212
 21
189.28226104
 31
0.0
  0
LINE
  5
48
330
4D4
100
AcDbEntity
  8
YKK_H1
100
AcDbLine
 10
128.14310566
 20
132.68226278
 30
0.0
 11
157.04310566
 21
132.68226278
 31
0.0
  0
LINE
  5
49
330
4D4
100
AcDbEntity
  8
YKK_H1
100
AcDbLine
 10
156.94310566
 20
134.28226278
 30
0.0
 11
128.14310566
 21
134.28226278
 31
0.0
  0
LINE
  5
4A
330
4D4
100
AcDbEntity
  8
YKK_H1
100
AcDbLine
 10
130.54310566
 20
139.28226278
 30
0.0
 11
151.14310566
 21
139.28226278
 31
0.0
  0
LINE
  5
4B
330
4D4
100
AcDbEntity
  8
YKK_H1
100
AcDbLine
 10
130.34310566
 20
140.48226278
 30
0.0
 11
151.34310566
 21
140.48226278
 31
0.0
  0
LINE
  5
4C
330
4D4
100
AcDbEntity
  8
YKK_D
100
AcDbLine
 10
128.94310449
 20
169.28226104
 30
0.0
 11
153.94311212
 21
169.28226104
 31
0.0
  0
LINE
  5
4D
330
4D4
100
AcDbEntity
  8
YKK_H1
100
AcDbLine
 10
131.34310566
 20
206.82547903
 30
0.0
 11
152.44310566
 21
206.82547903
 31
0.0
  0
LINE
  5
4E
330
4D4
100
AcDbEntity
  8
YKK_H1
100
AcDbLine
 10
152.44310566
 20
208.02547903
 30
0.0
 11
131.34310566
 21
208.02547903
 31
0.0
  0
LINE
  5
4F
330
4D4
100
AcDbEntity
  8
YKK_H1
100
AcDbLine
 10
131.34310566
 20
228.62547903
 30
0.0
 11
152.44310566
 21
228.62547903
 31
0.0
  0
LINE
  5
50
330
4D4
100
AcDbEntity
  8
YKK_H1
100
AcDbLine
 10
152.44310566
 20
229.82547903
 30
0.0
 11
131.34310566
 21
229.82547903
 31
0.0
  0
TEXT
  5
51
330
4D4
100
AcDbEntity
  8
YKK_ZWAK
  6
Continuous
 62
   131
100
AcDbText
 10
4.714472
 20
28.5534816
 30
0.0
 40
4.2
  1
変 更 記 事
 41
0.9
  7
YKK_OSSTYLE1
100
AcDbText
  0
LINE
  5
52
330
4D4
100
AcDbEntity
  8
YKK_ZWAK
  6
Continuous
 62
   254
100
AcDbLine
 10
0.0
 20
0.0
 30
0.0
 11
0.0
 21
35.0000014
 31
0.0
  0
TEXT
  5
53
330
4D4
100
AcDbEntity
  8
YKK_D
100
AcDbText
 10
109.73144204
 20
90.18226256
 30
0.0
 40
4.35000038
  1
１．６
 41
0.76628346
100
AcDbText
  0
LINE
  5
54
330
4D4
100
AcDbEntity
  8
YKK_D
100
AcDbLine
 10
110.04310392
 20
89.28226104
 30
0.0
 11
126.54310297
 21
89.28226104
 31
0.0
  0
TEXT
  5
55
330
4D4
100
AcDbEntity
  8
YKK_D
100
AcDbText
 10
127.76143319
 20
90.18226256
 30
0.0
 40
4.35000038
  1
１８．４
 41
0.76628346
100
AcDbText
  0
LINE
  5
56
330
4D4
100
AcDbEntity
  8
YKK_D
100
AcDbLine
 10
126.54310297
 20
89.28226104
 30
0.0
 11
144.94310449
 21
89.28226104
 31
0.0
  0
LINE
  5
57
330
4D4
100
AcDbEntity
  8
YKK_D
100
AcDbLine
 10
126.54310297
 20
104.28226104
 30
0.0
 11
126.54310297
 21
88.78226104
 31
0.0
  0
LINE
  5
58
330
4D4
100
AcDbEntity
  8
YKK_D
100
AcDbLine
 10
126.54310297
 20
104.28226104
 30
0.0
 11
126.54310297
 21
88.78226104
 31
0.0
  0
LINE
  5
59
330
4D4
100
AcDbEntity
  8
YKK_D
100
AcDbLine
 10
124.94310449
 20
104.28226104
 30
0.0
 11
124.94310449
 21
88.78226104
 31
0.0
  0
LINE
  5
66
330
4D4
100
AcDbEntity
  8
YKK_D
100
AcDbLine
 10
144.94310449
 20
104.28226104
 30
0.0
 11
144.94310449
 21
88.78226104
 31
0.0
  0
LINE
  5
6B
330
4D4
100
AcDbEntity
  8
YKK_D
100
AcDbLine
 10
119.94311308
 20
134.28226104
 30
0.0
 11
104.44310449
 21
134.28226104
 31
0.0
  0
LINE
  5
6C
330
4D4
100
AcDbEntity
  8
YKK_D
100
AcDbLine
 10
119.94310497
 20
109.28226104
 30
0.0
 11
104.44310449
 21
109.28226104
 31
0.0
  0
LINE
  5
6D
330
4D4
100
AcDbEntity
  8
YKK_D
100
AcDbLine
 10
119.94310545
 20
139.28226104
 30
0.0
 11
104.44310449
 21
139.28226104
 31
0.0
  0
LINE
  5
6E
330
4D4
100
AcDbEntity
  8
YKK_D
100
AcDbLine
 10
104.94310449
 20
134.28226104
 30
0.0
 11
104.94310449
 21
109.28226104
 31
0.0
  0
TEXT
  5
73
330
4D4
100
AcDbEntity
  8
YKK_D
100
AcDbText
 10
104.04310297
 20
117.80059431
 30
0.0
 40
4.35000038
  1
２５
 50
90.0000025
 41
0.76628346
100
AcDbText
  0
LINE
  5
74
330
4D4
100
AcDbEntity
  8
YKK_D
100
AcDbLine
 10
104.94310449
 20
139.28226104
 30
0.0
 11
104.94310449
 21
134.28226104
 31
0.0
  0
TEXT
  5
7D
330
4D4
100
AcDbEntity
  8
YKK_D
100
AcDbText
 10
104.04310297
 20
134.80059431
 30
0.0
 40
4.35000038
  1
５
 50
90.0000025
 41
0.76628346
100
AcDbText
  0
LINE
  5
86
330
4D4
100
AcDbEntity
  8
YKK_H1
100
AcDbLine
 10
128.14310566
 20
110.88226278
 30
0.0
 11
128.14310566
 21
132.68226278
 31
0.0
  0
LINE
  5
87
330
4D4
100
AcDbEntity
  8
YKK_H1
100
AcDbLine
 10
126.54310566
 20
132.68226278
 30
0.0
 11
126.54310566
 21
110.88226278
 31
0.0
  0
LINE
  5
88
330
4D4
100
AcDbEntity
  8
YKK_H1
100
AcDbLine
 10
144.94310566
 20
110.88226278
 30
0.0
 11
128.14310566
 21
110.88226278
 31
0.0
  0
LINE
  5
89
330
4D4
100
AcDbEntity
  8
YKK_H1
100
AcDbLine
 10
128.14310566
 20
109.28226278
 30
0.0
 11
144.94310566
 21
109.28226278
 31
0.0
  0
LINE
  5
8A
330
4D4
100
AcDbEntity
  8
YKK_H3
100
AcDbLine
 10
128.04310566
 20
109.28226278
 30
0.0
 11
124.94310566
 21
109.28226278
 31
0.0
  0
ARC
  5
8B
330
4D4
100
AcDbEntity
  8
YKK_H1
100
AcDbCircle
 10
128.14310566
 20
110.88226278
 30
0.0
 40
1.599999999999994
100
AcDbArc
 50
180.0
 51
270.0
  0
LINE
  5
8C
330
4D4
100
AcDbEntity
  8
YKK_H2
  6
HASENP
100
AcDbLine
 10
138.34506422
 20
110.88226278
 30
0.0
 11
137.736842
 21
113.1003849
 31
0.0
  0
LINE
  5
8D
330
4D4
100
AcDbEntity
  8
YKK_H1
100
AcDbLine
 10
144.94310566
 20
109.28226278
 30
0.0
 11
144.94310566
 21
110.88226278
 31
0.0
  0
ARC
  5
8E
330
4D4
100
AcDbEntity
  8
YKK_H1
100
AcDbCircle
 10
130.54310566
 20
140.88226278
 30
0.0
 40
1.6
100
AcDbArc
 50
180.0
 51
270.0
  0
ARC
  5
8F
330
4D4
100
AcDbEntity
  8
YKK_H1
100
AcDbCircle
 10
128.14310566
 20
132.68226278
 30
0.0
 40
1.599999999999965
100
AcDbArc
 50
90.0
 51
180.0
  0
ARC
  5
90
330
4D4
100
AcDbEntity
  8
YKK_H1
100
AcDbCircle
 10
130.34310566
 20
140.68226278
 30
0.0
 40
0.2
100
AcDbArc
 50
180.0
 51
270.0
  0
TEXT
  5
91
330
4D4
100
AcDbEntity
  8
YKK_D
100
AcDbText
 10
124.96143777
 20
170.18225493
 30
0.0
 40
4.35000038
  1
４
 41
0.76628346
100
AcDbText
  0
TEXT
  5
92
330
4D4
100
AcDbEntity
  8
YKK_D
100
AcDbText
 10
137.4614454
 20
170.18225493
 30
0.0
 40
4.35000038
  1
２５
 41
0.76628346
100
AcDbText
  0
LINE
  5
93
330
4D4
100
AcDbEntity
  8
YKK_D
100
AcDbLine
 10
124.94310449
 20
169.28226104
 30
0.0
 11
128.94310449
 21
169.28226104
 31
0.0
  0
LINE
  5
A4
330
4D4
100
AcDbEntity
  8
YKK_H1
100
AcDbLine
 10
130.14310566
 20
239.82547903
 30
0.0
 11
130.14310566
 21
229.82547903
 31
0.0
  0
LINE
  5
A5
330
4D4
100
AcDbEntity
  8
YKK_H1
100
AcDbLine
 10
131.34310566
 20
229.82547903
 30
0.0
 11
131.34310566
 21
239.82547903
 31
0.0
  0
LINE
  5
A6
330
4D4
100
AcDbEntity
  8
YKK_H1
100
AcDbLine
 10
130.14310566
 20
196.82547903
 30
0.0
 11
131.34310566
 21
196.82547903
 31
0.0
  0
ARC
  5
A7
330
4D4
100
AcDbEntity
  8
YKK_H1
100
AcDbCircle
 10
131.34310566
 20
206.82547903
 30
0.0
 40
1.200000000000017
100
AcDbArc
 50
90.0
 51
180.0
  0
LINE
  5
A8
330
4D4
100
AcDbEntity
  8
YKK_H1
100
AcDbLine
 10
130.14310566
 20
206.82547903
 30
0.0
 11
130.14310566
 21
196.82547903
 31
0.0
  0
LINE
  5
A9
330
4D4
100
AcDbEntity
  8
YKK_H1
100
AcDbLine
 10
131.34310566
 20
196.82547903
 30
0.0
 11
131.34310566
 21
206.82547903
 31
0.0
  0
ARC
  5
AA
330
4D4
100
AcDbEntity
  8
YKK_H1
100
AcDbCircle
 10
131.34310566
 20
229.82547903
 30
0.0
 40
1.200000000000017
100
AcDbArc
 50
180.0
 51
270.0
  0
LINE
  5
AB
330
4D4
100
AcDbEntity
  8
YKK_H1
100
AcDbLine
 10
131.34310566
 20
239.82547903
 30
0.0
 11
130.14310566
 21
239.82547903
 31
0.0
  0
LINE
  5
AC
330
4D4
100
AcDbEntity
  8
YKK_D
100
AcDbLine
 10
392.82213646
 20
105.28225583
 30
0.0
 11
392.82213646
 21
113.28225583
 31
0.0
  0
LINE
  5
AD
330
4D4
100
AcDbEntity
  8
YKK_D
100
AcDbLine
 10
385.89394432
 20
109.28225583
 30
0.0
 11
392.82213646
 21
105.28225583
 31
0.0
  0
LINE
  5
AE
330
4D4
100
AcDbEntity
  8
YKK_D
100
AcDbLine
 10
183.34310602
 20
116.2822627
 30
0.0
 11
183.34310602
 21
88.78226104
 31
0.0
  0
LINE
  5
AF
330
4D4
100
AcDbEntity
  8
YKK_D
100
AcDbLine
 10
184.94311212
 20
116.2822627
 30
0.0
 11
184.94311212
 21
88.78226104
 31
0.0
  0
TEXT
  5
B0
330
4D4
100
AcDbEntity
  8
YKK_ZWAK
  6
Continuous
 62
   131
100
AcDbText
 10
261.3692676
 20
12.1457014
 30
0.0
 40
4.2
  1
施　　工
 41
0.9
  7
YKK_OSSTYLE1
100
AcDbText
  0
TEXT
  5
B1
330
4D4
100
AcDbEntity
  8
YKK_ZWAK
  6
Continuous
 62
   131
100
AcDbText
 10
261.3692676
 20
29.4672042
 30
0.0
 40
4.2
  1
設計監理
 41
0.9
  7
YKK_OSSTYLE1
100
AcDbText
  0
LINE
  5
B2
330
4D4
100
AcDbEntity
  8
YKK_ZWAK
  6
Continuous
 62
   131
100
AcDbLine
 10
257.6000056
 20
16.8007014
 30
0.0
 11
386.4000084
 21
16.8007014
 31
0.0
  0
LINE
  5
B3
330
4D4
100
AcDbEntity
  8
YKK_ZWAK
  6
Continuous
 62
   254
100
AcDbLine
 10
257.6000056
 20
35.0000014
 30
0.0
 11
257.6000056
 21
0.0
 31
0.0
  0
TEXT
  5
B4
330
4D4
100
AcDbEntity
  8
YKK_D
100
AcDbText
 10
187.5614515
 20
90.18226256
 30
0.0
 40
4.35000038
  1
１．６
 41
0.76628346
100
AcDbText
  0
LINE
  5
B5
330
4D4
100
AcDbEntity
  8
YKK_D
100
AcDbLine
 10
199.8431127
 20
89.28226104
 30
0.0
 11
183.34310602
 21
89.28226104
 31
0.0
  0
LINE
  5
BE
330
4D4
100
AcDbEntity
  8
YKK_ZWAK
  6
Continuous
 62
   254
100
AcDbLine
 10
385.0000084
 20
35.0000014
 30
0.0
 11
385.0000084
 21
0.0
 31
0.0
  0
TEXT
  5
BF
330
4D4
100
AcDbEntity
  8
YKK_ZWAK
  6
Continuous
 62
   254
100
AcDbText
 10
376.5182246
 20
4.7222
 30
0.0
 40
7.0
  1
殿
 41
0.9
  7
YKK_OSSTYLE1
100
AcDbText
  0
TEXT
  5
C0
330
4D4
100
AcDbEntity
  8
YKK_ZWAK
  6
Continuous
 62
   254
100
AcDbText
 10
376.5182246
 20
22.0437014
 30
0.0
 40
7.0
  1
殿
 41
0.9
  7
YKK_OSSTYLE1
100
AcDbText
  0
LINE
  5
C1
330
4D4
100
AcDbEntity
  8
YKK_H1
100
AcDbLine
 10
152.74310566
 20
206.82547903
 30
0.0
 11
152.74310566
 21
139.28226278
 31
0.0
  0
TEXT
  5
C2
330
4D4
100
AcDbEntity
  8
YKK_D
100
AcDbText
 10
160.67932565
 20
190.18225493
 30
0.0
 40
4.35000038
  1
６０
 41
0.76628346
100
AcDbText
  0
LINE
  5
C3
330
4D4
100
AcDbEntity
  8
YKK_D
100
AcDbLine
 10
189.94311212
 20
119.28226104
 30
0.0
 11
225.44311212
 21
119.28226104
 31
0.0
  0
LINE
  5
C4
330
4D4
100
AcDbEntity
  8
YKK_D
100
AcDbLine
 10
189.94311212
 20
149.28226104
 30
0.0
 11
225.44311212
 21
149.28226104
 31
0.0
  0
LINE
  5
C5
330
4D4
100
AcDbEntity
  8
YKK_D
100
AcDbLine
 10
189.94311212
 20
149.28226104
 30
0.0
 11
225.44309687
 21
149.28226104
 31
0.0
  0
LINE
  5
C6
330
4D4
100
AcDbEntity
  8
YKK_H1
100
AcDbLine
 10
151.54310566
 20
150.48226278
 30
0.0
 11
151.54310566
 21
140.68226278
 31
0.0
  0
LINE
  5
CB
330
4D4
100
AcDbEntity
  8
YKK_H1
100
AcDbLine
 10
158.54310566
 20
147.68226278
 30
0.0
 11
181.74310566
 21
147.68226278
 31
0.0
  0
LINE
  5
CC
330
4D4
100
AcDbEntity
  8
YKK_H1
100
AcDbLine
 10
181.74310566
 20
149.28226278
 30
0.0
 11
158.54310566
 21
149.28226278
 31
0.0
  0
LINE
  5
CD
330
4D4
100
AcDbEntity
  8
YKK_H1
100
AcDbLine
 10
158.54310566
 20
134.18226278
 30
0.0
 11
158.54310566
 21
147.68226278
 31
0.0
  0
LINE
  5
CE
330
4D4
100
AcDbEntity
  8
YKK_H1
100
AcDbLine
 10
156.94310566
 20
147.68226278
 30
0.0
 11
156.94310566
 21
134.28226278
 31
0.0
  0
ARC
  5
CF
330
4D4
100
AcDbEntity
  8
YKK_H1
100
AcDbCircle
 10
157.04310566
 20
134.18226278
 30
0.0
 40
1.5
100
AcDbArc
 50
270.0
 51
0.0
  0
LINE
  5
D0
330
4D4
100
AcDbEntity
  8
YKK_H1
100
AcDbLine
 10
152.74310566
 20
139.28226278
 30
0.0
 11
153.94310566
 21
139.28226278
 31
0.0
  0
ARC
  5
D1
330
4D4
100
AcDbEntity
  8
YKK_H1
100
AcDbCircle
 10
151.14310566
 20
140.88226278
 30
0.0
 40
1.6
100
AcDbArc
 50
270.0
 51
0.0
  0
ARC
  5
D2
330
4D4
100
AcDbEntity
  8
YKK_H1
100
AcDbCircle
 10
151.34310566
 20
140.68226278
 30
0.0
 40
0.2
100
AcDbArc
 50
270.0
 51
0.0
  0
ARC
  5
D3
330
4D4
100
AcDbEntity
  8
YKK_H1
100
AcDbCircle
 10
158.54310566
 20
147.68226278
 30
0.0
 40
1.599999999999965
100
AcDbArc
 50
90.0
 51
180.0
  0
LINE
  5
D4
330
4D4
100
AcDbEntity
  8
YKK_H1
100
AcDbLine
 10
181.74310566
 20
147.68226278
 30
0.0
 11
181.74310566
 21
119.28226278
 31
0.0
  0
LINE
  5
D5
330
4D4
100
AcDbEntity
  8
YKK_H1
100
AcDbLine
 10
183.34310566
 20
119.28226278
 30
0.0
 11
183.34310566
 21
147.68226278
 31
0.0
  0
LINE
  5
D6
330
4D4
100
AcDbEntity
  8
YKK_H3
100
AcDbLine
 10
184.94310566
 20
119.28226278
 30
0.0
 11
183.34310566
 21
119.28226278
 31
0.0
  0
LINE
  5
D7
330
4D4
100
AcDbEntity
  8
YKK_H2
  6
HASENP
100
AcDbLine
 10
181.74310566
 20
122.78226278
 30
0.0
 11
181.13488343
 21
125.0003849
 31
0.0
  0
LINE
  5
D8
330
4D4
100
AcDbEntity
  8
YKK_H1
100
AcDbLine
 10
181.74310566
 20
119.28226278
 30
0.0
 11
183.34310566
 21
119.28226278
 31
0.0
  0
LINE
  5
D9
330
4D4
100
AcDbEntity
  8
YKK_D
100
AcDbLine
 10
189.94311212
 20
134.28225583
 30
0.0
 11
205.44311212
 21
134.28225341
 31
0.0
  0
ARC
  5
DA
330
4D4
100
AcDbEntity
  8
YKK_H1
100
AcDbCircle
 10
181.74310566
 20
147.68226278
 30
0.0
 40
1.600000000000023
100
AcDbArc
 50
0.0
 51
90.0
  0
LINE
  5
DB
330
4D4
100
AcDbEntity
  8
YKK_D
100
AcDbLine
 10
204.94311212
 20
149.28225341
 30
0.0
 11
204.94311212
 21
134.28225341
 31
0.0
  0
TEXT
  5
E0
330
4D4
100
AcDbEntity
  8
YKK_D
100
AcDbText
 10
204.04311823
 20
137.80058668
 30
0.0
 40
4.35000038
  1
１５
 50
90.0000025
 41
0.76628346
100
AcDbText
  0
LINE
  5
E1
330
4D4
100
AcDbEntity
  8
YKK_D
100
AcDbLine
 10
156.94311212
 20
169.28226104
 30
0.0
 11
184.94311212
 21
169.28226104
 31
0.0
  0
TEXT
  5
E2
330
4D4
100
AcDbEntity
  8
YKK_D
100
AcDbText
 10
153.4614454
 20
170.18225493
 30
0.0
 40
4.35000038
  1
３
 41
0.76628346
100
AcDbText
  0
TEXT
  5
E3
330
4D4
100
AcDbEntity
  8
YKK_D
100
AcDbText
 10
166.9614454
 20
170.18225493
 30
0.0
 40
4.35000038
  1
２８
 41
0.76628346
100
AcDbText
  0
LINE
  5
E4
330
4D4
100
AcDbEntity
  8
YKK_H1
100
AcDbLine
 10
152.74310566
 20
150.48226278
 30
0.0
 11
151.54310566
 21
150.48226278
 31
0.0
  0
LINE
  5
ED
330
4D4
100
AcDbEntity
  8
YKK_D
100
AcDbLine
 10
153.94311212
 20
169.28226104
 30
0.0
 11
156.94311212
 21
169.28226104
 31
0.0
  0
LINE
  5
FE
330
4D4
100
AcDbEntity
  8
YKK_D
100
AcDbLine
 10
224.94311212
 20
149.28226104
 30
0.0
 11
220.94311212
 21
156.21046843
 31
0.0
  0
LINE
  5
FF
330
4D4
100
AcDbEntity
  8
YKK_D
100
AcDbLine
 10
224.94311212
 20
149.28226104
 30
0.0
 11
228.94311212
 21
156.21046843
 31
0.0
  0
LINE
  5
100
330
4D4
100
AcDbEntity
  8
YKK_D
100
AcDbLine
 10
224.94311212
 20
119.28226104
 30
0.0
 11
224.94311212
 21
149.28226104
 31
0.0
  0
TEXT
  5
105
330
4D4
100
AcDbEntity
  8
YKK_D
100
AcDbText
 10
224.04311823
 20
130.30059431
 30
0.0
 40
4.35000038
  1
３０
 50
90.0000025
 41
0.76628346
100
AcDbText
  0
LINE
  5
106
330
4D4
100
AcDbEntity
  8
YKK_D
100
AcDbLine
 10
220.94311212
 20
156.21046843
 30
0.0
 11
228.94311212
 21
156.21046843
 31
0.0
  0
LINE
  5
107
330
4D4
100
AcDbEntity
  8
YKK_H1
100
AcDbLine
 10
152.44310566
 20
228.62547903
 30
0.0
 11
152.44310566
 21
208.02547903
 31
0.0
  0
LINE
  5
108
330
4D4
100
AcDbEntity
  8
YKK_H1
100
AcDbLine
 10
153.64310566
 20
208.02547903
 30
0.0
 11
153.64310566
 21
228.62547903
 31
0.0
  0
ARC
  5
109
330
4D4
100
AcDbEntity
  8
YKK_H1
100
AcDbCircle
 10
152.44310566
 20
208.02547903
 30
0.0
 40
1.200000000000017
100
AcDbArc
 50
270.0
 51
0.0
  0
ARC
  5
10A
330
4D4
100
AcDbEntity
  8
YKK_H1
100
AcDbCircle
 10
152.44310566
 20
228.62547903
 30
0.0
 40
1.200000000000044
100
AcDbArc
 50
0.0
 51
90.0
  0
LINE
  5
10B
330
4D4
100
AcDbEntity
  8
YKK_D
100
AcDbLine
 10
325.89394432
 20
209.28225583
 30
0.0
 11
325.89394432
 21
189.28225583
 31
0.0
  0
LINE
  5
10C
330
4D4
100
AcDbEntity
  8
YKK_W2
  6
HASENP
100
AcDbLine
 10
347.49393954
 20
194.28029918
 30
0.0
 11
359.39393954
 21
150.88225775
 31
0.0
  0
LINE
  5
10E
330
4D4
100
AcDbEntity
  8
YKK_W2
  6
HASENP
100
AcDbLine
 10
361.61206166
 20
151.49047997
 30
0.0
 11
349.71206166
 21
194.8885214
 31
0.0
  0
LINE
  5
10F
330
4D4
100
AcDbEntity
  8
YKK_W1
100
AcDbLine
 10
347.49393954
 20
207.68225775
 30
0.0
 11
347.49393954
 21
189.28225775
 31
0.0
  0
LINE
  5
110
330
4D4
100
AcDbEntity
  8
YKK_W1
100
AcDbLine
 10
345.89393954
 20
189.28225775
 30
0.0
 11
345.89393954
 21
207.68225775
 31
0.0
  0
LINE
  5
111
330
4D4
100
AcDbEntity
  8
YKK_W1
100
AcDbLine
 10
376.59393954
 20
204.08225775
 30
0.0
 11
376.59393954
 21
181.48225775
 31
0.0
  0
LINE
  5
112
330
4D4
100
AcDbEntity
  8
YKK_W1
100
AcDbLine
 10
376.09393954
 20
181.68225775
 30
0.0
 11
376.09393954
 21
203.88225775
 31
0.0
  0
LINE
  5
113
330
4D4
100
AcDbEntity
  8
YKK_W1
100
AcDbLine
 10
374.89393954
 20
203.68225775
 30
0.0
 11
374.89393954
 21
181.88225775
 31
0.0
  0
LINE
  5
114
330
4D4
100
AcDbEntity
  8
YKK_W1
100
AcDbLine
 10
369.29393954
 20
177.28225775
 30
0.0
 11
369.29393954
 21
207.68225775
 31
0.0
  0
LINE
  5
115
330
4D4
100
AcDbEntity
  8
YKK_W1
100
AcDbLine
 10
370.89393954
 20
207.68225775
 30
0.0
 11
370.89393954
 21
177.28225775
 31
0.0
  0
LINE
  5
116
330
4D4
100
AcDbEntity
  8
YKK_W4
  6
ITTENSAP
100
AcDbLine
 10
372.89393954
 20
179.44343613
 30
0.0
 11
372.89393954
 21
224.78225775
 31
0.0
  0
LINE
  5
119
330
4D4
100
AcDbEntity
  8
YKK_W4
100
AcDbLine
 10
370.89393954
 20
212.58610533
 30
0.0
 11
370.89393954
 21
182.78225775
 31
0.0
  0
LINE
  5
11A
330
4D4
100
AcDbEntity
  8
YKK_W4
100
AcDbLine
 10
374.89393954
 20
212.58610533
 30
0.0
 11
374.89393954
 21
182.78225775
 31
0.0
  0
LINE
  5
11B
330
4D4
100
AcDbEntity
  8
YKK_D
100
AcDbLine
 10
340.89393955
 20
189.28225583
 30
0.0
 11
325.39394432
 21
189.28225583
 31
0.0
  0
LINE
  5
120
330
4D4
100
AcDbEntity
  8
YKK_W1
100
AcDbLine
 10
355.89393954
 20
149.28225775
 30
0.0
 11
355.89393954
 21
150.88225775
 31
0.0
  0
ARC
  5
121
330
4D4
100
AcDbEntity
  8
YKK_W1
100
AcDbCircle
 10
384.29393954
 20
150.88225775
 30
0.0
 40
1.600000000000023
100
AcDbArc
 50
270.0
 51
0.0
  0
LINE
  5
122
330
4D4
100
AcDbEntity
  8
YKK_W1
100
AcDbLine
 10
384.29393954
 20
149.28225775
 30
0.0
 11
355.89393954
 21
149.28225775
 31
0.0
  0
LINE
  5
123
330
4D4
100
AcDbEntity
  8
YKK_D
100
AcDbLine
 10
355.89394432
 20
109.28225583
 30
0.0
 11
385.89394432
 21
109.28225583
 31
0.0
  0
LINE
  5
124
330
4D4
100
AcDbEntity
  8
YKK_D
100
AcDbLine
 10
355.89394432
 20
144.28225583
 30
0.0
 11
355.89394432
 21
108.78225583
 31
0.0
  0
LINE
  5
129
330
4D4
100
AcDbEntity
  8
YKK_D
100
AcDbLine
 10
385.89394432
 20
146.28225774
 30
0.0
 11
385.89394432
 21
108.78225583
 31
0.0
  0
LINE
  5
12A
330
4D4
100
AcDbEntity
  8
YKK_D
100
AcDbLine
 10
385.89394432
 20
144.28225583
 30
0.0
 11
385.89394432
 21
108.78225583
 31
0.0
  0
TEXT
  5
12B
330
4D4
100
AcDbEntity
  8
YKK_D
100
AcDbText
 10
366.9122776
 20
110.18225736
 30
0.0
 40
4.35000038
  1
３０
 41
0.76628346
100
AcDbText
  0
LINE
  5
12C
330
4D4
100
AcDbEntity
  8
YKK_D
100
AcDbLine
 10
385.89394432
 20
109.28225583
 30
0.0
 11
392.82213646
 21
113.28225583
 31
0.0
  0
LINE
  5
12D
330
4D4
100
AcDbEntity
  8
YKK_D
100
AcDbLine
 10
370.89394432
 20
129.28225583
 30
0.0
 11
385.89397484
 21
129.28225583
 31
0.0
  0
TEXT
  5
12E
330
4D4
100
AcDbEntity
  8
YKK_D
100
AcDbText
 10
374.41230811
 20
130.18225736
 30
0.0
 40
4.35000038
  1
１５
 41
0.76628346
100
AcDbText
  0
LINE
  5
12F
330
4D4
100
AcDbEntity
  8
YKK_D
100
AcDbLine
 10
370.89394432
 20
144.28225583
 30
0.0
 11
370.89394432
 21
128.78225583
 31
0.0
  0
LINE
  5
138
330
4D4
100
AcDbEntity
  8
YKK_W1
100
AcDbLine
 10
355.89393954
 20
150.88225775
 30
0.0
 11
384.29393954
 21
150.88225775
 31
0.0
  0
LINE
  5
139
330
4D4
100
AcDbEntity
  8
YKK_W2
  6
HASENP
100
AcDbLine
 10
359.39393954
 20
150.88225775
 30
0.0
 11
361.61206166
 21
151.49047997
 31
0.0
  0
LINE
  5
13A
330
4D4
100
AcDbEntity
  8
YKK_W1
100
AcDbLine
 10
347.49393954
 20
189.28225775
 30
0.0
 11
345.89393954
 21
189.28225775
 31
0.0
  0
LINE
  5
13B
330
4D4
100
AcDbEntity
  8
YKK_W1
100
AcDbLine
 10
384.29393954
 20
150.88225775
 30
0.0
 11
384.29393954
 21
175.68225775
 31
0.0
  0
LINE
  5
13C
330
4D4
100
AcDbEntity
  8
YKK_W1
100
AcDbLine
 10
385.89393954
 20
175.68225775
 30
0.0
 11
385.89393954
 21
150.88225775
 31
0.0
  0
LINE
  5
13D
330
4D4
100
AcDbEntity
  8
YKK_W1
100
AcDbLine
 10
384.29393954
 20
175.68225775
 30
0.0
 11
370.89393954
 21
175.68225775
 31
0.0
  0
LINE
  5
13E
330
4D4
100
AcDbEntity
  8
YKK_W1
100
AcDbLine
 10
370.89393954
 20
177.28225775
 30
0.0
 11
384.29393954
 21
177.28225775
 31
0.0
  0
LINE
  5
13F
330
4D4
100
AcDbEntity
  8
YKK_W1
100
AcDbLine
 10
376.49393954
 20
180.28225775
 30
0.0
 11
384.89393954
 21
180.28225775
 31
0.0
  0
ARC
  5
140
330
4D4
100
AcDbEntity
  8
YKK_W1
100
AcDbCircle
 10
370.89393954
 20
177.28225775
 30
0.0
 40
1.599999999999994
100
AcDbArc
 50
180.0
 51
270.0
  0
LINE
  5
141
330
4D4
100
AcDbEntity
  8
YKK_W4
100
AcDbLine
 10
370.89393954
 20
182.78225775
 30
0.0
 11
374.89393954
 21
182.78225775
 31
0.0
  0
ARC
  5
142
330
4D4
100
AcDbEntity
  8
YKK_W1
100
AcDbCircle
 10
376.49393954
 20
181.88225775
 30
0.0
 40
1.6
100
AcDbArc
 50
180.0
 51
270.0
  0
ARC
  5
143
330
4D4
100
AcDbEntity
  8
YKK_W1
100
AcDbCircle
 10
376.29393954
 20
181.68225775
 30
0.0
 40
0.2
100
AcDbArc
 50
180.0
 51
270.0
  0
ARC
  5
144
330
4D4
100
AcDbEntity
  8
YKK_W1
100
AcDbCircle
 10
384.29393954
 20
175.68225775
 30
0.0
 40
1.600000000000023
100
AcDbArc
 50
0.0
 51
90.0
  0
LINE
  5
145
330
4D4
100
AcDbEntity
  8
YKK_W1
100
AcDbLine
 10
384.89393954
 20
181.48225775
 30
0.0
 11
384.89393954
 21
180.28225775
 31
0.0
  0
LINE
  5
146
330
4D4
100
AcDbEntity
  8
YKK_D
100
AcDbLine
 10
340.89393955
 20
209.28225583
 30
0.0
 11
325.39394432
 21
209.28225583
 31
0.0
  0
TEXT
  5
147
330
4D4
100
AcDbEntity
  8
YKK_D
100
AcDbText
 10
324.99395042
 20
195.30058911
 30
0.0
 40
4.35000038
  1
２０
 50
90.0000025
 41
0.76628346
100
AcDbText
  0
LINE
  5
14C
330
4D4
100
AcDbEntity
  8
YKK_D
100
AcDbLine
 10
345.89394432
 20
214.28225774
 30
0.0
 11
345.89394432
 21
243.28225583
 31
0.0
  0
LINE
  5
14D
330
4D4
100
AcDbEntity
  8
YKK_D
100
AcDbLine
 10
370.89394432
 20
226.28225774
 30
0.0
 11
370.89394432
 21
243.28225583
 31
0.0
  0
LINE
  5
14E
330
4D4
100
AcDbEntity
  8
YKK_D
100
AcDbLine
 10
374.89394432
 20
226.28225774
 30
0.0
 11
374.89394432
 21
243.28225583
 31
0.0
  0
LINE
  5
14F
330
4D4
100
AcDbEntity
  8
YKK_W1
100
AcDbLine
 10
369.29393954
 20
207.68225775
 30
0.0
 11
347.49393954
 21
207.68225775
 31
0.0
  0
LINE
  5
150
330
4D4
100
AcDbEntity
  8
YKK_W1
100
AcDbLine
 10
347.49393954
 20
209.28225775
 30
0.0
 11
369.29393954
 21
209.28225775
 31
0.0
  0
ARC
  5
151
330
4D4
100
AcDbEntity
  8
YKK_W1
100
AcDbCircle
 10
347.49393954
 20
207.68225775
 30
0.0
 40
1.600000000000023
100
AcDbArc
 50
90.0
 51
180.0
  0
LINE
  5
152
330
4D4
100
AcDbEntity
  8
YKK_W2
  6
HASENP
100
AcDbLine
 10
347.49393954
 20
194.28029918
 30
0.0
 11
349.71206166
 21
194.8885214
 31
0.0
  0
CIRCLE
  5
153
330
4D4
100
AcDbEntity
  8
YKK_W4
100
AcDbCircle
 10
372.89393954
 20
217.78225775
 30
0.0
 40
5.0
  0
ARC
  5
154
330
4D4
100
AcDbEntity
  8
YKK_W1
100
AcDbCircle
 10
376.49393954
 20
203.68225775
 30
0.0
 40
1.6
100
AcDbArc
 50
90.0
 51
180.0
  0
ARC
  5
155
330
4D4
100
AcDbEntity
  8
YKK_W1
100
AcDbCircle
 10
376.29393954
 20
203.88225775
 30
0.0
 40
0.2
100
AcDbArc
 50
90.0
 51
180.0
  0
ARC
  5
156
330
4D4
100
AcDbEntity
  8
YKK_W1
100
AcDbCircle
 10
369.29393954
 20
207.68225775
 30
0.0
 40
1.599999999999994
100
AcDbArc
 50
0.0
 51
90.0
  0
ARC
  5
157
330
4D4
100
AcDbEntity
  8
YKK_W4
100
AcDbCircle
 10
369.89393954
 20
212.58610533
 30
0.0
 40
1.0
100
AcDbArc
 50
0.0
 51
60.0
  0
ARC
  5
158
330
4D4
100
AcDbEntity
  8
YKK_W4
100
AcDbCircle
 10
375.89393954
 20
212.58610533
 30
0.0
 40
1.0
100
AcDbArc
 50
120.0
 51
180.0
  0
LINE
  5
159
330
4D4
100
AcDbEntity
  8
YKK_W4
  6
ITTENSAP
100
AcDbLine
 10
365.89393954
 20
217.78225775
 30
0.0
 11
379.89393954
 21
217.78225775
 31
0.0
  0
LINE
  5
15A
330
4D4
100
AcDbEntity
  8
YKK_D
100
AcDbLine
 10
345.89394432
 20
242.78225583
 30
0.0
 11
370.89394432
 21
242.78225583
 31
0.0
  0
TEXT
  5
15F
330
4D4
100
AcDbEntity
  8
YKK_D
100
AcDbText
 10
354.4122776
 20
243.68224973
 30
0.0
 40
4.35000038
  1
２５
 41
0.76628346
100
AcDbText
  0
TEXT
  5
168
330
4D4
100
AcDbEntity
  8
YKK_D
100
AcDbText
 10
370.9122776
 20
243.68224973
 30
0.0
 40
4.35000038
  1
４
 41
0.76628346
100
AcDbText
  0
LINE
  5
169
330
4D4
100
AcDbEntity
  8
YKK_D
100
AcDbLine
 10
370.89394432
 20
242.78225583
 30
0.0
 11
374.89394432
 21
242.78225583
 31
0.0
  0
LINE
  5
172
330
4D4
100
AcDbEntity
  8
YKK_H2
  6
HASENP
100
AcDbLine
 10
181.13488343
 20
482.77899478
 30
0.0
 11
137.736842
 21
494.67899478
 31
0.0
  0
LINE
  5
173
330
4D4
100
AcDbEntity
  8
YKK_H2
  6
HASENP
100
AcDbLine
 10
138.34506422
 20
496.8971169
 30
0.0
 11
181.74310566
 21
484.9971169
 31
0.0
  0
LINE
  5
174
330
4D4
100
AcDbEntity
  8
YKK_H1
100
AcDbLine
 10
131.34310566
 20
396.82547903
 30
0.0
 11
152.44310566
 21
396.82547903
 31
0.0
  0
LINE
  5
175
330
4D4
100
AcDbEntity
  8
YKK_H1
100
AcDbLine
 10
152.44310566
 20
398.02547903
 30
0.0
 11
131.34310566
 21
398.02547903
 31
0.0
  0
LINE
  5
176
330
4D4
100
AcDbEntity
  8
YKK_H1
100
AcDbLine
 10
131.34310566
 20
418.62547903
 30
0.0
 11
152.44310566
 21
418.62547903
 31
0.0
  0
LINE
  5
177
330
4D4
100
AcDbEntity
  8
YKK_H1
100
AcDbLine
 10
152.44310566
 20
419.82547903
 30
0.0
 11
131.34310566
 21
419.82547903
 31
0.0
  0
LINE
  5
178
330
4D4
100
AcDbEntity
  8
YKK_H1
100
AcDbLine
 10
128.14310566
 20
473.4971169
 30
0.0
 11
156.94310566
 21
473.4971169
 31
0.0
  0
LINE
  5
179
330
4D4
100
AcDbEntity
  8
YKK_H1
100
AcDbLine
 10
130.54310566
 20
470.4971169
 30
0.0
 11
151.14310566
 21
470.4971169
 31
0.0
  0
LINE
  5
17A
330
4D4
100
AcDbEntity
  8
YKK_H1
100
AcDbLine
 10
130.34310566
 20
469.2971169
 30
0.0
 11
151.14310566
 21
469.2971169
 31
0.0
  0
LINE
  5
17B
330
4D4
100
AcDbEntity
  8
YKK_H1
100
AcDbLine
 10
156.94310566
 20
475.0971169
 30
0.0
 11
128.14310566
 21
475.0971169
 31
0.0
  0
LINE
  5
17C
330
4D4
100
AcDbEntity
  8
YKK_H3
100
AcDbLine
 10
124.94310566
 20
498.4971169
 30
0.0
 11
124.94310566
 21
305.38968984
 31
0.0
  0
LINE
  5
17D
330
4D4
100
AcDbEntity
  8
YKK_H1
100
AcDbLine
 10
130.14310566
 20
305.38968984
 30
0.0
 11
130.14310566
 21
469.0971169
 31
0.0
  0
LINE
  5
17E
330
4D4
100
AcDbEntity
  8
YKK_H1
100
AcDbLine
 10
128.94310566
 20
468.8971169
 30
0.0
 11
128.94310566
 21
305.38968984
 31
0.0
  0
LINE
  5
17F
330
4D4
100
AcDbEntity
  8
YKK_ZWAK
  6
Continuous
 62
   254
100
AcDbLine
 10
-2.8
 20
298.9000077
 30
0.0
 11
0.0
 21
298.9000077
 31
0.0
  0
TEXT
  5
180
330
4D4
100
AcDbEntity
  8
YKK_D
100
AcDbText
 10
104.94310449
 20
294.92634946
 30
0.0
 40
10.0
  1
ＤＨ
 50
90.0000025
100
AcDbText
  0
LINE
  5
181
330
4D4
100
AcDbEntity
  8
YKK_H1
100
AcDbLine
 10
130.14310566
 20
396.82547903
 30
0.0
 11
130.14310566
 21
386.82547903
 31
0.0
  0
LINE
  5
182
330
4D4
100
AcDbEntity
  8
YKK_H1
100
AcDbLine
 10
131.34310566
 20
386.82547903
 30
0.0
 11
131.34310566
 21
396.82547903
 31
0.0
  0
LINE
  5
183
330
4D4
100
AcDbEntity
  8
YKK_H1
100
AcDbLine
 10
130.14310566
 20
386.82547903
 30
0.0
 11
131.34310566
 21
386.82547903
 31
0.0
  0
ARC
  5
184
330
4D4
100
AcDbEntity
  8
YKK_H1
100
AcDbCircle
 10
131.34310566
 20
396.82547903
 30
0.0
 40
1.199999999999989
100
AcDbArc
 50
90.0
 51
180.0
  0
ARC
  5
185
330
4D4
100
AcDbEntity
  8
YKK_H1
100
AcDbCircle
 10
131.34310566
 20
419.82547903
 30
0.0
 40
1.200000000000017
100
AcDbArc
 50
180.0
 51
270.0
  0
LINE
  5
186
330
4D4
100
AcDbEntity
  8
YKK_H1
100
AcDbLine
 10
131.34310566
 20
429.82547903
 30
0.0
 11
130.14310566
 21
429.82547903
 31
0.0
  0
LINE
  5
187
330
4D4
100
AcDbEntity
  8
YKK_H1
100
AcDbLine
 10
130.14310566
 20
429.82547903
 30
0.0
 11
130.14310566
 21
419.82547903
 31
0.0
  0
LINE
  5
188
330
4D4
100
AcDbEntity
  8
YKK_H1
100
AcDbLine
 10
131.34310566
 20
419.82547903
 30
0.0
 11
131.34310566
 21
429.82547903
 31
0.0
  0
LINE
  5
189
330
4D4
100
AcDbEntity
  8
YKK_D
100
AcDbLine
 10
119.94311308
 20
473.49710479
 30
0.0
 11
104.44310449
 21
473.49710479
 31
0.0
  0
LINE
  5
18A
330
4D4
100
AcDbEntity
  8
YKK_D
100
AcDbLine
 10
119.94310497
 20
498.49710479
 30
0.0
 11
104.44310449
 21
498.49710479
 31
0.0
  0
LINE
  5
18B
330
4D4
100
AcDbEntity
  8
YKK_D
100
AcDbLine
 10
119.94310545
 20
470.49710479
 30
0.0
 11
104.44310449
 21
470.49710479
 31
0.0
  0
LINE
  5
18C
330
4D4
100
AcDbEntity
  8
YKK_D
100
AcDbLine
 10
104.94310449
 20
498.49710479
 30
0.0
 11
104.94310449
 21
473.49710479
 31
0.0
  0
TEXT
  5
195
330
4D4
100
AcDbEntity
  8
YKK_D
100
AcDbText
 10
104.04310297
 20
470.01543806
 30
0.0
 40
4.35000038
  1
３
 50
90.0000025
 41
0.76628346
100
AcDbText
  0
LINE
  5
196
330
4D4
100
AcDbEntity
  8
YKK_D
100
AcDbLine
 10
104.94310449
 20
473.49710479
 30
0.0
 11
104.94310449
 21
470.49710479
 31
0.0
  0
TEXT
  5
19F
330
4D4
100
AcDbEntity
  8
YKK_D
100
AcDbText
 10
104.04310297
 20
482.01543806
 30
0.0
 40
4.35000038
  1
２５
 50
90.0000025
 41
0.76628346
100
AcDbText
  0
LINE
  5
1A4
330
4D4
100
AcDbEntity
  8
YKK_H1
100
AcDbLine
 10
126.54310566
 20
496.8971169
 30
0.0
 11
126.54310566
 21
475.0971169
 31
0.0
  0
LINE
  5
1A5
330
4D4
100
AcDbEntity
  8
YKK_H1
100
AcDbLine
 10
128.14310566
 20
475.0971169
 30
0.0
 11
128.14310566
 21
496.8971169
 31
0.0
  0
ARC
  5
1A6
330
4D4
100
AcDbEntity
  8
YKK_H1
100
AcDbCircle
 10
130.54310566
 20
468.8971169
 30
0.0
 40
1.6
100
AcDbArc
 50
90.0
 51
180.0
  0
ARC
  5
1A7
330
4D4
100
AcDbEntity
  8
YKK_H1
100
AcDbCircle
 10
130.34310566
 20
469.0971169
 30
0.0
 40
0.2
100
AcDbArc
 50
90.0
 51
180.0
  0
ARC
  5
1A8
330
4D4
100
AcDbEntity
  8
YKK_H1
100
AcDbCircle
 10
128.14310566
 20
475.0971169
 30
0.0
 40
1.599999999999994
100
AcDbArc
 50
180.0
 51
270.0
  0
LINE
  5
1A9
330
4D4
100
AcDbEntity
  8
YKK_H1
100
AcDbLine
 10
128.14310566
 20
496.8971169
 30
0.0
 11
144.94310566
 21
496.8971169
 31
0.0
  0
LINE
  5
1AA
330
4D4
100
AcDbEntity
  8
YKK_H1
100
AcDbLine
 10
144.94310566
 20
498.4971169
 30
0.0
 11
128.14310566
 21
498.4971169
 31
0.0
  0
ARC
  5
1AB
330
4D4
100
AcDbEntity
  8
YKK_H1
100
AcDbCircle
 10
128.14310566
 20
496.8971169
 30
0.0
 40
1.600000000000023
100
AcDbArc
 50
90.0
 51
180.0
  0
LINE
  5
1AC
330
4D4
100
AcDbEntity
  8
YKK_H3
100
AcDbLine
 10
128.04310566
 20
498.4971169
 30
0.0
 11
124.94310566
 21
498.4971169
 31
0.0
  0
LINE
  5
1AD
330
4D4
100
AcDbEntity
  8
YKK_H2
  6
HASENP
100
AcDbLine
 10
138.34506422
 20
496.8971169
 30
0.0
 11
137.736842
 21
494.67899478
 31
0.0
  0
LINE
  5
1AE
330
4D4
100
AcDbEntity
  8
YKK_H1
100
AcDbLine
 10
144.94310566
 20
496.8971169
 30
0.0
 11
144.94310566
 21
498.4971169
 31
0.0
  0
TEXT
  5
1AF
330
4D4
100
AcDbEntity
  8
YKK_D
100
AcDbText
 10
109.73144204
 20
519.39709868
 30
0.0
 40
4.35000038
  1
１．６
 41
0.76628346
100
AcDbText
  0
LINE
  5
1B0
330
4D4
100
AcDbEntity
  8
YKK_D
100
AcDbLine
 10
110.04310392
 20
518.49710479
 30
0.0
 11
126.54310297
 21
518.49710479
 31
0.0
  0
TEXT
  5
1B1
330
4D4
100
AcDbEntity
  8
YKK_D
100
AcDbText
 10
127.76143319
 20
519.39709868
 30
0.0
 40
4.35000038
  1
１８．４
 41
0.76628346
100
AcDbText
  0
LINE
  5
1B2
330
4D4
100
AcDbEntity
  8
YKK_D
100
AcDbLine
 10
126.54310297
 20
518.49710479
 30
0.0
 11
144.94310449
 21
518.49710479
 31
0.0
  0
LINE
  5
1B3
330
4D4
100
AcDbEntity
  8
YKK_D
100
AcDbLine
 10
126.54310297
 20
503.5635406
 30
0.0
 11
126.54310297
 21
518.99710479
 31
0.0
  0
LINE
  5
1B4
330
4D4
100
AcDbEntity
  8
YKK_D
100
AcDbLine
 10
124.94310449
 20
503.55340352
 30
0.0
 11
124.94310449
 21
518.99710479
 31
0.0
  0
LINE
  5
1B5
330
4D4
100
AcDbEntity
  8
YKK_D
100
AcDbLine
 10
126.54310297
 20
503.5635406
 30
0.0
 11
126.54310297
 21
518.99710479
 31
0.0
  0
LINE
  5
1C2
330
4D4
100
AcDbEntity
  8
YKK_D
100
AcDbLine
 10
144.94310449
 20
503.69025578
 30
0.0
 11
144.94310449
 21
518.99710479
 31
0.0
  0
LINE
  5
1C7
330
4D4
100
AcDbEntity
  8
YKK_H3
100
AcDbLine
 10
156.94310566
 20
459.9971169
 30
0.0
 11
156.94310566
 21
305.38968984
 31
0.0
  0
LINE
  5
1C8
330
4D4
100
AcDbEntity
  8
YKK_H3
100
AcDbLine
 10
184.94310566
 20
488.4971169
 30
0.0
 11
184.94310566
 21
305.38968984
 31
0.0
  0
LINE
  5
1C9
330
4D4
100
AcDbEntity
  8
YKK_H1
100
AcDbLine
 10
153.94310566
 20
470.4971169
 30
0.0
 11
153.94310566
 21
305.38968984
 31
0.0
  0
LINE
  5
1CA
330
4D4
100
AcDbEntity
  8
YKK_H1
100
AcDbLine
 10
152.74310566
 20
419.82547903
 30
0.0
 11
152.74310566
 21
470.4971169
 31
0.0
  0
ARC
  5
1CB
330
4D4
100
AcDbEntity
  8
YKK_H1
100
AcDbCircle
 10
158.54310566
 20
460.0971169
 30
0.0
 40
1.599999999999965
100
AcDbArc
 50
180.0
 51
270.0
  0
ARC
  5
1CC
330
4D4
100
AcDbEntity
  8
YKK_H1
100
AcDbCircle
 10
181.74310566
 20
460.0971169
 30
0.0
 40
1.600000000000023
100
AcDbArc
 50
270.0
 51
0.0
  0
LINE
  5
1D1
330
4D4
100
AcDbEntity
  8
YKK_D
100
AcDbLine
 10
224.94311212
 20
458.49710479
 30
0.0
 11
220.94311212
 21
451.56891265
 31
0.0
  0
LINE
  5
1D2
330
4D4
100
AcDbEntity
  8
YKK_D
100
AcDbLine
 10
224.94311212
 20
458.49710479
 30
0.0
 11
228.94311212
 21
451.56891265
 31
0.0
  0
LINE
  5
1D3
330
4D4
100
AcDbEntity
  8
YKK_H1
100
AcDbLine
 10
152.74310566
 20
305.38968984
 30
0.0
 11
152.74310566
 21
396.82547903
 31
0.0
  0
TEXT
  5
1D4
330
4D4
100
AcDbEntity
  8
YKK_D
100
AcDbText
 10
223.84309076
 20
301.42634946
 30
0.0
 40
10.0
  1
Ｈ
 50
90.0000025
100
AcDbText
  0
LINE
  5
1D5
330
4D4
100
AcDbEntity
  8
YKK_H1
100
AcDbLine
 10
152.44310566
 20
418.62547903
 30
0.0
 11
152.44310566
 21
398.02547903
 31
0.0
  0
LINE
  5
1D6
330
4D4
100
AcDbEntity
  8
YKK_H1
100
AcDbLine
 10
153.64310566
 20
398.02547903
 30
0.0
 11
153.64310566
 21
418.62547903
 31
0.0
  0
ARC
  5
1D7
330
4D4
100
AcDbEntity
  8
YKK_H1
100
AcDbCircle
 10
152.44310566
 20
398.02547903
 30
0.0
 40
1.199999999999989
100
AcDbArc
 50
270.0
 51
0.0
  0
ARC
  5
1D8
330
4D4
100
AcDbEntity
  8
YKK_H1
100
AcDbCircle
 10
152.44310566
 20
418.62547903
 30
0.0
 40
1.200000000000044
100
AcDbArc
 50
0.0
 51
90.0
  0
LINE
  5
1D9
330
4D4
100
AcDbEntity
  8
YKK_D
100
AcDbLine
 10
220.94311212
 20
451.56891265
 30
0.0
 11
228.94311212
 21
451.56891265
 31
0.0
  0
LINE
  5
1DA
330
4D4
100
AcDbEntity
  8
YKK_D
100
AcDbLine
 10
189.94311212
 20
458.49710479
 30
0.0
 11
225.44311212
 21
458.49710479
 31
0.0
  0
LINE
  5
1DB
330
4D4
100
AcDbEntity
  8
YKK_D
100
AcDbLine
 10
189.94311212
 20
458.49710479
 30
0.0
 11
225.44309687
 21
458.49710479
 31
0.0
  0
LINE
  5
1DC
330
4D4
100
AcDbEntity
  8
YKK_D
100
AcDbLine
 10
189.94311212
 20
488.49710479
 30
0.0
 11
225.44311212
 21
488.49710479
 31
0.0
  0
LINE
  5
1DD
330
4D4
100
AcDbEntity
  8
YKK_D
100
AcDbLine
 10
183.34310602
 20
491.49711694
 30
0.0
 11
183.34310602
 21
518.99710479
 31
0.0
  0
LINE
  5
1DE
330
4D4
100
AcDbEntity
  8
YKK_D
100
AcDbLine
 10
184.94311212
 20
491.49711694
 30
0.0
 11
184.94311212
 21
518.99710479
 31
0.0
  0
LINE
  5
1DF
330
4D4
100
AcDbEntity
  8
YKK_H1
100
AcDbLine
 10
181.74310566
 20
460.0971169
 30
0.0
 11
158.54310566
 21
460.0971169
 31
0.0
  0
LINE
  5
1E0
330
4D4
100
AcDbEntity
  8
YKK_H1
100
AcDbLine
 10
158.54310566
 20
458.4971169
 30
0.0
 11
181.74310566
 21
458.4971169
 31
0.0
  0
LINE
  5
1E1
330
4D4
100
AcDbEntity
  8
YKK_H1
100
AcDbLine
 10
158.54310566
 20
460.0971169
 30
0.0
 11
158.54310566
 21
473.4971169
 31
0.0
  0
LINE
  5
1E2
330
4D4
100
AcDbEntity
  8
YKK_H1
100
AcDbLine
 10
156.94310566
 20
473.4971169
 30
0.0
 11
156.94310566
 21
460.0971169
 31
0.0
  0
ARC
  5
1E3
330
4D4
100
AcDbEntity
  8
YKK_H1
100
AcDbCircle
 10
151.14310566
 20
468.8971169
 30
0.0
 40
1.6
100
AcDbArc
 50
0.0
 51
90.0
  0
LINE
  5
1E4
330
4D4
100
AcDbEntity
  8
YKK_H1
100
AcDbLine
 10
151.54310566
 20
459.2971169
 30
0.0
 11
151.54310566
 21
468.8971169
 31
0.0
  0
LINE
  5
1E5
330
4D4
100
AcDbEntity
  8
YKK_H1
100
AcDbLine
 10
152.74310566
 20
459.2971169
 30
0.0
 11
151.54310566
 21
459.2971169
 31
0.0
  0
ARC
  5
1E6
330
4D4
100
AcDbEntity
  8
YKK_H1
100
AcDbCircle
 10
151.14310566
 20
468.8971169
 30
0.0
 40
0.4
100
AcDbArc
 50
0.0
 51
90.0
  0
LINE
  5
1E7
330
4D4
100
AcDbEntity
  8
YKK_H1
100
AcDbLine
 10
152.74310566
 20
470.4971169
 30
0.0
 11
153.94310566
 21
470.4971169
 31
0.0
  0
ARC
  5
1E8
330
4D4
100
AcDbEntity
  8
YKK_H1
100
AcDbCircle
 10
156.94310566
 20
473.4971169
 30
0.0
 40
1.599999999999965
100
AcDbArc
 50
0.0
 51
90.0
  0
LINE
  5
1E9
330
4D4
100
AcDbEntity
  8
YKK_H1
100
AcDbLine
 10
181.74310566
 20
488.4971169
 30
0.0
 11
181.74310566
 21
460.0971169
 31
0.0
  0
LINE
  5
1EA
330
4D4
100
AcDbEntity
  8
YKK_H1
100
AcDbLine
 10
183.34310566
 20
460.0971169
 30
0.0
 11
183.34310566
 21
488.4971169
 31
0.0
  0
LINE
  5
1EB
330
4D4
100
AcDbEntity
  8
YKK_D
100
AcDbLine
 10
189.94311212
 20
473.49708398
 30
0.0
 11
205.44311212
 21
473.49707427
 31
0.0
  0
LINE
  5
1EC
330
4D4
100
AcDbEntity
  8
YKK_D
100
AcDbLine
 10
204.94311212
 20
473.49707427
 30
0.0
 11
204.94311212
 21
458.49707427
 31
0.0
  0
TEXT
  5
1ED
330
4D4
100
AcDbEntity
  8
YKK_D
100
AcDbText
 10
204.04311823
 20
462.01540754
 30
0.0
 40
4.35000038
  1
１５
 50
90.0000025
 41
0.76628346
100
AcDbText
  0
LINE
  5
1F2
330
4D4
100
AcDbEntity
  8
YKK_H3
100
AcDbLine
 10
184.94310566
 20
488.4971169
 30
0.0
 11
183.34310566
 21
488.4971169
 31
0.0
  0
LINE
  5
1F3
330
4D4
100
AcDbEntity
  8
YKK_H2
  6
HASENP
100
AcDbLine
 10
181.74310566
 20
484.9971169
 30
0.0
 11
181.13488343
 21
482.77899478
 31
0.0
  0
LINE
  5
1F4
330
4D4
100
AcDbEntity
  8
YKK_H1
100
AcDbLine
 10
183.34310566
 20
488.4971169
 30
0.0
 11
181.74310566
 21
488.4971169
 31
0.0
  0
TEXT
  5
1F5
330
4D4
100
AcDbEntity
  8
YKK_D
100
AcDbText
 10
187.5614515
 20
519.39709868
 30
0.0
 40
4.35000038
  1
１．６
 41
0.76628346
100
AcDbText
  0
LINE
  5
1F6
330
4D4
100
AcDbEntity
  8
YKK_D
100
AcDbLine
 10
199.8431127
 20
518.49710479
 30
0.0
 11
183.34310602
 21
518.49710479
 31
0.0
  0
LINE
  5
1FF
330
4D4
100
AcDbEntity
  8
YKK_D
100
AcDbLine
 10
224.94311212
 20
488.49710479
 30
0.0
 11
224.94311212
 21
458.49710479
 31
0.0
  0
TEXT
  5
200
330
4D4
100
AcDbEntity
  8
YKK_D
100
AcDbText
 10
224.04311823
 20
469.51543806
 30
0.0
 40
4.35000038
  1
３０
 50
90.0000025
 41
0.76628346
100
AcDbText
  0
LINE
  5
205
330
4D4
100
AcDbEntity
  8
YKK_ZWAK
  6
Continuous
 62
     8
100
AcDbLine
 10
385.0140084
 20
564.200014
 30
0.0
 11
385.0140084
 21
561.400014
 31
0.0
  0
LINE
  5
206
330
4D4
100
AcDbEntity
  8
YKK_ZWAK
  6
Continuous
 62
   254
100
AcDbLine
 10
770.0000182
 20
561.400014
 30
0.0
 11
770.0000182
 21
36.4000014
 31
0.0
  0
LINE
  5
207
330
4D4
100
AcDbEntity
  8
YKK_ZWAK
  6
Continuous
 62
   254
100
AcDbLine
 10
603.400014
 20
9.8
 30
0.0
 11
704.1996668
 21
9.8
 31
0.0
  0
LINE
  5
208
330
4D4
100
AcDbEntity
  8
YKK_D
100
AcDbLine
 10
513.8939138
 20
242.78225583
 30
0.0
 11
646.8939138
 21
242.78225583
 31
0.0
  0
LINE
  5
209
330
4D4
100
AcDbEntity
  8
YKK_W1
100
AcDbLine
 10
581.89393954
 20
205.28225775
 30
0.0
 11
645.29393954
 21
205.28225775
 31
0.0
  0
LINE
  5
20A
330
4D4
100
AcDbEntity
  8
YKK_W1
100
AcDbLine
 10
581.89393954
 20
204.08225775
 30
0.0
 11
645.49393954
 21
204.08225775
 31
0.0
  0
LINE
  5
20B
330
4D4
100
AcDbEntity
  8
YKK_W1
100
AcDbLine
 10
581.89393954
 20
182.68225775
 30
0.0
 11
645.19393954
 21
182.68225775
 31
0.0
  0
LINE
  5
20C
330
4D4
100
AcDbEntity
  8
YKK_W1
100
AcDbLine
 10
581.89393954
 20
181.48225775
 30
0.0
 11
645.49393954
 21
181.48225775
 31
0.0
  0
LINE
  5
20D
330
4D4
100
AcDbEntity
  8
YKK_W3
100
AcDbLine
 10
646.89393954
 20
207.68225775
 30
0.0
 11
581.89393954
 21
207.68225775
 31
0.0
  0
LINE
  5
20E
330
4D4
100
AcDbEntity
  8
YKK_D
100
AcDbLine
 10
635.8939138
 20
109.28225583
 30
0.0
 11
665.8939138
 21
109.28225583
 31
0.0
  0
LINE
  5
20F
330
4D4
100
AcDbEntity
  8
YKK_D
100
AcDbLine
 10
635.89379173
 20
129.28225583
 30
0.0
 11
650.89385277
 21
129.28225583
 31
0.0
  0
LINE
  5
210
330
4D4
100
AcDbEntity
  8
YKK_W1
100
AcDbLine
 10
637.49393954
 20
150.88225775
 30
0.0
 11
665.89393954
 21
150.88225775
 31
0.0
  0
LINE
  5
211
330
4D4
100
AcDbEntity
  8
YKK_W1
100
AcDbLine
 10
665.89393954
 20
149.28225775
 30
0.0
 11
637.49393954
 21
149.28225775
 31
0.0
  0
TEXT
  5
212
330
4D4
100
AcDbEntity
  8
YKK_D
100
AcDbText
 10
639.41218604
 20
130.18225736
 30
0.0
 40
4.35000038
  1
１５
 41
0.76628346
100
AcDbText
  0
LINE
  5
213
330
4D4
100
AcDbEntity
  8
YKK_W1
100
AcDbLine
 10
650.89393954
 20
175.68225775
 30
0.0
 11
637.49393954
 21
175.68225775
 31
0.0
  0
LINE
  5
214
330
4D4
100
AcDbEntity
  8
YKK_W1
100
AcDbLine
 10
645.29393954
 20
180.28225775
 30
0.0
 11
636.89393954
 21
180.28225775
 31
0.0
  0
LINE
  5
215
330
4D4
100
AcDbEntity
  8
YKK_W1
100
AcDbLine
 10
637.49393954
 20
177.28225775
 30
0.0
 11
650.89393954
 21
177.28225775
 31
0.0
  0
LINE
  5
216
330
4D4
100
AcDbEntity
  8
YKK_D
100
AcDbLine
 10
628.96575218
 20
105.28225583
 30
0.0
 11
628.96575218
 21
113.28225583
 31
0.0
  0
LINE
  5
217
330
4D4
100
AcDbEntity
  8
YKK_D
100
AcDbLine
 10
635.8939138
 20
109.28225583
 30
0.0
 11
628.96575218
 21
105.28225583
 31
0.0
  0
LINE
  5
218
330
4D4
100
AcDbEntity
  8
YKK_ZWAK
  6
Continuous
 62
   131
100
AcDbLine
 10
583.384214
 20
28.0007014
 30
0.0
 11
515.2000126
 21
28.0007014
 31
0.0
  0
LINE
  5
219
330
4D4
100
AcDbEntity
  8
YKK_ZWAK
  6
Continuous
 62
   254
100
AcDbLine
 10
515.2000126
 20
35.0000014
 30
0.0
 11
515.2000126
 21
0.0
 31
0.0
  0
TEXT
  5
21A
330
4D4
100
AcDbEntity
  8
USER1
 62
     3
100
AcDbText
 10
422.4227396
 20
9.8007
 30
0.0
 40
5.6
  1
点検口両開き２ロック
 72
     1
 11
454.9027396
 21
12.6007
 31
0.0
100
AcDbText
 73
     2
  0
TEXT
  5
21C
330
4D4
100
AcDbEntity
  8
USER1
 62
     3
100
AcDbText
 10
432.5027396
 20
2.314384
 30
0.0
 40
5.6
  1
2PTNAB/W
 72
     1
 11
454.9027396
 21
5.114384
 31
0.0
100
AcDbText
 73
     2
  0
TEXT
  5
21D
330
4D4
100
AcDbEntity
  8
USER1
 62
     3
100
AcDbText
 10
433.33674597
 20
21.0007
 30
0.0
 40
5.6
  1
2PT60A03
100
AcDbText
  0
TEXT
  5
21E
330
4D4
100
AcDbEntity
  8
YKK_ZWAK
  6
Continuous
 62
   254
100
AcDbText
 10
498.63142106
 20
22.0437014
 30
0.0
 40
7.0
  1
工事
 41
0.9
  7
YKK_OSSTYLE1
100
AcDbText
  0
TEXT
  5
21F
330
4D4
100
AcDbEntity
  8
USER1
 62
     3
100
AcDbText
 10
594.06666527
 20
15.4007
 30
0.0
 40
5.6
  1
1
 72
     1
 11
594.9999986
 21
18.2007
 31
0.0
100
AcDbText
 73
     2
  0
LINE
  5
220
330
4D4
100
AcDbEntity
  8
YKK_ZWAK
  6
Continuous
 62
   131
100
AcDbLine
 10
585.5701628
 20
17.2638368
 30
0.0
 11
595.2635444
 21
26.9572184
 31
0.0
  0
LINE
  5
221
330
4D4
100
AcDbEntity
  8
YKK_ZWAK
  6
Continuous
 62
   131
100
AcDbLine
 10
560.0000126
 20
35.0000014
 30
0.0
 11
560.0000126
 21
0.0
 31
0.0
  0
LINE
  5
222
330
4D4
100
AcDbEntity
  8
YKK_ZWAK
  6
Continuous
 62
   254
100
AcDbLine
 10
582.400014
 20
35.0000014
 30
0.0
 11
582.400014
 21
0.0
 31
0.0
  0
LINE
  5
223
330
4D4
100
AcDbEntity
  8
YKK_ZWAK
  6
Continuous
 62
   254
100
AcDbLine
 10
603.400014
 20
35.0000014
 30
0.0
 11
603.400014
 21
0.0
 31
0.0
  0
LINE
  5
224
330
4D4
100
AcDbEntity
  8
YKK_ZWAK
  6
Continuous
 62
   131
100
AcDbLine
 10
537.6000126
 20
35.0000014
 30
0.0
 11
537.6000126
 21
0.0
 31
0.0
  0
TEXT
  5
225
330
4D4
100
AcDbEntity
  8
YKK_ZWAK
  6
Continuous
 62
   131
100
AcDbText
 10
542.05492956
 20
1.053955
 30
0.0
 40
4.9
  1
 ． ．
 41
0.9
  7
YKK_OSSTYLE1
100
AcDbText
  0
TEXT
  5
226
330
4D4
100
AcDbEntity
  8
YKK_ZWAK
  6
Continuous
 62
   131
100
AcDbText
 10
519.65492956
 20
1.053955
 30
0.0
 40
4.9
  1
 ． ．
 41
0.9
  7
YKK_OSSTYLE1
100
AcDbText
  0
TEXT
  5
227
330
4D4
100
AcDbEntity
  8
YKK_ZWAK
  6
Continuous
 62
   131
100
AcDbText
 10
564.45492956
 20
1.053955
 30
0.0
 40
4.9
  1
 ． ．
 41
0.9
  7
YKK_OSSTYLE1
100
AcDbText
  0
LINE
  5
228
330
4D4
100
AcDbEntity
  8
YKK_ZWAK
  6
Continuous
 62
   131
100
AcDbLine
 10
590.8722428
 20
1.6549638
 30
0.0
 11
600.396118
 21
11.1788376
 31
0.0
  0
LINE
  5
229
330
4D4
100
AcDbEntity
  8
YKK_ZWAK
  6
Continuous
 62
   131
100
AcDbLine
 10
608.43999664
 20
2.1
 30
0.0
 11
608.43999664
 21
0.0
 31
0.0
  0
LINE
  5
22A
330
4D4
100
AcDbEntity
  8
YKK_ZWAK
  6
Continuous
 62
   131
100
AcDbLine
 10
618.51996192
 20
2.1
 30
0.0
 11
618.51996192
 21
0.0
 31
0.0
  0
LINE
  5
22B
330
4D4
100
AcDbEntity
  8
YKK_ZWAK
  6
Continuous
 62
   131
100
AcDbLine
 10
613.47997928
 20
2.1
 30
0.0
 11
613.47997928
 21
0.0
 31
0.0
  0
LINE
  5
22C
330
4D4
100
AcDbEntity
  8
YKK_ZWAK
  6
Continuous
 62
   131
100
AcDbLine
 10
623.55994456
 20
2.1
 30
0.0
 11
623.55994456
 21
0.0
 31
0.0
  0
LINE
  5
22D
330
4D4
100
AcDbEntity
  8
YKK_ZWAK
  6
Continuous
 62
   131
100
AcDbLine
 10
633.63990984
 20
2.1
 30
0.0
 11
633.63990984
 21
0.0
 31
0.0
  0
LINE
  5
22E
330
4D4
100
AcDbEntity
  8
YKK_ZWAK
  6
Continuous
 62
   131
100
AcDbLine
 10
628.5999272
 20
2.1
 30
0.0
 11
628.5999272
 21
0.0
 31
0.0
  0
LINE
  5
22F
330
4D4
100
AcDbEntity
  8
YKK_ZWAK
  6
Continuous
 62
   131
100
AcDbLine
 10
638.67989248
 20
2.1
 30
0.0
 11
638.67989248
 21
0.0
 31
0.0
  0
TEXT
  5
230
330
4D4
100
AcDbEntity
  8
YKK_ZWAK
  6
Continuous
 62
   131
100
AcDbText
 10
541.55450734
 20
29.21975
 30
0.0
 40
4.2
  1
担  当
 41
0.9
  7
YKK_OSSTYLE1
100
AcDbText
  0
TEXT
  5
231
330
4D4
100
AcDbEntity
  8
YKK_ZWAK
  6
Continuous
 62
   131
100
AcDbText
 10
520.18912694
 20
29.21975
 30
0.0
 40
4.2
  1
照  査
 41
0.9
  7
YKK_OSSTYLE1
100
AcDbText
  0
TEXT
  5
232
330
4D4
100
AcDbEntity
  8
YKK_ZWAK
  6
Continuous
 62
   131
100
AcDbText
 10
564.31997454
 20
29.2379514
 30
0.0
 40
4.2
  1
作  図
 41
0.9
  7
YKK_OSSTYLE1
100
AcDbText
  0
TEXT
  5
233
330
4D4
100
AcDbEntity
  8
YKK_ZWAK
  6
Continuous
 62
   131
100
AcDbText
 10
606.0671316
 20
29.4672014
 30
0.0
 40
4.2
  1
御承認印
 41
0.9
  7
YKK_OSSTYLE1
100
AcDbText
  0
TEXT
  5
234
330
4D4
100
AcDbEntity
  8
YKK_ZWAK
  6
Continuous
 62
   131
100
AcDbText
 10
585.91227394
 20
29.4629482
 30
0.0
 40
4.2
  1
尺  度
 41
0.9
  7
YKK_OSSTYLE1
100
AcDbText
  0
LINE
  5
235
330
4D4
100
AcDbEntity
  8
YKK_ZWAK
  6
Continuous
 62
   131
100
AcDbLine
 10
583.384214
 20
28.0007014
 30
0.0
 11
603.400014
 21
28.0007014
 31
0.0
  0
TEXT
  5
236
330
4D4
100
AcDbEntity
  8
USER1
 62
     3
100
AcDbText
 10
585.1999986
 20
21.0007
 30
0.0
 40
5.6
  1
1
100
AcDbText
  0
LINE
  5
237
330
4D4
100
AcDbEntity
  8
YKK_W3
100
AcDbLine
 10
442.89393954
 20
150.88225775
 30
0.0
 11
578.89393954
 21
150.88225775
 31
0.0
  0
LINE
  5
238
330
4D4
100
AcDbEntity
  8
YKK_W3
100
AcDbLine
 10
442.89393954
 20
177.28225775
 30
0.0
 11
578.89393954
 21
177.28225775
 31
0.0
  0
LINE
  5
239
330
4D4
100
AcDbEntity
  8
YKK_W1
100
AcDbLine
 10
515.49393954
 20
205.28225775
 30
0.0
 11
578.89393954
 21
205.28225775
 31
0.0
  0
LINE
  5
23A
330
4D4
100
AcDbEntity
  8
YKK_W1
100
AcDbLine
 10
515.29393954
 20
204.08225775
 30
0.0
 11
578.89393954
 21
204.08225775
 31
0.0
  0
LINE
  5
23B
330
4D4
100
AcDbEntity
  8
YKK_W1
100
AcDbLine
 10
515.59393954
 20
182.68225775
 30
0.0
 11
578.89393954
 21
182.68225775
 31
0.0
  0
LINE
  5
23C
330
4D4
100
AcDbEntity
  8
YKK_W1
100
AcDbLine
 10
515.29393954
 20
181.48225775
 30
0.0
 11
578.89393954
 21
181.48225775
 31
0.0
  0
LINE
  5
23D
330
4D4
100
AcDbEntity
  8
YKK_W4
100
AcDbLine
 10
516.59393954
 20
186.88225775
 30
0.0
 11
529.59393954
 21
186.88225775
 31
0.0
  0
LINE
  5
23E
330
4D4
100
AcDbEntity
  8
YKK_W4
100
AcDbLine
 10
529.59393954
 20
199.88225775
 30
0.0
 11
516.59393954
 21
199.88225775
 31
0.0
  0
LINE
  5
23F
330
4D4
100
AcDbEntity
  8
YKK_W1
100
AcDbLine
 10
515.49393954
 20
180.28225775
 30
0.0
 11
523.89393954
 21
180.28225775
 31
0.0
  0
LINE
  5
240
330
4D4
100
AcDbEntity
  8
YKK_W1
100
AcDbLine
 10
494.29393954
 20
210.08225775
 30
0.0
 11
519.09393954
 21
210.08225775
 31
0.0
  0
LINE
  5
241
330
4D4
100
AcDbEntity
  8
YKK_W1
100
AcDbLine
 10
519.09393954
 20
208.48225775
 30
0.0
 11
495.09393954
 21
208.48225775
 31
0.0
  0
LINE
  5
242
330
4D4
100
AcDbEntity
  8
YKK_W1
100
AcDbLine
 10
495.89393954
 20
206.88225775
 30
0.0
 11
519.09393954
 21
206.88225775
 31
0.0
  0
LINE
  5
243
330
4D4
100
AcDbEntity
  8
YKK_D
100
AcDbLine
 10
435.89397484
 20
209.28225583
 30
0.0
 11
435.89397484
 21
149.28225583
 31
0.0
  0
LINE
  5
244
330
4D4
100
AcDbEntity
  8
YKK_D
100
AcDbLine
 10
415.89394432
 20
205.28225583
 30
0.0
 11
415.89394432
 21
180.28225583
 31
0.0
  0
TEXT
  5
245
330
4D4
100
AcDbEntity
  8
YKK_D
100
AcDbText
 10
414.99395042
 20
188.80058911
 30
0.0
 40
4.35000038
  1
２５
 50
90.0000025
 41
0.76628346
100
AcDbText
  0
LINE
  5
246
330
4D4
100
AcDbEntity
  8
YKK_W4
100
AcDbLine
 10
516.59393954
 20
200.88225775
 30
0.0
 11
516.59393954
 21
185.88225775
 31
0.0
  0
LINE
  5
247
330
4D4
100
AcDbEntity
  8
YKK_W1
100
AcDbLine
 10
515.09393954
 20
203.88225775
 30
0.0
 11
515.09393954
 21
181.68225775
 31
0.0
  0
LINE
  5
248
330
4D4
100
AcDbEntity
  8
YKK_W1
100
AcDbLine
 10
513.89393954
 20
203.68225775
 30
0.0
 11
513.89393954
 21
181.88225775
 31
0.0
  0
LINE
  5
249
330
4D4
100
AcDbEntity
  8
YKK_W1
100
AcDbLine
 10
506.69393954
 20
203.88225775
 30
0.0
 11
506.69393954
 21
181.68225775
 31
0.0
  0
LINE
  5
24A
330
4D4
100
AcDbEntity
  8
YKK_W1
100
AcDbLine
 10
506.19393954
 20
204.08225775
 30
0.0
 11
506.19393954
 21
181.48225775
 31
0.0
  0
LINE
  5
24B
330
4D4
100
AcDbEntity
  8
YKK_W1
100
AcDbLine
 10
507.89393954
 20
203.68225775
 30
0.0
 11
507.89393954
 21
181.88225775
 31
0.0
  0
LINE
  5
24C
330
4D4
100
AcDbEntity
  8
YKK_W1
100
AcDbLine
 10
442.89393954
 20
182.68225775
 30
0.0
 11
506.19393954
 21
182.68225775
 31
0.0
  0
LINE
  5
24D
330
4D4
100
AcDbEntity
  8
YKK_W1
100
AcDbLine
 10
442.89393954
 20
181.48225775
 30
0.0
 11
506.49393954
 21
181.48225775
 31
0.0
  0
LINE
  5
24E
330
4D4
100
AcDbEntity
  8
YKK_D
100
AcDbLine
 10
415.89394432
 20
177.28225583
 30
0.0
 11
415.89394432
 21
149.28225583
 31
0.0
  0
LINE
  5
257
330
4D4
100
AcDbEntity
  8
YKK_D
100
AcDbLine
 10
396.11799961
 20
149.28225583
 30
0.0
 11
436.39397484
 21
149.28225583
 31
0.0
  0
LINE
  5
258
330
4D4
100
AcDbEntity
  8
YKK_D
100
AcDbLine
 10
396.11799961
 20
149.28225583
 30
0.0
 11
416.39394432
 21
149.28225583
 31
0.0
  0
TEXT
  5
259
330
4D4
100
AcDbEntity
  8
YKK_D
100
AcDbText
 10
414.99395042
 20
159.30058911
 30
0.0
 40
4.35000038
  1
２８
 50
90.0000025
 41
0.76628346
100
AcDbText
  0
LINE
  5
25A
330
4D4
100
AcDbEntity
  8
YKK_D
100
AcDbLine
 10
396.11799961
 20
180.28225583
 30
0.0
 11
416.39394432
 21
180.28225583
 31
0.0
  0
LINE
  5
25B
330
4D4
100
AcDbEntity
  8
YKK_D
100
AcDbLine
 10
396.11799961
 20
177.28225583
 30
0.0
 11
416.39394432
 21
177.28225583
 31
0.0
  0
TEXT
  5
264
330
4D4
100
AcDbEntity
  8
YKK_D
100
AcDbText
 10
414.99395042
 20
176.80058911
 30
0.0
 40
4.35000038
  1
３
 50
90.0000025
 41
0.76628346
100
AcDbText
  0
LINE
  5
26D
330
4D4
100
AcDbEntity
  8
YKK_D
100
AcDbLine
 10
415.89394432
 20
180.28225583
 30
0.0
 11
415.89394432
 21
177.28225583
 31
0.0
  0
TEXT
  5
26E
330
4D4
100
AcDbEntity
  8
YKK_D
100
AcDbText
 10
434.99395042
 20
175.30058911
 30
0.0
 40
4.35000038
  1
６０
 50
90.0000025
 41
0.76628346
100
AcDbText
  0
TEXT
  5
26F
330
4D4
100
AcDbEntity
  8
YKK_D
100
AcDbText
 10
505.93058036
 20
110.38225431
 30
0.0
 40
10.0
  1
Ｗ
100
AcDbText
  0
LINE
  5
270
330
4D4
100
AcDbEntity
  8
YKK_W1
100
AcDbLine
 10
506.29393954
 20
180.28225775
 30
0.0
 11
497.89393954
 21
180.28225775
 31
0.0
  0
LINE
  5
271
330
4D4
100
AcDbEntity
  8
YKK_W1
100
AcDbLine
 10
497.89393954
 20
180.28225775
 30
0.0
 11
497.89393954
 21
181.48225775
 31
0.0
  0
LINE
  5
272
330
4D4
100
AcDbEntity
  8
YKK_W1
100
AcDbLine
 10
515.59393954
 20
185.88225775
 30
0.0
 11
515.59393954
 21
181.48225775
 31
0.0
  0
ARC
  5
273
330
4D4
100
AcDbEntity
  8
YKK_W1
100
AcDbCircle
 10
506.49393954
 20
181.68225775
 30
0.0
 40
0.2
100
AcDbArc
 50
270.0
 51
0.0
  0
ARC
  5
274
330
4D4
100
AcDbEntity
  8
YKK_W1
100
AcDbCircle
 10
506.29393954
 20
181.88225775
 30
0.0
 40
1.6
100
AcDbArc
 50
270.0
 51
0.0
  0
ARC
  5
275
330
4D4
100
AcDbEntity
  8
YKK_W1
100
AcDbCircle
 10
515.49393954
 20
181.88225775
 30
0.0
 40
1.6
100
AcDbArc
 50
180.0
 51
270.0
  0
ARC
  5
276
330
4D4
100
AcDbEntity
  8
YKK_W1
100
AcDbCircle
 10
515.29393954
 20
181.68225775
 30
0.0
 40
0.2
100
AcDbArc
 50
180.0
 51
270.0
  0
LINE
  5
277
330
4D4
100
AcDbEntity
  8
YKK_W4
100
AcDbLine
 10
516.59393954
 20
185.88225775
 30
0.0
 11
515.09393954
 21
185.88225775
 31
0.0
  0
LINE
  5
278
330
4D4
100
AcDbEntity
  8
YKK_W1
100
AcDbLine
 10
442.89393954
 20
205.28225775
 30
0.0
 11
506.29393954
 21
205.28225775
 31
0.0
  0
LINE
  5
279
330
4D4
100
AcDbEntity
  8
YKK_W1
100
AcDbLine
 10
442.89393954
 20
204.08225775
 30
0.0
 11
506.49393954
 21
204.08225775
 31
0.0
  0
LINE
  5
27A
330
4D4
100
AcDbEntity
  8
YKK_W3
100
AcDbLine
 10
442.89393954
 20
207.68225775
 30
0.0
 11
492.69393954
 21
207.68225775
 31
0.0
  0
LINE
  5
27B
330
4D4
100
AcDbEntity
  8
YKK_D
100
AcDbLine
 10
396.11800057
 20
209.28225583
 30
0.0
 11
436.39397484
 21
209.28225583
 31
0.0
  0
LINE
  5
27C
330
4D4
100
AcDbEntity
  8
YKK_D
100
AcDbLine
 10
396.11800057
 20
209.28225583
 30
0.0
 11
416.39394432
 21
209.28225583
 31
0.0
  0
TEXT
  5
285
330
4D4
100
AcDbEntity
  8
YKK_D
100
AcDbText
 10
414.99395042
 20
209.90080884
 30
0.0
 40
4.35000038
  1
４
 50
90.0000025
 41
0.76628346
100
AcDbText
  0
LINE
  5
286
330
4D4
100
AcDbEntity
  8
YKK_D
100
AcDbLine
 10
415.89394432
 20
214.28247613
 30
0.0
 11
415.89394432
 21
205.28225583
 31
0.0
  0
TEXT
  5
28F
330
4D4
100
AcDbEntity
  8
YKK_D
100
AcDbText
 10
420.5285723
 20
242.78225583
 30
0.0
 40
10.0
  1
ＤＷ
100
AcDbText
  0
TEXT
  5
290
330
4D4
100
AcDbEntity
  8
YKK_D
100
AcDbText
 10
442.70985905
 20
242.78225583
 30
0.0
 40
5.0
  1
１
100
AcDbText
  0
LINE
  5
291
330
4D4
100
AcDbEntity
  8
YKK_D
100
AcDbLine
 10
507.8939138
 20
214.28225774
 30
0.0
 11
507.8939138
 21
243.28225583
 31
0.0
  0
LINE
  5
292
330
4D4
100
AcDbEntity
  8
YKK_D
100
AcDbLine
 10
513.8939138
 20
214.28225774
 30
0.0
 11
513.8939138
 21
243.28225583
 31
0.0
  0
ARC
  5
293
330
4D4
100
AcDbEntity
  8
YKK_W1
100
AcDbCircle
 10
495.89393954
 20
206.88225775
 30
0.0
 40
1.6
100
AcDbArc
 50
90.0
 51
270.0
  0
ARC
  5
294
330
4D4
100
AcDbEntity
  8
YKK_W1
100
AcDbCircle
 10
495.09393954
 20
207.68225775
 30
0.0
 40
0.8
100
AcDbArc
 50
90.0
 51
180.0
  0
ARC
  5
295
330
4D4
100
AcDbEntity
  8
YKK_W1
100
AcDbCircle
 10
494.29393954
 20
208.48225775
 30
0.0
 40
1.6
100
AcDbArc
 50
90.0
 51
180.0
  0
LINE
  5
296
330
4D4
100
AcDbEntity
  8
YKK_W1
100
AcDbLine
 10
492.69393954
 20
205.28225775
 30
0.0
 11
492.69393954
 21
208.48225775
 31
0.0
  0
LINE
  5
297
330
4D4
100
AcDbEntity
  8
YKK_W1
100
AcDbLine
 10
494.29393954
 20
207.68225775
 30
0.0
 11
494.29393954
 21
205.28225775
 31
0.0
  0
ARC
  5
298
330
4D4
100
AcDbEntity
  8
YKK_W1
100
AcDbCircle
 10
506.29393954
 20
203.68225775
 30
0.0
 40
1.6
100
AcDbArc
 50
0.0
 51
90.0
  0
ARC
  5
299
330
4D4
100
AcDbEntity
  8
YKK_W1
100
AcDbCircle
 10
515.49393954
 20
203.68225775
 30
0.0
 40
1.6
100
AcDbArc
 50
90.0
 51
180.0
  0
ARC
  5
29A
330
4D4
100
AcDbEntity
  8
YKK_W1
100
AcDbCircle
 10
506.49393954
 20
203.88225775
 30
0.0
 40
0.2
100
AcDbArc
 50
0.0
 51
90.0
  0
LINE
  5
29B
330
4D4
100
AcDbEntity
  8
YKK_W1
100
AcDbLine
 10
515.59393954
 20
204.08225775
 30
0.0
 11
515.59393954
 21
200.88225775
 31
0.0
  0
ARC
  5
29C
330
4D4
100
AcDbEntity
  8
YKK_W1
100
AcDbCircle
 10
515.29393954
 20
203.88225775
 30
0.0
 40
0.2
100
AcDbArc
 50
90.0
 51
180.0
  0
LINE
  5
29D
330
4D4
100
AcDbEntity
  8
YKK_W4
100
AcDbLine
 10
515.09393954
 20
200.88225775
 30
0.0
 11
516.59393954
 21
200.88225775
 31
0.0
  0
LINE
  5
29E
330
4D4
100
AcDbEntity
  8
YKK_W1
100
AcDbLine
 10
507.19393954
 20
206.88225775
 30
0.0
 11
507.19393954
 21
205.28225775
 31
0.0
  0
TEXT
  5
29F
330
4D4
100
AcDbEntity
  8
YKK_D
100
AcDbText
 10
508.91224708
 20
243.68224973
 30
0.0
 40
4.35000038
  1
６
 41
0.76628346
100
AcDbText
  0
LINE
  5
2A0
330
4D4
100
AcDbEntity
  8
YKK_D
100
AcDbLine
 10
507.8939138
 20
242.78225583
 30
0.0
 11
513.8939138
 21
242.78225583
 31
0.0
  0
LINE
  5
2B1
330
4D4
100
AcDbEntity
  8
YKK_W4
100
AcDbLine
 10
529.59393954
 20
199.88225775
 30
0.0
 11
529.59393954
 21
186.88225775
 31
0.0
  0
LINE
  5
2B2
330
4D4
100
AcDbEntity
  8
YKK_W4
  6
ITTENSAP
100
AcDbLine
 10
524.59393954
 20
188.88225775
 30
0.0
 11
524.59393954
 21
197.88225775
 31
0.0
  0
CIRCLE
  5
2B3
330
4D4
100
AcDbEntity
  8
YKK_W4
100
AcDbCircle
 10
524.59393954
 20
193.38225775
 30
0.0
 40
2.5
  0
CIRCLE
  5
2B4
330
4D4
100
AcDbEntity
  8
YKK_W4
100
AcDbCircle
 10
524.59393954
 20
193.38225775
 30
0.0
 40
2.0
  0
LINE
  5
2B5
330
4D4
100
AcDbEntity
  8
YKK_W1
100
AcDbLine
 10
523.89393954
 20
181.48225775
 30
0.0
 11
523.89393954
 21
180.28225775
 31
0.0
  0
LINE
  5
2B6
330
4D4
100
AcDbEntity
  8
YKK_W4
  6
ITTENSAP
100
AcDbLine
 10
520.09393954
 20
193.38225775
 30
0.0
 11
529.09393954
 21
193.38225775
 31
0.0
  0
ARC
  5
2B7
330
4D4
100
AcDbEntity
  8
YKK_W1
100
AcDbCircle
 10
637.49393954
 20
150.88225775
 30
0.0
 40
1.600000000000008
100
AcDbArc
 50
180.0
 51
270.0
  0
LINE
  5
2B8
330
4D4
100
AcDbEntity
  8
YKK_D
100
AcDbLine
 10
635.8939138
 20
146.28225774
 30
0.0
 11
635.8939138
 21
108.78225583
 31
0.0
  0
LINE
  5
2B9
330
4D4
100
AcDbEntity
  8
YKK_D
100
AcDbLine
 10
635.8939138
 20
144.28225583
 30
0.0
 11
635.8939138
 21
108.78225583
 31
0.0
  0
LINE
  5
2BA
330
4D4
100
AcDbEntity
  8
YKK_D
100
AcDbLine
 10
635.8939138
 20
109.28225583
 30
0.0
 11
628.96575218
 21
113.28225583
 31
0.0
  0
LINE
  5
2BF
330
4D4
100
AcDbEntity
  8
YKK_W3
100
AcDbLine
 10
581.89393954
 20
177.28225775
 30
0.0
 11
637.39393954
 21
177.28225775
 31
0.0
  0
LINE
  5
2C0
330
4D4
100
AcDbEntity
  8
YKK_W3
100
AcDbLine
 10
581.89393954
 20
150.88225775
 30
0.0
 11
635.89393954
 21
150.88225775
 31
0.0
  0
LINE
  5
2C1
330
4D4
100
AcDbEntity
  8
YKK_W1
100
AcDbLine
 10
637.49393954
 20
175.68225775
 30
0.0
 11
637.49393954
 21
150.88225775
 31
0.0
  0
LINE
  5
2C2
330
4D4
100
AcDbEntity
  8
YKK_W1
100
AcDbLine
 10
635.89393954
 20
150.88225775
 30
0.0
 11
635.89393954
 21
175.68225775
 31
0.0
  0
ARC
  5
2C3
330
4D4
100
AcDbEntity
  8
YKK_W1
100
AcDbCircle
 10
637.49393954
 20
175.68225775
 30
0.0
 40
1.599999999999909
100
AcDbArc
 50
90.0
 51
180.0
  0
LINE
  5
2C4
330
4D4
100
AcDbEntity
  8
YKK_W1
100
AcDbLine
 10
636.89393954
 20
181.48225775
 30
0.0
 11
636.89393954
 21
180.28225775
 31
0.0
  0
TEXT
  5
2C5
330
4D4
100
AcDbEntity
  8
YKK_D
100
AcDbText
 10
573.02860282
 20
242.78225583
 30
0.0
 40
10.0
  1
ＤＷ
100
AcDbText
  0
LINE
  5
2C6
330
4D4
100
AcDbEntity
  8
YKK_W3
100
AcDbLine
 10
578.89393954
 20
207.68225775
 30
0.0
 11
520.47958018
 21
207.68225775
 31
0.0
  0
ARC
  5
2C7
330
4D4
100
AcDbEntity
  8
YKK_W1
100
AcDbCircle
 10
519.09393954
 20
208.48225775
 30
0.0
 40
1.6
100
AcDbArc
 50
270.0
 51
90.0
  0
TEXT
  5
2C8
330
4D4
100
AcDbEntity
  8
YKK_D
100
AcDbText
 10
595.20992008
 20
242.78225583
 30
0.0
 40
5.0
  1
２
100
AcDbText
  0
CIRCLE
  5
2C9
330
4D4
100
AcDbEntity
  8
YKK_ZWAK
  6
Continuous
 62
     8
100
AcDbCircle
 10
781.7964182
 20
104.6080028
 30
0.0
 40
8.819999999999998
  0
LINE
  5
2CA
330
4D4
100
AcDbEntity
  8
YKK_ZWAK
  6
Continuous
 62
   254
100
AcDbLine
 10
764.8775456
 20
34.2833316
 30
0.0
 11
768.6616896
 21
34.2833316
 31
0.0
  0
LINE
  5
2CB
330
4D4
100
AcDbEntity
  8
YKK_ZWAK
  6
Continuous
 62
   254
100
AcDbLine
 10
766.200617
 20
29.174747
 30
0.0
 11
765.1613774
 21
29.174747
 31
0.0
  0
LINE
  5
2CC
330
4D4
100
AcDbEntity
  8
YKK_ZWAK
  6
Continuous
 62
   254
100
AcDbLine
 10
768.3643912
 20
21.9037574
 30
0.0
 11
765.201906
 21
21.9037574
 31
0.0
  0
ARC
  5
2CD
330
4D4
100
AcDbEntity
  8
YKK_ZWAK
  6
Continuous
 62
   254
100
AcDbCircle
 10
764.67176845
 20
15.55972371
 30
0.0
 40
4.34110605765921
100
AcDbArc
 50
14.44572328
 51
87.08746338
  0
LINE
  5
2CE
330
4D4
100
AcDbEntity
  8
YKK_ZWAK
  6
Continuous
 62
   254
100
AcDbLine
 10
768.2832696
 20
33.6346108
 30
0.0
 11
765.1613774
 21
29.174747
 31
0.0
  0
LINE
  5
2CF
330
4D4
100
AcDbEntity
  8
YKK_ZWAK
  6
Continuous
 62
   254
100
AcDbLine
 10
764.796487
 20
5.8752204
 30
0.0
 11
765.8776272
 21
6.1184592
 31
0.0
  0
ARC
  5
2D0
330
4D4
100
AcDbEntity
  8
YKK_ZWAK
  6
Continuous
 62
   254
100
AcDbCircle
 10
746.5089226
 20
15.51474865
 30
0.0
 40
4.611623791769605
100
AcDbArc
 50
358.78059045
 51
38.76562608
  0
LINE
  5
2D1
330
4D4
100
AcDbEntity
  8
YKK_ZWAK
  6
Continuous
 62
   254
100
AcDbLine
 10
753.2278138
 20
19.903597
 30
0.0
 11
753.2278138
 21
0.7936334
 31
0.0
  0
ARC
  5
2D2
330
4D4
100
AcDbEntity
  8
YKK_ZWAK
  6
Continuous
 62
   254
100
AcDbCircle
 10
740.15928536
 20
15.83435216
 30
0.0
 40
5.037359110950339
100
AcDbArc
 50
158.41083245
 51
179.71775245
  0
LINE
  5
2D3
330
4D4
100
AcDbEntity
  8
YKK_ZWAK
  6
Continuous
 62
   254
100
AcDbLine
 10
704.1996668
 20
35.0000014
 30
0.0
 11
704.1996668
 21
0.0
 31
0.0
  0
LINE
  5
2D4
330
4D4
100
AcDbEntity
  8
YKK_ZWAK
  6
Continuous
 62
   254
100
AcDbLine
 10
732.2000168
 20
35.0000014
 30
0.0
 11
732.2000168
 21
0.0
 31
0.0
  0
LINE
  5
2D5
330
4D4
100
AcDbEntity
  8
YKK_ZWAK
  6
Continuous
 62
   131
100
AcDbLine
 10
648.75985776
 20
2.1
 30
0.0
 11
648.75985776
 21
0.0
 31
0.0
  0
LINE
  5
2D6
330
4D4
100
AcDbEntity
  8
YKK_ZWAK
  6
Continuous
 62
   131
100
AcDbLine
 10
643.71987512
 20
2.1
 30
0.0
 11
643.71987512
 21
0.0
 31
0.0
  0
LINE
  5
2D7
330
4D4
100
AcDbEntity
  8
YKK_ZWAK
  6
Continuous
 62
   131
100
AcDbLine
 10
653.7998404
 20
2.1
 30
0.0
 11
653.7998404
 21
0.0
 31
0.0
  0
LINE
  5
2D8
330
4D4
100
AcDbEntity
  8
YKK_ZWAK
  6
Continuous
 62
   131
100
AcDbLine
 10
663.87980568
 20
2.1
 30
0.0
 11
663.87980568
 21
0.0
 31
0.0
  0
LINE
  5
2D9
330
4D4
100
AcDbEntity
  8
YKK_ZWAK
  6
Continuous
 62
   131
100
AcDbLine
 10
658.83982304
 20
2.1
 30
0.0
 11
658.83982304
 21
0.0
 31
0.0
  0
LINE
  5
2DA
330
4D4
100
AcDbEntity
  8
YKK_ZWAK
  6
Continuous
 62
   131
100
AcDbLine
 10
668.91978832
 20
2.1
 30
0.0
 11
668.91978832
 21
0.0
 31
0.0
  0
TEXT
  5
2DB
330
4D4
100
AcDbEntity
  8
YKK_ZWAK
  6
Continuous
 62
   131
100
AcDbText
 10
676.37634875
 20
10.83089352
 30
0.0
 40
3.9592
  1
年   月   日
 41
0.9
  7
YKK_OSSTYLE1
100
AcDbText
  0
LINE
  5
2DC
330
4D4
100
AcDbEntity
  8
YKK_ZWAK
  6
Continuous
 62
   131
100
AcDbLine
 10
678.9997536
 20
2.1
 30
0.0
 11
678.9997536
 21
0.0
 31
0.0
  0
LINE
  5
2DD
330
4D4
100
AcDbEntity
  8
YKK_ZWAK
  6
Continuous
 62
   131
100
AcDbLine
 10
673.95977096
 20
2.1
 30
0.0
 11
673.95977096
 21
0.0
 31
0.0
  0
LINE
  5
2DE
330
4D4
100
AcDbEntity
  8
YKK_ZWAK
  6
Continuous
 62
   131
100
AcDbLine
 10
684.03973624
 20
2.1
 30
0.0
 11
684.03973624
 21
0.0
 31
0.0
  0
LINE
  5
2DF
330
4D4
100
AcDbEntity
  8
YKK_ZWAK
  6
Continuous
 62
   131
100
AcDbLine
 10
694.11970152
 20
2.1
 30
0.0
 11
694.11970152
 21
0.0
 31
0.0
  0
LINE
  5
2E0
330
4D4
100
AcDbEntity
  8
YKK_ZWAK
  6
Continuous
 62
   131
100
AcDbLine
 10
689.07971888
 20
2.1
 30
0.0
 11
689.07971888
 21
0.0
 31
0.0
  0
LINE
  5
2E1
330
4D4
100
AcDbEntity
  8
YKK_ZWAK
  6
Continuous
 62
   131
100
AcDbLine
 10
699.15968416
 20
2.1
 30
0.0
 11
699.15968416
 21
0.0
 31
0.0
  0
ARC
  5
2E2
330
4D4
100
AcDbEntity
  8
YKK_ZWAK
  6
Continuous
 62
   254
100
AcDbCircle
 10
745.6488382
 20
6.60518138
 30
0.0
 40
11.08246594050609
100
AcDbArc
 50
168.7637177
 51
199.80079153
  0
ARC
  5
2E3
330
4D4
100
AcDbEntity
  8
YKK_ZWAK
  6
Continuous
 62
   254
100
AcDbCircle
 10
738.626765
 20
8.07254466
 30
0.0
 40
3.908086150713168
100
AcDbArc
 50
121.82711365
 51
169.08474902
  0
LINE
  5
2E4
330
4D4
100
AcDbEntity
  8
YKK_ZWAK
  6
Continuous
 62
   254
100
AcDbLine
 10
704.1996668
 20
16.8007014
 30
0.0
 11
732.2000168
 21
16.8007014
 31
0.0
  0
LINE
  5
2E5
330
4D4
100
AcDbEntity
  8
YKK_ZWAK
  6
Continuous
 62
   131
100
AcDbLine
 10
732.2000168
 20
9.8007
 30
0.0
 11
704.1996668
 21
9.8007
 31
0.0
  0
TEXT
  5
2E6
330
4D4
100
AcDbEntity
  8
YKK_ZWAK
  6
Continuous
 62
   131
100
AcDbText
 10
707.87874225
 20
10.91549064
 30
0.0
 40
4.48
  1
通し図番
 41
0.9
  7
YKK_OSSTYLE1
100
AcDbText
  0
LINE
  5
2E7
330
4D4
100
AcDbEntity
  8
YKK_ZWAK
  6
Continuous
 62
   254
100
AcDbLine
 10
750.7951486
 20
0.7665728
 30
0.0
 11
739.7670574
 21
0.7395108
 31
0.0
  0
LINE
  5
2E8
330
4D4
100
AcDbEntity
  8
YKK_ZWAK
  6
Continuous
 62
   254
100
AcDbLine
 10
746.2271488
 20
4.9291368
 30
0.0
 11
746.2271488
 21
14.6598298
 31
0.0
  0
ARC
  5
2E9
330
4D4
100
AcDbEntity
  8
YKK_ZWAK
  6
Continuous
 62
   254
100
AcDbCircle
 10
741.78219579
 20
6.67194136
 30
0.0
 40
2.368496244058476
100
AcDbArc
 50
171.08203026
 51
216.71922793
  0
LINE
  5
2EA
330
4D4
100
AcDbEntity
  8
YKK_ZWAK
  6
Continuous
 62
   254
100
AcDbLine
 10
740.6049686
 20
4.9291368
 30
0.0
 11
746.2271488
 21
4.9291368
 31
0.0
  0
LINE
  5
2EB
330
4D4
100
AcDbEntity
  8
YKK_ZWAK
  6
Continuous
 62
   254
100
AcDbLine
 10
739.7670574
 20
0.7395108
 30
0.0
 11
738.2804352
 21
0.7395108
 31
0.0
  0
ARC
  5
2EC
330
4D4
100
AcDbEntity
  8
YKK_ZWAK
  6
Continuous
 62
   254
100
AcDbCircle
 10
740.85009637
 20
6.43503977
 30
0.0
 40
1.52572188408749
100
AcDbArc
 50
230.97279559
 51
260.75491133
  0
ARC
  5
2ED
330
4D4
100
AcDbEntity
  8
YKK_ZWAK
  6
Continuous
 62
   254
100
AcDbCircle
 10
738.64010098
 20
4.55749264
 30
0.0
 40
3.8229057747627
100
AcDbArc
 50
207.31435415
 51
263.59464075
  0
LINE
  5
2EE
330
4D4
100
AcDbEntity
  8
YKK_ZWAK
  6
Continuous
 62
   254
100
AcDbLine
 10
746.2271488
 20
4.9302176
 30
0.0
 11
746.2282282
 21
4.9291368
 31
0.0
  0
LINE
  5
2EF
330
4D4
100
AcDbEntity
  8
YKK_ZWAK
  6
Continuous
 62
   254
100
AcDbLine
 10
745.7946566
 20
4.9291368
 30
0.0
 11
746.146058
 21
4.9291368
 31
0.0
  0
LINE
  5
2F0
330
4D4
100
AcDbEntity
  8
YKK_ZWAK
  6
Continuous
 62
   254
100
AcDbLine
 10
744.8756574
 20
8.470042
 30
0.0
 11
740.8812488
 21
8.4654178
 31
0.0
  0
LINE
  5
2F1
330
4D4
100
AcDbEntity
  8
YKK_ZWAK
  6
Continuous
 62
   254
100
AcDbLine
 10
745.145947
 20
15.7950296
 30
0.0
 11
741.44825396
 21
15.72506826
 31
0.0
  0
ARC
  5
2F2
330
4D4
100
AcDbEntity
  8
YKK_ZWAK
  6
Continuous
 62
   254
100
AcDbCircle
 10
741.72033365
 20
-0.85392779
 30
0.0
 40
13.3089797551028
100
AcDbArc
 50
79.38097908
 51
112.0582515
  0
ARC
  5
2F3
330
4D4
100
AcDbEntity
  8
YKK_ZWAK
  6
Continuous
 62
   254
100
AcDbCircle
 10
741.31496171
 20
14.02934432
 30
0.0
 40
1.700954585808626
100
AcDbArc
 50
85.50551117
 51
126.78038212
  0
ARC
  5
2F4
330
4D4
100
AcDbEntity
  8
YKK_ZWAK
  6
Continuous
 62
   254
100
AcDbCircle
 10
741.87538001
 20
13.99306162
 30
0.0
 40
2.10926589054342
100
AcDbArc
 50
138.46381796
 51
181.71359389
  0
LINE
  5
2F5
330
4D4
100
AcDbEntity
  8
YKK_ZWAK
  6
Continuous
 62
   254
100
AcDbLine
 10
735.117971
 20
13.9299874
 30
0.0
 11
735.117971
 21
15.85916684
 31
0.0
  0
LINE
  5
2F6
330
4D4
100
AcDbEntity
  8
YKK_ZWAK
  6
Continuous
 62
   254
100
AcDbLine
 10
739.7670574
 20
13.9299874
 30
0.0
 11
735.117971
 21
13.9299874
 31
0.0
  0
ARC
  5
2F7
330
4D4
100
AcDbEntity
  8
YKK_ZWAK
  6
Continuous
 62
   254
100
AcDbCircle
 10
740.88981029
 20
7.0206651
 30
0.0
 40
1.444778071622274
100
AcDbArc
 50
90.33952634
 51
178.0363902
  0
LINE
  5
2F8
330
4D4
100
AcDbEntity
  8
YKK_ZWAK
  6
Continuous
 62
   254
100
AcDbLine
 10
744.1728812
 20
12.2271254
 30
0.0
 11
744.8756574
 21
12.0649452
 31
0.0
  0
ARC
  5
2F9
330
4D4
100
AcDbEntity
  8
YKK_ZWAK
  6
Continuous
 62
   254
100
AcDbCircle
 10
744.65604523
 20
14.2459795
 30
0.0
 40
1.624672258159007
100
AcDbArc
 50
14.7551995
 51
72.44994796
  0
LINE
  5
2FA
330
4D4
100
AcDbEntity
  8
YKK_ZWAK
  6
Continuous
 62
   254
100
AcDbLine
 10
744.8756574
 20
12.0649452
 30
0.0
 11
744.8756574
 21
8.470042
 31
0.0
  0
LINE
  5
2FB
330
4D4
100
AcDbEntity
  8
YKK_ZWAK
  6
Continuous
 62
   254
100
AcDbLine
 10
759.4716612
 20
10.0107238
 30
0.0
 11
759.4716612
 21
5.8752204
 31
0.0
  0
LINE
  5
2FC
330
4D4
100
AcDbEntity
  8
YKK_ZWAK
  6
Continuous
 62
   254
100
AcDbLine
 10
751.1195048
 20
15.4166082
 30
0.0
 11
751.1195048
 21
0.8206324
 31
0.0
  0
LINE
  5
2FD
330
4D4
100
AcDbEntity
  8
YKK_ZWAK
  6
Continuous
 62
   254
100
AcDbLine
 10
758.2553244
 20
0.7936334
 30
0.0
 11
758.2553244
 21
15.7409686
 31
0.0
  0
LINE
  5
2FE
330
4D4
100
AcDbEntity
  8
YKK_ZWAK
  6
Continuous
 62
   254
100
AcDbLine
 10
757.4714574
 20
0.7936334
 30
0.0
 11
758.2553244
 21
0.7936334
 31
0.0
  0
LINE
  5
2FF
330
4D4
100
AcDbEntity
  8
YKK_ZWAK
  6
Continuous
 62
   254
100
AcDbLine
 10
753.2278138
 20
0.7936334
 30
0.0
 11
757.4714574
 21
0.7936334
 31
0.0
  0
LINE
  5
300
330
4D4
100
AcDbEntity
  8
YKK_ZWAK
  6
Continuous
 62
   254
100
AcDbLine
 10
751.1195048
 20
0.8206324
 30
0.0
 11
750.7951486
 21
0.7665728
 31
0.0
  0
LINE
  5
301
330
4D4
100
AcDbEntity
  8
YKK_ZWAK
  6
Continuous
 62
   254
100
AcDbLine
 10
759.4716612
 20
5.8752204
 30
0.0
 11
764.796487
 21
5.8752204
 31
0.0
  0
LINE
  5
302
330
4D4
100
AcDbEntity
  8
YKK_ZWAK
  6
Continuous
 62
   254
100
AcDbLine
 10
764.3732194
 20
14.2435412
 30
0.0
 11
764.391005
 21
11.60936871
 31
0.0
  0
ARC
  5
303
330
4D4
100
AcDbEntity
  8
YKK_ZWAK
  6
Continuous
 62
   254
100
AcDbCircle
 10
760.73123094
 20
13.79237255
 30
0.0
 40
3.673387293269127
100
AcDbArc
 50
4.93422741
 51
17.03551963
  0
ARC
  5
304
330
4D4
100
AcDbEntity
  8
YKK_ZWAK
  6
Continuous
 62
   254
100
AcDbCircle
 10
763.06473301
 20
14.52093328
 30
0.0
 40
1.228897466365798
100
AcDbArc
 50
16.43123457
 51
96.91661396
  0
ARC
  5
305
330
4D4
100
AcDbEntity
  8
YKK_ZWAK
  6
Continuous
 62
   254
100
AcDbCircle
 10
763.0135362
 20
11.31647001
 30
0.0
 40
1.305746617034933
100
AcDbArc
 50
269.95468111
 51
342.90144849
  0
ARC
  5
306
330
4D4
100
AcDbEntity
  8
YKK_ZWAK
  6
Continuous
 62
   254
100
AcDbCircle
 10
760.70979412
 20
11.95901456
 30
0.0
 40
3.696697411836961
100
AcDbArc
 50
343.69020327
 51
354.7536235
  0
LINE
  5
307
330
4D4
100
AcDbEntity
  8
YKK_ZWAK
  6
Continuous
 62
   254
100
AcDbLine
 10
763.0125034
 20
10.0107238
 30
0.0
 11
759.4716612
 21
10.0107238
 31
0.0
  0
LINE
  5
308
330
4D4
100
AcDbEntity
  8
YKK_ZWAK
  6
Continuous
 62
   254
100
AcDbLine
 10
758.2553244
 20
15.7409686
 30
0.0
 11
762.9043842
 21
15.7409686
 31
0.0
  0
LINE
  5
309
330
4D4
100
AcDbEntity
  8
YKK_ZWAK
  6
Continuous
 62
   254
100
AcDbLine
 10
734.0367692
 20
34.0941524
 30
0.0
 11
737.5506362
 21
34.0941524
 31
0.0
  0
LINE
  5
30A
330
4D4
100
AcDbEntity
  8
YKK_ZWAK
  6
Continuous
 62
   254
100
AcDbLine
 10
738.6318142
 20
26.201441
 30
0.0
 11
734.0367692
 21
34.0941524
 31
0.0
  0
LINE
  5
30B
330
4D4
100
AcDbEntity
  8
YKK_ZWAK
  6
Continuous
 62
   131
100
AcDbLine
 10
704.1996668
 20
28.0000014
 30
0.0
 11
732.2000168
 21
28.0000014
 31
0.0
  0
TEXT
  5
30C
330
4D4
100
AcDbEntity
  8
YKK_ZWAK
  6
Continuous
 62
   131
100
AcDbText
 10
710.39767177
 20
29.13786682
 30
0.0
 40
4.48
  1
図　番
 41
0.9
  7
YKK_OSSTYLE1
100
AcDbText
  0
LINE
  5
30D
330
4D4
100
AcDbEntity
  8
YKK_ZWAK
  6
Continuous
 62
   254
100
AcDbLine
 10
753.1737458
 20
26.4176822
 30
0.0
 11
749.9842588
 21
26.4176822
 31
0.0
  0
LINE
  5
30E
330
4D4
100
AcDbEntity
  8
YKK_ZWAK
  6
Continuous
 62
   254
100
AcDbLine
 10
749.8761508
 20
29.0767274
 30
0.0
 11
753.2548366
 21
34.229272
 31
0.0
  0
LINE
  5
30F
330
4D4
100
AcDbEntity
  8
YKK_ZWAK
  6
Continuous
 62
   254
100
AcDbLine
 10
746.6596144
 20
21.7686378
 30
0.0
 11
746.6596144
 21
34.1752124
 31
0.0
  0
LINE
  5
310
330
4D4
100
AcDbEntity
  8
YKK_ZWAK
  6
Continuous
 62
   254
100
AcDbLine
 10
746.462115
 20
34.20221
 30
0.0
 11
741.9294372
 21
26.174442
 31
0.0
  0
ARC
  5
311
330
4D4
100
AcDbEntity
  8
YKK_ZWAK
  6
Continuous
 62
   254
100
AcDbCircle
 10
742.92220794
 20
2.59893493
 30
0.0
 40
17.68008828611943
100
AcDbArc
 50
89.89164773
 51
109.30848271
  0
LINE
  5
312
330
4D4
100
AcDbEntity
  8
YKK_ZWAK
  6
Continuous
 62
   254
100
AcDbLine
 10
741.9294372
 20
26.174442
 30
0.0
 11
741.9294372
 21
21.7415772
 31
0.0
  0
LINE
  5
313
330
4D4
100
AcDbEntity
  8
YKK_ZWAK
  6
Continuous
 62
   254
100
AcDbLine
 10
741.9294372
 20
21.7415772
 30
0.0
 11
738.6318142
 21
21.7415772
 31
0.0
  0
LINE
  5
314
330
4D4
100
AcDbEntity
  8
YKK_ZWAK
  6
Continuous
 62
   254
100
AcDbLine
 10
738.6318142
 20
21.7415772
 30
0.0
 11
738.6318142
 21
26.201441
 31
0.0
  0
ARC
  5
315
330
4D4
100
AcDbEntity
  8
YKK_ZWAK
  6
Continuous
 62
   254
100
AcDbCircle
 10
737.80646595
 20
16.94459453
 30
0.0
 40
2.443647515679662
100
AcDbArc
 50
109.02126645
 51
161.5126404
  0
LINE
  5
316
330
4D4
100
AcDbEntity
  8
YKK_ZWAK
  6
Continuous
 62
   254
100
AcDbLine
 10
749.9842588
 20
26.4176822
 30
0.0
 11
749.9842588
 21
21.7686378
 31
0.0
  0
LINE
  5
317
330
4D4
100
AcDbEntity
  8
YKK_ZWAK
  6
Continuous
 62
   254
100
AcDbLine
 10
749.9842588
 20
21.7686378
 30
0.0
 11
746.6596144
 21
21.7686378
 31
0.0
  0
ARC
  5
318
330
4D4
100
AcDbEntity
  8
YKK_ZWAK
  6
Continuous
 62
   254
100
AcDbCircle
 10
746.73031337
 20
15.50351314
 30
0.0
 40
4.448479416583055
100
AcDbArc
 50
40.66422291
 51
80.31693569
  0
ARC
  5
319
330
4D4
100
AcDbEntity
  8
YKK_ZWAK
  6
Continuous
 62
   254
100
AcDbCircle
 10
743.44144079
 20
-0.46310878
 30
0.0
 40
20.74827378314429
100
AcDbArc
 50
78.78009532
 51
91.46937906
  0
LINE
  5
31A
330
4D4
100
AcDbEntity
  8
YKK_ZWAK
  6
Continuous
 62
   254
100
AcDbLine
 10
742.8360506
 20
34.20221
 30
0.0
 11
740.2806124
 21
29.2288066
 31
0.0
  0
LINE
  5
31B
330
4D4
100
AcDbEntity
  8
YKK_ZWAK
  6
Continuous
 62
   254
100
AcDbLine
 10
740.0643908
 20
29.3909868
 30
0.0
 11
740.2806124
 21
29.2288066
 31
0.0
  0
LINE
  5
31C
330
4D4
100
AcDbEntity
  8
YKK_ZWAK
  6
Continuous
 62
   254
100
AcDbLine
 10
737.5506362
 20
34.0941524
 30
0.0
 11
740.0643908
 21
29.3909868
 31
0.0
  0
LINE
  5
31D
330
4D4
100
AcDbEntity
  8
YKK_ZWAK
  6
Continuous
 62
   254
100
AcDbLine
 10
746.6596144
 20
34.1752124
 30
0.0
 11
749.8761508
 21
34.1752124
 31
0.0
  0
LINE
  5
31E
330
4D4
100
AcDbEntity
  8
YKK_ZWAK
  6
Continuous
 62
   254
100
AcDbLine
 10
749.8761508
 20
34.1752124
 30
0.0
 11
749.8761508
 21
29.0767274
 31
0.0
  0
LINE
  5
31F
330
4D4
100
AcDbEntity
  8
YKK_ZWAK
  6
Continuous
 62
   254
100
AcDbLine
 10
742.8360506
 20
34.20221
 30
0.0
 11
746.462115
 21
34.20221
 31
0.0
  0
ARC
  5
320
330
4D4
100
AcDbEntity
  8
YKK_ZWAK
  6
Continuous
 62
   254
100
AcDbCircle
 10
754.57920743
 20
26.93115904
 30
0.0
 40
2.162466367416002
100
AcDbArc
 50
0.00166292
 51
89.99603715
  0
LINE
  5
321
330
4D4
100
AcDbEntity
  8
YKK_ZWAK
  6
Continuous
 62
   254
100
AcDbLine
 10
758.1742378
 20
21.8766968
 30
0.0
 11
758.1742378
 21
34.2833316
 31
0.0
  0
LINE
  5
322
330
4D4
100
AcDbEntity
  8
YKK_ZWAK
  6
Continuous
 62
   254
100
AcDbLine
 10
764.823486
 20
19.903597
 30
0.0
 11
753.2278138
 21
19.903597
 31
0.0
  0
LINE
  5
323
330
4D4
100
AcDbEntity
  8
YKK_ZWAK
  6
Continuous
 62
   254
100
AcDbLine
 10
756.741657
 20
21.8496978
 30
0.0
 11
753.606238
 21
21.8496978
 31
0.0
  0
LINE
  5
324
330
4D4
100
AcDbEntity
  8
YKK_ZWAK
  6
Continuous
 62
   254
100
AcDbLine
 10
753.606238
 20
21.8496978
 30
0.0
 11
753.606238
 21
26.255502
 31
0.0
  0
LINE
  5
325
330
4D4
100
AcDbEntity
  8
YKK_ZWAK
  6
Continuous
 62
   254
100
AcDbLine
 10
753.606238
 20
26.255502
 30
0.0
 11
753.1737458
 21
26.4176822
 31
0.0
  0
LINE
  5
326
330
4D4
100
AcDbEntity
  8
YKK_ZWAK
  6
Continuous
 62
   254
100
AcDbLine
 10
756.741657
 20
26.9312834
 30
0.0
 11
756.741657
 21
21.8496978
 31
0.0
  0
LINE
  5
327
330
4D4
100
AcDbEntity
  8
YKK_ZWAK
  6
Continuous
 62
   254
100
AcDbLine
 10
765.201906
 20
21.9543548
 30
0.0
 11
765.2525048
 21
21.9037574
 31
0.0
  0
LINE
  5
328
330
4D4
100
AcDbEntity
  8
YKK_ZWAK
  6
Continuous
 62
   254
100
AcDbLine
 10
765.201906
 20
21.9037574
 30
0.0
 11
765.201906
 21
26.2825626
 31
0.0
  0
LINE
  5
329
330
4D4
100
AcDbEntity
  8
YKK_ZWAK
  6
Continuous
 62
   254
100
AcDbLine
 10
761.5799422
 20
26.4447428
 30
0.0
 11
761.5799422
 21
21.8766968
 31
0.0
  0
LINE
  5
32A
330
4D4
100
AcDbEntity
  8
YKK_ZWAK
  6
Continuous
 62
   254
100
AcDbLine
 10
764.7694264
 20
26.4447428
 30
0.0
 11
761.5799422
 21
26.4447428
 31
0.0
  0
LINE
  5
32B
330
4D4
100
AcDbEntity
  8
YKK_ZWAK
  6
Continuous
 62
   254
100
AcDbLine
 10
765.201906
 20
26.2825626
 30
0.0
 11
764.7694264
 21
26.4447428
 31
0.0
  0
LINE
  5
32C
330
4D4
100
AcDbEntity
  8
YKK_ZWAK
  6
Continuous
 62
   254
100
AcDbLine
 10
761.5799422
 20
21.8766968
 30
0.0
 11
758.1742378
 21
21.8766968
 31
0.0
  0
LINE
  5
32D
330
4D4
100
AcDbEntity
  8
YKK_ZWAK
  6
Continuous
 62
   254
100
AcDbLine
 10
753.2548366
 20
34.229272
 30
0.0
 11
757.0799068
 21
34.229272
 31
0.0
  0
LINE
  5
32E
330
4D4
100
AcDbEntity
  8
YKK_ZWAK
  6
Continuous
 62
   254
100
AcDbLine
 10
754.579357
 20
29.0936254
 30
0.0
 11
753.5401174
 21
29.0936254
 31
0.0
  0
LINE
  5
32F
330
4D4
100
AcDbEntity
  8
YKK_ZWAK
  6
Continuous
 62
   254
100
AcDbLine
 10
757.0799068
 20
34.229272
 30
0.0
 11
753.5401174
 21
29.0936254
 31
0.0
  0
LINE
  5
330
330
4D4
100
AcDbEntity
  8
YKK_ZWAK
  6
Continuous
 62
   254
100
AcDbLine
 10
758.1742378
 20
34.2833316
 30
0.0
 11
761.444761
 21
34.2833316
 31
0.0
  0
LINE
  5
331
330
4D4
100
AcDbEntity
  8
YKK_ZWAK
  6
Continuous
 62
   254
100
AcDbLine
 10
761.444761
 20
34.2833316
 30
0.0
 11
761.444761
 21
29.0916304
 31
0.0
  0
LINE
  5
332
330
4D4
100
AcDbEntity
  8
YKK_ZWAK
  6
Continuous
 62
   254
100
AcDbLine
 10
761.444761
 20
29.0916304
 30
0.0
 11
764.8775456
 21
34.2833316
 31
0.0
  0
ARC
  5
333
330
4D4
100
AcDbEntity
  8
YKK_ZWAK
  6
Continuous
 62
   254
100
AcDbCircle
 10
764.73492782
 20
10.25489935
 30
0.0
 40
4.291374954660762
100
AcDbArc
 50
285.44291453
 51
349.90448123
  0
ARC
  5
334
330
4D4
100
AcDbEntity
  8
YKK_ZWAK
  6
Continuous
 62
   254
100
AcDbCircle
 10
748.36576292
 20
12.81275499
 30
0.0
 40
20.86005999632355
100
AcDbArc
 50
350.99026817
 51
10.67624521
  0
CIRCLE
  5
335
330
4D4
100
AcDbEntity
  8
YKK_ZWAK
  6
Continuous
 62
     8
100
AcDbCircle
 10
781.7964182
 20
65.0160014
 30
0.0
 40
8.819999999999998
  0
CIRCLE
  5
336
330
4D4
100
AcDbEntity
  8
YKK_ZWAK
  6
Continuous
 62
     8
100
AcDbCircle
 10
781.7964182
 20
45.2200014
 30
0.0
 40
8.819999999999998
  0
ARC
  5
337
330
4D4
100
AcDbEntity
  8
YKK_ZWAK
  6
Continuous
 62
   254
100
AcDbCircle
 10
766.20046743
 20
27.01228064
 30
0.0
 40
2.162466367416002
100
AcDbArc
 50
0.00166292
 51
89.99603715
  0
LINE
  5
338
330
4D4
100
AcDbEntity
  8
YKK_ZWAK
  6
Continuous
 62
   254
100
AcDbLine
 10
768.3643912
 20
26.9312834
 30
0.0
 11
768.3643912
 21
21.9037574
 31
0.0
  0
LINE
  5
339
330
4D4
100
AcDbEntity
  8
YKK_ZWAK
  6
Continuous
 62
   254
100
AcDbLine
 10
768.6616896
 20
34.2833316
 30
0.0
 11
768.2832696
 21
33.6346108
 31
0.0
  0
LINE
  5
33A
330
4D4
100
AcDbEntity
  8
YKK_ZWAK
  6
Continuous
 62
     8
100
AcDbLine
 10
772.9764182
 20
45.2200014
 30
0.0
 11
790.6164182
 21
45.2200014
 31
0.0
  0
CIRCLE
  5
33B
330
4D4
100
AcDbEntity
  8
YKK_ZWAK
  6
Continuous
 62
     8
100
AcDbCircle
 10
781.7964182
 20
84.8120028
 30
0.0
 40
8.819999999999998
  0
LINE
  5
33C
330
4D4
100
AcDbEntity
  8
YKK_ZWAK
  6
Continuous
 62
     8
100
AcDbLine
 10
772.9764182
 20
65.0160014
 30
0.0
 11
790.6164182
 21
65.0160014
 31
0.0
  0
LINE
  5
33D
330
4D4
100
AcDbEntity
  8
YKK_ZWAK
  6
Continuous
 62
     8
100
AcDbLine
 10
772.9764182
 20
104.6080028
 30
0.0
 11
790.6164182
 21
104.6080028
 31
0.0
  0
LINE
  5
33E
330
4D4
100
AcDbEntity
  8
YKK_ZWAK
  6
Continuous
 62
     8
100
AcDbLine
 10
772.9764182
 20
84.8120028
 30
0.0
 11
790.6164182
 21
84.8120028
 31
0.0
  0
LINE
  5
33F
330
4D4
100
AcDbEntity
  8
YKK_W2
  6
HASENP
100
AcDbLine
 10
674.29393954
 20
194.28029918
 30
0.0
 11
662.39393954
 21
150.88225775
 31
0.0
  0
LINE
  5
340
330
4D4
100
AcDbEntity
  8
YKK_W2
  6
HASENP
100
AcDbLine
 10
660.17581742
 20
151.49047997
 30
0.0
 11
672.07581742
 21
194.8885214
 31
0.0
  0
LINE
  5
341
330
4D4
100
AcDbEntity
  8
YKK_W1
100
AcDbLine
 10
645.19393954
 20
204.08225775
 30
0.0
 11
645.19393954
 21
181.48225775
 31
0.0
  0
LINE
  5
342
330
4D4
100
AcDbEntity
  8
YKK_W1
100
AcDbLine
 10
645.69393954
 20
181.68225775
 30
0.0
 11
645.69393954
 21
203.88225775
 31
0.0
  0
LINE
  5
343
330
4D4
100
AcDbEntity
  8
YKK_W1
100
AcDbLine
 10
646.89393954
 20
203.68225775
 30
0.0
 11
646.89393954
 21
181.88225775
 31
0.0
  0
LINE
  5
344
330
4D4
100
AcDbEntity
  8
YKK_W1
100
AcDbLine
 10
652.49393954
 20
207.68225775
 30
0.0
 11
652.49393954
 21
177.28225775
 31
0.0
  0
LINE
  5
345
330
4D4
100
AcDbEntity
  8
YKK_W1
100
AcDbLine
 10
650.89393954
 20
177.28225775
 30
0.0
 11
650.89393954
 21
207.68225775
 31
0.0
  0
LINE
  5
346
330
4D4
100
AcDbEntity
  8
YKK_W4
  6
ITTENSAP
100
AcDbLine
 10
648.89393954
 20
179.44343613
 30
0.0
 11
648.89393954
 21
224.78225775
 31
0.0
  0
LINE
  5
347
330
4D4
100
AcDbEntity
  8
YKK_W4
100
AcDbLine
 10
646.89393954
 20
212.58610533
 30
0.0
 11
646.89393954
 21
182.78225775
 31
0.0
  0
LINE
  5
348
330
4D4
100
AcDbEntity
  8
YKK_W4
100
AcDbLine
 10
650.89393954
 20
212.58610533
 30
0.0
 11
650.89393954
 21
182.78225775
 31
0.0
  0
LINE
  5
349
330
4D4
100
AcDbEntity
  8
YKK_W1
100
AcDbLine
 10
674.29393954
 20
189.28225775
 30
0.0
 11
674.29393954
 21
207.68225775
 31
0.0
  0
LINE
  5
34A
330
4D4
100
AcDbEntity
  8
YKK_W1
100
AcDbLine
 10
675.89393954
 20
207.68225775
 30
0.0
 11
675.89393954
 21
189.28225775
 31
0.0
  0
LINE
  5
34B
330
4D4
100
AcDbEntity
  8
YKK_W1
100
AcDbLine
 10
665.89393954
 20
150.88225775
 30
0.0
 11
665.89393954
 21
149.28225775
 31
0.0
  0
LINE
  5
34C
330
4D4
100
AcDbEntity
  8
YKK_D
100
AcDbLine
 10
665.8939138
 20
144.28225583
 30
0.0
 11
665.8939138
 21
108.78225583
 31
0.0
  0
TEXT
  5
34D
330
4D4
100
AcDbEntity
  8
YKK_D
100
AcDbText
 10
646.91224708
 20
110.18225736
 30
0.0
 40
4.35000038
  1
３０
 41
0.76628346
100
AcDbText
  0
LINE
  5
352
330
4D4
100
AcDbEntity
  8
YKK_D
100
AcDbLine
 10
650.89387219
 20
144.28225583
 30
0.0
 11
650.89385277
 21
128.78225583
 31
0.0
  0
LINE
  5
357
330
4D4
100
AcDbEntity
  8
YKK_W2
  6
HASENP
100
AcDbLine
 10
662.39393954
 20
150.88225775
 30
0.0
 11
660.17581742
 21
151.49047997
 31
0.0
  0
LINE
  5
358
330
4D4
100
AcDbEntity
  8
YKK_W4
100
AcDbLine
 10
646.89393954
 20
182.78225775
 30
0.0
 11
650.89393954
 21
182.78225775
 31
0.0
  0
ARC
  5
359
330
4D4
100
AcDbEntity
  8
YKK_W1
100
AcDbCircle
 10
645.49393954
 20
181.68225775
 30
0.0
 40
0.2
100
AcDbArc
 50
270.0
 51
0.0
  0
ARC
  5
35A
330
4D4
100
AcDbEntity
  8
YKK_W1
100
AcDbCircle
 10
645.29393954
 20
181.88225775
 30
0.0
 40
1.6
100
AcDbArc
 50
270.0
 51
0.0
  0
ARC
  5
35B
330
4D4
100
AcDbEntity
  8
YKK_W1
100
AcDbCircle
 10
650.89393954
 20
177.28225775
 30
0.0
 40
1.600000000000023
100
AcDbArc
 50
270.0
 51
0.0
  0
LINE
  5
35C
330
4D4
100
AcDbEntity
  8
YKK_W1
100
AcDbLine
 10
675.89393954
 20
189.28225775
 30
0.0
 11
674.29393954
 21
189.28225775
 31
0.0
  0
LINE
  5
35D
330
4D4
100
AcDbEntity
  8
YKK_D
100
AcDbLine
 10
646.8939138
 20
226.28225774
 30
0.0
 11
646.8939138
 21
243.28225583
 31
0.0
  0
LINE
  5
35E
330
4D4
100
AcDbEntity
  8
YKK_D
100
AcDbLine
 10
650.8939138
 20
226.28225774
 30
0.0
 11
650.8939138
 21
243.28225583
 31
0.0
  0
LINE
  5
35F
330
4D4
100
AcDbEntity
  8
YKK_D
100
AcDbLine
 10
675.8939138
 20
214.28225774
 30
0.0
 11
675.8939138
 21
243.28225583
 31
0.0
  0
LINE
  5
360
330
4D4
100
AcDbEntity
  8
YKK_W1
100
AcDbLine
 10
674.29393954
 20
207.68225775
 30
0.0
 11
652.49393954
 21
207.68225775
 31
0.0
  0
LINE
  5
361
330
4D4
100
AcDbEntity
  8
YKK_W1
100
AcDbLine
 10
652.49393954
 20
209.28225775
 30
0.0
 11
674.29393954
 21
209.28225775
 31
0.0
  0
LINE
  5
362
330
4D4
100
AcDbEntity
  8
YKK_W2
  6
HASENP
100
AcDbLine
 10
674.29393954
 20
194.28029918
 30
0.0
 11
672.07581742
 21
194.8885214
 31
0.0
  0
CIRCLE
  5
363
330
4D4
100
AcDbEntity
  8
YKK_W4
100
AcDbCircle
 10
648.89393954
 20
217.78225775
 30
0.0
 40
5.0
  0
ARC
  5
364
330
4D4
100
AcDbEntity
  8
YKK_W1
100
AcDbCircle
 10
645.29393954
 20
203.68225775
 30
0.0
 40
1.6
100
AcDbArc
 50
0.0
 51
90.0
  0
ARC
  5
365
330
4D4
100
AcDbEntity
  8
YKK_W1
100
AcDbCircle
 10
645.49393954
 20
203.88225775
 30
0.0
 40
0.2
100
AcDbArc
 50
0.0
 51
90.0
  0
ARC
  5
366
330
4D4
100
AcDbEntity
  8
YKK_W4
100
AcDbCircle
 10
645.89393954
 20
212.58610533
 30
0.0
 40
1.0
100
AcDbArc
 50
0.0
 51
60.0
  0
ARC
  5
367
330
4D4
100
AcDbEntity
  8
YKK_W1
100
AcDbCircle
 10
652.49393954
 20
207.68225775
 30
0.0
 40
1.599999999999909
100
AcDbArc
 50
90.0
 51
180.0
  0
ARC
  5
368
330
4D4
100
AcDbEntity
  8
YKK_W4
100
AcDbCircle
 10
651.89393954
 20
212.58610533
 30
0.0
 40
1.0
100
AcDbArc
 50
120.0
 51
180.0
  0
LINE
  5
369
330
4D4
100
AcDbEntity
  8
YKK_W4
  6
ITTENSAP
100
AcDbLine
 10
641.89393954
 20
217.78225775
 30
0.0
 11
655.89393954
 21
217.78225775
 31
0.0
  0
ARC
  5
36A
330
4D4
100
AcDbEntity
  8
YKK_W1
100
AcDbCircle
 10
674.29393954
 20
207.68225775
 30
0.0
 40
1.599999999999994
100
AcDbArc
 50
0.0
 51
90.0
  0
LINE
  5
36B
330
4D4
100
AcDbEntity
  8
YKK_D
100
AcDbLine
 10
650.8939138
 20
242.78225583
 30
0.0
 11
675.8939138
 21
242.78225583
 31
0.0
  0
LINE
  5
36C
330
4D4
100
AcDbEntity
  8
YKK_D
100
AcDbLine
 10
646.8939138
 20
242.78225583
 30
0.0
 11
650.8939138
 21
242.78225583
 31
0.0
  0
TEXT
  5
36D
330
4D4
100
AcDbEntity
  8
YKK_D
100
AcDbText
 10
646.91224708
 20
243.68224973
 30
0.0
 40
4.35000038
  1
４
 41
0.76628346
100
AcDbText
  0
TEXT
  5
37E
330
4D4
100
AcDbEntity
  8
YKK_D
100
AcDbText
 10
659.41224708
 20
243.68224973
 30
0.0
 40
4.35000038
  1
２５
 41
0.76628346
100
AcDbText
  0
CIRCLE
  5
383
330
4D4
100
AcDbEntity
  8
YKK_ZWAK
  6
Continuous
 62
     8
100
AcDbCircle
 10
781.7964182
 20
144.2000042
 30
0.0
 40
8.819999999999998
  0
CIRCLE
  5
384
330
4D4
100
AcDbEntity
  8
YKK_ZWAK
  6
Continuous
 62
     8
100
AcDbCircle
 10
781.7964182
 20
124.4040028
 30
0.0
 40
8.819999999999998
  0
LINE
  5
385
330
4D4
100
AcDbEntity
  8
YKK_ZWAK
  6
Continuous
 62
     8
100
AcDbLine
 10
772.9764182
 20
124.4040028
 30
0.0
 11
790.6164182
 21
124.4040028
 31
0.0
  0
LINE
  5
386
330
4D4
100
AcDbEntity
  8
YKK_ZWAK
  6
Continuous
 62
     8
100
AcDbLine
 10
772.9764182
 20
144.2000042
 30
0.0
 11
790.6164182
 21
144.2000042
 31
0.0
  0
CIRCLE
  5
387
330
4D4
100
AcDbEntity
  8
YKK_ZWAK
  6
Continuous
 62
     8
100
AcDbCircle
 10
781.7964182
 20
163.9960042
 30
0.0
 40
8.819999999999998
  0
LINE
  5
388
330
4D4
100
AcDbEntity
  8
YKK_ZWAK
  6
Continuous
 62
     8
100
AcDbLine
 10
772.9764182
 20
163.9960042
 30
0.0
 11
790.6164182
 21
163.9960042
 31
0.0
  0
LINE
  5
389
330
4D4
100
AcDbEntity
  8
YKK_ZWAK
  6
Continuous
 62
     8
100
AcDbLine
 10
772.9764182
 20
183.7920042
 30
0.0
 11
790.6164182
 21
183.7920042
 31
0.0
  0
CIRCLE
  5
38A
330
4D4
100
AcDbEntity
  8
YKK_ZWAK
  6
Continuous
 62
     8
100
AcDbCircle
 10
781.7964182
 20
183.7920042
 30
0.0
 40
8.819999999999998
  0
CIRCLE
  5
38B
330
4D4
100
AcDbEntity
  8
YKK_ZWAK
  6
Continuous
 62
     8
100
AcDbCircle
 10
781.7964182
 20
223.3840056
 30
0.0
 40
8.819999999999998
  0
CIRCLE
  5
38C
330
4D4
100
AcDbEntity
  8
YKK_ZWAK
  6
Continuous
 62
     8
100
AcDbCircle
 10
781.7964182
 20
203.5880056
 30
0.0
 40
8.819999999999998
  0
LINE
  5
38D
330
4D4
100
AcDbEntity
  8
YKK_ZWAK
  6
Continuous
 62
     8
100
AcDbLine
 10
772.9764182
 20
203.5880056
 30
0.0
 11
790.6164182
 21
203.5880056
 31
0.0
  0
LINE
  5
38E
330
4D4
100
AcDbEntity
  8
YKK_ZWAK
  6
Continuous
 62
     8
100
AcDbLine
 10
772.9764182
 20
223.3840056
 30
0.0
 11
790.6164182
 21
223.3840056
 31
0.0
  0
LINE
  5
38F
330
4D4
100
AcDbEntity
  8
YKK_A2
  6
DASHDOT
100
AcDbLine
 10
640.7028064
 20
420.950014
 30
0.0
 11
643.1365202
 21
420.950014
 31
0.0
  0
LINE
  5
392
330
4D4
100
AcDbEntity
  8
YKK_A2
100
AcDbLine
 10
641.38574375
 20
418.075014
 30
0.0
 11
642.53574375
 21
418.075014
 31
0.0
  0
LINE
  5
393
330
4D4
100
AcDbEntity
  8
YKK_A2
100
AcDbLine
 10
642.53574375
 20
423.825014
 30
0.0
 11
641.38574375
 21
423.825014
 31
0.0
  0
LINE
  5
394
330
4D4
100
AcDbEntity
  8
YKK_A2
100
AcDbLine
 10
641.41074375
 20
418.150014
 30
0.0
 11
642.51074375
 21
418.150014
 31
0.0
  0
LINE
  5
395
330
4D4
100
AcDbEntity
  8
YKK_A2
100
AcDbLine
 10
642.13574375
 20
419.500014
 30
0.0
 11
641.78574375
 21
419.500014
 31
0.0
  0
LINE
  5
396
330
4D4
100
AcDbEntity
  8
YKK_A2
100
AcDbLine
 10
641.78574375
 20
419.050014
 30
0.0
 11
642.13574375
 21
419.050014
 31
0.0
  0
LINE
  5
397
330
4D4
100
AcDbEntity
  8
YKK_A2
100
AcDbLine
 10
642.13574375
 20
419.550014
 30
0.0
 11
641.78574375
 21
419.550014
 31
0.0
  0
LINE
  5
398
330
4D4
100
AcDbEntity
  8
YKK_A2
100
AcDbLine
 10
641.78574375
 20
419.000014
 30
0.0
 11
642.13574375
 21
419.000014
 31
0.0
  0
ARC
  5
399
330
4D4
100
AcDbEntity
  8
YKK_A2
100
AcDbCircle
 10
641.96074375
 20
420.100014
 30
0.0
 40
0.4
100
AcDbArc
 50
180.0
 51
0.0
  0
LINE
  5
39A
330
4D4
100
AcDbEntity
  8
YKK_A2
100
AcDbLine
 10
641.41074375
 20
423.750014
 30
0.0
 11
642.51074375
 21
423.750014
 31
0.0
  0
LINE
  5
39B
330
4D4
100
AcDbEntity
  8
YKK_A2
100
AcDbLine
 10
641.56074375
 20
423.100014
 30
0.0
 11
642.36074375
 21
423.100014
 31
0.0
  0
LINE
  5
39C
330
4D4
100
AcDbEntity
  8
YKK_A1
100
AcDbLine
 10
644.6750182
 20
479.000014
 30
0.0
 11
622.4500182
 21
479.000014
 31
0.0
  0
LINE
  5
39E
330
4D4
100
AcDbEntity
  8
YKK_A1
100
AcDbLine
 10
670.0000182
 20
480.400014
 30
0.0
 11
621.0000182
 21
480.400014
 31
0.0
  0
LINE
  5
39F
330
4D4
100
AcDbEntity
  8
YKK_A1
100
AcDbLine
 10
668.7500182
 20
479.150014
 30
0.0
 11
622.2500182
 21
479.150014
 31
0.0
  0
LINE
  5
3A0
330
4D4
100
AcDbEntity
  8
YKK_A1
  6
DASHDOT
100
AcDbLine
 10
644.6750182
 20
479.000014
 30
0.0
 11
622.4500182
 21
420.950014
 31
0.0
  0
TEXT
  5
3A1
330
4D4
100
AcDbEntity
  8
USER1
100
AcDbText
 10
637.0000184
 20
489.34473963
 30
0.0
 40
6.0
  1
外観図
 41
0.833333
100
AcDbText
  0
LINE
  5
3A2
330
4D4
100
AcDbEntity
  8
YKK_A1
100
AcDbLine
 10
644.6750182
 20
362.900014
 30
0.0
 11
622.4500182
 21
362.900014
 31
0.0
  0
LINE
  5
3A3
330
4D4
100
AcDbEntity
  8
YKK_A1
100
AcDbLine
 10
622.2500182
 20
362.650014
 30
0.0
 11
668.7500182
 21
362.650014
 31
0.0
  0
LINE
  5
3A4
330
4D4
100
AcDbEntity
  8
YKK_N1
  6
Continuous
100
AcDbLine
 10
668.00001819
 20
352.900014
 30
0.0
 11
623.00001895
 21
352.900014
 31
0.0
  0
LINE
  5
3A6
330
4D4
100
AcDbEntity
  8
YKK_A1
100
AcDbLine
 10
621.0000182
 20
361.400014
 30
0.0
 11
670.0000182
 21
361.400014
 31
0.0
  0
LINE
  5
3A7
330
4D4
100
AcDbEntity
  8
YKK_A1
  6
DASHDOT
100
AcDbLine
 10
644.6750182
 20
362.900014
 30
0.0
 11
622.4500182
 21
420.950014
 31
0.0
  0
LINE
  5
3A8
330
4D4
100
AcDbEntity
  8
YKK_A1
100
AcDbLine
 10
622.4500182
 20
422.850014
 30
0.0
 11
622.4500182
 21
470.200014
 31
0.0
  0
LINE
  5
3A9
330
4D4
100
AcDbEntity
  8
YKK_A1
100
AcDbLine
 10
622.2500182
 20
422.850014
 30
0.0
 11
622.2500182
 21
470.200014
 31
0.0
  0
LINE
  5
3AA
330
4D4
100
AcDbEntity
  8
YKK_A1
100
AcDbLine
 10
621.0000182
 20
480.400014
 30
0.0
 11
621.0000182
 21
361.400014
 31
0.0
  0
LINE
  5
3AB
330
4D4
100
AcDbEntity
  8
YKK_A2
100
AcDbLine
 10
622.1000182
 20
367.900014
 30
0.0
 11
622.1000182
 21
371.700014
 31
0.0
  0
LINE
  5
3AC
330
4D4
100
AcDbEntity
  8
YKK_A2
100
AcDbLine
 10
622.6000182
 20
371.700014
 30
0.0
 11
622.6000182
 21
367.900014
 31
0.0
  0
LINE
  5
3AD
330
4D4
100
AcDbEntity
  8
YKK_N1
  6
Continuous
100
AcDbLine
 10
627.3301459
 20
355.40001705
 30
0.0
 11
623.000022
 21
352.90001858
 31
0.0
  0
LINE
  5
3AE
330
4D4
100
AcDbEntity
  8
YKK_N1
  6
Continuous
100
AcDbLine
 10
623.0000159
 20
352.90001247
 30
0.0
 11
627.33014285
 21
350.40001247
 31
0.0
  0
LINE
  5
3AF
330
4D4
100
AcDbEntity
  8
YKK_N1
  6
Continuous
100
AcDbLine
 10
623.00001895
 20
359.150014
 30
0.0
 11
623.00001895
 21
352.900014
 31
0.0
  0
LINE
  5
3B0
330
4D4
100
AcDbEntity
  8
YKK_A2
100
AcDbLine
 10
622.6000182
 20
367.900014
 30
0.0
 11
622.1000182
 21
367.900014
 31
0.0
  0
LINE
  5
3B1
330
4D4
100
AcDbEntity
  8
YKK_A2
100
AcDbLine
 10
622.6000182
 20
369.800014
 30
0.0
 11
622.1000182
 21
369.800014
 31
0.0
  0
POINT
  5
3B2
330
4D4
100
AcDbEntity
  8
YKK_A1
100
AcDbPoint
 10
621.0000182
 20
363.400014
 30
0.0
  0
LINE
  5
3B3
330
4D4
100
AcDbEntity
  8
YKK_A1
100
AcDbLine
 10
622.4500182
 20
362.900014
 30
0.0
 11
622.4500182
 21
367.900014
 31
0.0
  0
POINT
  5
3B4
330
4D4
100
AcDbEntity
  8
YKK_A1
100
AcDbPoint
 10
623.0000182
 20
361.400014
 30
0.0
  0
LINE
  5
3B5
330
4D4
100
AcDbEntity
  8
YKK_A1
100
AcDbLine
 10
622.2500182
 20
367.900014
 30
0.0
 11
622.2500182
 21
361.400014
 31
0.0
  0
LINE
  5
3B6
330
4D4
100
AcDbEntity
  8
YKK_N1
  6
Continuous
100
AcDbLine
 10
627.3301459
 20
355.400014
 30
0.0
 11
627.3301459
 21
350.400014
 31
0.0
  0
LINE
  5
3B7
330
4D4
100
AcDbEntity
  8
YKK_A1
100
AcDbLine
 10
622.2500182
 20
419.050014
 30
0.0
 11
622.2500182
 21
371.700014
 31
0.0
  0
LINE
  5
3B8
330
4D4
100
AcDbEntity
  8
YKK_A1
100
AcDbLine
 10
622.4500182
 20
419.050014
 30
0.0
 11
622.4500182
 21
371.700014
 31
0.0
  0
POINT
  5
3B9
330
4D4
100
AcDbEntity
  8
YKK_A2
100
AcDbPoint
 10
621.0000182
 20
370.900014
 30
0.0
  0
LINE
  5
3BA
330
4D4
100
AcDbEntity
  8
YKK_A2
100
AcDbLine
 10
622.1000182
 20
371.700014
 30
0.0
 11
622.6000182
 21
371.700014
 31
0.0
  0
LINE
  5
3BB
330
4D4
100
AcDbEntity
  8
YKK_A2
100
AcDbLine
 10
622.1000182
 20
422.850014
 30
0.0
 11
622.6000182
 21
422.850014
 31
0.0
  0
LINE
  5
3BC
330
4D4
100
AcDbEntity
  8
YKK_A2
100
AcDbLine
 10
622.6000182
 20
420.950014
 30
0.0
 11
622.1000182
 21
420.950014
 31
0.0
  0
LINE
  5
3BD
330
4D4
100
AcDbEntity
  8
YKK_A2
100
AcDbLine
 10
622.6000182
 20
419.050014
 30
0.0
 11
622.1000182
 21
419.050014
 31
0.0
  0
LINE
  5
3BE
330
4D4
100
AcDbEntity
  8
YKK_A2
100
AcDbLine
 10
622.1000182
 20
419.050014
 30
0.0
 11
622.1000182
 21
422.850014
 31
0.0
  0
LINE
  5
3BF
330
4D4
100
AcDbEntity
  8
YKK_A2
100
AcDbLine
 10
622.6000182
 20
422.850014
 30
0.0
 11
622.6000182
 21
419.050014
 31
0.0
  0
LINE
  5
3C0
330
4D4
100
AcDbEntity
  8
YKK_A2
100
AcDbLine
 10
641.36074375
 20
418.200014
 30
0.0
 11
641.36074375
 21
423.700014
 31
0.0
  0
LINE
  5
3C1
330
4D4
100
AcDbEntity
  8
YKK_A2
100
AcDbLine
 10
641.56074375
 20
423.100014
 30
0.0
 11
641.56074375
 21
420.100014
 31
0.0
  0
LINE
  5
3C2
330
4D4
100
AcDbEntity
  8
YKK_A2
100
AcDbLine
 10
641.28574375
 20
423.725014
 30
0.0
 11
641.28574375
 21
418.175014
 31
0.0
  0
ARC
  5
3C3
330
4D4
100
AcDbEntity
  8
YKK_A2
100
AcDbCircle
 10
641.41074375
 20
418.200014
 30
0.0
 40
0.05
100
AcDbArc
 50
180.0
 51
270.0
  0
ARC
  5
3C4
330
4D4
100
AcDbEntity
  8
YKK_A2
100
AcDbCircle
 10
641.38574375
 20
418.175014
 30
0.0
 40
0.1
100
AcDbArc
 50
180.0
 51
270.0
  0
ARC
  5
3C5
330
4D4
100
AcDbEntity
  8
YKK_A2
100
AcDbCircle
 10
641.78574375
 20
419.275014
 30
0.0
 40
0.225
100
AcDbArc
 50
90.0
 51
270.0
  0
ARC
  5
3C6
330
4D4
100
AcDbEntity
  8
YKK_A2
100
AcDbCircle
 10
641.78574375
 20
419.275014
 30
0.0
 40
0.275
100
AcDbArc
 50
90.0
 51
270.0
  0
ARC
  5
3C7
330
4D4
100
AcDbEntity
  8
YKK_A2
100
AcDbCircle
 10
641.41074375
 20
423.700014
 30
0.0
 40
0.05
100
AcDbArc
 50
90.0
 51
180.0
  0
ARC
  5
3C8
330
4D4
100
AcDbEntity
  8
YKK_A2
100
AcDbCircle
 10
641.38574375
 20
423.725014
 30
0.0
 40
0.1
100
AcDbArc
 50
90.0
 51
180.0
  0
POINT
  5
3C9
330
4D4
100
AcDbEntity
  8
YKK_A1
100
AcDbPoint
 10
621.0000182
 20
478.400014
 30
0.0
  0
POINT
  5
3CA
330
4D4
100
AcDbEntity
  8
YKK_A1
100
AcDbPoint
 10
623.0000182
 20
480.400014
 30
0.0
  0
LINE
  5
3CB
330
4D4
100
AcDbEntity
  8
YKK_A2
100
AcDbLine
 10
622.6000182
 20
472.100014
 30
0.0
 11
622.1000182
 21
472.100014
 31
0.0
  0
LINE
  5
3CC
330
4D4
100
AcDbEntity
  8
YKK_A2
100
AcDbLine
 10
622.6000182
 20
474.000014
 30
0.0
 11
622.1000182
 21
474.000014
 31
0.0
  0
LINE
  5
3CD
330
4D4
100
AcDbEntity
  8
YKK_A1
100
AcDbLine
 10
622.4500182
 20
474.000014
 30
0.0
 11
622.4500182
 21
479.000014
 31
0.0
  0
LINE
  5
3CE
330
4D4
100
AcDbEntity
  8
YKK_A1
100
AcDbLine
 10
622.2500182
 20
480.400014
 30
0.0
 11
622.2500182
 21
474.000014
 31
0.0
  0
POINT
  5
3CF
330
4D4
100
AcDbEntity
  8
YKK_A2
100
AcDbPoint
 10
621.0000182
 20
470.900014
 30
0.0
  0
LINE
  5
3D0
330
4D4
100
AcDbEntity
  8
YKK_A2
100
AcDbLine
 10
622.1000182
 20
470.200014
 30
0.0
 11
622.6000182
 21
470.200014
 31
0.0
  0
LINE
  5
3D1
330
4D4
100
AcDbEntity
  8
YKK_A2
100
AcDbLine
 10
622.1000182
 20
474.000014
 30
0.0
 11
622.1000182
 21
470.200014
 31
0.0
  0
LINE
  5
3D2
330
4D4
100
AcDbEntity
  8
YKK_A2
100
AcDbLine
 10
622.6000182
 20
470.200014
 30
0.0
 11
622.6000182
 21
474.000014
 31
0.0
  0
POINT
  5
3D3
330
4D4
100
AcDbEntity
  8
YKK_A1
100
AcDbPoint
 10
630.5000182
 20
480.400014
 30
0.0
  0
LINE
  5
3D4
330
4D4
100
AcDbEntity
  8
YKK_A1
100
AcDbLine
 10
668.5500182
 20
422.850014
 30
0.0
 11
668.5500182
 21
470.200014
 31
0.0
  0
LINE
  5
3D5
330
4D4
100
AcDbEntity
  8
YKK_A1
100
AcDbLine
 10
668.7500182
 20
422.850014
 30
0.0
 11
668.7500182
 21
470.200014
 31
0.0
  0
LINE
  5
3D6
330
4D4
100
AcDbEntity
  8
YKK_A1
  6
DASHDOT
100
AcDbLine
 10
646.3250182
 20
479.000014
 30
0.0
 11
668.5500182
 21
420.950014
 31
0.0
  0
LINE
  5
3D7
330
4D4
100
AcDbEntity
  8
YKK_N1
  6
Continuous
100
AcDbLine
 10
678.50002125
 20
478.400014
 30
0.0
 11
678.50002125
 21
363.40001095
 31
0.0
  0
LINE
  5
3D8
330
4D4
100
AcDbEntity
  8
YKK_A1
100
AcDbLine
 10
670.0000182
 20
361.400014
 30
0.0
 11
670.0000182
 21
480.400014
 31
0.0
  0
LINE
  5
3D9
330
4D4
100
AcDbEntity
  8
YKK_A1
100
AcDbLine
 10
646.3250182
 20
479.000014
 30
0.0
 11
646.3250182
 21
362.900014
 31
0.0
  0
LINE
  5
3DA
330
4D4
100
AcDbEntity
  8
YKK_A1
100
AcDbLine
 10
646.1250182
 20
479.150014
 30
0.0
 11
646.1250182
 21
362.650014
 31
0.0
  0
LINE
  5
3DB
330
4D4
100
AcDbEntity
  8
YKK_A1
100
AcDbLine
 10
644.6750182
 20
479.000014
 30
0.0
 11
644.6750182
 21
362.900014
 31
0.0
  0
LINE
  5
3DC
330
4D4
100
AcDbEntity
  8
YKK_A1
100
AcDbLine
 10
644.8750182
 20
479.150014
 30
0.0
 11
644.8750182
 21
362.650014
 31
0.0
  0
LINE
  5
3DD
330
4D4
100
AcDbEntity
  8
YKK_A2
100
AcDbLine
 10
668.9000182
 20
367.900014
 30
0.0
 11
668.9000182
 21
371.700014
 31
0.0
  0
LINE
  5
3DE
330
4D4
100
AcDbEntity
  8
YKK_A2
100
AcDbLine
 10
668.4000182
 20
371.700014
 30
0.0
 11
668.4000182
 21
367.900014
 31
0.0
  0
LINE
  5
3DF
330
4D4
100
AcDbEntity
  8
YKK_A1
  6
DASHDOT
100
AcDbLine
 10
646.3250182
 20
362.900014
 30
0.0
 11
668.5500182
 21
420.950014
 31
0.0
  0
LINE
  5
3E0
330
4D4
100
AcDbEntity
  8
YKK_N1
  6
Continuous
100
AcDbLine
 10
672.2500182
 20
363.40001095
 30
0.0
 11
678.50002125
 21
363.40001095
 31
0.0
  0
LINE
  5
3E1
330
4D4
100
AcDbEntity
  8
YKK_A1
100
AcDbLine
 10
646.3250182
 20
362.900014
 30
0.0
 11
668.5500182
 21
362.900014
 31
0.0
  0
TEXT
  5
3E2
330
4D4
100
AcDbEntity
  8
YKK_N1
  6
Continuous
100
AcDbText
 10
644.00001857
 20
353.500014
 30
0.0
 40
3.0
  1
W
 72
     4
 11
645.50001857
 21
355.000014
 31
0.0
100
AcDbText
  0
LINE
  5
3E3
330
4D4
100
AcDbEntity
  8
YKK_N1
  6
Continuous
100
AcDbLine
 10
668.00002276
 20
352.90001247
 30
0.0
 11
663.66989505
 21
355.40001247
 31
0.0
  0
LINE
  5
3E4
330
4D4
100
AcDbEntity
  8
YKK_N1
  6
Continuous
100
AcDbLine
 10
663.66989352
 20
350.40001247
 30
0.0
 11
668.00002048
 21
352.90001247
 31
0.0
  0
LINE
  5
3E5
330
4D4
100
AcDbEntity
  8
YKK_N1
  6
Continuous
100
AcDbLine
 10
663.6698981
 20
350.400014
 30
0.0
 11
663.6698981
 21
355.400014
 31
0.0
  0
LINE
  5
3E6
330
4D4
100
AcDbEntity
  8
YKK_N1
  6
Continuous
100
AcDbLine
 10
668.00001819
 20
359.150014
 30
0.0
 11
668.00001819
 21
352.900014
 31
0.0
  0
LINE
  5
3E7
330
4D4
100
AcDbEntity
  8
YKK_A2
100
AcDbLine
 10
668.4000182
 20
367.900014
 30
0.0
 11
668.9000182
 21
367.900014
 31
0.0
  0
LINE
  5
3E8
330
4D4
100
AcDbEntity
  8
YKK_A2
100
AcDbLine
 10
668.4000182
 20
369.800014
 30
0.0
 11
668.9000182
 21
369.800014
 31
0.0
  0
POINT
  5
3E9
330
4D4
100
AcDbEntity
  8
YKK_A1
100
AcDbPoint
 10
670.0000182
 20
363.400014
 30
0.0
  0
LINE
  5
3EA
330
4D4
100
AcDbEntity
  8
YKK_A1
100
AcDbLine
 10
668.5500182
 20
362.900014
 30
0.0
 11
668.5500182
 21
367.900014
 31
0.0
  0
POINT
  5
3EB
330
4D4
100
AcDbEntity
  8
YKK_A1
100
AcDbPoint
 10
668.0000182
 20
361.400014
 30
0.0
  0
LINE
  5
3EC
330
4D4
100
AcDbEntity
  8
YKK_A1
100
AcDbLine
 10
668.7500182
 20
361.400014
 30
0.0
 11
668.7500182
 21
367.900014
 31
0.0
  0
LINE
  5
3ED
330
4D4
100
AcDbEntity
  8
YKK_N1
  6
Continuous
100
AcDbLine
 10
676.0000182
 20
367.7301379
 30
0.0
 11
681.00002125
 21
367.7301379
 31
0.0
  0
LINE
  5
3EE
330
4D4
100
AcDbEntity
  8
YKK_N1
  6
Continuous
100
AcDbLine
 10
678.50002125
 20
363.400014
 30
0.0
 11
681.00002125
 21
367.73014095
 31
0.0
  0
LINE
  5
3EF
330
4D4
100
AcDbEntity
  8
YKK_N1
  6
Continuous
100
AcDbLine
 10
678.50002125
 20
363.40001095
 30
0.0
 11
676.00002125
 21
367.7301379
 31
0.0
  0
LINE
  5
3F0
330
4D4
100
AcDbEntity
  8
YKK_A1
100
AcDbLine
 10
668.5500182
 20
419.050014
 30
0.0
 11
668.5500182
 21
371.700014
 31
0.0
  0
LINE
  5
3F1
330
4D4
100
AcDbEntity
  8
YKK_A1
100
AcDbLine
 10
668.7500182
 20
419.050014
 30
0.0
 11
668.7500182
 21
371.700014
 31
0.0
  0
LINE
  5
3F2
330
4D4
100
AcDbEntity
  8
YKK_A2
100
AcDbLine
 10
668.9000182
 20
371.700014
 30
0.0
 11
668.4000182
 21
371.700014
 31
0.0
  0
LINE
  5
3F3
330
4D4
100
AcDbEntity
  8
YKK_A2
  6
DASHDOT
100
AcDbLine
 10
647.85280638
 20
420.950014
 30
0.0
 11
650.28652018
 21
420.950014
 31
0.0
  0
LINE
  5
3F4
330
4D4
100
AcDbEntity
  8
YKK_A2
100
AcDbLine
 10
648.53574373
 20
418.075014
 30
0.0
 11
649.68574373
 21
418.075014
 31
0.0
  0
LINE
  5
3F5
330
4D4
100
AcDbEntity
  8
YKK_A2
100
AcDbLine
 10
649.68574373
 20
423.825014
 30
0.0
 11
648.53574373
 21
423.825014
 31
0.0
  0
LINE
  5
3F6
330
4D4
100
AcDbEntity
  8
YKK_A2
100
AcDbLine
 10
648.56074373
 20
418.150014
 30
0.0
 11
649.66074373
 21
418.150014
 31
0.0
  0
LINE
  5
3F7
330
4D4
100
AcDbEntity
  8
YKK_A2
100
AcDbLine
 10
648.56074373
 20
423.750014
 30
0.0
 11
649.66074373
 21
423.750014
 31
0.0
  0
LINE
  5
3F8
330
4D4
100
AcDbEntity
  8
YKK_A2
  6
DASHDOT
100
AcDbLine
 10
649.11074373
 20
424.2680036
 30
0.0
 11
649.11074373
 21
417.6306024
 31
0.0
  0
LINE
  5
3F9
330
4D4
100
AcDbEntity
  8
YKK_A2
100
AcDbLine
 10
649.51074373
 20
423.100014
 30
0.0
 11
649.51074373
 21
420.100014
 31
0.0
  0
CIRCLE
  5
3FA
330
4D4
100
AcDbEntity
  8
YKK_A2
100
AcDbCircle
 10
649.11074373
 20
418.787514
 30
0.0
 40
0.0875
  0
ARC
  5
3FB
330
4D4
100
AcDbEntity
  8
YKK_A2
100
AcDbCircle
 10
649.28574373
 20
419.275014
 30
0.0
 40
0.225
100
AcDbArc
 50
270.0
 51
90.0
  0
ARC
  5
3FC
330
4D4
100
AcDbEntity
  8
YKK_A2
100
AcDbCircle
 10
649.28574373
 20
419.275014
 30
0.0
 40
0.275
100
AcDbArc
 50
270.0
 51
90.0
  0
LINE
  5
3FD
330
4D4
100
AcDbEntity
  8
YKK_A2
100
AcDbLine
 10
648.51074373
 20
418.200014
 30
0.0
 11
648.51074373
 21
423.700014
 31
0.0
  0
LINE
  5
3FE
330
4D4
100
AcDbEntity
  8
YKK_A2
100
AcDbLine
 10
648.71074373
 20
423.100014
 30
0.0
 11
648.71074373
 21
420.100014
 31
0.0
  0
LINE
  5
3FF
330
4D4
100
AcDbEntity
  8
YKK_A2
100
AcDbLine
 10
648.43574373
 20
423.725014
 30
0.0
 11
648.43574373
 21
418.175014
 31
0.0
  0
ARC
  5
400
330
4D4
100
AcDbEntity
  8
YKK_A2
100
AcDbCircle
 10
648.56074373
 20
418.200014
 30
0.0
 40
0.05
100
AcDbArc
 50
180.0
 51
270.0
  0
ARC
  5
401
330
4D4
100
AcDbEntity
  8
YKK_A2
100
AcDbCircle
 10
648.53574373
 20
418.175014
 30
0.0
 40
0.1
100
AcDbArc
 50
180.0
 51
270.0
  0
ARC
  5
402
330
4D4
100
AcDbEntity
  8
YKK_A2
100
AcDbCircle
 10
648.93574373
 20
419.275014
 30
0.0
 40
0.225
100
AcDbArc
 50
90.0
 51
270.0
  0
ARC
  5
403
330
4D4
100
AcDbEntity
  8
YKK_A2
100
AcDbCircle
 10
648.93574373
 20
419.275014
 30
0.0
 40
0.275
100
AcDbArc
 50
90.0
 51
270.0
  0
ARC
  5
404
330
4D4
100
AcDbEntity
  8
YKK_A2
100
AcDbCircle
 10
648.56074373
 20
423.700014
 30
0.0
 40
0.05
100
AcDbArc
 50
90.0
 51
180.0
  0
ARC
  5
405
330
4D4
100
AcDbEntity
  8
YKK_A2
100
AcDbCircle
 10
648.53574373
 20
423.725014
 30
0.0
 40
0.1
100
AcDbArc
 50
90.0
 51
180.0
  0
LINE
  5
406
330
4D4
100
AcDbEntity
  8
YKK_A2
100
AcDbLine
 10
649.28574373
 20
419.500014
 30
0.0
 11
648.93574373
 21
419.500014
 31
0.0
  0
LINE
  5
407
330
4D4
100
AcDbEntity
  8
YKK_A2
100
AcDbLine
 10
648.93574373
 20
419.050014
 30
0.0
 11
649.28574373
 21
419.050014
 31
0.0
  0
LINE
  5
408
330
4D4
100
AcDbEntity
  8
YKK_A2
100
AcDbLine
 10
649.28574373
 20
419.550014
 30
0.0
 11
648.93574373
 21
419.550014
 31
0.0
  0
LINE
  5
409
330
4D4
100
AcDbEntity
  8
YKK_A2
100
AcDbLine
 10
648.93574373
 20
419.000014
 30
0.0
 11
649.28574373
 21
419.000014
 31
0.0
  0
ARC
  5
40A
330
4D4
100
AcDbEntity
  8
YKK_A2
100
AcDbCircle
 10
649.11074373
 20
420.100014
 30
0.0
 40
0.4
100
AcDbArc
 50
180.0
 51
0.0
  0
LINE
  5
40B
330
4D4
100
AcDbEntity
  8
YKK_A2
100
AcDbLine
 10
648.71074373
 20
423.100014
 30
0.0
 11
649.51074373
 21
423.100014
 31
0.0
  0
ARC
  5
40C
330
4D4
100
AcDbEntity
  8
YKK_A2
100
AcDbCircle
 10
642.51074375
 20
418.200014
 30
0.0
 40
0.05
100
AcDbArc
 50
270.0
 51
0.0
  0
ARC
  5
40D
330
4D4
100
AcDbEntity
  8
YKK_A2
100
AcDbCircle
 10
642.51074375
 20
423.700014
 30
0.0
 40
0.05
100
AcDbArc
 50
0.0
 51
90.0
  0
LINE
  5
40E
330
4D4
100
AcDbEntity
  8
YKK_A2
  6
DASHDOT
100
AcDbLine
 10
641.96074375
 20
424.2680036
 30
0.0
 11
641.96074375
 21
417.6306024
 31
0.0
  0
LINE
  5
40F
330
4D4
100
AcDbEntity
  8
YKK_A2
100
AcDbLine
 10
642.36074375
 20
423.100014
 30
0.0
 11
642.36074375
 21
420.100014
 31
0.0
  0
CIRCLE
  5
410
330
4D4
100
AcDbEntity
  8
YKK_A2
100
AcDbCircle
 10
641.96074375
 20
418.787514
 30
0.0
 40
0.0875
  0
ARC
  5
411
330
4D4
100
AcDbEntity
  8
YKK_A2
100
AcDbCircle
 10
642.13574375
 20
419.275014
 30
0.0
 40
0.225
100
AcDbArc
 50
270.0
 51
90.0
  0
ARC
  5
412
330
4D4
100
AcDbEntity
  8
YKK_A2
100
AcDbCircle
 10
642.13574375
 20
419.275014
 30
0.0
 40
0.275
100
AcDbArc
 50
270.0
 51
90.0
  0
LINE
  5
413
330
4D4
100
AcDbEntity
  8
YKK_A2
100
AcDbLine
 10
642.56074375
 20
418.200014
 30
0.0
 11
642.56074375
 21
423.700014
 31
0.0
  0
LINE
  5
414
330
4D4
100
AcDbEntity
  8
YKK_A2
100
AcDbLine
 10
642.63574375
 20
418.175014
 30
0.0
 11
642.63574375
 21
423.725014
 31
0.0
  0
ARC
  5
415
330
4D4
100
AcDbEntity
  8
YKK_A2
100
AcDbCircle
 10
642.53574375
 20
418.175014
 30
0.0
 40
0.1
100
AcDbArc
 50
270.0
 51
0.0
  0
ARC
  5
416
330
4D4
100
AcDbEntity
  8
YKK_A2
100
AcDbCircle
 10
642.53574375
 20
423.725014
 30
0.0
 40
0.1
100
AcDbArc
 50
0.0
 51
90.0
  0
ARC
  5
417
330
4D4
100
AcDbEntity
  8
YKK_A2
100
AcDbCircle
 10
649.66074373
 20
418.200014
 30
0.0
 40
0.05
100
AcDbArc
 50
270.0
 51
0.0
  0
ARC
  5
418
330
4D4
100
AcDbEntity
  8
YKK_A2
100
AcDbCircle
 10
649.66074373
 20
423.700014
 30
0.0
 40
0.05
100
AcDbArc
 50
0.0
 51
90.0
  0
LINE
  5
419
330
4D4
100
AcDbEntity
  8
YKK_A2
100
AcDbLine
 10
649.71074373
 20
418.200014
 30
0.0
 11
649.71074373
 21
423.700014
 31
0.0
  0
LINE
  5
41A
330
4D4
100
AcDbEntity
  8
YKK_A2
100
AcDbLine
 10
649.78574373
 20
418.175014
 30
0.0
 11
649.78574373
 21
423.725014
 31
0.0
  0
ARC
  5
41B
330
4D4
100
AcDbEntity
  8
YKK_A2
100
AcDbCircle
 10
649.68574373
 20
418.175014
 30
0.0
 40
0.1
100
AcDbArc
 50
270.0
 51
0.0
  0
ARC
  5
41C
330
4D4
100
AcDbEntity
  8
YKK_A2
100
AcDbCircle
 10
649.68574373
 20
423.725014
 30
0.0
 40
0.1
100
AcDbArc
 50
0.0
 51
90.0
  0
LINE
  5
41D
330
4D4
100
AcDbEntity
  8
YKK_A2
100
AcDbLine
 10
668.9000182
 20
422.850014
 30
0.0
 11
668.4000182
 21
422.850014
 31
0.0
  0
LINE
  5
41E
330
4D4
100
AcDbEntity
  8
YKK_A2
100
AcDbLine
 10
668.4000182
 20
420.950014
 30
0.0
 11
668.9000182
 21
420.950014
 31
0.0
  0
LINE
  5
41F
330
4D4
100
AcDbEntity
  8
YKK_A2
100
AcDbLine
 10
668.4000182
 20
419.050014
 30
0.0
 11
668.9000182
 21
419.050014
 31
0.0
  0
LINE
  5
420
330
4D4
100
AcDbEntity
  8
YKK_A2
100
AcDbLine
 10
668.9000182
 20
419.050014
 30
0.0
 11
668.9000182
 21
422.850014
 31
0.0
  0
LINE
  5
421
330
4D4
100
AcDbEntity
  8
YKK_A2
100
AcDbLine
 10
668.4000182
 20
422.850014
 30
0.0
 11
668.4000182
 21
419.050014
 31
0.0
  0
TEXT
  5
422
330
4D4
100
AcDbEntity
  8
YKK_N1
  6
Continuous
100
AcDbText
 10
677.9000213
 20
419.90001254
 30
0.0
 40
3.0
  1
H
 50
90.0000025
 72
     4
 11
676.40002125
 21
420.90001247
 31
0.0
100
AcDbText
  0
LINE
  5
423
330
4D4
100
AcDbEntity
  8
YKK_ZWAK
  6
Continuous
 62
   254
100
AcDbLine
 10
770.0000182
 20
298.9000077
 30
0.0
 11
772.8000182
 21
298.9000077
 31
0.0
  0
LINE
  5
424
330
4D4
100
AcDbEntity
  8
YKK_N1
  6
Continuous
100
AcDbLine
 10
672.2500182
 20
478.400014
 30
0.0
 11
678.50002125
 21
478.400014
 31
0.0
  0
LINE
  5
425
330
4D4
100
AcDbEntity
  8
YKK_A1
100
AcDbLine
 10
646.3250182
 20
479.000014
 30
0.0
 11
668.5500182
 21
479.000014
 31
0.0
  0
POINT
  5
426
330
4D4
100
AcDbEntity
  8
YKK_A1
100
AcDbPoint
 10
660.5000182
 20
480.400014
 30
0.0
  0
POINT
  5
427
330
4D4
100
AcDbEntity
  8
YKK_A1
100
AcDbPoint
 10
670.0000182
 20
478.400014
 30
0.0
  0
POINT
  5
428
330
4D4
100
AcDbEntity
  8
YKK_A1
100
AcDbPoint
 10
668.0000182
 20
480.400014
 30
0.0
  0
LINE
  5
429
330
4D4
100
AcDbEntity
  8
YKK_A2
100
AcDbLine
 10
668.4000182
 20
472.100014
 30
0.0
 11
668.9000182
 21
472.100014
 31
0.0
  0
LINE
  5
42A
330
4D4
100
AcDbEntity
  8
YKK_A2
100
AcDbLine
 10
668.4000182
 20
474.000014
 30
0.0
 11
668.9000182
 21
474.000014
 31
0.0
  0
LINE
  5
42B
330
4D4
100
AcDbEntity
  8
YKK_A1
100
AcDbLine
 10
668.5500182
 20
474.000014
 30
0.0
 11
668.5500182
 21
479.000014
 31
0.0
  0
LINE
  5
42C
330
4D4
100
AcDbEntity
  8
YKK_A1
100
AcDbLine
 10
668.7500182
 20
474.000014
 30
0.0
 11
668.7500182
 21
480.400014
 31
0.0
  0
LINE
  5
42D
330
4D4
100
AcDbEntity
  8
YKK_A2
100
AcDbLine
 10
668.9000182
 20
470.200014
 30
0.0
 11
668.4000182
 21
470.200014
 31
0.0
  0
LINE
  5
42E
330
4D4
100
AcDbEntity
  8
YKK_A2
100
AcDbLine
 10
668.9000182
 20
474.000014
 30
0.0
 11
668.9000182
 21
470.200014
 31
0.0
  0
LINE
  5
42F
330
4D4
100
AcDbEntity
  8
YKK_A2
100
AcDbLine
 10
668.4000182
 20
470.200014
 30
0.0
 11
668.4000182
 21
474.000014
 31
0.0
  0
LINE
  5
430
330
4D4
100
AcDbEntity
  8
YKK_N1
  6
Continuous
100
AcDbLine
 10
676.0000182
 20
474.06988705
 30
0.0
 11
681.00002125
 21
474.06988705
 31
0.0
  0
LINE
  5
431
330
4D4
100
AcDbEntity
  8
YKK_N1
  6
Continuous
100
AcDbLine
 10
681.00002125
 20
474.06988705
 30
0.0
 11
678.50002125
 21
478.400014
 31
0.0
  0
LINE
  5
432
330
4D4
100
AcDbEntity
  8
YKK_N1
  6
Continuous
100
AcDbLine
 10
676.00002736
 20
474.06988705
 30
0.0
 11
678.50002736
 21
478.400014
 31
0.0
  0
CIRCLE
  5
478
330
4D4
100
AcDbEntity
  8
YKK_D
100
AcDbCircle
 10
675.8939138
 20
242.78225583
 30
0.0
 40
0.75
  0
CIRCLE
  5
479
330
4D4
100
AcDbEntity
  8
YKK_D
100
AcDbCircle
 10
650.8939138
 20
242.78225583
 30
0.0
 40
0.75
  0
CIRCLE
  5
47A
330
4D4
100
AcDbEntity
  8
YKK_D
100
AcDbCircle
 10
650.8939138
 20
242.78225583
 30
0.0
 40
0.75
  0
CIRCLE
  5
47B
330
4D4
100
AcDbEntity
  8
YKK_D
100
AcDbCircle
 10
646.8939138
 20
242.78225583
 30
0.0
 40
0.75
  0
CIRCLE
  5
47C
330
4D4
100
AcDbEntity
  8
YKK_D
100
AcDbCircle
 10
646.8939138
 20
242.78225583
 30
0.0
 40
0.75
  0
CIRCLE
  5
47D
330
4D4
100
AcDbEntity
  8
YKK_D
100
AcDbCircle
 10
650.89385277
 20
129.28225583
 30
0.0
 40
0.75
  0
CIRCLE
  5
47E
330
4D4
100
AcDbEntity
  8
YKK_D
100
AcDbCircle
 10
665.8939138
 20
109.28225583
 30
0.0
 40
0.75
  0
CIRCLE
  5
47F
330
4D4
100
AcDbEntity
  8
YKK_D
100
AcDbCircle
 10
635.89379173
 20
129.28225583
 30
0.0
 40
0.75
  0
CIRCLE
  5
480
330
4D4
100
AcDbEntity
  8
YKK_D
100
AcDbCircle
 10
513.8939138
 20
242.78225583
 30
0.0
 40
0.75
  0
CIRCLE
  5
481
330
4D4
100
AcDbEntity
  8
YKK_D
100
AcDbCircle
 10
513.8939138
 20
242.78225583
 30
0.0
 40
0.75
  0
CIRCLE
  5
482
330
4D4
100
AcDbEntity
  8
YKK_D
100
AcDbCircle
 10
507.8939138
 20
242.78225583
 30
0.0
 40
0.75
  0
CIRCLE
  5
483
330
4D4
100
AcDbEntity
  8
YKK_D
100
AcDbCircle
 10
507.8939138
 20
242.78225583
 30
0.0
 40
0.75
  0
CIRCLE
  5
484
330
4D4
100
AcDbEntity
  8
YKK_D
100
AcDbCircle
 10
435.89397484
 20
209.28225583
 30
0.0
 40
0.75
  0
CIRCLE
  5
485
330
4D4
100
AcDbEntity
  8
YKK_D
100
AcDbCircle
 10
415.89394432
 20
209.28225583
 30
0.0
 40
0.75
  0
CIRCLE
  5
486
330
4D4
100
AcDbEntity
  8
YKK_D
100
AcDbCircle
 10
415.89394432
 20
205.28225583
 30
0.0
 40
0.75
  0
CIRCLE
  5
487
330
4D4
100
AcDbEntity
  8
YKK_D
100
AcDbCircle
 10
415.89394432
 20
205.28225583
 30
0.0
 40
0.75
  0
CIRCLE
  5
488
330
4D4
100
AcDbEntity
  8
YKK_D
100
AcDbCircle
 10
415.89394432
 20
180.28225583
 30
0.0
 40
0.75
  0
CIRCLE
  5
489
330
4D4
100
AcDbEntity
  8
YKK_D
100
AcDbCircle
 10
415.89394432
 20
180.28225583
 30
0.0
 40
0.75
  0
CIRCLE
  5
48A
330
4D4
100
AcDbEntity
  8
YKK_D
100
AcDbCircle
 10
415.89394432
 20
177.28225583
 30
0.0
 40
0.75
  0
CIRCLE
  5
48B
330
4D4
100
AcDbEntity
  8
YKK_D
100
AcDbCircle
 10
415.89394432
 20
177.28225583
 30
0.0
 40
0.75
  0
CIRCLE
  5
48C
330
4D4
100
AcDbEntity
  8
YKK_D
100
AcDbCircle
 10
435.89397484
 20
149.28225583
 30
0.0
 40
0.75
  0
CIRCLE
  5
48D
330
4D4
100
AcDbEntity
  8
YKK_D
100
AcDbCircle
 10
415.89394432
 20
149.28225583
 30
0.0
 40
0.75
  0
CIRCLE
  5
48E
330
4D4
100
AcDbEntity
  8
YKK_D
100
AcDbCircle
 10
224.94311212
 20
488.49710479
 30
0.0
 40
0.75
  0
CIRCLE
  5
48F
330
4D4
100
AcDbEntity
  8
YKK_D
100
AcDbCircle
 10
183.34310602
 20
518.49710479
 30
0.0
 40
0.75
  0
CIRCLE
  5
490
330
4D4
100
AcDbEntity
  8
YKK_D
100
AcDbCircle
 10
184.94311212
 20
518.49710479
 30
0.0
 40
0.75
  0
CIRCLE
  5
491
330
4D4
100
AcDbEntity
  8
YKK_D
100
AcDbCircle
 10
204.94311212
 20
473.49707427
 30
0.0
 40
0.75
  0
CIRCLE
  5
492
330
4D4
100
AcDbEntity
  8
YKK_D
100
AcDbCircle
 10
204.94311212
 20
458.49707427
 30
0.0
 40
0.75
  0
CIRCLE
  5
493
330
4D4
100
AcDbEntity
  8
YKK_D
100
AcDbCircle
 10
144.94310449
 20
518.49710479
 30
0.0
 40
0.75
  0
CIRCLE
  5
494
330
4D4
100
AcDbEntity
  8
YKK_D
100
AcDbCircle
 10
126.54310297
 20
518.49710479
 30
0.0
 40
0.75
  0
CIRCLE
  5
495
330
4D4
100
AcDbEntity
  8
YKK_D
100
AcDbCircle
 10
124.94310449
 20
518.49710479
 30
0.0
 40
0.75
  0
CIRCLE
  5
496
330
4D4
100
AcDbEntity
  8
YKK_D
100
AcDbCircle
 10
126.54310297
 20
518.49710479
 30
0.0
 40
0.75
  0
CIRCLE
  5
497
330
4D4
100
AcDbEntity
  8
YKK_D
100
AcDbCircle
 10
104.94310449
 20
498.49710479
 30
0.0
 40
0.75
  0
CIRCLE
  5
498
330
4D4
100
AcDbEntity
  8
YKK_D
100
AcDbCircle
 10
104.94310449
 20
470.49710479
 30
0.0
 40
0.75
  0
CIRCLE
  5
499
330
4D4
100
AcDbEntity
  8
YKK_D
100
AcDbCircle
 10
104.94310449
 20
470.49710479
 30
0.0
 40
0.75
  0
CIRCLE
  5
49A
330
4D4
100
AcDbEntity
  8
YKK_D
100
AcDbCircle
 10
104.94310449
 20
473.49710479
 30
0.0
 40
0.75
  0
CIRCLE
  5
49B
330
4D4
100
AcDbEntity
  8
YKK_D
100
AcDbCircle
 10
104.94310449
 20
473.49710479
 30
0.0
 40
0.75
  0
CIRCLE
  5
49C
330
4D4
100
AcDbEntity
  8
YKK_D
100
AcDbCircle
 10
374.89394432
 20
242.78225583
 30
0.0
 40
0.75
  0
CIRCLE
  5
49D
330
4D4
100
AcDbEntity
  8
YKK_D
100
AcDbCircle
 10
374.89394432
 20
242.78225583
 30
0.0
 40
0.75
  0
CIRCLE
  5
49E
330
4D4
100
AcDbEntity
  8
YKK_D
100
AcDbCircle
 10
370.89394432
 20
242.78225583
 30
0.0
 40
0.75
  0
CIRCLE
  5
49F
330
4D4
100
AcDbEntity
  8
YKK_D
100
AcDbCircle
 10
370.89394432
 20
242.78225583
 30
0.0
 40
0.75
  0
CIRCLE
  5
4A0
330
4D4
100
AcDbEntity
  8
YKK_D
100
AcDbCircle
 10
345.89394432
 20
242.78225583
 30
0.0
 40
0.75
  0
CIRCLE
  5
4A1
330
4D4
100
AcDbEntity
  8
YKK_D
100
AcDbCircle
 10
325.89394432
 20
209.28225583
 30
0.0
 40
0.75
  0
CIRCLE
  5
4A2
330
4D4
100
AcDbEntity
  8
YKK_D
100
AcDbCircle
 10
385.89397484
 20
129.28225583
 30
0.0
 40
0.75
  0
CIRCLE
  5
4A3
330
4D4
100
AcDbEntity
  8
YKK_D
100
AcDbCircle
 10
370.89394432
 20
129.28225583
 30
0.0
 40
0.75
  0
CIRCLE
  5
4A4
330
4D4
100
AcDbEntity
  8
YKK_D
100
AcDbCircle
 10
355.89394432
 20
109.28225583
 30
0.0
 40
0.75
  0
CIRCLE
  5
4A5
330
4D4
100
AcDbEntity
  8
YKK_D
100
AcDbCircle
 10
325.89394432
 20
189.28225583
 30
0.0
 40
0.75
  0
CIRCLE
  5
4A6
330
4D4
100
AcDbEntity
  8
YKK_D
100
AcDbCircle
 10
224.94311212
 20
119.28226104
 30
0.0
 40
0.75
  0
CIRCLE
  5
4A7
330
4D4
100
AcDbEntity
  8
YKK_D
100
AcDbCircle
 10
184.94311212
 20
189.28226104
 30
0.0
 40
0.75
  0
CIRCLE
  5
4A8
330
4D4
100
AcDbEntity
  8
YKK_D
100
AcDbCircle
 10
184.94311212
 20
169.28226104
 30
0.0
 40
0.75
  0
CIRCLE
  5
4A9
330
4D4
100
AcDbEntity
  8
YKK_D
100
AcDbCircle
 10
156.94311212
 20
169.28226104
 30
0.0
 40
0.75
  0
CIRCLE
  5
4AA
330
4D4
100
AcDbEntity
  8
YKK_D
100
AcDbCircle
 10
156.94311212
 20
169.28226104
 30
0.0
 40
0.75
  0
CIRCLE
  5
4AB
330
4D4
100
AcDbEntity
  8
YKK_D
100
AcDbCircle
 10
153.94311212
 20
169.28226104
 30
0.0
 40
0.75
  0
CIRCLE
  5
4AC
330
4D4
100
AcDbEntity
  8
YKK_D
100
AcDbCircle
 10
153.94311212
 20
169.28226104
 30
0.0
 40
0.75
  0
CIRCLE
  5
4AD
330
4D4
100
AcDbEntity
  8
YKK_D
100
AcDbCircle
 10
204.94311212
 20
134.28225341
 30
0.0
 40
0.75
  0
CIRCLE
  5
4AE
330
4D4
100
AcDbEntity
  8
YKK_D
100
AcDbCircle
 10
204.94311212
 20
149.28225341
 30
0.0
 40
0.75
  0
CIRCLE
  5
4AF
330
4D4
100
AcDbEntity
  8
YKK_D
100
AcDbCircle
 10
183.34310602
 20
89.28226104
 30
0.0
 40
0.75
  0
CIRCLE
  5
4B0
330
4D4
100
AcDbEntity
  8
YKK_D
100
AcDbCircle
 10
184.94311212
 20
89.28226104
 30
0.0
 40
0.75
  0
CIRCLE
  5
4B1
330
4D4
100
AcDbEntity
  8
YKK_D
100
AcDbCircle
 10
124.94310449
 20
189.28226104
 30
0.0
 40
0.75
  0
CIRCLE
  5
4B2
330
4D4
100
AcDbEntity
  8
YKK_D
100
AcDbCircle
 10
128.94310449
 20
169.28226104
 30
0.0
 40
0.75
  0
CIRCLE
  5
4B3
330
4D4
100
AcDbEntity
  8
YKK_D
100
AcDbCircle
 10
124.94310449
 20
169.28226104
 30
0.0
 40
0.75
  0
CIRCLE
  5
4B4
330
4D4
100
AcDbEntity
  8
YKK_D
100
AcDbCircle
 10
128.94310449
 20
169.28226104
 30
0.0
 40
0.75
  0
CIRCLE
  5
4B5
330
4D4
100
AcDbEntity
  8
YKK_D
100
AcDbCircle
 10
104.94310449
 20
134.28226104
 30
0.0
 40
0.75
  0
CIRCLE
  5
4B6
330
4D4
100
AcDbEntity
  8
YKK_D
100
AcDbCircle
 10
104.94310449
 20
134.28226104
 30
0.0
 40
0.75
  0
CIRCLE
  5
4B7
330
4D4
100
AcDbEntity
  8
YKK_D
100
AcDbCircle
 10
104.94310449
 20
139.28226104
 30
0.0
 40
0.75
  0
CIRCLE
  5
4B8
330
4D4
100
AcDbEntity
  8
YKK_D
100
AcDbCircle
 10
104.94310449
 20
139.28226104
 30
0.0
 40
0.75
  0
CIRCLE
  5
4B9
330
4D4
100
AcDbEntity
  8
YKK_D
100
AcDbCircle
 10
104.94310449
 20
109.28226104
 30
0.0
 40
0.75
  0
CIRCLE
  5
4BA
330
4D4
100
AcDbEntity
  8
YKK_D
100
AcDbCircle
 10
144.94310449
 20
89.28226104
 30
0.0
 40
0.75
  0
CIRCLE
  5
4BB
330
4D4
100
AcDbEntity
  8
YKK_D
100
AcDbCircle
 10
124.94310449
 20
89.28226104
 30
0.0
 40
0.75
  0
CIRCLE
  5
4BC
330
4D4
100
AcDbEntity
  8
YKK_D
100
AcDbCircle
 10
126.54310297
 20
89.28226104
 30
0.0
 40
0.75
  0
CIRCLE
  5
4BD
330
4D4
100
AcDbEntity
  8
YKK_D
100
AcDbCircle
 10
126.54310297
 20
89.28226104
 30
0.0
 40
0.75
  0
ENDSEC
  0
SECTION
  2
OBJECTS
  0
DICTIONARY
  5
4C9
330
0
100
AcDbDictionary
281
     1
  3
ACAD_CIP_PREVIOUS_PRODUCT_INFO
350
59D
  3
ACAD_COLOR
350
52F
  3
ACAD_DETAILVIEWSTYLE
350
548
  3
ACAD_GROUP
350
4CA
  3
ACAD_LAYOUT
350
54F
  3
ACAD_MATERIAL
350
4FD
  3
ACAD_MLEADERSTYLE
350
544
  3
ACAD_MLINESTYLE
350
4D7
  3
ACAD_PLOTSETTINGS
350
54E
  3
ACAD_PLOTSTYLENAME
350
4FB
  3
ACAD_SCALELIST
350
532
  3
ACAD_SECTIONVIEWSTYLE
350
546
  3
ACAD_TABLESTYLE
350
530
  3
ACAD_VISUALSTYLE
350
516
  3
ACDB_RECOMPOSE_DATA
350
5A3
  3
ACDBVARIABLEDICTIONARY
350
4F2
  0
XRECORD
  5
59D
102
{ACAD_REACTORS
330
4C9
102
}
330
4C9
100
AcDbXrecord
280
     1
300
ACD
300
2014
300
86063ACD_2014_0F
  0
DICTIONARY
  5
52F
102
{ACAD_REACTORS
330
4C9
102
}
330
4C9
100
AcDbDictionary
281
     1
  0
DICTIONARY
  5
548
102
{ACAD_REACTORS
330
4C9
102
}
330
4C9
100
AcDbDictionary
281
     1
  3
Imperial24
350
549
  0
DICTIONARY
  5
4CA
102
{ACAD_REACTORS
330
4C9
102
}
330
4C9
100
AcDbDictionary
281
     1
  0
DICTIONARY
  5
54F
102
{ACAD_REACTORS
330
4C9
102
}
330
4C9
100
AcDbDictionary
281
     1
  3
Model
350
550
  3
レイアウト1
350
551
  0
DICTIONARY
  5
4FD
102
{ACAD_REACTORS
330
4C9
102
}
330
4C9
100
AcDbDictionary
281
     1
  3
ByBlock
350
506
  3
ByLayer
350
4FE
  3
Global
350
50E
  0
DICTIONARY
  5
544
102
{ACAD_REACTORS
330
4C9
102
}
330
4C9
100
AcDbDictionary
281
     1
  3
Standard
350
545
  0
DICTIONARY
  5
4D7
102
{ACAD_REACTORS
330
4C9
102
}
330
4C9
100
AcDbDictionary
281
     1
  3
STANDARD
350
4D8
  0
DICTIONARY
  5
54E
102
{ACAD_REACTORS
330
4C9
102
}
330
4C9
100
AcDbDictionary
281
     1
  0
ACDBDICTIONARYWDFLT
  5
4FB
102
{ACAD_REACTORS
330
4C9
102
}
330
4C9
100
AcDbDictionary
281
     1
  3
Normal
350
4FC
100
AcDbDictionaryWithDefault
340
4FC
  0
DICTIONARY
  5
532
102
{ACAD_REACTORS
330
4C9
102
}
330
4C9
100
AcDbDictionary
281
     1
  3
A0
350
533
  3
A1
350
534
  3
A2
350
535
  3
A3
350
536
  3
A4
350
537
  3
A5
350
538
  3
A6
350
539
  3
A7
350
53A
  3
A8
350
53B
  3
A9
350
53C
  3
B0
350
53D
  3
B1
350
53E
  3
B2
350
53F
  3
B3
350
540
  3
B4
350
541
  3
B5
350
542
  3
B6
350
543
  0
DICTIONARY
  5
546
102
{ACAD_REACTORS
330
4C9
102
}
330
4C9
100
AcDbDictionary
281
     1
  3
Imperial24
350
547
  0
DICTIONARY
  5
530
102
{ACAD_REACTORS
330
4C9
102
}
330
4C9
100
AcDbDictionary
281
     1
  3
Standard
350
531
  0
DICTIONARY
  5
516
102
{ACAD_REACTORS
330
4C9
102
}
330
4C9
100
AcDbDictionary
281
     1
  3
2dWireframe
350
51C
  3
Basic
350
51B
  3
Brighten
350
522
  3
ColorChange
350
526
  3
Conceptual
350
51F
  3
Dim
350
521
  3
EdgeColorOff
350
52E
  3
Facepattern
350
525
  3
Flat
350
517
  3
FlatWithEdges
350
518
  3
Gouraud
350
519
  3
GouraudWithEdges
350
51A
  3
Hidden
350
51E
  3
JitterOff
350
52C
  3
Linepattern
350
524
  3
OverhangOff
350
52D
  3
Realistic
350
520
  3
Shaded
350
52B
  3
Shaded with edges
350
52A
  3
Shades of Gray
350
527
  3
Sketchy
350
528
  3
Thicken
350
523
  3
Wireframe
350
51D
  3
X-Ray
350
529
  0
XRECORD
  5
5A3
102
{ACAD_REACTORS
330
4C9
102
}
330
4C9
100
AcDbXrecord
280
     1
 90
        1
330
531
  0
DICTIONARY
  5
4F2
102
{ACAD_REACTORS
330
4C9
102
}
330
4C9
100
AcDbDictionary
281
     1
  3
CANNOSCALE
350
594
  3
CMLEADERSTYLE
350
591
  3
CTABLESTYLE
350
590
  3
CVIEWDETAILSTYLE
350
592
  3
CVIEWSECTIONSTYLE
350
593
  3
DIMADEC
350
4F3
  3
XCLIPFRAME
350
5A1
  0
ACDBDETAILVIEWSTYLE
  5
549
102
{ACAD_XDICTIONARY
360
5DC
102
}
102
{ACAD_REACTORS
330
548
102
}
330
548
100
AcDbModelDocViewStyle
 70
     0
  3
Imperial24
290
     0
100
AcDbDetailViewStyle
 70
     0
 71
     0
 90
        3
 71
     1
340
4CC
 62
   256
 40
0.24
340
0
 62
   256
 40
0.24
300

 40
0.36
280
     3
 71
     2
340
4D0
 90
       25
 62
   256
 71
     3
340
4CC
 62
   256
 40
0.24
 90
        1
 40
0.75
 90
        1
300
%<\AcVar ViewType \f "%tc1">% %<\AcVar ViewDetailId>%\PSCALE %<\AcVar ViewScale \f "%sn">%
 71
     4
340
4D0
 90
       25
 62
   256
340
4D0
 90
       25
 62
   256
280
     0
  0
LAYOUT
  5
550
102
{ACAD_REACTORS
330
54F
102
}
330
54F
100
AcDbPlotSettings
  1

  2
C:\ACAD-I\support\plotters\Default Windows System Printer.pc3
  4
A4
  6

 40
3.17499995
 41
3.17499995
 42
3.17500305
 43
3.17498779
 44
209.88865662
 45
297.05300903
 46
0.0
 47
0.0
 48
0.0
 49
0.0
140
0.0
141
0.0
142
1.0
143
87.5883996
 70
 11952
 72
     0
 73
     1
 74
     0
  7
monochrome.ctb
 75
     0
147
0.01141704
 76
     0
 77
     2
 78
   300
148
2725.83763938
149
82.02110902
100
AcDbLayout
  1
Model
 70
     1
 71
     0
 10
0.0
 20
0.0
 11
12.0
 21
9.0
 12
0.0
 22
0.0
 32
0.0
 14
0.0
 24
0.0
 34
0.0
 15
0.0
 25
0.0
 35
0.0
146
0.0
 13
0.0
 23
0.0
 33
0.0
 16
1.0
 26
0.0
 36
0.0
 17
0.0
 27
1.0
 37
0.0
 76
     0
330
4D4
1001
ACAD_PSEXT
1000
C:\ACAD-I\support\plotters\Default Windows System Printer.pc3
1000
Fiery PRO80 65-55C-KM PS3.0jp
1000
IP_10.230.204.212
1000

1070
     0
  0
LAYOUT
  5
551
102
{ACAD_REACTORS
330
54F
102
}
330
54F
100
AcDbPlotSettings
  1

  2
C:\ACAD-I\support\plotters\Default Windows System Printer.pc3
  4
A4
  6

 40
3.17499995
 41
3.17499995
 42
3.17500305
 43
3.17498779
 44
209.88865662
 45
297.05300903
 46
0.0
 47
0.0
 48
0.0
 49
0.0
140
0.0
141
0.0
142
1.0
143
1.0
 70
 15024
 72
     0
 73
     1
 74
     5
  7
monochrome.ctb
 75
    16
147
1.0
 76
     0
 77
     2
 78
   300
148
0.0
149
0.0
100
AcDbLayout
  1
レイアウト1
 70
     1
 71
     1
 10
0.0
 20
0.0
 11
12.0
 21
9.0
 12
0.0
 22
0.0
 32
0.0
 14
1.00000000E+20
 24
1.00000000E+20
 34
1.00000000E+20
 15
-1.00000000E+20
 25
-1.00000000E+20
 35
-1.00000000E+20
146
0.0
 13
0.0
 23
0.0
 33
0.0
 16
1.0
 26
0.0
 36
0.0
 17
0.0
 27
1.0
 37
0.0
 76
     0
330
4D1
1001
ACAD_PSEXT
1000
C:\ACAD-I\support\plotters\Default Windows System Printer.pc3
1000
Fiery PRO80 65-55C-KM PS3.0jp
1000
IP_10.230.204.212
1000

1070
     0
  0
MATERIAL
  5
506
102
{ACAD_XDICTIONARY
360
507
102
}
102
{ACAD_REACTORS
330
4FD
102
}
330
4FD
100
AcDbMaterial
  1
ByBlock
 72
     0
 43
0.02083333
 43
0.0
 43
0.0
 43
0.0
 43
0.0
 43
0.02083333
 43
0.0
 43
0.0
 43
0.0
 43
0.0
 43
1.0
 43
0.0
 43
0.0
 43
0.0
 43
0.0
 43
1.0
 77
     0
 47
0.02083333
 47
0.0
 47
0.0
 47
0.0
 47
0.0
 47
0.02083333
 47
0.0
 47
0.0
 47
0.0
 47
0.0
 47
1.0
 47
0.0
 47
0.0
 47
0.0
 47
0.0
 47
1.0
171
     0
 49
0.02083333
 49
0.0
 49
0.0
 49
0.0
 49
0.0
 49
0.02083333
 49
0.0
 49
0.0
 49
0.0
 49
0.0
 49
1.0
 49
0.0
 49
0.0
 49
0.0
 49
0.0
 49
1.0
175
     0
142
0.02083333
142
0.0
142
0.0
142
0.0
142
0.0
142
0.02083333
142
0.0
142
0.0
142
0.0
142
0.0
142
1.0
142
0.0
142
0.0
142
0.0
142
0.0
142
1.0
179
     0
144
0.02083333
144
0.0
144
0.0
144
0.0
144
0.0
144
0.02083333
144
0.0
144
0.0
144
0.0
144
0.0
144
1.0
144
0.0
144
0.0
144
0.0
144
0.0
144
1.0
147
0.02083333
147
0.0
147
0.0
147
0.0
147
0.0
147
0.02083333
147
0.0
147
0.0
147
0.0
147
0.0
147
1.0
147
0.0
147
0.0
147
0.0
147
0.0
147
1.0
  0
MATERIAL
  5
4FE
102
{ACAD_XDICTIONARY
360
4FF
102
}
102
{ACAD_REACTORS
330
4FD
102
}
330
4FD
100
AcDbMaterial
  1
ByLayer
 72
     0
 43
0.02083333
 43
0.0
 43
0.0
 43
0.0
 43
0.0
 43
0.02083333
 43
0.0
 43
0.0
 43
0.0
 43
0.0
 43
1.0
 43
0.0
 43
0.0
 43
0.0
 43
0.0
 43
1.0
 77
     0
 47
0.02083333
 47
0.0
 47
0.0
 47
0.0
 47
0.0
 47
0.02083333
 47
0.0
 47
0.0
 47
0.0
 47
0.0
 47
1.0
 47
0.0
 47
0.0
 47
0.0
 47
0.0
 47
1.0
171
     0
 49
0.02083333
 49
0.0
 49
0.0
 49
0.0
 49
0.0
 49
0.02083333
 49
0.0
 49
0.0
 49
0.0
 49
0.0
 49
1.0
 49
0.0
 49
0.0
 49
0.0
 49
0.0
 49
1.0
175
     0
142
0.02083333
142
0.0
142
0.0
142
0.0
142
0.0
142
0.02083333
142
0.0
142
0.0
142
0.0
142
0.0
142
1.0
142
0.0
142
0.0
142
0.0
142
0.0
142
1.0
179
     0
144
0.02083333
144
0.0
144
0.0
144
0.0
144
0.0
144
0.02083333
144
0.0
144
0.0
144
0.0
144
0.0
144
1.0
144
0.0
144
0.0
144
0.0
144
0.0
144
1.0
147
0.02083333
147
0.0
147
0.0
147
0.0
147
0.0
147
0.02083333
147
0.0
147
0.0
147
0.0
147
0.0
147
1.0
147
0.0
147
0.0
147
0.0
147
0.0
147
1.0
  0
MATERIAL
  5
50E
102
{ACAD_XDICTIONARY
360
50F
102
}
102
{ACAD_REACTORS
330
4FD
102
}
330
4FD
100
AcDbMaterial
  1
Global
 72
     0
 43
0.02083333
 43
0.0
 43
0.0
 43
0.0
 43
0.0
 43
0.02083333
 43
0.0
 43
0.0
 43
0.0
 43
0.0
 43
1.0
 43
0.0
 43
0.0
 43
0.0
 43
0.0
 43
1.0
 77
     0
 47
0.02083333
 47
0.0
 47
0.0
 47
0.0
 47
0.0
 47
0.02083333
 47
0.0
 47
0.0
 47
0.0
 47
0.0
 47
1.0
 47
0.0
 47
0.0
 47
0.0
 47
0.0
 47
1.0
171
     0
 49
0.02083333
 49
0.0
 49
0.0
 49
0.0
 49
0.0
 49
0.02083333
 49
0.0
 49
0.0
 49
0.0
 49
0.0
 49
1.0
 49
0.0
 49
0.0
 49
0.0
 49
0.0
 49
1.0
175
     0
142
0.02083333
142
0.0
142
0.0
142
0.0
142
0.0
142
0.02083333
142
0.0
142
0.0
142
0.0
142
0.0
142
1.0
142
0.0
142
0.0
142
0.0
142
0.0
142
1.0
179
     0
144
0.02083333
144
0.0
144
0.0
144
0.0
144
0.0
144
0.02083333
144
0.0
144
0.0
144
0.0
144
0.0
144
1.0
144
0.0
144
0.0
144
0.0
144
0.0
144
1.0
147
0.02083333
147
0.0
147
0.0
147
0.0
147
0.0
147
0.02083333
147
0.0
147
0.0
147
0.0
147
0.0
147
1.0
147
0.0
147
0.0
147
0.0
147
0.0
147
1.0
  0
MLEADERSTYLE
  5
545
102
{ACAD_XDICTIONARY
360
5D8
102
}
102
{ACAD_REACTORS
330
544
102
}
330
544
100
AcDbMLeaderStyle
170
     2
171
     1
172
     0
 90
        2
 40
0.0
 41
0.0
173
     1
 91
-1056964608
340
4CE
 92
       -2
290
     1
 42
0.09
291
     1
 43
0.36
  3
Standard
 44
0.18
300

342
4CC
174
     1
178
     6
175
     1
176
     0
 93
-1056964608
 45
0.18
292
     0
297
     0
 46
0.18
 94
-1056964608
 47
1.0
 49
1.0
140
1.0
293
     1
141
0.0
294
     1
177
     0
142
1.0
295
     0
296
     0
143
0.125
1001
ACAD_MLEADERVER
1070
     2
  0
MLINESTYLE
  5
4D8
102
{ACAD_REACTORS
330
4D7
102
}
330
4D7
100
AcDbMlineStyle
  2
STANDARD
 70
     0
  3

 62
   256
 51
90.0
 52
90.0
 71
     2
 49
0.5
 62
   256
  6
BYLAYER
 49
-0.5
 62
   256
  6
BYLAYER
  0
ACDBPLACEHOLDER
  5
4FC
102
{ACAD_REACTORS
330
4FB
102
}
330
4FB
  0
SCALE
  5
533
102
{ACAD_REACTORS
330
532
102
}
330
532
100
AcDbScale
 70
     0
300
1:1
140
1.0
141
1.0
290
     1
  0
SCALE
  5
534
102
{ACAD_REACTORS
330
532
102
}
330
532
100
AcDbScale
 70
     0
300
1/128" = 1'-0"
140
0.0078125
141
12.0
290
     0
  0
SCALE
  5
535
102
{ACAD_REACTORS
330
532
102
}
330
532
100
AcDbScale
 70
     0
300
1/64" = 1'-0"
140
0.015625
141
12.0
290
     0
  0
SCALE
  5
536
102
{ACAD_REACTORS
330
532
102
}
330
532
100
AcDbScale
 70
     0
300
1/32" = 1'-0"
140
0.03125
141
12.0
290
     0
  0
SCALE
  5
537
102
{ACAD_REACTORS
330
532
102
}
330
532
100
AcDbScale
 70
     0
300
1/16" = 1'-0"
140
0.0625
141
12.0
290
     0
  0
SCALE
  5
538
102
{ACAD_REACTORS
330
532
102
}
330
532
100
AcDbScale
 70
     0
300
3/32" = 1'-0"
140
0.09375
141
12.0
290
     0
  0
SCALE
  5
539
102
{ACAD_REACTORS
330
532
102
}
330
532
100
AcDbScale
 70
     0
300
1/8" = 1'-0"
140
0.125
141
12.0
290
     0
  0
SCALE
  5
53A
102
{ACAD_REACTORS
330
532
102
}
330
532
100
AcDbScale
 70
     0
300
3/16" = 1'-0"
140
0.1875
141
12.0
290
     0
  0
SCALE
  5
53B
102
{ACAD_REACTORS
330
532
102
}
330
532
100
AcDbScale
 70
     0
300
1/4" = 1'-0"
140
0.25
141
12.0
290
     0
  0
SCALE
  5
53C
102
{ACAD_REACTORS
330
532
102
}
330
532
100
AcDbScale
 70
     0
300
3/8" = 1'-0"
140
0.375
141
12.0
290
     0
  0
SCALE
  5
53D
102
{ACAD_REACTORS
330
532
102
}
330
532
100
AcDbScale
 70
     0
300
1/2" = 1'-0"
140
0.5
141
12.0
290
     0
  0
SCALE
  5
53E
102
{ACAD_REACTORS
330
532
102
}
330
532
100
AcDbScale
 70
     0
300
3/4" = 1'-0"
140
0.75
141
12.0
290
     0
  0
SCALE
  5
53F
102
{ACAD_REACTORS
330
532
102
}
330
532
100
AcDbScale
 70
     0
300
1" = 1'-0"
140
1.0
141
12.0
290
     0
  0
SCALE
  5
540
102
{ACAD_REACTORS
330
532
102
}
330
532
100
AcDbScale
 70
     0
300
1-1/2" = 1'-0"
140
1.5
141
12.0
290
     0
  0
SCALE
  5
541
102
{ACAD_REACTORS
330
532
102
}
330
532
100
AcDbScale
 70
     0
300
3" = 1'-0"
140
3.0
141
12.0
290
     0
  0
SCALE
  5
542
102
{ACAD_REACTORS
330
532
102
}
330
532
100
AcDbScale
 70
     0
300
6" = 1'-0"
140
6.0
141
12.0
290
     0
  0
SCALE
  5
543
102
{ACAD_REACTORS
330
532
102
}
330
532
100
AcDbScale
 70
     0
300
1'-0" = 1'-0"
140
12.0
141
12.0
290
     0
  0
ACDBSECTIONVIEWSTYLE
  5
547
102
{ACAD_XDICTIONARY
360
5DA
102
}
102
{ACAD_REACTORS
330
546
102
}
330
546
100
AcDbModelDocViewStyle
 70
     0
  3
Imperial24
290
     0
100
AcDbSectionViewStyle
 70
     0
 71
     0
 90
      102
 71
     1
340
4CC
 62
   256
 40
5.0
340
0
340
0
 62
   256
 40
5.0
300
I, O, Q, S, X, Z
 40
10.0
 90
        0
 40
2.5
 90
        0
 71
     2
340
4D0
 90
       25
 62
   256
340
4D0
 90
       50
 62
   256
 40
5.0
 40
2.5
 40
5.0
 71
     3
340
4CC
 62
   256
 40
5.0
 90
        0
 40
15.0
 90
        1
300
%<\AcVar ViewSectionStartId>%-%<\AcVar ViewSectionEndId>% (%<\AcVar ViewScale \f "%sn">%)
 71
     4
 62
   256
 62
   257
300
ANSI31
 40
1.0
 90
        0
290
     0
290
     0
 90
        6
 40
0.0
 40
1.57079633
 40
0.26179939
 40
1.30899694
 40
-0.26179939
 40
1.83259571
  0
TABLESTYLE
  5
531
102
{ACAD_XDICTIONARY
360
552
102
}
102
{ACAD_REACTORS
330
530
102
}
330
530
100
AcDbTableStyle
  3
Standard
 70
     0
 71
     0
 40
0.06
 41
0.06
280
     0
281
     0
  7
STANDARD
140
0.18
170
     2
 62
     0
 63
     7
283
     0
274
    -2
284
     1
 64
     0
275
    -2
285
     1
 65
     0
276
    -2
286
     1
 66
     0
277
    -2
287
     1
 67
     0
278
    -2
288
     1
 68
     0
279
    -2
289
     1
 69
     0
  7
STANDARD
140
0.25
170
     5
 62
     0
 63
     7
283
     0
274
    -2
284
     1
 64
     0
275
    -2
285
     1
 65
     0
276
    -2
286
     1
 66
     0
277
    -2
287
     1
 67
     0
278
    -2
288
     1
 68
     0
279
    -2
289
     1
 69
     0
  7
STANDARD
140
0.18
170
     5
 62
     0
 63
     7
283
     0
274
    -2
284
     1
 64
     0
275
    -2
285
     1
 65
     0
276
    -2
286
     1
 66
     0
277
    -2
287
     1
 67
     0
278
    -2
288
     1
 68
     0
279
    -2
289
     1
 69
     0
  0
VISUALSTYLE
  5
51C
102
{ACAD_XDICTIONARY
360
5B1
102
}
102
{ACAD_REACTORS
330
516
102
}
330
516
100
AcDbVisualStyle
  2
2dWireframe
 70
     4
 71
     0
 72
     2
 73
     0
 90
        0
 40
-0.6
 41
-30.0
 62
     5
 63
     7
421
 16777215
 74
     1
 91
        4
 64
     7
 65
   257
 75
     1
175
     1
 42
1.0
 92
        0
 66
   257
 43
1.0
 76
     1
 77
     6
 78
     2
 67
     7
 79
     5
170
     0
171
     0
290
     0
174
     0
 93
        1
 44
0.0
173
     0
291
     0
 45
0.0
1001
ACAD
1000
AcDbSavedByObjectVersion
1070
     0
  0
VISUALSTYLE
  5
51B
102
{ACAD_XDICTIONARY
360
5AF
102
}
102
{ACAD_REACTORS
330
516
102
}
330
516
100
AcDbVisualStyle
  2
Basic
 70
     7
 71
     1
 72
     0
 73
     1
 90
        0
 40
-0.6
 41
-30.0
 62
     5
 63
     7
421
 16777215
 74
     0
 91
        4
 64
     7
 65
   257
 75
     1
175
     1
 42
1.0
 92
        8
 66
     7
 43
1.0
 76
     1
 77
     6
 78
     2
 67
     7
 79
     5
170
     0
171
     0
290
     0
174
     0
 93
        1
 44
0.0
173
     0
291
     1
 45
0.0
1001
ACAD
1000
AcDbSavedByObjectVersion
1070
     0
  0
VISUALSTYLE
  5
522
102
{ACAD_XDICTIONARY
360
5BD
102
}
102
{ACAD_REACTORS
330
516
102
}
330
516
100
AcDbVisualStyle
  2
Brighten
 70
    12
 71
     2
 72
     2
 73
     0
 90
        0
 40
-0.6
 41
-30.0
 62
     5
 63
     7
421
 16777215
 74
     1
 91
        4
 64
     7
 65
   257
 75
     1
175
     1
 42
1.0
 92
        8
 66
     7
 43
1.0
 76
     1
 77
     6
 78
     2
 67
     7
 79
     5
170
     0
171
     0
290
     0
174
     0
 93
        1
 44
50.0
173
     0
291
     1
 45
0.0
1001
ACAD
1000
AcDbSavedByObjectVersion
1070
     0
  0
VISUALSTYLE
  5
526
102
{ACAD_XDICTIONARY
360
5C5
102
}
102
{ACAD_REACTORS
330
516
102
}
330
516
100
AcDbVisualStyle
  2
ColorChange
 70
    16
 71
     2
 72
     2
 73
     3
 90
        0
 40
-0.6
 41
-30.0
 62
     5
 63
     8
421
  8421504
 74
     1
 91
        4
 64
     7
 65
   257
 75
     1
175
     1
 42
1.0
 92
        8
 66
     8
424
  8421504
 43
1.0
 76
     1
 77
     6
 78
     2
 67
     7
 79
     5
170
     0
171
     0
290
     0
174
     0
 93
        1
 44
0.0
173
     0
291
     1
 45
0.0
1001
ACAD
1000
AcDbSavedByObjectVersion
1070
     0
  0
VISUALSTYLE
  5
51F
102
{ACAD_XDICTIONARY
360
5B7
102
}
102
{ACAD_REACTORS
330
516
102
}
330
516
100
AcDbVisualStyle
  2
Conceptual
 70
     9
 71
     3
 72
     2
 73
     0
 90
        0
 40
-0.6
 41
-30.0
 62
     5
 63
     7
421
 16777215
 74
     2
 91
        2
 64
     7
 65
   257
 75
     1
175
     1
 42
179.0
 92
        8
 66
     7
 43
1.0
 76
     1
 77
     6
 78
     2
 67
     7
 79
     3
170
     0
171
     0
290
     0
174
     0
 93
        1
 44
0.0
173
     0
291
     0
 45
0.0
1001
ACAD
1000
AcDbSavedByObjectVersion
1070
     0
  0
VISUALSTYLE
  5
521
102
{ACAD_XDICTIONARY
360
5BB
102
}
102
{ACAD_REACTORS
330
516
102
}
330
516
100
AcDbVisualStyle
  2
Dim
 70
    11
 71
     2
 72
     2
 73
     0
 90
        0
 40
-0.6
 41
-30.0
 62
     5
 63
     7
421
 16777215
 74
     1
 91
        4
 64
     7
 65
   257
 75
     1
175
     1
 42
1.0
 92
        8
 66
     7
 43
1.0
 76
     1
 77
     6
 78
     2
 67
     7
 79
     5
170
     0
171
     0
290
     0
174
     0
 93
        1
 44
-50.0
173
     0
291
     1
 45
0.0
1001
ACAD
1000
AcDbSavedByObjectVersion
1070
     0
  0
VISUALSTYLE
  5
52E
102
{ACAD_XDICTIONARY
360
5D5
102
}
102
{ACAD_REACTORS
330
516
102
}
330
516
100
AcDbVisualStyle
  2
EdgeColorOff
 70
    22
 71
     2
 72
     2
 73
     0
 90
        0
 40
-0.6
 41
-30.0
 62
     5
 63
     7
421
 16777215
 74
     1
 91
        4
 64
     7
 65
   257
 75
     1
175
     1
 42
1.0
 92
        8
 66
     7
 43
1.0
 76
     1
 77
     6
 78
     2
 67
     7
 79
     5
170
     0
171
     0
290
     0
174
     0
 93
        1
 44
0.0
173
     0
291
     1
 45
0.0
1001
ACAD
1000
AcDbSavedByObjectVersion
1070
     0
  0
VISUALSTYLE
  5
525
102
{ACAD_XDICTIONARY
360
5C3
102
}
102
{ACAD_REACTORS
330
516
102
}
330
516
100
AcDbVisualStyle
  2
Facepattern
 70
    15
 71
     2
 72
     2
 73
     0
 90
        0
 40
-0.6
 41
-30.0
 62
     5
 63
     7
421
 16777215
 74
     1
 91
        4
 64
     7
 65
   257
 75
     1
175
     1
 42
1.0
 92
        8
 66
     7
 43
1.0
 76
     1
 77
     6
 78
     2
 67
     7
 79
     5
170
     0
171
     0
290
     0
174
     0
 93
        1
 44
0.0
173
     0
291
     1
 45
0.0
1001
ACAD
1000
AcDbSavedByObjectVersion
1070
     0
  0
VISUALSTYLE
  5
517
102
{ACAD_XDICTIONARY
360
5A7
102
}
102
{ACAD_REACTORS
330
516
102
}
330
516
100
AcDbVisualStyle
  2
Flat
 70
     0
 71
     2
 72
     1
 73
     1
 90
        2
 40
-0.6
 41
30.0
 62
     5
 63
     7
421
 16777215
 74
     0
 91
        0
 64
     7
 65
   257
 75
     1
175
     1
 42
1.0
 92
        8
 66
     7
 43
1.0
 76
     1
 77
     6
 78
     2
 67
     7
 79
     5
170
     0
171
     0
290
     0
174
     0
 93
       13
 44
0.0
173
     0
291
     1
 45
0.0
1001
ACAD
1000
AcDbSavedByObjectVersion
1070
     0
  0
VISUALSTYLE
  5
518
102
{ACAD_XDICTIONARY
360
5A9
102
}
102
{ACAD_REACTORS
330
516
102
}
330
516
100
AcDbVisualStyle
  2
FlatWithEdges
 70
     1
 71
     2
 72
     1
 73
     1
 90
        2
 40
-0.6
 41
30.0
 62
     5
 63
     7
421
 16777215
 74
     1
 91
        0
 64
     7
 65
   257
 75
     1
175
     1
 42
1.0
 92
        0
 66
   257
 43
1.0
 76
     1
 77
     6
 78
     2
 67
     7
 79
     5
170
     0
171
     0
290
     0
174
     0
 93
       13
 44
0.0
173
     0
291
     1
 45
0.0
1001
ACAD
1000
AcDbSavedByObjectVersion
1070
     0
  0
VISUALSTYLE
  5
519
102
{ACAD_XDICTIONARY
360
5AB
102
}
102
{ACAD_REACTORS
330
516
102
}
330
516
100
AcDbVisualStyle
  2
Gouraud
 70
     2
 71
     2
 72
     2
 73
     1
 90
        2
 40
-0.6
 41
30.0
 62
     5
 63
     7
421
 16777215
 74
     0
 91
        0
 64
     7
 65
   257
 75
     1
175
     1
 42
1.0
 92
        0
 66
     7
 43
1.0
 76
     1
 77
     6
 78
     2
 67
     7
 79
     5
170
     0
171
     0
290
     0
174
     0
 93
       13
 44
0.0
173
     0
291
     1
 45
0.0
1001
ACAD
1000
AcDbSavedByObjectVersion
1070
     0
  0
VISUALSTYLE
  5
51A
102
{ACAD_XDICTIONARY
360
5AD
102
}
102
{ACAD_REACTORS
330
516
102
}
330
516
100
AcDbVisualStyle
  2
GouraudWithEdges
 70
     3
 71
     2
 72
     2
 73
     1
 90
        2
 40
-0.6
 41
30.0
 62
     5
 63
     7
421
 16777215
 74
     1
 91
        0
 64
     7
 65
   257
 75
     1
175
     1
 42
1.0
 92
        0
 66
   257
 43
1.0
 76
     1
 77
     6
 78
     2
 67
     7
 79
     5
170
     0
171
     0
290
     0
174
     0
 93
       13
 44
0.0
173
     0
291
     1
 45
0.0
1001
ACAD
1000
AcDbSavedByObjectVersion
1070
     0
  0
VISUALSTYLE
  5
51E
102
{ACAD_XDICTIONARY
360
5B5
102
}
102
{ACAD_REACTORS
330
516
102
}
330
516
100
AcDbVisualStyle
  2
Hidden
 70
     6
 71
     1
 72
     2
 73
     2
 90
        0
 40
-0.6
 41
-30.0
 62
     5
 63
     7
421
 16777215
 74
     2
 91
        2
 64
     7
 65
   257
 75
     2
175
     1
 42
40.0
 92
        0
 66
   257
 43
1.0
 76
     1
 77
     6
 78
     2
 67
     7
 79
     3
170
     0
171
     0
290
     0
174
     0
 93
        1
 44
0.0
173
     0
291
     0
 45
0.0
1001
ACAD
1000
AcDbSavedByObjectVersion
1070
     0
  0
VISUALSTYLE
  5
52C
102
{ACAD_XDICTIONARY
360
5D1
102
}
102
{ACAD_REACTORS
330
516
102
}
330
516
100
AcDbVisualStyle
  2
JitterOff
 70
    20
 71
     2
 72
     2
 73
     0
 90
        0
 40
-0.6
 41
-30.0
 62
     5
 63
     7
421
 16777215
 74
     1
 91
        4
 64
     7
 65
   257
 75
     1
175
     1
 42
1.0
 92
       10
 66
     7
 43
1.0
 76
     1
 77
     6
 78
     2
 67
     7
 79
     5
170
     0
171
     0
290
     0
174
     0
 93
        1
 44
0.0
173
     0
291
     1
 45
0.0
1001
ACAD
1000
AcDbSavedByObjectVersion
1070
     0
  0
VISUALSTYLE
  5
524
102
{ACAD_XDICTIONARY
360
5C1
102
}
102
{ACAD_REACTORS
330
516
102
}
330
516
100
AcDbVisualStyle
  2
Linepattern
 70
    14
 71
     2
 72
     2
 73
     0
 90
        0
 40
-0.6
 41
-30.0
 62
     5
 63
     7
421
 16777215
 74
     1
 91
        4
 64
     7
 65
   257
 75
     7
175
     7
 42
1.0
 92
        8
 66
     7
 43
1.0
 76
     1
 77
     6
 78
     2
 67
     7
 79
     5
170
     0
171
     0
290
     0
174
     0
 93
        1
 44
0.0
173
     0
291
     1
 45
0.0
1001
ACAD
1000
AcDbSavedByObjectVersion
1070
     0
  0
VISUALSTYLE
  5
52D
102
{ACAD_XDICTIONARY
360
5D3
102
}
102
{ACAD_REACTORS
330
516
102
}
330
516
100
AcDbVisualStyle
  2
OverhangOff
 70
    21
 71
     2
 72
     2
 73
     0
 90
        0
 40
-0.6
 41
-30.0
 62
     5
 63
     7
421
 16777215
 74
     1
 91
        4
 64
     7
 65
   257
 75
     1
175
     1
 42
1.0
 92
        9
 66
     7
 43
1.0
 76
     1
 77
     6
 78
     2
 67
     7
 79
     5
170
     0
171
     0
290
     0
174
     0
 93
        1
 44
0.0
173
     0
291
     1
 45
0.0
1001
ACAD
1000
AcDbSavedByObjectVersion
1070
     0
  0
VISUALSTYLE
  5
520
102
{ACAD_XDICTIONARY
360
5B9
102
}
102
{ACAD_REACTORS
330
516
102
}
330
516
100
AcDbVisualStyle
  2
Realistic
 70
     8
 71
     2
 72
     2
 73
     0
 90
        2
 40
-0.6
 41
30.0
 62
     5
 63
     7
421
 16777215
 74
     0
 91
        0
 64
     7
 65
   257
 75
     1
175
     1
 42
1.0
 92
        8
 66
   257
 43
1.0
 76
     1
 77
     6
 78
     2
 67
     7
 79
     3
170
     0
171
     0
290
     0
174
     0
 93
       13
 44
0.0
173
     0
291
     0
 45
0.0
1001
ACAD
1000
AcDbSavedByObjectVersion
1070
     0
  0
VISUALSTYLE
  5
52B
102
{ACAD_XDICTIONARY
360
5CF
102
}
102
{ACAD_REACTORS
330
516
102
}
330
516
100
AcDbVisualStyle
  2
Shaded
 70
    27
 71
     2
 72
     2
 73
     1
 90
        2
 40
-0.6
 41
30.0
 62
     5
 63
     7
421
 16777215
 74
     0
 91
        4
 64
     7
 65
   257
 75
     1
175
     1
 42
1.0
 92
        8
 66
   257
 43
1.0
 76
     1
 77
     6
 78
     2
 67
     8
425
  7895160
 79
     3
170
     0
171
     0
290
     0
174
     0
 93
        5
 44
0.0
173
     0
291
     0
 45
0.0
1001
ACAD
1000
AcDbSavedByObjectVersion
1070
     0
  0
VISUALSTYLE
  5
52A
102
{ACAD_XDICTIONARY
360
5CD
102
}
102
{ACAD_REACTORS
330
516
102
}
330
516
100
AcDbVisualStyle
  2
Shaded with edges
 70
    26
 71
     2
 72
     2
 73
     1
 90
        2
 40
-0.6
 41
30.0
 62
     5
 63
     7
421
 16777215
 74
     1
 91
       10
 64
     7
 65
   257
 75
     2
175
     1
 42
1.0
 92
        8
 66
   257
 43
1.0
 76
     1
 77
     6
 78
     2
 67
     7
 79
     3
170
     0
171
     0
290
     0
174
     0
 93
        5
 44
0.0
173
     0
291
     0
 45
0.0
1001
ACAD
1000
AcDbSavedByObjectVersion
1070
     0
  0
VISUALSTYLE
  5
527
102
{ACAD_XDICTIONARY
360
5C7
102
}
102
{ACAD_REACTORS
330
516
102
}
330
516
100
AcDbVisualStyle
  2
Shades of Gray
 70
    23
 71
     2
 72
     2
 73
     3
 90
        0
 40
-0.6
 41
-30.0
 62
     5
 63
     7
421
 16777215
 74
     2
 91
        2
 64
     7
 65
     7
 75
     1
175
     1
 42
40.0
 92
        8
 66
     7
 43
1.0
 76
     1
 77
     6
 78
     2
 67
     7
 79
     3
170
     0
171
     0
290
     0
174
     0
 93
        1
 44
0.0
173
     0
291
     0
 45
0.0
1001
ACAD
1000
AcDbSavedByObjectVersion
1070
     0
  0
VISUALSTYLE
  5
528
102
{ACAD_XDICTIONARY
360
5C9
102
}
102
{ACAD_REACTORS
330
516
102
}
330
516
100
AcDbVisualStyle
  2
Sketchy
 70
    24
 71
     1
 72
     2
 73
     2
 90
        0
 40
-0.6
 41
-30.0
 62
     5
 63
     7
421
 16777215
 74
     2
 91
        2
 64
     7
 65
     7
 75
     1
175
     1
 42
40.0
 92
       11
 66
     7
 43
1.0
 76
     1
 77
     6
 78
     2
 67
     7
 79
     6
170
     0
171
     0
290
     0
174
     0
 93
        1
 44
0.0
173
     0
291
     0
 45
0.0
1001
ACAD
1000
AcDbSavedByObjectVersion
1070
     0
  0
VISUALSTYLE
  5
523
102
{ACAD_XDICTIONARY
360
5BF
102
}
102
{ACAD_REACTORS
330
516
102
}
330
516
100
AcDbVisualStyle
  2
Thicken
 70
    13
 71
     2
 72
     2
 73
     0
 90
        0
 40
-0.6
 41
-30.0
 62
     5
 63
     7
421
 16777215
 74
     1
 91
        4
 64
     7
 65
   257
 75
     1
175
     1
 42
1.0
 92
       12
 66
     7
 43
1.0
 76
     1
 77
     6
 78
     2
 67
     7
 79
     5
170
     0
171
     0
290
     0
174
     0
 93
        1
 44
0.0
173
     0
291
     1
 45
0.0
1001
ACAD
1000
AcDbSavedByObjectVersion
1070
     0
  0
VISUALSTYLE
  5
51D
102
{ACAD_XDICTIONARY
360
5B3
102
}
102
{ACAD_REACTORS
330
516
102
}
330
516
100
AcDbVisualStyle
  2
Wireframe
 70
     5
 71
     0
 72
     2
 73
     0
 90
        0
 40
-0.6
 41
-30.0
 62
     5
 63
     7
421
 16777215
 74
     1
 91
        4
 64
     7
 65
   257
 75
     1
175
     1
 42
1.0
 92
        0
 66
   257
 43
1.0
 76
     1
 77
     6
 78
     2
 67
     7
 79
     3
170
     0
171
     0
290
     0
174
     0
 93
        1
 44
0.0
173
     0
291
     0
 45
0.0
1001
ACAD
1000
AcDbSavedByObjectVersion
1070
     0
  0
VISUALSTYLE
  5
529
102
{ACAD_XDICTIONARY
360
5CB
102
}
102
{ACAD_REACTORS
330
516
102
}
330
516
100
AcDbVisualStyle
  2
X-Ray
 70
    25
 71
     2
 72
     2
 73
     1
 90
        1
 40
0.5
 41
-30.0
 62
     5
 63
     7
421
 16777215
 74
     1
 91
        0
 64
     7
 65
   257
 75
     1
175
     1
 42
1.0
 92
        8
 66
     7
 43
1.0
 76
     1
 77
     6
 78
     2
 67
     7
 79
     3
170
     0
171
     0
290
     0
174
     0
 93
       13
 44
0.0
173
     0
291
     0
 45
0.0
1001
ACAD
1000
AcDbSavedByObjectVersion
1070
     0
  0
DICTIONARYVAR
  5
594
102
{ACAD_REACTORS
330
4F2
102
}
330
4F2
100
DictionaryVariables
280
     0
  1
1:1
  0
DICTIONARYVAR
  5
591
102
{ACAD_REACTORS
330
4F2
102
}
330
4F2
100
DictionaryVariables
280
     0
  1
STANDARD
  0
DICTIONARYVAR
  5
590
102
{ACAD_REACTORS
330
4F2
102
}
330
4F2
100
DictionaryVariables
280
     0
  1
STANDARD
  0
DICTIONARYVAR
  5
592
102
{ACAD_REACTORS
330
4F2
102
}
330
4F2
100
DictionaryVariables
280
     0
  1
Imperial24
  0
DICTIONARYVAR
  5
593
102
{ACAD_REACTORS
330
4F2
102
}
330
4F2
100
DictionaryVariables
280
     0
  1
Imperial24
  0
DICTIONARYVAR
  5
4F3
102
{ACAD_REACTORS
330
4F2
102
}
330
4F2
100
DictionaryVariables
280
     0
  1
0
  0
DICTIONARYVAR
  5
5A1
102
{ACAD_REACTORS
330
4F2
102
}
330
4F2
100
DictionaryVariables
280
     0
  1
2
  0
DICTIONARY
  5
5DC
330
549
100
AcDbDictionary
280
     1
281
     1
  3
ACAD_XREC_ROUNDTRIP
360
5DD
  0
DICTIONARY
  5
507
330
506
100
AcDbDictionary
280
     1
281
     1
  3
ACAD_XREC_ROUNDTRIP
360
5A5
  3
BUMPTILE
360
509
  3
DIFFUSETILE
360
508
  3
OPACITYTILE
360
50C
  3
REFLECTIONTILE
360
50B
  3
REFRACTIONTILE
360
50D
  3
SPECULARTILE
360
50A
  0
DICTIONARY
  5
4FF
330
4FE
100
AcDbDictionary
280
     1
281
     1
  3
ACAD_XREC_ROUNDTRIP
360
5A4
  3
BUMPTILE
360
501
  3
DIFFUSETILE
360
500
  3
OPACITYTILE
360
504
  3
REFLECTIONTILE
360
503
  3
REFRACTIONTILE
360
505
  3
SPECULARTILE
360
502
  0
DICTIONARY
  5
50F
330
50E
100
AcDbDictionary
280
     1
281
     1
  3
ACAD_XREC_ROUNDTRIP
360
5A6
  3
BUMPTILE
360
511
  3
DIFFUSETILE
360
510
  3
OPACITYTILE
360
514
  3
REFLECTIONTILE
360
513
  3
REFRACTIONTILE
360
515
  3
SPECULARTILE
360
512
  0
DICTIONARY
  5
5D8
330
545
100
AcDbDictionary
280
     1
281
     1
  3
ACAD_XREC_ROUNDTRIP
360
5D9
  0
DICTIONARY
  5
5DA
330
547
100
AcDbDictionary
280
     1
281
     1
  3
ACAD_XREC_ROUNDTRIP
360
5DB
  0
DICTIONARY
  5
552
330
531
100
AcDbDictionary
280
     1
281
     1
  3
ACAD_ROUNDTRIP_2008_TABLESTYLE_CELLSTYLEMAP
360
5A2
  3
ACAD_XREC_ROUNDTRIP
360
5D7
  0
DICTIONARY
  5
5B1
330
51C
100
AcDbDictionary
280
     1
281
     1
  3
ACAD_XREC_ROUNDTRIP
360
5B2
  0
DICTIONARY
  5
5AF
330
51B
100
AcDbDictionary
280
     1
281
     1
  3
ACAD_XREC_ROUNDTRIP
360
5B0
  0
DICTIONARY
  5
5BD
330
522
100
AcDbDictionary
280
     1
281
     1
  3
ACAD_XREC_ROUNDTRIP
360
5BE
  0
DICTIONARY
  5
5C5
330
526
100
AcDbDictionary
280
     1
281
     1
  3
ACAD_XREC_ROUNDTRIP
360
5C6
  0
DICTIONARY
  5
5B7
330
51F
100
AcDbDictionary
280
     1
281
     1
  3
ACAD_XREC_ROUNDTRIP
360
5B8
  0
DICTIONARY
  5
5BB
330
521
100
AcDbDictionary
280
     1
281
     1
  3
ACAD_XREC_ROUNDTRIP
360
5BC
  0
DICTIONARY
  5
5D5
330
52E
100
AcDbDictionary
280
     1
281
     1
  3
ACAD_XREC_ROUNDTRIP
360
5D6
  0
DICTIONARY
  5
5C3
330
525
100
AcDbDictionary
280
     1
281
     1
  3
ACAD_XREC_ROUNDTRIP
360
5C4
  0
DICTIONARY
  5
5A7
330
517
100
AcDbDictionary
280
     1
281
     1
  3
ACAD_XREC_ROUNDTRIP
360
5A8
  0
DICTIONARY
  5
5A9
330
518
100
AcDbDictionary
280
     1
281
     1
  3
ACAD_XREC_ROUNDTRIP
360
5AA
  0
DICTIONARY
  5
5AB
330
519
100
AcDbDictionary
280
     1
281
     1
  3
ACAD_XREC_ROUNDTRIP
360
5AC
  0
DICTIONARY
  5
5AD
330
51A
100
AcDbDictionary
280
     1
281
     1
  3
ACAD_XREC_ROUNDTRIP
360
5AE
  0
DICTIONARY
  5
5B5
330
51E
100
AcDbDictionary
280
     1
281
     1
  3
ACAD_XREC_ROUNDTRIP
360
5B6
  0
DICTIONARY
  5
5D1
330
52C
100
AcDbDictionary
280
     1
281
     1
  3
ACAD_XREC_ROUNDTRIP
360
5D2
  0
DICTIONARY
  5
5C1
330
524
100
AcDbDictionary
280
     1
281
     1
  3
ACAD_XREC_ROUNDTRIP
360
5C2
  0
DICTIONARY
  5
5D3
330
52D
100
AcDbDictionary
280
     1
281
     1
  3
ACAD_XREC_ROUNDTRIP
360
5D4
  0
DICTIONARY
  5
5B9
330
520
100
AcDbDictionary
280
     1
281
     1
  3
ACAD_XREC_ROUNDTRIP
360
5BA
  0
DICTIONARY
  5
5CF
330
52B
100
AcDbDictionary
280
     1
281
     1
  3
ACAD_XREC_ROUNDTRIP
360
5D0
  0
DICTIONARY
  5
5CD
330
52A
100
AcDbDictionary
280
     1
281
     1
  3
ACAD_XREC_ROUNDTRIP
360
5CE
  0
DICTIONARY
  5
5C7
330
527
100
AcDbDictionary
280
     1
281
     1
  3
ACAD_XREC_ROUNDTRIP
360
5C8
  0
DICTIONARY
  5
5C9
330
528
100
AcDbDictionary
280
     1
281
     1
  3
ACAD_XREC_ROUNDTRIP
360
5CA
  0
DICTIONARY
  5
5BF
330
523
100
AcDbDictionary
280
     1
281
     1
  3
ACAD_XREC_ROUNDTRIP
360
5C0
  0
DICTIONARY
  5
5B3
330
51D
100
AcDbDictionary
280
     1
281
     1
  3
ACAD_XREC_ROUNDTRIP
360
5B4
  0
DICTIONARY
  5
5CB
330
529
100
AcDbDictionary
280
     1
281
     1
  3
ACAD_XREC_ROUNDTRIP
360
5CC
  0
XRECORD
  5
5DD
102
{ACAD_REACTORS
330
5DC
102
}
330
5DC
100
AcDbXrecord
280
     1
102
DISPLAYNAME
  1
Imperial24
102
FLAGS
 90
        0
  0
XRECORD
  5
5A5
102
{ACAD_REACTORS
330
507
102
}
330
507
100
AcDbXrecord
280
     1
102
MATERIAL
148
0.0
149
0.0
149
0.0
 93
        0
 94
      127
282
     0
 72
     0
 77
     0
171
     0
175
     0
179
     0
273
     0
  0
XRECORD
  5
509
102
{ACAD_REACTORS
330
507
102
}
330
507
100
AcDbXrecord
280
     1
270
     1
271
     1
  0
XRECORD
  5
508
102
{ACAD_REACTORS
330
507
102
}
330
507
100
AcDbXrecord
280
     1
270
     1
271
     1
  0
XRECORD
  5
50C
102
{ACAD_REACTORS
330
507
102
}
330
507
100
AcDbXrecord
280
     1
270
     1
271
     1
  0
XRECORD
  5
50B
102
{ACAD_REACTORS
330
507
102
}
330
507
100
AcDbXrecord
280
     1
270
     1
271
     1
  0
XRECORD
  5
50D
102
{ACAD_REACTORS
330
507
102
}
330
507
100
AcDbXrecord
280
     1
270
     1
271
     1
  0
XRECORD
  5
50A
102
{ACAD_REACTORS
330
507
102
}
330
507
100
AcDbXrecord
280
     1
270
     1
271
     1
  0
XRECORD
  5
5A4
102
{ACAD_REACTORS
330
4FF
102
}
330
4FF
100
AcDbXrecord
280
     1
102
MATERIAL
148
0.0
149
0.0
149
0.0
 93
        0
 94
      127
282
     0
 72
     0
 77
     0
171
     0
175
     0
179
     0
273
     0
  0
XRECORD
  5
501
102
{ACAD_REACTORS
330
4FF
102
}
330
4FF
100
AcDbXrecord
280
     1
270
     1
271
     1
  0
XRECORD
  5
500
102
{ACAD_REACTORS
330
4FF
102
}
330
4FF
100
AcDbXrecord
280
     1
270
     1
271
     1
  0
XRECORD
  5
504
102
{ACAD_REACTORS
330
4FF
102
}
330
4FF
100
AcDbXrecord
280
     1
270
     1
271
     1
  0
XRECORD
  5
503
102
{ACAD_REACTORS
330
4FF
102
}
330
4FF
100
AcDbXrecord
280
     1
270
     1
271
     1
  0
XRECORD
  5
505
102
{ACAD_REACTORS
330
4FF
102
}
330
4FF
100
AcDbXrecord
280
     1
270
     1
271
     1
  0
XRECORD
  5
502
102
{ACAD_REACTORS
330
4FF
102
}
330
4FF
100
AcDbXrecord
280
     1
270
     1
271
     1
  0
XRECORD
  5
5A6
102
{ACAD_REACTORS
330
50F
102
}
330
50F
100
AcDbXrecord
280
     1
102
MATERIAL
148
0.0
149
0.0
149
0.0
 93
        0
 94
      127
282
     0
 72
     0
 77
     0
171
     0
175
     0
179
     0
273
     0
  0
XRECORD
  5
511
102
{ACAD_REACTORS
330
50F
102
}
330
50F
100
AcDbXrecord
280
     1
270
     1
271
     1
  0
XRECORD
  5
510
102
{ACAD_REACTORS
330
50F
102
}
330
50F
100
AcDbXrecord
280
     1
270
     1
271
     1
  0
XRECORD
  5
514
102
{ACAD_REACTORS
330
50F
102
}
330
50F
100
AcDbXrecord
280
     1
270
     1
271
     1
  0
XRECORD
  5
513
102
{ACAD_REACTORS
330
50F
102
}
330
50F
100
AcDbXrecord
280
     1
270
     1
271
     1
  0
XRECORD
  5
515
102
{ACAD_REACTORS
330
50F
102
}
330
50F
100
AcDbXrecord
280
     1
270
     1
271
     1
  0
XRECORD
  5
512
102
{ACAD_REACTORS
330
50F
102
}
330
50F
100
AcDbXrecord
280
     1
270
     1
271
     1
  0
XRECORD
  5
5D9
102
{ACAD_REACTORS
330
5D8
102
}
330
5D8
100
AcDbXrecord
280
     1
102
ACAD_ROUNDTRIP_2012_MLEADER_STYLE
298
     1
  0
XRECORD
  5
5DB
102
{ACAD_REACTORS
330
5DA
102
}
330
5DA
100
AcDbXrecord
280
     1
102
DISPLAYNAME
  1
Imperial24
102
FLAGS
 90
        0
  0
CELLSTYLEMAP
  5
5A2
102
{ACAD_REACTORS
330
552
102
}
330
552
100
AcDbCellStyleMap
 90
        3
300
CELLSTYLE
  1
TABLEFORMAT_BEGIN
 90
        5
170
     1
 91
        0
 92
    32768
 62
   257
 93
        1
300
CONTENTFORMAT
  1
CONTENTFORMAT_BEGIN
 90
        0
 91
        0
 92
      512
 93
        0
300

 40
0.0
140
1.0
 94
        5
 62
     0
340
4CC
144
0.25
309
CONTENTFORMAT_END
171
     0
 94
        0
309
TABLEFORMAT_END
  1
CELLSTYLE_BEGIN
 90
        1
 91
        1
300
_TITLE
309
CELLSTYLE_END
300
CELLSTYLE
  1
TABLEFORMAT_BEGIN
 90
        5
170
     1
 91
        0
 92
        0
 62
   257
 93
        1
300
CONTENTFORMAT
  1
CONTENTFORMAT_BEGIN
 90
        0
 91
        0
 92
      512
 93
        0
300

 40
0.0
140
1.0
 94
        5
 62
     0
340
4CC
144
0.18
309
CONTENTFORMAT_END
171
     0
 94
        0
309
TABLEFORMAT_END
  1
CELLSTYLE_BEGIN
 90
        2
 91
        1
300
_HEADER
309
CELLSTYLE_END
300
CELLSTYLE
  1
TABLEFORMAT_BEGIN
 90
        5
170
     1
 91
        0
 92
        0
 62
   257
 93
        1
300
CONTENTFORMAT
  1
CONTENTFORMAT_BEGIN
 90
        0
 91
        0
 92
      512
 93
        0
300

 40
0.0
140
1.0
 94
        2
 62
     0
340
4CC
144
0.18
309
CONTENTFORMAT_END
171
     0
 94
        0
309
TABLEFORMAT_END
  1
CELLSTYLE_BEGIN
 90
        3
 91
        2
300
_DATA
309
CELLSTYLE_END
  0
XRECORD
  5
5D7
102
{ACAD_REACTORS
330
552
102
}
330
552
100
AcDbXrecord
280
     1
102
ACAD_ROUNDTRIP_PRE2007_TABLESTYLE
 90
      512
 91
        0
  1

 92
      512
 93
        0
  2

 94
      512
 95
        0
  3

  0
XRECORD
  5
5B2
102
{ACAD_REACTORS
330
5B1
102
}
330
5B1
100
AcDbXrecord
280
     1
102
RTVSPost2010Prop28
280
     1
102
RTVSPost2010PropOp28
 70
     1
102
RTVSPost2010Prop29
280
     1
102
RTVSPost2010PropOp29
 70
     1
102
RTVSPost2010Prop30
280
     0
102
RTVSPost2010PropOp30
 70
     1
102
RTVSPost2010Prop31
280
     0
102
RTVSPost2010PropOp31
 70
     1
102
RTVSPost2010Prop32
280
     0
102
RTVSPost2010PropOp32
 70
     1
102
RTVSPost2010Prop33
280
     0
102
RTVSPost2010PropOp33
 70
     1
102
RTVSPost2010Prop34
280
     0
102
RTVSPost2010PropOp34
 70
     1
102
RTVSPost2010Prop35
280
     0
102
RTVSPost2010PropOp35
 70
     1
102
RTVSPost2010Prop36
280
     0
102
RTVSPost2010PropOp36
 70
     1
102
RTVSPost2010Prop37
 90
       50
102
RTVSPost2010PropOp37
 70
     1
102
RTVSPost2010Prop38
140
0.0
102
RTVSPost2010PropOp38
 70
     1
102
RTVSPost2010Prop39
140
1.0
102
RTVSPost2010PropOp39
 70
     1
102
RTVSPost2010Prop40
 90
        0
102
RTVSPost2010PropOp40
 70
     1
102
RTVSPost2010Prop41ColorIndex
 90
       18
102
RTVSPost2010Prop41ColorRGB
 90
        0
102
RTVSPost2010PropOp41
 70
     1
102
RTVSPost2010Prop42
 90
       50
102
RTVSPost2010PropOp42
 70
     1
102
RTVSPost2010Prop43
 90
        3
102
RTVSPost2010PropOp43
 70
     1
102
RTVSPost2010Prop44ColorIndex
 90
        5
102
RTVSPost2010Prop44ColorRGB
 90
      255
102
RTVSPost2010PropOp44
 70
     1
102
RTVSPost2010Prop45
280
     0
102
RTVSPost2010PropOp45
 70
     1
102
RTVSPost2010Prop46
 90
       50
102
RTVSPost2010PropOp46
 70
     1
102
RTVSPost2010Prop47
 90
       50
102
RTVSPost2010PropOp47
 70
     1
102
RTVSPost2010Prop48
 90
       50
102
RTVSPost2010PropOp48
 70
     1
102
RTVSPost2010Prop49
280
     0
102
RTVSPost2010PropOp49
 70
     1
102
RTVSPost2010Prop50
 90
       50
102
RTVSPost2010PropOp50
 70
     1
102
RTVSPost2010Prop51ColorIndex
 90
      256
102
RTVSPost2010Prop51ColorRGB
 90
-16777216
102
RTVSPost2010PropOp51
 70
     0
102
RTVSPost2010Prop52
140
1.0
102
RTVSPost2010PropOp52
 70
     0
102
RTVSPost2010Prop53
 90
        2
102
RTVSPost2010PropOp53
 70
     1
102
RTVSPost2010Prop54
  1
strokes_ogs.tif
102
RTVSPost2010PropOp54
 70
     1
102
RTVSPost2010Prop55
280
     0
102
RTVSPost2010PropOp55
 70
     1
102
RTVSPost2010Prop56
140
1.0
102
RTVSPost2010PropOp56
 70
     1
102
RTVSPost2010Prop57
140
1.0
102
RTVSPost2010PropOp57
 70
     1
102
RTVSPropertyOp0
 70
     1
102
RTVSPropertyOp1
 70
     1
102
RTVSPropertyOp2
 70
     1
102
RTVSPropertyOp3
 70
     1
102
RTVSPropertyOp4
 70
     1
102
RTVSPropertyOp5
 70
     1
102
RTVSPropertyOp6
 70
     1
102
RTVSPropertyOp7
 70
     1
102
RTVSPropertyOp8
 70
     1
102
RTVSPropertyOp9
 70
     1
102
RTVSPropertyOp10
 70
     1
102
RTVSPropertyOp11
 70
     1
102
RTVSPropertyOp12
 70
     1
102
RTVSPropertyOp13
 70
     1
102
RTVSPropertyOp14
 70
     1
102
RTVSPropertyOp15
 70
     1
102
RTVSPropertyOp16
 70
     1
102
RTVSPropertyOp17
 70
     1
102
RTVSPropertyOp18
 70
     1
102
RTVSPropertyOp19
 70
     1
102
RTVSPropertyOp20
 70
     1
102
RTVSPropertyOp21
 70
     1
102
RTVSPropertyOp22
 70
     1
102
RTVSPropertyOp23
 70
     1
102
RTVSPropertyOp24
 70
     1
102
RTVSPropertyOp25
 70
     1
102
RTVSPropertyOp26
 70
     1
102
RTVSPropertyOp27
 70
     1
102
RTVSPropertyOp28
 70
     1
102
RTVSPropertyOp29
 70
     1
102
RTVSPropertyOp30
 70
     1
102
RTVSPropertyOp31
 70
     1
102
RTVSPropertyOp32
 70
     1
102
RTVSPropertyOp33
 70
     1
102
RTVSPropertyOp34
 70
     1
102
RTVSPropertyOp35
 70
     1
102
RTVSPropertyOp36
 70
     1
102
RTVSPropertyOp37
 70
     1
102
RTVSPropertyOp38
 70
     1
102
RTVSPropertyOp39
 70
     1
102
RTVSPropertyOp40
 70
     1
102
RTVSPropertyOp41
 70
     1
102
RTVSPropertyOp42
 70
     1
102
RTVSPropertyOp43
 70
     1
102
RTVSPropertyOp44
 70
     1
102
RTVSPropertyOp45
 70
     1
102
RTVSPropertyOp46
 70
     1
102
RTVSPropertyOp47
 70
     1
102
RTVSPropertyOp48
 70
     1
102
RTVSPropertyOp49
 70
     1
102
RTVSPropertyOp50
 70
     1
102
RTVSPropertyOp51
 70
     0
102
RTVSPropertyOp52
 70
     0
102
RTVSPropertyOp53
 70
     1
102
RTVSPropertyOp54
 70
     1
102
RTVSPropertyOp55
 70
     1
102
RTVSPropertyOp56
 70
     1
102
RTVSPropertyOp57
 70
     1
102
RTVSPropertyOp58
 70
     1
102
RTVSPropertyOp59
 70
     1
102
RTVSPropertyOp60
 70
     1
102
RTVSPropertyOp61
 70
     1
102
RTVSPropertyOp62
 70
     1
  0
XRECORD
  5
5B0
102
{ACAD_REACTORS
330
5AF
102
}
330
5AF
100
AcDbXrecord
280
     1
102
RTVSPost2010Prop28
280
     0
102
RTVSPost2010PropOp28
 70
     1
102
RTVSPost2010Prop29
280
     1
102
RTVSPost2010PropOp29
 70
     1
102
RTVSPost2010Prop30
280
     1
102
RTVSPost2010PropOp30
 70
     1
102
RTVSPost2010Prop31
280
     0
102
RTVSPost2010PropOp31
 70
     1
102
RTVSPost2010Prop32
280
     0
102
RTVSPost2010PropOp32
 70
     1
102
RTVSPost2010Prop33
280
     0
102
RTVSPost2010PropOp33
 70
     1
102
RTVSPost2010Prop34
280
     0
102
RTVSPost2010PropOp34
 70
     1
102
RTVSPost2010Prop35
280
     0
102
RTVSPost2010PropOp35
 70
     1
102
RTVSPost2010Prop36
280
     0
102
RTVSPost2010PropOp36
 70
     1
102
RTVSPost2010Prop37
 90
       50
102
RTVSPost2010PropOp37
 70
     1
102
RTVSPost2010Prop38
140
0.0
102
RTVSPost2010PropOp38
 70
     1
102
RTVSPost2010Prop39
140
1.0
102
RTVSPost2010PropOp39
 70
     1
102
RTVSPost2010Prop40
 90
        0
102
RTVSPost2010PropOp40
 70
     1
102
RTVSPost2010Prop41ColorIndex
 90
       18
102
RTVSPost2010Prop41ColorRGB
 90
        0
102
RTVSPost2010PropOp41
 70
     1
102
RTVSPost2010Prop42
 90
       50
102
RTVSPost2010PropOp42
 70
     1
102
RTVSPost2010Prop43
 90
        3
102
RTVSPost2010PropOp43
 70
     1
102
RTVSPost2010Prop44ColorIndex
 90
        5
102
RTVSPost2010Prop44ColorRGB
 90
      255
102
RTVSPost2010PropOp44
 70
     1
102
RTVSPost2010Prop45
280
     0
102
RTVSPost2010PropOp45
 70
     1
102
RTVSPost2010Prop46
 90
       50
102
RTVSPost2010PropOp46
 70
     1
102
RTVSPost2010Prop47
 90
       50
102
RTVSPost2010PropOp47
 70
     1
102
RTVSPost2010Prop48
 90
       50
102
RTVSPost2010PropOp48
 70
     1
102
RTVSPost2010Prop49
280
     0
102
RTVSPost2010PropOp49
 70
     1
102
RTVSPost2010Prop50
 90
       50
102
RTVSPost2010PropOp50
 70
     1
102
RTVSPost2010Prop51ColorIndex
 90
      256
102
RTVSPost2010Prop51ColorRGB
 90
-16777216
102
RTVSPost2010PropOp51
 70
     0
102
RTVSPost2010Prop52
140
1.0
102
RTVSPost2010PropOp52
 70
     0
102
RTVSPost2010Prop53
 90
        2
102
RTVSPost2010PropOp53
 70
     1
102
RTVSPost2010Prop54
  1
strokes_ogs.tif
102
RTVSPost2010PropOp54
 70
     1
102
RTVSPost2010Prop55
280
     0
102
RTVSPost2010PropOp55
 70
     1
102
RTVSPost2010Prop56
140
1.0
102
RTVSPost2010PropOp56
 70
     1
102
RTVSPost2010Prop57
140
1.0
102
RTVSPost2010PropOp57
 70
     1
102
RTVSPropertyOp0
 70
     1
102
RTVSPropertyOp1
 70
     1
102
RTVSPropertyOp2
 70
     1
102
RTVSPropertyOp3
 70
     1
102
RTVSPropertyOp4
 70
     1
102
RTVSPropertyOp5
 70
     1
102
RTVSPropertyOp6
 70
     1
102
RTVSPropertyOp7
 70
     1
102
RTVSPropertyOp8
 70
     1
102
RTVSPropertyOp9
 70
     1
102
RTVSPropertyOp10
 70
     1
102
RTVSPropertyOp11
 70
     1
102
RTVSPropertyOp12
 70
     1
102
RTVSPropertyOp13
 70
     1
102
RTVSPropertyOp14
 70
     1
102
RTVSPropertyOp15
 70
     1
102
RTVSPropertyOp16
 70
     1
102
RTVSPropertyOp17
 70
     1
102
RTVSPropertyOp18
 70
     1
102
RTVSPropertyOp19
 70
     1
102
RTVSPropertyOp20
 70
     1
102
RTVSPropertyOp21
 70
     1
102
RTVSPropertyOp22
 70
     1
102
RTVSPropertyOp23
 70
     1
102
RTVSPropertyOp24
 70
     1
102
RTVSPropertyOp25
 70
     1
102
RTVSPropertyOp26
 70
     1
102
RTVSPropertyOp27
 70
     1
102
RTVSPropertyOp28
 70
     1
102
RTVSPropertyOp29
 70
     1
102
RTVSPropertyOp30
 70
     1
102
RTVSPropertyOp31
 70
     1
102
RTVSPropertyOp32
 70
     1
102
RTVSPropertyOp33
 70
     1
102
RTVSPropertyOp34
 70
     1
102
RTVSPropertyOp35
 70
     1
102
RTVSPropertyOp36
 70
     1
102
RTVSPropertyOp37
 70
     1
102
RTVSPropertyOp38
 70
     1
102
RTVSPropertyOp39
 70
     1
102
RTVSPropertyOp40
 70
     1
102
RTVSPropertyOp41
 70
     1
102
RTVSPropertyOp42
 70
     1
102
RTVSPropertyOp43
 70
     1
102
RTVSPropertyOp44
 70
     1
102
RTVSPropertyOp45
 70
     1
102
RTVSPropertyOp46
 70
     1
102
RTVSPropertyOp47
 70
     1
102
RTVSPropertyOp48
 70
     1
102
RTVSPropertyOp49
 70
     1
102
RTVSPropertyOp50
 70
     1
102
RTVSPropertyOp51
 70
     0
102
RTVSPropertyOp52
 70
     0
102
RTVSPropertyOp53
 70
     1
102
RTVSPropertyOp54
 70
     1
102
RTVSPropertyOp55
 70
     1
102
RTVSPropertyOp56
 70
     1
102
RTVSPropertyOp57
 70
     1
102
RTVSPropertyOp58
 70
     1
102
RTVSPropertyOp59
 70
     1
102
RTVSPropertyOp60
 70
     1
102
RTVSPropertyOp61
 70
     1
102
RTVSPropertyOp62
 70
     1
  0
XRECORD
  5
5BE
102
{ACAD_REACTORS
330
5BD
102
}
330
5BD
100
AcDbXrecord
280
     1
102
RTVSPost2010Prop28
280
     0
102
RTVSPost2010PropOp28
 70
     1
102
RTVSPost2010Prop29
280
     1
102
RTVSPost2010PropOp29
 70
     1
102
RTVSPost2010Prop30
280
     1
102
RTVSPost2010PropOp30
 70
     1
102
RTVSPost2010Prop31
280
     0
102
RTVSPost2010PropOp31
 70
     1
102
RTVSPost2010Prop32
280
     0
102
RTVSPost2010PropOp32
 70
     1
102
RTVSPost2010Prop33
280
     0
102
RTVSPost2010PropOp33
 70
     1
102
RTVSPost2010Prop34
280
     0
102
RTVSPost2010PropOp34
 70
     1
102
RTVSPost2010Prop35
280
     0
102
RTVSPost2010PropOp35
 70
     1
102
RTVSPost2010Prop36
280
     0
102
RTVSPost2010PropOp36
 70
     1
102
RTVSPost2010Prop37
 90
       50
102
RTVSPost2010PropOp37
 70
     1
102
RTVSPost2010Prop38
140
0.0
102
RTVSPost2010PropOp38
 70
     1
102
RTVSPost2010Prop39
140
1.0
102
RTVSPost2010PropOp39
 70
     1
102
RTVSPost2010Prop40
 90
        0
102
RTVSPost2010PropOp40
 70
     1
102
RTVSPost2010Prop41ColorIndex
 90
       18
102
RTVSPost2010Prop41ColorRGB
 90
        0
102
RTVSPost2010PropOp41
 70
     1
102
RTVSPost2010Prop42
 90
       50
102
RTVSPost2010PropOp42
 70
     1
102
RTVSPost2010Prop43
 90
        3
102
RTVSPost2010PropOp43
 70
     1
102
RTVSPost2010Prop44ColorIndex
 90
        5
102
RTVSPost2010Prop44ColorRGB
 90
      255
102
RTVSPost2010PropOp44
 70
     1
102
RTVSPost2010Prop45
280
     0
102
RTVSPost2010PropOp45
 70
     1
102
RTVSPost2010Prop46
 90
       50
102
RTVSPost2010PropOp46
 70
     1
102
RTVSPost2010Prop47
 90
       50
102
RTVSPost2010PropOp47
 70
     1
102
RTVSPost2010Prop48
 90
       50
102
RTVSPost2010PropOp48
 70
     1
102
RTVSPost2010Prop49
280
     0
102
RTVSPost2010PropOp49
 70
     1
102
RTVSPost2010Prop50
 90
       50
102
RTVSPost2010PropOp50
 70
     1
102
RTVSPost2010Prop51ColorIndex
 90
      256
102
RTVSPost2010Prop51ColorRGB
 90
-16777216
102
RTVSPost2010PropOp51
 70
     0
102
RTVSPost2010Prop52
140
1.0
102
RTVSPost2010PropOp52
 70
     0
102
RTVSPost2010Prop53
 90
        2
102
RTVSPost2010PropOp53
 70
     1
102
RTVSPost2010Prop54
  1
strokes_ogs.tif
102
RTVSPost2010PropOp54
 70
     1
102
RTVSPost2010Prop55
280
     0
102
RTVSPost2010PropOp55
 70
     1
102
RTVSPost2010Prop56
140
1.0
102
RTVSPost2010PropOp56
 70
     1
102
RTVSPost2010Prop57
140
1.0
102
RTVSPost2010PropOp57
 70
     1
102
RTVSPropertyOp0
 70
     1
102
RTVSPropertyOp1
 70
     1
102
RTVSPropertyOp2
 70
     1
102
RTVSPropertyOp3
 70
     1
102
RTVSPropertyOp4
 70
     1
102
RTVSPropertyOp5
 70
     1
102
RTVSPropertyOp6
 70
     1
102
RTVSPropertyOp7
 70
     1
102
RTVSPropertyOp8
 70
     1
102
RTVSPropertyOp9
 70
     1
102
RTVSPropertyOp10
 70
     1
102
RTVSPropertyOp11
 70
     1
102
RTVSPropertyOp12
 70
     1
102
RTVSPropertyOp13
 70
     1
102
RTVSPropertyOp14
 70
     1
102
RTVSPropertyOp15
 70
     1
102
RTVSPropertyOp16
 70
     1
102
RTVSPropertyOp17
 70
     1
102
RTVSPropertyOp18
 70
     1
102
RTVSPropertyOp19
 70
     1
102
RTVSPropertyOp20
 70
     1
102
RTVSPropertyOp21
 70
     1
102
RTVSPropertyOp22
 70
     1
102
RTVSPropertyOp23
 70
     1
102
RTVSPropertyOp24
 70
     1
102
RTVSPropertyOp25
 70
     1
102
RTVSPropertyOp26
 70
     1
102
RTVSPropertyOp27
 70
     1
102
RTVSPropertyOp28
 70
     1
102
RTVSPropertyOp29
 70
     1
102
RTVSPropertyOp30
 70
     1
102
RTVSPropertyOp31
 70
     1
102
RTVSPropertyOp32
 70
     1
102
RTVSPropertyOp33
 70
     1
102
RTVSPropertyOp34
 70
     1
102
RTVSPropertyOp35
 70
     1
102
RTVSPropertyOp36
 70
     1
102
RTVSPropertyOp37
 70
     1
102
RTVSPropertyOp38
 70
     1
102
RTVSPropertyOp39
 70
     1
102
RTVSPropertyOp40
 70
     1
102
RTVSPropertyOp41
 70
     1
102
RTVSPropertyOp42
 70
     1
102
RTVSPropertyOp43
 70
     1
102
RTVSPropertyOp44
 70
     1
102
RTVSPropertyOp45
 70
     1
102
RTVSPropertyOp46
 70
     1
102
RTVSPropertyOp47
 70
     1
102
RTVSPropertyOp48
 70
     1
102
RTVSPropertyOp49
 70
     1
102
RTVSPropertyOp50
 70
     1
102
RTVSPropertyOp51
 70
     0
102
RTVSPropertyOp52
 70
     0
102
RTVSPropertyOp53
 70
     1
102
RTVSPropertyOp54
 70
     1
102
RTVSPropertyOp55
 70
     1
102
RTVSPropertyOp56
 70
     1
102
RTVSPropertyOp57
 70
     1
102
RTVSPropertyOp58
 70
     1
102
RTVSPropertyOp59
 70
     1
102
RTVSPropertyOp60
 70
     1
102
RTVSPropertyOp61
 70
     1
102
RTVSPropertyOp62
 70
     1
  0
XRECORD
  5
5C6
102
{ACAD_REACTORS
330
5C5
102
}
330
5C5
100
AcDbXrecord
280
     1
102
RTVSPost2010Prop28
280
     0
102
RTVSPost2010PropOp28
 70
     1
102
RTVSPost2010Prop29
280
     1
102
RTVSPost2010PropOp29
 70
     1
102
RTVSPost2010Prop30
280
     1
102
RTVSPost2010PropOp30
 70
     1
102
RTVSPost2010Prop31
280
     0
102
RTVSPost2010PropOp31
 70
     1
102
RTVSPost2010Prop32
280
     0
102
RTVSPost2010PropOp32
 70
     1
102
RTVSPost2010Prop33
280
     0
102
RTVSPost2010PropOp33
 70
     1
102
RTVSPost2010Prop34
280
     0
102
RTVSPost2010PropOp34
 70
     1
102
RTVSPost2010Prop35
280
     0
102
RTVSPost2010PropOp35
 70
     1
102
RTVSPost2010Prop36
280
     0
102
RTVSPost2010PropOp36
 70
     1
102
RTVSPost2010Prop37
 90
       50
102
RTVSPost2010PropOp37
 70
     1
102
RTVSPost2010Prop38
140
0.0
102
RTVSPost2010PropOp38
 70
     1
102
RTVSPost2010Prop39
140
1.0
102
RTVSPost2010PropOp39
 70
     1
102
RTVSPost2010Prop40
 90
        0
102
RTVSPost2010PropOp40
 70
     1
102
RTVSPost2010Prop41ColorIndex
 90
       18
102
RTVSPost2010Prop41ColorRGB
 90
        0
102
RTVSPost2010PropOp41
 70
     1
102
RTVSPost2010Prop42
 90
       50
102
RTVSPost2010PropOp42
 70
     1
102
RTVSPost2010Prop43
 90
        3
102
RTVSPost2010PropOp43
 70
     1
102
RTVSPost2010Prop44ColorIndex
 90
        5
102
RTVSPost2010Prop44ColorRGB
 90
      255
102
RTVSPost2010PropOp44
 70
     1
102
RTVSPost2010Prop45
280
     0
102
RTVSPost2010PropOp45
 70
     1
102
RTVSPost2010Prop46
 90
       50
102
RTVSPost2010PropOp46
 70
     1
102
RTVSPost2010Prop47
 90
       50
102
RTVSPost2010PropOp47
 70
     1
102
RTVSPost2010Prop48
 90
       50
102
RTVSPost2010PropOp48
 70
     1
102
RTVSPost2010Prop49
280
     0
102
RTVSPost2010PropOp49
 70
     1
102
RTVSPost2010Prop50
 90
       50
102
RTVSPost2010PropOp50
 70
     1
102
RTVSPost2010Prop51ColorIndex
 90
      256
102
RTVSPost2010Prop51ColorRGB
 90
-16777216
102
RTVSPost2010PropOp51
 70
     0
102
RTVSPost2010Prop52
140
1.0
102
RTVSPost2010PropOp52
 70
     0
102
RTVSPost2010Prop53
 90
        2
102
RTVSPost2010PropOp53
 70
     1
102
RTVSPost2010Prop54
  1
strokes_ogs.tif
102
RTVSPost2010PropOp54
 70
     1
102
RTVSPost2010Prop55
280
     0
102
RTVSPost2010PropOp55
 70
     1
102
RTVSPost2010Prop56
140
1.0
102
RTVSPost2010PropOp56
 70
     1
102
RTVSPost2010Prop57
140
1.0
102
RTVSPost2010PropOp57
 70
     1
102
RTVSPropertyOp0
 70
     1
102
RTVSPropertyOp1
 70
     1
102
RTVSPropertyOp2
 70
     1
102
RTVSPropertyOp3
 70
     1
102
RTVSPropertyOp4
 70
     1
102
RTVSPropertyOp5
 70
     1
102
RTVSPropertyOp6
 70
     1
102
RTVSPropertyOp7
 70
     1
102
RTVSPropertyOp8
 70
     1
102
RTVSPropertyOp9
 70
     1
102
RTVSPropertyOp10
 70
     1
102
RTVSPropertyOp11
 70
     1
102
RTVSPropertyOp12
 70
     1
102
RTVSPropertyOp13
 70
     1
102
RTVSPropertyOp14
 70
     1
102
RTVSPropertyOp15
 70
     1
102
RTVSPropertyOp16
 70
     1
102
RTVSPropertyOp17
 70
     1
102
RTVSPropertyOp18
 70
     1
102
RTVSPropertyOp19
 70
     1
102
RTVSPropertyOp20
 70
     1
102
RTVSPropertyOp21
 70
     1
102
RTVSPropertyOp22
 70
     1
102
RTVSPropertyOp23
 70
     1
102
RTVSPropertyOp24
 70
     1
102
RTVSPropertyOp25
 70
     1
102
RTVSPropertyOp26
 70
     1
102
RTVSPropertyOp27
 70
     1
102
RTVSPropertyOp28
 70
     1
102
RTVSPropertyOp29
 70
     1
102
RTVSPropertyOp30
 70
     1
102
RTVSPropertyOp31
 70
     1
102
RTVSPropertyOp32
 70
     1
102
RTVSPropertyOp33
 70
     1
102
RTVSPropertyOp34
 70
     1
102
RTVSPropertyOp35
 70
     1
102
RTVSPropertyOp36
 70
     1
102
RTVSPropertyOp37
 70
     1
102
RTVSPropertyOp38
 70
     1
102
RTVSPropertyOp39
 70
     1
102
RTVSPropertyOp40
 70
     1
102
RTVSPropertyOp41
 70
     1
102
RTVSPropertyOp42
 70
     1
102
RTVSPropertyOp43
 70
     1
102
RTVSPropertyOp44
 70
     1
102
RTVSPropertyOp45
 70
     1
102
RTVSPropertyOp46
 70
     1
102
RTVSPropertyOp47
 70
     1
102
RTVSPropertyOp48
 70
     1
102
RTVSPropertyOp49
 70
     1
102
RTVSPropertyOp50
 70
     1
102
RTVSPropertyOp51
 70
     0
102
RTVSPropertyOp52
 70
     0
102
RTVSPropertyOp53
 70
     1
102
RTVSPropertyOp54
 70
     1
102
RTVSPropertyOp55
 70
     1
102
RTVSPropertyOp56
 70
     1
102
RTVSPropertyOp57
 70
     1
102
RTVSPropertyOp58
 70
     1
102
RTVSPropertyOp59
 70
     1
102
RTVSPropertyOp60
 70
     1
102
RTVSPropertyOp61
 70
     1
102
RTVSPropertyOp62
 70
     1
  0
XRECORD
  5
5B8
102
{ACAD_REACTORS
330
5B7
102
}
330
5B7
100
AcDbXrecord
280
     1
102
RTVSPost2010Prop28
280
     0
102
RTVSPost2010PropOp28
 70
     1
102
RTVSPost2010Prop29
280
     1
102
RTVSPost2010PropOp29
 70
     1
102
RTVSPost2010Prop30
280
     1
102
RTVSPost2010PropOp30
 70
     1
102
RTVSPost2010Prop31
280
     0
102
RTVSPost2010PropOp31
 70
     1
102
RTVSPost2010Prop32
280
     0
102
RTVSPost2010PropOp32
 70
     1
102
RTVSPost2010Prop33
280
     0
102
RTVSPost2010PropOp33
 70
     1
102
RTVSPost2010Prop34
280
     0
102
RTVSPost2010PropOp34
 70
     1
102
RTVSPost2010Prop35
280
     0
102
RTVSPost2010PropOp35
 70
     1
102
RTVSPost2010Prop36
280
     0
102
RTVSPost2010PropOp36
 70
     1
102
RTVSPost2010Prop37
 90
       50
102
RTVSPost2010PropOp37
 70
     1
102
RTVSPost2010Prop38
140
0.0
102
RTVSPost2010PropOp38
 70
     1
102
RTVSPost2010Prop39
140
1.0
102
RTVSPost2010PropOp39
 70
     1
102
RTVSPost2010Prop40
 90
        0
102
RTVSPost2010PropOp40
 70
     1
102
RTVSPost2010Prop41ColorIndex
 90
       18
102
RTVSPost2010Prop41ColorRGB
 90
        0
102
RTVSPost2010PropOp41
 70
     1
102
RTVSPost2010Prop42
 90
       50
102
RTVSPost2010PropOp42
 70
     1
102
RTVSPost2010Prop43
 90
        3
102
RTVSPost2010PropOp43
 70
     1
102
RTVSPost2010Prop44ColorIndex
 90
        5
102
RTVSPost2010Prop44ColorRGB
 90
      255
102
RTVSPost2010PropOp44
 70
     1
102
RTVSPost2010Prop45
280
     0
102
RTVSPost2010PropOp45
 70
     1
102
RTVSPost2010Prop46
 90
       50
102
RTVSPost2010PropOp46
 70
     1
102
RTVSPost2010Prop47
 90
       50
102
RTVSPost2010PropOp47
 70
     1
102
RTVSPost2010Prop48
 90
       50
102
RTVSPost2010PropOp48
 70
     1
102
RTVSPost2010Prop49
280
     0
102
RTVSPost2010PropOp49
 70
     1
102
RTVSPost2010Prop50
 90
       50
102
RTVSPost2010PropOp50
 70
     1
102
RTVSPost2010Prop51ColorIndex
 90
      256
102
RTVSPost2010Prop51ColorRGB
 90
-16777216
102
RTVSPost2010PropOp51
 70
     0
102
RTVSPost2010Prop52
140
1.0
102
RTVSPost2010PropOp52
 70
     0
102
RTVSPost2010Prop53
 90
        2
102
RTVSPost2010PropOp53
 70
     1
102
RTVSPost2010Prop54
  1
strokes_ogs.tif
102
RTVSPost2010PropOp54
 70
     1
102
RTVSPost2010Prop55
280
     0
102
RTVSPost2010PropOp55
 70
     1
102
RTVSPost2010Prop56
140
1.0
102
RTVSPost2010PropOp56
 70
     1
102
RTVSPost2010Prop57
140
1.0
102
RTVSPost2010PropOp57
 70
     1
102
RTVSPropertyOp0
 70
     1
102
RTVSPropertyOp1
 70
     1
102
RTVSPropertyOp2
 70
     1
102
RTVSPropertyOp3
 70
     1
102
RTVSPropertyOp4
 70
     1
102
RTVSPropertyOp5
 70
     1
102
RTVSPropertyOp6
 70
     1
102
RTVSPropertyOp7
 70
     1
102
RTVSPropertyOp8
 70
     1
102
RTVSPropertyOp9
 70
     1
102
RTVSPropertyOp10
 70
     1
102
RTVSPropertyOp11
 70
     1
102
RTVSPropertyOp12
 70
     1
102
RTVSPropertyOp13
 70
     1
102
RTVSPropertyOp14
 70
     1
102
RTVSPropertyOp15
 70
     1
102
RTVSPropertyOp16
 70
     1
102
RTVSPropertyOp17
 70
     1
102
RTVSPropertyOp18
 70
     1
102
RTVSPropertyOp19
 70
     1
102
RTVSPropertyOp20
 70
     1
102
RTVSPropertyOp21
 70
     1
102
RTVSPropertyOp22
 70
     1
102
RTVSPropertyOp23
 70
     1
102
RTVSPropertyOp24
 70
     1
102
RTVSPropertyOp25
 70
     1
102
RTVSPropertyOp26
 70
     1
102
RTVSPropertyOp27
 70
     1
102
RTVSPropertyOp28
 70
     1
102
RTVSPropertyOp29
 70
     1
102
RTVSPropertyOp30
 70
     1
102
RTVSPropertyOp31
 70
     1
102
RTVSPropertyOp32
 70
     1
102
RTVSPropertyOp33
 70
     1
102
RTVSPropertyOp34
 70
     1
102
RTVSPropertyOp35
 70
     1
102
RTVSPropertyOp36
 70
     1
102
RTVSPropertyOp37
 70
     1
102
RTVSPropertyOp38
 70
     1
102
RTVSPropertyOp39
 70
     1
102
RTVSPropertyOp40
 70
     1
102
RTVSPropertyOp41
 70
     1
102
RTVSPropertyOp42
 70
     1
102
RTVSPropertyOp43
 70
     1
102
RTVSPropertyOp44
 70
     1
102
RTVSPropertyOp45
 70
     1
102
RTVSPropertyOp46
 70
     1
102
RTVSPropertyOp47
 70
     1
102
RTVSPropertyOp48
 70
     1
102
RTVSPropertyOp49
 70
     1
102
RTVSPropertyOp50
 70
     1
102
RTVSPropertyOp51
 70
     0
102
RTVSPropertyOp52
 70
     0
102
RTVSPropertyOp53
 70
     1
102
RTVSPropertyOp54
 70
     1
102
RTVSPropertyOp55
 70
     1
102
RTVSPropertyOp56
 70
     1
102
RTVSPropertyOp57
 70
     1
102
RTVSPropertyOp58
 70
     1
102
RTVSPropertyOp59
 70
     1
102
RTVSPropertyOp60
 70
     1
102
RTVSPropertyOp61
 70
     1
102
RTVSPropertyOp62
 70
     1
  0
XRECORD
  5
5BC
102
{ACAD_REACTORS
330
5BB
102
}
330
5BB
100
AcDbXrecord
280
     1
102
RTVSPost2010Prop28
280
     0
102
RTVSPost2010PropOp28
 70
     1
102
RTVSPost2010Prop29
280
     1
102
RTVSPost2010PropOp29
 70
     1
102
RTVSPost2010Prop30
280
     1
102
RTVSPost2010PropOp30
 70
     1
102
RTVSPost2010Prop31
280
     0
102
RTVSPost2010PropOp31
 70
     1
102
RTVSPost2010Prop32
280
     0
102
RTVSPost2010PropOp32
 70
     1
102
RTVSPost2010Prop33
280
     0
102
RTVSPost2010PropOp33
 70
     1
102
RTVSPost2010Prop34
280
     0
102
RTVSPost2010PropOp34
 70
     1
102
RTVSPost2010Prop35
280
     0
102
RTVSPost2010PropOp35
 70
     1
102
RTVSPost2010Prop36
280
     0
102
RTVSPost2010PropOp36
 70
     1
102
RTVSPost2010Prop37
 90
       50
102
RTVSPost2010PropOp37
 70
     1
102
RTVSPost2010Prop38
140
0.0
102
RTVSPost2010PropOp38
 70
     1
102
RTVSPost2010Prop39
140
1.0
102
RTVSPost2010PropOp39
 70
     1
102
RTVSPost2010Prop40
 90
        0
102
RTVSPost2010PropOp40
 70
     1
102
RTVSPost2010Prop41ColorIndex
 90
       18
102
RTVSPost2010Prop41ColorRGB
 90
        0
102
RTVSPost2010PropOp41
 70
     1
102
RTVSPost2010Prop42
 90
       50
102
RTVSPost2010PropOp42
 70
     1
102
RTVSPost2010Prop43
 90
        3
102
RTVSPost2010PropOp43
 70
     1
102
RTVSPost2010Prop44ColorIndex
 90
        5
102
RTVSPost2010Prop44ColorRGB
 90
      255
102
RTVSPost2010PropOp44
 70
     1
102
RTVSPost2010Prop45
280
     0
102
RTVSPost2010PropOp45
 70
     1
102
RTVSPost2010Prop46
 90
       50
102
RTVSPost2010PropOp46
 70
     1
102
RTVSPost2010Prop47
 90
       50
102
RTVSPost2010PropOp47
 70
     1
102
RTVSPost2010Prop48
 90
       50
102
RTVSPost2010PropOp48
 70
     1
102
RTVSPost2010Prop49
280
     0
102
RTVSPost2010PropOp49
 70
     1
102
RTVSPost2010Prop50
 90
       50
102
RTVSPost2010PropOp50
 70
     1
102
RTVSPost2010Prop51ColorIndex
 90
      256
102
RTVSPost2010Prop51ColorRGB
 90
-16777216
102
RTVSPost2010PropOp51
 70
     0
102
RTVSPost2010Prop52
140
1.0
102
RTVSPost2010PropOp52
 70
     0
102
RTVSPost2010Prop53
 90
        2
102
RTVSPost2010PropOp53
 70
     1
102
RTVSPost2010Prop54
  1
strokes_ogs.tif
102
RTVSPost2010PropOp54
 70
     1
102
RTVSPost2010Prop55
280
     0
102
RTVSPost2010PropOp55
 70
     1
102
RTVSPost2010Prop56
140
1.0
102
RTVSPost2010PropOp56
 70
     1
102
RTVSPost2010Prop57
140
1.0
102
RTVSPost2010PropOp57
 70
     1
102
RTVSPropertyOp0
 70
     1
102
RTVSPropertyOp1
 70
     1
102
RTVSPropertyOp2
 70
     1
102
RTVSPropertyOp3
 70
     1
102
RTVSPropertyOp4
 70
     1
102
RTVSPropertyOp5
 70
     1
102
RTVSPropertyOp6
 70
     1
102
RTVSPropertyOp7
 70
     1
102
RTVSPropertyOp8
 70
     1
102
RTVSPropertyOp9
 70
     1
102
RTVSPropertyOp10
 70
     1
102
RTVSPropertyOp11
 70
     1
102
RTVSPropertyOp12
 70
     1
102
RTVSPropertyOp13
 70
     1
102
RTVSPropertyOp14
 70
     1
102
RTVSPropertyOp15
 70
     1
102
RTVSPropertyOp16
 70
     1
102
RTVSPropertyOp17
 70
     1
102
RTVSPropertyOp18
 70
     1
102
RTVSPropertyOp19
 70
     1
102
RTVSPropertyOp20
 70
     1
102
RTVSPropertyOp21
 70
     1
102
RTVSPropertyOp22
 70
     1
102
RTVSPropertyOp23
 70
     1
102
RTVSPropertyOp24
 70
     1
102
RTVSPropertyOp25
 70
     1
102
RTVSPropertyOp26
 70
     1
102
RTVSPropertyOp27
 70
     1
102
RTVSPropertyOp28
 70
     1
102
RTVSPropertyOp29
 70
     1
102
RTVSPropertyOp30
 70
     1
102
RTVSPropertyOp31
 70
     1
102
RTVSPropertyOp32
 70
     1
102
RTVSPropertyOp33
 70
     1
102
RTVSPropertyOp34
 70
     1
102
RTVSPropertyOp35
 70
     1
102
RTVSPropertyOp36
 70
     1
102
RTVSPropertyOp37
 70
     1
102
RTVSPropertyOp38
 70
     1
102
RTVSPropertyOp39
 70
     1
102
RTVSPropertyOp40
 70
     1
102
RTVSPropertyOp41
 70
     1
102
RTVSPropertyOp42
 70
     1
102
RTVSPropertyOp43
 70
     1
102
RTVSPropertyOp44
 70
     1
102
RTVSPropertyOp45
 70
     1
102
RTVSPropertyOp46
 70
     1
102
RTVSPropertyOp47
 70
     1
102
RTVSPropertyOp48
 70
     1
102
RTVSPropertyOp49
 70
     1
102
RTVSPropertyOp50
 70
     1
102
RTVSPropertyOp51
 70
     0
102
RTVSPropertyOp52
 70
     0
102
RTVSPropertyOp53
 70
     1
102
RTVSPropertyOp54
 70
     1
102
RTVSPropertyOp55
 70
     1
102
RTVSPropertyOp56
 70
     1
102
RTVSPropertyOp57
 70
     1
102
RTVSPropertyOp58
 70
     1
102
RTVSPropertyOp59
 70
     1
102
RTVSPropertyOp60
 70
     1
102
RTVSPropertyOp61
 70
     1
102
RTVSPropertyOp62
 70
     1
  0
XRECORD
  5
5D6
102
{ACAD_REACTORS
330
5D5
102
}
330
5D5
100
AcDbXrecord
280
     1
102
RTVSPost2010Prop28
280
     0
102
RTVSPost2010PropOp28
 70
     0
102
RTVSPost2010Prop29
280
     1
102
RTVSPost2010PropOp29
 70
     0
102
RTVSPost2010Prop30
280
     1
102
RTVSPost2010PropOp30
 70
     0
102
RTVSPost2010Prop31
280
     0
102
RTVSPost2010PropOp31
 70
     0
102
RTVSPost2010Prop32
280
     0
102
RTVSPost2010PropOp32
 70
     0
102
RTVSPost2010Prop33
280
     0
102
RTVSPost2010PropOp33
 70
     0
102
RTVSPost2010Prop34
280
     0
102
RTVSPost2010PropOp34
 70
     0
102
RTVSPost2010Prop35
280
     0
102
RTVSPost2010PropOp35
 70
     0
102
RTVSPost2010Prop36
280
     0
102
RTVSPost2010PropOp36
 70
     0
102
RTVSPost2010Prop37
 90
       50
102
RTVSPost2010PropOp37
 70
     0
102
RTVSPost2010Prop38
140
0.0
102
RTVSPost2010PropOp38
 70
     0
102
RTVSPost2010Prop39
140
1.0
102
RTVSPost2010PropOp39
 70
     0
102
RTVSPost2010Prop40
 90
        0
102
RTVSPost2010PropOp40
 70
     0
102
RTVSPost2010Prop41ColorIndex
 90
       18
102
RTVSPost2010Prop41ColorRGB
 90
        0
102
RTVSPost2010PropOp41
 70
     0
102
RTVSPost2010Prop42
 90
       50
102
RTVSPost2010PropOp42
 70
     0
102
RTVSPost2010Prop43
 90
        3
102
RTVSPost2010PropOp43
 70
     0
102
RTVSPost2010Prop44ColorIndex
 90
        5
102
RTVSPost2010Prop44ColorRGB
 90
      255
102
RTVSPost2010PropOp44
 70
     0
102
RTVSPost2010Prop45
280
     0
102
RTVSPost2010PropOp45
 70
     0
102
RTVSPost2010Prop46
 90
       50
102
RTVSPost2010PropOp46
 70
     0
102
RTVSPost2010Prop47
 90
       50
102
RTVSPost2010PropOp47
 70
     0
102
RTVSPost2010Prop48
 90
       50
102
RTVSPost2010PropOp48
 70
     0
102
RTVSPost2010Prop49
280
     0
102
RTVSPost2010PropOp49
 70
     0
102
RTVSPost2010Prop50
 90
       50
102
RTVSPost2010PropOp50
 70
     0
102
RTVSPost2010Prop51ColorIndex
 90
      256
102
RTVSPost2010Prop51ColorRGB
 90
-16777216
102
RTVSPost2010PropOp51
 70
     0
102
RTVSPost2010Prop52
140
1.0
102
RTVSPost2010PropOp52
 70
     0
102
RTVSPost2010Prop53
 90
        2
102
RTVSPost2010PropOp53
 70
     0
102
RTVSPost2010Prop54
  1
strokes_ogs.tif
102
RTVSPost2010PropOp54
 70
     0
102
RTVSPost2010Prop55
280
     0
102
RTVSPost2010PropOp55
 70
     0
102
RTVSPost2010Prop56
140
1.0
102
RTVSPost2010PropOp56
 70
     0
102
RTVSPost2010Prop57
140
1.0
102
RTVSPost2010PropOp57
 70
     0
102
RTVSPropertyOp0
 70
     0
102
RTVSPropertyOp1
 70
     0
102
RTVSPropertyOp2
 70
     0
102
RTVSPropertyOp3
 70
     0
102
RTVSPropertyOp4
 70
     0
102
RTVSPropertyOp5
 70
     0
102
RTVSPropertyOp6
 70
     0
102
RTVSPropertyOp7
 70
     0
102
RTVSPropertyOp8
 70
     0
102
RTVSPropertyOp9
 70
     0
102
RTVSPropertyOp10
 70
     0
102
RTVSPropertyOp11
 70
     0
102
RTVSPropertyOp12
 70
     0
102
RTVSPropertyOp13
 70
     0
102
RTVSPropertyOp14
 70
     2
102
RTVSPropertyOp15
 70
     0
102
RTVSPropertyOp16
 70
     0
102
RTVSPropertyOp17
 70
     0
102
RTVSPropertyOp18
 70
     0
102
RTVSPropertyOp19
 70
     0
102
RTVSPropertyOp20
 70
     0
102
RTVSPropertyOp21
 70
     0
102
RTVSPropertyOp22
 70
     0
102
RTVSPropertyOp23
 70
     0
102
RTVSPropertyOp24
 70
     0
102
RTVSPropertyOp25
 70
     0
102
RTVSPropertyOp26
 70
     0
102
RTVSPropertyOp27
 70
     0
102
RTVSPropertyOp28
 70
     0
102
RTVSPropertyOp29
 70
     0
102
RTVSPropertyOp30
 70
     0
102
RTVSPropertyOp31
 70
     0
102
RTVSPropertyOp32
 70
     0
102
RTVSPropertyOp33
 70
     0
102
RTVSPropertyOp34
 70
     0
102
RTVSPropertyOp35
 70
     0
102
RTVSPropertyOp36
 70
     0
102
RTVSPropertyOp37
 70
     0
102
RTVSPropertyOp38
 70
     0
102
RTVSPropertyOp39
 70
     0
102
RTVSPropertyOp40
 70
     0
102
RTVSPropertyOp41
 70
     0
102
RTVSPropertyOp42
 70
     0
102
RTVSPropertyOp43
 70
     0
102
RTVSPropertyOp44
 70
     0
102
RTVSPropertyOp45
 70
     0
102
RTVSPropertyOp46
 70
     0
102
RTVSPropertyOp47
 70
     0
102
RTVSPropertyOp48
 70
     0
102
RTVSPropertyOp49
 70
     0
102
RTVSPropertyOp50
 70
     0
102
RTVSPropertyOp51
 70
     0
102
RTVSPropertyOp52
 70
     0
102
RTVSPropertyOp53
 70
     0
102
RTVSPropertyOp54
 70
     0
102
RTVSPropertyOp55
 70
     0
102
RTVSPropertyOp56
 70
     0
102
RTVSPropertyOp57
 70
     0
102
RTVSPropertyOp58
 70
     0
102
RTVSPropertyOp59
 70
     0
102
RTVSPropertyOp60
 70
     0
102
RTVSPropertyOp61
 70
     0
102
RTVSPropertyOp62
 70
     0
  0
XRECORD
  5
5C4
102
{ACAD_REACTORS
330
5C3
102
}
330
5C3
100
AcDbXrecord
280
     1
102
RTVSPost2010Prop28
280
     0
102
RTVSPost2010PropOp28
 70
     1
102
RTVSPost2010Prop29
280
     1
102
RTVSPost2010PropOp29
 70
     1
102
RTVSPost2010Prop30
280
     1
102
RTVSPost2010PropOp30
 70
     1
102
RTVSPost2010Prop31
280
     0
102
RTVSPost2010PropOp31
 70
     1
102
RTVSPost2010Prop32
280
     0
102
RTVSPost2010PropOp32
 70
     1
102
RTVSPost2010Prop33
280
     0
102
RTVSPost2010PropOp33
 70
     1
102
RTVSPost2010Prop34
280
     0
102
RTVSPost2010PropOp34
 70
     1
102
RTVSPost2010Prop35
280
     0
102
RTVSPost2010PropOp35
 70
     1
102
RTVSPost2010Prop36
280
     0
102
RTVSPost2010PropOp36
 70
     1
102
RTVSPost2010Prop37
 90
       50
102
RTVSPost2010PropOp37
 70
     1
102
RTVSPost2010Prop38
140
0.0
102
RTVSPost2010PropOp38
 70
     1
102
RTVSPost2010Prop39
140
1.0
102
RTVSPost2010PropOp39
 70
     1
102
RTVSPost2010Prop40
 90
        0
102
RTVSPost2010PropOp40
 70
     1
102
RTVSPost2010Prop41ColorIndex
 90
       18
102
RTVSPost2010Prop41ColorRGB
 90
        0
102
RTVSPost2010PropOp41
 70
     1
102
RTVSPost2010Prop42
 90
       50
102
RTVSPost2010PropOp42
 70
     1
102
RTVSPost2010Prop43
 90
        3
102
RTVSPost2010PropOp43
 70
     1
102
RTVSPost2010Prop44ColorIndex
 90
        5
102
RTVSPost2010Prop44ColorRGB
 90
      255
102
RTVSPost2010PropOp44
 70
     1
102
RTVSPost2010Prop45
280
     0
102
RTVSPost2010PropOp45
 70
     1
102
RTVSPost2010Prop46
 90
       50
102
RTVSPost2010PropOp46
 70
     1
102
RTVSPost2010Prop47
 90
       50
102
RTVSPost2010PropOp47
 70
     1
102
RTVSPost2010Prop48
 90
       50
102
RTVSPost2010PropOp48
 70
     1
102
RTVSPost2010Prop49
280
     0
102
RTVSPost2010PropOp49
 70
     1
102
RTVSPost2010Prop50
 90
       50
102
RTVSPost2010PropOp50
 70
     1
102
RTVSPost2010Prop51ColorIndex
 90
      256
102
RTVSPost2010Prop51ColorRGB
 90
-16777216
102
RTVSPost2010PropOp51
 70
     0
102
RTVSPost2010Prop52
140
1.0
102
RTVSPost2010PropOp52
 70
     0
102
RTVSPost2010Prop53
 90
        2
102
RTVSPost2010PropOp53
 70
     1
102
RTVSPost2010Prop54
  1
strokes_ogs.tif
102
RTVSPost2010PropOp54
 70
     1
102
RTVSPost2010Prop55
280
     0
102
RTVSPost2010PropOp55
 70
     1
102
RTVSPost2010Prop56
140
1.0
102
RTVSPost2010PropOp56
 70
     1
102
RTVSPost2010Prop57
140
1.0
102
RTVSPost2010PropOp57
 70
     1
102
RTVSPropertyOp0
 70
     1
102
RTVSPropertyOp1
 70
     1
102
RTVSPropertyOp2
 70
     1
102
RTVSPropertyOp3
 70
     1
102
RTVSPropertyOp4
 70
     1
102
RTVSPropertyOp5
 70
     1
102
RTVSPropertyOp6
 70
     1
102
RTVSPropertyOp7
 70
     1
102
RTVSPropertyOp8
 70
     1
102
RTVSPropertyOp9
 70
     1
102
RTVSPropertyOp10
 70
     1
102
RTVSPropertyOp11
 70
     1
102
RTVSPropertyOp12
 70
     1
102
RTVSPropertyOp13
 70
     1
102
RTVSPropertyOp14
 70
     1
102
RTVSPropertyOp15
 70
     1
102
RTVSPropertyOp16
 70
     1
102
RTVSPropertyOp17
 70
     1
102
RTVSPropertyOp18
 70
     1
102
RTVSPropertyOp19
 70
     1
102
RTVSPropertyOp20
 70
     1
102
RTVSPropertyOp21
 70
     1
102
RTVSPropertyOp22
 70
     1
102
RTVSPropertyOp23
 70
     1
102
RTVSPropertyOp24
 70
     1
102
RTVSPropertyOp25
 70
     1
102
RTVSPropertyOp26
 70
     1
102
RTVSPropertyOp27
 70
     1
102
RTVSPropertyOp28
 70
     1
102
RTVSPropertyOp29
 70
     1
102
RTVSPropertyOp30
 70
     1
102
RTVSPropertyOp31
 70
     1
102
RTVSPropertyOp32
 70
     1
102
RTVSPropertyOp33
 70
     1
102
RTVSPropertyOp34
 70
     1
102
RTVSPropertyOp35
 70
     1
102
RTVSPropertyOp36
 70
     1
102
RTVSPropertyOp37
 70
     1
102
RTVSPropertyOp38
 70
     1
102
RTVSPropertyOp39
 70
     1
102
RTVSPropertyOp40
 70
     1
102
RTVSPropertyOp41
 70
     1
102
RTVSPropertyOp42
 70
     1
102
RTVSPropertyOp43
 70
     1
102
RTVSPropertyOp44
 70
     1
102
RTVSPropertyOp45
 70
     1
102
RTVSPropertyOp46
 70
     1
102
RTVSPropertyOp47
 70
     1
102
RTVSPropertyOp48
 70
     1
102
RTVSPropertyOp49
 70
     1
102
RTVSPropertyOp50
 70
     1
102
RTVSPropertyOp51
 70
     0
102
RTVSPropertyOp52
 70
     0
102
RTVSPropertyOp53
 70
     1
102
RTVSPropertyOp54
 70
     1
102
RTVSPropertyOp55
 70
     1
102
RTVSPropertyOp56
 70
     1
102
RTVSPropertyOp57
 70
     1
102
RTVSPropertyOp58
 70
     1
102
RTVSPropertyOp59
 70
     1
102
RTVSPropertyOp60
 70
     1
102
RTVSPropertyOp61
 70
     1
102
RTVSPropertyOp62
 70
     1
  0
XRECORD
  5
5A8
102
{ACAD_REACTORS
330
5A7
102
}
330
5A7
100
AcDbXrecord
280
     1
102
RTVSPost2010Prop28
280
     0
102
RTVSPost2010PropOp28
 70
     1
102
RTVSPost2010Prop29
280
     1
102
RTVSPost2010PropOp29
 70
     1
102
RTVSPost2010Prop30
280
     1
102
RTVSPost2010PropOp30
 70
     1
102
RTVSPost2010Prop31
280
     0
102
RTVSPost2010PropOp31
 70
     1
102
RTVSPost2010Prop32
280
     0
102
RTVSPost2010PropOp32
 70
     1
102
RTVSPost2010Prop33
280
     0
102
RTVSPost2010PropOp33
 70
     1
102
RTVSPost2010Prop34
280
     0
102
RTVSPost2010PropOp34
 70
     1
102
RTVSPost2010Prop35
280
     0
102
RTVSPost2010PropOp35
 70
     1
102
RTVSPost2010Prop36
280
     0
102
RTVSPost2010PropOp36
 70
     1
102
RTVSPost2010Prop37
 90
       50
102
RTVSPost2010PropOp37
 70
     1
102
RTVSPost2010Prop38
140
0.0
102
RTVSPost2010PropOp38
 70
     1
102
RTVSPost2010Prop39
140
1.0
102
RTVSPost2010PropOp39
 70
     1
102
RTVSPost2010Prop40
 90
        0
102
RTVSPost2010PropOp40
 70
     1
102
RTVSPost2010Prop41ColorIndex
 90
       18
102
RTVSPost2010Prop41ColorRGB
 90
        0
102
RTVSPost2010PropOp41
 70
     1
102
RTVSPost2010Prop42
 90
       50
102
RTVSPost2010PropOp42
 70
     1
102
RTVSPost2010Prop43
 90
        3
102
RTVSPost2010PropOp43
 70
     1
102
RTVSPost2010Prop44ColorIndex
 90
        5
102
RTVSPost2010Prop44ColorRGB
 90
      255
102
RTVSPost2010PropOp44
 70
     1
102
RTVSPost2010Prop45
280
     0
102
RTVSPost2010PropOp45
 70
     1
102
RTVSPost2010Prop46
 90
       50
102
RTVSPost2010PropOp46
 70
     1
102
RTVSPost2010Prop47
 90
       50
102
RTVSPost2010PropOp47
 70
     1
102
RTVSPost2010Prop48
 90
       50
102
RTVSPost2010PropOp48
 70
     1
102
RTVSPost2010Prop49
280
     0
102
RTVSPost2010PropOp49
 70
     1
102
RTVSPost2010Prop50
 90
       50
102
RTVSPost2010PropOp50
 70
     1
102
RTVSPost2010Prop51ColorIndex
 90
      256
102
RTVSPost2010Prop51ColorRGB
 90
-16777216
102
RTVSPost2010PropOp51
 70
     0
102
RTVSPost2010Prop52
140
1.0
102
RTVSPost2010PropOp52
 70
     0
102
RTVSPost2010Prop53
 90
        2
102
RTVSPost2010PropOp53
 70
     1
102
RTVSPost2010Prop54
  1
strokes_ogs.tif
102
RTVSPost2010PropOp54
 70
     1
102
RTVSPost2010Prop55
280
     0
102
RTVSPost2010PropOp55
 70
     1
102
RTVSPost2010Prop56
140
1.0
102
RTVSPost2010PropOp56
 70
     1
102
RTVSPost2010Prop57
140
1.0
102
RTVSPost2010PropOp57
 70
     1
102
RTVSPropertyOp0
 70
     1
102
RTVSPropertyOp1
 70
     1
102
RTVSPropertyOp2
 70
     1
102
RTVSPropertyOp3
 70
     1
102
RTVSPropertyOp4
 70
     1
102
RTVSPropertyOp5
 70
     1
102
RTVSPropertyOp6
 70
     1
102
RTVSPropertyOp7
 70
     1
102
RTVSPropertyOp8
 70
     1
102
RTVSPropertyOp9
 70
     1
102
RTVSPropertyOp10
 70
     1
102
RTVSPropertyOp11
 70
     1
102
RTVSPropertyOp12
 70
     1
102
RTVSPropertyOp13
 70
     1
102
RTVSPropertyOp14
 70
     1
102
RTVSPropertyOp15
 70
     1
102
RTVSPropertyOp16
 70
     1
102
RTVSPropertyOp17
 70
     1
102
RTVSPropertyOp18
 70
     1
102
RTVSPropertyOp19
 70
     1
102
RTVSPropertyOp20
 70
     1
102
RTVSPropertyOp21
 70
     1
102
RTVSPropertyOp22
 70
     1
102
RTVSPropertyOp23
 70
     1
102
RTVSPropertyOp24
 70
     1
102
RTVSPropertyOp25
 70
     1
102
RTVSPropertyOp26
 70
     1
102
RTVSPropertyOp27
 70
     1
102
RTVSPropertyOp28
 70
     1
102
RTVSPropertyOp29
 70
     1
102
RTVSPropertyOp30
 70
     1
102
RTVSPropertyOp31
 70
     1
102
RTVSPropertyOp32
 70
     1
102
RTVSPropertyOp33
 70
     1
102
RTVSPropertyOp34
 70
     1
102
RTVSPropertyOp35
 70
     1
102
RTVSPropertyOp36
 70
     1
102
RTVSPropertyOp37
 70
     1
102
RTVSPropertyOp38
 70
     1
102
RTVSPropertyOp39
 70
     1
102
RTVSPropertyOp40
 70
     1
102
RTVSPropertyOp41
 70
     1
102
RTVSPropertyOp42
 70
     1
102
RTVSPropertyOp43
 70
     1
102
RTVSPropertyOp44
 70
     1
102
RTVSPropertyOp45
 70
     1
102
RTVSPropertyOp46
 70
     1
102
RTVSPropertyOp47
 70
     1
102
RTVSPropertyOp48
 70
     1
102
RTVSPropertyOp49
 70
     1
102
RTVSPropertyOp50
 70
     1
102
RTVSPropertyOp51
 70
     0
102
RTVSPropertyOp52
 70
     0
102
RTVSPropertyOp53
 70
     1
102
RTVSPropertyOp54
 70
     1
102
RTVSPropertyOp55
 70
     1
102
RTVSPropertyOp56
 70
     1
102
RTVSPropertyOp57
 70
     1
102
RTVSPropertyOp58
 70
     1
102
RTVSPropertyOp59
 70
     1
102
RTVSPropertyOp60
 70
     1
102
RTVSPropertyOp61
 70
     1
102
RTVSPropertyOp62
 70
     1
  0
XRECORD
  5
5AA
102
{ACAD_REACTORS
330
5A9
102
}
330
5A9
100
AcDbXrecord
280
     1
102
RTVSPost2010Prop28
280
     0
102
RTVSPost2010PropOp28
 70
     1
102
RTVSPost2010Prop29
280
     1
102
RTVSPost2010PropOp29
 70
     1
102
RTVSPost2010Prop30
280
     1
102
RTVSPost2010PropOp30
 70
     1
102
RTVSPost2010Prop31
280
     0
102
RTVSPost2010PropOp31
 70
     1
102
RTVSPost2010Prop32
280
     0
102
RTVSPost2010PropOp32
 70
     1
102
RTVSPost2010Prop33
280
     0
102
RTVSPost2010PropOp33
 70
     1
102
RTVSPost2010Prop34
280
     0
102
RTVSPost2010PropOp34
 70
     1
102
RTVSPost2010Prop35
280
     0
102
RTVSPost2010PropOp35
 70
     1
102
RTVSPost2010Prop36
280
     0
102
RTVSPost2010PropOp36
 70
     1
102
RTVSPost2010Prop37
 90
       50
102
RTVSPost2010PropOp37
 70
     1
102
RTVSPost2010Prop38
140
0.0
102
RTVSPost2010PropOp38
 70
     1
102
RTVSPost2010Prop39
140
1.0
102
RTVSPost2010PropOp39
 70
     1
102
RTVSPost2010Prop40
 90
        0
102
RTVSPost2010PropOp40
 70
     1
102
RTVSPost2010Prop41ColorIndex
 90
       18
102
RTVSPost2010Prop41ColorRGB
 90
        0
102
RTVSPost2010PropOp41
 70
     1
102
RTVSPost2010Prop42
 90
       50
102
RTVSPost2010PropOp42
 70
     1
102
RTVSPost2010Prop43
 90
        3
102
RTVSPost2010PropOp43
 70
     1
102
RTVSPost2010Prop44ColorIndex
 90
        5
102
RTVSPost2010Prop44ColorRGB
 90
      255
102
RTVSPost2010PropOp44
 70
     1
102
RTVSPost2010Prop45
280
     0
102
RTVSPost2010PropOp45
 70
     1
102
RTVSPost2010Prop46
 90
       50
102
RTVSPost2010PropOp46
 70
     1
102
RTVSPost2010Prop47
 90
       50
102
RTVSPost2010PropOp47
 70
     1
102
RTVSPost2010Prop48
 90
       50
102
RTVSPost2010PropOp48
 70
     1
102
RTVSPost2010Prop49
280
     0
102
RTVSPost2010PropOp49
 70
     1
102
RTVSPost2010Prop50
 90
       50
102
RTVSPost2010PropOp50
 70
     1
102
RTVSPost2010Prop51ColorIndex
 90
      256
102
RTVSPost2010Prop51ColorRGB
 90
-16777216
102
RTVSPost2010PropOp51
 70
     0
102
RTVSPost2010Prop52
140
1.0
102
RTVSPost2010PropOp52
 70
     0
102
RTVSPost2010Prop53
 90
        2
102
RTVSPost2010PropOp53
 70
     1
102
RTVSPost2010Prop54
  1
strokes_ogs.tif
102
RTVSPost2010PropOp54
 70
     1
102
RTVSPost2010Prop55
280
     0
102
RTVSPost2010PropOp55
 70
     1
102
RTVSPost2010Prop56
140
1.0
102
RTVSPost2010PropOp56
 70
     1
102
RTVSPost2010Prop57
140
1.0
102
RTVSPost2010PropOp57
 70
     1
102
RTVSPropertyOp0
 70
     1
102
RTVSPropertyOp1
 70
     1
102
RTVSPropertyOp2
 70
     1
102
RTVSPropertyOp3
 70
     1
102
RTVSPropertyOp4
 70
     1
102
RTVSPropertyOp5
 70
     1
102
RTVSPropertyOp6
 70
     1
102
RTVSPropertyOp7
 70
     1
102
RTVSPropertyOp8
 70
     1
102
RTVSPropertyOp9
 70
     1
102
RTVSPropertyOp10
 70
     1
102
RTVSPropertyOp11
 70
     1
102
RTVSPropertyOp12
 70
     1
102
RTVSPropertyOp13
 70
     1
102
RTVSPropertyOp14
 70
     1
102
RTVSPropertyOp15
 70
     1
102
RTVSPropertyOp16
 70
     1
102
RTVSPropertyOp17
 70
     1
102
RTVSPropertyOp18
 70
     1
102
RTVSPropertyOp19
 70
     1
102
RTVSPropertyOp20
 70
     1
102
RTVSPropertyOp21
 70
     1
102
RTVSPropertyOp22
 70
     1
102
RTVSPropertyOp23
 70
     1
102
RTVSPropertyOp24
 70
     1
102
RTVSPropertyOp25
 70
     1
102
RTVSPropertyOp26
 70
     1
102
RTVSPropertyOp27
 70
     1
102
RTVSPropertyOp28
 70
     1
102
RTVSPropertyOp29
 70
     1
102
RTVSPropertyOp30
 70
     1
102
RTVSPropertyOp31
 70
     1
102
RTVSPropertyOp32
 70
     1
102
RTVSPropertyOp33
 70
     1
102
RTVSPropertyOp34
 70
     1
102
RTVSPropertyOp35
 70
     1
102
RTVSPropertyOp36
 70
     1
102
RTVSPropertyOp37
 70
     1
102
RTVSPropertyOp38
 70
     1
102
RTVSPropertyOp39
 70
     1
102
RTVSPropertyOp40
 70
     1
102
RTVSPropertyOp41
 70
     1
102
RTVSPropertyOp42
 70
     1
102
RTVSPropertyOp43
 70
     1
102
RTVSPropertyOp44
 70
     1
102
RTVSPropertyOp45
 70
     1
102
RTVSPropertyOp46
 70
     1
102
RTVSPropertyOp47
 70
     1
102
RTVSPropertyOp48
 70
     1
102
RTVSPropertyOp49
 70
     1
102
RTVSPropertyOp50
 70
     1
102
RTVSPropertyOp51
 70
     0
102
RTVSPropertyOp52
 70
     0
102
RTVSPropertyOp53
 70
     1
102
RTVSPropertyOp54
 70
     1
102
RTVSPropertyOp55
 70
     1
102
RTVSPropertyOp56
 70
     1
102
RTVSPropertyOp57
 70
     1
102
RTVSPropertyOp58
 70
     1
102
RTVSPropertyOp59
 70
     1
102
RTVSPropertyOp60
 70
     1
102
RTVSPropertyOp61
 70
     1
102
RTVSPropertyOp62
 70
     1
  0
XRECORD
  5
5AC
102
{ACAD_REACTORS
330
5AB
102
}
330
5AB
100
AcDbXrecord
280
     1
102
RTVSPost2010Prop28
280
     0
102
RTVSPost2010PropOp28
 70
     1
102
RTVSPost2010Prop29
280
     1
102
RTVSPost2010PropOp29
 70
     1
102
RTVSPost2010Prop30
280
     1
102
RTVSPost2010PropOp30
 70
     1
102
RTVSPost2010Prop31
280
     0
102
RTVSPost2010PropOp31
 70
     1
102
RTVSPost2010Prop32
280
     0
102
RTVSPost2010PropOp32
 70
     1
102
RTVSPost2010Prop33
280
     0
102
RTVSPost2010PropOp33
 70
     1
102
RTVSPost2010Prop34
280
     0
102
RTVSPost2010PropOp34
 70
     1
102
RTVSPost2010Prop35
280
     0
102
RTVSPost2010PropOp35
 70
     1
102
RTVSPost2010Prop36
280
     0
102
RTVSPost2010PropOp36
 70
     1
102
RTVSPost2010Prop37
 90
       50
102
RTVSPost2010PropOp37
 70
     1
102
RTVSPost2010Prop38
140
0.0
102
RTVSPost2010PropOp38
 70
     1
102
RTVSPost2010Prop39
140
1.0
102
RTVSPost2010PropOp39
 70
     1
102
RTVSPost2010Prop40
 90
        0
102
RTVSPost2010PropOp40
 70
     1
102
RTVSPost2010Prop41ColorIndex
 90
       18
102
RTVSPost2010Prop41ColorRGB
 90
        0
102
RTVSPost2010PropOp41
 70
     1
102
RTVSPost2010Prop42
 90
       50
102
RTVSPost2010PropOp42
 70
     1
102
RTVSPost2010Prop43
 90
        3
102
RTVSPost2010PropOp43
 70
     1
102
RTVSPost2010Prop44ColorIndex
 90
        5
102
RTVSPost2010Prop44ColorRGB
 90
      255
102
RTVSPost2010PropOp44
 70
     1
102
RTVSPost2010Prop45
280
     0
102
RTVSPost2010PropOp45
 70
     1
102
RTVSPost2010Prop46
 90
       50
102
RTVSPost2010PropOp46
 70
     1
102
RTVSPost2010Prop47
 90
       50
102
RTVSPost2010PropOp47
 70
     1
102
RTVSPost2010Prop48
 90
       50
102
RTVSPost2010PropOp48
 70
     1
102
RTVSPost2010Prop49
280
     0
102
RTVSPost2010PropOp49
 70
     1
102
RTVSPost2010Prop50
 90
       50
102
RTVSPost2010PropOp50
 70
     1
102
RTVSPost2010Prop51ColorIndex
 90
      256
102
RTVSPost2010Prop51ColorRGB
 90
-16777216
102
RTVSPost2010PropOp51
 70
     0
102
RTVSPost2010Prop52
140
1.0
102
RTVSPost2010PropOp52
 70
     0
102
RTVSPost2010Prop53
 90
        2
102
RTVSPost2010PropOp53
 70
     1
102
RTVSPost2010Prop54
  1
strokes_ogs.tif
102
RTVSPost2010PropOp54
 70
     1
102
RTVSPost2010Prop55
280
     0
102
RTVSPost2010PropOp55
 70
     1
102
RTVSPost2010Prop56
140
1.0
102
RTVSPost2010PropOp56
 70
     1
102
RTVSPost2010Prop57
140
1.0
102
RTVSPost2010PropOp57
 70
     1
102
RTVSPropertyOp0
 70
     1
102
RTVSPropertyOp1
 70
     1
102
RTVSPropertyOp2
 70
     1
102
RTVSPropertyOp3
 70
     1
102
RTVSPropertyOp4
 70
     1
102
RTVSPropertyOp5
 70
     1
102
RTVSPropertyOp6
 70
     1
102
RTVSPropertyOp7
 70
     1
102
RTVSPropertyOp8
 70
     1
102
RTVSPropertyOp9
 70
     1
102
RTVSPropertyOp10
 70
     1
102
RTVSPropertyOp11
 70
     1
102
RTVSPropertyOp12
 70
     1
102
RTVSPropertyOp13
 70
     1
102
RTVSPropertyOp14
 70
     1
102
RTVSPropertyOp15
 70
     1
102
RTVSPropertyOp16
 70
     1
102
RTVSPropertyOp17
 70
     1
102
RTVSPropertyOp18
 70
     1
102
RTVSPropertyOp19
 70
     1
102
RTVSPropertyOp20
 70
     1
102
RTVSPropertyOp21
 70
     1
102
RTVSPropertyOp22
 70
     1
102
RTVSPropertyOp23
 70
     1
102
RTVSPropertyOp24
 70
     1
102
RTVSPropertyOp25
 70
     1
102
RTVSPropertyOp26
 70
     1
102
RTVSPropertyOp27
 70
     1
102
RTVSPropertyOp28
 70
     1
102
RTVSPropertyOp29
 70
     1
102
RTVSPropertyOp30
 70
     1
102
RTVSPropertyOp31
 70
     1
102
RTVSPropertyOp32
 70
     1
102
RTVSPropertyOp33
 70
     1
102
RTVSPropertyOp34
 70
     1
102
RTVSPropertyOp35
 70
     1
102
RTVSPropertyOp36
 70
     1
102
RTVSPropertyOp37
 70
     1
102
RTVSPropertyOp38
 70
     1
102
RTVSPropertyOp39
 70
     1
102
RTVSPropertyOp40
 70
     1
102
RTVSPropertyOp41
 70
     1
102
RTVSPropertyOp42
 70
     1
102
RTVSPropertyOp43
 70
     1
102
RTVSPropertyOp44
 70
     1
102
RTVSPropertyOp45
 70
     1
102
RTVSPropertyOp46
 70
     1
102
RTVSPropertyOp47
 70
     1
102
RTVSPropertyOp48
 70
     1
102
RTVSPropertyOp49
 70
     1
102
RTVSPropertyOp50
 70
     1
102
RTVSPropertyOp51
 70
     0
102
RTVSPropertyOp52
 70
     0
102
RTVSPropertyOp53
 70
     1
102
RTVSPropertyOp54
 70
     1
102
RTVSPropertyOp55
 70
     1
102
RTVSPropertyOp56
 70
     1
102
RTVSPropertyOp57
 70
     1
102
RTVSPropertyOp58
 70
     1
102
RTVSPropertyOp59
 70
     1
102
RTVSPropertyOp60
 70
     1
102
RTVSPropertyOp61
 70
     1
102
RTVSPropertyOp62
 70
     1
  0
XRECORD
  5
5AE
102
{ACAD_REACTORS
330
5AD
102
}
330
5AD
100
AcDbXrecord
280
     1
102
RTVSPost2010Prop28
280
     0
102
RTVSPost2010PropOp28
 70
     1
102
RTVSPost2010Prop29
280
     1
102
RTVSPost2010PropOp29
 70
     1
102
RTVSPost2010Prop30
280
     1
102
RTVSPost2010PropOp30
 70
     1
102
RTVSPost2010Prop31
280
     0
102
RTVSPost2010PropOp31
 70
     1
102
RTVSPost2010Prop32
280
     0
102
RTVSPost2010PropOp32
 70
     1
102
RTVSPost2010Prop33
280
     0
102
RTVSPost2010PropOp33
 70
     1
102
RTVSPost2010Prop34
280
     0
102
RTVSPost2010PropOp34
 70
     1
102
RTVSPost2010Prop35
280
     0
102
RTVSPost2010PropOp35
 70
     1
102
RTVSPost2010Prop36
280
     0
102
RTVSPost2010PropOp36
 70
     1
102
RTVSPost2010Prop37
 90
       50
102
RTVSPost2010PropOp37
 70
     1
102
RTVSPost2010Prop38
140
0.0
102
RTVSPost2010PropOp38
 70
     1
102
RTVSPost2010Prop39
140
1.0
102
RTVSPost2010PropOp39
 70
     1
102
RTVSPost2010Prop40
 90
        0
102
RTVSPost2010PropOp40
 70
     1
102
RTVSPost2010Prop41ColorIndex
 90
       18
102
RTVSPost2010Prop41ColorRGB
 90
        0
102
RTVSPost2010PropOp41
 70
     1
102
RTVSPost2010Prop42
 90
       50
102
RTVSPost2010PropOp42
 70
     1
102
RTVSPost2010Prop43
 90
        3
102
RTVSPost2010PropOp43
 70
     1
102
RTVSPost2010Prop44ColorIndex
 90
        5
102
RTVSPost2010Prop44ColorRGB
 90
      255
102
RTVSPost2010PropOp44
 70
     1
102
RTVSPost2010Prop45
280
     0
102
RTVSPost2010PropOp45
 70
     1
102
RTVSPost2010Prop46
 90
       50
102
RTVSPost2010PropOp46
 70
     1
102
RTVSPost2010Prop47
 90
       50
102
RTVSPost2010PropOp47
 70
     1
102
RTVSPost2010Prop48
 90
       50
102
RTVSPost2010PropOp48
 70
     1
102
RTVSPost2010Prop49
280
     0
102
RTVSPost2010PropOp49
 70
     1
102
RTVSPost2010Prop50
 90
       50
102
RTVSPost2010PropOp50
 70
     1
102
RTVSPost2010Prop51ColorIndex
 90
      256
102
RTVSPost2010Prop51ColorRGB
 90
-16777216
102
RTVSPost2010PropOp51
 70
     0
102
RTVSPost2010Prop52
140
1.0
102
RTVSPost2010PropOp52
 70
     0
102
RTVSPost2010Prop53
 90
        2
102
RTVSPost2010PropOp53
 70
     1
102
RTVSPost2010Prop54
  1
strokes_ogs.tif
102
RTVSPost2010PropOp54
 70
     1
102
RTVSPost2010Prop55
280
     0
102
RTVSPost2010PropOp55
 70
     1
102
RTVSPost2010Prop56
140
1.0
102
RTVSPost2010PropOp56
 70
     1
102
RTVSPost2010Prop57
140
1.0
102
RTVSPost2010PropOp57
 70
     1
102
RTVSPropertyOp0
 70
     1
102
RTVSPropertyOp1
 70
     1
102
RTVSPropertyOp2
 70
     1
102
RTVSPropertyOp3
 70
     1
102
RTVSPropertyOp4
 70
     1
102
RTVSPropertyOp5
 70
     1
102
RTVSPropertyOp6
 70
     1
102
RTVSPropertyOp7
 70
     1
102
RTVSPropertyOp8
 70
     1
102
RTVSPropertyOp9
 70
     1
102
RTVSPropertyOp10
 70
     1
102
RTVSPropertyOp11
 70
     1
102
RTVSPropertyOp12
 70
     1
102
RTVSPropertyOp13
 70
     1
102
RTVSPropertyOp14
 70
     1
102
RTVSPropertyOp15
 70
     1
102
RTVSPropertyOp16
 70
     1
102
RTVSPropertyOp17
 70
     1
102
RTVSPropertyOp18
 70
     1
102
RTVSPropertyOp19
 70
     1
102
RTVSPropertyOp20
 70
     1
102
RTVSPropertyOp21
 70
     1
102
RTVSPropertyOp22
 70
     1
102
RTVSPropertyOp23
 70
     1
102
RTVSPropertyOp24
 70
     1
102
RTVSPropertyOp25
 70
     1
102
RTVSPropertyOp26
 70
     1
102
RTVSPropertyOp27
 70
     1
102
RTVSPropertyOp28
 70
     1
102
RTVSPropertyOp29
 70
     1
102
RTVSPropertyOp30
 70
     1
102
RTVSPropertyOp31
 70
     1
102
RTVSPropertyOp32
 70
     1
102
RTVSPropertyOp33
 70
     1
102
RTVSPropertyOp34
 70
     1
102
RTVSPropertyOp35
 70
     1
102
RTVSPropertyOp36
 70
     1
102
RTVSPropertyOp37
 70
     1
102
RTVSPropertyOp38
 70
     1
102
RTVSPropertyOp39
 70
     1
102
RTVSPropertyOp40
 70
     1
102
RTVSPropertyOp41
 70
     1
102
RTVSPropertyOp42
 70
     1
102
RTVSPropertyOp43
 70
     1
102
RTVSPropertyOp44
 70
     1
102
RTVSPropertyOp45
 70
     1
102
RTVSPropertyOp46
 70
     1
102
RTVSPropertyOp47
 70
     1
102
RTVSPropertyOp48
 70
     1
102
RTVSPropertyOp49
 70
     1
102
RTVSPropertyOp50
 70
     1
102
RTVSPropertyOp51
 70
     0
102
RTVSPropertyOp52
 70
     0
102
RTVSPropertyOp53
 70
     1
102
RTVSPropertyOp54
 70
     1
102
RTVSPropertyOp55
 70
     1
102
RTVSPropertyOp56
 70
     1
102
RTVSPropertyOp57
 70
     1
102
RTVSPropertyOp58
 70
     1
102
RTVSPropertyOp59
 70
     1
102
RTVSPropertyOp60
 70
     1
102
RTVSPropertyOp61
 70
     1
102
RTVSPropertyOp62
 70
     1
  0
XRECORD
  5
5B6
102
{ACAD_REACTORS
330
5B5
102
}
330
5B5
100
AcDbXrecord
280
     1
102
RTVSPost2010Prop28
280
     0
102
RTVSPost2010PropOp28
 70
     1
102
RTVSPost2010Prop29
280
     1
102
RTVSPost2010PropOp29
 70
     1
102
RTVSPost2010Prop30
280
     1
102
RTVSPost2010PropOp30
 70
     1
102
RTVSPost2010Prop31
280
     0
102
RTVSPost2010PropOp31
 70
     1
102
RTVSPost2010Prop32
280
     0
102
RTVSPost2010PropOp32
 70
     1
102
RTVSPost2010Prop33
280
     0
102
RTVSPost2010PropOp33
 70
     1
102
RTVSPost2010Prop34
280
     0
102
RTVSPost2010PropOp34
 70
     1
102
RTVSPost2010Prop35
280
     0
102
RTVSPost2010PropOp35
 70
     1
102
RTVSPost2010Prop36
280
     0
102
RTVSPost2010PropOp36
 70
     1
102
RTVSPost2010Prop37
 90
       50
102
RTVSPost2010PropOp37
 70
     1
102
RTVSPost2010Prop38
140
0.0
102
RTVSPost2010PropOp38
 70
     1
102
RTVSPost2010Prop39
140
1.0
102
RTVSPost2010PropOp39
 70
     1
102
RTVSPost2010Prop40
 90
        0
102
RTVSPost2010PropOp40
 70
     1
102
RTVSPost2010Prop41ColorIndex
 90
       18
102
RTVSPost2010Prop41ColorRGB
 90
        0
102
RTVSPost2010PropOp41
 70
     1
102
RTVSPost2010Prop42
 90
       50
102
RTVSPost2010PropOp42
 70
     1
102
RTVSPost2010Prop43
 90
        3
102
RTVSPost2010PropOp43
 70
     1
102
RTVSPost2010Prop44ColorIndex
 90
        5
102
RTVSPost2010Prop44ColorRGB
 90
      255
102
RTVSPost2010PropOp44
 70
     1
102
RTVSPost2010Prop45
280
     0
102
RTVSPost2010PropOp45
 70
     1
102
RTVSPost2010Prop46
 90
       50
102
RTVSPost2010PropOp46
 70
     1
102
RTVSPost2010Prop47
 90
       50
102
RTVSPost2010PropOp47
 70
     1
102
RTVSPost2010Prop48
 90
       50
102
RTVSPost2010PropOp48
 70
     1
102
RTVSPost2010Prop49
280
     0
102
RTVSPost2010PropOp49
 70
     1
102
RTVSPost2010Prop50
 90
       50
102
RTVSPost2010PropOp50
 70
     1
102
RTVSPost2010Prop51ColorIndex
 90
      256
102
RTVSPost2010Prop51ColorRGB
 90
-16777216
102
RTVSPost2010PropOp51
 70
     0
102
RTVSPost2010Prop52
140
1.0
102
RTVSPost2010PropOp52
 70
     0
102
RTVSPost2010Prop53
 90
        2
102
RTVSPost2010PropOp53
 70
     1
102
RTVSPost2010Prop54
  1
strokes_ogs.tif
102
RTVSPost2010PropOp54
 70
     1
102
RTVSPost2010Prop55
280
     0
102
RTVSPost2010PropOp55
 70
     1
102
RTVSPost2010Prop56
140
1.0
102
RTVSPost2010PropOp56
 70
     1
102
RTVSPost2010Prop57
140
1.0
102
RTVSPost2010PropOp57
 70
     1
102
RTVSPropertyOp0
 70
     1
102
RTVSPropertyOp1
 70
     1
102
RTVSPropertyOp2
 70
     1
102
RTVSPropertyOp3
 70
     1
102
RTVSPropertyOp4
 70
     1
102
RTVSPropertyOp5
 70
     1
102
RTVSPropertyOp6
 70
     1
102
RTVSPropertyOp7
 70
     1
102
RTVSPropertyOp8
 70
     1
102
RTVSPropertyOp9
 70
     1
102
RTVSPropertyOp10
 70
     1
102
RTVSPropertyOp11
 70
     1
102
RTVSPropertyOp12
 70
     1
102
RTVSPropertyOp13
 70
     1
102
RTVSPropertyOp14
 70
     1
102
RTVSPropertyOp15
 70
     1
102
RTVSPropertyOp16
 70
     1
102
RTVSPropertyOp17
 70
     1
102
RTVSPropertyOp18
 70
     1
102
RTVSPropertyOp19
 70
     1
102
RTVSPropertyOp20
 70
     1
102
RTVSPropertyOp21
 70
     1
102
RTVSPropertyOp22
 70
     1
102
RTVSPropertyOp23
 70
     1
102
RTVSPropertyOp24
 70
     1
102
RTVSPropertyOp25
 70
     1
102
RTVSPropertyOp26
 70
     1
102
RTVSPropertyOp27
 70
     1
102
RTVSPropertyOp28
 70
     1
102
RTVSPropertyOp29
 70
     1
102
RTVSPropertyOp30
 70
     1
102
RTVSPropertyOp31
 70
     1
102
RTVSPropertyOp32
 70
     1
102
RTVSPropertyOp33
 70
     1
102
RTVSPropertyOp34
 70
     1
102
RTVSPropertyOp35
 70
     1
102
RTVSPropertyOp36
 70
     1
102
RTVSPropertyOp37
 70
     1
102
RTVSPropertyOp38
 70
     1
102
RTVSPropertyOp39
 70
     1
102
RTVSPropertyOp40
 70
     1
102
RTVSPropertyOp41
 70
     1
102
RTVSPropertyOp42
 70
     1
102
RTVSPropertyOp43
 70
     1
102
RTVSPropertyOp44
 70
     1
102
RTVSPropertyOp45
 70
     1
102
RTVSPropertyOp46
 70
     1
102
RTVSPropertyOp47
 70
     1
102
RTVSPropertyOp48
 70
     1
102
RTVSPropertyOp49
 70
     1
102
RTVSPropertyOp50
 70
     1
102
RTVSPropertyOp51
 70
     0
102
RTVSPropertyOp52
 70
     0
102
RTVSPropertyOp53
 70
     1
102
RTVSPropertyOp54
 70
     1
102
RTVSPropertyOp55
 70
     1
102
RTVSPropertyOp56
 70
     1
102
RTVSPropertyOp57
 70
     1
102
RTVSPropertyOp58
 70
     1
102
RTVSPropertyOp59
 70
     1
102
RTVSPropertyOp60
 70
     1
102
RTVSPropertyOp61
 70
     1
102
RTVSPropertyOp62
 70
     1
  0
XRECORD
  5
5D2
102
{ACAD_REACTORS
330
5D1
102
}
330
5D1
100
AcDbXrecord
280
     1
102
RTVSPost2010Prop28
280
     0
102
RTVSPost2010PropOp28
 70
     0
102
RTVSPost2010Prop29
280
     1
102
RTVSPost2010PropOp29
 70
     0
102
RTVSPost2010Prop30
280
     1
102
RTVSPost2010PropOp30
 70
     0
102
RTVSPost2010Prop31
280
     0
102
RTVSPost2010PropOp31
 70
     0
102
RTVSPost2010Prop32
280
     0
102
RTVSPost2010PropOp32
 70
     0
102
RTVSPost2010Prop33
280
     0
102
RTVSPost2010PropOp33
 70
     0
102
RTVSPost2010Prop34
280
     0
102
RTVSPost2010PropOp34
 70
     0
102
RTVSPost2010Prop35
280
     0
102
RTVSPost2010PropOp35
 70
     0
102
RTVSPost2010Prop36
280
     0
102
RTVSPost2010PropOp36
 70
     0
102
RTVSPost2010Prop37
 90
       50
102
RTVSPost2010PropOp37
 70
     0
102
RTVSPost2010Prop38
140
0.0
102
RTVSPost2010PropOp38
 70
     0
102
RTVSPost2010Prop39
140
1.0
102
RTVSPost2010PropOp39
 70
     0
102
RTVSPost2010Prop40
 90
        0
102
RTVSPost2010PropOp40
 70
     0
102
RTVSPost2010Prop41ColorIndex
 90
       18
102
RTVSPost2010Prop41ColorRGB
 90
        0
102
RTVSPost2010PropOp41
 70
     0
102
RTVSPost2010Prop42
 90
       50
102
RTVSPost2010PropOp42
 70
     0
102
RTVSPost2010Prop43
 90
        3
102
RTVSPost2010PropOp43
 70
     0
102
RTVSPost2010Prop44ColorIndex
 90
        5
102
RTVSPost2010Prop44ColorRGB
 90
      255
102
RTVSPost2010PropOp44
 70
     0
102
RTVSPost2010Prop45
280
     0
102
RTVSPost2010PropOp45
 70
     0
102
RTVSPost2010Prop46
 90
       50
102
RTVSPost2010PropOp46
 70
     0
102
RTVSPost2010Prop47
 90
       50
102
RTVSPost2010PropOp47
 70
     0
102
RTVSPost2010Prop48
 90
       50
102
RTVSPost2010PropOp48
 70
     0
102
RTVSPost2010Prop49
280
     0
102
RTVSPost2010PropOp49
 70
     0
102
RTVSPost2010Prop50
 90
       50
102
RTVSPost2010PropOp50
 70
     0
102
RTVSPost2010Prop51ColorIndex
 90
      256
102
RTVSPost2010Prop51ColorRGB
 90
-16777216
102
RTVSPost2010PropOp51
 70
     0
102
RTVSPost2010Prop52
140
1.0
102
RTVSPost2010PropOp52
 70
     0
102
RTVSPost2010Prop53
 90
        2
102
RTVSPost2010PropOp53
 70
     0
102
RTVSPost2010Prop54
  1
strokes_ogs.tif
102
RTVSPost2010PropOp54
 70
     0
102
RTVSPost2010Prop55
280
     0
102
RTVSPost2010PropOp55
 70
     0
102
RTVSPost2010Prop56
140
1.0
102
RTVSPost2010PropOp56
 70
     0
102
RTVSPost2010Prop57
140
1.0
102
RTVSPost2010PropOp57
 70
     0
102
RTVSPropertyOp0
 70
     0
102
RTVSPropertyOp1
 70
     0
102
RTVSPropertyOp2
 70
     0
102
RTVSPropertyOp3
 70
     0
102
RTVSPropertyOp4
 70
     0
102
RTVSPropertyOp5
 70
     0
102
RTVSPropertyOp6
 70
     0
102
RTVSPropertyOp7
 70
     0
102
RTVSPropertyOp8
 70
     0
102
RTVSPropertyOp9
 70
     0
102
RTVSPropertyOp10
 70
     0
102
RTVSPropertyOp11
 70
     0
102
RTVSPropertyOp12
 70
     0
102
RTVSPropertyOp13
 70
     0
102
RTVSPropertyOp14
 70
     2
102
RTVSPropertyOp15
 70
     0
102
RTVSPropertyOp16
 70
     0
102
RTVSPropertyOp17
 70
     0
102
RTVSPropertyOp18
 70
     0
102
RTVSPropertyOp19
 70
     0
102
RTVSPropertyOp20
 70
     0
102
RTVSPropertyOp21
 70
     0
102
RTVSPropertyOp22
 70
     0
102
RTVSPropertyOp23
 70
     0
102
RTVSPropertyOp24
 70
     0
102
RTVSPropertyOp25
 70
     0
102
RTVSPropertyOp26
 70
     0
102
RTVSPropertyOp27
 70
     0
102
RTVSPropertyOp28
 70
     0
102
RTVSPropertyOp29
 70
     0
102
RTVSPropertyOp30
 70
     0
102
RTVSPropertyOp31
 70
     0
102
RTVSPropertyOp32
 70
     0
102
RTVSPropertyOp33
 70
     0
102
RTVSPropertyOp34
 70
     0
102
RTVSPropertyOp35
 70
     0
102
RTVSPropertyOp36
 70
     0
102
RTVSPropertyOp37
 70
     0
102
RTVSPropertyOp38
 70
     0
102
RTVSPropertyOp39
 70
     0
102
RTVSPropertyOp40
 70
     0
102
RTVSPropertyOp41
 70
     0
102
RTVSPropertyOp42
 70
     0
102
RTVSPropertyOp43
 70
     0
102
RTVSPropertyOp44
 70
     0
102
RTVSPropertyOp45
 70
     0
102
RTVSPropertyOp46
 70
     0
102
RTVSPropertyOp47
 70
     0
102
RTVSPropertyOp48
 70
     0
102
RTVSPropertyOp49
 70
     0
102
RTVSPropertyOp50
 70
     0
102
RTVSPropertyOp51
 70
     0
102
RTVSPropertyOp52
 70
     0
102
RTVSPropertyOp53
 70
     0
102
RTVSPropertyOp54
 70
     0
102
RTVSPropertyOp55
 70
     0
102
RTVSPropertyOp56
 70
     0
102
RTVSPropertyOp57
 70
     0
102
RTVSPropertyOp58
 70
     0
102
RTVSPropertyOp59
 70
     0
102
RTVSPropertyOp60
 70
     0
102
RTVSPropertyOp61
 70
     0
102
RTVSPropertyOp62
 70
     0
  0
XRECORD
  5
5C2
102
{ACAD_REACTORS
330
5C1
102
}
330
5C1
100
AcDbXrecord
280
     1
102
RTVSPost2010Prop28
280
     0
102
RTVSPost2010PropOp28
 70
     1
102
RTVSPost2010Prop29
280
     1
102
RTVSPost2010PropOp29
 70
     1
102
RTVSPost2010Prop30
280
     1
102
RTVSPost2010PropOp30
 70
     1
102
RTVSPost2010Prop31
280
     0
102
RTVSPost2010PropOp31
 70
     1
102
RTVSPost2010Prop32
280
     0
102
RTVSPost2010PropOp32
 70
     1
102
RTVSPost2010Prop33
280
     0
102
RTVSPost2010PropOp33
 70
     1
102
RTVSPost2010Prop34
280
     0
102
RTVSPost2010PropOp34
 70
     1
102
RTVSPost2010Prop35
280
     0
102
RTVSPost2010PropOp35
 70
     1
102
RTVSPost2010Prop36
280
     0
102
RTVSPost2010PropOp36
 70
     1
102
RTVSPost2010Prop37
 90
       50
102
RTVSPost2010PropOp37
 70
     1
102
RTVSPost2010Prop38
140
0.0
102
RTVSPost2010PropOp38
 70
     1
102
RTVSPost2010Prop39
140
1.0
102
RTVSPost2010PropOp39
 70
     1
102
RTVSPost2010Prop40
 90
        0
102
RTVSPost2010PropOp40
 70
     1
102
RTVSPost2010Prop41ColorIndex
 90
       18
102
RTVSPost2010Prop41ColorRGB
 90
        0
102
RTVSPost2010PropOp41
 70
     1
102
RTVSPost2010Prop42
 90
       50
102
RTVSPost2010PropOp42
 70
     1
102
RTVSPost2010Prop43
 90
        3
102
RTVSPost2010PropOp43
 70
     1
102
RTVSPost2010Prop44ColorIndex
 90
        5
102
RTVSPost2010Prop44ColorRGB
 90
      255
102
RTVSPost2010PropOp44
 70
     1
102
RTVSPost2010Prop45
280
     0
102
RTVSPost2010PropOp45
 70
     1
102
RTVSPost2010Prop46
 90
       50
102
RTVSPost2010PropOp46
 70
     1
102
RTVSPost2010Prop47
 90
       50
102
RTVSPost2010PropOp47
 70
     1
102
RTVSPost2010Prop48
 90
       50
102
RTVSPost2010PropOp48
 70
     1
102
RTVSPost2010Prop49
280
     0
102
RTVSPost2010PropOp49
 70
     1
102
RTVSPost2010Prop50
 90
       50
102
RTVSPost2010PropOp50
 70
     1
102
RTVSPost2010Prop51ColorIndex
 90
      256
102
RTVSPost2010Prop51ColorRGB
 90
-16777216
102
RTVSPost2010PropOp51
 70
     0
102
RTVSPost2010Prop52
140
1.0
102
RTVSPost2010PropOp52
 70
     0
102
RTVSPost2010Prop53
 90
        2
102
RTVSPost2010PropOp53
 70
     1
102
RTVSPost2010Prop54
  1
strokes_ogs.tif
102
RTVSPost2010PropOp54
 70
     1
102
RTVSPost2010Prop55
280
     0
102
RTVSPost2010PropOp55
 70
     1
102
RTVSPost2010Prop56
140
1.0
102
RTVSPost2010PropOp56
 70
     1
102
RTVSPost2010Prop57
140
1.0
102
RTVSPost2010PropOp57
 70
     1
102
RTVSPropertyOp0
 70
     1
102
RTVSPropertyOp1
 70
     1
102
RTVSPropertyOp2
 70
     1
102
RTVSPropertyOp3
 70
     1
102
RTVSPropertyOp4
 70
     1
102
RTVSPropertyOp5
 70
     1
102
RTVSPropertyOp6
 70
     1
102
RTVSPropertyOp7
 70
     1
102
RTVSPropertyOp8
 70
     1
102
RTVSPropertyOp9
 70
     1
102
RTVSPropertyOp10
 70
     1
102
RTVSPropertyOp11
 70
     1
102
RTVSPropertyOp12
 70
     1
102
RTVSPropertyOp13
 70
     1
102
RTVSPropertyOp14
 70
     1
102
RTVSPropertyOp15
 70
     1
102
RTVSPropertyOp16
 70
     1
102
RTVSPropertyOp17
 70
     1
102
RTVSPropertyOp18
 70
     1
102
RTVSPropertyOp19
 70
     1
102
RTVSPropertyOp20
 70
     1
102
RTVSPropertyOp21
 70
     1
102
RTVSPropertyOp22
 70
     1
102
RTVSPropertyOp23
 70
     1
102
RTVSPropertyOp24
 70
     1
102
RTVSPropertyOp25
 70
     1
102
RTVSPropertyOp26
 70
     1
102
RTVSPropertyOp27
 70
     1
102
RTVSPropertyOp28
 70
     1
102
RTVSPropertyOp29
 70
     1
102
RTVSPropertyOp30
 70
     1
102
RTVSPropertyOp31
 70
     1
102
RTVSPropertyOp32
 70
     1
102
RTVSPropertyOp33
 70
     1
102
RTVSPropertyOp34
 70
     1
102
RTVSPropertyOp35
 70
     1
102
RTVSPropertyOp36
 70
     1
102
RTVSPropertyOp37
 70
     1
102
RTVSPropertyOp38
 70
     1
102
RTVSPropertyOp39
 70
     1
102
RTVSPropertyOp40
 70
     1
102
RTVSPropertyOp41
 70
     1
102
RTVSPropertyOp42
 70
     1
102
RTVSPropertyOp43
 70
     1
102
RTVSPropertyOp44
 70
     1
102
RTVSPropertyOp45
 70
     1
102
RTVSPropertyOp46
 70
     1
102
RTVSPropertyOp47
 70
     1
102
RTVSPropertyOp48
 70
     1
102
RTVSPropertyOp49
 70
     1
102
RTVSPropertyOp50
 70
     1
102
RTVSPropertyOp51
 70
     0
102
RTVSPropertyOp52
 70
     0
102
RTVSPropertyOp53
 70
     1
102
RTVSPropertyOp54
 70
     1
102
RTVSPropertyOp55
 70
     1
102
RTVSPropertyOp56
 70
     1
102
RTVSPropertyOp57
 70
     1
102
RTVSPropertyOp58
 70
     1
102
RTVSPropertyOp59
 70
     1
102
RTVSPropertyOp60
 70
     1
102
RTVSPropertyOp61
 70
     1
102
RTVSPropertyOp62
 70
     1
  0
XRECORD
  5
5D4
102
{ACAD_REACTORS
330
5D3
102
}
330
5D3
100
AcDbXrecord
280
     1
102
RTVSPost2010Prop28
280
     0
102
RTVSPost2010PropOp28
 70
     0
102
RTVSPost2010Prop29
280
     1
102
RTVSPost2010PropOp29
 70
     0
102
RTVSPost2010Prop30
280
     1
102
RTVSPost2010PropOp30
 70
     0
102
RTVSPost2010Prop31
280
     0
102
RTVSPost2010PropOp31
 70
     0
102
RTVSPost2010Prop32
280
     0
102
RTVSPost2010PropOp32
 70
     0
102
RTVSPost2010Prop33
280
     0
102
RTVSPost2010PropOp33
 70
     0
102
RTVSPost2010Prop34
280
     0
102
RTVSPost2010PropOp34
 70
     0
102
RTVSPost2010Prop35
280
     0
102
RTVSPost2010PropOp35
 70
     0
102
RTVSPost2010Prop36
280
     0
102
RTVSPost2010PropOp36
 70
     0
102
RTVSPost2010Prop37
 90
       50
102
RTVSPost2010PropOp37
 70
     0
102
RTVSPost2010Prop38
140
0.0
102
RTVSPost2010PropOp38
 70
     0
102
RTVSPost2010Prop39
140
1.0
102
RTVSPost2010PropOp39
 70
     0
102
RTVSPost2010Prop40
 90
        0
102
RTVSPost2010PropOp40
 70
     0
102
RTVSPost2010Prop41ColorIndex
 90
       18
102
RTVSPost2010Prop41ColorRGB
 90
        0
102
RTVSPost2010PropOp41
 70
     0
102
RTVSPost2010Prop42
 90
       50
102
RTVSPost2010PropOp42
 70
     0
102
RTVSPost2010Prop43
 90
        3
102
RTVSPost2010PropOp43
 70
     0
102
RTVSPost2010Prop44ColorIndex
 90
        5
102
RTVSPost2010Prop44ColorRGB
 90
      255
102
RTVSPost2010PropOp44
 70
     0
102
RTVSPost2010Prop45
280
     0
102
RTVSPost2010PropOp45
 70
     0
102
RTVSPost2010Prop46
 90
       50
102
RTVSPost2010PropOp46
 70
     0
102
RTVSPost2010Prop47
 90
       50
102
RTVSPost2010PropOp47
 70
     0
102
RTVSPost2010Prop48
 90
       50
102
RTVSPost2010PropOp48
 70
     0
102
RTVSPost2010Prop49
280
     0
102
RTVSPost2010PropOp49
 70
     0
102
RTVSPost2010Prop50
 90
       50
102
RTVSPost2010PropOp50
 70
     0
102
RTVSPost2010Prop51ColorIndex
 90
      256
102
RTVSPost2010Prop51ColorRGB
 90
-16777216
102
RTVSPost2010PropOp51
 70
     0
102
RTVSPost2010Prop52
140
1.0
102
RTVSPost2010PropOp52
 70
     0
102
RTVSPost2010Prop53
 90
        2
102
RTVSPost2010PropOp53
 70
     0
102
RTVSPost2010Prop54
  1
strokes_ogs.tif
102
RTVSPost2010PropOp54
 70
     0
102
RTVSPost2010Prop55
280
     0
102
RTVSPost2010PropOp55
 70
     0
102
RTVSPost2010Prop56
140
1.0
102
RTVSPost2010PropOp56
 70
     0
102
RTVSPost2010Prop57
140
1.0
102
RTVSPost2010PropOp57
 70
     0
102
RTVSPropertyOp0
 70
     0
102
RTVSPropertyOp1
 70
     0
102
RTVSPropertyOp2
 70
     0
102
RTVSPropertyOp3
 70
     0
102
RTVSPropertyOp4
 70
     0
102
RTVSPropertyOp5
 70
     0
102
RTVSPropertyOp6
 70
     0
102
RTVSPropertyOp7
 70
     0
102
RTVSPropertyOp8
 70
     0
102
RTVSPropertyOp9
 70
     0
102
RTVSPropertyOp10
 70
     0
102
RTVSPropertyOp11
 70
     0
102
RTVSPropertyOp12
 70
     0
102
RTVSPropertyOp13
 70
     0
102
RTVSPropertyOp14
 70
     2
102
RTVSPropertyOp15
 70
     0
102
RTVSPropertyOp16
 70
     0
102
RTVSPropertyOp17
 70
     0
102
RTVSPropertyOp18
 70
     0
102
RTVSPropertyOp19
 70
     0
102
RTVSPropertyOp20
 70
     0
102
RTVSPropertyOp21
 70
     0
102
RTVSPropertyOp22
 70
     0
102
RTVSPropertyOp23
 70
     0
102
RTVSPropertyOp24
 70
     0
102
RTVSPropertyOp25
 70
     0
102
RTVSPropertyOp26
 70
     0
102
RTVSPropertyOp27
 70
     0
102
RTVSPropertyOp28
 70
     0
102
RTVSPropertyOp29
 70
     0
102
RTVSPropertyOp30
 70
     0
102
RTVSPropertyOp31
 70
     0
102
RTVSPropertyOp32
 70
     0
102
RTVSPropertyOp33
 70
     0
102
RTVSPropertyOp34
 70
     0
102
RTVSPropertyOp35
 70
     0
102
RTVSPropertyOp36
 70
     0
102
RTVSPropertyOp37
 70
     0
102
RTVSPropertyOp38
 70
     0
102
RTVSPropertyOp39
 70
     0
102
RTVSPropertyOp40
 70
     0
102
RTVSPropertyOp41
 70
     0
102
RTVSPropertyOp42
 70
     0
102
RTVSPropertyOp43
 70
     0
102
RTVSPropertyOp44
 70
     0
102
RTVSPropertyOp45
 70
     0
102
RTVSPropertyOp46
 70
     0
102
RTVSPropertyOp47
 70
     0
102
RTVSPropertyOp48
 70
     0
102
RTVSPropertyOp49
 70
     0
102
RTVSPropertyOp50
 70
     0
102
RTVSPropertyOp51
 70
     0
102
RTVSPropertyOp52
 70
     0
102
RTVSPropertyOp53
 70
     0
102
RTVSPropertyOp54
 70
     0
102
RTVSPropertyOp55
 70
     0
102
RTVSPropertyOp56
 70
     0
102
RTVSPropertyOp57
 70
     0
102
RTVSPropertyOp58
 70
     0
102
RTVSPropertyOp59
 70
     0
102
RTVSPropertyOp60
 70
     0
102
RTVSPropertyOp61
 70
     0
102
RTVSPropertyOp62
 70
     0
  0
XRECORD
  5
5BA
102
{ACAD_REACTORS
330
5B9
102
}
330
5B9
100
AcDbXrecord
280
     1
102
RTVSPost2010Prop28
280
     0
102
RTVSPost2010PropOp28
 70
     1
102
RTVSPost2010Prop29
280
     1
102
RTVSPost2010PropOp29
 70
     1
102
RTVSPost2010Prop30
280
     1
102
RTVSPost2010PropOp30
 70
     1
102
RTVSPost2010Prop31
280
     0
102
RTVSPost2010PropOp31
 70
     1
102
RTVSPost2010Prop32
280
     0
102
RTVSPost2010PropOp32
 70
     1
102
RTVSPost2010Prop33
280
     0
102
RTVSPost2010PropOp33
 70
     1
102
RTVSPost2010Prop34
280
     0
102
RTVSPost2010PropOp34
 70
     1
102
RTVSPost2010Prop35
280
     0
102
RTVSPost2010PropOp35
 70
     1
102
RTVSPost2010Prop36
280
     0
102
RTVSPost2010PropOp36
 70
     1
102
RTVSPost2010Prop37
 90
       50
102
RTVSPost2010PropOp37
 70
     1
102
RTVSPost2010Prop38
140
0.0
102
RTVSPost2010PropOp38
 70
     1
102
RTVSPost2010Prop39
140
1.0
102
RTVSPost2010PropOp39
 70
     1
102
RTVSPost2010Prop40
 90
        0
102
RTVSPost2010PropOp40
 70
     1
102
RTVSPost2010Prop41ColorIndex
 90
       18
102
RTVSPost2010Prop41ColorRGB
 90
        0
102
RTVSPost2010PropOp41
 70
     1
102
RTVSPost2010Prop42
 90
       50
102
RTVSPost2010PropOp42
 70
     1
102
RTVSPost2010Prop43
 90
        3
102
RTVSPost2010PropOp43
 70
     1
102
RTVSPost2010Prop44ColorIndex
 90
        5
102
RTVSPost2010Prop44ColorRGB
 90
      255
102
RTVSPost2010PropOp44
 70
     1
102
RTVSPost2010Prop45
280
     0
102
RTVSPost2010PropOp45
 70
     1
102
RTVSPost2010Prop46
 90
       50
102
RTVSPost2010PropOp46
 70
     1
102
RTVSPost2010Prop47
 90
       50
102
RTVSPost2010PropOp47
 70
     1
102
RTVSPost2010Prop48
 90
       50
102
RTVSPost2010PropOp48
 70
     1
102
RTVSPost2010Prop49
280
     0
102
RTVSPost2010PropOp49
 70
     1
102
RTVSPost2010Prop50
 90
       50
102
RTVSPost2010PropOp50
 70
     1
102
RTVSPost2010Prop51ColorIndex
 90
      256
102
RTVSPost2010Prop51ColorRGB
 90
-16777216
102
RTVSPost2010PropOp51
 70
     0
102
RTVSPost2010Prop52
140
1.0
102
RTVSPost2010PropOp52
 70
     0
102
RTVSPost2010Prop53
 90
        2
102
RTVSPost2010PropOp53
 70
     1
102
RTVSPost2010Prop54
  1
strokes_ogs.tif
102
RTVSPost2010PropOp54
 70
     1
102
RTVSPost2010Prop55
280
     0
102
RTVSPost2010PropOp55
 70
     1
102
RTVSPost2010Prop56
140
1.0
102
RTVSPost2010PropOp56
 70
     1
102
RTVSPost2010Prop57
140
1.0
102
RTVSPost2010PropOp57
 70
     1
102
RTVSPropertyOp0
 70
     1
102
RTVSPropertyOp1
 70
     1
102
RTVSPropertyOp2
 70
     1
102
RTVSPropertyOp3
 70
     1
102
RTVSPropertyOp4
 70
     1
102
RTVSPropertyOp5
 70
     1
102
RTVSPropertyOp6
 70
     1
102
RTVSPropertyOp7
 70
     1
102
RTVSPropertyOp8
 70
     1
102
RTVSPropertyOp9
 70
     1
102
RTVSPropertyOp10
 70
     1
102
RTVSPropertyOp11
 70
     1
102
RTVSPropertyOp12
 70
     1
102
RTVSPropertyOp13
 70
     1
102
RTVSPropertyOp14
 70
     1
102
RTVSPropertyOp15
 70
     1
102
RTVSPropertyOp16
 70
     1
102
RTVSPropertyOp17
 70
     1
102
RTVSPropertyOp18
 70
     1
102
RTVSPropertyOp19
 70
     1
102
RTVSPropertyOp20
 70
     1
102
RTVSPropertyOp21
 70
     1
102
RTVSPropertyOp22
 70
     1
102
RTVSPropertyOp23
 70
     1
102
RTVSPropertyOp24
 70
     1
102
RTVSPropertyOp25
 70
     1
102
RTVSPropertyOp26
 70
     1
102
RTVSPropertyOp27
 70
     1
102
RTVSPropertyOp28
 70
     1
102
RTVSPropertyOp29
 70
     1
102
RTVSPropertyOp30
 70
     1
102
RTVSPropertyOp31
 70
     1
102
RTVSPropertyOp32
 70
     1
102
RTVSPropertyOp33
 70
     1
102
RTVSPropertyOp34
 70
     1
102
RTVSPropertyOp35
 70
     1
102
RTVSPropertyOp36
 70
     1
102
RTVSPropertyOp37
 70
     1
102
RTVSPropertyOp38
 70
     1
102
RTVSPropertyOp39
 70
     1
102
RTVSPropertyOp40
 70
     1
102
RTVSPropertyOp41
 70
     1
102
RTVSPropertyOp42
 70
     1
102
RTVSPropertyOp43
 70
     1
102
RTVSPropertyOp44
 70
     1
102
RTVSPropertyOp45
 70
     1
102
RTVSPropertyOp46
 70
     1
102
RTVSPropertyOp47
 70
     1
102
RTVSPropertyOp48
 70
     1
102
RTVSPropertyOp49
 70
     1
102
RTVSPropertyOp50
 70
     1
102
RTVSPropertyOp51
 70
     0
102
RTVSPropertyOp52
 70
     0
102
RTVSPropertyOp53
 70
     1
102
RTVSPropertyOp54
 70
     1
102
RTVSPropertyOp55
 70
     1
102
RTVSPropertyOp56
 70
     1
102
RTVSPropertyOp57
 70
     1
102
RTVSPropertyOp58
 70
     1
102
RTVSPropertyOp59
 70
     1
102
RTVSPropertyOp60
 70
     1
102
RTVSPropertyOp61
 70
     1
102
RTVSPropertyOp62
 70
     1
  0
XRECORD
  5
5D0
102
{ACAD_REACTORS
330
5CF
102
}
330
5CF
100
AcDbXrecord
280
     1
102
RTVSPost2010Prop28
280
     0
102
RTVSPost2010PropOp28
 70
     1
102
RTVSPost2010Prop29
280
     1
102
RTVSPost2010PropOp29
 70
     1
102
RTVSPost2010Prop30
280
     1
102
RTVSPost2010PropOp30
 70
     1
102
RTVSPost2010Prop31
280
     0
102
RTVSPost2010PropOp31
 70
     1
102
RTVSPost2010Prop32
280
     0
102
RTVSPost2010PropOp32
 70
     1
102
RTVSPost2010Prop33
280
     0
102
RTVSPost2010PropOp33
 70
     1
102
RTVSPost2010Prop34
280
     0
102
RTVSPost2010PropOp34
 70
     1
102
RTVSPost2010Prop35
280
     0
102
RTVSPost2010PropOp35
 70
     1
102
RTVSPost2010Prop36
280
     0
102
RTVSPost2010PropOp36
 70
     1
102
RTVSPost2010Prop37
 90
       50
102
RTVSPost2010PropOp37
 70
     1
102
RTVSPost2010Prop38
140
0.0
102
RTVSPost2010PropOp38
 70
     1
102
RTVSPost2010Prop39
140
1.0
102
RTVSPost2010PropOp39
 70
     1
102
RTVSPost2010Prop40
 90
        0
102
RTVSPost2010PropOp40
 70
     1
102
RTVSPost2010Prop41ColorIndex
 90
       18
102
RTVSPost2010Prop41ColorRGB
 90
        0
102
RTVSPost2010PropOp41
 70
     1
102
RTVSPost2010Prop42
 90
       50
102
RTVSPost2010PropOp42
 70
     1
102
RTVSPost2010Prop43
 90
        3
102
RTVSPost2010PropOp43
 70
     1
102
RTVSPost2010Prop44ColorIndex
 90
        5
102
RTVSPost2010Prop44ColorRGB
 90
      255
102
RTVSPost2010PropOp44
 70
     1
102
RTVSPost2010Prop45
280
     0
102
RTVSPost2010PropOp45
 70
     1
102
RTVSPost2010Prop46
 90
       50
102
RTVSPost2010PropOp46
 70
     1
102
RTVSPost2010Prop47
 90
       50
102
RTVSPost2010PropOp47
 70
     1
102
RTVSPost2010Prop48
 90
       50
102
RTVSPost2010PropOp48
 70
     1
102
RTVSPost2010Prop49
280
     0
102
RTVSPost2010PropOp49
 70
     1
102
RTVSPost2010Prop50
 90
       50
102
RTVSPost2010PropOp50
 70
     1
102
RTVSPost2010Prop51ColorIndex
 90
      256
102
RTVSPost2010Prop51ColorRGB
 90
-16777216
102
RTVSPost2010PropOp51
 70
     0
102
RTVSPost2010Prop52
140
1.0
102
RTVSPost2010PropOp52
 70
     0
102
RTVSPost2010Prop53
 90
        2
102
RTVSPost2010PropOp53
 70
     1
102
RTVSPost2010Prop54
  1
strokes_ogs.tif
102
RTVSPost2010PropOp54
 70
     1
102
RTVSPost2010Prop55
280
     0
102
RTVSPost2010PropOp55
 70
     1
102
RTVSPost2010Prop56
140
1.0
102
RTVSPost2010PropOp56
 70
     1
102
RTVSPost2010Prop57
140
1.0
102
RTVSPost2010PropOp57
 70
     1
102
RTVSPropertyOp0
 70
     1
102
RTVSPropertyOp1
 70
     1
102
RTVSPropertyOp2
 70
     1
102
RTVSPropertyOp3
 70
     1
102
RTVSPropertyOp4
 70
     1
102
RTVSPropertyOp5
 70
     1
102
RTVSPropertyOp6
 70
     1
102
RTVSPropertyOp7
 70
     1
102
RTVSPropertyOp8
 70
     1
102
RTVSPropertyOp9
 70
     1
102
RTVSPropertyOp10
 70
     1
102
RTVSPropertyOp11
 70
     1
102
RTVSPropertyOp12
 70
     1
102
RTVSPropertyOp13
 70
     1
102
RTVSPropertyOp14
 70
     1
102
RTVSPropertyOp15
 70
     1
102
RTVSPropertyOp16
 70
     1
102
RTVSPropertyOp17
 70
     1
102
RTVSPropertyOp18
 70
     1
102
RTVSPropertyOp19
 70
     1
102
RTVSPropertyOp20
 70
     1
102
RTVSPropertyOp21
 70
     1
102
RTVSPropertyOp22
 70
     1
102
RTVSPropertyOp23
 70
     1
102
RTVSPropertyOp24
 70
     1
102
RTVSPropertyOp25
 70
     1
102
RTVSPropertyOp26
 70
     1
102
RTVSPropertyOp27
 70
     1
102
RTVSPropertyOp28
 70
     1
102
RTVSPropertyOp29
 70
     1
102
RTVSPropertyOp30
 70
     1
102
RTVSPropertyOp31
 70
     1
102
RTVSPropertyOp32
 70
     1
102
RTVSPropertyOp33
 70
     1
102
RTVSPropertyOp34
 70
     1
102
RTVSPropertyOp35
 70
     1
102
RTVSPropertyOp36
 70
     1
102
RTVSPropertyOp37
 70
     1
102
RTVSPropertyOp38
 70
     1
102
RTVSPropertyOp39
 70
     1
102
RTVSPropertyOp40
 70
     1
102
RTVSPropertyOp41
 70
     1
102
RTVSPropertyOp42
 70
     1
102
RTVSPropertyOp43
 70
     1
102
RTVSPropertyOp44
 70
     1
102
RTVSPropertyOp45
 70
     1
102
RTVSPropertyOp46
 70
     1
102
RTVSPropertyOp47
 70
     1
102
RTVSPropertyOp48
 70
     1
102
RTVSPropertyOp49
 70
     1
102
RTVSPropertyOp50
 70
     1
102
RTVSPropertyOp51
 70
     0
102
RTVSPropertyOp52
 70
     0
102
RTVSPropertyOp53
 70
     1
102
RTVSPropertyOp54
 70
     1
102
RTVSPropertyOp55
 70
     1
102
RTVSPropertyOp56
 70
     1
102
RTVSPropertyOp57
 70
     1
102
RTVSPropertyOp58
 70
     1
102
RTVSPropertyOp59
 70
     1
102
RTVSPropertyOp60
 70
     1
102
RTVSPropertyOp61
 70
     1
102
RTVSPropertyOp62
 70
     1
  0
XRECORD
  5
5CE
102
{ACAD_REACTORS
330
5CD
102
}
330
5CD
100
AcDbXrecord
280
     1
102
RTVSPost2010Prop28
280
     0
102
RTVSPost2010PropOp28
 70
     1
102
RTVSPost2010Prop29
280
     1
102
RTVSPost2010PropOp29
 70
     1
102
RTVSPost2010Prop30
280
     1
102
RTVSPost2010PropOp30
 70
     1
102
RTVSPost2010Prop31
280
     0
102
RTVSPost2010PropOp31
 70
     1
102
RTVSPost2010Prop32
280
     0
102
RTVSPost2010PropOp32
 70
     1
102
RTVSPost2010Prop33
280
     0
102
RTVSPost2010PropOp33
 70
     1
102
RTVSPost2010Prop34
280
     0
102
RTVSPost2010PropOp34
 70
     1
102
RTVSPost2010Prop35
280
     0
102
RTVSPost2010PropOp35
 70
     1
102
RTVSPost2010Prop36
280
     0
102
RTVSPost2010PropOp36
 70
     1
102
RTVSPost2010Prop37
 90
       50
102
RTVSPost2010PropOp37
 70
     1
102
RTVSPost2010Prop38
140
0.0
102
RTVSPost2010PropOp38
 70
     1
102
RTVSPost2010Prop39
140
1.0
102
RTVSPost2010PropOp39
 70
     1
102
RTVSPost2010Prop40
 90
        0
102
RTVSPost2010PropOp40
 70
     1
102
RTVSPost2010Prop41ColorIndex
 90
       18
102
RTVSPost2010Prop41ColorRGB
 90
        0
102
RTVSPost2010PropOp41
 70
     1
102
RTVSPost2010Prop42
 90
       50
102
RTVSPost2010PropOp42
 70
     1
102
RTVSPost2010Prop43
 90
        3
102
RTVSPost2010PropOp43
 70
     1
102
RTVSPost2010Prop44ColorIndex
 90
        5
102
RTVSPost2010Prop44ColorRGB
 90
      255
102
RTVSPost2010PropOp44
 70
     1
102
RTVSPost2010Prop45
280
     0
102
RTVSPost2010PropOp45
 70
     1
102
RTVSPost2010Prop46
 90
       50
102
RTVSPost2010PropOp46
 70
     1
102
RTVSPost2010Prop47
 90
       50
102
RTVSPost2010PropOp47
 70
     1
102
RTVSPost2010Prop48
 90
       50
102
RTVSPost2010PropOp48
 70
     1
102
RTVSPost2010Prop49
280
     0
102
RTVSPost2010PropOp49
 70
     1
102
RTVSPost2010Prop50
 90
       50
102
RTVSPost2010PropOp50
 70
     1
102
RTVSPost2010Prop51ColorIndex
 90
      256
102
RTVSPost2010Prop51ColorRGB
 90
-16777216
102
RTVSPost2010PropOp51
 70
     0
102
RTVSPost2010Prop52
140
1.0
102
RTVSPost2010PropOp52
 70
     0
102
RTVSPost2010Prop53
 90
        2
102
RTVSPost2010PropOp53
 70
     1
102
RTVSPost2010Prop54
  1
strokes_ogs.tif
102
RTVSPost2010PropOp54
 70
     1
102
RTVSPost2010Prop55
280
     0
102
RTVSPost2010PropOp55
 70
     1
102
RTVSPost2010Prop56
140
1.0
102
RTVSPost2010PropOp56
 70
     1
102
RTVSPost2010Prop57
140
1.0
102
RTVSPost2010PropOp57
 70
     1
102
RTVSPropertyOp0
 70
     1
102
RTVSPropertyOp1
 70
     1
102
RTVSPropertyOp2
 70
     1
102
RTVSPropertyOp3
 70
     1
102
RTVSPropertyOp4
 70
     1
102
RTVSPropertyOp5
 70
     1
102
RTVSPropertyOp6
 70
     1
102
RTVSPropertyOp7
 70
     1
102
RTVSPropertyOp8
 70
     1
102
RTVSPropertyOp9
 70
     1
102
RTVSPropertyOp10
 70
     1
102
RTVSPropertyOp11
 70
     1
102
RTVSPropertyOp12
 70
     1
102
RTVSPropertyOp13
 70
     1
102
RTVSPropertyOp14
 70
     1
102
RTVSPropertyOp15
 70
     1
102
RTVSPropertyOp16
 70
     1
102
RTVSPropertyOp17
 70
     1
102
RTVSPropertyOp18
 70
     1
102
RTVSPropertyOp19
 70
     1
102
RTVSPropertyOp20
 70
     1
102
RTVSPropertyOp21
 70
     1
102
RTVSPropertyOp22
 70
     1
102
RTVSPropertyOp23
 70
     1
102
RTVSPropertyOp24
 70
     1
102
RTVSPropertyOp25
 70
     1
102
RTVSPropertyOp26
 70
     1
102
RTVSPropertyOp27
 70
     1
102
RTVSPropertyOp28
 70
     1
102
RTVSPropertyOp29
 70
     1
102
RTVSPropertyOp30
 70
     1
102
RTVSPropertyOp31
 70
     1
102
RTVSPropertyOp32
 70
     1
102
RTVSPropertyOp33
 70
     1
102
RTVSPropertyOp34
 70
     1
102
RTVSPropertyOp35
 70
     1
102
RTVSPropertyOp36
 70
     1
102
RTVSPropertyOp37
 70
     1
102
RTVSPropertyOp38
 70
     1
102
RTVSPropertyOp39
 70
     1
102
RTVSPropertyOp40
 70
     1
102
RTVSPropertyOp41
 70
     1
102
RTVSPropertyOp42
 70
     1
102
RTVSPropertyOp43
 70
     1
102
RTVSPropertyOp44
 70
     1
102
RTVSPropertyOp45
 70
     1
102
RTVSPropertyOp46
 70
     1
102
RTVSPropertyOp47
 70
     1
102
RTVSPropertyOp48
 70
     1
102
RTVSPropertyOp49
 70
     1
102
RTVSPropertyOp50
 70
     1
102
RTVSPropertyOp51
 70
     0
102
RTVSPropertyOp52
 70
     0
102
RTVSPropertyOp53
 70
     1
102
RTVSPropertyOp54
 70
     1
102
RTVSPropertyOp55
 70
     1
102
RTVSPropertyOp56
 70
     1
102
RTVSPropertyOp57
 70
     1
102
RTVSPropertyOp58
 70
     1
102
RTVSPropertyOp59
 70
     1
102
RTVSPropertyOp60
 70
     1
102
RTVSPropertyOp61
 70
     1
102
RTVSPropertyOp62
 70
     1
  0
XRECORD
  5
5C8
102
{ACAD_REACTORS
330
5C7
102
}
330
5C7
100
AcDbXrecord
280
     1
102
RTVSPost2010Prop28
280
     0
102
RTVSPost2010PropOp28
 70
     1
102
RTVSPost2010Prop29
280
     1
102
RTVSPost2010PropOp29
 70
     1
102
RTVSPost2010Prop30
280
     1
102
RTVSPost2010PropOp30
 70
     1
102
RTVSPost2010Prop31
280
     0
102
RTVSPost2010PropOp31
 70
     1
102
RTVSPost2010Prop32
280
     0
102
RTVSPost2010PropOp32
 70
     1
102
RTVSPost2010Prop33
280
     0
102
RTVSPost2010PropOp33
 70
     1
102
RTVSPost2010Prop34
280
     0
102
RTVSPost2010PropOp34
 70
     1
102
RTVSPost2010Prop35
280
     0
102
RTVSPost2010PropOp35
 70
     1
102
RTVSPost2010Prop36
280
     0
102
RTVSPost2010PropOp36
 70
     1
102
RTVSPost2010Prop37
 90
       50
102
RTVSPost2010PropOp37
 70
     1
102
RTVSPost2010Prop38
140
0.0
102
RTVSPost2010PropOp38
 70
     1
102
RTVSPost2010Prop39
140
1.0
102
RTVSPost2010PropOp39
 70
     1
102
RTVSPost2010Prop40
 90
        0
102
RTVSPost2010PropOp40
 70
     1
102
RTVSPost2010Prop41ColorIndex
 90
       18
102
RTVSPost2010Prop41ColorRGB
 90
        0
102
RTVSPost2010PropOp41
 70
     1
102
RTVSPost2010Prop42
 90
       50
102
RTVSPost2010PropOp42
 70
     1
102
RTVSPost2010Prop43
 90
        3
102
RTVSPost2010PropOp43
 70
     1
102
RTVSPost2010Prop44ColorIndex
 90
        5
102
RTVSPost2010Prop44ColorRGB
 90
      255
102
RTVSPost2010PropOp44
 70
     1
102
RTVSPost2010Prop45
280
     0
102
RTVSPost2010PropOp45
 70
     1
102
RTVSPost2010Prop46
 90
       50
102
RTVSPost2010PropOp46
 70
     1
102
RTVSPost2010Prop47
 90
       50
102
RTVSPost2010PropOp47
 70
     1
102
RTVSPost2010Prop48
 90
       50
102
RTVSPost2010PropOp48
 70
     1
102
RTVSPost2010Prop49
280
     0
102
RTVSPost2010PropOp49
 70
     1
102
RTVSPost2010Prop50
 90
       50
102
RTVSPost2010PropOp50
 70
     1
102
RTVSPost2010Prop51ColorIndex
 90
      256
102
RTVSPost2010Prop51ColorRGB
 90
-16777216
102
RTVSPost2010PropOp51
 70
     0
102
RTVSPost2010Prop52
140
1.0
102
RTVSPost2010PropOp52
 70
     0
102
RTVSPost2010Prop53
 90
        2
102
RTVSPost2010PropOp53
 70
     1
102
RTVSPost2010Prop54
  1
strokes_ogs.tif
102
RTVSPost2010PropOp54
 70
     1
102
RTVSPost2010Prop55
280
     0
102
RTVSPost2010PropOp55
 70
     1
102
RTVSPost2010Prop56
140
1.0
102
RTVSPost2010PropOp56
 70
     1
102
RTVSPost2010Prop57
140
1.0
102
RTVSPost2010PropOp57
 70
     1
102
RTVSPropertyOp0
 70
     1
102
RTVSPropertyOp1
 70
     1
102
RTVSPropertyOp2
 70
     1
102
RTVSPropertyOp3
 70
     1
102
RTVSPropertyOp4
 70
     1
102
RTVSPropertyOp5
 70
     1
102
RTVSPropertyOp6
 70
     1
102
RTVSPropertyOp7
 70
     1
102
RTVSPropertyOp8
 70
     1
102
RTVSPropertyOp9
 70
     1
102
RTVSPropertyOp10
 70
     1
102
RTVSPropertyOp11
 70
     1
102
RTVSPropertyOp12
 70
     1
102
RTVSPropertyOp13
 70
     1
102
RTVSPropertyOp14
 70
     1
102
RTVSPropertyOp15
 70
     1
102
RTVSPropertyOp16
 70
     1
102
RTVSPropertyOp17
 70
     1
102
RTVSPropertyOp18
 70
     1
102
RTVSPropertyOp19
 70
     1
102
RTVSPropertyOp20
 70
     1
102
RTVSPropertyOp21
 70
     1
102
RTVSPropertyOp22
 70
     1
102
RTVSPropertyOp23
 70
     1
102
RTVSPropertyOp24
 70
     1
102
RTVSPropertyOp25
 70
     1
102
RTVSPropertyOp26
 70
     1
102
RTVSPropertyOp27
 70
     1
102
RTVSPropertyOp28
 70
     1
102
RTVSPropertyOp29
 70
     1
102
RTVSPropertyOp30
 70
     1
102
RTVSPropertyOp31
 70
     1
102
RTVSPropertyOp32
 70
     1
102
RTVSPropertyOp33
 70
     1
102
RTVSPropertyOp34
 70
     1
102
RTVSPropertyOp35
 70
     1
102
RTVSPropertyOp36
 70
     1
102
RTVSPropertyOp37
 70
     1
102
RTVSPropertyOp38
 70
     1
102
RTVSPropertyOp39
 70
     1
102
RTVSPropertyOp40
 70
     1
102
RTVSPropertyOp41
 70
     1
102
RTVSPropertyOp42
 70
     1
102
RTVSPropertyOp43
 70
     1
102
RTVSPropertyOp44
 70
     1
102
RTVSPropertyOp45
 70
     1
102
RTVSPropertyOp46
 70
     1
102
RTVSPropertyOp47
 70
     1
102
RTVSPropertyOp48
 70
     1
102
RTVSPropertyOp49
 70
     1
102
RTVSPropertyOp50
 70
     1
102
RTVSPropertyOp51
 70
     0
102
RTVSPropertyOp52
 70
     0
102
RTVSPropertyOp53
 70
     1
102
RTVSPropertyOp54
 70
     1
102
RTVSPropertyOp55
 70
     1
102
RTVSPropertyOp56
 70
     1
102
RTVSPropertyOp57
 70
     1
102
RTVSPropertyOp58
 70
     1
102
RTVSPropertyOp59
 70
     1
102
RTVSPropertyOp60
 70
     1
102
RTVSPropertyOp61
 70
     1
102
RTVSPropertyOp62
 70
     1
  0
XRECORD
  5
5CA
102
{ACAD_REACTORS
330
5C9
102
}
330
5C9
100
AcDbXrecord
280
     1
102
RTVSPost2010Prop28
280
     0
102
RTVSPost2010PropOp28
 70
     1
102
RTVSPost2010Prop29
280
     1
102
RTVSPost2010PropOp29
 70
     1
102
RTVSPost2010Prop30
280
     1
102
RTVSPost2010PropOp30
 70
     1
102
RTVSPost2010Prop31
280
     0
102
RTVSPost2010PropOp31
 70
     1
102
RTVSPost2010Prop32
280
     0
102
RTVSPost2010PropOp32
 70
     1
102
RTVSPost2010Prop33
280
     0
102
RTVSPost2010PropOp33
 70
     1
102
RTVSPost2010Prop34
280
     0
102
RTVSPost2010PropOp34
 70
     1
102
RTVSPost2010Prop35
280
     0
102
RTVSPost2010PropOp35
 70
     1
102
RTVSPost2010Prop36
280
     0
102
RTVSPost2010PropOp36
 70
     1
102
RTVSPost2010Prop37
 90
       50
102
RTVSPost2010PropOp37
 70
     1
102
RTVSPost2010Prop38
140
0.0
102
RTVSPost2010PropOp38
 70
     1
102
RTVSPost2010Prop39
140
1.0
102
RTVSPost2010PropOp39
 70
     1
102
RTVSPost2010Prop40
 90
        0
102
RTVSPost2010PropOp40
 70
     1
102
RTVSPost2010Prop41ColorIndex
 90
       18
102
RTVSPost2010Prop41ColorRGB
 90
        0
102
RTVSPost2010PropOp41
 70
     1
102
RTVSPost2010Prop42
 90
       50
102
RTVSPost2010PropOp42
 70
     1
102
RTVSPost2010Prop43
 90
        3
102
RTVSPost2010PropOp43
 70
     1
102
RTVSPost2010Prop44ColorIndex
 90
        5
102
RTVSPost2010Prop44ColorRGB
 90
      255
102
RTVSPost2010PropOp44
 70
     1
102
RTVSPost2010Prop45
280
     0
102
RTVSPost2010PropOp45
 70
     1
102
RTVSPost2010Prop46
 90
       50
102
RTVSPost2010PropOp46
 70
     1
102
RTVSPost2010Prop47
 90
       50
102
RTVSPost2010PropOp47
 70
     1
102
RTVSPost2010Prop48
 90
       50
102
RTVSPost2010PropOp48
 70
     1
102
RTVSPost2010Prop49
280
     0
102
RTVSPost2010PropOp49
 70
     1
102
RTVSPost2010Prop50
 90
       50
102
RTVSPost2010PropOp50
 70
     1
102
RTVSPost2010Prop51ColorIndex
 90
      256
102
RTVSPost2010Prop51ColorRGB
 90
-16777216
102
RTVSPost2010PropOp51
 70
     0
102
RTVSPost2010Prop52
140
1.0
102
RTVSPost2010PropOp52
 70
     0
102
RTVSPost2010Prop53
 90
        2
102
RTVSPost2010PropOp53
 70
     1
102
RTVSPost2010Prop54
  1
strokes_ogs.tif
102
RTVSPost2010PropOp54
 70
     1
102
RTVSPost2010Prop55
280
     0
102
RTVSPost2010PropOp55
 70
     1
102
RTVSPost2010Prop56
140
1.0
102
RTVSPost2010PropOp56
 70
     1
102
RTVSPost2010Prop57
140
1.0
102
RTVSPost2010PropOp57
 70
     1
102
RTVSPropertyOp0
 70
     1
102
RTVSPropertyOp1
 70
     1
102
RTVSPropertyOp2
 70
     1
102
RTVSPropertyOp3
 70
     1
102
RTVSPropertyOp4
 70
     1
102
RTVSPropertyOp5
 70
     1
102
RTVSPropertyOp6
 70
     1
102
RTVSPropertyOp7
 70
     1
102
RTVSPropertyOp8
 70
     1
102
RTVSPropertyOp9
 70
     1
102
RTVSPropertyOp10
 70
     1
102
RTVSPropertyOp11
 70
     1
102
RTVSPropertyOp12
 70
     1
102
RTVSPropertyOp13
 70
     1
102
RTVSPropertyOp14
 70
     1
102
RTVSPropertyOp15
 70
     1
102
RTVSPropertyOp16
 70
     1
102
RTVSPropertyOp17
 70
     1
102
RTVSPropertyOp18
 70
     1
102
RTVSPropertyOp19
 70
     1
102
RTVSPropertyOp20
 70
     1
102
RTVSPropertyOp21
 70
     1
102
RTVSPropertyOp22
 70
     1
102
RTVSPropertyOp23
 70
     1
102
RTVSPropertyOp24
 70
     1
102
RTVSPropertyOp25
 70
     1
102
RTVSPropertyOp26
 70
     1
102
RTVSPropertyOp27
 70
     1
102
RTVSPropertyOp28
 70
     1
102
RTVSPropertyOp29
 70
     1
102
RTVSPropertyOp30
 70
     1
102
RTVSPropertyOp31
 70
     1
102
RTVSPropertyOp32
 70
     1
102
RTVSPropertyOp33
 70
     1
102
RTVSPropertyOp34
 70
     1
102
RTVSPropertyOp35
 70
     1
102
RTVSPropertyOp36
 70
     1
102
RTVSPropertyOp37
 70
     1
102
RTVSPropertyOp38
 70
     1
102
RTVSPropertyOp39
 70
     1
102
RTVSPropertyOp40
 70
     1
102
RTVSPropertyOp41
 70
     1
102
RTVSPropertyOp42
 70
     1
102
RTVSPropertyOp43
 70
     1
102
RTVSPropertyOp44
 70
     1
102
RTVSPropertyOp45
 70
     1
102
RTVSPropertyOp46
 70
     1
102
RTVSPropertyOp47
 70
     1
102
RTVSPropertyOp48
 70
     1
102
RTVSPropertyOp49
 70
     1
102
RTVSPropertyOp50
 70
     1
102
RTVSPropertyOp51
 70
     0
102
RTVSPropertyOp52
 70
     0
102
RTVSPropertyOp53
 70
     1
102
RTVSPropertyOp54
 70
     1
102
RTVSPropertyOp55
 70
     1
102
RTVSPropertyOp56
 70
     1
102
RTVSPropertyOp57
 70
     1
102
RTVSPropertyOp58
 70
     1
102
RTVSPropertyOp59
 70
     1
102
RTVSPropertyOp60
 70
     1
102
RTVSPropertyOp61
 70
     1
102
RTVSPropertyOp62
 70
     1
  0
XRECORD
  5
5C0
102
{ACAD_REACTORS
330
5BF
102
}
330
5BF
100
AcDbXrecord
280
     1
102
RTVSPost2010Prop28
280
     0
102
RTVSPost2010PropOp28
 70
     1
102
RTVSPost2010Prop29
280
     1
102
RTVSPost2010PropOp29
 70
     1
102
RTVSPost2010Prop30
280
     1
102
RTVSPost2010PropOp30
 70
     1
102
RTVSPost2010Prop31
280
     0
102
RTVSPost2010PropOp31
 70
     1
102
RTVSPost2010Prop32
280
     0
102
RTVSPost2010PropOp32
 70
     1
102
RTVSPost2010Prop33
280
     0
102
RTVSPost2010PropOp33
 70
     1
102
RTVSPost2010Prop34
280
     0
102
RTVSPost2010PropOp34
 70
     1
102
RTVSPost2010Prop35
280
     0
102
RTVSPost2010PropOp35
 70
     1
102
RTVSPost2010Prop36
280
     0
102
RTVSPost2010PropOp36
 70
     1
102
RTVSPost2010Prop37
 90
       50
102
RTVSPost2010PropOp37
 70
     1
102
RTVSPost2010Prop38
140
0.0
102
RTVSPost2010PropOp38
 70
     1
102
RTVSPost2010Prop39
140
1.0
102
RTVSPost2010PropOp39
 70
     1
102
RTVSPost2010Prop40
 90
        0
102
RTVSPost2010PropOp40
 70
     1
102
RTVSPost2010Prop41ColorIndex
 90
       18
102
RTVSPost2010Prop41ColorRGB
 90
        0
102
RTVSPost2010PropOp41
 70
     1
102
RTVSPost2010Prop42
 90
       50
102
RTVSPost2010PropOp42
 70
     1
102
RTVSPost2010Prop43
 90
        3
102
RTVSPost2010PropOp43
 70
     1
102
RTVSPost2010Prop44ColorIndex
 90
        5
102
RTVSPost2010Prop44ColorRGB
 90
      255
102
RTVSPost2010PropOp44
 70
     1
102
RTVSPost2010Prop45
280
     0
102
RTVSPost2010PropOp45
 70
     1
102
RTVSPost2010Prop46
 90
       50
102
RTVSPost2010PropOp46
 70
     1
102
RTVSPost2010Prop47
 90
       50
102
RTVSPost2010PropOp47
 70
     1
102
RTVSPost2010Prop48
 90
       50
102
RTVSPost2010PropOp48
 70
     1
102
RTVSPost2010Prop49
280
     0
102
RTVSPost2010PropOp49
 70
     1
102
RTVSPost2010Prop50
 90
       50
102
RTVSPost2010PropOp50
 70
     1
102
RTVSPost2010Prop51ColorIndex
 90
      256
102
RTVSPost2010Prop51ColorRGB
 90
-16777216
102
RTVSPost2010PropOp51
 70
     0
102
RTVSPost2010Prop52
140
1.0
102
RTVSPost2010PropOp52
 70
     0
102
RTVSPost2010Prop53
 90
        2
102
RTVSPost2010PropOp53
 70
     1
102
RTVSPost2010Prop54
  1
strokes_ogs.tif
102
RTVSPost2010PropOp54
 70
     1
102
RTVSPost2010Prop55
280
     0
102
RTVSPost2010PropOp55
 70
     1
102
RTVSPost2010Prop56
140
1.0
102
RTVSPost2010PropOp56
 70
     1
102
RTVSPost2010Prop57
140
1.0
102
RTVSPost2010PropOp57
 70
     1
102
RTVSPropertyOp0
 70
     1
102
RTVSPropertyOp1
 70
     1
102
RTVSPropertyOp2
 70
     1
102
RTVSPropertyOp3
 70
     1
102
RTVSPropertyOp4
 70
     1
102
RTVSPropertyOp5
 70
     1
102
RTVSPropertyOp6
 70
     1
102
RTVSPropertyOp7
 70
     1
102
RTVSPropertyOp8
 70
     1
102
RTVSPropertyOp9
 70
     1
102
RTVSPropertyOp10
 70
     1
102
RTVSPropertyOp11
 70
     1
102
RTVSPropertyOp12
 70
     1
102
RTVSPropertyOp13
 70
     1
102
RTVSPropertyOp14
 70
     1
102
RTVSPropertyOp15
 70
     1
102
RTVSPropertyOp16
 70
     1
102
RTVSPropertyOp17
 70
     1
102
RTVSPropertyOp18
 70
     1
102
RTVSPropertyOp19
 70
     1
102
RTVSPropertyOp20
 70
     1
102
RTVSPropertyOp21
 70
     1
102
RTVSPropertyOp22
 70
     1
102
RTVSPropertyOp23
 70
     1
102
RTVSPropertyOp24
 70
     1
102
RTVSPropertyOp25
 70
     1
102
RTVSPropertyOp26
 70
     1
102
RTVSPropertyOp27
 70
     1
102
RTVSPropertyOp28
 70
     1
102
RTVSPropertyOp29
 70
     1
102
RTVSPropertyOp30
 70
     1
102
RTVSPropertyOp31
 70
     1
102
RTVSPropertyOp32
 70
     1
102
RTVSPropertyOp33
 70
     1
102
RTVSPropertyOp34
 70
     1
102
RTVSPropertyOp35
 70
     1
102
RTVSPropertyOp36
 70
     1
102
RTVSPropertyOp37
 70
     1
102
RTVSPropertyOp38
 70
     1
102
RTVSPropertyOp39
 70
     1
102
RTVSPropertyOp40
 70
     1
102
RTVSPropertyOp41
 70
     1
102
RTVSPropertyOp42
 70
     1
102
RTVSPropertyOp43
 70
     1
102
RTVSPropertyOp44
 70
     1
102
RTVSPropertyOp45
 70
     1
102
RTVSPropertyOp46
 70
     1
102
RTVSPropertyOp47
 70
     1
102
RTVSPropertyOp48
 70
     1
102
RTVSPropertyOp49
 70
     1
102
RTVSPropertyOp50
 70
     1
102
RTVSPropertyOp51
 70
     0
102
RTVSPropertyOp52
 70
     0
102
RTVSPropertyOp53
 70
     1
102
RTVSPropertyOp54
 70
     1
102
RTVSPropertyOp55
 70
     1
102
RTVSPropertyOp56
 70
     1
102
RTVSPropertyOp57
 70
     1
102
RTVSPropertyOp58
 70
     1
102
RTVSPropertyOp59
 70
     1
102
RTVSPropertyOp60
 70
     1
102
RTVSPropertyOp61
 70
     1
102
RTVSPropertyOp62
 70
     1
  0
XRECORD
  5
5B4
102
{ACAD_REACTORS
330
5B3
102
}
330
5B3
100
AcDbXrecord
280
     1
102
RTVSPost2010Prop28
280
     0
102
RTVSPost2010PropOp28
 70
     1
102
RTVSPost2010Prop29
280
     1
102
RTVSPost2010PropOp29
 70
     1
102
RTVSPost2010Prop30
280
     1
102
RTVSPost2010PropOp30
 70
     1
102
RTVSPost2010Prop31
280
     0
102
RTVSPost2010PropOp31
 70
     1
102
RTVSPost2010Prop32
280
     0
102
RTVSPost2010PropOp32
 70
     1
102
RTVSPost2010Prop33
280
     0
102
RTVSPost2010PropOp33
 70
     1
102
RTVSPost2010Prop34
280
     0
102
RTVSPost2010PropOp34
 70
     1
102
RTVSPost2010Prop35
280
     0
102
RTVSPost2010PropOp35
 70
     1
102
RTVSPost2010Prop36
280
     0
102
RTVSPost2010PropOp36
 70
     1
102
RTVSPost2010Prop37
 90
       50
102
RTVSPost2010PropOp37
 70
     1
102
RTVSPost2010Prop38
140
0.0
102
RTVSPost2010PropOp38
 70
     1
102
RTVSPost2010Prop39
140
1.0
102
RTVSPost2010PropOp39
 70
     1
102
RTVSPost2010Prop40
 90
        0
102
RTVSPost2010PropOp40
 70
     1
102
RTVSPost2010Prop41ColorIndex
 90
       18
102
RTVSPost2010Prop41ColorRGB
 90
        0
102
RTVSPost2010PropOp41
 70
     1
102
RTVSPost2010Prop42
 90
       50
102
RTVSPost2010PropOp42
 70
     1
102
RTVSPost2010Prop43
 90
        3
102
RTVSPost2010PropOp43
 70
     1
102
RTVSPost2010Prop44ColorIndex
 90
        5
102
RTVSPost2010Prop44ColorRGB
 90
      255
102
RTVSPost2010PropOp44
 70
     1
102
RTVSPost2010Prop45
280
     0
102
RTVSPost2010PropOp45
 70
     1
102
RTVSPost2010Prop46
 90
       50
102
RTVSPost2010PropOp46
 70
     1
102
RTVSPost2010Prop47
 90
       50
102
RTVSPost2010PropOp47
 70
     1
102
RTVSPost2010Prop48
 90
       50
102
RTVSPost2010PropOp48
 70
     1
102
RTVSPost2010Prop49
280
     0
102
RTVSPost2010PropOp49
 70
     1
102
RTVSPost2010Prop50
 90
       50
102
RTVSPost2010PropOp50
 70
     1
102
RTVSPost2010Prop51ColorIndex
 90
      256
102
RTVSPost2010Prop51ColorRGB
 90
-16777216
102
RTVSPost2010PropOp51
 70
     0
102
RTVSPost2010Prop52
140
1.0
102
RTVSPost2010PropOp52
 70
     0
102
RTVSPost2010Prop53
 90
        2
102
RTVSPost2010PropOp53
 70
     1
102
RTVSPost2010Prop54
  1
strokes_ogs.tif
102
RTVSPost2010PropOp54
 70
     1
102
RTVSPost2010Prop55
280
     0
102
RTVSPost2010PropOp55
 70
     1
102
RTVSPost2010Prop56
140
1.0
102
RTVSPost2010PropOp56
 70
     1
102
RTVSPost2010Prop57
140
1.0
102
RTVSPost2010PropOp57
 70
     1
102
RTVSPropertyOp0
 70
     1
102
RTVSPropertyOp1
 70
     1
102
RTVSPropertyOp2
 70
     1
102
RTVSPropertyOp3
 70
     1
102
RTVSPropertyOp4
 70
     1
102
RTVSPropertyOp5
 70
     1
102
RTVSPropertyOp6
 70
     1
102
RTVSPropertyOp7
 70
     1
102
RTVSPropertyOp8
 70
     1
102
RTVSPropertyOp9
 70
     1
102
RTVSPropertyOp10
 70
     1
102
RTVSPropertyOp11
 70
     1
102
RTVSPropertyOp12
 70
     1
102
RTVSPropertyOp13
 70
     1
102
RTVSPropertyOp14
 70
     1
102
RTVSPropertyOp15
 70
     1
102
RTVSPropertyOp16
 70
     1
102
RTVSPropertyOp17
 70
     1
102
RTVSPropertyOp18
 70
     1
102
RTVSPropertyOp19
 70
     1
102
RTVSPropertyOp20
 70
     1
102
RTVSPropertyOp21
 70
     1
102
RTVSPropertyOp22
 70
     1
102
RTVSPropertyOp23
 70
     1
102
RTVSPropertyOp24
 70
     1
102
RTVSPropertyOp25
 70
     1
102
RTVSPropertyOp26
 70
     1
102
RTVSPropertyOp27
 70
     1
102
RTVSPropertyOp28
 70
     1
102
RTVSPropertyOp29
 70
     1
102
RTVSPropertyOp30
 70
     1
102
RTVSPropertyOp31
 70
     1
102
RTVSPropertyOp32
 70
     1
102
RTVSPropertyOp33
 70
     1
102
RTVSPropertyOp34
 70
     1
102
RTVSPropertyOp35
 70
     1
102
RTVSPropertyOp36
 70
     1
102
RTVSPropertyOp37
 70
     1
102
RTVSPropertyOp38
 70
     1
102
RTVSPropertyOp39
 70
     1
102
RTVSPropertyOp40
 70
     1
102
RTVSPropertyOp41
 70
     1
102
RTVSPropertyOp42
 70
     1
102
RTVSPropertyOp43
 70
     1
102
RTVSPropertyOp44
 70
     1
102
RTVSPropertyOp45
 70
     1
102
RTVSPropertyOp46
 70
     1
102
RTVSPropertyOp47
 70
     1
102
RTVSPropertyOp48
 70
     1
102
RTVSPropertyOp49
 70
     1
102
RTVSPropertyOp50
 70
     1
102
RTVSPropertyOp51
 70
     0
102
RTVSPropertyOp52
 70
     0
102
RTVSPropertyOp53
 70
     1
102
RTVSPropertyOp54
 70
     1
102
RTVSPropertyOp55
 70
     1
102
RTVSPropertyOp56
 70
     1
102
RTVSPropertyOp57
 70
     1
102
RTVSPropertyOp58
 70
     1
102
RTVSPropertyOp59
 70
     1
102
RTVSPropertyOp60
 70
     1
102
RTVSPropertyOp61
 70
     1
102
RTVSPropertyOp62
 70
     1
  0
XRECORD
  5
5CC
102
{ACAD_REACTORS
330
5CB
102
}
330
5CB
100
AcDbXrecord
280
     1
102
RTVSPost2010Prop28
280
     0
102
RTVSPost2010PropOp28
 70
     1
102
RTVSPost2010Prop29
280
     1
102
RTVSPost2010PropOp29
 70
     1
102
RTVSPost2010Prop30
280
     1
102
RTVSPost2010PropOp30
 70
     1
102
RTVSPost2010Prop31
280
     0
102
RTVSPost2010PropOp31
 70
     1
102
RTVSPost2010Prop32
280
     0
102
RTVSPost2010PropOp32
 70
     1
102
RTVSPost2010Prop33
280
     0
102
RTVSPost2010PropOp33
 70
     1
102
RTVSPost2010Prop34
280
     0
102
RTVSPost2010PropOp34
 70
     1
102
RTVSPost2010Prop35
280
     0
102
RTVSPost2010PropOp35
 70
     1
102
RTVSPost2010Prop36
280
     0
102
RTVSPost2010PropOp36
 70
     1
102
RTVSPost2010Prop37
 90
       50
102
RTVSPost2010PropOp37
 70
     1
102
RTVSPost2010Prop38
140
0.0
102
RTVSPost2010PropOp38
 70
     1
102
RTVSPost2010Prop39
140
1.0
102
RTVSPost2010PropOp39
 70
     1
102
RTVSPost2010Prop40
 90
        0
102
RTVSPost2010PropOp40
 70
     1
102
RTVSPost2010Prop41ColorIndex
 90
       18
102
RTVSPost2010Prop41ColorRGB
 90
        0
102
RTVSPost2010PropOp41
 70
     1
102
RTVSPost2010Prop42
 90
       50
102
RTVSPost2010PropOp42
 70
     1
102
RTVSPost2010Prop43
 90
        3
102
RTVSPost2010PropOp43
 70
     1
102
RTVSPost2010Prop44ColorIndex
 90
        5
102
RTVSPost2010Prop44ColorRGB
 90
      255
102
RTVSPost2010PropOp44
 70
     1
102
RTVSPost2010Prop45
280
     0
102
RTVSPost2010PropOp45
 70
     1
102
RTVSPost2010Prop46
 90
       50
102
RTVSPost2010PropOp46
 70
     1
102
RTVSPost2010Prop47
 90
       50
102
RTVSPost2010PropOp47
 70
     1
102
RTVSPost2010Prop48
 90
       50
102
RTVSPost2010PropOp48
 70
     1
102
RTVSPost2010Prop49
280
     0
102
RTVSPost2010PropOp49
 70
     1
102
RTVSPost2010Prop50
 90
       50
102
RTVSPost2010PropOp50
 70
     1
102
RTVSPost2010Prop51ColorIndex
 90
      256
102
RTVSPost2010Prop51ColorRGB
 90
-16777216
102
RTVSPost2010PropOp51
 70
     0
102
RTVSPost2010Prop52
140
1.0
102
RTVSPost2010PropOp52
 70
     0
102
RTVSPost2010Prop53
 90
        2
102
RTVSPost2010PropOp53
 70
     1
102
RTVSPost2010Prop54
  1
strokes_ogs.tif
102
RTVSPost2010PropOp54
 70
     1
102
RTVSPost2010Prop55
280
     0
102
RTVSPost2010PropOp55
 70
     1
102
RTVSPost2010Prop56
140
1.0
102
RTVSPost2010PropOp56
 70
     1
102
RTVSPost2010Prop57
140
1.0
102
RTVSPost2010PropOp57
 70
     1
102
RTVSPropertyOp0
 70
     1
102
RTVSPropertyOp1
 70
     1
102
RTVSPropertyOp2
 70
     1
102
RTVSPropertyOp3
 70
     1
102
RTVSPropertyOp4
 70
     1
102
RTVSPropertyOp5
 70
     1
102
RTVSPropertyOp6
 70
     1
102
RTVSPropertyOp7
 70
     1
102
RTVSPropertyOp8
 70
     1
102
RTVSPropertyOp9
 70
     1
102
RTVSPropertyOp10
 70
     1
102
RTVSPropertyOp11
 70
     1
102
RTVSPropertyOp12
 70
     1
102
RTVSPropertyOp13
 70
     1
102
RTVSPropertyOp14
 70
     1
102
RTVSPropertyOp15
 70
     1
102
RTVSPropertyOp16
 70
     1
102
RTVSPropertyOp17
 70
     1
102
RTVSPropertyOp18
 70
     1
102
RTVSPropertyOp19
 70
     1
102
RTVSPropertyOp20
 70
     1
102
RTVSPropertyOp21
 70
     1
102
RTVSPropertyOp22
 70
     1
102
RTVSPropertyOp23
 70
     1
102
RTVSPropertyOp24
 70
     1
102
RTVSPropertyOp25
 70
     1
102
RTVSPropertyOp26
 70
     1
102
RTVSPropertyOp27
 70
     1
102
RTVSPropertyOp28
 70
     1
102
RTVSPropertyOp29
 70
     1
102
RTVSPropertyOp30
 70
     1
102
RTVSPropertyOp31
 70
     1
102
RTVSPropertyOp32
 70
     1
102
RTVSPropertyOp33
 70
     1
102
RTVSPropertyOp34
 70
     1
102
RTVSPropertyOp35
 70
     1
102
RTVSPropertyOp36
 70
     1
102
RTVSPropertyOp37
 70
     1
102
RTVSPropertyOp38
 70
     1
102
RTVSPropertyOp39
 70
     1
102
RTVSPropertyOp40
 70
     1
102
RTVSPropertyOp41
 70
     1
102
RTVSPropertyOp42
 70
     1
102
RTVSPropertyOp43
 70
     1
102
RTVSPropertyOp44
 70
     1
102
RTVSPropertyOp45
 70
     1
102
RTVSPropertyOp46
 70
     1
102
RTVSPropertyOp47
 70
     1
102
RTVSPropertyOp48
 70
     1
102
RTVSPropertyOp49
 70
     1
102
RTVSPropertyOp50
 70
     1
102
RTVSPropertyOp51
 70
     0
102
RTVSPropertyOp52
 70
     0
102
RTVSPropertyOp53
 70
     1
102
RTVSPropertyOp54
 70
     1
102
RTVSPropertyOp55
 70
     1
102
RTVSPropertyOp56
 70
     1
102
RTVSPropertyOp57
 70
     1
102
RTVSPropertyOp58
 70
     1
102
RTVSPropertyOp59
 70
     1
102
RTVSPropertyOp60
 70
     1
102
RTVSPropertyOp61
 70
     1
102
RTVSPropertyOp62
 70
     1
  0
ENDSEC
  0
EOF
