  0
SECTION
  2
HEADER
  9
$ACADVER
  1
AC1018
  9
$ACADMAINTVER
 70
   104
  9
$DWGCODEPAGE
  3
ANSI_932
  9
$INSBASE
 10
0.0
 20
0.0
 30
0.0
  9
$EXTMIN
 10
-2.85149832
 20
-0.03625267
 30
-0.00000003
  9
$EXTMAX
 10
790.61715652
 20
564.24289826
 30
0.00000008
  9
$LIMMIN
 10
0.0
 20
0.0
  9
$LIMMAX
 10
841.0
 20
594.0
  9
$ORTHOMODE
 70
     1
  9
$REGENMODE
 70
     1
  9
$FILLMODE
 70
     1
  9
$QTEXTMODE
 70
     0
  9
$MIRRTEXT
 70
     0
  9
$LTSCALE
 40
1.0
  9
$ATTMODE
 70
     1
  9
$TEXTSIZE
 40
0.2
  9
$TRACEWID
 40
0.05
  9
$TEXTSTYLE
  7
STANDARD
  9
$CLAYER
  8
YKK_H1
  9
$CELTYPE
  6
BYLAYER
  9
$CECOLOR
 62
   256
  9
$CELTSCALE
 40
1.0
  9
$DISPSILH
 70
     1
  9
$DIMSCALE
 40
1.0
  9
$DIMASZ
 40
0.18
  9
$DIMEXO
 40
0.0625
  9
$DIMDLI
 40
0.38
  9
$DIMRND
 40
0.0
  9
$DIMDLE
 40
0.0
  9
$DIMEXE
 40
0.18
  9
$DIMTP
 40
0.0
  9
$DIMTM
 40
0.0
  9
$DIMTXT
 40
0.18
  9
$DIMCEN
 40
0.09
  9
$DIMTSZ
 40
0.0
  9
$DIMTOL
 70
     0
  9
$DIMLIM
 70
     0
  9
$DIMTIH
 70
     1
  9
$DIMTOH
 70
     1
  9
$DIMSE1
 70
     0
  9
$DIMSE2
 70
     0
  9
$DIMTAD
 70
     0
  9
$DIMZIN
 70
     0
  9
$DIMBLK
  1

  9
$DIMASO
 70
     1
  9
$DIMSHO
 70
     1
  9
$DIMPOST
  1

  9
$DIMAPOST
  1

  9
$DIMALT
 70
     0
  9
$DIMALTD
 70
     2
  9
$DIMALTF
 40
25.4
  9
$DIMLFAC
 40
1.0
  9
$DIMTOFL
 70
     0
  9
$DIMTVP
 40
0.0
  9
$DIMTIX
 70
     0
  9
$DIMSOXD
 70
     0
  9
$DIMSAH
 70
     0
  9
$DIMBLK1
  1

  9
$DIMBLK2
  1

  9
$DIMSTYLE
  2
STANDARD
  9
$DIMCLRD
 70
     0
  9
$DIMCLRE
 70
     0
  9
$DIMCLRT
 70
     0
  9
$DIMTFAC
 40
1.0
  9
$DIMGAP
 40
0.09
  9
$DIMJUST
 70
     0
  9
$DIMSD1
 70
     0
  9
$DIMSD2
 70
     0
  9
$DIMTOLJ
 70
     1
  9
$DIMTZIN
 70
     0
  9
$DIMALTZ
 70
     0
  9
$DIMALTTZ
 70
     0
  9
$DIMUPT
 70
     0
  9
$DIMDEC
 70
     4
  9
$DIMTDEC
 70
     4
  9
$DIMALTU
 70
     2
  9
$DIMALTTD
 70
     2
  9
$DIMTXSTY
  7
STANDARD
  9
$DIMAUNIT
 70
     0
  9
$DIMADEC
 70
     0
  9
$DIMALTRND
 40
0.0
  9
$DIMAZIN
 70
     0
  9
$DIMDSEP
 70
    46
  9
$DIMATFIT
 70
     3
  9
$DIMFRAC
 70
     0
  9
$DIMLDRBLK
  1

  9
$DIMLUNIT
 70
     2
  9
$DIMLWD
 70
    -2
  9
$DIMLWE
 70
    -2
  9
$DIMTMOVE
 70
     2
  9
$LUNITS
 70
     2
  9
$LUPREC
 70
     4
  9
$SKETCHINC
 40
0.1
  9
$FILLETRAD
 40
0.0
  9
$AUNITS
 70
     0
  9
$AUPREC
 70
     0
  9
$MENU
  1
ACAD
  9
$ELEVATION
 40
0.0
  9
$PELEVATION
 40
0.0
  9
$THICKNESS
 40
0.0
  9
$LIMCHECK
 70
     0
  9
$CHAMFERA
 40
0.0
  9
$CHAMFERB
 40
0.0
  9
$CHAMFERC
 40
0.0
  9
$CHAMFERD
 40
0.0
  9
$SKPOLY
 70
     0
  9
$TDCREATE
 40
2452082.468936169
  9
$TDUCREATE
 40
2452082.093936169
  9
$TDUPDATE
 40
2457151.456978715
  9
$TDUUPDATE
 40
2457151.081978715
  9
$TDINDWG
 40
0.0264454167
  9
$TDUSRTIMER
 40
0.0264454167
  9
$USRTIMER
 70
     1
  9
$ANGBASE
 50
0.0
  9
$ANGDIR
 70
     0
  9
$PDMODE
 70
     0
  9
$PDSIZE
 40
0.0
  9
$PLINEWID
 40
0.0
  9
$SPLFRAME
 70
     0
  9
$SPLINETYPE
 70
     6
  9
$SPLINESEGS
 70
     8
  9
$HANDSEED
  5
804
  9
$SURFTAB1
 70
     6
  9
$SURFTAB2
 70
     6
  9
$SURFTYPE
 70
     6
  9
$SURFU
 70
     6
  9
$SURFV
 70
     6
  9
$UCSBASE
  2

  9
$UCSNAME
  2

  9
$UCSORG
 10
0.0
 20
0.0
 30
0.0
  9
$UCSXDIR
 10
1.0
 20
0.0
 30
0.0
  9
$UCSYDIR
 10
0.0
 20
1.0
 30
0.0
  9
$UCSORTHOREF
  2

  9
$UCSORTHOVIEW
 70
     0
  9
$UCSORGTOP
 10
0.0
 20
0.0
 30
0.0
  9
$UCSORGBOTTOM
 10
0.0
 20
0.0
 30
0.0
  9
$UCSORGLEFT
 10
0.0
 20
0.0
 30
0.0
  9
$UCSORGRIGHT
 10
0.0
 20
0.0
 30
0.0
  9
$UCSORGFRONT
 10
0.0
 20
0.0
 30
0.0
  9
$UCSORGBACK
 10
0.0
 20
0.0
 30
0.0
  9
$PUCSBASE
  2

  9
$PUCSNAME
  2

  9
$PUCSORG
 10
0.0
 20
0.0
 30
0.0
  9
$PUCSXDIR
 10
1.0
 20
0.0
 30
0.0
  9
$PUCSYDIR
 10
0.0
 20
1.0
 30
0.0
  9
$PUCSORTHOREF
  2

  9
$PUCSORTHOVIEW
 70
     0
  9
$PUCSORGTOP
 10
0.0
 20
0.0
 30
0.0
  9
$PUCSORGBOTTOM
 10
0.0
 20
0.0
 30
0.0
  9
$PUCSORGLEFT
 10
0.0
 20
0.0
 30
0.0
  9
$PUCSORGRIGHT
 10
0.0
 20
0.0
 30
0.0
  9
$PUCSORGFRONT
 10
0.0
 20
0.0
 30
0.0
  9
$PUCSORGBACK
 10
0.0
 20
0.0
 30
0.0
  9
$USERI1
 70
     0
  9
$USERI2
 70
     0
  9
$USERI3
 70
     0
  9
$USERI4
 70
     0
  9
$USERI5
 70
     0
  9
$USERR1
 40
0.0
  9
$USERR2
 40
0.0
  9
$USERR3
 40
0.0
  9
$USERR4
 40
0.0
  9
$USERR5
 40
0.0
  9
$WORLDVIEW
 70
     1
  9
$SHADEDGE
 70
     3
  9
$SHADEDIF
 70
    70
  9
$TILEMODE
 70
     1
  9
$MAXACTVP
 70
    16
  9
$PINSBASE
 10
0.0
 20
0.0
 30
0.0
  9
$PLIMCHECK
 70
     0
  9
$PEXTMIN
 10
1.00000000E+20
 20
1.00000000E+20
 30
1.00000000E+20
  9
$PEXTMAX
 10
-1.00000000E+20
 20
-1.00000000E+20
 30
-1.00000000E+20
  9
$PLIMMIN
 10
0.0
 20
0.0
  9
$PLIMMAX
 10
12.0
 20
9.0
  9
$UNITMODE
 70
     0
  9
$VISRETAIN
 70
     1
  9
$PLINEGEN
 70
     0
  9
$PSLTSCALE
 70
     1
  9
$TREEDEPTH
 70
  3020
  9
$CMLSTYLE
  2
STANDARD
  9
$CMLJUST
 70
     0
  9
$CMLSCALE
 40
1.0
  9
$PROXYGRAPHICS
 70
     1
  9
$MEASUREMENT
 70
     1
  9
$CELWEIGHT
370
    -1
  9
$ENDCAPS
280
     0
  9
$JOINSTYLE
280
     0
  9
$LWDISPLAY
290
     0
  9
$INSUNITS
 70
     0
  9
$HYPERLINKBASE
  1

  9
$STYLESHEET
  1

  9
$XEDIT
290
     1
  9
$CEPSNTYPE
380
     0
  9
$PSTYLEMODE
290
     1
  9
$FINGERPRINTGUID
  2
{F7C988C9-1B77-4526-8E24-1208657B6DFB}
  9
$VERSIONGUID
  2
{9548CB70-12EE-43F8-A665-9D716B2EB59A}
  9
$EXTNAMES
290
     1
  9
$PSVPSCALE
 40
0.0
  9
$OLESTARTUP
290
     0
  9
$SORTENTS
280
   127
  9
$INDEXCTL
280
     0
  9
$HIDETEXT
280
     0
  9
$XCLIPFRAME
290
     0
  9
$HALOGAP
280
     0
  9
$OBSCOLOR
 70
   257
  9
$OBSLTYPE
280
     0
  9
$INTERSECTIONDISPLAY
280
     0
  9
$INTERSECTIONCOLOR
 70
   257
  9
$DIMASSOC
280
     1
  9
$PROJECTNAME
  1

  0
ENDSEC
  0
SECTION
  2
CLASSES
  0
CLASS
  1
DICTIONARYVAR
  2
AcDbDictionaryVar
  3
ObjectDBX Classes
 90
        0
 91
        8
280
     0
281
     0
  0
CLASS
  1
ACDBDICTIONARYWDFLT
  2
AcDbDictionaryWithDefault
  3
ObjectDBX Classes
 90
        0
 91
        1
280
     0
281
     0
  0
CLASS
  1
MATERIAL
  2
AcDbMaterial
  3
ObjectDBX Classes
 90
     1153
 91
        3
280
     0
281
     0
  0
CLASS
  1
VISUALSTYLE
  2
AcDbVisualStyle
  3
ObjectDBX Classes
 90
     4095
 91
       24
280
     0
281
     0
  0
CLASS
  1
TABLESTYLE
  2
AcDbTableStyle
  3
ObjectDBX Classes
 90
     4095
 91
        1
280
     0
281
     0
  0
CLASS
  1
SCALE
  2
AcDbScale
  3
ObjectDBX Classes
 90
     1153
 91
       17
280
     0
281
     0
  0
CLASS
  1
MLEADERSTYLE
  2
AcDbMLeaderStyle
  3
ACDB_MLEADERSTYLE_CLASS
 90
     4095
 91
        1
280
     0
281
     0
  0
CLASS
  1
ACDBSECTIONVIEWSTYLE
  2
AcDbSectionViewStyle
  3
ObjectDBX Classes
 90
     1025
 91
        1
280
     0
281
     0
  0
CLASS
  1
ACDBDETAILVIEWSTYLE
  2
AcDbDetailViewStyle
  3
ObjectDBX Classes
 90
     1025
 91
        1
280
     0
281
     0
  0
CLASS
  1
CELLSTYLEMAP
  2
AcDbCellStyleMap
  3
ObjectDBX Classes
 90
     1152
 91
        2
280
     0
281
     0
  0
ENDSEC
  0
SECTION
  2
TABLES
  0
TABLE
  2
VPORT
  5
6EB
330
0
100
AcDbSymbolTable
 70
     1
  0
VPORT
  5
71F
330
6EB
100
AcDbSymbolTableRecord
100
AcDbViewportTableRecord
  2
*ACTIVE
 70
     0
 10
0.0
 20
0.0
 11
1.0
 21
1.0
 12
419.07425084
 22
296.98187367
 13
0.0
 23
0.0
 14
1.0
 24
1.0
 15
0.0
 25
0.0
 16
0.0
 26
0.0
 36
1.0
 17
0.0
 27
0.0
 37
0.0
 40
599.19430986
 41
1.45652174
 42
50.0
 43
0.0
 44
0.0
 50
0.0
 51
0.0
 71
     0
 72
   100
 73
     1
 74
     0
 75
     0
 76
     0
 77
     0
 78
     0
281
     0
 65
     1
110
0.0
120
0.0
130
0.0
111
1.0
121
0.0
131
0.0
112
0.0
122
1.0
132
0.0
 79
     0
146
0.0
1001
ACAD_NAV_VCDISPLAY
1070
     1
  0
ENDTAB
  0
TABLE
  2
LTYPE
  5
6E8
330
0
100
AcDbSymbolTable
 70
     5
  0
LTYPE
  5
6F4
330
6E8
100
AcDbSymbolTableRecord
100
AcDbLinetypeTableRecord
  2
BYBLOCK
 70
     0
  3

 72
    65
 73
     0
 40
0.0
  0
LTYPE
  5
6F5
330
6E8
100
AcDbSymbolTableRecord
100
AcDbLinetypeTableRecord
  2
BYLAYER
 70
     0
  3

 72
    65
 73
     0
 40
0.0
  0
LTYPE
  5
6F6
330
6E8
100
AcDbSymbolTableRecord
100
AcDbLinetypeTableRecord
  2
CONTINUOUS
 70
     0
  3
Solid line
 72
    65
 73
     0
 40
0.0
  0
LTYPE
  5
700
330
6E8
100
AcDbSymbolTableRecord
100
AcDbLinetypeTableRecord
  2
DASHDOT
 70
     0
  3
__ . __ . __ . __ . __ . __ . __ . __ . __ . __
 72
    65
 73
     4
 40
1.0
 49
0.5
 74
     0
 49
-0.25
 74
     0
 49
0.0
 74
     0
 49
-0.25
 74
     0
  0
LTYPE
  5
701
330
6E8
100
AcDbSymbolTableRecord
100
AcDbLinetypeTableRecord
  2
HIDDEN
 70
     0
  3
__ __ __ __ __ __ __ __ __ __ __ __ __ __ __ __
 72
    65
 73
     2
 40
0.375
 49
0.25
 74
     0
 49
-0.125
 74
     0
  0
LTYPE
  5
702
330
6E8
100
AcDbSymbolTableRecord
100
AcDbLinetypeTableRecord
  2
HASENP
 70
     0
  3

 72
    65
 73
     2
 40
3.5
 49
2.5
 74
     0
 49
-1.0
 74
     0
  0
LTYPE
  5
703
330
6E8
100
AcDbSymbolTableRecord
100
AcDbLinetypeTableRecord
  2
ITTENSAP
 70
     0
  3

 72
    65
 73
     4
 40
5.5
 49
3.0
 74
     0
 49
-1.0
 74
     0
 49
0.5
 74
     0
 49
-1.0
 74
     0
  0
ENDTAB
  0
TABLE
  2
LAYER
  5
6E5
330
0
100
AcDbSymbolTable
 70
    14
  0
LAYER
  5
6F1
330
6E5
100
AcDbSymbolTableRecord
100
AcDbLayerTableRecord
  2
0
 70
     0
 62
     7
  6
CONTINUOUS
370
    -3
390
722
  0
LAYER
  5
707
330
6E5
100
AcDbSymbolTableRecord
100
AcDbLayerTableRecord
  2
YKK_H1
 70
     0
 62
     7
  6
CONTINUOUS
370
    -3
390
722
  0
LAYER
  5
708
330
6E5
100
AcDbSymbolTableRecord
100
AcDbLayerTableRecord
  2
YKK_H2
 70
     0
 62
     2
  6
CONTINUOUS
370
    -3
390
722
  0
LAYER
  5
709
330
6E5
100
AcDbSymbolTableRecord
100
AcDbLayerTableRecord
  2
YKK_H3
 70
     0
 62
   194
  6
CONTINUOUS
370
    -3
390
722
  0
LAYER
  5
70A
330
6E5
100
AcDbSymbolTableRecord
100
AcDbLayerTableRecord
  2
YKK_D
 70
     0
 62
     6
  6
CONTINUOUS
370
    -3
390
722
  0
LAYER
  5
70B
330
6E5
100
AcDbSymbolTableRecord
100
AcDbLayerTableRecord
  2
YKK_ZWAK
 70
     0
 62
     7
  6
CONTINUOUS
370
    -3
390
722
  0
LAYER
  5
70C
330
6E5
100
AcDbSymbolTableRecord
100
AcDbLayerTableRecord
  2
USER1
 70
     0
 62
     3
  6
CONTINUOUS
370
    -3
390
722
  0
LAYER
  5
70D
330
6E5
100
AcDbSymbolTableRecord
100
AcDbLayerTableRecord
  2
YKK_N1
 70
     0
 62
     2
  6
CONTINUOUS
370
    -3
390
722
  0
LAYER
  5
70E
330
6E5
100
AcDbSymbolTableRecord
100
AcDbLayerTableRecord
  2
YKK_A1
 70
     0
 62
     4
  6
CONTINUOUS
370
    -3
390
722
  0
LAYER
  5
70F
330
6E5
100
AcDbSymbolTableRecord
100
AcDbLayerTableRecord
  2
YKK_A2
 70
     0
 62
     3
  6
CONTINUOUS
370
    -3
390
722
  0
LAYER
  5
710
330
6E5
100
AcDbSymbolTableRecord
100
AcDbLayerTableRecord
  2
YKK_W1
 70
     0
 62
     7
  6
CONTINUOUS
370
    -3
390
722
  0
LAYER
  5
711
330
6E5
100
AcDbSymbolTableRecord
100
AcDbLayerTableRecord
  2
YKK_W2
 70
     0
 62
     2
  6
CONTINUOUS
370
    -3
390
722
  0
LAYER
  5
712
330
6E5
100
AcDbSymbolTableRecord
100
AcDbLayerTableRecord
  2
YKK_W4
 70
     0
 62
     3
  6
CONTINUOUS
370
    -3
390
722
  0
LAYER
  5
713
330
6E5
100
AcDbSymbolTableRecord
100
AcDbLayerTableRecord
  2
YKK_W3
 70
     0
 62
   194
  6
CONTINUOUS
370
    -3
390
722
  0
ENDTAB
  0
TABLE
  2
STYLE
  5
6E6
330
0
100
AcDbSymbolTable
 70
     2
  0
STYLE
  5
6F2
330
6E6
100
AcDbSymbolTableRecord
100
AcDbTextStyleTableRecord
  2
STANDARD
 70
     0
 40
0.0
 41
1.0
 50
0.0
 71
     0
 42
0.2
  3
txt
  4
BIGFONT
  0
STYLE
  5
6FF
330
6E6
100
AcDbSymbolTableRecord
100
AcDbTextStyleTableRecord
  2
YKK_OSSTYLE1
 70
     0
 40
0.0
 41
0.9
 50
0.0
 71
     0
 42
4.0
  3
romans.shx
  4
EXTFONT.SHX
  0
ENDTAB
  0
TABLE
  2
VIEW
  5
6E9
330
0
100
AcDbSymbolTable
 70
     0
  0
ENDTAB
  0
TABLE
  2
UCS
  5
6EA
330
0
100
AcDbSymbolTable
 70
     0
  0
ENDTAB
  0
TABLE
  2
APPID
  5
6EC
330
0
100
AcDbSymbolTable
 70
     5
  0
APPID
  5
6F3
330
6EC
100
AcDbSymbolTableRecord
100
AcDbRegAppTableRecord
  2
ACAD
 70
     0
  0
APPID
  5
7AF
330
6EC
100
AcDbSymbolTableRecord
100
AcDbRegAppTableRecord
  2
ACAD_MLEADERVER
 70
     0
  0
APPID
  5
7C4
330
6EC
100
AcDbSymbolTableRecord
100
AcDbRegAppTableRecord
  2
ACAD_PSEXT
 70
     0
  0
APPID
  5
7C5
330
6EC
100
AcDbSymbolTableRecord
100
AcDbRegAppTableRecord
  2
ACAD_NAV_VCDISPLAY
 70
     0
  0
APPID
  5
7C6
330
6EC
100
AcDbSymbolTableRecord
100
AcDbRegAppTableRecord
  2
YKK_AP_LOCKLAYER
 70
     0
  0
ENDTAB
  0
TABLE
  2
DIMSTYLE
  5
6ED
330
0
100
AcDbSymbolTable
 70
     1
100
AcDbDimStyleTable
 71
     0
  0
DIMSTYLE
105
706
330
6ED
100
AcDbSymbolTableRecord
100
AcDbDimStyleTableRecord
  2
STANDARD
 70
     0
279
     2
340
6F2
  0
ENDTAB
  0
TABLE
  2
BLOCK_RECORD
  5
6E4
330
0
100
AcDbSymbolTable
 70
     0
  0
BLOCK_RECORD
  5
6FA
330
6E4
100
AcDbSymbolTableRecord
100
AcDbBlockTableRecord
  2
*MODEL_SPACE
340
776
  0
BLOCK_RECORD
  5
6F7
330
6E4
100
AcDbSymbolTableRecord
100
AcDbBlockTableRecord
  2
*PAPER_SPACE
340
777
  0
ENDTAB
  0
ENDSEC
  0
SECTION
  2
BLOCKS
  0
BLOCK
  5
716
330
6FA
100
AcDbEntity
  8
0
100
AcDbBlockBegin
  2
*MODEL_SPACE
 70
     0
 10
0.0
 20
0.0
 30
0.0
  3
*MODEL_SPACE
  1

  0
ENDBLK
  5
717
330
6FA
100
AcDbEntity
  8
0
100
AcDbBlockEnd
  0
BLOCK
  5
714
330
6F7
100
AcDbEntity
 67
     1
  8
0
100
AcDbBlockBegin
  2
*PAPER_SPACE
 70
     0
 10
0.0
 20
0.0
 30
0.0
  3
*PAPER_SPACE
  1

  0
ENDBLK
  5
715
330
6F7
100
AcDbEntity
 67
     1
  8
0
100
AcDbBlockEnd
  0
ENDSEC
  0
SECTION
  2
ENTITIES
  0
LINE
  5
22
330
6FA
100
AcDbEntity
  8
YKK_W1
100
AcDbLine
 10
422.48316783
 20
310.55004052
 30
0.0
 11
408.98316783
 21
310.55004052
 31
0.0
  0
LINE
  5
24
330
6FA
100
AcDbEntity
  8
YKK_W1
100
AcDbLine
 10
409.08316783
 20
312.15004052
 30
0.0
 11
422.58316783
 21
312.15004052
 31
0.0
  0
LINE
  5
25
330
6FA
100
AcDbEntity
  8
YKK_W1
100
AcDbLine
 10
411.38316783
 20
335.85004052
 30
0.0
 11
424.08316783
 21
335.85004052
 31
0.0
  0
TEXT
  5
26
330
6FA
100
AcDbEntity
  8
YKK_D
100
AcDbText
 10
412.60150713
 20
291.45004711
 30
0.0
 40
4.35000038
  1
１５
 41
0.76628346
100
AcDbText
  0
LINE
  5
27
330
6FA
100
AcDbEntity
  8
YKK_D
100
AcDbLine
 10
424.08317385
 20
290.55005322
 30
0.0
 11
409.08317385
 21
290.55005322
 31
0.0
  0
LINE
  5
28
330
6FA
100
AcDbEntity
  8
YKK_W1
100
AcDbLine
 10
422.48316783
 20
284.15004052
 30
0.0
 11
409.08316783
 21
284.15004052
 31
0.0
  0
LINE
  5
29
330
6FA
100
AcDbEntity
  8
YKK_W1
100
AcDbLine
 10
421.98316783
 20
282.55004052
 30
0.0
 11
409.08316783
 21
282.55004052
 31
0.0
  0
LINE
  5
2A
330
6FA
100
AcDbEntity
  8
YKK_W1
100
AcDbLine
 10
422.58316783
 20
284.15004052
 30
0.0
 11
394.08316783
 21
284.15004052
 31
0.0
  0
LINE
  5
2B
330
6FA
100
AcDbEntity
  8
YKK_W1
100
AcDbLine
 10
394.08316783
 20
285.75004052
 30
0.0
 11
422.48316783
 21
285.75004052
 31
0.0
  0
LINE
  5
2C
330
6FA
100
AcDbEntity
  8
YKK_W1
100
AcDbLine
 10
409.08316783
 20
339.35004052
 30
0.0
 11
463.33316783
 21
339.35004052
 31
0.0
  0
LINE
  5
2D
330
6FA
100
AcDbEntity
  8
YKK_W1
 62
   253
100
AcDbLine
 10
410.98316783
 20
329.35004052
 30
0.0
 11
463.33316783
 21
329.35004052
 31
0.0
  0
LINE
  5
2E
330
6FA
100
AcDbEntity
  8
YKK_W1
100
AcDbLine
 10
463.33316783
 20
338.15004052
 30
0.0
 11
409.08316783
 21
338.15004052
 31
0.0
  0
LINE
  5
2F
330
6FA
100
AcDbEntity
  8
YKK_W3
100
AcDbLine
 10
409.08316783
 20
342.55004052
 30
0.0
 11
463.33316783
 21
342.55004052
 31
0.0
  0
LINE
  5
31
330
6FA
100
AcDbEntity
  8
YKK_D
100
AcDbLine
 10
549.08317385
 20
384.1500288
 30
0.0
 11
409.08317385
 21
384.1500288
 31
0.0
  0
LINE
  5
32
330
6FA
100
AcDbEntity
  8
YKK_D
100
AcDbLine
 10
409.08317385
 20
404.1500288
 30
0.0
 11
689.08317385
 21
404.1500288
 31
0.0
  0
LINE
  5
33
330
6FA
100
AcDbEntity
  8
YKK_D
100
AcDbLine
 10
424.08317385
 20
207.55003796
 30
0.0
 11
409.08317385
 21
207.55003796
 31
0.0
  0
TEXT
  5
34
330
6FA
100
AcDbEntity
  8
YKK_D
100
AcDbText
 10
412.60150713
 20
208.45003185
 30
0.0
 40
4.35000038
  1
１５
 41
0.76628346
100
AcDbText
  0
LINE
  5
35
330
6FA
100
AcDbEntity
  8
YKK_D
100
AcDbLine
 10
413.08317385
 20
184.90828666
 30
0.0
 11
685.08317385
 21
184.90828666
 31
0.0
  0
LINE
  5
36
330
6FA
100
AcDbEntity
  8
YKK_D
100
AcDbLine
 10
409.08320437
 20
71.40827903
 30
0.0
 11
424.08320437
 21
71.40827903
 31
0.0
  0
LINE
  5
37
330
6FA
100
AcDbEntity
  8
YKK_D
100
AcDbLine
 10
394.08317385
 20
51.40827903
 30
0.0
 11
424.08317385
 21
51.40827903
 31
0.0
  0
TEXT
  5
38
330
6FA
100
AcDbEntity
  8
YKK_D
100
AcDbText
 10
412.60153764
 20
72.30828056
 30
0.0
 40
4.35000038
  1
１５
 41
0.76628346
100
AcDbText
  0
LINE
  5
39
330
6FA
100
AcDbEntity
  8
YKK_W3
100
AcDbLine
 10
413.08316783
 20
149.80828139
 30
0.0
 11
547.58316783
 21
149.80828139
 31
0.0
  0
LINE
  5
3A
330
6FA
100
AcDbEntity
  8
YKK_W1
100
AcDbLine
 10
414.48316783
 20
123.60828139
 30
0.0
 11
547.58316783
 21
123.60828139
 31
0.0
  0
LINE
  5
3B
330
6FA
100
AcDbEntity
  8
YKK_W1
100
AcDbLine
 10
414.78316783
 20
124.80828139
 30
0.0
 11
547.58316783
 21
124.80828139
 31
0.0
  0
LINE
  5
3C
330
6FA
100
AcDbEntity
  8
YKK_W1
100
AcDbLine
 10
414.68316783
 20
147.40828139
 30
0.0
 11
547.58316783
 21
147.40828139
 31
0.0
  0
LINE
  5
3D
330
6FA
100
AcDbEntity
  8
YKK_W1
100
AcDbLine
 10
547.58316783
 20
146.20828139
 30
0.0
 11
414.48316783
 21
146.20828139
 31
0.0
  0
LINE
  5
3E
330
6FA
100
AcDbEntity
  8
YKK_W1
100
AcDbLine
 10
422.48316783
 20
119.40828139
 30
0.0
 11
409.08316783
 21
119.40828139
 31
0.0
  0
LINE
  5
3F
330
6FA
100
AcDbEntity
  8
YKK_W1
100
AcDbLine
 10
394.08316783
 20
91.40828139
 30
0.0
 11
422.48316783
 21
91.40828139
 31
0.0
  0
LINE
  5
40
330
6FA
100
AcDbEntity
  8
YKK_W1
100
AcDbLine
 10
422.48316783
 20
93.00828139
 30
0.0
 11
394.08316783
 21
93.00828139
 31
0.0
  0
LINE
  5
41
330
6FA
100
AcDbEntity
  8
YKK_W1
100
AcDbLine
 10
409.08316783
 20
117.80828139
 30
0.0
 11
422.48316783
 21
117.80828139
 31
0.0
  0
LINE
  5
42
330
6FA
100
AcDbEntity
  8
YKK_W1
100
AcDbLine
 10
414.68316783
 20
122.40828139
 30
0.0
 11
423.08316783
 21
122.40828139
 31
0.0
  0
TEXT
  5
43
330
6FA
100
AcDbEntity
  8
USER1
 62
     3
100
AcDbText
 10
416.63607293
 20
1.97385288
 30
0.0
 40
5.6
  1
2PTNAA/UMR/UML
 72
     1
 11
454.9027396
 21
4.77385288
 31
0.0
100
AcDbText
 73
     2
  0
TEXT
  5
45
330
6FA
100
AcDbEntity
  8
USER1
 62
     3
100
AcDbText
 10
416.2627396
 20
9.8007
 30
0.0
 40
5.6
  1
上段Ｍ/Ｂ付点検口片開き
 72
     1
 11
454.9027396
 21
12.6007
 31
0.0
100
AcDbText
 73
     2
  0
LINE
  5
46
330
6FA
100
AcDbEntity
  8
YKK_ZWAK
  6
Continuous
 62
   254
100
AcDbLine
 10
770.0000182
 20
561.400014
 30
0.0
 11
0.0
 21
561.400014
 31
0.0
  0
LINE
  5
48
330
6FA
100
AcDbEntity
  8
YKK_ZWAK
  6
Continuous
 62
   254
100
AcDbLine
 10
732.2000168
 20
35.0000014
 30
0.0
 11
0.0
 21
35.0000014
 31
0.0
  0
LINE
  5
49
330
6FA
100
AcDbEntity
  8
YKK_ZWAK
  6
Continuous
 62
   254
100
AcDbLine
 10
770.0000182
 20
36.4000014
 30
0.0
 11
0.0
 21
36.4000014
 31
0.0
  0
LINE
  5
4A
330
6FA
100
AcDbEntity
  8
YKK_ZWAK
  6
Continuous
 62
   254
100
AcDbLine
 10
0.0
 20
0.0
 30
0.0
 11
732.2000168
 21
0.0
 31
0.0
  0
LINE
  5
4B
330
6FA
100
AcDbEntity
  8
YKK_ZWAK
  6
Continuous
 62
   131
100
AcDbLine
 10
386.4000084
 20
16.8007014
 30
0.0
 11
515.2000126
 21
16.8007014
 31
0.0
  0
LINE
  5
4C
330
6FA
100
AcDbEntity
  8
YKK_D
100
AcDbLine
 10
409.08317385
 20
304.0339819
 30
0.0
 11
409.08317385
 21
290.05005322
 31
0.0
  0
LINE
  5
4D
330
6FA
100
AcDbEntity
  8
YKK_W2
  6
HASENP
100
AcDbLine
 10
385.68316783
 20
329.14808195
 30
0.0
 11
397.58316783
 21
285.75004052
 31
0.0
  0
LINE
  5
50
330
6FA
100
AcDbEntity
  8
YKK_W2
  6
HASENP
100
AcDbLine
 10
399.80128995
 20
286.35826274
 30
0.0
 11
387.90128995
 21
329.75630417
 31
0.0
  0
LINE
  5
51
330
6FA
100
AcDbEntity
  8
YKK_D
100
AcDbLine
 10
282.99375674
 20
479.42620994
 30
0.0
 11
282.99375674
 21
116.16569664
 31
0.0
  0
LINE
  5
52
330
6FA
100
AcDbEntity
  8
YKK_D
100
AcDbLine
 10
66.19376894
 20
336.42620994
 30
0.0
 11
66.19376894
 21
106.16569664
 31
0.0
  0
LINE
  5
53
330
6FA
100
AcDbEntity
  8
YKK_H1
100
AcDbLine
 10
130.19377102
 20
334.82620748
 30
0.0
 11
130.19377102
 21
156.77474808
 31
0.0
  0
LINE
  5
55
330
6FA
100
AcDbEntity
  8
YKK_H1
100
AcDbLine
 10
131.39377102
 20
156.77474808
 30
0.0
 11
131.39377102
 21
335.02620748
 31
0.0
  0
LINE
  5
56
330
6FA
100
AcDbEntity
  8
YKK_H1
100
AcDbLine
 10
155.19377102
 20
336.42620748
 30
0.0
 11
155.19377102
 21
205.98849869
 31
0.0
  0
LINE
  5
57
330
6FA
100
AcDbEntity
  8
YKK_H1
100
AcDbLine
 10
153.99377102
 20
206.70891553
 30
0.0
 11
153.99377102
 21
336.42620748
 31
0.0
  0
LINE
  5
58
330
6FA
100
AcDbEntity
  8
YKK_H3
100
AcDbLine
 10
126.19377102
 20
519.42620748
 30
0.0
 11
126.19377102
 21
156.77474808
 31
0.0
  0
LINE
  5
5A
330
6FA
100
AcDbEntity
  8
YKK_H3
100
AcDbLine
 10
186.19377102
 20
362.82620748
 30
0.0
 11
186.19377102
 21
156.77474808
 31
0.0
  0
LINE
  5
5B
330
6FA
100
AcDbEntity
  8
YKK_H3
100
AcDbLine
 10
158.19377102
 20
329.42620748
 30
0.0
 11
158.19377102
 21
156.77474808
 31
0.0
  0
TEXT
  5
5C
330
6FA
100
AcDbEntity
  8
YKK_D
100
AcDbText
 10
282.99375673
 20
293.88762778
 30
0.0
 40
10.0
  1
Ｈ
 50
90.0000025
100
AcDbText
  0
LINE
  5
5D
330
6FA
100
AcDbEntity
  8
YKK_ZWAK
  6
Continuous
 62
   254
100
AcDbLine
 10
0.0
 20
36.4000014
 30
0.0
 11
0.0
 21
561.400014
 31
0.0
  0
TEXT
  5
5E
330
6FA
100
AcDbEntity
  8
YKK_D
100
AcDbText
 10
154.71210222
 20
137.06569053
 30
0.0
 40
4.35000038
  1
３
 41
0.76628346
100
AcDbText
  0
LINE
  5
67
330
6FA
100
AcDbEntity
  8
YKK_D
100
AcDbLine
 10
155.19376894
 20
136.16569664
 30
0.0
 11
158.19376894
 21
136.16569664
 31
0.0
  0
LINE
  5
68
330
6FA
100
AcDbEntity
  8
YKK_D
100
AcDbLine
 10
126.19376894
 20
162.3279586
 30
0.0
 11
186.19376894
 21
162.3279586
 31
0.0
  0
LINE
  5
69
330
6FA
100
AcDbEntity
  8
YKK_H1
100
AcDbLine
 10
158.19377102
 20
101.16569928
 30
0.0
 11
129.39377102
 21
101.16569928
 31
0.0
  0
LINE
  5
6A
330
6FA
100
AcDbEntity
  8
YKK_H1
100
AcDbLine
 10
129.39377102
 20
99.56569928
 30
0.0
 11
158.29377102
 21
99.56569928
 31
0.0
  0
LINE
  5
6B
330
6FA
100
AcDbEntity
  8
YKK_H2
  6
HASENP
100
AcDbLine
 10
139.59572959
 20
77.76569928
 30
0.0
 11
182.99377102
 21
89.66569928
 31
0.0
  0
LINE
  5
6D
330
6FA
100
AcDbEntity
  8
YKK_H2
  6
HASENP
100
AcDbLine
 10
182.3855488
 20
91.8838214
 30
0.0
 11
138.98750737
 21
79.9838214
 31
0.0
  0
LINE
  5
6E
330
6FA
100
AcDbEntity
  8
YKK_ZWAK
  6
HIDDEN
 62
   131
100
AcDbLine
 10
4.59865
 20
27.4876014
 30
0.0
 11
252.7910056
 21
27.4876014
 31
0.0
  0
LINE
  5
70
330
6FA
100
AcDbEntity
  8
YKK_ZWAK
  6
HIDDEN
 62
   131
100
AcDbLine
 10
4.59865
 20
20.5590014
 30
0.0
 11
252.7910056
 21
20.5590014
 31
0.0
  0
LINE
  5
71
330
6FA
100
AcDbEntity
  8
YKK_ZWAK
  6
HIDDEN
 62
   131
100
AcDbLine
 10
4.59865
 20
13.6304
 30
0.0
 11
252.7910056
 21
13.6304
 31
0.0
  0
LINE
  5
72
330
6FA
100
AcDbEntity
  8
YKK_ZWAK
  6
HIDDEN
 62
   131
100
AcDbLine
 10
4.59865
 20
6.7018
 30
0.0
 11
252.7910056
 21
6.7018
 31
0.0
  0
LINE
  5
73
330
6FA
100
AcDbEntity
  8
YKK_H1
100
AcDbLine
 10
130.19377102
 20
107.76569928
 30
0.0
 11
130.19377102
 21
153.4669718
 31
0.0
  0
LINE
  5
74
330
6FA
100
AcDbEntity
  8
YKK_H1
100
AcDbLine
 10
131.39377102
 20
153.4669718
 30
0.0
 11
131.39377102
 21
107.56569928
 31
0.0
  0
LINE
  5
75
330
6FA
100
AcDbEntity
  8
YKK_H1
100
AcDbLine
 10
153.99377102
 20
153.4669718
 30
0.0
 11
153.99377102
 21
106.16569928
 31
0.0
  0
LINE
  5
76
330
6FA
100
AcDbEntity
  8
YKK_H1
100
AcDbLine
 10
155.19377102
 20
106.16569928
 30
0.0
 11
155.19377102
 21
153.4669718
 31
0.0
  0
LINE
  5
77
330
6FA
100
AcDbEntity
  8
YKK_H1
100
AcDbLine
 10
152.79377102
 20
117.36569928
 30
0.0
 11
152.79377102
 21
107.56569928
 31
0.0
  0
LINE
  5
78
330
6FA
100
AcDbEntity
  8
YKK_H3
100
AcDbLine
 10
126.19377102
 20
76.16569928
 30
0.0
 11
126.19377102
 21
153.4669718
 31
0.0
  0
TEXT
  5
79
330
6FA
100
AcDbEntity
  8
YKK_ZWAK
  6
Continuous
 62
   131
100
AcDbText
 10
4.714472
 20
28.5534816
 30
0.0
 40
4.2
  1
変 更 記 事
 41
0.9
  7
YKK_OSSTYLE1
100
AcDbText
  0
LINE
  5
7B
330
6FA
100
AcDbEntity
  8
YKK_ZWAK
  6
Continuous
 62
   254
100
AcDbLine
 10
0.0
 20
0.0
 30
0.0
 11
0.0
 21
35.0000014
 31
0.0
  0
LINE
  5
7C
330
6FA
100
AcDbEntity
  8
YKK_D
100
AcDbLine
 10
121.1937718
 20
106.16569664
 30
0.0
 11
65.69376894
 21
106.16569664
 31
0.0
  0
LINE
  5
7D
330
6FA
100
AcDbEntity
  8
YKK_D
100
AcDbLine
 10
121.1937718
 20
76.16569664
 30
0.0
 11
65.69376894
 21
76.16569664
 31
0.0
  0
LINE
  5
7E
330
6FA
100
AcDbEntity
  8
YKK_D
100
AcDbLine
 10
121.1937718
 20
101.16569664
 30
0.0
 11
65.69376894
 21
101.16569664
 31
0.0
  0
LINE
  5
7F
330
6FA
100
AcDbEntity
  8
YKK_D
100
AcDbLine
 10
66.19376894
 20
101.16569664
 30
0.0
 11
66.19376894
 21
76.16569664
 31
0.0
  0
TEXT
  5
80
330
6FA
100
AcDbEntity
  8
YKK_D
100
AcDbText
 10
65.29376742
 20
84.68402991
 30
0.0
 40
4.35000038
  1
２５
 50
90.0000025
 41
0.76628346
100
AcDbText
  0
TEXT
  5
85
330
6FA
100
AcDbEntity
  8
YKK_D
100
AcDbText
 10
65.29376742
 20
101.68402991
 30
0.0
 40
4.35000038
  1
５
 50
90.0000025
 41
0.76628346
100
AcDbText
  0
LINE
  5
96
330
6FA
100
AcDbEntity
  8
YKK_D
100
AcDbLine
 10
66.19376894
 20
106.16569664
 30
0.0
 11
66.19376894
 21
101.16569664
 31
0.0
  0
LINE
  5
97
330
6FA
100
AcDbEntity
  8
YKK_D
100
AcDbLine
 10
126.19376894
 20
71.16569807
 30
0.0
 11
126.19376894
 21
55.66570045
 31
0.0
  0
LINE
  5
98
330
6FA
100
AcDbEntity
  8
YKK_D
100
AcDbLine
 10
127.79377505
 20
71.16570188
 30
0.0
 11
127.79377505
 21
55.66570045
 31
0.0
  0
LINE
  5
99
330
6FA
100
AcDbEntity
  8
YKK_D
100
AcDbLine
 10
127.79377505
 20
71.16570188
 30
0.0
 11
127.79377505
 21
55.66570045
 31
0.0
  0
LINE
  5
9A
330
6FA
100
AcDbEntity
  8
YKK_D
100
AcDbLine
 10
146.19376894
 20
71.16569807
 30
0.0
 11
146.19376894
 21
55.66570045
 31
0.0
  0
LINE
  5
9B
330
6FA
100
AcDbEntity
  8
YKK_D
100
AcDbLine
 10
111.29376837
 20
56.16570045
 30
0.0
 11
127.79377505
 21
56.16570045
 31
0.0
  0
TEXT
  5
9C
330
6FA
100
AcDbEntity
  8
YKK_D
100
AcDbText
 10
110.98209123
 20
57.06570198
 30
0.0
 40
4.35000038
  1
１．６
 41
0.76628346
100
AcDbText
  0
LINE
  5
9D
330
6FA
100
AcDbEntity
  8
YKK_D
100
AcDbLine
 10
127.79377505
 20
56.16570045
 30
0.0
 11
146.19376894
 21
56.16570045
 31
0.0
  0
TEXT
  5
9E
330
6FA
100
AcDbEntity
  8
YKK_D
100
AcDbText
 10
129.01210527
 20
57.06570198
 30
0.0
 40
4.35000038
  1
１８．４
 41
0.76628346
100
AcDbText
  0
LINE
  5
AF
330
6FA
100
AcDbEntity
  8
YKK_H1
100
AcDbLine
 10
127.79377102
 20
99.56569928
 30
0.0
 11
127.79377102
 21
77.76569928
 31
0.0
  0
LINE
  5
B0
330
6FA
100
AcDbEntity
  8
YKK_H1
100
AcDbLine
 10
129.39377102
 20
77.76569928
 30
0.0
 11
129.39377102
 21
99.56569928
 31
0.0
  0
LINE
  5
B1
330
6FA
100
AcDbEntity
  8
YKK_H1
100
AcDbLine
 10
129.39377102
 20
76.16569928
 30
0.0
 11
146.19377102
 21
76.16569928
 31
0.0
  0
LINE
  5
B2
330
6FA
100
AcDbEntity
  8
YKK_H1
100
AcDbLine
 10
146.19377102
 20
77.76569928
 30
0.0
 11
129.39377102
 21
77.76569928
 31
0.0
  0
ARC
  5
B3
330
6FA
100
AcDbEntity
  8
YKK_H1
100
AcDbCircle
 10
129.39377102
 20
77.76569928
 30
0.0
 40
1.599999999999909
100
AcDbArc
 50
180.0
 51
270.0
  0
LINE
  5
B4
330
6FA
100
AcDbEntity
  8
YKK_H3
100
AcDbLine
 10
129.29377102
 20
76.16569928
 30
0.0
 11
126.19377102
 21
76.16569928
 31
0.0
  0
LINE
  5
B5
330
6FA
100
AcDbEntity
  8
YKK_H1
100
AcDbLine
 10
146.19377102
 20
76.16569928
 30
0.0
 11
146.19377102
 21
77.76569928
 31
0.0
  0
LINE
  5
B6
330
6FA
100
AcDbEntity
  8
YKK_H2
  6
HASENP
100
AcDbLine
 10
139.59572959
 20
77.76569928
 30
0.0
 11
138.98750737
 21
79.9838214
 31
0.0
  0
LINE
  5
B7
330
6FA
100
AcDbEntity
  8
YKK_H1
100
AcDbLine
 10
131.59377102
 20
107.36569928
 30
0.0
 11
152.59377102
 21
107.36569928
 31
0.0
  0
LINE
  5
B8
330
6FA
100
AcDbEntity
  8
YKK_H1
100
AcDbLine
 10
131.79377102
 20
106.16569928
 30
0.0
 11
152.39377102
 21
106.16569928
 31
0.0
  0
ARC
  5
B9
330
6FA
100
AcDbEntity
  8
YKK_H1
100
AcDbCircle
 10
129.39377102
 20
99.56569928
 30
0.0
 40
1.599999999999965
100
AcDbArc
 50
90.0
 51
180.0
  0
ARC
  5
BA
330
6FA
100
AcDbEntity
  8
YKK_H1
100
AcDbCircle
 10
131.79377102
 20
107.76569928
 30
0.0
 40
1.6
100
AcDbArc
 50
180.0
 51
270.0
  0
ARC
  5
BB
330
6FA
100
AcDbEntity
  8
YKK_H1
100
AcDbCircle
 10
131.59377102
 20
107.56569928
 30
0.0
 40
0.2
100
AcDbArc
 50
180.0
 51
270.0
  0
LINE
  5
BC
330
6FA
100
AcDbEntity
  8
YKK_H1
100
AcDbLine
 10
153.99377102
 20
106.16569928
 30
0.0
 11
155.19377102
 21
106.16569928
 31
0.0
  0
ARC
  5
BD
330
6FA
100
AcDbEntity
  8
YKK_H1
100
AcDbCircle
 10
152.59377102
 20
107.56569928
 30
0.0
 40
0.2
100
AcDbArc
 50
270.0
 51
0.0
  0
ARC
  5
BE
330
6FA
100
AcDbEntity
  8
YKK_H1
100
AcDbCircle
 10
152.39377102
 20
107.76569928
 30
0.0
 40
1.6
100
AcDbArc
 50
270.0
 51
0.0
  0
LINE
  5
BF
330
6FA
100
AcDbEntity
  8
YKK_H1
100
AcDbLine
 10
154.89377102
 20
184.90891553
 30
0.0
 11
154.89377102
 21
205.50891553
 31
0.0
  0
LINE
  5
C0
330
6FA
100
AcDbEntity
  8
YKK_H1
100
AcDbLine
 10
153.69377102
 20
205.50891553
 30
0.0
 11
153.69377102
 21
184.90891553
 31
0.0
  0
LINE
  5
C1
330
6FA
100
AcDbEntity
  8
YKK_H1
100
AcDbLine
 10
153.99377102
 20
156.77474808
 30
0.0
 11
153.99377102
 21
183.70891553
 31
0.0
  0
LINE
  5
C2
330
6FA
100
AcDbEntity
  8
YKK_H1
100
AcDbLine
 10
155.19377102
 20
184.42933238
 30
0.0
 11
155.19377102
 21
156.77474808
 31
0.0
  0
LINE
  5
C3
330
6FA
100
AcDbEntity
  8
YKK_H1
100
AcDbLine
 10
153.99377102
 20
117.36569928
 30
0.0
 11
152.79377102
 21
117.36569928
 31
0.0
  0
LINE
  5
C4
330
6FA
100
AcDbEntity
  8
YKK_D
100
AcDbLine
 10
130.19376894
 20
136.16569664
 30
0.0
 11
155.19376894
 21
136.16569664
 31
0.0
  0
TEXT
  5
CD
330
6FA
100
AcDbEntity
  8
YKK_D
100
AcDbText
 10
126.21210222
 20
137.06569053
 30
0.0
 40
4.35000038
  1
４
 41
0.76628346
100
AcDbText
  0
LINE
  5
CE
330
6FA
100
AcDbEntity
  8
YKK_D
100
AcDbLine
 10
126.19376894
 20
136.16569664
 30
0.0
 11
130.19376894
 21
136.16569664
 31
0.0
  0
TEXT
  5
D3
330
6FA
100
AcDbEntity
  8
YKK_D
100
AcDbText
 10
138.71210222
 20
137.06569053
 30
0.0
 40
4.35000038
  1
２５
 41
0.76628346
100
AcDbText
  0
LINE
  5
D4
330
6FA
100
AcDbEntity
  8
YKK_H1
100
AcDbLine
 10
131.39377102
 20
183.70891553
 30
0.0
 11
131.39377102
 21
173.70891553
 31
0.0
  0
LINE
  5
D5
330
6FA
100
AcDbEntity
  8
YKK_H1
100
AcDbLine
 10
132.59377102
 20
173.70891553
 30
0.0
 11
132.59377102
 21
183.70891553
 31
0.0
  0
LINE
  5
DA
330
6FA
100
AcDbEntity
  8
YKK_H1
100
AcDbLine
 10
131.39377102
 20
173.70891553
 30
0.0
 11
132.59377102
 21
173.70891553
 31
0.0
  0
LINE
  5
DB
330
6FA
100
AcDbEntity
  8
YKK_H1
100
AcDbLine
 10
153.69377102
 20
184.90891553
 30
0.0
 11
132.59377102
 21
184.90891553
 31
0.0
  0
LINE
  5
DC
330
6FA
100
AcDbEntity
  8
YKK_H1
100
AcDbLine
 10
132.59377102
 20
183.70891553
 30
0.0
 11
153.69377102
 21
183.70891553
 31
0.0
  0
ARC
  5
DD
330
6FA
100
AcDbEntity
  8
YKK_H1
100
AcDbCircle
 10
132.59377102
 20
183.70891553
 30
0.0
 40
1.199999999999989
100
AcDbArc
 50
90.0
 51
180.0
  0
ARC
  5
DE
330
6FA
100
AcDbEntity
  8
YKK_H1
100
AcDbCircle
 10
153.69377102
 20
184.90891553
 30
0.0
 40
1.199999999999989
100
AcDbArc
 50
270.0
 51
0.0
  0
TEXT
  5
DF
330
6FA
100
AcDbEntity
  8
YKK_D
100
AcDbText
 10
66.19376894
 20
211.33262747
 30
0.0
 40
10.0
  1
ＤＨ
 50
90.0000025
100
AcDbText
  0
LINE
  5
E0
330
6FA
100
AcDbEntity
  8
YKK_H1
100
AcDbLine
 10
153.69377102
 20
206.70891553
 30
0.0
 11
132.59377102
 21
206.70891553
 31
0.0
  0
LINE
  5
E1
330
6FA
100
AcDbEntity
  8
YKK_H1
100
AcDbLine
 10
132.59377102
 20
205.50891553
 30
0.0
 11
153.69377102
 21
205.50891553
 31
0.0
  0
LINE
  5
E2
330
6FA
100
AcDbEntity
  8
YKK_H1
100
AcDbLine
 10
132.59377102
 20
206.70891553
 30
0.0
 11
132.59377102
 21
216.70891553
 31
0.0
  0
LINE
  5
E3
330
6FA
100
AcDbEntity
  8
YKK_H1
100
AcDbLine
 10
131.39377102
 20
216.70891553
 30
0.0
 11
131.39377102
 21
206.70891553
 31
0.0
  0
ARC
  5
E4
330
6FA
100
AcDbEntity
  8
YKK_H1
100
AcDbCircle
 10
132.59377102
 20
206.70891553
 30
0.0
 40
1.200000000000044
100
AcDbArc
 50
180.0
 51
270.0
  0
LINE
  5
E5
330
6FA
100
AcDbEntity
  8
YKK_H1
100
AcDbLine
 10
132.59377102
 20
216.70891553
 30
0.0
 11
131.39377102
 21
216.70891553
 31
0.0
  0
ARC
  5
E6
330
6FA
100
AcDbEntity
  8
YKK_H1
100
AcDbCircle
 10
153.69377102
 20
205.50891553
 30
0.0
 40
1.200000000000044
100
AcDbArc
 50
0.0
 51
90.0
  0
LINE
  5
E7
330
6FA
100
AcDbEntity
  8
YKK_W2
  6
HASENP
100
AcDbLine
 10
399.80128995
 20
93.61650362
 30
0.0
 11
387.90128995
 21
137.01454505
 31
0.0
  0
LINE
  5
E8
330
6FA
100
AcDbEntity
  8
YKK_W2
  6
HASENP
100
AcDbLine
 10
385.68316783
 20
136.40632283
 30
0.0
 11
397.58316783
 21
93.00828139
 31
0.0
  0
LINE
  5
E9
330
6FA
100
AcDbEntity
  8
YKK_D
100
AcDbLine
 10
282.99375674
 20
86.16569664
 30
0.0
 11
282.99375674
 21
116.16569664
 31
0.0
  0
LINE
  5
EA
330
6FA
100
AcDbEntity
  8
YKK_D
100
AcDbLine
 10
262.99375674
 20
116.16567375
 30
0.0
 11
262.99375674
 21
101.16568138
 31
0.0
  0
LINE
  5
EB
330
6FA
100
AcDbEntity
  8
YKK_H1
100
AcDbLine
 10
158.19377102
 20
114.56569928
 30
0.0
 11
158.19377102
 21
101.16569928
 31
0.0
  0
LINE
  5
EC
330
6FA
100
AcDbEntity
  8
YKK_H1
100
AcDbLine
 10
159.79377102
 20
101.06569928
 30
0.0
 11
159.79377102
 21
114.56569928
 31
0.0
  0
LINE
  5
ED
330
6FA
100
AcDbEntity
  8
YKK_H1
100
AcDbLine
 10
182.99377102
 20
114.56569928
 30
0.0
 11
182.99377102
 21
86.16569928
 31
0.0
  0
LINE
  5
EE
330
6FA
100
AcDbEntity
  8
YKK_H1
100
AcDbLine
 10
184.59377102
 20
86.16569928
 30
0.0
 11
184.59377102
 21
114.56569928
 31
0.0
  0
LINE
  5
EF
330
6FA
100
AcDbEntity
  8
YKK_H3
100
AcDbLine
 10
186.19377102
 20
86.16569928
 30
0.0
 11
186.19377102
 21
153.4669718
 31
0.0
  0
LINE
  5
F0
330
6FA
100
AcDbEntity
  8
YKK_ZWAK
  6
Continuous
 62
   131
100
AcDbLine
 10
257.6000056
 20
16.8007014
 30
0.0
 11
386.4000084
 21
16.8007014
 31
0.0
  0
LINE
  5
F1
330
6FA
100
AcDbEntity
  8
YKK_ZWAK
  6
Continuous
 62
   254
100
AcDbLine
 10
257.6000056
 20
35.0000014
 30
0.0
 11
257.6000056
 21
0.0
 31
0.0
  0
TEXT
  5
F2
330
6FA
100
AcDbEntity
  8
YKK_ZWAK
  6
Continuous
 62
   131
100
AcDbText
 10
261.3692676
 20
12.1457014
 30
0.0
 40
4.2
  1
施　　工
 41
0.9
  7
YKK_OSSTYLE1
100
AcDbText
  0
LINE
  5
F3
330
6FA
100
AcDbEntity
  8
YKK_D
100
AcDbLine
 10
191.19377085
 20
86.16569664
 30
0.0
 11
283.49375674
 21
86.16569664
 31
0.0
  0
LINE
  5
F4
330
6FA
100
AcDbEntity
  8
YKK_D
100
AcDbLine
 10
191.40665957
 20
101.1656918
 30
0.0
 11
263.49375674
 21
101.16568138
 31
0.0
  0
LINE
  5
F5
330
6FA
100
AcDbEntity
  8
YKK_D
100
AcDbLine
 10
186.19376894
 20
83.16569926
 30
0.0
 11
186.19376894
 21
55.66570045
 31
0.0
  0
LINE
  5
F6
330
6FA
100
AcDbEntity
  8
YKK_D
100
AcDbLine
 10
184.5937781
 20
83.16569926
 30
0.0
 11
184.5937781
 21
55.66570045
 31
0.0
  0
LINE
  5
F7
330
6FA
100
AcDbEntity
  8
YKK_D
100
AcDbLine
 10
201.09376951
 20
56.16570045
 30
0.0
 11
184.5937781
 21
56.16570045
 31
0.0
  0
TEXT
  5
100
330
6FA
100
AcDbEntity
  8
YKK_D
100
AcDbText
 10
188.81210832
 20
57.06570198
 30
0.0
 40
4.35000038
  1
１．６
 41
0.76628346
100
AcDbText
  0
LINE
  5
101
330
6FA
100
AcDbEntity
  8
YKK_H3
100
AcDbLine
 10
186.19377102
 20
86.16569928
 30
0.0
 11
184.59377102
 21
86.16569928
 31
0.0
  0
LINE
  5
102
330
6FA
100
AcDbEntity
  8
YKK_H1
100
AcDbLine
 10
182.99377102
 20
86.16569928
 30
0.0
 11
184.59377102
 21
86.16569928
 31
0.0
  0
ARC
  5
103
330
6FA
100
AcDbEntity
  8
YKK_H1
100
AcDbCircle
 10
158.29377102
 20
101.06569928
 30
0.0
 40
1.5
100
AcDbArc
 50
270.0
 51
0.0
  0
LINE
  5
104
330
6FA
100
AcDbEntity
  8
YKK_H2
  6
HASENP
100
AcDbLine
 10
182.99377102
 20
89.66569928
 30
0.0
 11
182.3855488
 21
91.8838214
 31
0.0
  0
TEXT
  5
105
330
6FA
100
AcDbEntity
  8
YKK_ZWAK
  6
Continuous
 62
   131
100
AcDbText
 10
261.3692676
 20
29.4672042
 30
0.0
 40
4.2
  1
設計監理
 41
0.9
  7
YKK_OSSTYLE1
100
AcDbText
  0
TEXT
  5
10E
330
6FA
100
AcDbEntity
  8
YKK_D
100
AcDbText
 10
262.09376284
 20
104.68401465
 30
0.0
 40
4.35000038
  1
１５
 50
90.0000025
 41
0.76628346
100
AcDbText
  0
TEXT
  5
10F
330
6FA
100
AcDbEntity
  8
YKK_D
100
AcDbText
 10
282.09376284
 20
97.18402991
 30
0.0
 40
4.35000038
  1
３０
 50
90.0000025
 41
0.76628346
100
AcDbText
  0
LINE
  5
110
330
6FA
100
AcDbEntity
  8
YKK_ZWAK
  6
Continuous
 62
   254
100
AcDbLine
 10
385.0000084
 20
35.0000014
 30
0.0
 11
385.0000084
 21
0.0
 31
0.0
  0
TEXT
  5
111
330
6FA
100
AcDbEntity
  8
YKK_ZWAK
  6
Continuous
 62
   254
100
AcDbText
 10
376.5182246
 20
4.7222
 30
0.0
 40
7.0
  1
殿
 41
0.9
  7
YKK_OSSTYLE1
100
AcDbText
  0
TEXT
  5
112
330
6FA
100
AcDbEntity
  8
YKK_ZWAK
  6
Continuous
 62
   131
100
AcDbText
 10
388.61729624
 20
11.8517028
 30
0.0
 40
4.2
  1
図面内容
 41
0.9
  7
YKK_OSSTYLE1
100
AcDbText
  0
LINE
  5
113
330
6FA
100
AcDbEntity
  8
YKK_D
100
AcDbLine
 10
394.08317385
 20
86.40828141
 30
0.0
 11
394.08317385
 21
50.90827903
 31
0.0
  0
TEXT
  5
114
330
6FA
100
AcDbEntity
  8
YKK_ZWAK
  6
Continuous
 62
   254
100
AcDbText
 10
376.5182246
 20
22.0437014
 30
0.0
 40
7.0
  1
殿
 41
0.9
  7
YKK_OSSTYLE1
100
AcDbText
  0
TEXT
  5
115
330
6FA
100
AcDbEntity
  8
YKK_ZWAK
  6
Continuous
 62
   131
100
AcDbText
 10
389.0122306
 20
29.4672042
 30
0.0
 40
4.2
  1
工 事 名
 41
0.9
  7
YKK_OSSTYLE1
100
AcDbText
  0
TEXT
  5
11A
330
6FA
100
AcDbEntity
  8
YKK_D
100
AcDbText
 10
405.10150713
 20
52.30828056
 30
0.0
 40
4.35000038
  1
３０
 41
0.76628346
100
AcDbText
  0
LINE
  5
11B
330
6FA
100
AcDbEntity
  8
YKK_D
100
AcDbLine
 10
409.08319465
 20
86.40827903
 30
0.0
 11
409.08320437
 21
70.90827903
 31
0.0
  0
LINE
  5
120
330
6FA
100
AcDbEntity
  8
YKK_W1
100
AcDbLine
 10
394.08316783
 20
93.00828139
 30
0.0
 11
394.08316783
 21
91.40828139
 31
0.0
  0
LINE
  5
121
330
6FA
100
AcDbEntity
  8
YKK_W2
  6
HASENP
100
AcDbLine
 10
397.58316783
 20
93.00828139
 30
0.0
 11
399.80128995
 21
93.61650362
 31
0.0
  0
LINE
  5
122
330
6FA
100
AcDbEntity
  8
YKK_D
100
AcDbLine
 10
191.19377085
 20
116.16569664
 30
0.0
 11
283.49375674
 21
116.16569664
 31
0.0
  0
LINE
  5
123
330
6FA
100
AcDbEntity
  8
YKK_D
100
AcDbLine
 10
191.19377085
 20
116.16569664
 30
0.0
 11
283.49375674
 21
116.16569664
 31
0.0
  0
LINE
  5
124
330
6FA
100
AcDbEntity
  8
YKK_H3
100
AcDbLine
 10
158.19377102
 20
114.56569928
 30
0.0
 11
158.19377102
 21
153.4669718
 31
0.0
  0
LINE
  5
125
330
6FA
100
AcDbEntity
  8
YKK_H1
100
AcDbLine
 10
182.99377102
 20
116.16569928
 30
0.0
 11
159.79377102
 21
116.16569928
 31
0.0
  0
LINE
  5
126
330
6FA
100
AcDbEntity
  8
YKK_H1
100
AcDbLine
 10
159.79377102
 20
114.56569928
 30
0.0
 11
182.99377102
 21
114.56569928
 31
0.0
  0
ARC
  5
127
330
6FA
100
AcDbEntity
  8
YKK_H1
100
AcDbCircle
 10
159.79377102
 20
114.56569928
 30
0.0
 40
1.599999999999965
100
AcDbArc
 50
90.0
 51
180.0
  0
ARC
  5
128
330
6FA
100
AcDbEntity
  8
YKK_H1
100
AcDbCircle
 10
182.99377102
 20
114.56569928
 30
0.0
 40
1.600000000000023
100
AcDbArc
 50
0.0
 51
90.0
  0
TEXT
  5
129
330
6FA
100
AcDbEntity
  8
YKK_D
100
AcDbText
 10
168.21210222
 20
137.06569053
 30
0.0
 40
4.35000038
  1
２８
 41
0.76628346
100
AcDbText
  0
LINE
  5
12A
330
6FA
100
AcDbEntity
  8
YKK_D
100
AcDbLine
 10
158.19376894
 20
136.16569664
 30
0.0
 11
186.19376894
 21
136.16569664
 31
0.0
  0
TEXT
  5
137
330
6FA
100
AcDbEntity
  8
YKK_D
100
AcDbText
 10
161.92996721
 20
163.2279525
 30
0.0
 40
4.35000038
  1
６０
 41
0.76628346
100
AcDbText
  0
LINE
  5
140
330
6FA
100
AcDbEntity
  8
YKK_D
100
AcDbLine
 10
282.99375674
 20
116.1657119
 30
0.0
 11
286.99375674
 21
123.09391929
 31
0.0
  0
LINE
  5
141
330
6FA
100
AcDbEntity
  8
YKK_D
100
AcDbLine
 10
282.99375674
 20
116.1657119
 30
0.0
 11
278.99375674
 21
123.09391929
 31
0.0
  0
LINE
  5
142
330
6FA
100
AcDbEntity
  8
YKK_D
100
AcDbLine
 10
286.99375674
 20
123.09390403
 30
0.0
 11
278.99375674
 21
123.09390403
 31
0.0
  0
CIRCLE
  5
143
330
6FA
100
AcDbEntity
  8
YKK_W4
100
AcDbCircle
 10
411.08316783
 20
159.90828139
 30
0.0
 40
5.0
  0
LINE
  5
145
330
6FA
100
AcDbEntity
  8
YKK_W4
  6
ITTENSAP
100
AcDbLine
 10
411.08316783
 20
121.56945978
 30
0.0
 11
411.08316783
 21
166.90828139
 31
0.0
  0
LINE
  5
147
330
6FA
100
AcDbEntity
  8
YKK_D
100
AcDbLine
 10
384.08317385
 20
156.4082776
 30
0.0
 11
384.08317385
 21
185.40828666
 31
0.0
  0
LINE
  5
148
330
6FA
100
AcDbEntity
  8
YKK_W1
100
AcDbLine
 10
407.48316783
 20
151.40828139
 30
0.0
 11
385.68316783
 21
151.40828139
 31
0.0
  0
LINE
  5
149
330
6FA
100
AcDbEntity
  8
YKK_W1
100
AcDbLine
 10
385.68316783
 20
149.80828139
 30
0.0
 11
407.48316783
 21
149.80828139
 31
0.0
  0
LINE
  5
14A
330
6FA
100
AcDbEntity
  8
YKK_W2
  6
HASENP
100
AcDbLine
 10
385.68316783
 20
136.40632283
 30
0.0
 11
387.90128995
 21
137.01454505
 31
0.0
  0
LINE
  5
14B
330
6FA
100
AcDbEntity
  8
YKK_D
100
AcDbLine
 10
364.08317385
 20
151.40828666
 30
0.0
 11
364.08317385
 21
131.40828666
 31
0.0
  0
LINE
  5
14C
330
6FA
100
AcDbEntity
  8
YKK_W1
100
AcDbLine
 10
384.08316783
 20
149.80828139
 30
0.0
 11
384.08316783
 21
131.40828139
 31
0.0
  0
LINE
  5
14D
330
6FA
100
AcDbEntity
  8
YKK_W1
100
AcDbLine
 10
385.68316783
 20
131.40828139
 30
0.0
 11
385.68316783
 21
149.80828139
 31
0.0
  0
LINE
  5
14E
330
6FA
100
AcDbEntity
  8
YKK_D
100
AcDbLine
 10
379.08316098
 20
131.40828666
 30
0.0
 11
363.58317385
 21
131.40828666
 31
0.0
  0
LINE
  5
153
330
6FA
100
AcDbEntity
  8
YKK_W1
100
AcDbLine
 10
384.08316783
 20
131.40828139
 30
0.0
 11
385.68316783
 21
131.40828139
 31
0.0
  0
LINE
  5
154
330
6FA
100
AcDbEntity
  8
YKK_D
100
AcDbLine
 10
379.08319149
 20
151.40828666
 30
0.0
 11
363.58317385
 21
151.40828666
 31
0.0
  0
TEXT
  5
155
330
6FA
100
AcDbEntity
  8
YKK_D
100
AcDbText
 10
363.18317995
 20
137.42661994
 30
0.0
 40
4.35000038
  1
２０
 50
90.0000025
 41
0.76628346
100
AcDbText
  0
ARC
  5
15A
330
6FA
100
AcDbEntity
  8
YKK_W1
100
AcDbCircle
 10
385.68316783
 20
149.80828139
 30
0.0
 40
1.599999999999994
100
AcDbArc
 50
90.0
 51
180.0
  0
LINE
  5
15B
330
6FA
100
AcDbEntity
  8
YKK_W4
100
AcDbLine
 10
413.08316783
 20
154.71212897
 30
0.0
 11
413.08316783
 21
124.90828139
 31
0.0
  0
LINE
  5
15C
330
6FA
100
AcDbEntity
  8
YKK_W4
100
AcDbLine
 10
409.08316783
 20
154.71212897
 30
0.0
 11
409.08316783
 21
124.90828139
 31
0.0
  0
LINE
  5
15D
330
6FA
100
AcDbEntity
  8
YKK_W1
100
AcDbLine
 10
409.08316783
 20
119.40828139
 30
0.0
 11
409.08316783
 21
149.80828139
 31
0.0
  0
LINE
  5
15E
330
6FA
100
AcDbEntity
  8
YKK_W1
100
AcDbLine
 10
407.48316783
 20
149.80828139
 30
0.0
 11
407.48316783
 21
119.40828139
 31
0.0
  0
LINE
  5
15F
330
6FA
100
AcDbEntity
  8
YKK_W1
100
AcDbLine
 10
414.78316783
 20
146.20828139
 30
0.0
 11
414.78316783
 21
123.60828139
 31
0.0
  0
LINE
  5
160
330
6FA
100
AcDbEntity
  8
YKK_W1
100
AcDbLine
 10
413.08316783
 20
145.80828139
 30
0.0
 11
413.08316783
 21
124.00828139
 31
0.0
  0
LINE
  5
161
330
6FA
100
AcDbEntity
  8
YKK_W1
100
AcDbLine
 10
414.28316783
 20
123.80828139
 30
0.0
 11
414.28316783
 21
146.00828139
 31
0.0
  0
ARC
  5
162
330
6FA
100
AcDbEntity
  8
YKK_W1
100
AcDbCircle
 10
414.68316783
 20
124.00828139
 30
0.0
 40
1.6
100
AcDbArc
 50
180.0
 51
270.0
  0
ARC
  5
163
330
6FA
100
AcDbEntity
  8
YKK_W1
100
AcDbCircle
 10
409.08316783
 20
119.40828139
 30
0.0
 40
1.600000000000023
100
AcDbArc
 50
180.0
 51
270.0
  0
LINE
  5
164
330
6FA
100
AcDbEntity
  8
YKK_W4
100
AcDbLine
 10
409.08316783
 20
124.90828139
 30
0.0
 11
413.08316783
 21
124.90828139
 31
0.0
  0
ARC
  5
165
330
6FA
100
AcDbEntity
  8
YKK_W1
100
AcDbCircle
 10
414.48316783
 20
123.80828139
 30
0.0
 40
0.2
100
AcDbArc
 50
180.0
 51
270.0
  0
ARC
  5
166
330
6FA
100
AcDbEntity
  8
YKK_W1
100
AcDbCircle
 10
414.68316783
 20
145.80828139
 30
0.0
 40
1.6
100
AcDbArc
 50
90.0
 51
180.0
  0
ARC
  5
167
330
6FA
100
AcDbEntity
  8
YKK_W1
100
AcDbCircle
 10
414.48316783
 20
146.00828139
 30
0.0
 40
0.2
100
AcDbArc
 50
90.0
 51
180.0
  0
ARC
  5
168
330
6FA
100
AcDbEntity
  8
YKK_W4
100
AcDbCircle
 10
408.08316783
 20
154.71212897
 30
0.0
 40
1.0
100
AcDbArc
 50
0.0
 51
60.0
  0
ARC
  5
169
330
6FA
100
AcDbEntity
  8
YKK_W1
100
AcDbCircle
 10
407.48316783
 20
149.80828139
 30
0.0
 40
1.599999999999965
100
AcDbArc
 50
0.0
 51
90.0
  0
ARC
  5
16A
330
6FA
100
AcDbEntity
  8
YKK_W4
100
AcDbCircle
 10
414.08316783
 20
154.71212897
 30
0.0
 40
1.0
100
AcDbArc
 50
120.0
 51
180.0
  0
LINE
  5
16B
330
6FA
100
AcDbEntity
  8
YKK_D
100
AcDbLine
 10
384.08317385
 20
184.90828666
 30
0.0
 11
409.08317385
 21
184.90828666
 31
0.0
  0
LINE
  5
170
330
6FA
100
AcDbEntity
  8
YKK_D
100
AcDbLine
 10
409.08317385
 20
168.40827712
 30
0.0
 11
409.08317385
 21
185.40828666
 31
0.0
  0
LINE
  5
171
330
6FA
100
AcDbEntity
  8
YKK_D
100
AcDbLine
 10
413.08317385
 20
168.40827712
 30
0.0
 11
413.08317385
 21
185.40828666
 31
0.0
  0
LINE
  5
172
330
6FA
100
AcDbEntity
  8
YKK_W4
  6
ITTENSAP
100
AcDbLine
 10
404.08316783
 20
159.90828139
 30
0.0
 11
418.08316783
 21
159.90828139
 31
0.0
  0
TEXT
  5
173
330
6FA
100
AcDbEntity
  8
YKK_D
100
AcDbText
 10
392.60150713
 20
185.80828056
 30
0.0
 40
4.35000038
  1
２５
 41
0.76628346
100
AcDbText
  0
TEXT
  5
174
330
6FA
100
AcDbEntity
  8
YKK_D
100
AcDbText
 10
409.10150713
 20
185.80828056
 30
0.0
 40
4.35000038
  1
４
 41
0.76628346
100
AcDbText
  0
LINE
  5
175
330
6FA
100
AcDbEntity
  8
YKK_D
100
AcDbLine
 10
409.08317385
 20
184.90828666
 30
0.0
 11
413.08317385
 21
184.90828666
 31
0.0
  0
LINE
  5
186
330
6FA
100
AcDbEntity
  8
YKK_D
100
AcDbLine
 10
409.08317385
 20
277.55004702
 30
0.0
 11
409.08317385
 21
207.05003796
 31
0.0
  0
LINE
  5
18B
330
6FA
100
AcDbEntity
  8
YKK_W1
100
AcDbLine
 10
394.08316783
 20
284.15004052
 30
0.0
 11
394.08316783
 21
285.75004052
 31
0.0
  0
LINE
  5
18C
330
6FA
100
AcDbEntity
  8
YKK_W2
  6
HASENP
100
AcDbLine
 10
397.58316783
 20
285.75004052
 30
0.0
 11
399.80128995
 21
286.35826274
 31
0.0
  0
LINE
  5
18D
330
6FA
100
AcDbEntity
  8
YKK_W1
100
AcDbLine
 10
409.08316783
 20
282.55004052
 30
0.0
 11
409.08316783
 21
284.15004052
 31
0.0
  0
LINE
  5
192
330
6FA
100
AcDbEntity
  8
YKK_H1
100
AcDbLine
 10
158.19377102
 20
496.02620748
 30
0.0
 11
129.39377102
 21
496.02620748
 31
0.0
  0
LINE
  5
193
330
6FA
100
AcDbEntity
  8
YKK_H1
100
AcDbLine
 10
129.39377102
 20
494.42620748
 30
0.0
 11
158.19377102
 21
494.42620748
 31
0.0
  0
LINE
  5
194
330
6FA
100
AcDbEntity
  8
YKK_H2
  6
HASENP
100
AcDbLine
 10
139.59572959
 20
517.82620748
 30
0.0
 11
182.99377102
 21
505.92620748
 31
0.0
  0
LINE
  5
195
330
6FA
100
AcDbEntity
  8
YKK_H2
  6
HASENP
100
AcDbLine
 10
182.3855488
 20
503.70808536
 30
0.0
 11
138.98750737
 21
515.60808536
 31
0.0
  0
LINE
  5
196
330
6FA
100
AcDbEntity
  8
YKK_H1
 62
   253
100
AcDbLine
 10
132.19377102
 20
479.42620748
 30
0.0
 11
157.39377102
 21
479.42620748
 31
0.0
  0
LINE
  5
197
330
6FA
100
AcDbEntity
  8
YKK_H1
 62
   253
100
AcDbLine
 10
132.19377102
 20
379.42620748
 30
0.0
 11
157.39377102
 21
379.42620748
 31
0.0
  0
LINE
  5
198
330
6FA
100
AcDbEntity
  8
YKK_H1
100
AcDbLine
 10
158.19377102
 20
364.42620748
 30
0.0
 11
129.29377102
 21
364.42620748
 31
0.0
  0
LINE
  5
199
330
6FA
100
AcDbEntity
  8
YKK_H1
100
AcDbLine
 10
129.39377102
 20
362.82620748
 30
0.0
 11
158.29377102
 21
362.82620748
 31
0.0
  0
LINE
  5
19A
330
6FA
100
AcDbEntity
  8
YKK_H1
100
AcDbLine
 10
129.29377102
 20
339.42620748
 30
0.0
 11
158.19377102
 21
339.42620748
 31
0.0
  0
LINE
  5
19B
330
6FA
100
AcDbEntity
  8
YKK_H1
100
AcDbLine
 10
158.29377102
 20
341.02620748
 30
0.0
 11
129.39377102
 21
341.02620748
 31
0.0
  0
LINE
  5
19C
330
6FA
100
AcDbEntity
  8
YKK_H1
100
AcDbLine
 10
130.99377102
 20
493.22620748
 30
0.0
 11
130.99377102
 21
365.62620748
 31
0.0
  0
LINE
  5
19D
330
6FA
100
AcDbEntity
  8
YKK_H1
100
AcDbLine
 10
132.19377102
 20
365.82620748
 30
0.0
 11
132.19377102
 21
493.02620748
 31
0.0
  0
LINE
  5
19E
330
6FA
100
AcDbEntity
  8
YKK_D
100
AcDbLine
 10
106.19376894
 20
439.92865135
 30
0.0
 11
106.19376894
 21
494.42620994
 31
0.0
  0
LINE
  5
19F
330
6FA
100
AcDbEntity
  8
YKK_D
100
AcDbLine
 10
86.19376894
 20
494.42620994
 30
0.0
 11
86.19376894
 21
464.42620994
 31
0.0
  0
LINE
  5
1A0
330
6FA
100
AcDbEntity
  8
YKK_D
100
AcDbLine
 10
66.19376894
 20
494.42620994
 30
0.0
 11
66.19376894
 21
364.42620994
 31
0.0
  0
LINE
  5
1A1
330
6FA
100
AcDbEntity
  8
YKK_ZWAK
  6
Continuous
 62
   254
100
AcDbLine
 10
-2.8
 20
298.9000077
 30
0.0
 11
0.0
 21
298.9000077
 31
0.0
  0
LINE
  5
1A2
330
6FA
100
AcDbEntity
  8
YKK_H1
100
AcDbLine
 10
133.79377102
 20
401.84719451
 30
0.0
 11
133.79377102
 21
388.04719451
 31
0.0
  0
LINE
  5
1A3
330
6FA
100
AcDbEntity
  8
YKK_H1
100
AcDbLine
 10
145.39377102
 20
401.84719451
 30
0.0
 11
145.39377102
 21
388.04719451
 31
0.0
  0
LINE
  5
1A4
330
6FA
100
AcDbEntity
  8
YKK_H1
100
AcDbLine
 10
146.99377102
 20
401.84719451
 30
0.0
 11
146.99377102
 21
388.04719451
 31
0.0
  0
LINE
  5
1A5
330
6FA
100
AcDbEntity
  8
YKK_H1
100
AcDbLine
 10
146.99377102
 20
388.04719451
 30
0.0
 11
146.99377102
 21
469.92864531
 31
0.0
  0
LINE
  5
1A6
330
6FA
100
AcDbEntity
  8
YKK_H1
100
AcDbLine
 10
148.59377102
 20
388.04719451
 30
0.0
 11
148.59377102
 21
469.92864531
 31
0.0
  0
TEXT
  5
1A7
330
6FA
100
AcDbEntity
  8
YKK_D
100
AcDbText
 10
105.29377505
 20
389.25502906
 30
0.0
 40
4.35000038
  1
Ａ
 50
90.0000025
 41
0.76628346
100
AcDbText
  0
LINE
  5
1A8
330
6FA
100
AcDbEntity
  8
YKK_D
100
AcDbLine
 10
86.19376894
 20
394.42620994
 30
0.0
 11
86.19376894
 21
364.42620994
 31
0.0
  0
LINE
  5
1A9
330
6FA
100
AcDbEntity
  8
YKK_D
100
AcDbLine
 10
106.19376894
 20
418.04718162
 30
0.0
 11
106.19376894
 21
364.42620994
 31
0.0
  0
LINE
  5
1AA
330
6FA
100
AcDbEntity
  8
YKK_D
100
AcDbLine
 10
121.19377085
 20
364.42620994
 30
0.0
 11
65.69376894
 21
364.42620994
 31
0.0
  0
LINE
  5
1AB
330
6FA
100
AcDbEntity
  8
YKK_D
100
AcDbLine
 10
121.19377085
 20
339.42620994
 30
0.0
 11
65.69376894
 21
339.42620994
 31
0.0
  0
LINE
  5
1AC
330
6FA
100
AcDbEntity
  8
YKK_D
100
AcDbLine
 10
121.19377085
 20
336.42620994
 30
0.0
 11
65.69376894
 21
336.42620994
 31
0.0
  0
LINE
  5
1AD
330
6FA
100
AcDbEntity
  8
YKK_D
100
AcDbLine
 10
121.19377085
 20
339.42620994
 30
0.0
 11
65.69376894
 21
339.42620994
 31
0.0
  0
LINE
  5
1AE
330
6FA
100
AcDbEntity
  8
YKK_D
100
AcDbLine
 10
121.19377085
 20
364.42620994
 30
0.0
 11
85.69376894
 21
364.42620994
 31
0.0
  0
LINE
  5
1AF
330
6FA
100
AcDbEntity
  8
YKK_D
100
AcDbLine
 10
66.19376894
 20
364.42620994
 30
0.0
 11
66.19376894
 21
339.42620994
 31
0.0
  0
TEXT
  5
1B0
330
6FA
100
AcDbEntity
  8
YKK_D
100
AcDbText
 10
65.29376742
 20
335.94454322
 30
0.0
 40
4.35000038
  1
３
 50
90.0000025
 41
0.76628346
100
AcDbText
  0
LINE
  5
1BD
330
6FA
100
AcDbEntity
  8
YKK_D
100
AcDbLine
 10
66.19376894
 20
339.42620994
 30
0.0
 11
66.19376894
 21
336.42620994
 31
0.0
  0
TEXT
  5
1C2
330
6FA
100
AcDbEntity
  8
YKK_D
100
AcDbText
 10
65.29376742
 20
347.94454322
 30
0.0
 40
4.35000038
  1
２５
 50
90.0000025
 41
0.76628346
100
AcDbText
  0
TEXT
  5
1CF
330
6FA
100
AcDbEntity
  8
YKK_D
100
AcDbText
 10
85.29376742
 20
375.44454322
 30
0.0
 40
4.35000038
  1
３０
 50
90.0000025
 41
0.76628346
100
AcDbText
  0
LINE
  5
1D0
330
6FA
100
AcDbEntity
  8
YKK_H1
100
AcDbLine
 10
127.79377102
 20
362.92620748
 30
0.0
 11
127.79377102
 21
340.92620748
 31
0.0
  0
LINE
  5
1D1
330
6FA
100
AcDbEntity
  8
YKK_H1
100
AcDbLine
 10
129.39377102
 20
341.02620748
 30
0.0
 11
129.39377102
 21
362.82620748
 31
0.0
  0
LINE
  5
1D2
330
6FA
100
AcDbEntity
  8
YKK_H1
100
AcDbLine
 10
131.59377102
 20
335.22620748
 30
0.0
 11
152.59377102
 21
335.22620748
 31
0.0
  0
LINE
  5
1D3
330
6FA
100
AcDbEntity
  8
YKK_H1
100
AcDbLine
 10
131.79377102
 20
336.42620748
 30
0.0
 11
152.39377102
 21
336.42620748
 31
0.0
  0
ARC
  5
1D4
330
6FA
100
AcDbEntity
  8
YKK_H1
100
AcDbCircle
 10
131.79377102
 20
334.82620748
 30
0.0
 40
1.6
100
AcDbArc
 50
90.0
 51
180.0
  0
ARC
  5
1D5
330
6FA
100
AcDbEntity
  8
YKK_H1
100
AcDbCircle
 10
129.29377102
 20
340.92620748
 30
0.0
 40
1.5
100
AcDbArc
 50
180.0
 51
270.0
  0
ARC
  5
1D6
330
6FA
100
AcDbEntity
  8
YKK_H1
100
AcDbCircle
 10
131.59377102
 20
335.02620748
 30
0.0
 40
0.2
100
AcDbArc
 50
90.0
 51
180.0
  0
LINE
  5
1D7
330
6FA
100
AcDbEntity
  8
YKK_H1
100
AcDbLine
 10
152.79377102
 20
325.22620748
 30
0.0
 11
152.79377102
 21
335.02620748
 31
0.0
  0
LINE
  5
1D8
330
6FA
100
AcDbEntity
  8
YKK_H1
100
AcDbLine
 10
153.99377102
 20
325.22620748
 30
0.0
 11
152.79377102
 21
325.22620748
 31
0.0
  0
LINE
  5
1D9
330
6FA
100
AcDbEntity
  8
YKK_H1
100
AcDbLine
 10
153.99377102
 20
336.42620748
 30
0.0
 11
155.19377102
 21
336.42620748
 31
0.0
  0
ARC
  5
1DA
330
6FA
100
AcDbEntity
  8
YKK_H1
100
AcDbCircle
 10
152.59377102
 20
335.02620748
 30
0.0
 40
0.2
100
AcDbArc
 50
0.0
 51
90.0
  0
ARC
  5
1DB
330
6FA
100
AcDbEntity
  8
YKK_H1
100
AcDbCircle
 10
152.39377102
 20
334.82620748
 30
0.0
 40
1.6
100
AcDbArc
 50
0.0
 51
90.0
  0
LINE
  5
1E0
330
6FA
100
AcDbEntity
  8
YKK_D
100
AcDbLine
 10
121.19377085
 20
364.42620994
 30
0.0
 11
105.69376894
 21
364.42620994
 31
0.0
  0
LINE
  5
1E1
330
6FA
100
AcDbEntity
  8
YKK_H1
100
AcDbLine
 10
140.99377102
 20
365.62620748
 30
0.0
 11
132.39377102
 21
365.62620748
 31
0.0
  0
ARC
  5
1E2
330
6FA
100
AcDbEntity
  8
YKK_H1
100
AcDbCircle
 10
129.29377102
 20
362.92620748
 30
0.0
 40
1.5
100
AcDbArc
 50
90.0
 51
180.0
  0
ARC
  5
1E3
330
6FA
100
AcDbEntity
  8
YKK_H1
100
AcDbCircle
 10
132.19377102
 20
365.62620748
 30
0.0
 40
1.199999999999999
100
AcDbArc
 50
180.0
 51
270.0
  0
ARC
  5
1E4
330
6FA
100
AcDbEntity
  8
YKK_H1
100
AcDbCircle
 10
132.39377102
 20
365.82620748
 30
0.0
 40
0.2
100
AcDbArc
 50
180.0
 51
270.0
  0
LINE
  5
1E5
330
6FA
100
AcDbEntity
  8
YKK_H1
100
AcDbLine
 10
140.99377102
 20
365.62620748
 30
0.0
 11
140.99377102
 21
364.42620748
 31
0.0
  0
LINE
  5
1E6
330
6FA
100
AcDbEntity
  8
YKK_H1
100
AcDbLine
 10
133.39377102
 20
388.04719451
 30
0.0
 11
148.59377102
 21
388.04719451
 31
0.0
  0
LINE
  5
1E7
330
6FA
100
AcDbEntity
  8
YKK_H1
 62
   253
100
AcDbLine
 10
134.49377102
 20
388.04719451
 30
0.0
 11
134.49377102
 21
379.42620748
 31
0.0
  0
LINE
  5
1E8
330
6FA
100
AcDbEntity
  8
YKK_H1
100
AcDbLine
 10
132.19377102
 20
388.04719451
 30
0.0
 11
133.39377102
 21
388.04719451
 31
0.0
  0
LINE
  5
1E9
330
6FA
100
AcDbEntity
  8
YKK_D
100
AcDbLine
 10
101.19376894
 20
464.42620994
 30
0.0
 11
85.69376894
 21
464.42620994
 31
0.0
  0
LINE
  5
1EA
330
6FA
100
AcDbEntity
  8
YKK_D
100
AcDbLine
 10
101.19376894
 20
394.42620994
 30
0.0
 11
85.69376894
 21
394.42620994
 31
0.0
  0
TEXT
  5
1EB
330
6FA
100
AcDbEntity
  8
YKK_D
100
AcDbText
 10
90.99377199
 20
415.44454322
 30
0.0
 40
4.35000038
  1
（ビスピッチ）
 50
90.0000025
 41
0.76628346
100
AcDbText
  0
LINE
  5
1EC
330
6FA
100
AcDbEntity
  8
YKK_D
100
AcDbLine
 10
86.19376894
 20
464.42620994
 30
0.0
 11
86.19376894
 21
394.42620994
 31
0.0
  0
TEXT
  5
1F5
330
6FA
100
AcDbEntity
  8
YKK_D
100
AcDbText
 10
66.19376894
 20
426.96287649
 30
0.0
 40
5.43000031
  1
Ａ
 50
90.0000025
 41
0.76734188
100
AcDbText
  0
TEXT
  5
1F6
330
6FA
100
AcDbEntity
  8
YKK_D
100
AcDbText
 10
85.29376742
 20
423.44454322
 30
0.0
 40
4.35000038
  1
Ｐ\U+00D7Ｎ
 50
90.0000025
 41
0.76628346
100
AcDbText
  0
TEXT
  5
1FF
330
6FA
100
AcDbEntity
  8
YKK_D
100
AcDbText
 10
85.29376742
 20
475.44454322
 30
0.0
 40
4.35000038
  1
３０
 50
90.0000025
 41
0.76628346
100
AcDbText
  0
LINE
  5
200
330
6FA
100
AcDbEntity
  8
YKK_H1
 62
   253
100
AcDbLine
 10
130.99377102
 20
435.23197082
 30
0.0
 11
132.19377102
 21
436.43197082
 31
0.0
  0
LINE
  5
201
330
6FA
100
AcDbEntity
  8
YKK_H1
  6
HASENP
100
AcDbLine
 10
133.79377102
 20
454.92864531
 30
0.0
 11
133.79377102
 21
403.04719451
 31
0.0
  0
LINE
  5
202
330
6FA
100
AcDbEntity
  8
YKK_H1
  6
HASENP
100
AcDbLine
 10
145.39377102
 20
454.92864531
 30
0.0
 11
145.39377102
 21
403.04719451
 31
0.0
  0
LINE
  5
203
330
6FA
100
AcDbEntity
  8
YKK_D
100
AcDbLine
 10
106.19376894
 20
439.92865135
 30
0.0
 11
106.19376894
 21
418.04718162
 31
0.0
  0
LINE
  5
20C
330
6FA
100
AcDbEntity
  8
YKK_D
100
AcDbLine
 10
121.19377085
 20
418.04718162
 30
0.0
 11
105.69376894
 21
418.04718162
 31
0.0
  0
TEXT
  5
20D
330
6FA
100
AcDbEntity
  8
YKK_D
100
AcDbText
 10
105.29377505
 20
429.42091351
 30
0.0
 40
2.61000013
  1
Ｓ
 50
90.0000025
 41
0.76628346
100
AcDbText
  0
TEXT
  5
20E
330
6FA
100
AcDbEntity
  8
YKK_D
100
AcDbText
 10
105.29377505
 20
425.68026099
 30
0.0
 40
4.35000038
  1
Ｈ
 50
90.0000025
 41
0.76628346
100
AcDbText
  0
LINE
  5
20F
330
6FA
100
AcDbEntity
  8
YKK_H1
100
AcDbLine
 10
133.39377102
 20
403.04719451
 30
0.0
 11
145.79377102
 21
403.04719451
 31
0.0
  0
LINE
  5
210
330
6FA
100
AcDbEntity
  8
YKK_H1
100
AcDbLine
 10
133.79377102
 20
401.84719451
 30
0.0
 11
145.39377102
 21
401.84719451
 31
0.0
  0
ARC
  5
211
330
6FA
100
AcDbEntity
  8
YKK_H1
100
AcDbCircle
 10
133.39377102
 20
401.84719451
 30
0.0
 40
1.199999999999999
100
AcDbArc
 50
90.0
 51
180.0
  0
LINE
  5
212
330
6FA
100
AcDbEntity
  8
YKK_H1
  6
ITTENSAP
 62
   253
100
AcDbLine
 10
141.52069478
 20
395.54719451
 30
0.0
 11
152.37449854
 21
395.54719451
 31
0.0
  0
ARC
  5
213
330
6FA
100
AcDbEntity
  8
YKK_H1
100
AcDbCircle
 10
145.79377102
 20
401.84719451
 30
0.0
 40
1.199999999999999
100
AcDbArc
 50
0.0
 51
90.0
  0
LINE
  5
214
330
6FA
100
AcDbEntity
  8
YKK_H1
 62
   253
100
AcDbLine
 10
130.99377102
 20
423.91826233
 30
0.0
 11
132.19377102
 21
425.11826233
 31
0.0
  0
LINE
  5
215
330
6FA
100
AcDbEntity
  8
YKK_H1
 62
   253
100
AcDbLine
 10
130.99377102
 20
418.26140808
 30
0.0
 11
132.19377102
 21
419.46140808
 31
0.0
  0
LINE
  5
216
330
6FA
100
AcDbEntity
  8
YKK_H1
 62
   253
100
AcDbLine
 10
130.99377102
 20
419.67562164
 30
0.0
 11
132.19377102
 21
420.87562164
 31
0.0
  0
LINE
  5
217
330
6FA
100
AcDbEntity
  8
YKK_H1
 62
   253
100
AcDbLine
 10
130.99377102
 20
421.0898352
 30
0.0
 11
132.19377102
 21
422.2898352
 31
0.0
  0
LINE
  5
218
330
6FA
100
AcDbEntity
  8
YKK_H1
 62
   253
100
AcDbLine
 10
130.99377102
 20
422.50404876
 30
0.0
 11
132.19377102
 21
423.70404876
 31
0.0
  0
LINE
  5
219
330
6FA
100
AcDbEntity
  8
YKK_H1
100
AcDbLine
 10
130.99377102
 20
418.04719451
 30
0.0
 11
132.19377102
 21
418.04719451
 31
0.0
  0
LINE
  5
21A
330
6FA
100
AcDbEntity
  8
YKK_H1
 62
   253
100
AcDbLine
 10
130.99377102
 20
428.16090301
 30
0.0
 11
132.19377102
 21
429.36090301
 31
0.0
  0
LINE
  5
21B
330
6FA
100
AcDbEntity
  8
YKK_H1
 62
   253
100
AcDbLine
 10
130.99377102
 20
429.57511658
 30
0.0
 11
132.19377102
 21
430.77511658
 31
0.0
  0
LINE
  5
21C
330
6FA
100
AcDbEntity
  8
YKK_H1
 62
   253
100
AcDbLine
 10
130.99377102
 20
430.98933014
 30
0.0
 11
132.19377102
 21
432.18933014
 31
0.0
  0
LINE
  5
21D
330
6FA
100
AcDbEntity
  8
YKK_H1
 62
   253
100
AcDbLine
 10
130.99377102
 20
432.4035437
 30
0.0
 11
132.19377102
 21
433.6035437
 31
0.0
  0
LINE
  5
21E
330
6FA
100
AcDbEntity
  8
YKK_H1
 62
   253
100
AcDbLine
 10
130.99377102
 20
433.81775726
 30
0.0
 11
132.19377102
 21
435.01775726
 31
0.0
  0
LINE
  5
21F
330
6FA
100
AcDbEntity
  8
YKK_H1
 62
   253
100
AcDbLine
 10
130.99377102
 20
425.33247589
 30
0.0
 11
132.19377102
 21
426.53247589
 31
0.0
  0
LINE
  5
220
330
6FA
100
AcDbEntity
  8
YKK_H1
 62
   253
100
AcDbLine
 10
130.99377102
 20
426.74668945
 30
0.0
 11
132.19377102
 21
427.94668945
 31
0.0
  0
LINE
  5
229
330
6FA
100
AcDbEntity
  8
YKK_D
100
AcDbLine
 10
121.19377085
 20
439.92865135
 30
0.0
 11
105.69376894
 21
439.92865135
 31
0.0
  0
TEXT
  5
22A
330
6FA
100
AcDbEntity
  8
YKK_D
100
AcDbText
 10
105.29377505
 20
465.19576392
 30
0.0
 40
4.35000038
  1
Ａ
 50
90.0000025
 41
0.76628346
100
AcDbText
  0
LINE
  5
22B
330
6FA
100
AcDbEntity
  8
YKK_H1
100
AcDbLine
 10
133.79377102
 20
456.12864531
 30
0.0
 11
133.79377102
 21
469.92864531
 31
0.0
  0
LINE
  5
22C
330
6FA
100
AcDbEntity
  8
YKK_H1
100
AcDbLine
 10
145.39377102
 20
456.12864531
 30
0.0
 11
145.39377102
 21
469.92864531
 31
0.0
  0
LINE
  5
22D
330
6FA
100
AcDbEntity
  8
YKK_H1
100
AcDbLine
 10
133.39377102
 20
454.92864531
 30
0.0
 11
145.79377102
 21
454.92864531
 31
0.0
  0
LINE
  5
22E
330
6FA
100
AcDbEntity
  8
YKK_H1
100
AcDbLine
 10
133.79377102
 20
456.12864531
 30
0.0
 11
145.39377102
 21
456.12864531
 31
0.0
  0
LINE
  5
22F
330
6FA
100
AcDbEntity
  8
YKK_H1
 62
   253
100
AcDbLine
 10
130.99377102
 20
439.47461151
 30
0.0
 11
131.44780482
 21
439.92864531
 31
0.0
  0
LINE
  5
230
330
6FA
100
AcDbEntity
  8
YKK_H1
100
AcDbLine
 10
130.99377102
 20
439.92864531
 30
0.0
 11
132.19377102
 21
439.92864531
 31
0.0
  0
LINE
  5
231
330
6FA
100
AcDbEntity
  8
YKK_H1
 62
   253
100
AcDbLine
 10
130.99377102
 20
436.64618439
 30
0.0
 11
132.19377102
 21
437.84618439
 31
0.0
  0
LINE
  5
232
330
6FA
100
AcDbEntity
  8
YKK_H1
 62
   253
100
AcDbLine
 10
130.99377102
 20
438.06039795
 30
0.0
 11
132.19377102
 21
439.26039795
 31
0.0
  0
ARC
  5
233
330
6FA
100
AcDbEntity
  8
YKK_H1
100
AcDbCircle
 10
133.39377102
 20
456.12864531
 30
0.0
 40
1.199999999999999
100
AcDbArc
 50
180.0
 51
270.0
  0
ARC
  5
234
330
6FA
100
AcDbEntity
  8
YKK_H1
100
AcDbCircle
 10
145.79377102
 20
456.12864531
 30
0.0
 40
1.199999999999999
100
AcDbArc
 50
270.0
 51
0.0
  0
LINE
  5
235
330
6FA
100
AcDbEntity
  8
YKK_H1
100
AcDbLine
 10
133.39377102
 20
469.92864531
 30
0.0
 11
148.59377102
 21
469.92864531
 31
0.0
  0
LINE
  5
236
330
6FA
100
AcDbEntity
  8
YKK_H1
 62
   253
100
AcDbLine
 10
134.49377102
 20
479.42620748
 30
0.0
 11
134.49377102
 21
469.92864531
 31
0.0
  0
LINE
  5
237
330
6FA
100
AcDbEntity
  8
YKK_H1
100
AcDbLine
 10
132.19377102
 20
469.92864531
 30
0.0
 11
133.39377102
 21
469.92864531
 31
0.0
  0
LINE
  5
238
330
6FA
100
AcDbEntity
  8
YKK_H1
  6
ITTENSAP
 62
   253
100
AcDbLine
 10
141.52069478
 20
462.42864531
 30
0.0
 11
152.37449854
 21
462.42864531
 31
0.0
  0
LINE
  5
239
330
6FA
100
AcDbEntity
  8
YKK_D
100
AcDbLine
 10
121.19377085
 20
494.42620994
 30
0.0
 11
85.69376894
 21
494.42620994
 31
0.0
  0
LINE
  5
23A
330
6FA
100
AcDbEntity
  8
YKK_D
100
AcDbLine
 10
121.19377085
 20
494.42620994
 30
0.0
 11
65.69376894
 21
494.42620994
 31
0.0
  0
LINE
  5
23B
330
6FA
100
AcDbEntity
  8
YKK_D
100
AcDbLine
 10
121.19377085
 20
519.42620994
 30
0.0
 11
65.69376894
 21
519.42620994
 31
0.0
  0
LINE
  5
23C
330
6FA
100
AcDbEntity
  8
YKK_D
100
AcDbLine
 10
121.19377085
 20
494.42620994
 30
0.0
 11
65.69376894
 21
494.42620994
 31
0.0
  0
LINE
  5
23D
330
6FA
100
AcDbEntity
  8
YKK_D
100
AcDbLine
 10
66.19376894
 20
519.42620994
 30
0.0
 11
66.19376894
 21
494.42620994
 31
0.0
  0
TEXT
  5
23E
330
6FA
100
AcDbEntity
  8
YKK_D
100
AcDbText
 10
65.29376742
 20
502.94454322
 30
0.0
 40
4.35000038
  1
２５
 50
90.0000025
 41
0.76628346
100
AcDbText
  0
LINE
  5
24F
330
6FA
100
AcDbEntity
  8
YKK_D
100
AcDbLine
 10
126.19376894
 20
524.42619898
 30
0.0
 11
126.19376894
 21
539.92620994
 31
0.0
  0
LINE
  5
250
330
6FA
100
AcDbEntity
  8
YKK_D
100
AcDbLine
 10
127.79377505
 20
524.42626001
 30
0.0
 11
127.79377505
 21
539.92620994
 31
0.0
  0
LINE
  5
251
330
6FA
100
AcDbEntity
  8
YKK_D
100
AcDbLine
 10
146.19376894
 20
524.42619898
 30
0.0
 11
146.19376894
 21
539.92620994
 31
0.0
  0
LINE
  5
256
330
6FA
100
AcDbEntity
  8
YKK_D
100
AcDbLine
 10
121.19377085
 20
494.42620994
 30
0.0
 11
105.69376894
 21
494.42620994
 31
0.0
  0
LINE
  5
257
330
6FA
100
AcDbEntity
  8
YKK_H1
100
AcDbLine
 10
129.39377102
 20
496.02620748
 30
0.0
 11
129.39377102
 21
517.82620748
 31
0.0
  0
LINE
  5
258
330
6FA
100
AcDbEntity
  8
YKK_H1
100
AcDbLine
 10
127.79377102
 20
517.82620748
 30
0.0
 11
127.79377102
 21
496.02620748
 31
0.0
  0
LINE
  5
259
330
6FA
100
AcDbEntity
  8
YKK_H1
100
AcDbLine
 10
140.99377102
 20
493.22620748
 30
0.0
 11
132.39377102
 21
493.22620748
 31
0.0
  0
ARC
  5
25A
330
6FA
100
AcDbEntity
  8
YKK_H1
100
AcDbCircle
 10
129.39377102
 20
496.02620748
 30
0.0
 40
1.599999999999909
100
AcDbArc
 50
180.0
 51
270.0
  0
ARC
  5
25B
330
6FA
100
AcDbEntity
  8
YKK_H1
100
AcDbCircle
 10
132.19377102
 20
493.22620748
 30
0.0
 40
1.199999999999999
100
AcDbArc
 50
90.0
 51
180.0
  0
ARC
  5
25C
330
6FA
100
AcDbEntity
  8
YKK_H1
100
AcDbCircle
 10
132.39377102
 20
493.02620748
 30
0.0
 40
0.2
100
AcDbArc
 50
90.0
 51
180.0
  0
LINE
  5
25D
330
6FA
100
AcDbEntity
  8
YKK_H1
100
AcDbLine
 10
140.99377102
 20
494.42620748
 30
0.0
 11
140.99377102
 21
493.22620748
 31
0.0
  0
LINE
  5
25E
330
6FA
100
AcDbEntity
  8
YKK_H1
100
AcDbLine
 10
129.39377102
 20
517.82620748
 30
0.0
 11
146.19377102
 21
517.82620748
 31
0.0
  0
LINE
  5
25F
330
6FA
100
AcDbEntity
  8
YKK_H1
100
AcDbLine
 10
146.19377102
 20
519.42620748
 30
0.0
 11
129.39377102
 21
519.42620748
 31
0.0
  0
ARC
  5
260
330
6FA
100
AcDbEntity
  8
YKK_H1
100
AcDbCircle
 10
129.39377102
 20
517.82620748
 30
0.0
 40
1.600000000000135
100
AcDbArc
 50
90.0
 51
180.0
  0
LINE
  5
261
330
6FA
100
AcDbEntity
  8
YKK_H3
100
AcDbLine
 10
129.29377102
 20
519.42620748
 30
0.0
 11
126.19377102
 21
519.42620748
 31
0.0
  0
LINE
  5
262
330
6FA
100
AcDbEntity
  8
YKK_H2
  6
HASENP
100
AcDbLine
 10
139.59572959
 20
517.82620748
 30
0.0
 11
138.98750737
 21
515.60808536
 31
0.0
  0
LINE
  5
263
330
6FA
100
AcDbEntity
  8
YKK_H1
100
AcDbLine
 10
146.19377102
 20
517.82620748
 30
0.0
 11
146.19377102
 21
519.42620748
 31
0.0
  0
LINE
  5
264
330
6FA
100
AcDbEntity
  8
YKK_D
100
AcDbLine
 10
111.29376837
 20
539.42620994
 30
0.0
 11
127.79377505
 21
539.42620994
 31
0.0
  0
TEXT
  5
265
330
6FA
100
AcDbEntity
  8
YKK_D
100
AcDbText
 10
110.98209123
 20
540.32623436
 30
0.0
 40
4.35000038
  1
１．６
 41
0.76628346
100
AcDbText
  0
LINE
  5
266
330
6FA
100
AcDbEntity
  8
YKK_D
100
AcDbLine
 10
127.79377505
 20
539.42620994
 30
0.0
 11
146.19376894
 21
539.42620994
 31
0.0
  0
TEXT
  5
267
330
6FA
100
AcDbEntity
  8
YKK_D
100
AcDbText
 10
129.01210527
 20
540.32623436
 30
0.0
 40
4.35000038
  1
１８．４
 41
0.76628346
100
AcDbText
  0
LINE
  5
278
330
6FA
100
AcDbEntity
  8
YKK_D
100
AcDbLine
 10
262.99375674
 20
479.42620994
 30
0.0
 11
262.99375674
 21
494.42620994
 31
0.0
  0
LINE
  5
279
330
6FA
100
AcDbEntity
  8
YKK_D
100
AcDbLine
 10
282.99375674
 20
509.42620994
 30
0.0
 11
282.99375674
 21
479.42620994
 31
0.0
  0
LINE
  5
27A
330
6FA
100
AcDbEntity
  8
YKK_H1
100
AcDbLine
 10
182.99377102
 20
509.42620748
 30
0.0
 11
182.99377102
 21
481.02620748
 31
0.0
  0
LINE
  5
27B
330
6FA
100
AcDbEntity
  8
YKK_H1
100
AcDbLine
 10
159.79377102
 20
481.02620748
 30
0.0
 11
159.79377102
 21
494.42620748
 31
0.0
  0
LINE
  5
27C
330
6FA
100
AcDbEntity
  8
YKK_H1
100
AcDbLine
 10
158.19377102
 20
494.42620748
 30
0.0
 11
158.19377102
 21
481.02620748
 31
0.0
  0
LINE
  5
27D
330
6FA
100
AcDbEntity
  8
YKK_H1
100
AcDbLine
 10
184.59377102
 20
481.02620748
 30
0.0
 11
184.59377102
 21
509.42620748
 31
0.0
  0
LINE
  5
27E
330
6FA
100
AcDbEntity
  8
YKK_H1
100
AcDbLine
 10
186.19377102
 20
496.02620748
 30
0.0
 11
186.19377102
 21
481.42620748
 31
0.0
  0
LINE
  5
27F
330
6FA
100
AcDbEntity
  8
YKK_H1
100
AcDbLine
 10
184.59377102
 20
481.42620748
 30
0.0
 11
184.59377102
 21
496.02620748
 31
0.0
  0
LINE
  5
280
330
6FA
100
AcDbEntity
  8
YKK_D
100
AcDbLine
 10
262.99375674
 20
479.42620994
 30
0.0
 11
262.99375674
 21
379.42620994
 31
0.0
  0
LINE
  5
281
330
6FA
100
AcDbEntity
  8
YKK_D
100
AcDbLine
 10
184.5937781
 20
384.42620994
 30
0.0
 11
184.5937781
 21
419.92620994
 31
0.0
  0
LINE
  5
282
330
6FA
100
AcDbEntity
  8
YKK_D
100
AcDbLine
 10
184.5937781
 20
384.42620994
 30
0.0
 11
184.5937781
 21
399.92620994
 31
0.0
  0
LINE
  5
283
330
6FA
100
AcDbEntity
  8
YKK_D
100
AcDbLine
 10
209.5937781
 20
388.00695945
 30
0.0
 11
209.5937781
 21
399.92620994
 31
0.0
  0
LINE
  5
284
330
6FA
100
AcDbEntity
  8
YKK_H1
100
AcDbLine
 10
239.79377102
 20
379.42620748
 30
0.0
 11
239.79377102
 21
479.42620748
 31
0.0
  0
LINE
  5
285
330
6FA
100
AcDbEntity
  8
YKK_H1
100
AcDbLine
 10
241.39377102
 20
479.02620748
 30
0.0
 11
241.39377102
 21
379.82620748
 31
0.0
  0
LINE
  5
286
330
6FA
100
AcDbEntity
  8
YKK_H1
  6
HASENP
 62
   253
100
AcDbLine
 10
187.79377102
 20
379.42620748
 30
0.0
 11
187.79377102
 21
479.42620748
 31
0.0
  0
LINE
  5
287
330
6FA
100
AcDbEntity
  8
YKK_H1
 62
   253
100
AcDbLine
 10
186.19377102
 20
379.42620748
 30
0.0
 11
186.19377102
 21
479.42620748
 31
0.0
  0
LINE
  5
288
330
6FA
100
AcDbEntity
  8
YKK_H1
 62
   253
100
AcDbLine
 10
157.39377102
 20
479.42620748
 30
0.0
 11
157.39377102
 21
379.42620748
 31
0.0
  0
LINE
  5
289
330
6FA
100
AcDbEntity
  8
YKK_H3
100
AcDbLine
 10
158.19377102
 20
480.92620748
 30
0.0
 11
158.19377102
 21
377.92620748
 31
0.0
  0
LINE
  5
28A
330
6FA
100
AcDbEntity
  8
YKK_H1
100
AcDbLine
 10
186.59377102
 20
379.42620748
 30
0.0
 11
240.99377102
 21
379.42620748
 31
0.0
  0
LINE
  5
28B
330
6FA
100
AcDbEntity
  8
YKK_H1
100
AcDbLine
 10
186.59377102
 20
377.82620748
 30
0.0
 11
240.99377102
 21
377.82620748
 31
0.0
  0
LINE
  5
28C
330
6FA
100
AcDbEntity
  8
YKK_D
100
AcDbLine
 10
162.79377123
 20
364.42620994
 30
0.0
 11
263.49375674
 21
364.42620994
 31
0.0
  0
LINE
  5
28D
330
6FA
100
AcDbEntity
  8
YKK_H3
100
AcDbLine
 10
158.19377102
 20
362.82620748
 30
0.0
 11
158.19377102
 21
341.02620748
 31
0.0
  0
LINE
  5
28E
330
6FA
100
AcDbEntity
  8
YKK_H1
100
AcDbLine
 10
158.19377102
 20
339.42620748
 30
0.0
 11
158.19377102
 21
324.42620748
 31
0.0
  0
LINE
  5
28F
330
6FA
100
AcDbEntity
  8
YKK_H1
100
AcDbLine
 10
159.79377102
 20
324.42620748
 30
0.0
 11
159.79377102
 21
339.52620748
 31
0.0
  0
LINE
  5
290
330
6FA
100
AcDbEntity
  8
YKK_H1
100
AcDbLine
 10
158.19377102
 20
324.42620748
 30
0.0
 11
159.79377102
 21
324.42620748
 31
0.0
  0
ARC
  5
291
330
6FA
100
AcDbEntity
  8
YKK_H1
100
AcDbCircle
 10
158.29377102
 20
339.52620748
 30
0.0
 40
1.5
100
AcDbArc
 50
0.0
 51
90.0
  0
LINE
  5
292
330
6FA
100
AcDbEntity
  8
YKK_H1
100
AcDbLine
 10
186.19377102
 20
377.42620748
 30
0.0
 11
186.19377102
 21
362.82620748
 31
0.0
  0
LINE
  5
293
330
6FA
100
AcDbEntity
  8
YKK_H1
100
AcDbLine
 10
184.59377102
 20
377.42620748
 30
0.0
 11
184.59377102
 21
362.82620748
 31
0.0
  0
LINE
  5
294
330
6FA
100
AcDbEntity
  8
YKK_H1
100
AcDbLine
 10
184.59377102
 20
362.82620748
 30
0.0
 11
184.59377102
 21
377.92620748
 31
0.0
  0
LINE
  5
295
330
6FA
100
AcDbEntity
  8
YKK_H1
100
AcDbLine
 10
159.79377102
 20
364.32620748
 30
0.0
 11
159.79377102
 21
377.82620748
 31
0.0
  0
LINE
  5
296
330
6FA
100
AcDbEntity
  8
YKK_H1
100
AcDbLine
 10
182.99377102
 20
377.82620748
 30
0.0
 11
182.99377102
 21
362.82620748
 31
0.0
  0
LINE
  5
297
330
6FA
100
AcDbEntity
  8
YKK_H1
100
AcDbLine
 10
158.19377102
 20
377.92620748
 30
0.0
 11
158.19377102
 21
364.42620748
 31
0.0
  0
ARC
  5
298
330
6FA
100
AcDbEntity
  8
YKK_H1
100
AcDbCircle
 10
158.29377102
 20
364.32620748
 30
0.0
 40
1.5
100
AcDbArc
 50
270.0
 51
0.0
  0
LINE
  5
299
330
6FA
100
AcDbEntity
  8
YKK_H1
100
AcDbLine
 10
184.59377102
 20
362.82620748
 30
0.0
 11
186.19377102
 21
362.82620748
 31
0.0
  0
LINE
  5
29A
330
6FA
100
AcDbEntity
  8
YKK_H1
100
AcDbLine
 10
182.99377102
 20
362.82620748
 30
0.0
 11
184.59377102
 21
362.82620748
 31
0.0
  0
LINE
  5
29B
330
6FA
100
AcDbEntity
  8
YKK_H1
100
AcDbLine
 10
159.79377102
 20
377.82620748
 30
0.0
 11
182.99377102
 21
377.82620748
 31
0.0
  0
LINE
  5
29C
330
6FA
100
AcDbEntity
  8
YKK_H1
100
AcDbLine
 10
183.09377102
 20
379.42620748
 30
0.0
 11
159.69377102
 21
379.42620748
 31
0.0
  0
ARC
  5
29D
330
6FA
100
AcDbEntity
  8
YKK_H1
100
AcDbCircle
 10
159.69377102
 20
377.92620748
 30
0.0
 40
1.5
100
AcDbArc
 50
90.0
 51
180.0
  0
ARC
  5
29E
330
6FA
100
AcDbEntity
  8
YKK_H1
100
AcDbCircle
 10
186.59377102
 20
377.42620748
 30
0.0
 40
2.0
100
AcDbArc
 50
90.0
 51
180.0
  0
ARC
  5
29F
330
6FA
100
AcDbEntity
  8
YKK_H1
100
AcDbCircle
 10
183.09377102
 20
377.92620748
 30
0.0
 40
1.5
100
AcDbArc
 50
0.0
 51
90.0
  0
ARC
  5
2A0
330
6FA
100
AcDbEntity
  8
YKK_H1
100
AcDbCircle
 10
186.59377102
 20
377.42620748
 30
0.0
 40
0.4
100
AcDbArc
 50
90.0
 51
180.0
  0
LINE
  5
2A1
330
6FA
100
AcDbEntity
  8
YKK_H1
 62
   253
100
AcDbLine
 10
204.28006252
 20
377.82620748
 30
0.0
 11
205.88006252
 21
379.42620748
 31
0.0
  0
LINE
  5
2A2
330
6FA
100
AcDbEntity
  8
YKK_H1
100
AcDbLine
 10
203.59377102
 20
379.42620748
 30
0.0
 11
203.59377102
 21
377.82620748
 31
0.0
  0
LINE
  5
2A3
330
6FA
100
AcDbEntity
  8
YKK_H1
 62
   253
100
AcDbLine
 10
203.59377102
 20
378.55412954
 30
0.0
 11
204.46584896
 21
379.42620748
 31
0.0
  0
LINE
  5
2A4
330
6FA
100
AcDbEntity
  8
YKK_H1
100
AcDbLine
 10
215.59377102
 20
379.42620748
 30
0.0
 11
215.59377102
 21
377.82620748
 31
0.0
  0
LINE
  5
2A5
330
6FA
100
AcDbEntity
  8
YKK_H1
 62
   253
100
AcDbLine
 10
214.17955746
 20
377.82620748
 30
0.0
 11
215.59377102
 21
379.24042104
 31
0.0
  0
LINE
  5
2A6
330
6FA
100
AcDbEntity
  8
YKK_H1
 62
   253
100
AcDbLine
 10
212.7653439
 20
377.82620748
 30
0.0
 11
214.3653439
 21
379.42620748
 31
0.0
  0
LINE
  5
2A7
330
6FA
100
AcDbEntity
  8
YKK_H1
 62
   253
100
AcDbLine
 10
211.35113033
 20
377.82620748
 30
0.0
 11
212.95113033
 21
379.42620748
 31
0.0
  0
LINE
  5
2A8
330
6FA
100
AcDbEntity
  8
YKK_H1
 62
   253
100
AcDbLine
 10
209.93691677
 20
377.82620748
 30
0.0
 11
211.53691677
 21
379.42620748
 31
0.0
  0
LINE
  5
2A9
330
6FA
100
AcDbEntity
  8
YKK_H1
 62
   253
100
AcDbLine
 10
208.52270321
 20
377.82620748
 30
0.0
 11
210.12270321
 21
379.42620748
 31
0.0
  0
LINE
  5
2AA
330
6FA
100
AcDbEntity
  8
YKK_H1
 62
   253
100
AcDbLine
 10
205.69427608
 20
377.82620748
 30
0.0
 11
207.29427608
 21
379.42620748
 31
0.0
  0
LINE
  5
2AB
330
6FA
100
AcDbEntity
  8
YKK_H1
 62
   253
100
AcDbLine
 10
207.10848965
 20
377.82620748
 30
0.0
 11
208.70848965
 21
379.42620748
 31
0.0
  0
LINE
  5
2AC
330
6FA
100
AcDbEntity
  8
YKK_H1
  6
ITTENSAP
 62
   253
100
AcDbLine
 10
209.59377102
 20
388.00696369
 30
0.0
 11
209.59377102
 21
369.51227438
 31
0.0
  0
LINE
  5
2AD
330
6FA
100
AcDbEntity
  8
YKK_D
100
AcDbLine
 10
247.99375674
 20
379.42620994
 30
0.0
 11
263.49375674
 21
379.42620994
 31
0.0
  0
LINE
  5
2AE
330
6FA
100
AcDbEntity
  8
YKK_D
100
AcDbLine
 10
248.03639551
 20
379.42620994
 30
0.0
 11
263.49375674
 21
379.42620994
 31
0.0
  0
ARC
  5
2AF
330
6FA
100
AcDbEntity
  8
YKK_H1
100
AcDbCircle
 10
240.99377102
 20
379.82620748
 30
0.0
 40
2.0
100
AcDbArc
 50
270.0
 51
0.0
  0
LINE
  5
2B0
330
6FA
100
AcDbEntity
  8
YKK_H1
100
AcDbLine
 10
241.39377102
 20
387.82620748
 30
0.0
 11
242.99377102
 21
387.82620748
 31
0.0
  0
ARC
  5
2B1
330
6FA
100
AcDbEntity
  8
YKK_H1
100
AcDbCircle
 10
240.99377102
 20
379.82620748
 30
0.0
 40
0.4
100
AcDbArc
 50
270.0
 51
0.0
  0
LINE
  5
2B2
330
6FA
100
AcDbEntity
  8
YKK_H1
100
AcDbLine
 10
242.99377102
 20
387.82620748
 30
0.0
 11
242.99377102
 21
379.82620748
 31
0.0
  0
LINE
  5
2B3
330
6FA
100
AcDbEntity
  8
YKK_D
100
AcDbLine
 10
262.99375674
 20
379.42620994
 30
0.0
 11
262.99375674
 21
364.42620994
 31
0.0
  0
TEXT
  5
2B8
330
6FA
100
AcDbEntity
  8
YKK_D
100
AcDbText
 10
262.09376284
 20
367.94454322
 30
0.0
 40
4.35000038
  1
１５
 50
90.0000025
 41
0.76628346
100
AcDbText
  0
LINE
  5
2C1
330
6FA
100
AcDbEntity
  8
YKK_H1
100
AcDbLine
 10
186.59377102
 20
481.02620748
 30
0.0
 11
240.99377102
 21
481.02620748
 31
0.0
  0
LINE
  5
2C2
330
6FA
100
AcDbEntity
  8
YKK_H1
100
AcDbLine
 10
186.59377102
 20
479.42620748
 30
0.0
 11
240.99377102
 21
479.42620748
 31
0.0
  0
LINE
  5
2C3
330
6FA
100
AcDbEntity
  8
YKK_D
100
AcDbLine
 10
184.5937781
 20
419.42620994
 30
0.0
 11
239.79377505
 21
419.42620994
 31
0.0
  0
TEXT
  5
2C4
330
6FA
100
AcDbEntity
  8
YKK_H1
 62
     7
100
AcDbText
 10
200.21216325
 20
427.42065574
 30
0.0
 40
4.35000038
  1
メーターＢＯＸ
 41
0.76628346
100
AcDbText
  0
LINE
  5
2C5
330
6FA
100
AcDbEntity
  8
YKK_D
100
AcDbLine
 10
184.5937781
 20
399.42620994
 30
0.0
 11
209.5937781
 21
399.42620994
 31
0.0
  0
TEXT
  5
2CE
330
6FA
100
AcDbEntity
  8
YKK_D
100
AcDbText
 10
195.11211137
 20
400.32620384
 30
0.0
 40
4.35000038
  1
Ａ
 41
0.76628346
100
AcDbText
  0
TEXT
  5
2D3
330
6FA
100
AcDbEntity
  8
YKK_D
100
AcDbText
 10
210.21210222
 20
420.32620384
 30
0.0
 40
4.35000038
  1
Ａ
 41
0.76628346
100
AcDbText
  0
LINE
  5
2D4
330
6FA
100
AcDbEntity
  8
YKK_H1
100
AcDbLine
 10
182.99377102
 20
481.02620748
 30
0.0
 11
159.79377102
 21
481.02620748
 31
0.0
  0
LINE
  5
2D5
330
6FA
100
AcDbEntity
  8
YKK_H1
100
AcDbLine
 10
159.79377102
 20
479.42620748
 30
0.0
 11
182.99377102
 21
479.42620748
 31
0.0
  0
ARC
  5
2D6
330
6FA
100
AcDbEntity
  8
YKK_H1
100
AcDbCircle
 10
159.79377102
 20
481.02620748
 30
0.0
 40
1.599999999999909
100
AcDbArc
 50
180.0
 51
270.0
  0
ARC
  5
2D7
330
6FA
100
AcDbEntity
  8
YKK_H1
100
AcDbCircle
 10
186.59377102
 20
481.42620748
 30
0.0
 40
2.0
100
AcDbArc
 50
180.0
 51
270.0
  0
ARC
  5
2D8
330
6FA
100
AcDbEntity
  8
YKK_H1
100
AcDbCircle
 10
186.59377102
 20
481.42620748
 30
0.0
 40
0.4
100
AcDbArc
 50
180.0
 51
270.0
  0
ARC
  5
2D9
330
6FA
100
AcDbEntity
  8
YKK_H1
100
AcDbCircle
 10
182.99377102
 20
481.02620748
 30
0.0
 40
1.600000000000023
100
AcDbArc
 50
270.0
 51
0.0
  0
TEXT
  5
2DE
330
6FA
100
AcDbEntity
  8
YKK_D
100
AcDbText
 10
262.09376284
 20
427.44454322
 30
0.0
 40
4.35000038
  1
Ａ
 50
90.0000025
 41
0.76628346
100
AcDbText
  0
LINE
  5
2DF
330
6FA
100
AcDbEntity
  8
YKK_D
100
AcDbLine
 10
248.03639742
 20
479.42620994
 30
0.0
 11
283.49375674
 21
479.42620994
 31
0.0
  0
LINE
  5
2E0
330
6FA
100
AcDbEntity
  8
YKK_D
100
AcDbLine
 10
247.99375674
 20
479.42620994
 30
0.0
 11
263.49375674
 21
479.42620994
 31
0.0
  0
LINE
  5
2E1
330
6FA
100
AcDbEntity
  8
YKK_D
100
AcDbLine
 10
248.03639742
 20
479.42620994
 30
0.0
 11
283.49375674
 21
479.42620994
 31
0.0
  0
LINE
  5
2E2
330
6FA
100
AcDbEntity
  8
YKK_D
100
AcDbLine
 10
247.99375674
 20
479.42620994
 30
0.0
 11
263.49375674
 21
479.42620994
 31
0.0
  0
ARC
  5
2E3
330
6FA
100
AcDbEntity
  8
YKK_H1
100
AcDbCircle
 10
240.99377102
 20
479.02620748
 30
0.0
 40
0.4
100
AcDbArc
 50
0.0
 51
90.0
  0
ARC
  5
2E4
330
6FA
100
AcDbEntity
  8
YKK_H1
100
AcDbCircle
 10
240.99377102
 20
479.02620748
 30
0.0
 40
2.0
100
AcDbArc
 50
0.0
 51
90.0
  0
LINE
  5
2E5
330
6FA
100
AcDbEntity
  8
YKK_H1
100
AcDbLine
 10
241.39377102
 20
471.02620748
 30
0.0
 11
242.99377102
 21
471.02620748
 31
0.0
  0
LINE
  5
2E6
330
6FA
100
AcDbEntity
  8
YKK_H1
100
AcDbLine
 10
242.99377102
 20
479.02620748
 30
0.0
 11
242.99377102
 21
471.02620748
 31
0.0
  0
LINE
  5
2EF
330
6FA
100
AcDbEntity
  8
YKK_D
100
AcDbLine
 10
286.99375674
 20
472.4980178
 30
0.0
 11
278.99375674
 21
472.4980178
 31
0.0
  0
LINE
  5
2F0
330
6FA
100
AcDbEntity
  8
YKK_D
100
AcDbLine
 10
282.99375674
 20
479.42620994
 30
0.0
 11
278.99375674
 21
472.4980178
 31
0.0
  0
LINE
  5
2F1
330
6FA
100
AcDbEntity
  8
YKK_D
100
AcDbLine
 10
282.99375674
 20
479.42620994
 30
0.0
 11
286.99375674
 21
472.4980178
 31
0.0
  0
LINE
  5
2F2
330
6FA
100
AcDbEntity
  8
YKK_D
100
AcDbLine
 10
384.08317385
 20
349.15004072
 30
0.0
 11
384.08317385
 21
404.6500288
 31
0.0
  0
LINE
  5
2F3
330
6FA
100
AcDbEntity
  8
YKK_D
100
AcDbLine
 10
409.08317385
 20
349.15004072
 30
0.0
 11
409.08317385
 21
404.6500288
 31
0.0
  0
ARC
  5
2F4
330
6FA
100
AcDbEntity
  8
YKK_W1
100
AcDbCircle
 10
407.58316783
 20
342.65004052
 30
0.0
 40
1.5
100
AcDbArc
 50
0.0
 51
90.0
  0
ARC
  5
2F5
330
6FA
100
AcDbEntity
  8
YKK_W1
100
AcDbCircle
 10
385.58316783
 20
342.65004052
 30
0.0
 40
1.5
100
AcDbArc
 50
90.0
 51
180.0
  0
LINE
  5
2FA
330
6FA
100
AcDbEntity
  8
YKK_D
100
AcDbLine
 10
364.08317385
 20
344.1500288
 30
0.0
 11
364.08317385
 21
324.1500288
 31
0.0
  0
LINE
  5
2FB
330
6FA
100
AcDbEntity
  8
YKK_W1
100
AcDbLine
 10
407.48316783
 20
342.55004052
 30
0.0
 11
385.68316783
 21
342.55004052
 31
0.0
  0
LINE
  5
2FC
330
6FA
100
AcDbEntity
  8
YKK_W2
  6
HASENP
100
AcDbLine
 10
385.68316783
 20
329.14808195
 30
0.0
 11
387.90128995
 21
329.75630417
 31
0.0
  0
LINE
  5
2FD
330
6FA
100
AcDbEntity
  8
YKK_D
100
AcDbLine
 10
379.32386551
 20
324.1500288
 30
0.0
 11
363.58317385
 21
324.1500288
 31
0.0
  0
TEXT
  5
2FE
330
6FA
100
AcDbEntity
  8
YKK_D
100
AcDbText
 10
363.18317995
 20
330.16836208
 30
0.0
 40
4.35000038
  1
２０
 50
90.0000025
 41
0.76628346
100
AcDbText
  0
LINE
  5
303
330
6FA
100
AcDbEntity
  8
YKK_W1
100
AcDbLine
 10
385.68316783
 20
342.55004052
 30
0.0
 11
385.68316783
 21
324.15004052
 31
0.0
  0
LINE
  5
304
330
6FA
100
AcDbEntity
  8
YKK_W1
100
AcDbLine
 10
384.08316783
 20
324.15004052
 30
0.0
 11
384.08316783
 21
342.65004052
 31
0.0
  0
LINE
  5
305
330
6FA
100
AcDbEntity
  8
YKK_W1
100
AcDbLine
 10
385.68316783
 20
324.15004052
 30
0.0
 11
384.08316783
 21
324.15004052
 31
0.0
  0
LINE
  5
306
330
6FA
100
AcDbEntity
  8
YKK_W1
100
AcDbLine
 10
410.98316783
 20
335.45004052
 30
0.0
 11
410.98316783
 21
312.75004052
 31
0.0
  0
LINE
  5
307
330
6FA
100
AcDbEntity
  8
YKK_W1
100
AcDbLine
 10
407.48316783
 20
312.05004052
 30
0.0
 11
407.48316783
 21
342.55004052
 31
0.0
  0
LINE
  5
308
330
6FA
100
AcDbEntity
  8
YKK_W1
100
AcDbLine
 10
409.08316783
 20
342.65004052
 30
0.0
 11
409.08316783
 21
312.15004052
 31
0.0
  0
LINE
  5
309
330
6FA
100
AcDbEntity
  8
YKK_W1
100
AcDbLine
 10
409.08316783
 20
312.75004052
 30
0.0
 11
410.98316783
 21
312.75004052
 31
0.0
  0
ARC
  5
30A
330
6FA
100
AcDbEntity
  8
YKK_W1
100
AcDbCircle
 10
408.98316783
 20
312.05004052
 30
0.0
 40
1.5
100
AcDbArc
 50
180.0
 51
270.0
  0
ARC
  5
30B
330
6FA
100
AcDbEntity
  8
YKK_W1
100
AcDbCircle
 10
410.58316783
 20
336.65004052
 30
0.0
 40
1.5
100
AcDbArc
 50
90.0
 51
180.0
  0
ARC
  5
30C
330
6FA
100
AcDbEntity
  8
YKK_W1
100
AcDbCircle
 10
411.38316783
 20
335.45004052
 30
0.0
 40
0.4
100
AcDbArc
 50
90.0
 51
180.0
  0
LINE
  5
30D
330
6FA
100
AcDbEntity
  8
YKK_W1
  6
ITTENSAP
 62
   253
100
AcDbLine
 10
419.08316783
 20
343.35004052
 30
0.0
 11
419.08316783
 21
332.60461554
 31
0.0
  0
LINE
  5
30E
330
6FA
100
AcDbEntity
  8
YKK_W1
  6
HASENP
100
AcDbLine
 10
417.28316783
 20
338.15004052
 30
0.0
 11
417.28316783
 21
335.85004052
 31
0.0
  0
LINE
  5
30F
330
6FA
100
AcDbEntity
  8
YKK_W1
  6
HASENP
 62
   253
100
AcDbLine
 10
416.58316783
 20
338.15004052
 30
0.0
 11
416.58316783
 21
335.85004052
 31
0.0
  0
LINE
  5
310
330
6FA
100
AcDbEntity
  8
YKK_W1
100
AcDbLine
 10
385.58316783
 20
344.15004052
 30
0.0
 11
407.58316783
 21
344.15004052
 31
0.0
  0
LINE
  5
311
330
6FA
100
AcDbEntity
  8
YKK_D
100
AcDbLine
 10
379.32386551
 20
344.1500288
 30
0.0
 11
363.58317385
 21
344.1500288
 31
0.0
  0
TEXT
  5
312
330
6FA
100
AcDbEntity
  8
YKK_D
100
AcDbText
 10
410.10150713
 20
365.0500227
 30
0.0
 40
4.35000038
  1
１０
 41
0.76628346
100
AcDbText
  0
LINE
  5
313
330
6FA
100
AcDbEntity
  8
YKK_D
100
AcDbLine
 10
409.08317385
 20
349.15004072
 30
0.0
 11
409.08317385
 21
384.6500288
 31
0.0
  0
LINE
  5
314
330
6FA
100
AcDbEntity
  8
YKK_D
100
AcDbLine
 10
409.08317385
 20
349.15004072
 30
0.0
 11
409.08317385
 21
364.6500288
 31
0.0
  0
LINE
  5
315
330
6FA
100
AcDbEntity
  8
YKK_D
100
AcDbLine
 10
419.08317385
 20
349.15004072
 30
0.0
 11
419.08317385
 21
364.6500288
 31
0.0
  0
LINE
  5
316
330
6FA
100
AcDbEntity
  8
YKK_D
100
AcDbLine
 10
409.08317385
 20
364.1500288
 30
0.0
 11
419.08317385
 21
364.1500288
 31
0.0
  0
LINE
  5
31F
330
6FA
100
AcDbEntity
  8
YKK_D
100
AcDbLine
 10
384.08317385
 20
404.1500288
 30
0.0
 11
409.08317385
 21
404.1500288
 31
0.0
  0
TEXT
  5
324
330
6FA
100
AcDbEntity
  8
YKK_D
100
AcDbText
 10
392.60150713
 20
405.0500227
 30
0.0
 40
4.35000038
  1
２５
 41
0.76628346
100
AcDbText
  0
LINE
  5
32D
330
6FA
100
AcDbEntity
  8
YKK_D
100
AcDbLine
 10
162.79377123
 20
494.42620994
 30
0.0
 11
263.49375674
 21
494.42620994
 31
0.0
  0
LINE
  5
32E
330
6FA
100
AcDbEntity
  8
YKK_D
100
AcDbLine
 10
191.19376942
 20
509.42620994
 30
0.0
 11
283.49375674
 21
509.42620994
 31
0.0
  0
LINE
  5
32F
330
6FA
100
AcDbEntity
  8
YKK_D
100
AcDbLine
 10
186.19376894
 20
512.42620756
 30
0.0
 11
186.19376894
 21
539.92620994
 31
0.0
  0
LINE
  5
330
330
6FA
100
AcDbEntity
  8
YKK_D
100
AcDbLine
 10
184.5937781
 20
512.42620756
 30
0.0
 11
184.5937781
 21
539.92620994
 31
0.0
  0
LINE
  5
331
330
6FA
100
AcDbEntity
  8
YKK_H3
100
AcDbLine
 10
186.19377102
 20
509.42620748
 30
0.0
 11
186.19377102
 21
496.02620748
 31
0.0
  0
LINE
  5
332
330
6FA
100
AcDbEntity
  8
YKK_H2
  6
HASENP
100
AcDbLine
 10
182.99377102
 20
505.92620748
 30
0.0
 11
182.3855488
 21
503.70808536
 31
0.0
  0
ARC
  5
333
330
6FA
100
AcDbEntity
  8
YKK_H1
100
AcDbCircle
 10
158.19377102
 20
494.42620748
 30
0.0
 40
1.599999999999965
100
AcDbArc
 50
0.0
 51
90.0
  0
LINE
  5
334
330
6FA
100
AcDbEntity
  8
YKK_H1
100
AcDbLine
 10
184.59377102
 20
496.02620748
 30
0.0
 11
186.19377102
 21
496.02620748
 31
0.0
  0
LINE
  5
335
330
6FA
100
AcDbEntity
  8
YKK_H3
100
AcDbLine
 10
186.19377102
 20
509.42620748
 30
0.0
 11
184.59377102
 21
509.42620748
 31
0.0
  0
LINE
  5
336
330
6FA
100
AcDbEntity
  8
YKK_H1
100
AcDbLine
 10
184.59377102
 20
509.42620748
 30
0.0
 11
182.99377102
 21
509.42620748
 31
0.0
  0
LINE
  5
337
330
6FA
100
AcDbEntity
  8
YKK_D
100
AcDbLine
 10
201.09376951
 20
539.42620994
 30
0.0
 11
184.5937781
 21
539.42620994
 31
0.0
  0
TEXT
  5
340
330
6FA
100
AcDbEntity
  8
YKK_D
100
AcDbText
 10
188.81210832
 20
540.32623436
 30
0.0
 40
4.35000038
  1
１．６
 41
0.76628346
100
AcDbText
  0
TEXT
  5
345
330
6FA
100
AcDbEntity
  8
YKK_D
100
AcDbText
 10
262.09376284
 20
482.94454322
 30
0.0
 40
4.35000038
  1
１５
 50
90.0000025
 41
0.76628346
100
AcDbText
  0
TEXT
  5
346
330
6FA
100
AcDbEntity
  8
YKK_D
100
AcDbText
 10
282.09376284
 20
490.44454322
 30
0.0
 40
4.35000038
  1
３０
 50
90.0000025
 41
0.76628346
100
AcDbText
  0
LINE
  5
34B
330
6FA
100
AcDbEntity
  8
YKK_ZWAK
  6
Continuous
 62
     8
100
AcDbLine
 10
385.0140084
 20
564.200014
 30
0.0
 11
385.0140084
 21
561.400014
 31
0.0
  0
LINE
  5
34C
330
6FA
100
AcDbEntity
  8
YKK_D
100
AcDbLine
 10
689.08317385
 20
304.0339819
 30
0.0
 11
689.08317385
 21
290.05005322
 31
0.0
  0
LINE
  5
34D
330
6FA
100
AcDbEntity
  8
YKK_W1
100
AcDbLine
 10
424.08316783
 20
310.65004052
 30
0.0
 11
424.08316783
 21
285.65004052
 31
0.0
  0
LINE
  5
34E
330
6FA
100
AcDbEntity
  8
YKK_W1
100
AcDbLine
 10
422.48316783
 20
285.75004052
 30
0.0
 11
422.48316783
 21
310.55004052
 31
0.0
  0
LINE
  5
34F
330
6FA
100
AcDbEntity
  8
YKK_W1
100
AcDbLine
 10
674.08316783
 20
310.65004052
 30
0.0
 11
674.08316783
 21
285.75004052
 31
0.0
  0
LINE
  5
350
330
6FA
100
AcDbEntity
  8
YKK_W1
100
AcDbLine
 10
675.68316783
 20
285.75004052
 30
0.0
 11
675.68316783
 21
310.55004052
 31
0.0
  0
LINE
  5
351
330
6FA
100
AcDbEntity
  8
YKK_W2
  6
HASENP
100
AcDbLine
 10
712.48316783
 20
329.14808195
 30
0.0
 11
700.58316783
 21
285.75004052
 31
0.0
  0
LINE
  5
352
330
6FA
100
AcDbEntity
  8
YKK_W2
  6
HASENP
100
AcDbLine
 10
698.36504572
 20
286.35826274
 30
0.0
 11
710.26504572
 21
329.75630417
 31
0.0
  0
LINE
  5
353
330
6FA
100
AcDbEntity
  8
YKK_ZWAK
  6
Continuous
 62
   254
100
AcDbLine
 10
770.0000182
 20
561.400014
 30
0.0
 11
770.0000182
 21
36.4000014
 31
0.0
  0
TEXT
  5
354
330
6FA
100
AcDbEntity
  8
YKK_D
100
AcDbText
 10
677.60150713
 20
291.45004711
 30
0.0
 40
4.35000038
  1
１５
 41
0.76628346
100
AcDbText
  0
LINE
  5
355
330
6FA
100
AcDbEntity
  8
YKK_D
100
AcDbLine
 10
689.08317385
 20
290.55005322
 30
0.0
 11
674.08317385
 21
290.55005322
 31
0.0
  0
LINE
  5
356
330
6FA
100
AcDbEntity
  8
YKK_D
100
AcDbLine
 10
689.08317385
 20
207.55003796
 30
0.0
 11
674.08317385
 21
207.55003796
 31
0.0
  0
TEXT
  5
357
330
6FA
100
AcDbEntity
  8
YKK_D
100
AcDbText
 10
677.60150713
 20
208.45003185
 30
0.0
 40
4.35000038
  1
１５
 41
0.76628346
100
AcDbText
  0
LINE
  5
358
330
6FA
100
AcDbEntity
  8
YKK_W1
100
AcDbLine
 10
675.68316783
 20
284.15004052
 30
0.0
 11
688.88316783
 21
284.15004052
 31
0.0
  0
LINE
  5
359
330
6FA
100
AcDbEntity
  8
YKK_W1
100
AcDbLine
 10
676.18316783
 20
282.55004052
 30
0.0
 11
689.08316783
 21
282.55004052
 31
0.0
  0
LINE
  5
35A
330
6FA
100
AcDbEntity
  8
YKK_W1
100
AcDbLine
 10
675.68316783
 20
284.15004052
 30
0.0
 11
704.08316783
 21
284.15004052
 31
0.0
  0
LINE
  5
35B
330
6FA
100
AcDbEntity
  8
YKK_W1
100
AcDbLine
 10
704.08316783
 20
285.75004052
 30
0.0
 11
675.68316783
 21
285.75004052
 31
0.0
  0
LINE
  5
35C
330
6FA
100
AcDbEntity
  8
YKK_W3
100
AcDbLine
 10
689.08316783
 20
149.80828139
 30
0.0
 11
550.58316783
 21
149.80828139
 31
0.0
  0
LINE
  5
35D
330
6FA
100
AcDbEntity
  8
YKK_W1
100
AcDbLine
 10
683.68316783
 20
123.60828139
 30
0.0
 11
550.58316783
 21
123.60828139
 31
0.0
  0
LINE
  5
35E
330
6FA
100
AcDbEntity
  8
YKK_W1
100
AcDbLine
 10
683.38316783
 20
124.80828139
 30
0.0
 11
550.58316783
 21
124.80828139
 31
0.0
  0
LINE
  5
35F
330
6FA
100
AcDbEntity
  8
YKK_W1
100
AcDbLine
 10
683.48316783
 20
147.40828139
 30
0.0
 11
550.58316783
 21
147.40828139
 31
0.0
  0
LINE
  5
360
330
6FA
100
AcDbEntity
  8
YKK_W1
100
AcDbLine
 10
550.58316783
 20
146.20828139
 30
0.0
 11
683.68316783
 21
146.20828139
 31
0.0
  0
LINE
  5
361
330
6FA
100
AcDbEntity
  8
YKK_D
100
AcDbLine
 10
674.08317385
 20
71.40827903
 30
0.0
 11
689.08317385
 21
71.40827903
 31
0.0
  0
LINE
  5
362
330
6FA
100
AcDbEntity
  8
YKK_D
100
AcDbLine
 10
674.08317385
 20
51.40827903
 30
0.0
 11
704.08317385
 21
51.40827903
 31
0.0
  0
TEXT
  5
363
330
6FA
100
AcDbEntity
  8
YKK_D
100
AcDbText
 10
677.60150713
 20
72.30828056
 30
0.0
 40
4.35000038
  1
１５
 41
0.76628346
100
AcDbText
  0
LINE
  5
364
330
6FA
100
AcDbEntity
  8
YKK_W1
100
AcDbLine
 10
675.68316783
 20
119.40828139
 30
0.0
 11
689.08316783
 21
119.40828139
 31
0.0
  0
LINE
  5
365
330
6FA
100
AcDbEntity
  8
YKK_W1
100
AcDbLine
 10
704.08316783
 20
91.40828139
 30
0.0
 11
675.68316783
 21
91.40828139
 31
0.0
  0
LINE
  5
366
330
6FA
100
AcDbEntity
  8
YKK_W1
100
AcDbLine
 10
675.68316783
 20
93.00828139
 30
0.0
 11
704.08316783
 21
93.00828139
 31
0.0
  0
LINE
  5
367
330
6FA
100
AcDbEntity
  8
YKK_W1
100
AcDbLine
 10
689.08316783
 20
117.80828139
 30
0.0
 11
675.68316783
 21
117.80828139
 31
0.0
  0
LINE
  5
368
330
6FA
100
AcDbEntity
  8
YKK_W1
100
AcDbLine
 10
683.48316783
 20
122.40828139
 30
0.0
 11
675.08316783
 21
122.40828139
 31
0.0
  0
LINE
  5
369
330
6FA
100
AcDbEntity
  8
YKK_ZWAK
  6
Continuous
 62
   254
100
AcDbLine
 10
603.400014
 20
9.8
 30
0.0
 11
704.1996668
 21
9.8
 31
0.0
  0
TEXT
  5
36A
330
6FA
100
AcDbEntity
  8
YKK_ZWAK
  6
Continuous
 62
   131
100
AcDbText
 10
676.37634875
 20
10.83089352
 30
0.0
 40
3.9592
  1
年   月   日
 41
0.9
  7
YKK_OSSTYLE1
100
AcDbText
  0
LINE
  5
36B
330
6FA
100
AcDbEntity
  8
YKK_W1
100
AcDbLine
 10
674.08316783
 20
93.00828139
 30
0.0
 11
674.08316783
 21
117.80828139
 31
0.0
  0
LINE
  5
36C
330
6FA
100
AcDbEntity
  8
YKK_W1
100
AcDbLine
 10
675.68316783
 20
117.80828139
 30
0.0
 11
675.68316783
 21
93.00828139
 31
0.0
  0
LINE
  5
36D
330
6FA
100
AcDbEntity
  8
YKK_W1
100
AcDbLine
 10
424.08316783
 20
93.00828139
 30
0.0
 11
424.08316783
 21
117.80828139
 31
0.0
  0
LINE
  5
36E
330
6FA
100
AcDbEntity
  8
YKK_W1
100
AcDbLine
 10
422.48316783
 20
117.80828139
 30
0.0
 11
422.48316783
 21
93.00828139
 31
0.0
  0
LINE
  5
36F
330
6FA
100
AcDbEntity
  8
YKK_D
100
AcDbLine
 10
474.08317385
 20
151.40828666
 30
0.0
 11
474.08317385
 21
91.40827903
 31
0.0
  0
LINE
  5
370
330
6FA
100
AcDbEntity
  8
YKK_D
100
AcDbLine
 10
454.08317385
 20
119.40828666
 30
0.0
 11
454.08317385
 21
91.40827903
 31
0.0
  0
LINE
  5
371
330
6FA
100
AcDbEntity
  8
YKK_W3
100
AcDbLine
 10
550.58316783
 20
93.00828139
 30
0.0
 11
674.08316783
 21
93.00828139
 31
0.0
  0
LINE
  5
372
330
6FA
100
AcDbEntity
  8
YKK_D
100
AcDbLine
 10
674.08317385
 20
51.40827903
 30
0.0
 11
424.08317385
 21
51.40827903
 31
0.0
  0
TEXT
  5
373
330
6FA
100
AcDbEntity
  8
YKK_D
100
AcDbText
 10
544.1198404
 20
52.5082775
 30
0.0
 40
10.0
  1
Ｗ
100
AcDbText
  0
TEXT
  5
374
330
6FA
100
AcDbEntity
  8
YKK_ZWAK
  6
Continuous
 62
   131
100
AcDbText
 10
542.05492956
 20
1.053955
 30
0.0
 40
4.9
  1
 ． ．
 41
0.9
  7
YKK_OSSTYLE1
100
AcDbText
  0
LINE
  5
375
330
6FA
100
AcDbEntity
  8
YKK_ZWAK
  6
Continuous
 62
   131
100
AcDbLine
 10
583.384214
 20
28.0007014
 30
0.0
 11
515.2000126
 21
28.0007014
 31
0.0
  0
TEXT
  5
376
330
6FA
100
AcDbEntity
  8
YKK_ZWAK
  6
Continuous
 62
   131
100
AcDbText
 10
541.55450734
 20
29.21975
 30
0.0
 40
4.2
  1
担  当
 41
0.9
  7
YKK_OSSTYLE1
100
AcDbText
  0
LINE
  5
377
330
6FA
100
AcDbEntity
  8
YKK_ZWAK
  6
Continuous
 62
   131
100
AcDbLine
 10
537.6000126
 20
35.0000014
 30
0.0
 11
537.6000126
 21
0.0
 31
0.0
  0
LINE
  5
378
330
6FA
100
AcDbEntity
  8
YKK_ZWAK
  6
Continuous
 62
   254
100
AcDbLine
 10
515.2000126
 20
35.0000014
 30
0.0
 11
515.2000126
 21
0.0
 31
0.0
  0
TEXT
  5
379
330
6FA
100
AcDbEntity
  8
YKK_ZWAK
  6
Continuous
 62
   131
100
AcDbText
 10
519.65492956
 20
1.053955
 30
0.0
 40
4.9
  1
 ． ．
 41
0.9
  7
YKK_OSSTYLE1
100
AcDbText
  0
LINE
  5
37A
330
6FA
100
AcDbEntity
  8
YKK_W3
100
AcDbLine
 10
424.08316783
 20
93.00828139
 30
0.0
 11
547.58316783
 21
93.00828139
 31
0.0
  0
LINE
  5
37B
330
6FA
100
AcDbEntity
  8
YKK_D
100
AcDbLine
 10
424.08317385
 20
86.40827903
 30
0.0
 11
424.08317385
 21
50.90827903
 31
0.0
  0
LINE
  5
37C
330
6FA
100
AcDbEntity
  8
YKK_D
100
AcDbLine
 10
424.08317385
 20
86.40827903
 30
0.0
 11
424.08317385
 21
50.90827903
 31
0.0
  0
TEXT
  5
37D
330
6FA
100
AcDbEntity
  8
USER1
 62
     3
100
AcDbText
 10
434.87126289
 20
21.0007
 30
0.0
 40
5.6
  1
2PT60A04
100
AcDbText
  0
LINE
  5
37E
330
6FA
100
AcDbEntity
  8
YKK_D
100
AcDbLine
 10
431.01136599
 20
55.40827903
 30
0.0
 11
431.01136599
 21
47.40827903
 31
0.0
  0
LINE
  5
37F
330
6FA
100
AcDbEntity
  8
YKK_D
100
AcDbLine
 10
424.08317385
 20
51.40827903
 30
0.0
 11
431.01136599
 21
55.40827903
 31
0.0
  0
LINE
  5
380
330
6FA
100
AcDbEntity
  8
YKK_D
100
AcDbLine
 10
424.08317385
 20
51.40827903
 30
0.0
 11
431.01136599
 21
47.40827903
 31
0.0
  0
TEXT
  5
381
330
6FA
100
AcDbEntity
  8
YKK_D
100
AcDbText
 10
453.18317995
 20
101.42661994
 30
0.0
 40
4.35000038
  1
２８
 50
90.0000025
 41
0.76628346
100
AcDbText
  0
LINE
  5
382
330
6FA
100
AcDbEntity
  8
YKK_D
100
AcDbLine
 10
434.42004595
 20
91.40827903
 30
0.0
 11
454.58317385
 21
91.40827903
 31
0.0
  0
LINE
  5
383
330
6FA
100
AcDbEntity
  8
YKK_D
100
AcDbLine
 10
434.42004595
 20
91.40827903
 30
0.0
 11
474.58317385
 21
91.40827903
 31
0.0
  0
ARC
  5
388
330
6FA
100
AcDbEntity
  8
YKK_W1
100
AcDbCircle
 10
422.48316783
 20
93.00828139
 30
0.0
 40
1.599999999999994
100
AcDbArc
 50
270.0
 51
0.0
  0
TEXT
  5
391
330
6FA
100
AcDbEntity
  8
YKK_ZWAK
  6
Continuous
 62
   254
100
AcDbText
 10
498.63142106
 20
22.0437014
 30
0.0
 40
7.0
  1
工事
 41
0.9
  7
YKK_OSSTYLE1
100
AcDbText
  0
TEXT
  5
392
330
6FA
100
AcDbEntity
  8
YKK_ZWAK
  6
Continuous
 62
   131
100
AcDbText
 10
520.18912694
 20
29.21975
 30
0.0
 40
4.2
  1
照  査
 41
0.9
  7
YKK_OSSTYLE1
100
AcDbText
  0
LINE
  5
393
330
6FA
100
AcDbEntity
  8
YKK_ZWAK
  6
Continuous
 62
   131
100
AcDbLine
 10
585.5701628
 20
17.2638368
 30
0.0
 11
595.2635444
 21
26.9572184
 31
0.0
  0
LINE
  5
394
330
6FA
100
AcDbEntity
  8
YKK_ZWAK
  6
Continuous
 62
   131
100
AcDbLine
 10
560.0000126
 20
35.0000014
 30
0.0
 11
560.0000126
 21
0.0
 31
0.0
  0
LINE
  5
395
330
6FA
100
AcDbEntity
  8
YKK_ZWAK
  6
Continuous
 62
   254
100
AcDbLine
 10
582.400014
 20
35.0000014
 30
0.0
 11
582.400014
 21
0.0
 31
0.0
  0
LINE
  5
396
330
6FA
100
AcDbEntity
  8
YKK_ZWAK
  6
Continuous
 62
   254
100
AcDbLine
 10
603.400014
 20
35.0000014
 30
0.0
 11
603.400014
 21
0.0
 31
0.0
  0
TEXT
  5
397
330
6FA
100
AcDbEntity
  8
USER1
 62
     3
100
AcDbText
 10
594.06666527
 20
15.4007
 30
0.0
 40
5.6
  1
1
 72
     1
 11
594.9999986
 21
18.2007
 31
0.0
100
AcDbText
 73
     2
  0
TEXT
  5
398
330
6FA
100
AcDbEntity
  8
YKK_ZWAK
  6
Continuous
 62
   131
100
AcDbText
 10
564.45492956
 20
1.053955
 30
0.0
 40
4.9
  1
 ． ．
 41
0.9
  7
YKK_OSSTYLE1
100
AcDbText
  0
LINE
  5
399
330
6FA
100
AcDbEntity
  8
YKK_ZWAK
  6
Continuous
 62
   131
100
AcDbLine
 10
590.8722428
 20
1.6549638
 30
0.0
 11
600.396118
 21
11.1788376
 31
0.0
  0
LINE
  5
39A
330
6FA
100
AcDbEntity
  8
YKK_ZWAK
  6
Continuous
 62
   131
100
AcDbLine
 10
608.43999664
 20
2.1
 30
0.0
 11
608.43999664
 21
0.0
 31
0.0
  0
LINE
  5
39B
330
6FA
100
AcDbEntity
  8
YKK_ZWAK
  6
Continuous
 62
   131
100
AcDbLine
 10
613.47997928
 20
2.1
 30
0.0
 11
613.47997928
 21
0.0
 31
0.0
  0
LINE
  5
39C
330
6FA
100
AcDbEntity
  8
YKK_ZWAK
  6
Continuous
 62
   131
100
AcDbLine
 10
618.51996192
 20
2.1
 30
0.0
 11
618.51996192
 21
0.0
 31
0.0
  0
LINE
  5
39D
330
6FA
100
AcDbEntity
  8
YKK_ZWAK
  6
Continuous
 62
   131
100
AcDbLine
 10
623.55994456
 20
2.1
 30
0.0
 11
623.55994456
 21
0.0
 31
0.0
  0
LINE
  5
39E
330
6FA
100
AcDbEntity
  8
YKK_ZWAK
  6
Continuous
 62
   131
100
AcDbLine
 10
628.5999272
 20
2.1
 30
0.0
 11
628.5999272
 21
0.0
 31
0.0
  0
LINE
  5
39F
330
6FA
100
AcDbEntity
  8
YKK_ZWAK
  6
Continuous
 62
   131
100
AcDbLine
 10
638.67989248
 20
2.1
 30
0.0
 11
638.67989248
 21
0.0
 31
0.0
  0
LINE
  5
3A0
330
6FA
100
AcDbEntity
  8
YKK_ZWAK
  6
Continuous
 62
   131
100
AcDbLine
 10
633.63990984
 20
2.1
 30
0.0
 11
633.63990984
 21
0.0
 31
0.0
  0
LINE
  5
3A1
330
6FA
100
AcDbEntity
  8
YKK_ZWAK
  6
Continuous
 62
   131
100
AcDbLine
 10
648.75985776
 20
2.1
 30
0.0
 11
648.75985776
 21
0.0
 31
0.0
  0
LINE
  5
3A2
330
6FA
100
AcDbEntity
  8
YKK_ZWAK
  6
Continuous
 62
   131
100
AcDbLine
 10
643.71987512
 20
2.1
 30
0.0
 11
643.71987512
 21
0.0
 31
0.0
  0
LINE
  5
3A3
330
6FA
100
AcDbEntity
  8
YKK_ZWAK
  6
Continuous
 62
   131
100
AcDbLine
 10
653.7998404
 20
2.1
 30
0.0
 11
653.7998404
 21
0.0
 31
0.0
  0
LINE
  5
3A4
330
6FA
100
AcDbEntity
  8
YKK_ZWAK
  6
Continuous
 62
   131
100
AcDbLine
 10
658.83982304
 20
2.1
 30
0.0
 11
658.83982304
 21
0.0
 31
0.0
  0
LINE
  5
3A5
330
6FA
100
AcDbEntity
  8
YKK_ZWAK
  6
Continuous
 62
   131
100
AcDbLine
 10
663.87980568
 20
2.1
 30
0.0
 11
663.87980568
 21
0.0
 31
0.0
  0
LINE
  5
3A6
330
6FA
100
AcDbEntity
  8
YKK_ZWAK
  6
Continuous
 62
   131
100
AcDbLine
 10
673.95977096
 20
2.1
 30
0.0
 11
673.95977096
 21
0.0
 31
0.0
  0
LINE
  5
3A7
330
6FA
100
AcDbEntity
  8
YKK_ZWAK
  6
Continuous
 62
   131
100
AcDbLine
 10
668.91978832
 20
2.1
 30
0.0
 11
668.91978832
 21
0.0
 31
0.0
  0
LINE
  5
3A8
330
6FA
100
AcDbEntity
  8
YKK_ZWAK
  6
Continuous
 62
   131
100
AcDbLine
 10
678.9997536
 20
2.1
 30
0.0
 11
678.9997536
 21
0.0
 31
0.0
  0
TEXT
  5
3A9
330
6FA
100
AcDbEntity
  8
YKK_ZWAK
  6
Continuous
 62
   131
100
AcDbText
 10
606.0671316
 20
29.4672014
 30
0.0
 40
4.2
  1
御承認印
 41
0.9
  7
YKK_OSSTYLE1
100
AcDbText
  0
LINE
  5
3AA
330
6FA
100
AcDbEntity
  8
YKK_ZWAK
  6
Continuous
 62
   131
100
AcDbLine
 10
583.384214
 20
28.0007014
 30
0.0
 11
603.400014
 21
28.0007014
 31
0.0
  0
TEXT
  5
3AB
330
6FA
100
AcDbEntity
  8
YKK_ZWAK
  6
Continuous
 62
   131
100
AcDbText
 10
564.31997454
 20
29.2379514
 30
0.0
 40
4.2
  1
作  図
 41
0.9
  7
YKK_OSSTYLE1
100
AcDbText
  0
TEXT
  5
3AC
330
6FA
100
AcDbEntity
  8
YKK_ZWAK
  6
Continuous
 62
   131
100
AcDbText
 10
585.91227394
 20
29.4629482
 30
0.0
 40
4.2
  1
尺  度
 41
0.9
  7
YKK_OSSTYLE1
100
AcDbText
  0
TEXT
  5
3AD
330
6FA
100
AcDbEntity
  8
USER1
 62
     3
100
AcDbText
 10
585.1999986
 20
21.0007
 30
0.0
 40
5.6
  1
1
100
AcDbText
  0
LINE
  5
3AE
330
6FA
100
AcDbEntity
  8
YKK_D
100
AcDbLine
 10
674.08317385
 20
86.40827903
 30
0.0
 11
674.08317385
 21
50.90827903
 31
0.0
  0
LINE
  5
3AF
330
6FA
100
AcDbEntity
  8
YKK_D
100
AcDbLine
 10
674.08317385
 20
86.40827903
 30
0.0
 11
674.08317385
 21
50.90827903
 31
0.0
  0
LINE
  5
3B0
330
6FA
100
AcDbEntity
  8
YKK_D
100
AcDbLine
 10
674.08317385
 20
51.40827903
 30
0.0
 11
667.15495119
 21
55.40827903
 31
0.0
  0
LINE
  5
3B1
330
6FA
100
AcDbEntity
  8
YKK_D
100
AcDbLine
 10
667.15495119
 20
55.40827903
 30
0.0
 11
667.15495119
 21
47.40827903
 31
0.0
  0
LINE
  5
3B2
330
6FA
100
AcDbEntity
  8
YKK_D
100
AcDbLine
 10
674.08317385
 20
51.40827903
 30
0.0
 11
667.15495119
 21
47.40827903
 31
0.0
  0
ARC
  5
3B7
330
6FA
100
AcDbEntity
  8
YKK_W1
100
AcDbCircle
 10
675.68316783
 20
93.00828139
 30
0.0
 40
1.599999999999994
100
AcDbArc
 50
180.0
 51
270.0
  0
TEXT
  5
3B8
330
6FA
100
AcDbEntity
  8
YKK_W1
 62
     7
100
AcDbText
 10
535.30469316
 20
268.4882246
 30
0.0
 40
4.35000038
  1
メーターＢＯＸ
 41
0.76628346
100
AcDbText
  0
LINE
  5
3B9
330
6FA
100
AcDbEntity
  8
YKK_D
100
AcDbLine
 10
521.58317385
 20
207.55003796
 30
0.0
 11
576.58317385
 21
207.55003796
 31
0.0
  0
LINE
  5
3BA
330
6FA
100
AcDbEntity
  8
YKK_W1
100
AcDbLine
 10
631.83316783
 20
230.75004052
 30
0.0
 11
466.33316783
 21
230.75004052
 31
0.0
  0
LINE
  5
3BB
330
6FA
100
AcDbEntity
  8
YKK_W1
 62
   253
100
AcDbLine
 10
631.83316783
 20
229.15004052
 30
0.0
 11
466.33316783
 21
229.15004052
 31
0.0
  0
LINE
  5
3BC
330
6FA
100
AcDbEntity
  8
YKK_W1
100
AcDbLine
 10
631.83316783
 20
229.15004052
 30
0.0
 11
466.33316783
 21
229.15004052
 31
0.0
  0
LINE
  5
3BD
330
6FA
100
AcDbEntity
  8
YKK_W1
 62
   253
100
AcDbLine
 10
631.83316783
 20
227.55004052
 30
0.0
 11
466.33316783
 21
227.55004052
 31
0.0
  0
LINE
  5
3BE
330
6FA
100
AcDbEntity
  8
YKK_W1
  6
HASENP
 62
   253
100
AcDbLine
 10
466.33316783
 20
284.15004052
 30
0.0
 11
631.83316783
 21
284.15004052
 31
0.0
  0
LINE
  5
3BF
330
6FA
100
AcDbEntity
  8
YKK_W3
100
AcDbLine
 10
631.83316783
 20
285.75004052
 30
0.0
 11
466.33316783
 21
285.75004052
 31
0.0
  0
LINE
  5
3C0
330
6FA
100
AcDbEntity
  8
YKK_W3
100
AcDbLine
 10
550.58316783
 20
119.40828139
 30
0.0
 11
675.58316783
 21
119.40828139
 31
0.0
  0
TEXT
  5
3C1
330
6FA
100
AcDbEntity
  8
YKK_D
100
AcDbText
 10
539.1198404
 20
184.90828666
 30
0.0
 40
10.0
  1
ＤＷ
100
AcDbText
  0
LINE
  5
3C2
330
6FA
100
AcDbEntity
  8
YKK_W3
100
AcDbLine
 10
422.58316783
 20
119.40828139
 30
0.0
 11
547.58316783
 21
119.40828139
 31
0.0
  0
LINE
  5
3C3
330
6FA
100
AcDbEntity
  8
YKK_D
100
AcDbLine
 10
434.83479128
 20
151.40828666
 30
0.0
 11
454.58317385
 21
151.40828666
 31
0.0
  0
LINE
  5
3C4
330
6FA
100
AcDbEntity
  8
YKK_D
100
AcDbLine
 10
434.83479128
 20
151.40828666
 30
0.0
 11
474.58317385
 21
151.40828666
 31
0.0
  0
TEXT
  5
3C5
330
6FA
100
AcDbEntity
  8
YKK_D
100
AcDbText
 10
453.18317995
 20
152.23698371
 30
0.0
 40
4.35000038
  1
４
 50
90.0000025
 41
0.76628346
100
AcDbText
  0
LINE
  5
3C6
330
6FA
100
AcDbEntity
  8
YKK_D
100
AcDbLine
 10
434.6343318
 20
122.40828666
 30
0.0
 11
454.58317385
 21
122.40828666
 31
0.0
  0
TEXT
  5
3C7
330
6FA
100
AcDbEntity
  8
YKK_D
100
AcDbText
 10
453.18317995
 20
118.92661994
 30
0.0
 40
4.35000038
  1
３
 50
90.0000025
 41
0.76628346
100
AcDbText
  0
TEXT
  5
3C8
330
6FA
100
AcDbEntity
  8
YKK_D
100
AcDbText
 10
453.18317995
 20
130.92661994
 30
0.0
 40
4.35000038
  1
２５
 50
90.0000025
 41
0.76628346
100
AcDbText
  0
LINE
  5
3C9
330
6FA
100
AcDbEntity
  8
YKK_W1
100
AcDbLine
 10
423.08316783
 20
123.60828139
 30
0.0
 11
423.08316783
 21
122.40828139
 31
0.0
  0
ARC
  5
3CA
330
6FA
100
AcDbEntity
  8
YKK_W1
100
AcDbCircle
 10
422.48316783
 20
117.80828139
 30
0.0
 40
1.600000000000023
100
AcDbArc
 50
0.0
 51
90.0
  0
LINE
  5
3CB
330
6FA
100
AcDbEntity
  8
YKK_D
100
AcDbLine
 10
454.08317385
 20
147.40828666
 30
0.0
 11
454.08317385
 21
122.40828666
 31
0.0
  0
LINE
  5
3DC
330
6FA
100
AcDbEntity
  8
YKK_D
100
AcDbLine
 10
454.08317385
 20
122.40828666
 30
0.0
 11
454.08317385
 21
119.40828666
 31
0.0
  0
TEXT
  5
3DD
330
6FA
100
AcDbEntity
  8
YKK_D
100
AcDbText
 10
473.18314944
 20
117.42661994
 30
0.0
 40
4.35000038
  1
６０
 50
90.0000025
 41
0.76628346
100
AcDbText
  0
LINE
  5
3EA
330
6FA
100
AcDbEntity
  8
YKK_D
100
AcDbLine
 10
454.08317385
 20
156.618651
 30
0.0
 11
454.08317385
 21
147.40828666
 31
0.0
  0
LINE
  5
3EF
330
6FA
100
AcDbEntity
  8
YKK_D
100
AcDbLine
 10
424.08317385
 20
207.55003796
 30
0.0
 11
521.58317385
 21
207.55003796
 31
0.0
  0
LINE
  5
3F0
330
6FA
100
AcDbEntity
  8
YKK_W1
100
AcDbLine
 10
424.08316783
 20
231.25004052
 30
0.0
 11
424.08316783
 21
282.55004052
 31
0.0
  0
LINE
  5
3F1
330
6FA
100
AcDbEntity
  8
YKK_W1
100
AcDbLine
 10
422.48316783
 20
230.75004052
 30
0.0
 11
422.48316783
 21
282.05004052
 31
0.0
  0
LINE
  5
3F2
330
6FA
100
AcDbEntity
  8
YKK_W1
100
AcDbLine
 10
463.33316783
 20
230.75004052
 30
0.0
 11
424.58316783
 21
230.75004052
 31
0.0
  0
LINE
  5
3F3
330
6FA
100
AcDbEntity
  8
YKK_W1
 62
   253
100
AcDbLine
 10
463.33316783
 20
229.15004052
 30
0.0
 11
422.48316783
 21
229.15004052
 31
0.0
  0
LINE
  5
3F4
330
6FA
100
AcDbEntity
  8
YKK_W1
100
AcDbLine
 10
463.33316783
 20
229.15004052
 30
0.0
 11
424.08316783
 21
229.15004052
 31
0.0
  0
LINE
  5
3F5
330
6FA
100
AcDbEntity
  8
YKK_W1
 62
   253
100
AcDbLine
 10
463.33316783
 20
227.55004052
 30
0.0
 11
422.48316783
 21
227.55004052
 31
0.0
  0
LINE
  5
3F6
330
6FA
100
AcDbEntity
  8
YKK_D
100
AcDbLine
 10
424.08317385
 20
222.55003796
 30
0.0
 11
424.08317385
 21
207.05003796
 31
0.0
  0
LINE
  5
3F7
330
6FA
100
AcDbEntity
  8
YKK_D
100
AcDbLine
 10
424.08317385
 20
222.55003796
 30
0.0
 11
424.08317385
 21
207.05003796
 31
0.0
  0
ARC
  5
400
330
6FA
100
AcDbEntity
  8
YKK_W1
100
AcDbCircle
 10
424.08316783
 20
230.75004052
 30
0.0
 40
1.6
100
AcDbArc
 50
180.0
 51
270.0
  0
ARC
  5
401
330
6FA
100
AcDbEntity
  8
YKK_W1
100
AcDbCircle
 10
424.58316783
 20
231.25004052
 30
0.0
 40
0.5
100
AcDbArc
 50
180.0
 51
270.0
  0
LINE
  5
402
330
6FA
100
AcDbEntity
  8
YKK_W1
 62
   253
100
AcDbLine
 10
422.48316783
 20
227.55004052
 30
0.0
 11
422.48316783
 21
229.15004052
 31
0.0
  0
TEXT
  5
403
330
6FA
100
AcDbEntity
  8
YKK_D
100
AcDbText
 10
470.85150713
 20
208.45003185
 30
0.0
 40
4.35000038
  1
Ａ
 41
0.76628346
100
AcDbText
  0
LINE
  5
404
330
6FA
100
AcDbEntity
  8
YKK_W1
  6
HASENP
 62
   253
100
AcDbLine
 10
422.48316783
 20
284.15004052
 30
0.0
 11
463.33316783
 21
284.15004052
 31
0.0
  0
LINE
  5
405
330
6FA
100
AcDbEntity
  8
YKK_W3
100
AcDbLine
 10
463.33316783
 20
285.75004052
 30
0.0
 11
424.08316783
 21
285.75004052
 31
0.0
  0
ARC
  5
406
330
6FA
100
AcDbEntity
  8
YKK_W1
100
AcDbCircle
 10
422.58316783
 20
285.65004052
 30
0.0
 40
1.5
100
AcDbArc
 50
270.0
 51
0.0
  0
ARC
  5
407
330
6FA
100
AcDbEntity
  8
YKK_W1
100
AcDbCircle
 10
421.98316783
 20
282.05004052
 30
0.0
 40
0.5
100
AcDbArc
 50
0.0
 51
90.0
  0
ARC
  5
408
330
6FA
100
AcDbEntity
  8
YKK_W1
100
AcDbCircle
 10
422.48316783
 20
282.55004052
 30
0.0
 40
1.6
100
AcDbArc
 50
0.0
 51
90.0
  0
LINE
  5
40D
330
6FA
100
AcDbEntity
  8
YKK_W1
  6
ITTENSAP
 62
   253
100
AcDbLine
 10
521.58316783
 20
246.55004052
 30
0.0
 11
521.58316783
 21
262.55004052
 31
0.0
  0
CIRCLE
  5
40E
330
6FA
100
AcDbEntity
  8
YKK_W1
100
AcDbCircle
 10
521.58316783
 20
254.55004052
 30
0.0
 40
6.0
  0
LINE
  5
40F
330
6FA
100
AcDbEntity
  8
YKK_D
100
AcDbLine
 10
521.58317385
 20
222.55003796
 30
0.0
 11
521.58317385
 21
207.05003796
 31
0.0
  0
TEXT
  5
418
330
6FA
100
AcDbEntity
  8
YKK_D
100
AcDbText
 10
547.10150713
 20
208.45003185
 30
0.0
 40
4.35000038
  1
Ａ
 41
0.76628346
100
AcDbText
  0
LINE
  5
419
330
6FA
100
AcDbEntity
  8
YKK_W1
  6
ITTENSAP
 62
   253
100
AcDbLine
 10
529.58316783
 20
254.55004052
 30
0.0
 11
513.58316783
 21
254.55004052
 31
0.0
  0
LINE
  5
41A
330
6FA
100
AcDbEntity
  8
YKK_W1
100
AcDbLine
 10
675.08316783
 20
123.60828139
 30
0.0
 11
675.08316783
 21
122.40828139
 31
0.0
  0
ARC
  5
41B
330
6FA
100
AcDbEntity
  8
YKK_W1
100
AcDbCircle
 10
675.68316783
 20
117.80828139
 30
0.0
 40
1.600000000000135
100
AcDbArc
 50
90.0
 51
180.0
  0
LINE
  5
41C
330
6FA
100
AcDbEntity
  8
YKK_D
100
AcDbLine
 10
576.58317385
 20
207.55003796
 30
0.0
 11
674.08317385
 21
207.55003796
 31
0.0
  0
LINE
  5
41D
330
6FA
100
AcDbEntity
  8
YKK_W1
  6
ITTENSAP
 62
   253
100
AcDbLine
 10
576.58316783
 20
246.55004052
 30
0.0
 11
576.58316783
 21
262.55004052
 31
0.0
  0
CIRCLE
  5
41E
330
6FA
100
AcDbEntity
  8
YKK_W1
100
AcDbCircle
 10
576.58316783
 20
254.55004052
 30
0.0
 40
6.0
  0
LINE
  5
41F
330
6FA
100
AcDbEntity
  8
YKK_D
100
AcDbLine
 10
576.58317385
 20
222.55003796
 30
0.0
 11
576.58317385
 21
207.05003796
 31
0.0
  0
LINE
  5
428
330
6FA
100
AcDbEntity
  8
YKK_W1
  6
ITTENSAP
 62
   253
100
AcDbLine
 10
568.58316783
 20
254.55004052
 30
0.0
 11
584.58316783
 21
254.55004052
 31
0.0
  0
LINE
  5
429
330
6FA
100
AcDbEntity
  8
YKK_W1
100
AcDbLine
 10
674.08316783
 20
231.25004052
 30
0.0
 11
674.08316783
 21
282.55004052
 31
0.0
  0
LINE
  5
42A
330
6FA
100
AcDbEntity
  8
YKK_W1
100
AcDbLine
 10
675.68316783
 20
230.75004052
 30
0.0
 11
675.68316783
 21
282.05004052
 31
0.0
  0
LINE
  5
42B
330
6FA
100
AcDbEntity
  8
YKK_W1
100
AcDbLine
 10
673.58316783
 20
230.75004052
 30
0.0
 11
634.83316783
 21
230.75004052
 31
0.0
  0
LINE
  5
42C
330
6FA
100
AcDbEntity
  8
YKK_W1
 62
   253
100
AcDbLine
 10
675.68316783
 20
229.15004052
 30
0.0
 11
634.83316783
 21
229.15004052
 31
0.0
  0
LINE
  5
42D
330
6FA
100
AcDbEntity
  8
YKK_W1
100
AcDbLine
 10
674.08316783
 20
229.15004052
 30
0.0
 11
634.83316783
 21
229.15004052
 31
0.0
  0
LINE
  5
42E
330
6FA
100
AcDbEntity
  8
YKK_W1
 62
   253
100
AcDbLine
 10
675.68316783
 20
227.55004052
 30
0.0
 11
634.83316783
 21
227.55004052
 31
0.0
  0
TEXT
  5
42F
330
6FA
100
AcDbEntity
  8
YKK_D
100
AcDbText
 10
623.35150713
 20
208.45003185
 30
0.0
 40
4.35000038
  1
Ａ
 41
0.76628346
100
AcDbText
  0
LINE
  5
430
330
6FA
100
AcDbEntity
  8
YKK_D
100
AcDbLine
 10
674.08317385
 20
222.55003796
 30
0.0
 11
674.08317385
 21
207.05003796
 31
0.0
  0
LINE
  5
431
330
6FA
100
AcDbEntity
  8
YKK_D
100
AcDbLine
 10
674.08317385
 20
222.55003796
 30
0.0
 11
674.08317385
 21
207.05003796
 31
0.0
  0
ARC
  5
43A
330
6FA
100
AcDbEntity
  8
YKK_W1
100
AcDbCircle
 10
674.08316783
 20
230.75004052
 30
0.0
 40
1.6
100
AcDbArc
 50
270.0
 51
0.0
  0
ARC
  5
43B
330
6FA
100
AcDbEntity
  8
YKK_W1
100
AcDbCircle
 10
673.58316783
 20
231.25004052
 30
0.0
 40
0.5
100
AcDbArc
 50
270.0
 51
0.0
  0
LINE
  5
43C
330
6FA
100
AcDbEntity
  8
YKK_W1
 62
   253
100
AcDbLine
 10
675.68316783
 20
227.55004052
 30
0.0
 11
675.68316783
 21
229.15004052
 31
0.0
  0
LINE
  5
43D
330
6FA
100
AcDbEntity
  8
YKK_W1
  6
HASENP
 62
   253
100
AcDbLine
 10
634.83316783
 20
284.15004052
 30
0.0
 11
675.68316783
 21
284.15004052
 31
0.0
  0
LINE
  5
43E
330
6FA
100
AcDbEntity
  8
YKK_W3
100
AcDbLine
 10
674.08316783
 20
285.75004052
 30
0.0
 11
634.83316783
 21
285.75004052
 31
0.0
  0
ARC
  5
43F
330
6FA
100
AcDbEntity
  8
YKK_W1
100
AcDbCircle
 10
675.68316783
 20
285.75004052
 30
0.0
 40
1.600000000000023
100
AcDbArc
 50
180.0
 51
270.0
  0
ARC
  5
440
330
6FA
100
AcDbEntity
  8
YKK_W1
100
AcDbCircle
 10
675.68316783
 20
282.55004052
 30
0.0
 40
1.6
100
AcDbArc
 50
90.0
 51
180.0
  0
ARC
  5
441
330
6FA
100
AcDbEntity
  8
YKK_W1
100
AcDbCircle
 10
676.18316783
 20
282.05004052
 30
0.0
 40
0.5
100
AcDbArc
 50
90.0
 51
180.0
  0
LINE
  5
446
330
6FA
100
AcDbEntity
  8
YKK_W2
  6
HASENP
100
AcDbLine
 10
698.36504572
 20
93.61650362
 30
0.0
 11
710.26504572
 21
137.01454505
 31
0.0
  0
LINE
  5
447
330
6FA
100
AcDbEntity
  8
YKK_W2
  6
HASENP
100
AcDbLine
 10
712.48316783
 20
136.40632283
 30
0.0
 11
700.58316783
 21
93.00828139
 31
0.0
  0
CIRCLE
  5
448
330
6FA
100
AcDbEntity
  8
YKK_ZWAK
  6
Continuous
 62
     8
100
AcDbCircle
 10
781.7964182
 20
104.6080028
 30
0.0
 40
8.819999999999998
  0
ARC
  5
449
330
6FA
100
AcDbEntity
  8
YKK_ZWAK
  6
Continuous
 62
   254
100
AcDbCircle
 10
764.67176845
 20
15.55972371
 30
0.0
 40
4.34110605765921
100
AcDbArc
 50
14.44572328
 51
87.08746338
  0
ARC
  5
44A
330
6FA
100
AcDbEntity
  8
YKK_ZWAK
  6
Continuous
 62
   254
100
AcDbCircle
 10
737.80646595
 20
16.94459453
 30
0.0
 40
2.443647515679662
100
AcDbArc
 50
109.02126645
 51
161.5126404
  0
ARC
  5
44B
330
6FA
100
AcDbEntity
  8
YKK_ZWAK
  6
Continuous
 62
   254
100
AcDbCircle
 10
746.73031337
 20
15.50351314
 30
0.0
 40
4.448479416583055
100
AcDbArc
 50
40.66422291
 51
80.31693569
  0
LINE
  5
44C
330
6FA
100
AcDbEntity
  8
YKK_ZWAK
  6
Continuous
 62
   254
100
AcDbLine
 10
753.2278138
 20
19.903597
 30
0.0
 11
753.2278138
 21
0.7936334
 31
0.0
  0
LINE
  5
44D
330
6FA
100
AcDbEntity
  8
YKK_ZWAK
  6
Continuous
 62
   254
100
AcDbLine
 10
704.1996668
 20
35.0000014
 30
0.0
 11
704.1996668
 21
0.0
 31
0.0
  0
LINE
  5
44E
330
6FA
100
AcDbEntity
  8
YKK_ZWAK
  6
Continuous
 62
   254
100
AcDbLine
 10
732.2000168
 20
35.0000014
 30
0.0
 11
732.2000168
 21
0.0
 31
0.0
  0
LINE
  5
44F
330
6FA
100
AcDbEntity
  8
YKK_ZWAK
  6
Continuous
 62
   254
100
AcDbLine
 10
750.7951486
 20
0.7665728
 30
0.0
 11
739.7670574
 21
0.7395108
 31
0.0
  0
LINE
  5
450
330
6FA
100
AcDbEntity
  8
YKK_ZWAK
  6
Continuous
 62
   254
100
AcDbLine
 10
704.1996668
 20
16.8007014
 30
0.0
 11
732.2000168
 21
16.8007014
 31
0.0
  0
LINE
  5
451
330
6FA
100
AcDbEntity
  8
YKK_ZWAK
  6
Continuous
 62
   131
100
AcDbLine
 10
732.2000168
 20
9.8007
 30
0.0
 11
704.1996668
 21
9.8007
 31
0.0
  0
TEXT
  5
452
330
6FA
100
AcDbEntity
  8
YKK_ZWAK
  6
Continuous
 62
   131
100
AcDbText
 10
707.87874225
 20
10.91549064
 30
0.0
 40
4.48
  1
通し図番
 41
0.9
  7
YKK_OSSTYLE1
100
AcDbText
  0
LINE
  5
453
330
6FA
100
AcDbEntity
  8
YKK_ZWAK
  6
Continuous
 62
   131
100
AcDbLine
 10
684.03973624
 20
2.1
 30
0.0
 11
684.03973624
 21
0.0
 31
0.0
  0
LINE
  5
454
330
6FA
100
AcDbEntity
  8
YKK_ZWAK
  6
Continuous
 62
   131
100
AcDbLine
 10
689.07971888
 20
2.1
 30
0.0
 11
689.07971888
 21
0.0
 31
0.0
  0
LINE
  5
455
330
6FA
100
AcDbEntity
  8
YKK_ZWAK
  6
Continuous
 62
   131
100
AcDbLine
 10
699.15968416
 20
2.1
 30
0.0
 11
699.15968416
 21
0.0
 31
0.0
  0
LINE
  5
456
330
6FA
100
AcDbEntity
  8
YKK_ZWAK
  6
Continuous
 62
   131
100
AcDbLine
 10
694.11970152
 20
2.1
 30
0.0
 11
694.11970152
 21
0.0
 31
0.0
  0
LINE
  5
457
330
6FA
100
AcDbEntity
  8
YKK_ZWAK
  6
Continuous
 62
   254
100
AcDbLine
 10
746.2271488
 20
4.9291368
 30
0.0
 11
746.2271488
 21
14.6598298
 31
0.0
  0
ARC
  5
458
330
6FA
100
AcDbEntity
  8
YKK_ZWAK
  6
Continuous
 62
   254
100
AcDbCircle
 10
741.78219579
 20
6.67194136
 30
0.0
 40
2.368496244058476
100
AcDbArc
 50
171.08203026
 51
216.71922793
  0
ARC
  5
459
330
6FA
100
AcDbEntity
  8
YKK_ZWAK
  6
Continuous
 62
   254
100
AcDbCircle
 10
745.6488382
 20
6.60518138
 30
0.0
 40
11.08246594050609
100
AcDbArc
 50
168.7637177
 51
199.80079153
  0
ARC
  5
45A
330
6FA
100
AcDbEntity
  8
YKK_ZWAK
  6
Continuous
 62
   254
100
AcDbCircle
 10
740.85009637
 20
6.43503977
 30
0.0
 40
1.52572188408749
100
AcDbArc
 50
230.97279559
 51
260.75491133
  0
LINE
  5
45B
330
6FA
100
AcDbEntity
  8
YKK_ZWAK
  6
Continuous
 62
   254
100
AcDbLine
 10
739.7670574
 20
0.7395108
 30
0.0
 11
738.2804352
 21
0.7395108
 31
0.0
  0
ARC
  5
45C
330
6FA
100
AcDbEntity
  8
YKK_ZWAK
  6
Continuous
 62
   254
100
AcDbCircle
 10
738.64010098
 20
4.55749264
 30
0.0
 40
3.8229057747627
100
AcDbArc
 50
207.31435415
 51
263.59464075
  0
LINE
  5
45D
330
6FA
100
AcDbEntity
  8
YKK_ZWAK
  6
Continuous
 62
   254
100
AcDbLine
 10
746.2271488
 20
4.9302176
 30
0.0
 11
746.2282282
 21
4.9291368
 31
0.0
  0
LINE
  5
45E
330
6FA
100
AcDbEntity
  8
YKK_ZWAK
  6
Continuous
 62
   254
100
AcDbLine
 10
745.7946566
 20
4.9291368
 30
0.0
 11
746.146058
 21
4.9291368
 31
0.0
  0
LINE
  5
45F
330
6FA
100
AcDbEntity
  8
YKK_ZWAK
  6
Continuous
 62
   254
100
AcDbLine
 10
740.6049686
 20
4.9291368
 30
0.0
 11
746.2271488
 21
4.9291368
 31
0.0
  0
ARC
  5
460
330
6FA
100
AcDbEntity
  8
YKK_ZWAK
  6
Continuous
 62
   254
100
AcDbCircle
 10
741.72033365
 20
-0.85392779
 30
0.0
 40
13.3089797551028
100
AcDbArc
 50
79.38097908
 51
112.0582515
  0
ARC
  5
461
330
6FA
100
AcDbEntity
  8
YKK_ZWAK
  6
Continuous
 62
   254
100
AcDbCircle
 10
741.31496171
 20
14.02934432
 30
0.0
 40
1.700954585808626
100
AcDbArc
 50
85.50551117
 51
126.78038212
  0
ARC
  5
462
330
6FA
100
AcDbEntity
  8
YKK_ZWAK
  6
Continuous
 62
   254
100
AcDbCircle
 10
740.88981029
 20
7.0206651
 30
0.0
 40
1.444778071622274
100
AcDbArc
 50
90.33952634
 51
178.0363902
  0
ARC
  5
463
330
6FA
100
AcDbEntity
  8
YKK_ZWAK
  6
Continuous
 62
   254
100
AcDbCircle
 10
741.87538001
 20
13.99306162
 30
0.0
 40
2.10926589054342
100
AcDbArc
 50
138.46381796
 51
181.71359389
  0
LINE
  5
464
330
6FA
100
AcDbEntity
  8
YKK_ZWAK
  6
Continuous
 62
   254
100
AcDbLine
 10
735.117971
 20
13.9299874
 30
0.0
 11
735.117971
 21
15.85916684
 31
0.0
  0
LINE
  5
465
330
6FA
100
AcDbEntity
  8
YKK_ZWAK
  6
Continuous
 62
   254
100
AcDbLine
 10
739.7670574
 20
13.9299874
 30
0.0
 11
735.117971
 21
13.9299874
 31
0.0
  0
ARC
  5
466
330
6FA
100
AcDbEntity
  8
YKK_ZWAK
  6
Continuous
 62
   254
100
AcDbCircle
 10
738.626765
 20
8.07254466
 30
0.0
 40
3.908086150713168
100
AcDbArc
 50
121.82711365
 51
169.08474902
  0
ARC
  5
467
330
6FA
100
AcDbEntity
  8
YKK_ZWAK
  6
Continuous
 62
   254
100
AcDbCircle
 10
740.15928536
 20
15.83435216
 30
0.0
 40
5.037359110950339
100
AcDbArc
 50
158.41083245
 51
179.71775245
  0
LINE
  5
468
330
6FA
100
AcDbEntity
  8
YKK_ZWAK
  6
Continuous
 62
   254
100
AcDbLine
 10
744.8756574
 20
8.470042
 30
0.0
 11
740.8812488
 21
8.4654178
 31
0.0
  0
LINE
  5
469
330
6FA
100
AcDbEntity
  8
YKK_ZWAK
  6
Continuous
 62
   254
100
AcDbLine
 10
745.145947
 20
15.7950296
 30
0.0
 11
741.44825396
 21
15.72506826
 31
0.0
  0
LINE
  5
46A
330
6FA
100
AcDbEntity
  8
YKK_ZWAK
  6
Continuous
 62
   254
100
AcDbLine
 10
744.1728812
 20
12.2271254
 30
0.0
 11
744.8756574
 21
12.0649452
 31
0.0
  0
LINE
  5
46B
330
6FA
100
AcDbEntity
  8
YKK_ZWAK
  6
Continuous
 62
   254
100
AcDbLine
 10
744.8756574
 20
12.0649452
 30
0.0
 11
744.8756574
 21
8.470042
 31
0.0
  0
ARC
  5
46C
330
6FA
100
AcDbEntity
  8
YKK_ZWAK
  6
Continuous
 62
   254
100
AcDbCircle
 10
744.65604523
 20
14.2459795
 30
0.0
 40
1.624672258159007
100
AcDbArc
 50
14.7551995
 51
72.44994796
  0
LINE
  5
46D
330
6FA
100
AcDbEntity
  8
YKK_ZWAK
  6
Continuous
 62
   254
100
AcDbLine
 10
764.796487
 20
5.8752204
 30
0.0
 11
765.8776272
 21
6.1184592
 31
0.0
  0
LINE
  5
46E
330
6FA
100
AcDbEntity
  8
YKK_ZWAK
  6
Continuous
 62
   254
100
AcDbLine
 10
759.4716612
 20
10.0107238
 30
0.0
 11
759.4716612
 21
5.8752204
 31
0.0
  0
LINE
  5
46F
330
6FA
100
AcDbEntity
  8
YKK_ZWAK
  6
Continuous
 62
   254
100
AcDbLine
 10
751.1195048
 20
15.4166082
 30
0.0
 11
751.1195048
 21
0.8206324
 31
0.0
  0
LINE
  5
470
330
6FA
100
AcDbEntity
  8
YKK_ZWAK
  6
Continuous
 62
   254
100
AcDbLine
 10
758.2553244
 20
0.7936334
 30
0.0
 11
758.2553244
 21
15.7409686
 31
0.0
  0
LINE
  5
471
330
6FA
100
AcDbEntity
  8
YKK_ZWAK
  6
Continuous
 62
   254
100
AcDbLine
 10
753.2278138
 20
0.7936334
 30
0.0
 11
757.4714574
 21
0.7936334
 31
0.0
  0
LINE
  5
472
330
6FA
100
AcDbEntity
  8
YKK_ZWAK
  6
Continuous
 62
   254
100
AcDbLine
 10
751.1195048
 20
0.8206324
 30
0.0
 11
750.7951486
 21
0.7665728
 31
0.0
  0
LINE
  5
473
330
6FA
100
AcDbEntity
  8
YKK_ZWAK
  6
Continuous
 62
   254
100
AcDbLine
 10
759.4716612
 20
5.8752204
 30
0.0
 11
764.796487
 21
5.8752204
 31
0.0
  0
LINE
  5
474
330
6FA
100
AcDbEntity
  8
YKK_ZWAK
  6
Continuous
 62
   254
100
AcDbLine
 10
757.4714574
 20
0.7936334
 30
0.0
 11
758.2553244
 21
0.7936334
 31
0.0
  0
ARC
  5
475
330
6FA
100
AcDbEntity
  8
YKK_ZWAK
  6
Continuous
 62
   254
100
AcDbCircle
 10
746.5089226
 20
15.51474865
 30
0.0
 40
4.611623791769605
100
AcDbArc
 50
358.78059045
 51
38.76562608
  0
LINE
  5
476
330
6FA
100
AcDbEntity
  8
YKK_ZWAK
  6
Continuous
 62
   254
100
AcDbLine
 10
758.2553244
 20
15.7409686
 30
0.0
 11
762.9043842
 21
15.7409686
 31
0.0
  0
LINE
  5
477
330
6FA
100
AcDbEntity
  8
YKK_ZWAK
  6
Continuous
 62
   254
100
AcDbLine
 10
764.3732194
 20
14.2435412
 30
0.0
 11
764.391005
 21
11.60936871
 31
0.0
  0
ARC
  5
478
330
6FA
100
AcDbEntity
  8
YKK_ZWAK
  6
Continuous
 62
   254
100
AcDbCircle
 10
760.73123094
 20
13.79237255
 30
0.0
 40
3.673387293269127
100
AcDbArc
 50
4.93422741
 51
17.03551963
  0
ARC
  5
479
330
6FA
100
AcDbEntity
  8
YKK_ZWAK
  6
Continuous
 62
   254
100
AcDbCircle
 10
763.06473301
 20
14.52093328
 30
0.0
 40
1.228897466365798
100
AcDbArc
 50
16.43123457
 51
96.91661396
  0
ARC
  5
47A
330
6FA
100
AcDbEntity
  8
YKK_ZWAK
  6
Continuous
 62
   254
100
AcDbCircle
 10
763.0135362
 20
11.31647001
 30
0.0
 40
1.305746617034933
100
AcDbArc
 50
269.95468111
 51
342.90144849
  0
ARC
  5
47B
330
6FA
100
AcDbEntity
  8
YKK_ZWAK
  6
Continuous
 62
   254
100
AcDbCircle
 10
760.70979412
 20
11.95901456
 30
0.0
 40
3.696697411836961
100
AcDbArc
 50
343.69020327
 51
354.7536235
  0
LINE
  5
47C
330
6FA
100
AcDbEntity
  8
YKK_ZWAK
  6
Continuous
 62
   254
100
AcDbLine
 10
763.0125034
 20
10.0107238
 30
0.0
 11
759.4716612
 21
10.0107238
 31
0.0
  0
ARC
  5
47D
330
6FA
100
AcDbEntity
  8
YKK_ZWAK
  6
Continuous
 62
   254
100
AcDbCircle
 10
764.73492782
 20
10.25489935
 30
0.0
 40
4.291374954660762
100
AcDbArc
 50
285.44291453
 51
349.90448123
  0
ARC
  5
47E
330
6FA
100
AcDbEntity
  8
YKK_ZWAK
  6
Continuous
 62
   254
100
AcDbCircle
 10
748.36576292
 20
12.81275499
 30
0.0
 40
20.86005999632355
100
AcDbArc
 50
350.99026817
 51
10.67624521
  0
LINE
  5
47F
330
6FA
100
AcDbEntity
  8
YKK_ZWAK
  6
Continuous
 62
   254
100
AcDbLine
 10
749.9842588
 20
21.7686378
 30
0.0
 11
746.6596144
 21
21.7686378
 31
0.0
  0
LINE
  5
480
330
6FA
100
AcDbEntity
  8
YKK_ZWAK
  6
Continuous
 62
   254
100
AcDbLine
 10
746.6596144
 20
34.1752124
 30
0.0
 11
749.8761508
 21
34.1752124
 31
0.0
  0
LINE
  5
481
330
6FA
100
AcDbEntity
  8
YKK_D
100
AcDbLine
 10
704.08317385
 20
86.40828141
 30
0.0
 11
704.08317385
 21
50.90827903
 31
0.0
  0
LINE
  5
482
330
6FA
100
AcDbEntity
  8
YKK_ZWAK
  6
Continuous
 62
   131
100
AcDbLine
 10
704.1996668
 20
28.0000014
 30
0.0
 11
732.2000168
 21
28.0000014
 31
0.0
  0
TEXT
  5
483
330
6FA
100
AcDbEntity
  8
YKK_ZWAK
  6
Continuous
 62
   131
100
AcDbText
 10
710.39767177
 20
29.13786682
 30
0.0
 40
4.48
  1
図　番
 41
0.9
  7
YKK_OSSTYLE1
100
AcDbText
  0
TEXT
  5
484
330
6FA
100
AcDbEntity
  8
YKK_D
100
AcDbText
 10
685.10150713
 20
52.30828056
 30
0.0
 40
4.35000038
  1
３０
 41
0.76628346
100
AcDbText
  0
LINE
  5
489
330
6FA
100
AcDbEntity
  8
YKK_ZWAK
  6
Continuous
 62
   254
100
AcDbLine
 10
737.5506362
 20
34.0941524
 30
0.0
 11
740.0643908
 21
29.3909868
 31
0.0
  0
LINE
  5
48A
330
6FA
100
AcDbEntity
  8
YKK_ZWAK
  6
Continuous
 62
   254
100
AcDbLine
 10
742.8360506
 20
34.20221
 30
0.0
 11
740.2806124
 21
29.2288066
 31
0.0
  0
LINE
  5
48B
330
6FA
100
AcDbEntity
  8
YKK_ZWAK
  6
Continuous
 62
   254
100
AcDbLine
 10
746.462115
 20
34.20221
 30
0.0
 11
741.9294372
 21
26.174442
 31
0.0
  0
LINE
  5
48C
330
6FA
100
AcDbEntity
  8
YKK_ZWAK
  6
Continuous
 62
   254
100
AcDbLine
 10
738.6318142
 20
26.201441
 30
0.0
 11
734.0367692
 21
34.0941524
 31
0.0
  0
LINE
  5
48D
330
6FA
100
AcDbEntity
  8
YKK_ZWAK
  6
Continuous
 62
   254
100
AcDbLine
 10
746.6596144
 20
21.7686378
 30
0.0
 11
746.6596144
 21
34.1752124
 31
0.0
  0
ARC
  5
48E
330
6FA
100
AcDbEntity
  8
YKK_ZWAK
  6
Continuous
 62
   254
100
AcDbCircle
 10
742.92220794
 20
2.59893493
 30
0.0
 40
17.68008828611943
100
AcDbArc
 50
89.89164773
 51
109.30848271
  0
LINE
  5
48F
330
6FA
100
AcDbEntity
  8
YKK_ZWAK
  6
Continuous
 62
   254
100
AcDbLine
 10
741.9294372
 20
21.7415772
 30
0.0
 11
738.6318142
 21
21.7415772
 31
0.0
  0
LINE
  5
490
330
6FA
100
AcDbEntity
  8
YKK_ZWAK
  6
Continuous
 62
   254
100
AcDbLine
 10
740.0643908
 20
29.3909868
 30
0.0
 11
740.2806124
 21
29.2288066
 31
0.0
  0
LINE
  5
491
330
6FA
100
AcDbEntity
  8
YKK_ZWAK
  6
Continuous
 62
   254
100
AcDbLine
 10
738.6318142
 20
21.7415772
 30
0.0
 11
738.6318142
 21
26.201441
 31
0.0
  0
LINE
  5
492
330
6FA
100
AcDbEntity
  8
YKK_ZWAK
  6
Continuous
 62
   254
100
AcDbLine
 10
741.9294372
 20
26.174442
 30
0.0
 11
741.9294372
 21
21.7415772
 31
0.0
  0
ARC
  5
493
330
6FA
100
AcDbEntity
  8
YKK_ZWAK
  6
Continuous
 62
   254
100
AcDbCircle
 10
743.44144079
 20
-0.46310878
 30
0.0
 40
20.74827378314429
100
AcDbArc
 50
78.78009532
 51
91.46937906
  0
LINE
  5
494
330
6FA
100
AcDbEntity
  8
YKK_ZWAK
  6
Continuous
 62
   254
100
AcDbLine
 10
734.0367692
 20
34.0941524
 30
0.0
 11
737.5506362
 21
34.0941524
 31
0.0
  0
LINE
  5
495
330
6FA
100
AcDbEntity
  8
YKK_ZWAK
  6
Continuous
 62
   254
100
AcDbLine
 10
742.8360506
 20
34.20221
 30
0.0
 11
746.462115
 21
34.20221
 31
0.0
  0
LINE
  5
496
330
6FA
100
AcDbEntity
  8
YKK_D
100
AcDbLine
 10
689.08317385
 20
86.40827903
 30
0.0
 11
689.08317385
 21
70.90827903
 31
0.0
  0
LINE
  5
49B
330
6FA
100
AcDbEntity
  8
YKK_W2
  6
HASENP
100
AcDbLine
 10
700.58316783
 20
93.00828139
 30
0.0
 11
698.36504572
 21
93.61650362
 31
0.0
  0
LINE
  5
49C
330
6FA
100
AcDbEntity
  8
YKK_W1
100
AcDbLine
 10
704.08316783
 20
93.00828139
 30
0.0
 11
704.08316783
 21
91.40828139
 31
0.0
  0
CIRCLE
  5
49D
330
6FA
100
AcDbEntity
  8
YKK_ZWAK
  6
Continuous
 62
     8
100
AcDbCircle
 10
781.7964182
 20
65.0160014
 30
0.0
 40
8.819999999999998
  0
CIRCLE
  5
49E
330
6FA
100
AcDbEntity
  8
YKK_ZWAK
  6
Continuous
 62
     8
100
AcDbCircle
 10
781.7964182
 20
45.2200014
 30
0.0
 40
8.819999999999998
  0
LINE
  5
49F
330
6FA
100
AcDbEntity
  8
YKK_ZWAK
  6
Continuous
 62
     8
100
AcDbLine
 10
772.9764182
 20
45.2200014
 30
0.0
 11
790.6164182
 21
45.2200014
 31
0.0
  0
LINE
  5
4A0
330
6FA
100
AcDbEntity
  8
YKK_ZWAK
  6
Continuous
 62
   254
100
AcDbLine
 10
765.201906
 20
26.2825626
 30
0.0
 11
764.7694264
 21
26.4447428
 31
0.0
  0
LINE
  5
4A1
330
6FA
100
AcDbEntity
  8
YKK_ZWAK
  6
Continuous
 62
   254
100
AcDbLine
 10
768.2832696
 20
33.6346108
 30
0.0
 11
765.1613774
 21
29.174747
 31
0.0
  0
LINE
  5
4A2
330
6FA
100
AcDbEntity
  8
YKK_ZWAK
  6
Continuous
 62
   254
100
AcDbLine
 10
766.200617
 20
29.174747
 30
0.0
 11
765.1613774
 21
29.174747
 31
0.0
  0
LINE
  5
4A3
330
6FA
100
AcDbEntity
  8
YKK_ZWAK
  6
Continuous
 62
   254
100
AcDbLine
 10
764.8775456
 20
34.2833316
 30
0.0
 11
768.6616896
 21
34.2833316
 31
0.0
  0
LINE
  5
4A4
330
6FA
100
AcDbEntity
  8
YKK_ZWAK
  6
Continuous
 62
   254
100
AcDbLine
 10
761.444761
 20
34.2833316
 30
0.0
 11
761.444761
 21
29.0916304
 31
0.0
  0
LINE
  5
4A5
330
6FA
100
AcDbEntity
  8
YKK_ZWAK
  6
Continuous
 62
   254
100
AcDbLine
 10
761.444761
 20
29.0916304
 30
0.0
 11
764.8775456
 21
34.2833316
 31
0.0
  0
LINE
  5
4A6
330
6FA
100
AcDbEntity
  8
YKK_ZWAK
  6
Continuous
 62
   254
100
AcDbLine
 10
757.0799068
 20
34.229272
 30
0.0
 11
753.5401174
 21
29.0936254
 31
0.0
  0
LINE
  5
4A7
330
6FA
100
AcDbEntity
  8
YKK_ZWAK
  6
Continuous
 62
   254
100
AcDbLine
 10
749.8761508
 20
34.1752124
 30
0.0
 11
749.8761508
 21
29.0767274
 31
0.0
  0
LINE
  5
4A8
330
6FA
100
AcDbEntity
  8
YKK_ZWAK
  6
Continuous
 62
   254
100
AcDbLine
 10
749.8761508
 20
29.0767274
 30
0.0
 11
753.2548366
 21
34.229272
 31
0.0
  0
LINE
  5
4A9
330
6FA
100
AcDbEntity
  8
YKK_ZWAK
  6
Continuous
 62
   254
100
AcDbLine
 10
758.1742378
 20
21.8766968
 30
0.0
 11
758.1742378
 21
34.2833316
 31
0.0
  0
LINE
  5
4AA
330
6FA
100
AcDbEntity
  8
YKK_ZWAK
  6
Continuous
 62
   254
100
AcDbLine
 10
764.823486
 20
19.903597
 30
0.0
 11
753.2278138
 21
19.903597
 31
0.0
  0
ARC
  5
4AB
330
6FA
100
AcDbEntity
  8
YKK_ZWAK
  6
Continuous
 62
   254
100
AcDbCircle
 10
754.57920743
 20
26.93115904
 30
0.0
 40
2.162466367416002
100
AcDbArc
 50
0.00166292
 51
89.99603715
  0
LINE
  5
4AC
330
6FA
100
AcDbEntity
  8
YKK_ZWAK
  6
Continuous
 62
   254
100
AcDbLine
 10
754.579357
 20
29.0936254
 30
0.0
 11
753.5401174
 21
29.0936254
 31
0.0
  0
LINE
  5
4AD
330
6FA
100
AcDbEntity
  8
YKK_ZWAK
  6
Continuous
 62
   254
100
AcDbLine
 10
753.1737458
 20
26.4176822
 30
0.0
 11
749.9842588
 21
26.4176822
 31
0.0
  0
LINE
  5
4AE
330
6FA
100
AcDbEntity
  8
YKK_ZWAK
  6
Continuous
 62
   254
100
AcDbLine
 10
749.9842588
 20
26.4176822
 30
0.0
 11
749.9842588
 21
21.7686378
 31
0.0
  0
LINE
  5
4AF
330
6FA
100
AcDbEntity
  8
YKK_ZWAK
  6
Continuous
 62
   254
100
AcDbLine
 10
756.741657
 20
21.8496978
 30
0.0
 11
753.606238
 21
21.8496978
 31
0.0
  0
LINE
  5
4B0
330
6FA
100
AcDbEntity
  8
YKK_ZWAK
  6
Continuous
 62
   254
100
AcDbLine
 10
753.606238
 20
21.8496978
 30
0.0
 11
753.606238
 21
26.255502
 31
0.0
  0
LINE
  5
4B1
330
6FA
100
AcDbEntity
  8
YKK_ZWAK
  6
Continuous
 62
   254
100
AcDbLine
 10
753.606238
 20
26.255502
 30
0.0
 11
753.1737458
 21
26.4176822
 31
0.0
  0
LINE
  5
4B2
330
6FA
100
AcDbEntity
  8
YKK_ZWAK
  6
Continuous
 62
   254
100
AcDbLine
 10
756.741657
 20
26.9312834
 30
0.0
 11
756.741657
 21
21.8496978
 31
0.0
  0
LINE
  5
4B3
330
6FA
100
AcDbEntity
  8
YKK_ZWAK
  6
Continuous
 62
   254
100
AcDbLine
 10
761.5799422
 20
21.8766968
 30
0.0
 11
758.1742378
 21
21.8766968
 31
0.0
  0
LINE
  5
4B4
330
6FA
100
AcDbEntity
  8
YKK_ZWAK
  6
Continuous
 62
   254
100
AcDbLine
 10
761.5799422
 20
26.4447428
 30
0.0
 11
761.5799422
 21
21.8766968
 31
0.0
  0
LINE
  5
4B5
330
6FA
100
AcDbEntity
  8
YKK_ZWAK
  6
Continuous
 62
   254
100
AcDbLine
 10
764.7694264
 20
26.4447428
 30
0.0
 11
761.5799422
 21
26.4447428
 31
0.0
  0
LINE
  5
4B6
330
6FA
100
AcDbEntity
  8
YKK_ZWAK
  6
Continuous
 62
   254
100
AcDbLine
 10
753.2548366
 20
34.229272
 30
0.0
 11
757.0799068
 21
34.229272
 31
0.0
  0
LINE
  5
4B7
330
6FA
100
AcDbEntity
  8
YKK_ZWAK
  6
Continuous
 62
   254
100
AcDbLine
 10
758.1742378
 20
34.2833316
 30
0.0
 11
761.444761
 21
34.2833316
 31
0.0
  0
LINE
  5
4B8
330
6FA
100
AcDbEntity
  8
YKK_ZWAK
  6
Continuous
 62
   254
100
AcDbLine
 10
768.3643912
 20
26.9312834
 30
0.0
 11
768.3643912
 21
21.9037574
 31
0.0
  0
ARC
  5
4B9
330
6FA
100
AcDbEntity
  8
YKK_ZWAK
  6
Continuous
 62
   254
100
AcDbCircle
 10
766.20046743
 20
27.01228064
 30
0.0
 40
2.162466367416002
100
AcDbArc
 50
0.00166292
 51
89.99603715
  0
LINE
  5
4BA
330
6FA
100
AcDbEntity
  8
YKK_ZWAK
  6
Continuous
 62
   254
100
AcDbLine
 10
765.201906
 20
21.9543548
 30
0.0
 11
765.2525048
 21
21.9037574
 31
0.0
  0
LINE
  5
4BB
330
6FA
100
AcDbEntity
  8
YKK_ZWAK
  6
Continuous
 62
   254
100
AcDbLine
 10
765.201906
 20
21.9037574
 30
0.0
 11
765.201906
 21
26.2825626
 31
0.0
  0
LINE
  5
4BC
330
6FA
100
AcDbEntity
  8
YKK_ZWAK
  6
Continuous
 62
   254
100
AcDbLine
 10
768.3643912
 20
21.9037574
 30
0.0
 11
765.201906
 21
21.9037574
 31
0.0
  0
LINE
  5
4BD
330
6FA
100
AcDbEntity
  8
YKK_ZWAK
  6
Continuous
 62
   254
100
AcDbLine
 10
768.6616896
 20
34.2833316
 30
0.0
 11
768.2832696
 21
33.6346108
 31
0.0
  0
LINE
  5
4BE
330
6FA
100
AcDbEntity
  8
YKK_ZWAK
  6
Continuous
 62
     8
100
AcDbLine
 10
772.9764182
 20
104.6080028
 30
0.0
 11
790.6164182
 21
104.6080028
 31
0.0
  0
CIRCLE
  5
4BF
330
6FA
100
AcDbEntity
  8
YKK_ZWAK
  6
Continuous
 62
     8
100
AcDbCircle
 10
781.7964182
 20
84.8120028
 30
0.0
 40
8.819999999999998
  0
LINE
  5
4C0
330
6FA
100
AcDbEntity
  8
YKK_ZWAK
  6
Continuous
 62
     8
100
AcDbLine
 10
772.9764182
 20
65.0160014
 30
0.0
 11
790.6164182
 21
65.0160014
 31
0.0
  0
LINE
  5
4C1
330
6FA
100
AcDbEntity
  8
YKK_ZWAK
  6
Continuous
 62
     8
100
AcDbLine
 10
772.9764182
 20
84.8120028
 30
0.0
 11
790.6164182
 21
84.8120028
 31
0.0
  0
CIRCLE
  5
4C2
330
6FA
100
AcDbEntity
  8
YKK_ZWAK
  6
Continuous
 62
     8
100
AcDbCircle
 10
781.7964182
 20
203.5880056
 30
0.0
 40
8.819999999999998
  0
LINE
  5
4C3
330
6FA
100
AcDbEntity
  8
YKK_D
100
AcDbLine
 10
714.08317385
 20
156.4082776
 30
0.0
 11
714.08317385
 21
185.40828666
 31
0.0
  0
LINE
  5
4C4
330
6FA
100
AcDbEntity
  8
YKK_D
100
AcDbLine
 10
689.08317385
 20
156.4082776
 30
0.0
 11
689.08317385
 21
185.40828666
 31
0.0
  0
LINE
  5
4C5
330
6FA
100
AcDbEntity
  8
YKK_D
100
AcDbLine
 10
685.08317385
 20
156.40827808
 30
0.0
 11
685.08317385
 21
185.40828666
 31
0.0
  0
LINE
  5
4C6
330
6FA
100
AcDbEntity
  8
YKK_W1
100
AcDbLine
 10
689.08316783
 20
119.40828139
 30
0.0
 11
689.08316783
 21
149.80828139
 31
0.0
  0
LINE
  5
4C7
330
6FA
100
AcDbEntity
  8
YKK_W1
100
AcDbLine
 10
690.68316783
 20
149.80828139
 30
0.0
 11
690.68316783
 21
119.40828139
 31
0.0
  0
LINE
  5
4C8
330
6FA
100
AcDbEntity
  8
YKK_W1
100
AcDbLine
 10
683.38316783
 20
146.20828139
 30
0.0
 11
683.38316783
 21
123.60828139
 31
0.0
  0
LINE
  5
4C9
330
6FA
100
AcDbEntity
  8
YKK_W1
100
AcDbLine
 10
685.08316783
 20
145.80828139
 30
0.0
 11
685.08316783
 21
124.00828139
 31
0.0
  0
LINE
  5
4CA
330
6FA
100
AcDbEntity
  8
YKK_W1
100
AcDbLine
 10
683.88316783
 20
123.80828139
 30
0.0
 11
683.88316783
 21
146.00828139
 31
0.0
  0
LINE
  5
4CB
330
6FA
100
AcDbEntity
  8
YKK_W1
100
AcDbLine
 10
714.08316783
 20
149.80828139
 30
0.0
 11
714.08316783
 21
131.40828139
 31
0.0
  0
LINE
  5
4CC
330
6FA
100
AcDbEntity
  8
YKK_W1
100
AcDbLine
 10
712.48316783
 20
131.40828139
 30
0.0
 11
712.48316783
 21
149.80828139
 31
0.0
  0
ARC
  5
4CD
330
6FA
100
AcDbEntity
  8
YKK_W1
100
AcDbCircle
 10
683.48316783
 20
124.00828139
 30
0.0
 40
1.6
100
AcDbArc
 50
270.0
 51
0.0
  0
ARC
  5
4CE
330
6FA
100
AcDbEntity
  8
YKK_W1
100
AcDbCircle
 10
689.08316783
 20
119.40828139
 30
0.0
 40
1.599999999999909
100
AcDbArc
 50
270.0
 51
0.0
  0
ARC
  5
4CF
330
6FA
100
AcDbEntity
  8
YKK_W1
100
AcDbCircle
 10
683.68316783
 20
123.80828139
 30
0.0
 40
0.2
100
AcDbArc
 50
270.0
 51
0.0
  0
LINE
  5
4D0
330
6FA
100
AcDbEntity
  8
YKK_W1
100
AcDbLine
 10
714.08316783
 20
131.40828139
 30
0.0
 11
712.48316783
 21
131.40828139
 31
0.0
  0
LINE
  5
4D1
330
6FA
100
AcDbEntity
  8
YKK_W1
100
AcDbLine
 10
690.68316783
 20
151.40828139
 30
0.0
 11
712.48316783
 21
151.40828139
 31
0.0
  0
LINE
  5
4D2
330
6FA
100
AcDbEntity
  8
YKK_W1
100
AcDbLine
 10
712.48316783
 20
149.80828139
 30
0.0
 11
690.68316783
 21
149.80828139
 31
0.0
  0
ARC
  5
4D3
330
6FA
100
AcDbEntity
  8
YKK_W1
100
AcDbCircle
 10
683.48316783
 20
145.80828139
 30
0.0
 40
1.6
100
AcDbArc
 50
0.0
 51
90.0
  0
ARC
  5
4D4
330
6FA
100
AcDbEntity
  8
YKK_W1
100
AcDbCircle
 10
683.68316783
 20
146.00828139
 30
0.0
 40
0.2
100
AcDbArc
 50
0.0
 51
90.0
  0
ARC
  5
4D5
330
6FA
100
AcDbEntity
  8
YKK_W1
100
AcDbCircle
 10
690.68316783
 20
149.80828139
 30
0.0
 40
1.600000000000135
100
AcDbArc
 50
90.0
 51
180.0
  0
LINE
  5
4D6
330
6FA
100
AcDbEntity
  8
YKK_W2
  6
HASENP
100
AcDbLine
 10
712.48316783
 20
136.40632283
 30
0.0
 11
710.26504572
 21
137.01454505
 31
0.0
  0
ARC
  5
4D7
330
6FA
100
AcDbEntity
  8
YKK_W1
100
AcDbCircle
 10
712.48316783
 20
149.80828139
 30
0.0
 40
1.599999999999994
100
AcDbArc
 50
0.0
 51
90.0
  0
TEXT
  5
4D8
330
6FA
100
AcDbEntity
  8
YKK_D
100
AcDbText
 10
697.60150713
 20
185.80828056
 30
0.0
 40
4.35000038
  1
２５
 41
0.76628346
100
AcDbText
  0
LINE
  5
4D9
330
6FA
100
AcDbEntity
  8
YKK_D
100
AcDbLine
 10
689.08317385
 20
184.90828666
 30
0.0
 11
714.08317385
 21
184.90828666
 31
0.0
  0
TEXT
  5
4DA
330
6FA
100
AcDbEntity
  8
YKK_D
100
AcDbText
 10
685.10150713
 20
185.80828056
 30
0.0
 40
4.35000038
  1
４
 41
0.76628346
100
AcDbText
  0
LINE
  5
4DB
330
6FA
100
AcDbEntity
  8
YKK_D
100
AcDbLine
 10
685.08317385
 20
184.90828666
 30
0.0
 11
689.08317385
 21
184.90828666
 31
0.0
  0
CIRCLE
  5
4F0
330
6FA
100
AcDbEntity
  8
YKK_ZWAK
  6
Continuous
 62
     8
100
AcDbCircle
 10
781.7964182
 20
163.9960042
 30
0.0
 40
8.819999999999998
  0
CIRCLE
  5
4F1
330
6FA
100
AcDbEntity
  8
YKK_ZWAK
  6
Continuous
 62
     8
100
AcDbCircle
 10
781.7964182
 20
124.4040028
 30
0.0
 40
8.819999999999998
  0
CIRCLE
  5
4F2
330
6FA
100
AcDbEntity
  8
YKK_ZWAK
  6
Continuous
 62
     8
100
AcDbCircle
 10
781.7964182
 20
144.2000042
 30
0.0
 40
8.819999999999998
  0
LINE
  5
4F3
330
6FA
100
AcDbEntity
  8
YKK_ZWAK
  6
Continuous
 62
     8
100
AcDbLine
 10
772.9764182
 20
124.4040028
 30
0.0
 11
790.6164182
 21
124.4040028
 31
0.0
  0
LINE
  5
4F4
330
6FA
100
AcDbEntity
  8
YKK_ZWAK
  6
Continuous
 62
     8
100
AcDbLine
 10
772.9764182
 20
144.2000042
 30
0.0
 11
790.6164182
 21
144.2000042
 31
0.0
  0
LINE
  5
4F5
330
6FA
100
AcDbEntity
  8
YKK_ZWAK
  6
Continuous
 62
     8
100
AcDbLine
 10
772.9764182
 20
203.5880056
 30
0.0
 11
790.6164182
 21
203.5880056
 31
0.0
  0
CIRCLE
  5
4F6
330
6FA
100
AcDbEntity
  8
YKK_ZWAK
  6
Continuous
 62
     8
100
AcDbCircle
 10
781.7964182
 20
183.7920042
 30
0.0
 40
8.819999999999998
  0
LINE
  5
4F7
330
6FA
100
AcDbEntity
  8
YKK_ZWAK
  6
Continuous
 62
     8
100
AcDbLine
 10
772.9764182
 20
163.9960042
 30
0.0
 11
790.6164182
 21
163.9960042
 31
0.0
  0
LINE
  5
4F8
330
6FA
100
AcDbEntity
  8
YKK_ZWAK
  6
Continuous
 62
     8
100
AcDbLine
 10
772.9764182
 20
183.7920042
 30
0.0
 11
790.6164182
 21
183.7920042
 31
0.0
  0
LINE
  5
4F9
330
6FA
100
AcDbEntity
  8
YKK_D
100
AcDbLine
 10
689.08317385
 20
277.55004082
 30
0.0
 11
689.08317385
 21
207.05003796
 31
0.0
  0
LINE
  5
4FE
330
6FA
100
AcDbEntity
  8
YKK_W2
  6
HASENP
100
AcDbLine
 10
700.58316783
 20
285.75004052
 30
0.0
 11
698.36504572
 21
286.35826274
 31
0.0
  0
LINE
  5
4FF
330
6FA
100
AcDbEntity
  8
YKK_W1
100
AcDbLine
 10
689.08316783
 20
282.55004052
 30
0.0
 11
689.08316783
 21
284.15004052
 31
0.0
  0
LINE
  5
504
330
6FA
100
AcDbEntity
  8
YKK_W1
100
AcDbLine
 10
704.08316783
 20
284.15004052
 30
0.0
 11
704.08316783
 21
285.75004052
 31
0.0
  0
CIRCLE
  5
505
330
6FA
100
AcDbEntity
  8
YKK_ZWAK
  6
Continuous
 62
     8
100
AcDbCircle
 10
781.7964182
 20
223.3840056
 30
0.0
 40
8.819999999999998
  0
LINE
  5
506
330
6FA
100
AcDbEntity
  8
YKK_ZWAK
  6
Continuous
 62
     8
100
AcDbLine
 10
772.9764182
 20
223.3840056
 30
0.0
 11
790.6164182
 21
223.3840056
 31
0.0
  0
LINE
  5
507
330
6FA
100
AcDbEntity
  8
YKK_D
100
AcDbLine
 10
679.08317385
 20
364.1500288
 30
0.0
 11
689.08317385
 21
364.1500288
 31
0.0
  0
TEXT
  5
508
330
6FA
100
AcDbEntity
  8
YKK_D
100
AcDbText
 10
680.10150713
 20
365.0500227
 30
0.0
 40
4.35000038
  1
１０
 41
0.76628346
100
AcDbText
  0
LINE
  5
509
330
6FA
100
AcDbEntity
  8
YKK_W1
100
AcDbLine
 10
675.68316783
 20
310.55004052
 30
0.0
 11
689.18316783
 21
310.55004052
 31
0.0
  0
LINE
  5
50A
330
6FA
100
AcDbEntity
  8
YKK_W1
100
AcDbLine
 10
689.08316783
 20
312.15004052
 30
0.0
 11
675.58316783
 21
312.15004052
 31
0.0
  0
LINE
  5
50B
330
6FA
100
AcDbEntity
  8
YKK_W1
100
AcDbLine
 10
686.78316783
 20
335.85004052
 30
0.0
 11
674.08316783
 21
335.85004052
 31
0.0
  0
LINE
  5
50C
330
6FA
100
AcDbEntity
  8
YKK_D
100
AcDbLine
 10
689.08317385
 20
384.1500288
 30
0.0
 11
549.08317385
 21
384.1500288
 31
0.0
  0
LINE
  5
50D
330
6FA
100
AcDbEntity
  8
YKK_W1
100
AcDbLine
 10
689.08316783
 20
338.15004052
 30
0.0
 11
634.83316783
 21
338.15004052
 31
0.0
  0
LINE
  5
50E
330
6FA
100
AcDbEntity
  8
YKK_W1
100
AcDbLine
 10
634.83316783
 20
339.35004052
 30
0.0
 11
689.08316783
 21
339.35004052
 31
0.0
  0
LINE
  5
50F
330
6FA
100
AcDbEntity
  8
YKK_W1
 62
   253
100
AcDbLine
 10
634.83316783
 20
329.35004052
 30
0.0
 11
687.18316783
 21
329.35004052
 31
0.0
  0
LINE
  5
510
330
6FA
100
AcDbEntity
  8
YKK_W3
100
AcDbLine
 10
634.83316783
 20
342.55004052
 30
0.0
 11
689.08316783
 21
342.55004052
 31
0.0
  0
TEXT
  5
511
330
6FA
100
AcDbEntity
  8
YKK_N1
  6
Continuous
100
AcDbText
 10
677.6500213
 20
481.0397653
 30
0.0
 40
3.0
  1
H
 50
90.0000025
 72
     4
 11
676.15002125
 21
482.03976523
 31
0.0
100
AcDbText
  0
LINE
  5
513
330
6FA
100
AcDbEntity
  8
YKK_A1
100
AcDbLine
 10
668.7500182
 20
474.44463033
 30
0.0
 11
668.7500182
 21
511.79463033
 31
0.0
  0
LINE
  5
515
330
6FA
100
AcDbEntity
  8
YKK_A1
100
AcDbLine
 10
668.5500182
 20
474.44463033
 30
0.0
 11
668.5500182
 21
511.79463033
 31
0.0
  0
LINE
  5
516
330
6FA
100
AcDbEntity
  8
YKK_N1
  6
Continuous
100
AcDbLine
 10
678.25002125
 20
539.99462319
 30
0.0
 11
678.25002125
 21
424.99462013
 31
0.0
  0
LINE
  5
517
330
6FA
100
AcDbEntity
  8
YKK_A1
100
AcDbLine
 10
670.0000182
 20
422.99463033
 30
0.0
 11
670.0000182
 21
541.99463033
 31
0.0
  0
LINE
  5
518
330
6FA
100
AcDbEntity
  8
YKK_A1
100
AcDbLine
 10
637.4500182
 20
520.59463033
 30
0.0
 11
637.4500182
 21
424.49463033
 31
0.0
  0
LINE
  5
519
330
6FA
100
AcDbEntity
  8
YKK_A1
100
AcDbLine
 10
636.0000182
 20
541.99463033
 30
0.0
 11
636.0000182
 21
422.99463033
 31
0.0
  0
LINE
  5
51A
330
6FA
100
AcDbEntity
  8
YKK_A1
100
AcDbLine
 10
637.2500182
 20
541.99463033
 30
0.0
 11
637.2500182
 21
422.99463033
 31
0.0
  0
LINE
  5
51B
330
6FA
100
AcDbEntity
  8
YKK_A1
  6
DASHDOT
100
AcDbLine
 10
637.4500182
 20
520.59463033
 30
0.0
 11
668.5500182
 21
472.54463033
 31
0.0
  0
TEXT
  5
51D
330
6FA
100
AcDbEntity
  8
YKK_D
100
AcDbText
 10
549.51617087
 20
365.0500227
 30
0.0
 40
2.61000013
  1
Ｓ
 41
0.76628346
100
AcDbText
  0
LINE
  5
51E
330
6FA
100
AcDbEntity
  8
YKK_D
100
AcDbLine
 10
535.58317385
 20
364.1500288
 30
0.0
 11
562.58317385
 21
364.1500288
 31
0.0
  0
LINE
  5
51F
330
6FA
100
AcDbEntity
  8
YKK_W1
 62
   253
100
AcDbLine
 10
549.85524577
 20
338.15004052
 30
0.0
 11
551.05524577
 21
339.35004052
 31
0.0
  0
LINE
  5
520
330
6FA
100
AcDbEntity
  8
YKK_W1
  6
HASENP
100
AcDbLine
 10
520.58316783
 20
324.95004052
 30
0.0
 11
577.58316783
 21
324.95004052
 31
0.0
  0
LINE
  5
521
330
6FA
100
AcDbEntity
  8
YKK_W1
  6
HASENP
100
AcDbLine
 10
520.58316783
 20
336.55004052
 30
0.0
 11
577.58316783
 21
336.55004052
 31
0.0
  0
LINE
  5
522
330
6FA
100
AcDbEntity
  8
YKK_W1
100
AcDbLine
 10
631.83316783
 20
338.15004052
 30
0.0
 11
466.33316783
 21
338.15004052
 31
0.0
  0
LINE
  5
523
330
6FA
100
AcDbEntity
  8
YKK_W1
100
AcDbLine
 10
466.33316783
 20
339.35004052
 30
0.0
 11
631.83316783
 21
339.35004052
 31
0.0
  0
LINE
  5
524
330
6FA
100
AcDbEntity
  8
YKK_W1
100
AcDbLine
 10
592.58316783
 20
323.35004052
 30
0.0
 11
505.58316783
 21
323.35004052
 31
0.0
  0
LINE
  5
525
330
6FA
100
AcDbEntity
  8
YKK_W1
100
AcDbLine
 10
592.58316783
 20
321.75004052
 30
0.0
 11
505.58316783
 21
321.75004052
 31
0.0
  0
LINE
  5
526
330
6FA
100
AcDbEntity
  8
YKK_W3
100
AcDbLine
 10
631.83316783
 20
312.15004052
 30
0.0
 11
466.33316783
 21
312.15004052
 31
0.0
  0
LINE
  5
527
330
6FA
100
AcDbEntity
  8
YKK_W3
100
AcDbLine
 10
466.33316783
 20
342.55004052
 30
0.0
 11
631.83316783
 21
342.55004052
 31
0.0
  0
LINE
  5
528
330
6FA
100
AcDbEntity
  8
YKK_W1
 62
   253
100
AcDbLine
 10
466.33316783
 20
329.35004052
 30
0.0
 11
518.98316783
 21
329.35004052
 31
0.0
  0
LINE
  5
529
330
6FA
100
AcDbEntity
  8
YKK_W3
100
AcDbLine
 10
548.08316783
 20
312.15004052
 30
0.0
 11
466.33316783
 21
312.15004052
 31
0.0
  0
LINE
  5
52A
330
6FA
100
AcDbEntity
  8
YKK_W3
100
AcDbLine
 10
463.33316783
 20
312.15004052
 30
0.0
 11
422.58316783
 21
312.15004052
 31
0.0
  0
LINE
  5
52B
330
6FA
100
AcDbEntity
  8
YKK_W3
100
AcDbLine
 10
463.33316783
 20
312.15004052
 30
0.0
 11
422.58316783
 21
312.15004052
 31
0.0
  0
ARC
  5
52C
330
6FA
100
AcDbEntity
  8
YKK_W1
100
AcDbCircle
 10
422.58316783
 20
310.65004052
 30
0.0
 40
1.5
100
AcDbArc
 50
0.0
 51
90.0
  0
LINE
  5
52D
330
6FA
100
AcDbEntity
  8
YKK_W1
100
AcDbLine
 10
424.08316783
 20
338.15004052
 30
0.0
 11
424.08316783
 21
335.85004052
 31
0.0
  0
LINE
  5
52E
330
6FA
100
AcDbEntity
  8
YKK_W1
  6
HASENP
 62
   253
100
AcDbLine
 10
421.58316783
 20
338.15004052
 30
0.0
 11
421.58316783
 21
335.85004052
 31
0.0
  0
LINE
  5
52F
330
6FA
100
AcDbEntity
  8
YKK_W1
  6
HASENP
100
AcDbLine
 10
420.88316783
 20
338.15004052
 30
0.0
 11
420.88316783
 21
335.85004052
 31
0.0
  0
TEXT
  5
530
330
6FA
100
AcDbEntity
  8
YKK_D
100
AcDbText
 10
477.10150713
 20
385.0500227
 30
0.0
 40
4.35000038
  1
Ａ
 41
0.76628346
100
AcDbText
  0
LINE
  5
531
330
6FA
100
AcDbEntity
  8
YKK_W1
  6
ITTENSAP
 62
   253
100
AcDbLine
 10
549.08316783
 20
351.18190939
 30
0.0
 11
549.08316783
 21
321.88159787
 31
0.0
  0
LINE
  5
532
330
6FA
100
AcDbEntity
  8
YKK_W1
100
AcDbLine
 10
518.98316783
 20
336.55004052
 30
0.0
 11
505.58316783
 21
336.55004052
 31
0.0
  0
LINE
  5
533
330
6FA
100
AcDbEntity
  8
YKK_W1
100
AcDbLine
 10
518.98316783
 20
324.95004052
 30
0.0
 11
505.58316783
 21
324.95004052
 31
0.0
  0
LINE
  5
534
330
6FA
100
AcDbEntity
  8
YKK_W1
  6
ITTENSAP
 62
   253
100
AcDbLine
 10
513.08316783
 20
329.35004052
 30
0.0
 11
513.08316783
 21
318.60126347
 31
0.0
  0
LINE
  5
535
330
6FA
100
AcDbEntity
  8
YKK_W1
100
AcDbLine
 10
505.58316783
 20
324.95004052
 30
0.0
 11
505.58316783
 21
321.75004052
 31
0.0
  0
LINE
  5
536
330
6FA
100
AcDbEntity
  8
YKK_W1
100
AcDbLine
 10
505.58316783
 20
338.15004052
 30
0.0
 11
505.58316783
 21
336.55004052
 31
0.0
  0
LINE
  5
537
330
6FA
100
AcDbEntity
  8
YKK_W1
100
AcDbLine
 10
520.58316783
 20
336.95004052
 30
0.0
 11
520.58316783
 21
324.55004052
 31
0.0
  0
LINE
  5
538
330
6FA
100
AcDbEntity
  8
YKK_W1
100
AcDbLine
 10
518.98316783
 20
336.55004052
 30
0.0
 11
518.98316783
 21
324.95004052
 31
0.0
  0
ARC
  5
539
330
6FA
100
AcDbEntity
  8
YKK_W1
100
AcDbCircle
 10
519.38316783
 20
324.55004052
 30
0.0
 40
1.199999999999999
100
AcDbArc
 50
270.0
 51
360.0
  0
ARC
  5
53A
330
6FA
100
AcDbEntity
  8
YKK_W1
100
AcDbCircle
 10
519.38316783
 20
336.95004052
 30
0.0
 40
1.199999999999999
100
AcDbArc
 50
0.0
 51
90.0
  0
LINE
  5
53B
330
6FA
100
AcDbEntity
  8
YKK_W1
100
AcDbLine
 10
535.58316783
 20
339.35004052
 30
0.0
 11
535.58316783
 21
338.15004052
 31
0.0
  0
LINE
  5
53C
330
6FA
100
AcDbEntity
  8
YKK_W1
 62
   253
100
AcDbLine
 10
541.3699644
 20
338.15004052
 30
0.0
 11
542.5699644
 21
339.35004052
 31
0.0
  0
LINE
  5
53D
330
6FA
100
AcDbEntity
  8
YKK_W1
 62
   253
100
AcDbLine
 10
539.95575084
 20
338.15004052
 30
0.0
 11
541.15575084
 21
339.35004052
 31
0.0
  0
LINE
  5
53E
330
6FA
100
AcDbEntity
  8
YKK_W1
 62
   253
100
AcDbLine
 10
538.54153727
 20
338.15004052
 30
0.0
 11
539.74153727
 21
339.35004052
 31
0.0
  0
LINE
  5
53F
330
6FA
100
AcDbEntity
  8
YKK_W1
 62
   253
100
AcDbLine
 10
537.12732371
 20
338.15004052
 30
0.0
 11
538.32732371
 21
339.35004052
 31
0.0
  0
LINE
  5
540
330
6FA
100
AcDbEntity
  8
YKK_W1
 62
   253
100
AcDbLine
 10
535.71311015
 20
338.15004052
 30
0.0
 11
536.91311015
 21
339.35004052
 31
0.0
  0
LINE
  5
541
330
6FA
100
AcDbEntity
  8
YKK_W1
 62
   253
100
AcDbLine
 10
548.44103221
 20
338.15004052
 30
0.0
 11
549.64103221
 21
339.35004052
 31
0.0
  0
LINE
  5
542
330
6FA
100
AcDbEntity
  8
YKK_W1
 62
   253
100
AcDbLine
 10
547.02681865
 20
338.15004052
 30
0.0
 11
548.22681865
 21
339.35004052
 31
0.0
  0
LINE
  5
543
330
6FA
100
AcDbEntity
  8
YKK_W1
 62
   253
100
AcDbLine
 10
545.61260508
 20
338.15004052
 30
0.0
 11
546.81260508
 21
339.35004052
 31
0.0
  0
LINE
  5
544
330
6FA
100
AcDbEntity
  8
YKK_W1
 62
   253
100
AcDbLine
 10
542.78417796
 20
338.15004052
 30
0.0
 11
543.98417796
 21
339.35004052
 31
0.0
  0
LINE
  5
545
330
6FA
100
AcDbEntity
  8
YKK_W1
 62
   253
100
AcDbLine
 10
544.19839152
 20
338.15004052
 30
0.0
 11
545.39839152
 21
339.35004052
 31
0.0
  0
TEXT
  5
546
330
6FA
100
AcDbEntity
  8
YKK_D
100
AcDbText
 10
545.77551836
 20
365.0500227
 30
0.0
 40
4.35000038
  1
Ｗ
 41
0.76628346
100
AcDbText
  0
LINE
  5
547
330
6FA
100
AcDbEntity
  8
YKK_D
100
AcDbLine
 10
535.58317385
 20
345.57847939
 30
0.0
 11
535.58317385
 21
364.6500288
 31
0.0
  0
LINE
  5
54C
330
6FA
100
AcDbEntity
  8
YKK_D
100
AcDbLine
 10
549.08317385
 20
370.94224415
 30
0.0
 11
549.08317385
 21
384.6500288
 31
0.0
  0
TEXT
  5
555
330
6FA
100
AcDbEntity
  8
YKK_D
100
AcDbText
 10
546.6198404
 20
404.1500288
 30
0.0
 40
5.43000031
  1
Ａ
 41
0.76734188
100
AcDbText
  0
LINE
  5
556
330
6FA
100
AcDbEntity
  8
YKK_W1
 62
   253
100
AcDbLine
 10
579.18316783
 20
329.35004052
 30
0.0
 11
631.83316783
 21
329.35004052
 31
0.0
  0
LINE
  5
557
330
6FA
100
AcDbEntity
  8
YKK_W1
100
AcDbLine
 10
579.18316783
 20
336.55004052
 30
0.0
 11
592.58316783
 21
336.55004052
 31
0.0
  0
LINE
  5
558
330
6FA
100
AcDbEntity
  8
YKK_W1
100
AcDbLine
 10
579.18316783
 20
324.95004052
 30
0.0
 11
592.58316783
 21
324.95004052
 31
0.0
  0
LINE
  5
559
330
6FA
100
AcDbEntity
  8
YKK_W1
 62
   253
100
AcDbLine
 10
558.34052715
 20
338.15004052
 30
0.0
 11
559.54052715
 21
339.35004052
 31
0.0
  0
LINE
  5
55A
330
6FA
100
AcDbEntity
  8
YKK_W1
 62
   253
100
AcDbLine
 10
556.92631358
 20
338.15004052
 30
0.0
 11
558.12631358
 21
339.35004052
 31
0.0
  0
LINE
  5
55B
330
6FA
100
AcDbEntity
  8
YKK_W1
 62
   253
100
AcDbLine
 10
555.51210002
 20
338.15004052
 30
0.0
 11
556.71210002
 21
339.35004052
 31
0.0
  0
LINE
  5
55C
330
6FA
100
AcDbEntity
  8
YKK_W1
 62
   253
100
AcDbLine
 10
554.09788646
 20
338.15004052
 30
0.0
 11
555.29788646
 21
339.35004052
 31
0.0
  0
LINE
  5
55D
330
6FA
100
AcDbEntity
  8
YKK_W1
 62
   253
100
AcDbLine
 10
552.6836729
 20
338.15004052
 30
0.0
 11
553.8836729
 21
339.35004052
 31
0.0
  0
LINE
  5
55E
330
6FA
100
AcDbEntity
  8
YKK_W1
 62
   253
100
AcDbLine
 10
551.26945933
 20
338.15004052
 30
0.0
 11
552.46945933
 21
339.35004052
 31
0.0
  0
LINE
  5
55F
330
6FA
100
AcDbEntity
  8
YKK_W1
100
AcDbLine
 10
562.58316783
 20
339.35004052
 30
0.0
 11
562.58316783
 21
338.15004052
 31
0.0
  0
LINE
  5
560
330
6FA
100
AcDbEntity
  8
YKK_W1
 62
   253
100
AcDbLine
 10
559.75474071
 20
338.15004052
 30
0.0
 11
560.95474071
 21
339.35004052
 31
0.0
  0
LINE
  5
561
330
6FA
100
AcDbEntity
  8
YKK_W1
 62
   253
100
AcDbLine
 10
561.16895427
 20
338.15004052
 30
0.0
 11
562.36895427
 21
339.35004052
 31
0.0
  0
LINE
  5
562
330
6FA
100
AcDbEntity
  8
YKK_W1
100
AcDbLine
 10
579.18316783
 20
336.55004052
 30
0.0
 11
579.18316783
 21
324.95004052
 31
0.0
  0
LINE
  5
563
330
6FA
100
AcDbEntity
  8
YKK_W1
100
AcDbLine
 10
577.58316783
 20
336.95004052
 30
0.0
 11
577.58316783
 21
324.55004052
 31
0.0
  0
ARC
  5
564
330
6FA
100
AcDbEntity
  8
YKK_W1
100
AcDbCircle
 10
578.78316783
 20
324.55004052
 30
0.0
 40
1.199999999999999
100
AcDbArc
 50
180.0
 51
270.0
  0
ARC
  5
565
330
6FA
100
AcDbEntity
  8
YKK_W1
100
AcDbCircle
 10
578.78316783
 20
336.95004052
 30
0.0
 40
1.199999999999999
100
AcDbArc
 50
90.0
 51
180.0
  0
LINE
  5
566
330
6FA
100
AcDbEntity
  8
YKK_W1
  6
ITTENSAP
 62
   253
100
AcDbLine
 10
585.08316783
 20
329.35004052
 30
0.0
 11
585.08316783
 21
318.60126347
 31
0.0
  0
LINE
  5
567
330
6FA
100
AcDbEntity
  8
YKK_W1
100
AcDbLine
 10
592.58316783
 20
324.95004052
 30
0.0
 11
592.58316783
 21
321.75004052
 31
0.0
  0
LINE
  5
568
330
6FA
100
AcDbEntity
  8
YKK_W1
100
AcDbLine
 10
592.58316783
 20
338.15004052
 30
0.0
 11
592.58316783
 21
336.55004052
 31
0.0
  0
LINE
  5
569
330
6FA
100
AcDbEntity
  8
YKK_D
100
AcDbLine
 10
562.58317385
 20
345.57847939
 30
0.0
 11
562.58317385
 21
364.6500288
 31
0.0
  0
LINE
  5
56E
330
6FA
100
AcDbEntity
  8
YKK_W3
100
AcDbLine
 10
675.58316783
 20
312.15004052
 30
0.0
 11
634.83316783
 21
312.15004052
 31
0.0
  0
ARC
  5
56F
330
6FA
100
AcDbEntity
  8
YKK_W1
100
AcDbCircle
 10
675.58316783
 20
310.65004052
 30
0.0
 40
1.5
100
AcDbArc
 50
90.0
 51
180.0
  0
LINE
  5
570
330
6FA
100
AcDbEntity
  8
YKK_W1
100
AcDbLine
 10
674.08316783
 20
338.15004052
 30
0.0
 11
674.08316783
 21
335.85004052
 31
0.0
  0
LINE
  5
571
330
6FA
100
AcDbEntity
  8
YKK_W1
  6
ITTENSAP
 62
   253
100
AcDbLine
 10
679.08316783
 20
343.35004052
 30
0.0
 11
679.08316783
 21
332.60461554
 31
0.0
  0
LINE
  5
572
330
6FA
100
AcDbEntity
  8
YKK_W1
  6
HASENP
 62
   253
100
AcDbLine
 10
676.58316783
 20
338.15004052
 30
0.0
 11
676.58316783
 21
335.85004052
 31
0.0
  0
LINE
  5
573
330
6FA
100
AcDbEntity
  8
YKK_W1
  6
HASENP
100
AcDbLine
 10
677.28316783
 20
338.15004052
 30
0.0
 11
677.28316783
 21
335.85004052
 31
0.0
  0
LINE
  5
574
330
6FA
100
AcDbEntity
  8
YKK_W1
  6
HASENP
100
AcDbLine
 10
680.88316783
 20
338.15004052
 30
0.0
 11
680.88316783
 21
335.85004052
 31
0.0
  0
LINE
  5
575
330
6FA
100
AcDbEntity
  8
YKK_W1
  6
HASENP
 62
   253
100
AcDbLine
 10
681.58316783
 20
338.15004052
 30
0.0
 11
681.58316783
 21
335.85004052
 31
0.0
  0
TEXT
  5
576
330
6FA
100
AcDbEntity
  8
YKK_D
100
AcDbText
 10
617.10150713
 20
385.0500227
 30
0.0
 40
4.35000038
  1
Ａ
 41
0.76628346
100
AcDbText
  0
LINE
  5
577
330
6FA
100
AcDbEntity
  8
YKK_D
100
AcDbLine
 10
679.08317385
 20
349.15004072
 30
0.0
 11
679.08317385
 21
364.6500288
 31
0.0
  0
LINE
  5
57C
330
6FA
100
AcDbEntity
  8
YKK_A1
100
AcDbLine
 10
668.7500182
 20
433.29463033
 30
0.0
 11
668.7500182
 21
470.64463033
 31
0.0
  0
LINE
  5
57D
330
6FA
100
AcDbEntity
  8
YKK_A1
100
AcDbLine
 10
668.5500182
 20
433.29463033
 30
0.0
 11
668.5500182
 21
470.64463033
 31
0.0
  0
LINE
  5
57E
330
6FA
100
AcDbEntity
  8
YKK_A1
  6
DASHDOT
100
AcDbLine
 10
637.4500182
 20
424.49463033
 30
0.0
 11
668.5500182
 21
472.54463033
 31
0.0
  0
LINE
  5
57F
330
6FA
100
AcDbEntity
  8
YKK_N1
  6
Continuous
100
AcDbLine
 10
638.00000745
 20
414.74463033
 30
0.0
 11
668.00000669
 21
414.74463033
 31
0.0
  0
LINE
  5
580
330
6FA
100
AcDbEntity
  8
YKK_A1
100
AcDbLine
 10
636.0000182
 20
422.99463033
 30
0.0
 11
670.0000182
 21
422.99463033
 31
0.0
  0
LINE
  5
581
330
6FA
100
AcDbEntity
  8
YKK_A1
100
AcDbLine
 10
637.2500182
 20
424.24463033
 30
0.0
 11
668.7500182
 21
424.24463033
 31
0.0
  0
LINE
  5
582
330
6FA
100
AcDbEntity
  8
YKK_A1
100
AcDbLine
 10
637.4500182
 20
424.49463033
 30
0.0
 11
668.5500182
 21
424.49463033
 31
0.0
  0
LINE
  5
583
330
6FA
100
AcDbEntity
  8
YKK_N1
  6
Continuous
100
AcDbLine
 10
642.33012754
 20
412.24463033
 30
0.0
 11
642.33012754
 21
417.24463033
 31
0.0
  0
LINE
  5
584
330
6FA
100
AcDbEntity
  8
YKK_N1
  6
Continuous
100
AcDbLine
 10
642.33013211
 20
412.24462881
 30
0.0
 11
638.00000516
 21
414.74462881
 31
0.0
  0
LINE
  5
585
330
6FA
100
AcDbEntity
  8
YKK_N1
  6
Continuous
100
AcDbLine
 10
638.00000287
 20
414.74462881
 30
0.0
 11
642.33013059
 21
417.24462881
 31
0.0
  0
LINE
  5
586
330
6FA
100
AcDbEntity
  8
YKK_N1
  6
Continuous
100
AcDbLine
 10
638.00000745
 20
420.99463033
 30
0.0
 11
638.00000745
 21
414.74463033
 31
0.0
  0
POINT
  5
587
330
6FA
100
AcDbEntity
  8
YKK_A1
100
AcDbPoint
 10
638.0000182
 20
422.99463033
 30
0.0
  0
POINT
  5
588
330
6FA
100
AcDbEntity
  8
YKK_A1
100
AcDbPoint
 10
636.0000182
 20
432.49463033
 30
0.0
  0
POINT
  5
589
330
6FA
100
AcDbEntity
  8
YKK_A1
100
AcDbPoint
 10
636.0000182
 20
424.99463033
 30
0.0
  0
LINE
  5
58A
330
6FA
100
AcDbEntity
  8
YKK_N1
  6
Continuous
100
AcDbLine
 10
663.66987973
 20
417.24463033
 30
0.0
 11
663.66987973
 21
412.24463033
 31
0.0
  0
LINE
  5
58B
330
6FA
100
AcDbEntity
  8
YKK_N1
  6
Continuous
100
AcDbLine
 10
668.00000974
 20
414.74462881
 30
0.0
 11
663.66988279
 21
412.24462881
 31
0.0
  0
LINE
  5
58C
330
6FA
100
AcDbEntity
  8
YKK_N1
  6
Continuous
100
AcDbLine
 10
663.66987973
 20
417.24463339
 30
0.0
 11
668.00000364
 21
414.74463491
 31
0.0
  0
TEXT
  5
58D
330
6FA
100
AcDbEntity
  8
YKK_N1
  6
Continuous
100
AcDbText
 10
651.50000707
 20
415.34463033
 30
0.0
 40
3.0
  1
W
 72
     4
 11
653.00000707
 21
416.84463033
 31
0.0
100
AcDbText
  0
LINE
  5
58E
330
6FA
100
AcDbEntity
  8
YKK_A1
100
AcDbLine
 10
668.7500182
 20
422.99463033
 30
0.0
 11
668.7500182
 21
429.49463033
 31
0.0
  0
LINE
  5
58F
330
6FA
100
AcDbEntity
  8
YKK_A1
100
AcDbLine
 10
668.5500182
 20
424.49463033
 30
0.0
 11
668.5500182
 21
429.49463033
 31
0.0
  0
LINE
  5
590
330
6FA
100
AcDbEntity
  8
YKK_N1
  6
Continuous
100
AcDbLine
 10
668.00000669
 20
420.99463033
 30
0.0
 11
668.00000669
 21
414.74463033
 31
0.0
  0
POINT
  5
591
330
6FA
100
AcDbEntity
  8
YKK_A1
100
AcDbPoint
 10
668.0000182
 20
422.99463033
 30
0.0
  0
LINE
  5
592
330
6FA
100
AcDbEntity
  8
YKK_N1
  6
Continuous
100
AcDbLine
 10
672.0000182
 20
424.99462013
 30
0.0
 11
678.25002125
 21
424.99462013
 31
0.0
  0
LINE
  5
593
330
6FA
100
AcDbEntity
  8
YKK_A2
100
AcDbLine
 10
668.4000182
 20
431.39463033
 30
0.0
 11
668.9000182
 21
431.39463033
 31
0.0
  0
LINE
  5
595
330
6FA
100
AcDbEntity
  8
YKK_A2
100
AcDbLine
 10
668.9000182
 20
433.29463033
 30
0.0
 11
668.4000182
 21
433.29463033
 31
0.0
  0
LINE
  5
596
330
6FA
100
AcDbEntity
  8
YKK_A2
100
AcDbLine
 10
668.4000182
 20
429.49463033
 30
0.0
 11
668.9000182
 21
429.49463033
 31
0.0
  0
LINE
  5
597
330
6FA
100
AcDbEntity
  8
YKK_A2
100
AcDbLine
 10
668.9000182
 20
429.49463033
 30
0.0
 11
668.9000182
 21
433.29463033
 31
0.0
  0
LINE
  5
598
330
6FA
100
AcDbEntity
  8
YKK_A2
100
AcDbLine
 10
668.4000182
 20
433.29463033
 30
0.0
 11
668.4000182
 21
429.49463033
 31
0.0
  0
POINT
  5
599
330
6FA
100
AcDbEntity
  8
YKK_A1
100
AcDbPoint
 10
670.0000182
 20
424.99463033
 30
0.0
  0
LINE
  5
59A
330
6FA
100
AcDbEntity
  8
YKK_N1
  6
Continuous
100
AcDbLine
 10
675.7500182
 20
429.32474709
 30
0.0
 11
680.75002125
 21
429.32474709
 31
0.0
  0
LINE
  5
59B
330
6FA
100
AcDbEntity
  8
YKK_N1
  6
Continuous
100
AcDbLine
 10
678.25002125
 20
424.99462013
 30
0.0
 11
675.75002125
 21
429.32474709
 31
0.0
  0
LINE
  5
59C
330
6FA
100
AcDbEntity
  8
YKK_N1
  6
Continuous
100
AcDbLine
 10
678.25002125
 20
424.99462319
 30
0.0
 11
680.75002125
 21
429.32475014
 31
0.0
  0
LINE
  5
59D
330
6FA
100
AcDbEntity
  8
YKK_A2
100
AcDbLine
 10
640.8000182
 20
469.79463033
 30
0.0
 11
640.8000182
 21
475.29463033
 31
0.0
  0
LINE
  5
59E
330
6FA
100
AcDbEntity
  8
YKK_A2
100
AcDbLine
 10
640.8750182
 20
469.76963033
 30
0.0
 11
640.8750182
 21
475.31963033
 31
0.0
  0
LINE
  5
59F
330
6FA
100
AcDbEntity
  8
YKK_A2
  6
DASHDOT
100
AcDbLine
 10
640.2000182
 20
475.86261993
 30
0.0
 11
640.2000182
 21
469.22521873
 31
0.0
  0
LINE
  5
5A0
330
6FA
100
AcDbEntity
  8
YKK_A2
100
AcDbLine
 10
639.6000182
 20
469.79463033
 30
0.0
 11
639.6000182
 21
475.29463033
 31
0.0
  0
LINE
  5
5A1
330
6FA
100
AcDbEntity
  8
YKK_A2
100
AcDbLine
 10
639.5250182
 20
475.31963033
 30
0.0
 11
639.5250182
 21
469.76963033
 31
0.0
  0
ARC
  5
5A2
330
6FA
100
AcDbEntity
  8
YKK_A2
100
AcDbCircle
 10
640.3750182
 20
470.86963033
 30
0.0
 40
0.225
100
AcDbArc
 50
270.0
 51
90.0
  0
ARC
  5
5A3
330
6FA
100
AcDbEntity
  8
YKK_A2
100
AcDbCircle
 10
640.0250182
 20
470.86963033
 30
0.0
 40
0.225
100
AcDbArc
 50
90.0
 51
270.0
  0
ARC
  5
5A4
330
6FA
100
AcDbEntity
  8
YKK_A2
100
AcDbCircle
 10
640.3750182
 20
470.86963033
 30
0.0
 40
0.275
100
AcDbArc
 50
270.0
 51
90.0
  0
ARC
  5
5A5
330
6FA
100
AcDbEntity
  8
YKK_A2
100
AcDbCircle
 10
640.0250182
 20
470.86963033
 30
0.0
 40
0.275
100
AcDbArc
 50
90.0
 51
270.0
  0
ARC
  5
5A6
330
6FA
100
AcDbEntity
  8
YKK_A2
100
AcDbCircle
 10
640.7500182
 20
469.79463033
 30
0.0
 40
0.05
100
AcDbArc
 50
270.0
 51
0.0
  0
ARC
  5
5A7
330
6FA
100
AcDbEntity
  8
YKK_A2
100
AcDbCircle
 10
640.7750182
 20
469.76963033
 30
0.0
 40
0.1
100
AcDbArc
 50
270.0
 51
0.0
  0
LINE
  5
5A8
330
6FA
100
AcDbEntity
  8
YKK_A2
100
AcDbLine
 10
640.0250182
 20
470.64463033
 30
0.0
 11
640.3750182
 21
470.64463033
 31
0.0
  0
LINE
  5
5A9
330
6FA
100
AcDbEntity
  8
YKK_A2
100
AcDbLine
 10
640.0250182
 20
470.59463033
 30
0.0
 11
640.3750182
 21
470.59463033
 31
0.0
  0
CIRCLE
  5
5AA
330
6FA
100
AcDbEntity
  8
YKK_A2
100
AcDbCircle
 10
640.2000182
 20
470.38213033
 30
0.0
 40
0.0875
  0
ARC
  5
5AB
330
6FA
100
AcDbEntity
  8
YKK_A2
100
AcDbCircle
 10
639.6500182
 20
469.79463033
 30
0.0
 40
0.05
100
AcDbArc
 50
180.0
 51
270.0
  0
ARC
  5
5AC
330
6FA
100
AcDbEntity
  8
YKK_A2
100
AcDbCircle
 10
639.6250182
 20
469.76963033
 30
0.0
 40
0.1
100
AcDbArc
 50
180.0
 51
270.0
  0
LINE
  5
5AD
330
6FA
100
AcDbEntity
  8
YKK_A2
100
AcDbLine
 10
639.6250182
 20
469.66963033
 30
0.0
 11
640.7750182
 21
469.66963033
 31
0.0
  0
LINE
  5
5AE
330
6FA
100
AcDbEntity
  8
YKK_A2
100
AcDbLine
 10
639.6500182
 20
469.74463033
 30
0.0
 11
640.7500182
 21
469.74463033
 31
0.0
  0
ARC
  5
5AF
330
6FA
100
AcDbEntity
  8
YKK_A2
100
AcDbCircle
 10
640.7500182
 20
475.29463033
 30
0.0
 40
0.05
100
AcDbArc
 50
0.0
 51
90.0
  0
ARC
  5
5B0
330
6FA
100
AcDbEntity
  8
YKK_A2
100
AcDbCircle
 10
640.7750182
 20
475.31963033
 30
0.0
 40
0.1
100
AcDbArc
 50
0.0
 51
90.0
  0
LINE
  5
5B1
330
6FA
100
AcDbEntity
  8
YKK_A2
  6
DASHDOT
100
AcDbLine
 10
638.94208085
 20
472.54463033
 30
0.0
 11
641.37579465
 21
472.54463033
 31
0.0
  0
LINE
  5
5B2
330
6FA
100
AcDbEntity
  8
YKK_A2
100
AcDbLine
 10
639.8000182
 20
474.69463033
 30
0.0
 11
639.8000182
 21
471.69463033
 31
0.0
  0
LINE
  5
5B3
330
6FA
100
AcDbEntity
  8
YKK_A2
100
AcDbLine
 10
640.6000182
 20
474.69463033
 30
0.0
 11
640.6000182
 21
471.69463033
 31
0.0
  0
LINE
  5
5B4
330
6FA
100
AcDbEntity
  8
YKK_A2
100
AcDbLine
 10
640.3750182
 20
471.09463033
 30
0.0
 11
640.0250182
 21
471.09463033
 31
0.0
  0
LINE
  5
5B5
330
6FA
100
AcDbEntity
  8
YKK_A2
100
AcDbLine
 10
640.3750182
 20
471.14463033
 30
0.0
 11
640.0250182
 21
471.14463033
 31
0.0
  0
ARC
  5
5B6
330
6FA
100
AcDbEntity
  8
YKK_A2
100
AcDbCircle
 10
640.2000182
 20
471.69463033
 30
0.0
 40
0.4
100
AcDbArc
 50
180.0
 51
0.0
  0
LINE
  5
5B7
330
6FA
100
AcDbEntity
  8
YKK_A2
100
AcDbLine
 10
639.8000182
 20
474.69463033
 30
0.0
 11
640.6000182
 21
474.69463033
 31
0.0
  0
ARC
  5
5B8
330
6FA
100
AcDbEntity
  8
YKK_A2
100
AcDbCircle
 10
639.6500182
 20
475.29463033
 30
0.0
 40
0.05
100
AcDbArc
 50
90.0
 51
180.0
  0
ARC
  5
5B9
330
6FA
100
AcDbEntity
  8
YKK_A2
100
AcDbCircle
 10
639.6250182
 20
475.31963033
 30
0.0
 40
0.1
100
AcDbArc
 50
90.0
 51
180.0
  0
LINE
  5
5BA
330
6FA
100
AcDbEntity
  8
YKK_A2
100
AcDbLine
 10
640.7750182
 20
475.41963033
 30
0.0
 11
639.6250182
 21
475.41963033
 31
0.0
  0
LINE
  5
5BB
330
6FA
100
AcDbEntity
  8
YKK_A2
100
AcDbLine
 10
639.6500182
 20
475.34463033
 30
0.0
 11
640.7500182
 21
475.34463033
 31
0.0
  0
LINE
  5
5BC
330
6FA
100
AcDbEntity
  8
YKK_A2
100
AcDbLine
 10
668.4000182
 20
470.64463033
 30
0.0
 11
668.4000182
 21
474.44463033
 31
0.0
  0
LINE
  5
5BD
330
6FA
100
AcDbEntity
  8
YKK_A2
100
AcDbLine
 10
668.9000182
 20
474.44463033
 30
0.0
 11
668.9000182
 21
470.64463033
 31
0.0
  0
LINE
  5
5BE
330
6FA
100
AcDbEntity
  8
YKK_A2
100
AcDbLine
 10
668.9000182
 20
470.64463033
 30
0.0
 11
668.4000182
 21
470.64463033
 31
0.0
  0
LINE
  5
5BF
330
6FA
100
AcDbEntity
  8
YKK_A2
100
AcDbLine
 10
668.4000182
 20
474.44463033
 30
0.0
 11
668.9000182
 21
474.44463033
 31
0.0
  0
LINE
  5
5C0
330
6FA
100
AcDbEntity
  8
YKK_A2
100
AcDbLine
 10
668.4000182
 20
472.54463033
 30
0.0
 11
668.9000182
 21
472.54463033
 31
0.0
  0
LINE
  5
5C1
330
6FA
100
AcDbEntity
  8
YKK_A1
100
AcDbLine
 10
656.7500182
 20
526.99463033
 30
0.0
 11
656.7500182
 21
534.49463033
 31
0.0
  0
LINE
  5
5C2
330
6FA
100
AcDbEntity
  8
YKK_A1
100
AcDbLine
 10
653.2144843
 20
526.99463033
 30
0.0
 11
656.7500182
 21
530.53016423
 31
0.0
  0
LINE
  5
5C3
330
6FA
100
AcDbEntity
  8
YKK_A1
100
AcDbLine
 10
651.44671735
 20
526.99463033
 30
0.0
 11
656.7500182
 21
532.29793118
 31
0.0
  0
LINE
  5
5C4
330
6FA
100
AcDbEntity
  8
YKK_A1
  6
DASHDOT
100
AcDbLine
 10
653.0000182
 20
525.49463038
 30
0.0
 11
653.0000182
 21
535.99463023
 31
0.0
  0
LINE
  5
5C5
330
6FA
100
AcDbEntity
  8
YKK_A1
100
AcDbLine
 10
649.2500182
 20
534.49463033
 30
0.0
 11
649.2500182
 21
526.99463033
 31
0.0
  0
LINE
  5
5C6
330
6FA
100
AcDbEntity
  8
YKK_A1
100
AcDbLine
 10
649.6789504
 20
526.99463033
 30
0.0
 11
656.7500182
 21
534.06569813
 31
0.0
  0
LINE
  5
5C7
330
6FA
100
AcDbEntity
  8
YKK_A1
100
AcDbLine
 10
649.2500182
 20
528.33346508
 30
0.0
 11
655.41118345
 21
534.49463033
 31
0.0
  0
LINE
  5
5C8
330
6FA
100
AcDbEntity
  8
YKK_A1
100
AcDbLine
 10
668.7500182
 20
515.59463033
 30
0.0
 11
668.7500182
 21
541.99463033
 31
0.0
  0
LINE
  5
5C9
330
6FA
100
AcDbEntity
  8
YKK_A1
100
AcDbLine
 10
637.4500182
 20
520.59463033
 30
0.0
 11
668.5500182
 21
520.59463033
 31
0.0
  0
LINE
  5
5CA
330
6FA
100
AcDbEntity
  8
YKK_A1
100
AcDbLine
 10
668.7500182
 20
520.74463033
 30
0.0
 11
637.2500182
 21
520.74463033
 31
0.0
  0
LINE
  5
5CB
330
6FA
100
AcDbEntity
  8
YKK_A1
100
AcDbLine
 10
668.7500182
 20
521.99463033
 30
0.0
 11
637.2500182
 21
521.99463033
 31
0.0
  0
LINE
  5
5CC
330
6FA
100
AcDbEntity
  8
YKK_A1
100
AcDbLine
 10
649.2500182
 20
526.99463033
 30
0.0
 11
656.7500182
 21
526.99463033
 31
0.0
  0
LINE
  5
5CD
330
6FA
100
AcDbEntity
  8
YKK_A1
  6
DASHDOT
100
AcDbLine
 10
637.7500182
 20
522.74463033
 30
0.0
 11
637.7500182
 21
524.24463028
 31
0.0
  0
CIRCLE
  5
5CE
330
6FA
100
AcDbEntity
  8
YKK_A1
100
AcDbCircle
 10
637.7500182
 20
523.49463033
 30
0.0
 40
0.25
  0
LINE
  5
5CF
330
6FA
100
AcDbEntity
  8
YKK_A1
  6
DASHDOT
100
AcDbLine
 10
637.00001825
 20
523.49463033
 30
0.0
 11
638.5000182
 21
523.49463033
 31
0.0
  0
LINE
  5
5D0
330
6FA
100
AcDbEntity
  8
YKK_A1
100
AcDbLine
 10
654.98225125
 20
526.99463033
 30
0.0
 11
656.7500182
 21
528.76239728
 31
0.0
  0
LINE
  5
5D1
330
6FA
100
AcDbEntity
  8
YKK_A1
100
AcDbLine
 10
668.5500182
 20
515.59463033
 30
0.0
 11
668.5500182
 21
520.59463033
 31
0.0
  0
LINE
  5
5D2
330
6FA
100
AcDbEntity
  8
YKK_A2
100
AcDbLine
 10
668.4000182
 20
513.69463033
 30
0.0
 11
668.9000182
 21
513.69463033
 31
0.0
  0
LINE
  5
5D3
330
6FA
100
AcDbEntity
  8
YKK_A2
100
AcDbLine
 10
668.9000182
 20
515.59463033
 30
0.0
 11
668.9000182
 21
511.79463033
 31
0.0
  0
LINE
  5
5D4
330
6FA
100
AcDbEntity
  8
YKK_A2
100
AcDbLine
 10
668.9000182
 20
511.79463033
 30
0.0
 11
668.4000182
 21
511.79463033
 31
0.0
  0
LINE
  5
5D5
330
6FA
100
AcDbEntity
  8
YKK_A2
100
AcDbLine
 10
668.4000182
 20
511.79463033
 30
0.0
 11
668.4000182
 21
515.59463033
 31
0.0
  0
LINE
  5
5D6
330
6FA
100
AcDbEntity
  8
YKK_A2
100
AcDbLine
 10
668.4000182
 20
515.59463033
 30
0.0
 11
668.9000182
 21
515.59463033
 31
0.0
  0
LINE
  5
5D7
330
6FA
100
AcDbEntity
  8
YKK_A1
  6
DASHDOT
100
AcDbLine
 10
669.0000182
 20
523.49463033
 30
0.0
 11
667.50001825
 21
523.49463033
 31
0.0
  0
LINE
  5
5D8
330
6FA
100
AcDbEntity
  8
YKK_A1
  6
DASHDOT
100
AcDbLine
 10
668.2500182
 20
522.74463033
 30
0.0
 11
668.2500182
 21
524.24463028
 31
0.0
  0
CIRCLE
  5
5D9
330
6FA
100
AcDbEntity
  8
YKK_A1
100
AcDbCircle
 10
668.2500182
 20
523.49463033
 30
0.0
 40
0.25
  0
TEXT
  5
5DA
330
6FA
100
AcDbEntity
  8
USER1
100
AcDbText
 10
644.3879258
 20
549.7400136
 30
0.0
 40
6.0
  1
外観図
 41
0.833333
100
AcDbText
  0
LINE
  5
5DB
330
6FA
100
AcDbEntity
  8
YKK_A1
100
AcDbLine
 10
670.0000182
 20
541.99463033
 30
0.0
 11
636.0000182
 21
541.99463033
 31
0.0
  0
LINE
  5
5DC
330
6FA
100
AcDbEntity
  8
YKK_A1
100
AcDbLine
 10
668.7500182
 20
540.74463033
 30
0.0
 11
637.2500182
 21
540.74463033
 31
0.0
  0
LINE
  5
5DD
330
6FA
100
AcDbEntity
  8
YKK_A1
  6
DASHDOT
100
AcDbLine
 10
647.7500183
 20
530.74463033
 30
0.0
 11
658.25001815
 21
530.74463033
 31
0.0
  0
LINE
  5
5DE
330
6FA
100
AcDbEntity
  8
YKK_A1
100
AcDbLine
 10
649.2500182
 20
533.63676593
 30
0.0
 11
650.1078826
 21
534.49463033
 31
0.0
  0
LINE
  5
5DF
330
6FA
100
AcDbEntity
  8
YKK_A1
100
AcDbLine
 10
649.2500182
 20
530.10123203
 30
0.0
 11
653.6434165
 21
534.49463033
 31
0.0
  0
LINE
  5
5E0
330
6FA
100
AcDbEntity
  8
YKK_A1
100
AcDbLine
 10
649.2500182
 20
531.86899898
 30
0.0
 11
651.87564955
 21
534.49463033
 31
0.0
  0
LINE
  5
5E1
330
6FA
100
AcDbEntity
  8
YKK_A1
100
AcDbLine
 10
656.7500182
 20
534.49463033
 30
0.0
 11
649.2500182
 21
534.49463033
 31
0.0
  0
LINE
  5
5E2
330
6FA
100
AcDbEntity
  8
YKK_A1
  6
DASHDOT
100
AcDbLine
 10
637.00001825
 20
531.36963033
 30
0.0
 11
638.5000182
 21
531.36963033
 31
0.0
  0
CIRCLE
  5
5E3
330
6FA
100
AcDbEntity
  8
YKK_A1
100
AcDbCircle
 10
637.7500182
 20
531.36963033
 30
0.0
 40
0.25
  0
LINE
  5
5E4
330
6FA
100
AcDbEntity
  8
YKK_A1
  6
DASHDOT
100
AcDbLine
 10
637.7500182
 20
530.61963033
 30
0.0
 11
637.7500182
 21
532.11963028
 31
0.0
  0
LINE
  5
5E5
330
6FA
100
AcDbEntity
  8
YKK_A1
  6
DASHDOT
100
AcDbLine
 10
637.7500182
 20
538.49463033
 30
0.0
 11
637.7500182
 21
539.99463028
 31
0.0
  0
CIRCLE
  5
5E6
330
6FA
100
AcDbEntity
  8
YKK_A1
100
AcDbCircle
 10
637.7500182
 20
539.24463033
 30
0.0
 40
0.25
  0
LINE
  5
5E7
330
6FA
100
AcDbEntity
  8
YKK_A1
  6
DASHDOT
100
AcDbLine
 10
637.00001825
 20
539.24463033
 30
0.0
 11
638.5000182
 21
539.24463033
 31
0.0
  0
POINT
  5
5E8
330
6FA
100
AcDbEntity
  8
YKK_A1
100
AcDbPoint
 10
636.0000182
 20
539.99463033
 30
0.0
  0
POINT
  5
5E9
330
6FA
100
AcDbEntity
  8
YKK_A1
100
AcDbPoint
 10
636.0000182
 20
530.54463033
 30
0.0
  0
POINT
  5
5EA
330
6FA
100
AcDbEntity
  8
YKK_A1
100
AcDbPoint
 10
637.7500182
 20
541.99463033
 30
0.0
  0
POINT
  5
5EB
330
6FA
100
AcDbEntity
  8
YKK_A1
100
AcDbPoint
 10
645.5000182
 20
541.99463033
 30
0.0
  0
POINT
  5
5EC
330
6FA
100
AcDbEntity
  8
YKK_A1
100
AcDbPoint
 10
660.5000182
 20
541.99463033
 30
0.0
  0
LINE
  5
5ED
330
6FA
100
AcDbEntity
  8
YKK_N1
  6
Continuous
100
AcDbLine
 10
672.0000182
 20
539.99462319
 30
0.0
 11
678.25002125
 21
539.99462319
 31
0.0
  0
CIRCLE
  5
5EE
330
6FA
100
AcDbEntity
  8
YKK_A1
100
AcDbCircle
 10
668.2500182
 20
531.36963033
 30
0.0
 40
0.25
  0
LINE
  5
5EF
330
6FA
100
AcDbEntity
  8
YKK_A1
  6
DASHDOT
100
AcDbLine
 10
669.0000182
 20
531.36963033
 30
0.0
 11
667.50001825
 21
531.36963033
 31
0.0
  0
LINE
  5
5F0
330
6FA
100
AcDbEntity
  8
YKK_A1
  6
DASHDOT
100
AcDbLine
 10
668.2500182
 20
530.61963033
 30
0.0
 11
668.2500182
 21
532.11963028
 31
0.0
  0
LINE
  5
5F1
330
6FA
100
AcDbEntity
  8
YKK_A1
  6
DASHDOT
100
AcDbLine
 10
668.2500182
 20
538.49463033
 30
0.0
 11
668.2500182
 21
539.99463028
 31
0.0
  0
CIRCLE
  5
5F2
330
6FA
100
AcDbEntity
  8
YKK_A1
100
AcDbCircle
 10
668.2500182
 20
539.24463033
 30
0.0
 40
0.25
  0
LINE
  5
5F3
330
6FA
100
AcDbEntity
  8
YKK_A1
  6
DASHDOT
100
AcDbLine
 10
669.0000182
 20
539.24463033
 30
0.0
 11
667.50001825
 21
539.24463033
 31
0.0
  0
POINT
  5
5F4
330
6FA
100
AcDbEntity
  8
YKK_A1
100
AcDbPoint
 10
670.0000182
 20
539.99463033
 30
0.0
  0
LINE
  5
5F5
330
6FA
100
AcDbEntity
  8
YKK_N1
  6
Continuous
100
AcDbLine
 10
675.75002736
 20
535.66449623
 30
0.0
 11
678.25002736
 21
539.99462319
 31
0.0
  0
LINE
  5
5F6
330
6FA
100
AcDbEntity
  8
YKK_N1
  6
Continuous
100
AcDbLine
 10
675.7500182
 20
535.66449623
 30
0.0
 11
680.75002125
 21
535.66449623
 31
0.0
  0
LINE
  5
5F7
330
6FA
100
AcDbEntity
  8
YKK_N1
  6
Continuous
100
AcDbLine
 10
680.75002125
 20
535.66449623
 30
0.0
 11
678.25002125
 21
539.99462319
 31
0.0
  0
POINT
  5
5F8
330
6FA
100
AcDbEntity
  8
YKK_A1
100
AcDbPoint
 10
668.2500182
 20
541.99463033
 30
0.0
  0
LINE
  5
5F9
330
6FA
100
AcDbEntity
  8
YKK_D
100
AcDbLine
 10
689.08317385
 20
349.15004072
 30
0.0
 11
689.08317385
 21
404.6500288
 31
0.0
  0
LINE
  5
5FA
330
6FA
100
AcDbEntity
  8
YKK_D
100
AcDbLine
 10
714.08317385
 20
349.15004072
 30
0.0
 11
714.08317385
 21
404.6500288
 31
0.0
  0
ARC
  5
5FB
330
6FA
100
AcDbEntity
  8
YKK_W1
100
AcDbCircle
 10
712.58316783
 20
342.65004052
 30
0.0
 40
1.5
100
AcDbArc
 50
0.0
 51
90.0
  0
ARC
  5
5FC
330
6FA
100
AcDbEntity
  8
YKK_W1
100
AcDbCircle
 10
690.58316783
 20
342.65004052
 30
0.0
 40
1.5
100
AcDbArc
 50
90.0
 51
180.0
  0
LINE
  5
5FD
330
6FA
100
AcDbEntity
  8
YKK_W1
100
AcDbLine
 10
687.18316783
 20
335.45004052
 30
0.0
 11
687.18316783
 21
312.75004052
 31
0.0
  0
LINE
  5
5FE
330
6FA
100
AcDbEntity
  8
YKK_W1
100
AcDbLine
 10
690.68316783
 20
312.05004052
 30
0.0
 11
690.68316783
 21
342.55004052
 31
0.0
  0
LINE
  5
5FF
330
6FA
100
AcDbEntity
  8
YKK_W1
100
AcDbLine
 10
689.08316783
 20
342.65004052
 30
0.0
 11
689.08316783
 21
312.15004052
 31
0.0
  0
ARC
  5
600
330
6FA
100
AcDbEntity
  8
YKK_W1
100
AcDbCircle
 10
689.18316783
 20
312.05004052
 30
0.0
 40
1.5
100
AcDbArc
 50
270.0
 51
0.0
  0
LINE
  5
601
330
6FA
100
AcDbEntity
  8
YKK_W1
100
AcDbLine
 10
689.08316783
 20
312.75004052
 30
0.0
 11
687.18316783
 21
312.75004052
 31
0.0
  0
LINE
  5
602
330
6FA
100
AcDbEntity
  8
YKK_W1
100
AcDbLine
 10
690.68316783
 20
342.55004052
 30
0.0
 11
712.48316783
 21
342.55004052
 31
0.0
  0
ARC
  5
603
330
6FA
100
AcDbEntity
  8
YKK_W1
100
AcDbCircle
 10
687.58316783
 20
336.65004052
 30
0.0
 40
1.5
100
AcDbArc
 50
0.0
 51
90.0
  0
ARC
  5
604
330
6FA
100
AcDbEntity
  8
YKK_W1
100
AcDbCircle
 10
686.78316783
 20
335.45004052
 30
0.0
 40
0.4
100
AcDbArc
 50
0.0
 51
90.0
  0
LINE
  5
605
330
6FA
100
AcDbEntity
  8
YKK_W1
100
AcDbLine
 10
712.48316783
 20
342.55004052
 30
0.0
 11
712.48316783
 21
324.15004052
 31
0.0
  0
LINE
  5
606
330
6FA
100
AcDbEntity
  8
YKK_W1
100
AcDbLine
 10
714.08316783
 20
324.15004052
 30
0.0
 11
714.08316783
 21
342.65004052
 31
0.0
  0
LINE
  5
607
330
6FA
100
AcDbEntity
  8
YKK_W2
  6
HASENP
100
AcDbLine
 10
712.48316783
 20
329.14808195
 30
0.0
 11
710.26504572
 21
329.75630417
 31
0.0
  0
LINE
  5
608
330
6FA
100
AcDbEntity
  8
YKK_W1
100
AcDbLine
 10
712.48316783
 20
324.15004052
 30
0.0
 11
714.08316783
 21
324.15004052
 31
0.0
  0
LINE
  5
609
330
6FA
100
AcDbEntity
  8
YKK_D
100
AcDbLine
 10
689.08317385
 20
349.15004072
 30
0.0
 11
689.08317385
 21
384.6500288
 31
0.0
  0
LINE
  5
60A
330
6FA
100
AcDbEntity
  8
YKK_W1
100
AcDbLine
 10
712.58316783
 20
344.15004052
 30
0.0
 11
690.58316783
 21
344.15004052
 31
0.0
  0
LINE
  5
60B
330
6FA
100
AcDbEntity
  8
YKK_D
100
AcDbLine
 10
689.08317385
 20
349.55003414
 30
0.0
 11
689.08317385
 21
364.6500288
 31
0.0
  0
LINE
  5
614
330
6FA
100
AcDbEntity
  8
YKK_ZWAK
  6
Continuous
 62
   254
100
AcDbLine
 10
770.0000182
 20
298.9000077
 30
0.0
 11
772.8000182
 21
298.9000077
 31
0.0
  0
LINE
  5
615
330
6FA
100
AcDbEntity
  8
YKK_D
100
AcDbLine
 10
689.08317385
 20
404.1500288
 30
0.0
 11
714.08317385
 21
404.1500288
 31
0.0
  0
TEXT
  5
616
330
6FA
100
AcDbEntity
  8
YKK_D
100
AcDbText
 10
697.60150713
 20
405.0500227
 30
0.0
 40
4.35000038
  1
２５
 41
0.76628346
100
AcDbText
  0
CIRCLE
  5
66A
330
6FA
100
AcDbEntity
  8
YKK_D
100
AcDbCircle
 10
714.08317385
 20
404.1500288
 30
0.0
 40
0.75
  0
CIRCLE
  5
66B
330
6FA
100
AcDbEntity
  8
YKK_D
100
AcDbCircle
 10
689.08317385
 20
404.1500288
 30
0.0
 40
0.75
  0
CIRCLE
  5
66C
330
6FA
100
AcDbEntity
  8
YKK_D
100
AcDbCircle
 10
689.08317385
 20
404.1500288
 30
0.0
 40
0.75
  0
CIRCLE
  5
66D
330
6FA
100
AcDbEntity
  8
YKK_D
100
AcDbCircle
 10
689.08317385
 20
384.1500288
 30
0.0
 40
0.75
  0
CIRCLE
  5
66E
330
6FA
100
AcDbEntity
  8
YKK_D
100
AcDbCircle
 10
689.08317385
 20
364.1500288
 30
0.0
 40
0.75
  0
CIRCLE
  5
66F
330
6FA
100
AcDbEntity
  8
YKK_D
100
AcDbCircle
 10
679.08317385
 20
364.1500288
 30
0.0
 40
0.75
  0
CIRCLE
  5
670
330
6FA
100
AcDbEntity
  8
YKK_D
100
AcDbCircle
 10
562.58317385
 20
364.1500288
 30
0.0
 40
0.75
  0
CIRCLE
  5
671
330
6FA
100
AcDbEntity
  8
YKK_D
100
AcDbCircle
 10
549.08317385
 20
384.1500288
 30
0.0
 40
0.75
  0
CIRCLE
  5
672
330
6FA
100
AcDbEntity
  8
YKK_D
100
AcDbCircle
 10
549.08317385
 20
384.1500288
 30
0.0
 40
0.75
  0
CIRCLE
  5
673
330
6FA
100
AcDbEntity
  8
YKK_D
100
AcDbCircle
 10
535.58317385
 20
364.1500288
 30
0.0
 40
0.75
  0
CIRCLE
  5
674
330
6FA
100
AcDbEntity
  8
YKK_D
100
AcDbCircle
 10
689.08317385
 20
290.55005322
 30
0.0
 40
0.75
  0
CIRCLE
  5
675
330
6FA
100
AcDbEntity
  8
YKK_D
100
AcDbCircle
 10
689.08317385
 20
207.55003796
 30
0.0
 40
0.75
  0
CIRCLE
  5
676
330
6FA
100
AcDbEntity
  8
YKK_D
100
AcDbCircle
 10
714.08317385
 20
184.90828666
 30
0.0
 40
0.75
  0
CIRCLE
  5
677
330
6FA
100
AcDbEntity
  8
YKK_D
100
AcDbCircle
 10
689.08317385
 20
184.90828666
 30
0.0
 40
0.75
  0
CIRCLE
  5
678
330
6FA
100
AcDbEntity
  8
YKK_D
100
AcDbCircle
 10
689.08317385
 20
184.90828666
 30
0.0
 40
0.75
  0
CIRCLE
  5
679
330
6FA
100
AcDbEntity
  8
YKK_D
100
AcDbCircle
 10
685.08317385
 20
184.90828666
 30
0.0
 40
0.75
  0
CIRCLE
  5
67A
330
6FA
100
AcDbEntity
  8
YKK_D
100
AcDbCircle
 10
685.08317385
 20
184.90828666
 30
0.0
 40
0.75
  0
CIRCLE
  5
67B
330
6FA
100
AcDbEntity
  8
YKK_D
100
AcDbCircle
 10
689.08317385
 20
71.40827903
 30
0.0
 40
0.75
  0
CIRCLE
  5
67C
330
6FA
100
AcDbEntity
  8
YKK_D
100
AcDbCircle
 10
704.08317385
 20
51.40827903
 30
0.0
 40
0.75
  0
CIRCLE
  5
67D
330
6FA
100
AcDbEntity
  8
YKK_D
100
AcDbCircle
 10
674.08317385
 20
290.55005322
 30
0.0
 40
0.75
  0
CIRCLE
  5
67E
330
6FA
100
AcDbEntity
  8
YKK_D
100
AcDbCircle
 10
674.08317385
 20
207.55003796
 30
0.0
 40
0.75
  0
CIRCLE
  5
67F
330
6FA
100
AcDbEntity
  8
YKK_D
100
AcDbCircle
 10
674.08317385
 20
207.55003796
 30
0.0
 40
0.75
  0
CIRCLE
  5
680
330
6FA
100
AcDbEntity
  8
YKK_D
100
AcDbCircle
 10
576.58317385
 20
207.55003796
 30
0.0
 40
0.75
  0
CIRCLE
  5
681
330
6FA
100
AcDbEntity
  8
YKK_D
100
AcDbCircle
 10
576.58317385
 20
207.55003796
 30
0.0
 40
0.75
  0
CIRCLE
  5
682
330
6FA
100
AcDbEntity
  8
YKK_D
100
AcDbCircle
 10
521.58317385
 20
207.55003796
 30
0.0
 40
0.75
  0
CIRCLE
  5
683
330
6FA
100
AcDbEntity
  8
YKK_D
100
AcDbCircle
 10
521.58317385
 20
207.55003796
 30
0.0
 40
0.75
  0
CIRCLE
  5
684
330
6FA
100
AcDbEntity
  8
YKK_D
100
AcDbCircle
 10
424.08317385
 20
290.55005322
 30
0.0
 40
0.75
  0
CIRCLE
  5
685
330
6FA
100
AcDbEntity
  8
YKK_D
100
AcDbCircle
 10
424.08317385
 20
207.55003796
 30
0.0
 40
0.75
  0
CIRCLE
  5
686
330
6FA
100
AcDbEntity
  8
YKK_D
100
AcDbCircle
 10
424.08317385
 20
207.55003796
 30
0.0
 40
0.75
  0
CIRCLE
  5
687
330
6FA
100
AcDbEntity
  8
YKK_D
100
AcDbCircle
 10
474.08317385
 20
151.40828666
 30
0.0
 40
0.75
  0
CIRCLE
  5
688
330
6FA
100
AcDbEntity
  8
YKK_D
100
AcDbCircle
 10
454.08317385
 20
147.40828666
 30
0.0
 40
0.75
  0
CIRCLE
  5
689
330
6FA
100
AcDbEntity
  8
YKK_D
100
AcDbCircle
 10
454.08317385
 20
147.40828666
 30
0.0
 40
0.75
  0
CIRCLE
  5
68A
330
6FA
100
AcDbEntity
  8
YKK_D
100
AcDbCircle
 10
454.08317385
 20
151.40828666
 30
0.0
 40
0.75
  0
CIRCLE
  5
68B
330
6FA
100
AcDbEntity
  8
YKK_D
100
AcDbCircle
 10
454.08317385
 20
119.40828666
 30
0.0
 40
0.75
  0
CIRCLE
  5
68C
330
6FA
100
AcDbEntity
  8
YKK_D
100
AcDbCircle
 10
454.08317385
 20
119.40828666
 30
0.0
 40
0.75
  0
CIRCLE
  5
68D
330
6FA
100
AcDbEntity
  8
YKK_D
100
AcDbCircle
 10
454.08317385
 20
122.40828666
 30
0.0
 40
0.75
  0
CIRCLE
  5
68E
330
6FA
100
AcDbEntity
  8
YKK_D
100
AcDbCircle
 10
454.08317385
 20
122.40828666
 30
0.0
 40
0.75
  0
CIRCLE
  5
68F
330
6FA
100
AcDbEntity
  8
YKK_D
100
AcDbCircle
 10
674.08317385
 20
71.40827903
 30
0.0
 40
0.75
  0
CIRCLE
  5
690
330
6FA
100
AcDbEntity
  8
YKK_D
100
AcDbCircle
 10
474.08317385
 20
91.40827903
 30
0.0
 40
0.75
  0
CIRCLE
  5
691
330
6FA
100
AcDbEntity
  8
YKK_D
100
AcDbCircle
 10
454.08317385
 20
91.40827903
 30
0.0
 40
0.75
  0
CIRCLE
  5
692
330
6FA
100
AcDbEntity
  8
YKK_D
100
AcDbCircle
 10
424.08320437
 20
71.40827903
 30
0.0
 40
0.75
  0
CIRCLE
  5
693
330
6FA
100
AcDbEntity
  8
YKK_D
100
AcDbCircle
 10
282.99375674
 20
509.42620994
 30
0.0
 40
0.75
  0
CIRCLE
  5
694
330
6FA
100
AcDbEntity
  8
YKK_D
100
AcDbCircle
 10
262.99375674
 20
494.42620994
 30
0.0
 40
0.75
  0
CIRCLE
  5
695
330
6FA
100
AcDbEntity
  8
YKK_D
100
AcDbCircle
 10
184.5937781
 20
539.42620994
 30
0.0
 40
0.75
  0
CIRCLE
  5
696
330
6FA
100
AcDbEntity
  8
YKK_D
100
AcDbCircle
 10
186.19376894
 20
539.42620994
 30
0.0
 40
0.75
  0
CIRCLE
  5
697
330
6FA
100
AcDbEntity
  8
YKK_D
100
AcDbCircle
 10
409.08317385
 20
404.1500288
 30
0.0
 40
0.75
  0
CIRCLE
  5
698
330
6FA
100
AcDbEntity
  8
YKK_D
100
AcDbCircle
 10
409.08317385
 20
404.1500288
 30
0.0
 40
0.75
  0
CIRCLE
  5
699
330
6FA
100
AcDbEntity
  8
YKK_D
100
AcDbCircle
 10
384.08317385
 20
404.1500288
 30
0.0
 40
0.75
  0
CIRCLE
  5
69A
330
6FA
100
AcDbEntity
  8
YKK_D
100
AcDbCircle
 10
409.08317385
 20
384.1500288
 30
0.0
 40
0.75
  0
CIRCLE
  5
69B
330
6FA
100
AcDbEntity
  8
YKK_D
100
AcDbCircle
 10
409.08317385
 20
364.1500288
 30
0.0
 40
0.75
  0
CIRCLE
  5
69C
330
6FA
100
AcDbEntity
  8
YKK_D
100
AcDbCircle
 10
364.08317385
 20
324.1500288
 30
0.0
 40
0.75
  0
CIRCLE
  5
69D
330
6FA
100
AcDbEntity
  8
YKK_D
100
AcDbCircle
 10
364.08317385
 20
344.1500288
 30
0.0
 40
0.75
  0
CIRCLE
  5
69E
330
6FA
100
AcDbEntity
  8
YKK_D
100
AcDbCircle
 10
262.99375674
 20
479.42620994
 30
0.0
 40
0.75
  0
CIRCLE
  5
69F
330
6FA
100
AcDbEntity
  8
YKK_D
100
AcDbCircle
 10
262.99375674
 20
479.42620994
 30
0.0
 40
0.75
  0
CIRCLE
  5
6A0
330
6FA
100
AcDbEntity
  8
YKK_D
100
AcDbCircle
 10
239.79377505
 20
419.42620994
 30
0.0
 40
0.75
  0
CIRCLE
  5
6A1
330
6FA
100
AcDbEntity
  8
YKK_D
100
AcDbCircle
 10
209.5937781
 20
399.42620994
 30
0.0
 40
0.75
  0
CIRCLE
  5
6A2
330
6FA
100
AcDbEntity
  8
YKK_D
100
AcDbCircle
 10
184.5937781
 20
419.42620994
 30
0.0
 40
0.75
  0
CIRCLE
  5
6A3
330
6FA
100
AcDbEntity
  8
YKK_D
100
AcDbCircle
 10
184.5937781
 20
399.42620994
 30
0.0
 40
0.75
  0
CIRCLE
  5
6A4
330
6FA
100
AcDbEntity
  8
YKK_D
100
AcDbCircle
 10
262.99375674
 20
379.42620994
 30
0.0
 40
0.75
  0
CIRCLE
  5
6A5
330
6FA
100
AcDbEntity
  8
YKK_D
100
AcDbCircle
 10
262.99375674
 20
379.42620994
 30
0.0
 40
0.75
  0
CIRCLE
  5
6A6
330
6FA
100
AcDbEntity
  8
YKK_D
100
AcDbCircle
 10
262.99375674
 20
364.42620994
 30
0.0
 40
0.75
  0
CIRCLE
  5
6A7
330
6FA
100
AcDbEntity
  8
YKK_D
100
AcDbCircle
 10
146.19376894
 20
539.42620994
 30
0.0
 40
0.75
  0
CIRCLE
  5
6A8
330
6FA
100
AcDbEntity
  8
YKK_D
100
AcDbCircle
 10
126.19376894
 20
539.42620994
 30
0.0
 40
0.75
  0
CIRCLE
  5
6A9
330
6FA
100
AcDbEntity
  8
YKK_D
100
AcDbCircle
 10
127.79377505
 20
539.42620994
 30
0.0
 40
0.75
  0
CIRCLE
  5
6AA
330
6FA
100
AcDbEntity
  8
YKK_D
100
AcDbCircle
 10
127.79377505
 20
539.42620994
 30
0.0
 40
0.75
  0
CIRCLE
  5
6AB
330
6FA
100
AcDbEntity
  8
YKK_D
100
AcDbCircle
 10
106.19376894
 20
494.42620994
 30
0.0
 40
0.75
  0
CIRCLE
  5
6AC
330
6FA
100
AcDbEntity
  8
YKK_D
100
AcDbCircle
 10
66.19376894
 20
519.42620994
 30
0.0
 40
0.75
  0
CIRCLE
  5
6AD
330
6FA
100
AcDbEntity
  8
YKK_D
100
AcDbCircle
 10
86.19376894
 20
494.42620994
 30
0.0
 40
0.75
  0
CIRCLE
  5
6AE
330
6FA
100
AcDbEntity
  8
YKK_D
100
AcDbCircle
 10
66.19376894
 20
494.42620994
 30
0.0
 40
0.75
  0
CIRCLE
  5
6AF
330
6FA
100
AcDbEntity
  8
YKK_D
100
AcDbCircle
 10
66.19376894
 20
494.42620994
 30
0.0
 40
0.75
  0
CIRCLE
  5
6B0
330
6FA
100
AcDbEntity
  8
YKK_D
100
AcDbCircle
 10
106.19376894
 20
439.92865135
 30
0.0
 40
0.75
  0
CIRCLE
  5
6B1
330
6FA
100
AcDbEntity
  8
YKK_D
100
AcDbCircle
 10
106.19376894
 20
439.92865135
 30
0.0
 40
0.75
  0
CIRCLE
  5
6B2
330
6FA
100
AcDbEntity
  8
YKK_D
100
AcDbCircle
 10
106.19376894
 20
418.04718162
 30
0.0
 40
0.75
  0
CIRCLE
  5
6B3
330
6FA
100
AcDbEntity
  8
YKK_D
100
AcDbCircle
 10
106.19376894
 20
418.04718162
 30
0.0
 40
0.75
  0
CIRCLE
  5
6B4
330
6FA
100
AcDbEntity
  8
YKK_D
100
AcDbCircle
 10
86.19376894
 20
464.42620994
 30
0.0
 40
0.75
  0
CIRCLE
  5
6B5
330
6FA
100
AcDbEntity
  8
YKK_D
100
AcDbCircle
 10
86.19376894
 20
464.42620994
 30
0.0
 40
0.75
  0
CIRCLE
  5
6B6
330
6FA
100
AcDbEntity
  8
YKK_D
100
AcDbCircle
 10
86.19376894
 20
394.42620994
 30
0.0
 40
0.75
  0
CIRCLE
  5
6B7
330
6FA
100
AcDbEntity
  8
YKK_D
100
AcDbCircle
 10
86.19376894
 20
394.42620994
 30
0.0
 40
0.75
  0
CIRCLE
  5
6B8
330
6FA
100
AcDbEntity
  8
YKK_D
100
AcDbCircle
 10
106.19376894
 20
364.42620994
 30
0.0
 40
0.75
  0
CIRCLE
  5
6B9
330
6FA
100
AcDbEntity
  8
YKK_D
100
AcDbCircle
 10
86.19376894
 20
364.42620994
 30
0.0
 40
0.75
  0
CIRCLE
  5
6BA
330
6FA
100
AcDbEntity
  8
YKK_D
100
AcDbCircle
 10
66.19376894
 20
364.42620994
 30
0.0
 40
0.75
  0
CIRCLE
  5
6BB
330
6FA
100
AcDbEntity
  8
YKK_D
100
AcDbCircle
 10
66.19376894
 20
364.42620994
 30
0.0
 40
0.75
  0
CIRCLE
  5
6BC
330
6FA
100
AcDbEntity
  8
YKK_D
100
AcDbCircle
 10
66.19376894
 20
339.42620994
 30
0.0
 40
0.75
  0
CIRCLE
  5
6BD
330
6FA
100
AcDbEntity
  8
YKK_D
100
AcDbCircle
 10
66.19376894
 20
336.42620994
 30
0.0
 40
0.75
  0
CIRCLE
  5
6BE
330
6FA
100
AcDbEntity
  8
YKK_D
100
AcDbCircle
 10
66.19376894
 20
339.42620994
 30
0.0
 40
0.75
  0
CIRCLE
  5
6BF
330
6FA
100
AcDbEntity
  8
YKK_D
100
AcDbCircle
 10
66.19376894
 20
336.42620994
 30
0.0
 40
0.75
  0
CIRCLE
  5
6C0
330
6FA
100
AcDbEntity
  8
YKK_D
100
AcDbCircle
 10
409.08317385
 20
290.55005322
 30
0.0
 40
0.75
  0
CIRCLE
  5
6C1
330
6FA
100
AcDbEntity
  8
YKK_D
100
AcDbCircle
 10
409.08317385
 20
207.55003796
 30
0.0
 40
0.75
  0
CIRCLE
  5
6C2
330
6FA
100
AcDbEntity
  8
YKK_D
100
AcDbCircle
 10
413.08317385
 20
184.90828666
 30
0.0
 40
0.75
  0
CIRCLE
  5
6C3
330
6FA
100
AcDbEntity
  8
YKK_D
100
AcDbCircle
 10
413.08317385
 20
184.90828666
 30
0.0
 40
0.75
  0
CIRCLE
  5
6C4
330
6FA
100
AcDbEntity
  8
YKK_D
100
AcDbCircle
 10
409.08317385
 20
184.90828666
 30
0.0
 40
0.75
  0
CIRCLE
  5
6C5
330
6FA
100
AcDbEntity
  8
YKK_D
100
AcDbCircle
 10
409.08317385
 20
184.90828666
 30
0.0
 40
0.75
  0
CIRCLE
  5
6C6
330
6FA
100
AcDbEntity
  8
YKK_D
100
AcDbCircle
 10
384.08317385
 20
184.90828666
 30
0.0
 40
0.75
  0
CIRCLE
  5
6C7
330
6FA
100
AcDbEntity
  8
YKK_D
100
AcDbCircle
 10
364.08317385
 20
151.40828666
 30
0.0
 40
0.75
  0
CIRCLE
  5
6C8
330
6FA
100
AcDbEntity
  8
YKK_D
100
AcDbCircle
 10
364.08317385
 20
131.40828666
 30
0.0
 40
0.75
  0
CIRCLE
  5
6C9
330
6FA
100
AcDbEntity
  8
YKK_D
100
AcDbCircle
 10
262.99375674
 20
116.16567375
 30
0.0
 40
0.75
  0
CIRCLE
  5
6CA
330
6FA
100
AcDbEntity
  8
YKK_D
100
AcDbCircle
 10
186.19376894
 20
162.3279586
 30
0.0
 40
0.75
  0
CIRCLE
  5
6CB
330
6FA
100
AcDbEntity
  8
YKK_D
100
AcDbCircle
 10
186.19376894
 20
136.16569664
 30
0.0
 40
0.75
  0
CIRCLE
  5
6CC
330
6FA
100
AcDbEntity
  8
YKK_D
100
AcDbCircle
 10
158.19376894
 20
136.16569664
 30
0.0
 40
0.75
  0
CIRCLE
  5
6CD
330
6FA
100
AcDbEntity
  8
YKK_D
100
AcDbCircle
 10
158.19376894
 20
136.16569664
 30
0.0
 40
0.75
  0
CIRCLE
  5
6CE
330
6FA
100
AcDbEntity
  8
YKK_D
100
AcDbCircle
 10
409.08320437
 20
71.40827903
 30
0.0
 40
0.75
  0
CIRCLE
  5
6CF
330
6FA
100
AcDbEntity
  8
YKK_D
100
AcDbCircle
 10
394.08317385
 20
51.40827903
 30
0.0
 40
0.75
  0
CIRCLE
  5
6D0
330
6FA
100
AcDbEntity
  8
YKK_D
100
AcDbCircle
 10
262.99375674
 20
101.16568138
 30
0.0
 40
0.75
  0
CIRCLE
  5
6D1
330
6FA
100
AcDbEntity
  8
YKK_D
100
AcDbCircle
 10
282.99375674
 20
86.16569664
 30
0.0
 40
0.75
  0
CIRCLE
  5
6D2
330
6FA
100
AcDbEntity
  8
YKK_D
100
AcDbCircle
 10
184.5937781
 20
56.16570045
 30
0.0
 40
0.75
  0
CIRCLE
  5
6D3
330
6FA
100
AcDbEntity
  8
YKK_D
100
AcDbCircle
 10
186.19376894
 20
56.16570045
 30
0.0
 40
0.75
  0
CIRCLE
  5
6D4
330
6FA
100
AcDbEntity
  8
YKK_D
100
AcDbCircle
 10
126.19376894
 20
162.3279586
 30
0.0
 40
0.75
  0
CIRCLE
  5
6D5
330
6FA
100
AcDbEntity
  8
YKK_D
100
AcDbCircle
 10
126.19376894
 20
136.16569664
 30
0.0
 40
0.75
  0
CIRCLE
  5
6D6
330
6FA
100
AcDbEntity
  8
YKK_D
100
AcDbCircle
 10
130.19376894
 20
136.16569664
 30
0.0
 40
0.75
  0
CIRCLE
  5
6D7
330
6FA
100
AcDbEntity
  8
YKK_D
100
AcDbCircle
 10
130.19376894
 20
136.16569664
 30
0.0
 40
0.75
  0
CIRCLE
  5
6D8
330
6FA
100
AcDbEntity
  8
YKK_D
100
AcDbCircle
 10
146.19376894
 20
56.16570045
 30
0.0
 40
0.75
  0
CIRCLE
  5
6D9
330
6FA
100
AcDbEntity
  8
YKK_D
100
AcDbCircle
 10
127.79377505
 20
56.16570045
 30
0.0
 40
0.75
  0
CIRCLE
  5
6DA
330
6FA
100
AcDbEntity
  8
YKK_D
100
AcDbCircle
 10
127.79377505
 20
56.16570045
 30
0.0
 40
0.75
  0
CIRCLE
  5
6DB
330
6FA
100
AcDbEntity
  8
YKK_D
100
AcDbCircle
 10
126.19376894
 20
56.16570045
 30
0.0
 40
0.75
  0
CIRCLE
  5
6DC
330
6FA
100
AcDbEntity
  8
YKK_D
100
AcDbCircle
 10
66.19376894
 20
101.16569664
 30
0.0
 40
0.75
  0
CIRCLE
  5
6DD
330
6FA
100
AcDbEntity
  8
YKK_D
100
AcDbCircle
 10
66.19376894
 20
101.16569664
 30
0.0
 40
0.75
  0
CIRCLE
  5
6DE
330
6FA
100
AcDbEntity
  8
YKK_D
100
AcDbCircle
 10
66.19376894
 20
106.16569664
 30
0.0
 40
0.75
  0
CIRCLE
  5
6DF
330
6FA
100
AcDbEntity
  8
YKK_D
100
AcDbCircle
 10
66.19376894
 20
106.16569664
 30
0.0
 40
0.75
  0
CIRCLE
  5
6E0
330
6FA
100
AcDbEntity
  8
YKK_D
100
AcDbCircle
 10
66.19376894
 20
76.16569664
 30
0.0
 40
0.75
  0
CIRCLE
  5
6E1
330
6FA
100
AcDbEntity
  8
YKK_D
100
AcDbCircle
 10
155.19376894
 20
136.16569664
 30
0.0
 40
0.75
  0
CIRCLE
  5
6E2
330
6FA
100
AcDbEntity
  8
YKK_D
100
AcDbCircle
 10
155.19376894
 20
136.16569664
 30
0.0
 40
0.75
  0
CIRCLE
  5
6E3
330
6FA
100
AcDbEntity
  8
YKK_D
100
AcDbCircle
 10
419.08317385
 20
364.1500288
 30
0.0
 40
0.75
  0
ENDSEC
  0
SECTION
  2
OBJECTS
  0
DICTIONARY
  5
6EF
330
0
100
AcDbDictionary
281
     1
  3
ACAD_CIP_PREVIOUS_PRODUCT_INFO
350
7C3
  3
ACAD_COLOR
350
755
  3
ACAD_DETAILVIEWSTYLE
350
76E
  3
ACAD_GROUP
350
6F0
  3
ACAD_LAYOUT
350
775
  3
ACAD_MATERIAL
350
723
  3
ACAD_MLEADERSTYLE
350
76A
  3
ACAD_MLINESTYLE
350
6FD
  3
ACAD_PLOTSETTINGS
350
774
  3
ACAD_PLOTSTYLENAME
350
721
  3
ACAD_SCALELIST
350
758
  3
ACAD_SECTIONVIEWSTYLE
350
76C
  3
ACAD_TABLESTYLE
350
756
  3
ACAD_VISUALSTYLE
350
73C
  3
ACDB_RECOMPOSE_DATA
350
7C9
  3
ACDBVARIABLEDICTIONARY
350
718
  0
XRECORD
  5
7C3
102
{ACAD_REACTORS
330
6EF
102
}
330
6EF
100
AcDbXrecord
280
     1
300
ACD
300
2014
300
86063ACD_2014_0F
  0
DICTIONARY
  5
755
102
{ACAD_REACTORS
330
6EF
102
}
330
6EF
100
AcDbDictionary
281
     1
  0
DICTIONARY
  5
76E
102
{ACAD_REACTORS
330
6EF
102
}
330
6EF
100
AcDbDictionary
281
     1
  3
Imperial24
350
76F
  0
DICTIONARY
  5
6F0
102
{ACAD_REACTORS
330
6EF
102
}
330
6EF
100
AcDbDictionary
281
     1
  0
DICTIONARY
  5
775
102
{ACAD_REACTORS
330
6EF
102
}
330
6EF
100
AcDbDictionary
281
     1
  3
Model
350
776
  3
レイアウト1
350
777
  0
DICTIONARY
  5
723
102
{ACAD_REACTORS
330
6EF
102
}
330
6EF
100
AcDbDictionary
281
     1
  3
ByBlock
350
72C
  3
ByLayer
350
724
  3
Global
350
734
  0
DICTIONARY
  5
76A
102
{ACAD_REACTORS
330
6EF
102
}
330
6EF
100
AcDbDictionary
281
     1
  3
Standard
350
76B
  0
DICTIONARY
  5
6FD
102
{ACAD_REACTORS
330
6EF
102
}
330
6EF
100
AcDbDictionary
281
     1
  3
STANDARD
350
6FE
  0
DICTIONARY
  5
774
102
{ACAD_REACTORS
330
6EF
102
}
330
6EF
100
AcDbDictionary
281
     1
  0
ACDBDICTIONARYWDFLT
  5
721
102
{ACAD_REACTORS
330
6EF
102
}
330
6EF
100
AcDbDictionary
281
     1
  3
Normal
350
722
100
AcDbDictionaryWithDefault
340
722
  0
DICTIONARY
  5
758
102
{ACAD_REACTORS
330
6EF
102
}
330
6EF
100
AcDbDictionary
281
     1
  3
A0
350
759
  3
A1
350
75A
  3
A2
350
75B
  3
A3
350
75C
  3
A4
350
75D
  3
A5
350
75E
  3
A6
350
75F
  3
A7
350
760
  3
A8
350
761
  3
A9
350
762
  3
B0
350
763
  3
B1
350
764
  3
B2
350
765
  3
B3
350
766
  3
B4
350
767
  3
B5
350
768
  3
B6
350
769
  0
DICTIONARY
  5
76C
102
{ACAD_REACTORS
330
6EF
102
}
330
6EF
100
AcDbDictionary
281
     1
  3
Imperial24
350
76D
  0
DICTIONARY
  5
756
102
{ACAD_REACTORS
330
6EF
102
}
330
6EF
100
AcDbDictionary
281
     1
  3
Standard
350
757
  0
DICTIONARY
  5
73C
102
{ACAD_REACTORS
330
6EF
102
}
330
6EF
100
AcDbDictionary
281
     1
  3
2dWireframe
350
742
  3
Basic
350
741
  3
Brighten
350
748
  3
ColorChange
350
74C
  3
Conceptual
350
745
  3
Dim
350
747
  3
EdgeColorOff
350
754
  3
Facepattern
350
74B
  3
Flat
350
73D
  3
FlatWithEdges
350
73E
  3
Gouraud
350
73F
  3
GouraudWithEdges
350
740
  3
Hidden
350
744
  3
JitterOff
350
752
  3
Linepattern
350
74A
  3
OverhangOff
350
753
  3
Realistic
350
746
  3
Shaded
350
751
  3
Shaded with edges
350
750
  3
Shades of Gray
350
74D
  3
Sketchy
350
74E
  3
Thicken
350
749
  3
Wireframe
350
743
  3
X-Ray
350
74F
  0
XRECORD
  5
7C9
102
{ACAD_REACTORS
330
6EF
102
}
330
6EF
100
AcDbXrecord
280
     1
 90
        1
330
757
  0
DICTIONARY
  5
718
102
{ACAD_REACTORS
330
6EF
102
}
330
6EF
100
AcDbDictionary
281
     1
  3
CANNOSCALE
350
7BA
  3
CMLEADERSTYLE
350
7B7
  3
CTABLESTYLE
350
7B6
  3
CVIEWDETAILSTYLE
350
7B8
  3
CVIEWSECTIONSTYLE
350
7B9
  3
DIMADEC
350
719
  3
XCLIPFRAME
350
7C7
  0
ACDBDETAILVIEWSTYLE
  5
76F
102
{ACAD_XDICTIONARY
360
802
102
}
102
{ACAD_REACTORS
330
76E
102
}
330
76E
100
AcDbModelDocViewStyle
 70
     0
  3
Imperial24
290
     0
100
AcDbDetailViewStyle
 70
     0
 71
     0
 90
        3
 71
     1
340
6F2
 62
   256
 40
0.24
340
0
 62
   256
 40
0.24
300

 40
0.36
280
     3
 71
     2
340
6F6
 90
       25
 62
   256
 71
     3
340
6F2
 62
   256
 40
0.24
 90
        1
 40
0.75
 90
        1
300
%<\AcVar ViewType \f "%tc1">% %<\AcVar ViewDetailId>%\PSCALE %<\AcVar ViewScale \f "%sn">%
 71
     4
340
6F6
 90
       25
 62
   256
340
6F6
 90
       25
 62
   256
280
     0
  0
LAYOUT
  5
776
102
{ACAD_REACTORS
330
775
102
}
330
775
100
AcDbPlotSettings
  1

  2
C:\ACAD-I\support\plotters\Default Windows System Printer.pc3
  4
A4
  6

 40
3.17499995
 41
3.17499995
 42
3.17500305
 43
3.17498779
 44
209.88865662
 45
297.05300903
 46
0.0
 47
0.0
 48
0.0
 49
0.0
140
0.0
141
0.0
142
1.0
143
92.2118403
 70
 11952
 72
     0
 73
     1
 74
     0
  7
monochrome.ctb
 75
     0
147
0.01084459
 76
     0
 77
     2
 78
   300
148
2758.31729601
149
86.3506888
100
AcDbLayout
  1
Model
 70
     1
 71
     0
 10
0.0
 20
0.0
 11
12.0
 21
9.0
 12
0.0
 22
0.0
 32
0.0
 14
0.0
 24
0.0
 34
0.0
 15
0.0
 25
0.0
 35
0.0
146
0.0
 13
0.0
 23
0.0
 33
0.0
 16
1.0
 26
0.0
 36
0.0
 17
0.0
 27
1.0
 37
0.0
 76
     0
330
6FA
1001
ACAD_PSEXT
1000
C:\ACAD-I\support\plotters\Default Windows System Printer.pc3
1000
Fiery PRO80 65-55C-KM PS3.0jp
1000
IP_10.230.204.212
1000

1070
     0
  0
LAYOUT
  5
777
102
{ACAD_REACTORS
330
775
102
}
330
775
100
AcDbPlotSettings
  1

  2
C:\ACAD-I\support\plotters\Default Windows System Printer.pc3
  4
A4
  6

 40
3.17499995
 41
3.17499995
 42
3.17500305
 43
3.17498779
 44
209.88865662
 45
297.05300903
 46
0.0
 47
0.0
 48
0.0
 49
0.0
140
0.0
141
0.0
142
1.0
143
1.0
 70
 15024
 72
     0
 73
     1
 74
     5
  7
monochrome.ctb
 75
    16
147
1.0
 76
     0
 77
     2
 78
   300
148
0.0
149
0.0
100
AcDbLayout
  1
レイアウト1
 70
     1
 71
     1
 10
0.0
 20
0.0
 11
12.0
 21
9.0
 12
0.0
 22
0.0
 32
0.0
 14
1.00000000E+20
 24
1.00000000E+20
 34
1.00000000E+20
 15
-1.00000000E+20
 25
-1.00000000E+20
 35
-1.00000000E+20
146
0.0
 13
0.0
 23
0.0
 33
0.0
 16
1.0
 26
0.0
 36
0.0
 17
0.0
 27
1.0
 37
0.0
 76
     0
330
6F7
1001
ACAD_PSEXT
1000
C:\ACAD-I\support\plotters\Default Windows System Printer.pc3
1000
Fiery PRO80 65-55C-KM PS3.0jp
1000
IP_10.230.204.212
1000

1070
     0
  0
MATERIAL
  5
72C
102
{ACAD_XDICTIONARY
360
72D
102
}
102
{ACAD_REACTORS
330
723
102
}
330
723
100
AcDbMaterial
  1
ByBlock
 72
     0
 43
0.02083333
 43
0.0
 43
0.0
 43
0.0
 43
0.0
 43
0.02083333
 43
0.0
 43
0.0
 43
0.0
 43
0.0
 43
1.0
 43
0.0
 43
0.0
 43
0.0
 43
0.0
 43
1.0
 77
     0
 47
0.02083333
 47
0.0
 47
0.0
 47
0.0
 47
0.0
 47
0.02083333
 47
0.0
 47
0.0
 47
0.0
 47
0.0
 47
1.0
 47
0.0
 47
0.0
 47
0.0
 47
0.0
 47
1.0
171
     0
 49
0.02083333
 49
0.0
 49
0.0
 49
0.0
 49
0.0
 49
0.02083333
 49
0.0
 49
0.0
 49
0.0
 49
0.0
 49
1.0
 49
0.0
 49
0.0
 49
0.0
 49
0.0
 49
1.0
175
     0
142
0.02083333
142
0.0
142
0.0
142
0.0
142
0.0
142
0.02083333
142
0.0
142
0.0
142
0.0
142
0.0
142
1.0
142
0.0
142
0.0
142
0.0
142
0.0
142
1.0
179
     0
144
0.02083333
144
0.0
144
0.0
144
0.0
144
0.0
144
0.02083333
144
0.0
144
0.0
144
0.0
144
0.0
144
1.0
144
0.0
144
0.0
144
0.0
144
0.0
144
1.0
147
0.02083333
147
0.0
147
0.0
147
0.0
147
0.0
147
0.02083333
147
0.0
147
0.0
147
0.0
147
0.0
147
1.0
147
0.0
147
0.0
147
0.0
147
0.0
147
1.0
  0
MATERIAL
  5
724
102
{ACAD_XDICTIONARY
360
725
102
}
102
{ACAD_REACTORS
330
723
102
}
330
723
100
AcDbMaterial
  1
ByLayer
 72
     0
 43
0.02083333
 43
0.0
 43
0.0
 43
0.0
 43
0.0
 43
0.02083333
 43
0.0
 43
0.0
 43
0.0
 43
0.0
 43
1.0
 43
0.0
 43
0.0
 43
0.0
 43
0.0
 43
1.0
 77
     0
 47
0.02083333
 47
0.0
 47
0.0
 47
0.0
 47
0.0
 47
0.02083333
 47
0.0
 47
0.0
 47
0.0
 47
0.0
 47
1.0
 47
0.0
 47
0.0
 47
0.0
 47
0.0
 47
1.0
171
     0
 49
0.02083333
 49
0.0
 49
0.0
 49
0.0
 49
0.0
 49
0.02083333
 49
0.0
 49
0.0
 49
0.0
 49
0.0
 49
1.0
 49
0.0
 49
0.0
 49
0.0
 49
0.0
 49
1.0
175
     0
142
0.02083333
142
0.0
142
0.0
142
0.0
142
0.0
142
0.02083333
142
0.0
142
0.0
142
0.0
142
0.0
142
1.0
142
0.0
142
0.0
142
0.0
142
0.0
142
1.0
179
     0
144
0.02083333
144
0.0
144
0.0
144
0.0
144
0.0
144
0.02083333
144
0.0
144
0.0
144
0.0
144
0.0
144
1.0
144
0.0
144
0.0
144
0.0
144
0.0
144
1.0
147
0.02083333
147
0.0
147
0.0
147
0.0
147
0.0
147
0.02083333
147
0.0
147
0.0
147
0.0
147
0.0
147
1.0
147
0.0
147
0.0
147
0.0
147
0.0
147
1.0
  0
MATERIAL
  5
734
102
{ACAD_XDICTIONARY
360
735
102
}
102
{ACAD_REACTORS
330
723
102
}
330
723
100
AcDbMaterial
  1
Global
 72
     0
 43
0.02083333
 43
0.0
 43
0.0
 43
0.0
 43
0.0
 43
0.02083333
 43
0.0
 43
0.0
 43
0.0
 43
0.0
 43
1.0
 43
0.0
 43
0.0
 43
0.0
 43
0.0
 43
1.0
 77
     0
 47
0.02083333
 47
0.0
 47
0.0
 47
0.0
 47
0.0
 47
0.02083333
 47
0.0
 47
0.0
 47
0.0
 47
0.0
 47
1.0
 47
0.0
 47
0.0
 47
0.0
 47
0.0
 47
1.0
171
     0
 49
0.02083333
 49
0.0
 49
0.0
 49
0.0
 49
0.0
 49
0.02083333
 49
0.0
 49
0.0
 49
0.0
 49
0.0
 49
1.0
 49
0.0
 49
0.0
 49
0.0
 49
0.0
 49
1.0
175
     0
142
0.02083333
142
0.0
142
0.0
142
0.0
142
0.0
142
0.02083333
142
0.0
142
0.0
142
0.0
142
0.0
142
1.0
142
0.0
142
0.0
142
0.0
142
0.0
142
1.0
179
     0
144
0.02083333
144
0.0
144
0.0
144
0.0
144
0.0
144
0.02083333
144
0.0
144
0.0
144
0.0
144
0.0
144
1.0
144
0.0
144
0.0
144
0.0
144
0.0
144
1.0
147
0.02083333
147
0.0
147
0.0
147
0.0
147
0.0
147
0.02083333
147
0.0
147
0.0
147
0.0
147
0.0
147
1.0
147
0.0
147
0.0
147
0.0
147
0.0
147
1.0
  0
MLEADERSTYLE
  5
76B
102
{ACAD_XDICTIONARY
360
7FE
102
}
102
{ACAD_REACTORS
330
76A
102
}
330
76A
100
AcDbMLeaderStyle
170
     2
171
     1
172
     0
 90
        2
 40
0.0
 41
0.0
173
     1
 91
-1056964608
340
6F4
 92
       -2
290
     1
 42
0.09
291
     1
 43
0.36
  3
Standard
 44
0.18
300

342
6F2
174
     1
178
     6
175
     1
176
     0
 93
-1056964608
 45
0.18
292
     0
297
     0
 46
0.18
 94
-1056964608
 47
1.0
 49
1.0
140
1.0
293
     1
141
0.0
294
     1
177
     0
142
1.0
295
     0
296
     0
143
0.125
1001
ACAD_MLEADERVER
1070
     2
  0
MLINESTYLE
  5
6FE
102
{ACAD_REACTORS
330
6FD
102
}
330
6FD
100
AcDbMlineStyle
  2
STANDARD
 70
     0
  3

 62
   256
 51
90.0
 52
90.0
 71
     2
 49
0.5
 62
   256
  6
BYLAYER
 49
-0.5
 62
   256
  6
BYLAYER
  0
ACDBPLACEHOLDER
  5
722
102
{ACAD_REACTORS
330
721
102
}
330
721
  0
SCALE
  5
759
102
{ACAD_REACTORS
330
758
102
}
330
758
100
AcDbScale
 70
     0
300
1:1
140
1.0
141
1.0
290
     1
  0
SCALE
  5
75A
102
{ACAD_REACTORS
330
758
102
}
330
758
100
AcDbScale
 70
     0
300
1/128" = 1'-0"
140
0.0078125
141
12.0
290
     0
  0
SCALE
  5
75B
102
{ACAD_REACTORS
330
758
102
}
330
758
100
AcDbScale
 70
     0
300
1/64" = 1'-0"
140
0.015625
141
12.0
290
     0
  0
SCALE
  5
75C
102
{ACAD_REACTORS
330
758
102
}
330
758
100
AcDbScale
 70
     0
300
1/32" = 1'-0"
140
0.03125
141
12.0
290
     0
  0
SCALE
  5
75D
102
{ACAD_REACTORS
330
758
102
}
330
758
100
AcDbScale
 70
     0
300
1/16" = 1'-0"
140
0.0625
141
12.0
290
     0
  0
SCALE
  5
75E
102
{ACAD_REACTORS
330
758
102
}
330
758
100
AcDbScale
 70
     0
300
3/32" = 1'-0"
140
0.09375
141
12.0
290
     0
  0
SCALE
  5
75F
102
{ACAD_REACTORS
330
758
102
}
330
758
100
AcDbScale
 70
     0
300
1/8" = 1'-0"
140
0.125
141
12.0
290
     0
  0
SCALE
  5
760
102
{ACAD_REACTORS
330
758
102
}
330
758
100
AcDbScale
 70
     0
300
3/16" = 1'-0"
140
0.1875
141
12.0
290
     0
  0
SCALE
  5
761
102
{ACAD_REACTORS
330
758
102
}
330
758
100
AcDbScale
 70
     0
300
1/4" = 1'-0"
140
0.25
141
12.0
290
     0
  0
SCALE
  5
762
102
{ACAD_REACTORS
330
758
102
}
330
758
100
AcDbScale
 70
     0
300
3/8" = 1'-0"
140
0.375
141
12.0
290
     0
  0
SCALE
  5
763
102
{ACAD_REACTORS
330
758
102
}
330
758
100
AcDbScale
 70
     0
300
1/2" = 1'-0"
140
0.5
141
12.0
290
     0
  0
SCALE
  5
764
102
{ACAD_REACTORS
330
758
102
}
330
758
100
AcDbScale
 70
     0
300
3/4" = 1'-0"
140
0.75
141
12.0
290
     0
  0
SCALE
  5
765
102
{ACAD_REACTORS
330
758
102
}
330
758
100
AcDbScale
 70
     0
300
1" = 1'-0"
140
1.0
141
12.0
290
     0
  0
SCALE
  5
766
102
{ACAD_REACTORS
330
758
102
}
330
758
100
AcDbScale
 70
     0
300
1-1/2" = 1'-0"
140
1.5
141
12.0
290
     0
  0
SCALE
  5
767
102
{ACAD_REACTORS
330
758
102
}
330
758
100
AcDbScale
 70
     0
300
3" = 1'-0"
140
3.0
141
12.0
290
     0
  0
SCALE
  5
768
102
{ACAD_REACTORS
330
758
102
}
330
758
100
AcDbScale
 70
     0
300
6" = 1'-0"
140
6.0
141
12.0
290
     0
  0
SCALE
  5
769
102
{ACAD_REACTORS
330
758
102
}
330
758
100
AcDbScale
 70
     0
300
1'-0" = 1'-0"
140
12.0
141
12.0
290
     0
  0
ACDBSECTIONVIEWSTYLE
  5
76D
102
{ACAD_XDICTIONARY
360
800
102
}
102
{ACAD_REACTORS
330
76C
102
}
330
76C
100
AcDbModelDocViewStyle
 70
     0
  3
Imperial24
290
     0
100
AcDbSectionViewStyle
 70
     0
 71
     0
 90
      102
 71
     1
340
6F2
 62
   256
 40
5.0
340
0
340
0
 62
   256
 40
5.0
300
I, O, Q, S, X, Z
 40
10.0
 90
        0
 40
2.5
 90
        0
 71
     2
340
6F6
 90
       25
 62
   256
340
6F6
 90
       50
 62
   256
 40
5.0
 40
2.5
 40
5.0
 71
     3
340
6F2
 62
   256
 40
5.0
 90
        0
 40
15.0
 90
        1
300
%<\AcVar ViewSectionStartId>%-%<\AcVar ViewSectionEndId>% (%<\AcVar ViewScale \f "%sn">%)
 71
     4
 62
   256
 62
   257
300
ANSI31
 40
1.0
 90
        0
290
     0
290
     0
 90
        6
 40
0.0
 40
1.57079633
 40
0.26179939
 40
1.30899694
 40
-0.26179939
 40
1.83259571
  0
TABLESTYLE
  5
757
102
{ACAD_XDICTIONARY
360
778
102
}
102
{ACAD_REACTORS
330
756
102
}
330
756
100
AcDbTableStyle
  3
Standard
 70
     0
 71
     0
 40
0.06
 41
0.06
280
     0
281
     0
  7
STANDARD
140
0.18
170
     2
 62
     0
 63
     7
283
     0
274
    -2
284
     1
 64
     0
275
    -2
285
     1
 65
     0
276
    -2
286
     1
 66
     0
277
    -2
287
     1
 67
     0
278
    -2
288
     1
 68
     0
279
    -2
289
     1
 69
     0
  7
STANDARD
140
0.25
170
     5
 62
     0
 63
     7
283
     0
274
    -2
284
     1
 64
     0
275
    -2
285
     1
 65
     0
276
    -2
286
     1
 66
     0
277
    -2
287
     1
 67
     0
278
    -2
288
     1
 68
     0
279
    -2
289
     1
 69
     0
  7
STANDARD
140
0.18
170
     5
 62
     0
 63
     7
283
     0
274
    -2
284
     1
 64
     0
275
    -2
285
     1
 65
     0
276
    -2
286
     1
 66
     0
277
    -2
287
     1
 67
     0
278
    -2
288
     1
 68
     0
279
    -2
289
     1
 69
     0
  0
VISUALSTYLE
  5
742
102
{ACAD_XDICTIONARY
360
7D7
102
}
102
{ACAD_REACTORS
330
73C
102
}
330
73C
100
AcDbVisualStyle
  2
2dWireframe
 70
     4
 71
     0
 72
     2
 73
     0
 90
        0
 40
-0.6
 41
-30.0
 62
     5
 63
     7
421
 16777215
 74
     1
 91
        4
 64
     7
 65
   257
 75
     1
175
     1
 42
1.0
 92
        0
 66
   257
 43
1.0
 76
     1
 77
     6
 78
     2
 67
     7
 79
     5
170
     0
171
     0
290
     0
174
     0
 93
        1
 44
0.0
173
     0
291
     0
 45
0.0
1001
ACAD
1000
AcDbSavedByObjectVersion
1070
     0
  0
VISUALSTYLE
  5
741
102
{ACAD_XDICTIONARY
360
7D5
102
}
102
{ACAD_REACTORS
330
73C
102
}
330
73C
100
AcDbVisualStyle
  2
Basic
 70
     7
 71
     1
 72
     0
 73
     1
 90
        0
 40
-0.6
 41
-30.0
 62
     5
 63
     7
421
 16777215
 74
     0
 91
        4
 64
     7
 65
   257
 75
     1
175
     1
 42
1.0
 92
        8
 66
     7
 43
1.0
 76
     1
 77
     6
 78
     2
 67
     7
 79
     5
170
     0
171
     0
290
     0
174
     0
 93
        1
 44
0.0
173
     0
291
     1
 45
0.0
1001
ACAD
1000
AcDbSavedByObjectVersion
1070
     0
  0
VISUALSTYLE
  5
748
102
{ACAD_XDICTIONARY
360
7E3
102
}
102
{ACAD_REACTORS
330
73C
102
}
330
73C
100
AcDbVisualStyle
  2
Brighten
 70
    12
 71
     2
 72
     2
 73
     0
 90
        0
 40
-0.6
 41
-30.0
 62
     5
 63
     7
421
 16777215
 74
     1
 91
        4
 64
     7
 65
   257
 75
     1
175
     1
 42
1.0
 92
        8
 66
     7
 43
1.0
 76
     1
 77
     6
 78
     2
 67
     7
 79
     5
170
     0
171
     0
290
     0
174
     0
 93
        1
 44
50.0
173
     0
291
     1
 45
0.0
1001
ACAD
1000
AcDbSavedByObjectVersion
1070
     0
  0
VISUALSTYLE
  5
74C
102
{ACAD_XDICTIONARY
360
7EB
102
}
102
{ACAD_REACTORS
330
73C
102
}
330
73C
100
AcDbVisualStyle
  2
ColorChange
 70
    16
 71
     2
 72
     2
 73
     3
 90
        0
 40
-0.6
 41
-30.0
 62
     5
 63
     8
421
  8421504
 74
     1
 91
        4
 64
     7
 65
   257
 75
     1
175
     1
 42
1.0
 92
        8
 66
     8
424
  8421504
 43
1.0
 76
     1
 77
     6
 78
     2
 67
     7
 79
     5
170
     0
171
     0
290
     0
174
     0
 93
        1
 44
0.0
173
     0
291
     1
 45
0.0
1001
ACAD
1000
AcDbSavedByObjectVersion
1070
     0
  0
VISUALSTYLE
  5
745
102
{ACAD_XDICTIONARY
360
7DD
102
}
102
{ACAD_REACTORS
330
73C
102
}
330
73C
100
AcDbVisualStyle
  2
Conceptual
 70
     9
 71
     3
 72
     2
 73
     0
 90
        0
 40
-0.6
 41
-30.0
 62
     5
 63
     7
421
 16777215
 74
     2
 91
        2
 64
     7
 65
   257
 75
     1
175
     1
 42
179.0
 92
        8
 66
     7
 43
1.0
 76
     1
 77
     6
 78
     2
 67
     7
 79
     3
170
     0
171
     0
290
     0
174
     0
 93
        1
 44
0.0
173
     0
291
     0
 45
0.0
1001
ACAD
1000
AcDbSavedByObjectVersion
1070
     0
  0
VISUALSTYLE
  5
747
102
{ACAD_XDICTIONARY
360
7E1
102
}
102
{ACAD_REACTORS
330
73C
102
}
330
73C
100
AcDbVisualStyle
  2
Dim
 70
    11
 71
     2
 72
     2
 73
     0
 90
        0
 40
-0.6
 41
-30.0
 62
     5
 63
     7
421
 16777215
 74
     1
 91
        4
 64
     7
 65
   257
 75
     1
175
     1
 42
1.0
 92
        8
 66
     7
 43
1.0
 76
     1
 77
     6
 78
     2
 67
     7
 79
     5
170
     0
171
     0
290
     0
174
     0
 93
        1
 44
-50.0
173
     0
291
     1
 45
0.0
1001
ACAD
1000
AcDbSavedByObjectVersion
1070
     0
  0
VISUALSTYLE
  5
754
102
{ACAD_XDICTIONARY
360
7FB
102
}
102
{ACAD_REACTORS
330
73C
102
}
330
73C
100
AcDbVisualStyle
  2
EdgeColorOff
 70
    22
 71
     2
 72
     2
 73
     0
 90
        0
 40
-0.6
 41
-30.0
 62
     5
 63
     7
421
 16777215
 74
     1
 91
        4
 64
     7
 65
   257
 75
     1
175
     1
 42
1.0
 92
        8
 66
     7
 43
1.0
 76
     1
 77
     6
 78
     2
 67
     7
 79
     5
170
     0
171
     0
290
     0
174
     0
 93
        1
 44
0.0
173
     0
291
     1
 45
0.0
1001
ACAD
1000
AcDbSavedByObjectVersion
1070
     0
  0
VISUALSTYLE
  5
74B
102
{ACAD_XDICTIONARY
360
7E9
102
}
102
{ACAD_REACTORS
330
73C
102
}
330
73C
100
AcDbVisualStyle
  2
Facepattern
 70
    15
 71
     2
 72
     2
 73
     0
 90
        0
 40
-0.6
 41
-30.0
 62
     5
 63
     7
421
 16777215
 74
     1
 91
        4
 64
     7
 65
   257
 75
     1
175
     1
 42
1.0
 92
        8
 66
     7
 43
1.0
 76
     1
 77
     6
 78
     2
 67
     7
 79
     5
170
     0
171
     0
290
     0
174
     0
 93
        1
 44
0.0
173
     0
291
     1
 45
0.0
1001
ACAD
1000
AcDbSavedByObjectVersion
1070
     0
  0
VISUALSTYLE
  5
73D
102
{ACAD_XDICTIONARY
360
7CD
102
}
102
{ACAD_REACTORS
330
73C
102
}
330
73C
100
AcDbVisualStyle
  2
Flat
 70
     0
 71
     2
 72
     1
 73
     1
 90
        2
 40
-0.6
 41
30.0
 62
     5
 63
     7
421
 16777215
 74
     0
 91
        0
 64
     7
 65
   257
 75
     1
175
     1
 42
1.0
 92
        8
 66
     7
 43
1.0
 76
     1
 77
     6
 78
     2
 67
     7
 79
     5
170
     0
171
     0
290
     0
174
     0
 93
       13
 44
0.0
173
     0
291
     1
 45
0.0
1001
ACAD
1000
AcDbSavedByObjectVersion
1070
     0
  0
VISUALSTYLE
  5
73E
102
{ACAD_XDICTIONARY
360
7CF
102
}
102
{ACAD_REACTORS
330
73C
102
}
330
73C
100
AcDbVisualStyle
  2
FlatWithEdges
 70
     1
 71
     2
 72
     1
 73
     1
 90
        2
 40
-0.6
 41
30.0
 62
     5
 63
     7
421
 16777215
 74
     1
 91
        0
 64
     7
 65
   257
 75
     1
175
     1
 42
1.0
 92
        0
 66
   257
 43
1.0
 76
     1
 77
     6
 78
     2
 67
     7
 79
     5
170
     0
171
     0
290
     0
174
     0
 93
       13
 44
0.0
173
     0
291
     1
 45
0.0
1001
ACAD
1000
AcDbSavedByObjectVersion
1070
     0
  0
VISUALSTYLE
  5
73F
102
{ACAD_XDICTIONARY
360
7D1
102
}
102
{ACAD_REACTORS
330
73C
102
}
330
73C
100
AcDbVisualStyle
  2
Gouraud
 70
     2
 71
     2
 72
     2
 73
     1
 90
        2
 40
-0.6
 41
30.0
 62
     5
 63
     7
421
 16777215
 74
     0
 91
        0
 64
     7
 65
   257
 75
     1
175
     1
 42
1.0
 92
        0
 66
     7
 43
1.0
 76
     1
 77
     6
 78
     2
 67
     7
 79
     5
170
     0
171
     0
290
     0
174
     0
 93
       13
 44
0.0
173
     0
291
     1
 45
0.0
1001
ACAD
1000
AcDbSavedByObjectVersion
1070
     0
  0
VISUALSTYLE
  5
740
102
{ACAD_XDICTIONARY
360
7D3
102
}
102
{ACAD_REACTORS
330
73C
102
}
330
73C
100
AcDbVisualStyle
  2
GouraudWithEdges
 70
     3
 71
     2
 72
     2
 73
     1
 90
        2
 40
-0.6
 41
30.0
 62
     5
 63
     7
421
 16777215
 74
     1
 91
        0
 64
     7
 65
   257
 75
     1
175
     1
 42
1.0
 92
        0
 66
   257
 43
1.0
 76
     1
 77
     6
 78
     2
 67
     7
 79
     5
170
     0
171
     0
290
     0
174
     0
 93
       13
 44
0.0
173
     0
291
     1
 45
0.0
1001
ACAD
1000
AcDbSavedByObjectVersion
1070
     0
  0
VISUALSTYLE
  5
744
102
{ACAD_XDICTIONARY
360
7DB
102
}
102
{ACAD_REACTORS
330
73C
102
}
330
73C
100
AcDbVisualStyle
  2
Hidden
 70
     6
 71
     1
 72
     2
 73
     2
 90
        0
 40
-0.6
 41
-30.0
 62
     5
 63
     7
421
 16777215
 74
     2
 91
        2
 64
     7
 65
   257
 75
     2
175
     1
 42
40.0
 92
        0
 66
   257
 43
1.0
 76
     1
 77
     6
 78
     2
 67
     7
 79
     3
170
     0
171
     0
290
     0
174
     0
 93
        1
 44
0.0
173
     0
291
     0
 45
0.0
1001
ACAD
1000
AcDbSavedByObjectVersion
1070
     0
  0
VISUALSTYLE
  5
752
102
{ACAD_XDICTIONARY
360
7F7
102
}
102
{ACAD_REACTORS
330
73C
102
}
330
73C
100
AcDbVisualStyle
  2
JitterOff
 70
    20
 71
     2
 72
     2
 73
     0
 90
        0
 40
-0.6
 41
-30.0
 62
     5
 63
     7
421
 16777215
 74
     1
 91
        4
 64
     7
 65
   257
 75
     1
175
     1
 42
1.0
 92
       10
 66
     7
 43
1.0
 76
     1
 77
     6
 78
     2
 67
     7
 79
     5
170
     0
171
     0
290
     0
174
     0
 93
        1
 44
0.0
173
     0
291
     1
 45
0.0
1001
ACAD
1000
AcDbSavedByObjectVersion
1070
     0
  0
VISUALSTYLE
  5
74A
102
{ACAD_XDICTIONARY
360
7E7
102
}
102
{ACAD_REACTORS
330
73C
102
}
330
73C
100
AcDbVisualStyle
  2
Linepattern
 70
    14
 71
     2
 72
     2
 73
     0
 90
        0
 40
-0.6
 41
-30.0
 62
     5
 63
     7
421
 16777215
 74
     1
 91
        4
 64
     7
 65
   257
 75
     7
175
     7
 42
1.0
 92
        8
 66
     7
 43
1.0
 76
     1
 77
     6
 78
     2
 67
     7
 79
     5
170
     0
171
     0
290
     0
174
     0
 93
        1
 44
0.0
173
     0
291
     1
 45
0.0
1001
ACAD
1000
AcDbSavedByObjectVersion
1070
     0
  0
VISUALSTYLE
  5
753
102
{ACAD_XDICTIONARY
360
7F9
102
}
102
{ACAD_REACTORS
330
73C
102
}
330
73C
100
AcDbVisualStyle
  2
OverhangOff
 70
    21
 71
     2
 72
     2
 73
     0
 90
        0
 40
-0.6
 41
-30.0
 62
     5
 63
     7
421
 16777215
 74
     1
 91
        4
 64
     7
 65
   257
 75
     1
175
     1
 42
1.0
 92
        9
 66
     7
 43
1.0
 76
     1
 77
     6
 78
     2
 67
     7
 79
     5
170
     0
171
     0
290
     0
174
     0
 93
        1
 44
0.0
173
     0
291
     1
 45
0.0
1001
ACAD
1000
AcDbSavedByObjectVersion
1070
     0
  0
VISUALSTYLE
  5
746
102
{ACAD_XDICTIONARY
360
7DF
102
}
102
{ACAD_REACTORS
330
73C
102
}
330
73C
100
AcDbVisualStyle
  2
Realistic
 70
     8
 71
     2
 72
     2
 73
     0
 90
        2
 40
-0.6
 41
30.0
 62
     5
 63
     7
421
 16777215
 74
     0
 91
        0
 64
     7
 65
   257
 75
     1
175
     1
 42
1.0
 92
        8
 66
   257
 43
1.0
 76
     1
 77
     6
 78
     2
 67
     7
 79
     3
170
     0
171
     0
290
     0
174
     0
 93
       13
 44
0.0
173
     0
291
     0
 45
0.0
1001
ACAD
1000
AcDbSavedByObjectVersion
1070
     0
  0
VISUALSTYLE
  5
751
102
{ACAD_XDICTIONARY
360
7F5
102
}
102
{ACAD_REACTORS
330
73C
102
}
330
73C
100
AcDbVisualStyle
  2
Shaded
 70
    27
 71
     2
 72
     2
 73
     1
 90
        2
 40
-0.6
 41
30.0
 62
     5
 63
     7
421
 16777215
 74
     0
 91
        4
 64
     7
 65
   257
 75
     1
175
     1
 42
1.0
 92
        8
 66
   257
 43
1.0
 76
     1
 77
     6
 78
     2
 67
     8
425
  7895160
 79
     3
170
     0
171
     0
290
     0
174
     0
 93
        5
 44
0.0
173
     0
291
     0
 45
0.0
1001
ACAD
1000
AcDbSavedByObjectVersion
1070
     0
  0
VISUALSTYLE
  5
750
102
{ACAD_XDICTIONARY
360
7F3
102
}
102
{ACAD_REACTORS
330
73C
102
}
330
73C
100
AcDbVisualStyle
  2
Shaded with edges
 70
    26
 71
     2
 72
     2
 73
     1
 90
        2
 40
-0.6
 41
30.0
 62
     5
 63
     7
421
 16777215
 74
     1
 91
       10
 64
     7
 65
   257
 75
     2
175
     1
 42
1.0
 92
        8
 66
   257
 43
1.0
 76
     1
 77
     6
 78
     2
 67
     7
 79
     3
170
     0
171
     0
290
     0
174
     0
 93
        5
 44
0.0
173
     0
291
     0
 45
0.0
1001
ACAD
1000
AcDbSavedByObjectVersion
1070
     0
  0
VISUALSTYLE
  5
74D
102
{ACAD_XDICTIONARY
360
7ED
102
}
102
{ACAD_REACTORS
330
73C
102
}
330
73C
100
AcDbVisualStyle
  2
Shades of Gray
 70
    23
 71
     2
 72
     2
 73
     3
 90
        0
 40
-0.6
 41
-30.0
 62
     5
 63
     7
421
 16777215
 74
     2
 91
        2
 64
     7
 65
     7
 75
     1
175
     1
 42
40.0
 92
        8
 66
     7
 43
1.0
 76
     1
 77
     6
 78
     2
 67
     7
 79
     3
170
     0
171
     0
290
     0
174
     0
 93
        1
 44
0.0
173
     0
291
     0
 45
0.0
1001
ACAD
1000
AcDbSavedByObjectVersion
1070
     0
  0
VISUALSTYLE
  5
74E
102
{ACAD_XDICTIONARY
360
7EF
102
}
102
{ACAD_REACTORS
330
73C
102
}
330
73C
100
AcDbVisualStyle
  2
Sketchy
 70
    24
 71
     1
 72
     2
 73
     2
 90
        0
 40
-0.6
 41
-30.0
 62
     5
 63
     7
421
 16777215
 74
     2
 91
        2
 64
     7
 65
     7
 75
     1
175
     1
 42
40.0
 92
       11
 66
     7
 43
1.0
 76
     1
 77
     6
 78
     2
 67
     7
 79
     6
170
     0
171
     0
290
     0
174
     0
 93
        1
 44
0.0
173
     0
291
     0
 45
0.0
1001
ACAD
1000
AcDbSavedByObjectVersion
1070
     0
  0
VISUALSTYLE
  5
749
102
{ACAD_XDICTIONARY
360
7E5
102
}
102
{ACAD_REACTORS
330
73C
102
}
330
73C
100
AcDbVisualStyle
  2
Thicken
 70
    13
 71
     2
 72
     2
 73
     0
 90
        0
 40
-0.6
 41
-30.0
 62
     5
 63
     7
421
 16777215
 74
     1
 91
        4
 64
     7
 65
   257
 75
     1
175
     1
 42
1.0
 92
       12
 66
     7
 43
1.0
 76
     1
 77
     6
 78
     2
 67
     7
 79
     5
170
     0
171
     0
290
     0
174
     0
 93
        1
 44
0.0
173
     0
291
     1
 45
0.0
1001
ACAD
1000
AcDbSavedByObjectVersion
1070
     0
  0
VISUALSTYLE
  5
743
102
{ACAD_XDICTIONARY
360
7D9
102
}
102
{ACAD_REACTORS
330
73C
102
}
330
73C
100
AcDbVisualStyle
  2
Wireframe
 70
     5
 71
     0
 72
     2
 73
     0
 90
        0
 40
-0.6
 41
-30.0
 62
     5
 63
     7
421
 16777215
 74
     1
 91
        4
 64
     7
 65
   257
 75
     1
175
     1
 42
1.0
 92
        0
 66
   257
 43
1.0
 76
     1
 77
     6
 78
     2
 67
     7
 79
     3
170
     0
171
     0
290
     0
174
     0
 93
        1
 44
0.0
173
     0
291
     0
 45
0.0
1001
ACAD
1000
AcDbSavedByObjectVersion
1070
     0
  0
VISUALSTYLE
  5
74F
102
{ACAD_XDICTIONARY
360
7F1
102
}
102
{ACAD_REACTORS
330
73C
102
}
330
73C
100
AcDbVisualStyle
  2
X-Ray
 70
    25
 71
     2
 72
     2
 73
     1
 90
        1
 40
0.5
 41
-30.0
 62
     5
 63
     7
421
 16777215
 74
     1
 91
        0
 64
     7
 65
   257
 75
     1
175
     1
 42
1.0
 92
        8
 66
     7
 43
1.0
 76
     1
 77
     6
 78
     2
 67
     7
 79
     3
170
     0
171
     0
290
     0
174
     0
 93
       13
 44
0.0
173
     0
291
     0
 45
0.0
1001
ACAD
1000
AcDbSavedByObjectVersion
1070
     0
  0
DICTIONARYVAR
  5
7BA
102
{ACAD_REACTORS
330
718
102
}
330
718
100
DictionaryVariables
280
     0
  1
1:1
  0
DICTIONARYVAR
  5
7B7
102
{ACAD_REACTORS
330
718
102
}
330
718
100
DictionaryVariables
280
     0
  1
STANDARD
  0
DICTIONARYVAR
  5
7B6
102
{ACAD_REACTORS
330
718
102
}
330
718
100
DictionaryVariables
280
     0
  1
STANDARD
  0
DICTIONARYVAR
  5
7B8
102
{ACAD_REACTORS
330
718
102
}
330
718
100
DictionaryVariables
280
     0
  1
Imperial24
  0
DICTIONARYVAR
  5
7B9
102
{ACAD_REACTORS
330
718
102
}
330
718
100
DictionaryVariables
280
     0
  1
Imperial24
  0
DICTIONARYVAR
  5
719
102
{ACAD_REACTORS
330
718
102
}
330
718
100
DictionaryVariables
280
     0
  1
0
  0
DICTIONARYVAR
  5
7C7
102
{ACAD_REACTORS
330
718
102
}
330
718
100
DictionaryVariables
280
     0
  1
2
  0
DICTIONARY
  5
802
330
76F
100
AcDbDictionary
280
     1
281
     1
  3
ACAD_XREC_ROUNDTRIP
360
803
  0
DICTIONARY
  5
72D
330
72C
100
AcDbDictionary
280
     1
281
     1
  3
ACAD_XREC_ROUNDTRIP
360
7CB
  3
BUMPTILE
360
72F
  3
DIFFUSETILE
360
72E
  3
OPACITYTILE
360
732
  3
REFLECTIONTILE
360
731
  3
REFRACTIONTILE
360
733
  3
SPECULARTILE
360
730
  0
DICTIONARY
  5
725
330
724
100
AcDbDictionary
280
     1
281
     1
  3
ACAD_XREC_ROUNDTRIP
360
7CA
  3
BUMPTILE
360
727
  3
DIFFUSETILE
360
726
  3
OPACITYTILE
360
72A
  3
REFLECTIONTILE
360
729
  3
REFRACTIONTILE
360
72B
  3
SPECULARTILE
360
728
  0
DICTIONARY
  5
735
330
734
100
AcDbDictionary
280
     1
281
     1
  3
ACAD_XREC_ROUNDTRIP
360
7CC
  3
BUMPTILE
360
737
  3
DIFFUSETILE
360
736
  3
OPACITYTILE
360
73A
  3
REFLECTIONTILE
360
739
  3
REFRACTIONTILE
360
73B
  3
SPECULARTILE
360
738
  0
DICTIONARY
  5
7FE
330
76B
100
AcDbDictionary
280
     1
281
     1
  3
ACAD_XREC_ROUNDTRIP
360
7FF
  0
DICTIONARY
  5
800
330
76D
100
AcDbDictionary
280
     1
281
     1
  3
ACAD_XREC_ROUNDTRIP
360
801
  0
DICTIONARY
  5
778
330
757
100
AcDbDictionary
280
     1
281
     1
  3
ACAD_ROUNDTRIP_2008_TABLESTYLE_CELLSTYLEMAP
360
7C8
  3
ACAD_XREC_ROUNDTRIP
360
7FD
  0
DICTIONARY
  5
7D7
330
742
100
AcDbDictionary
280
     1
281
     1
  3
ACAD_XREC_ROUNDTRIP
360
7D8
  0
DICTIONARY
  5
7D5
330
741
100
AcDbDictionary
280
     1
281
     1
  3
ACAD_XREC_ROUNDTRIP
360
7D6
  0
DICTIONARY
  5
7E3
330
748
100
AcDbDictionary
280
     1
281
     1
  3
ACAD_XREC_ROUNDTRIP
360
7E4
  0
DICTIONARY
  5
7EB
330
74C
100
AcDbDictionary
280
     1
281
     1
  3
ACAD_XREC_ROUNDTRIP
360
7EC
  0
DICTIONARY
  5
7DD
330
745
100
AcDbDictionary
280
     1
281
     1
  3
ACAD_XREC_ROUNDTRIP
360
7DE
  0
DICTIONARY
  5
7E1
330
747
100
AcDbDictionary
280
     1
281
     1
  3
ACAD_XREC_ROUNDTRIP
360
7E2
  0
DICTIONARY
  5
7FB
330
754
100
AcDbDictionary
280
     1
281
     1
  3
ACAD_XREC_ROUNDTRIP
360
7FC
  0
DICTIONARY
  5
7E9
330
74B
100
AcDbDictionary
280
     1
281
     1
  3
ACAD_XREC_ROUNDTRIP
360
7EA
  0
DICTIONARY
  5
7CD
330
73D
100
AcDbDictionary
280
     1
281
     1
  3
ACAD_XREC_ROUNDTRIP
360
7CE
  0
DICTIONARY
  5
7CF
330
73E
100
AcDbDictionary
280
     1
281
     1
  3
ACAD_XREC_ROUNDTRIP
360
7D0
  0
DICTIONARY
  5
7D1
330
73F
100
AcDbDictionary
280
     1
281
     1
  3
ACAD_XREC_ROUNDTRIP
360
7D2
  0
DICTIONARY
  5
7D3
330
740
100
AcDbDictionary
280
     1
281
     1
  3
ACAD_XREC_ROUNDTRIP
360
7D4
  0
DICTIONARY
  5
7DB
330
744
100
AcDbDictionary
280
     1
281
     1
  3
ACAD_XREC_ROUNDTRIP
360
7DC
  0
DICTIONARY
  5
7F7
330
752
100
AcDbDictionary
280
     1
281
     1
  3
ACAD_XREC_ROUNDTRIP
360
7F8
  0
DICTIONARY
  5
7E7
330
74A
100
AcDbDictionary
280
     1
281
     1
  3
ACAD_XREC_ROUNDTRIP
360
7E8
  0
DICTIONARY
  5
7F9
330
753
100
AcDbDictionary
280
     1
281
     1
  3
ACAD_XREC_ROUNDTRIP
360
7FA
  0
DICTIONARY
  5
7DF
330
746
100
AcDbDictionary
280
     1
281
     1
  3
ACAD_XREC_ROUNDTRIP
360
7E0
  0
DICTIONARY
  5
7F5
330
751
100
AcDbDictionary
280
     1
281
     1
  3
ACAD_XREC_ROUNDTRIP
360
7F6
  0
DICTIONARY
  5
7F3
330
750
100
AcDbDictionary
280
     1
281
     1
  3
ACAD_XREC_ROUNDTRIP
360
7F4
  0
DICTIONARY
  5
7ED
330
74D
100
AcDbDictionary
280
     1
281
     1
  3
ACAD_XREC_ROUNDTRIP
360
7EE
  0
DICTIONARY
  5
7EF
330
74E
100
AcDbDictionary
280
     1
281
     1
  3
ACAD_XREC_ROUNDTRIP
360
7F0
  0
DICTIONARY
  5
7E5
330
749
100
AcDbDictionary
280
     1
281
     1
  3
ACAD_XREC_ROUNDTRIP
360
7E6
  0
DICTIONARY
  5
7D9
330
743
100
AcDbDictionary
280
     1
281
     1
  3
ACAD_XREC_ROUNDTRIP
360
7DA
  0
DICTIONARY
  5
7F1
330
74F
100
AcDbDictionary
280
     1
281
     1
  3
ACAD_XREC_ROUNDTRIP
360
7F2
  0
XRECORD
  5
803
102
{ACAD_REACTORS
330
802
102
}
330
802
100
AcDbXrecord
280
     1
102
DISPLAYNAME
  1
Imperial24
102
FLAGS
 90
        0
  0
XRECORD
  5
7CB
102
{ACAD_REACTORS
330
72D
102
}
330
72D
100
AcDbXrecord
280
     1
102
MATERIAL
148
0.0
149
0.0
149
0.0
 93
        0
 94
      127
282
     0
 72
     0
 77
     0
171
     0
175
     0
179
     0
273
     0
  0
XRECORD
  5
72F
102
{ACAD_REACTORS
330
72D
102
}
330
72D
100
AcDbXrecord
280
     1
270
     1
271
     1
  0
XRECORD
  5
72E
102
{ACAD_REACTORS
330
72D
102
}
330
72D
100
AcDbXrecord
280
     1
270
     1
271
     1
  0
XRECORD
  5
732
102
{ACAD_REACTORS
330
72D
102
}
330
72D
100
AcDbXrecord
280
     1
270
     1
271
     1
  0
XRECORD
  5
731
102
{ACAD_REACTORS
330
72D
102
}
330
72D
100
AcDbXrecord
280
     1
270
     1
271
     1
  0
XRECORD
  5
733
102
{ACAD_REACTORS
330
72D
102
}
330
72D
100
AcDbXrecord
280
     1
270
     1
271
     1
  0
XRECORD
  5
730
102
{ACAD_REACTORS
330
72D
102
}
330
72D
100
AcDbXrecord
280
     1
270
     1
271
     1
  0
XRECORD
  5
7CA
102
{ACAD_REACTORS
330
725
102
}
330
725
100
AcDbXrecord
280
     1
102
MATERIAL
148
0.0
149
0.0
149
0.0
 93
        0
 94
      127
282
     0
 72
     0
 77
     0
171
     0
175
     0
179
     0
273
     0
  0
XRECORD
  5
727
102
{ACAD_REACTORS
330
725
102
}
330
725
100
AcDbXrecord
280
     1
270
     1
271
     1
  0
XRECORD
  5
726
102
{ACAD_REACTORS
330
725
102
}
330
725
100
AcDbXrecord
280
     1
270
     1
271
     1
  0
XRECORD
  5
72A
102
{ACAD_REACTORS
330
725
102
}
330
725
100
AcDbXrecord
280
     1
270
     1
271
     1
  0
XRECORD
  5
729
102
{ACAD_REACTORS
330
725
102
}
330
725
100
AcDbXrecord
280
     1
270
     1
271
     1
  0
XRECORD
  5
72B
102
{ACAD_REACTORS
330
725
102
}
330
725
100
AcDbXrecord
280
     1
270
     1
271
     1
  0
XRECORD
  5
728
102
{ACAD_REACTORS
330
725
102
}
330
725
100
AcDbXrecord
280
     1
270
     1
271
     1
  0
XRECORD
  5
7CC
102
{ACAD_REACTORS
330
735
102
}
330
735
100
AcDbXrecord
280
     1
102
MATERIAL
148
0.0
149
0.0
149
0.0
 93
        0
 94
      127
282
     0
 72
     0
 77
     0
171
     0
175
     0
179
     0
273
     0
  0
XRECORD
  5
737
102
{ACAD_REACTORS
330
735
102
}
330
735
100
AcDbXrecord
280
     1
270
     1
271
     1
  0
XRECORD
  5
736
102
{ACAD_REACTORS
330
735
102
}
330
735
100
AcDbXrecord
280
     1
270
     1
271
     1
  0
XRECORD
  5
73A
102
{ACAD_REACTORS
330
735
102
}
330
735
100
AcDbXrecord
280
     1
270
     1
271
     1
  0
XRECORD
  5
739
102
{ACAD_REACTORS
330
735
102
}
330
735
100
AcDbXrecord
280
     1
270
     1
271
     1
  0
XRECORD
  5
73B
102
{ACAD_REACTORS
330
735
102
}
330
735
100
AcDbXrecord
280
     1
270
     1
271
     1
  0
XRECORD
  5
738
102
{ACAD_REACTORS
330
735
102
}
330
735
100
AcDbXrecord
280
     1
270
     1
271
     1
  0
XRECORD
  5
7FF
102
{ACAD_REACTORS
330
7FE
102
}
330
7FE
100
AcDbXrecord
280
     1
102
ACAD_ROUNDTRIP_2012_MLEADER_STYLE
298
     1
  0
XRECORD
  5
801
102
{ACAD_REACTORS
330
800
102
}
330
800
100
AcDbXrecord
280
     1
102
DISPLAYNAME
  1
Imperial24
102
FLAGS
 90
        0
  0
CELLSTYLEMAP
  5
7C8
102
{ACAD_REACTORS
330
778
102
}
330
778
100
AcDbCellStyleMap
 90
        3
300
CELLSTYLE
  1
TABLEFORMAT_BEGIN
 90
        5
170
     1
 91
        0
 92
    32768
 62
   257
 93
        1
300
CONTENTFORMAT
  1
CONTENTFORMAT_BEGIN
 90
        0
 91
        0
 92
      512
 93
        0
300

 40
0.0
140
1.0
 94
        5
 62
     0
340
6F2
144
0.25
309
CONTENTFORMAT_END
171
     0
 94
        0
309
TABLEFORMAT_END
  1
CELLSTYLE_BEGIN
 90
        1
 91
        1
300
_TITLE
309
CELLSTYLE_END
300
CELLSTYLE
  1
TABLEFORMAT_BEGIN
 90
        5
170
     1
 91
        0
 92
        0
 62
   257
 93
        1
300
CONTENTFORMAT
  1
CONTENTFORMAT_BEGIN
 90
        0
 91
        0
 92
      512
 93
        0
300

 40
0.0
140
1.0
 94
        5
 62
     0
340
6F2
144
0.18
309
CONTENTFORMAT_END
171
     0
 94
        0
309
TABLEFORMAT_END
  1
CELLSTYLE_BEGIN
 90
        2
 91
        1
300
_HEADER
309
CELLSTYLE_END
300
CELLSTYLE
  1
TABLEFORMAT_BEGIN
 90
        5
170
     1
 91
        0
 92
        0
 62
   257
 93
        1
300
CONTENTFORMAT
  1
CONTENTFORMAT_BEGIN
 90
        0
 91
        0
 92
      512
 93
        0
300

 40
0.0
140
1.0
 94
        2
 62
     0
340
6F2
144
0.18
309
CONTENTFORMAT_END
171
     0
 94
        0
309
TABLEFORMAT_END
  1
CELLSTYLE_BEGIN
 90
        3
 91
        2
300
_DATA
309
CELLSTYLE_END
  0
XRECORD
  5
7FD
102
{ACAD_REACTORS
330
778
102
}
330
778
100
AcDbXrecord
280
     1
102
ACAD_ROUNDTRIP_PRE2007_TABLESTYLE
 90
      512
 91
        0
  1

 92
      512
 93
        0
  2

 94
      512
 95
        0
  3

  0
XRECORD
  5
7D8
102
{ACAD_REACTORS
330
7D7
102
}
330
7D7
100
AcDbXrecord
280
     1
102
RTVSPost2010Prop28
280
     1
102
RTVSPost2010PropOp28
 70
     1
102
RTVSPost2010Prop29
280
     1
102
RTVSPost2010PropOp29
 70
     1
102
RTVSPost2010Prop30
280
     0
102
RTVSPost2010PropOp30
 70
     1
102
RTVSPost2010Prop31
280
     0
102
RTVSPost2010PropOp31
 70
     1
102
RTVSPost2010Prop32
280
     0
102
RTVSPost2010PropOp32
 70
     1
102
RTVSPost2010Prop33
280
     0
102
RTVSPost2010PropOp33
 70
     1
102
RTVSPost2010Prop34
280
     0
102
RTVSPost2010PropOp34
 70
     1
102
RTVSPost2010Prop35
280
     0
102
RTVSPost2010PropOp35
 70
     1
102
RTVSPost2010Prop36
280
     0
102
RTVSPost2010PropOp36
 70
     1
102
RTVSPost2010Prop37
 90
       50
102
RTVSPost2010PropOp37
 70
     1
102
RTVSPost2010Prop38
140
0.0
102
RTVSPost2010PropOp38
 70
     1
102
RTVSPost2010Prop39
140
1.0
102
RTVSPost2010PropOp39
 70
     1
102
RTVSPost2010Prop40
 90
        0
102
RTVSPost2010PropOp40
 70
     1
102
RTVSPost2010Prop41ColorIndex
 90
       18
102
RTVSPost2010Prop41ColorRGB
 90
        0
102
RTVSPost2010PropOp41
 70
     1
102
RTVSPost2010Prop42
 90
       50
102
RTVSPost2010PropOp42
 70
     1
102
RTVSPost2010Prop43
 90
        3
102
RTVSPost2010PropOp43
 70
     1
102
RTVSPost2010Prop44ColorIndex
 90
        5
102
RTVSPost2010Prop44ColorRGB
 90
      255
102
RTVSPost2010PropOp44
 70
     1
102
RTVSPost2010Prop45
280
     0
102
RTVSPost2010PropOp45
 70
     1
102
RTVSPost2010Prop46
 90
       50
102
RTVSPost2010PropOp46
 70
     1
102
RTVSPost2010Prop47
 90
       50
102
RTVSPost2010PropOp47
 70
     1
102
RTVSPost2010Prop48
 90
       50
102
RTVSPost2010PropOp48
 70
     1
102
RTVSPost2010Prop49
280
     0
102
RTVSPost2010PropOp49
 70
     1
102
RTVSPost2010Prop50
 90
       50
102
RTVSPost2010PropOp50
 70
     1
102
RTVSPost2010Prop51ColorIndex
 90
      256
102
RTVSPost2010Prop51ColorRGB
 90
-16777216
102
RTVSPost2010PropOp51
 70
     0
102
RTVSPost2010Prop52
140
1.0
102
RTVSPost2010PropOp52
 70
     0
102
RTVSPost2010Prop53
 90
        2
102
RTVSPost2010PropOp53
 70
     1
102
RTVSPost2010Prop54
  1
strokes_ogs.tif
102
RTVSPost2010PropOp54
 70
     1
102
RTVSPost2010Prop55
280
     0
102
RTVSPost2010PropOp55
 70
     1
102
RTVSPost2010Prop56
140
1.0
102
RTVSPost2010PropOp56
 70
     1
102
RTVSPost2010Prop57
140
1.0
102
RTVSPost2010PropOp57
 70
     1
102
RTVSPropertyOp0
 70
     1
102
RTVSPropertyOp1
 70
     1
102
RTVSPropertyOp2
 70
     1
102
RTVSPropertyOp3
 70
     1
102
RTVSPropertyOp4
 70
     1
102
RTVSPropertyOp5
 70
     1
102
RTVSPropertyOp6
 70
     1
102
RTVSPropertyOp7
 70
     1
102
RTVSPropertyOp8
 70
     1
102
RTVSPropertyOp9
 70
     1
102
RTVSPropertyOp10
 70
     1
102
RTVSPropertyOp11
 70
     1
102
RTVSPropertyOp12
 70
     1
102
RTVSPropertyOp13
 70
     1
102
RTVSPropertyOp14
 70
     1
102
RTVSPropertyOp15
 70
     1
102
RTVSPropertyOp16
 70
     1
102
RTVSPropertyOp17
 70
     1
102
RTVSPropertyOp18
 70
     1
102
RTVSPropertyOp19
 70
     1
102
RTVSPropertyOp20
 70
     1
102
RTVSPropertyOp21
 70
     1
102
RTVSPropertyOp22
 70
     1
102
RTVSPropertyOp23
 70
     1
102
RTVSPropertyOp24
 70
     1
102
RTVSPropertyOp25
 70
     1
102
RTVSPropertyOp26
 70
     1
102
RTVSPropertyOp27
 70
     1
102
RTVSPropertyOp28
 70
     1
102
RTVSPropertyOp29
 70
     1
102
RTVSPropertyOp30
 70
     1
102
RTVSPropertyOp31
 70
     1
102
RTVSPropertyOp32
 70
     1
102
RTVSPropertyOp33
 70
     1
102
RTVSPropertyOp34
 70
     1
102
RTVSPropertyOp35
 70
     1
102
RTVSPropertyOp36
 70
     1
102
RTVSPropertyOp37
 70
     1
102
RTVSPropertyOp38
 70
     1
102
RTVSPropertyOp39
 70
     1
102
RTVSPropertyOp40
 70
     1
102
RTVSPropertyOp41
 70
     1
102
RTVSPropertyOp42
 70
     1
102
RTVSPropertyOp43
 70
     1
102
RTVSPropertyOp44
 70
     1
102
RTVSPropertyOp45
 70
     1
102
RTVSPropertyOp46
 70
     1
102
RTVSPropertyOp47
 70
     1
102
RTVSPropertyOp48
 70
     1
102
RTVSPropertyOp49
 70
     1
102
RTVSPropertyOp50
 70
     1
102
RTVSPropertyOp51
 70
     0
102
RTVSPropertyOp52
 70
     0
102
RTVSPropertyOp53
 70
     1
102
RTVSPropertyOp54
 70
     1
102
RTVSPropertyOp55
 70
     1
102
RTVSPropertyOp56
 70
     1
102
RTVSPropertyOp57
 70
     1
102
RTVSPropertyOp58
 70
     1
102
RTVSPropertyOp59
 70
     1
102
RTVSPropertyOp60
 70
     1
102
RTVSPropertyOp61
 70
     1
102
RTVSPropertyOp62
 70
     1
  0
XRECORD
  5
7D6
102
{ACAD_REACTORS
330
7D5
102
}
330
7D5
100
AcDbXrecord
280
     1
102
RTVSPost2010Prop28
280
     0
102
RTVSPost2010PropOp28
 70
     1
102
RTVSPost2010Prop29
280
     1
102
RTVSPost2010PropOp29
 70
     1
102
RTVSPost2010Prop30
280
     1
102
RTVSPost2010PropOp30
 70
     1
102
RTVSPost2010Prop31
280
     0
102
RTVSPost2010PropOp31
 70
     1
102
RTVSPost2010Prop32
280
     0
102
RTVSPost2010PropOp32
 70
     1
102
RTVSPost2010Prop33
280
     0
102
RTVSPost2010PropOp33
 70
     1
102
RTVSPost2010Prop34
280
     0
102
RTVSPost2010PropOp34
 70
     1
102
RTVSPost2010Prop35
280
     0
102
RTVSPost2010PropOp35
 70
     1
102
RTVSPost2010Prop36
280
     0
102
RTVSPost2010PropOp36
 70
     1
102
RTVSPost2010Prop37
 90
       50
102
RTVSPost2010PropOp37
 70
     1
102
RTVSPost2010Prop38
140
0.0
102
RTVSPost2010PropOp38
 70
     1
102
RTVSPost2010Prop39
140
1.0
102
RTVSPost2010PropOp39
 70
     1
102
RTVSPost2010Prop40
 90
        0
102
RTVSPost2010PropOp40
 70
     1
102
RTVSPost2010Prop41ColorIndex
 90
       18
102
RTVSPost2010Prop41ColorRGB
 90
        0
102
RTVSPost2010PropOp41
 70
     1
102
RTVSPost2010Prop42
 90
       50
102
RTVSPost2010PropOp42
 70
     1
102
RTVSPost2010Prop43
 90
        3
102
RTVSPost2010PropOp43
 70
     1
102
RTVSPost2010Prop44ColorIndex
 90
        5
102
RTVSPost2010Prop44ColorRGB
 90
      255
102
RTVSPost2010PropOp44
 70
     1
102
RTVSPost2010Prop45
280
     0
102
RTVSPost2010PropOp45
 70
     1
102
RTVSPost2010Prop46
 90
       50
102
RTVSPost2010PropOp46
 70
     1
102
RTVSPost2010Prop47
 90
       50
102
RTVSPost2010PropOp47
 70
     1
102
RTVSPost2010Prop48
 90
       50
102
RTVSPost2010PropOp48
 70
     1
102
RTVSPost2010Prop49
280
     0
102
RTVSPost2010PropOp49
 70
     1
102
RTVSPost2010Prop50
 90
       50
102
RTVSPost2010PropOp50
 70
     1
102
RTVSPost2010Prop51ColorIndex
 90
      256
102
RTVSPost2010Prop51ColorRGB
 90
-16777216
102
RTVSPost2010PropOp51
 70
     0
102
RTVSPost2010Prop52
140
1.0
102
RTVSPost2010PropOp52
 70
     0
102
RTVSPost2010Prop53
 90
        2
102
RTVSPost2010PropOp53
 70
     1
102
RTVSPost2010Prop54
  1
strokes_ogs.tif
102
RTVSPost2010PropOp54
 70
     1
102
RTVSPost2010Prop55
280
     0
102
RTVSPost2010PropOp55
 70
     1
102
RTVSPost2010Prop56
140
1.0
102
RTVSPost2010PropOp56
 70
     1
102
RTVSPost2010Prop57
140
1.0
102
RTVSPost2010PropOp57
 70
     1
102
RTVSPropertyOp0
 70
     1
102
RTVSPropertyOp1
 70
     1
102
RTVSPropertyOp2
 70
     1
102
RTVSPropertyOp3
 70
     1
102
RTVSPropertyOp4
 70
     1
102
RTVSPropertyOp5
 70
     1
102
RTVSPropertyOp6
 70
     1
102
RTVSPropertyOp7
 70
     1
102
RTVSPropertyOp8
 70
     1
102
RTVSPropertyOp9
 70
     1
102
RTVSPropertyOp10
 70
     1
102
RTVSPropertyOp11
 70
     1
102
RTVSPropertyOp12
 70
     1
102
RTVSPropertyOp13
 70
     1
102
RTVSPropertyOp14
 70
     1
102
RTVSPropertyOp15
 70
     1
102
RTVSPropertyOp16
 70
     1
102
RTVSPropertyOp17
 70
     1
102
RTVSPropertyOp18
 70
     1
102
RTVSPropertyOp19
 70
     1
102
RTVSPropertyOp20
 70
     1
102
RTVSPropertyOp21
 70
     1
102
RTVSPropertyOp22
 70
     1
102
RTVSPropertyOp23
 70
     1
102
RTVSPropertyOp24
 70
     1
102
RTVSPropertyOp25
 70
     1
102
RTVSPropertyOp26
 70
     1
102
RTVSPropertyOp27
 70
     1
102
RTVSPropertyOp28
 70
     1
102
RTVSPropertyOp29
 70
     1
102
RTVSPropertyOp30
 70
     1
102
RTVSPropertyOp31
 70
     1
102
RTVSPropertyOp32
 70
     1
102
RTVSPropertyOp33
 70
     1
102
RTVSPropertyOp34
 70
     1
102
RTVSPropertyOp35
 70
     1
102
RTVSPropertyOp36
 70
     1
102
RTVSPropertyOp37
 70
     1
102
RTVSPropertyOp38
 70
     1
102
RTVSPropertyOp39
 70
     1
102
RTVSPropertyOp40
 70
     1
102
RTVSPropertyOp41
 70
     1
102
RTVSPropertyOp42
 70
     1
102
RTVSPropertyOp43
 70
     1
102
RTVSPropertyOp44
 70
     1
102
RTVSPropertyOp45
 70
     1
102
RTVSPropertyOp46
 70
     1
102
RTVSPropertyOp47
 70
     1
102
RTVSPropertyOp48
 70
     1
102
RTVSPropertyOp49
 70
     1
102
RTVSPropertyOp50
 70
     1
102
RTVSPropertyOp51
 70
     0
102
RTVSPropertyOp52
 70
     0
102
RTVSPropertyOp53
 70
     1
102
RTVSPropertyOp54
 70
     1
102
RTVSPropertyOp55
 70
     1
102
RTVSPropertyOp56
 70
     1
102
RTVSPropertyOp57
 70
     1
102
RTVSPropertyOp58
 70
     1
102
RTVSPropertyOp59
 70
     1
102
RTVSPropertyOp60
 70
     1
102
RTVSPropertyOp61
 70
     1
102
RTVSPropertyOp62
 70
     1
  0
XRECORD
  5
7E4
102
{ACAD_REACTORS
330
7E3
102
}
330
7E3
100
AcDbXrecord
280
     1
102
RTVSPost2010Prop28
280
     0
102
RTVSPost2010PropOp28
 70
     1
102
RTVSPost2010Prop29
280
     1
102
RTVSPost2010PropOp29
 70
     1
102
RTVSPost2010Prop30
280
     1
102
RTVSPost2010PropOp30
 70
     1
102
RTVSPost2010Prop31
280
     0
102
RTVSPost2010PropOp31
 70
     1
102
RTVSPost2010Prop32
280
     0
102
RTVSPost2010PropOp32
 70
     1
102
RTVSPost2010Prop33
280
     0
102
RTVSPost2010PropOp33
 70
     1
102
RTVSPost2010Prop34
280
     0
102
RTVSPost2010PropOp34
 70
     1
102
RTVSPost2010Prop35
280
     0
102
RTVSPost2010PropOp35
 70
     1
102
RTVSPost2010Prop36
280
     0
102
RTVSPost2010PropOp36
 70
     1
102
RTVSPost2010Prop37
 90
       50
102
RTVSPost2010PropOp37
 70
     1
102
RTVSPost2010Prop38
140
0.0
102
RTVSPost2010PropOp38
 70
     1
102
RTVSPost2010Prop39
140
1.0
102
RTVSPost2010PropOp39
 70
     1
102
RTVSPost2010Prop40
 90
        0
102
RTVSPost2010PropOp40
 70
     1
102
RTVSPost2010Prop41ColorIndex
 90
       18
102
RTVSPost2010Prop41ColorRGB
 90
        0
102
RTVSPost2010PropOp41
 70
     1
102
RTVSPost2010Prop42
 90
       50
102
RTVSPost2010PropOp42
 70
     1
102
RTVSPost2010Prop43
 90
        3
102
RTVSPost2010PropOp43
 70
     1
102
RTVSPost2010Prop44ColorIndex
 90
        5
102
RTVSPost2010Prop44ColorRGB
 90
      255
102
RTVSPost2010PropOp44
 70
     1
102
RTVSPost2010Prop45
280
     0
102
RTVSPost2010PropOp45
 70
     1
102
RTVSPost2010Prop46
 90
       50
102
RTVSPost2010PropOp46
 70
     1
102
RTVSPost2010Prop47
 90
       50
102
RTVSPost2010PropOp47
 70
     1
102
RTVSPost2010Prop48
 90
       50
102
RTVSPost2010PropOp48
 70
     1
102
RTVSPost2010Prop49
280
     0
102
RTVSPost2010PropOp49
 70
     1
102
RTVSPost2010Prop50
 90
       50
102
RTVSPost2010PropOp50
 70
     1
102
RTVSPost2010Prop51ColorIndex
 90
      256
102
RTVSPost2010Prop51ColorRGB
 90
-16777216
102
RTVSPost2010PropOp51
 70
     0
102
RTVSPost2010Prop52
140
1.0
102
RTVSPost2010PropOp52
 70
     0
102
RTVSPost2010Prop53
 90
        2
102
RTVSPost2010PropOp53
 70
     1
102
RTVSPost2010Prop54
  1
strokes_ogs.tif
102
RTVSPost2010PropOp54
 70
     1
102
RTVSPost2010Prop55
280
     0
102
RTVSPost2010PropOp55
 70
     1
102
RTVSPost2010Prop56
140
1.0
102
RTVSPost2010PropOp56
 70
     1
102
RTVSPost2010Prop57
140
1.0
102
RTVSPost2010PropOp57
 70
     1
102
RTVSPropertyOp0
 70
     1
102
RTVSPropertyOp1
 70
     1
102
RTVSPropertyOp2
 70
     1
102
RTVSPropertyOp3
 70
     1
102
RTVSPropertyOp4
 70
     1
102
RTVSPropertyOp5
 70
     1
102
RTVSPropertyOp6
 70
     1
102
RTVSPropertyOp7
 70
     1
102
RTVSPropertyOp8
 70
     1
102
RTVSPropertyOp9
 70
     1
102
RTVSPropertyOp10
 70
     1
102
RTVSPropertyOp11
 70
     1
102
RTVSPropertyOp12
 70
     1
102
RTVSPropertyOp13
 70
     1
102
RTVSPropertyOp14
 70
     1
102
RTVSPropertyOp15
 70
     1
102
RTVSPropertyOp16
 70
     1
102
RTVSPropertyOp17
 70
     1
102
RTVSPropertyOp18
 70
     1
102
RTVSPropertyOp19
 70
     1
102
RTVSPropertyOp20
 70
     1
102
RTVSPropertyOp21
 70
     1
102
RTVSPropertyOp22
 70
     1
102
RTVSPropertyOp23
 70
     1
102
RTVSPropertyOp24
 70
     1
102
RTVSPropertyOp25
 70
     1
102
RTVSPropertyOp26
 70
     1
102
RTVSPropertyOp27
 70
     1
102
RTVSPropertyOp28
 70
     1
102
RTVSPropertyOp29
 70
     1
102
RTVSPropertyOp30
 70
     1
102
RTVSPropertyOp31
 70
     1
102
RTVSPropertyOp32
 70
     1
102
RTVSPropertyOp33
 70
     1
102
RTVSPropertyOp34
 70
     1
102
RTVSPropertyOp35
 70
     1
102
RTVSPropertyOp36
 70
     1
102
RTVSPropertyOp37
 70
     1
102
RTVSPropertyOp38
 70
     1
102
RTVSPropertyOp39
 70
     1
102
RTVSPropertyOp40
 70
     1
102
RTVSPropertyOp41
 70
     1
102
RTVSPropertyOp42
 70
     1
102
RTVSPropertyOp43
 70
     1
102
RTVSPropertyOp44
 70
     1
102
RTVSPropertyOp45
 70
     1
102
RTVSPropertyOp46
 70
     1
102
RTVSPropertyOp47
 70
     1
102
RTVSPropertyOp48
 70
     1
102
RTVSPropertyOp49
 70
     1
102
RTVSPropertyOp50
 70
     1
102
RTVSPropertyOp51
 70
     0
102
RTVSPropertyOp52
 70
     0
102
RTVSPropertyOp53
 70
     1
102
RTVSPropertyOp54
 70
     1
102
RTVSPropertyOp55
 70
     1
102
RTVSPropertyOp56
 70
     1
102
RTVSPropertyOp57
 70
     1
102
RTVSPropertyOp58
 70
     1
102
RTVSPropertyOp59
 70
     1
102
RTVSPropertyOp60
 70
     1
102
RTVSPropertyOp61
 70
     1
102
RTVSPropertyOp62
 70
     1
  0
XRECORD
  5
7EC
102
{ACAD_REACTORS
330
7EB
102
}
330
7EB
100
AcDbXrecord
280
     1
102
RTVSPost2010Prop28
280
     0
102
RTVSPost2010PropOp28
 70
     1
102
RTVSPost2010Prop29
280
     1
102
RTVSPost2010PropOp29
 70
     1
102
RTVSPost2010Prop30
280
     1
102
RTVSPost2010PropOp30
 70
     1
102
RTVSPost2010Prop31
280
     0
102
RTVSPost2010PropOp31
 70
     1
102
RTVSPost2010Prop32
280
     0
102
RTVSPost2010PropOp32
 70
     1
102
RTVSPost2010Prop33
280
     0
102
RTVSPost2010PropOp33
 70
     1
102
RTVSPost2010Prop34
280
     0
102
RTVSPost2010PropOp34
 70
     1
102
RTVSPost2010Prop35
280
     0
102
RTVSPost2010PropOp35
 70
     1
102
RTVSPost2010Prop36
280
     0
102
RTVSPost2010PropOp36
 70
     1
102
RTVSPost2010Prop37
 90
       50
102
RTVSPost2010PropOp37
 70
     1
102
RTVSPost2010Prop38
140
0.0
102
RTVSPost2010PropOp38
 70
     1
102
RTVSPost2010Prop39
140
1.0
102
RTVSPost2010PropOp39
 70
     1
102
RTVSPost2010Prop40
 90
        0
102
RTVSPost2010PropOp40
 70
     1
102
RTVSPost2010Prop41ColorIndex
 90
       18
102
RTVSPost2010Prop41ColorRGB
 90
        0
102
RTVSPost2010PropOp41
 70
     1
102
RTVSPost2010Prop42
 90
       50
102
RTVSPost2010PropOp42
 70
     1
102
RTVSPost2010Prop43
 90
        3
102
RTVSPost2010PropOp43
 70
     1
102
RTVSPost2010Prop44ColorIndex
 90
        5
102
RTVSPost2010Prop44ColorRGB
 90
      255
102
RTVSPost2010PropOp44
 70
     1
102
RTVSPost2010Prop45
280
     0
102
RTVSPost2010PropOp45
 70
     1
102
RTVSPost2010Prop46
 90
       50
102
RTVSPost2010PropOp46
 70
     1
102
RTVSPost2010Prop47
 90
       50
102
RTVSPost2010PropOp47
 70
     1
102
RTVSPost2010Prop48
 90
       50
102
RTVSPost2010PropOp48
 70
     1
102
RTVSPost2010Prop49
280
     0
102
RTVSPost2010PropOp49
 70
     1
102
RTVSPost2010Prop50
 90
       50
102
RTVSPost2010PropOp50
 70
     1
102
RTVSPost2010Prop51ColorIndex
 90
      256
102
RTVSPost2010Prop51ColorRGB
 90
-16777216
102
RTVSPost2010PropOp51
 70
     0
102
RTVSPost2010Prop52
140
1.0
102
RTVSPost2010PropOp52
 70
     0
102
RTVSPost2010Prop53
 90
        2
102
RTVSPost2010PropOp53
 70
     1
102
RTVSPost2010Prop54
  1
strokes_ogs.tif
102
RTVSPost2010PropOp54
 70
     1
102
RTVSPost2010Prop55
280
     0
102
RTVSPost2010PropOp55
 70
     1
102
RTVSPost2010Prop56
140
1.0
102
RTVSPost2010PropOp56
 70
     1
102
RTVSPost2010Prop57
140
1.0
102
RTVSPost2010PropOp57
 70
     1
102
RTVSPropertyOp0
 70
     1
102
RTVSPropertyOp1
 70
     1
102
RTVSPropertyOp2
 70
     1
102
RTVSPropertyOp3
 70
     1
102
RTVSPropertyOp4
 70
     1
102
RTVSPropertyOp5
 70
     1
102
RTVSPropertyOp6
 70
     1
102
RTVSPropertyOp7
 70
     1
102
RTVSPropertyOp8
 70
     1
102
RTVSPropertyOp9
 70
     1
102
RTVSPropertyOp10
 70
     1
102
RTVSPropertyOp11
 70
     1
102
RTVSPropertyOp12
 70
     1
102
RTVSPropertyOp13
 70
     1
102
RTVSPropertyOp14
 70
     1
102
RTVSPropertyOp15
 70
     1
102
RTVSPropertyOp16
 70
     1
102
RTVSPropertyOp17
 70
     1
102
RTVSPropertyOp18
 70
     1
102
RTVSPropertyOp19
 70
     1
102
RTVSPropertyOp20
 70
     1
102
RTVSPropertyOp21
 70
     1
102
RTVSPropertyOp22
 70
     1
102
RTVSPropertyOp23
 70
     1
102
RTVSPropertyOp24
 70
     1
102
RTVSPropertyOp25
 70
     1
102
RTVSPropertyOp26
 70
     1
102
RTVSPropertyOp27
 70
     1
102
RTVSPropertyOp28
 70
     1
102
RTVSPropertyOp29
 70
     1
102
RTVSPropertyOp30
 70
     1
102
RTVSPropertyOp31
 70
     1
102
RTVSPropertyOp32
 70
     1
102
RTVSPropertyOp33
 70
     1
102
RTVSPropertyOp34
 70
     1
102
RTVSPropertyOp35
 70
     1
102
RTVSPropertyOp36
 70
     1
102
RTVSPropertyOp37
 70
     1
102
RTVSPropertyOp38
 70
     1
102
RTVSPropertyOp39
 70
     1
102
RTVSPropertyOp40
 70
     1
102
RTVSPropertyOp41
 70
     1
102
RTVSPropertyOp42
 70
     1
102
RTVSPropertyOp43
 70
     1
102
RTVSPropertyOp44
 70
     1
102
RTVSPropertyOp45
 70
     1
102
RTVSPropertyOp46
 70
     1
102
RTVSPropertyOp47
 70
     1
102
RTVSPropertyOp48
 70
     1
102
RTVSPropertyOp49
 70
     1
102
RTVSPropertyOp50
 70
     1
102
RTVSPropertyOp51
 70
     0
102
RTVSPropertyOp52
 70
     0
102
RTVSPropertyOp53
 70
     1
102
RTVSPropertyOp54
 70
     1
102
RTVSPropertyOp55
 70
     1
102
RTVSPropertyOp56
 70
     1
102
RTVSPropertyOp57
 70
     1
102
RTVSPropertyOp58
 70
     1
102
RTVSPropertyOp59
 70
     1
102
RTVSPropertyOp60
 70
     1
102
RTVSPropertyOp61
 70
     1
102
RTVSPropertyOp62
 70
     1
  0
XRECORD
  5
7DE
102
{ACAD_REACTORS
330
7DD
102
}
330
7DD
100
AcDbXrecord
280
     1
102
RTVSPost2010Prop28
280
     0
102
RTVSPost2010PropOp28
 70
     1
102
RTVSPost2010Prop29
280
     1
102
RTVSPost2010PropOp29
 70
     1
102
RTVSPost2010Prop30
280
     1
102
RTVSPost2010PropOp30
 70
     1
102
RTVSPost2010Prop31
280
     0
102
RTVSPost2010PropOp31
 70
     1
102
RTVSPost2010Prop32
280
     0
102
RTVSPost2010PropOp32
 70
     1
102
RTVSPost2010Prop33
280
     0
102
RTVSPost2010PropOp33
 70
     1
102
RTVSPost2010Prop34
280
     0
102
RTVSPost2010PropOp34
 70
     1
102
RTVSPost2010Prop35
280
     0
102
RTVSPost2010PropOp35
 70
     1
102
RTVSPost2010Prop36
280
     0
102
RTVSPost2010PropOp36
 70
     1
102
RTVSPost2010Prop37
 90
       50
102
RTVSPost2010PropOp37
 70
     1
102
RTVSPost2010Prop38
140
0.0
102
RTVSPost2010PropOp38
 70
     1
102
RTVSPost2010Prop39
140
1.0
102
RTVSPost2010PropOp39
 70
     1
102
RTVSPost2010Prop40
 90
        0
102
RTVSPost2010PropOp40
 70
     1
102
RTVSPost2010Prop41ColorIndex
 90
       18
102
RTVSPost2010Prop41ColorRGB
 90
        0
102
RTVSPost2010PropOp41
 70
     1
102
RTVSPost2010Prop42
 90
       50
102
RTVSPost2010PropOp42
 70
     1
102
RTVSPost2010Prop43
 90
        3
102
RTVSPost2010PropOp43
 70
     1
102
RTVSPost2010Prop44ColorIndex
 90
        5
102
RTVSPost2010Prop44ColorRGB
 90
      255
102
RTVSPost2010PropOp44
 70
     1
102
RTVSPost2010Prop45
280
     0
102
RTVSPost2010PropOp45
 70
     1
102
RTVSPost2010Prop46
 90
       50
102
RTVSPost2010PropOp46
 70
     1
102
RTVSPost2010Prop47
 90
       50
102
RTVSPost2010PropOp47
 70
     1
102
RTVSPost2010Prop48
 90
       50
102
RTVSPost2010PropOp48
 70
     1
102
RTVSPost2010Prop49
280
     0
102
RTVSPost2010PropOp49
 70
     1
102
RTVSPost2010Prop50
 90
       50
102
RTVSPost2010PropOp50
 70
     1
102
RTVSPost2010Prop51ColorIndex
 90
      256
102
RTVSPost2010Prop51ColorRGB
 90
-16777216
102
RTVSPost2010PropOp51
 70
     0
102
RTVSPost2010Prop52
140
1.0
102
RTVSPost2010PropOp52
 70
     0
102
RTVSPost2010Prop53
 90
        2
102
RTVSPost2010PropOp53
 70
     1
102
RTVSPost2010Prop54
  1
strokes_ogs.tif
102
RTVSPost2010PropOp54
 70
     1
102
RTVSPost2010Prop55
280
     0
102
RTVSPost2010PropOp55
 70
     1
102
RTVSPost2010Prop56
140
1.0
102
RTVSPost2010PropOp56
 70
     1
102
RTVSPost2010Prop57
140
1.0
102
RTVSPost2010PropOp57
 70
     1
102
RTVSPropertyOp0
 70
     1
102
RTVSPropertyOp1
 70
     1
102
RTVSPropertyOp2
 70
     1
102
RTVSPropertyOp3
 70
     1
102
RTVSPropertyOp4
 70
     1
102
RTVSPropertyOp5
 70
     1
102
RTVSPropertyOp6
 70
     1
102
RTVSPropertyOp7
 70
     1
102
RTVSPropertyOp8
 70
     1
102
RTVSPropertyOp9
 70
     1
102
RTVSPropertyOp10
 70
     1
102
RTVSPropertyOp11
 70
     1
102
RTVSPropertyOp12
 70
     1
102
RTVSPropertyOp13
 70
     1
102
RTVSPropertyOp14
 70
     1
102
RTVSPropertyOp15
 70
     1
102
RTVSPropertyOp16
 70
     1
102
RTVSPropertyOp17
 70
     1
102
RTVSPropertyOp18
 70
     1
102
RTVSPropertyOp19
 70
     1
102
RTVSPropertyOp20
 70
     1
102
RTVSPropertyOp21
 70
     1
102
RTVSPropertyOp22
 70
     1
102
RTVSPropertyOp23
 70
     1
102
RTVSPropertyOp24
 70
     1
102
RTVSPropertyOp25
 70
     1
102
RTVSPropertyOp26
 70
     1
102
RTVSPropertyOp27
 70
     1
102
RTVSPropertyOp28
 70
     1
102
RTVSPropertyOp29
 70
     1
102
RTVSPropertyOp30
 70
     1
102
RTVSPropertyOp31
 70
     1
102
RTVSPropertyOp32
 70
     1
102
RTVSPropertyOp33
 70
     1
102
RTVSPropertyOp34
 70
     1
102
RTVSPropertyOp35
 70
     1
102
RTVSPropertyOp36
 70
     1
102
RTVSPropertyOp37
 70
     1
102
RTVSPropertyOp38
 70
     1
102
RTVSPropertyOp39
 70
     1
102
RTVSPropertyOp40
 70
     1
102
RTVSPropertyOp41
 70
     1
102
RTVSPropertyOp42
 70
     1
102
RTVSPropertyOp43
 70
     1
102
RTVSPropertyOp44
 70
     1
102
RTVSPropertyOp45
 70
     1
102
RTVSPropertyOp46
 70
     1
102
RTVSPropertyOp47
 70
     1
102
RTVSPropertyOp48
 70
     1
102
RTVSPropertyOp49
 70
     1
102
RTVSPropertyOp50
 70
     1
102
RTVSPropertyOp51
 70
     0
102
RTVSPropertyOp52
 70
     0
102
RTVSPropertyOp53
 70
     1
102
RTVSPropertyOp54
 70
     1
102
RTVSPropertyOp55
 70
     1
102
RTVSPropertyOp56
 70
     1
102
RTVSPropertyOp57
 70
     1
102
RTVSPropertyOp58
 70
     1
102
RTVSPropertyOp59
 70
     1
102
RTVSPropertyOp60
 70
     1
102
RTVSPropertyOp61
 70
     1
102
RTVSPropertyOp62
 70
     1
  0
XRECORD
  5
7E2
102
{ACAD_REACTORS
330
7E1
102
}
330
7E1
100
AcDbXrecord
280
     1
102
RTVSPost2010Prop28
280
     0
102
RTVSPost2010PropOp28
 70
     1
102
RTVSPost2010Prop29
280
     1
102
RTVSPost2010PropOp29
 70
     1
102
RTVSPost2010Prop30
280
     1
102
RTVSPost2010PropOp30
 70
     1
102
RTVSPost2010Prop31
280
     0
102
RTVSPost2010PropOp31
 70
     1
102
RTVSPost2010Prop32
280
     0
102
RTVSPost2010PropOp32
 70
     1
102
RTVSPost2010Prop33
280
     0
102
RTVSPost2010PropOp33
 70
     1
102
RTVSPost2010Prop34
280
     0
102
RTVSPost2010PropOp34
 70
     1
102
RTVSPost2010Prop35
280
     0
102
RTVSPost2010PropOp35
 70
     1
102
RTVSPost2010Prop36
280
     0
102
RTVSPost2010PropOp36
 70
     1
102
RTVSPost2010Prop37
 90
       50
102
RTVSPost2010PropOp37
 70
     1
102
RTVSPost2010Prop38
140
0.0
102
RTVSPost2010PropOp38
 70
     1
102
RTVSPost2010Prop39
140
1.0
102
RTVSPost2010PropOp39
 70
     1
102
RTVSPost2010Prop40
 90
        0
102
RTVSPost2010PropOp40
 70
     1
102
RTVSPost2010Prop41ColorIndex
 90
       18
102
RTVSPost2010Prop41ColorRGB
 90
        0
102
RTVSPost2010PropOp41
 70
     1
102
RTVSPost2010Prop42
 90
       50
102
RTVSPost2010PropOp42
 70
     1
102
RTVSPost2010Prop43
 90
        3
102
RTVSPost2010PropOp43
 70
     1
102
RTVSPost2010Prop44ColorIndex
 90
        5
102
RTVSPost2010Prop44ColorRGB
 90
      255
102
RTVSPost2010PropOp44
 70
     1
102
RTVSPost2010Prop45
280
     0
102
RTVSPost2010PropOp45
 70
     1
102
RTVSPost2010Prop46
 90
       50
102
RTVSPost2010PropOp46
 70
     1
102
RTVSPost2010Prop47
 90
       50
102
RTVSPost2010PropOp47
 70
     1
102
RTVSPost2010Prop48
 90
       50
102
RTVSPost2010PropOp48
 70
     1
102
RTVSPost2010Prop49
280
     0
102
RTVSPost2010PropOp49
 70
     1
102
RTVSPost2010Prop50
 90
       50
102
RTVSPost2010PropOp50
 70
     1
102
RTVSPost2010Prop51ColorIndex
 90
      256
102
RTVSPost2010Prop51ColorRGB
 90
-16777216
102
RTVSPost2010PropOp51
 70
     0
102
RTVSPost2010Prop52
140
1.0
102
RTVSPost2010PropOp52
 70
     0
102
RTVSPost2010Prop53
 90
        2
102
RTVSPost2010PropOp53
 70
     1
102
RTVSPost2010Prop54
  1
strokes_ogs.tif
102
RTVSPost2010PropOp54
 70
     1
102
RTVSPost2010Prop55
280
     0
102
RTVSPost2010PropOp55
 70
     1
102
RTVSPost2010Prop56
140
1.0
102
RTVSPost2010PropOp56
 70
     1
102
RTVSPost2010Prop57
140
1.0
102
RTVSPost2010PropOp57
 70
     1
102
RTVSPropertyOp0
 70
     1
102
RTVSPropertyOp1
 70
     1
102
RTVSPropertyOp2
 70
     1
102
RTVSPropertyOp3
 70
     1
102
RTVSPropertyOp4
 70
     1
102
RTVSPropertyOp5
 70
     1
102
RTVSPropertyOp6
 70
     1
102
RTVSPropertyOp7
 70
     1
102
RTVSPropertyOp8
 70
     1
102
RTVSPropertyOp9
 70
     1
102
RTVSPropertyOp10
 70
     1
102
RTVSPropertyOp11
 70
     1
102
RTVSPropertyOp12
 70
     1
102
RTVSPropertyOp13
 70
     1
102
RTVSPropertyOp14
 70
     1
102
RTVSPropertyOp15
 70
     1
102
RTVSPropertyOp16
 70
     1
102
RTVSPropertyOp17
 70
     1
102
RTVSPropertyOp18
 70
     1
102
RTVSPropertyOp19
 70
     1
102
RTVSPropertyOp20
 70
     1
102
RTVSPropertyOp21
 70
     1
102
RTVSPropertyOp22
 70
     1
102
RTVSPropertyOp23
 70
     1
102
RTVSPropertyOp24
 70
     1
102
RTVSPropertyOp25
 70
     1
102
RTVSPropertyOp26
 70
     1
102
RTVSPropertyOp27
 70
     1
102
RTVSPropertyOp28
 70
     1
102
RTVSPropertyOp29
 70
     1
102
RTVSPropertyOp30
 70
     1
102
RTVSPropertyOp31
 70
     1
102
RTVSPropertyOp32
 70
     1
102
RTVSPropertyOp33
 70
     1
102
RTVSPropertyOp34
 70
     1
102
RTVSPropertyOp35
 70
     1
102
RTVSPropertyOp36
 70
     1
102
RTVSPropertyOp37
 70
     1
102
RTVSPropertyOp38
 70
     1
102
RTVSPropertyOp39
 70
     1
102
RTVSPropertyOp40
 70
     1
102
RTVSPropertyOp41
 70
     1
102
RTVSPropertyOp42
 70
     1
102
RTVSPropertyOp43
 70
     1
102
RTVSPropertyOp44
 70
     1
102
RTVSPropertyOp45
 70
     1
102
RTVSPropertyOp46
 70
     1
102
RTVSPropertyOp47
 70
     1
102
RTVSPropertyOp48
 70
     1
102
RTVSPropertyOp49
 70
     1
102
RTVSPropertyOp50
 70
     1
102
RTVSPropertyOp51
 70
     0
102
RTVSPropertyOp52
 70
     0
102
RTVSPropertyOp53
 70
     1
102
RTVSPropertyOp54
 70
     1
102
RTVSPropertyOp55
 70
     1
102
RTVSPropertyOp56
 70
     1
102
RTVSPropertyOp57
 70
     1
102
RTVSPropertyOp58
 70
     1
102
RTVSPropertyOp59
 70
     1
102
RTVSPropertyOp60
 70
     1
102
RTVSPropertyOp61
 70
     1
102
RTVSPropertyOp62
 70
     1
  0
XRECORD
  5
7FC
102
{ACAD_REACTORS
330
7FB
102
}
330
7FB
100
AcDbXrecord
280
     1
102
RTVSPost2010Prop28
280
     0
102
RTVSPost2010PropOp28
 70
     0
102
RTVSPost2010Prop29
280
     1
102
RTVSPost2010PropOp29
 70
     0
102
RTVSPost2010Prop30
280
     1
102
RTVSPost2010PropOp30
 70
     0
102
RTVSPost2010Prop31
280
     0
102
RTVSPost2010PropOp31
 70
     0
102
RTVSPost2010Prop32
280
     0
102
RTVSPost2010PropOp32
 70
     0
102
RTVSPost2010Prop33
280
     0
102
RTVSPost2010PropOp33
 70
     0
102
RTVSPost2010Prop34
280
     0
102
RTVSPost2010PropOp34
 70
     0
102
RTVSPost2010Prop35
280
     0
102
RTVSPost2010PropOp35
 70
     0
102
RTVSPost2010Prop36
280
     0
102
RTVSPost2010PropOp36
 70
     0
102
RTVSPost2010Prop37
 90
       50
102
RTVSPost2010PropOp37
 70
     0
102
RTVSPost2010Prop38
140
0.0
102
RTVSPost2010PropOp38
 70
     0
102
RTVSPost2010Prop39
140
1.0
102
RTVSPost2010PropOp39
 70
     0
102
RTVSPost2010Prop40
 90
        0
102
RTVSPost2010PropOp40
 70
     0
102
RTVSPost2010Prop41ColorIndex
 90
       18
102
RTVSPost2010Prop41ColorRGB
 90
        0
102
RTVSPost2010PropOp41
 70
     0
102
RTVSPost2010Prop42
 90
       50
102
RTVSPost2010PropOp42
 70
     0
102
RTVSPost2010Prop43
 90
        3
102
RTVSPost2010PropOp43
 70
     0
102
RTVSPost2010Prop44ColorIndex
 90
        5
102
RTVSPost2010Prop44ColorRGB
 90
      255
102
RTVSPost2010PropOp44
 70
     0
102
RTVSPost2010Prop45
280
     0
102
RTVSPost2010PropOp45
 70
     0
102
RTVSPost2010Prop46
 90
       50
102
RTVSPost2010PropOp46
 70
     0
102
RTVSPost2010Prop47
 90
       50
102
RTVSPost2010PropOp47
 70
     0
102
RTVSPost2010Prop48
 90
       50
102
RTVSPost2010PropOp48
 70
     0
102
RTVSPost2010Prop49
280
     0
102
RTVSPost2010PropOp49
 70
     0
102
RTVSPost2010Prop50
 90
       50
102
RTVSPost2010PropOp50
 70
     0
102
RTVSPost2010Prop51ColorIndex
 90
      256
102
RTVSPost2010Prop51ColorRGB
 90
-16777216
102
RTVSPost2010PropOp51
 70
     0
102
RTVSPost2010Prop52
140
1.0
102
RTVSPost2010PropOp52
 70
     0
102
RTVSPost2010Prop53
 90
        2
102
RTVSPost2010PropOp53
 70
     0
102
RTVSPost2010Prop54
  1
strokes_ogs.tif
102
RTVSPost2010PropOp54
 70
     0
102
RTVSPost2010Prop55
280
     0
102
RTVSPost2010PropOp55
 70
     0
102
RTVSPost2010Prop56
140
1.0
102
RTVSPost2010PropOp56
 70
     0
102
RTVSPost2010Prop57
140
1.0
102
RTVSPost2010PropOp57
 70
     0
102
RTVSPropertyOp0
 70
     0
102
RTVSPropertyOp1
 70
     0
102
RTVSPropertyOp2
 70
     0
102
RTVSPropertyOp3
 70
     0
102
RTVSPropertyOp4
 70
     0
102
RTVSPropertyOp5
 70
     0
102
RTVSPropertyOp6
 70
     0
102
RTVSPropertyOp7
 70
     0
102
RTVSPropertyOp8
 70
     0
102
RTVSPropertyOp9
 70
     0
102
RTVSPropertyOp10
 70
     0
102
RTVSPropertyOp11
 70
     0
102
RTVSPropertyOp12
 70
     0
102
RTVSPropertyOp13
 70
     0
102
RTVSPropertyOp14
 70
     2
102
RTVSPropertyOp15
 70
     0
102
RTVSPropertyOp16
 70
     0
102
RTVSPropertyOp17
 70
     0
102
RTVSPropertyOp18
 70
     0
102
RTVSPropertyOp19
 70
     0
102
RTVSPropertyOp20
 70
     0
102
RTVSPropertyOp21
 70
     0
102
RTVSPropertyOp22
 70
     0
102
RTVSPropertyOp23
 70
     0
102
RTVSPropertyOp24
 70
     0
102
RTVSPropertyOp25
 70
     0
102
RTVSPropertyOp26
 70
     0
102
RTVSPropertyOp27
 70
     0
102
RTVSPropertyOp28
 70
     0
102
RTVSPropertyOp29
 70
     0
102
RTVSPropertyOp30
 70
     0
102
RTVSPropertyOp31
 70
     0
102
RTVSPropertyOp32
 70
     0
102
RTVSPropertyOp33
 70
     0
102
RTVSPropertyOp34
 70
     0
102
RTVSPropertyOp35
 70
     0
102
RTVSPropertyOp36
 70
     0
102
RTVSPropertyOp37
 70
     0
102
RTVSPropertyOp38
 70
     0
102
RTVSPropertyOp39
 70
     0
102
RTVSPropertyOp40
 70
     0
102
RTVSPropertyOp41
 70
     0
102
RTVSPropertyOp42
 70
     0
102
RTVSPropertyOp43
 70
     0
102
RTVSPropertyOp44
 70
     0
102
RTVSPropertyOp45
 70
     0
102
RTVSPropertyOp46
 70
     0
102
RTVSPropertyOp47
 70
     0
102
RTVSPropertyOp48
 70
     0
102
RTVSPropertyOp49
 70
     0
102
RTVSPropertyOp50
 70
     0
102
RTVSPropertyOp51
 70
     0
102
RTVSPropertyOp52
 70
     0
102
RTVSPropertyOp53
 70
     0
102
RTVSPropertyOp54
 70
     0
102
RTVSPropertyOp55
 70
     0
102
RTVSPropertyOp56
 70
     0
102
RTVSPropertyOp57
 70
     0
102
RTVSPropertyOp58
 70
     0
102
RTVSPropertyOp59
 70
     0
102
RTVSPropertyOp60
 70
     0
102
RTVSPropertyOp61
 70
     0
102
RTVSPropertyOp62
 70
     0
  0
XRECORD
  5
7EA
102
{ACAD_REACTORS
330
7E9
102
}
330
7E9
100
AcDbXrecord
280
     1
102
RTVSPost2010Prop28
280
     0
102
RTVSPost2010PropOp28
 70
     1
102
RTVSPost2010Prop29
280
     1
102
RTVSPost2010PropOp29
 70
     1
102
RTVSPost2010Prop30
280
     1
102
RTVSPost2010PropOp30
 70
     1
102
RTVSPost2010Prop31
280
     0
102
RTVSPost2010PropOp31
 70
     1
102
RTVSPost2010Prop32
280
     0
102
RTVSPost2010PropOp32
 70
     1
102
RTVSPost2010Prop33
280
     0
102
RTVSPost2010PropOp33
 70
     1
102
RTVSPost2010Prop34
280
     0
102
RTVSPost2010PropOp34
 70
     1
102
RTVSPost2010Prop35
280
     0
102
RTVSPost2010PropOp35
 70
     1
102
RTVSPost2010Prop36
280
     0
102
RTVSPost2010PropOp36
 70
     1
102
RTVSPost2010Prop37
 90
       50
102
RTVSPost2010PropOp37
 70
     1
102
RTVSPost2010Prop38
140
0.0
102
RTVSPost2010PropOp38
 70
     1
102
RTVSPost2010Prop39
140
1.0
102
RTVSPost2010PropOp39
 70
     1
102
RTVSPost2010Prop40
 90
        0
102
RTVSPost2010PropOp40
 70
     1
102
RTVSPost2010Prop41ColorIndex
 90
       18
102
RTVSPost2010Prop41ColorRGB
 90
        0
102
RTVSPost2010PropOp41
 70
     1
102
RTVSPost2010Prop42
 90
       50
102
RTVSPost2010PropOp42
 70
     1
102
RTVSPost2010Prop43
 90
        3
102
RTVSPost2010PropOp43
 70
     1
102
RTVSPost2010Prop44ColorIndex
 90
        5
102
RTVSPost2010Prop44ColorRGB
 90
      255
102
RTVSPost2010PropOp44
 70
     1
102
RTVSPost2010Prop45
280
     0
102
RTVSPost2010PropOp45
 70
     1
102
RTVSPost2010Prop46
 90
       50
102
RTVSPost2010PropOp46
 70
     1
102
RTVSPost2010Prop47
 90
       50
102
RTVSPost2010PropOp47
 70
     1
102
RTVSPost2010Prop48
 90
       50
102
RTVSPost2010PropOp48
 70
     1
102
RTVSPost2010Prop49
280
     0
102
RTVSPost2010PropOp49
 70
     1
102
RTVSPost2010Prop50
 90
       50
102
RTVSPost2010PropOp50
 70
     1
102
RTVSPost2010Prop51ColorIndex
 90
      256
102
RTVSPost2010Prop51ColorRGB
 90
-16777216
102
RTVSPost2010PropOp51
 70
     0
102
RTVSPost2010Prop52
140
1.0
102
RTVSPost2010PropOp52
 70
     0
102
RTVSPost2010Prop53
 90
        2
102
RTVSPost2010PropOp53
 70
     1
102
RTVSPost2010Prop54
  1
strokes_ogs.tif
102
RTVSPost2010PropOp54
 70
     1
102
RTVSPost2010Prop55
280
     0
102
RTVSPost2010PropOp55
 70
     1
102
RTVSPost2010Prop56
140
1.0
102
RTVSPost2010PropOp56
 70
     1
102
RTVSPost2010Prop57
140
1.0
102
RTVSPost2010PropOp57
 70
     1
102
RTVSPropertyOp0
 70
     1
102
RTVSPropertyOp1
 70
     1
102
RTVSPropertyOp2
 70
     1
102
RTVSPropertyOp3
 70
     1
102
RTVSPropertyOp4
 70
     1
102
RTVSPropertyOp5
 70
     1
102
RTVSPropertyOp6
 70
     1
102
RTVSPropertyOp7
 70
     1
102
RTVSPropertyOp8
 70
     1
102
RTVSPropertyOp9
 70
     1
102
RTVSPropertyOp10
 70
     1
102
RTVSPropertyOp11
 70
     1
102
RTVSPropertyOp12
 70
     1
102
RTVSPropertyOp13
 70
     1
102
RTVSPropertyOp14
 70
     1
102
RTVSPropertyOp15
 70
     1
102
RTVSPropertyOp16
 70
     1
102
RTVSPropertyOp17
 70
     1
102
RTVSPropertyOp18
 70
     1
102
RTVSPropertyOp19
 70
     1
102
RTVSPropertyOp20
 70
     1
102
RTVSPropertyOp21
 70
     1
102
RTVSPropertyOp22
 70
     1
102
RTVSPropertyOp23
 70
     1
102
RTVSPropertyOp24
 70
     1
102
RTVSPropertyOp25
 70
     1
102
RTVSPropertyOp26
 70
     1
102
RTVSPropertyOp27
 70
     1
102
RTVSPropertyOp28
 70
     1
102
RTVSPropertyOp29
 70
     1
102
RTVSPropertyOp30
 70
     1
102
RTVSPropertyOp31
 70
     1
102
RTVSPropertyOp32
 70
     1
102
RTVSPropertyOp33
 70
     1
102
RTVSPropertyOp34
 70
     1
102
RTVSPropertyOp35
 70
     1
102
RTVSPropertyOp36
 70
     1
102
RTVSPropertyOp37
 70
     1
102
RTVSPropertyOp38
 70
     1
102
RTVSPropertyOp39
 70
     1
102
RTVSPropertyOp40
 70
     1
102
RTVSPropertyOp41
 70
     1
102
RTVSPropertyOp42
 70
     1
102
RTVSPropertyOp43
 70
     1
102
RTVSPropertyOp44
 70
     1
102
RTVSPropertyOp45
 70
     1
102
RTVSPropertyOp46
 70
     1
102
RTVSPropertyOp47
 70
     1
102
RTVSPropertyOp48
 70
     1
102
RTVSPropertyOp49
 70
     1
102
RTVSPropertyOp50
 70
     1
102
RTVSPropertyOp51
 70
     0
102
RTVSPropertyOp52
 70
     0
102
RTVSPropertyOp53
 70
     1
102
RTVSPropertyOp54
 70
     1
102
RTVSPropertyOp55
 70
     1
102
RTVSPropertyOp56
 70
     1
102
RTVSPropertyOp57
 70
     1
102
RTVSPropertyOp58
 70
     1
102
RTVSPropertyOp59
 70
     1
102
RTVSPropertyOp60
 70
     1
102
RTVSPropertyOp61
 70
     1
102
RTVSPropertyOp62
 70
     1
  0
XRECORD
  5
7CE
102
{ACAD_REACTORS
330
7CD
102
}
330
7CD
100
AcDbXrecord
280
     1
102
RTVSPost2010Prop28
280
     0
102
RTVSPost2010PropOp28
 70
     1
102
RTVSPost2010Prop29
280
     1
102
RTVSPost2010PropOp29
 70
     1
102
RTVSPost2010Prop30
280
     1
102
RTVSPost2010PropOp30
 70
     1
102
RTVSPost2010Prop31
280
     0
102
RTVSPost2010PropOp31
 70
     1
102
RTVSPost2010Prop32
280
     0
102
RTVSPost2010PropOp32
 70
     1
102
RTVSPost2010Prop33
280
     0
102
RTVSPost2010PropOp33
 70
     1
102
RTVSPost2010Prop34
280
     0
102
RTVSPost2010PropOp34
 70
     1
102
RTVSPost2010Prop35
280
     0
102
RTVSPost2010PropOp35
 70
     1
102
RTVSPost2010Prop36
280
     0
102
RTVSPost2010PropOp36
 70
     1
102
RTVSPost2010Prop37
 90
       50
102
RTVSPost2010PropOp37
 70
     1
102
RTVSPost2010Prop38
140
0.0
102
RTVSPost2010PropOp38
 70
     1
102
RTVSPost2010Prop39
140
1.0
102
RTVSPost2010PropOp39
 70
     1
102
RTVSPost2010Prop40
 90
        0
102
RTVSPost2010PropOp40
 70
     1
102
RTVSPost2010Prop41ColorIndex
 90
       18
102
RTVSPost2010Prop41ColorRGB
 90
        0
102
RTVSPost2010PropOp41
 70
     1
102
RTVSPost2010Prop42
 90
       50
102
RTVSPost2010PropOp42
 70
     1
102
RTVSPost2010Prop43
 90
        3
102
RTVSPost2010PropOp43
 70
     1
102
RTVSPost2010Prop44ColorIndex
 90
        5
102
RTVSPost2010Prop44ColorRGB
 90
      255
102
RTVSPost2010PropOp44
 70
     1
102
RTVSPost2010Prop45
280
     0
102
RTVSPost2010PropOp45
 70
     1
102
RTVSPost2010Prop46
 90
       50
102
RTVSPost2010PropOp46
 70
     1
102
RTVSPost2010Prop47
 90
       50
102
RTVSPost2010PropOp47
 70
     1
102
RTVSPost2010Prop48
 90
       50
102
RTVSPost2010PropOp48
 70
     1
102
RTVSPost2010Prop49
280
     0
102
RTVSPost2010PropOp49
 70
     1
102
RTVSPost2010Prop50
 90
       50
102
RTVSPost2010PropOp50
 70
     1
102
RTVSPost2010Prop51ColorIndex
 90
      256
102
RTVSPost2010Prop51ColorRGB
 90
-16777216
102
RTVSPost2010PropOp51
 70
     0
102
RTVSPost2010Prop52
140
1.0
102
RTVSPost2010PropOp52
 70
     0
102
RTVSPost2010Prop53
 90
        2
102
RTVSPost2010PropOp53
 70
     1
102
RTVSPost2010Prop54
  1
strokes_ogs.tif
102
RTVSPost2010PropOp54
 70
     1
102
RTVSPost2010Prop55
280
     0
102
RTVSPost2010PropOp55
 70
     1
102
RTVSPost2010Prop56
140
1.0
102
RTVSPost2010PropOp56
 70
     1
102
RTVSPost2010Prop57
140
1.0
102
RTVSPost2010PropOp57
 70
     1
102
RTVSPropertyOp0
 70
     1
102
RTVSPropertyOp1
 70
     1
102
RTVSPropertyOp2
 70
     1
102
RTVSPropertyOp3
 70
     1
102
RTVSPropertyOp4
 70
     1
102
RTVSPropertyOp5
 70
     1
102
RTVSPropertyOp6
 70
     1
102
RTVSPropertyOp7
 70
     1
102
RTVSPropertyOp8
 70
     1
102
RTVSPropertyOp9
 70
     1
102
RTVSPropertyOp10
 70
     1
102
RTVSPropertyOp11
 70
     1
102
RTVSPropertyOp12
 70
     1
102
RTVSPropertyOp13
 70
     1
102
RTVSPropertyOp14
 70
     1
102
RTVSPropertyOp15
 70
     1
102
RTVSPropertyOp16
 70
     1
102
RTVSPropertyOp17
 70
     1
102
RTVSPropertyOp18
 70
     1
102
RTVSPropertyOp19
 70
     1
102
RTVSPropertyOp20
 70
     1
102
RTVSPropertyOp21
 70
     1
102
RTVSPropertyOp22
 70
     1
102
RTVSPropertyOp23
 70
     1
102
RTVSPropertyOp24
 70
     1
102
RTVSPropertyOp25
 70
     1
102
RTVSPropertyOp26
 70
     1
102
RTVSPropertyOp27
 70
     1
102
RTVSPropertyOp28
 70
     1
102
RTVSPropertyOp29
 70
     1
102
RTVSPropertyOp30
 70
     1
102
RTVSPropertyOp31
 70
     1
102
RTVSPropertyOp32
 70
     1
102
RTVSPropertyOp33
 70
     1
102
RTVSPropertyOp34
 70
     1
102
RTVSPropertyOp35
 70
     1
102
RTVSPropertyOp36
 70
     1
102
RTVSPropertyOp37
 70
     1
102
RTVSPropertyOp38
 70
     1
102
RTVSPropertyOp39
 70
     1
102
RTVSPropertyOp40
 70
     1
102
RTVSPropertyOp41
 70
     1
102
RTVSPropertyOp42
 70
     1
102
RTVSPropertyOp43
 70
     1
102
RTVSPropertyOp44
 70
     1
102
RTVSPropertyOp45
 70
     1
102
RTVSPropertyOp46
 70
     1
102
RTVSPropertyOp47
 70
     1
102
RTVSPropertyOp48
 70
     1
102
RTVSPropertyOp49
 70
     1
102
RTVSPropertyOp50
 70
     1
102
RTVSPropertyOp51
 70
     0
102
RTVSPropertyOp52
 70
     0
102
RTVSPropertyOp53
 70
     1
102
RTVSPropertyOp54
 70
     1
102
RTVSPropertyOp55
 70
     1
102
RTVSPropertyOp56
 70
     1
102
RTVSPropertyOp57
 70
     1
102
RTVSPropertyOp58
 70
     1
102
RTVSPropertyOp59
 70
     1
102
RTVSPropertyOp60
 70
     1
102
RTVSPropertyOp61
 70
     1
102
RTVSPropertyOp62
 70
     1
  0
XRECORD
  5
7D0
102
{ACAD_REACTORS
330
7CF
102
}
330
7CF
100
AcDbXrecord
280
     1
102
RTVSPost2010Prop28
280
     0
102
RTVSPost2010PropOp28
 70
     1
102
RTVSPost2010Prop29
280
     1
102
RTVSPost2010PropOp29
 70
     1
102
RTVSPost2010Prop30
280
     1
102
RTVSPost2010PropOp30
 70
     1
102
RTVSPost2010Prop31
280
     0
102
RTVSPost2010PropOp31
 70
     1
102
RTVSPost2010Prop32
280
     0
102
RTVSPost2010PropOp32
 70
     1
102
RTVSPost2010Prop33
280
     0
102
RTVSPost2010PropOp33
 70
     1
102
RTVSPost2010Prop34
280
     0
102
RTVSPost2010PropOp34
 70
     1
102
RTVSPost2010Prop35
280
     0
102
RTVSPost2010PropOp35
 70
     1
102
RTVSPost2010Prop36
280
     0
102
RTVSPost2010PropOp36
 70
     1
102
RTVSPost2010Prop37
 90
       50
102
RTVSPost2010PropOp37
 70
     1
102
RTVSPost2010Prop38
140
0.0
102
RTVSPost2010PropOp38
 70
     1
102
RTVSPost2010Prop39
140
1.0
102
RTVSPost2010PropOp39
 70
     1
102
RTVSPost2010Prop40
 90
        0
102
RTVSPost2010PropOp40
 70
     1
102
RTVSPost2010Prop41ColorIndex
 90
       18
102
RTVSPost2010Prop41ColorRGB
 90
        0
102
RTVSPost2010PropOp41
 70
     1
102
RTVSPost2010Prop42
 90
       50
102
RTVSPost2010PropOp42
 70
     1
102
RTVSPost2010Prop43
 90
        3
102
RTVSPost2010PropOp43
 70
     1
102
RTVSPost2010Prop44ColorIndex
 90
        5
102
RTVSPost2010Prop44ColorRGB
 90
      255
102
RTVSPost2010PropOp44
 70
     1
102
RTVSPost2010Prop45
280
     0
102
RTVSPost2010PropOp45
 70
     1
102
RTVSPost2010Prop46
 90
       50
102
RTVSPost2010PropOp46
 70
     1
102
RTVSPost2010Prop47
 90
       50
102
RTVSPost2010PropOp47
 70
     1
102
RTVSPost2010Prop48
 90
       50
102
RTVSPost2010PropOp48
 70
     1
102
RTVSPost2010Prop49
280
     0
102
RTVSPost2010PropOp49
 70
     1
102
RTVSPost2010Prop50
 90
       50
102
RTVSPost2010PropOp50
 70
     1
102
RTVSPost2010Prop51ColorIndex
 90
      256
102
RTVSPost2010Prop51ColorRGB
 90
-16777216
102
RTVSPost2010PropOp51
 70
     0
102
RTVSPost2010Prop52
140
1.0
102
RTVSPost2010PropOp52
 70
     0
102
RTVSPost2010Prop53
 90
        2
102
RTVSPost2010PropOp53
 70
     1
102
RTVSPost2010Prop54
  1
strokes_ogs.tif
102
RTVSPost2010PropOp54
 70
     1
102
RTVSPost2010Prop55
280
     0
102
RTVSPost2010PropOp55
 70
     1
102
RTVSPost2010Prop56
140
1.0
102
RTVSPost2010PropOp56
 70
     1
102
RTVSPost2010Prop57
140
1.0
102
RTVSPost2010PropOp57
 70
     1
102
RTVSPropertyOp0
 70
     1
102
RTVSPropertyOp1
 70
     1
102
RTVSPropertyOp2
 70
     1
102
RTVSPropertyOp3
 70
     1
102
RTVSPropertyOp4
 70
     1
102
RTVSPropertyOp5
 70
     1
102
RTVSPropertyOp6
 70
     1
102
RTVSPropertyOp7
 70
     1
102
RTVSPropertyOp8
 70
     1
102
RTVSPropertyOp9
 70
     1
102
RTVSPropertyOp10
 70
     1
102
RTVSPropertyOp11
 70
     1
102
RTVSPropertyOp12
 70
     1
102
RTVSPropertyOp13
 70
     1
102
RTVSPropertyOp14
 70
     1
102
RTVSPropertyOp15
 70
     1
102
RTVSPropertyOp16
 70
     1
102
RTVSPropertyOp17
 70
     1
102
RTVSPropertyOp18
 70
     1
102
RTVSPropertyOp19
 70
     1
102
RTVSPropertyOp20
 70
     1
102
RTVSPropertyOp21
 70
     1
102
RTVSPropertyOp22
 70
     1
102
RTVSPropertyOp23
 70
     1
102
RTVSPropertyOp24
 70
     1
102
RTVSPropertyOp25
 70
     1
102
RTVSPropertyOp26
 70
     1
102
RTVSPropertyOp27
 70
     1
102
RTVSPropertyOp28
 70
     1
102
RTVSPropertyOp29
 70
     1
102
RTVSPropertyOp30
 70
     1
102
RTVSPropertyOp31
 70
     1
102
RTVSPropertyOp32
 70
     1
102
RTVSPropertyOp33
 70
     1
102
RTVSPropertyOp34
 70
     1
102
RTVSPropertyOp35
 70
     1
102
RTVSPropertyOp36
 70
     1
102
RTVSPropertyOp37
 70
     1
102
RTVSPropertyOp38
 70
     1
102
RTVSPropertyOp39
 70
     1
102
RTVSPropertyOp40
 70
     1
102
RTVSPropertyOp41
 70
     1
102
RTVSPropertyOp42
 70
     1
102
RTVSPropertyOp43
 70
     1
102
RTVSPropertyOp44
 70
     1
102
RTVSPropertyOp45
 70
     1
102
RTVSPropertyOp46
 70
     1
102
RTVSPropertyOp47
 70
     1
102
RTVSPropertyOp48
 70
     1
102
RTVSPropertyOp49
 70
     1
102
RTVSPropertyOp50
 70
     1
102
RTVSPropertyOp51
 70
     0
102
RTVSPropertyOp52
 70
     0
102
RTVSPropertyOp53
 70
     1
102
RTVSPropertyOp54
 70
     1
102
RTVSPropertyOp55
 70
     1
102
RTVSPropertyOp56
 70
     1
102
RTVSPropertyOp57
 70
     1
102
RTVSPropertyOp58
 70
     1
102
RTVSPropertyOp59
 70
     1
102
RTVSPropertyOp60
 70
     1
102
RTVSPropertyOp61
 70
     1
102
RTVSPropertyOp62
 70
     1
  0
XRECORD
  5
7D2
102
{ACAD_REACTORS
330
7D1
102
}
330
7D1
100
AcDbXrecord
280
     1
102
RTVSPost2010Prop28
280
     0
102
RTVSPost2010PropOp28
 70
     1
102
RTVSPost2010Prop29
280
     1
102
RTVSPost2010PropOp29
 70
     1
102
RTVSPost2010Prop30
280
     1
102
RTVSPost2010PropOp30
 70
     1
102
RTVSPost2010Prop31
280
     0
102
RTVSPost2010PropOp31
 70
     1
102
RTVSPost2010Prop32
280
     0
102
RTVSPost2010PropOp32
 70
     1
102
RTVSPost2010Prop33
280
     0
102
RTVSPost2010PropOp33
 70
     1
102
RTVSPost2010Prop34
280
     0
102
RTVSPost2010PropOp34
 70
     1
102
RTVSPost2010Prop35
280
     0
102
RTVSPost2010PropOp35
 70
     1
102
RTVSPost2010Prop36
280
     0
102
RTVSPost2010PropOp36
 70
     1
102
RTVSPost2010Prop37
 90
       50
102
RTVSPost2010PropOp37
 70
     1
102
RTVSPost2010Prop38
140
0.0
102
RTVSPost2010PropOp38
 70
     1
102
RTVSPost2010Prop39
140
1.0
102
RTVSPost2010PropOp39
 70
     1
102
RTVSPost2010Prop40
 90
        0
102
RTVSPost2010PropOp40
 70
     1
102
RTVSPost2010Prop41ColorIndex
 90
       18
102
RTVSPost2010Prop41ColorRGB
 90
        0
102
RTVSPost2010PropOp41
 70
     1
102
RTVSPost2010Prop42
 90
       50
102
RTVSPost2010PropOp42
 70
     1
102
RTVSPost2010Prop43
 90
        3
102
RTVSPost2010PropOp43
 70
     1
102
RTVSPost2010Prop44ColorIndex
 90
        5
102
RTVSPost2010Prop44ColorRGB
 90
      255
102
RTVSPost2010PropOp44
 70
     1
102
RTVSPost2010Prop45
280
     0
102
RTVSPost2010PropOp45
 70
     1
102
RTVSPost2010Prop46
 90
       50
102
RTVSPost2010PropOp46
 70
     1
102
RTVSPost2010Prop47
 90
       50
102
RTVSPost2010PropOp47
 70
     1
102
RTVSPost2010Prop48
 90
       50
102
RTVSPost2010PropOp48
 70
     1
102
RTVSPost2010Prop49
280
     0
102
RTVSPost2010PropOp49
 70
     1
102
RTVSPost2010Prop50
 90
       50
102
RTVSPost2010PropOp50
 70
     1
102
RTVSPost2010Prop51ColorIndex
 90
      256
102
RTVSPost2010Prop51ColorRGB
 90
-16777216
102
RTVSPost2010PropOp51
 70
     0
102
RTVSPost2010Prop52
140
1.0
102
RTVSPost2010PropOp52
 70
     0
102
RTVSPost2010Prop53
 90
        2
102
RTVSPost2010PropOp53
 70
     1
102
RTVSPost2010Prop54
  1
strokes_ogs.tif
102
RTVSPost2010PropOp54
 70
     1
102
RTVSPost2010Prop55
280
     0
102
RTVSPost2010PropOp55
 70
     1
102
RTVSPost2010Prop56
140
1.0
102
RTVSPost2010PropOp56
 70
     1
102
RTVSPost2010Prop57
140
1.0
102
RTVSPost2010PropOp57
 70
     1
102
RTVSPropertyOp0
 70
     1
102
RTVSPropertyOp1
 70
     1
102
RTVSPropertyOp2
 70
     1
102
RTVSPropertyOp3
 70
     1
102
RTVSPropertyOp4
 70
     1
102
RTVSPropertyOp5
 70
     1
102
RTVSPropertyOp6
 70
     1
102
RTVSPropertyOp7
 70
     1
102
RTVSPropertyOp8
 70
     1
102
RTVSPropertyOp9
 70
     1
102
RTVSPropertyOp10
 70
     1
102
RTVSPropertyOp11
 70
     1
102
RTVSPropertyOp12
 70
     1
102
RTVSPropertyOp13
 70
     1
102
RTVSPropertyOp14
 70
     1
102
RTVSPropertyOp15
 70
     1
102
RTVSPropertyOp16
 70
     1
102
RTVSPropertyOp17
 70
     1
102
RTVSPropertyOp18
 70
     1
102
RTVSPropertyOp19
 70
     1
102
RTVSPropertyOp20
 70
     1
102
RTVSPropertyOp21
 70
     1
102
RTVSPropertyOp22
 70
     1
102
RTVSPropertyOp23
 70
     1
102
RTVSPropertyOp24
 70
     1
102
RTVSPropertyOp25
 70
     1
102
RTVSPropertyOp26
 70
     1
102
RTVSPropertyOp27
 70
     1
102
RTVSPropertyOp28
 70
     1
102
RTVSPropertyOp29
 70
     1
102
RTVSPropertyOp30
 70
     1
102
RTVSPropertyOp31
 70
     1
102
RTVSPropertyOp32
 70
     1
102
RTVSPropertyOp33
 70
     1
102
RTVSPropertyOp34
 70
     1
102
RTVSPropertyOp35
 70
     1
102
RTVSPropertyOp36
 70
     1
102
RTVSPropertyOp37
 70
     1
102
RTVSPropertyOp38
 70
     1
102
RTVSPropertyOp39
 70
     1
102
RTVSPropertyOp40
 70
     1
102
RTVSPropertyOp41
 70
     1
102
RTVSPropertyOp42
 70
     1
102
RTVSPropertyOp43
 70
     1
102
RTVSPropertyOp44
 70
     1
102
RTVSPropertyOp45
 70
     1
102
RTVSPropertyOp46
 70
     1
102
RTVSPropertyOp47
 70
     1
102
RTVSPropertyOp48
 70
     1
102
RTVSPropertyOp49
 70
     1
102
RTVSPropertyOp50
 70
     1
102
RTVSPropertyOp51
 70
     0
102
RTVSPropertyOp52
 70
     0
102
RTVSPropertyOp53
 70
     1
102
RTVSPropertyOp54
 70
     1
102
RTVSPropertyOp55
 70
     1
102
RTVSPropertyOp56
 70
     1
102
RTVSPropertyOp57
 70
     1
102
RTVSPropertyOp58
 70
     1
102
RTVSPropertyOp59
 70
     1
102
RTVSPropertyOp60
 70
     1
102
RTVSPropertyOp61
 70
     1
102
RTVSPropertyOp62
 70
     1
  0
XRECORD
  5
7D4
102
{ACAD_REACTORS
330
7D3
102
}
330
7D3
100
AcDbXrecord
280
     1
102
RTVSPost2010Prop28
280
     0
102
RTVSPost2010PropOp28
 70
     1
102
RTVSPost2010Prop29
280
     1
102
RTVSPost2010PropOp29
 70
     1
102
RTVSPost2010Prop30
280
     1
102
RTVSPost2010PropOp30
 70
     1
102
RTVSPost2010Prop31
280
     0
102
RTVSPost2010PropOp31
 70
     1
102
RTVSPost2010Prop32
280
     0
102
RTVSPost2010PropOp32
 70
     1
102
RTVSPost2010Prop33
280
     0
102
RTVSPost2010PropOp33
 70
     1
102
RTVSPost2010Prop34
280
     0
102
RTVSPost2010PropOp34
 70
     1
102
RTVSPost2010Prop35
280
     0
102
RTVSPost2010PropOp35
 70
     1
102
RTVSPost2010Prop36
280
     0
102
RTVSPost2010PropOp36
 70
     1
102
RTVSPost2010Prop37
 90
       50
102
RTVSPost2010PropOp37
 70
     1
102
RTVSPost2010Prop38
140
0.0
102
RTVSPost2010PropOp38
 70
     1
102
RTVSPost2010Prop39
140
1.0
102
RTVSPost2010PropOp39
 70
     1
102
RTVSPost2010Prop40
 90
        0
102
RTVSPost2010PropOp40
 70
     1
102
RTVSPost2010Prop41ColorIndex
 90
       18
102
RTVSPost2010Prop41ColorRGB
 90
        0
102
RTVSPost2010PropOp41
 70
     1
102
RTVSPost2010Prop42
 90
       50
102
RTVSPost2010PropOp42
 70
     1
102
RTVSPost2010Prop43
 90
        3
102
RTVSPost2010PropOp43
 70
     1
102
RTVSPost2010Prop44ColorIndex
 90
        5
102
RTVSPost2010Prop44ColorRGB
 90
      255
102
RTVSPost2010PropOp44
 70
     1
102
RTVSPost2010Prop45
280
     0
102
RTVSPost2010PropOp45
 70
     1
102
RTVSPost2010Prop46
 90
       50
102
RTVSPost2010PropOp46
 70
     1
102
RTVSPost2010Prop47
 90
       50
102
RTVSPost2010PropOp47
 70
     1
102
RTVSPost2010Prop48
 90
       50
102
RTVSPost2010PropOp48
 70
     1
102
RTVSPost2010Prop49
280
     0
102
RTVSPost2010PropOp49
 70
     1
102
RTVSPost2010Prop50
 90
       50
102
RTVSPost2010PropOp50
 70
     1
102
RTVSPost2010Prop51ColorIndex
 90
      256
102
RTVSPost2010Prop51ColorRGB
 90
-16777216
102
RTVSPost2010PropOp51
 70
     0
102
RTVSPost2010Prop52
140
1.0
102
RTVSPost2010PropOp52
 70
     0
102
RTVSPost2010Prop53
 90
        2
102
RTVSPost2010PropOp53
 70
     1
102
RTVSPost2010Prop54
  1
strokes_ogs.tif
102
RTVSPost2010PropOp54
 70
     1
102
RTVSPost2010Prop55
280
     0
102
RTVSPost2010PropOp55
 70
     1
102
RTVSPost2010Prop56
140
1.0
102
RTVSPost2010PropOp56
 70
     1
102
RTVSPost2010Prop57
140
1.0
102
RTVSPost2010PropOp57
 70
     1
102
RTVSPropertyOp0
 70
     1
102
RTVSPropertyOp1
 70
     1
102
RTVSPropertyOp2
 70
     1
102
RTVSPropertyOp3
 70
     1
102
RTVSPropertyOp4
 70
     1
102
RTVSPropertyOp5
 70
     1
102
RTVSPropertyOp6
 70
     1
102
RTVSPropertyOp7
 70
     1
102
RTVSPropertyOp8
 70
     1
102
RTVSPropertyOp9
 70
     1
102
RTVSPropertyOp10
 70
     1
102
RTVSPropertyOp11
 70
     1
102
RTVSPropertyOp12
 70
     1
102
RTVSPropertyOp13
 70
     1
102
RTVSPropertyOp14
 70
     1
102
RTVSPropertyOp15
 70
     1
102
RTVSPropertyOp16
 70
     1
102
RTVSPropertyOp17
 70
     1
102
RTVSPropertyOp18
 70
     1
102
RTVSPropertyOp19
 70
     1
102
RTVSPropertyOp20
 70
     1
102
RTVSPropertyOp21
 70
     1
102
RTVSPropertyOp22
 70
     1
102
RTVSPropertyOp23
 70
     1
102
RTVSPropertyOp24
 70
     1
102
RTVSPropertyOp25
 70
     1
102
RTVSPropertyOp26
 70
     1
102
RTVSPropertyOp27
 70
     1
102
RTVSPropertyOp28
 70
     1
102
RTVSPropertyOp29
 70
     1
102
RTVSPropertyOp30
 70
     1
102
RTVSPropertyOp31
 70
     1
102
RTVSPropertyOp32
 70
     1
102
RTVSPropertyOp33
 70
     1
102
RTVSPropertyOp34
 70
     1
102
RTVSPropertyOp35
 70
     1
102
RTVSPropertyOp36
 70
     1
102
RTVSPropertyOp37
 70
     1
102
RTVSPropertyOp38
 70
     1
102
RTVSPropertyOp39
 70
     1
102
RTVSPropertyOp40
 70
     1
102
RTVSPropertyOp41
 70
     1
102
RTVSPropertyOp42
 70
     1
102
RTVSPropertyOp43
 70
     1
102
RTVSPropertyOp44
 70
     1
102
RTVSPropertyOp45
 70
     1
102
RTVSPropertyOp46
 70
     1
102
RTVSPropertyOp47
 70
     1
102
RTVSPropertyOp48
 70
     1
102
RTVSPropertyOp49
 70
     1
102
RTVSPropertyOp50
 70
     1
102
RTVSPropertyOp51
 70
     0
102
RTVSPropertyOp52
 70
     0
102
RTVSPropertyOp53
 70
     1
102
RTVSPropertyOp54
 70
     1
102
RTVSPropertyOp55
 70
     1
102
RTVSPropertyOp56
 70
     1
102
RTVSPropertyOp57
 70
     1
102
RTVSPropertyOp58
 70
     1
102
RTVSPropertyOp59
 70
     1
102
RTVSPropertyOp60
 70
     1
102
RTVSPropertyOp61
 70
     1
102
RTVSPropertyOp62
 70
     1
  0
XRECORD
  5
7DC
102
{ACAD_REACTORS
330
7DB
102
}
330
7DB
100
AcDbXrecord
280
     1
102
RTVSPost2010Prop28
280
     0
102
RTVSPost2010PropOp28
 70
     1
102
RTVSPost2010Prop29
280
     1
102
RTVSPost2010PropOp29
 70
     1
102
RTVSPost2010Prop30
280
     1
102
RTVSPost2010PropOp30
 70
     1
102
RTVSPost2010Prop31
280
     0
102
RTVSPost2010PropOp31
 70
     1
102
RTVSPost2010Prop32
280
     0
102
RTVSPost2010PropOp32
 70
     1
102
RTVSPost2010Prop33
280
     0
102
RTVSPost2010PropOp33
 70
     1
102
RTVSPost2010Prop34
280
     0
102
RTVSPost2010PropOp34
 70
     1
102
RTVSPost2010Prop35
280
     0
102
RTVSPost2010PropOp35
 70
     1
102
RTVSPost2010Prop36
280
     0
102
RTVSPost2010PropOp36
 70
     1
102
RTVSPost2010Prop37
 90
       50
102
RTVSPost2010PropOp37
 70
     1
102
RTVSPost2010Prop38
140
0.0
102
RTVSPost2010PropOp38
 70
     1
102
RTVSPost2010Prop39
140
1.0
102
RTVSPost2010PropOp39
 70
     1
102
RTVSPost2010Prop40
 90
        0
102
RTVSPost2010PropOp40
 70
     1
102
RTVSPost2010Prop41ColorIndex
 90
       18
102
RTVSPost2010Prop41ColorRGB
 90
        0
102
RTVSPost2010PropOp41
 70
     1
102
RTVSPost2010Prop42
 90
       50
102
RTVSPost2010PropOp42
 70
     1
102
RTVSPost2010Prop43
 90
        3
102
RTVSPost2010PropOp43
 70
     1
102
RTVSPost2010Prop44ColorIndex
 90
        5
102
RTVSPost2010Prop44ColorRGB
 90
      255
102
RTVSPost2010PropOp44
 70
     1
102
RTVSPost2010Prop45
280
     0
102
RTVSPost2010PropOp45
 70
     1
102
RTVSPost2010Prop46
 90
       50
102
RTVSPost2010PropOp46
 70
     1
102
RTVSPost2010Prop47
 90
       50
102
RTVSPost2010PropOp47
 70
     1
102
RTVSPost2010Prop48
 90
       50
102
RTVSPost2010PropOp48
 70
     1
102
RTVSPost2010Prop49
280
     0
102
RTVSPost2010PropOp49
 70
     1
102
RTVSPost2010Prop50
 90
       50
102
RTVSPost2010PropOp50
 70
     1
102
RTVSPost2010Prop51ColorIndex
 90
      256
102
RTVSPost2010Prop51ColorRGB
 90
-16777216
102
RTVSPost2010PropOp51
 70
     0
102
RTVSPost2010Prop52
140
1.0
102
RTVSPost2010PropOp52
 70
     0
102
RTVSPost2010Prop53
 90
        2
102
RTVSPost2010PropOp53
 70
     1
102
RTVSPost2010Prop54
  1
strokes_ogs.tif
102
RTVSPost2010PropOp54
 70
     1
102
RTVSPost2010Prop55
280
     0
102
RTVSPost2010PropOp55
 70
     1
102
RTVSPost2010Prop56
140
1.0
102
RTVSPost2010PropOp56
 70
     1
102
RTVSPost2010Prop57
140
1.0
102
RTVSPost2010PropOp57
 70
     1
102
RTVSPropertyOp0
 70
     1
102
RTVSPropertyOp1
 70
     1
102
RTVSPropertyOp2
 70
     1
102
RTVSPropertyOp3
 70
     1
102
RTVSPropertyOp4
 70
     1
102
RTVSPropertyOp5
 70
     1
102
RTVSPropertyOp6
 70
     1
102
RTVSPropertyOp7
 70
     1
102
RTVSPropertyOp8
 70
     1
102
RTVSPropertyOp9
 70
     1
102
RTVSPropertyOp10
 70
     1
102
RTVSPropertyOp11
 70
     1
102
RTVSPropertyOp12
 70
     1
102
RTVSPropertyOp13
 70
     1
102
RTVSPropertyOp14
 70
     1
102
RTVSPropertyOp15
 70
     1
102
RTVSPropertyOp16
 70
     1
102
RTVSPropertyOp17
 70
     1
102
RTVSPropertyOp18
 70
     1
102
RTVSPropertyOp19
 70
     1
102
RTVSPropertyOp20
 70
     1
102
RTVSPropertyOp21
 70
     1
102
RTVSPropertyOp22
 70
     1
102
RTVSPropertyOp23
 70
     1
102
RTVSPropertyOp24
 70
     1
102
RTVSPropertyOp25
 70
     1
102
RTVSPropertyOp26
 70
     1
102
RTVSPropertyOp27
 70
     1
102
RTVSPropertyOp28
 70
     1
102
RTVSPropertyOp29
 70
     1
102
RTVSPropertyOp30
 70
     1
102
RTVSPropertyOp31
 70
     1
102
RTVSPropertyOp32
 70
     1
102
RTVSPropertyOp33
 70
     1
102
RTVSPropertyOp34
 70
     1
102
RTVSPropertyOp35
 70
     1
102
RTVSPropertyOp36
 70
     1
102
RTVSPropertyOp37
 70
     1
102
RTVSPropertyOp38
 70
     1
102
RTVSPropertyOp39
 70
     1
102
RTVSPropertyOp40
 70
     1
102
RTVSPropertyOp41
 70
     1
102
RTVSPropertyOp42
 70
     1
102
RTVSPropertyOp43
 70
     1
102
RTVSPropertyOp44
 70
     1
102
RTVSPropertyOp45
 70
     1
102
RTVSPropertyOp46
 70
     1
102
RTVSPropertyOp47
 70
     1
102
RTVSPropertyOp48
 70
     1
102
RTVSPropertyOp49
 70
     1
102
RTVSPropertyOp50
 70
     1
102
RTVSPropertyOp51
 70
     0
102
RTVSPropertyOp52
 70
     0
102
RTVSPropertyOp53
 70
     1
102
RTVSPropertyOp54
 70
     1
102
RTVSPropertyOp55
 70
     1
102
RTVSPropertyOp56
 70
     1
102
RTVSPropertyOp57
 70
     1
102
RTVSPropertyOp58
 70
     1
102
RTVSPropertyOp59
 70
     1
102
RTVSPropertyOp60
 70
     1
102
RTVSPropertyOp61
 70
     1
102
RTVSPropertyOp62
 70
     1
  0
XRECORD
  5
7F8
102
{ACAD_REACTORS
330
7F7
102
}
330
7F7
100
AcDbXrecord
280
     1
102
RTVSPost2010Prop28
280
     0
102
RTVSPost2010PropOp28
 70
     0
102
RTVSPost2010Prop29
280
     1
102
RTVSPost2010PropOp29
 70
     0
102
RTVSPost2010Prop30
280
     1
102
RTVSPost2010PropOp30
 70
     0
102
RTVSPost2010Prop31
280
     0
102
RTVSPost2010PropOp31
 70
     0
102
RTVSPost2010Prop32
280
     0
102
RTVSPost2010PropOp32
 70
     0
102
RTVSPost2010Prop33
280
     0
102
RTVSPost2010PropOp33
 70
     0
102
RTVSPost2010Prop34
280
     0
102
RTVSPost2010PropOp34
 70
     0
102
RTVSPost2010Prop35
280
     0
102
RTVSPost2010PropOp35
 70
     0
102
RTVSPost2010Prop36
280
     0
102
RTVSPost2010PropOp36
 70
     0
102
RTVSPost2010Prop37
 90
       50
102
RTVSPost2010PropOp37
 70
     0
102
RTVSPost2010Prop38
140
0.0
102
RTVSPost2010PropOp38
 70
     0
102
RTVSPost2010Prop39
140
1.0
102
RTVSPost2010PropOp39
 70
     0
102
RTVSPost2010Prop40
 90
        0
102
RTVSPost2010PropOp40
 70
     0
102
RTVSPost2010Prop41ColorIndex
 90
       18
102
RTVSPost2010Prop41ColorRGB
 90
        0
102
RTVSPost2010PropOp41
 70
     0
102
RTVSPost2010Prop42
 90
       50
102
RTVSPost2010PropOp42
 70
     0
102
RTVSPost2010Prop43
 90
        3
102
RTVSPost2010PropOp43
 70
     0
102
RTVSPost2010Prop44ColorIndex
 90
        5
102
RTVSPost2010Prop44ColorRGB
 90
      255
102
RTVSPost2010PropOp44
 70
     0
102
RTVSPost2010Prop45
280
     0
102
RTVSPost2010PropOp45
 70
     0
102
RTVSPost2010Prop46
 90
       50
102
RTVSPost2010PropOp46
 70
     0
102
RTVSPost2010Prop47
 90
       50
102
RTVSPost2010PropOp47
 70
     0
102
RTVSPost2010Prop48
 90
       50
102
RTVSPost2010PropOp48
 70
     0
102
RTVSPost2010Prop49
280
     0
102
RTVSPost2010PropOp49
 70
     0
102
RTVSPost2010Prop50
 90
       50
102
RTVSPost2010PropOp50
 70
     0
102
RTVSPost2010Prop51ColorIndex
 90
      256
102
RTVSPost2010Prop51ColorRGB
 90
-16777216
102
RTVSPost2010PropOp51
 70
     0
102
RTVSPost2010Prop52
140
1.0
102
RTVSPost2010PropOp52
 70
     0
102
RTVSPost2010Prop53
 90
        2
102
RTVSPost2010PropOp53
 70
     0
102
RTVSPost2010Prop54
  1
strokes_ogs.tif
102
RTVSPost2010PropOp54
 70
     0
102
RTVSPost2010Prop55
280
     0
102
RTVSPost2010PropOp55
 70
     0
102
RTVSPost2010Prop56
140
1.0
102
RTVSPost2010PropOp56
 70
     0
102
RTVSPost2010Prop57
140
1.0
102
RTVSPost2010PropOp57
 70
     0
102
RTVSPropertyOp0
 70
     0
102
RTVSPropertyOp1
 70
     0
102
RTVSPropertyOp2
 70
     0
102
RTVSPropertyOp3
 70
     0
102
RTVSPropertyOp4
 70
     0
102
RTVSPropertyOp5
 70
     0
102
RTVSPropertyOp6
 70
     0
102
RTVSPropertyOp7
 70
     0
102
RTVSPropertyOp8
 70
     0
102
RTVSPropertyOp9
 70
     0
102
RTVSPropertyOp10
 70
     0
102
RTVSPropertyOp11
 70
     0
102
RTVSPropertyOp12
 70
     0
102
RTVSPropertyOp13
 70
     0
102
RTVSPropertyOp14
 70
     2
102
RTVSPropertyOp15
 70
     0
102
RTVSPropertyOp16
 70
     0
102
RTVSPropertyOp17
 70
     0
102
RTVSPropertyOp18
 70
     0
102
RTVSPropertyOp19
 70
     0
102
RTVSPropertyOp20
 70
     0
102
RTVSPropertyOp21
 70
     0
102
RTVSPropertyOp22
 70
     0
102
RTVSPropertyOp23
 70
     0
102
RTVSPropertyOp24
 70
     0
102
RTVSPropertyOp25
 70
     0
102
RTVSPropertyOp26
 70
     0
102
RTVSPropertyOp27
 70
     0
102
RTVSPropertyOp28
 70
     0
102
RTVSPropertyOp29
 70
     0
102
RTVSPropertyOp30
 70
     0
102
RTVSPropertyOp31
 70
     0
102
RTVSPropertyOp32
 70
     0
102
RTVSPropertyOp33
 70
     0
102
RTVSPropertyOp34
 70
     0
102
RTVSPropertyOp35
 70
     0
102
RTVSPropertyOp36
 70
     0
102
RTVSPropertyOp37
 70
     0
102
RTVSPropertyOp38
 70
     0
102
RTVSPropertyOp39
 70
     0
102
RTVSPropertyOp40
 70
     0
102
RTVSPropertyOp41
 70
     0
102
RTVSPropertyOp42
 70
     0
102
RTVSPropertyOp43
 70
     0
102
RTVSPropertyOp44
 70
     0
102
RTVSPropertyOp45
 70
     0
102
RTVSPropertyOp46
 70
     0
102
RTVSPropertyOp47
 70
     0
102
RTVSPropertyOp48
 70
     0
102
RTVSPropertyOp49
 70
     0
102
RTVSPropertyOp50
 70
     0
102
RTVSPropertyOp51
 70
     0
102
RTVSPropertyOp52
 70
     0
102
RTVSPropertyOp53
 70
     0
102
RTVSPropertyOp54
 70
     0
102
RTVSPropertyOp55
 70
     0
102
RTVSPropertyOp56
 70
     0
102
RTVSPropertyOp57
 70
     0
102
RTVSPropertyOp58
 70
     0
102
RTVSPropertyOp59
 70
     0
102
RTVSPropertyOp60
 70
     0
102
RTVSPropertyOp61
 70
     0
102
RTVSPropertyOp62
 70
     0
  0
XRECORD
  5
7E8
102
{ACAD_REACTORS
330
7E7
102
}
330
7E7
100
AcDbXrecord
280
     1
102
RTVSPost2010Prop28
280
     0
102
RTVSPost2010PropOp28
 70
     1
102
RTVSPost2010Prop29
280
     1
102
RTVSPost2010PropOp29
 70
     1
102
RTVSPost2010Prop30
280
     1
102
RTVSPost2010PropOp30
 70
     1
102
RTVSPost2010Prop31
280
     0
102
RTVSPost2010PropOp31
 70
     1
102
RTVSPost2010Prop32
280
     0
102
RTVSPost2010PropOp32
 70
     1
102
RTVSPost2010Prop33
280
     0
102
RTVSPost2010PropOp33
 70
     1
102
RTVSPost2010Prop34
280
     0
102
RTVSPost2010PropOp34
 70
     1
102
RTVSPost2010Prop35
280
     0
102
RTVSPost2010PropOp35
 70
     1
102
RTVSPost2010Prop36
280
     0
102
RTVSPost2010PropOp36
 70
     1
102
RTVSPost2010Prop37
 90
       50
102
RTVSPost2010PropOp37
 70
     1
102
RTVSPost2010Prop38
140
0.0
102
RTVSPost2010PropOp38
 70
     1
102
RTVSPost2010Prop39
140
1.0
102
RTVSPost2010PropOp39
 70
     1
102
RTVSPost2010Prop40
 90
        0
102
RTVSPost2010PropOp40
 70
     1
102
RTVSPost2010Prop41ColorIndex
 90
       18
102
RTVSPost2010Prop41ColorRGB
 90
        0
102
RTVSPost2010PropOp41
 70
     1
102
RTVSPost2010Prop42
 90
       50
102
RTVSPost2010PropOp42
 70
     1
102
RTVSPost2010Prop43
 90
        3
102
RTVSPost2010PropOp43
 70
     1
102
RTVSPost2010Prop44ColorIndex
 90
        5
102
RTVSPost2010Prop44ColorRGB
 90
      255
102
RTVSPost2010PropOp44
 70
     1
102
RTVSPost2010Prop45
280
     0
102
RTVSPost2010PropOp45
 70
     1
102
RTVSPost2010Prop46
 90
       50
102
RTVSPost2010PropOp46
 70
     1
102
RTVSPost2010Prop47
 90
       50
102
RTVSPost2010PropOp47
 70
     1
102
RTVSPost2010Prop48
 90
       50
102
RTVSPost2010PropOp48
 70
     1
102
RTVSPost2010Prop49
280
     0
102
RTVSPost2010PropOp49
 70
     1
102
RTVSPost2010Prop50
 90
       50
102
RTVSPost2010PropOp50
 70
     1
102
RTVSPost2010Prop51ColorIndex
 90
      256
102
RTVSPost2010Prop51ColorRGB
 90
-16777216
102
RTVSPost2010PropOp51
 70
     0
102
RTVSPost2010Prop52
140
1.0
102
RTVSPost2010PropOp52
 70
     0
102
RTVSPost2010Prop53
 90
        2
102
RTVSPost2010PropOp53
 70
     1
102
RTVSPost2010Prop54
  1
strokes_ogs.tif
102
RTVSPost2010PropOp54
 70
     1
102
RTVSPost2010Prop55
280
     0
102
RTVSPost2010PropOp55
 70
     1
102
RTVSPost2010Prop56
140
1.0
102
RTVSPost2010PropOp56
 70
     1
102
RTVSPost2010Prop57
140
1.0
102
RTVSPost2010PropOp57
 70
     1
102
RTVSPropertyOp0
 70
     1
102
RTVSPropertyOp1
 70
     1
102
RTVSPropertyOp2
 70
     1
102
RTVSPropertyOp3
 70
     1
102
RTVSPropertyOp4
 70
     1
102
RTVSPropertyOp5
 70
     1
102
RTVSPropertyOp6
 70
     1
102
RTVSPropertyOp7
 70
     1
102
RTVSPropertyOp8
 70
     1
102
RTVSPropertyOp9
 70
     1
102
RTVSPropertyOp10
 70
     1
102
RTVSPropertyOp11
 70
     1
102
RTVSPropertyOp12
 70
     1
102
RTVSPropertyOp13
 70
     1
102
RTVSPropertyOp14
 70
     1
102
RTVSPropertyOp15
 70
     1
102
RTVSPropertyOp16
 70
     1
102
RTVSPropertyOp17
 70
     1
102
RTVSPropertyOp18
 70
     1
102
RTVSPropertyOp19
 70
     1
102
RTVSPropertyOp20
 70
     1
102
RTVSPropertyOp21
 70
     1
102
RTVSPropertyOp22
 70
     1
102
RTVSPropertyOp23
 70
     1
102
RTVSPropertyOp24
 70
     1
102
RTVSPropertyOp25
 70
     1
102
RTVSPropertyOp26
 70
     1
102
RTVSPropertyOp27
 70
     1
102
RTVSPropertyOp28
 70
     1
102
RTVSPropertyOp29
 70
     1
102
RTVSPropertyOp30
 70
     1
102
RTVSPropertyOp31
 70
     1
102
RTVSPropertyOp32
 70
     1
102
RTVSPropertyOp33
 70
     1
102
RTVSPropertyOp34
 70
     1
102
RTVSPropertyOp35
 70
     1
102
RTVSPropertyOp36
 70
     1
102
RTVSPropertyOp37
 70
     1
102
RTVSPropertyOp38
 70
     1
102
RTVSPropertyOp39
 70
     1
102
RTVSPropertyOp40
 70
     1
102
RTVSPropertyOp41
 70
     1
102
RTVSPropertyOp42
 70
     1
102
RTVSPropertyOp43
 70
     1
102
RTVSPropertyOp44
 70
     1
102
RTVSPropertyOp45
 70
     1
102
RTVSPropertyOp46
 70
     1
102
RTVSPropertyOp47
 70
     1
102
RTVSPropertyOp48
 70
     1
102
RTVSPropertyOp49
 70
     1
102
RTVSPropertyOp50
 70
     1
102
RTVSPropertyOp51
 70
     0
102
RTVSPropertyOp52
 70
     0
102
RTVSPropertyOp53
 70
     1
102
RTVSPropertyOp54
 70
     1
102
RTVSPropertyOp55
 70
     1
102
RTVSPropertyOp56
 70
     1
102
RTVSPropertyOp57
 70
     1
102
RTVSPropertyOp58
 70
     1
102
RTVSPropertyOp59
 70
     1
102
RTVSPropertyOp60
 70
     1
102
RTVSPropertyOp61
 70
     1
102
RTVSPropertyOp62
 70
     1
  0
XRECORD
  5
7FA
102
{ACAD_REACTORS
330
7F9
102
}
330
7F9
100
AcDbXrecord
280
     1
102
RTVSPost2010Prop28
280
     0
102
RTVSPost2010PropOp28
 70
     0
102
RTVSPost2010Prop29
280
     1
102
RTVSPost2010PropOp29
 70
     0
102
RTVSPost2010Prop30
280
     1
102
RTVSPost2010PropOp30
 70
     0
102
RTVSPost2010Prop31
280
     0
102
RTVSPost2010PropOp31
 70
     0
102
RTVSPost2010Prop32
280
     0
102
RTVSPost2010PropOp32
 70
     0
102
RTVSPost2010Prop33
280
     0
102
RTVSPost2010PropOp33
 70
     0
102
RTVSPost2010Prop34
280
     0
102
RTVSPost2010PropOp34
 70
     0
102
RTVSPost2010Prop35
280
     0
102
RTVSPost2010PropOp35
 70
     0
102
RTVSPost2010Prop36
280
     0
102
RTVSPost2010PropOp36
 70
     0
102
RTVSPost2010Prop37
 90
       50
102
RTVSPost2010PropOp37
 70
     0
102
RTVSPost2010Prop38
140
0.0
102
RTVSPost2010PropOp38
 70
     0
102
RTVSPost2010Prop39
140
1.0
102
RTVSPost2010PropOp39
 70
     0
102
RTVSPost2010Prop40
 90
        0
102
RTVSPost2010PropOp40
 70
     0
102
RTVSPost2010Prop41ColorIndex
 90
       18
102
RTVSPost2010Prop41ColorRGB
 90
        0
102
RTVSPost2010PropOp41
 70
     0
102
RTVSPost2010Prop42
 90
       50
102
RTVSPost2010PropOp42
 70
     0
102
RTVSPost2010Prop43
 90
        3
102
RTVSPost2010PropOp43
 70
     0
102
RTVSPost2010Prop44ColorIndex
 90
        5
102
RTVSPost2010Prop44ColorRGB
 90
      255
102
RTVSPost2010PropOp44
 70
     0
102
RTVSPost2010Prop45
280
     0
102
RTVSPost2010PropOp45
 70
     0
102
RTVSPost2010Prop46
 90
       50
102
RTVSPost2010PropOp46
 70
     0
102
RTVSPost2010Prop47
 90
       50
102
RTVSPost2010PropOp47
 70
     0
102
RTVSPost2010Prop48
 90
       50
102
RTVSPost2010PropOp48
 70
     0
102
RTVSPost2010Prop49
280
     0
102
RTVSPost2010PropOp49
 70
     0
102
RTVSPost2010Prop50
 90
       50
102
RTVSPost2010PropOp50
 70
     0
102
RTVSPost2010Prop51ColorIndex
 90
      256
102
RTVSPost2010Prop51ColorRGB
 90
-16777216
102
RTVSPost2010PropOp51
 70
     0
102
RTVSPost2010Prop52
140
1.0
102
RTVSPost2010PropOp52
 70
     0
102
RTVSPost2010Prop53
 90
        2
102
RTVSPost2010PropOp53
 70
     0
102
RTVSPost2010Prop54
  1
strokes_ogs.tif
102
RTVSPost2010PropOp54
 70
     0
102
RTVSPost2010Prop55
280
     0
102
RTVSPost2010PropOp55
 70
     0
102
RTVSPost2010Prop56
140
1.0
102
RTVSPost2010PropOp56
 70
     0
102
RTVSPost2010Prop57
140
1.0
102
RTVSPost2010PropOp57
 70
     0
102
RTVSPropertyOp0
 70
     0
102
RTVSPropertyOp1
 70
     0
102
RTVSPropertyOp2
 70
     0
102
RTVSPropertyOp3
 70
     0
102
RTVSPropertyOp4
 70
     0
102
RTVSPropertyOp5
 70
     0
102
RTVSPropertyOp6
 70
     0
102
RTVSPropertyOp7
 70
     0
102
RTVSPropertyOp8
 70
     0
102
RTVSPropertyOp9
 70
     0
102
RTVSPropertyOp10
 70
     0
102
RTVSPropertyOp11
 70
     0
102
RTVSPropertyOp12
 70
     0
102
RTVSPropertyOp13
 70
     0
102
RTVSPropertyOp14
 70
     2
102
RTVSPropertyOp15
 70
     0
102
RTVSPropertyOp16
 70
     0
102
RTVSPropertyOp17
 70
     0
102
RTVSPropertyOp18
 70
     0
102
RTVSPropertyOp19
 70
     0
102
RTVSPropertyOp20
 70
     0
102
RTVSPropertyOp21
 70
     0
102
RTVSPropertyOp22
 70
     0
102
RTVSPropertyOp23
 70
     0
102
RTVSPropertyOp24
 70
     0
102
RTVSPropertyOp25
 70
     0
102
RTVSPropertyOp26
 70
     0
102
RTVSPropertyOp27
 70
     0
102
RTVSPropertyOp28
 70
     0
102
RTVSPropertyOp29
 70
     0
102
RTVSPropertyOp30
 70
     0
102
RTVSPropertyOp31
 70
     0
102
RTVSPropertyOp32
 70
     0
102
RTVSPropertyOp33
 70
     0
102
RTVSPropertyOp34
 70
     0
102
RTVSPropertyOp35
 70
     0
102
RTVSPropertyOp36
 70
     0
102
RTVSPropertyOp37
 70
     0
102
RTVSPropertyOp38
 70
     0
102
RTVSPropertyOp39
 70
     0
102
RTVSPropertyOp40
 70
     0
102
RTVSPropertyOp41
 70
     0
102
RTVSPropertyOp42
 70
     0
102
RTVSPropertyOp43
 70
     0
102
RTVSPropertyOp44
 70
     0
102
RTVSPropertyOp45
 70
     0
102
RTVSPropertyOp46
 70
     0
102
RTVSPropertyOp47
 70
     0
102
RTVSPropertyOp48
 70
     0
102
RTVSPropertyOp49
 70
     0
102
RTVSPropertyOp50
 70
     0
102
RTVSPropertyOp51
 70
     0
102
RTVSPropertyOp52
 70
     0
102
RTVSPropertyOp53
 70
     0
102
RTVSPropertyOp54
 70
     0
102
RTVSPropertyOp55
 70
     0
102
RTVSPropertyOp56
 70
     0
102
RTVSPropertyOp57
 70
     0
102
RTVSPropertyOp58
 70
     0
102
RTVSPropertyOp59
 70
     0
102
RTVSPropertyOp60
 70
     0
102
RTVSPropertyOp61
 70
     0
102
RTVSPropertyOp62
 70
     0
  0
XRECORD
  5
7E0
102
{ACAD_REACTORS
330
7DF
102
}
330
7DF
100
AcDbXrecord
280
     1
102
RTVSPost2010Prop28
280
     0
102
RTVSPost2010PropOp28
 70
     1
102
RTVSPost2010Prop29
280
     1
102
RTVSPost2010PropOp29
 70
     1
102
RTVSPost2010Prop30
280
     1
102
RTVSPost2010PropOp30
 70
     1
102
RTVSPost2010Prop31
280
     0
102
RTVSPost2010PropOp31
 70
     1
102
RTVSPost2010Prop32
280
     0
102
RTVSPost2010PropOp32
 70
     1
102
RTVSPost2010Prop33
280
     0
102
RTVSPost2010PropOp33
 70
     1
102
RTVSPost2010Prop34
280
     0
102
RTVSPost2010PropOp34
 70
     1
102
RTVSPost2010Prop35
280
     0
102
RTVSPost2010PropOp35
 70
     1
102
RTVSPost2010Prop36
280
     0
102
RTVSPost2010PropOp36
 70
     1
102
RTVSPost2010Prop37
 90
       50
102
RTVSPost2010PropOp37
 70
     1
102
RTVSPost2010Prop38
140
0.0
102
RTVSPost2010PropOp38
 70
     1
102
RTVSPost2010Prop39
140
1.0
102
RTVSPost2010PropOp39
 70
     1
102
RTVSPost2010Prop40
 90
        0
102
RTVSPost2010PropOp40
 70
     1
102
RTVSPost2010Prop41ColorIndex
 90
       18
102
RTVSPost2010Prop41ColorRGB
 90
        0
102
RTVSPost2010PropOp41
 70
     1
102
RTVSPost2010Prop42
 90
       50
102
RTVSPost2010PropOp42
 70
     1
102
RTVSPost2010Prop43
 90
        3
102
RTVSPost2010PropOp43
 70
     1
102
RTVSPost2010Prop44ColorIndex
 90
        5
102
RTVSPost2010Prop44ColorRGB
 90
      255
102
RTVSPost2010PropOp44
 70
     1
102
RTVSPost2010Prop45
280
     0
102
RTVSPost2010PropOp45
 70
     1
102
RTVSPost2010Prop46
 90
       50
102
RTVSPost2010PropOp46
 70
     1
102
RTVSPost2010Prop47
 90
       50
102
RTVSPost2010PropOp47
 70
     1
102
RTVSPost2010Prop48
 90
       50
102
RTVSPost2010PropOp48
 70
     1
102
RTVSPost2010Prop49
280
     0
102
RTVSPost2010PropOp49
 70
     1
102
RTVSPost2010Prop50
 90
       50
102
RTVSPost2010PropOp50
 70
     1
102
RTVSPost2010Prop51ColorIndex
 90
      256
102
RTVSPost2010Prop51ColorRGB
 90
-16777216
102
RTVSPost2010PropOp51
 70
     0
102
RTVSPost2010Prop52
140
1.0
102
RTVSPost2010PropOp52
 70
     0
102
RTVSPost2010Prop53
 90
        2
102
RTVSPost2010PropOp53
 70
     1
102
RTVSPost2010Prop54
  1
strokes_ogs.tif
102
RTVSPost2010PropOp54
 70
     1
102
RTVSPost2010Prop55
280
     0
102
RTVSPost2010PropOp55
 70
     1
102
RTVSPost2010Prop56
140
1.0
102
RTVSPost2010PropOp56
 70
     1
102
RTVSPost2010Prop57
140
1.0
102
RTVSPost2010PropOp57
 70
     1
102
RTVSPropertyOp0
 70
     1
102
RTVSPropertyOp1
 70
     1
102
RTVSPropertyOp2
 70
     1
102
RTVSPropertyOp3
 70
     1
102
RTVSPropertyOp4
 70
     1
102
RTVSPropertyOp5
 70
     1
102
RTVSPropertyOp6
 70
     1
102
RTVSPropertyOp7
 70
     1
102
RTVSPropertyOp8
 70
     1
102
RTVSPropertyOp9
 70
     1
102
RTVSPropertyOp10
 70
     1
102
RTVSPropertyOp11
 70
     1
102
RTVSPropertyOp12
 70
     1
102
RTVSPropertyOp13
 70
     1
102
RTVSPropertyOp14
 70
     1
102
RTVSPropertyOp15
 70
     1
102
RTVSPropertyOp16
 70
     1
102
RTVSPropertyOp17
 70
     1
102
RTVSPropertyOp18
 70
     1
102
RTVSPropertyOp19
 70
     1
102
RTVSPropertyOp20
 70
     1
102
RTVSPropertyOp21
 70
     1
102
RTVSPropertyOp22
 70
     1
102
RTVSPropertyOp23
 70
     1
102
RTVSPropertyOp24
 70
     1
102
RTVSPropertyOp25
 70
     1
102
RTVSPropertyOp26
 70
     1
102
RTVSPropertyOp27
 70
     1
102
RTVSPropertyOp28
 70
     1
102
RTVSPropertyOp29
 70
     1
102
RTVSPropertyOp30
 70
     1
102
RTVSPropertyOp31
 70
     1
102
RTVSPropertyOp32
 70
     1
102
RTVSPropertyOp33
 70
     1
102
RTVSPropertyOp34
 70
     1
102
RTVSPropertyOp35
 70
     1
102
RTVSPropertyOp36
 70
     1
102
RTVSPropertyOp37
 70
     1
102
RTVSPropertyOp38
 70
     1
102
RTVSPropertyOp39
 70
     1
102
RTVSPropertyOp40
 70
     1
102
RTVSPropertyOp41
 70
     1
102
RTVSPropertyOp42
 70
     1
102
RTVSPropertyOp43
 70
     1
102
RTVSPropertyOp44
 70
     1
102
RTVSPropertyOp45
 70
     1
102
RTVSPropertyOp46
 70
     1
102
RTVSPropertyOp47
 70
     1
102
RTVSPropertyOp48
 70
     1
102
RTVSPropertyOp49
 70
     1
102
RTVSPropertyOp50
 70
     1
102
RTVSPropertyOp51
 70
     0
102
RTVSPropertyOp52
 70
     0
102
RTVSPropertyOp53
 70
     1
102
RTVSPropertyOp54
 70
     1
102
RTVSPropertyOp55
 70
     1
102
RTVSPropertyOp56
 70
     1
102
RTVSPropertyOp57
 70
     1
102
RTVSPropertyOp58
 70
     1
102
RTVSPropertyOp59
 70
     1
102
RTVSPropertyOp60
 70
     1
102
RTVSPropertyOp61
 70
     1
102
RTVSPropertyOp62
 70
     1
  0
XRECORD
  5
7F6
102
{ACAD_REACTORS
330
7F5
102
}
330
7F5
100
AcDbXrecord
280
     1
102
RTVSPost2010Prop28
280
     0
102
RTVSPost2010PropOp28
 70
     1
102
RTVSPost2010Prop29
280
     1
102
RTVSPost2010PropOp29
 70
     1
102
RTVSPost2010Prop30
280
     1
102
RTVSPost2010PropOp30
 70
     1
102
RTVSPost2010Prop31
280
     0
102
RTVSPost2010PropOp31
 70
     1
102
RTVSPost2010Prop32
280
     0
102
RTVSPost2010PropOp32
 70
     1
102
RTVSPost2010Prop33
280
     0
102
RTVSPost2010PropOp33
 70
     1
102
RTVSPost2010Prop34
280
     0
102
RTVSPost2010PropOp34
 70
     1
102
RTVSPost2010Prop35
280
     0
102
RTVSPost2010PropOp35
 70
     1
102
RTVSPost2010Prop36
280
     0
102
RTVSPost2010PropOp36
 70
     1
102
RTVSPost2010Prop37
 90
       50
102
RTVSPost2010PropOp37
 70
     1
102
RTVSPost2010Prop38
140
0.0
102
RTVSPost2010PropOp38
 70
     1
102
RTVSPost2010Prop39
140
1.0
102
RTVSPost2010PropOp39
 70
     1
102
RTVSPost2010Prop40
 90
        0
102
RTVSPost2010PropOp40
 70
     1
102
RTVSPost2010Prop41ColorIndex
 90
       18
102
RTVSPost2010Prop41ColorRGB
 90
        0
102
RTVSPost2010PropOp41
 70
     1
102
RTVSPost2010Prop42
 90
       50
102
RTVSPost2010PropOp42
 70
     1
102
RTVSPost2010Prop43
 90
        3
102
RTVSPost2010PropOp43
 70
     1
102
RTVSPost2010Prop44ColorIndex
 90
        5
102
RTVSPost2010Prop44ColorRGB
 90
      255
102
RTVSPost2010PropOp44
 70
     1
102
RTVSPost2010Prop45
280
     0
102
RTVSPost2010PropOp45
 70
     1
102
RTVSPost2010Prop46
 90
       50
102
RTVSPost2010PropOp46
 70
     1
102
RTVSPost2010Prop47
 90
       50
102
RTVSPost2010PropOp47
 70
     1
102
RTVSPost2010Prop48
 90
       50
102
RTVSPost2010PropOp48
 70
     1
102
RTVSPost2010Prop49
280
     0
102
RTVSPost2010PropOp49
 70
     1
102
RTVSPost2010Prop50
 90
       50
102
RTVSPost2010PropOp50
 70
     1
102
RTVSPost2010Prop51ColorIndex
 90
      256
102
RTVSPost2010Prop51ColorRGB
 90
-16777216
102
RTVSPost2010PropOp51
 70
     0
102
RTVSPost2010Prop52
140
1.0
102
RTVSPost2010PropOp52
 70
     0
102
RTVSPost2010Prop53
 90
        2
102
RTVSPost2010PropOp53
 70
     1
102
RTVSPost2010Prop54
  1
strokes_ogs.tif
102
RTVSPost2010PropOp54
 70
     1
102
RTVSPost2010Prop55
280
     0
102
RTVSPost2010PropOp55
 70
     1
102
RTVSPost2010Prop56
140
1.0
102
RTVSPost2010PropOp56
 70
     1
102
RTVSPost2010Prop57
140
1.0
102
RTVSPost2010PropOp57
 70
     1
102
RTVSPropertyOp0
 70
     1
102
RTVSPropertyOp1
 70
     1
102
RTVSPropertyOp2
 70
     1
102
RTVSPropertyOp3
 70
     1
102
RTVSPropertyOp4
 70
     1
102
RTVSPropertyOp5
 70
     1
102
RTVSPropertyOp6
 70
     1
102
RTVSPropertyOp7
 70
     1
102
RTVSPropertyOp8
 70
     1
102
RTVSPropertyOp9
 70
     1
102
RTVSPropertyOp10
 70
     1
102
RTVSPropertyOp11
 70
     1
102
RTVSPropertyOp12
 70
     1
102
RTVSPropertyOp13
 70
     1
102
RTVSPropertyOp14
 70
     1
102
RTVSPropertyOp15
 70
     1
102
RTVSPropertyOp16
 70
     1
102
RTVSPropertyOp17
 70
     1
102
RTVSPropertyOp18
 70
     1
102
RTVSPropertyOp19
 70
     1
102
RTVSPropertyOp20
 70
     1
102
RTVSPropertyOp21
 70
     1
102
RTVSPropertyOp22
 70
     1
102
RTVSPropertyOp23
 70
     1
102
RTVSPropertyOp24
 70
     1
102
RTVSPropertyOp25
 70
     1
102
RTVSPropertyOp26
 70
     1
102
RTVSPropertyOp27
 70
     1
102
RTVSPropertyOp28
 70
     1
102
RTVSPropertyOp29
 70
     1
102
RTVSPropertyOp30
 70
     1
102
RTVSPropertyOp31
 70
     1
102
RTVSPropertyOp32
 70
     1
102
RTVSPropertyOp33
 70
     1
102
RTVSPropertyOp34
 70
     1
102
RTVSPropertyOp35
 70
     1
102
RTVSPropertyOp36
 70
     1
102
RTVSPropertyOp37
 70
     1
102
RTVSPropertyOp38
 70
     1
102
RTVSPropertyOp39
 70
     1
102
RTVSPropertyOp40
 70
     1
102
RTVSPropertyOp41
 70
     1
102
RTVSPropertyOp42
 70
     1
102
RTVSPropertyOp43
 70
     1
102
RTVSPropertyOp44
 70
     1
102
RTVSPropertyOp45
 70
     1
102
RTVSPropertyOp46
 70
     1
102
RTVSPropertyOp47
 70
     1
102
RTVSPropertyOp48
 70
     1
102
RTVSPropertyOp49
 70
     1
102
RTVSPropertyOp50
 70
     1
102
RTVSPropertyOp51
 70
     0
102
RTVSPropertyOp52
 70
     0
102
RTVSPropertyOp53
 70
     1
102
RTVSPropertyOp54
 70
     1
102
RTVSPropertyOp55
 70
     1
102
RTVSPropertyOp56
 70
     1
102
RTVSPropertyOp57
 70
     1
102
RTVSPropertyOp58
 70
     1
102
RTVSPropertyOp59
 70
     1
102
RTVSPropertyOp60
 70
     1
102
RTVSPropertyOp61
 70
     1
102
RTVSPropertyOp62
 70
     1
  0
XRECORD
  5
7F4
102
{ACAD_REACTORS
330
7F3
102
}
330
7F3
100
AcDbXrecord
280
     1
102
RTVSPost2010Prop28
280
     0
102
RTVSPost2010PropOp28
 70
     1
102
RTVSPost2010Prop29
280
     1
102
RTVSPost2010PropOp29
 70
     1
102
RTVSPost2010Prop30
280
     1
102
RTVSPost2010PropOp30
 70
     1
102
RTVSPost2010Prop31
280
     0
102
RTVSPost2010PropOp31
 70
     1
102
RTVSPost2010Prop32
280
     0
102
RTVSPost2010PropOp32
 70
     1
102
RTVSPost2010Prop33
280
     0
102
RTVSPost2010PropOp33
 70
     1
102
RTVSPost2010Prop34
280
     0
102
RTVSPost2010PropOp34
 70
     1
102
RTVSPost2010Prop35
280
     0
102
RTVSPost2010PropOp35
 70
     1
102
RTVSPost2010Prop36
280
     0
102
RTVSPost2010PropOp36
 70
     1
102
RTVSPost2010Prop37
 90
       50
102
RTVSPost2010PropOp37
 70
     1
102
RTVSPost2010Prop38
140
0.0
102
RTVSPost2010PropOp38
 70
     1
102
RTVSPost2010Prop39
140
1.0
102
RTVSPost2010PropOp39
 70
     1
102
RTVSPost2010Prop40
 90
        0
102
RTVSPost2010PropOp40
 70
     1
102
RTVSPost2010Prop41ColorIndex
 90
       18
102
RTVSPost2010Prop41ColorRGB
 90
        0
102
RTVSPost2010PropOp41
 70
     1
102
RTVSPost2010Prop42
 90
       50
102
RTVSPost2010PropOp42
 70
     1
102
RTVSPost2010Prop43
 90
        3
102
RTVSPost2010PropOp43
 70
     1
102
RTVSPost2010Prop44ColorIndex
 90
        5
102
RTVSPost2010Prop44ColorRGB
 90
      255
102
RTVSPost2010PropOp44
 70
     1
102
RTVSPost2010Prop45
280
     0
102
RTVSPost2010PropOp45
 70
     1
102
RTVSPost2010Prop46
 90
       50
102
RTVSPost2010PropOp46
 70
     1
102
RTVSPost2010Prop47
 90
       50
102
RTVSPost2010PropOp47
 70
     1
102
RTVSPost2010Prop48
 90
       50
102
RTVSPost2010PropOp48
 70
     1
102
RTVSPost2010Prop49
280
     0
102
RTVSPost2010PropOp49
 70
     1
102
RTVSPost2010Prop50
 90
       50
102
RTVSPost2010PropOp50
 70
     1
102
RTVSPost2010Prop51ColorIndex
 90
      256
102
RTVSPost2010Prop51ColorRGB
 90
-16777216
102
RTVSPost2010PropOp51
 70
     0
102
RTVSPost2010Prop52
140
1.0
102
RTVSPost2010PropOp52
 70
     0
102
RTVSPost2010Prop53
 90
        2
102
RTVSPost2010PropOp53
 70
     1
102
RTVSPost2010Prop54
  1
strokes_ogs.tif
102
RTVSPost2010PropOp54
 70
     1
102
RTVSPost2010Prop55
280
     0
102
RTVSPost2010PropOp55
 70
     1
102
RTVSPost2010Prop56
140
1.0
102
RTVSPost2010PropOp56
 70
     1
102
RTVSPost2010Prop57
140
1.0
102
RTVSPost2010PropOp57
 70
     1
102
RTVSPropertyOp0
 70
     1
102
RTVSPropertyOp1
 70
     1
102
RTVSPropertyOp2
 70
     1
102
RTVSPropertyOp3
 70
     1
102
RTVSPropertyOp4
 70
     1
102
RTVSPropertyOp5
 70
     1
102
RTVSPropertyOp6
 70
     1
102
RTVSPropertyOp7
 70
     1
102
RTVSPropertyOp8
 70
     1
102
RTVSPropertyOp9
 70
     1
102
RTVSPropertyOp10
 70
     1
102
RTVSPropertyOp11
 70
     1
102
RTVSPropertyOp12
 70
     1
102
RTVSPropertyOp13
 70
     1
102
RTVSPropertyOp14
 70
     1
102
RTVSPropertyOp15
 70
     1
102
RTVSPropertyOp16
 70
     1
102
RTVSPropertyOp17
 70
     1
102
RTVSPropertyOp18
 70
     1
102
RTVSPropertyOp19
 70
     1
102
RTVSPropertyOp20
 70
     1
102
RTVSPropertyOp21
 70
     1
102
RTVSPropertyOp22
 70
     1
102
RTVSPropertyOp23
 70
     1
102
RTVSPropertyOp24
 70
     1
102
RTVSPropertyOp25
 70
     1
102
RTVSPropertyOp26
 70
     1
102
RTVSPropertyOp27
 70
     1
102
RTVSPropertyOp28
 70
     1
102
RTVSPropertyOp29
 70
     1
102
RTVSPropertyOp30
 70
     1
102
RTVSPropertyOp31
 70
     1
102
RTVSPropertyOp32
 70
     1
102
RTVSPropertyOp33
 70
     1
102
RTVSPropertyOp34
 70
     1
102
RTVSPropertyOp35
 70
     1
102
RTVSPropertyOp36
 70
     1
102
RTVSPropertyOp37
 70
     1
102
RTVSPropertyOp38
 70
     1
102
RTVSPropertyOp39
 70
     1
102
RTVSPropertyOp40
 70
     1
102
RTVSPropertyOp41
 70
     1
102
RTVSPropertyOp42
 70
     1
102
RTVSPropertyOp43
 70
     1
102
RTVSPropertyOp44
 70
     1
102
RTVSPropertyOp45
 70
     1
102
RTVSPropertyOp46
 70
     1
102
RTVSPropertyOp47
 70
     1
102
RTVSPropertyOp48
 70
     1
102
RTVSPropertyOp49
 70
     1
102
RTVSPropertyOp50
 70
     1
102
RTVSPropertyOp51
 70
     0
102
RTVSPropertyOp52
 70
     0
102
RTVSPropertyOp53
 70
     1
102
RTVSPropertyOp54
 70
     1
102
RTVSPropertyOp55
 70
     1
102
RTVSPropertyOp56
 70
     1
102
RTVSPropertyOp57
 70
     1
102
RTVSPropertyOp58
 70
     1
102
RTVSPropertyOp59
 70
     1
102
RTVSPropertyOp60
 70
     1
102
RTVSPropertyOp61
 70
     1
102
RTVSPropertyOp62
 70
     1
  0
XRECORD
  5
7EE
102
{ACAD_REACTORS
330
7ED
102
}
330
7ED
100
AcDbXrecord
280
     1
102
RTVSPost2010Prop28
280
     0
102
RTVSPost2010PropOp28
 70
     1
102
RTVSPost2010Prop29
280
     1
102
RTVSPost2010PropOp29
 70
     1
102
RTVSPost2010Prop30
280
     1
102
RTVSPost2010PropOp30
 70
     1
102
RTVSPost2010Prop31
280
     0
102
RTVSPost2010PropOp31
 70
     1
102
RTVSPost2010Prop32
280
     0
102
RTVSPost2010PropOp32
 70
     1
102
RTVSPost2010Prop33
280
     0
102
RTVSPost2010PropOp33
 70
     1
102
RTVSPost2010Prop34
280
     0
102
RTVSPost2010PropOp34
 70
     1
102
RTVSPost2010Prop35
280
     0
102
RTVSPost2010PropOp35
 70
     1
102
RTVSPost2010Prop36
280
     0
102
RTVSPost2010PropOp36
 70
     1
102
RTVSPost2010Prop37
 90
       50
102
RTVSPost2010PropOp37
 70
     1
102
RTVSPost2010Prop38
140
0.0
102
RTVSPost2010PropOp38
 70
     1
102
RTVSPost2010Prop39
140
1.0
102
RTVSPost2010PropOp39
 70
     1
102
RTVSPost2010Prop40
 90
        0
102
RTVSPost2010PropOp40
 70
     1
102
RTVSPost2010Prop41ColorIndex
 90
       18
102
RTVSPost2010Prop41ColorRGB
 90
        0
102
RTVSPost2010PropOp41
 70
     1
102
RTVSPost2010Prop42
 90
       50
102
RTVSPost2010PropOp42
 70
     1
102
RTVSPost2010Prop43
 90
        3
102
RTVSPost2010PropOp43
 70
     1
102
RTVSPost2010Prop44ColorIndex
 90
        5
102
RTVSPost2010Prop44ColorRGB
 90
      255
102
RTVSPost2010PropOp44
 70
     1
102
RTVSPost2010Prop45
280
     0
102
RTVSPost2010PropOp45
 70
     1
102
RTVSPost2010Prop46
 90
       50
102
RTVSPost2010PropOp46
 70
     1
102
RTVSPost2010Prop47
 90
       50
102
RTVSPost2010PropOp47
 70
     1
102
RTVSPost2010Prop48
 90
       50
102
RTVSPost2010PropOp48
 70
     1
102
RTVSPost2010Prop49
280
     0
102
RTVSPost2010PropOp49
 70
     1
102
RTVSPost2010Prop50
 90
       50
102
RTVSPost2010PropOp50
 70
     1
102
RTVSPost2010Prop51ColorIndex
 90
      256
102
RTVSPost2010Prop51ColorRGB
 90
-16777216
102
RTVSPost2010PropOp51
 70
     0
102
RTVSPost2010Prop52
140
1.0
102
RTVSPost2010PropOp52
 70
     0
102
RTVSPost2010Prop53
 90
        2
102
RTVSPost2010PropOp53
 70
     1
102
RTVSPost2010Prop54
  1
strokes_ogs.tif
102
RTVSPost2010PropOp54
 70
     1
102
RTVSPost2010Prop55
280
     0
102
RTVSPost2010PropOp55
 70
     1
102
RTVSPost2010Prop56
140
1.0
102
RTVSPost2010PropOp56
 70
     1
102
RTVSPost2010Prop57
140
1.0
102
RTVSPost2010PropOp57
 70
     1
102
RTVSPropertyOp0
 70
     1
102
RTVSPropertyOp1
 70
     1
102
RTVSPropertyOp2
 70
     1
102
RTVSPropertyOp3
 70
     1
102
RTVSPropertyOp4
 70
     1
102
RTVSPropertyOp5
 70
     1
102
RTVSPropertyOp6
 70
     1
102
RTVSPropertyOp7
 70
     1
102
RTVSPropertyOp8
 70
     1
102
RTVSPropertyOp9
 70
     1
102
RTVSPropertyOp10
 70
     1
102
RTVSPropertyOp11
 70
     1
102
RTVSPropertyOp12
 70
     1
102
RTVSPropertyOp13
 70
     1
102
RTVSPropertyOp14
 70
     1
102
RTVSPropertyOp15
 70
     1
102
RTVSPropertyOp16
 70
     1
102
RTVSPropertyOp17
 70
     1
102
RTVSPropertyOp18
 70
     1
102
RTVSPropertyOp19
 70
     1
102
RTVSPropertyOp20
 70
     1
102
RTVSPropertyOp21
 70
     1
102
RTVSPropertyOp22
 70
     1
102
RTVSPropertyOp23
 70
     1
102
RTVSPropertyOp24
 70
     1
102
RTVSPropertyOp25
 70
     1
102
RTVSPropertyOp26
 70
     1
102
RTVSPropertyOp27
 70
     1
102
RTVSPropertyOp28
 70
     1
102
RTVSPropertyOp29
 70
     1
102
RTVSPropertyOp30
 70
     1
102
RTVSPropertyOp31
 70
     1
102
RTVSPropertyOp32
 70
     1
102
RTVSPropertyOp33
 70
     1
102
RTVSPropertyOp34
 70
     1
102
RTVSPropertyOp35
 70
     1
102
RTVSPropertyOp36
 70
     1
102
RTVSPropertyOp37
 70
     1
102
RTVSPropertyOp38
 70
     1
102
RTVSPropertyOp39
 70
     1
102
RTVSPropertyOp40
 70
     1
102
RTVSPropertyOp41
 70
     1
102
RTVSPropertyOp42
 70
     1
102
RTVSPropertyOp43
 70
     1
102
RTVSPropertyOp44
 70
     1
102
RTVSPropertyOp45
 70
     1
102
RTVSPropertyOp46
 70
     1
102
RTVSPropertyOp47
 70
     1
102
RTVSPropertyOp48
 70
     1
102
RTVSPropertyOp49
 70
     1
102
RTVSPropertyOp50
 70
     1
102
RTVSPropertyOp51
 70
     0
102
RTVSPropertyOp52
 70
     0
102
RTVSPropertyOp53
 70
     1
102
RTVSPropertyOp54
 70
     1
102
RTVSPropertyOp55
 70
     1
102
RTVSPropertyOp56
 70
     1
102
RTVSPropertyOp57
 70
     1
102
RTVSPropertyOp58
 70
     1
102
RTVSPropertyOp59
 70
     1
102
RTVSPropertyOp60
 70
     1
102
RTVSPropertyOp61
 70
     1
102
RTVSPropertyOp62
 70
     1
  0
XRECORD
  5
7F0
102
{ACAD_REACTORS
330
7EF
102
}
330
7EF
100
AcDbXrecord
280
     1
102
RTVSPost2010Prop28
280
     0
102
RTVSPost2010PropOp28
 70
     1
102
RTVSPost2010Prop29
280
     1
102
RTVSPost2010PropOp29
 70
     1
102
RTVSPost2010Prop30
280
     1
102
RTVSPost2010PropOp30
 70
     1
102
RTVSPost2010Prop31
280
     0
102
RTVSPost2010PropOp31
 70
     1
102
RTVSPost2010Prop32
280
     0
102
RTVSPost2010PropOp32
 70
     1
102
RTVSPost2010Prop33
280
     0
102
RTVSPost2010PropOp33
 70
     1
102
RTVSPost2010Prop34
280
     0
102
RTVSPost2010PropOp34
 70
     1
102
RTVSPost2010Prop35
280
     0
102
RTVSPost2010PropOp35
 70
     1
102
RTVSPost2010Prop36
280
     0
102
RTVSPost2010PropOp36
 70
     1
102
RTVSPost2010Prop37
 90
       50
102
RTVSPost2010PropOp37
 70
     1
102
RTVSPost2010Prop38
140
0.0
102
RTVSPost2010PropOp38
 70
     1
102
RTVSPost2010Prop39
140
1.0
102
RTVSPost2010PropOp39
 70
     1
102
RTVSPost2010Prop40
 90
        0
102
RTVSPost2010PropOp40
 70
     1
102
RTVSPost2010Prop41ColorIndex
 90
       18
102
RTVSPost2010Prop41ColorRGB
 90
        0
102
RTVSPost2010PropOp41
 70
     1
102
RTVSPost2010Prop42
 90
       50
102
RTVSPost2010PropOp42
 70
     1
102
RTVSPost2010Prop43
 90
        3
102
RTVSPost2010PropOp43
 70
     1
102
RTVSPost2010Prop44ColorIndex
 90
        5
102
RTVSPost2010Prop44ColorRGB
 90
      255
102
RTVSPost2010PropOp44
 70
     1
102
RTVSPost2010Prop45
280
     0
102
RTVSPost2010PropOp45
 70
     1
102
RTVSPost2010Prop46
 90
       50
102
RTVSPost2010PropOp46
 70
     1
102
RTVSPost2010Prop47
 90
       50
102
RTVSPost2010PropOp47
 70
     1
102
RTVSPost2010Prop48
 90
       50
102
RTVSPost2010PropOp48
 70
     1
102
RTVSPost2010Prop49
280
     0
102
RTVSPost2010PropOp49
 70
     1
102
RTVSPost2010Prop50
 90
       50
102
RTVSPost2010PropOp50
 70
     1
102
RTVSPost2010Prop51ColorIndex
 90
      256
102
RTVSPost2010Prop51ColorRGB
 90
-16777216
102
RTVSPost2010PropOp51
 70
     0
102
RTVSPost2010Prop52
140
1.0
102
RTVSPost2010PropOp52
 70
     0
102
RTVSPost2010Prop53
 90
        2
102
RTVSPost2010PropOp53
 70
     1
102
RTVSPost2010Prop54
  1
strokes_ogs.tif
102
RTVSPost2010PropOp54
 70
     1
102
RTVSPost2010Prop55
280
     0
102
RTVSPost2010PropOp55
 70
     1
102
RTVSPost2010Prop56
140
1.0
102
RTVSPost2010PropOp56
 70
     1
102
RTVSPost2010Prop57
140
1.0
102
RTVSPost2010PropOp57
 70
     1
102
RTVSPropertyOp0
 70
     1
102
RTVSPropertyOp1
 70
     1
102
RTVSPropertyOp2
 70
     1
102
RTVSPropertyOp3
 70
     1
102
RTVSPropertyOp4
 70
     1
102
RTVSPropertyOp5
 70
     1
102
RTVSPropertyOp6
 70
     1
102
RTVSPropertyOp7
 70
     1
102
RTVSPropertyOp8
 70
     1
102
RTVSPropertyOp9
 70
     1
102
RTVSPropertyOp10
 70
     1
102
RTVSPropertyOp11
 70
     1
102
RTVSPropertyOp12
 70
     1
102
RTVSPropertyOp13
 70
     1
102
RTVSPropertyOp14
 70
     1
102
RTVSPropertyOp15
 70
     1
102
RTVSPropertyOp16
 70
     1
102
RTVSPropertyOp17
 70
     1
102
RTVSPropertyOp18
 70
     1
102
RTVSPropertyOp19
 70
     1
102
RTVSPropertyOp20
 70
     1
102
RTVSPropertyOp21
 70
     1
102
RTVSPropertyOp22
 70
     1
102
RTVSPropertyOp23
 70
     1
102
RTVSPropertyOp24
 70
     1
102
RTVSPropertyOp25
 70
     1
102
RTVSPropertyOp26
 70
     1
102
RTVSPropertyOp27
 70
     1
102
RTVSPropertyOp28
 70
     1
102
RTVSPropertyOp29
 70
     1
102
RTVSPropertyOp30
 70
     1
102
RTVSPropertyOp31
 70
     1
102
RTVSPropertyOp32
 70
     1
102
RTVSPropertyOp33
 70
     1
102
RTVSPropertyOp34
 70
     1
102
RTVSPropertyOp35
 70
     1
102
RTVSPropertyOp36
 70
     1
102
RTVSPropertyOp37
 70
     1
102
RTVSPropertyOp38
 70
     1
102
RTVSPropertyOp39
 70
     1
102
RTVSPropertyOp40
 70
     1
102
RTVSPropertyOp41
 70
     1
102
RTVSPropertyOp42
 70
     1
102
RTVSPropertyOp43
 70
     1
102
RTVSPropertyOp44
 70
     1
102
RTVSPropertyOp45
 70
     1
102
RTVSPropertyOp46
 70
     1
102
RTVSPropertyOp47
 70
     1
102
RTVSPropertyOp48
 70
     1
102
RTVSPropertyOp49
 70
     1
102
RTVSPropertyOp50
 70
     1
102
RTVSPropertyOp51
 70
     0
102
RTVSPropertyOp52
 70
     0
102
RTVSPropertyOp53
 70
     1
102
RTVSPropertyOp54
 70
     1
102
RTVSPropertyOp55
 70
     1
102
RTVSPropertyOp56
 70
     1
102
RTVSPropertyOp57
 70
     1
102
RTVSPropertyOp58
 70
     1
102
RTVSPropertyOp59
 70
     1
102
RTVSPropertyOp60
 70
     1
102
RTVSPropertyOp61
 70
     1
102
RTVSPropertyOp62
 70
     1
  0
XRECORD
  5
7E6
102
{ACAD_REACTORS
330
7E5
102
}
330
7E5
100
AcDbXrecord
280
     1
102
RTVSPost2010Prop28
280
     0
102
RTVSPost2010PropOp28
 70
     1
102
RTVSPost2010Prop29
280
     1
102
RTVSPost2010PropOp29
 70
     1
102
RTVSPost2010Prop30
280
     1
102
RTVSPost2010PropOp30
 70
     1
102
RTVSPost2010Prop31
280
     0
102
RTVSPost2010PropOp31
 70
     1
102
RTVSPost2010Prop32
280
     0
102
RTVSPost2010PropOp32
 70
     1
102
RTVSPost2010Prop33
280
     0
102
RTVSPost2010PropOp33
 70
     1
102
RTVSPost2010Prop34
280
     0
102
RTVSPost2010PropOp34
 70
     1
102
RTVSPost2010Prop35
280
     0
102
RTVSPost2010PropOp35
 70
     1
102
RTVSPost2010Prop36
280
     0
102
RTVSPost2010PropOp36
 70
     1
102
RTVSPost2010Prop37
 90
       50
102
RTVSPost2010PropOp37
 70
     1
102
RTVSPost2010Prop38
140
0.0
102
RTVSPost2010PropOp38
 70
     1
102
RTVSPost2010Prop39
140
1.0
102
RTVSPost2010PropOp39
 70
     1
102
RTVSPost2010Prop40
 90
        0
102
RTVSPost2010PropOp40
 70
     1
102
RTVSPost2010Prop41ColorIndex
 90
       18
102
RTVSPost2010Prop41ColorRGB
 90
        0
102
RTVSPost2010PropOp41
 70
     1
102
RTVSPost2010Prop42
 90
       50
102
RTVSPost2010PropOp42
 70
     1
102
RTVSPost2010Prop43
 90
        3
102
RTVSPost2010PropOp43
 70
     1
102
RTVSPost2010Prop44ColorIndex
 90
        5
102
RTVSPost2010Prop44ColorRGB
 90
      255
102
RTVSPost2010PropOp44
 70
     1
102
RTVSPost2010Prop45
280
     0
102
RTVSPost2010PropOp45
 70
     1
102
RTVSPost2010Prop46
 90
       50
102
RTVSPost2010PropOp46
 70
     1
102
RTVSPost2010Prop47
 90
       50
102
RTVSPost2010PropOp47
 70
     1
102
RTVSPost2010Prop48
 90
       50
102
RTVSPost2010PropOp48
 70
     1
102
RTVSPost2010Prop49
280
     0
102
RTVSPost2010PropOp49
 70
     1
102
RTVSPost2010Prop50
 90
       50
102
RTVSPost2010PropOp50
 70
     1
102
RTVSPost2010Prop51ColorIndex
 90
      256
102
RTVSPost2010Prop51ColorRGB
 90
-16777216
102
RTVSPost2010PropOp51
 70
     0
102
RTVSPost2010Prop52
140
1.0
102
RTVSPost2010PropOp52
 70
     0
102
RTVSPost2010Prop53
 90
        2
102
RTVSPost2010PropOp53
 70
     1
102
RTVSPost2010Prop54
  1
strokes_ogs.tif
102
RTVSPost2010PropOp54
 70
     1
102
RTVSPost2010Prop55
280
     0
102
RTVSPost2010PropOp55
 70
     1
102
RTVSPost2010Prop56
140
1.0
102
RTVSPost2010PropOp56
 70
     1
102
RTVSPost2010Prop57
140
1.0
102
RTVSPost2010PropOp57
 70
     1
102
RTVSPropertyOp0
 70
     1
102
RTVSPropertyOp1
 70
     1
102
RTVSPropertyOp2
 70
     1
102
RTVSPropertyOp3
 70
     1
102
RTVSPropertyOp4
 70
     1
102
RTVSPropertyOp5
 70
     1
102
RTVSPropertyOp6
 70
     1
102
RTVSPropertyOp7
 70
     1
102
RTVSPropertyOp8
 70
     1
102
RTVSPropertyOp9
 70
     1
102
RTVSPropertyOp10
 70
     1
102
RTVSPropertyOp11
 70
     1
102
RTVSPropertyOp12
 70
     1
102
RTVSPropertyOp13
 70
     1
102
RTVSPropertyOp14
 70
     1
102
RTVSPropertyOp15
 70
     1
102
RTVSPropertyOp16
 70
     1
102
RTVSPropertyOp17
 70
     1
102
RTVSPropertyOp18
 70
     1
102
RTVSPropertyOp19
 70
     1
102
RTVSPropertyOp20
 70
     1
102
RTVSPropertyOp21
 70
     1
102
RTVSPropertyOp22
 70
     1
102
RTVSPropertyOp23
 70
     1
102
RTVSPropertyOp24
 70
     1
102
RTVSPropertyOp25
 70
     1
102
RTVSPropertyOp26
 70
     1
102
RTVSPropertyOp27
 70
     1
102
RTVSPropertyOp28
 70
     1
102
RTVSPropertyOp29
 70
     1
102
RTVSPropertyOp30
 70
     1
102
RTVSPropertyOp31
 70
     1
102
RTVSPropertyOp32
 70
     1
102
RTVSPropertyOp33
 70
     1
102
RTVSPropertyOp34
 70
     1
102
RTVSPropertyOp35
 70
     1
102
RTVSPropertyOp36
 70
     1
102
RTVSPropertyOp37
 70
     1
102
RTVSPropertyOp38
 70
     1
102
RTVSPropertyOp39
 70
     1
102
RTVSPropertyOp40
 70
     1
102
RTVSPropertyOp41
 70
     1
102
RTVSPropertyOp42
 70
     1
102
RTVSPropertyOp43
 70
     1
102
RTVSPropertyOp44
 70
     1
102
RTVSPropertyOp45
 70
     1
102
RTVSPropertyOp46
 70
     1
102
RTVSPropertyOp47
 70
     1
102
RTVSPropertyOp48
 70
     1
102
RTVSPropertyOp49
 70
     1
102
RTVSPropertyOp50
 70
     1
102
RTVSPropertyOp51
 70
     0
102
RTVSPropertyOp52
 70
     0
102
RTVSPropertyOp53
 70
     1
102
RTVSPropertyOp54
 70
     1
102
RTVSPropertyOp55
 70
     1
102
RTVSPropertyOp56
 70
     1
102
RTVSPropertyOp57
 70
     1
102
RTVSPropertyOp58
 70
     1
102
RTVSPropertyOp59
 70
     1
102
RTVSPropertyOp60
 70
     1
102
RTVSPropertyOp61
 70
     1
102
RTVSPropertyOp62
 70
     1
  0
XRECORD
  5
7DA
102
{ACAD_REACTORS
330
7D9
102
}
330
7D9
100
AcDbXrecord
280
     1
102
RTVSPost2010Prop28
280
     0
102
RTVSPost2010PropOp28
 70
     1
102
RTVSPost2010Prop29
280
     1
102
RTVSPost2010PropOp29
 70
     1
102
RTVSPost2010Prop30
280
     1
102
RTVSPost2010PropOp30
 70
     1
102
RTVSPost2010Prop31
280
     0
102
RTVSPost2010PropOp31
 70
     1
102
RTVSPost2010Prop32
280
     0
102
RTVSPost2010PropOp32
 70
     1
102
RTVSPost2010Prop33
280
     0
102
RTVSPost2010PropOp33
 70
     1
102
RTVSPost2010Prop34
280
     0
102
RTVSPost2010PropOp34
 70
     1
102
RTVSPost2010Prop35
280
     0
102
RTVSPost2010PropOp35
 70
     1
102
RTVSPost2010Prop36
280
     0
102
RTVSPost2010PropOp36
 70
     1
102
RTVSPost2010Prop37
 90
       50
102
RTVSPost2010PropOp37
 70
     1
102
RTVSPost2010Prop38
140
0.0
102
RTVSPost2010PropOp38
 70
     1
102
RTVSPost2010Prop39
140
1.0
102
RTVSPost2010PropOp39
 70
     1
102
RTVSPost2010Prop40
 90
        0
102
RTVSPost2010PropOp40
 70
     1
102
RTVSPost2010Prop41ColorIndex
 90
       18
102
RTVSPost2010Prop41ColorRGB
 90
        0
102
RTVSPost2010PropOp41
 70
     1
102
RTVSPost2010Prop42
 90
       50
102
RTVSPost2010PropOp42
 70
     1
102
RTVSPost2010Prop43
 90
        3
102
RTVSPost2010PropOp43
 70
     1
102
RTVSPost2010Prop44ColorIndex
 90
        5
102
RTVSPost2010Prop44ColorRGB
 90
      255
102
RTVSPost2010PropOp44
 70
     1
102
RTVSPost2010Prop45
280
     0
102
RTVSPost2010PropOp45
 70
     1
102
RTVSPost2010Prop46
 90
       50
102
RTVSPost2010PropOp46
 70
     1
102
RTVSPost2010Prop47
 90
       50
102
RTVSPost2010PropOp47
 70
     1
102
RTVSPost2010Prop48
 90
       50
102
RTVSPost2010PropOp48
 70
     1
102
RTVSPost2010Prop49
280
     0
102
RTVSPost2010PropOp49
 70
     1
102
RTVSPost2010Prop50
 90
       50
102
RTVSPost2010PropOp50
 70
     1
102
RTVSPost2010Prop51ColorIndex
 90
      256
102
RTVSPost2010Prop51ColorRGB
 90
-16777216
102
RTVSPost2010PropOp51
 70
     0
102
RTVSPost2010Prop52
140
1.0
102
RTVSPost2010PropOp52
 70
     0
102
RTVSPost2010Prop53
 90
        2
102
RTVSPost2010PropOp53
 70
     1
102
RTVSPost2010Prop54
  1
strokes_ogs.tif
102
RTVSPost2010PropOp54
 70
     1
102
RTVSPost2010Prop55
280
     0
102
RTVSPost2010PropOp55
 70
     1
102
RTVSPost2010Prop56
140
1.0
102
RTVSPost2010PropOp56
 70
     1
102
RTVSPost2010Prop57
140
1.0
102
RTVSPost2010PropOp57
 70
     1
102
RTVSPropertyOp0
 70
     1
102
RTVSPropertyOp1
 70
     1
102
RTVSPropertyOp2
 70
     1
102
RTVSPropertyOp3
 70
     1
102
RTVSPropertyOp4
 70
     1
102
RTVSPropertyOp5
 70
     1
102
RTVSPropertyOp6
 70
     1
102
RTVSPropertyOp7
 70
     1
102
RTVSPropertyOp8
 70
     1
102
RTVSPropertyOp9
 70
     1
102
RTVSPropertyOp10
 70
     1
102
RTVSPropertyOp11
 70
     1
102
RTVSPropertyOp12
 70
     1
102
RTVSPropertyOp13
 70
     1
102
RTVSPropertyOp14
 70
     1
102
RTVSPropertyOp15
 70
     1
102
RTVSPropertyOp16
 70
     1
102
RTVSPropertyOp17
 70
     1
102
RTVSPropertyOp18
 70
     1
102
RTVSPropertyOp19
 70
     1
102
RTVSPropertyOp20
 70
     1
102
RTVSPropertyOp21
 70
     1
102
RTVSPropertyOp22
 70
     1
102
RTVSPropertyOp23
 70
     1
102
RTVSPropertyOp24
 70
     1
102
RTVSPropertyOp25
 70
     1
102
RTVSPropertyOp26
 70
     1
102
RTVSPropertyOp27
 70
     1
102
RTVSPropertyOp28
 70
     1
102
RTVSPropertyOp29
 70
     1
102
RTVSPropertyOp30
 70
     1
102
RTVSPropertyOp31
 70
     1
102
RTVSPropertyOp32
 70
     1
102
RTVSPropertyOp33
 70
     1
102
RTVSPropertyOp34
 70
     1
102
RTVSPropertyOp35
 70
     1
102
RTVSPropertyOp36
 70
     1
102
RTVSPropertyOp37
 70
     1
102
RTVSPropertyOp38
 70
     1
102
RTVSPropertyOp39
 70
     1
102
RTVSPropertyOp40
 70
     1
102
RTVSPropertyOp41
 70
     1
102
RTVSPropertyOp42
 70
     1
102
RTVSPropertyOp43
 70
     1
102
RTVSPropertyOp44
 70
     1
102
RTVSPropertyOp45
 70
     1
102
RTVSPropertyOp46
 70
     1
102
RTVSPropertyOp47
 70
     1
102
RTVSPropertyOp48
 70
     1
102
RTVSPropertyOp49
 70
     1
102
RTVSPropertyOp50
 70
     1
102
RTVSPropertyOp51
 70
     0
102
RTVSPropertyOp52
 70
     0
102
RTVSPropertyOp53
 70
     1
102
RTVSPropertyOp54
 70
     1
102
RTVSPropertyOp55
 70
     1
102
RTVSPropertyOp56
 70
     1
102
RTVSPropertyOp57
 70
     1
102
RTVSPropertyOp58
 70
     1
102
RTVSPropertyOp59
 70
     1
102
RTVSPropertyOp60
 70
     1
102
RTVSPropertyOp61
 70
     1
102
RTVSPropertyOp62
 70
     1
  0
XRECORD
  5
7F2
102
{ACAD_REACTORS
330
7F1
102
}
330
7F1
100
AcDbXrecord
280
     1
102
RTVSPost2010Prop28
280
     0
102
RTVSPost2010PropOp28
 70
     1
102
RTVSPost2010Prop29
280
     1
102
RTVSPost2010PropOp29
 70
     1
102
RTVSPost2010Prop30
280
     1
102
RTVSPost2010PropOp30
 70
     1
102
RTVSPost2010Prop31
280
     0
102
RTVSPost2010PropOp31
 70
     1
102
RTVSPost2010Prop32
280
     0
102
RTVSPost2010PropOp32
 70
     1
102
RTVSPost2010Prop33
280
     0
102
RTVSPost2010PropOp33
 70
     1
102
RTVSPost2010Prop34
280
     0
102
RTVSPost2010PropOp34
 70
     1
102
RTVSPost2010Prop35
280
     0
102
RTVSPost2010PropOp35
 70
     1
102
RTVSPost2010Prop36
280
     0
102
RTVSPost2010PropOp36
 70
     1
102
RTVSPost2010Prop37
 90
       50
102
RTVSPost2010PropOp37
 70
     1
102
RTVSPost2010Prop38
140
0.0
102
RTVSPost2010PropOp38
 70
     1
102
RTVSPost2010Prop39
140
1.0
102
RTVSPost2010PropOp39
 70
     1
102
RTVSPost2010Prop40
 90
        0
102
RTVSPost2010PropOp40
 70
     1
102
RTVSPost2010Prop41ColorIndex
 90
       18
102
RTVSPost2010Prop41ColorRGB
 90
        0
102
RTVSPost2010PropOp41
 70
     1
102
RTVSPost2010Prop42
 90
       50
102
RTVSPost2010PropOp42
 70
     1
102
RTVSPost2010Prop43
 90
        3
102
RTVSPost2010PropOp43
 70
     1
102
RTVSPost2010Prop44ColorIndex
 90
        5
102
RTVSPost2010Prop44ColorRGB
 90
      255
102
RTVSPost2010PropOp44
 70
     1
102
RTVSPost2010Prop45
280
     0
102
RTVSPost2010PropOp45
 70
     1
102
RTVSPost2010Prop46
 90
       50
102
RTVSPost2010PropOp46
 70
     1
102
RTVSPost2010Prop47
 90
       50
102
RTVSPost2010PropOp47
 70
     1
102
RTVSPost2010Prop48
 90
       50
102
RTVSPost2010PropOp48
 70
     1
102
RTVSPost2010Prop49
280
     0
102
RTVSPost2010PropOp49
 70
     1
102
RTVSPost2010Prop50
 90
       50
102
RTVSPost2010PropOp50
 70
     1
102
RTVSPost2010Prop51ColorIndex
 90
      256
102
RTVSPost2010Prop51ColorRGB
 90
-16777216
102
RTVSPost2010PropOp51
 70
     0
102
RTVSPost2010Prop52
140
1.0
102
RTVSPost2010PropOp52
 70
     0
102
RTVSPost2010Prop53
 90
        2
102
RTVSPost2010PropOp53
 70
     1
102
RTVSPost2010Prop54
  1
strokes_ogs.tif
102
RTVSPost2010PropOp54
 70
     1
102
RTVSPost2010Prop55
280
     0
102
RTVSPost2010PropOp55
 70
     1
102
RTVSPost2010Prop56
140
1.0
102
RTVSPost2010PropOp56
 70
     1
102
RTVSPost2010Prop57
140
1.0
102
RTVSPost2010PropOp57
 70
     1
102
RTVSPropertyOp0
 70
     1
102
RTVSPropertyOp1
 70
     1
102
RTVSPropertyOp2
 70
     1
102
RTVSPropertyOp3
 70
     1
102
RTVSPropertyOp4
 70
     1
102
RTVSPropertyOp5
 70
     1
102
RTVSPropertyOp6
 70
     1
102
RTVSPropertyOp7
 70
     1
102
RTVSPropertyOp8
 70
     1
102
RTVSPropertyOp9
 70
     1
102
RTVSPropertyOp10
 70
     1
102
RTVSPropertyOp11
 70
     1
102
RTVSPropertyOp12
 70
     1
102
RTVSPropertyOp13
 70
     1
102
RTVSPropertyOp14
 70
     1
102
RTVSPropertyOp15
 70
     1
102
RTVSPropertyOp16
 70
     1
102
RTVSPropertyOp17
 70
     1
102
RTVSPropertyOp18
 70
     1
102
RTVSPropertyOp19
 70
     1
102
RTVSPropertyOp20
 70
     1
102
RTVSPropertyOp21
 70
     1
102
RTVSPropertyOp22
 70
     1
102
RTVSPropertyOp23
 70
     1
102
RTVSPropertyOp24
 70
     1
102
RTVSPropertyOp25
 70
     1
102
RTVSPropertyOp26
 70
     1
102
RTVSPropertyOp27
 70
     1
102
RTVSPropertyOp28
 70
     1
102
RTVSPropertyOp29
 70
     1
102
RTVSPropertyOp30
 70
     1
102
RTVSPropertyOp31
 70
     1
102
RTVSPropertyOp32
 70
     1
102
RTVSPropertyOp33
 70
     1
102
RTVSPropertyOp34
 70
     1
102
RTVSPropertyOp35
 70
     1
102
RTVSPropertyOp36
 70
     1
102
RTVSPropertyOp37
 70
     1
102
RTVSPropertyOp38
 70
     1
102
RTVSPropertyOp39
 70
     1
102
RTVSPropertyOp40
 70
     1
102
RTVSPropertyOp41
 70
     1
102
RTVSPropertyOp42
 70
     1
102
RTVSPropertyOp43
 70
     1
102
RTVSPropertyOp44
 70
     1
102
RTVSPropertyOp45
 70
     1
102
RTVSPropertyOp46
 70
     1
102
RTVSPropertyOp47
 70
     1
102
RTVSPropertyOp48
 70
     1
102
RTVSPropertyOp49
 70
     1
102
RTVSPropertyOp50
 70
     1
102
RTVSPropertyOp51
 70
     0
102
RTVSPropertyOp52
 70
     0
102
RTVSPropertyOp53
 70
     1
102
RTVSPropertyOp54
 70
     1
102
RTVSPropertyOp55
 70
     1
102
RTVSPropertyOp56
 70
     1
102
RTVSPropertyOp57
 70
     1
102
RTVSPropertyOp58
 70
     1
102
RTVSPropertyOp59
 70
     1
102
RTVSPropertyOp60
 70
     1
102
RTVSPropertyOp61
 70
     1
102
RTVSPropertyOp62
 70
     1
  0
ENDSEC
  0
EOF
