  0
SECTION
  2
HEADER
  9
$ACADVER
  1
AC1018
  9
$ACADMAINTVER
 70
   104
  9
$DWGCODEPAGE
  3
ANSI_932
  9
$INSBASE
 10
0.0
 20
0.0
 30
0.0
  9
$EXTMIN
 10
-0.43733037
 20
-0.30496157
 30
-0.00001525
  9
$EXTMAX
 10
28681.45323106
 20
20000.30524098
 30
1.00001526
  9
$LIMMIN
 10
0.0
 20
0.0
  9
$LIMMAX
 10
420.0
 20
330.0
  9
$ORTHOMODE
 70
     0
  9
$REGENMODE
 70
     1
  9
$FILLMODE
 70
     1
  9
$QTEXTMODE
 70
     0
  9
$MIRRTEXT
 70
     0
  9
$LTSCALE
 40
1.0
  9
$ATTMODE
 70
     1
  9
$TEXTSIZE
 40
0.2
  9
$TRACEWID
 40
0.05
  9
$TEXTSTYLE
  7
STANDARD
  9
$CLAYER
  8
0
  9
$CELTYPE
  6
BYLAYER
  9
$CECOLOR
 62
   256
  9
$CELTSCALE
 40
1.0
  9
$DISPSILH
 70
     1
  9
$DIMSCALE
 40
1.0
  9
$DIMASZ
 40
0.18
  9
$DIMEXO
 40
0.0625
  9
$DIMDLI
 40
0.38
  9
$DIMRND
 40
0.0
  9
$DIMDLE
 40
0.0
  9
$DIMEXE
 40
0.18
  9
$DIMTP
 40
0.0
  9
$DIMTM
 40
0.0
  9
$DIMTXT
 40
0.18
  9
$DIMCEN
 40
0.09
  9
$DIMTSZ
 40
0.0
  9
$DIMTOL
 70
     0
  9
$DIMLIM
 70
     0
  9
$DIMTIH
 70
     1
  9
$DIMTOH
 70
     1
  9
$DIMSE1
 70
     0
  9
$DIMSE2
 70
     0
  9
$DIMTAD
 70
     0
  9
$DIMZIN
 70
     0
  9
$DIMBLK
  1

  9
$DIMASO
 70
     1
  9
$DIMSHO
 70
     0
  9
$DIMPOST
  1

  9
$DIMAPOST
  1

  9
$DIMALT
 70
     0
  9
$DIMALTD
 70
     2
  9
$DIMALTF
 40
25.4
  9
$DIMLFAC
 40
1.0
  9
$DIMTOFL
 70
     0
  9
$DIMTVP
 40
0.0
  9
$DIMTIX
 70
     0
  9
$DIMSOXD
 70
     0
  9
$DIMSAH
 70
     0
  9
$DIMBLK1
  1

  9
$DIMBLK2
  1

  9
$DIMSTYLE
  2
STANDARD
  9
$DIMCLRD
 70
     0
  9
$DIMCLRE
 70
     0
  9
$DIMCLRT
 70
     0
  9
$DIMTFAC
 40
1.0
  9
$DIMGAP
 40
0.09
  9
$DIMJUST
 70
     0
  9
$DIMSD1
 70
     0
  9
$DIMSD2
 70
     0
  9
$DIMTOLJ
 70
     1
  9
$DIMTZIN
 70
     0
  9
$DIMALTZ
 70
     0
  9
$DIMALTTZ
 70
     0
  9
$DIMUPT
 70
     0
  9
$DIMDEC
 70
     4
  9
$DIMTDEC
 70
     4
  9
$DIMALTU
 70
     2
  9
$DIMALTTD
 70
     2
  9
$DIMTXSTY
  7
STANDARD
  9
$DIMAUNIT
 70
     0
  9
$DIMADEC
 70
     0
  9
$DIMALTRND
 40
0.0
  9
$DIMAZIN
 70
     0
  9
$DIMDSEP
 70
    46
  9
$DIMATFIT
 70
     3
  9
$DIMFRAC
 70
     0
  9
$DIMLDRBLK
  1

  9
$DIMLUNIT
 70
     2
  9
$DIMLWD
 70
    -2
  9
$DIMLWE
 70
    -2
  9
$DIMTMOVE
 70
     2
  9
$LUNITS
 70
     2
  9
$LUPREC
 70
     4
  9
$SKETCHINC
 40
0.1
  9
$FILLETRAD
 40
1.0
  9
$AUNITS
 70
     0
  9
$AUPREC
 70
     0
  9
$MENU
  1
acad
  9
$ELEVATION
 40
0.0
  9
$PELEVATION
 40
0.0
  9
$THICKNESS
 40
0.0
  9
$LIMCHECK
 70
     0
  9
$CHAMFERA
 40
0.0
  9
$CHAMFERB
 40
0.0
  9
$CHAMFERC
 40
0.0
  9
$CHAMFERD
 40
0.0
  9
$SKPOLY
 70
     0
  9
$TDCREATE
 40
2453046.710603299
  9
$TDUCREATE
 40
2453046.335603299
  9
$TDUPDATE
 40
2457185.492813322
  9
$TDUUPDATE
 40
2457185.117813322
  9
$TDINDWG
 40
0.0000557407
  9
$TDUSRTIMER
 40
0.0000557407
  9
$USRTIMER
 70
     1
  9
$ANGBASE
 50
0.0
  9
$ANGDIR
 70
     0
  9
$PDMODE
 70
     0
  9
$PDSIZE
 40
0.0
  9
$PLINEWID
 40
0.0
  9
$SPLFRAME
 70
     0
  9
$SPLINETYPE
 70
     6
  9
$SPLINESEGS
 70
     8
  9
$HANDSEED
  5
3CC
  9
$SURFTAB1
 70
     6
  9
$SURFTAB2
 70
     6
  9
$SURFTYPE
 70
     6
  9
$SURFU
 70
     6
  9
$SURFV
 70
     6
  9
$UCSBASE
  2

  9
$UCSNAME
  2

  9
$UCSORG
 10
0.0
 20
0.0
 30
0.0
  9
$UCSXDIR
 10
1.0
 20
0.0
 30
0.0
  9
$UCSYDIR
 10
0.0
 20
1.0
 30
0.0
  9
$UCSORTHOREF
  2

  9
$UCSORTHOVIEW
 70
     0
  9
$UCSORGTOP
 10
0.0
 20
0.0
 30
0.0
  9
$UCSORGBOTTOM
 10
0.0
 20
0.0
 30
0.0
  9
$UCSORGLEFT
 10
0.0
 20
0.0
 30
0.0
  9
$UCSORGRIGHT
 10
0.0
 20
0.0
 30
0.0
  9
$UCSORGFRONT
 10
0.0
 20
0.0
 30
0.0
  9
$UCSORGBACK
 10
0.0
 20
0.0
 30
0.0
  9
$PUCSBASE
  2

  9
$PUCSNAME
  2

  9
$PUCSORG
 10
0.0
 20
0.0
 30
0.0
  9
$PUCSXDIR
 10
1.0
 20
0.0
 30
0.0
  9
$PUCSYDIR
 10
0.0
 20
1.0
 30
0.0
  9
$PUCSORTHOREF
  2

  9
$PUCSORTHOVIEW
 70
     0
  9
$PUCSORGTOP
 10
0.0
 20
0.0
 30
0.0
  9
$PUCSORGBOTTOM
 10
0.0
 20
0.0
 30
0.0
  9
$PUCSORGLEFT
 10
0.0
 20
0.0
 30
0.0
  9
$PUCSORGRIGHT
 10
0.0
 20
0.0
 30
0.0
  9
$PUCSORGFRONT
 10
0.0
 20
0.0
 30
0.0
  9
$PUCSORGBACK
 10
0.0
 20
0.0
 30
0.0
  9
$USERI1
 70
     0
  9
$USERI2
 70
     0
  9
$USERI3
 70
     0
  9
$USERI4
 70
     0
  9
$USERI5
 70
     0
  9
$USERR1
 40
0.0
  9
$USERR2
 40
0.0
  9
$USERR3
 40
0.0
  9
$USERR4
 40
0.0
  9
$USERR5
 40
0.0
  9
$WORLDVIEW
 70
     1
  9
$SHADEDGE
 70
     3
  9
$SHADEDIF
 70
    70
  9
$TILEMODE
 70
     1
  9
$MAXACTVP
 70
    16
  9
$PINSBASE
 10
0.0
 20
0.0
 30
0.0
  9
$PLIMCHECK
 70
     0
  9
$PEXTMIN
 10
1.00000000E+20
 20
1.00000000E+20
 30
1.00000000E+20
  9
$PEXTMAX
 10
-1.00000000E+20
 20
-1.00000000E+20
 30
-1.00000000E+20
  9
$PLIMMIN
 10
0.0
 20
0.0
  9
$PLIMMAX
 10
12.0
 20
9.0
  9
$UNITMODE
 70
     0
  9
$VISRETAIN
 70
     0
  9
$PLINEGEN
 70
     0
  9
$PSLTSCALE
 70
     0
  9
$TREEDEPTH
 70
  3020
  9
$CMLSTYLE
  2
STANDARD
  9
$CMLJUST
 70
     0
  9
$CMLSCALE
 40
1.0
  9
$PROXYGRAPHICS
 70
     1
  9
$MEASUREMENT
 70
     1
  9
$CELWEIGHT
370
    -1
  9
$ENDCAPS
280
     0
  9
$JOINSTYLE
280
     0
  9
$LWDISPLAY
290
     0
  9
$INSUNITS
 70
     0
  9
$HYPERLINKBASE
  1

  9
$STYLESHEET
  1

  9
$XEDIT
290
     1
  9
$CEPSNTYPE
380
     0
  9
$PSTYLEMODE
290
     1
  9
$FINGERPRINTGUID
  2
{3682FA60-AC38-472C-BD9A-D7CE5A53CEE5}
  9
$VERSIONGUID
  2
{51EDE62D-6932-4E80-A657-EB898F0600EF}
  9
$EXTNAMES
290
     1
  9
$PSVPSCALE
 40
0.0
  9
$OLESTARTUP
290
     0
  9
$SORTENTS
280
   127
  9
$INDEXCTL
280
     0
  9
$HIDETEXT
280
     0
  9
$XCLIPFRAME
290
     0
  9
$HALOGAP
280
     0
  9
$OBSCOLOR
 70
   257
  9
$OBSLTYPE
280
     0
  9
$INTERSECTIONDISPLAY
280
     0
  9
$INTERSECTIONCOLOR
 70
   257
  9
$DIMASSOC
280
     1
  9
$PROJECTNAME
  1

  0
ENDSEC
  0
SECTION
  2
CLASSES
  0
CLASS
  1
DICTIONARYVAR
  2
AcDbDictionaryVar
  3
ObjectDBX Classes
 90
        0
 91
        8
280
     0
281
     0
  0
CLASS
  1
ACDBDICTIONARYWDFLT
  2
AcDbDictionaryWithDefault
  3
ObjectDBX Classes
 90
        0
 91
        1
280
     0
281
     0
  0
CLASS
  1
MATERIAL
  2
AcDbMaterial
  3
ObjectDBX Classes
 90
     1153
 91
        3
280
     0
281
     0
  0
CLASS
  1
VISUALSTYLE
  2
AcDbVisualStyle
  3
ObjectDBX Classes
 90
     4095
 91
       24
280
     0
281
     0
  0
CLASS
  1
TABLESTYLE
  2
AcDbTableStyle
  3
ObjectDBX Classes
 90
     4095
 91
        1
280
     0
281
     0
  0
CLASS
  1
SCALE
  2
AcDbScale
  3
ObjectDBX Classes
 90
     1153
 91
       17
280
     0
281
     0
  0
CLASS
  1
MLEADERSTYLE
  2
AcDbMLeaderStyle
  3
ACDB_MLEADERSTYLE_CLASS
 90
     4095
 91
        1
280
     0
281
     0
  0
CLASS
  1
ACDBSECTIONVIEWSTYLE
  2
AcDbSectionViewStyle
  3
ObjectDBX Classes
 90
     1025
 91
        1
280
     0
281
     0
  0
CLASS
  1
ACDBDETAILVIEWSTYLE
  2
AcDbDetailViewStyle
  3
ObjectDBX Classes
 90
     1025
 91
        1
280
     0
281
     0
  0
CLASS
  1
CELLSTYLEMAP
  2
AcDbCellStyleMap
  3
ObjectDBX Classes
 90
     1152
 91
        2
280
     0
281
     0
  0
ENDSEC
  0
SECTION
  2
TABLES
  0
TABLE
  2
VPORT
  5
2B9
330
0
100
AcDbSymbolTable
 70
     1
  0
VPORT
  5
2E9
330
2B9
100
AcDbSymbolTableRecord
100
AcDbViewportTableRecord
  2
*ACTIVE
 70
     0
 10
0.0
 20
0.0
 11
1.0
 21
1.0
 12
14340.50795035
 22
10000.00013971
 13
0.0
 23
0.0
 14
1.0
 24
1.0
 15
10.0
 25
10.0
 16
0.0
 26
0.0
 36
1.0
 17
0.0
 27
0.0
 37
0.0
 40
21503.30364591
 41
1.34178905
 42
50.0
 43
0.0
 44
0.0
 50
0.0
 51
0.0
 71
     0
 72
   100
 73
     1
 74
     0
 75
     1
 76
     0
 77
     0
 78
     0
281
     0
 65
     1
110
0.0
120
0.0
130
0.0
111
1.0
121
0.0
131
0.0
112
0.0
122
1.0
132
0.0
 79
     0
146
0.0
1001
ACAD_NAV_VCDISPLAY
1070
     1
  0
ENDTAB
  0
TABLE
  2
LTYPE
  5
2B6
330
0
100
AcDbSymbolTable
 70
     3
  0
LTYPE
  5
2C2
330
2B6
100
AcDbSymbolTableRecord
100
AcDbLinetypeTableRecord
  2
BYBLOCK
 70
     0
  3

 72
    65
 73
     0
 40
0.0
  0
LTYPE
  5
2C3
330
2B6
100
AcDbSymbolTableRecord
100
AcDbLinetypeTableRecord
  2
BYLAYER
 70
     0
  3

 72
    65
 73
     0
 40
0.0
  0
LTYPE
  5
2C4
330
2B6
100
AcDbSymbolTableRecord
100
AcDbLinetypeTableRecord
  2
CONTINUOUS
 70
     0
  3
Solid line
 72
    65
 73
     0
 40
0.0
  0
LTYPE
  5
2CF
330
2B6
100
AcDbSymbolTableRecord
100
AcDbLinetypeTableRecord
  2
CENTER
 70
     0
  3
____ _ ____ _ ____ _ ____ _ ____ _ ____ _ ____ 
 72
    65
 73
     4
 40
2.0
 49
1.25
 74
     0
 49
-0.25
 74
     0
 49
0.25
 74
     0
 49
-0.25
 74
     0
  0
LTYPE
  5
2D0
330
2B6
100
AcDbSymbolTableRecord
100
AcDbLinetypeTableRecord
  2
PHANTOM
 70
     0
  3
______  __  __  ______  __  __  ______  __  __ 
 72
    65
 73
     6
 40
2.5
 49
1.25
 74
     0
 49
-0.25
 74
     0
 49
0.25
 74
     0
 49
-0.25
 74
     0
 49
0.25
 74
     0
 49
-0.25
 74
     0
  0
ENDTAB
  0
TABLE
  2
LAYER
  5
2B3
330
0
100
AcDbSymbolTable
 70
    11
  0
LAYER
  5
2BF
330
2B3
100
AcDbSymbolTableRecord
100
AcDbLayerTableRecord
  2
0
 70
     0
 62
     7
  6
CONTINUOUS
370
    -3
390
2EC
  0
LAYER
  5
2D4
330
2B3
100
AcDbSymbolTableRecord
100
AcDbLayerTableRecord
  2
YKK_IN
 70
     0
 62
     1
  6
CONTINUOUS
370
    -3
390
2EC
  0
LAYER
  5
2D5
330
2B3
100
AcDbSymbolTableRecord
100
AcDbLayerTableRecord
  2
YKK_F1
 70
     0
 62
     7
  6
CONTINUOUS
370
    -3
390
2EC
  0
LAYER
  5
2D6
330
2B3
100
AcDbSymbolTableRecord
100
AcDbLayerTableRecord
  2
YKK_N1
 70
     0
 62
     2
  6
CONTINUOUS
370
    -3
390
2EC
  0
LAYER
  5
2D7
330
2B3
100
AcDbSymbolTableRecord
100
AcDbLayerTableRecord
  2
YKK_Z1
 70
     0
 62
     7
  6
CONTINUOUS
370
    -3
390
2EC
  0
LAYER
  5
2D8
330
2B3
100
AcDbSymbolTableRecord
100
AcDbLayerTableRecord
  2
YKK_A1
 70
     0
 62
     4
  6
CONTINUOUS
370
    -3
390
2EC
  0
LAYER
  5
2D9
330
2B3
100
AcDbSymbolTableRecord
100
AcDbLayerTableRecord
  2
YKK_A2
 70
     0
 62
     3
  6
CONTINUOUS
370
    -3
390
2EC
  0
LAYER
  5
2DA
330
2B3
100
AcDbSymbolTableRecord
100
AcDbLayerTableRecord
  2
YKK_B1
 70
     0
 62
     4
  6
CONTINUOUS
370
    -3
390
2EC
  0
LAYER
  5
2DB
330
2B3
100
AcDbSymbolTableRecord
100
AcDbLayerTableRecord
  2
YKK_C1
 70
     0
 62
     4
  6
CONTINUOUS
370
    -3
390
2EC
  0
LAYER
  5
2DC
330
2B3
100
AcDbSymbolTableRecord
100
AcDbLayerTableRecord
  2
YKK_B2
 70
     0
 62
     5
  6
CONTINUOUS
370
    -3
390
2EC
  0
LAYER
  5
2DD
330
2B3
100
AcDbSymbolTableRecord
100
AcDbLayerTableRecord
  2
YKK_C2
 70
     0
 62
     5
  6
CONTINUOUS
370
    -3
390
2EC
  0
ENDTAB
  0
TABLE
  2
STYLE
  5
2B4
330
0
100
AcDbSymbolTable
 70
     3
  0
STYLE
  5
2C0
330
2B4
100
AcDbSymbolTableRecord
100
AcDbTextStyleTableRecord
  2
STANDARD
 70
     0
 40
0.0
 41
1.0
 50
0.0
 71
     0
 42
0.2
  3
txt
  4

  0
STYLE
  5
2CD
330
2B4
100
AcDbSymbolTableRecord
100
AcDbTextStyleTableRecord
  2
EXTFONT
 70
     0
 40
60.0
 41
1.0
 50
0.0
 71
     0
 42
60.0
  3
txt.shx
  4
EXTFONT
  0
STYLE
  5
2CE
330
2B4
100
AcDbSymbolTableRecord
100
AcDbTextStyleTableRecord
  2
YKK_SGSTYLE1
 70
     0
 40
0.0
 41
0.8
 50
0.0
 71
     0
 42
60.0
  3
ROMANS.SHX
  4
EXTFONT.SHX
  0
ENDTAB
  0
TABLE
  2
VIEW
  5
2B7
330
0
100
AcDbSymbolTable
 70
     0
  0
ENDTAB
  0
TABLE
  2
UCS
  5
2B8
330
0
100
AcDbSymbolTable
 70
     0
  0
ENDTAB
  0
TABLE
  2
APPID
  5
2BA
330
0
100
AcDbSymbolTable
 70
     5
  0
APPID
  5
2C1
330
2BA
100
AcDbSymbolTableRecord
100
AcDbRegAppTableRecord
  2
ACAD
 70
     0
  0
APPID
  5
378
330
2BA
100
AcDbSymbolTableRecord
100
AcDbRegAppTableRecord
  2
ACAD_MLEADERVER
 70
     0
  0
APPID
  5
38C
330
2BA
100
AcDbSymbolTableRecord
100
AcDbRegAppTableRecord
  2
ACAD_PSEXT
 70
     0
  0
APPID
  5
38D
330
2BA
100
AcDbSymbolTableRecord
100
AcDbRegAppTableRecord
  2
ACAD_NAV_VCDISPLAY
 70
     0
  0
APPID
  5
38E
330
2BA
100
AcDbSymbolTableRecord
100
AcDbRegAppTableRecord
  2
YKK_AP_LOCKLAYER
 70
     0
  0
ENDTAB
  0
TABLE
  2
DIMSTYLE
  5
2BB
330
0
100
AcDbSymbolTable
 70
     1
100
AcDbDimStyleTable
 71
     0
  0
DIMSTYLE
105
2D3
330
2BB
100
AcDbSymbolTableRecord
100
AcDbDimStyleTableRecord
  2
STANDARD
 70
     0
279
     2
340
2C0
  0
ENDTAB
  0
TABLE
  2
BLOCK_RECORD
  5
2B2
330
0
100
AcDbSymbolTable
 70
     0
  0
BLOCK_RECORD
  5
2C8
330
2B2
100
AcDbSymbolTableRecord
100
AcDbBlockTableRecord
  2
*MODEL_SPACE
340
33F
  0
BLOCK_RECORD
  5
2C5
330
2B2
100
AcDbSymbolTableRecord
100
AcDbBlockTableRecord
  2
*PAPER_SPACE
340
340
  0
ENDTAB
  0
ENDSEC
  0
SECTION
  2
BLOCKS
  0
BLOCK
  5
2E1
330
2C8
100
AcDbEntity
  8
0
100
AcDbBlockBegin
  2
*MODEL_SPACE
 70
     0
 10
0.0
 20
0.0
 30
0.0
  3
*MODEL_SPACE
  1

  0
ENDBLK
  5
2E2
330
2C8
100
AcDbEntity
  8
0
100
AcDbBlockEnd
  0
BLOCK
  5
2DF
330
2C5
100
AcDbEntity
 67
     1
  8
0
100
AcDbBlockBegin
  2
*PAPER_SPACE
 70
     0
 10
0.0
 20
0.0
 30
0.0
  3
*PAPER_SPACE
  1

  0
ENDBLK
  5
2E0
330
2C5
100
AcDbEntity
 67
     1
  8
0
100
AcDbBlockEnd
  0
ENDSEC
  0
SECTION
  2
ENTITIES
  0
POINT
  5
33
330
2C8
100
AcDbEntity
  8
YKK_C2
100
AcDbPoint
 10
0.0
 20
0.0
 30
0.0
  0
POINT
  5
34
330
2C8
100
AcDbEntity
  8
YKK_B2
100
AcDbPoint
 10
0.0
 20
0.0
 30
0.0
  0
POINT
  5
35
330
2C8
100
AcDbEntity
  8
YKK_C1
100
AcDbPoint
 10
0.0
 20
0.0
 30
0.0
  0
POINT
  5
36
330
2C8
100
AcDbEntity
  8
YKK_B1
100
AcDbPoint
 10
0.0
 20
0.0
 30
0.0
  0
POINT
  5
37
330
2C8
100
AcDbEntity
  8
YKK_A2
100
AcDbPoint
 10
0.0
 20
0.0
 30
0.0
  0
POINT
  5
38
330
2C8
100
AcDbEntity
  8
YKK_A1
100
AcDbPoint
 10
0.0
 20
0.0
 30
0.0
  0
POINT
  5
39
330
2C8
100
AcDbEntity
  8
YKK_Z1
100
AcDbPoint
 10
0.0
 20
0.0
 30
0.0
  0
POINT
  5
3A
330
2C8
100
AcDbEntity
  8
YKK_N1
100
AcDbPoint
 10
0.0
 20
0.0
 30
0.0
  0
POINT
  5
3B
330
2C8
100
AcDbEntity
  8
YKK_F1
100
AcDbPoint
 10
0.0
 20
0.0
 30
0.0
  0
POINT
  5
3C
330
2C8
100
AcDbEntity
  8
YKK_IN
100
AcDbPoint
 10
0.0
 20
0.0
 30
0.0
  0
LINE
  5
3D
330
2C8
100
AcDbEntity
  8
YKK_F1
100
AcDbLine
 10
0.0
 20
0.0
 30
0.0
 11
0.0
 21
20000.0
 31
0.0
  0
LINE
  5
3E
330
2C8
100
AcDbEntity
  8
YKK_F1
100
AcDbLine
 10
0.0
 20
19500.0
 30
0.0
 11
28500.0
 21
19500.0
 31
0.0
  0
LINE
  5
3F
330
2C8
100
AcDbEntity
  8
YKK_F1
100
AcDbLine
 10
0.0
 20
20000.0
 30
0.0
 11
28681.0155
 21
20000.0
 31
0.0
  0
LINE
  5
40
330
2C8
100
AcDbEntity
  8
YKK_F1
100
AcDbLine
 10
28681.0155
 20
0.0
 30
0.0
 11
28681.0155
 21
20000.0
 31
0.0
  0
LINE
  5
41
330
2C8
100
AcDbEntity
  8
YKK_F1
100
AcDbLine
 10
28500.0
 20
0.0
 30
0.0
 11
28500.0
 21
20000.0
 31
0.0
  0
LINE
  5
42
330
2C8
100
AcDbEntity
  8
YKK_F1
100
AcDbLine
 10
22800.0
 20
0.0
 30
0.0
 11
22800.0
 21
19500.0
 31
0.0
  0
LINE
  5
43
330
2C8
100
AcDbEntity
  8
YKK_F1
100
AcDbLine
 10
17100.0
 20
0.0
 30
0.0
 11
17100.0
 21
19500.0
 31
0.0
  0
LINE
  5
44
330
2C8
100
AcDbEntity
  8
YKK_F1
100
AcDbLine
 10
11400.0
 20
0.0
 30
0.0
 11
11400.0
 21
19500.0
 31
0.0
  0
LINE
  5
45
330
2C8
100
AcDbEntity
  8
YKK_F1
100
AcDbLine
 10
5700.0
 20
0.0
 30
0.0
 11
5700.0
 21
19500.0
 31
0.0
  0
LINE
  5
46
330
2C8
100
AcDbEntity
  8
YKK_F1
100
AcDbLine
 10
0.0
 20
0.0
 30
0.0
 11
28681.0155
 21
0.0
 31
0.0
  0
LINE
  5
47
330
2C8
100
AcDbEntity
  8
YKK_F1
100
AcDbLine
 10
0.0
 20
19050.0
 30
0.0
 11
28500.0
 21
19050.0
 31
0.0
  0
LINE
  5
48
330
2C8
100
AcDbEntity
  8
YKK_F1
100
AcDbLine
 10
0.0
 20
18600.0
 30
0.0
 11
28500.0
 21
18600.0
 31
0.0
  0
LINE
  5
49
330
2C8
100
AcDbEntity
  8
YKK_F1
100
AcDbLine
 10
0.0
 20
13000.0
 30
0.0
 11
28500.0
 21
13000.0
 31
0.0
  0
LINE
  5
4A
330
2C8
100
AcDbEntity
  8
YKK_F1
100
AcDbLine
 10
0.0
 20
6500.0
 30
0.0
 11
28500.0
 21
6500.0
 31
0.0
  0
LINE
  5
4B
330
2C8
100
AcDbEntity
  8
YKK_F1
100
AcDbLine
 10
0.0
 20
12550.0
 30
0.0
 11
28500.0
 21
12550.0
 31
0.0
  0
LINE
  5
4C
330
2C8
100
AcDbEntity
  8
YKK_F1
100
AcDbLine
 10
0.0
 20
12100.0
 30
0.0
 11
28500.0
 21
12100.0
 31
0.0
  0
LINE
  5
4D
330
2C8
100
AcDbEntity
  8
YKK_F1
100
AcDbLine
 10
0.0
 20
6050.0
 30
0.0
 11
28500.0
 21
6050.0
 31
0.0
  0
LINE
  5
4E
330
2C8
100
AcDbEntity
  8
YKK_F1
100
AcDbLine
 10
0.0
 20
5600.0
 30
0.0
 11
28500.0
 21
5600.0
 31
0.0
  0
TEXT
  5
4F
330
2C8
100
AcDbEntity
  8
0
100
AcDbText
 10
100.0
 20
19187.5
 30
0.0
 40
175.0
  1
はめ殺し窓
  7
EXTFONT
100
AcDbText
  0
TEXT
  5
51
330
2C8
100
AcDbEntity
  8
0
100
AcDbText
 10
100.0
 20
18737.5
 30
0.0
 40
175.0
  1
W=1,000  H=1,500
  7
EXTFONT
100
AcDbText
  0
TEXT
  5
52
330
2C8
100
AcDbEntity
  8
0
100
AcDbText
 10
5800.0
 20
19187.5
 30
0.0
 40
175.0
  1
はめ殺し窓（ブラインド内蔵）
  7
EXTFONT
100
AcDbText
  0
TEXT
  5
53
330
2C8
100
AcDbEntity
  8
0
100
AcDbText
 10
5800.0
 20
18737.5
 30
0.0
 40
175.0
  1
W=1,000  H=1,500
  7
EXTFONT
100
AcDbText
  0
TEXT
  5
54
330
2C8
100
AcDbEntity
  8
0
100
AcDbText
 10
500.0
 20
19625.0
 30
0.0
 40
250.0
  1
ＢＦＡＴＰＪ２８　ＹＡＴ－１００大型タイプ［Ｋ－８４１］　つらいち枠　はめ殺し窓
  7
EXTFONT
100
AcDbText
  0
LINE
  5
55
330
2C8
100
AcDbEntity
  8
YKK_Z1
  6
Continuous
100
AcDbLine
 10
7085.0
 20
14230.0
 30
0.0
 11
7600.0
 21
14230.0
 31
0.0
  0
LINE
  5
56
330
2C8
100
AcDbEntity
  8
YKK_Z1
  6
Continuous
100
AcDbLine
 10
7060.0
 20
14252.0
 30
0.0
 11
7060.0
 21
14240.0
 31
0.0
  0
LINE
  5
57
330
2C8
100
AcDbEntity
  8
YKK_Z1
  6
Continuous
100
AcDbLine
 10
6700.0
 20
14252.0
 30
0.0
 11
7060.0
 21
14252.0
 31
0.0
  0
LINE
  5
58
330
2C8
100
AcDbEntity
  8
YKK_Z1
  6
Continuous
100
AcDbLine
 10
7060.0
 20
14240.0
 30
0.0
 11
6700.0
 21
14240.0
 31
0.0
  0
LINE
  5
59
330
2C8
100
AcDbEntity
  8
YKK_Z1
  6
Continuous
100
AcDbLine
 10
7082.0
 20
14415.0
 30
0.0
 11
7062.0
 21
14415.0
 31
0.0
  0
LINE
  5
5A
330
2C8
100
AcDbEntity
  8
YKK_Z1
  6
Continuous
100
AcDbLine
 10
7078.13708536
 20
14230.0
 30
0.0
 11
7085.0
 21
14236.8629182
 31
0.0
  0
LINE
  5
5B
330
2C8
100
AcDbEntity
  8
YKK_Z1
  6
Continuous
100
AcDbLine
 10
7060.0
 20
14240.14717891
 30
0.0
 11
7085.0
 21
14265.1471919
 31
0.0
  0
LINE
  5
5C
330
2C8
100
AcDbEntity
  8
YKK_Z1
  6
Continuous
100
AcDbLine
 10
7060.0
 20
14268.43145261
 30
0.0
 11
7085.0
 21
14293.4314656
 31
0.0
  0
LINE
  5
5D
330
2C8
100
AcDbEntity
  8
YKK_Z1
  6
Continuous
100
AcDbLine
 10
7060.0
 20
14296.7157263
 30
0.0
 11
7085.0
 21
14321.71573929
 31
0.0
  0
LINE
  5
5F
330
2C8
100
AcDbEntity
  8
YKK_Z1
  6
Continuous
100
AcDbLine
 10
7060.0
 20
14325.0
 30
0.0
 11
7085.0
 21
14325.0
 31
0.0
  0
LINE
  5
60
330
2C8
100
AcDbEntity
  8
YKK_Z1
  6
Continuous
100
AcDbLine
 10
7060.0
 20
14230.0
 30
0.0
 11
7060.0
 21
14325.0
 31
0.0
  0
LINE
  5
61
330
2C8
100
AcDbEntity
  8
YKK_Z1
  6
Continuous
100
AcDbLine
 10
7085.0
 20
14230.0
 30
0.0
 11
7060.0
 21
14230.0
 31
0.0
  0
LINE
  5
62
330
2C8
100
AcDbEntity
  8
YKK_Z1
  6
Continuous
100
AcDbLine
 10
7085.0
 20
14325.0
 30
0.0
 11
7085.0
 21
14230.0
 31
0.0
  0
LINE
  5
63
330
2C8
100
AcDbEntity
  8
YKK_Z1
  6
CENTER
100
AcDbLine
 10
7061.0
 20
14340.0
 30
0.0
 11
6700.0
 21
14340.0
 31
0.0
  0
LINE
  5
64
330
2C8
100
AcDbEntity
  8
YKK_Z1
  6
Continuous
100
AcDbLine
 10
7047.0
 20
14286.73103279
 30
0.0
 11
7025.2689785
 21
14265.0
 31
0.0
  0
LINE
  5
65
330
2C8
100
AcDbEntity
  8
YKK_Z1
  6
Continuous
100
AcDbLine
 10
6878.28418106
 20
14415.0
 30
0.0
 11
6728.284259
 21
14265.0
 31
0.0
  0
LINE
  5
66
330
2C8
100
AcDbEntity
  8
YKK_Z1
  6
Continuous
100
AcDbLine
 10
7047.0
 20
14306.53002438
 30
0.0
 11
7005.4699972
 21
14265.0
 31
0.0
  0
LINE
  5
67
330
2C8
100
AcDbEntity
  8
YKK_Z1
  6
Continuous
100
AcDbLine
 10
6858.48519976
 20
14415.0
 30
0.0
 11
6708.4852777
 21
14265.0
 31
0.0
  0
LINE
  5
68
330
2C8
100
AcDbEntity
  8
YKK_Z1
  6
Continuous
100
AcDbLine
 10
7047.0
 20
14315.01530649
 30
0.0
 11
6996.9847195
 21
14265.0
 31
0.0
  0
LINE
  5
69
330
2C8
100
AcDbEntity
  8
YKK_Z1
  6
Continuous
100
AcDbLine
 10
6849.99992206
 20
14415.0
 30
0.0
 11
6700.0
 21
14265.0
 31
0.0
  0
LINE
  5
6A
330
2C8
100
AcDbEntity
  8
YKK_Z1
  6
Continuous
100
AcDbLine
 10
7062.0
 20
14415.0
 30
0.0
 11
6700.0
 21
14415.0
 31
0.0
  0
LINE
  5
6B
330
2C8
100
AcDbEntity
  8
YKK_Z1
  6
Continuous
100
AcDbLine
 10
7062.0
 20
14380.0
 30
0.0
 11
7062.0
 21
14415.0
 31
0.0
  0
LINE
  5
6C
330
2C8
100
AcDbEntity
  8
YKK_Z1
  6
Continuous
100
AcDbLine
 10
7047.0
 20
14370.0
 30
0.0
 11
7062.0
 21
14380.0
 31
0.0
  0
LINE
  5
6D
330
2C8
100
AcDbEntity
  8
YKK_Z1
  6
Continuous
100
AcDbLine
 10
7047.0
 20
14265.0
 30
0.0
 11
7047.0
 21
14370.0
 31
0.0
  0
LINE
  5
6E
330
2C8
100
AcDbEntity
  8
YKK_Z1
  6
Continuous
100
AcDbLine
 10
6700.0
 20
14265.0
 30
0.0
 11
7047.0
 21
14265.0
 31
0.0
  0
LINE
  5
6F
330
2C8
100
AcDbEntity
  8
YKK_Z1
  6
Continuous
100
AcDbLine
 10
8115.0
 20
14230.0
 30
0.0
 11
7600.0
 21
14230.0
 31
0.0
  0
LINE
  5
70
330
2C8
100
AcDbEntity
  8
YKK_Z1
  6
Continuous
100
AcDbLine
 10
8140.0
 20
14252.0
 30
0.0
 11
8140.0
 21
14240.0
 31
0.0
  0
LINE
  5
71
330
2C8
100
AcDbEntity
  8
YKK_Z1
  6
Continuous
100
AcDbLine
 10
8500.0
 20
14252.0
 30
0.0
 11
8140.0
 21
14252.0
 31
0.0
  0
LINE
  5
72
330
2C8
100
AcDbEntity
  8
YKK_Z1
  6
Continuous
100
AcDbLine
 10
8140.0
 20
14240.0
 30
0.0
 11
8500.0
 21
14240.0
 31
0.0
  0
LINE
  5
73
330
2C8
100
AcDbEntity
  8
YKK_Z1
  6
Continuous
100
AcDbLine
 10
8118.0
 20
14415.0
 30
0.0
 11
8138.0
 21
14415.0
 31
0.0
  0
LINE
  5
74
330
2C8
100
AcDbEntity
  8
YKK_Z1
  6
Continuous
100
AcDbLine
 10
8140.0
 20
14240.14717891
 30
0.0
 11
8129.85281933
 21
14230.0
 31
0.0
  0
LINE
  5
75
330
2C8
100
AcDbEntity
  8
YKK_Z1
  6
Continuous
100
AcDbLine
 10
8140.0
 20
14268.43145261
 30
0.0
 11
8115.0
 21
14243.43145694
 31
0.0
  0
LINE
  5
76
330
2C8
100
AcDbEntity
  8
YKK_Z1
  6
Continuous
100
AcDbLine
 10
8140.0
 20
14296.7157263
 30
0.0
 11
8115.0
 21
14271.71573063
 31
0.0
  0
LINE
  5
77
330
2C8
100
AcDbEntity
  8
YKK_Z1
  6
Continuous
100
AcDbLine
 10
8140.0
 20
14325.0
 30
0.0
 11
8115.0
 21
14300.00000433
 31
0.0
  0
LINE
  5
78
330
2C8
100
AcDbEntity
  8
YKK_Z1
  6
Continuous
100
AcDbLine
 10
8140.0
 20
14325.0
 30
0.0
 11
8115.0
 21
14325.0
 31
0.0
  0
LINE
  5
79
330
2C8
100
AcDbEntity
  8
YKK_Z1
  6
Continuous
100
AcDbLine
 10
8140.0
 20
14230.0
 30
0.0
 11
8140.0
 21
14325.0
 31
0.0
  0
LINE
  5
7A
330
2C8
100
AcDbEntity
  8
YKK_Z1
  6
Continuous
100
AcDbLine
 10
8115.0
 20
14230.0
 30
0.0
 11
8140.0
 21
14230.0
 31
0.0
  0
LINE
  5
7B
330
2C8
100
AcDbEntity
  8
YKK_Z1
  6
Continuous
100
AcDbLine
 10
8115.0
 20
14325.0
 30
0.0
 11
8115.0
 21
14230.0
 31
0.0
  0
LINE
  5
7C
330
2C8
100
AcDbEntity
  8
YKK_Z1
  6
CENTER
100
AcDbLine
 10
8139.0
 20
14340.0
 30
0.0
 11
8500.0
 21
14340.0
 31
0.0
  0
LINE
  5
7D
330
2C8
100
AcDbEntity
  8
YKK_Z1
  6
Continuous
100
AcDbLine
 10
8231.29935334
 20
14265.0
 30
0.0
 11
8381.29937932
 21
14415.0
 31
0.0
  0
LINE
  5
7E
330
2C8
100
AcDbEntity
  8
YKK_Z1
  6
Continuous
100
AcDbLine
 10
8211.50035832
 20
14265.0
 30
0.0
 11
8361.5003843
 21
14415.0
 31
0.0
  0
LINE
  5
7F
330
2C8
100
AcDbEntity
  8
YKK_Z1
  6
Continuous
100
AcDbLine
 10
8203.01507474
 20
14265.0
 30
0.0
 11
8353.01510072
 21
14415.0
 31
0.0
  0
LINE
  5
81
330
2C8
100
AcDbEntity
  8
YKK_Z1
  6
Continuous
100
AcDbLine
 10
8138.0
 20
14415.0
 30
0.0
 11
8500.0
 21
14415.0
 31
0.0
  0
LINE
  5
82
330
2C8
100
AcDbEntity
  8
YKK_Z1
  6
Continuous
100
AcDbLine
 10
8138.0
 20
14380.0
 30
0.0
 11
8138.0
 21
14415.0
 31
0.0
  0
LINE
  5
83
330
2C8
100
AcDbEntity
  8
YKK_Z1
  6
Continuous
100
AcDbLine
 10
8153.0
 20
14370.0
 30
0.0
 11
8138.0
 21
14380.0
 31
0.0
  0
LINE
  5
84
330
2C8
100
AcDbEntity
  8
YKK_Z1
  6
Continuous
100
AcDbLine
 10
8153.0
 20
14265.0
 30
0.0
 11
8153.0
 21
14370.0
 31
0.0
  0
LINE
  5
85
330
2C8
100
AcDbEntity
  8
YKK_Z1
  6
Continuous
100
AcDbLine
 10
8500.0
 20
14265.0
 30
0.0
 11
8153.0
 21
14265.0
 31
0.0
  0
LINE
  5
86
330
2C8
100
AcDbEntity
  8
YKK_Z1
  6
Continuous
100
AcDbLine
 10
9695.0
 20
17340.0
 30
0.0
 11
9695.0
 21
16575.0
 31
0.0
  0
LINE
  5
87
330
2C8
100
AcDbEntity
  8
YKK_Z1
  6
Continuous
100
AcDbLine
 10
9673.0
 20
17365.0
 30
0.0
 11
9685.0
 21
17365.0
 31
0.0
  0
LINE
  5
88
330
2C8
100
AcDbEntity
  8
YKK_Z1
  6
Continuous
100
AcDbLine
 10
9673.0
 20
17725.0
 30
0.0
 11
9673.0
 21
17365.0
 31
0.0
  0
LINE
  5
89
330
2C8
100
AcDbEntity
  8
YKK_Z1
  6
Continuous
100
AcDbLine
 10
9685.0
 20
17365.0
 30
0.0
 11
9685.0
 21
17725.0
 31
0.0
  0
LINE
  5
8A
330
2C8
100
AcDbEntity
  8
YKK_Z1
  6
Continuous
100
AcDbLine
 10
9510.0
 20
17343.0
 30
0.0
 11
9510.0
 21
17364.0
 31
0.0
  0
LINE
  5
8B
330
2C8
100
AcDbEntity
  8
YKK_Z1
  6
Continuous
100
AcDbLine
 10
9695.0
 20
17346.86291464
 30
0.0
 11
9688.1370818
 21
17340.0
 31
0.0
  0
LINE
  5
8C
330
2C8
100
AcDbEntity
  8
YKK_Z1
  6
Continuous
100
AcDbLine
 10
9684.85282109
 20
17365.0
 30
0.0
 11
9659.8528081
 21
17340.0
 31
0.0
  0
LINE
  5
8D
330
2C8
100
AcDbEntity
  8
YKK_Z1
  6
Continuous
100
AcDbLine
 10
9656.56854739
 20
17365.0
 30
0.0
 11
9631.5685344
 21
17340.0
 31
0.0
  0
LINE
  5
8E
330
2C8
100
AcDbEntity
  8
YKK_Z1
  6
Continuous
100
AcDbLine
 10
9628.2842737
 20
17365.0
 30
0.0
 11
9603.28426071
 21
17340.0
 31
0.0
  0
LINE
  5
90
330
2C8
100
AcDbEntity
  8
YKK_Z1
  6
Continuous
100
AcDbLine
 10
9600.0
 20
17365.0
 30
0.0
 11
9600.0
 21
17340.0
 31
0.0
  0
LINE
  5
91
330
2C8
100
AcDbEntity
  8
YKK_Z1
  6
Continuous
100
AcDbLine
 10
9695.0
 20
17365.0
 30
0.0
 11
9600.0
 21
17365.0
 31
0.0
  0
LINE
  5
92
330
2C8
100
AcDbEntity
  8
YKK_Z1
  6
Continuous
100
AcDbLine
 10
9695.0
 20
17340.0
 30
0.0
 11
9695.0
 21
17365.0
 31
0.0
  0
LINE
  5
93
330
2C8
100
AcDbEntity
  8
YKK_Z1
  6
Continuous
100
AcDbLine
 10
9600.0
 20
17340.0
 30
0.0
 11
9695.0
 21
17340.0
 31
0.0
  0
LINE
  5
94
330
2C8
100
AcDbEntity
  8
YKK_Z1
  6
CENTER
100
AcDbLine
 10
9585.0
 20
17367.0
 30
0.0
 11
9585.0
 21
17725.0
 31
0.0
  0
LINE
  5
95
330
2C8
100
AcDbEntity
  8
YKK_Z1
  6
Continuous
100
AcDbLine
 10
9639.26896773
 20
17379.0
 30
0.0
 11
9660.0
 21
17399.7310215
 31
0.0
  0
LINE
  5
96
330
2C8
100
AcDbEntity
  8
YKK_Z1
  6
Continuous
100
AcDbLine
 10
9510.0
 20
17546.71581894
 30
0.0
 11
9660.0
 21
17696.715741
 31
0.0
  0
LINE
  5
97
330
2C8
100
AcDbEntity
  8
YKK_Z1
  6
Continuous
100
AcDbLine
 10
9619.46997614
 20
17379.0
 30
0.0
 11
9660.0
 21
17419.5300028
 31
0.0
  0
LINE
  5
98
330
2C8
100
AcDbEntity
  8
YKK_Z1
  6
Continuous
100
AcDbLine
 10
9510.0
 20
17566.51480024
 30
0.0
 11
9660.0
 21
17716.5147223
 31
0.0
  0
LINE
  5
99
330
2C8
100
AcDbEntity
  8
YKK_Z1
  6
Continuous
100
AcDbLine
 10
9610.98469403
 20
17379.0
 30
0.0
 11
9660.0
 21
17428.0152805
 31
0.0
  0
LINE
  5
9A
330
2C8
100
AcDbEntity
  8
YKK_Z1
  6
Continuous
100
AcDbLine
 10
9510.0
 20
17575.00007794
 30
0.0
 11
9660.0
 21
17725.0
 31
0.0
  0
LINE
  5
9B
330
2C8
100
AcDbEntity
  8
YKK_Z1
  6
Continuous
100
AcDbLine
 10
9510.0
 20
17364.0
 30
0.0
 11
9510.0
 21
17725.0
 31
0.0
  0
LINE
  5
9C
330
2C8
100
AcDbEntity
  8
YKK_Z1
  6
Continuous
100
AcDbLine
 10
9545.0
 20
17364.0
 30
0.0
 11
9510.0
 21
17364.0
 31
0.0
  0
LINE
  5
9D
330
2C8
100
AcDbEntity
  8
YKK_Z1
  6
Continuous
100
AcDbLine
 10
9555.0
 20
17379.0
 30
0.0
 11
9545.0
 21
17364.0
 31
0.0
  0
LINE
  5
9E
330
2C8
100
AcDbEntity
  8
YKK_Z1
  6
Continuous
100
AcDbLine
 10
9660.0
 20
17379.0
 30
0.0
 11
9555.0
 21
17379.0
 31
0.0
  0
LINE
  5
9F
330
2C8
100
AcDbEntity
  8
YKK_Z1
  6
Continuous
100
AcDbLine
 10
9660.0
 20
17725.0
 30
0.0
 11
9660.0
 21
17379.0
 31
0.0
  0
LINE
  5
A0
330
2C8
100
AcDbEntity
  8
YKK_Z1
  6
Continuous
100
AcDbLine
 10
9695.0
 20
15825.0
 30
0.0
 11
9695.0
 21
16575.0
 31
0.0
  0
LINE
  5
A1
330
2C8
100
AcDbEntity
  8
YKK_Z1
  6
Continuous
100
AcDbLine
 10
9673.0
 20
15800.0
 30
0.0
 11
9685.0
 21
15800.0
 31
0.0
  0
LINE
  5
A2
330
2C8
100
AcDbEntity
  8
YKK_Z1
  6
Continuous
100
AcDbLine
 10
9673.0
 20
15425.0
 30
0.0
 11
9673.0
 21
15800.0
 31
0.0
  0
LINE
  5
A3
330
2C8
100
AcDbEntity
  8
YKK_Z1
  6
Continuous
100
AcDbLine
 10
9685.0
 20
15800.0
 30
0.0
 11
9685.0
 21
15425.0
 31
0.0
  0
LINE
  5
A4
330
2C8
100
AcDbEntity
  8
YKK_Z1
  6
Continuous
100
AcDbLine
 10
9510.0
 20
15790.0
 30
0.0
 11
9510.0
 21
15770.0
 31
0.0
  0
LINE
  5
A5
330
2C8
100
AcDbEntity
  8
YKK_Z1
  6
Continuous
100
AcDbLine
 10
9684.85282109
 20
15800.0
 30
0.0
 11
9695.0
 21
15810.14718067
 31
0.0
  0
LINE
  5
A6
330
2C8
100
AcDbEntity
  8
YKK_Z1
  6
Continuous
100
AcDbLine
 10
9656.56854739
 20
15800.0
 30
0.0
 11
9681.56854306
 21
15825.0
 31
0.0
  0
LINE
  5
A7
330
2C8
100
AcDbEntity
  8
YKK_Z1
  6
Continuous
100
AcDbLine
 10
9628.2842737
 20
15800.0
 30
0.0
 11
9653.28426937
 21
15825.0
 31
0.0
  0
LINE
  5
A8
330
2C8
100
AcDbEntity
  8
YKK_Z1
  6
Continuous
100
AcDbLine
 10
9600.0
 20
15800.0
 30
0.0
 11
9624.99999567
 21
15825.0
 31
0.0
  0
LINE
  5
A9
330
2C8
100
AcDbEntity
  8
YKK_Z1
  6
Continuous
100
AcDbLine
 10
9600.0
 20
15800.0
 30
0.0
 11
9600.0
 21
15825.0
 31
0.0
  0
LINE
  5
AA
330
2C8
100
AcDbEntity
  8
YKK_Z1
  6
Continuous
100
AcDbLine
 10
9695.0
 20
15800.0
 30
0.0
 11
9600.0
 21
15800.0
 31
0.0
  0
LINE
  5
AB
330
2C8
100
AcDbEntity
  8
YKK_Z1
  6
Continuous
100
AcDbLine
 10
9695.0
 20
15825.0
 30
0.0
 11
9695.0
 21
15800.0
 31
0.0
  0
LINE
  5
AC
330
2C8
100
AcDbEntity
  8
YKK_Z1
  6
Continuous
100
AcDbLine
 10
9600.0
 20
15825.0
 30
0.0
 11
9695.0
 21
15825.0
 31
0.0
  0
LINE
  5
AD
330
2C8
100
AcDbEntity
  8
YKK_Z1
  6
CENTER
100
AcDbLine
 10
9585.0
 20
15780.0
 30
0.0
 11
9585.0
 21
15425.0
 31
0.0
  0
LINE
  5
AE
330
2C8
100
AcDbEntity
  8
YKK_Z1
  6
Continuous
100
AcDbLine
 10
9660.0
 20
15693.70064666
 30
0.0
 11
9510.0
 21
15543.70062068
 31
0.0
  0
LINE
  5
AF
330
2C8
100
AcDbEntity
  8
YKK_Z1
  6
Continuous
100
AcDbLine
 10
9660.0
 20
15713.49964168
 30
0.0
 11
9510.0
 21
15563.4996157
 31
0.0
  0
LINE
  5
B0
330
2C8
100
AcDbEntity
  8
YKK_Z1
  6
Continuous
100
AcDbLine
 10
9660.0
 20
15721.98492526
 30
0.0
 11
9510.0
 21
15571.98489928
 31
0.0
  0
LINE
  5
B2
330
2C8
100
AcDbEntity
  8
YKK_Z1
  6
Continuous
100
AcDbLine
 10
9510.0
 20
15770.0
 30
0.0
 11
9510.0
 21
15425.0
 31
0.0
  0
LINE
  5
B3
330
2C8
100
AcDbEntity
  8
YKK_Z1
  6
Continuous
100
AcDbLine
 10
9605.0
 20
15770.0
 30
0.0
 11
9510.0
 21
15770.0
 31
0.0
  0
LINE
  5
B4
330
2C8
100
AcDbEntity
  8
YKK_Z1
  6
Continuous
100
AcDbLine
 10
9615.0
 20
15785.0
 30
0.0
 11
9605.0
 21
15770.0
 31
0.0
  0
LINE
  5
B5
330
2C8
100
AcDbEntity
  8
YKK_Z1
  6
Continuous
100
AcDbLine
 10
9660.0
 20
15785.0
 30
0.0
 11
9615.0
 21
15785.0
 31
0.0
  0
LINE
  5
B6
330
2C8
100
AcDbEntity
  8
YKK_Z1
  6
Continuous
100
AcDbLine
 10
9660.0
 20
15425.0
 30
0.0
 11
9660.0
 21
15785.0
 31
0.0
  0
LINE
  5
B7
330
2C8
100
AcDbEntity
  8
YKK_N1
  6
CENTER
100
AcDbLine
 10
9900.0
 20
15025.0
 30
0.0
 11
10400.0
 21
15025.0
 31
0.0
  0
LINE
  5
B8
330
2C8
100
AcDbEntity
  8
YKK_C1
100
AcDbLine
 10
9500.0
 20
15905.0
 30
0.0
 11
9500.0
 21
17245.0
 31
0.0
  0
LINE
  5
B9
330
2C8
100
AcDbEntity
  8
YKK_C1
100
AcDbLine
 10
9600.0
 20
15925.0
 30
0.0
 11
9600.0
 21
17225.0
 31
0.0
  0
LINE
  5
BA
330
2C8
100
AcDbEntity
  8
YKK_C1
100
AcDbLine
 10
9585.0
 20
15895.0
 30
0.0
 11
9585.0
 21
17255.0
 31
0.0
  0
LINE
  5
BB
330
2C8
100
AcDbEntity
  8
YKK_C1
100
AcDbLine
 10
9511.0
 20
15875.0
 30
0.0
 11
9511.0
 21
17275.0
 31
0.0
  0
LINE
  5
BC
330
2C8
100
AcDbEntity
  8
YKK_C1
  6
PHANTOM
100
AcDbLine
 10
9532.0
 20
17260.0
 30
0.0
 11
9532.0
 21
15890.0
 31
0.0
  0
LINE
  5
BD
330
2C8
100
AcDbEntity
  8
YKK_C1
  6
PHANTOM
100
AcDbLine
 10
9560.0
 20
17260.0
 30
0.0
 11
9532.0
 21
17260.0
 31
0.0
  0
LINE
  5
BE
330
2C8
100
AcDbEntity
  8
YKK_C1
  6
PHANTOM
100
AcDbLine
 10
9560.0
 20
15890.0
 30
0.0
 11
9560.0
 21
17260.0
 31
0.0
  0
LINE
  5
BF
330
2C8
100
AcDbEntity
  8
YKK_C1
  6
PHANTOM
100
AcDbLine
 10
9532.0
 20
15890.0
 30
0.0
 11
9560.0
 21
15890.0
 31
0.0
  0
LINE
  5
C0
330
2C8
100
AcDbEntity
  8
YKK_C1
100
AcDbLine
 10
9600.0
 20
15885.0
 30
0.0
 11
9570.0
 21
15885.0
 31
0.0
  0
LINE
  5
C1
330
2C8
100
AcDbEntity
  8
YKK_C1
100
AcDbLine
 10
9600.0
 20
15835.0
 30
0.0
 11
9570.0
 21
15835.0
 31
0.0
  0
LINE
  5
C2
330
2C8
100
AcDbEntity
  8
YKK_C1
100
AcDbLine
 10
9600.0
 20
15905.0
 30
0.0
 11
9600.0
 21
15835.0
 31
0.0
  0
LINE
  5
C3
330
2C8
100
AcDbEntity
  8
YKK_C1
100
AcDbLine
 10
9500.0
 20
15865.0
 30
0.0
 11
9522.0
 21
15865.0
 31
0.0
  0
LINE
  5
C4
330
2C8
100
AcDbEntity
  8
YKK_C1
100
AcDbLine
 10
9522.0
 20
15885.0
 30
0.0
 11
9570.0
 21
15885.0
 31
0.0
  0
LINE
  5
C5
330
2C8
100
AcDbEntity
  8
YKK_C1
100
AcDbLine
 10
9522.0
 20
15885.0
 30
0.0
 11
9522.0
 21
15857.0
 31
0.0
  0
LINE
  5
C6
330
2C8
100
AcDbEntity
  8
YKK_C1
100
AcDbLine
 10
9500.0
 20
15857.0
 30
0.0
 11
9570.0
 21
15857.0
 31
0.0
  0
LINE
  5
C7
330
2C8
100
AcDbEntity
  8
YKK_C1
100
AcDbLine
 10
9500.0
 20
15885.0
 30
0.0
 11
9500.0
 21
15857.0
 31
0.0
  0
LINE
  5
C8
330
2C8
100
AcDbEntity
  8
YKK_C1
100
AcDbLine
 10
9570.0
 20
15905.0
 30
0.0
 11
9570.0
 21
15835.0
 31
0.0
  0
LINE
  5
C9
330
2C8
100
AcDbEntity
  8
YKK_C1
100
AcDbLine
 10
9600.0
 20
17265.0
 30
0.0
 11
9570.0
 21
17265.0
 31
0.0
  0
LINE
  5
CA
330
2C8
100
AcDbEntity
  8
YKK_C1
100
AcDbLine
 10
9600.0
 20
17315.0
 30
0.0
 11
9570.0
 21
17315.0
 31
0.0
  0
LINE
  5
CB
330
2C8
100
AcDbEntity
  8
YKK_C1
100
AcDbLine
 10
9600.0
 20
17245.0
 30
0.0
 11
9600.0
 21
17315.0
 31
0.0
  0
LINE
  5
CC
330
2C8
100
AcDbEntity
  8
YKK_C1
100
AcDbLine
 10
9500.0
 20
17285.0
 30
0.0
 11
9522.0
 21
17285.0
 31
0.0
  0
LINE
  5
CD
330
2C8
100
AcDbEntity
  8
YKK_C1
100
AcDbLine
 10
9522.0
 20
17265.0
 30
0.0
 11
9570.0
 21
17265.0
 31
0.0
  0
LINE
  5
CE
330
2C8
100
AcDbEntity
  8
YKK_C1
100
AcDbLine
 10
9522.0
 20
17265.0
 30
0.0
 11
9522.0
 21
17293.0
 31
0.0
  0
LINE
  5
CF
330
2C8
100
AcDbEntity
  8
YKK_C1
100
AcDbLine
 10
9500.0
 20
17293.0
 30
0.0
 11
9570.0
 21
17293.0
 31
0.0
  0
LINE
  5
D0
330
2C8
100
AcDbEntity
  8
YKK_C1
100
AcDbLine
 10
9500.0
 20
17265.0
 30
0.0
 11
9500.0
 21
17293.0
 31
0.0
  0
LINE
  5
D1
330
2C8
100
AcDbEntity
  8
YKK_C1
100
AcDbLine
 10
9570.0
 20
17245.0
 30
0.0
 11
9570.0
 21
17315.0
 31
0.0
  0
LINE
  5
D2
330
2C8
100
AcDbEntity
  8
YKK_C1
100
AcDbLine
 10
9535.0
 20
15790.0
 30
0.0
 11
9522.0
 21
15790.0
 31
0.0
  0
LINE
  5
D3
330
2C8
100
AcDbEntity
  8
YKK_C1
100
AcDbLine
 10
9535.0
 20
15790.0
 30
0.0
 11
9535.0
 21
15780.0
 31
0.0
  0
LINE
  5
D4
330
2C8
100
AcDbEntity
  8
YKK_C1
100
AcDbLine
 10
9500.0
 20
15790.0
 30
0.0
 11
9535.0
 21
15790.0
 31
0.0
  0
LINE
  5
D5
330
2C8
100
AcDbEntity
  8
YKK_C1
100
AcDbLine
 10
9522.0
 20
15790.0
 30
0.0
 11
9522.0
 21
15825.0
 31
0.0
  0
LINE
  5
D6
330
2C8
100
AcDbEntity
  8
YKK_C1
100
AcDbLine
 10
9600.0
 20
15825.0
 30
0.0
 11
9522.0
 21
15790.0
 31
0.0
  0
LINE
  5
D7
330
2C8
100
AcDbEntity
  8
YKK_C1
100
AcDbLine
 10
9600.0
 20
15795.0
 30
0.0
 11
9595.0
 21
15795.0
 31
0.0
  0
LINE
  5
D8
330
2C8
100
AcDbEntity
  8
YKK_C1
100
AcDbLine
 10
9600.0
 20
15825.0
 30
0.0
 11
9600.0
 21
15795.0
 31
0.0
  0
LINE
  5
D9
330
2C8
100
AcDbEntity
  8
YKK_C1
100
AcDbLine
 10
9522.0
 20
15825.0
 30
0.0
 11
9522.0
 21
15854.0
 31
0.0
  0
LINE
  5
DA
330
2C8
100
AcDbEntity
  8
YKK_C1
100
AcDbLine
 10
9500.0
 20
15815.0
 30
0.0
 11
9500.0
 21
15854.0
 31
0.0
  0
LINE
  5
DB
330
2C8
100
AcDbEntity
  8
YKK_C1
100
AcDbLine
 10
9600.0
 20
15825.0
 30
0.0
 11
9500.0
 21
15825.0
 31
0.0
  0
LINE
  5
DC
330
2C8
100
AcDbEntity
  8
YKK_C1
100
AcDbLine
 10
9535.0
 20
17355.0
 30
0.0
 11
9540.0
 21
17355.0
 31
0.0
  0
LINE
  5
DD
330
2C8
100
AcDbEntity
  8
YKK_C1
100
AcDbLine
 10
9535.0
 20
17343.0
 30
0.0
 11
9535.0
 21
17355.0
 31
0.0
  0
LINE
  5
DE
330
2C8
100
AcDbEntity
  8
YKK_C1
100
AcDbLine
 10
9500.0
 20
17343.0
 30
0.0
 11
9600.0
 21
17343.0
 31
0.0
  0
LINE
  5
DF
330
2C8
100
AcDbEntity
  8
YKK_C1
100
AcDbLine
 10
9500.0
 20
17325.0
 30
0.0
 11
9500.0
 21
17343.0
 31
0.0
  0
LINE
  5
E0
330
2C8
100
AcDbEntity
  8
YKK_C1
100
AcDbLine
 10
9600.0
 20
17355.0
 30
0.0
 11
9595.0
 21
17355.0
 31
0.0
  0
LINE
  5
E1
330
2C8
100
AcDbEntity
  8
YKK_C1
100
AcDbLine
 10
9600.0
 20
17325.0
 30
0.0
 11
9600.0
 21
17355.0
 31
0.0
  0
LINE
  5
E2
330
2C8
100
AcDbEntity
  8
YKK_C1
100
AcDbLine
 10
9522.0
 20
17325.0
 30
0.0
 11
9522.0
 21
17296.0
 31
0.0
  0
LINE
  5
E3
330
2C8
100
AcDbEntity
  8
YKK_C1
100
AcDbLine
 10
9500.0
 20
17325.0
 30
0.0
 11
9500.0
 21
17296.0
 31
0.0
  0
LINE
  5
E4
330
2C8
100
AcDbEntity
  8
YKK_C1
100
AcDbLine
 10
9600.0
 20
17325.0
 30
0.0
 11
9500.0
 21
17325.0
 31
0.0
  0
LINE
  5
E5
330
2C8
100
AcDbEntity
  8
YKK_B1
100
AcDbLine
 10
7180.0
 20
14425.0
 30
0.0
 11
8020.0
 21
14425.0
 31
0.0
  0
LINE
  5
E6
330
2C8
100
AcDbEntity
  8
YKK_B1
100
AcDbLine
 10
7200.0
 20
14325.0
 30
0.0
 11
8000.0
 21
14325.0
 31
0.0
  0
LINE
  5
E7
330
2C8
100
AcDbEntity
  8
YKK_B1
100
AcDbLine
 10
7170.0
 20
14340.0
 30
0.0
 11
8030.0
 21
14340.0
 31
0.0
  0
LINE
  5
E8
330
2C8
100
AcDbEntity
  8
YKK_B1
100
AcDbLine
 10
7150.0
 20
14414.0
 30
0.0
 11
8050.0
 21
14414.0
 31
0.0
  0
LINE
  5
E9
330
2C8
100
AcDbEntity
  8
YKK_B1
  6
PHANTOM
100
AcDbLine
 10
8030.0
 20
14393.0
 30
0.0
 11
7170.0
 21
14393.0
 31
0.0
  0
LINE
  5
EA
330
2C8
100
AcDbEntity
  8
YKK_B1
  6
PHANTOM
100
AcDbLine
 10
8030.0
 20
14365.0
 30
0.0
 11
8030.0
 21
14393.0
 31
0.0
  0
LINE
  5
EB
330
2C8
100
AcDbEntity
  8
YKK_B1
  6
PHANTOM
100
AcDbLine
 10
7170.0
 20
14365.0
 30
0.0
 11
8030.0
 21
14365.0
 31
0.0
  0
LINE
  5
EC
330
2C8
100
AcDbEntity
  8
YKK_B1
  6
PHANTOM
100
AcDbLine
 10
7170.0
 20
14393.0
 30
0.0
 11
7170.0
 21
14365.0
 31
0.0
  0
LINE
  5
ED
330
2C8
100
AcDbEntity
  8
YKK_B1
100
AcDbLine
 10
8040.0
 20
14325.0
 30
0.0
 11
8040.0
 21
14355.0
 31
0.0
  0
LINE
  5
EE
330
2C8
100
AcDbEntity
  8
YKK_B1
100
AcDbLine
 10
8090.0
 20
14325.0
 30
0.0
 11
8090.0
 21
14355.0
 31
0.0
  0
LINE
  5
EF
330
2C8
100
AcDbEntity
  8
YKK_B1
100
AcDbLine
 10
8020.0
 20
14325.0
 30
0.0
 11
8090.0
 21
14325.0
 31
0.0
  0
LINE
  5
F0
330
2C8
100
AcDbEntity
  8
YKK_B1
100
AcDbLine
 10
8060.0
 20
14425.0
 30
0.0
 11
8060.0
 21
14403.0
 31
0.0
  0
LINE
  5
F1
330
2C8
100
AcDbEntity
  8
YKK_B1
100
AcDbLine
 10
8040.0
 20
14355.0
 30
0.0
 11
8040.0
 21
14403.0
 31
0.0
  0
LINE
  5
F2
330
2C8
100
AcDbEntity
  8
YKK_B1
100
AcDbLine
 10
8040.0
 20
14403.0
 30
0.0
 11
8068.0
 21
14403.0
 31
0.0
  0
LINE
  5
F3
330
2C8
100
AcDbEntity
  8
YKK_B1
100
AcDbLine
 10
8068.0
 20
14425.0
 30
0.0
 11
8068.0
 21
14355.0
 31
0.0
  0
LINE
  5
F4
330
2C8
100
AcDbEntity
  8
YKK_B1
100
AcDbLine
 10
8040.0
 20
14425.0
 30
0.0
 11
8068.0
 21
14425.0
 31
0.0
  0
LINE
  5
F5
330
2C8
100
AcDbEntity
  8
YKK_B1
100
AcDbLine
 10
8020.0
 20
14355.0
 30
0.0
 11
8090.0
 21
14355.0
 31
0.0
  0
LINE
  5
F6
330
2C8
100
AcDbEntity
  8
YKK_B1
100
AcDbLine
 10
7160.0
 20
14325.0
 30
0.0
 11
7160.0
 21
14355.0
 31
0.0
  0
LINE
  5
F7
330
2C8
100
AcDbEntity
  8
YKK_B1
100
AcDbLine
 10
7110.0
 20
14325.0
 30
0.0
 11
7110.0
 21
14355.0
 31
0.0
  0
LINE
  5
F8
330
2C8
100
AcDbEntity
  8
YKK_B1
100
AcDbLine
 10
7180.0
 20
14325.0
 30
0.0
 11
7110.0
 21
14325.0
 31
0.0
  0
LINE
  5
F9
330
2C8
100
AcDbEntity
  8
YKK_B1
100
AcDbLine
 10
7140.0
 20
14425.0
 30
0.0
 11
7140.0
 21
14403.0
 31
0.0
  0
LINE
  5
FA
330
2C8
100
AcDbEntity
  8
YKK_B1
100
AcDbLine
 10
7160.0
 20
14403.0
 30
0.0
 11
7160.0
 21
14355.0
 31
0.0
  0
LINE
  5
FB
330
2C8
100
AcDbEntity
  8
YKK_B1
100
AcDbLine
 10
7160.0
 20
14403.0
 30
0.0
 11
7132.0
 21
14403.0
 31
0.0
  0
LINE
  5
FC
330
2C8
100
AcDbEntity
  8
YKK_B1
100
AcDbLine
 10
7132.0
 20
14425.0
 30
0.0
 11
7132.0
 21
14355.0
 31
0.0
  0
LINE
  5
FD
330
2C8
100
AcDbEntity
  8
YKK_B1
100
AcDbLine
 10
7160.0
 20
14425.0
 30
0.0
 11
7132.0
 21
14425.0
 31
0.0
  0
LINE
  5
FE
330
2C8
100
AcDbEntity
  8
YKK_B1
100
AcDbLine
 10
7180.0
 20
14355.0
 30
0.0
 11
7110.0
 21
14355.0
 31
0.0
  0
LINE
  5
FF
330
2C8
100
AcDbEntity
  8
YKK_B1
100
AcDbLine
 10
8125.0
 20
14390.0
 30
0.0
 11
8125.0
 21
14385.0
 31
0.0
  0
LINE
  5
100
330
2C8
100
AcDbEntity
  8
YKK_B1
100
AcDbLine
 10
8118.0
 20
14390.0
 30
0.0
 11
8125.0
 21
14390.0
 31
0.0
  0
LINE
  5
101
330
2C8
100
AcDbEntity
  8
YKK_B1
100
AcDbLine
 10
8118.0
 20
14425.0
 30
0.0
 11
8118.0
 21
14325.0
 31
0.0
  0
LINE
  5
102
330
2C8
100
AcDbEntity
  8
YKK_B1
100
AcDbLine
 10
8100.0
 20
14425.0
 30
0.0
 11
8118.0
 21
14425.0
 31
0.0
  0
LINE
  5
103
330
2C8
100
AcDbEntity
  8
YKK_B1
100
AcDbLine
 10
8125.0
 20
14325.0
 30
0.0
 11
8125.0
 21
14330.0
 31
0.0
  0
LINE
  5
104
330
2C8
100
AcDbEntity
  8
YKK_B1
100
AcDbLine
 10
8100.0
 20
14325.0
 30
0.0
 11
8125.0
 21
14325.0
 31
0.0
  0
LINE
  5
105
330
2C8
100
AcDbEntity
  8
YKK_B1
100
AcDbLine
 10
8100.0
 20
14403.0
 30
0.0
 11
8071.0
 21
14403.0
 31
0.0
  0
LINE
  5
106
330
2C8
100
AcDbEntity
  8
YKK_B1
100
AcDbLine
 10
8100.0
 20
14425.0
 30
0.0
 11
8071.0
 21
14425.0
 31
0.0
  0
LINE
  5
107
330
2C8
100
AcDbEntity
  8
YKK_B1
100
AcDbLine
 10
8100.0
 20
14325.0
 30
0.0
 11
8100.0
 21
14425.0
 31
0.0
  0
LINE
  5
108
330
2C8
100
AcDbEntity
  8
YKK_B1
100
AcDbLine
 10
7075.0
 20
14390.0
 30
0.0
 11
7075.0
 21
14385.0
 31
0.0
  0
LINE
  5
109
330
2C8
100
AcDbEntity
  8
YKK_B1
100
AcDbLine
 10
7082.0
 20
14390.0
 30
0.0
 11
7075.0
 21
14390.0
 31
0.0
  0
LINE
  5
10A
330
2C8
100
AcDbEntity
  8
YKK_B1
100
AcDbLine
 10
7082.0
 20
14425.0
 30
0.0
 11
7082.0
 21
14325.0
 31
0.0
  0
LINE
  5
10B
330
2C8
100
AcDbEntity
  8
YKK_B1
100
AcDbLine
 10
7100.0
 20
14425.0
 30
0.0
 11
7082.0
 21
14425.0
 31
0.0
  0
LINE
  5
10C
330
2C8
100
AcDbEntity
  8
YKK_B1
100
AcDbLine
 10
7075.0
 20
14325.0
 30
0.0
 11
7075.0
 21
14330.0
 31
0.0
  0
LINE
  5
10D
330
2C8
100
AcDbEntity
  8
YKK_B1
100
AcDbLine
 10
7100.0
 20
14325.0
 30
0.0
 11
7075.0
 21
14325.0
 31
0.0
  0
LINE
  5
10E
330
2C8
100
AcDbEntity
  8
YKK_B1
100
AcDbLine
 10
7100.0
 20
14403.0
 30
0.0
 11
7129.0
 21
14403.0
 31
0.0
  0
LINE
  5
10F
330
2C8
100
AcDbEntity
  8
YKK_B1
100
AcDbLine
 10
7100.0
 20
14425.0
 30
0.0
 11
7129.0
 21
14425.0
 31
0.0
  0
LINE
  5
110
330
2C8
100
AcDbEntity
  8
YKK_B1
100
AcDbLine
 10
7100.0
 20
14325.0
 30
0.0
 11
7100.0
 21
14425.0
 31
0.0
  0
TEXT
  5
111
330
2C8
100
AcDbEntity
  8
YKK_A1
100
AcDbText
 10
7314.8
 20
16095.0
 30
0.0
 40
60.0
  1
（内）透明ガラス ６mm
 41
0.8
  7
YKK_SGSTYLE1
 72
     2
 11
7990.0
 21
16095.0
 31
0.0
100
AcDbText
  0
TEXT
  5
113
330
2C8
100
AcDbEntity
  8
YKK_A1
100
AcDbText
 10
7314.8
 20
16025.0
 30
0.0
 40
60.0
  1
（外）透明ガラス ６mm
 41
0.8
  7
YKK_SGSTYLE1
 72
     2
 11
7990.0
 21
16025.0
 31
0.0
100
AcDbText
  0
LINE
  5
114
330
2C8
100
AcDbEntity
  8
YKK_A1
100
AcDbLine
 10
7180.0
 20
16642.0
 30
0.0
 11
7264.0
 21
16642.0
 31
0.0
  0
LINE
  5
115
330
2C8
100
AcDbEntity
  8
YKK_A1
100
AcDbLine
 10
7180.0
 20
16709.0
 30
0.0
 11
7348.0
 21
16709.0
 31
0.0
  0
LINE
  5
116
330
2C8
100
AcDbEntity
  8
YKK_A1
100
AcDbLine
 10
7180.0
 20
16776.0
 30
0.0
 11
7432.0
 21
16776.0
 31
0.0
  0
LINE
  5
117
330
2C8
100
AcDbEntity
  8
YKK_A1
100
AcDbLine
 10
7180.0
 20
16843.0
 30
0.0
 11
7516.0
 21
16843.0
 31
0.0
  0
LINE
  5
118
330
2C8
100
AcDbEntity
  8
YKK_A1
100
AcDbLine
 10
7180.0
 20
16910.0
 30
0.0
 11
7600.0
 21
16910.0
 31
0.0
  0
LINE
  5
119
330
2C8
100
AcDbEntity
  8
YKK_A1
100
AcDbLine
 10
7180.0
 20
16977.0
 30
0.0
 11
7684.0
 21
16977.0
 31
0.0
  0
LINE
  5
11A
330
2C8
100
AcDbEntity
  8
YKK_A1
100
AcDbLine
 10
7180.0
 20
17044.0
 30
0.0
 11
7768.0
 21
17044.0
 31
0.0
  0
LINE
  5
11B
330
2C8
100
AcDbEntity
  8
YKK_A1
100
AcDbLine
 10
7180.0
 20
17111.0
 30
0.0
 11
7852.0
 21
17111.0
 31
0.0
  0
LINE
  5
11C
330
2C8
100
AcDbEntity
  8
YKK_A1
100
AcDbLine
 10
7180.0
 20
17178.0
 30
0.0
 11
7936.0
 21
17178.0
 31
0.0
  0
TEXT
  5
11D
330
2C8
100
AcDbEntity
  8
YKK_A1
100
AcDbText
 10
7951.14285714
 20
15935.0
 30
0.0
 40
60.0
  1
F
 41
0.8
  7
YKK_SGSTYLE1
 72
     2
 11
7990.0
 21
15935.0
 31
0.0
100
AcDbText
  0
LINE
  5
11E
330
2C8
100
AcDbEntity
  8
YKK_A1
100
AcDbLine
 10
7180.0
 20
17245.0
 30
0.0
 11
7180.0
 21
15905.0
 31
0.0
  0
LINE
  5
11F
330
2C8
100
AcDbEntity
  8
YKK_A1
100
AcDbLine
 10
8020.0
 20
17245.0
 30
0.0
 11
7180.0
 21
17245.0
 31
0.0
  0
LINE
  5
120
330
2C8
100
AcDbEntity
  8
YKK_A1
100
AcDbLine
 10
8020.0
 20
15905.0
 30
0.0
 11
8020.0
 21
17245.0
 31
0.0
  0
LINE
  5
121
330
2C8
100
AcDbEntity
  8
YKK_A1
100
AcDbLine
 10
7180.0
 20
15905.0
 30
0.0
 11
8020.0
 21
15905.0
 31
0.0
  0
LINE
  5
122
330
2C8
100
AcDbEntity
  8
YKK_A1
100
AcDbLine
 10
7110.0
 20
17315.0
 30
0.0
 11
7110.0
 21
15835.0
 31
0.0
  0
LINE
  5
123
330
2C8
100
AcDbEntity
  8
YKK_A1
100
AcDbLine
 10
8090.0
 20
17315.0
 30
0.0
 11
7110.0
 21
17315.0
 31
0.0
  0
LINE
  5
124
330
2C8
100
AcDbEntity
  8
YKK_A1
100
AcDbLine
 10
8090.0
 20
15835.0
 30
0.0
 11
8090.0
 21
17315.0
 31
0.0
  0
LINE
  5
125
330
2C8
100
AcDbEntity
  8
YKK_A1
100
AcDbLine
 10
7110.0
 20
15835.0
 30
0.0
 11
8090.0
 21
15835.0
 31
0.0
  0
LINE
  5
126
330
2C8
100
AcDbEntity
  8
YKK_A1
100
AcDbLine
 10
7100.0
 20
17325.0
 30
0.0
 11
7100.0
 21
15825.0
 31
0.0
  0
LINE
  5
127
330
2C8
100
AcDbEntity
  8
YKK_A1
100
AcDbLine
 10
8100.0
 20
17325.0
 30
0.0
 11
7100.0
 21
17325.0
 31
0.0
  0
LINE
  5
128
330
2C8
100
AcDbEntity
  8
YKK_A1
100
AcDbLine
 10
8100.0
 20
15825.0
 30
0.0
 11
8100.0
 21
17325.0
 31
0.0
  0
LINE
  5
129
330
2C8
100
AcDbEntity
  8
YKK_A1
100
AcDbLine
 10
7100.0
 20
15825.0
 30
0.0
 11
8100.0
 21
15825.0
 31
0.0
  0
LINE
  5
12A
330
2C8
100
AcDbEntity
  8
YKK_A1
100
AcDbLine
 10
7085.0
 20
17340.0
 30
0.0
 11
7085.0
 21
15825.0
 31
0.0
  0
LINE
  5
12B
330
2C8
100
AcDbEntity
  8
YKK_A1
100
AcDbLine
 10
8115.0
 20
17340.0
 30
0.0
 11
7085.0
 21
17340.0
 31
0.0
  0
LINE
  5
12C
330
2C8
100
AcDbEntity
  8
YKK_A1
100
AcDbLine
 10
8115.0
 20
15825.0
 30
0.0
 11
8115.0
 21
17340.0
 31
0.0
  0
LINE
  5
12D
330
2C8
100
AcDbEntity
  8
YKK_A1
100
AcDbLine
 10
7085.0
 20
15825.0
 30
0.0
 11
8115.0
 21
15825.0
 31
0.0
  0
ARC
  5
12E
330
2C8
100
AcDbEntity
  8
YKK_A2
  6
ByBlock
100
AcDbCircle
 10
8055.0
 20
16993.5
 30
1.0
 40
6.0
100
AcDbArc
 50
180.0
 51
0.0
  0
LINE
  5
12F
330
2C8
100
AcDbEntity
  8
YKK_A2
  6
ByBlock
100
AcDbLine
 10
8044.58454775
 20
17037.87489797
 30
1.0
 11
8064.58454775
 21
17037.79139334
 31
1.0
  0
LINE
  5
130
330
2C8
100
AcDbEntity
  8
YKK_A2
  6
ByBlock
100
AcDbLine
 10
8044.58454775
 20
17042.87489797
 30
1.0
 11
8064.58454775
 21
17042.79139334
 31
1.0
  0
ARC
  5
131
330
2C8
100
AcDbEntity
  8
YKK_A2
  6
ByBlock
100
AcDbCircle
 10
8058.5
 20
17129.0
 30
1.0
 40
2.5
100
AcDbArc
 50
0.0
 51
180.0
  0
LINE
  5
132
330
2C8
100
AcDbEntity
  8
YKK_A2
  6
ByBlock
100
AcDbLine
 10
8062.5
 20
17151.5
 30
1.0
 11
8047.5
 21
17151.5
 31
1.0
  0
LINE
  5
133
330
2C8
100
AcDbEntity
  8
YKK_A2
  6
ByBlock
100
AcDbLine
 10
8065.0
 20
17171.5
 30
1.0
 11
8045.0
 21
17171.5
 31
1.0
  0
LINE
  5
134
330
2C8
100
AcDbEntity
  8
YKK_A2
  6
ByBlock
100
AcDbLine
 10
8047.5
 20
17151.5
 30
1.0
 11
8047.5
 21
17106.5
 31
1.0
  0
LINE
  5
135
330
2C8
100
AcDbEntity
  8
YKK_A2
  6
ByBlock
100
AcDbLine
 10
8045.0
 20
17171.5
 30
1.0
 11
8045.0
 21
17096.5
 31
1.0
  0
LINE
  5
136
330
2C8
100
AcDbEntity
  8
YKK_A2
  6
ByBlock
100
AcDbLine
 10
8049.0
 20
17043.00608599
 30
1.0
 11
8049.0
 21
16993.5
 31
1.0
  0
ARC
  5
137
330
2C8
100
AcDbEntity
  8
YKK_A2
  6
ByBlock
100
AcDbCircle
 10
8055.0
 20
16993.5
 30
1.0
 40
1.0
100
AcDbArc
 50
180.0
 51
0.0
  0
LINE
  5
138
330
2C8
100
AcDbEntity
  8
YKK_A2
  6
ByBlock
100
AcDbLine
 10
8056.0
 20
16993.5
 30
1.0
 11
8056.0
 21
17039.02168879
 31
1.0
  0
LINE
  5
139
330
2C8
100
AcDbEntity
  8
YKK_A2
  6
ByBlock
100
AcDbLine
 10
8054.0
 20
17037.96685795
 30
1.0
 11
8054.0
 21
16993.5
 31
1.0
  0
LINE
  5
13A
330
2C8
100
AcDbEntity
  8
YKK_A2
  6
ByBlock
100
AcDbLine
 10
8049.0
 20
17129.0
 30
1.0
 11
8049.0
 21
17048.00608599
 31
1.0
  0
LINE
  5
13B
330
2C8
100
AcDbEntity
  8
YKK_A2
  6
ByBlock
100
AcDbLine
 10
8054.0
 20
17129.0
 30
1.0
 11
8054.0
 21
17042.96685795
 31
1.0
  0
LINE
  5
13C
330
2C8
100
AcDbEntity
  8
YKK_A2
  6
ByBlock
100
AcDbLine
 10
8056.0
 20
17044.02168879
 30
1.0
 11
8056.0
 21
17129.0
 31
1.0
  0
ARC
  5
13D
330
2C8
100
AcDbEntity
  8
YKK_A2
  6
ByBlock
100
AcDbCircle
 10
8051.5
 20
17129.0
 30
1.0
 40
2.5
100
AcDbArc
 50
0.0
 51
180.0
  0
LINE
  5
13E
330
2C8
100
AcDbEntity
  8
YKK_A2
  6
ByBlock
100
AcDbLine
 10
8045.0
 20
17096.5
 30
1.0
 11
8049.0
 21
17096.5
 31
1.0
  0
LINE
  5
13F
330
2C8
100
AcDbEntity
  8
YKK_A2
  6
ByBlock
100
AcDbLine
 10
8047.5
 20
17106.5
 30
1.0
 11
8049.0
 21
17106.5
 31
1.0
  0
LINE
  5
140
330
2C8
100
AcDbEntity
  8
YKK_A2
  6
ByBlock
100
AcDbLine
 10
8054.0
 20
17096.5
 30
1.0
 11
8056.0
 21
17096.5
 31
1.0
  0
LINE
  5
141
330
2C8
100
AcDbEntity
  8
YKK_A2
  6
ByBlock
100
AcDbLine
 10
8054.0
 20
17106.5
 30
1.0
 11
8056.0
 21
17106.5
 31
1.0
  0
LINE
  5
142
330
2C8
100
AcDbEntity
  8
YKK_A2
  6
ByBlock
100
AcDbLine
 10
8062.5
 20
17106.5
 30
1.0
 11
8062.5
 21
17151.5
 31
1.0
  0
LINE
  5
143
330
2C8
100
AcDbEntity
  8
YKK_A2
  6
ByBlock
100
AcDbLine
 10
8065.0
 20
17096.5
 30
1.0
 11
8065.0
 21
17171.5
 31
1.0
  0
LINE
  5
144
330
2C8
100
AcDbEntity
  8
YKK_A2
  6
ByBlock
100
AcDbLine
 10
8061.0
 20
16993.5
 30
1.0
 11
8061.0
 21
17041.74248959
 31
1.0
  0
LINE
  5
145
330
2C8
100
AcDbEntity
  8
YKK_A2
  6
ByBlock
100
AcDbLine
 10
8061.0
 20
17046.74248959
 30
1.0
 11
8061.0
 21
17129.0
 31
1.0
  0
LINE
  5
146
330
2C8
100
AcDbEntity
  8
YKK_A2
  6
ByBlock
100
AcDbLine
 10
8061.0
 20
17096.5
 30
1.0
 11
8065.0
 21
17096.5
 31
1.0
  0
LINE
  5
147
330
2C8
100
AcDbEntity
  8
YKK_A2
  6
ByBlock
100
AcDbLine
 10
8061.0
 20
17106.5
 30
1.0
 11
8062.5
 21
17106.5
 31
1.0
  0
LINE
  5
148
330
2C8
100
AcDbEntity
  8
YKK_N1
100
AcDbLine
 10
7100.0
 20
15765.0
 30
0.0
 11
7100.0
 21
15395.0
 31
0.0
  0
LINE
  5
149
330
2C8
100
AcDbEntity
  8
YKK_N1
100
AcDbLine
 10
8100.0
 20
15765.0
 30
0.0
 11
8100.0
 21
15395.0
 31
0.0
  0
LINE
  5
14A
330
2C8
100
AcDbEntity
  8
YKK_N1
100
AcDbLine
 10
7101.0
 20
15425.0
 30
0.0
 11
8099.0
 21
15425.0
 31
0.0
  0
TEXT
  5
14B
330
2C8
100
AcDbEntity
  8
YKK_N1
100
AcDbText
 10
7452.57142857
 20
15435.0
 30
0.0
 40
60.0
  1
W=1000
 41
0.8
  7
YKK_SGSTYLE1
100
AcDbText
  0
LINE
  5
14C
330
2C8
100
AcDbEntity
  8
YKK_N1
100
AcDbLine
 10
8160.0
 20
15825.0
 30
0.0
 11
8530.0
 21
15825.0
 31
0.0
  0
LINE
  5
14D
330
2C8
100
AcDbEntity
  8
YKK_N1
100
AcDbLine
 10
8160.0
 20
17325.0
 30
0.0
 11
8530.0
 21
17325.0
 31
0.0
  0
LINE
  5
14E
330
2C8
100
AcDbEntity
  8
YKK_N1
100
AcDbLine
 10
8500.0
 20
15826.0
 30
0.0
 11
8500.0
 21
17324.0
 31
0.0
  0
TEXT
  5
14F
330
2C8
100
AcDbEntity
  8
YKK_N1
100
AcDbText
 10
8490.0
 20
16427.57142857
 30
0.0
 40
60.0
  1
H=1500
 50
90.0
 41
0.8
  7
YKK_SGSTYLE1
100
AcDbText
  0
LINE
  5
150
330
2C8
100
AcDbEntity
  8
YKK_N1
100
AcDbLine
 10
7100.0
 20
14265.0
 30
0.0
 11
7100.0
 21
13895.0
 31
0.0
  0
LINE
  5
151
330
2C8
100
AcDbEntity
  8
YKK_N1
100
AcDbLine
 10
8100.0
 20
14265.0
 30
0.0
 11
8100.0
 21
13895.0
 31
0.0
  0
LINE
  5
152
330
2C8
100
AcDbEntity
  8
YKK_N1
100
AcDbLine
 10
7101.0
 20
13925.0
 30
0.0
 11
8099.0
 21
13925.0
 31
0.0
  0
TEXT
  5
153
330
2C8
100
AcDbEntity
  8
YKK_N1
100
AcDbText
 10
7452.57142857
 20
13935.0
 30
0.0
 40
60.0
  1
W=1000
 41
0.8
  7
YKK_SGSTYLE1
100
AcDbText
  0
LINE
  5
154
330
2C8
100
AcDbEntity
  8
YKK_N1
100
AcDbLine
 10
7336.0
 20
14325.0
 30
0.0
 11
7356.0
 21
14325.0
 31
0.0
  0
LINE
  5
155
330
2C8
100
AcDbEntity
  8
YKK_N1
100
AcDbLine
 10
7336.0
 20
14425.0
 30
0.0
 11
7356.0
 21
14425.0
 31
0.0
  0
LINE
  5
156
330
2C8
100
AcDbEntity
  8
YKK_N1
100
AcDbLine
 10
7386.0
 20
14345.0
 30
0.0
 11
7386.0
 21
14405.0
 31
0.0
  0
TEXT
  5
157
330
2C8
100
AcDbEntity
  8
YKK_N1
100
AcDbText
 10
7341.0
 20
14303.0
 30
0.0
 40
60.0
  1
100
 50
90.0
 41
0.8
  7
YKK_SGSTYLE1
100
AcDbText
  0
LINE
  5
158
330
2C8
100
AcDbEntity
  8
YKK_N1
100
AcDbLine
 10
9660.0
 20
15825.0
 30
0.0
 11
10030.0
 21
15825.0
 31
0.0
  0
LINE
  5
159
330
2C8
100
AcDbEntity
  8
YKK_N1
100
AcDbLine
 10
9660.0
 20
17325.0
 30
0.0
 11
10030.0
 21
17325.0
 31
0.0
  0
LINE
  5
15A
330
2C8
100
AcDbEntity
  8
YKK_N1
100
AcDbLine
 10
10000.0
 20
15826.0
 30
0.0
 11
10000.0
 21
17324.0
 31
0.0
  0
TEXT
  5
15B
330
2C8
100
AcDbEntity
  8
YKK_N1
100
AcDbText
 10
9990.0
 20
16427.57142857
 30
0.0
 40
60.0
  1
H=1500
 50
90.0
 41
0.8
  7
YKK_SGSTYLE1
100
AcDbText
  0
LINE
  5
15C
330
2C8
100
AcDbEntity
  8
YKK_N1
100
AcDbLine
 10
10000.0
 20
15805.0
 30
0.0
 11
10000.0
 21
15045.0
 31
0.0
  0
TEXT
  5
15D
330
2C8
100
AcDbEntity
  8
YKK_N1
100
AcDbText
 10
9990.0
 20
15356.42857143
 30
0.0
 40
60.0
  1
800
 50
90.0
 41
0.8
  7
YKK_SGSTYLE1
100
AcDbText
  0
LINE
  5
15E
330
2C8
100
AcDbEntity
  8
YKK_N1
100
AcDbLine
 10
9600.0
 20
16946.0
 30
0.0
 11
9600.0
 21
16926.0
 31
0.0
  0
LINE
  5
15F
330
2C8
100
AcDbEntity
  8
YKK_N1
100
AcDbLine
 10
9500.0
 20
16946.0
 30
0.0
 11
9500.0
 21
16926.0
 31
0.0
  0
LINE
  5
160
330
2C8
100
AcDbEntity
  8
YKK_N1
100
AcDbLine
 10
9580.0
 20
16896.0
 30
0.0
 11
9520.0
 21
16896.0
 31
0.0
  0
TEXT
  5
161
330
2C8
100
AcDbEntity
  8
YKK_N1
100
AcDbText
 10
9478.0
 20
16941.0
 30
0.0
 40
60.0
  1
100
 41
0.8
  7
YKK_SGSTYLE1
100
AcDbText
  0
LINE
  5
162
330
2C8
100
AcDbEntity
  8
YKK_N1
  6
Continuous
100
AcDbLine
 10
9600.0
 20
16956.0
 30
0.0
 11
9600.0
 21
16926.0
 31
0.0
  0
LINE
  5
163
330
2C8
100
AcDbEntity
  8
YKK_Z1
  6
Continuous
100
AcDbLine
 10
9695.0
 20
17280.0
 30
0.0
 11
9695.0
 21
16866.0
 31
0.0
  0
LINE
  5
164
330
2C8
100
AcDbEntity
  8
YKK_N1
  6
Continuous
100
AcDbLine
 10
9620.0
 20
16896.0
 30
0.0
 11
9675.0
 21
16896.0
 31
0.0
  0
LINE
  5
165
330
2C8
100
AcDbEntity
  8
YKK_N1
  6
Continuous
100
AcDbLine
 10
9695.0
 20
16896.0
 30
0.0
 11
9812.71428571
 21
16896.0
 31
0.0
  0
TEXT
  5
166
330
2C8
100
AcDbEntity
  8
YKK_N1
  6
Continuous
100
AcDbText
 10
9718.14285714
 20
16906.0
 30
0.0
 40
60.0
  1
95
 41
0.8
  7
YKK_SGSTYLE1
100
AcDbText
  0
LINE
  5
167
330
2C8
100
AcDbEntity
  8
YKK_N1
  6
Continuous
100
AcDbLine
 10
7326.0
 20
14325.0
 30
0.0
 11
7356.0
 21
14325.0
 31
0.0
  0
LINE
  5
168
330
2C8
100
AcDbEntity
  8
YKK_Z1
  6
Continuous
100
AcDbLine
 10
7145.0
 20
14230.0
 30
0.0
 11
7416.0
 21
14230.0
 31
0.0
  0
LINE
  5
169
330
2C8
100
AcDbEntity
  8
YKK_N1
  6
Continuous
100
AcDbLine
 10
7386.0
 20
14305.0
 30
0.0
 11
7386.0
 21
14250.0
 31
0.0
  0
LINE
  5
16A
330
2C8
100
AcDbEntity
  8
YKK_N1
  6
Continuous
100
AcDbLine
 10
7386.0
 20
14230.0
 30
0.0
 11
7386.0
 21
14112.28571429
 31
0.0
  0
TEXT
  5
16B
330
2C8
100
AcDbEntity
  8
YKK_N1
  6
Continuous
100
AcDbText
 10
7376.0
 20
14115.42857143
 30
0.0
 40
60.0
  1
95
 50
90.0
 41
0.8
  7
YKK_SGSTYLE1
100
AcDbText
  0
CIRCLE
  5
16C
330
2C8
100
AcDbEntity
  8
YKK_N1
100
AcDbCircle
 10
7386.0
 20
14230.0
 30
0.0
 40
10.0
  0
CIRCLE
  5
16D
330
2C8
100
AcDbEntity
  8
YKK_N1
100
AcDbCircle
 10
7386.0
 20
14230.0
 30
0.0
 40
6.5
  0
LINE
  5
16E
330
2C8
100
AcDbEntity
  8
YKK_N1
100
AcDbLine
 10
7386.0
 20
14230.0
 30
0.0
 11
7386.0
 21
14250.0
 31
0.0
  0
CIRCLE
  5
16F
330
2C8
100
AcDbEntity
  8
YKK_N1
100
AcDbCircle
 10
7386.0
 20
14325.0
 30
0.0
 40
10.0
  0
CIRCLE
  5
170
330
2C8
100
AcDbEntity
  8
YKK_N1
100
AcDbCircle
 10
7386.0
 20
14325.0
 30
0.0
 40
6.5
  0
LINE
  5
171
330
2C8
100
AcDbEntity
  8
YKK_N1
100
AcDbLine
 10
7386.0
 20
14325.0
 30
0.0
 11
7386.0
 21
14305.0
 31
0.0
  0
CIRCLE
  5
172
330
2C8
100
AcDbEntity
  8
YKK_N1
100
AcDbCircle
 10
9695.0
 20
16896.0
 30
0.0
 40
10.0
  0
CIRCLE
  5
173
330
2C8
100
AcDbEntity
  8
YKK_N1
100
AcDbCircle
 10
9695.0
 20
16896.0
 30
0.0
 40
6.5
  0
LINE
  5
174
330
2C8
100
AcDbEntity
  8
YKK_N1
100
AcDbLine
 10
9695.0
 20
16896.0
 30
0.0
 11
9675.0
 21
16896.0
 31
0.0
  0
CIRCLE
  5
175
330
2C8
100
AcDbEntity
  8
YKK_N1
100
AcDbCircle
 10
9600.0
 20
16896.0
 30
0.0
 40
10.0
  0
CIRCLE
  5
176
330
2C8
100
AcDbEntity
  8
YKK_N1
100
AcDbCircle
 10
9600.0
 20
16896.0
 30
0.0
 40
6.5
  0
LINE
  5
177
330
2C8
100
AcDbEntity
  8
YKK_N1
100
AcDbLine
 10
9600.0
 20
16896.0
 30
0.0
 11
9620.0
 21
16896.0
 31
0.0
  0
CIRCLE
  5
178
330
2C8
100
AcDbEntity
  8
YKK_N1
100
AcDbCircle
 10
9500.0
 20
16896.0
 30
0.0
 40
10.0
  0
CIRCLE
  5
179
330
2C8
100
AcDbEntity
  8
YKK_N1
100
AcDbCircle
 10
9500.0
 20
16896.0
 30
0.0
 40
6.5
  0
LINE
  5
17A
330
2C8
100
AcDbEntity
  8
YKK_N1
100
AcDbLine
 10
9500.0
 20
16896.0
 30
0.0
 11
9520.0
 21
16896.0
 31
0.0
  0
CIRCLE
  5
17B
330
2C8
100
AcDbEntity
  8
YKK_N1
100
AcDbCircle
 10
9600.0
 20
16896.0
 30
0.0
 40
10.0
  0
CIRCLE
  5
17C
330
2C8
100
AcDbEntity
  8
YKK_N1
100
AcDbCircle
 10
9600.0
 20
16896.0
 30
0.0
 40
6.5
  0
LINE
  5
17D
330
2C8
100
AcDbEntity
  8
YKK_N1
100
AcDbLine
 10
9600.0
 20
16896.0
 30
0.0
 11
9580.0
 21
16896.0
 31
0.0
  0
CIRCLE
  5
17E
330
2C8
100
AcDbEntity
  8
YKK_N1
100
AcDbCircle
 10
10000.0
 20
15025.0
 30
0.0
 40
10.0
  0
CIRCLE
  5
17F
330
2C8
100
AcDbEntity
  8
YKK_N1
100
AcDbCircle
 10
10000.0
 20
15025.0
 30
0.0
 40
6.5
  0
LINE
  5
180
330
2C8
100
AcDbEntity
  8
YKK_N1
100
AcDbLine
 10
10000.0
 20
15025.0
 30
0.0
 11
10000.0
 21
15045.0
 31
0.0
  0
LINE
  5
181
330
2C8
100
AcDbEntity
  8
YKK_N1
  6
ByBlock
100
AcDbLine
 10
10000.0
 20
15825.0
 30
0.0
 11
10000.0
 21
15805.0
 31
0.0
  0
LINE
  5
182
330
2C8
100
AcDbEntity
  8
YKK_N1
  6
ByBlock
100
AcDbLine
 10
10000.0
 20
17325.0
 30
0.0
 11
10000.0
 21
17225.0
 31
0.0
  0
LINE
  5
183
330
2C8
100
AcDbEntity
  8
YKK_N1
  6
ByBlock
100
AcDbLine
 10
10000.0
 20
17325.0
 30
0.0
 11
9950.0
 21
17238.39745962
 31
0.0
  0
LINE
  5
184
330
2C8
100
AcDbEntity
  8
YKK_N1
  6
ByBlock
100
AcDbLine
 10
9950.0
 20
17238.39745962
 30
0.0
 11
10050.0
 21
17238.39745962
 31
0.0
  0
LINE
  5
185
330
2C8
100
AcDbEntity
  8
YKK_N1
  6
ByBlock
100
AcDbLine
 10
10050.0
 20
17238.39745962
 30
0.0
 11
10000.0
 21
17325.0
 31
0.0
  0
LINE
  5
186
330
2C8
100
AcDbEntity
  8
YKK_N1
  6
ByBlock
100
AcDbLine
 10
10000.0
 20
15825.0
 30
0.0
 11
10000.0
 21
15925.0
 31
0.0
  0
LINE
  5
187
330
2C8
100
AcDbEntity
  8
YKK_N1
  6
ByBlock
100
AcDbLine
 10
10000.0
 20
15825.0
 30
0.0
 11
10050.0
 21
15911.60254038
 31
0.0
  0
LINE
  5
188
330
2C8
100
AcDbEntity
  8
YKK_N1
  6
ByBlock
100
AcDbLine
 10
10050.0
 20
15911.60254038
 30
0.0
 11
9950.0
 21
15911.60254038
 31
0.0
  0
LINE
  5
189
330
2C8
100
AcDbEntity
  8
YKK_N1
  6
ByBlock
100
AcDbLine
 10
9950.0
 20
15911.60254038
 30
0.0
 11
10000.0
 21
15825.0
 31
0.0
  0
CIRCLE
  5
18A
330
2C8
100
AcDbEntity
  8
YKK_N1
100
AcDbCircle
 10
7386.0
 20
14425.0
 30
0.0
 40
10.0
  0
CIRCLE
  5
18B
330
2C8
100
AcDbEntity
  8
YKK_N1
100
AcDbCircle
 10
7386.0
 20
14425.0
 30
0.0
 40
6.5
  0
LINE
  5
18C
330
2C8
100
AcDbEntity
  8
YKK_N1
100
AcDbLine
 10
7386.0
 20
14425.0
 30
0.0
 11
7386.0
 21
14405.0
 31
0.0
  0
CIRCLE
  5
18D
330
2C8
100
AcDbEntity
  8
YKK_N1
100
AcDbCircle
 10
7386.0
 20
14325.0
 30
0.0
 40
10.0
  0
CIRCLE
  5
18E
330
2C8
100
AcDbEntity
  8
YKK_N1
100
AcDbCircle
 10
7386.0
 20
14325.0
 30
0.0
 40
6.5
  0
LINE
  5
18F
330
2C8
100
AcDbEntity
  8
YKK_N1
100
AcDbLine
 10
7386.0
 20
14325.0
 30
0.0
 11
7386.0
 21
14345.0
 31
0.0
  0
LINE
  5
190
330
2C8
100
AcDbEntity
  8
YKK_N1
  6
ByBlock
100
AcDbLine
 10
8100.0
 20
13925.0
 30
0.0
 11
8000.0
 21
13925.0
 31
0.0
  0
LINE
  5
191
330
2C8
100
AcDbEntity
  8
YKK_N1
  6
ByBlock
100
AcDbLine
 10
8100.0
 20
13925.0
 30
0.0
 11
8013.39745962
 21
13975.0
 31
0.0
  0
LINE
  5
192
330
2C8
100
AcDbEntity
  8
YKK_N1
  6
ByBlock
100
AcDbLine
 10
8013.39745962
 20
13975.0
 30
0.0
 11
8013.39745962
 21
13875.0
 31
0.0
  0
LINE
  5
193
330
2C8
100
AcDbEntity
  8
YKK_N1
  6
ByBlock
100
AcDbLine
 10
8013.39745962
 20
13875.0
 30
0.0
 11
8100.0
 21
13925.0
 31
0.0
  0
LINE
  5
194
330
2C8
100
AcDbEntity
  8
YKK_N1
  6
ByBlock
100
AcDbLine
 10
7100.0
 20
13925.0
 30
0.0
 11
7200.0
 21
13925.0
 31
0.0
  0
LINE
  5
195
330
2C8
100
AcDbEntity
  8
YKK_N1
  6
ByBlock
100
AcDbLine
 10
7100.0
 20
13925.0
 30
0.0
 11
7186.60254038
 21
13875.0
 31
0.0
  0
LINE
  5
196
330
2C8
100
AcDbEntity
  8
YKK_N1
  6
ByBlock
100
AcDbLine
 10
7186.60254038
 20
13875.0
 30
0.0
 11
7186.60254038
 21
13975.0
 31
0.0
  0
LINE
  5
197
330
2C8
100
AcDbEntity
  8
YKK_N1
  6
ByBlock
100
AcDbLine
 10
7186.60254038
 20
13975.0
 30
0.0
 11
7100.0
 21
13925.0
 31
0.0
  0
LINE
  5
198
330
2C8
100
AcDbEntity
  8
YKK_N1
  6
ByBlock
100
AcDbLine
 10
8500.0
 20
17325.0
 30
0.0
 11
8500.0
 21
17225.0
 31
0.0
  0
LINE
  5
199
330
2C8
100
AcDbEntity
  8
YKK_N1
  6
ByBlock
100
AcDbLine
 10
8500.0
 20
17325.0
 30
0.0
 11
8450.0
 21
17238.39745962
 31
0.0
  0
LINE
  5
19A
330
2C8
100
AcDbEntity
  8
YKK_N1
  6
ByBlock
100
AcDbLine
 10
8450.0
 20
17238.39745962
 30
0.0
 11
8550.0
 21
17238.39745962
 31
0.0
  0
LINE
  5
19B
330
2C8
100
AcDbEntity
  8
YKK_N1
  6
ByBlock
100
AcDbLine
 10
8550.0
 20
17238.39745962
 30
0.0
 11
8500.0
 21
17325.0
 31
0.0
  0
LINE
  5
19C
330
2C8
100
AcDbEntity
  8
YKK_N1
  6
ByBlock
100
AcDbLine
 10
8500.0
 20
15825.0
 30
0.0
 11
8500.0
 21
15925.0
 31
0.0
  0
LINE
  5
19D
330
2C8
100
AcDbEntity
  8
YKK_N1
  6
ByBlock
100
AcDbLine
 10
8500.0
 20
15825.0
 30
0.0
 11
8550.0
 21
15911.60254038
 31
0.0
  0
LINE
  5
19E
330
2C8
100
AcDbEntity
  8
YKK_N1
  6
ByBlock
100
AcDbLine
 10
8550.0
 20
15911.60254038
 30
0.0
 11
8450.0
 21
15911.60254038
 31
0.0
  0
LINE
  5
19F
330
2C8
100
AcDbEntity
  8
YKK_N1
  6
ByBlock
100
AcDbLine
 10
8450.0
 20
15911.60254038
 30
0.0
 11
8500.0
 21
15825.0
 31
0.0
  0
LINE
  5
1A0
330
2C8
100
AcDbEntity
  8
YKK_N1
  6
ByBlock
100
AcDbLine
 10
8100.0
 20
15425.0
 30
0.0
 11
8000.0
 21
15425.0
 31
0.0
  0
LINE
  5
1A1
330
2C8
100
AcDbEntity
  8
YKK_N1
  6
ByBlock
100
AcDbLine
 10
8100.0
 20
15425.0
 30
0.0
 11
8013.39745962
 21
15475.0
 31
0.0
  0
LINE
  5
1A2
330
2C8
100
AcDbEntity
  8
YKK_N1
  6
ByBlock
100
AcDbLine
 10
8013.39745962
 20
15475.0
 30
0.0
 11
8013.39745962
 21
15375.0
 31
0.0
  0
LINE
  5
1A3
330
2C8
100
AcDbEntity
  8
YKK_N1
  6
ByBlock
100
AcDbLine
 10
8013.39745962
 20
15375.0
 30
0.0
 11
8100.0
 21
15425.0
 31
0.0
  0
LINE
  5
1A4
330
2C8
100
AcDbEntity
  8
YKK_N1
  6
ByBlock
100
AcDbLine
 10
7100.0
 20
15425.0
 30
0.0
 11
7200.0
 21
15425.0
 31
0.0
  0
LINE
  5
1A5
330
2C8
100
AcDbEntity
  8
YKK_N1
  6
ByBlock
100
AcDbLine
 10
7100.0
 20
15425.0
 30
0.0
 11
7186.60254038
 21
15375.0
 31
0.0
  0
LINE
  5
1A6
330
2C8
100
AcDbEntity
  8
YKK_N1
  6
ByBlock
100
AcDbLine
 10
7186.60254038
 20
15375.0
 30
0.0
 11
7186.60254038
 21
15475.0
 31
0.0
  0
LINE
  5
1A7
330
2C8
100
AcDbEntity
  8
YKK_N1
  6
ByBlock
100
AcDbLine
 10
7186.60254038
 20
15475.0
 30
0.0
 11
7100.0
 21
15425.0
 31
0.0
  0
LINE
  5
1A8
330
2C8
100
AcDbEntity
  8
YKK_Z1
  6
Continuous
100
AcDbLine
 10
1385.0
 20
14230.0
 30
0.0
 11
1900.0
 21
14230.0
 31
0.0
  0
LINE
  5
1A9
330
2C8
100
AcDbEntity
  8
YKK_Z1
  6
Continuous
100
AcDbLine
 10
1360.0
 20
14252.0
 30
0.0
 11
1360.0
 21
14240.0
 31
0.0
  0
LINE
  5
1AA
330
2C8
100
AcDbEntity
  8
YKK_Z1
  6
Continuous
100
AcDbLine
 10
1000.0
 20
14252.0
 30
0.0
 11
1360.0
 21
14252.0
 31
0.0
  0
LINE
  5
1AB
330
2C8
100
AcDbEntity
  8
YKK_Z1
  6
Continuous
100
AcDbLine
 10
1360.0
 20
14240.0
 30
0.0
 11
1000.0
 21
14240.0
 31
0.0
  0
LINE
  5
1AC
330
2C8
100
AcDbEntity
  8
YKK_Z1
  6
Continuous
100
AcDbLine
 10
1382.0
 20
14415.0
 30
0.0
 11
1362.0
 21
14415.0
 31
0.0
  0
LINE
  5
1AD
330
2C8
100
AcDbEntity
  8
YKK_Z1
  6
Continuous
100
AcDbLine
 10
1378.13708536
 20
14230.0
 30
0.0
 11
1385.0
 21
14236.8629182
 31
0.0
  0
LINE
  5
1AE
330
2C8
100
AcDbEntity
  8
YKK_Z1
  6
Continuous
100
AcDbLine
 10
1360.0
 20
14240.14717891
 30
0.0
 11
1385.0
 21
14265.1471919
 31
0.0
  0
LINE
  5
1AF
330
2C8
100
AcDbEntity
  8
YKK_Z1
  6
Continuous
100
AcDbLine
 10
1360.0
 20
14268.43145261
 30
0.0
 11
1385.0
 21
14293.4314656
 31
0.0
  0
LINE
  5
1B0
330
2C8
100
AcDbEntity
  8
YKK_Z1
  6
Continuous
100
AcDbLine
 10
1360.0
 20
14296.7157263
 30
0.0
 11
1385.0
 21
14321.71573929
 31
0.0
  0
LINE
  5
1B2
330
2C8
100
AcDbEntity
  8
YKK_Z1
  6
Continuous
100
AcDbLine
 10
1360.0
 20
14325.0
 30
0.0
 11
1385.0
 21
14325.0
 31
0.0
  0
LINE
  5
1B3
330
2C8
100
AcDbEntity
  8
YKK_Z1
  6
Continuous
100
AcDbLine
 10
1360.0
 20
14230.0
 30
0.0
 11
1360.0
 21
14325.0
 31
0.0
  0
LINE
  5
1B4
330
2C8
100
AcDbEntity
  8
YKK_Z1
  6
Continuous
100
AcDbLine
 10
1385.0
 20
14230.0
 30
0.0
 11
1360.0
 21
14230.0
 31
0.0
  0
LINE
  5
1B5
330
2C8
100
AcDbEntity
  8
YKK_Z1
  6
Continuous
100
AcDbLine
 10
1385.0
 20
14325.0
 30
0.0
 11
1385.0
 21
14230.0
 31
0.0
  0
LINE
  5
1B6
330
2C8
100
AcDbEntity
  8
YKK_Z1
  6
CENTER
100
AcDbLine
 10
1361.0
 20
14340.0
 30
0.0
 11
1000.0
 21
14340.0
 31
0.0
  0
LINE
  5
1B7
330
2C8
100
AcDbEntity
  8
YKK_Z1
  6
Continuous
100
AcDbLine
 10
1347.0
 20
14286.73103279
 30
0.0
 11
1325.2689785
 21
14265.0
 31
0.0
  0
LINE
  5
1B8
330
2C8
100
AcDbEntity
  8
YKK_Z1
  6
Continuous
100
AcDbLine
 10
1178.28418106
 20
14415.0
 30
0.0
 11
1028.284259
 21
14265.0
 31
0.0
  0
LINE
  5
1B9
330
2C8
100
AcDbEntity
  8
YKK_Z1
  6
Continuous
100
AcDbLine
 10
1347.0
 20
14306.53002438
 30
0.0
 11
1305.4699972
 21
14265.0
 31
0.0
  0
LINE
  5
1BA
330
2C8
100
AcDbEntity
  8
YKK_Z1
  6
Continuous
100
AcDbLine
 10
1158.48519976
 20
14415.0
 30
0.0
 11
1008.4852777
 21
14265.0
 31
0.0
  0
LINE
  5
1BB
330
2C8
100
AcDbEntity
  8
YKK_Z1
  6
Continuous
100
AcDbLine
 10
1347.0
 20
14315.01530649
 30
0.0
 11
1296.9847195
 21
14265.0
 31
0.0
  0
LINE
  5
1BC
330
2C8
100
AcDbEntity
  8
YKK_Z1
  6
Continuous
100
AcDbLine
 10
1149.99992206
 20
14415.0
 30
0.0
 11
1000.0
 21
14265.0
 31
0.0
  0
LINE
  5
1BD
330
2C8
100
AcDbEntity
  8
YKK_Z1
  6
Continuous
100
AcDbLine
 10
1362.0
 20
14415.0
 30
0.0
 11
1000.0
 21
14415.0
 31
0.0
  0
LINE
  5
1BE
330
2C8
100
AcDbEntity
  8
YKK_Z1
  6
Continuous
100
AcDbLine
 10
1362.0
 20
14380.0
 30
0.0
 11
1362.0
 21
14415.0
 31
0.0
  0
LINE
  5
1BF
330
2C8
100
AcDbEntity
  8
YKK_Z1
  6
Continuous
100
AcDbLine
 10
1347.0
 20
14370.0
 30
0.0
 11
1362.0
 21
14380.0
 31
0.0
  0
LINE
  5
1C0
330
2C8
100
AcDbEntity
  8
YKK_Z1
  6
Continuous
100
AcDbLine
 10
1347.0
 20
14265.0
 30
0.0
 11
1347.0
 21
14370.0
 31
0.0
  0
LINE
  5
1C1
330
2C8
100
AcDbEntity
  8
YKK_Z1
  6
Continuous
100
AcDbLine
 10
1000.0
 20
14265.0
 30
0.0
 11
1347.0
 21
14265.0
 31
0.0
  0
LINE
  5
1C2
330
2C8
100
AcDbEntity
  8
YKK_Z1
  6
Continuous
100
AcDbLine
 10
2415.0
 20
14230.0
 30
0.0
 11
1900.0
 21
14230.0
 31
0.0
  0
LINE
  5
1C3
330
2C8
100
AcDbEntity
  8
YKK_Z1
  6
Continuous
100
AcDbLine
 10
2440.0
 20
14252.0
 30
0.0
 11
2440.0
 21
14240.0
 31
0.0
  0
LINE
  5
1C4
330
2C8
100
AcDbEntity
  8
YKK_Z1
  6
Continuous
100
AcDbLine
 10
2800.0
 20
14252.0
 30
0.0
 11
2440.0
 21
14252.0
 31
0.0
  0
LINE
  5
1C5
330
2C8
100
AcDbEntity
  8
YKK_Z1
  6
Continuous
100
AcDbLine
 10
2440.0
 20
14240.0
 30
0.0
 11
2800.0
 21
14240.0
 31
0.0
  0
LINE
  5
1C6
330
2C8
100
AcDbEntity
  8
YKK_Z1
  6
Continuous
100
AcDbLine
 10
2418.0
 20
14415.0
 30
0.0
 11
2438.0
 21
14415.0
 31
0.0
  0
LINE
  5
1C7
330
2C8
100
AcDbEntity
  8
YKK_Z1
  6
Continuous
100
AcDbLine
 10
2440.0
 20
14240.14717891
 30
0.0
 11
2429.85281933
 21
14230.0
 31
0.0
  0
LINE
  5
1C8
330
2C8
100
AcDbEntity
  8
YKK_Z1
  6
Continuous
100
AcDbLine
 10
2440.0
 20
14268.43145261
 30
0.0
 11
2415.0
 21
14243.43145694
 31
0.0
  0
LINE
  5
1C9
330
2C8
100
AcDbEntity
  8
YKK_Z1
  6
Continuous
100
AcDbLine
 10
2440.0
 20
14296.7157263
 30
0.0
 11
2415.0
 21
14271.71573063
 31
0.0
  0
LINE
  5
1CA
330
2C8
100
AcDbEntity
  8
YKK_Z1
  6
Continuous
100
AcDbLine
 10
2440.0
 20
14325.0
 30
0.0
 11
2415.0
 21
14300.00000433
 31
0.0
  0
LINE
  5
1CB
330
2C8
100
AcDbEntity
  8
YKK_Z1
  6
Continuous
100
AcDbLine
 10
2440.0
 20
14325.0
 30
0.0
 11
2415.0
 21
14325.0
 31
0.0
  0
LINE
  5
1CC
330
2C8
100
AcDbEntity
  8
YKK_Z1
  6
Continuous
100
AcDbLine
 10
2440.0
 20
14230.0
 30
0.0
 11
2440.0
 21
14325.0
 31
0.0
  0
LINE
  5
1CD
330
2C8
100
AcDbEntity
  8
YKK_Z1
  6
Continuous
100
AcDbLine
 10
2415.0
 20
14230.0
 30
0.0
 11
2440.0
 21
14230.0
 31
0.0
  0
LINE
  5
1CE
330
2C8
100
AcDbEntity
  8
YKK_Z1
  6
Continuous
100
AcDbLine
 10
2415.0
 20
14325.0
 30
0.0
 11
2415.0
 21
14230.0
 31
0.0
  0
LINE
  5
1CF
330
2C8
100
AcDbEntity
  8
YKK_Z1
  6
CENTER
100
AcDbLine
 10
2439.0
 20
14340.0
 30
0.0
 11
2800.0
 21
14340.0
 31
0.0
  0
LINE
  5
1D0
330
2C8
100
AcDbEntity
  8
YKK_Z1
  6
Continuous
100
AcDbLine
 10
2531.29935334
 20
14265.0
 30
0.0
 11
2681.29937932
 21
14415.0
 31
0.0
  0
LINE
  5
1D1
330
2C8
100
AcDbEntity
  8
YKK_Z1
  6
Continuous
100
AcDbLine
 10
2511.50035832
 20
14265.0
 30
0.0
 11
2661.5003843
 21
14415.0
 31
0.0
  0
LINE
  5
1D2
330
2C8
100
AcDbEntity
  8
YKK_Z1
  6
Continuous
100
AcDbLine
 10
2503.01507474
 20
14265.0
 30
0.0
 11
2653.01510072
 21
14415.0
 31
0.0
  0
LINE
  5
1D4
330
2C8
100
AcDbEntity
  8
YKK_Z1
  6
Continuous
100
AcDbLine
 10
2438.0
 20
14415.0
 30
0.0
 11
2800.0
 21
14415.0
 31
0.0
  0
LINE
  5
1D5
330
2C8
100
AcDbEntity
  8
YKK_Z1
  6
Continuous
100
AcDbLine
 10
2438.0
 20
14380.0
 30
0.0
 11
2438.0
 21
14415.0
 31
0.0
  0
LINE
  5
1D6
330
2C8
100
AcDbEntity
  8
YKK_Z1
  6
Continuous
100
AcDbLine
 10
2453.0
 20
14370.0
 30
0.0
 11
2438.0
 21
14380.0
 31
0.0
  0
LINE
  5
1D7
330
2C8
100
AcDbEntity
  8
YKK_Z1
  6
Continuous
100
AcDbLine
 10
2453.0
 20
14265.0
 30
0.0
 11
2453.0
 21
14370.0
 31
0.0
  0
LINE
  5
1D8
330
2C8
100
AcDbEntity
  8
YKK_Z1
  6
Continuous
100
AcDbLine
 10
2800.0
 20
14265.0
 30
0.0
 11
2453.0
 21
14265.0
 31
0.0
  0
LINE
  5
1D9
330
2C8
100
AcDbEntity
  8
YKK_Z1
  6
Continuous
100
AcDbLine
 10
3995.0
 20
17340.0
 30
0.0
 11
3995.0
 21
16575.0
 31
0.0
  0
LINE
  5
1DA
330
2C8
100
AcDbEntity
  8
YKK_Z1
  6
Continuous
100
AcDbLine
 10
3973.0
 20
17365.0
 30
0.0
 11
3985.0
 21
17365.0
 31
0.0
  0
LINE
  5
1DB
330
2C8
100
AcDbEntity
  8
YKK_Z1
  6
Continuous
100
AcDbLine
 10
3973.0
 20
17725.0
 30
0.0
 11
3973.0
 21
17365.0
 31
0.0
  0
LINE
  5
1DC
330
2C8
100
AcDbEntity
  8
YKK_Z1
  6
Continuous
100
AcDbLine
 10
3985.0
 20
17365.0
 30
0.0
 11
3985.0
 21
17725.0
 31
0.0
  0
LINE
  5
1DD
330
2C8
100
AcDbEntity
  8
YKK_Z1
  6
Continuous
100
AcDbLine
 10
3810.0
 20
17343.0
 30
0.0
 11
3810.0
 21
17364.0
 31
0.0
  0
LINE
  5
1DE
330
2C8
100
AcDbEntity
  8
YKK_Z1
  6
Continuous
100
AcDbLine
 10
3995.0
 20
17346.86291464
 30
0.0
 11
3988.1370818
 21
17340.0
 31
0.0
  0
LINE
  5
1DF
330
2C8
100
AcDbEntity
  8
YKK_Z1
  6
Continuous
100
AcDbLine
 10
3984.85282109
 20
17365.0
 30
0.0
 11
3959.8528081
 21
17340.0
 31
0.0
  0
LINE
  5
1E0
330
2C8
100
AcDbEntity
  8
YKK_Z1
  6
Continuous
100
AcDbLine
 10
3956.56854739
 20
17365.0
 30
0.0
 11
3931.5685344
 21
17340.0
 31
0.0
  0
LINE
  5
1E1
330
2C8
100
AcDbEntity
  8
YKK_Z1
  6
Continuous
100
AcDbLine
 10
3928.2842737
 20
17365.0
 30
0.0
 11
3903.28426071
 21
17340.0
 31
0.0
  0
LINE
  5
1E3
330
2C8
100
AcDbEntity
  8
YKK_Z1
  6
Continuous
100
AcDbLine
 10
3900.0
 20
17365.0
 30
0.0
 11
3900.0
 21
17340.0
 31
0.0
  0
LINE
  5
1E4
330
2C8
100
AcDbEntity
  8
YKK_Z1
  6
Continuous
100
AcDbLine
 10
3995.0
 20
17365.0
 30
0.0
 11
3900.0
 21
17365.0
 31
0.0
  0
LINE
  5
1E5
330
2C8
100
AcDbEntity
  8
YKK_Z1
  6
Continuous
100
AcDbLine
 10
3995.0
 20
17340.0
 30
0.0
 11
3995.0
 21
17365.0
 31
0.0
  0
LINE
  5
1E6
330
2C8
100
AcDbEntity
  8
YKK_Z1
  6
Continuous
100
AcDbLine
 10
3900.0
 20
17340.0
 30
0.0
 11
3995.0
 21
17340.0
 31
0.0
  0
LINE
  5
1E7
330
2C8
100
AcDbEntity
  8
YKK_Z1
  6
CENTER
100
AcDbLine
 10
3885.0
 20
17367.0
 30
0.0
 11
3885.0
 21
17725.0
 31
0.0
  0
LINE
  5
1E8
330
2C8
100
AcDbEntity
  8
YKK_Z1
  6
Continuous
100
AcDbLine
 10
3939.26896773
 20
17379.0
 30
0.0
 11
3960.0
 21
17399.7310215
 31
0.0
  0
LINE
  5
1E9
330
2C8
100
AcDbEntity
  8
YKK_Z1
  6
Continuous
100
AcDbLine
 10
3810.0
 20
17546.71581894
 30
0.0
 11
3960.0
 21
17696.715741
 31
0.0
  0
LINE
  5
1EA
330
2C8
100
AcDbEntity
  8
YKK_Z1
  6
Continuous
100
AcDbLine
 10
3919.46997614
 20
17379.0
 30
0.0
 11
3960.0
 21
17419.5300028
 31
0.0
  0
LINE
  5
1EB
330
2C8
100
AcDbEntity
  8
YKK_Z1
  6
Continuous
100
AcDbLine
 10
3810.0
 20
17566.51480024
 30
0.0
 11
3960.0
 21
17716.5147223
 31
0.0
  0
LINE
  5
1EC
330
2C8
100
AcDbEntity
  8
YKK_Z1
  6
Continuous
100
AcDbLine
 10
3910.98469403
 20
17379.0
 30
0.0
 11
3960.0
 21
17428.0152805
 31
0.0
  0
LINE
  5
1ED
330
2C8
100
AcDbEntity
  8
YKK_Z1
  6
Continuous
100
AcDbLine
 10
3810.0
 20
17575.00007794
 30
0.0
 11
3960.0
 21
17725.0
 31
0.0
  0
LINE
  5
1EE
330
2C8
100
AcDbEntity
  8
YKK_Z1
  6
Continuous
100
AcDbLine
 10
3810.0
 20
17364.0
 30
0.0
 11
3810.0
 21
17725.0
 31
0.0
  0
LINE
  5
1EF
330
2C8
100
AcDbEntity
  8
YKK_Z1
  6
Continuous
100
AcDbLine
 10
3845.0
 20
17364.0
 30
0.0
 11
3810.0
 21
17364.0
 31
0.0
  0
LINE
  5
1F0
330
2C8
100
AcDbEntity
  8
YKK_Z1
  6
Continuous
100
AcDbLine
 10
3855.0
 20
17379.0
 30
0.0
 11
3845.0
 21
17364.0
 31
0.0
  0
LINE
  5
1F1
330
2C8
100
AcDbEntity
  8
YKK_Z1
  6
Continuous
100
AcDbLine
 10
3960.0
 20
17379.0
 30
0.0
 11
3855.0
 21
17379.0
 31
0.0
  0
LINE
  5
1F2
330
2C8
100
AcDbEntity
  8
YKK_Z1
  6
Continuous
100
AcDbLine
 10
3960.0
 20
17725.0
 30
0.0
 11
3960.0
 21
17379.0
 31
0.0
  0
LINE
  5
1F3
330
2C8
100
AcDbEntity
  8
YKK_Z1
  6
Continuous
100
AcDbLine
 10
3995.0
 20
15825.0
 30
0.0
 11
3995.0
 21
16575.0
 31
0.0
  0
LINE
  5
1F4
330
2C8
100
AcDbEntity
  8
YKK_Z1
  6
Continuous
100
AcDbLine
 10
3973.0
 20
15800.0
 30
0.0
 11
3985.0
 21
15800.0
 31
0.0
  0
LINE
  5
1F5
330
2C8
100
AcDbEntity
  8
YKK_Z1
  6
Continuous
100
AcDbLine
 10
3973.0
 20
15425.0
 30
0.0
 11
3973.0
 21
15800.0
 31
0.0
  0
LINE
  5
1F6
330
2C8
100
AcDbEntity
  8
YKK_Z1
  6
Continuous
100
AcDbLine
 10
3985.0
 20
15800.0
 30
0.0
 11
3985.0
 21
15425.0
 31
0.0
  0
LINE
  5
1F7
330
2C8
100
AcDbEntity
  8
YKK_Z1
  6
Continuous
100
AcDbLine
 10
3810.0
 20
15790.0
 30
0.0
 11
3810.0
 21
15770.0
 31
0.0
  0
LINE
  5
1F8
330
2C8
100
AcDbEntity
  8
YKK_Z1
  6
Continuous
100
AcDbLine
 10
3984.85282109
 20
15800.0
 30
0.0
 11
3995.0
 21
15810.14718067
 31
0.0
  0
LINE
  5
1F9
330
2C8
100
AcDbEntity
  8
YKK_Z1
  6
Continuous
100
AcDbLine
 10
3956.56854739
 20
15800.0
 30
0.0
 11
3981.56854306
 21
15825.0
 31
0.0
  0
LINE
  5
1FA
330
2C8
100
AcDbEntity
  8
YKK_Z1
  6
Continuous
100
AcDbLine
 10
3928.2842737
 20
15800.0
 30
0.0
 11
3953.28426937
 21
15825.0
 31
0.0
  0
LINE
  5
1FB
330
2C8
100
AcDbEntity
  8
YKK_Z1
  6
Continuous
100
AcDbLine
 10
3900.0
 20
15800.0
 30
0.0
 11
3924.99999567
 21
15825.0
 31
0.0
  0
LINE
  5
1FC
330
2C8
100
AcDbEntity
  8
YKK_Z1
  6
Continuous
100
AcDbLine
 10
3900.0
 20
15800.0
 30
0.0
 11
3900.0
 21
15825.0
 31
0.0
  0
LINE
  5
1FD
330
2C8
100
AcDbEntity
  8
YKK_Z1
  6
Continuous
100
AcDbLine
 10
3995.0
 20
15800.0
 30
0.0
 11
3900.0
 21
15800.0
 31
0.0
  0
LINE
  5
1FE
330
2C8
100
AcDbEntity
  8
YKK_Z1
  6
Continuous
100
AcDbLine
 10
3995.0
 20
15825.0
 30
0.0
 11
3995.0
 21
15800.0
 31
0.0
  0
LINE
  5
1FF
330
2C8
100
AcDbEntity
  8
YKK_Z1
  6
Continuous
100
AcDbLine
 10
3900.0
 20
15825.0
 30
0.0
 11
3995.0
 21
15825.0
 31
0.0
  0
LINE
  5
200
330
2C8
100
AcDbEntity
  8
YKK_Z1
  6
CENTER
100
AcDbLine
 10
3885.0
 20
15780.0
 30
0.0
 11
3885.0
 21
15425.0
 31
0.0
  0
LINE
  5
201
330
2C8
100
AcDbEntity
  8
YKK_Z1
  6
Continuous
100
AcDbLine
 10
3960.0
 20
15693.70064666
 30
0.0
 11
3810.0
 21
15543.70062068
 31
0.0
  0
LINE
  5
202
330
2C8
100
AcDbEntity
  8
YKK_Z1
  6
Continuous
100
AcDbLine
 10
3960.0
 20
15713.49964168
 30
0.0
 11
3810.0
 21
15563.4996157
 31
0.0
  0
LINE
  5
203
330
2C8
100
AcDbEntity
  8
YKK_Z1
  6
Continuous
100
AcDbLine
 10
3960.0
 20
15721.98492526
 30
0.0
 11
3810.0
 21
15571.98489928
 31
0.0
  0
LINE
  5
205
330
2C8
100
AcDbEntity
  8
YKK_Z1
  6
Continuous
100
AcDbLine
 10
3810.0
 20
15770.0
 30
0.0
 11
3810.0
 21
15425.0
 31
0.0
  0
LINE
  5
206
330
2C8
100
AcDbEntity
  8
YKK_Z1
  6
Continuous
100
AcDbLine
 10
3905.0
 20
15770.0
 30
0.0
 11
3810.0
 21
15770.0
 31
0.0
  0
LINE
  5
207
330
2C8
100
AcDbEntity
  8
YKK_Z1
  6
Continuous
100
AcDbLine
 10
3915.0
 20
15785.0
 30
0.0
 11
3905.0
 21
15770.0
 31
0.0
  0
LINE
  5
208
330
2C8
100
AcDbEntity
  8
YKK_Z1
  6
Continuous
100
AcDbLine
 10
3960.0
 20
15785.0
 30
0.0
 11
3915.0
 21
15785.0
 31
0.0
  0
LINE
  5
209
330
2C8
100
AcDbEntity
  8
YKK_Z1
  6
Continuous
100
AcDbLine
 10
3960.0
 20
15425.0
 30
0.0
 11
3960.0
 21
15785.0
 31
0.0
  0
LINE
  5
20A
330
2C8
100
AcDbEntity
  8
YKK_N1
  6
CENTER
100
AcDbLine
 10
4200.0
 20
15025.0
 30
0.0
 11
4700.0
 21
15025.0
 31
0.0
  0
LINE
  5
20B
330
2C8
100
AcDbEntity
  8
YKK_C1
100
AcDbLine
 10
3800.0
 20
15874.0
 30
0.0
 11
3800.0
 21
17276.0
 31
0.0
  0
LINE
  5
20C
330
2C8
100
AcDbEntity
  8
YKK_C1
100
AcDbLine
 10
3900.0
 20
15845.0
 30
0.0
 11
3900.0
 21
17305.0
 31
0.0
  0
LINE
  5
20D
330
2C8
100
AcDbEntity
  8
YKK_C1
100
AcDbLine
 10
3811.0
 20
15844.0
 30
0.0
 11
3811.0
 21
17306.0
 31
0.0
  0
LINE
  5
20E
330
2C8
100
AcDbEntity
  8
YKK_C1
100
AcDbLine
 10
3862.0
 20
15854.0
 30
0.0
 11
3862.0
 21
15825.0
 31
0.0
  0
LINE
  5
20F
330
2C8
100
AcDbEntity
  8
YKK_C1
100
AcDbLine
 10
3822.0
 20
15854.0
 30
0.0
 11
3862.0
 21
15854.0
 31
0.0
  0
LINE
  5
210
330
2C8
100
AcDbEntity
  8
YKK_C1
100
AcDbLine
 10
3835.0
 20
15790.0
 30
0.0
 11
3822.0
 21
15790.0
 31
0.0
  0
LINE
  5
211
330
2C8
100
AcDbEntity
  8
YKK_C1
100
AcDbLine
 10
3835.0
 20
15790.0
 30
0.0
 11
3835.0
 21
15780.0
 31
0.0
  0
LINE
  5
212
330
2C8
100
AcDbEntity
  8
YKK_C1
100
AcDbLine
 10
3800.0
 20
15790.0
 30
0.0
 11
3835.0
 21
15790.0
 31
0.0
  0
LINE
  5
213
330
2C8
100
AcDbEntity
  8
YKK_C1
100
AcDbLine
 10
3822.0
 20
15790.0
 30
0.0
 11
3822.0
 21
15825.0
 31
0.0
  0
LINE
  5
214
330
2C8
100
AcDbEntity
  8
YKK_C1
100
AcDbLine
 10
3900.0
 20
15825.0
 30
0.0
 11
3822.0
 21
15790.0
 31
0.0
  0
LINE
  5
215
330
2C8
100
AcDbEntity
  8
YKK_C1
100
AcDbLine
 10
3900.0
 20
15795.0
 30
0.0
 11
3895.0
 21
15795.0
 31
0.0
  0
LINE
  5
216
330
2C8
100
AcDbEntity
  8
YKK_C1
100
AcDbLine
 10
3900.0
 20
15825.0
 30
0.0
 11
3900.0
 21
15795.0
 31
0.0
  0
LINE
  5
217
330
2C8
100
AcDbEntity
  8
YKK_C1
100
AcDbLine
 10
3822.0
 20
15825.0
 30
0.0
 11
3822.0
 21
15854.0
 31
0.0
  0
LINE
  5
218
330
2C8
100
AcDbEntity
  8
YKK_C1
100
AcDbLine
 10
3800.0
 20
15815.0
 30
0.0
 11
3800.0
 21
15854.0
 31
0.0
  0
LINE
  5
219
330
2C8
100
AcDbEntity
  8
YKK_C1
100
AcDbLine
 10
3900.0
 20
15825.0
 30
0.0
 11
3800.0
 21
15825.0
 31
0.0
  0
LINE
  5
21A
330
2C8
100
AcDbEntity
  8
YKK_C1
100
AcDbLine
 10
3862.0
 20
17296.0
 30
0.0
 11
3862.0
 21
17325.0
 31
0.0
  0
LINE
  5
21B
330
2C8
100
AcDbEntity
  8
YKK_C1
100
AcDbLine
 10
3822.0
 20
17296.0
 30
0.0
 11
3862.0
 21
17296.0
 31
0.0
  0
LINE
  5
21C
330
2C8
100
AcDbEntity
  8
YKK_C1
100
AcDbLine
 10
3835.0
 20
17355.0
 30
0.0
 11
3840.0
 21
17355.0
 31
0.0
  0
LINE
  5
21D
330
2C8
100
AcDbEntity
  8
YKK_C1
100
AcDbLine
 10
3835.0
 20
17343.0
 30
0.0
 11
3835.0
 21
17355.0
 31
0.0
  0
LINE
  5
21E
330
2C8
100
AcDbEntity
  8
YKK_C1
100
AcDbLine
 10
3800.0
 20
17343.0
 30
0.0
 11
3900.0
 21
17343.0
 31
0.0
  0
LINE
  5
21F
330
2C8
100
AcDbEntity
  8
YKK_C1
100
AcDbLine
 10
3800.0
 20
17325.0
 30
0.0
 11
3800.0
 21
17343.0
 31
0.0
  0
LINE
  5
220
330
2C8
100
AcDbEntity
  8
YKK_C1
100
AcDbLine
 10
3900.0
 20
17355.0
 30
0.0
 11
3895.0
 21
17355.0
 31
0.0
  0
LINE
  5
221
330
2C8
100
AcDbEntity
  8
YKK_C1
100
AcDbLine
 10
3900.0
 20
17325.0
 30
0.0
 11
3900.0
 21
17355.0
 31
0.0
  0
LINE
  5
222
330
2C8
100
AcDbEntity
  8
YKK_C1
100
AcDbLine
 10
3822.0
 20
17325.0
 30
0.0
 11
3822.0
 21
17296.0
 31
0.0
  0
LINE
  5
223
330
2C8
100
AcDbEntity
  8
YKK_C1
100
AcDbLine
 10
3800.0
 20
17325.0
 30
0.0
 11
3800.0
 21
17296.0
 31
0.0
  0
LINE
  5
224
330
2C8
100
AcDbEntity
  8
YKK_C1
100
AcDbLine
 10
3900.0
 20
17325.0
 30
0.0
 11
3800.0
 21
17325.0
 31
0.0
  0
LINE
  5
225
330
2C8
100
AcDbEntity
  8
YKK_B1
100
AcDbLine
 10
1449.0
 20
14425.0
 30
0.0
 11
2351.0
 21
14425.0
 31
0.0
  0
LINE
  5
226
330
2C8
100
AcDbEntity
  8
YKK_B1
100
AcDbLine
 10
1420.0
 20
14325.0
 30
0.0
 11
2380.0
 21
14325.0
 31
0.0
  0
LINE
  5
227
330
2C8
100
AcDbEntity
  8
YKK_B1
100
AcDbLine
 10
1419.0
 20
14414.0
 30
0.0
 11
2381.0
 21
14414.0
 31
0.0
  0
LINE
  5
228
330
2C8
100
AcDbEntity
  8
YKK_B1
100
AcDbLine
 10
2371.0
 20
14363.0
 30
0.0
 11
2400.0
 21
14363.0
 31
0.0
  0
LINE
  5
229
330
2C8
100
AcDbEntity
  8
YKK_B1
100
AcDbLine
 10
2371.0
 20
14403.0
 30
0.0
 11
2371.0
 21
14363.0
 31
0.0
  0
LINE
  5
22A
330
2C8
100
AcDbEntity
  8
YKK_B1
100
AcDbLine
 10
2425.0
 20
14390.0
 30
0.0
 11
2425.0
 21
14385.0
 31
0.0
  0
LINE
  5
22B
330
2C8
100
AcDbEntity
  8
YKK_B1
100
AcDbLine
 10
2418.0
 20
14390.0
 30
0.0
 11
2425.0
 21
14390.0
 31
0.0
  0
LINE
  5
22C
330
2C8
100
AcDbEntity
  8
YKK_B1
100
AcDbLine
 10
2418.0
 20
14425.0
 30
0.0
 11
2418.0
 21
14325.0
 31
0.0
  0
LINE
  5
22D
330
2C8
100
AcDbEntity
  8
YKK_B1
100
AcDbLine
 10
2400.0
 20
14425.0
 30
0.0
 11
2418.0
 21
14425.0
 31
0.0
  0
LINE
  5
22E
330
2C8
100
AcDbEntity
  8
YKK_B1
100
AcDbLine
 10
2425.0
 20
14325.0
 30
0.0
 11
2425.0
 21
14330.0
 31
0.0
  0
LINE
  5
22F
330
2C8
100
AcDbEntity
  8
YKK_B1
100
AcDbLine
 10
2400.0
 20
14325.0
 30
0.0
 11
2425.0
 21
14325.0
 31
0.0
  0
LINE
  5
230
330
2C8
100
AcDbEntity
  8
YKK_B1
100
AcDbLine
 10
2400.0
 20
14403.0
 30
0.0
 11
2371.0
 21
14403.0
 31
0.0
  0
LINE
  5
231
330
2C8
100
AcDbEntity
  8
YKK_B1
100
AcDbLine
 10
2400.0
 20
14425.0
 30
0.0
 11
2371.0
 21
14425.0
 31
0.0
  0
LINE
  5
232
330
2C8
100
AcDbEntity
  8
YKK_B1
100
AcDbLine
 10
2400.0
 20
14325.0
 30
0.0
 11
2400.0
 21
14425.0
 31
0.0
  0
LINE
  5
233
330
2C8
100
AcDbEntity
  8
YKK_B1
100
AcDbLine
 10
1429.0
 20
14363.0
 30
0.0
 11
1400.0
 21
14363.0
 31
0.0
  0
LINE
  5
234
330
2C8
100
AcDbEntity
  8
YKK_B1
100
AcDbLine
 10
1429.0
 20
14403.0
 30
0.0
 11
1429.0
 21
14363.0
 31
0.0
  0
LINE
  5
235
330
2C8
100
AcDbEntity
  8
YKK_B1
100
AcDbLine
 10
1375.0
 20
14390.0
 30
0.0
 11
1375.0
 21
14385.0
 31
0.0
  0
LINE
  5
236
330
2C8
100
AcDbEntity
  8
YKK_B1
100
AcDbLine
 10
1382.0
 20
14390.0
 30
0.0
 11
1375.0
 21
14390.0
 31
0.0
  0
LINE
  5
237
330
2C8
100
AcDbEntity
  8
YKK_B1
100
AcDbLine
 10
1382.0
 20
14425.0
 30
0.0
 11
1382.0
 21
14325.0
 31
0.0
  0
LINE
  5
238
330
2C8
100
AcDbEntity
  8
YKK_B1
100
AcDbLine
 10
1400.0
 20
14425.0
 30
0.0
 11
1382.0
 21
14425.0
 31
0.0
  0
LINE
  5
239
330
2C8
100
AcDbEntity
  8
YKK_B1
100
AcDbLine
 10
1375.0
 20
14325.0
 30
0.0
 11
1375.0
 21
14330.0
 31
0.0
  0
LINE
  5
23A
330
2C8
100
AcDbEntity
  8
YKK_B1
100
AcDbLine
 10
1400.0
 20
14325.0
 30
0.0
 11
1375.0
 21
14325.0
 31
0.0
  0
LINE
  5
23B
330
2C8
100
AcDbEntity
  8
YKK_B1
100
AcDbLine
 10
1400.0
 20
14403.0
 30
0.0
 11
1429.0
 21
14403.0
 31
0.0
  0
LINE
  5
23C
330
2C8
100
AcDbEntity
  8
YKK_B1
100
AcDbLine
 10
1400.0
 20
14425.0
 30
0.0
 11
1429.0
 21
14425.0
 31
0.0
  0
LINE
  5
23D
330
2C8
100
AcDbEntity
  8
YKK_B1
100
AcDbLine
 10
1400.0
 20
14325.0
 30
0.0
 11
1400.0
 21
14425.0
 31
0.0
  0
TEXT
  5
23E
330
2C8
100
AcDbEntity
  8
YKK_A1
100
AcDbText
 10
1838.6
 20
15974.0
 30
0.0
 40
60.0
  1
透明ガラス ６mm
 41
0.8
  7
YKK_SGSTYLE1
 72
     2
 11
2341.0
 21
15974.0
 31
0.0
100
AcDbText
  0
TEXT
  5
23F
330
2C8
100
AcDbEntity
  8
YKK_A1
100
AcDbText
 10
2302.14285714
 20
15884.0
 30
0.0
 40
60.0
  1
F
 41
0.8
  7
YKK_SGSTYLE1
 72
     2
 11
2341.0
 21
15884.0
 31
0.0
100
AcDbText
  0
LINE
  5
240
330
2C8
100
AcDbEntity
  8
YKK_A1
100
AcDbLine
 10
1429.0
 20
17296.0
 30
0.0
 11
1429.0
 21
15854.0
 31
0.0
  0
LINE
  5
241
330
2C8
100
AcDbEntity
  8
YKK_A1
100
AcDbLine
 10
2371.0
 20
17296.0
 30
0.0
 11
1429.0
 21
17296.0
 31
0.0
  0
LINE
  5
242
330
2C8
100
AcDbEntity
  8
YKK_A1
100
AcDbLine
 10
2371.0
 20
15854.0
 30
0.0
 11
2371.0
 21
17296.0
 31
0.0
  0
LINE
  5
243
330
2C8
100
AcDbEntity
  8
YKK_A1
100
AcDbLine
 10
1429.0
 20
15854.0
 30
0.0
 11
2371.0
 21
15854.0
 31
0.0
  0
LINE
  5
244
330
2C8
100
AcDbEntity
  8
YKK_A1
100
AcDbLine
 10
1400.0
 20
17325.0
 30
0.0
 11
1400.0
 21
15825.0
 31
0.0
  0
LINE
  5
245
330
2C8
100
AcDbEntity
  8
YKK_A1
100
AcDbLine
 10
2400.0
 20
17325.0
 30
0.0
 11
1400.0
 21
17325.0
 31
0.0
  0
LINE
  5
246
330
2C8
100
AcDbEntity
  8
YKK_A1
100
AcDbLine
 10
2400.0
 20
15825.0
 30
0.0
 11
2400.0
 21
17325.0
 31
0.0
  0
LINE
  5
247
330
2C8
100
AcDbEntity
  8
YKK_A1
100
AcDbLine
 10
1400.0
 20
15825.0
 30
0.0
 11
2400.0
 21
15825.0
 31
0.0
  0
LINE
  5
248
330
2C8
100
AcDbEntity
  8
YKK_A1
100
AcDbLine
 10
1385.0
 20
17340.0
 30
0.0
 11
1385.0
 21
15825.0
 31
0.0
  0
LINE
  5
249
330
2C8
100
AcDbEntity
  8
YKK_A1
100
AcDbLine
 10
2415.0
 20
17340.0
 30
0.0
 11
1385.0
 21
17340.0
 31
0.0
  0
LINE
  5
24A
330
2C8
100
AcDbEntity
  8
YKK_A1
100
AcDbLine
 10
2415.0
 20
15825.0
 30
0.0
 11
2415.0
 21
17340.0
 31
0.0
  0
LINE
  5
24B
330
2C8
100
AcDbEntity
  8
YKK_A1
100
AcDbLine
 10
1385.0
 20
15825.0
 30
0.0
 11
2415.0
 21
15825.0
 31
0.0
  0
LINE
  5
24C
330
2C8
100
AcDbEntity
  8
YKK_N1
100
AcDbLine
 10
1400.0
 20
15765.0
 30
0.0
 11
1400.0
 21
15395.0
 31
0.0
  0
LINE
  5
24D
330
2C8
100
AcDbEntity
  8
YKK_N1
100
AcDbLine
 10
2400.0
 20
15765.0
 30
0.0
 11
2400.0
 21
15395.0
 31
0.0
  0
LINE
  5
24E
330
2C8
100
AcDbEntity
  8
YKK_N1
100
AcDbLine
 10
1401.0
 20
15425.0
 30
0.0
 11
2399.0
 21
15425.0
 31
0.0
  0
TEXT
  5
24F
330
2C8
100
AcDbEntity
  8
YKK_N1
100
AcDbText
 10
1752.57142857
 20
15435.0
 30
0.0
 40
60.0
  1
W=1000
 41
0.8
  7
YKK_SGSTYLE1
100
AcDbText
  0
LINE
  5
250
330
2C8
100
AcDbEntity
  8
YKK_N1
100
AcDbLine
 10
2460.0
 20
15825.0
 30
0.0
 11
2830.0
 21
15825.0
 31
0.0
  0
LINE
  5
251
330
2C8
100
AcDbEntity
  8
YKK_N1
100
AcDbLine
 10
2460.0
 20
17325.0
 30
0.0
 11
2830.0
 21
17325.0
 31
0.0
  0
LINE
  5
252
330
2C8
100
AcDbEntity
  8
YKK_N1
100
AcDbLine
 10
2800.0
 20
15826.0
 30
0.0
 11
2800.0
 21
17324.0
 31
0.0
  0
TEXT
  5
253
330
2C8
100
AcDbEntity
  8
YKK_N1
100
AcDbText
 10
2790.0
 20
16427.57142857
 30
0.0
 40
60.0
  1
H=1500
 50
90.0
 41
0.8
  7
YKK_SGSTYLE1
100
AcDbText
  0
LINE
  5
254
330
2C8
100
AcDbEntity
  8
YKK_N1
100
AcDbLine
 10
1400.0
 20
14265.0
 30
0.0
 11
1400.0
 21
13895.0
 31
0.0
  0
LINE
  5
255
330
2C8
100
AcDbEntity
  8
YKK_N1
100
AcDbLine
 10
2400.0
 20
14265.0
 30
0.0
 11
2400.0
 21
13895.0
 31
0.0
  0
LINE
  5
256
330
2C8
100
AcDbEntity
  8
YKK_N1
100
AcDbLine
 10
1401.0
 20
13925.0
 30
0.0
 11
2399.0
 21
13925.0
 31
0.0
  0
TEXT
  5
257
330
2C8
100
AcDbEntity
  8
YKK_N1
100
AcDbText
 10
1752.57142857
 20
13935.0
 30
0.0
 40
60.0
  1
W=1000
 41
0.8
  7
YKK_SGSTYLE1
100
AcDbText
  0
LINE
  5
258
330
2C8
100
AcDbEntity
  8
YKK_N1
100
AcDbLine
 10
1636.0
 20
14325.0
 30
0.0
 11
1656.0
 21
14325.0
 31
0.0
  0
LINE
  5
259
330
2C8
100
AcDbEntity
  8
YKK_N1
100
AcDbLine
 10
1636.0
 20
14425.0
 30
0.0
 11
1656.0
 21
14425.0
 31
0.0
  0
LINE
  5
25A
330
2C8
100
AcDbEntity
  8
YKK_N1
100
AcDbLine
 10
1686.0
 20
14345.0
 30
0.0
 11
1686.0
 21
14405.0
 31
0.0
  0
TEXT
  5
25B
330
2C8
100
AcDbEntity
  8
YKK_N1
100
AcDbText
 10
1641.0
 20
14303.0
 30
0.0
 40
60.0
  1
100
 50
90.0
 41
0.8
  7
YKK_SGSTYLE1
100
AcDbText
  0
LINE
  5
25C
330
2C8
100
AcDbEntity
  8
YKK_N1
100
AcDbLine
 10
3960.0
 20
15825.0
 30
0.0
 11
4330.0
 21
15825.0
 31
0.0
  0
LINE
  5
25D
330
2C8
100
AcDbEntity
  8
YKK_N1
100
AcDbLine
 10
3960.0
 20
17325.0
 30
0.0
 11
4330.0
 21
17325.0
 31
0.0
  0
LINE
  5
25E
330
2C8
100
AcDbEntity
  8
YKK_N1
100
AcDbLine
 10
4300.0
 20
15826.0
 30
0.0
 11
4300.0
 21
17324.0
 31
0.0
  0
TEXT
  5
25F
330
2C8
100
AcDbEntity
  8
YKK_N1
100
AcDbText
 10
4290.0
 20
16427.57142857
 30
0.0
 40
60.0
  1
H=1500
 50
90.0
 41
0.8
  7
YKK_SGSTYLE1
100
AcDbText
  0
LINE
  5
260
330
2C8
100
AcDbEntity
  8
YKK_N1
100
AcDbLine
 10
4300.0
 20
15805.0
 30
0.0
 11
4300.0
 21
15045.0
 31
0.0
  0
TEXT
  5
261
330
2C8
100
AcDbEntity
  8
YKK_N1
100
AcDbText
 10
4290.0
 20
15356.42857143
 30
0.0
 40
60.0
  1
800
 50
90.0
 41
0.8
  7
YKK_SGSTYLE1
100
AcDbText
  0
LINE
  5
262
330
2C8
100
AcDbEntity
  8
YKK_N1
100
AcDbLine
 10
3900.0
 20
16946.0
 30
0.0
 11
3900.0
 21
16926.0
 31
0.0
  0
LINE
  5
263
330
2C8
100
AcDbEntity
  8
YKK_N1
100
AcDbLine
 10
3800.0
 20
16946.0
 30
0.0
 11
3800.0
 21
16926.0
 31
0.0
  0
LINE
  5
264
330
2C8
100
AcDbEntity
  8
YKK_N1
100
AcDbLine
 10
3880.0
 20
16896.0
 30
0.0
 11
3820.0
 21
16896.0
 31
0.0
  0
TEXT
  5
265
330
2C8
100
AcDbEntity
  8
YKK_N1
100
AcDbText
 10
3778.0
 20
16941.0
 30
0.0
 40
60.0
  1
100
 41
0.8
  7
YKK_SGSTYLE1
100
AcDbText
  0
LINE
  5
266
330
2C8
100
AcDbEntity
  8
YKK_N1
  6
Continuous
100
AcDbLine
 10
3900.0
 20
16956.0
 30
0.0
 11
3900.0
 21
16926.0
 31
0.0
  0
LINE
  5
267
330
2C8
100
AcDbEntity
  8
YKK_Z1
  6
Continuous
100
AcDbLine
 10
3995.0
 20
17280.0
 30
0.0
 11
3995.0
 21
16866.0
 31
0.0
  0
LINE
  5
268
330
2C8
100
AcDbEntity
  8
YKK_N1
  6
Continuous
100
AcDbLine
 10
3920.0
 20
16896.0
 30
0.0
 11
3975.0
 21
16896.0
 31
0.0
  0
LINE
  5
269
330
2C8
100
AcDbEntity
  8
YKK_N1
  6
Continuous
100
AcDbLine
 10
3995.0
 20
16896.0
 30
0.0
 11
4112.71428571
 21
16896.0
 31
0.0
  0
TEXT
  5
26A
330
2C8
100
AcDbEntity
  8
YKK_N1
  6
Continuous
100
AcDbText
 10
4018.14285714
 20
16906.0
 30
0.0
 40
60.0
  1
95
 41
0.8
  7
YKK_SGSTYLE1
100
AcDbText
  0
LINE
  5
26B
330
2C8
100
AcDbEntity
  8
YKK_N1
  6
Continuous
100
AcDbLine
 10
1626.0
 20
14325.0
 30
0.0
 11
1656.0
 21
14325.0
 31
0.0
  0
LINE
  5
26C
330
2C8
100
AcDbEntity
  8
YKK_Z1
  6
Continuous
100
AcDbLine
 10
1445.0
 20
14230.0
 30
0.0
 11
1716.0
 21
14230.0
 31
0.0
  0
LINE
  5
26D
330
2C8
100
AcDbEntity
  8
YKK_N1
  6
Continuous
100
AcDbLine
 10
1686.0
 20
14305.0
 30
0.0
 11
1686.0
 21
14250.0
 31
0.0
  0
LINE
  5
26E
330
2C8
100
AcDbEntity
  8
YKK_N1
  6
Continuous
100
AcDbLine
 10
1686.0
 20
14230.0
 30
0.0
 11
1686.0
 21
14112.28571429
 31
0.0
  0
TEXT
  5
26F
330
2C8
100
AcDbEntity
  8
YKK_N1
  6
Continuous
100
AcDbText
 10
1676.0
 20
14115.42857143
 30
0.0
 40
60.0
  1
95
 50
90.0
 41
0.8
  7
YKK_SGSTYLE1
100
AcDbText
  0
CIRCLE
  5
270
330
2C8
100
AcDbEntity
  8
YKK_N1
100
AcDbCircle
 10
1686.0
 20
14230.0
 30
0.0
 40
10.0
  0
CIRCLE
  5
271
330
2C8
100
AcDbEntity
  8
YKK_N1
100
AcDbCircle
 10
1686.0
 20
14230.0
 30
0.0
 40
6.5
  0
LINE
  5
272
330
2C8
100
AcDbEntity
  8
YKK_N1
100
AcDbLine
 10
1686.0
 20
14230.0
 30
0.0
 11
1686.0
 21
14250.0
 31
0.0
  0
CIRCLE
  5
273
330
2C8
100
AcDbEntity
  8
YKK_N1
100
AcDbCircle
 10
1686.0
 20
14325.0
 30
0.0
 40
10.0
  0
CIRCLE
  5
274
330
2C8
100
AcDbEntity
  8
YKK_N1
100
AcDbCircle
 10
1686.0
 20
14325.0
 30
0.0
 40
6.5
  0
LINE
  5
275
330
2C8
100
AcDbEntity
  8
YKK_N1
100
AcDbLine
 10
1686.0
 20
14325.0
 30
0.0
 11
1686.0
 21
14305.0
 31
0.0
  0
CIRCLE
  5
276
330
2C8
100
AcDbEntity
  8
YKK_N1
100
AcDbCircle
 10
3995.0
 20
16896.0
 30
0.0
 40
10.0
  0
CIRCLE
  5
277
330
2C8
100
AcDbEntity
  8
YKK_N1
100
AcDbCircle
 10
3995.0
 20
16896.0
 30
0.0
 40
6.5
  0
LINE
  5
278
330
2C8
100
AcDbEntity
  8
YKK_N1
100
AcDbLine
 10
3995.0
 20
16896.0
 30
0.0
 11
3975.0
 21
16896.0
 31
0.0
  0
CIRCLE
  5
279
330
2C8
100
AcDbEntity
  8
YKK_N1
100
AcDbCircle
 10
3900.0
 20
16896.0
 30
0.0
 40
10.0
  0
CIRCLE
  5
27A
330
2C8
100
AcDbEntity
  8
YKK_N1
100
AcDbCircle
 10
3900.0
 20
16896.0
 30
0.0
 40
6.5
  0
LINE
  5
27B
330
2C8
100
AcDbEntity
  8
YKK_N1
100
AcDbLine
 10
3900.0
 20
16896.0
 30
0.0
 11
3920.0
 21
16896.0
 31
0.0
  0
CIRCLE
  5
27C
330
2C8
100
AcDbEntity
  8
YKK_N1
100
AcDbCircle
 10
3800.0
 20
16896.0
 30
0.0
 40
10.0
  0
CIRCLE
  5
27D
330
2C8
100
AcDbEntity
  8
YKK_N1
100
AcDbCircle
 10
3800.0
 20
16896.0
 30
0.0
 40
6.5
  0
LINE
  5
27E
330
2C8
100
AcDbEntity
  8
YKK_N1
100
AcDbLine
 10
3800.0
 20
16896.0
 30
0.0
 11
3820.0
 21
16896.0
 31
0.0
  0
CIRCLE
  5
27F
330
2C8
100
AcDbEntity
  8
YKK_N1
100
AcDbCircle
 10
3900.0
 20
16896.0
 30
0.0
 40
10.0
  0
CIRCLE
  5
280
330
2C8
100
AcDbEntity
  8
YKK_N1
100
AcDbCircle
 10
3900.0
 20
16896.0
 30
0.0
 40
6.5
  0
LINE
  5
281
330
2C8
100
AcDbEntity
  8
YKK_N1
100
AcDbLine
 10
3900.0
 20
16896.0
 30
0.0
 11
3880.0
 21
16896.0
 31
0.0
  0
CIRCLE
  5
282
330
2C8
100
AcDbEntity
  8
YKK_N1
100
AcDbCircle
 10
4300.0
 20
15025.0
 30
0.0
 40
10.0
  0
CIRCLE
  5
283
330
2C8
100
AcDbEntity
  8
YKK_N1
100
AcDbCircle
 10
4300.0
 20
15025.0
 30
0.0
 40
6.5
  0
LINE
  5
284
330
2C8
100
AcDbEntity
  8
YKK_N1
100
AcDbLine
 10
4300.0
 20
15025.0
 30
0.0
 11
4300.0
 21
15045.0
 31
0.0
  0
LINE
  5
285
330
2C8
100
AcDbEntity
  8
YKK_N1
  6
ByBlock
100
AcDbLine
 10
4300.0
 20
15825.0
 30
0.0
 11
4300.0
 21
15805.0
 31
0.0
  0
LINE
  5
286
330
2C8
100
AcDbEntity
  8
YKK_N1
  6
ByBlock
100
AcDbLine
 10
4300.0
 20
17325.0
 30
0.0
 11
4300.0
 21
17225.0
 31
0.0
  0
LINE
  5
287
330
2C8
100
AcDbEntity
  8
YKK_N1
  6
ByBlock
100
AcDbLine
 10
4300.0
 20
17325.0
 30
0.0
 11
4250.0
 21
17238.39745962
 31
0.0
  0
LINE
  5
288
330
2C8
100
AcDbEntity
  8
YKK_N1
  6
ByBlock
100
AcDbLine
 10
4250.0
 20
17238.39745962
 30
0.0
 11
4350.0
 21
17238.39745962
 31
0.0
  0
LINE
  5
289
330
2C8
100
AcDbEntity
  8
YKK_N1
  6
ByBlock
100
AcDbLine
 10
4350.0
 20
17238.39745962
 30
0.0
 11
4300.0
 21
17325.0
 31
0.0
  0
LINE
  5
28A
330
2C8
100
AcDbEntity
  8
YKK_N1
  6
ByBlock
100
AcDbLine
 10
4300.0
 20
15825.0
 30
0.0
 11
4300.0
 21
15925.0
 31
0.0
  0
LINE
  5
28B
330
2C8
100
AcDbEntity
  8
YKK_N1
  6
ByBlock
100
AcDbLine
 10
4300.0
 20
15825.0
 30
0.0
 11
4350.0
 21
15911.60254038
 31
0.0
  0
LINE
  5
28C
330
2C8
100
AcDbEntity
  8
YKK_N1
  6
ByBlock
100
AcDbLine
 10
4350.0
 20
15911.60254038
 30
0.0
 11
4250.0
 21
15911.60254038
 31
0.0
  0
LINE
  5
28D
330
2C8
100
AcDbEntity
  8
YKK_N1
  6
ByBlock
100
AcDbLine
 10
4250.0
 20
15911.60254038
 30
0.0
 11
4300.0
 21
15825.0
 31
0.0
  0
CIRCLE
  5
28E
330
2C8
100
AcDbEntity
  8
YKK_N1
100
AcDbCircle
 10
1686.0
 20
14425.0
 30
0.0
 40
10.0
  0
CIRCLE
  5
28F
330
2C8
100
AcDbEntity
  8
YKK_N1
100
AcDbCircle
 10
1686.0
 20
14425.0
 30
0.0
 40
6.5
  0
LINE
  5
290
330
2C8
100
AcDbEntity
  8
YKK_N1
100
AcDbLine
 10
1686.0
 20
14425.0
 30
0.0
 11
1686.0
 21
14405.0
 31
0.0
  0
CIRCLE
  5
291
330
2C8
100
AcDbEntity
  8
YKK_N1
100
AcDbCircle
 10
1686.0
 20
14325.0
 30
0.0
 40
10.0
  0
CIRCLE
  5
292
330
2C8
100
AcDbEntity
  8
YKK_N1
100
AcDbCircle
 10
1686.0
 20
14325.0
 30
0.0
 40
6.5
  0
LINE
  5
293
330
2C8
100
AcDbEntity
  8
YKK_N1
100
AcDbLine
 10
1686.0
 20
14325.0
 30
0.0
 11
1686.0
 21
14345.0
 31
0.0
  0
LINE
  5
294
330
2C8
100
AcDbEntity
  8
YKK_N1
  6
ByBlock
100
AcDbLine
 10
2400.0
 20
13925.0
 30
0.0
 11
2300.0
 21
13925.0
 31
0.0
  0
LINE
  5
295
330
2C8
100
AcDbEntity
  8
YKK_N1
  6
ByBlock
100
AcDbLine
 10
2400.0
 20
13925.0
 30
0.0
 11
2313.39745962
 21
13975.0
 31
0.0
  0
LINE
  5
296
330
2C8
100
AcDbEntity
  8
YKK_N1
  6
ByBlock
100
AcDbLine
 10
2313.39745962
 20
13975.0
 30
0.0
 11
2313.39745962
 21
13875.0
 31
0.0
  0
LINE
  5
297
330
2C8
100
AcDbEntity
  8
YKK_N1
  6
ByBlock
100
AcDbLine
 10
2313.39745962
 20
13875.0
 30
0.0
 11
2400.0
 21
13925.0
 31
0.0
  0
LINE
  5
298
330
2C8
100
AcDbEntity
  8
YKK_N1
  6
ByBlock
100
AcDbLine
 10
1400.0
 20
13925.0
 30
0.0
 11
1500.0
 21
13925.0
 31
0.0
  0
LINE
  5
299
330
2C8
100
AcDbEntity
  8
YKK_N1
  6
ByBlock
100
AcDbLine
 10
1400.0
 20
13925.0
 30
0.0
 11
1486.60254038
 21
13875.0
 31
0.0
  0
LINE
  5
29A
330
2C8
100
AcDbEntity
  8
YKK_N1
  6
ByBlock
100
AcDbLine
 10
1486.60254038
 20
13875.0
 30
0.0
 11
1486.60254038
 21
13975.0
 31
0.0
  0
LINE
  5
29B
330
2C8
100
AcDbEntity
  8
YKK_N1
  6
ByBlock
100
AcDbLine
 10
1486.60254038
 20
13975.0
 30
0.0
 11
1400.0
 21
13925.0
 31
0.0
  0
LINE
  5
29C
330
2C8
100
AcDbEntity
  8
YKK_N1
  6
ByBlock
100
AcDbLine
 10
2800.0
 20
17325.0
 30
0.0
 11
2800.0
 21
17225.0
 31
0.0
  0
LINE
  5
29D
330
2C8
100
AcDbEntity
  8
YKK_N1
  6
ByBlock
100
AcDbLine
 10
2800.0
 20
17325.0
 30
0.0
 11
2750.0
 21
17238.39745962
 31
0.0
  0
LINE
  5
29E
330
2C8
100
AcDbEntity
  8
YKK_N1
  6
ByBlock
100
AcDbLine
 10
2750.0
 20
17238.39745962
 30
0.0
 11
2850.0
 21
17238.39745962
 31
0.0
  0
LINE
  5
29F
330
2C8
100
AcDbEntity
  8
YKK_N1
  6
ByBlock
100
AcDbLine
 10
2850.0
 20
17238.39745962
 30
0.0
 11
2800.0
 21
17325.0
 31
0.0
  0
LINE
  5
2A0
330
2C8
100
AcDbEntity
  8
YKK_N1
  6
ByBlock
100
AcDbLine
 10
2800.0
 20
15825.0
 30
0.0
 11
2800.0
 21
15925.0
 31
0.0
  0
LINE
  5
2A1
330
2C8
100
AcDbEntity
  8
YKK_N1
  6
ByBlock
100
AcDbLine
 10
2800.0
 20
15825.0
 30
0.0
 11
2850.0
 21
15911.60254038
 31
0.0
  0
LINE
  5
2A2
330
2C8
100
AcDbEntity
  8
YKK_N1
  6
ByBlock
100
AcDbLine
 10
2850.0
 20
15911.60254038
 30
0.0
 11
2750.0
 21
15911.60254038
 31
0.0
  0
LINE
  5
2A3
330
2C8
100
AcDbEntity
  8
YKK_N1
  6
ByBlock
100
AcDbLine
 10
2750.0
 20
15911.60254038
 30
0.0
 11
2800.0
 21
15825.0
 31
0.0
  0
LINE
  5
2A4
330
2C8
100
AcDbEntity
  8
YKK_N1
  6
ByBlock
100
AcDbLine
 10
2400.0
 20
15425.0
 30
0.0
 11
2300.0
 21
15425.0
 31
0.0
  0
LINE
  5
2A5
330
2C8
100
AcDbEntity
  8
YKK_N1
  6
ByBlock
100
AcDbLine
 10
2400.0
 20
15425.0
 30
0.0
 11
2313.39745962
 21
15475.0
 31
0.0
  0
LINE
  5
2A6
330
2C8
100
AcDbEntity
  8
YKK_N1
  6
ByBlock
100
AcDbLine
 10
2313.39745962
 20
15475.0
 30
0.0
 11
2313.39745962
 21
15375.0
 31
0.0
  0
LINE
  5
2A7
330
2C8
100
AcDbEntity
  8
YKK_N1
  6
ByBlock
100
AcDbLine
 10
2313.39745962
 20
15375.0
 30
0.0
 11
2400.0
 21
15425.0
 31
0.0
  0
LINE
  5
2A8
330
2C8
100
AcDbEntity
  8
YKK_N1
  6
ByBlock
100
AcDbLine
 10
1400.0
 20
15425.0
 30
0.0
 11
1500.0
 21
15425.0
 31
0.0
  0
LINE
  5
2A9
330
2C8
100
AcDbEntity
  8
YKK_N1
  6
ByBlock
100
AcDbLine
 10
1400.0
 20
15425.0
 30
0.0
 11
1486.60254038
 21
15375.0
 31
0.0
  0
LINE
  5
2AA
330
2C8
100
AcDbEntity
  8
YKK_N1
  6
ByBlock
100
AcDbLine
 10
1486.60254038
 20
15375.0
 30
0.0
 11
1486.60254038
 21
15475.0
 31
0.0
  0
LINE
  5
2AB
330
2C8
100
AcDbEntity
  8
YKK_N1
  6
ByBlock
100
AcDbLine
 10
1486.60254038
 20
15475.0
 30
0.0
 11
1400.0
 21
15425.0
 31
0.0
  0
TEXT
  5
2AC
330
2C8
100
AcDbEntity
  8
0
100
AcDbText
 10
22915.0
 20
4959.225
 30
0.0
 40
201.25
  1
耐風圧性
  7
EXTFONT
100
AcDbText
  0
TEXT
  5
2AD
330
2C8
100
AcDbEntity
  8
0
100
AcDbText
 10
22915.0
 20
5712.625
 30
0.0
 40
201.25
  1
YAT-100[K-841] はめ殺し窓 性能等級
  7
EXTFONT
100
AcDbText
  0
TEXT
  5
2AE
330
2C8
100
AcDbEntity
  8
0
100
AcDbText
 10
24211.05
 20
4959.225
 30
0.0
 40
201.25
  1
Ｓ－７（３６００Ｐａ）
  7
EXTFONT
100
AcDbText
  0
ENDSEC
  0
SECTION
  2
OBJECTS
  0
DICTIONARY
  5
2BD
330
0
100
AcDbDictionary
281
     1
  3
ACAD_CIP_PREVIOUS_PRODUCT_INFO
350
38B
  3
ACAD_COLOR
350
31F
  3
ACAD_DETAILVIEWSTYLE
350
338
  3
ACAD_GROUP
350
2BE
  3
ACAD_LAYOUT
350
33E
  3
ACAD_MATERIAL
350
2ED
  3
ACAD_MLEADERSTYLE
350
334
  3
ACAD_MLINESTYLE
350
2CB
  3
ACAD_PLOTSETTINGS
350
33D
  3
ACAD_PLOTSTYLENAME
350
2EB
  3
ACAD_SCALELIST
350
322
  3
ACAD_SECTIONVIEWSTYLE
350
336
  3
ACAD_TABLESTYLE
350
320
  3
ACAD_VISUALSTYLE
350
306
  3
ACDB_RECOMPOSE_DATA
350
391
  3
ACDBVARIABLEDICTIONARY
350
2E3
  0
XRECORD
  5
38B
102
{ACAD_REACTORS
330
2BD
102
}
330
2BD
100
AcDbXrecord
280
     1
300
ACD
300
2014
300
86063ACD_2014_0F
  0
DICTIONARY
  5
31F
102
{ACAD_REACTORS
330
2BD
102
}
330
2BD
100
AcDbDictionary
281
     1
  0
DICTIONARY
  5
338
102
{ACAD_REACTORS
330
2BD
102
}
330
2BD
100
AcDbDictionary
281
     1
  3
Imperial24
350
339
  0
DICTIONARY
  5
2BE
102
{ACAD_REACTORS
330
2BD
102
}
330
2BD
100
AcDbDictionary
281
     1
  0
DICTIONARY
  5
33E
102
{ACAD_REACTORS
330
2BD
102
}
330
2BD
100
AcDbDictionary
281
     1
  3
Model
350
33F
  3
レイアウト1
350
340
  0
DICTIONARY
  5
2ED
102
{ACAD_REACTORS
330
2BD
102
}
330
2BD
100
AcDbDictionary
281
     1
  3
ByBlock
350
2F6
  3
ByLayer
350
2EE
  3
Global
350
2FE
  0
DICTIONARY
  5
334
102
{ACAD_REACTORS
330
2BD
102
}
330
2BD
100
AcDbDictionary
281
     1
  3
Standard
350
335
  0
DICTIONARY
  5
2CB
102
{ACAD_REACTORS
330
2BD
102
}
330
2BD
100
AcDbDictionary
281
     1
  3
STANDARD
350
2CC
  0
DICTIONARY
  5
33D
102
{ACAD_REACTORS
330
2BD
102
}
330
2BD
100
AcDbDictionary
281
     1
  0
ACDBDICTIONARYWDFLT
  5
2EB
102
{ACAD_REACTORS
330
2BD
102
}
330
2BD
100
AcDbDictionary
281
     1
  3
Normal
350
2EC
100
AcDbDictionaryWithDefault
340
2EC
  0
DICTIONARY
  5
322
102
{ACAD_REACTORS
330
2BD
102
}
330
2BD
100
AcDbDictionary
281
     1
  3
A0
350
323
  3
A1
350
324
  3
A2
350
325
  3
A3
350
326
  3
A4
350
327
  3
A5
350
328
  3
A6
350
329
  3
A7
350
32A
  3
A8
350
32B
  3
A9
350
32C
  3
B0
350
32D
  3
B1
350
32E
  3
B2
350
32F
  3
B3
350
330
  3
B4
350
331
  3
B5
350
332
  3
B6
350
333
  0
DICTIONARY
  5
336
102
{ACAD_REACTORS
330
2BD
102
}
330
2BD
100
AcDbDictionary
281
     1
  3
Imperial24
350
337
  0
DICTIONARY
  5
320
102
{ACAD_REACTORS
330
2BD
102
}
330
2BD
100
AcDbDictionary
281
     1
  3
Standard
350
321
  0
DICTIONARY
  5
306
102
{ACAD_REACTORS
330
2BD
102
}
330
2BD
100
AcDbDictionary
281
     1
  3
2dWireframe
350
30C
  3
Basic
350
30B
  3
Brighten
350
312
  3
ColorChange
350
316
  3
Conceptual
350
30F
  3
Dim
350
311
  3
EdgeColorOff
350
31E
  3
Facepattern
350
315
  3
Flat
350
307
  3
FlatWithEdges
350
308
  3
Gouraud
350
309
  3
GouraudWithEdges
350
30A
  3
Hidden
350
30E
  3
JitterOff
350
31C
  3
Linepattern
350
314
  3
OverhangOff
350
31D
  3
Realistic
350
310
  3
Shaded
350
31B
  3
Shaded with edges
350
31A
  3
Shades of Gray
350
317
  3
Sketchy
350
318
  3
Thicken
350
313
  3
Wireframe
350
30D
  3
X-Ray
350
319
  0
XRECORD
  5
391
102
{ACAD_REACTORS
330
2BD
102
}
330
2BD
100
AcDbXrecord
280
     1
 90
        1
330
321
  0
DICTIONARY
  5
2E3
102
{ACAD_REACTORS
330
2BD
102
}
330
2BD
100
AcDbDictionary
281
     1
  3
CANNOSCALE
350
383
  3
CMLEADERSTYLE
350
380
  3
CTABLESTYLE
350
37F
  3
CVIEWDETAILSTYLE
350
381
  3
CVIEWSECTIONSTYLE
350
382
  3
DIMADEC
350
2E4
  3
XCLIPFRAME
350
38F
  0
ACDBDETAILVIEWSTYLE
  5
339
102
{ACAD_XDICTIONARY
360
3CA
102
}
102
{ACAD_REACTORS
330
338
102
}
330
338
100
AcDbModelDocViewStyle
 70
     0
  3
Imperial24
290
     0
100
AcDbDetailViewStyle
 70
     0
 71
     0
 90
        3
 71
     1
340
2C0
 62
   256
 40
0.24
340
0
 62
   256
 40
0.24
300

 40
0.36
280
     3
 71
     2
340
2C4
 90
       25
 62
   256
 71
     3
340
2C0
 62
   256
 40
0.24
 90
        1
 40
0.75
 90
        1
300
%<\AcVar ViewType \f "%tc1">% %<\AcVar ViewDetailId>%\PSCALE %<\AcVar ViewScale \f "%sn">%
 71
     4
340
2C4
 90
       25
 62
   256
340
2C4
 90
       25
 62
   256
280
     0
  0
LAYOUT
  5
33F
102
{ACAD_REACTORS
330
33E
102
}
330
33E
100
AcDbPlotSettings
  1

  2
C:\ACAD-I\support\plotters\Default Windows System Printer.pc3
  4
A4
  6

 40
3.17499995
 41
3.17499995
 42
3.17500305
 43
3.17498779
 44
209.88865662
 45
297.05300903
 46
0.0
 47
0.0
 48
0.0
 49
0.0
140
0.0
141
0.0
142
1.0
143
3305.1289224
 70
 11952
 72
     0
 73
     1
 74
     0
  7
monochrome.ctb
 75
     0
147
0.00030256
 76
     0
 77
     2
 78
   300
148
87076.26553458
149
2923.19806587
100
AcDbLayout
  1
Model
 70
     1
 71
     0
 10
0.0
 20
0.0
 11
12.0
 21
9.0
 12
0.0
 22
0.0
 32
0.0
 14
0.0
 24
0.0
 34
0.0
 15
0.0
 25
0.0
 35
0.0
146
0.0
 13
0.0
 23
0.0
 33
0.0
 16
1.0
 26
0.0
 36
0.0
 17
0.0
 27
1.0
 37
0.0
 76
     0
330
2C8
1001
ACAD_PSEXT
1000
C:\ACAD-I\support\plotters\Default Windows System Printer.pc3
1000
Fiery PRO80 65-55C-KM PS3.0jp
1000
IP_10.230.204.212
1000

1070
     0
  0
LAYOUT
  5
340
102
{ACAD_REACTORS
330
33E
102
}
330
33E
100
AcDbPlotSettings
  1

  2
C:\ACAD-I\support\plotters\Default Windows System Printer.pc3
  4
A4
  6

 40
3.17499995
 41
3.17499995
 42
3.17500305
 43
3.17498779
 44
209.88865662
 45
297.05300903
 46
0.0
 47
0.0
 48
0.0
 49
0.0
140
0.0
141
0.0
142
1.0
143
1.0
 70
 15024
 72
     0
 73
     1
 74
     5
  7
monochrome.ctb
 75
    16
147
1.0
 76
     0
 77
     2
 78
   300
148
0.0
149
0.0
100
AcDbLayout
  1
レイアウト1
 70
     0
 71
     1
 10
0.0
 20
0.0
 11
12.0
 21
9.0
 12
0.0
 22
0.0
 32
0.0
 14
1.00000000E+20
 24
1.00000000E+20
 34
1.00000000E+20
 15
-1.00000000E+20
 25
-1.00000000E+20
 35
-1.00000000E+20
146
0.0
 13
0.0
 23
0.0
 33
0.0
 16
1.0
 26
0.0
 36
0.0
 17
0.0
 27
1.0
 37
0.0
 76
     0
330
2C5
1001
ACAD_PSEXT
1000
C:\ACAD-I\support\plotters\Default Windows System Printer.pc3
1000
Fiery PRO80 65-55C-KM PS3.0jp
1000
IP_10.230.204.212
1000

1070
     0
  0
MATERIAL
  5
2F6
102
{ACAD_XDICTIONARY
360
2F7
102
}
102
{ACAD_REACTORS
330
2ED
102
}
330
2ED
100
AcDbMaterial
  1
ByBlock
 72
     0
 43
0.02083333
 43
0.0
 43
0.0
 43
0.0
 43
0.0
 43
0.02083333
 43
0.0
 43
0.0
 43
0.0
 43
0.0
 43
1.0
 43
0.0
 43
0.0
 43
0.0
 43
0.0
 43
1.0
 77
     0
 47
0.02083333
 47
0.0
 47
0.0
 47
0.0
 47
0.0
 47
0.02083333
 47
0.0
 47
0.0
 47
0.0
 47
0.0
 47
1.0
 47
0.0
 47
0.0
 47
0.0
 47
0.0
 47
1.0
171
     0
 49
0.02083333
 49
0.0
 49
0.0
 49
0.0
 49
0.0
 49
0.02083333
 49
0.0
 49
0.0
 49
0.0
 49
0.0
 49
1.0
 49
0.0
 49
0.0
 49
0.0
 49
0.0
 49
1.0
175
     0
142
0.02083333
142
0.0
142
0.0
142
0.0
142
0.0
142
0.02083333
142
0.0
142
0.0
142
0.0
142
0.0
142
1.0
142
0.0
142
0.0
142
0.0
142
0.0
142
1.0
179
     0
144
0.02083333
144
0.0
144
0.0
144
0.0
144
0.0
144
0.02083333
144
0.0
144
0.0
144
0.0
144
0.0
144
1.0
144
0.0
144
0.0
144
0.0
144
0.0
144
1.0
147
0.02083333
147
0.0
147
0.0
147
0.0
147
0.0
147
0.02083333
147
0.0
147
0.0
147
0.0
147
0.0
147
1.0
147
0.0
147
0.0
147
0.0
147
0.0
147
1.0
  0
MATERIAL
  5
2EE
102
{ACAD_XDICTIONARY
360
2EF
102
}
102
{ACAD_REACTORS
330
2ED
102
}
330
2ED
100
AcDbMaterial
  1
ByLayer
 72
     0
 43
0.02083333
 43
0.0
 43
0.0
 43
0.0
 43
0.0
 43
0.02083333
 43
0.0
 43
0.0
 43
0.0
 43
0.0
 43
1.0
 43
0.0
 43
0.0
 43
0.0
 43
0.0
 43
1.0
 77
     0
 47
0.02083333
 47
0.0
 47
0.0
 47
0.0
 47
0.0
 47
0.02083333
 47
0.0
 47
0.0
 47
0.0
 47
0.0
 47
1.0
 47
0.0
 47
0.0
 47
0.0
 47
0.0
 47
1.0
171
     0
 49
0.02083333
 49
0.0
 49
0.0
 49
0.0
 49
0.0
 49
0.02083333
 49
0.0
 49
0.0
 49
0.0
 49
0.0
 49
1.0
 49
0.0
 49
0.0
 49
0.0
 49
0.0
 49
1.0
175
     0
142
0.02083333
142
0.0
142
0.0
142
0.0
142
0.0
142
0.02083333
142
0.0
142
0.0
142
0.0
142
0.0
142
1.0
142
0.0
142
0.0
142
0.0
142
0.0
142
1.0
179
     0
144
0.02083333
144
0.0
144
0.0
144
0.0
144
0.0
144
0.02083333
144
0.0
144
0.0
144
0.0
144
0.0
144
1.0
144
0.0
144
0.0
144
0.0
144
0.0
144
1.0
147
0.02083333
147
0.0
147
0.0
147
0.0
147
0.0
147
0.02083333
147
0.0
147
0.0
147
0.0
147
0.0
147
1.0
147
0.0
147
0.0
147
0.0
147
0.0
147
1.0
  0
MATERIAL
  5
2FE
102
{ACAD_XDICTIONARY
360
2FF
102
}
102
{ACAD_REACTORS
330
2ED
102
}
330
2ED
100
AcDbMaterial
  1
Global
 72
     0
 43
0.02083333
 43
0.0
 43
0.0
 43
0.0
 43
0.0
 43
0.02083333
 43
0.0
 43
0.0
 43
0.0
 43
0.0
 43
1.0
 43
0.0
 43
0.0
 43
0.0
 43
0.0
 43
1.0
 77
     0
 47
0.02083333
 47
0.0
 47
0.0
 47
0.0
 47
0.0
 47
0.02083333
 47
0.0
 47
0.0
 47
0.0
 47
0.0
 47
1.0
 47
0.0
 47
0.0
 47
0.0
 47
0.0
 47
1.0
171
     0
 49
0.02083333
 49
0.0
 49
0.0
 49
0.0
 49
0.0
 49
0.02083333
 49
0.0
 49
0.0
 49
0.0
 49
0.0
 49
1.0
 49
0.0
 49
0.0
 49
0.0
 49
0.0
 49
1.0
175
     0
142
0.02083333
142
0.0
142
0.0
142
0.0
142
0.0
142
0.02083333
142
0.0
142
0.0
142
0.0
142
0.0
142
1.0
142
0.0
142
0.0
142
0.0
142
0.0
142
1.0
179
     0
144
0.02083333
144
0.0
144
0.0
144
0.0
144
0.0
144
0.02083333
144
0.0
144
0.0
144
0.0
144
0.0
144
1.0
144
0.0
144
0.0
144
0.0
144
0.0
144
1.0
147
0.02083333
147
0.0
147
0.0
147
0.0
147
0.0
147
0.02083333
147
0.0
147
0.0
147
0.0
147
0.0
147
1.0
147
0.0
147
0.0
147
0.0
147
0.0
147
1.0
  0
MLEADERSTYLE
  5
335
102
{ACAD_XDICTIONARY
360
3C6
102
}
102
{ACAD_REACTORS
330
334
102
}
330
334
100
AcDbMLeaderStyle
170
     2
171
     1
172
     0
 90
        2
 40
0.0
 41
0.0
173
     1
 91
-1056964608
340
2C2
 92
       -2
290
     1
 42
0.09
291
     1
 43
0.36
  3
Standard
 44
0.18
300

342
2C0
174
     1
178
     6
175
     1
176
     0
 93
-1056964608
 45
0.18
292
     0
297
     0
 46
0.18
 94
-1056964608
 47
1.0
 49
1.0
140
1.0
293
     1
141
0.0
294
     1
177
     0
142
1.0
295
     0
296
     0
143
0.125
1001
ACAD_MLEADERVER
1070
     2
  0
MLINESTYLE
  5
2CC
102
{ACAD_REACTORS
330
2CB
102
}
330
2CB
100
AcDbMlineStyle
  2
STANDARD
 70
     0
  3

 62
   256
 51
90.0
 52
90.0
 71
     2
 49
0.5
 62
   256
  6
BYLAYER
 49
-0.5
 62
   256
  6
BYLAYER
  0
ACDBPLACEHOLDER
  5
2EC
102
{ACAD_REACTORS
330
2EB
102
}
330
2EB
  0
SCALE
  5
323
102
{ACAD_REACTORS
330
322
102
}
330
322
100
AcDbScale
 70
     0
300
1:1
140
1.0
141
1.0
290
     1
  0
SCALE
  5
324
102
{ACAD_REACTORS
330
322
102
}
330
322
100
AcDbScale
 70
     0
300
1/128" = 1'-0"
140
0.0078125
141
12.0
290
     0
  0
SCALE
  5
325
102
{ACAD_REACTORS
330
322
102
}
330
322
100
AcDbScale
 70
     0
300
1/64" = 1'-0"
140
0.015625
141
12.0
290
     0
  0
SCALE
  5
326
102
{ACAD_REACTORS
330
322
102
}
330
322
100
AcDbScale
 70
     0
300
1/32" = 1'-0"
140
0.03125
141
12.0
290
     0
  0
SCALE
  5
327
102
{ACAD_REACTORS
330
322
102
}
330
322
100
AcDbScale
 70
     0
300
1/16" = 1'-0"
140
0.0625
141
12.0
290
     0
  0
SCALE
  5
328
102
{ACAD_REACTORS
330
322
102
}
330
322
100
AcDbScale
 70
     0
300
3/32" = 1'-0"
140
0.09375
141
12.0
290
     0
  0
SCALE
  5
329
102
{ACAD_REACTORS
330
322
102
}
330
322
100
AcDbScale
 70
     0
300
1/8" = 1'-0"
140
0.125
141
12.0
290
     0
  0
SCALE
  5
32A
102
{ACAD_REACTORS
330
322
102
}
330
322
100
AcDbScale
 70
     0
300
3/16" = 1'-0"
140
0.1875
141
12.0
290
     0
  0
SCALE
  5
32B
102
{ACAD_REACTORS
330
322
102
}
330
322
100
AcDbScale
 70
     0
300
1/4" = 1'-0"
140
0.25
141
12.0
290
     0
  0
SCALE
  5
32C
102
{ACAD_REACTORS
330
322
102
}
330
322
100
AcDbScale
 70
     0
300
3/8" = 1'-0"
140
0.375
141
12.0
290
     0
  0
SCALE
  5
32D
102
{ACAD_REACTORS
330
322
102
}
330
322
100
AcDbScale
 70
     0
300
1/2" = 1'-0"
140
0.5
141
12.0
290
     0
  0
SCALE
  5
32E
102
{ACAD_REACTORS
330
322
102
}
330
322
100
AcDbScale
 70
     0
300
3/4" = 1'-0"
140
0.75
141
12.0
290
     0
  0
SCALE
  5
32F
102
{ACAD_REACTORS
330
322
102
}
330
322
100
AcDbScale
 70
     0
300
1" = 1'-0"
140
1.0
141
12.0
290
     0
  0
SCALE
  5
330
102
{ACAD_REACTORS
330
322
102
}
330
322
100
AcDbScale
 70
     0
300
1-1/2" = 1'-0"
140
1.5
141
12.0
290
     0
  0
SCALE
  5
331
102
{ACAD_REACTORS
330
322
102
}
330
322
100
AcDbScale
 70
     0
300
3" = 1'-0"
140
3.0
141
12.0
290
     0
  0
SCALE
  5
332
102
{ACAD_REACTORS
330
322
102
}
330
322
100
AcDbScale
 70
     0
300
6" = 1'-0"
140
6.0
141
12.0
290
     0
  0
SCALE
  5
333
102
{ACAD_REACTORS
330
322
102
}
330
322
100
AcDbScale
 70
     0
300
1'-0" = 1'-0"
140
12.0
141
12.0
290
     0
  0
ACDBSECTIONVIEWSTYLE
  5
337
102
{ACAD_XDICTIONARY
360
3C8
102
}
102
{ACAD_REACTORS
330
336
102
}
330
336
100
AcDbModelDocViewStyle
 70
     0
  3
Imperial24
290
     0
100
AcDbSectionViewStyle
 70
     0
 71
     0
 90
      102
 71
     1
340
2C0
 62
   256
 40
5.0
340
0
340
0
 62
   256
 40
5.0
300
I, O, Q, S, X, Z
 40
10.0
 90
        0
 40
2.5
 90
        0
 71
     2
340
2C4
 90
       25
 62
   256
340
2C4
 90
       50
 62
   256
 40
5.0
 40
2.5
 40
5.0
 71
     3
340
2C0
 62
   256
 40
5.0
 90
        0
 40
15.0
 90
        1
300
%<\AcVar ViewSectionStartId>%-%<\AcVar ViewSectionEndId>% (%<\AcVar ViewScale \f "%sn">%)
 71
     4
 62
   256
 62
   257
300
ANSI31
 40
1.0
 90
        0
290
     0
290
     0
 90
        6
 40
0.0
 40
1.57079633
 40
0.26179939
 40
1.30899694
 40
-0.26179939
 40
1.83259571
  0
TABLESTYLE
  5
321
102
{ACAD_XDICTIONARY
360
341
102
}
102
{ACAD_REACTORS
330
320
102
}
330
320
100
AcDbTableStyle
  3
Standard
 70
     0
 71
     0
 40
0.06
 41
0.06
280
     0
281
     0
  7
STANDARD
140
0.18
170
     2
 62
     0
 63
     7
283
     0
274
    -2
284
     1
 64
     0
275
    -2
285
     1
 65
     0
276
    -2
286
     1
 66
     0
277
    -2
287
     1
 67
     0
278
    -2
288
     1
 68
     0
279
    -2
289
     1
 69
     0
  7
STANDARD
140
0.25
170
     5
 62
     0
 63
     7
283
     0
274
    -2
284
     1
 64
     0
275
    -2
285
     1
 65
     0
276
    -2
286
     1
 66
     0
277
    -2
287
     1
 67
     0
278
    -2
288
     1
 68
     0
279
    -2
289
     1
 69
     0
  7
STANDARD
140
0.18
170
     5
 62
     0
 63
     7
283
     0
274
    -2
284
     1
 64
     0
275
    -2
285
     1
 65
     0
276
    -2
286
     1
 66
     0
277
    -2
287
     1
 67
     0
278
    -2
288
     1
 68
     0
279
    -2
289
     1
 69
     0
  0
VISUALSTYLE
  5
30C
102
{ACAD_XDICTIONARY
360
39F
102
}
102
{ACAD_REACTORS
330
306
102
}
330
306
100
AcDbVisualStyle
  2
2dWireframe
 70
     4
 71
     0
 72
     2
 73
     0
 90
        0
 40
-0.6
 41
-30.0
 62
     5
 63
     7
421
 16777215
 74
     1
 91
        4
 64
     7
 65
   257
 75
     1
175
     1
 42
1.0
 92
        0
 66
   257
 43
1.0
 76
     1
 77
     6
 78
     2
 67
     7
 79
     5
170
     0
171
     0
290
     0
174
     0
 93
        1
 44
0.0
173
     0
291
     0
 45
0.0
1001
ACAD
1000
AcDbSavedByObjectVersion
1070
     0
  0
VISUALSTYLE
  5
30B
102
{ACAD_XDICTIONARY
360
39D
102
}
102
{ACAD_REACTORS
330
306
102
}
330
306
100
AcDbVisualStyle
  2
Basic
 70
     7
 71
     1
 72
     0
 73
     1
 90
        0
 40
-0.6
 41
-30.0
 62
     5
 63
     7
421
 16777215
 74
     0
 91
        4
 64
     7
 65
   257
 75
     1
175
     1
 42
1.0
 92
        8
 66
     7
 43
1.0
 76
     1
 77
     6
 78
     2
 67
     7
 79
     5
170
     0
171
     0
290
     0
174
     0
 93
        1
 44
0.0
173
     0
291
     1
 45
0.0
1001
ACAD
1000
AcDbSavedByObjectVersion
1070
     0
  0
VISUALSTYLE
  5
312
102
{ACAD_XDICTIONARY
360
3AB
102
}
102
{ACAD_REACTORS
330
306
102
}
330
306
100
AcDbVisualStyle
  2
Brighten
 70
    12
 71
     2
 72
     2
 73
     0
 90
        0
 40
-0.6
 41
-30.0
 62
     5
 63
     7
421
 16777215
 74
     1
 91
        4
 64
     7
 65
   257
 75
     1
175
     1
 42
1.0
 92
        8
 66
     7
 43
1.0
 76
     1
 77
     6
 78
     2
 67
     7
 79
     5
170
     0
171
     0
290
     0
174
     0
 93
        1
 44
50.0
173
     0
291
     1
 45
0.0
1001
ACAD
1000
AcDbSavedByObjectVersion
1070
     0
  0
VISUALSTYLE
  5
316
102
{ACAD_XDICTIONARY
360
3B3
102
}
102
{ACAD_REACTORS
330
306
102
}
330
306
100
AcDbVisualStyle
  2
ColorChange
 70
    16
 71
     2
 72
     2
 73
     3
 90
        0
 40
-0.6
 41
-30.0
 62
     5
 63
     8
421
  8421504
 74
     1
 91
        4
 64
     7
 65
   257
 75
     1
175
     1
 42
1.0
 92
        8
 66
     8
424
  8421504
 43
1.0
 76
     1
 77
     6
 78
     2
 67
     7
 79
     5
170
     0
171
     0
290
     0
174
     0
 93
        1
 44
0.0
173
     0
291
     1
 45
0.0
1001
ACAD
1000
AcDbSavedByObjectVersion
1070
     0
  0
VISUALSTYLE
  5
30F
102
{ACAD_XDICTIONARY
360
3A5
102
}
102
{ACAD_REACTORS
330
306
102
}
330
306
100
AcDbVisualStyle
  2
Conceptual
 70
     9
 71
     3
 72
     2
 73
     0
 90
        0
 40
-0.6
 41
-30.0
 62
     5
 63
     7
421
 16777215
 74
     2
 91
        2
 64
     7
 65
   257
 75
     1
175
     1
 42
179.0
 92
        8
 66
     7
 43
1.0
 76
     1
 77
     6
 78
     2
 67
     7
 79
     3
170
     0
171
     0
290
     0
174
     0
 93
        1
 44
0.0
173
     0
291
     0
 45
0.0
1001
ACAD
1000
AcDbSavedByObjectVersion
1070
     0
  0
VISUALSTYLE
  5
311
102
{ACAD_XDICTIONARY
360
3A9
102
}
102
{ACAD_REACTORS
330
306
102
}
330
306
100
AcDbVisualStyle
  2
Dim
 70
    11
 71
     2
 72
     2
 73
     0
 90
        0
 40
-0.6
 41
-30.0
 62
     5
 63
     7
421
 16777215
 74
     1
 91
        4
 64
     7
 65
   257
 75
     1
175
     1
 42
1.0
 92
        8
 66
     7
 43
1.0
 76
     1
 77
     6
 78
     2
 67
     7
 79
     5
170
     0
171
     0
290
     0
174
     0
 93
        1
 44
-50.0
173
     0
291
     1
 45
0.0
1001
ACAD
1000
AcDbSavedByObjectVersion
1070
     0
  0
VISUALSTYLE
  5
31E
102
{ACAD_XDICTIONARY
360
3C3
102
}
102
{ACAD_REACTORS
330
306
102
}
330
306
100
AcDbVisualStyle
  2
EdgeColorOff
 70
    22
 71
     2
 72
     2
 73
     0
 90
        0
 40
-0.6
 41
-30.0
 62
     5
 63
     7
421
 16777215
 74
     1
 91
        4
 64
     7
 65
   257
 75
     1
175
     1
 42
1.0
 92
        8
 66
     7
 43
1.0
 76
     1
 77
     6
 78
     2
 67
     7
 79
     5
170
     0
171
     0
290
     0
174
     0
 93
        1
 44
0.0
173
     0
291
     1
 45
0.0
1001
ACAD
1000
AcDbSavedByObjectVersion
1070
     0
  0
VISUALSTYLE
  5
315
102
{ACAD_XDICTIONARY
360
3B1
102
}
102
{ACAD_REACTORS
330
306
102
}
330
306
100
AcDbVisualStyle
  2
Facepattern
 70
    15
 71
     2
 72
     2
 73
     0
 90
        0
 40
-0.6
 41
-30.0
 62
     5
 63
     7
421
 16777215
 74
     1
 91
        4
 64
     7
 65
   257
 75
     1
175
     1
 42
1.0
 92
        8
 66
     7
 43
1.0
 76
     1
 77
     6
 78
     2
 67
     7
 79
     5
170
     0
171
     0
290
     0
174
     0
 93
        1
 44
0.0
173
     0
291
     1
 45
0.0
1001
ACAD
1000
AcDbSavedByObjectVersion
1070
     0
  0
VISUALSTYLE
  5
307
102
{ACAD_XDICTIONARY
360
395
102
}
102
{ACAD_REACTORS
330
306
102
}
330
306
100
AcDbVisualStyle
  2
Flat
 70
     0
 71
     2
 72
     1
 73
     1
 90
        2
 40
-0.6
 41
30.0
 62
     5
 63
     7
421
 16777215
 74
     0
 91
        0
 64
     7
 65
   257
 75
     1
175
     1
 42
1.0
 92
        8
 66
     7
 43
1.0
 76
     1
 77
     6
 78
     2
 67
     7
 79
     5
170
     0
171
     0
290
     0
174
     0
 93
       13
 44
0.0
173
     0
291
     1
 45
0.0
1001
ACAD
1000
AcDbSavedByObjectVersion
1070
     0
  0
VISUALSTYLE
  5
308
102
{ACAD_XDICTIONARY
360
397
102
}
102
{ACAD_REACTORS
330
306
102
}
330
306
100
AcDbVisualStyle
  2
FlatWithEdges
 70
     1
 71
     2
 72
     1
 73
     1
 90
        2
 40
-0.6
 41
30.0
 62
     5
 63
     7
421
 16777215
 74
     1
 91
        0
 64
     7
 65
   257
 75
     1
175
     1
 42
1.0
 92
        0
 66
   257
 43
1.0
 76
     1
 77
     6
 78
     2
 67
     7
 79
     5
170
     0
171
     0
290
     0
174
     0
 93
       13
 44
0.0
173
     0
291
     1
 45
0.0
1001
ACAD
1000
AcDbSavedByObjectVersion
1070
     0
  0
VISUALSTYLE
  5
309
102
{ACAD_XDICTIONARY
360
399
102
}
102
{ACAD_REACTORS
330
306
102
}
330
306
100
AcDbVisualStyle
  2
Gouraud
 70
     2
 71
     2
 72
     2
 73
     1
 90
        2
 40
-0.6
 41
30.0
 62
     5
 63
     7
421
 16777215
 74
     0
 91
        0
 64
     7
 65
   257
 75
     1
175
     1
 42
1.0
 92
        0
 66
     7
 43
1.0
 76
     1
 77
     6
 78
     2
 67
     7
 79
     5
170
     0
171
     0
290
     0
174
     0
 93
       13
 44
0.0
173
     0
291
     1
 45
0.0
1001
ACAD
1000
AcDbSavedByObjectVersion
1070
     0
  0
VISUALSTYLE
  5
30A
102
{ACAD_XDICTIONARY
360
39B
102
}
102
{ACAD_REACTORS
330
306
102
}
330
306
100
AcDbVisualStyle
  2
GouraudWithEdges
 70
     3
 71
     2
 72
     2
 73
     1
 90
        2
 40
-0.6
 41
30.0
 62
     5
 63
     7
421
 16777215
 74
     1
 91
        0
 64
     7
 65
   257
 75
     1
175
     1
 42
1.0
 92
        0
 66
   257
 43
1.0
 76
     1
 77
     6
 78
     2
 67
     7
 79
     5
170
     0
171
     0
290
     0
174
     0
 93
       13
 44
0.0
173
     0
291
     1
 45
0.0
1001
ACAD
1000
AcDbSavedByObjectVersion
1070
     0
  0
VISUALSTYLE
  5
30E
102
{ACAD_XDICTIONARY
360
3A3
102
}
102
{ACAD_REACTORS
330
306
102
}
330
306
100
AcDbVisualStyle
  2
Hidden
 70
     6
 71
     1
 72
     2
 73
     2
 90
        0
 40
-0.6
 41
-30.0
 62
     5
 63
     7
421
 16777215
 74
     2
 91
        2
 64
     7
 65
   257
 75
     2
175
     1
 42
40.0
 92
        0
 66
   257
 43
1.0
 76
     1
 77
     6
 78
     2
 67
     7
 79
     3
170
     0
171
     0
290
     0
174
     0
 93
        1
 44
0.0
173
     0
291
     0
 45
0.0
1001
ACAD
1000
AcDbSavedByObjectVersion
1070
     0
  0
VISUALSTYLE
  5
31C
102
{ACAD_XDICTIONARY
360
3BF
102
}
102
{ACAD_REACTORS
330
306
102
}
330
306
100
AcDbVisualStyle
  2
JitterOff
 70
    20
 71
     2
 72
     2
 73
     0
 90
        0
 40
-0.6
 41
-30.0
 62
     5
 63
     7
421
 16777215
 74
     1
 91
        4
 64
     7
 65
   257
 75
     1
175
     1
 42
1.0
 92
       10
 66
     7
 43
1.0
 76
     1
 77
     6
 78
     2
 67
     7
 79
     5
170
     0
171
     0
290
     0
174
     0
 93
        1
 44
0.0
173
     0
291
     1
 45
0.0
1001
ACAD
1000
AcDbSavedByObjectVersion
1070
     0
  0
VISUALSTYLE
  5
314
102
{ACAD_XDICTIONARY
360
3AF
102
}
102
{ACAD_REACTORS
330
306
102
}
330
306
100
AcDbVisualStyle
  2
Linepattern
 70
    14
 71
     2
 72
     2
 73
     0
 90
        0
 40
-0.6
 41
-30.0
 62
     5
 63
     7
421
 16777215
 74
     1
 91
        4
 64
     7
 65
   257
 75
     7
175
     7
 42
1.0
 92
        8
 66
     7
 43
1.0
 76
     1
 77
     6
 78
     2
 67
     7
 79
     5
170
     0
171
     0
290
     0
174
     0
 93
        1
 44
0.0
173
     0
291
     1
 45
0.0
1001
ACAD
1000
AcDbSavedByObjectVersion
1070
     0
  0
VISUALSTYLE
  5
31D
102
{ACAD_XDICTIONARY
360
3C1
102
}
102
{ACAD_REACTORS
330
306
102
}
330
306
100
AcDbVisualStyle
  2
OverhangOff
 70
    21
 71
     2
 72
     2
 73
     0
 90
        0
 40
-0.6
 41
-30.0
 62
     5
 63
     7
421
 16777215
 74
     1
 91
        4
 64
     7
 65
   257
 75
     1
175
     1
 42
1.0
 92
        9
 66
     7
 43
1.0
 76
     1
 77
     6
 78
     2
 67
     7
 79
     5
170
     0
171
     0
290
     0
174
     0
 93
        1
 44
0.0
173
     0
291
     1
 45
0.0
1001
ACAD
1000
AcDbSavedByObjectVersion
1070
     0
  0
VISUALSTYLE
  5
310
102
{ACAD_XDICTIONARY
360
3A7
102
}
102
{ACAD_REACTORS
330
306
102
}
330
306
100
AcDbVisualStyle
  2
Realistic
 70
     8
 71
     2
 72
     2
 73
     0
 90
        2
 40
-0.6
 41
30.0
 62
     5
 63
     7
421
 16777215
 74
     0
 91
        0
 64
     7
 65
   257
 75
     1
175
     1
 42
1.0
 92
        8
 66
   257
 43
1.0
 76
     1
 77
     6
 78
     2
 67
     7
 79
     3
170
     0
171
     0
290
     0
174
     0
 93
       13
 44
0.0
173
     0
291
     0
 45
0.0
1001
ACAD
1000
AcDbSavedByObjectVersion
1070
     0
  0
VISUALSTYLE
  5
31B
102
{ACAD_XDICTIONARY
360
3BD
102
}
102
{ACAD_REACTORS
330
306
102
}
330
306
100
AcDbVisualStyle
  2
Shaded
 70
    27
 71
     2
 72
     2
 73
     1
 90
        2
 40
-0.6
 41
30.0
 62
     5
 63
     7
421
 16777215
 74
     0
 91
        4
 64
     7
 65
   257
 75
     1
175
     1
 42
1.0
 92
        8
 66
   257
 43
1.0
 76
     1
 77
     6
 78
     2
 67
     8
425
  7895160
 79
     3
170
     0
171
     0
290
     0
174
     0
 93
        5
 44
0.0
173
     0
291
     0
 45
0.0
1001
ACAD
1000
AcDbSavedByObjectVersion
1070
     0
  0
VISUALSTYLE
  5
31A
102
{ACAD_XDICTIONARY
360
3BB
102
}
102
{ACAD_REACTORS
330
306
102
}
330
306
100
AcDbVisualStyle
  2
Shaded with edges
 70
    26
 71
     2
 72
     2
 73
     1
 90
        2
 40
-0.6
 41
30.0
 62
     5
 63
     7
421
 16777215
 74
     1
 91
       10
 64
     7
 65
   257
 75
     2
175
     1
 42
1.0
 92
        8
 66
   257
 43
1.0
 76
     1
 77
     6
 78
     2
 67
     7
 79
     3
170
     0
171
     0
290
     0
174
     0
 93
        5
 44
0.0
173
     0
291
     0
 45
0.0
1001
ACAD
1000
AcDbSavedByObjectVersion
1070
     0
  0
VISUALSTYLE
  5
317
102
{ACAD_XDICTIONARY
360
3B5
102
}
102
{ACAD_REACTORS
330
306
102
}
330
306
100
AcDbVisualStyle
  2
Shades of Gray
 70
    23
 71
     2
 72
     2
 73
     3
 90
        0
 40
-0.6
 41
-30.0
 62
     5
 63
     7
421
 16777215
 74
     2
 91
        2
 64
     7
 65
     7
 75
     1
175
     1
 42
40.0
 92
        8
 66
     7
 43
1.0
 76
     1
 77
     6
 78
     2
 67
     7
 79
     3
170
     0
171
     0
290
     0
174
     0
 93
        1
 44
0.0
173
     0
291
     0
 45
0.0
1001
ACAD
1000
AcDbSavedByObjectVersion
1070
     0
  0
VISUALSTYLE
  5
318
102
{ACAD_XDICTIONARY
360
3B7
102
}
102
{ACAD_REACTORS
330
306
102
}
330
306
100
AcDbVisualStyle
  2
Sketchy
 70
    24
 71
     1
 72
     2
 73
     2
 90
        0
 40
-0.6
 41
-30.0
 62
     5
 63
     7
421
 16777215
 74
     2
 91
        2
 64
     7
 65
     7
 75
     1
175
     1
 42
40.0
 92
       11
 66
     7
 43
1.0
 76
     1
 77
     6
 78
     2
 67
     7
 79
     6
170
     0
171
     0
290
     0
174
     0
 93
        1
 44
0.0
173
     0
291
     0
 45
0.0
1001
ACAD
1000
AcDbSavedByObjectVersion
1070
     0
  0
VISUALSTYLE
  5
313
102
{ACAD_XDICTIONARY
360
3AD
102
}
102
{ACAD_REACTORS
330
306
102
}
330
306
100
AcDbVisualStyle
  2
Thicken
 70
    13
 71
     2
 72
     2
 73
     0
 90
        0
 40
-0.6
 41
-30.0
 62
     5
 63
     7
421
 16777215
 74
     1
 91
        4
 64
     7
 65
   257
 75
     1
175
     1
 42
1.0
 92
       12
 66
     7
 43
1.0
 76
     1
 77
     6
 78
     2
 67
     7
 79
     5
170
     0
171
     0
290
     0
174
     0
 93
        1
 44
0.0
173
     0
291
     1
 45
0.0
1001
ACAD
1000
AcDbSavedByObjectVersion
1070
     0
  0
VISUALSTYLE
  5
30D
102
{ACAD_XDICTIONARY
360
3A1
102
}
102
{ACAD_REACTORS
330
306
102
}
330
306
100
AcDbVisualStyle
  2
Wireframe
 70
     5
 71
     0
 72
     2
 73
     0
 90
        0
 40
-0.6
 41
-30.0
 62
     5
 63
     7
421
 16777215
 74
     1
 91
        4
 64
     7
 65
   257
 75
     1
175
     1
 42
1.0
 92
        0
 66
   257
 43
1.0
 76
     1
 77
     6
 78
     2
 67
     7
 79
     3
170
     0
171
     0
290
     0
174
     0
 93
        1
 44
0.0
173
     0
291
     0
 45
0.0
1001
ACAD
1000
AcDbSavedByObjectVersion
1070
     0
  0
VISUALSTYLE
  5
319
102
{ACAD_XDICTIONARY
360
3B9
102
}
102
{ACAD_REACTORS
330
306
102
}
330
306
100
AcDbVisualStyle
  2
X-Ray
 70
    25
 71
     2
 72
     2
 73
     1
 90
        1
 40
0.5
 41
-30.0
 62
     5
 63
     7
421
 16777215
 74
     1
 91
        0
 64
     7
 65
   257
 75
     1
175
     1
 42
1.0
 92
        8
 66
     7
 43
1.0
 76
     1
 77
     6
 78
     2
 67
     7
 79
     3
170
     0
171
     0
290
     0
174
     0
 93
       13
 44
0.0
173
     0
291
     0
 45
0.0
1001
ACAD
1000
AcDbSavedByObjectVersion
1070
     0
  0
DICTIONARYVAR
  5
383
102
{ACAD_REACTORS
330
2E3
102
}
330
2E3
100
DictionaryVariables
280
     0
  1
1:1
  0
DICTIONARYVAR
  5
380
102
{ACAD_REACTORS
330
2E3
102
}
330
2E3
100
DictionaryVariables
280
     0
  1
STANDARD
  0
DICTIONARYVAR
  5
37F
102
{ACAD_REACTORS
330
2E3
102
}
330
2E3
100
DictionaryVariables
280
     0
  1
STANDARD
  0
DICTIONARYVAR
  5
381
102
{ACAD_REACTORS
330
2E3
102
}
330
2E3
100
DictionaryVariables
280
     0
  1
Imperial24
  0
DICTIONARYVAR
  5
382
102
{ACAD_REACTORS
330
2E3
102
}
330
2E3
100
DictionaryVariables
280
     0
  1
Imperial24
  0
DICTIONARYVAR
  5
2E4
102
{ACAD_REACTORS
330
2E3
102
}
330
2E3
100
DictionaryVariables
280
     0
  1
0
  0
DICTIONARYVAR
  5
38F
102
{ACAD_REACTORS
330
2E3
102
}
330
2E3
100
DictionaryVariables
280
     0
  1
2
  0
DICTIONARY
  5
3CA
330
339
100
AcDbDictionary
280
     1
281
     1
  3
ACAD_XREC_ROUNDTRIP
360
3CB
  0
DICTIONARY
  5
2F7
330
2F6
100
AcDbDictionary
280
     1
281
     1
  3
ACAD_XREC_ROUNDTRIP
360
393
  3
BUMPTILE
360
2F9
  3
DIFFUSETILE
360
2F8
  3
OPACITYTILE
360
2FC
  3
REFLECTIONTILE
360
2FB
  3
REFRACTIONTILE
360
2FD
  3
SPECULARTILE
360
2FA
  0
DICTIONARY
  5
2EF
330
2EE
100
AcDbDictionary
280
     1
281
     1
  3
ACAD_XREC_ROUNDTRIP
360
392
  3
BUMPTILE
360
2F1
  3
DIFFUSETILE
360
2F0
  3
OPACITYTILE
360
2F4
  3
REFLECTIONTILE
360
2F3
  3
REFRACTIONTILE
360
2F5
  3
SPECULARTILE
360
2F2
  0
DICTIONARY
  5
2FF
330
2FE
100
AcDbDictionary
280
     1
281
     1
  3
ACAD_XREC_ROUNDTRIP
360
394
  3
BUMPTILE
360
301
  3
DIFFUSETILE
360
300
  3
OPACITYTILE
360
304
  3
REFLECTIONTILE
360
303
  3
REFRACTIONTILE
360
305
  3
SPECULARTILE
360
302
  0
DICTIONARY
  5
3C6
330
335
100
AcDbDictionary
280
     1
281
     1
  3
ACAD_XREC_ROUNDTRIP
360
3C7
  0
DICTIONARY
  5
3C8
330
337
100
AcDbDictionary
280
     1
281
     1
  3
ACAD_XREC_ROUNDTRIP
360
3C9
  0
DICTIONARY
  5
341
330
321
100
AcDbDictionary
280
     1
281
     1
  3
ACAD_ROUNDTRIP_2008_TABLESTYLE_CELLSTYLEMAP
360
390
  3
ACAD_XREC_ROUNDTRIP
360
3C5
  0
DICTIONARY
  5
39F
330
30C
100
AcDbDictionary
280
     1
281
     1
  3
ACAD_XREC_ROUNDTRIP
360
3A0
  0
DICTIONARY
  5
39D
330
30B
100
AcDbDictionary
280
     1
281
     1
  3
ACAD_XREC_ROUNDTRIP
360
39E
  0
DICTIONARY
  5
3AB
330
312
100
AcDbDictionary
280
     1
281
     1
  3
ACAD_XREC_ROUNDTRIP
360
3AC
  0
DICTIONARY
  5
3B3
330
316
100
AcDbDictionary
280
     1
281
     1
  3
ACAD_XREC_ROUNDTRIP
360
3B4
  0
DICTIONARY
  5
3A5
330
30F
100
AcDbDictionary
280
     1
281
     1
  3
ACAD_XREC_ROUNDTRIP
360
3A6
  0
DICTIONARY
  5
3A9
330
311
100
AcDbDictionary
280
     1
281
     1
  3
ACAD_XREC_ROUNDTRIP
360
3AA
  0
DICTIONARY
  5
3C3
330
31E
100
AcDbDictionary
280
     1
281
     1
  3
ACAD_XREC_ROUNDTRIP
360
3C4
  0
DICTIONARY
  5
3B1
330
315
100
AcDbDictionary
280
     1
281
     1
  3
ACAD_XREC_ROUNDTRIP
360
3B2
  0
DICTIONARY
  5
395
330
307
100
AcDbDictionary
280
     1
281
     1
  3
ACAD_XREC_ROUNDTRIP
360
396
  0
DICTIONARY
  5
397
330
308
100
AcDbDictionary
280
     1
281
     1
  3
ACAD_XREC_ROUNDTRIP
360
398
  0
DICTIONARY
  5
399
330
309
100
AcDbDictionary
280
     1
281
     1
  3
ACAD_XREC_ROUNDTRIP
360
39A
  0
DICTIONARY
  5
39B
330
30A
100
AcDbDictionary
280
     1
281
     1
  3
ACAD_XREC_ROUNDTRIP
360
39C
  0
DICTIONARY
  5
3A3
330
30E
100
AcDbDictionary
280
     1
281
     1
  3
ACAD_XREC_ROUNDTRIP
360
3A4
  0
DICTIONARY
  5
3BF
330
31C
100
AcDbDictionary
280
     1
281
     1
  3
ACAD_XREC_ROUNDTRIP
360
3C0
  0
DICTIONARY
  5
3AF
330
314
100
AcDbDictionary
280
     1
281
     1
  3
ACAD_XREC_ROUNDTRIP
360
3B0
  0
DICTIONARY
  5
3C1
330
31D
100
AcDbDictionary
280
     1
281
     1
  3
ACAD_XREC_ROUNDTRIP
360
3C2
  0
DICTIONARY
  5
3A7
330
310
100
AcDbDictionary
280
     1
281
     1
  3
ACAD_XREC_ROUNDTRIP
360
3A8
  0
DICTIONARY
  5
3BD
330
31B
100
AcDbDictionary
280
     1
281
     1
  3
ACAD_XREC_ROUNDTRIP
360
3BE
  0
DICTIONARY
  5
3BB
330
31A
100
AcDbDictionary
280
     1
281
     1
  3
ACAD_XREC_ROUNDTRIP
360
3BC
  0
DICTIONARY
  5
3B5
330
317
100
AcDbDictionary
280
     1
281
     1
  3
ACAD_XREC_ROUNDTRIP
360
3B6
  0
DICTIONARY
  5
3B7
330
318
100
AcDbDictionary
280
     1
281
     1
  3
ACAD_XREC_ROUNDTRIP
360
3B8
  0
DICTIONARY
  5
3AD
330
313
100
AcDbDictionary
280
     1
281
     1
  3
ACAD_XREC_ROUNDTRIP
360
3AE
  0
DICTIONARY
  5
3A1
330
30D
100
AcDbDictionary
280
     1
281
     1
  3
ACAD_XREC_ROUNDTRIP
360
3A2
  0
DICTIONARY
  5
3B9
330
319
100
AcDbDictionary
280
     1
281
     1
  3
ACAD_XREC_ROUNDTRIP
360
3BA
  0
XRECORD
  5
3CB
102
{ACAD_REACTORS
330
3CA
102
}
330
3CA
100
AcDbXrecord
280
     1
102
DISPLAYNAME
  1
Imperial24
102
FLAGS
 90
        0
  0
XRECORD
  5
393
102
{ACAD_REACTORS
330
2F7
102
}
330
2F7
100
AcDbXrecord
280
     1
102
MATERIAL
148
0.0
149
0.0
149
0.0
 93
        0
 94
      127
282
     0
 72
     0
 77
     0
171
     0
175
     0
179
     0
273
     0
  0
XRECORD
  5
2F9
102
{ACAD_REACTORS
330
2F7
102
}
330
2F7
100
AcDbXrecord
280
     1
270
     1
271
     1
  0
XRECORD
  5
2F8
102
{ACAD_REACTORS
330
2F7
102
}
330
2F7
100
AcDbXrecord
280
     1
270
     1
271
     1
  0
XRECORD
  5
2FC
102
{ACAD_REACTORS
330
2F7
102
}
330
2F7
100
AcDbXrecord
280
     1
270
     1
271
     1
  0
XRECORD
  5
2FB
102
{ACAD_REACTORS
330
2F7
102
}
330
2F7
100
AcDbXrecord
280
     1
270
     1
271
     1
  0
XRECORD
  5
2FD
102
{ACAD_REACTORS
330
2F7
102
}
330
2F7
100
AcDbXrecord
280
     1
270
     1
271
     1
  0
XRECORD
  5
2FA
102
{ACAD_REACTORS
330
2F7
102
}
330
2F7
100
AcDbXrecord
280
     1
270
     1
271
     1
  0
XRECORD
  5
392
102
{ACAD_REACTORS
330
2EF
102
}
330
2EF
100
AcDbXrecord
280
     1
102
MATERIAL
148
0.0
149
0.0
149
0.0
 93
        0
 94
      127
282
     0
 72
     0
 77
     0
171
     0
175
     0
179
     0
273
     0
  0
XRECORD
  5
2F1
102
{ACAD_REACTORS
330
2EF
102
}
330
2EF
100
AcDbXrecord
280
     1
270
     1
271
     1
  0
XRECORD
  5
2F0
102
{ACAD_REACTORS
330
2EF
102
}
330
2EF
100
AcDbXrecord
280
     1
270
     1
271
     1
  0
XRECORD
  5
2F4
102
{ACAD_REACTORS
330
2EF
102
}
330
2EF
100
AcDbXrecord
280
     1
270
     1
271
     1
  0
XRECORD
  5
2F3
102
{ACAD_REACTORS
330
2EF
102
}
330
2EF
100
AcDbXrecord
280
     1
270
     1
271
     1
  0
XRECORD
  5
2F5
102
{ACAD_REACTORS
330
2EF
102
}
330
2EF
100
AcDbXrecord
280
     1
270
     1
271
     1
  0
XRECORD
  5
2F2
102
{ACAD_REACTORS
330
2EF
102
}
330
2EF
100
AcDbXrecord
280
     1
270
     1
271
     1
  0
XRECORD
  5
394
102
{ACAD_REACTORS
330
2FF
102
}
330
2FF
100
AcDbXrecord
280
     1
102
MATERIAL
148
0.0
149
0.0
149
0.0
 93
        0
 94
      127
282
     0
 72
     0
 77
     0
171
     0
175
     0
179
     0
273
     0
  0
XRECORD
  5
301
102
{ACAD_REACTORS
330
2FF
102
}
330
2FF
100
AcDbXrecord
280
     1
270
     1
271
     1
  0
XRECORD
  5
300
102
{ACAD_REACTORS
330
2FF
102
}
330
2FF
100
AcDbXrecord
280
     1
270
     1
271
     1
  0
XRECORD
  5
304
102
{ACAD_REACTORS
330
2FF
102
}
330
2FF
100
AcDbXrecord
280
     1
270
     1
271
     1
  0
XRECORD
  5
303
102
{ACAD_REACTORS
330
2FF
102
}
330
2FF
100
AcDbXrecord
280
     1
270
     1
271
     1
  0
XRECORD
  5
305
102
{ACAD_REACTORS
330
2FF
102
}
330
2FF
100
AcDbXrecord
280
     1
270
     1
271
     1
  0
XRECORD
  5
302
102
{ACAD_REACTORS
330
2FF
102
}
330
2FF
100
AcDbXrecord
280
     1
270
     1
271
     1
  0
XRECORD
  5
3C7
102
{ACAD_REACTORS
330
3C6
102
}
330
3C6
100
AcDbXrecord
280
     1
102
ACAD_ROUNDTRIP_2012_MLEADER_STYLE
298
     1
  0
XRECORD
  5
3C9
102
{ACAD_REACTORS
330
3C8
102
}
330
3C8
100
AcDbXrecord
280
     1
102
DISPLAYNAME
  1
Imperial24
102
FLAGS
 90
        0
  0
CELLSTYLEMAP
  5
390
102
{ACAD_REACTORS
330
341
102
}
330
341
100
AcDbCellStyleMap
 90
        3
300
CELLSTYLE
  1
TABLEFORMAT_BEGIN
 90
        5
170
     1
 91
        0
 92
    32768
 62
   257
 93
        1
300
CONTENTFORMAT
  1
CONTENTFORMAT_BEGIN
 90
        0
 91
        0
 92
      512
 93
        0
300

 40
0.0
140
1.0
 94
        5
 62
     0
340
2C0
144
0.25
309
CONTENTFORMAT_END
171
     0
 94
        0
309
TABLEFORMAT_END
  1
CELLSTYLE_BEGIN
 90
        1
 91
        1
300
_TITLE
309
CELLSTYLE_END
300
CELLSTYLE
  1
TABLEFORMAT_BEGIN
 90
        5
170
     1
 91
        0
 92
        0
 62
   257
 93
        1
300
CONTENTFORMAT
  1
CONTENTFORMAT_BEGIN
 90
        0
 91
        0
 92
      512
 93
        0
300

 40
0.0
140
1.0
 94
        5
 62
     0
340
2C0
144
0.18
309
CONTENTFORMAT_END
171
     0
 94
        0
309
TABLEFORMAT_END
  1
CELLSTYLE_BEGIN
 90
        2
 91
        1
300
_HEADER
309
CELLSTYLE_END
300
CELLSTYLE
  1
TABLEFORMAT_BEGIN
 90
        5
170
     1
 91
        0
 92
        0
 62
   257
 93
        1
300
CONTENTFORMAT
  1
CONTENTFORMAT_BEGIN
 90
        0
 91
        0
 92
      512
 93
        0
300

 40
0.0
140
1.0
 94
        2
 62
     0
340
2C0
144
0.18
309
CONTENTFORMAT_END
171
     0
 94
        0
309
TABLEFORMAT_END
  1
CELLSTYLE_BEGIN
 90
        3
 91
        2
300
_DATA
309
CELLSTYLE_END
  0
XRECORD
  5
3C5
102
{ACAD_REACTORS
330
341
102
}
330
341
100
AcDbXrecord
280
     1
102
ACAD_ROUNDTRIP_PRE2007_TABLESTYLE
 90
      512
 91
        0
  1

 92
      512
 93
        0
  2

 94
      512
 95
        0
  3

  0
XRECORD
  5
3A0
102
{ACAD_REACTORS
330
39F
102
}
330
39F
100
AcDbXrecord
280
     1
102
RTVSPost2010Prop28
280
     1
102
RTVSPost2010PropOp28
 70
     1
102
RTVSPost2010Prop29
280
     1
102
RTVSPost2010PropOp29
 70
     1
102
RTVSPost2010Prop30
280
     0
102
RTVSPost2010PropOp30
 70
     1
102
RTVSPost2010Prop31
280
     0
102
RTVSPost2010PropOp31
 70
     1
102
RTVSPost2010Prop32
280
     0
102
RTVSPost2010PropOp32
 70
     1
102
RTVSPost2010Prop33
280
     0
102
RTVSPost2010PropOp33
 70
     1
102
RTVSPost2010Prop34
280
     0
102
RTVSPost2010PropOp34
 70
     1
102
RTVSPost2010Prop35
280
     0
102
RTVSPost2010PropOp35
 70
     1
102
RTVSPost2010Prop36
280
     0
102
RTVSPost2010PropOp36
 70
     1
102
RTVSPost2010Prop37
 90
       50
102
RTVSPost2010PropOp37
 70
     1
102
RTVSPost2010Prop38
140
0.0
102
RTVSPost2010PropOp38
 70
     1
102
RTVSPost2010Prop39
140
1.0
102
RTVSPost2010PropOp39
 70
     1
102
RTVSPost2010Prop40
 90
        0
102
RTVSPost2010PropOp40
 70
     1
102
RTVSPost2010Prop41ColorIndex
 90
       18
102
RTVSPost2010Prop41ColorRGB
 90
        0
102
RTVSPost2010PropOp41
 70
     1
102
RTVSPost2010Prop42
 90
       50
102
RTVSPost2010PropOp42
 70
     1
102
RTVSPost2010Prop43
 90
        3
102
RTVSPost2010PropOp43
 70
     1
102
RTVSPost2010Prop44ColorIndex
 90
        5
102
RTVSPost2010Prop44ColorRGB
 90
      255
102
RTVSPost2010PropOp44
 70
     1
102
RTVSPost2010Prop45
280
     0
102
RTVSPost2010PropOp45
 70
     1
102
RTVSPost2010Prop46
 90
       50
102
RTVSPost2010PropOp46
 70
     1
102
RTVSPost2010Prop47
 90
       50
102
RTVSPost2010PropOp47
 70
     1
102
RTVSPost2010Prop48
 90
       50
102
RTVSPost2010PropOp48
 70
     1
102
RTVSPost2010Prop49
280
     0
102
RTVSPost2010PropOp49
 70
     1
102
RTVSPost2010Prop50
 90
       50
102
RTVSPost2010PropOp50
 70
     1
102
RTVSPost2010Prop51ColorIndex
 90
      256
102
RTVSPost2010Prop51ColorRGB
 90
-16777216
102
RTVSPost2010PropOp51
 70
     0
102
RTVSPost2010Prop52
140
1.0
102
RTVSPost2010PropOp52
 70
     0
102
RTVSPost2010Prop53
 90
        2
102
RTVSPost2010PropOp53
 70
     1
102
RTVSPost2010Prop54
  1
strokes_ogs.tif
102
RTVSPost2010PropOp54
 70
     1
102
RTVSPost2010Prop55
280
     0
102
RTVSPost2010PropOp55
 70
     1
102
RTVSPost2010Prop56
140
1.0
102
RTVSPost2010PropOp56
 70
     1
102
RTVSPost2010Prop57
140
1.0
102
RTVSPost2010PropOp57
 70
     1
102
RTVSPropertyOp0
 70
     1
102
RTVSPropertyOp1
 70
     1
102
RTVSPropertyOp2
 70
     1
102
RTVSPropertyOp3
 70
     1
102
RTVSPropertyOp4
 70
     1
102
RTVSPropertyOp5
 70
     1
102
RTVSPropertyOp6
 70
     1
102
RTVSPropertyOp7
 70
     1
102
RTVSPropertyOp8
 70
     1
102
RTVSPropertyOp9
 70
     1
102
RTVSPropertyOp10
 70
     1
102
RTVSPropertyOp11
 70
     1
102
RTVSPropertyOp12
 70
     1
102
RTVSPropertyOp13
 70
     1
102
RTVSPropertyOp14
 70
     1
102
RTVSPropertyOp15
 70
     1
102
RTVSPropertyOp16
 70
     1
102
RTVSPropertyOp17
 70
     1
102
RTVSPropertyOp18
 70
     1
102
RTVSPropertyOp19
 70
     1
102
RTVSPropertyOp20
 70
     1
102
RTVSPropertyOp21
 70
     1
102
RTVSPropertyOp22
 70
     1
102
RTVSPropertyOp23
 70
     1
102
RTVSPropertyOp24
 70
     1
102
RTVSPropertyOp25
 70
     1
102
RTVSPropertyOp26
 70
     1
102
RTVSPropertyOp27
 70
     1
102
RTVSPropertyOp28
 70
     1
102
RTVSPropertyOp29
 70
     1
102
RTVSPropertyOp30
 70
     1
102
RTVSPropertyOp31
 70
     1
102
RTVSPropertyOp32
 70
     1
102
RTVSPropertyOp33
 70
     1
102
RTVSPropertyOp34
 70
     1
102
RTVSPropertyOp35
 70
     1
102
RTVSPropertyOp36
 70
     1
102
RTVSPropertyOp37
 70
     1
102
RTVSPropertyOp38
 70
     1
102
RTVSPropertyOp39
 70
     1
102
RTVSPropertyOp40
 70
     1
102
RTVSPropertyOp41
 70
     1
102
RTVSPropertyOp42
 70
     1
102
RTVSPropertyOp43
 70
     1
102
RTVSPropertyOp44
 70
     1
102
RTVSPropertyOp45
 70
     1
102
RTVSPropertyOp46
 70
     1
102
RTVSPropertyOp47
 70
     1
102
RTVSPropertyOp48
 70
     1
102
RTVSPropertyOp49
 70
     1
102
RTVSPropertyOp50
 70
     1
102
RTVSPropertyOp51
 70
     0
102
RTVSPropertyOp52
 70
     0
102
RTVSPropertyOp53
 70
     1
102
RTVSPropertyOp54
 70
     1
102
RTVSPropertyOp55
 70
     1
102
RTVSPropertyOp56
 70
     1
102
RTVSPropertyOp57
 70
     1
102
RTVSPropertyOp58
 70
     1
102
RTVSPropertyOp59
 70
     1
102
RTVSPropertyOp60
 70
     1
102
RTVSPropertyOp61
 70
     1
102
RTVSPropertyOp62
 70
     1
  0
XRECORD
  5
39E
102
{ACAD_REACTORS
330
39D
102
}
330
39D
100
AcDbXrecord
280
     1
102
RTVSPost2010Prop28
280
     0
102
RTVSPost2010PropOp28
 70
     1
102
RTVSPost2010Prop29
280
     1
102
RTVSPost2010PropOp29
 70
     1
102
RTVSPost2010Prop30
280
     1
102
RTVSPost2010PropOp30
 70
     1
102
RTVSPost2010Prop31
280
     0
102
RTVSPost2010PropOp31
 70
     1
102
RTVSPost2010Prop32
280
     0
102
RTVSPost2010PropOp32
 70
     1
102
RTVSPost2010Prop33
280
     0
102
RTVSPost2010PropOp33
 70
     1
102
RTVSPost2010Prop34
280
     0
102
RTVSPost2010PropOp34
 70
     1
102
RTVSPost2010Prop35
280
     0
102
RTVSPost2010PropOp35
 70
     1
102
RTVSPost2010Prop36
280
     0
102
RTVSPost2010PropOp36
 70
     1
102
RTVSPost2010Prop37
 90
       50
102
RTVSPost2010PropOp37
 70
     1
102
RTVSPost2010Prop38
140
0.0
102
RTVSPost2010PropOp38
 70
     1
102
RTVSPost2010Prop39
140
1.0
102
RTVSPost2010PropOp39
 70
     1
102
RTVSPost2010Prop40
 90
        0
102
RTVSPost2010PropOp40
 70
     1
102
RTVSPost2010Prop41ColorIndex
 90
       18
102
RTVSPost2010Prop41ColorRGB
 90
        0
102
RTVSPost2010PropOp41
 70
     1
102
RTVSPost2010Prop42
 90
       50
102
RTVSPost2010PropOp42
 70
     1
102
RTVSPost2010Prop43
 90
        3
102
RTVSPost2010PropOp43
 70
     1
102
RTVSPost2010Prop44ColorIndex
 90
        5
102
RTVSPost2010Prop44ColorRGB
 90
      255
102
RTVSPost2010PropOp44
 70
     1
102
RTVSPost2010Prop45
280
     0
102
RTVSPost2010PropOp45
 70
     1
102
RTVSPost2010Prop46
 90
       50
102
RTVSPost2010PropOp46
 70
     1
102
RTVSPost2010Prop47
 90
       50
102
RTVSPost2010PropOp47
 70
     1
102
RTVSPost2010Prop48
 90
       50
102
RTVSPost2010PropOp48
 70
     1
102
RTVSPost2010Prop49
280
     0
102
RTVSPost2010PropOp49
 70
     1
102
RTVSPost2010Prop50
 90
       50
102
RTVSPost2010PropOp50
 70
     1
102
RTVSPost2010Prop51ColorIndex
 90
      256
102
RTVSPost2010Prop51ColorRGB
 90
-16777216
102
RTVSPost2010PropOp51
 70
     0
102
RTVSPost2010Prop52
140
1.0
102
RTVSPost2010PropOp52
 70
     0
102
RTVSPost2010Prop53
 90
        2
102
RTVSPost2010PropOp53
 70
     1
102
RTVSPost2010Prop54
  1
strokes_ogs.tif
102
RTVSPost2010PropOp54
 70
     1
102
RTVSPost2010Prop55
280
     0
102
RTVSPost2010PropOp55
 70
     1
102
RTVSPost2010Prop56
140
1.0
102
RTVSPost2010PropOp56
 70
     1
102
RTVSPost2010Prop57
140
1.0
102
RTVSPost2010PropOp57
 70
     1
102
RTVSPropertyOp0
 70
     1
102
RTVSPropertyOp1
 70
     1
102
RTVSPropertyOp2
 70
     1
102
RTVSPropertyOp3
 70
     1
102
RTVSPropertyOp4
 70
     1
102
RTVSPropertyOp5
 70
     1
102
RTVSPropertyOp6
 70
     1
102
RTVSPropertyOp7
 70
     1
102
RTVSPropertyOp8
 70
     1
102
RTVSPropertyOp9
 70
     1
102
RTVSPropertyOp10
 70
     1
102
RTVSPropertyOp11
 70
     1
102
RTVSPropertyOp12
 70
     1
102
RTVSPropertyOp13
 70
     1
102
RTVSPropertyOp14
 70
     1
102
RTVSPropertyOp15
 70
     1
102
RTVSPropertyOp16
 70
     1
102
RTVSPropertyOp17
 70
     1
102
RTVSPropertyOp18
 70
     1
102
RTVSPropertyOp19
 70
     1
102
RTVSPropertyOp20
 70
     1
102
RTVSPropertyOp21
 70
     1
102
RTVSPropertyOp22
 70
     1
102
RTVSPropertyOp23
 70
     1
102
RTVSPropertyOp24
 70
     1
102
RTVSPropertyOp25
 70
     1
102
RTVSPropertyOp26
 70
     1
102
RTVSPropertyOp27
 70
     1
102
RTVSPropertyOp28
 70
     1
102
RTVSPropertyOp29
 70
     1
102
RTVSPropertyOp30
 70
     1
102
RTVSPropertyOp31
 70
     1
102
RTVSPropertyOp32
 70
     1
102
RTVSPropertyOp33
 70
     1
102
RTVSPropertyOp34
 70
     1
102
RTVSPropertyOp35
 70
     1
102
RTVSPropertyOp36
 70
     1
102
RTVSPropertyOp37
 70
     1
102
RTVSPropertyOp38
 70
     1
102
RTVSPropertyOp39
 70
     1
102
RTVSPropertyOp40
 70
     1
102
RTVSPropertyOp41
 70
     1
102
RTVSPropertyOp42
 70
     1
102
RTVSPropertyOp43
 70
     1
102
RTVSPropertyOp44
 70
     1
102
RTVSPropertyOp45
 70
     1
102
RTVSPropertyOp46
 70
     1
102
RTVSPropertyOp47
 70
     1
102
RTVSPropertyOp48
 70
     1
102
RTVSPropertyOp49
 70
     1
102
RTVSPropertyOp50
 70
     1
102
RTVSPropertyOp51
 70
     0
102
RTVSPropertyOp52
 70
     0
102
RTVSPropertyOp53
 70
     1
102
RTVSPropertyOp54
 70
     1
102
RTVSPropertyOp55
 70
     1
102
RTVSPropertyOp56
 70
     1
102
RTVSPropertyOp57
 70
     1
102
RTVSPropertyOp58
 70
     1
102
RTVSPropertyOp59
 70
     1
102
RTVSPropertyOp60
 70
     1
102
RTVSPropertyOp61
 70
     1
102
RTVSPropertyOp62
 70
     1
  0
XRECORD
  5
3AC
102
{ACAD_REACTORS
330
3AB
102
}
330
3AB
100
AcDbXrecord
280
     1
102
RTVSPost2010Prop28
280
     0
102
RTVSPost2010PropOp28
 70
     1
102
RTVSPost2010Prop29
280
     1
102
RTVSPost2010PropOp29
 70
     1
102
RTVSPost2010Prop30
280
     1
102
RTVSPost2010PropOp30
 70
     1
102
RTVSPost2010Prop31
280
     0
102
RTVSPost2010PropOp31
 70
     1
102
RTVSPost2010Prop32
280
     0
102
RTVSPost2010PropOp32
 70
     1
102
RTVSPost2010Prop33
280
     0
102
RTVSPost2010PropOp33
 70
     1
102
RTVSPost2010Prop34
280
     0
102
RTVSPost2010PropOp34
 70
     1
102
RTVSPost2010Prop35
280
     0
102
RTVSPost2010PropOp35
 70
     1
102
RTVSPost2010Prop36
280
     0
102
RTVSPost2010PropOp36
 70
     1
102
RTVSPost2010Prop37
 90
       50
102
RTVSPost2010PropOp37
 70
     1
102
RTVSPost2010Prop38
140
0.0
102
RTVSPost2010PropOp38
 70
     1
102
RTVSPost2010Prop39
140
1.0
102
RTVSPost2010PropOp39
 70
     1
102
RTVSPost2010Prop40
 90
        0
102
RTVSPost2010PropOp40
 70
     1
102
RTVSPost2010Prop41ColorIndex
 90
       18
102
RTVSPost2010Prop41ColorRGB
 90
        0
102
RTVSPost2010PropOp41
 70
     1
102
RTVSPost2010Prop42
 90
       50
102
RTVSPost2010PropOp42
 70
     1
102
RTVSPost2010Prop43
 90
        3
102
RTVSPost2010PropOp43
 70
     1
102
RTVSPost2010Prop44ColorIndex
 90
        5
102
RTVSPost2010Prop44ColorRGB
 90
      255
102
RTVSPost2010PropOp44
 70
     1
102
RTVSPost2010Prop45
280
     0
102
RTVSPost2010PropOp45
 70
     1
102
RTVSPost2010Prop46
 90
       50
102
RTVSPost2010PropOp46
 70
     1
102
RTVSPost2010Prop47
 90
       50
102
RTVSPost2010PropOp47
 70
     1
102
RTVSPost2010Prop48
 90
       50
102
RTVSPost2010PropOp48
 70
     1
102
RTVSPost2010Prop49
280
     0
102
RTVSPost2010PropOp49
 70
     1
102
RTVSPost2010Prop50
 90
       50
102
RTVSPost2010PropOp50
 70
     1
102
RTVSPost2010Prop51ColorIndex
 90
      256
102
RTVSPost2010Prop51ColorRGB
 90
-16777216
102
RTVSPost2010PropOp51
 70
     0
102
RTVSPost2010Prop52
140
1.0
102
RTVSPost2010PropOp52
 70
     0
102
RTVSPost2010Prop53
 90
        2
102
RTVSPost2010PropOp53
 70
     1
102
RTVSPost2010Prop54
  1
strokes_ogs.tif
102
RTVSPost2010PropOp54
 70
     1
102
RTVSPost2010Prop55
280
     0
102
RTVSPost2010PropOp55
 70
     1
102
RTVSPost2010Prop56
140
1.0
102
RTVSPost2010PropOp56
 70
     1
102
RTVSPost2010Prop57
140
1.0
102
RTVSPost2010PropOp57
 70
     1
102
RTVSPropertyOp0
 70
     1
102
RTVSPropertyOp1
 70
     1
102
RTVSPropertyOp2
 70
     1
102
RTVSPropertyOp3
 70
     1
102
RTVSPropertyOp4
 70
     1
102
RTVSPropertyOp5
 70
     1
102
RTVSPropertyOp6
 70
     1
102
RTVSPropertyOp7
 70
     1
102
RTVSPropertyOp8
 70
     1
102
RTVSPropertyOp9
 70
     1
102
RTVSPropertyOp10
 70
     1
102
RTVSPropertyOp11
 70
     1
102
RTVSPropertyOp12
 70
     1
102
RTVSPropertyOp13
 70
     1
102
RTVSPropertyOp14
 70
     1
102
RTVSPropertyOp15
 70
     1
102
RTVSPropertyOp16
 70
     1
102
RTVSPropertyOp17
 70
     1
102
RTVSPropertyOp18
 70
     1
102
RTVSPropertyOp19
 70
     1
102
RTVSPropertyOp20
 70
     1
102
RTVSPropertyOp21
 70
     1
102
RTVSPropertyOp22
 70
     1
102
RTVSPropertyOp23
 70
     1
102
RTVSPropertyOp24
 70
     1
102
RTVSPropertyOp25
 70
     1
102
RTVSPropertyOp26
 70
     1
102
RTVSPropertyOp27
 70
     1
102
RTVSPropertyOp28
 70
     1
102
RTVSPropertyOp29
 70
     1
102
RTVSPropertyOp30
 70
     1
102
RTVSPropertyOp31
 70
     1
102
RTVSPropertyOp32
 70
     1
102
RTVSPropertyOp33
 70
     1
102
RTVSPropertyOp34
 70
     1
102
RTVSPropertyOp35
 70
     1
102
RTVSPropertyOp36
 70
     1
102
RTVSPropertyOp37
 70
     1
102
RTVSPropertyOp38
 70
     1
102
RTVSPropertyOp39
 70
     1
102
RTVSPropertyOp40
 70
     1
102
RTVSPropertyOp41
 70
     1
102
RTVSPropertyOp42
 70
     1
102
RTVSPropertyOp43
 70
     1
102
RTVSPropertyOp44
 70
     1
102
RTVSPropertyOp45
 70
     1
102
RTVSPropertyOp46
 70
     1
102
RTVSPropertyOp47
 70
     1
102
RTVSPropertyOp48
 70
     1
102
RTVSPropertyOp49
 70
     1
102
RTVSPropertyOp50
 70
     1
102
RTVSPropertyOp51
 70
     0
102
RTVSPropertyOp52
 70
     0
102
RTVSPropertyOp53
 70
     1
102
RTVSPropertyOp54
 70
     1
102
RTVSPropertyOp55
 70
     1
102
RTVSPropertyOp56
 70
     1
102
RTVSPropertyOp57
 70
     1
102
RTVSPropertyOp58
 70
     1
102
RTVSPropertyOp59
 70
     1
102
RTVSPropertyOp60
 70
     1
102
RTVSPropertyOp61
 70
     1
102
RTVSPropertyOp62
 70
     1
  0
XRECORD
  5
3B4
102
{ACAD_REACTORS
330
3B3
102
}
330
3B3
100
AcDbXrecord
280
     1
102
RTVSPost2010Prop28
280
     0
102
RTVSPost2010PropOp28
 70
     1
102
RTVSPost2010Prop29
280
     1
102
RTVSPost2010PropOp29
 70
     1
102
RTVSPost2010Prop30
280
     1
102
RTVSPost2010PropOp30
 70
     1
102
RTVSPost2010Prop31
280
     0
102
RTVSPost2010PropOp31
 70
     1
102
RTVSPost2010Prop32
280
     0
102
RTVSPost2010PropOp32
 70
     1
102
RTVSPost2010Prop33
280
     0
102
RTVSPost2010PropOp33
 70
     1
102
RTVSPost2010Prop34
280
     0
102
RTVSPost2010PropOp34
 70
     1
102
RTVSPost2010Prop35
280
     0
102
RTVSPost2010PropOp35
 70
     1
102
RTVSPost2010Prop36
280
     0
102
RTVSPost2010PropOp36
 70
     1
102
RTVSPost2010Prop37
 90
       50
102
RTVSPost2010PropOp37
 70
     1
102
RTVSPost2010Prop38
140
0.0
102
RTVSPost2010PropOp38
 70
     1
102
RTVSPost2010Prop39
140
1.0
102
RTVSPost2010PropOp39
 70
     1
102
RTVSPost2010Prop40
 90
        0
102
RTVSPost2010PropOp40
 70
     1
102
RTVSPost2010Prop41ColorIndex
 90
       18
102
RTVSPost2010Prop41ColorRGB
 90
        0
102
RTVSPost2010PropOp41
 70
     1
102
RTVSPost2010Prop42
 90
       50
102
RTVSPost2010PropOp42
 70
     1
102
RTVSPost2010Prop43
 90
        3
102
RTVSPost2010PropOp43
 70
     1
102
RTVSPost2010Prop44ColorIndex
 90
        5
102
RTVSPost2010Prop44ColorRGB
 90
      255
102
RTVSPost2010PropOp44
 70
     1
102
RTVSPost2010Prop45
280
     0
102
RTVSPost2010PropOp45
 70
     1
102
RTVSPost2010Prop46
 90
       50
102
RTVSPost2010PropOp46
 70
     1
102
RTVSPost2010Prop47
 90
       50
102
RTVSPost2010PropOp47
 70
     1
102
RTVSPost2010Prop48
 90
       50
102
RTVSPost2010PropOp48
 70
     1
102
RTVSPost2010Prop49
280
     0
102
RTVSPost2010PropOp49
 70
     1
102
RTVSPost2010Prop50
 90
       50
102
RTVSPost2010PropOp50
 70
     1
102
RTVSPost2010Prop51ColorIndex
 90
      256
102
RTVSPost2010Prop51ColorRGB
 90
-16777216
102
RTVSPost2010PropOp51
 70
     0
102
RTVSPost2010Prop52
140
1.0
102
RTVSPost2010PropOp52
 70
     0
102
RTVSPost2010Prop53
 90
        2
102
RTVSPost2010PropOp53
 70
     1
102
RTVSPost2010Prop54
  1
strokes_ogs.tif
102
RTVSPost2010PropOp54
 70
     1
102
RTVSPost2010Prop55
280
     0
102
RTVSPost2010PropOp55
 70
     1
102
RTVSPost2010Prop56
140
1.0
102
RTVSPost2010PropOp56
 70
     1
102
RTVSPost2010Prop57
140
1.0
102
RTVSPost2010PropOp57
 70
     1
102
RTVSPropertyOp0
 70
     1
102
RTVSPropertyOp1
 70
     1
102
RTVSPropertyOp2
 70
     1
102
RTVSPropertyOp3
 70
     1
102
RTVSPropertyOp4
 70
     1
102
RTVSPropertyOp5
 70
     1
102
RTVSPropertyOp6
 70
     1
102
RTVSPropertyOp7
 70
     1
102
RTVSPropertyOp8
 70
     1
102
RTVSPropertyOp9
 70
     1
102
RTVSPropertyOp10
 70
     1
102
RTVSPropertyOp11
 70
     1
102
RTVSPropertyOp12
 70
     1
102
RTVSPropertyOp13
 70
     1
102
RTVSPropertyOp14
 70
     1
102
RTVSPropertyOp15
 70
     1
102
RTVSPropertyOp16
 70
     1
102
RTVSPropertyOp17
 70
     1
102
RTVSPropertyOp18
 70
     1
102
RTVSPropertyOp19
 70
     1
102
RTVSPropertyOp20
 70
     1
102
RTVSPropertyOp21
 70
     1
102
RTVSPropertyOp22
 70
     1
102
RTVSPropertyOp23
 70
     1
102
RTVSPropertyOp24
 70
     1
102
RTVSPropertyOp25
 70
     1
102
RTVSPropertyOp26
 70
     1
102
RTVSPropertyOp27
 70
     1
102
RTVSPropertyOp28
 70
     1
102
RTVSPropertyOp29
 70
     1
102
RTVSPropertyOp30
 70
     1
102
RTVSPropertyOp31
 70
     1
102
RTVSPropertyOp32
 70
     1
102
RTVSPropertyOp33
 70
     1
102
RTVSPropertyOp34
 70
     1
102
RTVSPropertyOp35
 70
     1
102
RTVSPropertyOp36
 70
     1
102
RTVSPropertyOp37
 70
     1
102
RTVSPropertyOp38
 70
     1
102
RTVSPropertyOp39
 70
     1
102
RTVSPropertyOp40
 70
     1
102
RTVSPropertyOp41
 70
     1
102
RTVSPropertyOp42
 70
     1
102
RTVSPropertyOp43
 70
     1
102
RTVSPropertyOp44
 70
     1
102
RTVSPropertyOp45
 70
     1
102
RTVSPropertyOp46
 70
     1
102
RTVSPropertyOp47
 70
     1
102
RTVSPropertyOp48
 70
     1
102
RTVSPropertyOp49
 70
     1
102
RTVSPropertyOp50
 70
     1
102
RTVSPropertyOp51
 70
     0
102
RTVSPropertyOp52
 70
     0
102
RTVSPropertyOp53
 70
     1
102
RTVSPropertyOp54
 70
     1
102
RTVSPropertyOp55
 70
     1
102
RTVSPropertyOp56
 70
     1
102
RTVSPropertyOp57
 70
     1
102
RTVSPropertyOp58
 70
     1
102
RTVSPropertyOp59
 70
     1
102
RTVSPropertyOp60
 70
     1
102
RTVSPropertyOp61
 70
     1
102
RTVSPropertyOp62
 70
     1
  0
XRECORD
  5
3A6
102
{ACAD_REACTORS
330
3A5
102
}
330
3A5
100
AcDbXrecord
280
     1
102
RTVSPost2010Prop28
280
     0
102
RTVSPost2010PropOp28
 70
     1
102
RTVSPost2010Prop29
280
     1
102
RTVSPost2010PropOp29
 70
     1
102
RTVSPost2010Prop30
280
     1
102
RTVSPost2010PropOp30
 70
     1
102
RTVSPost2010Prop31
280
     0
102
RTVSPost2010PropOp31
 70
     1
102
RTVSPost2010Prop32
280
     0
102
RTVSPost2010PropOp32
 70
     1
102
RTVSPost2010Prop33
280
     0
102
RTVSPost2010PropOp33
 70
     1
102
RTVSPost2010Prop34
280
     0
102
RTVSPost2010PropOp34
 70
     1
102
RTVSPost2010Prop35
280
     0
102
RTVSPost2010PropOp35
 70
     1
102
RTVSPost2010Prop36
280
     0
102
RTVSPost2010PropOp36
 70
     1
102
RTVSPost2010Prop37
 90
       50
102
RTVSPost2010PropOp37
 70
     1
102
RTVSPost2010Prop38
140
0.0
102
RTVSPost2010PropOp38
 70
     1
102
RTVSPost2010Prop39
140
1.0
102
RTVSPost2010PropOp39
 70
     1
102
RTVSPost2010Prop40
 90
        0
102
RTVSPost2010PropOp40
 70
     1
102
RTVSPost2010Prop41ColorIndex
 90
       18
102
RTVSPost2010Prop41ColorRGB
 90
        0
102
RTVSPost2010PropOp41
 70
     1
102
RTVSPost2010Prop42
 90
       50
102
RTVSPost2010PropOp42
 70
     1
102
RTVSPost2010Prop43
 90
        3
102
RTVSPost2010PropOp43
 70
     1
102
RTVSPost2010Prop44ColorIndex
 90
        5
102
RTVSPost2010Prop44ColorRGB
 90
      255
102
RTVSPost2010PropOp44
 70
     1
102
RTVSPost2010Prop45
280
     0
102
RTVSPost2010PropOp45
 70
     1
102
RTVSPost2010Prop46
 90
       50
102
RTVSPost2010PropOp46
 70
     1
102
RTVSPost2010Prop47
 90
       50
102
RTVSPost2010PropOp47
 70
     1
102
RTVSPost2010Prop48
 90
       50
102
RTVSPost2010PropOp48
 70
     1
102
RTVSPost2010Prop49
280
     0
102
RTVSPost2010PropOp49
 70
     1
102
RTVSPost2010Prop50
 90
       50
102
RTVSPost2010PropOp50
 70
     1
102
RTVSPost2010Prop51ColorIndex
 90
      256
102
RTVSPost2010Prop51ColorRGB
 90
-16777216
102
RTVSPost2010PropOp51
 70
     0
102
RTVSPost2010Prop52
140
1.0
102
RTVSPost2010PropOp52
 70
     0
102
RTVSPost2010Prop53
 90
        2
102
RTVSPost2010PropOp53
 70
     1
102
RTVSPost2010Prop54
  1
strokes_ogs.tif
102
RTVSPost2010PropOp54
 70
     1
102
RTVSPost2010Prop55
280
     0
102
RTVSPost2010PropOp55
 70
     1
102
RTVSPost2010Prop56
140
1.0
102
RTVSPost2010PropOp56
 70
     1
102
RTVSPost2010Prop57
140
1.0
102
RTVSPost2010PropOp57
 70
     1
102
RTVSPropertyOp0
 70
     1
102
RTVSPropertyOp1
 70
     1
102
RTVSPropertyOp2
 70
     1
102
RTVSPropertyOp3
 70
     1
102
RTVSPropertyOp4
 70
     1
102
RTVSPropertyOp5
 70
     1
102
RTVSPropertyOp6
 70
     1
102
RTVSPropertyOp7
 70
     1
102
RTVSPropertyOp8
 70
     1
102
RTVSPropertyOp9
 70
     1
102
RTVSPropertyOp10
 70
     1
102
RTVSPropertyOp11
 70
     1
102
RTVSPropertyOp12
 70
     1
102
RTVSPropertyOp13
 70
     1
102
RTVSPropertyOp14
 70
     1
102
RTVSPropertyOp15
 70
     1
102
RTVSPropertyOp16
 70
     1
102
RTVSPropertyOp17
 70
     1
102
RTVSPropertyOp18
 70
     1
102
RTVSPropertyOp19
 70
     1
102
RTVSPropertyOp20
 70
     1
102
RTVSPropertyOp21
 70
     1
102
RTVSPropertyOp22
 70
     1
102
RTVSPropertyOp23
 70
     1
102
RTVSPropertyOp24
 70
     1
102
RTVSPropertyOp25
 70
     1
102
RTVSPropertyOp26
 70
     1
102
RTVSPropertyOp27
 70
     1
102
RTVSPropertyOp28
 70
     1
102
RTVSPropertyOp29
 70
     1
102
RTVSPropertyOp30
 70
     1
102
RTVSPropertyOp31
 70
     1
102
RTVSPropertyOp32
 70
     1
102
RTVSPropertyOp33
 70
     1
102
RTVSPropertyOp34
 70
     1
102
RTVSPropertyOp35
 70
     1
102
RTVSPropertyOp36
 70
     1
102
RTVSPropertyOp37
 70
     1
102
RTVSPropertyOp38
 70
     1
102
RTVSPropertyOp39
 70
     1
102
RTVSPropertyOp40
 70
     1
102
RTVSPropertyOp41
 70
     1
102
RTVSPropertyOp42
 70
     1
102
RTVSPropertyOp43
 70
     1
102
RTVSPropertyOp44
 70
     1
102
RTVSPropertyOp45
 70
     1
102
RTVSPropertyOp46
 70
     1
102
RTVSPropertyOp47
 70
     1
102
RTVSPropertyOp48
 70
     1
102
RTVSPropertyOp49
 70
     1
102
RTVSPropertyOp50
 70
     1
102
RTVSPropertyOp51
 70
     0
102
RTVSPropertyOp52
 70
     0
102
RTVSPropertyOp53
 70
     1
102
RTVSPropertyOp54
 70
     1
102
RTVSPropertyOp55
 70
     1
102
RTVSPropertyOp56
 70
     1
102
RTVSPropertyOp57
 70
     1
102
RTVSPropertyOp58
 70
     1
102
RTVSPropertyOp59
 70
     1
102
RTVSPropertyOp60
 70
     1
102
RTVSPropertyOp61
 70
     1
102
RTVSPropertyOp62
 70
     1
  0
XRECORD
  5
3AA
102
{ACAD_REACTORS
330
3A9
102
}
330
3A9
100
AcDbXrecord
280
     1
102
RTVSPost2010Prop28
280
     0
102
RTVSPost2010PropOp28
 70
     1
102
RTVSPost2010Prop29
280
     1
102
RTVSPost2010PropOp29
 70
     1
102
RTVSPost2010Prop30
280
     1
102
RTVSPost2010PropOp30
 70
     1
102
RTVSPost2010Prop31
280
     0
102
RTVSPost2010PropOp31
 70
     1
102
RTVSPost2010Prop32
280
     0
102
RTVSPost2010PropOp32
 70
     1
102
RTVSPost2010Prop33
280
     0
102
RTVSPost2010PropOp33
 70
     1
102
RTVSPost2010Prop34
280
     0
102
RTVSPost2010PropOp34
 70
     1
102
RTVSPost2010Prop35
280
     0
102
RTVSPost2010PropOp35
 70
     1
102
RTVSPost2010Prop36
280
     0
102
RTVSPost2010PropOp36
 70
     1
102
RTVSPost2010Prop37
 90
       50
102
RTVSPost2010PropOp37
 70
     1
102
RTVSPost2010Prop38
140
0.0
102
RTVSPost2010PropOp38
 70
     1
102
RTVSPost2010Prop39
140
1.0
102
RTVSPost2010PropOp39
 70
     1
102
RTVSPost2010Prop40
 90
        0
102
RTVSPost2010PropOp40
 70
     1
102
RTVSPost2010Prop41ColorIndex
 90
       18
102
RTVSPost2010Prop41ColorRGB
 90
        0
102
RTVSPost2010PropOp41
 70
     1
102
RTVSPost2010Prop42
 90
       50
102
RTVSPost2010PropOp42
 70
     1
102
RTVSPost2010Prop43
 90
        3
102
RTVSPost2010PropOp43
 70
     1
102
RTVSPost2010Prop44ColorIndex
 90
        5
102
RTVSPost2010Prop44ColorRGB
 90
      255
102
RTVSPost2010PropOp44
 70
     1
102
RTVSPost2010Prop45
280
     0
102
RTVSPost2010PropOp45
 70
     1
102
RTVSPost2010Prop46
 90
       50
102
RTVSPost2010PropOp46
 70
     1
102
RTVSPost2010Prop47
 90
       50
102
RTVSPost2010PropOp47
 70
     1
102
RTVSPost2010Prop48
 90
       50
102
RTVSPost2010PropOp48
 70
     1
102
RTVSPost2010Prop49
280
     0
102
RTVSPost2010PropOp49
 70
     1
102
RTVSPost2010Prop50
 90
       50
102
RTVSPost2010PropOp50
 70
     1
102
RTVSPost2010Prop51ColorIndex
 90
      256
102
RTVSPost2010Prop51ColorRGB
 90
-16777216
102
RTVSPost2010PropOp51
 70
     0
102
RTVSPost2010Prop52
140
1.0
102
RTVSPost2010PropOp52
 70
     0
102
RTVSPost2010Prop53
 90
        2
102
RTVSPost2010PropOp53
 70
     1
102
RTVSPost2010Prop54
  1
strokes_ogs.tif
102
RTVSPost2010PropOp54
 70
     1
102
RTVSPost2010Prop55
280
     0
102
RTVSPost2010PropOp55
 70
     1
102
RTVSPost2010Prop56
140
1.0
102
RTVSPost2010PropOp56
 70
     1
102
RTVSPost2010Prop57
140
1.0
102
RTVSPost2010PropOp57
 70
     1
102
RTVSPropertyOp0
 70
     1
102
RTVSPropertyOp1
 70
     1
102
RTVSPropertyOp2
 70
     1
102
RTVSPropertyOp3
 70
     1
102
RTVSPropertyOp4
 70
     1
102
RTVSPropertyOp5
 70
     1
102
RTVSPropertyOp6
 70
     1
102
RTVSPropertyOp7
 70
     1
102
RTVSPropertyOp8
 70
     1
102
RTVSPropertyOp9
 70
     1
102
RTVSPropertyOp10
 70
     1
102
RTVSPropertyOp11
 70
     1
102
RTVSPropertyOp12
 70
     1
102
RTVSPropertyOp13
 70
     1
102
RTVSPropertyOp14
 70
     1
102
RTVSPropertyOp15
 70
     1
102
RTVSPropertyOp16
 70
     1
102
RTVSPropertyOp17
 70
     1
102
RTVSPropertyOp18
 70
     1
102
RTVSPropertyOp19
 70
     1
102
RTVSPropertyOp20
 70
     1
102
RTVSPropertyOp21
 70
     1
102
RTVSPropertyOp22
 70
     1
102
RTVSPropertyOp23
 70
     1
102
RTVSPropertyOp24
 70
     1
102
RTVSPropertyOp25
 70
     1
102
RTVSPropertyOp26
 70
     1
102
RTVSPropertyOp27
 70
     1
102
RTVSPropertyOp28
 70
     1
102
RTVSPropertyOp29
 70
     1
102
RTVSPropertyOp30
 70
     1
102
RTVSPropertyOp31
 70
     1
102
RTVSPropertyOp32
 70
     1
102
RTVSPropertyOp33
 70
     1
102
RTVSPropertyOp34
 70
     1
102
RTVSPropertyOp35
 70
     1
102
RTVSPropertyOp36
 70
     1
102
RTVSPropertyOp37
 70
     1
102
RTVSPropertyOp38
 70
     1
102
RTVSPropertyOp39
 70
     1
102
RTVSPropertyOp40
 70
     1
102
RTVSPropertyOp41
 70
     1
102
RTVSPropertyOp42
 70
     1
102
RTVSPropertyOp43
 70
     1
102
RTVSPropertyOp44
 70
     1
102
RTVSPropertyOp45
 70
     1
102
RTVSPropertyOp46
 70
     1
102
RTVSPropertyOp47
 70
     1
102
RTVSPropertyOp48
 70
     1
102
RTVSPropertyOp49
 70
     1
102
RTVSPropertyOp50
 70
     1
102
RTVSPropertyOp51
 70
     0
102
RTVSPropertyOp52
 70
     0
102
RTVSPropertyOp53
 70
     1
102
RTVSPropertyOp54
 70
     1
102
RTVSPropertyOp55
 70
     1
102
RTVSPropertyOp56
 70
     1
102
RTVSPropertyOp57
 70
     1
102
RTVSPropertyOp58
 70
     1
102
RTVSPropertyOp59
 70
     1
102
RTVSPropertyOp60
 70
     1
102
RTVSPropertyOp61
 70
     1
102
RTVSPropertyOp62
 70
     1
  0
XRECORD
  5
3C4
102
{ACAD_REACTORS
330
3C3
102
}
330
3C3
100
AcDbXrecord
280
     1
102
RTVSPost2010Prop28
280
     0
102
RTVSPost2010PropOp28
 70
     0
102
RTVSPost2010Prop29
280
     1
102
RTVSPost2010PropOp29
 70
     0
102
RTVSPost2010Prop30
280
     1
102
RTVSPost2010PropOp30
 70
     0
102
RTVSPost2010Prop31
280
     0
102
RTVSPost2010PropOp31
 70
     0
102
RTVSPost2010Prop32
280
     0
102
RTVSPost2010PropOp32
 70
     0
102
RTVSPost2010Prop33
280
     0
102
RTVSPost2010PropOp33
 70
     0
102
RTVSPost2010Prop34
280
     0
102
RTVSPost2010PropOp34
 70
     0
102
RTVSPost2010Prop35
280
     0
102
RTVSPost2010PropOp35
 70
     0
102
RTVSPost2010Prop36
280
     0
102
RTVSPost2010PropOp36
 70
     0
102
RTVSPost2010Prop37
 90
       50
102
RTVSPost2010PropOp37
 70
     0
102
RTVSPost2010Prop38
140
0.0
102
RTVSPost2010PropOp38
 70
     0
102
RTVSPost2010Prop39
140
1.0
102
RTVSPost2010PropOp39
 70
     0
102
RTVSPost2010Prop40
 90
        0
102
RTVSPost2010PropOp40
 70
     0
102
RTVSPost2010Prop41ColorIndex
 90
       18
102
RTVSPost2010Prop41ColorRGB
 90
        0
102
RTVSPost2010PropOp41
 70
     0
102
RTVSPost2010Prop42
 90
       50
102
RTVSPost2010PropOp42
 70
     0
102
RTVSPost2010Prop43
 90
        3
102
RTVSPost2010PropOp43
 70
     0
102
RTVSPost2010Prop44ColorIndex
 90
        5
102
RTVSPost2010Prop44ColorRGB
 90
      255
102
RTVSPost2010PropOp44
 70
     0
102
RTVSPost2010Prop45
280
     0
102
RTVSPost2010PropOp45
 70
     0
102
RTVSPost2010Prop46
 90
       50
102
RTVSPost2010PropOp46
 70
     0
102
RTVSPost2010Prop47
 90
       50
102
RTVSPost2010PropOp47
 70
     0
102
RTVSPost2010Prop48
 90
       50
102
RTVSPost2010PropOp48
 70
     0
102
RTVSPost2010Prop49
280
     0
102
RTVSPost2010PropOp49
 70
     0
102
RTVSPost2010Prop50
 90
       50
102
RTVSPost2010PropOp50
 70
     0
102
RTVSPost2010Prop51ColorIndex
 90
      256
102
RTVSPost2010Prop51ColorRGB
 90
-16777216
102
RTVSPost2010PropOp51
 70
     0
102
RTVSPost2010Prop52
140
1.0
102
RTVSPost2010PropOp52
 70
     0
102
RTVSPost2010Prop53
 90
        2
102
RTVSPost2010PropOp53
 70
     0
102
RTVSPost2010Prop54
  1
strokes_ogs.tif
102
RTVSPost2010PropOp54
 70
     0
102
RTVSPost2010Prop55
280
     0
102
RTVSPost2010PropOp55
 70
     0
102
RTVSPost2010Prop56
140
1.0
102
RTVSPost2010PropOp56
 70
     0
102
RTVSPost2010Prop57
140
1.0
102
RTVSPost2010PropOp57
 70
     0
102
RTVSPropertyOp0
 70
     0
102
RTVSPropertyOp1
 70
     0
102
RTVSPropertyOp2
 70
     0
102
RTVSPropertyOp3
 70
     0
102
RTVSPropertyOp4
 70
     0
102
RTVSPropertyOp5
 70
     0
102
RTVSPropertyOp6
 70
     0
102
RTVSPropertyOp7
 70
     0
102
RTVSPropertyOp8
 70
     0
102
RTVSPropertyOp9
 70
     0
102
RTVSPropertyOp10
 70
     0
102
RTVSPropertyOp11
 70
     0
102
RTVSPropertyOp12
 70
     0
102
RTVSPropertyOp13
 70
     0
102
RTVSPropertyOp14
 70
     2
102
RTVSPropertyOp15
 70
     0
102
RTVSPropertyOp16
 70
     0
102
RTVSPropertyOp17
 70
     0
102
RTVSPropertyOp18
 70
     0
102
RTVSPropertyOp19
 70
     0
102
RTVSPropertyOp20
 70
     0
102
RTVSPropertyOp21
 70
     0
102
RTVSPropertyOp22
 70
     0
102
RTVSPropertyOp23
 70
     0
102
RTVSPropertyOp24
 70
     0
102
RTVSPropertyOp25
 70
     0
102
RTVSPropertyOp26
 70
     0
102
RTVSPropertyOp27
 70
     0
102
RTVSPropertyOp28
 70
     0
102
RTVSPropertyOp29
 70
     0
102
RTVSPropertyOp30
 70
     0
102
RTVSPropertyOp31
 70
     0
102
RTVSPropertyOp32
 70
     0
102
RTVSPropertyOp33
 70
     0
102
RTVSPropertyOp34
 70
     0
102
RTVSPropertyOp35
 70
     0
102
RTVSPropertyOp36
 70
     0
102
RTVSPropertyOp37
 70
     0
102
RTVSPropertyOp38
 70
     0
102
RTVSPropertyOp39
 70
     0
102
RTVSPropertyOp40
 70
     0
102
RTVSPropertyOp41
 70
     0
102
RTVSPropertyOp42
 70
     0
102
RTVSPropertyOp43
 70
     0
102
RTVSPropertyOp44
 70
     0
102
RTVSPropertyOp45
 70
     0
102
RTVSPropertyOp46
 70
     0
102
RTVSPropertyOp47
 70
     0
102
RTVSPropertyOp48
 70
     0
102
RTVSPropertyOp49
 70
     0
102
RTVSPropertyOp50
 70
     0
102
RTVSPropertyOp51
 70
     0
102
RTVSPropertyOp52
 70
     0
102
RTVSPropertyOp53
 70
     0
102
RTVSPropertyOp54
 70
     0
102
RTVSPropertyOp55
 70
     0
102
RTVSPropertyOp56
 70
     0
102
RTVSPropertyOp57
 70
     0
102
RTVSPropertyOp58
 70
     0
102
RTVSPropertyOp59
 70
     0
102
RTVSPropertyOp60
 70
     0
102
RTVSPropertyOp61
 70
     0
102
RTVSPropertyOp62
 70
     0
  0
XRECORD
  5
3B2
102
{ACAD_REACTORS
330
3B1
102
}
330
3B1
100
AcDbXrecord
280
     1
102
RTVSPost2010Prop28
280
     0
102
RTVSPost2010PropOp28
 70
     1
102
RTVSPost2010Prop29
280
     1
102
RTVSPost2010PropOp29
 70
     1
102
RTVSPost2010Prop30
280
     1
102
RTVSPost2010PropOp30
 70
     1
102
RTVSPost2010Prop31
280
     0
102
RTVSPost2010PropOp31
 70
     1
102
RTVSPost2010Prop32
280
     0
102
RTVSPost2010PropOp32
 70
     1
102
RTVSPost2010Prop33
280
     0
102
RTVSPost2010PropOp33
 70
     1
102
RTVSPost2010Prop34
280
     0
102
RTVSPost2010PropOp34
 70
     1
102
RTVSPost2010Prop35
280
     0
102
RTVSPost2010PropOp35
 70
     1
102
RTVSPost2010Prop36
280
     0
102
RTVSPost2010PropOp36
 70
     1
102
RTVSPost2010Prop37
 90
       50
102
RTVSPost2010PropOp37
 70
     1
102
RTVSPost2010Prop38
140
0.0
102
RTVSPost2010PropOp38
 70
     1
102
RTVSPost2010Prop39
140
1.0
102
RTVSPost2010PropOp39
 70
     1
102
RTVSPost2010Prop40
 90
        0
102
RTVSPost2010PropOp40
 70
     1
102
RTVSPost2010Prop41ColorIndex
 90
       18
102
RTVSPost2010Prop41ColorRGB
 90
        0
102
RTVSPost2010PropOp41
 70
     1
102
RTVSPost2010Prop42
 90
       50
102
RTVSPost2010PropOp42
 70
     1
102
RTVSPost2010Prop43
 90
        3
102
RTVSPost2010PropOp43
 70
     1
102
RTVSPost2010Prop44ColorIndex
 90
        5
102
RTVSPost2010Prop44ColorRGB
 90
      255
102
RTVSPost2010PropOp44
 70
     1
102
RTVSPost2010Prop45
280
     0
102
RTVSPost2010PropOp45
 70
     1
102
RTVSPost2010Prop46
 90
       50
102
RTVSPost2010PropOp46
 70
     1
102
RTVSPost2010Prop47
 90
       50
102
RTVSPost2010PropOp47
 70
     1
102
RTVSPost2010Prop48
 90
       50
102
RTVSPost2010PropOp48
 70
     1
102
RTVSPost2010Prop49
280
     0
102
RTVSPost2010PropOp49
 70
     1
102
RTVSPost2010Prop50
 90
       50
102
RTVSPost2010PropOp50
 70
     1
102
RTVSPost2010Prop51ColorIndex
 90
      256
102
RTVSPost2010Prop51ColorRGB
 90
-16777216
102
RTVSPost2010PropOp51
 70
     0
102
RTVSPost2010Prop52
140
1.0
102
RTVSPost2010PropOp52
 70
     0
102
RTVSPost2010Prop53
 90
        2
102
RTVSPost2010PropOp53
 70
     1
102
RTVSPost2010Prop54
  1
strokes_ogs.tif
102
RTVSPost2010PropOp54
 70
     1
102
RTVSPost2010Prop55
280
     0
102
RTVSPost2010PropOp55
 70
     1
102
RTVSPost2010Prop56
140
1.0
102
RTVSPost2010PropOp56
 70
     1
102
RTVSPost2010Prop57
140
1.0
102
RTVSPost2010PropOp57
 70
     1
102
RTVSPropertyOp0
 70
     1
102
RTVSPropertyOp1
 70
     1
102
RTVSPropertyOp2
 70
     1
102
RTVSPropertyOp3
 70
     1
102
RTVSPropertyOp4
 70
     1
102
RTVSPropertyOp5
 70
     1
102
RTVSPropertyOp6
 70
     1
102
RTVSPropertyOp7
 70
     1
102
RTVSPropertyOp8
 70
     1
102
RTVSPropertyOp9
 70
     1
102
RTVSPropertyOp10
 70
     1
102
RTVSPropertyOp11
 70
     1
102
RTVSPropertyOp12
 70
     1
102
RTVSPropertyOp13
 70
     1
102
RTVSPropertyOp14
 70
     1
102
RTVSPropertyOp15
 70
     1
102
RTVSPropertyOp16
 70
     1
102
RTVSPropertyOp17
 70
     1
102
RTVSPropertyOp18
 70
     1
102
RTVSPropertyOp19
 70
     1
102
RTVSPropertyOp20
 70
     1
102
RTVSPropertyOp21
 70
     1
102
RTVSPropertyOp22
 70
     1
102
RTVSPropertyOp23
 70
     1
102
RTVSPropertyOp24
 70
     1
102
RTVSPropertyOp25
 70
     1
102
RTVSPropertyOp26
 70
     1
102
RTVSPropertyOp27
 70
     1
102
RTVSPropertyOp28
 70
     1
102
RTVSPropertyOp29
 70
     1
102
RTVSPropertyOp30
 70
     1
102
RTVSPropertyOp31
 70
     1
102
RTVSPropertyOp32
 70
     1
102
RTVSPropertyOp33
 70
     1
102
RTVSPropertyOp34
 70
     1
102
RTVSPropertyOp35
 70
     1
102
RTVSPropertyOp36
 70
     1
102
RTVSPropertyOp37
 70
     1
102
RTVSPropertyOp38
 70
     1
102
RTVSPropertyOp39
 70
     1
102
RTVSPropertyOp40
 70
     1
102
RTVSPropertyOp41
 70
     1
102
RTVSPropertyOp42
 70
     1
102
RTVSPropertyOp43
 70
     1
102
RTVSPropertyOp44
 70
     1
102
RTVSPropertyOp45
 70
     1
102
RTVSPropertyOp46
 70
     1
102
RTVSPropertyOp47
 70
     1
102
RTVSPropertyOp48
 70
     1
102
RTVSPropertyOp49
 70
     1
102
RTVSPropertyOp50
 70
     1
102
RTVSPropertyOp51
 70
     0
102
RTVSPropertyOp52
 70
     0
102
RTVSPropertyOp53
 70
     1
102
RTVSPropertyOp54
 70
     1
102
RTVSPropertyOp55
 70
     1
102
RTVSPropertyOp56
 70
     1
102
RTVSPropertyOp57
 70
     1
102
RTVSPropertyOp58
 70
     1
102
RTVSPropertyOp59
 70
     1
102
RTVSPropertyOp60
 70
     1
102
RTVSPropertyOp61
 70
     1
102
RTVSPropertyOp62
 70
     1
  0
XRECORD
  5
396
102
{ACAD_REACTORS
330
395
102
}
330
395
100
AcDbXrecord
280
     1
102
RTVSPost2010Prop28
280
     0
102
RTVSPost2010PropOp28
 70
     1
102
RTVSPost2010Prop29
280
     1
102
RTVSPost2010PropOp29
 70
     1
102
RTVSPost2010Prop30
280
     1
102
RTVSPost2010PropOp30
 70
     1
102
RTVSPost2010Prop31
280
     0
102
RTVSPost2010PropOp31
 70
     1
102
RTVSPost2010Prop32
280
     0
102
RTVSPost2010PropOp32
 70
     1
102
RTVSPost2010Prop33
280
     0
102
RTVSPost2010PropOp33
 70
     1
102
RTVSPost2010Prop34
280
     0
102
RTVSPost2010PropOp34
 70
     1
102
RTVSPost2010Prop35
280
     0
102
RTVSPost2010PropOp35
 70
     1
102
RTVSPost2010Prop36
280
     0
102
RTVSPost2010PropOp36
 70
     1
102
RTVSPost2010Prop37
 90
       50
102
RTVSPost2010PropOp37
 70
     1
102
RTVSPost2010Prop38
140
0.0
102
RTVSPost2010PropOp38
 70
     1
102
RTVSPost2010Prop39
140
1.0
102
RTVSPost2010PropOp39
 70
     1
102
RTVSPost2010Prop40
 90
        0
102
RTVSPost2010PropOp40
 70
     1
102
RTVSPost2010Prop41ColorIndex
 90
       18
102
RTVSPost2010Prop41ColorRGB
 90
        0
102
RTVSPost2010PropOp41
 70
     1
102
RTVSPost2010Prop42
 90
       50
102
RTVSPost2010PropOp42
 70
     1
102
RTVSPost2010Prop43
 90
        3
102
RTVSPost2010PropOp43
 70
     1
102
RTVSPost2010Prop44ColorIndex
 90
        5
102
RTVSPost2010Prop44ColorRGB
 90
      255
102
RTVSPost2010PropOp44
 70
     1
102
RTVSPost2010Prop45
280
     0
102
RTVSPost2010PropOp45
 70
     1
102
RTVSPost2010Prop46
 90
       50
102
RTVSPost2010PropOp46
 70
     1
102
RTVSPost2010Prop47
 90
       50
102
RTVSPost2010PropOp47
 70
     1
102
RTVSPost2010Prop48
 90
       50
102
RTVSPost2010PropOp48
 70
     1
102
RTVSPost2010Prop49
280
     0
102
RTVSPost2010PropOp49
 70
     1
102
RTVSPost2010Prop50
 90
       50
102
RTVSPost2010PropOp50
 70
     1
102
RTVSPost2010Prop51ColorIndex
 90
      256
102
RTVSPost2010Prop51ColorRGB
 90
-16777216
102
RTVSPost2010PropOp51
 70
     0
102
RTVSPost2010Prop52
140
1.0
102
RTVSPost2010PropOp52
 70
     0
102
RTVSPost2010Prop53
 90
        2
102
RTVSPost2010PropOp53
 70
     1
102
RTVSPost2010Prop54
  1
strokes_ogs.tif
102
RTVSPost2010PropOp54
 70
     1
102
RTVSPost2010Prop55
280
     0
102
RTVSPost2010PropOp55
 70
     1
102
RTVSPost2010Prop56
140
1.0
102
RTVSPost2010PropOp56
 70
     1
102
RTVSPost2010Prop57
140
1.0
102
RTVSPost2010PropOp57
 70
     1
102
RTVSPropertyOp0
 70
     1
102
RTVSPropertyOp1
 70
     1
102
RTVSPropertyOp2
 70
     1
102
RTVSPropertyOp3
 70
     1
102
RTVSPropertyOp4
 70
     1
102
RTVSPropertyOp5
 70
     1
102
RTVSPropertyOp6
 70
     1
102
RTVSPropertyOp7
 70
     1
102
RTVSPropertyOp8
 70
     1
102
RTVSPropertyOp9
 70
     1
102
RTVSPropertyOp10
 70
     1
102
RTVSPropertyOp11
 70
     1
102
RTVSPropertyOp12
 70
     1
102
RTVSPropertyOp13
 70
     1
102
RTVSPropertyOp14
 70
     1
102
RTVSPropertyOp15
 70
     1
102
RTVSPropertyOp16
 70
     1
102
RTVSPropertyOp17
 70
     1
102
RTVSPropertyOp18
 70
     1
102
RTVSPropertyOp19
 70
     1
102
RTVSPropertyOp20
 70
     1
102
RTVSPropertyOp21
 70
     1
102
RTVSPropertyOp22
 70
     1
102
RTVSPropertyOp23
 70
     1
102
RTVSPropertyOp24
 70
     1
102
RTVSPropertyOp25
 70
     1
102
RTVSPropertyOp26
 70
     1
102
RTVSPropertyOp27
 70
     1
102
RTVSPropertyOp28
 70
     1
102
RTVSPropertyOp29
 70
     1
102
RTVSPropertyOp30
 70
     1
102
RTVSPropertyOp31
 70
     1
102
RTVSPropertyOp32
 70
     1
102
RTVSPropertyOp33
 70
     1
102
RTVSPropertyOp34
 70
     1
102
RTVSPropertyOp35
 70
     1
102
RTVSPropertyOp36
 70
     1
102
RTVSPropertyOp37
 70
     1
102
RTVSPropertyOp38
 70
     1
102
RTVSPropertyOp39
 70
     1
102
RTVSPropertyOp40
 70
     1
102
RTVSPropertyOp41
 70
     1
102
RTVSPropertyOp42
 70
     1
102
RTVSPropertyOp43
 70
     1
102
RTVSPropertyOp44
 70
     1
102
RTVSPropertyOp45
 70
     1
102
RTVSPropertyOp46
 70
     1
102
RTVSPropertyOp47
 70
     1
102
RTVSPropertyOp48
 70
     1
102
RTVSPropertyOp49
 70
     1
102
RTVSPropertyOp50
 70
     1
102
RTVSPropertyOp51
 70
     0
102
RTVSPropertyOp52
 70
     0
102
RTVSPropertyOp53
 70
     1
102
RTVSPropertyOp54
 70
     1
102
RTVSPropertyOp55
 70
     1
102
RTVSPropertyOp56
 70
     1
102
RTVSPropertyOp57
 70
     1
102
RTVSPropertyOp58
 70
     1
102
RTVSPropertyOp59
 70
     1
102
RTVSPropertyOp60
 70
     1
102
RTVSPropertyOp61
 70
     1
102
RTVSPropertyOp62
 70
     1
  0
XRECORD
  5
398
102
{ACAD_REACTORS
330
397
102
}
330
397
100
AcDbXrecord
280
     1
102
RTVSPost2010Prop28
280
     0
102
RTVSPost2010PropOp28
 70
     1
102
RTVSPost2010Prop29
280
     1
102
RTVSPost2010PropOp29
 70
     1
102
RTVSPost2010Prop30
280
     1
102
RTVSPost2010PropOp30
 70
     1
102
RTVSPost2010Prop31
280
     0
102
RTVSPost2010PropOp31
 70
     1
102
RTVSPost2010Prop32
280
     0
102
RTVSPost2010PropOp32
 70
     1
102
RTVSPost2010Prop33
280
     0
102
RTVSPost2010PropOp33
 70
     1
102
RTVSPost2010Prop34
280
     0
102
RTVSPost2010PropOp34
 70
     1
102
RTVSPost2010Prop35
280
     0
102
RTVSPost2010PropOp35
 70
     1
102
RTVSPost2010Prop36
280
     0
102
RTVSPost2010PropOp36
 70
     1
102
RTVSPost2010Prop37
 90
       50
102
RTVSPost2010PropOp37
 70
     1
102
RTVSPost2010Prop38
140
0.0
102
RTVSPost2010PropOp38
 70
     1
102
RTVSPost2010Prop39
140
1.0
102
RTVSPost2010PropOp39
 70
     1
102
RTVSPost2010Prop40
 90
        0
102
RTVSPost2010PropOp40
 70
     1
102
RTVSPost2010Prop41ColorIndex
 90
       18
102
RTVSPost2010Prop41ColorRGB
 90
        0
102
RTVSPost2010PropOp41
 70
     1
102
RTVSPost2010Prop42
 90
       50
102
RTVSPost2010PropOp42
 70
     1
102
RTVSPost2010Prop43
 90
        3
102
RTVSPost2010PropOp43
 70
     1
102
RTVSPost2010Prop44ColorIndex
 90
        5
102
RTVSPost2010Prop44ColorRGB
 90
      255
102
RTVSPost2010PropOp44
 70
     1
102
RTVSPost2010Prop45
280
     0
102
RTVSPost2010PropOp45
 70
     1
102
RTVSPost2010Prop46
 90
       50
102
RTVSPost2010PropOp46
 70
     1
102
RTVSPost2010Prop47
 90
       50
102
RTVSPost2010PropOp47
 70
     1
102
RTVSPost2010Prop48
 90
       50
102
RTVSPost2010PropOp48
 70
     1
102
RTVSPost2010Prop49
280
     0
102
RTVSPost2010PropOp49
 70
     1
102
RTVSPost2010Prop50
 90
       50
102
RTVSPost2010PropOp50
 70
     1
102
RTVSPost2010Prop51ColorIndex
 90
      256
102
RTVSPost2010Prop51ColorRGB
 90
-16777216
102
RTVSPost2010PropOp51
 70
     0
102
RTVSPost2010Prop52
140
1.0
102
RTVSPost2010PropOp52
 70
     0
102
RTVSPost2010Prop53
 90
        2
102
RTVSPost2010PropOp53
 70
     1
102
RTVSPost2010Prop54
  1
strokes_ogs.tif
102
RTVSPost2010PropOp54
 70
     1
102
RTVSPost2010Prop55
280
     0
102
RTVSPost2010PropOp55
 70
     1
102
RTVSPost2010Prop56
140
1.0
102
RTVSPost2010PropOp56
 70
     1
102
RTVSPost2010Prop57
140
1.0
102
RTVSPost2010PropOp57
 70
     1
102
RTVSPropertyOp0
 70
     1
102
RTVSPropertyOp1
 70
     1
102
RTVSPropertyOp2
 70
     1
102
RTVSPropertyOp3
 70
     1
102
RTVSPropertyOp4
 70
     1
102
RTVSPropertyOp5
 70
     1
102
RTVSPropertyOp6
 70
     1
102
RTVSPropertyOp7
 70
     1
102
RTVSPropertyOp8
 70
     1
102
RTVSPropertyOp9
 70
     1
102
RTVSPropertyOp10
 70
     1
102
RTVSPropertyOp11
 70
     1
102
RTVSPropertyOp12
 70
     1
102
RTVSPropertyOp13
 70
     1
102
RTVSPropertyOp14
 70
     1
102
RTVSPropertyOp15
 70
     1
102
RTVSPropertyOp16
 70
     1
102
RTVSPropertyOp17
 70
     1
102
RTVSPropertyOp18
 70
     1
102
RTVSPropertyOp19
 70
     1
102
RTVSPropertyOp20
 70
     1
102
RTVSPropertyOp21
 70
     1
102
RTVSPropertyOp22
 70
     1
102
RTVSPropertyOp23
 70
     1
102
RTVSPropertyOp24
 70
     1
102
RTVSPropertyOp25
 70
     1
102
RTVSPropertyOp26
 70
     1
102
RTVSPropertyOp27
 70
     1
102
RTVSPropertyOp28
 70
     1
102
RTVSPropertyOp29
 70
     1
102
RTVSPropertyOp30
 70
     1
102
RTVSPropertyOp31
 70
     1
102
RTVSPropertyOp32
 70
     1
102
RTVSPropertyOp33
 70
     1
102
RTVSPropertyOp34
 70
     1
102
RTVSPropertyOp35
 70
     1
102
RTVSPropertyOp36
 70
     1
102
RTVSPropertyOp37
 70
     1
102
RTVSPropertyOp38
 70
     1
102
RTVSPropertyOp39
 70
     1
102
RTVSPropertyOp40
 70
     1
102
RTVSPropertyOp41
 70
     1
102
RTVSPropertyOp42
 70
     1
102
RTVSPropertyOp43
 70
     1
102
RTVSPropertyOp44
 70
     1
102
RTVSPropertyOp45
 70
     1
102
RTVSPropertyOp46
 70
     1
102
RTVSPropertyOp47
 70
     1
102
RTVSPropertyOp48
 70
     1
102
RTVSPropertyOp49
 70
     1
102
RTVSPropertyOp50
 70
     1
102
RTVSPropertyOp51
 70
     0
102
RTVSPropertyOp52
 70
     0
102
RTVSPropertyOp53
 70
     1
102
RTVSPropertyOp54
 70
     1
102
RTVSPropertyOp55
 70
     1
102
RTVSPropertyOp56
 70
     1
102
RTVSPropertyOp57
 70
     1
102
RTVSPropertyOp58
 70
     1
102
RTVSPropertyOp59
 70
     1
102
RTVSPropertyOp60
 70
     1
102
RTVSPropertyOp61
 70
     1
102
RTVSPropertyOp62
 70
     1
  0
XRECORD
  5
39A
102
{ACAD_REACTORS
330
399
102
}
330
399
100
AcDbXrecord
280
     1
102
RTVSPost2010Prop28
280
     0
102
RTVSPost2010PropOp28
 70
     1
102
RTVSPost2010Prop29
280
     1
102
RTVSPost2010PropOp29
 70
     1
102
RTVSPost2010Prop30
280
     1
102
RTVSPost2010PropOp30
 70
     1
102
RTVSPost2010Prop31
280
     0
102
RTVSPost2010PropOp31
 70
     1
102
RTVSPost2010Prop32
280
     0
102
RTVSPost2010PropOp32
 70
     1
102
RTVSPost2010Prop33
280
     0
102
RTVSPost2010PropOp33
 70
     1
102
RTVSPost2010Prop34
280
     0
102
RTVSPost2010PropOp34
 70
     1
102
RTVSPost2010Prop35
280
     0
102
RTVSPost2010PropOp35
 70
     1
102
RTVSPost2010Prop36
280
     0
102
RTVSPost2010PropOp36
 70
     1
102
RTVSPost2010Prop37
 90
       50
102
RTVSPost2010PropOp37
 70
     1
102
RTVSPost2010Prop38
140
0.0
102
RTVSPost2010PropOp38
 70
     1
102
RTVSPost2010Prop39
140
1.0
102
RTVSPost2010PropOp39
 70
     1
102
RTVSPost2010Prop40
 90
        0
102
RTVSPost2010PropOp40
 70
     1
102
RTVSPost2010Prop41ColorIndex
 90
       18
102
RTVSPost2010Prop41ColorRGB
 90
        0
102
RTVSPost2010PropOp41
 70
     1
102
RTVSPost2010Prop42
 90
       50
102
RTVSPost2010PropOp42
 70
     1
102
RTVSPost2010Prop43
 90
        3
102
RTVSPost2010PropOp43
 70
     1
102
RTVSPost2010Prop44ColorIndex
 90
        5
102
RTVSPost2010Prop44ColorRGB
 90
      255
102
RTVSPost2010PropOp44
 70
     1
102
RTVSPost2010Prop45
280
     0
102
RTVSPost2010PropOp45
 70
     1
102
RTVSPost2010Prop46
 90
       50
102
RTVSPost2010PropOp46
 70
     1
102
RTVSPost2010Prop47
 90
       50
102
RTVSPost2010PropOp47
 70
     1
102
RTVSPost2010Prop48
 90
       50
102
RTVSPost2010PropOp48
 70
     1
102
RTVSPost2010Prop49
280
     0
102
RTVSPost2010PropOp49
 70
     1
102
RTVSPost2010Prop50
 90
       50
102
RTVSPost2010PropOp50
 70
     1
102
RTVSPost2010Prop51ColorIndex
 90
      256
102
RTVSPost2010Prop51ColorRGB
 90
-16777216
102
RTVSPost2010PropOp51
 70
     0
102
RTVSPost2010Prop52
140
1.0
102
RTVSPost2010PropOp52
 70
     0
102
RTVSPost2010Prop53
 90
        2
102
RTVSPost2010PropOp53
 70
     1
102
RTVSPost2010Prop54
  1
strokes_ogs.tif
102
RTVSPost2010PropOp54
 70
     1
102
RTVSPost2010Prop55
280
     0
102
RTVSPost2010PropOp55
 70
     1
102
RTVSPost2010Prop56
140
1.0
102
RTVSPost2010PropOp56
 70
     1
102
RTVSPost2010Prop57
140
1.0
102
RTVSPost2010PropOp57
 70
     1
102
RTVSPropertyOp0
 70
     1
102
RTVSPropertyOp1
 70
     1
102
RTVSPropertyOp2
 70
     1
102
RTVSPropertyOp3
 70
     1
102
RTVSPropertyOp4
 70
     1
102
RTVSPropertyOp5
 70
     1
102
RTVSPropertyOp6
 70
     1
102
RTVSPropertyOp7
 70
     1
102
RTVSPropertyOp8
 70
     1
102
RTVSPropertyOp9
 70
     1
102
RTVSPropertyOp10
 70
     1
102
RTVSPropertyOp11
 70
     1
102
RTVSPropertyOp12
 70
     1
102
RTVSPropertyOp13
 70
     1
102
RTVSPropertyOp14
 70
     1
102
RTVSPropertyOp15
 70
     1
102
RTVSPropertyOp16
 70
     1
102
RTVSPropertyOp17
 70
     1
102
RTVSPropertyOp18
 70
     1
102
RTVSPropertyOp19
 70
     1
102
RTVSPropertyOp20
 70
     1
102
RTVSPropertyOp21
 70
     1
102
RTVSPropertyOp22
 70
     1
102
RTVSPropertyOp23
 70
     1
102
RTVSPropertyOp24
 70
     1
102
RTVSPropertyOp25
 70
     1
102
RTVSPropertyOp26
 70
     1
102
RTVSPropertyOp27
 70
     1
102
RTVSPropertyOp28
 70
     1
102
RTVSPropertyOp29
 70
     1
102
RTVSPropertyOp30
 70
     1
102
RTVSPropertyOp31
 70
     1
102
RTVSPropertyOp32
 70
     1
102
RTVSPropertyOp33
 70
     1
102
RTVSPropertyOp34
 70
     1
102
RTVSPropertyOp35
 70
     1
102
RTVSPropertyOp36
 70
     1
102
RTVSPropertyOp37
 70
     1
102
RTVSPropertyOp38
 70
     1
102
RTVSPropertyOp39
 70
     1
102
RTVSPropertyOp40
 70
     1
102
RTVSPropertyOp41
 70
     1
102
RTVSPropertyOp42
 70
     1
102
RTVSPropertyOp43
 70
     1
102
RTVSPropertyOp44
 70
     1
102
RTVSPropertyOp45
 70
     1
102
RTVSPropertyOp46
 70
     1
102
RTVSPropertyOp47
 70
     1
102
RTVSPropertyOp48
 70
     1
102
RTVSPropertyOp49
 70
     1
102
RTVSPropertyOp50
 70
     1
102
RTVSPropertyOp51
 70
     0
102
RTVSPropertyOp52
 70
     0
102
RTVSPropertyOp53
 70
     1
102
RTVSPropertyOp54
 70
     1
102
RTVSPropertyOp55
 70
     1
102
RTVSPropertyOp56
 70
     1
102
RTVSPropertyOp57
 70
     1
102
RTVSPropertyOp58
 70
     1
102
RTVSPropertyOp59
 70
     1
102
RTVSPropertyOp60
 70
     1
102
RTVSPropertyOp61
 70
     1
102
RTVSPropertyOp62
 70
     1
  0
XRECORD
  5
39C
102
{ACAD_REACTORS
330
39B
102
}
330
39B
100
AcDbXrecord
280
     1
102
RTVSPost2010Prop28
280
     0
102
RTVSPost2010PropOp28
 70
     1
102
RTVSPost2010Prop29
280
     1
102
RTVSPost2010PropOp29
 70
     1
102
RTVSPost2010Prop30
280
     1
102
RTVSPost2010PropOp30
 70
     1
102
RTVSPost2010Prop31
280
     0
102
RTVSPost2010PropOp31
 70
     1
102
RTVSPost2010Prop32
280
     0
102
RTVSPost2010PropOp32
 70
     1
102
RTVSPost2010Prop33
280
     0
102
RTVSPost2010PropOp33
 70
     1
102
RTVSPost2010Prop34
280
     0
102
RTVSPost2010PropOp34
 70
     1
102
RTVSPost2010Prop35
280
     0
102
RTVSPost2010PropOp35
 70
     1
102
RTVSPost2010Prop36
280
     0
102
RTVSPost2010PropOp36
 70
     1
102
RTVSPost2010Prop37
 90
       50
102
RTVSPost2010PropOp37
 70
     1
102
RTVSPost2010Prop38
140
0.0
102
RTVSPost2010PropOp38
 70
     1
102
RTVSPost2010Prop39
140
1.0
102
RTVSPost2010PropOp39
 70
     1
102
RTVSPost2010Prop40
 90
        0
102
RTVSPost2010PropOp40
 70
     1
102
RTVSPost2010Prop41ColorIndex
 90
       18
102
RTVSPost2010Prop41ColorRGB
 90
        0
102
RTVSPost2010PropOp41
 70
     1
102
RTVSPost2010Prop42
 90
       50
102
RTVSPost2010PropOp42
 70
     1
102
RTVSPost2010Prop43
 90
        3
102
RTVSPost2010PropOp43
 70
     1
102
RTVSPost2010Prop44ColorIndex
 90
        5
102
RTVSPost2010Prop44ColorRGB
 90
      255
102
RTVSPost2010PropOp44
 70
     1
102
RTVSPost2010Prop45
280
     0
102
RTVSPost2010PropOp45
 70
     1
102
RTVSPost2010Prop46
 90
       50
102
RTVSPost2010PropOp46
 70
     1
102
RTVSPost2010Prop47
 90
       50
102
RTVSPost2010PropOp47
 70
     1
102
RTVSPost2010Prop48
 90
       50
102
RTVSPost2010PropOp48
 70
     1
102
RTVSPost2010Prop49
280
     0
102
RTVSPost2010PropOp49
 70
     1
102
RTVSPost2010Prop50
 90
       50
102
RTVSPost2010PropOp50
 70
     1
102
RTVSPost2010Prop51ColorIndex
 90
      256
102
RTVSPost2010Prop51ColorRGB
 90
-16777216
102
RTVSPost2010PropOp51
 70
     0
102
RTVSPost2010Prop52
140
1.0
102
RTVSPost2010PropOp52
 70
     0
102
RTVSPost2010Prop53
 90
        2
102
RTVSPost2010PropOp53
 70
     1
102
RTVSPost2010Prop54
  1
strokes_ogs.tif
102
RTVSPost2010PropOp54
 70
     1
102
RTVSPost2010Prop55
280
     0
102
RTVSPost2010PropOp55
 70
     1
102
RTVSPost2010Prop56
140
1.0
102
RTVSPost2010PropOp56
 70
     1
102
RTVSPost2010Prop57
140
1.0
102
RTVSPost2010PropOp57
 70
     1
102
RTVSPropertyOp0
 70
     1
102
RTVSPropertyOp1
 70
     1
102
RTVSPropertyOp2
 70
     1
102
RTVSPropertyOp3
 70
     1
102
RTVSPropertyOp4
 70
     1
102
RTVSPropertyOp5
 70
     1
102
RTVSPropertyOp6
 70
     1
102
RTVSPropertyOp7
 70
     1
102
RTVSPropertyOp8
 70
     1
102
RTVSPropertyOp9
 70
     1
102
RTVSPropertyOp10
 70
     1
102
RTVSPropertyOp11
 70
     1
102
RTVSPropertyOp12
 70
     1
102
RTVSPropertyOp13
 70
     1
102
RTVSPropertyOp14
 70
     1
102
RTVSPropertyOp15
 70
     1
102
RTVSPropertyOp16
 70
     1
102
RTVSPropertyOp17
 70
     1
102
RTVSPropertyOp18
 70
     1
102
RTVSPropertyOp19
 70
     1
102
RTVSPropertyOp20
 70
     1
102
RTVSPropertyOp21
 70
     1
102
RTVSPropertyOp22
 70
     1
102
RTVSPropertyOp23
 70
     1
102
RTVSPropertyOp24
 70
     1
102
RTVSPropertyOp25
 70
     1
102
RTVSPropertyOp26
 70
     1
102
RTVSPropertyOp27
 70
     1
102
RTVSPropertyOp28
 70
     1
102
RTVSPropertyOp29
 70
     1
102
RTVSPropertyOp30
 70
     1
102
RTVSPropertyOp31
 70
     1
102
RTVSPropertyOp32
 70
     1
102
RTVSPropertyOp33
 70
     1
102
RTVSPropertyOp34
 70
     1
102
RTVSPropertyOp35
 70
     1
102
RTVSPropertyOp36
 70
     1
102
RTVSPropertyOp37
 70
     1
102
RTVSPropertyOp38
 70
     1
102
RTVSPropertyOp39
 70
     1
102
RTVSPropertyOp40
 70
     1
102
RTVSPropertyOp41
 70
     1
102
RTVSPropertyOp42
 70
     1
102
RTVSPropertyOp43
 70
     1
102
RTVSPropertyOp44
 70
     1
102
RTVSPropertyOp45
 70
     1
102
RTVSPropertyOp46
 70
     1
102
RTVSPropertyOp47
 70
     1
102
RTVSPropertyOp48
 70
     1
102
RTVSPropertyOp49
 70
     1
102
RTVSPropertyOp50
 70
     1
102
RTVSPropertyOp51
 70
     0
102
RTVSPropertyOp52
 70
     0
102
RTVSPropertyOp53
 70
     1
102
RTVSPropertyOp54
 70
     1
102
RTVSPropertyOp55
 70
     1
102
RTVSPropertyOp56
 70
     1
102
RTVSPropertyOp57
 70
     1
102
RTVSPropertyOp58
 70
     1
102
RTVSPropertyOp59
 70
     1
102
RTVSPropertyOp60
 70
     1
102
RTVSPropertyOp61
 70
     1
102
RTVSPropertyOp62
 70
     1
  0
XRECORD
  5
3A4
102
{ACAD_REACTORS
330
3A3
102
}
330
3A3
100
AcDbXrecord
280
     1
102
RTVSPost2010Prop28
280
     0
102
RTVSPost2010PropOp28
 70
     1
102
RTVSPost2010Prop29
280
     1
102
RTVSPost2010PropOp29
 70
     1
102
RTVSPost2010Prop30
280
     1
102
RTVSPost2010PropOp30
 70
     1
102
RTVSPost2010Prop31
280
     0
102
RTVSPost2010PropOp31
 70
     1
102
RTVSPost2010Prop32
280
     0
102
RTVSPost2010PropOp32
 70
     1
102
RTVSPost2010Prop33
280
     0
102
RTVSPost2010PropOp33
 70
     1
102
RTVSPost2010Prop34
280
     0
102
RTVSPost2010PropOp34
 70
     1
102
RTVSPost2010Prop35
280
     0
102
RTVSPost2010PropOp35
 70
     1
102
RTVSPost2010Prop36
280
     0
102
RTVSPost2010PropOp36
 70
     1
102
RTVSPost2010Prop37
 90
       50
102
RTVSPost2010PropOp37
 70
     1
102
RTVSPost2010Prop38
140
0.0
102
RTVSPost2010PropOp38
 70
     1
102
RTVSPost2010Prop39
140
1.0
102
RTVSPost2010PropOp39
 70
     1
102
RTVSPost2010Prop40
 90
        0
102
RTVSPost2010PropOp40
 70
     1
102
RTVSPost2010Prop41ColorIndex
 90
       18
102
RTVSPost2010Prop41ColorRGB
 90
        0
102
RTVSPost2010PropOp41
 70
     1
102
RTVSPost2010Prop42
 90
       50
102
RTVSPost2010PropOp42
 70
     1
102
RTVSPost2010Prop43
 90
        3
102
RTVSPost2010PropOp43
 70
     1
102
RTVSPost2010Prop44ColorIndex
 90
        5
102
RTVSPost2010Prop44ColorRGB
 90
      255
102
RTVSPost2010PropOp44
 70
     1
102
RTVSPost2010Prop45
280
     0
102
RTVSPost2010PropOp45
 70
     1
102
RTVSPost2010Prop46
 90
       50
102
RTVSPost2010PropOp46
 70
     1
102
RTVSPost2010Prop47
 90
       50
102
RTVSPost2010PropOp47
 70
     1
102
RTVSPost2010Prop48
 90
       50
102
RTVSPost2010PropOp48
 70
     1
102
RTVSPost2010Prop49
280
     0
102
RTVSPost2010PropOp49
 70
     1
102
RTVSPost2010Prop50
 90
       50
102
RTVSPost2010PropOp50
 70
     1
102
RTVSPost2010Prop51ColorIndex
 90
      256
102
RTVSPost2010Prop51ColorRGB
 90
-16777216
102
RTVSPost2010PropOp51
 70
     0
102
RTVSPost2010Prop52
140
1.0
102
RTVSPost2010PropOp52
 70
     0
102
RTVSPost2010Prop53
 90
        2
102
RTVSPost2010PropOp53
 70
     1
102
RTVSPost2010Prop54
  1
strokes_ogs.tif
102
RTVSPost2010PropOp54
 70
     1
102
RTVSPost2010Prop55
280
     0
102
RTVSPost2010PropOp55
 70
     1
102
RTVSPost2010Prop56
140
1.0
102
RTVSPost2010PropOp56
 70
     1
102
RTVSPost2010Prop57
140
1.0
102
RTVSPost2010PropOp57
 70
     1
102
RTVSPropertyOp0
 70
     1
102
RTVSPropertyOp1
 70
     1
102
RTVSPropertyOp2
 70
     1
102
RTVSPropertyOp3
 70
     1
102
RTVSPropertyOp4
 70
     1
102
RTVSPropertyOp5
 70
     1
102
RTVSPropertyOp6
 70
     1
102
RTVSPropertyOp7
 70
     1
102
RTVSPropertyOp8
 70
     1
102
RTVSPropertyOp9
 70
     1
102
RTVSPropertyOp10
 70
     1
102
RTVSPropertyOp11
 70
     1
102
RTVSPropertyOp12
 70
     1
102
RTVSPropertyOp13
 70
     1
102
RTVSPropertyOp14
 70
     1
102
RTVSPropertyOp15
 70
     1
102
RTVSPropertyOp16
 70
     1
102
RTVSPropertyOp17
 70
     1
102
RTVSPropertyOp18
 70
     1
102
RTVSPropertyOp19
 70
     1
102
RTVSPropertyOp20
 70
     1
102
RTVSPropertyOp21
 70
     1
102
RTVSPropertyOp22
 70
     1
102
RTVSPropertyOp23
 70
     1
102
RTVSPropertyOp24
 70
     1
102
RTVSPropertyOp25
 70
     1
102
RTVSPropertyOp26
 70
     1
102
RTVSPropertyOp27
 70
     1
102
RTVSPropertyOp28
 70
     1
102
RTVSPropertyOp29
 70
     1
102
RTVSPropertyOp30
 70
     1
102
RTVSPropertyOp31
 70
     1
102
RTVSPropertyOp32
 70
     1
102
RTVSPropertyOp33
 70
     1
102
RTVSPropertyOp34
 70
     1
102
RTVSPropertyOp35
 70
     1
102
RTVSPropertyOp36
 70
     1
102
RTVSPropertyOp37
 70
     1
102
RTVSPropertyOp38
 70
     1
102
RTVSPropertyOp39
 70
     1
102
RTVSPropertyOp40
 70
     1
102
RTVSPropertyOp41
 70
     1
102
RTVSPropertyOp42
 70
     1
102
RTVSPropertyOp43
 70
     1
102
RTVSPropertyOp44
 70
     1
102
RTVSPropertyOp45
 70
     1
102
RTVSPropertyOp46
 70
     1
102
RTVSPropertyOp47
 70
     1
102
RTVSPropertyOp48
 70
     1
102
RTVSPropertyOp49
 70
     1
102
RTVSPropertyOp50
 70
     1
102
RTVSPropertyOp51
 70
     0
102
RTVSPropertyOp52
 70
     0
102
RTVSPropertyOp53
 70
     1
102
RTVSPropertyOp54
 70
     1
102
RTVSPropertyOp55
 70
     1
102
RTVSPropertyOp56
 70
     1
102
RTVSPropertyOp57
 70
     1
102
RTVSPropertyOp58
 70
     1
102
RTVSPropertyOp59
 70
     1
102
RTVSPropertyOp60
 70
     1
102
RTVSPropertyOp61
 70
     1
102
RTVSPropertyOp62
 70
     1
  0
XRECORD
  5
3C0
102
{ACAD_REACTORS
330
3BF
102
}
330
3BF
100
AcDbXrecord
280
     1
102
RTVSPost2010Prop28
280
     0
102
RTVSPost2010PropOp28
 70
     0
102
RTVSPost2010Prop29
280
     1
102
RTVSPost2010PropOp29
 70
     0
102
RTVSPost2010Prop30
280
     1
102
RTVSPost2010PropOp30
 70
     0
102
RTVSPost2010Prop31
280
     0
102
RTVSPost2010PropOp31
 70
     0
102
RTVSPost2010Prop32
280
     0
102
RTVSPost2010PropOp32
 70
     0
102
RTVSPost2010Prop33
280
     0
102
RTVSPost2010PropOp33
 70
     0
102
RTVSPost2010Prop34
280
     0
102
RTVSPost2010PropOp34
 70
     0
102
RTVSPost2010Prop35
280
     0
102
RTVSPost2010PropOp35
 70
     0
102
RTVSPost2010Prop36
280
     0
102
RTVSPost2010PropOp36
 70
     0
102
RTVSPost2010Prop37
 90
       50
102
RTVSPost2010PropOp37
 70
     0
102
RTVSPost2010Prop38
140
0.0
102
RTVSPost2010PropOp38
 70
     0
102
RTVSPost2010Prop39
140
1.0
102
RTVSPost2010PropOp39
 70
     0
102
RTVSPost2010Prop40
 90
        0
102
RTVSPost2010PropOp40
 70
     0
102
RTVSPost2010Prop41ColorIndex
 90
       18
102
RTVSPost2010Prop41ColorRGB
 90
        0
102
RTVSPost2010PropOp41
 70
     0
102
RTVSPost2010Prop42
 90
       50
102
RTVSPost2010PropOp42
 70
     0
102
RTVSPost2010Prop43
 90
        3
102
RTVSPost2010PropOp43
 70
     0
102
RTVSPost2010Prop44ColorIndex
 90
        5
102
RTVSPost2010Prop44ColorRGB
 90
      255
102
RTVSPost2010PropOp44
 70
     0
102
RTVSPost2010Prop45
280
     0
102
RTVSPost2010PropOp45
 70
     0
102
RTVSPost2010Prop46
 90
       50
102
RTVSPost2010PropOp46
 70
     0
102
RTVSPost2010Prop47
 90
       50
102
RTVSPost2010PropOp47
 70
     0
102
RTVSPost2010Prop48
 90
       50
102
RTVSPost2010PropOp48
 70
     0
102
RTVSPost2010Prop49
280
     0
102
RTVSPost2010PropOp49
 70
     0
102
RTVSPost2010Prop50
 90
       50
102
RTVSPost2010PropOp50
 70
     0
102
RTVSPost2010Prop51ColorIndex
 90
      256
102
RTVSPost2010Prop51ColorRGB
 90
-16777216
102
RTVSPost2010PropOp51
 70
     0
102
RTVSPost2010Prop52
140
1.0
102
RTVSPost2010PropOp52
 70
     0
102
RTVSPost2010Prop53
 90
        2
102
RTVSPost2010PropOp53
 70
     0
102
RTVSPost2010Prop54
  1
strokes_ogs.tif
102
RTVSPost2010PropOp54
 70
     0
102
RTVSPost2010Prop55
280
     0
102
RTVSPost2010PropOp55
 70
     0
102
RTVSPost2010Prop56
140
1.0
102
RTVSPost2010PropOp56
 70
     0
102
RTVSPost2010Prop57
140
1.0
102
RTVSPost2010PropOp57
 70
     0
102
RTVSPropertyOp0
 70
     0
102
RTVSPropertyOp1
 70
     0
102
RTVSPropertyOp2
 70
     0
102
RTVSPropertyOp3
 70
     0
102
RTVSPropertyOp4
 70
     0
102
RTVSPropertyOp5
 70
     0
102
RTVSPropertyOp6
 70
     0
102
RTVSPropertyOp7
 70
     0
102
RTVSPropertyOp8
 70
     0
102
RTVSPropertyOp9
 70
     0
102
RTVSPropertyOp10
 70
     0
102
RTVSPropertyOp11
 70
     0
102
RTVSPropertyOp12
 70
     0
102
RTVSPropertyOp13
 70
     0
102
RTVSPropertyOp14
 70
     2
102
RTVSPropertyOp15
 70
     0
102
RTVSPropertyOp16
 70
     0
102
RTVSPropertyOp17
 70
     0
102
RTVSPropertyOp18
 70
     0
102
RTVSPropertyOp19
 70
     0
102
RTVSPropertyOp20
 70
     0
102
RTVSPropertyOp21
 70
     0
102
RTVSPropertyOp22
 70
     0
102
RTVSPropertyOp23
 70
     0
102
RTVSPropertyOp24
 70
     0
102
RTVSPropertyOp25
 70
     0
102
RTVSPropertyOp26
 70
     0
102
RTVSPropertyOp27
 70
     0
102
RTVSPropertyOp28
 70
     0
102
RTVSPropertyOp29
 70
     0
102
RTVSPropertyOp30
 70
     0
102
RTVSPropertyOp31
 70
     0
102
RTVSPropertyOp32
 70
     0
102
RTVSPropertyOp33
 70
     0
102
RTVSPropertyOp34
 70
     0
102
RTVSPropertyOp35
 70
     0
102
RTVSPropertyOp36
 70
     0
102
RTVSPropertyOp37
 70
     0
102
RTVSPropertyOp38
 70
     0
102
RTVSPropertyOp39
 70
     0
102
RTVSPropertyOp40
 70
     0
102
RTVSPropertyOp41
 70
     0
102
RTVSPropertyOp42
 70
     0
102
RTVSPropertyOp43
 70
     0
102
RTVSPropertyOp44
 70
     0
102
RTVSPropertyOp45
 70
     0
102
RTVSPropertyOp46
 70
     0
102
RTVSPropertyOp47
 70
     0
102
RTVSPropertyOp48
 70
     0
102
RTVSPropertyOp49
 70
     0
102
RTVSPropertyOp50
 70
     0
102
RTVSPropertyOp51
 70
     0
102
RTVSPropertyOp52
 70
     0
102
RTVSPropertyOp53
 70
     0
102
RTVSPropertyOp54
 70
     0
102
RTVSPropertyOp55
 70
     0
102
RTVSPropertyOp56
 70
     0
102
RTVSPropertyOp57
 70
     0
102
RTVSPropertyOp58
 70
     0
102
RTVSPropertyOp59
 70
     0
102
RTVSPropertyOp60
 70
     0
102
RTVSPropertyOp61
 70
     0
102
RTVSPropertyOp62
 70
     0
  0
XRECORD
  5
3B0
102
{ACAD_REACTORS
330
3AF
102
}
330
3AF
100
AcDbXrecord
280
     1
102
RTVSPost2010Prop28
280
     0
102
RTVSPost2010PropOp28
 70
     1
102
RTVSPost2010Prop29
280
     1
102
RTVSPost2010PropOp29
 70
     1
102
RTVSPost2010Prop30
280
     1
102
RTVSPost2010PropOp30
 70
     1
102
RTVSPost2010Prop31
280
     0
102
RTVSPost2010PropOp31
 70
     1
102
RTVSPost2010Prop32
280
     0
102
RTVSPost2010PropOp32
 70
     1
102
RTVSPost2010Prop33
280
     0
102
RTVSPost2010PropOp33
 70
     1
102
RTVSPost2010Prop34
280
     0
102
RTVSPost2010PropOp34
 70
     1
102
RTVSPost2010Prop35
280
     0
102
RTVSPost2010PropOp35
 70
     1
102
RTVSPost2010Prop36
280
     0
102
RTVSPost2010PropOp36
 70
     1
102
RTVSPost2010Prop37
 90
       50
102
RTVSPost2010PropOp37
 70
     1
102
RTVSPost2010Prop38
140
0.0
102
RTVSPost2010PropOp38
 70
     1
102
RTVSPost2010Prop39
140
1.0
102
RTVSPost2010PropOp39
 70
     1
102
RTVSPost2010Prop40
 90
        0
102
RTVSPost2010PropOp40
 70
     1
102
RTVSPost2010Prop41ColorIndex
 90
       18
102
RTVSPost2010Prop41ColorRGB
 90
        0
102
RTVSPost2010PropOp41
 70
     1
102
RTVSPost2010Prop42
 90
       50
102
RTVSPost2010PropOp42
 70
     1
102
RTVSPost2010Prop43
 90
        3
102
RTVSPost2010PropOp43
 70
     1
102
RTVSPost2010Prop44ColorIndex
 90
        5
102
RTVSPost2010Prop44ColorRGB
 90
      255
102
RTVSPost2010PropOp44
 70
     1
102
RTVSPost2010Prop45
280
     0
102
RTVSPost2010PropOp45
 70
     1
102
RTVSPost2010Prop46
 90
       50
102
RTVSPost2010PropOp46
 70
     1
102
RTVSPost2010Prop47
 90
       50
102
RTVSPost2010PropOp47
 70
     1
102
RTVSPost2010Prop48
 90
       50
102
RTVSPost2010PropOp48
 70
     1
102
RTVSPost2010Prop49
280
     0
102
RTVSPost2010PropOp49
 70
     1
102
RTVSPost2010Prop50
 90
       50
102
RTVSPost2010PropOp50
 70
     1
102
RTVSPost2010Prop51ColorIndex
 90
      256
102
RTVSPost2010Prop51ColorRGB
 90
-16777216
102
RTVSPost2010PropOp51
 70
     0
102
RTVSPost2010Prop52
140
1.0
102
RTVSPost2010PropOp52
 70
     0
102
RTVSPost2010Prop53
 90
        2
102
RTVSPost2010PropOp53
 70
     1
102
RTVSPost2010Prop54
  1
strokes_ogs.tif
102
RTVSPost2010PropOp54
 70
     1
102
RTVSPost2010Prop55
280
     0
102
RTVSPost2010PropOp55
 70
     1
102
RTVSPost2010Prop56
140
1.0
102
RTVSPost2010PropOp56
 70
     1
102
RTVSPost2010Prop57
140
1.0
102
RTVSPost2010PropOp57
 70
     1
102
RTVSPropertyOp0
 70
     1
102
RTVSPropertyOp1
 70
     1
102
RTVSPropertyOp2
 70
     1
102
RTVSPropertyOp3
 70
     1
102
RTVSPropertyOp4
 70
     1
102
RTVSPropertyOp5
 70
     1
102
RTVSPropertyOp6
 70
     1
102
RTVSPropertyOp7
 70
     1
102
RTVSPropertyOp8
 70
     1
102
RTVSPropertyOp9
 70
     1
102
RTVSPropertyOp10
 70
     1
102
RTVSPropertyOp11
 70
     1
102
RTVSPropertyOp12
 70
     1
102
RTVSPropertyOp13
 70
     1
102
RTVSPropertyOp14
 70
     1
102
RTVSPropertyOp15
 70
     1
102
RTVSPropertyOp16
 70
     1
102
RTVSPropertyOp17
 70
     1
102
RTVSPropertyOp18
 70
     1
102
RTVSPropertyOp19
 70
     1
102
RTVSPropertyOp20
 70
     1
102
RTVSPropertyOp21
 70
     1
102
RTVSPropertyOp22
 70
     1
102
RTVSPropertyOp23
 70
     1
102
RTVSPropertyOp24
 70
     1
102
RTVSPropertyOp25
 70
     1
102
RTVSPropertyOp26
 70
     1
102
RTVSPropertyOp27
 70
     1
102
RTVSPropertyOp28
 70
     1
102
RTVSPropertyOp29
 70
     1
102
RTVSPropertyOp30
 70
     1
102
RTVSPropertyOp31
 70
     1
102
RTVSPropertyOp32
 70
     1
102
RTVSPropertyOp33
 70
     1
102
RTVSPropertyOp34
 70
     1
102
RTVSPropertyOp35
 70
     1
102
RTVSPropertyOp36
 70
     1
102
RTVSPropertyOp37
 70
     1
102
RTVSPropertyOp38
 70
     1
102
RTVSPropertyOp39
 70
     1
102
RTVSPropertyOp40
 70
     1
102
RTVSPropertyOp41
 70
     1
102
RTVSPropertyOp42
 70
     1
102
RTVSPropertyOp43
 70
     1
102
RTVSPropertyOp44
 70
     1
102
RTVSPropertyOp45
 70
     1
102
RTVSPropertyOp46
 70
     1
102
RTVSPropertyOp47
 70
     1
102
RTVSPropertyOp48
 70
     1
102
RTVSPropertyOp49
 70
     1
102
RTVSPropertyOp50
 70
     1
102
RTVSPropertyOp51
 70
     0
102
RTVSPropertyOp52
 70
     0
102
RTVSPropertyOp53
 70
     1
102
RTVSPropertyOp54
 70
     1
102
RTVSPropertyOp55
 70
     1
102
RTVSPropertyOp56
 70
     1
102
RTVSPropertyOp57
 70
     1
102
RTVSPropertyOp58
 70
     1
102
RTVSPropertyOp59
 70
     1
102
RTVSPropertyOp60
 70
     1
102
RTVSPropertyOp61
 70
     1
102
RTVSPropertyOp62
 70
     1
  0
XRECORD
  5
3C2
102
{ACAD_REACTORS
330
3C1
102
}
330
3C1
100
AcDbXrecord
280
     1
102
RTVSPost2010Prop28
280
     0
102
RTVSPost2010PropOp28
 70
     0
102
RTVSPost2010Prop29
280
     1
102
RTVSPost2010PropOp29
 70
     0
102
RTVSPost2010Prop30
280
     1
102
RTVSPost2010PropOp30
 70
     0
102
RTVSPost2010Prop31
280
     0
102
RTVSPost2010PropOp31
 70
     0
102
RTVSPost2010Prop32
280
     0
102
RTVSPost2010PropOp32
 70
     0
102
RTVSPost2010Prop33
280
     0
102
RTVSPost2010PropOp33
 70
     0
102
RTVSPost2010Prop34
280
     0
102
RTVSPost2010PropOp34
 70
     0
102
RTVSPost2010Prop35
280
     0
102
RTVSPost2010PropOp35
 70
     0
102
RTVSPost2010Prop36
280
     0
102
RTVSPost2010PropOp36
 70
     0
102
RTVSPost2010Prop37
 90
       50
102
RTVSPost2010PropOp37
 70
     0
102
RTVSPost2010Prop38
140
0.0
102
RTVSPost2010PropOp38
 70
     0
102
RTVSPost2010Prop39
140
1.0
102
RTVSPost2010PropOp39
 70
     0
102
RTVSPost2010Prop40
 90
        0
102
RTVSPost2010PropOp40
 70
     0
102
RTVSPost2010Prop41ColorIndex
 90
       18
102
RTVSPost2010Prop41ColorRGB
 90
        0
102
RTVSPost2010PropOp41
 70
     0
102
RTVSPost2010Prop42
 90
       50
102
RTVSPost2010PropOp42
 70
     0
102
RTVSPost2010Prop43
 90
        3
102
RTVSPost2010PropOp43
 70
     0
102
RTVSPost2010Prop44ColorIndex
 90
        5
102
RTVSPost2010Prop44ColorRGB
 90
      255
102
RTVSPost2010PropOp44
 70
     0
102
RTVSPost2010Prop45
280
     0
102
RTVSPost2010PropOp45
 70
     0
102
RTVSPost2010Prop46
 90
       50
102
RTVSPost2010PropOp46
 70
     0
102
RTVSPost2010Prop47
 90
       50
102
RTVSPost2010PropOp47
 70
     0
102
RTVSPost2010Prop48
 90
       50
102
RTVSPost2010PropOp48
 70
     0
102
RTVSPost2010Prop49
280
     0
102
RTVSPost2010PropOp49
 70
     0
102
RTVSPost2010Prop50
 90
       50
102
RTVSPost2010PropOp50
 70
     0
102
RTVSPost2010Prop51ColorIndex
 90
      256
102
RTVSPost2010Prop51ColorRGB
 90
-16777216
102
RTVSPost2010PropOp51
 70
     0
102
RTVSPost2010Prop52
140
1.0
102
RTVSPost2010PropOp52
 70
     0
102
RTVSPost2010Prop53
 90
        2
102
RTVSPost2010PropOp53
 70
     0
102
RTVSPost2010Prop54
  1
strokes_ogs.tif
102
RTVSPost2010PropOp54
 70
     0
102
RTVSPost2010Prop55
280
     0
102
RTVSPost2010PropOp55
 70
     0
102
RTVSPost2010Prop56
140
1.0
102
RTVSPost2010PropOp56
 70
     0
102
RTVSPost2010Prop57
140
1.0
102
RTVSPost2010PropOp57
 70
     0
102
RTVSPropertyOp0
 70
     0
102
RTVSPropertyOp1
 70
     0
102
RTVSPropertyOp2
 70
     0
102
RTVSPropertyOp3
 70
     0
102
RTVSPropertyOp4
 70
     0
102
RTVSPropertyOp5
 70
     0
102
RTVSPropertyOp6
 70
     0
102
RTVSPropertyOp7
 70
     0
102
RTVSPropertyOp8
 70
     0
102
RTVSPropertyOp9
 70
     0
102
RTVSPropertyOp10
 70
     0
102
RTVSPropertyOp11
 70
     0
102
RTVSPropertyOp12
 70
     0
102
RTVSPropertyOp13
 70
     0
102
RTVSPropertyOp14
 70
     2
102
RTVSPropertyOp15
 70
     0
102
RTVSPropertyOp16
 70
     0
102
RTVSPropertyOp17
 70
     0
102
RTVSPropertyOp18
 70
     0
102
RTVSPropertyOp19
 70
     0
102
RTVSPropertyOp20
 70
     0
102
RTVSPropertyOp21
 70
     0
102
RTVSPropertyOp22
 70
     0
102
RTVSPropertyOp23
 70
     0
102
RTVSPropertyOp24
 70
     0
102
RTVSPropertyOp25
 70
     0
102
RTVSPropertyOp26
 70
     0
102
RTVSPropertyOp27
 70
     0
102
RTVSPropertyOp28
 70
     0
102
RTVSPropertyOp29
 70
     0
102
RTVSPropertyOp30
 70
     0
102
RTVSPropertyOp31
 70
     0
102
RTVSPropertyOp32
 70
     0
102
RTVSPropertyOp33
 70
     0
102
RTVSPropertyOp34
 70
     0
102
RTVSPropertyOp35
 70
     0
102
RTVSPropertyOp36
 70
     0
102
RTVSPropertyOp37
 70
     0
102
RTVSPropertyOp38
 70
     0
102
RTVSPropertyOp39
 70
     0
102
RTVSPropertyOp40
 70
     0
102
RTVSPropertyOp41
 70
     0
102
RTVSPropertyOp42
 70
     0
102
RTVSPropertyOp43
 70
     0
102
RTVSPropertyOp44
 70
     0
102
RTVSPropertyOp45
 70
     0
102
RTVSPropertyOp46
 70
     0
102
RTVSPropertyOp47
 70
     0
102
RTVSPropertyOp48
 70
     0
102
RTVSPropertyOp49
 70
     0
102
RTVSPropertyOp50
 70
     0
102
RTVSPropertyOp51
 70
     0
102
RTVSPropertyOp52
 70
     0
102
RTVSPropertyOp53
 70
     0
102
RTVSPropertyOp54
 70
     0
102
RTVSPropertyOp55
 70
     0
102
RTVSPropertyOp56
 70
     0
102
RTVSPropertyOp57
 70
     0
102
RTVSPropertyOp58
 70
     0
102
RTVSPropertyOp59
 70
     0
102
RTVSPropertyOp60
 70
     0
102
RTVSPropertyOp61
 70
     0
102
RTVSPropertyOp62
 70
     0
  0
XRECORD
  5
3A8
102
{ACAD_REACTORS
330
3A7
102
}
330
3A7
100
AcDbXrecord
280
     1
102
RTVSPost2010Prop28
280
     0
102
RTVSPost2010PropOp28
 70
     1
102
RTVSPost2010Prop29
280
     1
102
RTVSPost2010PropOp29
 70
     1
102
RTVSPost2010Prop30
280
     1
102
RTVSPost2010PropOp30
 70
     1
102
RTVSPost2010Prop31
280
     0
102
RTVSPost2010PropOp31
 70
     1
102
RTVSPost2010Prop32
280
     0
102
RTVSPost2010PropOp32
 70
     1
102
RTVSPost2010Prop33
280
     0
102
RTVSPost2010PropOp33
 70
     1
102
RTVSPost2010Prop34
280
     0
102
RTVSPost2010PropOp34
 70
     1
102
RTVSPost2010Prop35
280
     0
102
RTVSPost2010PropOp35
 70
     1
102
RTVSPost2010Prop36
280
     0
102
RTVSPost2010PropOp36
 70
     1
102
RTVSPost2010Prop37
 90
       50
102
RTVSPost2010PropOp37
 70
     1
102
RTVSPost2010Prop38
140
0.0
102
RTVSPost2010PropOp38
 70
     1
102
RTVSPost2010Prop39
140
1.0
102
RTVSPost2010PropOp39
 70
     1
102
RTVSPost2010Prop40
 90
        0
102
RTVSPost2010PropOp40
 70
     1
102
RTVSPost2010Prop41ColorIndex
 90
       18
102
RTVSPost2010Prop41ColorRGB
 90
        0
102
RTVSPost2010PropOp41
 70
     1
102
RTVSPost2010Prop42
 90
       50
102
RTVSPost2010PropOp42
 70
     1
102
RTVSPost2010Prop43
 90
        3
102
RTVSPost2010PropOp43
 70
     1
102
RTVSPost2010Prop44ColorIndex
 90
        5
102
RTVSPost2010Prop44ColorRGB
 90
      255
102
RTVSPost2010PropOp44
 70
     1
102
RTVSPost2010Prop45
280
     0
102
RTVSPost2010PropOp45
 70
     1
102
RTVSPost2010Prop46
 90
       50
102
RTVSPost2010PropOp46
 70
     1
102
RTVSPost2010Prop47
 90
       50
102
RTVSPost2010PropOp47
 70
     1
102
RTVSPost2010Prop48
 90
       50
102
RTVSPost2010PropOp48
 70
     1
102
RTVSPost2010Prop49
280
     0
102
RTVSPost2010PropOp49
 70
     1
102
RTVSPost2010Prop50
 90
       50
102
RTVSPost2010PropOp50
 70
     1
102
RTVSPost2010Prop51ColorIndex
 90
      256
102
RTVSPost2010Prop51ColorRGB
 90
-16777216
102
RTVSPost2010PropOp51
 70
     0
102
RTVSPost2010Prop52
140
1.0
102
RTVSPost2010PropOp52
 70
     0
102
RTVSPost2010Prop53
 90
        2
102
RTVSPost2010PropOp53
 70
     1
102
RTVSPost2010Prop54
  1
strokes_ogs.tif
102
RTVSPost2010PropOp54
 70
     1
102
RTVSPost2010Prop55
280
     0
102
RTVSPost2010PropOp55
 70
     1
102
RTVSPost2010Prop56
140
1.0
102
RTVSPost2010PropOp56
 70
     1
102
RTVSPost2010Prop57
140
1.0
102
RTVSPost2010PropOp57
 70
     1
102
RTVSPropertyOp0
 70
     1
102
RTVSPropertyOp1
 70
     1
102
RTVSPropertyOp2
 70
     1
102
RTVSPropertyOp3
 70
     1
102
RTVSPropertyOp4
 70
     1
102
RTVSPropertyOp5
 70
     1
102
RTVSPropertyOp6
 70
     1
102
RTVSPropertyOp7
 70
     1
102
RTVSPropertyOp8
 70
     1
102
RTVSPropertyOp9
 70
     1
102
RTVSPropertyOp10
 70
     1
102
RTVSPropertyOp11
 70
     1
102
RTVSPropertyOp12
 70
     1
102
RTVSPropertyOp13
 70
     1
102
RTVSPropertyOp14
 70
     1
102
RTVSPropertyOp15
 70
     1
102
RTVSPropertyOp16
 70
     1
102
RTVSPropertyOp17
 70
     1
102
RTVSPropertyOp18
 70
     1
102
RTVSPropertyOp19
 70
     1
102
RTVSPropertyOp20
 70
     1
102
RTVSPropertyOp21
 70
     1
102
RTVSPropertyOp22
 70
     1
102
RTVSPropertyOp23
 70
     1
102
RTVSPropertyOp24
 70
     1
102
RTVSPropertyOp25
 70
     1
102
RTVSPropertyOp26
 70
     1
102
RTVSPropertyOp27
 70
     1
102
RTVSPropertyOp28
 70
     1
102
RTVSPropertyOp29
 70
     1
102
RTVSPropertyOp30
 70
     1
102
RTVSPropertyOp31
 70
     1
102
RTVSPropertyOp32
 70
     1
102
RTVSPropertyOp33
 70
     1
102
RTVSPropertyOp34
 70
     1
102
RTVSPropertyOp35
 70
     1
102
RTVSPropertyOp36
 70
     1
102
RTVSPropertyOp37
 70
     1
102
RTVSPropertyOp38
 70
     1
102
RTVSPropertyOp39
 70
     1
102
RTVSPropertyOp40
 70
     1
102
RTVSPropertyOp41
 70
     1
102
RTVSPropertyOp42
 70
     1
102
RTVSPropertyOp43
 70
     1
102
RTVSPropertyOp44
 70
     1
102
RTVSPropertyOp45
 70
     1
102
RTVSPropertyOp46
 70
     1
102
RTVSPropertyOp47
 70
     1
102
RTVSPropertyOp48
 70
     1
102
RTVSPropertyOp49
 70
     1
102
RTVSPropertyOp50
 70
     1
102
RTVSPropertyOp51
 70
     0
102
RTVSPropertyOp52
 70
     0
102
RTVSPropertyOp53
 70
     1
102
RTVSPropertyOp54
 70
     1
102
RTVSPropertyOp55
 70
     1
102
RTVSPropertyOp56
 70
     1
102
RTVSPropertyOp57
 70
     1
102
RTVSPropertyOp58
 70
     1
102
RTVSPropertyOp59
 70
     1
102
RTVSPropertyOp60
 70
     1
102
RTVSPropertyOp61
 70
     1
102
RTVSPropertyOp62
 70
     1
  0
XRECORD
  5
3BE
102
{ACAD_REACTORS
330
3BD
102
}
330
3BD
100
AcDbXrecord
280
     1
102
RTVSPost2010Prop28
280
     0
102
RTVSPost2010PropOp28
 70
     1
102
RTVSPost2010Prop29
280
     1
102
RTVSPost2010PropOp29
 70
     1
102
RTVSPost2010Prop30
280
     1
102
RTVSPost2010PropOp30
 70
     1
102
RTVSPost2010Prop31
280
     0
102
RTVSPost2010PropOp31
 70
     1
102
RTVSPost2010Prop32
280
     0
102
RTVSPost2010PropOp32
 70
     1
102
RTVSPost2010Prop33
280
     0
102
RTVSPost2010PropOp33
 70
     1
102
RTVSPost2010Prop34
280
     0
102
RTVSPost2010PropOp34
 70
     1
102
RTVSPost2010Prop35
280
     0
102
RTVSPost2010PropOp35
 70
     1
102
RTVSPost2010Prop36
280
     0
102
RTVSPost2010PropOp36
 70
     1
102
RTVSPost2010Prop37
 90
       50
102
RTVSPost2010PropOp37
 70
     1
102
RTVSPost2010Prop38
140
0.0
102
RTVSPost2010PropOp38
 70
     1
102
RTVSPost2010Prop39
140
1.0
102
RTVSPost2010PropOp39
 70
     1
102
RTVSPost2010Prop40
 90
        0
102
RTVSPost2010PropOp40
 70
     1
102
RTVSPost2010Prop41ColorIndex
 90
       18
102
RTVSPost2010Prop41ColorRGB
 90
        0
102
RTVSPost2010PropOp41
 70
     1
102
RTVSPost2010Prop42
 90
       50
102
RTVSPost2010PropOp42
 70
     1
102
RTVSPost2010Prop43
 90
        3
102
RTVSPost2010PropOp43
 70
     1
102
RTVSPost2010Prop44ColorIndex
 90
        5
102
RTVSPost2010Prop44ColorRGB
 90
      255
102
RTVSPost2010PropOp44
 70
     1
102
RTVSPost2010Prop45
280
     0
102
RTVSPost2010PropOp45
 70
     1
102
RTVSPost2010Prop46
 90
       50
102
RTVSPost2010PropOp46
 70
     1
102
RTVSPost2010Prop47
 90
       50
102
RTVSPost2010PropOp47
 70
     1
102
RTVSPost2010Prop48
 90
       50
102
RTVSPost2010PropOp48
 70
     1
102
RTVSPost2010Prop49
280
     0
102
RTVSPost2010PropOp49
 70
     1
102
RTVSPost2010Prop50
 90
       50
102
RTVSPost2010PropOp50
 70
     1
102
RTVSPost2010Prop51ColorIndex
 90
      256
102
RTVSPost2010Prop51ColorRGB
 90
-16777216
102
RTVSPost2010PropOp51
 70
     0
102
RTVSPost2010Prop52
140
1.0
102
RTVSPost2010PropOp52
 70
     0
102
RTVSPost2010Prop53
 90
        2
102
RTVSPost2010PropOp53
 70
     1
102
RTVSPost2010Prop54
  1
strokes_ogs.tif
102
RTVSPost2010PropOp54
 70
     1
102
RTVSPost2010Prop55
280
     0
102
RTVSPost2010PropOp55
 70
     1
102
RTVSPost2010Prop56
140
1.0
102
RTVSPost2010PropOp56
 70
     1
102
RTVSPost2010Prop57
140
1.0
102
RTVSPost2010PropOp57
 70
     1
102
RTVSPropertyOp0
 70
     1
102
RTVSPropertyOp1
 70
     1
102
RTVSPropertyOp2
 70
     1
102
RTVSPropertyOp3
 70
     1
102
RTVSPropertyOp4
 70
     1
102
RTVSPropertyOp5
 70
     1
102
RTVSPropertyOp6
 70
     1
102
RTVSPropertyOp7
 70
     1
102
RTVSPropertyOp8
 70
     1
102
RTVSPropertyOp9
 70
     1
102
RTVSPropertyOp10
 70
     1
102
RTVSPropertyOp11
 70
     1
102
RTVSPropertyOp12
 70
     1
102
RTVSPropertyOp13
 70
     1
102
RTVSPropertyOp14
 70
     1
102
RTVSPropertyOp15
 70
     1
102
RTVSPropertyOp16
 70
     1
102
RTVSPropertyOp17
 70
     1
102
RTVSPropertyOp18
 70
     1
102
RTVSPropertyOp19
 70
     1
102
RTVSPropertyOp20
 70
     1
102
RTVSPropertyOp21
 70
     1
102
RTVSPropertyOp22
 70
     1
102
RTVSPropertyOp23
 70
     1
102
RTVSPropertyOp24
 70
     1
102
RTVSPropertyOp25
 70
     1
102
RTVSPropertyOp26
 70
     1
102
RTVSPropertyOp27
 70
     1
102
RTVSPropertyOp28
 70
     1
102
RTVSPropertyOp29
 70
     1
102
RTVSPropertyOp30
 70
     1
102
RTVSPropertyOp31
 70
     1
102
RTVSPropertyOp32
 70
     1
102
RTVSPropertyOp33
 70
     1
102
RTVSPropertyOp34
 70
     1
102
RTVSPropertyOp35
 70
     1
102
RTVSPropertyOp36
 70
     1
102
RTVSPropertyOp37
 70
     1
102
RTVSPropertyOp38
 70
     1
102
RTVSPropertyOp39
 70
     1
102
RTVSPropertyOp40
 70
     1
102
RTVSPropertyOp41
 70
     1
102
RTVSPropertyOp42
 70
     1
102
RTVSPropertyOp43
 70
     1
102
RTVSPropertyOp44
 70
     1
102
RTVSPropertyOp45
 70
     1
102
RTVSPropertyOp46
 70
     1
102
RTVSPropertyOp47
 70
     1
102
RTVSPropertyOp48
 70
     1
102
RTVSPropertyOp49
 70
     1
102
RTVSPropertyOp50
 70
     1
102
RTVSPropertyOp51
 70
     0
102
RTVSPropertyOp52
 70
     0
102
RTVSPropertyOp53
 70
     1
102
RTVSPropertyOp54
 70
     1
102
RTVSPropertyOp55
 70
     1
102
RTVSPropertyOp56
 70
     1
102
RTVSPropertyOp57
 70
     1
102
RTVSPropertyOp58
 70
     1
102
RTVSPropertyOp59
 70
     1
102
RTVSPropertyOp60
 70
     1
102
RTVSPropertyOp61
 70
     1
102
RTVSPropertyOp62
 70
     1
  0
XRECORD
  5
3BC
102
{ACAD_REACTORS
330
3BB
102
}
330
3BB
100
AcDbXrecord
280
     1
102
RTVSPost2010Prop28
280
     0
102
RTVSPost2010PropOp28
 70
     1
102
RTVSPost2010Prop29
280
     1
102
RTVSPost2010PropOp29
 70
     1
102
RTVSPost2010Prop30
280
     1
102
RTVSPost2010PropOp30
 70
     1
102
RTVSPost2010Prop31
280
     0
102
RTVSPost2010PropOp31
 70
     1
102
RTVSPost2010Prop32
280
     0
102
RTVSPost2010PropOp32
 70
     1
102
RTVSPost2010Prop33
280
     0
102
RTVSPost2010PropOp33
 70
     1
102
RTVSPost2010Prop34
280
     0
102
RTVSPost2010PropOp34
 70
     1
102
RTVSPost2010Prop35
280
     0
102
RTVSPost2010PropOp35
 70
     1
102
RTVSPost2010Prop36
280
     0
102
RTVSPost2010PropOp36
 70
     1
102
RTVSPost2010Prop37
 90
       50
102
RTVSPost2010PropOp37
 70
     1
102
RTVSPost2010Prop38
140
0.0
102
RTVSPost2010PropOp38
 70
     1
102
RTVSPost2010Prop39
140
1.0
102
RTVSPost2010PropOp39
 70
     1
102
RTVSPost2010Prop40
 90
        0
102
RTVSPost2010PropOp40
 70
     1
102
RTVSPost2010Prop41ColorIndex
 90
       18
102
RTVSPost2010Prop41ColorRGB
 90
        0
102
RTVSPost2010PropOp41
 70
     1
102
RTVSPost2010Prop42
 90
       50
102
RTVSPost2010PropOp42
 70
     1
102
RTVSPost2010Prop43
 90
        3
102
RTVSPost2010PropOp43
 70
     1
102
RTVSPost2010Prop44ColorIndex
 90
        5
102
RTVSPost2010Prop44ColorRGB
 90
      255
102
RTVSPost2010PropOp44
 70
     1
102
RTVSPost2010Prop45
280
     0
102
RTVSPost2010PropOp45
 70
     1
102
RTVSPost2010Prop46
 90
       50
102
RTVSPost2010PropOp46
 70
     1
102
RTVSPost2010Prop47
 90
       50
102
RTVSPost2010PropOp47
 70
     1
102
RTVSPost2010Prop48
 90
       50
102
RTVSPost2010PropOp48
 70
     1
102
RTVSPost2010Prop49
280
     0
102
RTVSPost2010PropOp49
 70
     1
102
RTVSPost2010Prop50
 90
       50
102
RTVSPost2010PropOp50
 70
     1
102
RTVSPost2010Prop51ColorIndex
 90
      256
102
RTVSPost2010Prop51ColorRGB
 90
-16777216
102
RTVSPost2010PropOp51
 70
     0
102
RTVSPost2010Prop52
140
1.0
102
RTVSPost2010PropOp52
 70
     0
102
RTVSPost2010Prop53
 90
        2
102
RTVSPost2010PropOp53
 70
     1
102
RTVSPost2010Prop54
  1
strokes_ogs.tif
102
RTVSPost2010PropOp54
 70
     1
102
RTVSPost2010Prop55
280
     0
102
RTVSPost2010PropOp55
 70
     1
102
RTVSPost2010Prop56
140
1.0
102
RTVSPost2010PropOp56
 70
     1
102
RTVSPost2010Prop57
140
1.0
102
RTVSPost2010PropOp57
 70
     1
102
RTVSPropertyOp0
 70
     1
102
RTVSPropertyOp1
 70
     1
102
RTVSPropertyOp2
 70
     1
102
RTVSPropertyOp3
 70
     1
102
RTVSPropertyOp4
 70
     1
102
RTVSPropertyOp5
 70
     1
102
RTVSPropertyOp6
 70
     1
102
RTVSPropertyOp7
 70
     1
102
RTVSPropertyOp8
 70
     1
102
RTVSPropertyOp9
 70
     1
102
RTVSPropertyOp10
 70
     1
102
RTVSPropertyOp11
 70
     1
102
RTVSPropertyOp12
 70
     1
102
RTVSPropertyOp13
 70
     1
102
RTVSPropertyOp14
 70
     1
102
RTVSPropertyOp15
 70
     1
102
RTVSPropertyOp16
 70
     1
102
RTVSPropertyOp17
 70
     1
102
RTVSPropertyOp18
 70
     1
102
RTVSPropertyOp19
 70
     1
102
RTVSPropertyOp20
 70
     1
102
RTVSPropertyOp21
 70
     1
102
RTVSPropertyOp22
 70
     1
102
RTVSPropertyOp23
 70
     1
102
RTVSPropertyOp24
 70
     1
102
RTVSPropertyOp25
 70
     1
102
RTVSPropertyOp26
 70
     1
102
RTVSPropertyOp27
 70
     1
102
RTVSPropertyOp28
 70
     1
102
RTVSPropertyOp29
 70
     1
102
RTVSPropertyOp30
 70
     1
102
RTVSPropertyOp31
 70
     1
102
RTVSPropertyOp32
 70
     1
102
RTVSPropertyOp33
 70
     1
102
RTVSPropertyOp34
 70
     1
102
RTVSPropertyOp35
 70
     1
102
RTVSPropertyOp36
 70
     1
102
RTVSPropertyOp37
 70
     1
102
RTVSPropertyOp38
 70
     1
102
RTVSPropertyOp39
 70
     1
102
RTVSPropertyOp40
 70
     1
102
RTVSPropertyOp41
 70
     1
102
RTVSPropertyOp42
 70
     1
102
RTVSPropertyOp43
 70
     1
102
RTVSPropertyOp44
 70
     1
102
RTVSPropertyOp45
 70
     1
102
RTVSPropertyOp46
 70
     1
102
RTVSPropertyOp47
 70
     1
102
RTVSPropertyOp48
 70
     1
102
RTVSPropertyOp49
 70
     1
102
RTVSPropertyOp50
 70
     1
102
RTVSPropertyOp51
 70
     0
102
RTVSPropertyOp52
 70
     0
102
RTVSPropertyOp53
 70
     1
102
RTVSPropertyOp54
 70
     1
102
RTVSPropertyOp55
 70
     1
102
RTVSPropertyOp56
 70
     1
102
RTVSPropertyOp57
 70
     1
102
RTVSPropertyOp58
 70
     1
102
RTVSPropertyOp59
 70
     1
102
RTVSPropertyOp60
 70
     1
102
RTVSPropertyOp61
 70
     1
102
RTVSPropertyOp62
 70
     1
  0
XRECORD
  5
3B6
102
{ACAD_REACTORS
330
3B5
102
}
330
3B5
100
AcDbXrecord
280
     1
102
RTVSPost2010Prop28
280
     0
102
RTVSPost2010PropOp28
 70
     1
102
RTVSPost2010Prop29
280
     1
102
RTVSPost2010PropOp29
 70
     1
102
RTVSPost2010Prop30
280
     1
102
RTVSPost2010PropOp30
 70
     1
102
RTVSPost2010Prop31
280
     0
102
RTVSPost2010PropOp31
 70
     1
102
RTVSPost2010Prop32
280
     0
102
RTVSPost2010PropOp32
 70
     1
102
RTVSPost2010Prop33
280
     0
102
RTVSPost2010PropOp33
 70
     1
102
RTVSPost2010Prop34
280
     0
102
RTVSPost2010PropOp34
 70
     1
102
RTVSPost2010Prop35
280
     0
102
RTVSPost2010PropOp35
 70
     1
102
RTVSPost2010Prop36
280
     0
102
RTVSPost2010PropOp36
 70
     1
102
RTVSPost2010Prop37
 90
       50
102
RTVSPost2010PropOp37
 70
     1
102
RTVSPost2010Prop38
140
0.0
102
RTVSPost2010PropOp38
 70
     1
102
RTVSPost2010Prop39
140
1.0
102
RTVSPost2010PropOp39
 70
     1
102
RTVSPost2010Prop40
 90
        0
102
RTVSPost2010PropOp40
 70
     1
102
RTVSPost2010Prop41ColorIndex
 90
       18
102
RTVSPost2010Prop41ColorRGB
 90
        0
102
RTVSPost2010PropOp41
 70
     1
102
RTVSPost2010Prop42
 90
       50
102
RTVSPost2010PropOp42
 70
     1
102
RTVSPost2010Prop43
 90
        3
102
RTVSPost2010PropOp43
 70
     1
102
RTVSPost2010Prop44ColorIndex
 90
        5
102
RTVSPost2010Prop44ColorRGB
 90
      255
102
RTVSPost2010PropOp44
 70
     1
102
RTVSPost2010Prop45
280
     0
102
RTVSPost2010PropOp45
 70
     1
102
RTVSPost2010Prop46
 90
       50
102
RTVSPost2010PropOp46
 70
     1
102
RTVSPost2010Prop47
 90
       50
102
RTVSPost2010PropOp47
 70
     1
102
RTVSPost2010Prop48
 90
       50
102
RTVSPost2010PropOp48
 70
     1
102
RTVSPost2010Prop49
280
     0
102
RTVSPost2010PropOp49
 70
     1
102
RTVSPost2010Prop50
 90
       50
102
RTVSPost2010PropOp50
 70
     1
102
RTVSPost2010Prop51ColorIndex
 90
      256
102
RTVSPost2010Prop51ColorRGB
 90
-16777216
102
RTVSPost2010PropOp51
 70
     0
102
RTVSPost2010Prop52
140
1.0
102
RTVSPost2010PropOp52
 70
     0
102
RTVSPost2010Prop53
 90
        2
102
RTVSPost2010PropOp53
 70
     1
102
RTVSPost2010Prop54
  1
strokes_ogs.tif
102
RTVSPost2010PropOp54
 70
     1
102
RTVSPost2010Prop55
280
     0
102
RTVSPost2010PropOp55
 70
     1
102
RTVSPost2010Prop56
140
1.0
102
RTVSPost2010PropOp56
 70
     1
102
RTVSPost2010Prop57
140
1.0
102
RTVSPost2010PropOp57
 70
     1
102
RTVSPropertyOp0
 70
     1
102
RTVSPropertyOp1
 70
     1
102
RTVSPropertyOp2
 70
     1
102
RTVSPropertyOp3
 70
     1
102
RTVSPropertyOp4
 70
     1
102
RTVSPropertyOp5
 70
     1
102
RTVSPropertyOp6
 70
     1
102
RTVSPropertyOp7
 70
     1
102
RTVSPropertyOp8
 70
     1
102
RTVSPropertyOp9
 70
     1
102
RTVSPropertyOp10
 70
     1
102
RTVSPropertyOp11
 70
     1
102
RTVSPropertyOp12
 70
     1
102
RTVSPropertyOp13
 70
     1
102
RTVSPropertyOp14
 70
     1
102
RTVSPropertyOp15
 70
     1
102
RTVSPropertyOp16
 70
     1
102
RTVSPropertyOp17
 70
     1
102
RTVSPropertyOp18
 70
     1
102
RTVSPropertyOp19
 70
     1
102
RTVSPropertyOp20
 70
     1
102
RTVSPropertyOp21
 70
     1
102
RTVSPropertyOp22
 70
     1
102
RTVSPropertyOp23
 70
     1
102
RTVSPropertyOp24
 70
     1
102
RTVSPropertyOp25
 70
     1
102
RTVSPropertyOp26
 70
     1
102
RTVSPropertyOp27
 70
     1
102
RTVSPropertyOp28
 70
     1
102
RTVSPropertyOp29
 70
     1
102
RTVSPropertyOp30
 70
     1
102
RTVSPropertyOp31
 70
     1
102
RTVSPropertyOp32
 70
     1
102
RTVSPropertyOp33
 70
     1
102
RTVSPropertyOp34
 70
     1
102
RTVSPropertyOp35
 70
     1
102
RTVSPropertyOp36
 70
     1
102
RTVSPropertyOp37
 70
     1
102
RTVSPropertyOp38
 70
     1
102
RTVSPropertyOp39
 70
     1
102
RTVSPropertyOp40
 70
     1
102
RTVSPropertyOp41
 70
     1
102
RTVSPropertyOp42
 70
     1
102
RTVSPropertyOp43
 70
     1
102
RTVSPropertyOp44
 70
     1
102
RTVSPropertyOp45
 70
     1
102
RTVSPropertyOp46
 70
     1
102
RTVSPropertyOp47
 70
     1
102
RTVSPropertyOp48
 70
     1
102
RTVSPropertyOp49
 70
     1
102
RTVSPropertyOp50
 70
     1
102
RTVSPropertyOp51
 70
     0
102
RTVSPropertyOp52
 70
     0
102
RTVSPropertyOp53
 70
     1
102
RTVSPropertyOp54
 70
     1
102
RTVSPropertyOp55
 70
     1
102
RTVSPropertyOp56
 70
     1
102
RTVSPropertyOp57
 70
     1
102
RTVSPropertyOp58
 70
     1
102
RTVSPropertyOp59
 70
     1
102
RTVSPropertyOp60
 70
     1
102
RTVSPropertyOp61
 70
     1
102
RTVSPropertyOp62
 70
     1
  0
XRECORD
  5
3B8
102
{ACAD_REACTORS
330
3B7
102
}
330
3B7
100
AcDbXrecord
280
     1
102
RTVSPost2010Prop28
280
     0
102
RTVSPost2010PropOp28
 70
     1
102
RTVSPost2010Prop29
280
     1
102
RTVSPost2010PropOp29
 70
     1
102
RTVSPost2010Prop30
280
     1
102
RTVSPost2010PropOp30
 70
     1
102
RTVSPost2010Prop31
280
     0
102
RTVSPost2010PropOp31
 70
     1
102
RTVSPost2010Prop32
280
     0
102
RTVSPost2010PropOp32
 70
     1
102
RTVSPost2010Prop33
280
     0
102
RTVSPost2010PropOp33
 70
     1
102
RTVSPost2010Prop34
280
     0
102
RTVSPost2010PropOp34
 70
     1
102
RTVSPost2010Prop35
280
     0
102
RTVSPost2010PropOp35
 70
     1
102
RTVSPost2010Prop36
280
     0
102
RTVSPost2010PropOp36
 70
     1
102
RTVSPost2010Prop37
 90
       50
102
RTVSPost2010PropOp37
 70
     1
102
RTVSPost2010Prop38
140
0.0
102
RTVSPost2010PropOp38
 70
     1
102
RTVSPost2010Prop39
140
1.0
102
RTVSPost2010PropOp39
 70
     1
102
RTVSPost2010Prop40
 90
        0
102
RTVSPost2010PropOp40
 70
     1
102
RTVSPost2010Prop41ColorIndex
 90
       18
102
RTVSPost2010Prop41ColorRGB
 90
        0
102
RTVSPost2010PropOp41
 70
     1
102
RTVSPost2010Prop42
 90
       50
102
RTVSPost2010PropOp42
 70
     1
102
RTVSPost2010Prop43
 90
        3
102
RTVSPost2010PropOp43
 70
     1
102
RTVSPost2010Prop44ColorIndex
 90
        5
102
RTVSPost2010Prop44ColorRGB
 90
      255
102
RTVSPost2010PropOp44
 70
     1
102
RTVSPost2010Prop45
280
     0
102
RTVSPost2010PropOp45
 70
     1
102
RTVSPost2010Prop46
 90
       50
102
RTVSPost2010PropOp46
 70
     1
102
RTVSPost2010Prop47
 90
       50
102
RTVSPost2010PropOp47
 70
     1
102
RTVSPost2010Prop48
 90
       50
102
RTVSPost2010PropOp48
 70
     1
102
RTVSPost2010Prop49
280
     0
102
RTVSPost2010PropOp49
 70
     1
102
RTVSPost2010Prop50
 90
       50
102
RTVSPost2010PropOp50
 70
     1
102
RTVSPost2010Prop51ColorIndex
 90
      256
102
RTVSPost2010Prop51ColorRGB
 90
-16777216
102
RTVSPost2010PropOp51
 70
     0
102
RTVSPost2010Prop52
140
1.0
102
RTVSPost2010PropOp52
 70
     0
102
RTVSPost2010Prop53
 90
        2
102
RTVSPost2010PropOp53
 70
     1
102
RTVSPost2010Prop54
  1
strokes_ogs.tif
102
RTVSPost2010PropOp54
 70
     1
102
RTVSPost2010Prop55
280
     0
102
RTVSPost2010PropOp55
 70
     1
102
RTVSPost2010Prop56
140
1.0
102
RTVSPost2010PropOp56
 70
     1
102
RTVSPost2010Prop57
140
1.0
102
RTVSPost2010PropOp57
 70
     1
102
RTVSPropertyOp0
 70
     1
102
RTVSPropertyOp1
 70
     1
102
RTVSPropertyOp2
 70
     1
102
RTVSPropertyOp3
 70
     1
102
RTVSPropertyOp4
 70
     1
102
RTVSPropertyOp5
 70
     1
102
RTVSPropertyOp6
 70
     1
102
RTVSPropertyOp7
 70
     1
102
RTVSPropertyOp8
 70
     1
102
RTVSPropertyOp9
 70
     1
102
RTVSPropertyOp10
 70
     1
102
RTVSPropertyOp11
 70
     1
102
RTVSPropertyOp12
 70
     1
102
RTVSPropertyOp13
 70
     1
102
RTVSPropertyOp14
 70
     1
102
RTVSPropertyOp15
 70
     1
102
RTVSPropertyOp16
 70
     1
102
RTVSPropertyOp17
 70
     1
102
RTVSPropertyOp18
 70
     1
102
RTVSPropertyOp19
 70
     1
102
RTVSPropertyOp20
 70
     1
102
RTVSPropertyOp21
 70
     1
102
RTVSPropertyOp22
 70
     1
102
RTVSPropertyOp23
 70
     1
102
RTVSPropertyOp24
 70
     1
102
RTVSPropertyOp25
 70
     1
102
RTVSPropertyOp26
 70
     1
102
RTVSPropertyOp27
 70
     1
102
RTVSPropertyOp28
 70
     1
102
RTVSPropertyOp29
 70
     1
102
RTVSPropertyOp30
 70
     1
102
RTVSPropertyOp31
 70
     1
102
RTVSPropertyOp32
 70
     1
102
RTVSPropertyOp33
 70
     1
102
RTVSPropertyOp34
 70
     1
102
RTVSPropertyOp35
 70
     1
102
RTVSPropertyOp36
 70
     1
102
RTVSPropertyOp37
 70
     1
102
RTVSPropertyOp38
 70
     1
102
RTVSPropertyOp39
 70
     1
102
RTVSPropertyOp40
 70
     1
102
RTVSPropertyOp41
 70
     1
102
RTVSPropertyOp42
 70
     1
102
RTVSPropertyOp43
 70
     1
102
RTVSPropertyOp44
 70
     1
102
RTVSPropertyOp45
 70
     1
102
RTVSPropertyOp46
 70
     1
102
RTVSPropertyOp47
 70
     1
102
RTVSPropertyOp48
 70
     1
102
RTVSPropertyOp49
 70
     1
102
RTVSPropertyOp50
 70
     1
102
RTVSPropertyOp51
 70
     0
102
RTVSPropertyOp52
 70
     0
102
RTVSPropertyOp53
 70
     1
102
RTVSPropertyOp54
 70
     1
102
RTVSPropertyOp55
 70
     1
102
RTVSPropertyOp56
 70
     1
102
RTVSPropertyOp57
 70
     1
102
RTVSPropertyOp58
 70
     1
102
RTVSPropertyOp59
 70
     1
102
RTVSPropertyOp60
 70
     1
102
RTVSPropertyOp61
 70
     1
102
RTVSPropertyOp62
 70
     1
  0
XRECORD
  5
3AE
102
{ACAD_REACTORS
330
3AD
102
}
330
3AD
100
AcDbXrecord
280
     1
102
RTVSPost2010Prop28
280
     0
102
RTVSPost2010PropOp28
 70
     1
102
RTVSPost2010Prop29
280
     1
102
RTVSPost2010PropOp29
 70
     1
102
RTVSPost2010Prop30
280
     1
102
RTVSPost2010PropOp30
 70
     1
102
RTVSPost2010Prop31
280
     0
102
RTVSPost2010PropOp31
 70
     1
102
RTVSPost2010Prop32
280
     0
102
RTVSPost2010PropOp32
 70
     1
102
RTVSPost2010Prop33
280
     0
102
RTVSPost2010PropOp33
 70
     1
102
RTVSPost2010Prop34
280
     0
102
RTVSPost2010PropOp34
 70
     1
102
RTVSPost2010Prop35
280
     0
102
RTVSPost2010PropOp35
 70
     1
102
RTVSPost2010Prop36
280
     0
102
RTVSPost2010PropOp36
 70
     1
102
RTVSPost2010Prop37
 90
       50
102
RTVSPost2010PropOp37
 70
     1
102
RTVSPost2010Prop38
140
0.0
102
RTVSPost2010PropOp38
 70
     1
102
RTVSPost2010Prop39
140
1.0
102
RTVSPost2010PropOp39
 70
     1
102
RTVSPost2010Prop40
 90
        0
102
RTVSPost2010PropOp40
 70
     1
102
RTVSPost2010Prop41ColorIndex
 90
       18
102
RTVSPost2010Prop41ColorRGB
 90
        0
102
RTVSPost2010PropOp41
 70
     1
102
RTVSPost2010Prop42
 90
       50
102
RTVSPost2010PropOp42
 70
     1
102
RTVSPost2010Prop43
 90
        3
102
RTVSPost2010PropOp43
 70
     1
102
RTVSPost2010Prop44ColorIndex
 90
        5
102
RTVSPost2010Prop44ColorRGB
 90
      255
102
RTVSPost2010PropOp44
 70
     1
102
RTVSPost2010Prop45
280
     0
102
RTVSPost2010PropOp45
 70
     1
102
RTVSPost2010Prop46
 90
       50
102
RTVSPost2010PropOp46
 70
     1
102
RTVSPost2010Prop47
 90
       50
102
RTVSPost2010PropOp47
 70
     1
102
RTVSPost2010Prop48
 90
       50
102
RTVSPost2010PropOp48
 70
     1
102
RTVSPost2010Prop49
280
     0
102
RTVSPost2010PropOp49
 70
     1
102
RTVSPost2010Prop50
 90
       50
102
RTVSPost2010PropOp50
 70
     1
102
RTVSPost2010Prop51ColorIndex
 90
      256
102
RTVSPost2010Prop51ColorRGB
 90
-16777216
102
RTVSPost2010PropOp51
 70
     0
102
RTVSPost2010Prop52
140
1.0
102
RTVSPost2010PropOp52
 70
     0
102
RTVSPost2010Prop53
 90
        2
102
RTVSPost2010PropOp53
 70
     1
102
RTVSPost2010Prop54
  1
strokes_ogs.tif
102
RTVSPost2010PropOp54
 70
     1
102
RTVSPost2010Prop55
280
     0
102
RTVSPost2010PropOp55
 70
     1
102
RTVSPost2010Prop56
140
1.0
102
RTVSPost2010PropOp56
 70
     1
102
RTVSPost2010Prop57
140
1.0
102
RTVSPost2010PropOp57
 70
     1
102
RTVSPropertyOp0
 70
     1
102
RTVSPropertyOp1
 70
     1
102
RTVSPropertyOp2
 70
     1
102
RTVSPropertyOp3
 70
     1
102
RTVSPropertyOp4
 70
     1
102
RTVSPropertyOp5
 70
     1
102
RTVSPropertyOp6
 70
     1
102
RTVSPropertyOp7
 70
     1
102
RTVSPropertyOp8
 70
     1
102
RTVSPropertyOp9
 70
     1
102
RTVSPropertyOp10
 70
     1
102
RTVSPropertyOp11
 70
     1
102
RTVSPropertyOp12
 70
     1
102
RTVSPropertyOp13
 70
     1
102
RTVSPropertyOp14
 70
     1
102
RTVSPropertyOp15
 70
     1
102
RTVSPropertyOp16
 70
     1
102
RTVSPropertyOp17
 70
     1
102
RTVSPropertyOp18
 70
     1
102
RTVSPropertyOp19
 70
     1
102
RTVSPropertyOp20
 70
     1
102
RTVSPropertyOp21
 70
     1
102
RTVSPropertyOp22
 70
     1
102
RTVSPropertyOp23
 70
     1
102
RTVSPropertyOp24
 70
     1
102
RTVSPropertyOp25
 70
     1
102
RTVSPropertyOp26
 70
     1
102
RTVSPropertyOp27
 70
     1
102
RTVSPropertyOp28
 70
     1
102
RTVSPropertyOp29
 70
     1
102
RTVSPropertyOp30
 70
     1
102
RTVSPropertyOp31
 70
     1
102
RTVSPropertyOp32
 70
     1
102
RTVSPropertyOp33
 70
     1
102
RTVSPropertyOp34
 70
     1
102
RTVSPropertyOp35
 70
     1
102
RTVSPropertyOp36
 70
     1
102
RTVSPropertyOp37
 70
     1
102
RTVSPropertyOp38
 70
     1
102
RTVSPropertyOp39
 70
     1
102
RTVSPropertyOp40
 70
     1
102
RTVSPropertyOp41
 70
     1
102
RTVSPropertyOp42
 70
     1
102
RTVSPropertyOp43
 70
     1
102
RTVSPropertyOp44
 70
     1
102
RTVSPropertyOp45
 70
     1
102
RTVSPropertyOp46
 70
     1
102
RTVSPropertyOp47
 70
     1
102
RTVSPropertyOp48
 70
     1
102
RTVSPropertyOp49
 70
     1
102
RTVSPropertyOp50
 70
     1
102
RTVSPropertyOp51
 70
     0
102
RTVSPropertyOp52
 70
     0
102
RTVSPropertyOp53
 70
     1
102
RTVSPropertyOp54
 70
     1
102
RTVSPropertyOp55
 70
     1
102
RTVSPropertyOp56
 70
     1
102
RTVSPropertyOp57
 70
     1
102
RTVSPropertyOp58
 70
     1
102
RTVSPropertyOp59
 70
     1
102
RTVSPropertyOp60
 70
     1
102
RTVSPropertyOp61
 70
     1
102
RTVSPropertyOp62
 70
     1
  0
XRECORD
  5
3A2
102
{ACAD_REACTORS
330
3A1
102
}
330
3A1
100
AcDbXrecord
280
     1
102
RTVSPost2010Prop28
280
     0
102
RTVSPost2010PropOp28
 70
     1
102
RTVSPost2010Prop29
280
     1
102
RTVSPost2010PropOp29
 70
     1
102
RTVSPost2010Prop30
280
     1
102
RTVSPost2010PropOp30
 70
     1
102
RTVSPost2010Prop31
280
     0
102
RTVSPost2010PropOp31
 70
     1
102
RTVSPost2010Prop32
280
     0
102
RTVSPost2010PropOp32
 70
     1
102
RTVSPost2010Prop33
280
     0
102
RTVSPost2010PropOp33
 70
     1
102
RTVSPost2010Prop34
280
     0
102
RTVSPost2010PropOp34
 70
     1
102
RTVSPost2010Prop35
280
     0
102
RTVSPost2010PropOp35
 70
     1
102
RTVSPost2010Prop36
280
     0
102
RTVSPost2010PropOp36
 70
     1
102
RTVSPost2010Prop37
 90
       50
102
RTVSPost2010PropOp37
 70
     1
102
RTVSPost2010Prop38
140
0.0
102
RTVSPost2010PropOp38
 70
     1
102
RTVSPost2010Prop39
140
1.0
102
RTVSPost2010PropOp39
 70
     1
102
RTVSPost2010Prop40
 90
        0
102
RTVSPost2010PropOp40
 70
     1
102
RTVSPost2010Prop41ColorIndex
 90
       18
102
RTVSPost2010Prop41ColorRGB
 90
        0
102
RTVSPost2010PropOp41
 70
     1
102
RTVSPost2010Prop42
 90
       50
102
RTVSPost2010PropOp42
 70
     1
102
RTVSPost2010Prop43
 90
        3
102
RTVSPost2010PropOp43
 70
     1
102
RTVSPost2010Prop44ColorIndex
 90
        5
102
RTVSPost2010Prop44ColorRGB
 90
      255
102
RTVSPost2010PropOp44
 70
     1
102
RTVSPost2010Prop45
280
     0
102
RTVSPost2010PropOp45
 70
     1
102
RTVSPost2010Prop46
 90
       50
102
RTVSPost2010PropOp46
 70
     1
102
RTVSPost2010Prop47
 90
       50
102
RTVSPost2010PropOp47
 70
     1
102
RTVSPost2010Prop48
 90
       50
102
RTVSPost2010PropOp48
 70
     1
102
RTVSPost2010Prop49
280
     0
102
RTVSPost2010PropOp49
 70
     1
102
RTVSPost2010Prop50
 90
       50
102
RTVSPost2010PropOp50
 70
     1
102
RTVSPost2010Prop51ColorIndex
 90
      256
102
RTVSPost2010Prop51ColorRGB
 90
-16777216
102
RTVSPost2010PropOp51
 70
     0
102
RTVSPost2010Prop52
140
1.0
102
RTVSPost2010PropOp52
 70
     0
102
RTVSPost2010Prop53
 90
        2
102
RTVSPost2010PropOp53
 70
     1
102
RTVSPost2010Prop54
  1
strokes_ogs.tif
102
RTVSPost2010PropOp54
 70
     1
102
RTVSPost2010Prop55
280
     0
102
RTVSPost2010PropOp55
 70
     1
102
RTVSPost2010Prop56
140
1.0
102
RTVSPost2010PropOp56
 70
     1
102
RTVSPost2010Prop57
140
1.0
102
RTVSPost2010PropOp57
 70
     1
102
RTVSPropertyOp0
 70
     1
102
RTVSPropertyOp1
 70
     1
102
RTVSPropertyOp2
 70
     1
102
RTVSPropertyOp3
 70
     1
102
RTVSPropertyOp4
 70
     1
102
RTVSPropertyOp5
 70
     1
102
RTVSPropertyOp6
 70
     1
102
RTVSPropertyOp7
 70
     1
102
RTVSPropertyOp8
 70
     1
102
RTVSPropertyOp9
 70
     1
102
RTVSPropertyOp10
 70
     1
102
RTVSPropertyOp11
 70
     1
102
RTVSPropertyOp12
 70
     1
102
RTVSPropertyOp13
 70
     1
102
RTVSPropertyOp14
 70
     1
102
RTVSPropertyOp15
 70
     1
102
RTVSPropertyOp16
 70
     1
102
RTVSPropertyOp17
 70
     1
102
RTVSPropertyOp18
 70
     1
102
RTVSPropertyOp19
 70
     1
102
RTVSPropertyOp20
 70
     1
102
RTVSPropertyOp21
 70
     1
102
RTVSPropertyOp22
 70
     1
102
RTVSPropertyOp23
 70
     1
102
RTVSPropertyOp24
 70
     1
102
RTVSPropertyOp25
 70
     1
102
RTVSPropertyOp26
 70
     1
102
RTVSPropertyOp27
 70
     1
102
RTVSPropertyOp28
 70
     1
102
RTVSPropertyOp29
 70
     1
102
RTVSPropertyOp30
 70
     1
102
RTVSPropertyOp31
 70
     1
102
RTVSPropertyOp32
 70
     1
102
RTVSPropertyOp33
 70
     1
102
RTVSPropertyOp34
 70
     1
102
RTVSPropertyOp35
 70
     1
102
RTVSPropertyOp36
 70
     1
102
RTVSPropertyOp37
 70
     1
102
RTVSPropertyOp38
 70
     1
102
RTVSPropertyOp39
 70
     1
102
RTVSPropertyOp40
 70
     1
102
RTVSPropertyOp41
 70
     1
102
RTVSPropertyOp42
 70
     1
102
RTVSPropertyOp43
 70
     1
102
RTVSPropertyOp44
 70
     1
102
RTVSPropertyOp45
 70
     1
102
RTVSPropertyOp46
 70
     1
102
RTVSPropertyOp47
 70
     1
102
RTVSPropertyOp48
 70
     1
102
RTVSPropertyOp49
 70
     1
102
RTVSPropertyOp50
 70
     1
102
RTVSPropertyOp51
 70
     0
102
RTVSPropertyOp52
 70
     0
102
RTVSPropertyOp53
 70
     1
102
RTVSPropertyOp54
 70
     1
102
RTVSPropertyOp55
 70
     1
102
RTVSPropertyOp56
 70
     1
102
RTVSPropertyOp57
 70
     1
102
RTVSPropertyOp58
 70
     1
102
RTVSPropertyOp59
 70
     1
102
RTVSPropertyOp60
 70
     1
102
RTVSPropertyOp61
 70
     1
102
RTVSPropertyOp62
 70
     1
  0
XRECORD
  5
3BA
102
{ACAD_REACTORS
330
3B9
102
}
330
3B9
100
AcDbXrecord
280
     1
102
RTVSPost2010Prop28
280
     0
102
RTVSPost2010PropOp28
 70
     1
102
RTVSPost2010Prop29
280
     1
102
RTVSPost2010PropOp29
 70
     1
102
RTVSPost2010Prop30
280
     1
102
RTVSPost2010PropOp30
 70
     1
102
RTVSPost2010Prop31
280
     0
102
RTVSPost2010PropOp31
 70
     1
102
RTVSPost2010Prop32
280
     0
102
RTVSPost2010PropOp32
 70
     1
102
RTVSPost2010Prop33
280
     0
102
RTVSPost2010PropOp33
 70
     1
102
RTVSPost2010Prop34
280
     0
102
RTVSPost2010PropOp34
 70
     1
102
RTVSPost2010Prop35
280
     0
102
RTVSPost2010PropOp35
 70
     1
102
RTVSPost2010Prop36
280
     0
102
RTVSPost2010PropOp36
 70
     1
102
RTVSPost2010Prop37
 90
       50
102
RTVSPost2010PropOp37
 70
     1
102
RTVSPost2010Prop38
140
0.0
102
RTVSPost2010PropOp38
 70
     1
102
RTVSPost2010Prop39
140
1.0
102
RTVSPost2010PropOp39
 70
     1
102
RTVSPost2010Prop40
 90
        0
102
RTVSPost2010PropOp40
 70
     1
102
RTVSPost2010Prop41ColorIndex
 90
       18
102
RTVSPost2010Prop41ColorRGB
 90
        0
102
RTVSPost2010PropOp41
 70
     1
102
RTVSPost2010Prop42
 90
       50
102
RTVSPost2010PropOp42
 70
     1
102
RTVSPost2010Prop43
 90
        3
102
RTVSPost2010PropOp43
 70
     1
102
RTVSPost2010Prop44ColorIndex
 90
        5
102
RTVSPost2010Prop44ColorRGB
 90
      255
102
RTVSPost2010PropOp44
 70
     1
102
RTVSPost2010Prop45
280
     0
102
RTVSPost2010PropOp45
 70
     1
102
RTVSPost2010Prop46
 90
       50
102
RTVSPost2010PropOp46
 70
     1
102
RTVSPost2010Prop47
 90
       50
102
RTVSPost2010PropOp47
 70
     1
102
RTVSPost2010Prop48
 90
       50
102
RTVSPost2010PropOp48
 70
     1
102
RTVSPost2010Prop49
280
     0
102
RTVSPost2010PropOp49
 70
     1
102
RTVSPost2010Prop50
 90
       50
102
RTVSPost2010PropOp50
 70
     1
102
RTVSPost2010Prop51ColorIndex
 90
      256
102
RTVSPost2010Prop51ColorRGB
 90
-16777216
102
RTVSPost2010PropOp51
 70
     0
102
RTVSPost2010Prop52
140
1.0
102
RTVSPost2010PropOp52
 70
     0
102
RTVSPost2010Prop53
 90
        2
102
RTVSPost2010PropOp53
 70
     1
102
RTVSPost2010Prop54
  1
strokes_ogs.tif
102
RTVSPost2010PropOp54
 70
     1
102
RTVSPost2010Prop55
280
     0
102
RTVSPost2010PropOp55
 70
     1
102
RTVSPost2010Prop56
140
1.0
102
RTVSPost2010PropOp56
 70
     1
102
RTVSPost2010Prop57
140
1.0
102
RTVSPost2010PropOp57
 70
     1
102
RTVSPropertyOp0
 70
     1
102
RTVSPropertyOp1
 70
     1
102
RTVSPropertyOp2
 70
     1
102
RTVSPropertyOp3
 70
     1
102
RTVSPropertyOp4
 70
     1
102
RTVSPropertyOp5
 70
     1
102
RTVSPropertyOp6
 70
     1
102
RTVSPropertyOp7
 70
     1
102
RTVSPropertyOp8
 70
     1
102
RTVSPropertyOp9
 70
     1
102
RTVSPropertyOp10
 70
     1
102
RTVSPropertyOp11
 70
     1
102
RTVSPropertyOp12
 70
     1
102
RTVSPropertyOp13
 70
     1
102
RTVSPropertyOp14
 70
     1
102
RTVSPropertyOp15
 70
     1
102
RTVSPropertyOp16
 70
     1
102
RTVSPropertyOp17
 70
     1
102
RTVSPropertyOp18
 70
     1
102
RTVSPropertyOp19
 70
     1
102
RTVSPropertyOp20
 70
     1
102
RTVSPropertyOp21
 70
     1
102
RTVSPropertyOp22
 70
     1
102
RTVSPropertyOp23
 70
     1
102
RTVSPropertyOp24
 70
     1
102
RTVSPropertyOp25
 70
     1
102
RTVSPropertyOp26
 70
     1
102
RTVSPropertyOp27
 70
     1
102
RTVSPropertyOp28
 70
     1
102
RTVSPropertyOp29
 70
     1
102
RTVSPropertyOp30
 70
     1
102
RTVSPropertyOp31
 70
     1
102
RTVSPropertyOp32
 70
     1
102
RTVSPropertyOp33
 70
     1
102
RTVSPropertyOp34
 70
     1
102
RTVSPropertyOp35
 70
     1
102
RTVSPropertyOp36
 70
     1
102
RTVSPropertyOp37
 70
     1
102
RTVSPropertyOp38
 70
     1
102
RTVSPropertyOp39
 70
     1
102
RTVSPropertyOp40
 70
     1
102
RTVSPropertyOp41
 70
     1
102
RTVSPropertyOp42
 70
     1
102
RTVSPropertyOp43
 70
     1
102
RTVSPropertyOp44
 70
     1
102
RTVSPropertyOp45
 70
     1
102
RTVSPropertyOp46
 70
     1
102
RTVSPropertyOp47
 70
     1
102
RTVSPropertyOp48
 70
     1
102
RTVSPropertyOp49
 70
     1
102
RTVSPropertyOp50
 70
     1
102
RTVSPropertyOp51
 70
     0
102
RTVSPropertyOp52
 70
     0
102
RTVSPropertyOp53
 70
     1
102
RTVSPropertyOp54
 70
     1
102
RTVSPropertyOp55
 70
     1
102
RTVSPropertyOp56
 70
     1
102
RTVSPropertyOp57
 70
     1
102
RTVSPropertyOp58
 70
     1
102
RTVSPropertyOp59
 70
     1
102
RTVSPropertyOp60
 70
     1
102
RTVSPropertyOp61
 70
     1
102
RTVSPropertyOp62
 70
     1
  0
ENDSEC
  0
EOF
