  0
SECTION
  2
HEADER
  9
$ACADVER
  1
AC1018
  9
$ACADMAINTVER
 70
   104
  9
$DWGCODEPAGE
  3
ANSI_932
  9
$INSBASE
 10
0.0
 20
0.0
 30
0.0
  9
$EXTMIN
 10
-1.31256543
 20
-0.91528518
 30
0.0
  9
$EXTMAX
 10
28682.32859968
 20
20000.91565773
 30
0.0
  9
$LIMMIN
 10
0.0
 20
0.0
  9
$LIMMAX
 10
420.0
 20
330.0
  9
$ORTHOMODE
 70
     0
  9
$REGENMODE
 70
     1
  9
$FILLMODE
 70
     1
  9
$QTEXTMODE
 70
     0
  9
$MIRRTEXT
 70
     0
  9
$LTSCALE
 40
1.0
  9
$ATTMODE
 70
     1
  9
$TEXTSIZE
 40
0.2
  9
$TRACEWID
 40
0.05
  9
$TEXTSTYLE
  7
STANDARD
  9
$CLAYER
  8
0
  9
$CELTYPE
  6
BYLAYER
  9
$CECOLOR
 62
   256
  9
$CELTSCALE
 40
1.0
  9
$DISPSILH
 70
     1
  9
$DIMSCALE
 40
1.0
  9
$DIMASZ
 40
0.18
  9
$DIMEXO
 40
0.0625
  9
$DIMDLI
 40
0.38
  9
$DIMRND
 40
0.0
  9
$DIMDLE
 40
0.0
  9
$DIMEXE
 40
0.18
  9
$DIMTP
 40
0.0
  9
$DIMTM
 40
0.0
  9
$DIMTXT
 40
0.18
  9
$DIMCEN
 40
0.09
  9
$DIMTSZ
 40
0.0
  9
$DIMTOL
 70
     0
  9
$DIMLIM
 70
     0
  9
$DIMTIH
 70
     1
  9
$DIMTOH
 70
     1
  9
$DIMSE1
 70
     0
  9
$DIMSE2
 70
     0
  9
$DIMTAD
 70
     0
  9
$DIMZIN
 70
     0
  9
$DIMBLK
  1

  9
$DIMASO
 70
     1
  9
$DIMSHO
 70
     0
  9
$DIMPOST
  1

  9
$DIMAPOST
  1

  9
$DIMALT
 70
     0
  9
$DIMALTD
 70
     2
  9
$DIMALTF
 40
25.4
  9
$DIMLFAC
 40
1.0
  9
$DIMTOFL
 70
     0
  9
$DIMTVP
 40
0.0
  9
$DIMTIX
 70
     0
  9
$DIMSOXD
 70
     0
  9
$DIMSAH
 70
     0
  9
$DIMBLK1
  1

  9
$DIMBLK2
  1

  9
$DIMSTYLE
  2
YKK_SGDOT1
  9
$DIMCLRD
 70
     0
  9
$DIMCLRE
 70
     0
  9
$DIMCLRT
 70
     0
  9
$DIMTFAC
 40
1.0
  9
$DIMGAP
 40
0.09
  9
$DIMJUST
 70
     0
  9
$DIMSD1
 70
     0
  9
$DIMSD2
 70
     0
  9
$DIMTOLJ
 70
     1
  9
$DIMTZIN
 70
     0
  9
$DIMALTZ
 70
     0
  9
$DIMALTTZ
 70
     0
  9
$DIMUPT
 70
     0
  9
$DIMDEC
 70
     4
  9
$DIMTDEC
 70
     4
  9
$DIMALTU
 70
     2
  9
$DIMALTTD
 70
     2
  9
$DIMTXSTY
  7
STANDARD
  9
$DIMAUNIT
 70
     0
  9
$DIMADEC
 70
     0
  9
$DIMALTRND
 40
0.0
  9
$DIMAZIN
 70
     0
  9
$DIMDSEP
 70
    46
  9
$DIMATFIT
 70
     3
  9
$DIMFRAC
 70
     0
  9
$DIMLDRBLK
  1

  9
$DIMLUNIT
 70
     2
  9
$DIMLWD
 70
    -2
  9
$DIMLWE
 70
    -2
  9
$DIMTMOVE
 70
     2
  9
$LUNITS
 70
     2
  9
$LUPREC
 70
     4
  9
$SKETCHINC
 40
0.1
  9
$FILLETRAD
 40
1.0
  9
$AUNITS
 70
     0
  9
$AUPREC
 70
     0
  9
$MENU
  1
tool/YKK
  9
$ELEVATION
 40
0.0
  9
$PELEVATION
 40
0.0
  9
$THICKNESS
 40
0.0
  9
$LIMCHECK
 70
     0
  9
$CHAMFERA
 40
0.0
  9
$CHAMFERB
 40
0.0
  9
$CHAMFERC
 40
0.0
  9
$CHAMFERD
 40
0.0
  9
$SKPOLY
 70
     0
  9
$TDCREATE
 40
2453046.710807824
  9
$TDUCREATE
 40
2453046.335807824
  9
$TDUPDATE
 40
2457185.492902697
  9
$TDUUPDATE
 40
2457185.117902697
  9
$TDINDWG
 40
0.0000559838
  9
$TDUSRTIMER
 40
0.0000559838
  9
$USRTIMER
 70
     1
  9
$ANGBASE
 50
0.0
  9
$ANGDIR
 70
     0
  9
$PDMODE
 70
     0
  9
$PDSIZE
 40
0.0
  9
$PLINEWID
 40
0.0
  9
$SPLFRAME
 70
     0
  9
$SPLINETYPE
 70
     6
  9
$SPLINESEGS
 70
     8
  9
$HANDSEED
  5
459
  9
$SURFTAB1
 70
     6
  9
$SURFTAB2
 70
     6
  9
$SURFTYPE
 70
     6
  9
$SURFU
 70
     6
  9
$SURFV
 70
     6
  9
$UCSBASE
  2

  9
$UCSNAME
  2

  9
$UCSORG
 10
0.0
 20
0.0
 30
0.0
  9
$UCSXDIR
 10
1.0
 20
0.0
 30
0.0
  9
$UCSYDIR
 10
0.0
 20
1.0
 30
0.0
  9
$UCSORTHOREF
  2

  9
$UCSORTHOVIEW
 70
     0
  9
$UCSORGTOP
 10
0.0
 20
0.0
 30
0.0
  9
$UCSORGBOTTOM
 10
0.0
 20
0.0
 30
0.0
  9
$UCSORGLEFT
 10
0.0
 20
0.0
 30
0.0
  9
$UCSORGRIGHT
 10
0.0
 20
0.0
 30
0.0
  9
$UCSORGFRONT
 10
0.0
 20
0.0
 30
0.0
  9
$UCSORGBACK
 10
0.0
 20
0.0
 30
0.0
  9
$PUCSBASE
  2

  9
$PUCSNAME
  2

  9
$PUCSORG
 10
0.0
 20
0.0
 30
0.0
  9
$PUCSXDIR
 10
1.0
 20
0.0
 30
0.0
  9
$PUCSYDIR
 10
0.0
 20
1.0
 30
0.0
  9
$PUCSORTHOREF
  2

  9
$PUCSORTHOVIEW
 70
     0
  9
$PUCSORGTOP
 10
0.0
 20
0.0
 30
0.0
  9
$PUCSORGBOTTOM
 10
0.0
 20
0.0
 30
0.0
  9
$PUCSORGLEFT
 10
0.0
 20
0.0
 30
0.0
  9
$PUCSORGRIGHT
 10
0.0
 20
0.0
 30
0.0
  9
$PUCSORGFRONT
 10
0.0
 20
0.0
 30
0.0
  9
$PUCSORGBACK
 10
0.0
 20
0.0
 30
0.0
  9
$USERI1
 70
     0
  9
$USERI2
 70
     0
  9
$USERI3
 70
     0
  9
$USERI4
 70
     0
  9
$USERI5
 70
     0
  9
$USERR1
 40
0.0
  9
$USERR2
 40
0.0
  9
$USERR3
 40
0.0
  9
$USERR4
 40
0.0
  9
$USERR5
 40
0.0
  9
$WORLDVIEW
 70
     1
  9
$SHADEDGE
 70
     3
  9
$SHADEDIF
 70
    70
  9
$TILEMODE
 70
     1
  9
$MAXACTVP
 70
    16
  9
$PINSBASE
 10
0.0
 20
0.0
 30
0.0
  9
$PLIMCHECK
 70
     0
  9
$PEXTMIN
 10
1.00000000E+20
 20
1.00000000E+20
 30
1.00000000E+20
  9
$PEXTMAX
 10
-1.00000000E+20
 20
-1.00000000E+20
 30
-1.00000000E+20
  9
$PLIMMIN
 10
0.0
 20
0.0
  9
$PLIMMAX
 10
12.0
 20
9.0
  9
$UNITMODE
 70
     0
  9
$VISRETAIN
 70
     0
  9
$PLINEGEN
 70
     0
  9
$PSLTSCALE
 70
     0
  9
$TREEDEPTH
 70
  3020
  9
$CMLSTYLE
  2
STANDARD
  9
$CMLJUST
 70
     0
  9
$CMLSCALE
 40
1.0
  9
$PROXYGRAPHICS
 70
     1
  9
$MEASUREMENT
 70
     1
  9
$CELWEIGHT
370
    -1
  9
$ENDCAPS
280
     0
  9
$JOINSTYLE
280
     0
  9
$LWDISPLAY
290
     0
  9
$INSUNITS
 70
     0
  9
$HYPERLINKBASE
  1

  9
$STYLESHEET
  1

  9
$XEDIT
290
     1
  9
$CEPSNTYPE
380
     0
  9
$PSTYLEMODE
290
     1
  9
$FINGERPRINTGUID
  2
{4D724B30-DABE-4E59-8850-6F6459985AF7}
  9
$VERSIONGUID
  2
{BBEA26B1-43C9-4208-8E34-382980395B13}
  9
$EXTNAMES
290
     1
  9
$PSVPSCALE
 40
0.0
  9
$OLESTARTUP
290
     0
  9
$SORTENTS
280
   127
  9
$INDEXCTL
280
     0
  9
$HIDETEXT
280
     0
  9
$XCLIPFRAME
290
     0
  9
$HALOGAP
280
     0
  9
$OBSCOLOR
 70
   257
  9
$OBSLTYPE
280
     0
  9
$INTERSECTIONDISPLAY
280
     0
  9
$INTERSECTIONCOLOR
 70
   257
  9
$DIMASSOC
280
     1
  9
$PROJECTNAME
  1

  0
ENDSEC
  0
SECTION
  2
CLASSES
  0
CLASS
  1
DICTIONARYVAR
  2
AcDbDictionaryVar
  3
ObjectDBX Classes
 90
        0
 91
        8
280
     0
281
     0
  0
CLASS
  1
ACDBDICTIONARYWDFLT
  2
AcDbDictionaryWithDefault
  3
ObjectDBX Classes
 90
        0
 91
        1
280
     0
281
     0
  0
CLASS
  1
MATERIAL
  2
AcDbMaterial
  3
ObjectDBX Classes
 90
     1153
 91
        3
280
     0
281
     0
  0
CLASS
  1
VISUALSTYLE
  2
AcDbVisualStyle
  3
ObjectDBX Classes
 90
     4095
 91
       24
280
     0
281
     0
  0
CLASS
  1
TABLESTYLE
  2
AcDbTableStyle
  3
ObjectDBX Classes
 90
     4095
 91
        1
280
     0
281
     0
  0
CLASS
  1
SCALE
  2
AcDbScale
  3
ObjectDBX Classes
 90
     1153
 91
       17
280
     0
281
     0
  0
CLASS
  1
MLEADERSTYLE
  2
AcDbMLeaderStyle
  3
ACDB_MLEADERSTYLE_CLASS
 90
     4095
 91
        1
280
     0
281
     0
  0
CLASS
  1
ACDBSECTIONVIEWSTYLE
  2
AcDbSectionViewStyle
  3
ObjectDBX Classes
 90
     1025
 91
        1
280
     0
281
     0
  0
CLASS
  1
ACDBDETAILVIEWSTYLE
  2
AcDbDetailViewStyle
  3
ObjectDBX Classes
 90
     1025
 91
        1
280
     0
281
     0
  0
CLASS
  1
CELLSTYLEMAP
  2
AcDbCellStyleMap
  3
ObjectDBX Classes
 90
     1152
 91
        2
280
     0
281
     0
  0
ENDSEC
  0
SECTION
  2
TABLES
  0
TABLE
  2
VPORT
  5
34B
330
0
100
AcDbSymbolTable
 70
     1
  0
VPORT
  5
378
330
34B
100
AcDbSymbolTableRecord
100
AcDbViewportTableRecord
  2
*ACTIVE
 70
     0
 10
0.0
 20
0.0
 11
1.0
 21
1.0
 12
14340.50801713
 22
10000.00018627
 13
0.0
 23
0.0
 14
1.0
 24
1.0
 15
10.0
 25
10.0
 16
0.0
 26
0.0
 36
1.0
 17
0.0
 27
0.0
 37
0.0
 40
21504.61610341
 41
1.34178905
 42
50.0
 43
0.0
 44
0.0
 50
0.0
 51
0.0
 71
     0
 72
   100
 73
     1
 74
     0
 75
     1
 76
     0
 77
     0
 78
     0
281
     0
 65
     1
110
0.0
120
0.0
130
0.0
111
1.0
121
0.0
131
0.0
112
0.0
122
1.0
132
0.0
 79
     0
146
0.0
1001
ACAD_NAV_VCDISPLAY
1070
     1
  0
ENDTAB
  0
TABLE
  2
LTYPE
  5
348
330
0
100
AcDbSymbolTable
 70
     4
  0
LTYPE
  5
354
330
348
100
AcDbSymbolTableRecord
100
AcDbLinetypeTableRecord
  2
BYBLOCK
 70
     0
  3

 72
    65
 73
     0
 40
0.0
  0
LTYPE
  5
355
330
348
100
AcDbSymbolTableRecord
100
AcDbLinetypeTableRecord
  2
BYLAYER
 70
     0
  3

 72
    65
 73
     0
 40
0.0
  0
LTYPE
  5
356
330
348
100
AcDbSymbolTableRecord
100
AcDbLinetypeTableRecord
  2
CONTINUOUS
 70
     0
  3
Solid line
 72
    65
 73
     0
 40
0.0
  0
LTYPE
  5
360
330
348
100
AcDbSymbolTableRecord
100
AcDbLinetypeTableRecord
  2
CENTER
 70
     0
  3
____ _ ____ _ ____ _ ____ _ ____ _ ____ _ ____ 
 72
    65
 73
     4
 40
2.0
 49
1.25
 74
     0
 49
-0.25
 74
     0
 49
0.25
 74
     0
 49
-0.25
 74
     0
  0
LTYPE
  5
361
330
348
100
AcDbSymbolTableRecord
100
AcDbLinetypeTableRecord
  2
PHANTOM
 70
     0
  3
______  __  __  ______  __  __  ______  __  __ 
 72
    65
 73
     6
 40
2.5
 49
1.25
 74
     0
 49
-0.25
 74
     0
 49
0.25
 74
     0
 49
-0.25
 74
     0
 49
0.25
 74
     0
 49
-0.25
 74
     0
  0
LTYPE
  5
362
330
348
100
AcDbSymbolTableRecord
100
AcDbLinetypeTableRecord
  2
HIDDEN
 70
     0
  3
__ __ __ __ __ __ __ __ __ __ __ __ __ __ __ __
 72
    65
 73
     2
 40
0.375
 49
0.25
 74
     0
 49
-0.125
 74
     0
  0
ENDTAB
  0
TABLE
  2
LAYER
  5
345
330
0
100
AcDbSymbolTable
 70
    11
  0
LAYER
  5
351
330
345
100
AcDbSymbolTableRecord
100
AcDbLayerTableRecord
  2
0
 70
     0
 62
     7
  6
CONTINUOUS
370
    -3
390
37B
  0
LAYER
  5
365
330
345
100
AcDbSymbolTableRecord
100
AcDbLayerTableRecord
  2
YKK_IN
 70
     0
 62
     1
  6
CONTINUOUS
370
    -3
390
37B
  0
LAYER
  5
366
330
345
100
AcDbSymbolTableRecord
100
AcDbLayerTableRecord
  2
YKK_F1
 70
     0
 62
     7
  6
CONTINUOUS
370
    -3
390
37B
  0
LAYER
  5
367
330
345
100
AcDbSymbolTableRecord
100
AcDbLayerTableRecord
  2
YKK_N1
 70
     0
 62
     2
  6
CONTINUOUS
370
    -3
390
37B
  0
LAYER
  5
368
330
345
100
AcDbSymbolTableRecord
100
AcDbLayerTableRecord
  2
YKK_Z1
 70
     0
 62
     7
  6
CONTINUOUS
370
    -3
390
37B
  0
LAYER
  5
369
330
345
100
AcDbSymbolTableRecord
100
AcDbLayerTableRecord
  2
YKK_A1
 70
     0
 62
     4
  6
CONTINUOUS
370
    -3
390
37B
  0
LAYER
  5
36A
330
345
100
AcDbSymbolTableRecord
100
AcDbLayerTableRecord
  2
YKK_A2
 70
     0
 62
     3
  6
CONTINUOUS
370
    -3
390
37B
  0
LAYER
  5
36B
330
345
100
AcDbSymbolTableRecord
100
AcDbLayerTableRecord
  2
YKK_B1
 70
     0
 62
     4
  6
CONTINUOUS
370
    -3
390
37B
  0
LAYER
  5
36C
330
345
100
AcDbSymbolTableRecord
100
AcDbLayerTableRecord
  2
YKK_C1
 70
     0
 62
     4
  6
CONTINUOUS
370
    -3
390
37B
  0
LAYER
  5
36D
330
345
100
AcDbSymbolTableRecord
100
AcDbLayerTableRecord
  2
YKK_B2
 70
     0
 62
     5
  6
CONTINUOUS
370
    -3
390
37B
  0
LAYER
  5
36E
330
345
100
AcDbSymbolTableRecord
100
AcDbLayerTableRecord
  2
YKK_C2
 70
     0
 62
     5
  6
CONTINUOUS
370
    -3
390
37B
  0
ENDTAB
  0
TABLE
  2
STYLE
  5
346
330
0
100
AcDbSymbolTable
 70
     2
  0
STYLE
  5
352
330
346
100
AcDbSymbolTableRecord
100
AcDbTextStyleTableRecord
  2
STANDARD
 70
     0
 40
0.0
 41
1.0
 50
0.0
 71
     0
 42
0.2
  3
txt
  4
EXTFONT.SHX
  0
STYLE
  5
35F
330
346
100
AcDbSymbolTableRecord
100
AcDbTextStyleTableRecord
  2
EXTFONT
 70
     0
 40
60.0
 41
1.0
 50
0.0
 71
     0
 42
60.0
  3
txt.shx
  4
EXTFONT
  0
ENDTAB
  0
TABLE
  2
VIEW
  5
349
330
0
100
AcDbSymbolTable
 70
     0
  0
ENDTAB
  0
TABLE
  2
UCS
  5
34A
330
0
100
AcDbSymbolTable
 70
     0
  0
ENDTAB
  0
TABLE
  2
APPID
  5
34C
330
0
100
AcDbSymbolTable
 70
     5
  0
APPID
  5
353
330
34C
100
AcDbSymbolTableRecord
100
AcDbRegAppTableRecord
  2
ACAD
 70
     0
  0
APPID
  5
406
330
34C
100
AcDbSymbolTableRecord
100
AcDbRegAppTableRecord
  2
ACAD_MLEADERVER
 70
     0
  0
APPID
  5
419
330
34C
100
AcDbSymbolTableRecord
100
AcDbRegAppTableRecord
  2
ACAD_PSEXT
 70
     0
  0
APPID
  5
41A
330
34C
100
AcDbSymbolTableRecord
100
AcDbRegAppTableRecord
  2
ACAD_NAV_VCDISPLAY
 70
     0
  0
APPID
  5
41B
330
34C
100
AcDbSymbolTableRecord
100
AcDbRegAppTableRecord
  2
YKK_AP_LOCKLAYER
 70
     0
  0
ENDTAB
  0
TABLE
  2
DIMSTYLE
  5
34D
330
0
100
AcDbSymbolTable
 70
     1
100
AcDbDimStyleTable
 71
     0
  0
DIMSTYLE
105
364
330
34D
100
AcDbSymbolTableRecord
100
AcDbDimStyleTableRecord
  2
YKK_SGDOT1
 70
     0
 41
20.0
 42
60.0
 43
0.0
 44
30.0
 73
     0
 74
     0
 77
     1
 78
    12
140
60.0
141
0.0
146
0.002
147
10.0
172
     1
279
     2
340
352
  0
ENDTAB
  0
TABLE
  2
BLOCK_RECORD
  5
344
330
0
100
AcDbSymbolTable
 70
     0
  0
BLOCK_RECORD
  5
35A
330
344
100
AcDbSymbolTableRecord
100
AcDbBlockTableRecord
  2
*MODEL_SPACE
340
3CD
  0
BLOCK_RECORD
  5
357
330
344
100
AcDbSymbolTableRecord
100
AcDbBlockTableRecord
  2
*PAPER_SPACE
340
3CE
  0
ENDTAB
  0
ENDSEC
  0
SECTION
  2
BLOCKS
  0
BLOCK
  5
371
330
35A
100
AcDbEntity
  8
0
100
AcDbBlockBegin
  2
*MODEL_SPACE
 70
     0
 10
0.0
 20
0.0
 30
0.0
  3
*MODEL_SPACE
  1

  0
ENDBLK
  5
372
330
35A
100
AcDbEntity
  8
0
100
AcDbBlockEnd
  0
BLOCK
  5
36F
330
357
100
AcDbEntity
 67
     1
  8
0
100
AcDbBlockBegin
  2
*PAPER_SPACE
 70
     0
 10
0.0
 20
0.0
 30
0.0
  3
*PAPER_SPACE
  1

  0
ENDBLK
  5
370
330
357
100
AcDbEntity
 67
     1
  8
0
100
AcDbBlockEnd
  0
ENDSEC
  0
SECTION
  2
ENTITIES
  0
LINE
  5
1D
330
35A
100
AcDbEntity
  8
YKK_F1
100
AcDbLine
 10
0.0
 20
5600.0
 30
0.0
 11
28500.0
 21
5600.0
 31
0.0
  0
LINE
  5
1F
330
35A
100
AcDbEntity
  8
YKK_F1
100
AcDbLine
 10
0.0
 20
6050.0
 30
0.0
 11
28500.0
 21
6050.0
 31
0.0
  0
LINE
  5
20
330
35A
100
AcDbEntity
  8
YKK_F1
100
AcDbLine
 10
0.0
 20
12100.0
 30
0.0
 11
28500.0
 21
12100.0
 31
0.0
  0
LINE
  5
21
330
35A
100
AcDbEntity
  8
YKK_F1
100
AcDbLine
 10
0.0
 20
12550.0
 30
0.0
 11
28500.0
 21
12550.0
 31
0.0
  0
LINE
  5
22
330
35A
100
AcDbEntity
  8
YKK_F1
100
AcDbLine
 10
0.0
 20
6500.0
 30
0.0
 11
28500.0
 21
6500.0
 31
0.0
  0
LINE
  5
23
330
35A
100
AcDbEntity
  8
YKK_F1
100
AcDbLine
 10
0.0
 20
13000.0
 30
0.0
 11
28500.0
 21
13000.0
 31
0.0
  0
LINE
  5
24
330
35A
100
AcDbEntity
  8
YKK_F1
100
AcDbLine
 10
0.0
 20
18600.0
 30
0.0
 11
28500.0
 21
18600.0
 31
0.0
  0
LINE
  5
25
330
35A
100
AcDbEntity
  8
YKK_F1
100
AcDbLine
 10
0.0
 20
19050.0
 30
0.0
 11
28500.0
 21
19050.0
 31
0.0
  0
LINE
  5
26
330
35A
100
AcDbEntity
  8
YKK_F1
100
AcDbLine
 10
0.0
 20
0.0
 30
0.0
 11
28681.0155
 21
0.0
 31
0.0
  0
LINE
  5
27
330
35A
100
AcDbEntity
  8
YKK_F1
100
AcDbLine
 10
0.0
 20
20000.0
 30
0.0
 11
28681.0155
 21
20000.0
 31
0.0
  0
LINE
  5
28
330
35A
100
AcDbEntity
  8
YKK_F1
100
AcDbLine
 10
0.0
 20
19500.0
 30
0.0
 11
28500.0
 21
19500.0
 31
0.0
  0
LINE
  5
29
330
35A
100
AcDbEntity
  8
YKK_F1
100
AcDbLine
 10
5700.0
 20
0.0
 30
0.0
 11
5700.0
 21
19500.0
 31
0.0
  0
LINE
  5
2A
330
35A
100
AcDbEntity
  8
YKK_F1
100
AcDbLine
 10
11400.0
 20
0.0
 30
0.0
 11
11400.0
 21
19500.0
 31
0.0
  0
LINE
  5
2B
330
35A
100
AcDbEntity
  8
YKK_F1
100
AcDbLine
 10
0.0
 20
0.0
 30
0.0
 11
0.0
 21
20000.0
 31
0.0
  0
POINT
  5
2C
330
35A
100
AcDbEntity
  8
YKK_IN
100
AcDbPoint
 10
0.0
 20
0.0
 30
0.0
  0
POINT
  5
2E
330
35A
100
AcDbEntity
  8
YKK_F1
100
AcDbPoint
 10
0.0
 20
0.0
 30
0.0
  0
POINT
  5
2F
330
35A
100
AcDbEntity
  8
YKK_N1
100
AcDbPoint
 10
0.0
 20
0.0
 30
0.0
  0
POINT
  5
31
330
35A
100
AcDbEntity
  8
YKK_Z1
100
AcDbPoint
 10
0.0
 20
0.0
 30
0.0
  0
POINT
  5
33
330
35A
100
AcDbEntity
  8
YKK_A1
100
AcDbPoint
 10
0.0
 20
0.0
 30
0.0
  0
POINT
  5
35
330
35A
100
AcDbEntity
  8
YKK_A2
100
AcDbPoint
 10
0.0
 20
0.0
 30
0.0
  0
POINT
  5
37
330
35A
100
AcDbEntity
  8
YKK_B1
100
AcDbPoint
 10
0.0
 20
0.0
 30
0.0
  0
POINT
  5
39
330
35A
100
AcDbEntity
  8
YKK_C1
100
AcDbPoint
 10
0.0
 20
0.0
 30
0.0
  0
POINT
  5
3B
330
35A
100
AcDbEntity
  8
YKK_B2
100
AcDbPoint
 10
0.0
 20
0.0
 30
0.0
  0
POINT
  5
3D
330
35A
100
AcDbEntity
  8
YKK_C2
100
AcDbPoint
 10
0.0
 20
0.0
 30
0.0
  0
TEXT
  5
3F
330
35A
100
AcDbEntity
  8
0
100
AcDbText
 10
500.0
 20
19625.0
 30
0.0
 40
250.0
  1
ＢＦＤＰＰＪ２５　省エネ商品　ＹＤＰ－１００　つらいち枠　辷り出し窓
  7
EXTFONT
100
AcDbText
  0
LINE
  5
41
330
35A
100
AcDbEntity
  8
YKK_N1
100
AcDbLine
 10
4200.0
 20
16705.0
 30
0.0
 11
4200.0
 21
15045.0
 31
0.0
  0
LINE
  5
42
330
35A
100
AcDbEntity
  8
YKK_N1
100
AcDbLine
 10
1501.0
 20
13925.0
 30
0.0
 11
2299.0
 21
13925.0
 31
0.0
  0
LINE
  5
43
330
35A
100
AcDbEntity
  8
YKK_Z1
  6
Continuous
100
AcDbLine
 10
2315.0
 20
14205.0
 30
0.0
 11
1900.0
 21
14205.0
 31
0.0
  0
LINE
  5
44
330
35A
100
AcDbEntity
  8
YKK_B1
100
AcDbLine
 10
1520.0
 20
14425.0
 30
0.0
 11
2280.0
 21
14425.0
 31
0.0
  0
LINE
  5
45
330
35A
100
AcDbEntity
  8
YKK_B1
100
AcDbLine
 10
1520.0
 20
14325.0
 30
0.0
 11
2280.0
 21
14325.0
 31
0.0
  0
LINE
  5
46
330
35A
100
AcDbEntity
  8
YKK_B1
100
AcDbLine
 10
1572.0
 20
14397.0
 30
0.0
 11
2228.0
 21
14397.0
 31
0.0
  0
LINE
  5
47
330
35A
100
AcDbEntity
  8
YKK_B1
100
AcDbLine
 10
1572.0
 20
14411.0
 30
0.0
 11
2228.0
 21
14411.0
 31
0.0
  0
LINE
  5
48
330
35A
100
AcDbEntity
  8
YKK_N1
  6
ByBlock
100
AcDbLine
 10
1586.60254038
 20
13875.0
 30
0.0
 11
1586.60254038
 21
13975.0
 31
0.0
  0
LINE
  5
49
330
35A
100
AcDbEntity
  8
YKK_N1
  6
ByBlock
100
AcDbLine
 10
1500.0
 20
13925.0
 30
0.0
 11
1586.60254038
 21
13875.0
 31
0.0
  0
LINE
  5
4A
330
35A
100
AcDbEntity
  8
YKK_N1
100
AcDbLine
 10
1500.0
 20
14265.0
 30
0.0
 11
1500.0
 21
13895.0
 31
0.0
  0
LINE
  5
4B
330
35A
100
AcDbEntity
  8
YKK_Z1
  6
Continuous
100
AcDbLine
 10
1100.0
 20
14227.0
 30
0.0
 11
1460.0
 21
14227.0
 31
0.0
  0
LINE
  5
4C
330
35A
100
AcDbEntity
  8
YKK_Z1
  6
Continuous
100
AcDbLine
 10
1460.0
 20
14215.0
 30
0.0
 11
1100.0
 21
14215.0
 31
0.0
  0
LINE
  5
4D
330
35A
100
AcDbEntity
  8
YKK_Z1
  6
Continuous
100
AcDbLine
 10
1470.0
 20
14415.0
 30
0.0
 11
1450.0
 21
14415.0
 31
0.0
  0
LINE
  5
4E
330
35A
100
AcDbEntity
  8
YKK_Z1
  6
CENTER
100
AcDbLine
 10
1462.5
 20
14320.0
 30
0.0
 11
1100.0
 21
14320.0
 31
0.0
  0
LINE
  5
50
330
35A
100
AcDbEntity
  8
YKK_Z1
  6
Continuous
100
AcDbLine
 10
1298.28417067
 20
14415.0
 30
0.0
 11
1128.284259
 21
14245.0
 31
0.0
  0
LINE
  5
51
330
35A
100
AcDbEntity
  8
YKK_Z1
  6
Continuous
100
AcDbLine
 10
1278.48518937
 20
14415.0
 30
0.0
 11
1108.4852777
 21
14245.0
 31
0.0
  0
LINE
  5
52
330
35A
100
AcDbEntity
  8
YKK_Z1
  6
Continuous
100
AcDbLine
 10
1450.0
 20
14298.01530805
 30
0.0
 11
1396.9847195
 21
14245.0
 31
0.0
  0
LINE
  5
53
330
35A
100
AcDbEntity
  8
YKK_Z1
  6
Continuous
100
AcDbLine
 10
1269.99991167
 20
14415.0
 30
0.0
 11
1100.0
 21
14245.0
 31
0.0
  0
LINE
  5
54
330
35A
100
AcDbEntity
  8
YKK_Z1
  6
Continuous
100
AcDbLine
 10
1450.0
 20
14245.0
 30
0.0
 11
1450.0
 21
14415.0
 31
0.0
  0
LINE
  5
55
330
35A
100
AcDbEntity
  8
YKK_Z1
  6
Continuous
100
AcDbLine
 10
1100.0
 20
14245.0
 30
0.0
 11
1450.0
 21
14245.0
 31
0.0
  0
LINE
  5
56
330
35A
100
AcDbEntity
  8
YKK_Z1
  6
Continuous
100
AcDbLine
 10
1450.0
 20
14269.73103435
 30
0.0
 11
1425.2689785
 21
14245.0
 31
0.0
  0
LINE
  5
57
330
35A
100
AcDbEntity
  8
YKK_Z1
  6
Continuous
100
AcDbLine
 10
1450.0
 20
14289.53002594
 30
0.0
 11
1405.4699972
 21
14245.0
 31
0.0
  0
LINE
  5
58
330
35A
100
AcDbEntity
  8
YKK_Z1
  6
HIDDEN
100
AcDbLine
 10
1450.0
 20
14395.0
 30
0.0
 11
1100.0
 21
14395.0
 31
0.0
  0
LINE
  5
5A
330
35A
100
AcDbEntity
  8
YKK_Z1
  6
Continuous
100
AcDbLine
 10
1450.0
 20
14415.0
 30
0.0
 11
1100.0
 21
14415.0
 31
0.0
  0
LINE
  5
5B
330
35A
100
AcDbEntity
  8
YKK_N1
  6
Continuous
100
AcDbLine
 10
1729.0
 20
14305.0
 30
0.0
 11
1729.0
 21
14225.0
 31
0.0
  0
LINE
  5
5C
330
35A
100
AcDbEntity
  8
YKK_Z1
  6
Continuous
100
AcDbLine
 10
1460.0
 20
14296.7157263
 30
0.0
 11
1485.0
 21
14321.71573929
 31
0.0
  0
LINE
  5
5D
330
35A
100
AcDbEntity
  8
YKK_Z1
  6
Continuous
100
AcDbLine
 10
1460.0
 20
14205.0
 30
0.0
 11
1460.0
 21
14325.0
 31
0.0
  0
LINE
  5
5E
330
35A
100
AcDbEntity
  8
YKK_Z1
  6
Continuous
100
AcDbLine
 10
1485.0
 20
14325.0
 30
0.0
 11
1485.0
 21
14205.0
 31
0.0
  0
CIRCLE
  5
5F
330
35A
100
AcDbEntity
  8
YKK_N1
100
AcDbCircle
 10
1729.0
 20
14205.0
 30
0.0
 40
10.0
  0
LINE
  5
60
330
35A
100
AcDbEntity
  8
YKK_N1
  6
Continuous
100
AcDbLine
 10
1545.0
 20
14205.0
 30
0.0
 11
1759.0
 21
14205.0
 31
0.0
  0
LINE
  5
61
330
35A
100
AcDbEntity
  8
YKK_Z1
  6
Continuous
100
AcDbLine
 10
1485.0
 20
14205.0
 30
0.0
 11
1900.0
 21
14205.0
 31
0.0
  0
LINE
  5
62
330
35A
100
AcDbEntity
  8
YKK_N1
100
AcDbLine
 10
1729.0
 20
14205.0
 30
0.0
 11
1729.0
 21
14225.0
 31
0.0
  0
CIRCLE
  5
63
330
35A
100
AcDbEntity
  8
YKK_N1
100
AcDbCircle
 10
1729.0
 20
14205.0
 30
0.0
 40
6.5
  0
TEXT
  5
64
330
35A
100
AcDbEntity
  8
YKK_N1
100
AcDbText
 10
1719.0
 20
14044.71428571
 30
0.0
 40
60.0
  1
120
 50
90.0
 41
0.8
100
AcDbText
  0
LINE
  5
65
330
35A
100
AcDbEntity
  8
YKK_N1
  6
ByBlock
100
AcDbLine
 10
1586.60254038
 20
13975.0
 30
0.0
 11
1500.0
 21
13925.0
 31
0.0
  0
LINE
  5
66
330
35A
100
AcDbEntity
  8
YKK_N1
  6
ByBlock
100
AcDbLine
 10
1500.0
 20
13925.0
 30
0.0
 11
1600.0
 21
13925.0
 31
0.0
  0
LINE
  5
67
330
35A
100
AcDbEntity
  8
YKK_N1
  6
Continuous
100
AcDbLine
 10
1729.0
 20
14205.0
 30
0.0
 11
1729.0
 21
14048.42857143
 31
0.0
  0
LINE
  5
68
330
35A
100
AcDbEntity
  8
YKK_Z1
  6
Continuous
100
AcDbLine
 10
1460.0
 20
14227.0
 30
0.0
 11
1460.0
 21
14215.0
 31
0.0
  0
LINE
  5
69
330
35A
100
AcDbEntity
  8
YKK_Z1
  6
Continuous
100
AcDbLine
 10
1481.42135735
 20
14205.0
 30
0.0
 11
1485.0
 21
14208.57864451
 31
0.0
  0
LINE
  5
6A
330
35A
100
AcDbEntity
  8
YKK_Z1
  6
Continuous
100
AcDbLine
 10
1460.0
 20
14211.86290521
 30
0.0
 11
1485.0
 21
14236.8629182
 31
0.0
  0
LINE
  5
6B
330
35A
100
AcDbEntity
  8
YKK_Z1
  6
Continuous
100
AcDbLine
 10
1460.0
 20
14240.14717891
 30
0.0
 11
1485.0
 21
14265.1471919
 31
0.0
  0
LINE
  5
6C
330
35A
100
AcDbEntity
  8
YKK_Z1
  6
Continuous
100
AcDbLine
 10
1460.0
 20
14268.43145261
 30
0.0
 11
1485.0
 21
14293.4314656
 31
0.0
  0
LINE
  5
6D
330
35A
100
AcDbEntity
  8
YKK_Z1
  6
Continuous
100
AcDbLine
 10
1485.0
 20
14205.0
 30
0.0
 11
1460.0
 21
14205.0
 31
0.0
  0
TEXT
  5
6E
330
35A
100
AcDbEntity
  8
YKK_N1
100
AcDbText
 10
1775.42857143
 20
13935.0
 30
0.0
 40
60.0
  1
W=800
 41
0.8
100
AcDbText
1001
ACAD
1000
MTEXTBEGIN
1070
    73
1070
     1
1070
    44
1040
1.0
1070
    74
1070
     0
1000
MTEXTEND
  0
CIRCLE
  5
6F
330
35A
100
AcDbEntity
  8
YKK_N1
100
AcDbCircle
 10
1729.0
 20
14325.0
 30
0.0
 40
10.0
  0
CIRCLE
  5
70
330
35A
100
AcDbEntity
  8
YKK_N1
100
AcDbCircle
 10
1729.0
 20
14325.0
 30
0.0
 40
10.0
  0
CIRCLE
  5
71
330
35A
100
AcDbEntity
  8
YKK_N1
100
AcDbCircle
 10
1729.0
 20
14425.0
 30
0.0
 40
10.0
  0
LINE
  5
72
330
35A
100
AcDbEntity
  8
YKK_N1
100
AcDbLine
 10
1729.0
 20
14325.0
 30
0.0
 11
1729.0
 21
14305.0
 31
0.0
  0
CIRCLE
  5
73
330
35A
100
AcDbEntity
  8
YKK_N1
100
AcDbCircle
 10
1729.0
 20
14325.0
 30
0.0
 40
6.5
  0
TEXT
  5
74
330
35A
100
AcDbEntity
  8
YKK_N1
100
AcDbText
 10
1684.0
 20
14303.0
 30
0.0
 40
60.0
  1
100
 50
90.0
 41
0.8
100
AcDbText
1001
ACAD
1000
MTEXTBEGIN
1070
    73
1070
     1
1070
    44
1040
1.0
1070
    74
1070
     0
1000
MTEXTEND
  0
LINE
  5
75
330
35A
100
AcDbEntity
  8
YKK_N1
100
AcDbLine
 10
1729.0
 20
14325.0
 30
0.0
 11
1729.0
 21
14345.0
 31
0.0
  0
CIRCLE
  5
76
330
35A
100
AcDbEntity
  8
YKK_N1
100
AcDbCircle
 10
1729.0
 20
14325.0
 30
0.0
 40
6.5
  0
LINE
  5
77
330
35A
100
AcDbEntity
  8
YKK_N1
100
AcDbLine
 10
1729.0
 20
14425.0
 30
0.0
 11
1729.0
 21
14405.0
 31
0.0
  0
CIRCLE
  5
78
330
35A
100
AcDbEntity
  8
YKK_N1
100
AcDbCircle
 10
1729.0
 20
14425.0
 30
0.0
 40
6.5
  0
LINE
  5
79
330
35A
100
AcDbEntity
  8
YKK_N1
100
AcDbLine
 10
1729.0
 20
14345.0
 30
0.0
 11
1729.0
 21
14405.0
 31
0.0
  0
LINE
  5
7A
330
35A
100
AcDbEntity
  8
YKK_N1
100
AcDbLine
 10
1679.0
 20
14425.0
 30
0.0
 11
1699.0
 21
14425.0
 31
0.0
  0
LINE
  5
7B
330
35A
100
AcDbEntity
  8
YKK_N1
100
AcDbLine
 10
1679.0
 20
14325.0
 30
0.0
 11
1699.0
 21
14325.0
 31
0.0
  0
LINE
  5
7C
330
35A
100
AcDbEntity
  8
YKK_N1
  6
Continuous
100
AcDbLine
 10
1669.0
 20
14325.0
 30
0.0
 11
1699.0
 21
14325.0
 31
0.0
  0
LINE
  5
7E
330
35A
100
AcDbEntity
  8
YKK_Z1
  6
Continuous
100
AcDbLine
 10
1460.0
 20
14325.0
 30
0.0
 11
1485.0
 21
14325.0
 31
0.0
  0
LINE
  5
7F
330
35A
100
AcDbEntity
  8
YKK_B1
100
AcDbLine
 10
1580.0
 20
14383.0
 30
0.0
 11
1564.0
 21
14383.0
 31
0.0
  0
LINE
  5
80
330
35A
100
AcDbEntity
  8
YKK_B1
100
AcDbLine
 10
1580.0
 20
14375.0
 30
0.0
 11
1580.0
 21
14383.0
 31
0.0
  0
LINE
  5
81
330
35A
100
AcDbEntity
  8
YKK_B1
100
AcDbLine
 10
1564.0
 20
14425.0
 30
0.0
 11
1564.0
 21
14375.0
 31
0.0
  0
LINE
  5
82
330
35A
100
AcDbEntity
  8
YKK_B1
100
AcDbLine
 10
1580.0
 20
14425.0
 30
0.0
 11
1505.0
 21
14425.0
 31
0.0
  0
LINE
  5
83
330
35A
100
AcDbEntity
  8
YKK_B1
100
AcDbLine
 10
1525.0
 20
14375.0
 30
0.0
 11
1525.0
 21
14425.0
 31
0.0
  0
LINE
  5
84
330
35A
100
AcDbEntity
  8
YKK_B1
100
AcDbLine
 10
1580.0
 20
14375.0
 30
0.0
 11
1525.0
 21
14375.0
 31
0.0
  0
LINE
  5
85
330
35A
100
AcDbEntity
  8
YKK_B1
100
AcDbLine
 10
1475.0
 20
14370.0
 30
0.0
 11
1475.0
 21
14363.0
 31
0.0
  0
LINE
  5
86
330
35A
100
AcDbEntity
  8
YKK_B1
100
AcDbLine
 10
1470.0
 20
14370.0
 30
0.0
 11
1500.0
 21
14370.0
 31
0.0
  0
LINE
  5
87
330
35A
100
AcDbEntity
  8
YKK_B1
100
AcDbLine
 10
1470.0
 20
14425.0
 30
0.0
 11
1470.0
 21
14370.0
 31
0.0
  0
LINE
  5
88
330
35A
100
AcDbEntity
  8
YKK_B1
100
AcDbLine
 10
1500.0
 20
14425.0
 30
0.0
 11
1470.0
 21
14425.0
 31
0.0
  0
LINE
  5
89
330
35A
100
AcDbEntity
  8
YKK_B1
100
AcDbLine
 10
1475.0
 20
14325.0
 30
0.0
 11
1475.0
 21
14332.0
 31
0.0
  0
LINE
  5
8A
330
35A
100
AcDbEntity
  8
YKK_B1
100
AcDbLine
 10
1500.0
 20
14325.0
 30
0.0
 11
1475.0
 21
14325.0
 31
0.0
  0
LINE
  5
8B
330
35A
100
AcDbEntity
  8
YKK_B1
100
AcDbLine
 10
1500.0
 20
14371.0
 30
0.0
 11
1530.0
 21
14371.0
 31
0.0
  0
LINE
  5
8C
330
35A
100
AcDbEntity
  8
YKK_B1
100
AcDbLine
 10
1500.0
 20
14325.0
 30
0.0
 11
1500.0
 21
14425.0
 31
0.0
  0
LINE
  5
8D
330
35A
100
AcDbEntity
  8
YKK_N1
  6
ByBlock
100
AcDbLine
 10
2213.39745962
 20
13875.0
 30
0.0
 11
2300.0
 21
13925.0
 31
0.0
  0
LINE
  5
8E
330
35A
100
AcDbEntity
  8
YKK_N1
  6
ByBlock
100
AcDbLine
 10
2213.39745962
 20
13975.0
 30
0.0
 11
2213.39745962
 21
13875.0
 31
0.0
  0
LINE
  5
8F
330
35A
100
AcDbEntity
  8
YKK_N1
100
AcDbLine
 10
2300.0
 20
14265.0
 30
0.0
 11
2300.0
 21
13895.0
 31
0.0
  0
LINE
  5
90
330
35A
100
AcDbEntity
  8
YKK_Z1
  6
Continuous
100
AcDbLine
 10
2700.0
 20
14227.0
 30
0.0
 11
2340.0
 21
14227.0
 31
0.0
  0
LINE
  5
91
330
35A
100
AcDbEntity
  8
YKK_Z1
  6
Continuous
100
AcDbLine
 10
2340.0
 20
14215.0
 30
0.0
 11
2700.0
 21
14215.0
 31
0.0
  0
LINE
  5
92
330
35A
100
AcDbEntity
  8
YKK_Z1
  6
HIDDEN
100
AcDbLine
 10
2350.0
 20
14395.0
 30
0.0
 11
2700.0
 21
14395.0
 31
0.0
  0
LINE
  5
93
330
35A
100
AcDbEntity
  8
YKK_Z1
  6
CENTER
100
AcDbLine
 10
2337.5
 20
14320.0
 30
0.0
 11
2700.0
 21
14320.0
 31
0.0
  0
LINE
  5
94
330
35A
100
AcDbEntity
  8
YKK_Z1
  6
Continuous
100
AcDbLine
 10
2431.29935334
 20
14245.0
 30
0.0
 11
2601.29938278
 21
14415.0
 31
0.0
  0
LINE
  5
95
330
35A
100
AcDbEntity
  8
YKK_Z1
  6
Continuous
100
AcDbLine
 10
2411.50035832
 20
14245.0
 30
0.0
 11
2581.50038777
 21
14415.0
 31
0.0
  0
LINE
  5
96
330
35A
100
AcDbEntity
  8
YKK_Z1
  6
Continuous
100
AcDbLine
 10
2350.0
 20
14415.0
 30
0.0
 11
2700.0
 21
14415.0
 31
0.0
  0
LINE
  5
97
330
35A
100
AcDbEntity
  8
YKK_Z1
  6
Continuous
100
AcDbLine
 10
2700.0
 20
14245.0
 30
0.0
 11
2350.0
 21
14245.0
 31
0.0
  0
LINE
  5
98
330
35A
100
AcDbEntity
  8
YKK_Z1
  6
Continuous
100
AcDbLine
 10
2340.0
 20
14205.0
 30
0.0
 11
2340.0
 21
14325.0
 31
0.0
  0
LINE
  5
99
330
35A
100
AcDbEntity
  8
YKK_Z1
  6
Continuous
100
AcDbLine
 10
2315.0
 20
14325.0
 30
0.0
 11
2315.0
 21
14205.0
 31
0.0
  0
LINE
  5
9A
330
35A
100
AcDbEntity
  8
YKK_Z1
  6
Continuous
100
AcDbLine
 10
2403.01507474
 20
14245.0
 30
0.0
 11
2573.01510419
 21
14415.0
 31
0.0
  0
LINE
  5
9B
330
35A
100
AcDbEntity
  8
YKK_Z1
  6
Continuous
100
AcDbLine
 10
2350.0
 20
14245.0
 30
0.0
 11
2350.0
 21
14415.0
 31
0.0
  0
LINE
  5
9C
330
35A
100
AcDbEntity
  8
YKK_N1
  6
ByBlock
100
AcDbLine
 10
2300.0
 20
13925.0
 30
0.0
 11
2213.39745962
 21
13975.0
 31
0.0
  0
LINE
  5
9D
330
35A
100
AcDbEntity
  8
YKK_N1
  6
ByBlock
100
AcDbLine
 10
2300.0
 20
13925.0
 30
0.0
 11
2200.0
 21
13925.0
 31
0.0
  0
LINE
  5
9E
330
35A
100
AcDbEntity
  8
YKK_Z1
  6
Continuous
100
AcDbLine
 10
2340.0
 20
14227.0
 30
0.0
 11
2340.0
 21
14215.0
 31
0.0
  0
LINE
  5
9F
330
35A
100
AcDbEntity
  8
YKK_Z1
  6
Continuous
100
AcDbLine
 10
2340.0
 20
14211.86290521
 30
0.0
 11
2333.1370936
 21
14205.0
 31
0.0
  0
LINE
  5
A0
330
35A
100
AcDbEntity
  8
YKK_Z1
  6
Continuous
100
AcDbLine
 10
2340.0
 20
14240.14717891
 30
0.0
 11
2315.0
 21
14215.14718324
 31
0.0
  0
LINE
  5
A1
330
35A
100
AcDbEntity
  8
YKK_Z1
  6
Continuous
100
AcDbLine
 10
2340.0
 20
14268.43145261
 30
0.0
 11
2315.0
 21
14243.43145694
 31
0.0
  0
LINE
  5
A2
330
35A
100
AcDbEntity
  8
YKK_Z1
  6
Continuous
100
AcDbLine
 10
2340.0
 20
14296.7157263
 30
0.0
 11
2315.0
 21
14271.71573063
 31
0.0
  0
LINE
  5
A3
330
35A
100
AcDbEntity
  8
YKK_Z1
  6
Continuous
100
AcDbLine
 10
2315.0
 20
14205.0
 30
0.0
 11
2340.0
 21
14205.0
 31
0.0
  0
LINE
  5
A4
330
35A
100
AcDbEntity
  8
YKK_B1
100
AcDbLine
 10
2300.0
 20
14371.0
 30
0.0
 11
2270.0
 21
14371.0
 31
0.0
  0
LINE
  5
A5
330
35A
100
AcDbEntity
  8
YKK_B1
100
AcDbLine
 10
2220.0
 20
14383.0
 30
0.0
 11
2236.0
 21
14383.0
 31
0.0
  0
LINE
  5
A6
330
35A
100
AcDbEntity
  8
YKK_B1
100
AcDbLine
 10
2220.0
 20
14375.0
 30
0.0
 11
2220.0
 21
14383.0
 31
0.0
  0
LINE
  5
A7
330
35A
100
AcDbEntity
  8
YKK_B1
100
AcDbLine
 10
2236.0
 20
14425.0
 30
0.0
 11
2236.0
 21
14375.0
 31
0.0
  0
LINE
  5
A8
330
35A
100
AcDbEntity
  8
YKK_B1
100
AcDbLine
 10
2220.0
 20
14425.0
 30
0.0
 11
2295.0
 21
14425.0
 31
0.0
  0
LINE
  5
A9
330
35A
100
AcDbEntity
  8
YKK_B1
100
AcDbLine
 10
2275.0
 20
14375.0
 30
0.0
 11
2275.0
 21
14425.0
 31
0.0
  0
LINE
  5
AA
330
35A
100
AcDbEntity
  8
YKK_B1
100
AcDbLine
 10
2220.0
 20
14375.0
 30
0.0
 11
2275.0
 21
14375.0
 31
0.0
  0
LINE
  5
AB
330
35A
100
AcDbEntity
  8
YKK_Z1
  6
Continuous
100
AcDbLine
 10
2330.0
 20
14415.0
 30
0.0
 11
2350.0
 21
14415.0
 31
0.0
  0
LINE
  5
AC
330
35A
100
AcDbEntity
  8
YKK_Z1
  6
Continuous
100
AcDbLine
 10
2340.0
 20
14325.0
 30
0.0
 11
2315.0
 21
14300.00000433
 31
0.0
  0
LINE
  5
AD
330
35A
100
AcDbEntity
  8
YKK_Z1
  6
Continuous
100
AcDbLine
 10
2340.0
 20
14325.0
 30
0.0
 11
2315.0
 21
14325.0
 31
0.0
  0
LINE
  5
AE
330
35A
100
AcDbEntity
  8
YKK_B1
100
AcDbLine
 10
2325.0
 20
14370.0
 30
0.0
 11
2325.0
 21
14363.0
 31
0.0
  0
LINE
  5
AF
330
35A
100
AcDbEntity
  8
YKK_B1
100
AcDbLine
 10
2330.0
 20
14370.0
 30
0.0
 11
2300.0
 21
14370.0
 31
0.0
  0
LINE
  5
B0
330
35A
100
AcDbEntity
  8
YKK_B1
100
AcDbLine
 10
2330.0
 20
14425.0
 30
0.0
 11
2330.0
 21
14370.0
 31
0.0
  0
LINE
  5
B1
330
35A
100
AcDbEntity
  8
YKK_B1
100
AcDbLine
 10
2300.0
 20
14425.0
 30
0.0
 11
2330.0
 21
14425.0
 31
0.0
  0
LINE
  5
B2
330
35A
100
AcDbEntity
  8
YKK_B1
100
AcDbLine
 10
2325.0
 20
14325.0
 30
0.0
 11
2325.0
 21
14332.0
 31
0.0
  0
LINE
  5
B3
330
35A
100
AcDbEntity
  8
YKK_B1
100
AcDbLine
 10
2300.0
 20
14325.0
 30
0.0
 11
2325.0
 21
14325.0
 31
0.0
  0
LINE
  5
B4
330
35A
100
AcDbEntity
  8
YKK_B1
100
AcDbLine
 10
2300.0
 20
14325.0
 30
0.0
 11
2300.0
 21
14425.0
 31
0.0
  0
LINE
  5
B6
330
35A
100
AcDbEntity
  8
YKK_N1
  6
CENTER
100
AcDbLine
 10
4100.0
 20
15025.0
 30
0.0
 11
4600.0
 21
15025.0
 31
0.0
  0
LINE
  5
B7
330
35A
100
AcDbEntity
  8
YKK_N1
100
AcDbLine
 10
4200.0
 20
15025.0
 30
0.0
 11
4200.0
 21
15045.0
 31
0.0
  0
CIRCLE
  5
B8
330
35A
100
AcDbEntity
  8
YKK_N1
100
AcDbCircle
 10
4200.0
 20
15025.0
 30
0.0
 40
6.5
  0
CIRCLE
  5
B9
330
35A
100
AcDbEntity
  8
YKK_N1
100
AcDbCircle
 10
4200.0
 20
15025.0
 30
0.0
 40
10.0
  0
TEXT
  5
BA
330
35A
100
AcDbEntity
  8
YKK_N1
100
AcDbText
 10
4190.0
 20
15780.14285714
 30
0.0
 40
60.0
  1
1700
 50
90.0
 41
0.8
100
AcDbText
1001
ACAD
1000
MTEXTBEGIN
1070
    73
1070
     1
1070
    44
1040
1.0
1070
    74
1070
     0
1000
MTEXTEND
  0
TEXT
  5
BB
330
35A
100
AcDbEntity
  8
0
100
AcDbText
 10
100.0
 20
18737.5
 30
0.0
 40
175.0
  1
W＝800　H＝600
  7
EXTFONT
100
AcDbText
  0
TEXT
  5
BC
330
35A
100
AcDbEntity
  8
0
100
AcDbText
 10
100.0
 20
19187.5
 30
0.0
 40
175.0
  1
辷り出し窓
  7
EXTFONT
100
AcDbText
  0
LINE
  5
BD
330
35A
100
AcDbEntity
  8
YKK_N1
100
AcDbLine
 10
1501.0
 20
16325.0
 30
0.0
 11
2299.0
 21
16325.0
 31
0.0
  0
TEXT
  5
BE
330
35A
100
AcDbEntity
  8
YKK_A1
100
AcDbText
 10
1921.2
 20
16870.0
 30
0.0
 40
60.0
  1
複層ガラス
 41
0.8
 72
     2
 11
2190.0
 21
16870.0
 31
0.0
100
AcDbText
  0
TEXT
  5
BF
330
35A
100
AcDbEntity
  8
YKK_A1
100
AcDbText
 10
1886.0
 20
16800.0
 30
0.0
 40
60.0
  1
5+A12+5
 41
0.8
 72
     2
 11
2190.0
 21
16800.0
 31
0.0
100
AcDbText
  0
LINE
  5
C0
330
35A
100
AcDbEntity
  8
YKK_A1
  6
CENTER
100
AcDbLine
 10
1530.0
 20
16725.0
 30
0.0
 11
2270.0
 21
17295.0
 31
0.0
  0
LINE
  5
C1
330
35A
100
AcDbEntity
  8
YKK_A1
100
AcDbLine
 10
2220.0
 20
17245.0
 30
0.0
 11
1580.0
 21
17245.0
 31
0.0
  0
LINE
  5
C2
330
35A
100
AcDbEntity
  8
YKK_A1
100
AcDbLine
 10
1580.0
 20
16770.0
 30
0.0
 11
2220.0
 21
16770.0
 31
0.0
  0
LINE
  5
C3
330
35A
100
AcDbEntity
  8
YKK_A1
100
AcDbLine
 10
2270.0
 20
17295.0
 30
0.0
 11
1530.0
 21
17295.0
 31
0.0
  0
LINE
  5
C4
330
35A
100
AcDbEntity
  8
YKK_A1
100
AcDbLine
 10
1530.0
 20
16725.0
 30
0.0
 11
2270.0
 21
16725.0
 31
0.0
  0
LINE
  5
C5
330
35A
100
AcDbEntity
  8
YKK_A1
100
AcDbLine
 10
2300.0
 20
17325.0
 30
0.0
 11
1500.0
 21
17325.0
 31
0.0
  0
LINE
  5
C6
330
35A
100
AcDbEntity
  8
YKK_A1
100
AcDbLine
 10
1500.0
 20
16725.0
 30
0.0
 11
2300.0
 21
16725.0
 31
0.0
  0
LINE
  5
C7
330
35A
100
AcDbEntity
  8
YKK_A1
100
AcDbLine
 10
2315.0
 20
17340.0
 30
0.0
 11
1485.0
 21
17340.0
 31
0.0
  0
LINE
  5
C8
330
35A
100
AcDbEntity
  8
YKK_A1
100
AcDbLine
 10
1485.0
 20
16725.0
 30
0.0
 11
2315.0
 21
16725.0
 31
0.0
  0
LINE
  5
C9
330
35A
100
AcDbEntity
  8
YKK_A1
100
AcDbLine
 10
1580.0
 20
17245.0
 30
0.0
 11
1580.0
 21
16770.0
 31
0.0
  0
LINE
  5
CA
330
35A
100
AcDbEntity
  8
YKK_A1
100
AcDbLine
 10
1530.0
 20
17295.0
 30
0.0
 11
1530.0
 21
16725.0
 31
0.0
  0
LINE
  5
CB
330
35A
100
AcDbEntity
  8
YKK_A1
100
AcDbLine
 10
1500.0
 20
17325.0
 30
0.0
 11
1500.0
 21
16725.0
 31
0.0
  0
LINE
  5
CC
330
35A
100
AcDbEntity
  8
YKK_A1
100
AcDbLine
 10
1485.0
 20
17340.0
 30
0.0
 11
1485.0
 21
16725.0
 31
0.0
  0
LINE
  5
CD
330
35A
100
AcDbEntity
  8
YKK_N1
100
AcDbLine
 10
1500.0
 20
16665.0
 30
0.0
 11
1500.0
 21
16295.0
 31
0.0
  0
LINE
  5
CE
330
35A
100
AcDbEntity
  8
YKK_N1
  6
ByBlock
100
AcDbLine
 10
1586.60254038
 20
16375.0
 30
0.0
 11
1500.0
 21
16325.0
 31
0.0
  0
LINE
  5
CF
330
35A
100
AcDbEntity
  8
YKK_N1
  6
ByBlock
100
AcDbLine
 10
1586.60254038
 20
16275.0
 30
0.0
 11
1586.60254038
 21
16375.0
 31
0.0
  0
LINE
  5
D0
330
35A
100
AcDbEntity
  8
YKK_N1
  6
ByBlock
100
AcDbLine
 10
1500.0
 20
16325.0
 30
0.0
 11
1586.60254038
 21
16275.0
 31
0.0
  0
LINE
  5
D1
330
35A
100
AcDbEntity
  8
YKK_N1
  6
ByBlock
100
AcDbLine
 10
1500.0
 20
16325.0
 30
0.0
 11
1600.0
 21
16325.0
 31
0.0
  0
TEXT
  5
D2
330
35A
100
AcDbEntity
  8
YKK_N1
100
AcDbText
 10
1775.42857143
 20
16335.0
 30
0.0
 40
60.0
  1
W=800
 41
0.8
100
AcDbText
1001
ACAD
1000
MTEXTBEGIN
1070
    73
1070
     1
1070
    44
1040
1.0
1070
    74
1070
     0
1000
MTEXTEND
  0
LINE
  5
D3
330
35A
100
AcDbEntity
  8
YKK_A2
  6
ByBlock
100
AcDbLine
 10
2000.0
 20
16761.0
 30
0.0
 11
2000.0
 21
16749.0
 31
0.0
  0
LINE
  5
D4
330
35A
100
AcDbEntity
  8
YKK_A2
  6
ByBlock
100
AcDbLine
 10
1928.0
 20
16745.0
 30
0.0
 11
1909.0
 21
16745.0
 31
0.0
  0
LINE
  5
D5
330
35A
100
AcDbEntity
  8
YKK_A2
  6
ByBlock
100
AcDbLine
 10
1904.0
 20
16761.0
 30
0.0
 11
1904.0
 21
16749.0
 31
0.0
  0
LINE
  5
D6
330
35A
100
AcDbEntity
  8
YKK_A2
  6
ByBlock
100
AcDbLine
 10
1896.0
 20
16761.0
 30
0.0
 11
1896.0
 21
16745.0
 31
0.0
  0
LINE
  5
D7
330
35A
100
AcDbEntity
  8
YKK_A2
  6
ByBlock
100
AcDbLine
 10
1896.0
 20
16745.0
 30
0.0
 11
1872.0
 21
16745.0
 31
0.0
  0
CIRCLE
  5
D8
330
35A
100
AcDbEntity
  8
YKK_A2
  6
ByBlock
100
AcDbCircle
 10
1920.0
 20
16735.0
 30
0.0
 40
4.099999999999998
  0
CIRCLE
  5
D9
330
35A
100
AcDbEntity
  8
YKK_A2
  6
ByBlock
100
AcDbCircle
 10
1920.0
 20
16735.0
 30
0.0
 40
2.25
  0
LINE
  5
DA
330
35A
100
AcDbEntity
  8
YKK_A2
  6
ByBlock
100
AcDbLine
 10
1909.0
 20
16735.0
 30
0.0
 11
1900.0
 21
16735.0
 31
0.0
  0
LINE
  5
DB
330
35A
100
AcDbEntity
  8
YKK_A2
  6
ByBlock
100
AcDbLine
 10
1891.0
 20
16725.0
 30
0.0
 11
1900.0
 21
16735.0
 31
0.0
  0
CIRCLE
  5
DC
330
35A
100
AcDbEntity
  8
YKK_A2
  6
ByBlock
100
AcDbCircle
 10
1880.0
 20
16735.0
 30
0.0
 40
4.099999999999998
  0
CIRCLE
  5
DD
330
35A
100
AcDbEntity
  8
YKK_A2
  6
ByBlock
100
AcDbCircle
 10
1880.0
 20
16735.0
 30
0.0
 40
2.25
  0
LINE
  5
DE
330
35A
100
AcDbEntity
  8
YKK_A2
  6
ByBlock
100
AcDbLine
 10
1872.0
 20
16725.0
 30
0.0
 11
1928.0
 21
16725.0
 31
0.0
  0
LINE
  5
DF
330
35A
100
AcDbEntity
  8
YKK_A2
  6
ByBlock
100
AcDbLine
 10
1872.0
 20
16745.0
 30
0.0
 11
1872.0
 21
16725.0
 31
0.0
  0
LINE
  5
E0
330
35A
100
AcDbEntity
  8
YKK_A2
  6
ByBlock
100
AcDbLine
 10
1891.0
 20
16745.0
 30
0.0
 11
1891.0
 21
16725.0
 31
0.0
  0
LINE
  5
E1
330
35A
100
AcDbEntity
  8
YKK_A2
  6
ByBlock
100
AcDbLine
 10
1928.0
 20
16725.0
 30
0.0
 11
1928.0
 21
16745.0
 31
0.0
  0
LINE
  5
E2
330
35A
100
AcDbEntity
  8
YKK_A2
  6
ByBlock
100
AcDbLine
 10
1900.0
 20
16735.0
 30
0.0
 11
1904.0
 21
16749.0
 31
0.0
  0
LINE
  5
E3
330
35A
100
AcDbEntity
  8
YKK_A2
  6
ByBlock
100
AcDbLine
 10
1909.0
 20
16749.0
 30
0.0
 11
1909.0
 21
16725.0
 31
0.0
  0
LINE
  5
E4
330
35A
100
AcDbEntity
  8
YKK_A2
  6
ByBlock
100
AcDbLine
 10
2000.0
 20
16749.0
 30
0.0
 11
1904.0
 21
16749.0
 31
0.0
  0
LINE
  5
E5
330
35A
100
AcDbEntity
  8
YKK_A2
  6
ByBlock
100
AcDbLine
 10
2000.0
 20
16761.0
 30
0.0
 11
1896.0
 21
16761.0
 31
0.0
  0
TEXT
  5
E6
330
35A
100
AcDbEntity
  8
YKK_N1
100
AcDbText
 10
2690.0
 20
16900.42857143
 30
0.0
 40
60.0
  1
H=600
 50
90.0
 41
0.8
100
AcDbText
1001
ACAD
1000
MTEXTBEGIN
1070
    73
1070
     1
1070
    44
1040
1.0
1070
    74
1070
     0
1000
MTEXTEND
  0
LINE
  5
E7
330
35A
100
AcDbEntity
  8
YKK_N1
100
AcDbLine
 10
2700.0
 20
16726.0
 30
0.0
 11
2700.0
 21
17324.0
 31
0.0
  0
LINE
  5
E8
330
35A
100
AcDbEntity
  8
YKK_A1
100
AcDbLine
 10
2220.0
 20
16770.0
 30
0.0
 11
2220.0
 21
17245.0
 31
0.0
  0
LINE
  5
E9
330
35A
100
AcDbEntity
  8
YKK_A1
100
AcDbLine
 10
2270.0
 20
16725.0
 30
0.0
 11
2270.0
 21
17295.0
 31
0.0
  0
LINE
  5
EA
330
35A
100
AcDbEntity
  8
YKK_A1
100
AcDbLine
 10
2300.0
 20
16725.0
 30
0.0
 11
2300.0
 21
17325.0
 31
0.0
  0
LINE
  5
EB
330
35A
100
AcDbEntity
  8
YKK_A1
100
AcDbLine
 10
2315.0
 20
16725.0
 30
0.0
 11
2315.0
 21
17340.0
 31
0.0
  0
LINE
  5
EC
330
35A
100
AcDbEntity
  8
YKK_N1
100
AcDbLine
 10
2360.0
 20
16725.0
 30
0.0
 11
2730.0
 21
16725.0
 31
0.0
  0
LINE
  5
ED
330
35A
100
AcDbEntity
  8
YKK_N1
100
AcDbLine
 10
2300.0
 20
16665.0
 30
0.0
 11
2300.0
 21
16295.0
 31
0.0
  0
LINE
  5
EE
330
35A
100
AcDbEntity
  8
YKK_N1
  6
ByBlock
100
AcDbLine
 10
2213.39745962
 20
16275.0
 30
0.0
 11
2300.0
 21
16325.0
 31
0.0
  0
LINE
  5
EF
330
35A
100
AcDbEntity
  8
YKK_N1
  6
ByBlock
100
AcDbLine
 10
2300.0
 20
16325.0
 30
0.0
 11
2213.39745962
 21
16375.0
 31
0.0
  0
LINE
  5
F0
330
35A
100
AcDbEntity
  8
YKK_N1
  6
ByBlock
100
AcDbLine
 10
2300.0
 20
16325.0
 30
0.0
 11
2200.0
 21
16325.0
 31
0.0
  0
LINE
  5
F1
330
35A
100
AcDbEntity
  8
YKK_N1
  6
ByBlock
100
AcDbLine
 10
2213.39745962
 20
16375.0
 30
0.0
 11
2213.39745962
 21
16275.0
 31
0.0
  0
LINE
  5
F2
330
35A
100
AcDbEntity
  8
YKK_N1
  6
ByBlock
100
AcDbLine
 10
2650.0
 20
16811.60254038
 30
0.0
 11
2700.0
 21
16725.0
 31
0.0
  0
LINE
  5
F3
330
35A
100
AcDbEntity
  8
YKK_N1
  6
ByBlock
100
AcDbLine
 10
2750.0
 20
16811.60254038
 30
0.0
 11
2650.0
 21
16811.60254038
 31
0.0
  0
LINE
  5
F4
330
35A
100
AcDbEntity
  8
YKK_N1
  6
ByBlock
100
AcDbLine
 10
2700.0
 20
16725.0
 30
0.0
 11
2750.0
 21
16811.60254038
 31
0.0
  0
LINE
  5
F5
330
35A
100
AcDbEntity
  8
YKK_N1
  6
ByBlock
100
AcDbLine
 10
2700.0
 20
16725.0
 30
0.0
 11
2700.0
 21
16825.0
 31
0.0
  0
LINE
  5
F6
330
35A
100
AcDbEntity
  8
YKK_N1
100
AcDbLine
 10
2360.0
 20
17325.0
 30
0.0
 11
2730.0
 21
17325.0
 31
0.0
  0
LINE
  5
F7
330
35A
100
AcDbEntity
  8
YKK_N1
  6
ByBlock
100
AcDbLine
 10
2750.0
 20
17238.39745962
 30
0.0
 11
2700.0
 21
17325.0
 31
0.0
  0
LINE
  5
F8
330
35A
100
AcDbEntity
  8
YKK_N1
  6
ByBlock
100
AcDbLine
 10
2650.0
 20
17238.39745962
 30
0.0
 11
2750.0
 21
17238.39745962
 31
0.0
  0
LINE
  5
F9
330
35A
100
AcDbEntity
  8
YKK_N1
  6
ByBlock
100
AcDbLine
 10
2700.0
 20
17325.0
 30
0.0
 11
2650.0
 21
17238.39745962
 31
0.0
  0
LINE
  5
FA
330
35A
100
AcDbEntity
  8
YKK_N1
  6
ByBlock
100
AcDbLine
 10
2700.0
 20
17325.0
 30
0.0
 11
2700.0
 21
17225.0
 31
0.0
  0
TEXT
  5
FB
330
35A
100
AcDbEntity
  8
YKK_N1
100
AcDbText
 10
4190.0
 20
16900.42857143
 30
0.0
 40
60.0
  1
H=600
 50
90.0
 41
0.8
100
AcDbText
1001
ACAD
1000
MTEXTBEGIN
1070
    73
1070
     1
1070
    44
1040
1.0
1070
    74
1070
     0
1000
MTEXTEND
  0
LINE
  5
FC
330
35A
100
AcDbEntity
  8
YKK_N1
100
AcDbLine
 10
4200.0
 20
16726.0
 30
0.0
 11
4200.0
 21
17324.0
 31
0.0
  0
LINE
  5
FD
330
35A
100
AcDbEntity
  8
YKK_Z1
  6
Continuous
100
AcDbLine
 10
3920.0
 20
17340.0
 30
0.0
 11
3920.0
 21
17025.0
 31
0.0
  0
LINE
  5
FE
330
35A
100
AcDbEntity
  8
YKK_C1
  6
PHANTOM
100
AcDbLine
 10
3700.0
 20
17168.0
 30
0.0
 11
3384.00331439
 21
16620.67003868
 31
0.0
  0
LINE
  5
100
330
35A
100
AcDbEntity
  8
YKK_C1
100
AcDbLine
 10
3700.0
 20
16790.0
 30
0.0
 11
3700.0
 21
17225.0
 31
0.0
  0
LINE
  5
101
330
35A
100
AcDbEntity
  8
YKK_C1
100
AcDbLine
 10
3800.0
 20
16745.0
 30
0.0
 11
3800.0
 21
17305.0
 31
0.0
  0
LINE
  5
102
330
35A
100
AcDbEntity
  8
YKK_C1
100
AcDbLine
 10
3728.0
 20
16762.0
 30
0.0
 11
3728.0
 21
17253.0
 31
0.0
  0
LINE
  5
103
330
35A
100
AcDbEntity
  8
YKK_C1
100
AcDbLine
 10
3714.0
 20
16762.0
 30
0.0
 11
3714.0
 21
17253.0
 31
0.0
  0
ARC
  5
104
330
35A
100
AcDbEntity
  8
YKK_C1
  6
PHANTOM
100
AcDbCircle
 10
3414.67202263
 20
17251.92547853
 30
0.0
 40
632.0000000000002
100
AcDbArc
 50
267.2185476
 51
296.83792884
  0
LINE
  5
105
330
35A
100
AcDbEntity
  8
YKK_Z1
  6
Continuous
100
AcDbLine
 10
3898.0
 20
16325.0
 30
0.0
 11
3898.0
 21
16700.0
 31
0.0
  0
LINE
  5
106
330
35A
100
AcDbEntity
  8
YKK_Z1
  6
Continuous
100
AcDbLine
 10
3910.0
 20
16700.0
 30
0.0
 11
3910.0
 21
16325.0
 31
0.0
  0
LINE
  5
107
330
35A
100
AcDbEntity
  8
YKK_Z1
  6
Continuous
100
AcDbLine
 10
3710.0
 20
16665.0
 30
0.0
 11
3710.0
 21
16625.0
 31
0.0
  0
LINE
  5
108
330
35A
100
AcDbEntity
  8
YKK_Z1
  6
CENTER
100
AcDbLine
 10
3805.0
 20
16645.0
 30
0.0
 11
3805.0
 21
16325.0
 31
0.0
  0
LINE
  5
109
330
35A
100
AcDbEntity
  8
YKK_Z1
  6
Continuous
100
AcDbLine
 10
3820.0
 20
16650.0
 30
0.0
 11
3810.0
 21
16625.0
 31
0.0
  0
LINE
  5
10A
330
35A
100
AcDbEntity
  8
YKK_Z1
  6
Continuous
100
AcDbLine
 10
3880.0
 20
16325.0
 30
0.0
 11
3880.0
 21
16650.0
 31
0.0
  0
LINE
  5
10B
330
35A
100
AcDbEntity
  8
YKK_Z1
  6
HIDDEN
100
AcDbLine
 10
3730.0
 20
16325.0
 30
0.0
 11
3730.0
 21
16625.0
 31
0.0
  0
LINE
  5
10C
330
35A
100
AcDbEntity
  8
YKK_Z1
  6
Continuous
100
AcDbLine
 10
3880.0
 20
16593.70064666
 30
0.0
 11
3710.0
 21
16423.70061722
 31
0.0
  0
LINE
  5
10D
330
35A
100
AcDbEntity
  8
YKK_Z1
  6
Continuous
100
AcDbLine
 10
3880.0
 20
16613.49964168
 30
0.0
 11
3710.0
 21
16443.49961223
 31
0.0
  0
LINE
  5
10E
330
35A
100
AcDbEntity
  8
YKK_Z1
  6
Continuous
100
AcDbLine
 10
3880.0
 20
16621.98492526
 30
0.0
 11
3710.0
 21
16451.98489581
 31
0.0
  0
LINE
  5
110
330
35A
100
AcDbEntity
  8
YKK_Z1
  6
Continuous
100
AcDbLine
 10
3710.0
 20
16625.0
 30
0.0
 11
3710.0
 21
16325.0
 31
0.0
  0
LINE
  5
111
330
35A
100
AcDbEntity
  8
YKK_Z1
  6
Continuous
100
AcDbLine
 10
3810.0
 20
16625.0
 30
0.0
 11
3710.0
 21
16625.0
 31
0.0
  0
LINE
  5
112
330
35A
100
AcDbEntity
  8
YKK_N1
100
AcDbLine
 10
3860.0
 20
16725.0
 30
0.0
 11
4230.0
 21
16725.0
 31
0.0
  0
LINE
  5
113
330
35A
100
AcDbEntity
  8
YKK_Z1
  6
Continuous
100
AcDbLine
 10
3920.0
 20
16725.0
 30
0.0
 11
3920.0
 21
17025.0
 31
0.0
  0
LINE
  5
114
330
35A
100
AcDbEntity
  8
YKK_Z1
  6
Continuous
100
AcDbLine
 10
3898.0
 20
16700.0
 30
0.0
 11
3910.0
 21
16700.0
 31
0.0
  0
LINE
  5
115
330
35A
100
AcDbEntity
  8
YKK_Z1
  6
Continuous
100
AcDbLine
 10
3913.13709479
 20
16700.0
 30
0.0
 11
3920.0
 21
16706.8629064
 31
0.0
  0
LINE
  5
116
330
35A
100
AcDbEntity
  8
YKK_Z1
  6
Continuous
100
AcDbLine
 10
3884.85282109
 20
16700.0
 30
0.0
 11
3909.85281676
 21
16725.0
 31
0.0
  0
LINE
  5
117
330
35A
100
AcDbEntity
  8
YKK_Z1
  6
Continuous
100
AcDbLine
 10
3856.56854739
 20
16700.0
 30
0.0
 11
3881.56854306
 21
16725.0
 31
0.0
  0
LINE
  5
118
330
35A
100
AcDbEntity
  8
YKK_Z1
  6
Continuous
100
AcDbLine
 10
3828.2842737
 20
16700.0
 30
0.0
 11
3853.28426937
 21
16725.0
 31
0.0
  0
LINE
  5
119
330
35A
100
AcDbEntity
  8
YKK_Z1
  6
Continuous
100
AcDbLine
 10
3800.0
 20
16700.0
 30
0.0
 11
3824.99999567
 21
16725.0
 31
0.0
  0
LINE
  5
11A
330
35A
100
AcDbEntity
  8
YKK_Z1
  6
Continuous
100
AcDbLine
 10
3800.0
 20
16700.0
 30
0.0
 11
3800.0
 21
16725.0
 31
0.0
  0
LINE
  5
11B
330
35A
100
AcDbEntity
  8
YKK_Z1
  6
Continuous
100
AcDbLine
 10
3920.0
 20
16700.0
 30
0.0
 11
3800.0
 21
16700.0
 31
0.0
  0
LINE
  5
11C
330
35A
100
AcDbEntity
  8
YKK_Z1
  6
Continuous
100
AcDbLine
 10
3920.0
 20
16725.0
 30
0.0
 11
3920.0
 21
16700.0
 31
0.0
  0
LINE
  5
11D
330
35A
100
AcDbEntity
  8
YKK_Z1
  6
Continuous
100
AcDbLine
 10
3800.0
 20
16725.0
 30
0.0
 11
3920.0
 21
16725.0
 31
0.0
  0
LINE
  5
11E
330
35A
100
AcDbEntity
  8
YKK_Z1
  6
Continuous
100
AcDbLine
 10
3880.0
 20
16650.0
 30
0.0
 11
3820.0
 21
16650.0
 31
0.0
  0
LINE
  5
11F
330
35A
100
AcDbEntity
  8
YKK_C1
100
AcDbLine
 10
3742.0
 20
16770.0
 30
0.0
 11
3742.0
 21
16754.0
 31
0.0
  0
LINE
  5
120
330
35A
100
AcDbEntity
  8
YKK_C1
100
AcDbLine
 10
3750.0
 20
16770.0
 30
0.0
 11
3742.0
 21
16770.0
 31
0.0
  0
LINE
  5
121
330
35A
100
AcDbEntity
  8
YKK_C1
100
AcDbLine
 10
3700.0
 20
16754.0
 30
0.0
 11
3750.0
 21
16754.0
 31
0.0
  0
LINE
  5
122
330
35A
100
AcDbEntity
  8
YKK_C1
100
AcDbLine
 10
3700.0
 20
16770.0
 30
0.0
 11
3700.0
 21
16688.0
 31
0.0
  0
LINE
  5
123
330
35A
100
AcDbEntity
  8
YKK_C1
100
AcDbLine
 10
3750.0
 20
16720.0
 30
0.0
 11
3700.0
 21
16720.0
 31
0.0
  0
LINE
  5
124
330
35A
100
AcDbEntity
  8
YKK_C1
100
AcDbLine
 10
3750.0
 20
16770.0
 30
0.0
 11
3750.0
 21
16720.0
 31
0.0
  0
LINE
  5
125
330
35A
100
AcDbEntity
  8
YKK_C1
100
AcDbLine
 10
3727.0
 20
16690.0
 30
0.0
 11
3800.0
 21
16690.0
 31
0.0
  0
LINE
  5
126
330
35A
100
AcDbEntity
  8
YKK_C1
100
AcDbLine
 10
3755.0
 20
16690.0
 30
0.0
 11
3755.0
 21
16655.0
 31
0.0
  0
LINE
  5
127
330
35A
100
AcDbEntity
  8
YKK_C1
100
AcDbLine
 10
3700.0
 20
16665.0
 30
0.0
 11
3755.0
 21
16665.0
 31
0.0
  0
LINE
  5
128
330
35A
100
AcDbEntity
  8
YKK_C1
100
AcDbLine
 10
3700.0
 20
16690.0
 30
0.0
 11
3700.0
 21
16665.0
 31
0.0
  0
LINE
  5
129
330
35A
100
AcDbEntity
  8
YKK_C1
100
AcDbLine
 10
3755.0
 20
16685.0
 30
0.0
 11
3761.0
 21
16685.0
 31
0.0
  0
LINE
  5
12A
330
35A
100
AcDbEntity
  8
YKK_C1
100
AcDbLine
 10
3800.0
 20
16685.0
 30
0.0
 11
3794.0
 21
16685.0
 31
0.0
  0
LINE
  5
12B
330
35A
100
AcDbEntity
  8
YKK_C1
100
AcDbLine
 10
3800.0
 20
16725.0
 30
0.0
 11
3800.0
 21
16685.0
 31
0.0
  0
LINE
  5
12D
330
35A
100
AcDbEntity
  8
YKK_C1
100
AcDbLine
 10
3727.0
 20
16690.0
 30
0.0
 11
3700.0
 21
16690.0
 31
0.0
  0
LINE
  5
12F
330
35A
100
AcDbEntity
  8
YKK_C1
100
AcDbLine
 10
3754.0
 20
16690.0
 30
0.0
 11
3700.0
 21
16690.0
 31
0.0
  0
LINE
  5
130
330
35A
100
AcDbEntity
  8
YKK_C1
100
AcDbLine
 10
3754.0
 20
16725.0
 30
0.0
 11
3754.0
 21
16690.0
 31
0.0
  0
LINE
  5
131
330
35A
100
AcDbEntity
  8
YKK_C1
100
AcDbLine
 10
3800.0
 20
16725.0
 30
0.0
 11
3754.0
 21
16725.0
 31
0.0
  0
LINE
  5
132
330
35A
100
AcDbEntity
  8
YKK_N1
  6
ByBlock
100
AcDbLine
 10
4200.0
 20
16725.0
 30
0.0
 11
4200.0
 21
16705.0
 31
0.0
  0
LINE
  5
133
330
35A
100
AcDbEntity
  8
YKK_N1
  6
ByBlock
100
AcDbLine
 10
4150.0
 20
16811.60254038
 30
0.0
 11
4200.0
 21
16725.0
 31
0.0
  0
LINE
  5
134
330
35A
100
AcDbEntity
  8
YKK_N1
  6
ByBlock
100
AcDbLine
 10
4250.0
 20
16811.60254038
 30
0.0
 11
4150.0
 21
16811.60254038
 31
0.0
  0
LINE
  5
135
330
35A
100
AcDbEntity
  8
YKK_N1
  6
ByBlock
100
AcDbLine
 10
4200.0
 20
16725.0
 30
0.0
 11
4250.0
 21
16811.60254038
 31
0.0
  0
LINE
  5
136
330
35A
100
AcDbEntity
  8
YKK_N1
  6
ByBlock
100
AcDbLine
 10
4200.0
 20
16725.0
 30
0.0
 11
4200.0
 21
16825.0
 31
0.0
  0
TEXT
  5
137
330
35A
100
AcDbEntity
  8
YKK_N1
100
AcDbText
 10
3678.0
 20
17198.0
 30
0.0
 40
60.0
  1
100
 41
0.8
100
AcDbText
1001
ACAD
1000
MTEXTBEGIN
1070
    73
1070
     1
1070
    44
1040
1.0
1070
    74
1070
     0
1000
MTEXTEND
  0
CIRCLE
  5
138
330
35A
100
AcDbEntity
  8
YKK_N1
100
AcDbCircle
 10
3700.0
 20
17153.0
 30
0.0
 40
6.5
  0
CIRCLE
  5
139
330
35A
100
AcDbEntity
  8
YKK_N1
100
AcDbCircle
 10
3700.0
 20
17153.0
 30
0.0
 40
10.0
  0
LINE
  5
13A
330
35A
100
AcDbEntity
  8
YKK_Z1
  6
Continuous
100
AcDbLine
 10
3898.0
 20
17725.0
 30
0.0
 11
3898.0
 21
17365.0
 31
0.0
  0
LINE
  5
13B
330
35A
100
AcDbEntity
  8
YKK_Z1
  6
Continuous
100
AcDbLine
 10
3910.0
 20
17365.0
 30
0.0
 11
3910.0
 21
17725.0
 31
0.0
  0
LINE
  5
13C
330
35A
100
AcDbEntity
  8
YKK_Z1
  6
HIDDEN
100
AcDbLine
 10
3730.0
 20
17725.0
 30
0.0
 11
3730.0
 21
17385.0
 31
0.0
  0
LINE
  5
13D
330
35A
100
AcDbEntity
  8
YKK_Z1
  6
CENTER
100
AcDbLine
 10
3805.0
 20
17385.0
 30
0.0
 11
3805.0
 21
17725.0
 31
0.0
  0
LINE
  5
13E
330
35A
100
AcDbEntity
  8
YKK_Z1
  6
Continuous
100
AcDbLine
 10
3861.98471014
 20
17410.0
 30
0.0
 11
3880.0
 21
17428.0152805
 31
0.0
  0
LINE
  5
13F
330
35A
100
AcDbEntity
  8
YKK_Z1
  6
Continuous
100
AcDbLine
 10
3710.0
 20
17385.0
 30
0.0
 11
3710.0
 21
17725.0
 31
0.0
  0
LINE
  5
140
330
35A
100
AcDbEntity
  8
YKK_Z1
  6
Continuous
100
AcDbLine
 10
3880.0
 20
17725.0
 30
0.0
 11
3880.0
 21
17410.0
 31
0.0
  0
TEXT
  5
141
330
35A
100
AcDbEntity
  8
YKK_N1
100
AcDbText
 10
3936.28571429
 20
17163.0
 30
0.0
 40
60.0
  1
120
 41
0.8
100
AcDbText
  0
LINE
  5
142
330
35A
100
AcDbEntity
  8
YKK_N1
100
AcDbLine
 10
3860.0
 20
17325.0
 30
0.0
 11
4230.0
 21
17325.0
 31
0.0
  0
LINE
  5
143
330
35A
100
AcDbEntity
  8
YKK_N1
  6
Continuous
100
AcDbLine
 10
3920.0
 20
17153.0
 30
0.0
 11
4076.57142857
 21
17153.0
 31
0.0
  0
LINE
  5
144
330
35A
100
AcDbEntity
  8
YKK_N1
100
AcDbLine
 10
3800.0
 20
17153.0
 30
0.0
 11
3820.0
 21
17153.0
 31
0.0
  0
CIRCLE
  5
145
330
35A
100
AcDbEntity
  8
YKK_N1
100
AcDbCircle
 10
3800.0
 20
17153.0
 30
0.0
 40
6.5
  0
CIRCLE
  5
146
330
35A
100
AcDbEntity
  8
YKK_N1
100
AcDbCircle
 10
3800.0
 20
17153.0
 30
0.0
 40
10.0
  0
LINE
  5
147
330
35A
100
AcDbEntity
  8
YKK_N1
100
AcDbLine
 10
3920.0
 20
17153.0
 30
0.0
 11
3900.0
 21
17153.0
 31
0.0
  0
CIRCLE
  5
148
330
35A
100
AcDbEntity
  8
YKK_N1
100
AcDbCircle
 10
3920.0
 20
17153.0
 30
0.0
 40
6.5
  0
CIRCLE
  5
149
330
35A
100
AcDbEntity
  8
YKK_N1
100
AcDbCircle
 10
3920.0
 20
17153.0
 30
0.0
 40
10.0
  0
LINE
  5
14A
330
35A
100
AcDbEntity
  8
YKK_N1
100
AcDbLine
 10
3800.0
 20
17153.0
 30
0.0
 11
3780.0
 21
17153.0
 31
0.0
  0
CIRCLE
  5
14B
330
35A
100
AcDbEntity
  8
YKK_N1
100
AcDbCircle
 10
3800.0
 20
17153.0
 30
0.0
 40
6.5
  0
CIRCLE
  5
14C
330
35A
100
AcDbEntity
  8
YKK_N1
100
AcDbCircle
 10
3800.0
 20
17153.0
 30
0.0
 40
10.0
  0
LINE
  5
14D
330
35A
100
AcDbEntity
  8
YKK_N1
100
AcDbLine
 10
3700.0
 20
17153.0
 30
0.0
 11
3720.0
 21
17153.0
 31
0.0
  0
LINE
  5
14E
330
35A
100
AcDbEntity
  8
YKK_N1
100
AcDbLine
 10
3780.0
 20
17153.0
 30
0.0
 11
3720.0
 21
17153.0
 31
0.0
  0
LINE
  5
14F
330
35A
100
AcDbEntity
  8
YKK_N1
100
AcDbLine
 10
3700.0
 20
17203.0
 30
0.0
 11
3700.0
 21
17183.0
 31
0.0
  0
LINE
  5
150
330
35A
100
AcDbEntity
  8
YKK_N1
100
AcDbLine
 10
3800.0
 20
17203.0
 30
0.0
 11
3800.0
 21
17183.0
 31
0.0
  0
LINE
  5
151
330
35A
100
AcDbEntity
  8
YKK_N1
  6
Continuous
100
AcDbLine
 10
3820.0
 20
17153.0
 30
0.0
 11
3900.0
 21
17153.0
 31
0.0
  0
LINE
  5
152
330
35A
100
AcDbEntity
  8
YKK_N1
  6
Continuous
100
AcDbLine
 10
3920.0
 20
17280.0
 30
0.0
 11
3920.0
 21
17123.0
 31
0.0
  0
LINE
  5
153
330
35A
100
AcDbEntity
  8
YKK_N1
  6
Continuous
100
AcDbLine
 10
3800.0
 20
17213.0
 30
0.0
 11
3800.0
 21
17183.0
 31
0.0
  0
LINE
  5
154
330
35A
100
AcDbEntity
  8
YKK_Z1
  6
Continuous
100
AcDbLine
 10
3898.0
 20
17365.0
 30
0.0
 11
3910.0
 21
17365.0
 31
0.0
  0
LINE
  5
155
330
35A
100
AcDbEntity
  8
YKK_Z1
  6
Continuous
100
AcDbLine
 10
3710.0
 20
17365.0
 30
0.0
 11
3710.0
 21
17385.0
 31
0.0
  0
LINE
  5
156
330
35A
100
AcDbEntity
  8
YKK_Z1
  6
Continuous
100
AcDbLine
 10
3920.0
 20
17343.57864265
 30
0.0
 11
3916.42135549
 21
17340.0
 31
0.0
  0
LINE
  5
157
330
35A
100
AcDbEntity
  8
YKK_Z1
  6
Continuous
100
AcDbLine
 10
3913.13709479
 20
17365.0
 30
0.0
 11
3888.1370818
 21
17340.0
 31
0.0
  0
LINE
  5
158
330
35A
100
AcDbEntity
  8
YKK_Z1
  6
Continuous
100
AcDbLine
 10
3884.85282109
 20
17365.0
 30
0.0
 11
3859.8528081
 21
17340.0
 31
0.0
  0
LINE
  5
159
330
35A
100
AcDbEntity
  8
YKK_Z1
  6
Continuous
100
AcDbLine
 10
3856.56854739
 20
17365.0
 30
0.0
 11
3831.5685344
 21
17340.0
 31
0.0
  0
LINE
  5
15A
330
35A
100
AcDbEntity
  8
YKK_Z1
  6
Continuous
100
AcDbLine
 10
3828.2842737
 20
17365.0
 30
0.0
 11
3803.28426071
 21
17340.0
 31
0.0
  0
LINE
  5
15C
330
35A
100
AcDbEntity
  8
YKK_Z1
  6
Continuous
100
AcDbLine
 10
3800.0
 20
17365.0
 30
0.0
 11
3800.0
 21
17340.0
 31
0.0
  0
LINE
  5
15D
330
35A
100
AcDbEntity
  8
YKK_Z1
  6
Continuous
100
AcDbLine
 10
3920.0
 20
17365.0
 30
0.0
 11
3800.0
 21
17365.0
 31
0.0
  0
LINE
  5
15E
330
35A
100
AcDbEntity
  8
YKK_Z1
  6
Continuous
100
AcDbLine
 10
3920.0
 20
17340.0
 30
0.0
 11
3920.0
 21
17365.0
 31
0.0
  0
LINE
  5
15F
330
35A
100
AcDbEntity
  8
YKK_Z1
  6
Continuous
100
AcDbLine
 10
3800.0
 20
17340.0
 30
0.0
 11
3920.0
 21
17340.0
 31
0.0
  0
LINE
  5
160
330
35A
100
AcDbEntity
  8
YKK_Z1
  6
Continuous
100
AcDbLine
 10
3870.46999225
 20
17410.0
 30
0.0
 11
3880.0
 21
17419.5300028
 31
0.0
  0
LINE
  5
161
330
35A
100
AcDbEntity
  8
YKK_Z1
  6
Continuous
100
AcDbLine
 10
3760.0
 20
17385.0
 30
0.0
 11
3710.0
 21
17385.0
 31
0.0
  0
LINE
  5
162
330
35A
100
AcDbEntity
  8
YKK_Z1
  6
Continuous
100
AcDbLine
 10
3770.0
 20
17410.0
 30
0.0
 11
3760.0
 21
17385.0
 31
0.0
  0
LINE
  5
163
330
35A
100
AcDbEntity
  8
YKK_Z1
  6
Continuous
100
AcDbLine
 10
3880.0
 20
17410.0
 30
0.0
 11
3770.0
 21
17410.0
 31
0.0
  0
LINE
  5
164
330
35A
100
AcDbEntity
  8
YKK_C1
100
AcDbLine
 10
3742.0
 20
17245.0
 30
0.0
 11
3742.0
 21
17261.0
 31
0.0
  0
LINE
  5
165
330
35A
100
AcDbEntity
  8
YKK_C1
100
AcDbLine
 10
3750.0
 20
17245.0
 30
0.0
 11
3742.0
 21
17245.0
 31
0.0
  0
LINE
  5
166
330
35A
100
AcDbEntity
  8
YKK_C1
100
AcDbLine
 10
3750.0
 20
17261.0
 30
0.0
 11
3700.0
 21
17261.0
 31
0.0
  0
LINE
  5
167
330
35A
100
AcDbEntity
  8
YKK_C1
100
AcDbLine
 10
3700.0
 20
17245.0
 30
0.0
 11
3700.0
 21
17320.0
 31
0.0
  0
LINE
  5
168
330
35A
100
AcDbEntity
  8
YKK_C1
100
AcDbLine
 10
3750.0
 20
17300.0
 30
0.0
 11
3700.0
 21
17300.0
 31
0.0
  0
LINE
  5
169
330
35A
100
AcDbEntity
  8
YKK_C1
100
AcDbLine
 10
3750.0
 20
17245.0
 30
0.0
 11
3750.0
 21
17300.0
 31
0.0
  0
LINE
  5
16A
330
35A
100
AcDbEntity
  8
YKK_C1
100
AcDbLine
 10
3755.0
 20
17375.0
 30
0.0
 11
3755.0
 21
17360.0
 31
0.0
  0
LINE
  5
16B
330
35A
100
AcDbEntity
  8
YKK_C1
100
AcDbLine
 10
3700.0
 20
17365.0
 30
0.0
 11
3755.0
 21
17365.0
 31
0.0
  0
LINE
  5
16C
330
35A
100
AcDbEntity
  8
YKK_C1
100
AcDbLine
 10
3700.0
 20
17325.0
 30
0.0
 11
3700.0
 21
17365.0
 31
0.0
  0
LINE
  5
16D
330
35A
100
AcDbEntity
  8
YKK_C1
100
AcDbLine
 10
3755.0
 20
17360.0
 30
0.0
 11
3764.0
 21
17360.0
 31
0.0
  0
LINE
  5
16E
330
35A
100
AcDbEntity
  8
YKK_C1
100
AcDbLine
 10
3755.0
 20
17350.0
 30
0.0
 11
3755.0
 21
17360.0
 31
0.0
  0
LINE
  5
16F
330
35A
100
AcDbEntity
  8
YKK_C1
100
AcDbLine
 10
3800.0
 20
17350.0
 30
0.0
 11
3755.0
 21
17350.0
 31
0.0
  0
LINE
  5
170
330
35A
100
AcDbEntity
  8
YKK_C1
100
AcDbLine
 10
3800.0
 20
17360.0
 30
0.0
 11
3791.0
 21
17360.0
 31
0.0
  0
LINE
  5
171
330
35A
100
AcDbEntity
  8
YKK_C1
100
AcDbLine
 10
3800.0
 20
17325.0
 30
0.0
 11
3800.0
 21
17360.0
 31
0.0
  0
LINE
  5
172
330
35A
100
AcDbEntity
  8
YKK_C1
100
AcDbLine
 10
3754.0
 20
17325.0
 30
0.0
 11
3754.0
 21
17295.0
 31
0.0
  0
LINE
  5
173
330
35A
100
AcDbEntity
  8
YKK_C1
100
AcDbLine
 10
3800.0
 20
17325.0
 30
0.0
 11
3700.0
 21
17325.0
 31
0.0
  0
LINE
  5
174
330
35A
100
AcDbEntity
  8
YKK_N1
  6
ByBlock
100
AcDbLine
 10
4250.0
 20
17238.39745962
 30
0.0
 11
4200.0
 21
17325.0
 31
0.0
  0
LINE
  5
175
330
35A
100
AcDbEntity
  8
YKK_N1
  6
ByBlock
100
AcDbLine
 10
4150.0
 20
17238.39745962
 30
0.0
 11
4250.0
 21
17238.39745962
 31
0.0
  0
LINE
  5
176
330
35A
100
AcDbEntity
  8
YKK_N1
  6
ByBlock
100
AcDbLine
 10
4200.0
 20
17325.0
 30
0.0
 11
4150.0
 21
17238.39745962
 31
0.0
  0
LINE
  5
177
330
35A
100
AcDbEntity
  8
YKK_N1
  6
ByBlock
100
AcDbLine
 10
4200.0
 20
17325.0
 30
0.0
 11
4200.0
 21
17225.0
 31
0.0
  0
LINE
  5
178
330
35A
100
AcDbEntity
  8
YKK_Z1
  6
Continuous
100
AcDbLine
 10
3710.0
 20
17526.71582933
 30
0.0
 11
3880.0
 21
17696.715741
 31
0.0
  0
LINE
  5
179
330
35A
100
AcDbEntity
  8
YKK_Z1
  6
Continuous
100
AcDbLine
 10
3710.0
 20
17546.51481063
 30
0.0
 11
3880.0
 21
17716.5147223
 31
0.0
  0
LINE
  5
17A
330
35A
100
AcDbEntity
  8
YKK_Z1
  6
Continuous
100
AcDbLine
 10
3710.0
 20
17555.00008833
 30
0.0
 11
3880.0
 21
17725.0
 31
0.0
  0
LINE
  5
17B
330
35A
100
AcDbEntity
  8
YKK_N1
100
AcDbLine
 10
8300.0
 20
15845.0
 30
0.0
 11
8300.0
 21
16505.0
 31
0.0
  0
LINE
  5
17C
330
35A
100
AcDbEntity
  8
YKK_N1
100
AcDbLine
 10
8500.0
 20
15826.0
 30
0.0
 11
8500.0
 21
17324.0
 31
0.0
  0
LINE
  5
17D
330
35A
100
AcDbEntity
  8
YKK_N1
100
AcDbLine
 10
9800.0
 20
15845.0
 30
0.0
 11
9800.0
 21
16505.0
 31
0.0
  0
LINE
  5
17E
330
35A
100
AcDbEntity
  8
YKK_N1
100
AcDbLine
 10
10000.0
 20
15826.0
 30
0.0
 11
10000.0
 21
17324.0
 31
0.0
  0
LINE
  5
17F
330
35A
100
AcDbEntity
  8
YKK_C1
100
AcDbLine
 10
9300.0
 20
15845.0
 30
0.0
 11
9300.0
 21
16505.0
 31
0.0
  0
LINE
  5
180
330
35A
100
AcDbEntity
  8
YKK_C1
100
AcDbLine
 10
9400.0
 20
15845.0
 30
0.0
 11
9400.0
 21
16505.0
 31
0.0
  0
LINE
  5
181
330
35A
100
AcDbEntity
  8
YKK_C1
100
AcDbLine
 10
9328.0
 20
15817.0
 30
0.0
 11
9328.0
 21
16533.0
 31
0.0
  0
LINE
  5
182
330
35A
100
AcDbEntity
  8
YKK_C1
100
AcDbLine
 10
9314.0
 20
15817.0
 30
0.0
 11
9314.0
 21
16533.0
 31
0.0
  0
LINE
  5
183
330
35A
100
AcDbEntity
  8
YKK_A1
100
AcDbLine
 10
7130.0
 20
16525.0
 30
0.0
 11
7130.0
 21
15825.0
 31
0.0
  0
LINE
  5
184
330
35A
100
AcDbEntity
  8
YKK_A1
100
AcDbLine
 10
7870.0
 20
15825.0
 30
0.0
 11
7870.0
 21
16525.0
 31
0.0
  0
LINE
  5
185
330
35A
100
AcDbEntity
  8
YKK_A1
100
AcDbLine
 10
7100.0
 20
16525.0
 30
0.0
 11
7100.0
 21
15825.0
 31
0.0
  0
LINE
  5
186
330
35A
100
AcDbEntity
  8
YKK_A1
100
AcDbLine
 10
7900.0
 20
15825.0
 30
0.0
 11
7900.0
 21
16525.0
 31
0.0
  0
LINE
  5
187
330
35A
100
AcDbEntity
  8
YKK_A1
100
AcDbLine
 10
7085.0
 20
17340.0
 30
0.0
 11
7085.0
 21
15825.0
 31
0.0
  0
LINE
  5
188
330
35A
100
AcDbEntity
  8
YKK_A1
100
AcDbLine
 10
7915.0
 20
15825.0
 30
0.0
 11
7915.0
 21
17340.0
 31
0.0
  0
LINE
  5
189
330
35A
100
AcDbEntity
  8
YKK_Z1
  6
Continuous
100
AcDbLine
 10
9520.0
 20
15825.0
 30
0.0
 11
9520.0
 21
16575.0
 31
0.0
  0
LINE
  5
18A
330
35A
100
AcDbEntity
  8
YKK_N1
100
AcDbLine
 10
9460.0
 20
15825.0
 30
0.0
 11
10030.0
 21
15825.0
 31
0.0
  0
LINE
  5
18B
330
35A
100
AcDbEntity
  8
YKK_N1
100
AcDbLine
 10
7101.0
 20
15425.0
 30
0.0
 11
7899.0
 21
15425.0
 31
0.0
  0
LINE
  5
18C
330
35A
100
AcDbEntity
  8
YKK_N1
100
AcDbLine
 10
7101.0
 20
13925.0
 30
0.0
 11
7899.0
 21
13925.0
 31
0.0
  0
LINE
  5
18D
330
35A
100
AcDbEntity
  8
YKK_B1
100
AcDbLine
 10
7150.0
 20
14425.0
 30
0.0
 11
7850.0
 21
14425.0
 31
0.0
  0
LINE
  5
18E
330
35A
100
AcDbEntity
  8
YKK_B1
100
AcDbLine
 10
7120.0
 20
14325.0
 30
0.0
 11
7880.0
 21
14325.0
 31
0.0
  0
LINE
  5
18F
330
35A
100
AcDbEntity
  8
YKK_B1
100
AcDbLine
 10
7122.0
 20
14397.0
 30
0.0
 11
7878.0
 21
14397.0
 31
0.0
  0
LINE
  5
190
330
35A
100
AcDbEntity
  8
YKK_B1
100
AcDbLine
 10
7122.0
 20
14411.0
 30
0.0
 11
7878.0
 21
14411.0
 31
0.0
  0
TEXT
  5
191
330
35A
100
AcDbEntity
  8
YKK_A1
100
AcDbText
 10
7219.2
 20
15945.0
 30
0.0
 40
60.0
  1
複層ガラス 5+A12+5
 41
0.8
 72
     2
 11
7840.0
 21
15945.0
 31
0.0
100
AcDbText
  0
LINE
  5
192
330
35A
100
AcDbEntity
  8
YKK_A1
100
AcDbLine
 10
7130.0
 20
15825.0
 30
0.0
 11
7870.0
 21
15825.0
 31
0.0
  0
LINE
  5
193
330
35A
100
AcDbEntity
  8
YKK_A1
100
AcDbLine
 10
7100.0
 20
15825.0
 30
0.0
 11
7900.0
 21
15825.0
 31
0.0
  0
LINE
  5
194
330
35A
100
AcDbEntity
  8
YKK_A1
100
AcDbLine
 10
7085.0
 20
15825.0
 30
0.0
 11
7915.0
 21
15825.0
 31
0.0
  0
LINE
  5
195
330
35A
100
AcDbEntity
  8
YKK_Z1
  6
Continuous
100
AcDbLine
 10
7915.0
 20
14205.0
 30
0.0
 11
7500.0
 21
14205.0
 31
0.0
  0
LINE
  5
196
330
35A
100
AcDbEntity
  8
YKK_N1
  6
ByBlock
100
AcDbLine
 10
7186.60254038
 20
13875.0
 30
0.0
 11
7186.60254038
 21
13975.0
 31
0.0
  0
LINE
  5
197
330
35A
100
AcDbEntity
  8
YKK_N1
  6
ByBlock
100
AcDbLine
 10
7100.0
 20
13925.0
 30
0.0
 11
7186.60254038
 21
13875.0
 31
0.0
  0
LINE
  5
198
330
35A
100
AcDbEntity
  8
YKK_N1
100
AcDbLine
 10
7100.0
 20
14265.0
 30
0.0
 11
7100.0
 21
13895.0
 31
0.0
  0
LINE
  5
199
330
35A
100
AcDbEntity
  8
YKK_Z1
  6
Continuous
100
AcDbLine
 10
6700.0
 20
14227.0
 30
0.0
 11
7060.0
 21
14227.0
 31
0.0
  0
LINE
  5
19A
330
35A
100
AcDbEntity
  8
YKK_Z1
  6
Continuous
100
AcDbLine
 10
7060.0
 20
14215.0
 30
0.0
 11
6700.0
 21
14215.0
 31
0.0
  0
LINE
  5
19B
330
35A
100
AcDbEntity
  8
YKK_Z1
  6
Continuous
100
AcDbLine
 10
7070.0
 20
14415.0
 30
0.0
 11
7050.0
 21
14415.0
 31
0.0
  0
LINE
  5
19C
330
35A
100
AcDbEntity
  8
YKK_Z1
  6
CENTER
100
AcDbLine
 10
7062.5
 20
14320.0
 30
0.0
 11
6700.0
 21
14320.0
 31
0.0
  0
LINE
  5
19D
330
35A
100
AcDbEntity
  8
YKK_Z1
  6
Continuous
100
AcDbLine
 10
6898.28417067
 20
14415.0
 30
0.0
 11
6728.284259
 21
14245.0
 31
0.0
  0
LINE
  5
19E
330
35A
100
AcDbEntity
  8
YKK_Z1
  6
Continuous
100
AcDbLine
 10
6878.48518937
 20
14415.0
 30
0.0
 11
6708.4852777
 21
14245.0
 31
0.0
  0
LINE
  5
19F
330
35A
100
AcDbEntity
  8
YKK_Z1
  6
Continuous
100
AcDbLine
 10
7050.0
 20
14298.01530805
 30
0.0
 11
6996.9847195
 21
14245.0
 31
0.0
  0
LINE
  5
1A0
330
35A
100
AcDbEntity
  8
YKK_Z1
  6
Continuous
100
AcDbLine
 10
6869.99991167
 20
14415.0
 30
0.0
 11
6700.0
 21
14245.0
 31
0.0
  0
LINE
  5
1A1
330
35A
100
AcDbEntity
  8
YKK_Z1
  6
Continuous
100
AcDbLine
 10
7050.0
 20
14245.0
 30
0.0
 11
7050.0
 21
14415.0
 31
0.0
  0
LINE
  5
1A2
330
35A
100
AcDbEntity
  8
YKK_Z1
  6
Continuous
100
AcDbLine
 10
6700.0
 20
14245.0
 30
0.0
 11
7050.0
 21
14245.0
 31
0.0
  0
LINE
  5
1A3
330
35A
100
AcDbEntity
  8
YKK_Z1
  6
Continuous
100
AcDbLine
 10
7050.0
 20
14269.73103435
 30
0.0
 11
7025.2689785
 21
14245.0
 31
0.0
  0
LINE
  5
1A4
330
35A
100
AcDbEntity
  8
YKK_Z1
  6
Continuous
100
AcDbLine
 10
7050.0
 20
14289.53002594
 30
0.0
 11
7005.4699972
 21
14245.0
 31
0.0
  0
LINE
  5
1A5
330
35A
100
AcDbEntity
  8
YKK_Z1
  6
HIDDEN
100
AcDbLine
 10
7050.0
 20
14395.0
 30
0.0
 11
6700.0
 21
14395.0
 31
0.0
  0
LINE
  5
1A6
330
35A
100
AcDbEntity
  8
YKK_Z1
  6
Continuous
100
AcDbLine
 10
7050.0
 20
14415.0
 30
0.0
 11
6700.0
 21
14415.0
 31
0.0
  0
LINE
  5
1A7
330
35A
100
AcDbEntity
  8
YKK_N1
  6
Continuous
100
AcDbLine
 10
7329.0
 20
14305.0
 30
0.0
 11
7329.0
 21
14225.0
 31
0.0
  0
LINE
  5
1A8
330
35A
100
AcDbEntity
  8
YKK_Z1
  6
Continuous
100
AcDbLine
 10
7060.0
 20
14296.7157263
 30
0.0
 11
7085.0
 21
14321.71573929
 31
0.0
  0
LINE
  5
1A9
330
35A
100
AcDbEntity
  8
YKK_Z1
  6
Continuous
100
AcDbLine
 10
7060.0
 20
14205.0
 30
0.0
 11
7060.0
 21
14325.0
 31
0.0
  0
LINE
  5
1AA
330
35A
100
AcDbEntity
  8
YKK_Z1
  6
Continuous
100
AcDbLine
 10
7085.0
 20
14325.0
 30
0.0
 11
7085.0
 21
14205.0
 31
0.0
  0
CIRCLE
  5
1AB
330
35A
100
AcDbEntity
  8
YKK_N1
100
AcDbCircle
 10
7329.0
 20
14205.0
 30
0.0
 40
10.0
  0
LINE
  5
1AC
330
35A
100
AcDbEntity
  8
YKK_N1
  6
Continuous
100
AcDbLine
 10
7145.0
 20
14205.0
 30
0.0
 11
7359.0
 21
14205.0
 31
0.0
  0
LINE
  5
1AD
330
35A
100
AcDbEntity
  8
YKK_Z1
  6
Continuous
100
AcDbLine
 10
7085.0
 20
14205.0
 30
0.0
 11
7500.0
 21
14205.0
 31
0.0
  0
LINE
  5
1AE
330
35A
100
AcDbEntity
  8
YKK_N1
  6
ByBlock
100
AcDbLine
 10
7186.60254038
 20
13975.0
 30
0.0
 11
7100.0
 21
13925.0
 31
0.0
  0
LINE
  5
1AF
330
35A
100
AcDbEntity
  8
YKK_N1
  6
ByBlock
100
AcDbLine
 10
7100.0
 20
13925.0
 30
0.0
 11
7200.0
 21
13925.0
 31
0.0
  0
LINE
  5
1B0
330
35A
100
AcDbEntity
  8
YKK_N1
100
AcDbLine
 10
7329.0
 20
14205.0
 30
0.0
 11
7329.0
 21
14225.0
 31
0.0
  0
CIRCLE
  5
1B1
330
35A
100
AcDbEntity
  8
YKK_N1
100
AcDbCircle
 10
7329.0
 20
14205.0
 30
0.0
 40
6.5
  0
TEXT
  5
1B2
330
35A
100
AcDbEntity
  8
YKK_N1
100
AcDbText
 10
7319.0
 20
14044.71428571
 30
0.0
 40
60.0
  1
120
 50
90.0
 41
0.8
100
AcDbText
  0
LINE
  5
1B3
330
35A
100
AcDbEntity
  8
YKK_N1
  6
Continuous
100
AcDbLine
 10
7329.0
 20
14205.0
 30
0.0
 11
7329.0
 21
14048.42857143
 31
0.0
  0
LINE
  5
1B4
330
35A
100
AcDbEntity
  8
YKK_Z1
  6
Continuous
100
AcDbLine
 10
7060.0
 20
14227.0
 30
0.0
 11
7060.0
 21
14215.0
 31
0.0
  0
LINE
  5
1B5
330
35A
100
AcDbEntity
  8
YKK_Z1
  6
Continuous
100
AcDbLine
 10
7081.42135735
 20
14205.0
 30
0.0
 11
7085.0
 21
14208.57864451
 31
0.0
  0
LINE
  5
1B6
330
35A
100
AcDbEntity
  8
YKK_Z1
  6
Continuous
100
AcDbLine
 10
7060.0
 20
14211.86290521
 30
0.0
 11
7085.0
 21
14236.8629182
 31
0.0
  0
LINE
  5
1B7
330
35A
100
AcDbEntity
  8
YKK_Z1
  6
Continuous
100
AcDbLine
 10
7060.0
 20
14240.14717891
 30
0.0
 11
7085.0
 21
14265.1471919
 31
0.0
  0
LINE
  5
1B8
330
35A
100
AcDbEntity
  8
YKK_Z1
  6
Continuous
100
AcDbLine
 10
7060.0
 20
14268.43145261
 30
0.0
 11
7085.0
 21
14293.4314656
 31
0.0
  0
LINE
  5
1B9
330
35A
100
AcDbEntity
  8
YKK_Z1
  6
Continuous
100
AcDbLine
 10
7085.0
 20
14205.0
 30
0.0
 11
7060.0
 21
14205.0
 31
0.0
  0
TEXT
  5
1BA
330
35A
100
AcDbEntity
  8
YKK_N1
100
AcDbText
 10
7375.42857143
 20
13935.0
 30
0.0
 40
60.0
  1
W=800
 41
0.8
100
AcDbText
1001
ACAD
1000
MTEXTBEGIN
1070
    73
1070
     1
1070
    44
1040
1.0
1070
    74
1070
     0
1000
MTEXTEND
  0
CIRCLE
  5
1BB
330
35A
100
AcDbEntity
  8
YKK_N1
100
AcDbCircle
 10
7329.0
 20
14325.0
 30
0.0
 40
10.0
  0
CIRCLE
  5
1BC
330
35A
100
AcDbEntity
  8
YKK_N1
100
AcDbCircle
 10
7329.0
 20
14425.0
 30
0.0
 40
10.0
  0
CIRCLE
  5
1BD
330
35A
100
AcDbEntity
  8
YKK_N1
100
AcDbCircle
 10
7329.0
 20
14325.0
 30
0.0
 40
10.0
  0
TEXT
  5
1BE
330
35A
100
AcDbEntity
  8
YKK_N1
100
AcDbText
 10
7284.0
 20
14303.0
 30
0.0
 40
60.0
  1
100
 50
90.0
 41
0.8
100
AcDbText
1001
ACAD
1000
MTEXTBEGIN
1070
    73
1070
     1
1070
    44
1040
1.0
1070
    74
1070
     0
1000
MTEXTEND
  0
LINE
  5
1BF
330
35A
100
AcDbEntity
  8
YKK_N1
100
AcDbLine
 10
7329.0
 20
14325.0
 30
0.0
 11
7329.0
 21
14345.0
 31
0.0
  0
CIRCLE
  5
1C0
330
35A
100
AcDbEntity
  8
YKK_N1
100
AcDbCircle
 10
7329.0
 20
14325.0
 30
0.0
 40
6.5
  0
LINE
  5
1C1
330
35A
100
AcDbEntity
  8
YKK_N1
100
AcDbLine
 10
7329.0
 20
14425.0
 30
0.0
 11
7329.0
 21
14405.0
 31
0.0
  0
CIRCLE
  5
1C2
330
35A
100
AcDbEntity
  8
YKK_N1
100
AcDbCircle
 10
7329.0
 20
14425.0
 30
0.0
 40
6.5
  0
LINE
  5
1C3
330
35A
100
AcDbEntity
  8
YKK_N1
100
AcDbLine
 10
7329.0
 20
14325.0
 30
0.0
 11
7329.0
 21
14305.0
 31
0.0
  0
CIRCLE
  5
1C4
330
35A
100
AcDbEntity
  8
YKK_N1
100
AcDbCircle
 10
7329.0
 20
14325.0
 30
0.0
 40
6.5
  0
LINE
  5
1C5
330
35A
100
AcDbEntity
  8
YKK_N1
  6
Continuous
100
AcDbLine
 10
7269.0
 20
14325.0
 30
0.0
 11
7299.0
 21
14325.0
 31
0.0
  0
LINE
  5
1C6
330
35A
100
AcDbEntity
  8
YKK_N1
100
AcDbLine
 10
7329.0
 20
14345.0
 30
0.0
 11
7329.0
 21
14405.0
 31
0.0
  0
LINE
  5
1C7
330
35A
100
AcDbEntity
  8
YKK_N1
100
AcDbLine
 10
7279.0
 20
14425.0
 30
0.0
 11
7299.0
 21
14425.0
 31
0.0
  0
LINE
  5
1C8
330
35A
100
AcDbEntity
  8
YKK_N1
100
AcDbLine
 10
7279.0
 20
14325.0
 30
0.0
 11
7299.0
 21
14325.0
 31
0.0
  0
LINE
  5
1C9
330
35A
100
AcDbEntity
  8
YKK_B1
100
AcDbLine
 10
7100.0
 20
14425.0
 30
0.0
 11
7130.0
 21
14425.0
 31
0.0
  0
LINE
  5
1CA
330
35A
100
AcDbEntity
  8
YKK_B1
100
AcDbLine
 10
7130.0
 20
14364.0
 30
0.0
 11
7130.0
 21
14383.0
 31
0.0
  0
LINE
  5
1CB
330
35A
100
AcDbEntity
  8
YKK_B1
100
AcDbLine
 10
7070.0
 20
14425.0
 30
0.0
 11
7070.0
 21
14364.0
 31
0.0
  0
LINE
  5
1CC
330
35A
100
AcDbEntity
  8
YKK_B1
100
AcDbLine
 10
7100.0
 20
14425.0
 30
0.0
 11
7070.0
 21
14425.0
 31
0.0
  0
LINE
  5
1CD
330
35A
100
AcDbEntity
  8
YKK_B1
100
AcDbLine
 10
7075.0
 20
14364.0
 30
0.0
 11
7075.0
 21
14357.0
 31
0.0
  0
LINE
  5
1CE
330
35A
100
AcDbEntity
  8
YKK_B1
100
AcDbLine
 10
7100.0
 20
14364.0
 30
0.0
 11
7070.0
 21
14364.0
 31
0.0
  0
LINE
  5
1CF
330
35A
100
AcDbEntity
  8
YKK_B1
100
AcDbLine
 10
7075.0
 20
14325.0
 30
0.0
 11
7075.0
 21
14332.0
 31
0.0
  0
LINE
  5
1D0
330
35A
100
AcDbEntity
  8
YKK_B1
100
AcDbLine
 10
7100.0
 20
14325.0
 30
0.0
 11
7075.0
 21
14325.0
 31
0.0
  0
LINE
  5
1D1
330
35A
100
AcDbEntity
  8
YKK_B1
100
AcDbLine
 10
7100.0
 20
14364.0
 30
0.0
 11
7130.0
 21
14364.0
 31
0.0
  0
LINE
  5
1D2
330
35A
100
AcDbEntity
  8
YKK_B1
100
AcDbLine
 10
7100.0
 20
14325.0
 30
0.0
 11
7100.0
 21
14364.0
 31
0.0
  0
LINE
  5
1D4
330
35A
100
AcDbEntity
  8
YKK_Z1
  6
Continuous
100
AcDbLine
 10
7060.0
 20
14325.0
 30
0.0
 11
7085.0
 21
14325.0
 31
0.0
  0
LINE
  5
1D5
330
35A
100
AcDbEntity
  8
YKK_N1
  6
ByBlock
100
AcDbLine
 10
7186.60254038
 20
15475.0
 30
0.0
 11
7100.0
 21
15425.0
 31
0.0
  0
LINE
  5
1D6
330
35A
100
AcDbEntity
  8
YKK_N1
  6
ByBlock
100
AcDbLine
 10
7186.60254038
 20
15375.0
 30
0.0
 11
7186.60254038
 21
15475.0
 31
0.0
  0
TEXT
  5
1D7
330
35A
100
AcDbEntity
  8
YKK_N1
100
AcDbText
 10
7375.42857143
 20
15435.0
 30
0.0
 40
60.0
  1
W=800
 41
0.8
100
AcDbText
1001
ACAD
1000
MTEXTBEGIN
1070
    73
1070
     1
1070
    44
1040
1.0
1070
    74
1070
     0
1000
MTEXTEND
  0
LINE
  5
1D8
330
35A
100
AcDbEntity
  8
YKK_N1
100
AcDbLine
 10
7100.0
 20
15765.0
 30
0.0
 11
7100.0
 21
15395.0
 31
0.0
  0
LINE
  5
1D9
330
35A
100
AcDbEntity
  8
YKK_N1
  6
ByBlock
100
AcDbLine
 10
7100.0
 20
15425.0
 30
0.0
 11
7186.60254038
 21
15375.0
 31
0.0
  0
LINE
  5
1DA
330
35A
100
AcDbEntity
  8
YKK_N1
  6
ByBlock
100
AcDbLine
 10
7100.0
 20
15425.0
 30
0.0
 11
7200.0
 21
15425.0
 31
0.0
  0
LINE
  5
1DB
330
35A
100
AcDbEntity
  8
YKK_N1
  6
ByBlock
100
AcDbLine
 10
7813.39745962
 20
13875.0
 30
0.0
 11
7900.0
 21
13925.0
 31
0.0
  0
LINE
  5
1DC
330
35A
100
AcDbEntity
  8
YKK_N1
  6
ByBlock
100
AcDbLine
 10
7813.39745962
 20
13975.0
 30
0.0
 11
7813.39745962
 21
13875.0
 31
0.0
  0
LINE
  5
1DD
330
35A
100
AcDbEntity
  8
YKK_N1
100
AcDbLine
 10
7900.0
 20
14265.0
 30
0.0
 11
7900.0
 21
13895.0
 31
0.0
  0
LINE
  5
1DE
330
35A
100
AcDbEntity
  8
YKK_Z1
  6
Continuous
100
AcDbLine
 10
8300.0
 20
14227.0
 30
0.0
 11
7940.0
 21
14227.0
 31
0.0
  0
LINE
  5
1DF
330
35A
100
AcDbEntity
  8
YKK_Z1
  6
Continuous
100
AcDbLine
 10
7940.0
 20
14215.0
 30
0.0
 11
8300.0
 21
14215.0
 31
0.0
  0
LINE
  5
1E0
330
35A
100
AcDbEntity
  8
YKK_Z1
  6
HIDDEN
100
AcDbLine
 10
7950.0
 20
14395.0
 30
0.0
 11
8300.0
 21
14395.0
 31
0.0
  0
LINE
  5
1E1
330
35A
100
AcDbEntity
  8
YKK_Z1
  6
CENTER
100
AcDbLine
 10
7937.5
 20
14320.0
 30
0.0
 11
8300.0
 21
14320.0
 31
0.0
  0
LINE
  5
1E2
330
35A
100
AcDbEntity
  8
YKK_Z1
  6
Continuous
100
AcDbLine
 10
8031.29935334
 20
14245.0
 30
0.0
 11
8201.29938278
 21
14415.0
 31
0.0
  0
LINE
  5
1E3
330
35A
100
AcDbEntity
  8
YKK_Z1
  6
Continuous
100
AcDbLine
 10
8011.50035832
 20
14245.0
 30
0.0
 11
8181.50038777
 21
14415.0
 31
0.0
  0
LINE
  5
1E4
330
35A
100
AcDbEntity
  8
YKK_Z1
  6
Continuous
100
AcDbLine
 10
7950.0
 20
14415.0
 30
0.0
 11
8300.0
 21
14415.0
 31
0.0
  0
LINE
  5
1E5
330
35A
100
AcDbEntity
  8
YKK_Z1
  6
Continuous
100
AcDbLine
 10
8300.0
 20
14245.0
 30
0.0
 11
7950.0
 21
14245.0
 31
0.0
  0
LINE
  5
1E6
330
35A
100
AcDbEntity
  8
YKK_Z1
  6
Continuous
100
AcDbLine
 10
7940.0
 20
14205.0
 30
0.0
 11
7940.0
 21
14325.0
 31
0.0
  0
LINE
  5
1E7
330
35A
100
AcDbEntity
  8
YKK_Z1
  6
Continuous
100
AcDbLine
 10
7915.0
 20
14325.0
 30
0.0
 11
7915.0
 21
14205.0
 31
0.0
  0
LINE
  5
1E8
330
35A
100
AcDbEntity
  8
YKK_Z1
  6
Continuous
100
AcDbLine
 10
8003.01507474
 20
14245.0
 30
0.0
 11
8173.01510419
 21
14415.0
 31
0.0
  0
LINE
  5
1E9
330
35A
100
AcDbEntity
  8
YKK_Z1
  6
Continuous
100
AcDbLine
 10
7950.0
 20
14245.0
 30
0.0
 11
7950.0
 21
14415.0
 31
0.0
  0
LINE
  5
1EA
330
35A
100
AcDbEntity
  8
YKK_N1
  6
ByBlock
100
AcDbLine
 10
7900.0
 20
13925.0
 30
0.0
 11
7813.39745962
 21
13975.0
 31
0.0
  0
LINE
  5
1EB
330
35A
100
AcDbEntity
  8
YKK_N1
  6
ByBlock
100
AcDbLine
 10
7900.0
 20
13925.0
 30
0.0
 11
7800.0
 21
13925.0
 31
0.0
  0
LINE
  5
1EC
330
35A
100
AcDbEntity
  8
YKK_Z1
  6
Continuous
100
AcDbLine
 10
7940.0
 20
14227.0
 30
0.0
 11
7940.0
 21
14215.0
 31
0.0
  0
LINE
  5
1ED
330
35A
100
AcDbEntity
  8
YKK_Z1
  6
Continuous
100
AcDbLine
 10
7940.0
 20
14211.86290521
 30
0.0
 11
7933.1370936
 21
14205.0
 31
0.0
  0
LINE
  5
1EE
330
35A
100
AcDbEntity
  8
YKK_Z1
  6
Continuous
100
AcDbLine
 10
7940.0
 20
14240.14717891
 30
0.0
 11
7915.0
 21
14215.14718324
 31
0.0
  0
LINE
  5
1EF
330
35A
100
AcDbEntity
  8
YKK_Z1
  6
Continuous
100
AcDbLine
 10
7940.0
 20
14268.43145261
 30
0.0
 11
7915.0
 21
14243.43145694
 31
0.0
  0
LINE
  5
1F0
330
35A
100
AcDbEntity
  8
YKK_Z1
  6
Continuous
100
AcDbLine
 10
7940.0
 20
14296.7157263
 30
0.0
 11
7915.0
 21
14271.71573063
 31
0.0
  0
LINE
  5
1F1
330
35A
100
AcDbEntity
  8
YKK_Z1
  6
Continuous
100
AcDbLine
 10
7915.0
 20
14205.0
 30
0.0
 11
7940.0
 21
14205.0
 31
0.0
  0
LINE
  5
1F2
330
35A
100
AcDbEntity
  8
YKK_B1
100
AcDbLine
 10
7900.0
 20
14425.0
 30
0.0
 11
7870.0
 21
14425.0
 31
0.0
  0
LINE
  5
1F3
330
35A
100
AcDbEntity
  8
YKK_B1
100
AcDbLine
 10
7900.0
 20
14364.0
 30
0.0
 11
7870.0
 21
14364.0
 31
0.0
  0
LINE
  5
1F4
330
35A
100
AcDbEntity
  8
YKK_B1
100
AcDbLine
 10
7870.0
 20
14364.0
 30
0.0
 11
7870.0
 21
14383.0
 31
0.0
  0
LINE
  5
1F5
330
35A
100
AcDbEntity
  8
YKK_B1
100
AcDbLine
 10
7930.0
 20
14425.0
 30
0.0
 11
7930.0
 21
14364.0
 31
0.0
  0
LINE
  5
1F6
330
35A
100
AcDbEntity
  8
YKK_B1
100
AcDbLine
 10
7900.0
 20
14425.0
 30
0.0
 11
7930.0
 21
14425.0
 31
0.0
  0
LINE
  5
1F7
330
35A
100
AcDbEntity
  8
YKK_B1
100
AcDbLine
 10
7925.0
 20
14364.0
 30
0.0
 11
7925.0
 21
14357.0
 31
0.0
  0
LINE
  5
1F8
330
35A
100
AcDbEntity
  8
YKK_B1
100
AcDbLine
 10
7900.0
 20
14364.0
 30
0.0
 11
7930.0
 21
14364.0
 31
0.0
  0
LINE
  5
1F9
330
35A
100
AcDbEntity
  8
YKK_B1
100
AcDbLine
 10
7925.0
 20
14325.0
 30
0.0
 11
7925.0
 21
14332.0
 31
0.0
  0
LINE
  5
1FA
330
35A
100
AcDbEntity
  8
YKK_B1
100
AcDbLine
 10
7900.0
 20
14325.0
 30
0.0
 11
7925.0
 21
14325.0
 31
0.0
  0
LINE
  5
1FB
330
35A
100
AcDbEntity
  8
YKK_B1
100
AcDbLine
 10
7900.0
 20
14325.0
 30
0.0
 11
7900.0
 21
14364.0
 31
0.0
  0
LINE
  5
1FC
330
35A
100
AcDbEntity
  8
YKK_Z1
  6
Continuous
100
AcDbLine
 10
7930.0
 20
14415.0
 30
0.0
 11
7950.0
 21
14415.0
 31
0.0
  0
LINE
  5
1FD
330
35A
100
AcDbEntity
  8
YKK_Z1
  6
Continuous
100
AcDbLine
 10
7940.0
 20
14325.0
 30
0.0
 11
7915.0
 21
14300.00000433
 31
0.0
  0
LINE
  5
1FE
330
35A
100
AcDbEntity
  8
YKK_Z1
  6
Continuous
100
AcDbLine
 10
7940.0
 20
14325.0
 30
0.0
 11
7915.0
 21
14325.0
 31
0.0
  0
LINE
  5
200
330
35A
100
AcDbEntity
  8
YKK_N1
  6
ByBlock
100
AcDbLine
 10
7813.39745962
 20
15475.0
 30
0.0
 11
7813.39745962
 21
15375.0
 31
0.0
  0
LINE
  5
201
330
35A
100
AcDbEntity
  8
YKK_N1
  6
ByBlock
100
AcDbLine
 10
7900.0
 20
15425.0
 30
0.0
 11
7813.39745962
 21
15475.0
 31
0.0
  0
LINE
  5
202
330
35A
100
AcDbEntity
  8
YKK_N1
100
AcDbLine
 10
7900.0
 20
15765.0
 30
0.0
 11
7900.0
 21
15395.0
 31
0.0
  0
LINE
  5
203
330
35A
100
AcDbEntity
  8
YKK_N1
  6
ByBlock
100
AcDbLine
 10
7813.39745962
 20
15375.0
 30
0.0
 11
7900.0
 21
15425.0
 31
0.0
  0
LINE
  5
204
330
35A
100
AcDbEntity
  8
YKK_N1
  6
ByBlock
100
AcDbLine
 10
7900.0
 20
15425.0
 30
0.0
 11
7800.0
 21
15425.0
 31
0.0
  0
LINE
  5
205
330
35A
100
AcDbEntity
  8
YKK_N1
100
AcDbLine
 10
7960.0
 20
15825.0
 30
0.0
 11
8330.0
 21
15825.0
 31
0.0
  0
LINE
  5
206
330
35A
100
AcDbEntity
  8
YKK_N1
100
AcDbLine
 10
7960.0
 20
15825.0
 30
0.0
 11
8530.0
 21
15825.0
 31
0.0
  0
TEXT
  5
207
330
35A
100
AcDbEntity
  8
YKK_A1
100
AcDbText
 10
7808.0
 20
15855.0
 30
0.0
 40
60.0
  1
F
 41
0.8
 72
     2
 11
7840.0
 21
15855.0
 31
0.0
100
AcDbText
  0
LINE
  5
208
330
35A
100
AcDbEntity
  8
YKK_N1
  6
ByBlock
100
AcDbLine
 10
8450.0
 20
15911.60254038
 30
0.0
 11
8500.0
 21
15825.0
 31
0.0
  0
LINE
  5
209
330
35A
100
AcDbEntity
  8
YKK_N1
  6
ByBlock
100
AcDbLine
 10
8500.0
 20
15825.0
 30
0.0
 11
8550.0
 21
15911.60254038
 31
0.0
  0
LINE
  5
20A
330
35A
100
AcDbEntity
  8
YKK_N1
  6
ByBlock
100
AcDbLine
 10
8500.0
 20
15825.0
 30
0.0
 11
8500.0
 21
15925.0
 31
0.0
  0
LINE
  5
20B
330
35A
100
AcDbEntity
  8
YKK_N1
100
AcDbLine
 10
8300.0
 20
15825.0
 30
0.0
 11
8300.0
 21
15845.0
 31
0.0
  0
CIRCLE
  5
20C
330
35A
100
AcDbEntity
  8
YKK_N1
100
AcDbCircle
 10
8300.0
 20
15825.0
 30
0.0
 40
6.5
  0
CIRCLE
  5
20D
330
35A
100
AcDbEntity
  8
YKK_N1
100
AcDbCircle
 10
8300.0
 20
15825.0
 30
0.0
 40
10.0
  0
LINE
  5
20E
330
35A
100
AcDbEntity
  8
YKK_N1
  6
ByBlock
100
AcDbLine
 10
8550.0
 20
15911.60254038
 30
0.0
 11
8450.0
 21
15911.60254038
 31
0.0
  0
TEXT
  5
20F
330
35A
100
AcDbEntity
  8
YKK_N1
100
AcDbText
 10
8290.0
 20
16106.42857143
 30
0.0
 40
60.0
  1
700
 50
90.0
 41
0.8
100
AcDbText
1001
ACAD
1000
MTEXTBEGIN
1070
    73
1070
     1
1070
    44
1040
1.0
1070
    74
1070
     0
1000
MTEXTEND
  0
LINE
  5
210
330
35A
100
AcDbEntity
  8
YKK_Z1
  6
Continuous
100
AcDbLine
 10
9498.0
 20
15425.0
 30
0.0
 11
9498.0
 21
15800.0
 31
0.0
  0
LINE
  5
211
330
35A
100
AcDbEntity
  8
YKK_Z1
  6
Continuous
100
AcDbLine
 10
9510.0
 20
15800.0
 30
0.0
 11
9510.0
 21
15425.0
 31
0.0
  0
LINE
  5
212
330
35A
100
AcDbEntity
  8
YKK_Z1
  6
HIDDEN
100
AcDbLine
 10
9330.0
 20
15425.0
 30
0.0
 11
9330.0
 21
15725.0
 31
0.0
  0
LINE
  5
213
330
35A
100
AcDbEntity
  8
YKK_Z1
  6
CENTER
100
AcDbLine
 10
9405.0
 20
15745.0
 30
0.0
 11
9405.0
 21
15425.0
 31
0.0
  0
LINE
  5
214
330
35A
100
AcDbEntity
  8
YKK_Z1
  6
Continuous
100
AcDbLine
 10
9310.0
 20
15725.0
 30
0.0
 11
9310.0
 21
15425.0
 31
0.0
  0
LINE
  5
215
330
35A
100
AcDbEntity
  8
YKK_Z1
  6
Continuous
100
AcDbLine
 10
9480.0
 20
15425.0
 30
0.0
 11
9480.0
 21
15750.0
 31
0.0
  0
LINE
  5
217
330
35A
100
AcDbEntity
  8
YKK_N1
100
AcDbLine
 10
9460.0
 20
15825.0
 30
0.0
 11
9830.0
 21
15825.0
 31
0.0
  0
LINE
  5
219
330
35A
100
AcDbEntity
  8
YKK_C1
100
AcDbLine
 10
9361.0
 20
15825.0
 30
0.0
 11
9342.0
 21
15825.0
 31
0.0
  0
LINE
  5
21A
330
35A
100
AcDbEntity
  8
YKK_C1
100
AcDbLine
 10
9355.0
 20
15785.0
 30
0.0
 11
9361.0
 21
15785.0
 31
0.0
  0
LINE
  5
21B
330
35A
100
AcDbEntity
  8
YKK_C1
100
AcDbLine
 10
9355.0
 20
15790.0
 30
0.0
 11
9355.0
 21
15755.0
 31
0.0
  0
LINE
  5
21C
330
35A
100
AcDbEntity
  8
YKK_C1
100
AcDbLine
 10
9300.0
 20
15765.0
 30
0.0
 11
9355.0
 21
15765.0
 31
0.0
  0
LINE
  5
21D
330
35A
100
AcDbEntity
  8
YKK_C1
100
AcDbLine
 10
9300.0
 20
15790.0
 30
0.0
 11
9300.0
 21
15765.0
 31
0.0
  0
LINE
  5
21E
330
35A
100
AcDbEntity
  8
YKK_C1
100
AcDbLine
 10
9400.0
 20
15785.0
 30
0.0
 11
9394.0
 21
15785.0
 31
0.0
  0
LINE
  5
21F
330
35A
100
AcDbEntity
  8
YKK_C1
100
AcDbLine
 10
9400.0
 20
15825.0
 30
0.0
 11
9400.0
 21
15785.0
 31
0.0
  0
LINE
  5
220
330
35A
100
AcDbEntity
  8
YKK_C1
100
AcDbLine
 10
9300.0
 20
15790.0
 30
0.0
 11
9300.0
 21
15825.0
 31
0.0
  0
LINE
  5
221
330
35A
100
AcDbEntity
  8
YKK_C1
100
AcDbLine
 10
9361.0
 20
15790.0
 30
0.0
 11
9300.0
 21
15790.0
 31
0.0
  0
LINE
  5
222
330
35A
100
AcDbEntity
  8
YKK_C1
100
AcDbLine
 10
9361.0
 20
15825.0
 30
0.0
 11
9361.0
 21
15790.0
 31
0.0
  0
LINE
  5
223
330
35A
100
AcDbEntity
  8
YKK_C1
100
AcDbLine
 10
9400.0
 20
15825.0
 30
0.0
 11
9361.0
 21
15825.0
 31
0.0
  0
LINE
  5
224
330
35A
100
AcDbEntity
  8
YKK_Z1
  6
Continuous
100
AcDbLine
 10
9498.0
 20
15800.0
 30
0.0
 11
9510.0
 21
15800.0
 31
0.0
  0
LINE
  5
225
330
35A
100
AcDbEntity
  8
YKK_Z1
  6
Continuous
100
AcDbLine
 10
9310.0
 20
15765.0
 30
0.0
 11
9310.0
 21
15725.0
 31
0.0
  0
LINE
  5
226
330
35A
100
AcDbEntity
  8
YKK_Z1
  6
Continuous
100
AcDbLine
 10
9513.13709479
 20
15800.0
 30
0.0
 11
9520.0
 21
15806.8629064
 31
0.0
  0
LINE
  5
227
330
35A
100
AcDbEntity
  8
YKK_Z1
  6
Continuous
100
AcDbLine
 10
9484.85282109
 20
15800.0
 30
0.0
 11
9509.85281676
 21
15825.0
 31
0.0
  0
LINE
  5
228
330
35A
100
AcDbEntity
  8
YKK_Z1
  6
Continuous
100
AcDbLine
 10
9456.56854739
 20
15800.0
 30
0.0
 11
9481.56854306
 21
15825.0
 31
0.0
  0
LINE
  5
229
330
35A
100
AcDbEntity
  8
YKK_Z1
  6
Continuous
100
AcDbLine
 10
9428.2842737
 20
15800.0
 30
0.0
 11
9453.28426937
 21
15825.0
 31
0.0
  0
LINE
  5
22A
330
35A
100
AcDbEntity
  8
YKK_Z1
  6
Continuous
100
AcDbLine
 10
9400.0
 20
15800.0
 30
0.0
 11
9424.99999567
 21
15825.0
 31
0.0
  0
LINE
  5
22B
330
35A
100
AcDbEntity
  8
YKK_Z1
  6
Continuous
100
AcDbLine
 10
9400.0
 20
15800.0
 30
0.0
 11
9400.0
 21
15825.0
 31
0.0
  0
LINE
  5
22C
330
35A
100
AcDbEntity
  8
YKK_Z1
  6
Continuous
100
AcDbLine
 10
9520.0
 20
15800.0
 30
0.0
 11
9400.0
 21
15800.0
 31
0.0
  0
LINE
  5
22D
330
35A
100
AcDbEntity
  8
YKK_Z1
  6
Continuous
100
AcDbLine
 10
9520.0
 20
15825.0
 30
0.0
 11
9520.0
 21
15800.0
 31
0.0
  0
LINE
  5
22E
330
35A
100
AcDbEntity
  8
YKK_Z1
  6
Continuous
100
AcDbLine
 10
9400.0
 20
15825.0
 30
0.0
 11
9520.0
 21
15825.0
 31
0.0
  0
LINE
  5
22F
330
35A
100
AcDbEntity
  8
YKK_Z1
  6
Continuous
100
AcDbLine
 10
9480.0
 20
15693.70064666
 30
0.0
 11
9310.0
 21
15523.70061722
 31
0.0
  0
LINE
  5
230
330
35A
100
AcDbEntity
  8
YKK_Z1
  6
Continuous
100
AcDbLine
 10
9480.0
 20
15713.49964168
 30
0.0
 11
9310.0
 21
15543.49961223
 31
0.0
  0
LINE
  5
231
330
35A
100
AcDbEntity
  8
YKK_Z1
  6
Continuous
100
AcDbLine
 10
9480.0
 20
15721.98492526
 30
0.0
 11
9310.0
 21
15551.98489581
 31
0.0
  0
LINE
  5
232
330
35A
100
AcDbEntity
  8
YKK_Z1
  6
Continuous
100
AcDbLine
 10
9410.0
 20
15725.0
 30
0.0
 11
9310.0
 21
15725.0
 31
0.0
  0
LINE
  5
233
330
35A
100
AcDbEntity
  8
YKK_Z1
  6
Continuous
100
AcDbLine
 10
9420.0
 20
15750.0
 30
0.0
 11
9410.0
 21
15725.0
 31
0.0
  0
LINE
  5
234
330
35A
100
AcDbEntity
  8
YKK_Z1
  6
Continuous
100
AcDbLine
 10
9480.0
 20
15750.0
 30
0.0
 11
9420.0
 21
15750.0
 31
0.0
  0
LINE
  5
235
330
35A
100
AcDbEntity
  8
YKK_N1
100
AcDbLine
 10
9800.0
 20
15825.0
 30
0.0
 11
9800.0
 21
15845.0
 31
0.0
  0
CIRCLE
  5
236
330
35A
100
AcDbEntity
  8
YKK_N1
100
AcDbCircle
 10
9800.0
 20
15825.0
 30
0.0
 40
6.5
  0
CIRCLE
  5
237
330
35A
100
AcDbEntity
  8
YKK_N1
100
AcDbCircle
 10
9800.0
 20
15825.0
 30
0.0
 40
10.0
  0
TEXT
  5
238
330
35A
100
AcDbEntity
  8
YKK_N1
100
AcDbText
 10
9790.0
 20
16106.42857143
 30
0.0
 40
60.0
  1
700
 50
90.0
 41
0.8
100
AcDbText
1001
ACAD
1000
MTEXTBEGIN
1070
    73
1070
     1
1070
    44
1040
1.0
1070
    74
1070
     0
1000
MTEXTEND
  0
LINE
  5
239
330
35A
100
AcDbEntity
  8
YKK_N1
100
AcDbLine
 10
10000.0
 20
15805.0
 30
0.0
 11
10000.0
 21
15045.0
 31
0.0
  0
LINE
  5
23A
330
35A
100
AcDbEntity
  8
YKK_N1
  6
CENTER
100
AcDbLine
 10
9900.0
 20
15025.0
 30
0.0
 11
10400.0
 21
15025.0
 31
0.0
  0
LINE
  5
23B
330
35A
100
AcDbEntity
  8
YKK_N1
100
AcDbLine
 10
10000.0
 20
15025.0
 30
0.0
 11
10000.0
 21
15045.0
 31
0.0
  0
CIRCLE
  5
23C
330
35A
100
AcDbEntity
  8
YKK_N1
100
AcDbCircle
 10
10000.0
 20
15025.0
 30
0.0
 40
6.5
  0
CIRCLE
  5
23D
330
35A
100
AcDbEntity
  8
YKK_N1
100
AcDbCircle
 10
10000.0
 20
15025.0
 30
0.0
 40
10.0
  0
TEXT
  5
23E
330
35A
100
AcDbEntity
  8
YKK_N1
100
AcDbText
 10
9990.0
 20
15356.42857143
 30
0.0
 40
60.0
  1
800
 50
90.0
 41
0.8
100
AcDbText
1001
ACAD
1000
MTEXTBEGIN
1070
    73
1070
     1
1070
    44
1040
1.0
1070
    74
1070
     0
1000
MTEXTEND
  0
LINE
  5
23F
330
35A
100
AcDbEntity
  8
YKK_N1
  6
ByBlock
100
AcDbLine
 10
9950.0
 20
15911.60254038
 30
0.0
 11
10000.0
 21
15825.0
 31
0.0
  0
LINE
  5
240
330
35A
100
AcDbEntity
  8
YKK_N1
  6
ByBlock
100
AcDbLine
 10
10000.0
 20
15825.0
 30
0.0
 11
10050.0
 21
15911.60254038
 31
0.0
  0
LINE
  5
241
330
35A
100
AcDbEntity
  8
YKK_N1
  6
ByBlock
100
AcDbLine
 10
10000.0
 20
15825.0
 30
0.0
 11
10000.0
 21
15925.0
 31
0.0
  0
LINE
  5
242
330
35A
100
AcDbEntity
  8
YKK_N1
  6
ByBlock
100
AcDbLine
 10
10000.0
 20
15825.0
 30
0.0
 11
10000.0
 21
15805.0
 31
0.0
  0
LINE
  5
243
330
35A
100
AcDbEntity
  8
YKK_N1
  6
ByBlock
100
AcDbLine
 10
10050.0
 20
15911.60254038
 30
0.0
 11
9950.0
 21
15911.60254038
 31
0.0
  0
TEXT
  5
244
330
35A
100
AcDbEntity
  8
YKK_N1
100
AcDbText
 10
9897.5
 20
16503.0
 30
0.0
 40
60.0
  1
100
 50
90.0
 41
0.8
100
AcDbText
1001
ACAD
1000
MTEXTBEGIN
1070
    73
1070
     1
1070
    44
1040
1.0
1070
    74
1070
     0
1000
MTEXTEND
  0
LINE
  5
245
330
35A
100
AcDbEntity
  8
YKK_N1
100
AcDbLine
 10
9460.0
 20
17325.0
 30
0.0
 11
10030.0
 21
17325.0
 31
0.0
  0
TEXT
  5
246
330
35A
100
AcDbEntity
  8
0
100
AcDbText
 10
5800.0
 20
19187.5
 30
0.0
 40
175.0
  1
上段辷り出し窓、下段はめ殺し窓
  7
EXTFONT
100
AcDbText
  0
TEXT
  5
247
330
35A
100
AcDbEntity
  8
YKK_A1
100
AcDbText
 10
7521.2
 20
16770.0
 30
0.0
 40
60.0
  1
複層ガラス
 41
0.8
 72
     2
 11
7790.0
 21
16770.0
 31
0.0
100
AcDbText
  0
TEXT
  5
248
330
35A
100
AcDbEntity
  8
YKK_A1
100
AcDbText
 10
7486.0
 20
16700.0
 30
0.0
 40
60.0
  1
5+A12+5
 41
0.8
 72
     2
 11
7790.0
 21
16700.0
 31
0.0
100
AcDbText
  0
LINE
  5
249
330
35A
100
AcDbEntity
  8
YKK_A1
  6
CENTER
100
AcDbLine
 10
7130.0
 20
16625.0
 30
0.0
 11
7870.0
 21
17295.0
 31
0.0
  0
LINE
  5
24A
330
35A
100
AcDbEntity
  8
YKK_A1
100
AcDbLine
 10
7820.0
 20
17245.0
 30
0.0
 11
7180.0
 21
17245.0
 31
0.0
  0
LINE
  5
24B
330
35A
100
AcDbEntity
  8
YKK_A1
100
AcDbLine
 10
7180.0
 20
16670.0
 30
0.0
 11
7820.0
 21
16670.0
 31
0.0
  0
LINE
  5
24C
330
35A
100
AcDbEntity
  8
YKK_A1
100
AcDbLine
 10
7870.0
 20
17295.0
 30
0.0
 11
7130.0
 21
17295.0
 31
0.0
  0
LINE
  5
24D
330
35A
100
AcDbEntity
  8
YKK_A1
100
AcDbLine
 10
7130.0
 20
16625.0
 30
0.0
 11
7870.0
 21
16625.0
 31
0.0
  0
LINE
  5
24E
330
35A
100
AcDbEntity
  8
YKK_A1
100
AcDbLine
 10
7900.0
 20
17325.0
 30
0.0
 11
7100.0
 21
17325.0
 31
0.0
  0
LINE
  5
24F
330
35A
100
AcDbEntity
  8
YKK_A1
100
AcDbLine
 10
7100.0
 20
16625.0
 30
0.0
 11
7900.0
 21
16625.0
 31
0.0
  0
LINE
  5
250
330
35A
100
AcDbEntity
  8
YKK_A1
100
AcDbLine
 10
7900.0
 20
16625.0
 30
0.0
 11
7100.0
 21
16625.0
 31
0.0
  0
LINE
  5
251
330
35A
100
AcDbEntity
  8
YKK_A1
100
AcDbLine
 10
7100.0
 20
16525.0
 30
0.0
 11
7900.0
 21
16525.0
 31
0.0
  0
LINE
  5
252
330
35A
100
AcDbEntity
  8
YKK_A1
100
AcDbLine
 10
7870.0
 20
16525.0
 30
0.0
 11
7130.0
 21
16525.0
 31
0.0
  0
LINE
  5
253
330
35A
100
AcDbEntity
  8
YKK_A1
100
AcDbLine
 10
7900.0
 20
16525.0
 30
0.0
 11
7100.0
 21
16525.0
 31
0.0
  0
LINE
  5
254
330
35A
100
AcDbEntity
  8
YKK_A1
100
AcDbLine
 10
7915.0
 20
17340.0
 30
0.0
 11
7085.0
 21
17340.0
 31
0.0
  0
TEXT
  5
255
330
35A
100
AcDbEntity
  8
0
100
AcDbText
 10
5800.0
 20
18737.5
 30
0.0
 40
175.0
  1
W＝800　H＝1,500
  7
EXTFONT
100
AcDbText
  0
LINE
  5
256
330
35A
100
AcDbEntity
  8
YKK_A1
100
AcDbLine
 10
7180.0
 20
17245.0
 30
0.0
 11
7180.0
 21
16670.0
 31
0.0
  0
LINE
  5
257
330
35A
100
AcDbEntity
  8
YKK_A1
100
AcDbLine
 10
7130.0
 20
17295.0
 30
0.0
 11
7130.0
 21
16625.0
 31
0.0
  0
LINE
  5
258
330
35A
100
AcDbEntity
  8
YKK_A1
100
AcDbLine
 10
7100.0
 20
17325.0
 30
0.0
 11
7100.0
 21
16625.0
 31
0.0
  0
LINE
  5
259
330
35A
100
AcDbEntity
  8
YKK_A2
  6
ByBlock
100
AcDbLine
 10
7472.0
 20
16645.0
 30
0.0
 11
7472.0
 21
16625.0
 31
0.0
  0
LINE
  5
25A
330
35A
100
AcDbEntity
  8
YKK_A2
  6
ByBlock
100
AcDbLine
 10
7491.0
 20
16645.0
 30
0.0
 11
7491.0
 21
16625.0
 31
0.0
  0
LINE
  5
25B
330
35A
100
AcDbEntity
  8
YKK_A2
  6
ByBlock
100
AcDbLine
 10
7528.0
 20
16625.0
 30
0.0
 11
7528.0
 21
16645.0
 31
0.0
  0
LINE
  5
25C
330
35A
100
AcDbEntity
  8
YKK_A2
  6
ByBlock
100
AcDbLine
 10
7500.0
 20
16635.0
 30
0.0
 11
7504.0
 21
16649.0
 31
0.0
  0
LINE
  5
25D
330
35A
100
AcDbEntity
  8
YKK_A2
  6
ByBlock
100
AcDbLine
 10
7509.0
 20
16649.0
 30
0.0
 11
7509.0
 21
16625.0
 31
0.0
  0
LINE
  5
25E
330
35A
100
AcDbEntity
  8
YKK_A1
100
AcDbLine
 10
7100.0
 20
16625.0
 30
0.0
 11
7100.0
 21
16525.0
 31
0.0
  0
CIRCLE
  5
25F
330
35A
100
AcDbEntity
  8
YKK_A2
  6
ByBlock
100
AcDbCircle
 10
7520.0
 20
16635.0
 30
0.0
 40
4.099999999999998
  0
CIRCLE
  5
260
330
35A
100
AcDbEntity
  8
YKK_A2
  6
ByBlock
100
AcDbCircle
 10
7520.0
 20
16635.0
 30
0.0
 40
2.25
  0
LINE
  5
261
330
35A
100
AcDbEntity
  8
YKK_A2
  6
ByBlock
100
AcDbLine
 10
7509.0
 20
16635.0
 30
0.0
 11
7500.0
 21
16635.0
 31
0.0
  0
LINE
  5
262
330
35A
100
AcDbEntity
  8
YKK_A2
  6
ByBlock
100
AcDbLine
 10
7491.0
 20
16625.0
 30
0.0
 11
7500.0
 21
16635.0
 31
0.0
  0
CIRCLE
  5
263
330
35A
100
AcDbEntity
  8
YKK_A2
  6
ByBlock
100
AcDbCircle
 10
7480.0
 20
16635.0
 30
0.0
 40
4.099999999999998
  0
CIRCLE
  5
264
330
35A
100
AcDbEntity
  8
YKK_A2
  6
ByBlock
100
AcDbCircle
 10
7480.0
 20
16635.0
 30
0.0
 40
2.25
  0
LINE
  5
265
330
35A
100
AcDbEntity
  8
YKK_A2
  6
ByBlock
100
AcDbLine
 10
7472.0
 20
16625.0
 30
0.0
 11
7528.0
 21
16625.0
 31
0.0
  0
LINE
  5
266
330
35A
100
AcDbEntity
  8
YKK_A2
  6
ByBlock
100
AcDbLine
 10
7600.0
 20
16661.0
 30
0.0
 11
7600.0
 21
16649.0
 31
0.0
  0
LINE
  5
267
330
35A
100
AcDbEntity
  8
YKK_A2
  6
ByBlock
100
AcDbLine
 10
7528.0
 20
16645.0
 30
0.0
 11
7509.0
 21
16645.0
 31
0.0
  0
LINE
  5
268
330
35A
100
AcDbEntity
  8
YKK_A2
  6
ByBlock
100
AcDbLine
 10
7504.0
 20
16661.0
 30
0.0
 11
7504.0
 21
16649.0
 31
0.0
  0
LINE
  5
269
330
35A
100
AcDbEntity
  8
YKK_A2
  6
ByBlock
100
AcDbLine
 10
7496.0
 20
16661.0
 30
0.0
 11
7496.0
 21
16645.0
 31
0.0
  0
LINE
  5
26A
330
35A
100
AcDbEntity
  8
YKK_A2
  6
ByBlock
100
AcDbLine
 10
7496.0
 20
16645.0
 30
0.0
 11
7472.0
 21
16645.0
 31
0.0
  0
LINE
  5
26B
330
35A
100
AcDbEntity
  8
YKK_A2
  6
ByBlock
100
AcDbLine
 10
7600.0
 20
16649.0
 30
0.0
 11
7504.0
 21
16649.0
 31
0.0
  0
LINE
  5
26C
330
35A
100
AcDbEntity
  8
YKK_A2
  6
ByBlock
100
AcDbLine
 10
7600.0
 20
16661.0
 30
0.0
 11
7496.0
 21
16661.0
 31
0.0
  0
LINE
  5
26D
330
35A
100
AcDbEntity
  8
YKK_N1
100
AcDbLine
 10
8300.0
 20
16645.0
 30
0.0
 11
8300.0
 21
17305.0
 31
0.0
  0
LINE
  5
26E
330
35A
100
AcDbEntity
  8
YKK_A1
100
AcDbLine
 10
7820.0
 20
16670.0
 30
0.0
 11
7820.0
 21
17245.0
 31
0.0
  0
LINE
  5
26F
330
35A
100
AcDbEntity
  8
YKK_A1
100
AcDbLine
 10
7870.0
 20
16625.0
 30
0.0
 11
7870.0
 21
17295.0
 31
0.0
  0
LINE
  5
270
330
35A
100
AcDbEntity
  8
YKK_A1
100
AcDbLine
 10
7900.0
 20
16625.0
 30
0.0
 11
7900.0
 21
17325.0
 31
0.0
  0
LINE
  5
271
330
35A
100
AcDbEntity
  8
YKK_N1
100
AcDbLine
 10
7960.0
 20
16525.0
 30
0.0
 11
8330.0
 21
16525.0
 31
0.0
  0
LINE
  5
272
330
35A
100
AcDbEntity
  8
YKK_N1
100
AcDbLine
 10
7960.0
 20
16625.0
 30
0.0
 11
8330.0
 21
16625.0
 31
0.0
  0
LINE
  5
273
330
35A
100
AcDbEntity
  8
YKK_N1
100
AcDbLine
 10
7960.0
 20
16525.0
 30
0.0
 11
8330.0
 21
16525.0
 31
0.0
  0
LINE
  5
274
330
35A
100
AcDbEntity
  8
YKK_N1
100
AcDbLine
 10
7960.0
 20
16625.0
 30
0.0
 11
8330.0
 21
16625.0
 31
0.0
  0
LINE
  5
275
330
35A
100
AcDbEntity
  8
YKK_A1
100
AcDbLine
 10
7900.0
 20
16525.0
 30
0.0
 11
7900.0
 21
16625.0
 31
0.0
  0
TEXT
  5
276
330
35A
100
AcDbEntity
  8
YKK_N1
100
AcDbText
 10
8490.0
 20
16427.57142857
 30
0.0
 40
60.0
  1
H=1500
 50
90.0
 41
0.8
100
AcDbText
1001
ACAD
1000
MTEXTBEGIN
1070
    73
1070
     1
1070
    44
1040
1.0
1070
    74
1070
     0
1000
MTEXTEND
  0
LINE
  5
277
330
35A
100
AcDbEntity
  8
YKK_N1
100
AcDbLine
 10
8300.0
 20
16625.0
 30
0.0
 11
8300.0
 21
16645.0
 31
0.0
  0
CIRCLE
  5
278
330
35A
100
AcDbEntity
  8
YKK_N1
100
AcDbCircle
 10
8300.0
 20
16625.0
 30
0.0
 40
6.5
  0
CIRCLE
  5
279
330
35A
100
AcDbEntity
  8
YKK_N1
100
AcDbCircle
 10
8300.0
 20
16625.0
 30
0.0
 40
10.0
  0
TEXT
  5
27A
330
35A
100
AcDbEntity
  8
YKK_N1
100
AcDbText
 10
8397.5
 20
16503.0
 30
0.0
 40
60.0
  1
100
 50
90.0
 41
0.8
100
AcDbText
1001
ACAD
1000
MTEXTBEGIN
1070
    73
1070
     1
1070
    44
1040
1.0
1070
    74
1070
     0
1000
MTEXTEND
  0
LINE
  5
27B
330
35A
100
AcDbEntity
  8
YKK_N1
100
AcDbLine
 10
8300.0
 20
16525.0
 30
0.0
 11
8300.0
 21
16545.0
 31
0.0
  0
CIRCLE
  5
27C
330
35A
100
AcDbEntity
  8
YKK_N1
100
AcDbCircle
 10
8300.0
 20
16525.0
 30
0.0
 40
6.5
  0
CIRCLE
  5
27D
330
35A
100
AcDbEntity
  8
YKK_N1
100
AcDbCircle
 10
8300.0
 20
16525.0
 30
0.0
 40
10.0
  0
LINE
  5
27E
330
35A
100
AcDbEntity
  8
YKK_N1
100
AcDbLine
 10
8300.0
 20
16625.0
 30
0.0
 11
8300.0
 21
16605.0
 31
0.0
  0
CIRCLE
  5
27F
330
35A
100
AcDbEntity
  8
YKK_N1
100
AcDbCircle
 10
8300.0
 20
16625.0
 30
0.0
 40
6.5
  0
CIRCLE
  5
280
330
35A
100
AcDbEntity
  8
YKK_N1
100
AcDbCircle
 10
8300.0
 20
16625.0
 30
0.0
 40
10.0
  0
LINE
  5
281
330
35A
100
AcDbEntity
  8
YKK_N1
100
AcDbLine
 10
8300.0
 20
16525.0
 30
0.0
 11
8300.0
 21
16505.0
 31
0.0
  0
CIRCLE
  5
282
330
35A
100
AcDbEntity
  8
YKK_N1
100
AcDbCircle
 10
8300.0
 20
16525.0
 30
0.0
 40
6.5
  0
CIRCLE
  5
283
330
35A
100
AcDbEntity
  8
YKK_N1
100
AcDbCircle
 10
8300.0
 20
16525.0
 30
0.0
 40
10.0
  0
LINE
  5
284
330
35A
100
AcDbEntity
  8
YKK_N1
100
AcDbLine
 10
8300.0
 20
16545.0
 30
0.0
 11
8300.0
 21
16605.0
 31
0.0
  0
TEXT
  5
285
330
35A
100
AcDbEntity
  8
YKK_N1
100
AcDbText
 10
8290.0
 20
16906.42857143
 30
0.0
 40
60.0
  1
700
 50
90.0
 41
0.8
100
AcDbText
1001
ACAD
1000
MTEXTBEGIN
1070
    73
1070
     1
1070
    44
1040
1.0
1070
    74
1070
     0
1000
MTEXTEND
  0
LINE
  5
286
330
35A
100
AcDbEntity
  8
YKK_N1
100
AcDbLine
 10
7960.0
 20
17325.0
 30
0.0
 11
8330.0
 21
17325.0
 31
0.0
  0
LINE
  5
287
330
35A
100
AcDbEntity
  8
YKK_N1
100
AcDbLine
 10
7960.0
 20
17325.0
 30
0.0
 11
8530.0
 21
17325.0
 31
0.0
  0
LINE
  5
288
330
35A
100
AcDbEntity
  8
YKK_N1
  6
ByBlock
100
AcDbLine
 10
8450.0
 20
17238.39745962
 30
0.0
 11
8550.0
 21
17238.39745962
 31
0.0
  0
LINE
  5
289
330
35A
100
AcDbEntity
  8
YKK_N1
  6
ByBlock
100
AcDbLine
 10
8500.0
 20
17325.0
 30
0.0
 11
8450.0
 21
17238.39745962
 31
0.0
  0
LINE
  5
28A
330
35A
100
AcDbEntity
  8
YKK_N1
100
AcDbLine
 10
8300.0
 20
17325.0
 30
0.0
 11
8300.0
 21
17305.0
 31
0.0
  0
CIRCLE
  5
28B
330
35A
100
AcDbEntity
  8
YKK_N1
100
AcDbCircle
 10
8300.0
 20
17325.0
 30
0.0
 40
6.5
  0
CIRCLE
  5
28C
330
35A
100
AcDbEntity
  8
YKK_N1
100
AcDbCircle
 10
8300.0
 20
17325.0
 30
0.0
 40
10.0
  0
LINE
  5
28D
330
35A
100
AcDbEntity
  8
YKK_N1
  6
ByBlock
100
AcDbLine
 10
8550.0
 20
17238.39745962
 30
0.0
 11
8500.0
 21
17325.0
 31
0.0
  0
LINE
  5
28E
330
35A
100
AcDbEntity
  8
YKK_N1
  6
ByBlock
100
AcDbLine
 10
8500.0
 20
17325.0
 30
0.0
 11
8500.0
 21
17225.0
 31
0.0
  0
LINE
  5
28F
330
35A
100
AcDbEntity
  8
YKK_N1
100
AcDbLine
 10
9800.0
 20
16645.0
 30
0.0
 11
9800.0
 21
17305.0
 31
0.0
  0
LINE
  5
290
330
35A
100
AcDbEntity
  8
YKK_C1
  6
PHANTOM
100
AcDbLine
 10
9300.0
 20
17168.0
 30
0.0
 11
8934.00383947
 21
16534.0671967
 31
0.0
  0
LINE
  5
291
330
35A
100
AcDbEntity
  8
YKK_C1
100
AcDbLine
 10
9300.0
 20
16690.0
 30
0.0
 11
9300.0
 21
17225.0
 31
0.0
  0
LINE
  5
292
330
35A
100
AcDbEntity
  8
YKK_C1
100
AcDbLine
 10
9400.0
 20
16645.0
 30
0.0
 11
9400.0
 21
17305.0
 31
0.0
  0
LINE
  5
293
330
35A
100
AcDbEntity
  8
YKK_C1
100
AcDbLine
 10
9328.0
 20
16662.0
 30
0.0
 11
9328.0
 21
17253.0
 31
0.0
  0
LINE
  5
294
330
35A
100
AcDbEntity
  8
YKK_C1
100
AcDbLine
 10
9314.0
 20
16662.0
 30
0.0
 11
9314.0
 21
17253.0
 31
0.0
  0
LINE
  5
295
330
35A
100
AcDbEntity
  8
YKK_Z1
  6
Continuous
100
AcDbLine
 10
9520.0
 20
17340.0
 30
0.0
 11
9520.0
 21
16575.0
 31
0.0
  0
TEXT
  5
296
330
35A
100
AcDbEntity
  8
YKK_N1
100
AcDbText
 10
9278.0
 20
16370.0
 30
0.0
 40
60.0
  1
100
 41
0.8
100
AcDbText
1001
ACAD
1000
MTEXTBEGIN
1070
    73
1070
     1
1070
    44
1040
1.0
1070
    74
1070
     0
1000
MTEXTEND
  0
CIRCLE
  5
297
330
35A
100
AcDbEntity
  8
YKK_N1
100
AcDbCircle
 10
9300.0
 20
16325.0
 30
0.0
 40
6.5
  0
CIRCLE
  5
298
330
35A
100
AcDbEntity
  8
YKK_N1
100
AcDbCircle
 10
9300.0
 20
16325.0
 30
0.0
 40
10.0
  0
ARC
  5
299
330
35A
100
AcDbEntity
  8
YKK_C1
  6
PHANTOM
100
AcDbCircle
 10
9013.75095835
 20
17261.71023902
 30
0.0
 40
732.0
100
AcDbArc
 50
263.74554588
 51
293.01988682
  0
LINE
  5
29A
330
35A
100
AcDbEntity
  8
YKK_N1
100
AcDbLine
 10
9800.0
 20
16625.0
 30
0.0
 11
9800.0
 21
16645.0
 31
0.0
  0
LINE
  5
29B
330
35A
100
AcDbEntity
  8
YKK_C1
100
AcDbLine
 10
9300.0
 20
16670.0
 30
0.0
 11
9300.0
 21
16588.0
 31
0.0
  0
LINE
  5
29C
330
35A
100
AcDbEntity
  8
YKK_C1
100
AcDbLine
 10
9350.0
 20
16670.0
 30
0.0
 11
9350.0
 21
16620.0
 31
0.0
  0
LINE
  5
29D
330
35A
100
AcDbEntity
  8
YKK_N1
100
AcDbLine
 10
9460.0
 20
16525.0
 30
0.0
 11
9830.0
 21
16525.0
 31
0.0
  0
LINE
  5
29E
330
35A
100
AcDbEntity
  8
YKK_N1
100
AcDbLine
 10
9460.0
 20
16625.0
 30
0.0
 11
9830.0
 21
16625.0
 31
0.0
  0
LINE
  5
29F
330
35A
100
AcDbEntity
  8
YKK_N1
100
AcDbLine
 10
9460.0
 20
16525.0
 30
0.0
 11
9830.0
 21
16525.0
 31
0.0
  0
LINE
  5
2A0
330
35A
100
AcDbEntity
  8
YKK_N1
100
AcDbLine
 10
9460.0
 20
16625.0
 30
0.0
 11
9830.0
 21
16625.0
 31
0.0
  0
LINE
  5
2A1
330
35A
100
AcDbEntity
  8
YKK_N1
100
AcDbLine
 10
9400.0
 20
16325.0
 30
0.0
 11
9380.0
 21
16325.0
 31
0.0
  0
CIRCLE
  5
2A2
330
35A
100
AcDbEntity
  8
YKK_N1
100
AcDbCircle
 10
9400.0
 20
16325.0
 30
0.0
 40
6.5
  0
CIRCLE
  5
2A3
330
35A
100
AcDbEntity
  8
YKK_N1
100
AcDbCircle
 10
9400.0
 20
16325.0
 30
0.0
 40
10.0
  0
LINE
  5
2A4
330
35A
100
AcDbEntity
  8
YKK_N1
100
AcDbLine
 10
9300.0
 20
16325.0
 30
0.0
 11
9320.0
 21
16325.0
 31
0.0
  0
LINE
  5
2A5
330
35A
100
AcDbEntity
  8
YKK_N1
100
AcDbLine
 10
9380.0
 20
16325.0
 30
0.0
 11
9320.0
 21
16325.0
 31
0.0
  0
LINE
  5
2A6
330
35A
100
AcDbEntity
  8
YKK_N1
100
AcDbLine
 10
9300.0
 20
16375.0
 30
0.0
 11
9300.0
 21
16355.0
 31
0.0
  0
LINE
  5
2A7
330
35A
100
AcDbEntity
  8
YKK_N1
100
AcDbLine
 10
9400.0
 20
16375.0
 30
0.0
 11
9400.0
 21
16355.0
 31
0.0
  0
LINE
  5
2A8
330
35A
100
AcDbEntity
  8
YKK_C1
100
AcDbLine
 10
9350.0
 20
16620.0
 30
0.0
 11
9300.0
 21
16620.0
 31
0.0
  0
LINE
  5
2A9
330
35A
100
AcDbEntity
  8
YKK_C1
100
AcDbLine
 10
9300.0
 20
16590.0
 30
0.0
 11
9300.0
 21
16549.0
 31
0.0
  0
LINE
  5
2AA
330
35A
100
AcDbEntity
  8
YKK_C1
100
AcDbLine
 10
9400.0
 20
16625.0
 30
0.0
 11
9400.0
 21
16525.0
 31
0.0
  0
LINE
  5
2AC
330
35A
100
AcDbEntity
  8
YKK_C1
100
AcDbLine
 10
9361.0
 20
16525.0
 30
0.0
 11
9342.0
 21
16525.0
 31
0.0
  0
LINE
  5
2AD
330
35A
100
AcDbEntity
  8
YKK_C1
100
AcDbLine
 10
9300.0
 20
16549.0
 30
0.0
 11
9300.0
 21
16525.0
 31
0.0
  0
LINE
  5
2AE
330
35A
100
AcDbEntity
  8
YKK_C1
100
AcDbLine
 10
9361.0
 20
16549.0
 30
0.0
 11
9300.0
 21
16549.0
 31
0.0
  0
LINE
  5
2AF
330
35A
100
AcDbEntity
  8
YKK_C1
100
AcDbLine
 10
9361.0
 20
16525.0
 30
0.0
 11
9361.0
 21
16549.0
 31
0.0
  0
LINE
  5
2B0
330
35A
100
AcDbEntity
  8
YKK_C1
100
AcDbLine
 10
9400.0
 20
16525.0
 30
0.0
 11
9361.0
 21
16525.0
 31
0.0
  0
LINE
  5
2B1
330
35A
100
AcDbEntity
  8
YKK_C1
100
AcDbLine
 10
9327.0
 20
16590.0
 30
0.0
 11
9300.0
 21
16590.0
 31
0.0
  0
LINE
  5
2B3
330
35A
100
AcDbEntity
  8
YKK_C1
100
AcDbLine
 10
9354.0
 20
16590.0
 30
0.0
 11
9300.0
 21
16590.0
 31
0.0
  0
LINE
  5
2B4
330
35A
100
AcDbEntity
  8
YKK_C1
100
AcDbLine
 10
9354.0
 20
16625.0
 30
0.0
 11
9354.0
 21
16590.0
 31
0.0
  0
LINE
  5
2B5
330
35A
100
AcDbEntity
  8
YKK_C1
100
AcDbLine
 10
9400.0
 20
16625.0
 30
0.0
 11
9354.0
 21
16625.0
 31
0.0
  0
CIRCLE
  5
2B6
330
35A
100
AcDbEntity
  8
YKK_N1
100
AcDbCircle
 10
9800.0
 20
16625.0
 30
0.0
 40
6.5
  0
CIRCLE
  5
2B7
330
35A
100
AcDbEntity
  8
YKK_N1
100
AcDbCircle
 10
9800.0
 20
16625.0
 30
0.0
 40
10.0
  0
LINE
  5
2B8
330
35A
100
AcDbEntity
  8
YKK_N1
100
AcDbLine
 10
9800.0
 20
16525.0
 30
0.0
 11
9800.0
 21
16545.0
 31
0.0
  0
CIRCLE
  5
2B9
330
35A
100
AcDbEntity
  8
YKK_N1
100
AcDbCircle
 10
9800.0
 20
16525.0
 30
0.0
 40
6.5
  0
CIRCLE
  5
2BA
330
35A
100
AcDbEntity
  8
YKK_N1
100
AcDbCircle
 10
9800.0
 20
16525.0
 30
0.0
 40
10.0
  0
LINE
  5
2BB
330
35A
100
AcDbEntity
  8
YKK_N1
100
AcDbLine
 10
9800.0
 20
16625.0
 30
0.0
 11
9800.0
 21
16605.0
 31
0.0
  0
CIRCLE
  5
2BC
330
35A
100
AcDbEntity
  8
YKK_N1
100
AcDbCircle
 10
9800.0
 20
16625.0
 30
0.0
 40
6.5
  0
CIRCLE
  5
2BD
330
35A
100
AcDbEntity
  8
YKK_N1
100
AcDbCircle
 10
9800.0
 20
16625.0
 30
0.0
 40
10.0
  0
LINE
  5
2BE
330
35A
100
AcDbEntity
  8
YKK_N1
100
AcDbLine
 10
9800.0
 20
16525.0
 30
0.0
 11
9800.0
 21
16505.0
 31
0.0
  0
CIRCLE
  5
2BF
330
35A
100
AcDbEntity
  8
YKK_N1
100
AcDbCircle
 10
9800.0
 20
16525.0
 30
0.0
 40
6.5
  0
CIRCLE
  5
2C0
330
35A
100
AcDbEntity
  8
YKK_N1
100
AcDbCircle
 10
9800.0
 20
16525.0
 30
0.0
 40
10.0
  0
LINE
  5
2C1
330
35A
100
AcDbEntity
  8
YKK_N1
100
AcDbLine
 10
9800.0
 20
16545.0
 30
0.0
 11
9800.0
 21
16605.0
 31
0.0
  0
LINE
  5
2C2
330
35A
100
AcDbEntity
  8
YKK_C1
100
AcDbLine
 10
9342.0
 20
16670.0
 30
0.0
 11
9342.0
 21
16654.0
 31
0.0
  0
LINE
  5
2C3
330
35A
100
AcDbEntity
  8
YKK_C1
100
AcDbLine
 10
9350.0
 20
16670.0
 30
0.0
 11
9342.0
 21
16670.0
 31
0.0
  0
LINE
  5
2C4
330
35A
100
AcDbEntity
  8
YKK_C1
100
AcDbLine
 10
9300.0
 20
16654.0
 30
0.0
 11
9350.0
 21
16654.0
 31
0.0
  0
TEXT
  5
2C5
330
35A
100
AcDbEntity
  8
YKK_N1
100
AcDbText
 10
9790.0
 20
16906.42857143
 30
0.0
 40
60.0
  1
700
 50
90.0
 41
0.8
100
AcDbText
1001
ACAD
1000
MTEXTBEGIN
1070
    73
1070
     1
1070
    44
1040
1.0
1070
    74
1070
     0
1000
MTEXTEND
  0
LINE
  5
2C6
330
35A
100
AcDbEntity
  8
YKK_Z1
  6
Continuous
100
AcDbLine
 10
9498.0
 20
17725.0
 30
0.0
 11
9498.0
 21
17365.0
 31
0.0
  0
LINE
  5
2C7
330
35A
100
AcDbEntity
  8
YKK_Z1
  6
Continuous
100
AcDbLine
 10
9510.0
 20
17365.0
 30
0.0
 11
9510.0
 21
17725.0
 31
0.0
  0
LINE
  5
2C8
330
35A
100
AcDbEntity
  8
YKK_Z1
  6
HIDDEN
100
AcDbLine
 10
9330.0
 20
17725.0
 30
0.0
 11
9330.0
 21
17385.0
 31
0.0
  0
LINE
  5
2C9
330
35A
100
AcDbEntity
  8
YKK_Z1
  6
CENTER
100
AcDbLine
 10
9405.0
 20
17385.0
 30
0.0
 11
9405.0
 21
17725.0
 31
0.0
  0
LINE
  5
2CA
330
35A
100
AcDbEntity
  8
YKK_Z1
  6
Continuous
100
AcDbLine
 10
9461.98471014
 20
17410.0
 30
0.0
 11
9480.0
 21
17428.0152805
 31
0.0
  0
LINE
  5
2CB
330
35A
100
AcDbEntity
  8
YKK_Z1
  6
Continuous
100
AcDbLine
 10
9310.0
 20
17385.0
 30
0.0
 11
9310.0
 21
17725.0
 31
0.0
  0
LINE
  5
2CC
330
35A
100
AcDbEntity
  8
YKK_Z1
  6
Continuous
100
AcDbLine
 10
9480.0
 20
17725.0
 30
0.0
 11
9480.0
 21
17410.0
 31
0.0
  0
LINE
  5
2CD
330
35A
100
AcDbEntity
  8
YKK_N1
100
AcDbLine
 10
9460.0
 20
17325.0
 30
0.0
 11
9830.0
 21
17325.0
 31
0.0
  0
LINE
  5
2CE
330
35A
100
AcDbEntity
  8
YKK_C1
100
AcDbLine
 10
9342.0
 20
17245.0
 30
0.0
 11
9342.0
 21
17261.0
 31
0.0
  0
LINE
  5
2CF
330
35A
100
AcDbEntity
  8
YKK_C1
100
AcDbLine
 10
9350.0
 20
17245.0
 30
0.0
 11
9342.0
 21
17245.0
 31
0.0
  0
LINE
  5
2D0
330
35A
100
AcDbEntity
  8
YKK_C1
100
AcDbLine
 10
9350.0
 20
17261.0
 30
0.0
 11
9300.0
 21
17261.0
 31
0.0
  0
LINE
  5
2D1
330
35A
100
AcDbEntity
  8
YKK_C1
100
AcDbLine
 10
9300.0
 20
17245.0
 30
0.0
 11
9300.0
 21
17320.0
 31
0.0
  0
LINE
  5
2D2
330
35A
100
AcDbEntity
  8
YKK_C1
100
AcDbLine
 10
9350.0
 20
17300.0
 30
0.0
 11
9300.0
 21
17300.0
 31
0.0
  0
LINE
  5
2D3
330
35A
100
AcDbEntity
  8
YKK_C1
100
AcDbLine
 10
9350.0
 20
17245.0
 30
0.0
 11
9350.0
 21
17300.0
 31
0.0
  0
LINE
  5
2D4
330
35A
100
AcDbEntity
  8
YKK_C1
100
AcDbLine
 10
9355.0
 20
17375.0
 30
0.0
 11
9355.0
 21
17360.0
 31
0.0
  0
LINE
  5
2D5
330
35A
100
AcDbEntity
  8
YKK_C1
100
AcDbLine
 10
9300.0
 20
17365.0
 30
0.0
 11
9355.0
 21
17365.0
 31
0.0
  0
LINE
  5
2D6
330
35A
100
AcDbEntity
  8
YKK_C1
100
AcDbLine
 10
9300.0
 20
17325.0
 30
0.0
 11
9300.0
 21
17365.0
 31
0.0
  0
LINE
  5
2D7
330
35A
100
AcDbEntity
  8
YKK_C1
100
AcDbLine
 10
9355.0
 20
17360.0
 30
0.0
 11
9364.0
 21
17360.0
 31
0.0
  0
LINE
  5
2D8
330
35A
100
AcDbEntity
  8
YKK_C1
100
AcDbLine
 10
9355.0
 20
17350.0
 30
0.0
 11
9355.0
 21
17360.0
 31
0.0
  0
LINE
  5
2D9
330
35A
100
AcDbEntity
  8
YKK_C1
100
AcDbLine
 10
9400.0
 20
17350.0
 30
0.0
 11
9355.0
 21
17350.0
 31
0.0
  0
LINE
  5
2DA
330
35A
100
AcDbEntity
  8
YKK_C1
100
AcDbLine
 10
9400.0
 20
17360.0
 30
0.0
 11
9391.0
 21
17360.0
 31
0.0
  0
LINE
  5
2DB
330
35A
100
AcDbEntity
  8
YKK_C1
100
AcDbLine
 10
9400.0
 20
17325.0
 30
0.0
 11
9400.0
 21
17360.0
 31
0.0
  0
LINE
  5
2DC
330
35A
100
AcDbEntity
  8
YKK_C1
100
AcDbLine
 10
9354.0
 20
17325.0
 30
0.0
 11
9354.0
 21
17295.0
 31
0.0
  0
LINE
  5
2DD
330
35A
100
AcDbEntity
  8
YKK_C1
100
AcDbLine
 10
9400.0
 20
17325.0
 30
0.0
 11
9300.0
 21
17325.0
 31
0.0
  0
LINE
  5
2DE
330
35A
100
AcDbEntity
  8
YKK_Z1
  6
Continuous
100
AcDbLine
 10
9498.0
 20
17365.0
 30
0.0
 11
9510.0
 21
17365.0
 31
0.0
  0
LINE
  5
2DF
330
35A
100
AcDbEntity
  8
YKK_Z1
  6
Continuous
100
AcDbLine
 10
9310.0
 20
17365.0
 30
0.0
 11
9310.0
 21
17385.0
 31
0.0
  0
LINE
  5
2E0
330
35A
100
AcDbEntity
  8
YKK_Z1
  6
Continuous
100
AcDbLine
 10
9520.0
 20
17343.57864265
 30
0.0
 11
9516.42135549
 21
17340.0
 31
0.0
  0
LINE
  5
2E1
330
35A
100
AcDbEntity
  8
YKK_Z1
  6
Continuous
100
AcDbLine
 10
9513.13709479
 20
17365.0
 30
0.0
 11
9488.1370818
 21
17340.0
 31
0.0
  0
LINE
  5
2E2
330
35A
100
AcDbEntity
  8
YKK_Z1
  6
Continuous
100
AcDbLine
 10
9484.85282109
 20
17365.0
 30
0.0
 11
9459.8528081
 21
17340.0
 31
0.0
  0
LINE
  5
2E3
330
35A
100
AcDbEntity
  8
YKK_Z1
  6
Continuous
100
AcDbLine
 10
9456.56854739
 20
17365.0
 30
0.0
 11
9431.5685344
 21
17340.0
 31
0.0
  0
LINE
  5
2E4
330
35A
100
AcDbEntity
  8
YKK_Z1
  6
Continuous
100
AcDbLine
 10
9428.2842737
 20
17365.0
 30
0.0
 11
9403.28426071
 21
17340.0
 31
0.0
  0
LINE
  5
2E6
330
35A
100
AcDbEntity
  8
YKK_Z1
  6
Continuous
100
AcDbLine
 10
9400.0
 20
17365.0
 30
0.0
 11
9400.0
 21
17340.0
 31
0.0
  0
LINE
  5
2E7
330
35A
100
AcDbEntity
  8
YKK_Z1
  6
Continuous
100
AcDbLine
 10
9520.0
 20
17365.0
 30
0.0
 11
9400.0
 21
17365.0
 31
0.0
  0
LINE
  5
2E8
330
35A
100
AcDbEntity
  8
YKK_Z1
  6
Continuous
100
AcDbLine
 10
9520.0
 20
17340.0
 30
0.0
 11
9520.0
 21
17365.0
 31
0.0
  0
LINE
  5
2E9
330
35A
100
AcDbEntity
  8
YKK_Z1
  6
Continuous
100
AcDbLine
 10
9400.0
 20
17340.0
 30
0.0
 11
9520.0
 21
17340.0
 31
0.0
  0
LINE
  5
2EA
330
35A
100
AcDbEntity
  8
YKK_Z1
  6
Continuous
100
AcDbLine
 10
9470.46999225
 20
17410.0
 30
0.0
 11
9480.0
 21
17419.5300028
 31
0.0
  0
LINE
  5
2EB
330
35A
100
AcDbEntity
  8
YKK_Z1
  6
Continuous
100
AcDbLine
 10
9360.0
 20
17385.0
 30
0.0
 11
9310.0
 21
17385.0
 31
0.0
  0
LINE
  5
2EC
330
35A
100
AcDbEntity
  8
YKK_Z1
  6
Continuous
100
AcDbLine
 10
9370.0
 20
17410.0
 30
0.0
 11
9360.0
 21
17385.0
 31
0.0
  0
LINE
  5
2ED
330
35A
100
AcDbEntity
  8
YKK_Z1
  6
Continuous
100
AcDbLine
 10
9480.0
 20
17410.0
 30
0.0
 11
9370.0
 21
17410.0
 31
0.0
  0
LINE
  5
2EE
330
35A
100
AcDbEntity
  8
YKK_N1
100
AcDbLine
 10
9800.0
 20
17325.0
 30
0.0
 11
9800.0
 21
17305.0
 31
0.0
  0
CIRCLE
  5
2EF
330
35A
100
AcDbEntity
  8
YKK_N1
100
AcDbCircle
 10
9800.0
 20
17325.0
 30
0.0
 40
6.5
  0
CIRCLE
  5
2F0
330
35A
100
AcDbEntity
  8
YKK_N1
100
AcDbCircle
 10
9800.0
 20
17325.0
 30
0.0
 40
10.0
  0
LINE
  5
2F1
330
35A
100
AcDbEntity
  8
YKK_Z1
  6
Continuous
100
AcDbLine
 10
9310.0
 20
17526.71582933
 30
0.0
 11
9480.0
 21
17696.715741
 31
0.0
  0
LINE
  5
2F2
330
35A
100
AcDbEntity
  8
YKK_Z1
  6
Continuous
100
AcDbLine
 10
9310.0
 20
17546.51481063
 30
0.0
 11
9480.0
 21
17716.5147223
 31
0.0
  0
LINE
  5
2F3
330
35A
100
AcDbEntity
  8
YKK_Z1
  6
Continuous
100
AcDbLine
 10
9310.0
 20
17555.00008833
 30
0.0
 11
9480.0
 21
17725.0
 31
0.0
  0
TEXT
  5
2F4
330
35A
100
AcDbEntity
  8
YKK_N1
100
AcDbText
 10
9990.0
 20
16427.57142857
 30
0.0
 40
60.0
  1
H=1500
 50
90.0
 41
0.8
100
AcDbText
1001
ACAD
1000
MTEXTBEGIN
1070
    73
1070
     1
1070
    44
1040
1.0
1070
    74
1070
     0
1000
MTEXTEND
  0
LINE
  5
2F5
330
35A
100
AcDbEntity
  8
YKK_N1
  6
ByBlock
100
AcDbLine
 10
10050.0
 20
17238.39745962
 30
0.0
 11
10000.0
 21
17325.0
 31
0.0
  0
LINE
  5
2F6
330
35A
100
AcDbEntity
  8
YKK_N1
  6
ByBlock
100
AcDbLine
 10
9950.0
 20
17238.39745962
 30
0.0
 11
10050.0
 21
17238.39745962
 31
0.0
  0
LINE
  5
2F7
330
35A
100
AcDbEntity
  8
YKK_N1
  6
ByBlock
100
AcDbLine
 10
10000.0
 20
17325.0
 30
0.0
 11
9950.0
 21
17238.39745962
 31
0.0
  0
LINE
  5
2F8
330
35A
100
AcDbEntity
  8
YKK_N1
  6
ByBlock
100
AcDbLine
 10
10000.0
 20
17325.0
 30
0.0
 11
10000.0
 21
17225.0
 31
0.0
  0
LINE
  5
2F9
330
35A
100
AcDbEntity
  8
YKK_F1
100
AcDbLine
 10
17100.0
 20
0.0
 30
0.0
 11
17100.0
 21
19500.0
 31
0.0
  0
LINE
  5
2FA
330
35A
100
AcDbEntity
  8
YKK_F1
100
AcDbLine
 10
22800.0
 20
0.0
 30
0.0
 11
22800.0
 21
19500.0
 31
0.0
  0
LINE
  5
2FB
330
35A
100
AcDbEntity
  8
YKK_F1
100
AcDbLine
 10
28500.0
 20
0.0
 30
0.0
 11
28500.0
 21
20000.0
 31
0.0
  0
LINE
  5
2FC
330
35A
100
AcDbEntity
  8
YKK_F1
100
AcDbLine
 10
28681.0155
 20
0.0
 30
0.0
 11
28681.0155
 21
20000.0
 31
0.0
  0
TEXT
  5
2FD
330
35A
100
AcDbEntity
  8
0
100
AcDbText
 10
22915.0
 20
4959.2247
 30
0.0
 40
201.25
  1
耐風圧性
  7
EXTFONT
100
AcDbText
  0
TEXT
  5
2FE
330
35A
100
AcDbEntity
  8
0
100
AcDbText
 10
22915.0
 20
3235.7247
 30
0.0
 40
201.25
  1
水密性
  7
EXTFONT
100
AcDbText
  0
TEXT
  5
2FF
330
35A
100
AcDbEntity
  8
0
100
AcDbText
 10
22915.0
 20
3810.7247
 30
0.0
 40
201.25
  1
気密性
  7
EXTFONT
100
AcDbText
  0
TEXT
  5
300
330
35A
100
AcDbEntity
  8
0
100
AcDbText
 10
22915.0
 20
2660.7247
 30
0.0
 40
201.25
  1
遮音性
  7
EXTFONT
100
AcDbText
  0
TEXT
  5
301
330
35A
100
AcDbEntity
  8
0
100
AcDbText
 10
22915.0
 20
2173.7247
 30
0.0
 40
201.25
  1
断熱性
  7
EXTFONT
100
AcDbText
  0
TEXT
  5
302
330
35A
100
AcDbEntity
  8
0
100
AcDbText
 10
22915.0
 20
904.2247
 30
0.0
 40
201.25
  1
ただし、窓種・サイズにより適応値が異なります。
  7
EXTFONT
100
AcDbText
  0
TEXT
  5
303
330
35A
100
AcDbEntity
  8
0
100
AcDbText
 10
22915.0
 20
5712.6247
 30
0.0
 40
201.25
  1
ＹＤＰ－１００　辷り出し窓　性能等級
  7
EXTFONT
100
AcDbText
  0
TEXT
  5
304
330
35A
100
AcDbEntity
  8
0
100
AcDbText
 10
24211.05
 20
1885.7247
 30
0.0
 40
201.25
  1
（複層ガラス５＋Ａ１２＋５の場合）
  7
EXTFONT
100
AcDbText
  0
TEXT
  5
305
330
35A
100
AcDbEntity
  8
0
100
AcDbText
 10
24211.05
 20
2172.7247
 30
0.0
 40
201.25
  1
Ｈ－３（０．２８７ｍ２・Ｋ／Ｗ以上）
  7
EXTFONT
100
AcDbText
  0
TEXT
  5
306
330
35A
100
AcDbEntity
  8
0
100
AcDbText
 10
24211.05
 20
2659.7247
 30
0.0
 40
201.25
  1
Ｔ－２（３０等級線）
  7
EXTFONT
100
AcDbText
  0
TEXT
  5
307
330
35A
100
AcDbEntity
  8
0
100
AcDbText
 10
24211.05
 20
3235.7247
 30
0.0
 40
201.25
  1
Ｗ－５（５００Ｐａ）
  7
EXTFONT
100
AcDbText
  0
TEXT
  5
308
330
35A
100
AcDbEntity
  8
0
100
AcDbText
 10
24211.05
 20
3810.7247
 30
0.0
 40
201.25
  1
Ａ－４（２等級線）
  7
EXTFONT
100
AcDbText
  0
TEXT
  5
309
330
35A
100
AcDbEntity
  8
0
100
AcDbText
 10
24211.05
 20
4960.7247
 30
0.0
 40
201.25
  1
Ｓ－５（２４００Ｐａ）
  7
EXTFONT
100
AcDbText
  0
TEXT
  5
30A
330
35A
100
AcDbEntity
  8
0
100
AcDbText
 10
24211.05
 20
4385.7247
 30
0.0
 40
201.25
  1
Ｓ－７（３６００Ｐａ）
  7
EXTFONT
100
AcDbText
  0
TEXT
  5
30B
330
35A
100
AcDbEntity
  8
0
100
AcDbText
 10
24211.05
 20
4673.2247
 30
0.0
 40
201.25
  1
Ｓ－６（２８００Ｐａ）
  7
EXTFONT
100
AcDbText
  0
ENDSEC
  0
SECTION
  2
OBJECTS
  0
DICTIONARY
  5
34F
330
0
100
AcDbDictionary
281
     1
  3
ACAD_CIP_PREVIOUS_PRODUCT_INFO
350
418
  3
ACAD_COLOR
350
3AE
  3
ACAD_DETAILVIEWSTYLE
350
3C7
  3
ACAD_GROUP
350
350
  3
ACAD_LAYOUT
350
3CC
  3
ACAD_MATERIAL
350
37C
  3
ACAD_MLEADERSTYLE
350
3C3
  3
ACAD_MLINESTYLE
350
35D
  3
ACAD_PLOTSETTINGS
350
3CB
  3
ACAD_PLOTSTYLENAME
350
37A
  3
ACAD_SCALELIST
350
3B1
  3
ACAD_SECTIONVIEWSTYLE
350
3C5
  3
ACAD_TABLESTYLE
350
3AF
  3
ACAD_VISUALSTYLE
350
395
  3
ACDB_RECOMPOSE_DATA
350
41E
  3
ACDBVARIABLEDICTIONARY
350
373
  0
XRECORD
  5
418
102
{ACAD_REACTORS
330
34F
102
}
330
34F
100
AcDbXrecord
280
     1
300
ACD
300
2014
300
86063ACD_2014_0F
  0
DICTIONARY
  5
3AE
102
{ACAD_REACTORS
330
34F
102
}
330
34F
100
AcDbDictionary
281
     1
  0
DICTIONARY
  5
3C7
102
{ACAD_REACTORS
330
34F
102
}
330
34F
100
AcDbDictionary
281
     1
  3
Imperial24
350
3C8
  0
DICTIONARY
  5
350
102
{ACAD_REACTORS
330
34F
102
}
330
34F
100
AcDbDictionary
281
     1
  0
DICTIONARY
  5
3CC
102
{ACAD_REACTORS
330
34F
102
}
330
34F
100
AcDbDictionary
281
     1
  3
Model
350
3CD
  3
レイアウト1
350
3CE
  0
DICTIONARY
  5
37C
102
{ACAD_REACTORS
330
34F
102
}
330
34F
100
AcDbDictionary
281
     1
  3
ByBlock
350
385
  3
ByLayer
350
37D
  3
Global
350
38D
  0
DICTIONARY
  5
3C3
102
{ACAD_REACTORS
330
34F
102
}
330
34F
100
AcDbDictionary
281
     1
  3
Standard
350
3C4
  0
DICTIONARY
  5
35D
102
{ACAD_REACTORS
330
34F
102
}
330
34F
100
AcDbDictionary
281
     1
  3
STANDARD
350
35E
  0
DICTIONARY
  5
3CB
102
{ACAD_REACTORS
330
34F
102
}
330
34F
100
AcDbDictionary
281
     1
  0
ACDBDICTIONARYWDFLT
  5
37A
102
{ACAD_REACTORS
330
34F
102
}
330
34F
100
AcDbDictionary
281
     1
  3
Normal
350
37B
100
AcDbDictionaryWithDefault
340
37B
  0
DICTIONARY
  5
3B1
102
{ACAD_REACTORS
330
34F
102
}
330
34F
100
AcDbDictionary
281
     1
  3
A0
350
3B2
  3
A1
350
3B3
  3
A2
350
3B4
  3
A3
350
3B5
  3
A4
350
3B6
  3
A5
350
3B7
  3
A6
350
3B8
  3
A7
350
3B9
  3
A8
350
3BA
  3
A9
350
3BB
  3
B0
350
3BC
  3
B1
350
3BD
  3
B2
350
3BE
  3
B3
350
3BF
  3
B4
350
3C0
  3
B5
350
3C1
  3
B6
350
3C2
  0
DICTIONARY
  5
3C5
102
{ACAD_REACTORS
330
34F
102
}
330
34F
100
AcDbDictionary
281
     1
  3
Imperial24
350
3C6
  0
DICTIONARY
  5
3AF
102
{ACAD_REACTORS
330
34F
102
}
330
34F
100
AcDbDictionary
281
     1
  3
Standard
350
3B0
  0
DICTIONARY
  5
395
102
{ACAD_REACTORS
330
34F
102
}
330
34F
100
AcDbDictionary
281
     1
  3
2dWireframe
350
39B
  3
Basic
350
39A
  3
Brighten
350
3A1
  3
ColorChange
350
3A5
  3
Conceptual
350
39E
  3
Dim
350
3A0
  3
EdgeColorOff
350
3AD
  3
Facepattern
350
3A4
  3
Flat
350
396
  3
FlatWithEdges
350
397
  3
Gouraud
350
398
  3
GouraudWithEdges
350
399
  3
Hidden
350
39D
  3
JitterOff
350
3AB
  3
Linepattern
350
3A3
  3
OverhangOff
350
3AC
  3
Realistic
350
39F
  3
Shaded
350
3AA
  3
Shaded with edges
350
3A9
  3
Shades of Gray
350
3A6
  3
Sketchy
350
3A7
  3
Thicken
350
3A2
  3
Wireframe
350
39C
  3
X-Ray
350
3A8
  0
XRECORD
  5
41E
102
{ACAD_REACTORS
330
34F
102
}
330
34F
100
AcDbXrecord
280
     1
 90
        1
330
3B0
  0
DICTIONARY
  5
373
102
{ACAD_REACTORS
330
34F
102
}
330
34F
100
AcDbDictionary
281
     1
  3
CANNOSCALE
350
411
  3
CMLEADERSTYLE
350
40E
  3
CTABLESTYLE
350
40D
  3
CVIEWDETAILSTYLE
350
40F
  3
CVIEWSECTIONSTYLE
350
410
  3
DIMADEC
350
374
  3
XCLIPFRAME
350
41C
  0
ACDBDETAILVIEWSTYLE
  5
3C8
102
{ACAD_XDICTIONARY
360
457
102
}
102
{ACAD_REACTORS
330
3C7
102
}
330
3C7
100
AcDbModelDocViewStyle
 70
     0
  3
Imperial24
290
     0
100
AcDbDetailViewStyle
 70
     0
 71
     0
 90
        3
 71
     1
340
352
 62
   256
 40
0.24
340
0
 62
   256
 40
0.24
300

 40
0.36
280
     3
 71
     2
340
356
 90
       25
 62
   256
 71
     3
340
352
 62
   256
 40
0.24
 90
        1
 40
0.75
 90
        1
300
%<\AcVar ViewType \f "%tc1">% %<\AcVar ViewDetailId>%\PSCALE %<\AcVar ViewScale \f "%sn">%
 71
     4
340
356
 90
       25
 62
   256
340
356
 90
       25
 62
   256
280
     0
  0
LAYOUT
  5
3CD
102
{ACAD_REACTORS
330
3CC
102
}
330
3CC
100
AcDbPlotSettings
  1

  2
C:\ACAD-I\support\plotters\Default Windows System Printer.pc3
  4
A4
  6

 40
3.17499995
 41
3.17499995
 42
3.17500305
 43
3.17498779
 44
209.88865662
 45
297.05300903
 46
0.0
 47
0.0
 48
0.0
 49
0.0
140
0.0
141
0.0
142
1.0
143
3304.82632881
 70
 11952
 72
     0
 73
     1
 74
     0
  7
monochrome.ctb
 75
     0
147
0.00030259
 76
     0
 77
     2
 78
   300
148
87034.94378514
149
2899.6748614
100
AcDbLayout
  1
Model
 70
     1
 71
     0
 10
0.0
 20
0.0
 11
12.0
 21
9.0
 12
0.0
 22
0.0
 32
0.0
 14
0.0
 24
0.0
 34
0.0
 15
0.0
 25
0.0
 35
0.0
146
0.0
 13
0.0
 23
0.0
 33
0.0
 16
1.0
 26
0.0
 36
0.0
 17
0.0
 27
1.0
 37
0.0
 76
     0
330
35A
1001
ACAD_PSEXT
1000
C:\ACAD-I\support\plotters\Default Windows System Printer.pc3
1000
Fiery PRO80 65-55C-KM PS3.0jp
1000
IP_10.230.204.212
1000

1070
     0
  0
LAYOUT
  5
3CE
102
{ACAD_REACTORS
330
3CC
102
}
330
3CC
100
AcDbPlotSettings
  1

  2
C:\ACAD-I\support\plotters\Default Windows System Printer.pc3
  4
A4
  6

 40
3.17499995
 41
3.17499995
 42
3.17500305
 43
3.17498779
 44
209.88865662
 45
297.05300903
 46
0.0
 47
0.0
 48
0.0
 49
0.0
140
0.0
141
0.0
142
1.0
143
1.0
 70
 15024
 72
     0
 73
     1
 74
     5
  7
monochrome.ctb
 75
    16
147
1.0
 76
     0
 77
     2
 78
   300
148
0.0
149
0.0
100
AcDbLayout
  1
レイアウト1
 70
     0
 71
     1
 10
0.0
 20
0.0
 11
12.0
 21
9.0
 12
0.0
 22
0.0
 32
0.0
 14
1.00000000E+20
 24
1.00000000E+20
 34
1.00000000E+20
 15
-1.00000000E+20
 25
-1.00000000E+20
 35
-1.00000000E+20
146
0.0
 13
0.0
 23
0.0
 33
0.0
 16
1.0
 26
0.0
 36
0.0
 17
0.0
 27
1.0
 37
0.0
 76
     0
330
357
1001
ACAD_PSEXT
1000
C:\ACAD-I\support\plotters\Default Windows System Printer.pc3
1000
Fiery PRO80 65-55C-KM PS3.0jp
1000
IP_10.230.204.212
1000

1070
     0
  0
MATERIAL
  5
385
102
{ACAD_XDICTIONARY
360
386
102
}
102
{ACAD_REACTORS
330
37C
102
}
330
37C
100
AcDbMaterial
  1
ByBlock
 72
     0
 43
0.02083333
 43
0.0
 43
0.0
 43
0.0
 43
0.0
 43
0.02083333
 43
0.0
 43
0.0
 43
0.0
 43
0.0
 43
1.0
 43
0.0
 43
0.0
 43
0.0
 43
0.0
 43
1.0
 77
     0
 47
0.02083333
 47
0.0
 47
0.0
 47
0.0
 47
0.0
 47
0.02083333
 47
0.0
 47
0.0
 47
0.0
 47
0.0
 47
1.0
 47
0.0
 47
0.0
 47
0.0
 47
0.0
 47
1.0
171
     0
 49
0.02083333
 49
0.0
 49
0.0
 49
0.0
 49
0.0
 49
0.02083333
 49
0.0
 49
0.0
 49
0.0
 49
0.0
 49
1.0
 49
0.0
 49
0.0
 49
0.0
 49
0.0
 49
1.0
175
     0
142
0.02083333
142
0.0
142
0.0
142
0.0
142
0.0
142
0.02083333
142
0.0
142
0.0
142
0.0
142
0.0
142
1.0
142
0.0
142
0.0
142
0.0
142
0.0
142
1.0
179
     0
144
0.02083333
144
0.0
144
0.0
144
0.0
144
0.0
144
0.02083333
144
0.0
144
0.0
144
0.0
144
0.0
144
1.0
144
0.0
144
0.0
144
0.0
144
0.0
144
1.0
147
0.02083333
147
0.0
147
0.0
147
0.0
147
0.0
147
0.02083333
147
0.0
147
0.0
147
0.0
147
0.0
147
1.0
147
0.0
147
0.0
147
0.0
147
0.0
147
1.0
  0
MATERIAL
  5
37D
102
{ACAD_XDICTIONARY
360
37E
102
}
102
{ACAD_REACTORS
330
37C
102
}
330
37C
100
AcDbMaterial
  1
ByLayer
 72
     0
 43
0.02083333
 43
0.0
 43
0.0
 43
0.0
 43
0.0
 43
0.02083333
 43
0.0
 43
0.0
 43
0.0
 43
0.0
 43
1.0
 43
0.0
 43
0.0
 43
0.0
 43
0.0
 43
1.0
 77
     0
 47
0.02083333
 47
0.0
 47
0.0
 47
0.0
 47
0.0
 47
0.02083333
 47
0.0
 47
0.0
 47
0.0
 47
0.0
 47
1.0
 47
0.0
 47
0.0
 47
0.0
 47
0.0
 47
1.0
171
     0
 49
0.02083333
 49
0.0
 49
0.0
 49
0.0
 49
0.0
 49
0.02083333
 49
0.0
 49
0.0
 49
0.0
 49
0.0
 49
1.0
 49
0.0
 49
0.0
 49
0.0
 49
0.0
 49
1.0
175
     0
142
0.02083333
142
0.0
142
0.0
142
0.0
142
0.0
142
0.02083333
142
0.0
142
0.0
142
0.0
142
0.0
142
1.0
142
0.0
142
0.0
142
0.0
142
0.0
142
1.0
179
     0
144
0.02083333
144
0.0
144
0.0
144
0.0
144
0.0
144
0.02083333
144
0.0
144
0.0
144
0.0
144
0.0
144
1.0
144
0.0
144
0.0
144
0.0
144
0.0
144
1.0
147
0.02083333
147
0.0
147
0.0
147
0.0
147
0.0
147
0.02083333
147
0.0
147
0.0
147
0.0
147
0.0
147
1.0
147
0.0
147
0.0
147
0.0
147
0.0
147
1.0
  0
MATERIAL
  5
38D
102
{ACAD_XDICTIONARY
360
38E
102
}
102
{ACAD_REACTORS
330
37C
102
}
330
37C
100
AcDbMaterial
  1
Global
 72
     0
 43
0.02083333
 43
0.0
 43
0.0
 43
0.0
 43
0.0
 43
0.02083333
 43
0.0
 43
0.0
 43
0.0
 43
0.0
 43
1.0
 43
0.0
 43
0.0
 43
0.0
 43
0.0
 43
1.0
 77
     0
 47
0.02083333
 47
0.0
 47
0.0
 47
0.0
 47
0.0
 47
0.02083333
 47
0.0
 47
0.0
 47
0.0
 47
0.0
 47
1.0
 47
0.0
 47
0.0
 47
0.0
 47
0.0
 47
1.0
171
     0
 49
0.02083333
 49
0.0
 49
0.0
 49
0.0
 49
0.0
 49
0.02083333
 49
0.0
 49
0.0
 49
0.0
 49
0.0
 49
1.0
 49
0.0
 49
0.0
 49
0.0
 49
0.0
 49
1.0
175
     0
142
0.02083333
142
0.0
142
0.0
142
0.0
142
0.0
142
0.02083333
142
0.0
142
0.0
142
0.0
142
0.0
142
1.0
142
0.0
142
0.0
142
0.0
142
0.0
142
1.0
179
     0
144
0.02083333
144
0.0
144
0.0
144
0.0
144
0.0
144
0.02083333
144
0.0
144
0.0
144
0.0
144
0.0
144
1.0
144
0.0
144
0.0
144
0.0
144
0.0
144
1.0
147
0.02083333
147
0.0
147
0.0
147
0.0
147
0.0
147
0.02083333
147
0.0
147
0.0
147
0.0
147
0.0
147
1.0
147
0.0
147
0.0
147
0.0
147
0.0
147
1.0
  0
MLEADERSTYLE
  5
3C4
102
{ACAD_XDICTIONARY
360
453
102
}
102
{ACAD_REACTORS
330
3C3
102
}
330
3C3
100
AcDbMLeaderStyle
170
     2
171
     1
172
     0
 90
        2
 40
0.0
 41
0.0
173
     1
 91
-1056964608
340
354
 92
       -2
290
     1
 42
0.09
291
     1
 43
0.36
  3
Standard
 44
0.18
300

342
352
174
     1
178
     6
175
     1
176
     0
 93
-1056964608
 45
0.18
292
     0
297
     0
 46
0.18
 94
-1056964608
 47
1.0
 49
1.0
140
1.0
293
     1
141
0.0
294
     1
177
     0
142
1.0
295
     0
296
     0
143
0.125
1001
ACAD_MLEADERVER
1070
     2
  0
MLINESTYLE
  5
35E
102
{ACAD_REACTORS
330
35D
102
}
330
35D
100
AcDbMlineStyle
  2
STANDARD
 70
     0
  3

 62
   256
 51
90.0
 52
90.0
 71
     2
 49
0.5
 62
   256
  6
BYLAYER
 49
-0.5
 62
   256
  6
BYLAYER
  0
ACDBPLACEHOLDER
  5
37B
102
{ACAD_REACTORS
330
37A
102
}
330
37A
  0
SCALE
  5
3B2
102
{ACAD_REACTORS
330
3B1
102
}
330
3B1
100
AcDbScale
 70
     0
300
1:1
140
1.0
141
1.0
290
     1
  0
SCALE
  5
3B3
102
{ACAD_REACTORS
330
3B1
102
}
330
3B1
100
AcDbScale
 70
     0
300
1/128" = 1'-0"
140
0.0078125
141
12.0
290
     0
  0
SCALE
  5
3B4
102
{ACAD_REACTORS
330
3B1
102
}
330
3B1
100
AcDbScale
 70
     0
300
1/64" = 1'-0"
140
0.015625
141
12.0
290
     0
  0
SCALE
  5
3B5
102
{ACAD_REACTORS
330
3B1
102
}
330
3B1
100
AcDbScale
 70
     0
300
1/32" = 1'-0"
140
0.03125
141
12.0
290
     0
  0
SCALE
  5
3B6
102
{ACAD_REACTORS
330
3B1
102
}
330
3B1
100
AcDbScale
 70
     0
300
1/16" = 1'-0"
140
0.0625
141
12.0
290
     0
  0
SCALE
  5
3B7
102
{ACAD_REACTORS
330
3B1
102
}
330
3B1
100
AcDbScale
 70
     0
300
3/32" = 1'-0"
140
0.09375
141
12.0
290
     0
  0
SCALE
  5
3B8
102
{ACAD_REACTORS
330
3B1
102
}
330
3B1
100
AcDbScale
 70
     0
300
1/8" = 1'-0"
140
0.125
141
12.0
290
     0
  0
SCALE
  5
3B9
102
{ACAD_REACTORS
330
3B1
102
}
330
3B1
100
AcDbScale
 70
     0
300
3/16" = 1'-0"
140
0.1875
141
12.0
290
     0
  0
SCALE
  5
3BA
102
{ACAD_REACTORS
330
3B1
102
}
330
3B1
100
AcDbScale
 70
     0
300
1/4" = 1'-0"
140
0.25
141
12.0
290
     0
  0
SCALE
  5
3BB
102
{ACAD_REACTORS
330
3B1
102
}
330
3B1
100
AcDbScale
 70
     0
300
3/8" = 1'-0"
140
0.375
141
12.0
290
     0
  0
SCALE
  5
3BC
102
{ACAD_REACTORS
330
3B1
102
}
330
3B1
100
AcDbScale
 70
     0
300
1/2" = 1'-0"
140
0.5
141
12.0
290
     0
  0
SCALE
  5
3BD
102
{ACAD_REACTORS
330
3B1
102
}
330
3B1
100
AcDbScale
 70
     0
300
3/4" = 1'-0"
140
0.75
141
12.0
290
     0
  0
SCALE
  5
3BE
102
{ACAD_REACTORS
330
3B1
102
}
330
3B1
100
AcDbScale
 70
     0
300
1" = 1'-0"
140
1.0
141
12.0
290
     0
  0
SCALE
  5
3BF
102
{ACAD_REACTORS
330
3B1
102
}
330
3B1
100
AcDbScale
 70
     0
300
1-1/2" = 1'-0"
140
1.5
141
12.0
290
     0
  0
SCALE
  5
3C0
102
{ACAD_REACTORS
330
3B1
102
}
330
3B1
100
AcDbScale
 70
     0
300
3" = 1'-0"
140
3.0
141
12.0
290
     0
  0
SCALE
  5
3C1
102
{ACAD_REACTORS
330
3B1
102
}
330
3B1
100
AcDbScale
 70
     0
300
6" = 1'-0"
140
6.0
141
12.0
290
     0
  0
SCALE
  5
3C2
102
{ACAD_REACTORS
330
3B1
102
}
330
3B1
100
AcDbScale
 70
     0
300
1'-0" = 1'-0"
140
12.0
141
12.0
290
     0
  0
ACDBSECTIONVIEWSTYLE
  5
3C6
102
{ACAD_XDICTIONARY
360
455
102
}
102
{ACAD_REACTORS
330
3C5
102
}
330
3C5
100
AcDbModelDocViewStyle
 70
     0
  3
Imperial24
290
     0
100
AcDbSectionViewStyle
 70
     0
 71
     0
 90
      102
 71
     1
340
352
 62
   256
 40
5.0
340
0
340
0
 62
   256
 40
5.0
300
I, O, Q, S, X, Z
 40
10.0
 90
        0
 40
2.5
 90
        0
 71
     2
340
356
 90
       25
 62
   256
340
356
 90
       50
 62
   256
 40
5.0
 40
2.5
 40
5.0
 71
     3
340
352
 62
   256
 40
5.0
 90
        0
 40
15.0
 90
        1
300
%<\AcVar ViewSectionStartId>%-%<\AcVar ViewSectionEndId>% (%<\AcVar ViewScale \f "%sn">%)
 71
     4
 62
   256
 62
   257
300
ANSI31
 40
1.0
 90
        0
290
     0
290
     0
 90
        6
 40
0.0
 40
1.57079633
 40
0.26179939
 40
1.30899694
 40
-0.26179939
 40
1.83259571
  0
TABLESTYLE
  5
3B0
102
{ACAD_XDICTIONARY
360
3CF
102
}
102
{ACAD_REACTORS
330
3AF
102
}
330
3AF
100
AcDbTableStyle
  3
Standard
 70
     0
 71
     0
 40
0.06
 41
0.06
280
     0
281
     0
  7
STANDARD
140
0.18
170
     2
 62
     0
 63
     7
283
     0
274
    -2
284
     1
 64
     0
275
    -2
285
     1
 65
     0
276
    -2
286
     1
 66
     0
277
    -2
287
     1
 67
     0
278
    -2
288
     1
 68
     0
279
    -2
289
     1
 69
     0
  7
STANDARD
140
0.25
170
     5
 62
     0
 63
     7
283
     0
274
    -2
284
     1
 64
     0
275
    -2
285
     1
 65
     0
276
    -2
286
     1
 66
     0
277
    -2
287
     1
 67
     0
278
    -2
288
     1
 68
     0
279
    -2
289
     1
 69
     0
  7
STANDARD
140
0.18
170
     5
 62
     0
 63
     7
283
     0
274
    -2
284
     1
 64
     0
275
    -2
285
     1
 65
     0
276
    -2
286
     1
 66
     0
277
    -2
287
     1
 67
     0
278
    -2
288
     1
 68
     0
279
    -2
289
     1
 69
     0
  0
VISUALSTYLE
  5
39B
102
{ACAD_XDICTIONARY
360
42C
102
}
102
{ACAD_REACTORS
330
395
102
}
330
395
100
AcDbVisualStyle
  2
2dWireframe
 70
     4
 71
     0
 72
     2
 73
     0
 90
        0
 40
-0.6
 41
-30.0
 62
     5
 63
     7
421
 16777215
 74
     1
 91
        4
 64
     7
 65
   257
 75
     1
175
     1
 42
1.0
 92
        0
 66
   257
 43
1.0
 76
     1
 77
     6
 78
     2
 67
     7
 79
     5
170
     0
171
     0
290
     0
174
     0
 93
        1
 44
0.0
173
     0
291
     0
 45
0.0
1001
ACAD
1000
AcDbSavedByObjectVersion
1070
     0
  0
VISUALSTYLE
  5
39A
102
{ACAD_XDICTIONARY
360
42A
102
}
102
{ACAD_REACTORS
330
395
102
}
330
395
100
AcDbVisualStyle
  2
Basic
 70
     7
 71
     1
 72
     0
 73
     1
 90
        0
 40
-0.6
 41
-30.0
 62
     5
 63
     7
421
 16777215
 74
     0
 91
        4
 64
     7
 65
   257
 75
     1
175
     1
 42
1.0
 92
        8
 66
     7
 43
1.0
 76
     1
 77
     6
 78
     2
 67
     7
 79
     5
170
     0
171
     0
290
     0
174
     0
 93
        1
 44
0.0
173
     0
291
     1
 45
0.0
1001
ACAD
1000
AcDbSavedByObjectVersion
1070
     0
  0
VISUALSTYLE
  5
3A1
102
{ACAD_XDICTIONARY
360
438
102
}
102
{ACAD_REACTORS
330
395
102
}
330
395
100
AcDbVisualStyle
  2
Brighten
 70
    12
 71
     2
 72
     2
 73
     0
 90
        0
 40
-0.6
 41
-30.0
 62
     5
 63
     7
421
 16777215
 74
     1
 91
        4
 64
     7
 65
   257
 75
     1
175
     1
 42
1.0
 92
        8
 66
     7
 43
1.0
 76
     1
 77
     6
 78
     2
 67
     7
 79
     5
170
     0
171
     0
290
     0
174
     0
 93
        1
 44
50.0
173
     0
291
     1
 45
0.0
1001
ACAD
1000
AcDbSavedByObjectVersion
1070
     0
  0
VISUALSTYLE
  5
3A5
102
{ACAD_XDICTIONARY
360
440
102
}
102
{ACAD_REACTORS
330
395
102
}
330
395
100
AcDbVisualStyle
  2
ColorChange
 70
    16
 71
     2
 72
     2
 73
     3
 90
        0
 40
-0.6
 41
-30.0
 62
     5
 63
     8
421
  8421504
 74
     1
 91
        4
 64
     7
 65
   257
 75
     1
175
     1
 42
1.0
 92
        8
 66
     8
424
  8421504
 43
1.0
 76
     1
 77
     6
 78
     2
 67
     7
 79
     5
170
     0
171
     0
290
     0
174
     0
 93
        1
 44
0.0
173
     0
291
     1
 45
0.0
1001
ACAD
1000
AcDbSavedByObjectVersion
1070
     0
  0
VISUALSTYLE
  5
39E
102
{ACAD_XDICTIONARY
360
432
102
}
102
{ACAD_REACTORS
330
395
102
}
330
395
100
AcDbVisualStyle
  2
Conceptual
 70
     9
 71
     3
 72
     2
 73
     0
 90
        0
 40
-0.6
 41
-30.0
 62
     5
 63
     7
421
 16777215
 74
     2
 91
        2
 64
     7
 65
   257
 75
     1
175
     1
 42
179.0
 92
        8
 66
     7
 43
1.0
 76
     1
 77
     6
 78
     2
 67
     7
 79
     3
170
     0
171
     0
290
     0
174
     0
 93
        1
 44
0.0
173
     0
291
     0
 45
0.0
1001
ACAD
1000
AcDbSavedByObjectVersion
1070
     0
  0
VISUALSTYLE
  5
3A0
102
{ACAD_XDICTIONARY
360
436
102
}
102
{ACAD_REACTORS
330
395
102
}
330
395
100
AcDbVisualStyle
  2
Dim
 70
    11
 71
     2
 72
     2
 73
     0
 90
        0
 40
-0.6
 41
-30.0
 62
     5
 63
     7
421
 16777215
 74
     1
 91
        4
 64
     7
 65
   257
 75
     1
175
     1
 42
1.0
 92
        8
 66
     7
 43
1.0
 76
     1
 77
     6
 78
     2
 67
     7
 79
     5
170
     0
171
     0
290
     0
174
     0
 93
        1
 44
-50.0
173
     0
291
     1
 45
0.0
1001
ACAD
1000
AcDbSavedByObjectVersion
1070
     0
  0
VISUALSTYLE
  5
3AD
102
{ACAD_XDICTIONARY
360
450
102
}
102
{ACAD_REACTORS
330
395
102
}
330
395
100
AcDbVisualStyle
  2
EdgeColorOff
 70
    22
 71
     2
 72
     2
 73
     0
 90
        0
 40
-0.6
 41
-30.0
 62
     5
 63
     7
421
 16777215
 74
     1
 91
        4
 64
     7
 65
   257
 75
     1
175
     1
 42
1.0
 92
        8
 66
     7
 43
1.0
 76
     1
 77
     6
 78
     2
 67
     7
 79
     5
170
     0
171
     0
290
     0
174
     0
 93
        1
 44
0.0
173
     0
291
     1
 45
0.0
1001
ACAD
1000
AcDbSavedByObjectVersion
1070
     0
  0
VISUALSTYLE
  5
3A4
102
{ACAD_XDICTIONARY
360
43E
102
}
102
{ACAD_REACTORS
330
395
102
}
330
395
100
AcDbVisualStyle
  2
Facepattern
 70
    15
 71
     2
 72
     2
 73
     0
 90
        0
 40
-0.6
 41
-30.0
 62
     5
 63
     7
421
 16777215
 74
     1
 91
        4
 64
     7
 65
   257
 75
     1
175
     1
 42
1.0
 92
        8
 66
     7
 43
1.0
 76
     1
 77
     6
 78
     2
 67
     7
 79
     5
170
     0
171
     0
290
     0
174
     0
 93
        1
 44
0.0
173
     0
291
     1
 45
0.0
1001
ACAD
1000
AcDbSavedByObjectVersion
1070
     0
  0
VISUALSTYLE
  5
396
102
{ACAD_XDICTIONARY
360
422
102
}
102
{ACAD_REACTORS
330
395
102
}
330
395
100
AcDbVisualStyle
  2
Flat
 70
     0
 71
     2
 72
     1
 73
     1
 90
        2
 40
-0.6
 41
30.0
 62
     5
 63
     7
421
 16777215
 74
     0
 91
        0
 64
     7
 65
   257
 75
     1
175
     1
 42
1.0
 92
        8
 66
     7
 43
1.0
 76
     1
 77
     6
 78
     2
 67
     7
 79
     5
170
     0
171
     0
290
     0
174
     0
 93
       13
 44
0.0
173
     0
291
     1
 45
0.0
1001
ACAD
1000
AcDbSavedByObjectVersion
1070
     0
  0
VISUALSTYLE
  5
397
102
{ACAD_XDICTIONARY
360
424
102
}
102
{ACAD_REACTORS
330
395
102
}
330
395
100
AcDbVisualStyle
  2
FlatWithEdges
 70
     1
 71
     2
 72
     1
 73
     1
 90
        2
 40
-0.6
 41
30.0
 62
     5
 63
     7
421
 16777215
 74
     1
 91
        0
 64
     7
 65
   257
 75
     1
175
     1
 42
1.0
 92
        0
 66
   257
 43
1.0
 76
     1
 77
     6
 78
     2
 67
     7
 79
     5
170
     0
171
     0
290
     0
174
     0
 93
       13
 44
0.0
173
     0
291
     1
 45
0.0
1001
ACAD
1000
AcDbSavedByObjectVersion
1070
     0
  0
VISUALSTYLE
  5
398
102
{ACAD_XDICTIONARY
360
426
102
}
102
{ACAD_REACTORS
330
395
102
}
330
395
100
AcDbVisualStyle
  2
Gouraud
 70
     2
 71
     2
 72
     2
 73
     1
 90
        2
 40
-0.6
 41
30.0
 62
     5
 63
     7
421
 16777215
 74
     0
 91
        0
 64
     7
 65
   257
 75
     1
175
     1
 42
1.0
 92
        0
 66
     7
 43
1.0
 76
     1
 77
     6
 78
     2
 67
     7
 79
     5
170
     0
171
     0
290
     0
174
     0
 93
       13
 44
0.0
173
     0
291
     1
 45
0.0
1001
ACAD
1000
AcDbSavedByObjectVersion
1070
     0
  0
VISUALSTYLE
  5
399
102
{ACAD_XDICTIONARY
360
428
102
}
102
{ACAD_REACTORS
330
395
102
}
330
395
100
AcDbVisualStyle
  2
GouraudWithEdges
 70
     3
 71
     2
 72
     2
 73
     1
 90
        2
 40
-0.6
 41
30.0
 62
     5
 63
     7
421
 16777215
 74
     1
 91
        0
 64
     7
 65
   257
 75
     1
175
     1
 42
1.0
 92
        0
 66
   257
 43
1.0
 76
     1
 77
     6
 78
     2
 67
     7
 79
     5
170
     0
171
     0
290
     0
174
     0
 93
       13
 44
0.0
173
     0
291
     1
 45
0.0
1001
ACAD
1000
AcDbSavedByObjectVersion
1070
     0
  0
VISUALSTYLE
  5
39D
102
{ACAD_XDICTIONARY
360
430
102
}
102
{ACAD_REACTORS
330
395
102
}
330
395
100
AcDbVisualStyle
  2
Hidden
 70
     6
 71
     1
 72
     2
 73
     2
 90
        0
 40
-0.6
 41
-30.0
 62
     5
 63
     7
421
 16777215
 74
     2
 91
        2
 64
     7
 65
   257
 75
     2
175
     1
 42
40.0
 92
        0
 66
   257
 43
1.0
 76
     1
 77
     6
 78
     2
 67
     7
 79
     3
170
     0
171
     0
290
     0
174
     0
 93
        1
 44
0.0
173
     0
291
     0
 45
0.0
1001
ACAD
1000
AcDbSavedByObjectVersion
1070
     0
  0
VISUALSTYLE
  5
3AB
102
{ACAD_XDICTIONARY
360
44C
102
}
102
{ACAD_REACTORS
330
395
102
}
330
395
100
AcDbVisualStyle
  2
JitterOff
 70
    20
 71
     2
 72
     2
 73
     0
 90
        0
 40
-0.6
 41
-30.0
 62
     5
 63
     7
421
 16777215
 74
     1
 91
        4
 64
     7
 65
   257
 75
     1
175
     1
 42
1.0
 92
       10
 66
     7
 43
1.0
 76
     1
 77
     6
 78
     2
 67
     7
 79
     5
170
     0
171
     0
290
     0
174
     0
 93
        1
 44
0.0
173
     0
291
     1
 45
0.0
1001
ACAD
1000
AcDbSavedByObjectVersion
1070
     0
  0
VISUALSTYLE
  5
3A3
102
{ACAD_XDICTIONARY
360
43C
102
}
102
{ACAD_REACTORS
330
395
102
}
330
395
100
AcDbVisualStyle
  2
Linepattern
 70
    14
 71
     2
 72
     2
 73
     0
 90
        0
 40
-0.6
 41
-30.0
 62
     5
 63
     7
421
 16777215
 74
     1
 91
        4
 64
     7
 65
   257
 75
     7
175
     7
 42
1.0
 92
        8
 66
     7
 43
1.0
 76
     1
 77
     6
 78
     2
 67
     7
 79
     5
170
     0
171
     0
290
     0
174
     0
 93
        1
 44
0.0
173
     0
291
     1
 45
0.0
1001
ACAD
1000
AcDbSavedByObjectVersion
1070
     0
  0
VISUALSTYLE
  5
3AC
102
{ACAD_XDICTIONARY
360
44E
102
}
102
{ACAD_REACTORS
330
395
102
}
330
395
100
AcDbVisualStyle
  2
OverhangOff
 70
    21
 71
     2
 72
     2
 73
     0
 90
        0
 40
-0.6
 41
-30.0
 62
     5
 63
     7
421
 16777215
 74
     1
 91
        4
 64
     7
 65
   257
 75
     1
175
     1
 42
1.0
 92
        9
 66
     7
 43
1.0
 76
     1
 77
     6
 78
     2
 67
     7
 79
     5
170
     0
171
     0
290
     0
174
     0
 93
        1
 44
0.0
173
     0
291
     1
 45
0.0
1001
ACAD
1000
AcDbSavedByObjectVersion
1070
     0
  0
VISUALSTYLE
  5
39F
102
{ACAD_XDICTIONARY
360
434
102
}
102
{ACAD_REACTORS
330
395
102
}
330
395
100
AcDbVisualStyle
  2
Realistic
 70
     8
 71
     2
 72
     2
 73
     0
 90
        2
 40
-0.6
 41
30.0
 62
     5
 63
     7
421
 16777215
 74
     0
 91
        0
 64
     7
 65
   257
 75
     1
175
     1
 42
1.0
 92
        8
 66
   257
 43
1.0
 76
     1
 77
     6
 78
     2
 67
     7
 79
     3
170
     0
171
     0
290
     0
174
     0
 93
       13
 44
0.0
173
     0
291
     0
 45
0.0
1001
ACAD
1000
AcDbSavedByObjectVersion
1070
     0
  0
VISUALSTYLE
  5
3AA
102
{ACAD_XDICTIONARY
360
44A
102
}
102
{ACAD_REACTORS
330
395
102
}
330
395
100
AcDbVisualStyle
  2
Shaded
 70
    27
 71
     2
 72
     2
 73
     1
 90
        2
 40
-0.6
 41
30.0
 62
     5
 63
     7
421
 16777215
 74
     0
 91
        4
 64
     7
 65
   257
 75
     1
175
     1
 42
1.0
 92
        8
 66
   257
 43
1.0
 76
     1
 77
     6
 78
     2
 67
     8
425
  7895160
 79
     3
170
     0
171
     0
290
     0
174
     0
 93
        5
 44
0.0
173
     0
291
     0
 45
0.0
1001
ACAD
1000
AcDbSavedByObjectVersion
1070
     0
  0
VISUALSTYLE
  5
3A9
102
{ACAD_XDICTIONARY
360
448
102
}
102
{ACAD_REACTORS
330
395
102
}
330
395
100
AcDbVisualStyle
  2
Shaded with edges
 70
    26
 71
     2
 72
     2
 73
     1
 90
        2
 40
-0.6
 41
30.0
 62
     5
 63
     7
421
 16777215
 74
     1
 91
       10
 64
     7
 65
   257
 75
     2
175
     1
 42
1.0
 92
        8
 66
   257
 43
1.0
 76
     1
 77
     6
 78
     2
 67
     7
 79
     3
170
     0
171
     0
290
     0
174
     0
 93
        5
 44
0.0
173
     0
291
     0
 45
0.0
1001
ACAD
1000
AcDbSavedByObjectVersion
1070
     0
  0
VISUALSTYLE
  5
3A6
102
{ACAD_XDICTIONARY
360
442
102
}
102
{ACAD_REACTORS
330
395
102
}
330
395
100
AcDbVisualStyle
  2
Shades of Gray
 70
    23
 71
     2
 72
     2
 73
     3
 90
        0
 40
-0.6
 41
-30.0
 62
     5
 63
     7
421
 16777215
 74
     2
 91
        2
 64
     7
 65
     7
 75
     1
175
     1
 42
40.0
 92
        8
 66
     7
 43
1.0
 76
     1
 77
     6
 78
     2
 67
     7
 79
     3
170
     0
171
     0
290
     0
174
     0
 93
        1
 44
0.0
173
     0
291
     0
 45
0.0
1001
ACAD
1000
AcDbSavedByObjectVersion
1070
     0
  0
VISUALSTYLE
  5
3A7
102
{ACAD_XDICTIONARY
360
444
102
}
102
{ACAD_REACTORS
330
395
102
}
330
395
100
AcDbVisualStyle
  2
Sketchy
 70
    24
 71
     1
 72
     2
 73
     2
 90
        0
 40
-0.6
 41
-30.0
 62
     5
 63
     7
421
 16777215
 74
     2
 91
        2
 64
     7
 65
     7
 75
     1
175
     1
 42
40.0
 92
       11
 66
     7
 43
1.0
 76
     1
 77
     6
 78
     2
 67
     7
 79
     6
170
     0
171
     0
290
     0
174
     0
 93
        1
 44
0.0
173
     0
291
     0
 45
0.0
1001
ACAD
1000
AcDbSavedByObjectVersion
1070
     0
  0
VISUALSTYLE
  5
3A2
102
{ACAD_XDICTIONARY
360
43A
102
}
102
{ACAD_REACTORS
330
395
102
}
330
395
100
AcDbVisualStyle
  2
Thicken
 70
    13
 71
     2
 72
     2
 73
     0
 90
        0
 40
-0.6
 41
-30.0
 62
     5
 63
     7
421
 16777215
 74
     1
 91
        4
 64
     7
 65
   257
 75
     1
175
     1
 42
1.0
 92
       12
 66
     7
 43
1.0
 76
     1
 77
     6
 78
     2
 67
     7
 79
     5
170
     0
171
     0
290
     0
174
     0
 93
        1
 44
0.0
173
     0
291
     1
 45
0.0
1001
ACAD
1000
AcDbSavedByObjectVersion
1070
     0
  0
VISUALSTYLE
  5
39C
102
{ACAD_XDICTIONARY
360
42E
102
}
102
{ACAD_REACTORS
330
395
102
}
330
395
100
AcDbVisualStyle
  2
Wireframe
 70
     5
 71
     0
 72
     2
 73
     0
 90
        0
 40
-0.6
 41
-30.0
 62
     5
 63
     7
421
 16777215
 74
     1
 91
        4
 64
     7
 65
   257
 75
     1
175
     1
 42
1.0
 92
        0
 66
   257
 43
1.0
 76
     1
 77
     6
 78
     2
 67
     7
 79
     3
170
     0
171
     0
290
     0
174
     0
 93
        1
 44
0.0
173
     0
291
     0
 45
0.0
1001
ACAD
1000
AcDbSavedByObjectVersion
1070
     0
  0
VISUALSTYLE
  5
3A8
102
{ACAD_XDICTIONARY
360
446
102
}
102
{ACAD_REACTORS
330
395
102
}
330
395
100
AcDbVisualStyle
  2
X-Ray
 70
    25
 71
     2
 72
     2
 73
     1
 90
        1
 40
0.5
 41
-30.0
 62
     5
 63
     7
421
 16777215
 74
     1
 91
        0
 64
     7
 65
   257
 75
     1
175
     1
 42
1.0
 92
        8
 66
     7
 43
1.0
 76
     1
 77
     6
 78
     2
 67
     7
 79
     3
170
     0
171
     0
290
     0
174
     0
 93
       13
 44
0.0
173
     0
291
     0
 45
0.0
1001
ACAD
1000
AcDbSavedByObjectVersion
1070
     0
  0
DICTIONARYVAR
  5
411
102
{ACAD_REACTORS
330
373
102
}
330
373
100
DictionaryVariables
280
     0
  1
1:1
  0
DICTIONARYVAR
  5
40E
102
{ACAD_REACTORS
330
373
102
}
330
373
100
DictionaryVariables
280
     0
  1
STANDARD
  0
DICTIONARYVAR
  5
40D
102
{ACAD_REACTORS
330
373
102
}
330
373
100
DictionaryVariables
280
     0
  1
STANDARD
  0
DICTIONARYVAR
  5
40F
102
{ACAD_REACTORS
330
373
102
}
330
373
100
DictionaryVariables
280
     0
  1
Imperial24
  0
DICTIONARYVAR
  5
410
102
{ACAD_REACTORS
330
373
102
}
330
373
100
DictionaryVariables
280
     0
  1
Imperial24
  0
DICTIONARYVAR
  5
374
102
{ACAD_REACTORS
330
373
102
}
330
373
100
DictionaryVariables
280
     0
  1
0
  0
DICTIONARYVAR
  5
41C
102
{ACAD_REACTORS
330
373
102
}
330
373
100
DictionaryVariables
280
     0
  1
2
  0
DICTIONARY
  5
457
330
3C8
100
AcDbDictionary
280
     1
281
     1
  3
ACAD_XREC_ROUNDTRIP
360
458
  0
DICTIONARY
  5
386
330
385
100
AcDbDictionary
280
     1
281
     1
  3
ACAD_XREC_ROUNDTRIP
360
420
  3
BUMPTILE
360
388
  3
DIFFUSETILE
360
387
  3
OPACITYTILE
360
38B
  3
REFLECTIONTILE
360
38A
  3
REFRACTIONTILE
360
38C
  3
SPECULARTILE
360
389
  0
DICTIONARY
  5
37E
330
37D
100
AcDbDictionary
280
     1
281
     1
  3
ACAD_XREC_ROUNDTRIP
360
41F
  3
BUMPTILE
360
380
  3
DIFFUSETILE
360
37F
  3
OPACITYTILE
360
383
  3
REFLECTIONTILE
360
382
  3
REFRACTIONTILE
360
384
  3
SPECULARTILE
360
381
  0
DICTIONARY
  5
38E
330
38D
100
AcDbDictionary
280
     1
281
     1
  3
ACAD_XREC_ROUNDTRIP
360
421
  3
BUMPTILE
360
390
  3
DIFFUSETILE
360
38F
  3
OPACITYTILE
360
393
  3
REFLECTIONTILE
360
392
  3
REFRACTIONTILE
360
394
  3
SPECULARTILE
360
391
  0
DICTIONARY
  5
453
330
3C4
100
AcDbDictionary
280
     1
281
     1
  3
ACAD_XREC_ROUNDTRIP
360
454
  0
DICTIONARY
  5
455
330
3C6
100
AcDbDictionary
280
     1
281
     1
  3
ACAD_XREC_ROUNDTRIP
360
456
  0
DICTIONARY
  5
3CF
330
3B0
100
AcDbDictionary
280
     1
281
     1
  3
ACAD_ROUNDTRIP_2008_TABLESTYLE_CELLSTYLEMAP
360
41D
  3
ACAD_XREC_ROUNDTRIP
360
452
  0
DICTIONARY
  5
42C
330
39B
100
AcDbDictionary
280
     1
281
     1
  3
ACAD_XREC_ROUNDTRIP
360
42D
  0
DICTIONARY
  5
42A
330
39A
100
AcDbDictionary
280
     1
281
     1
  3
ACAD_XREC_ROUNDTRIP
360
42B
  0
DICTIONARY
  5
438
330
3A1
100
AcDbDictionary
280
     1
281
     1
  3
ACAD_XREC_ROUNDTRIP
360
439
  0
DICTIONARY
  5
440
330
3A5
100
AcDbDictionary
280
     1
281
     1
  3
ACAD_XREC_ROUNDTRIP
360
441
  0
DICTIONARY
  5
432
330
39E
100
AcDbDictionary
280
     1
281
     1
  3
ACAD_XREC_ROUNDTRIP
360
433
  0
DICTIONARY
  5
436
330
3A0
100
AcDbDictionary
280
     1
281
     1
  3
ACAD_XREC_ROUNDTRIP
360
437
  0
DICTIONARY
  5
450
330
3AD
100
AcDbDictionary
280
     1
281
     1
  3
ACAD_XREC_ROUNDTRIP
360
451
  0
DICTIONARY
  5
43E
330
3A4
100
AcDbDictionary
280
     1
281
     1
  3
ACAD_XREC_ROUNDTRIP
360
43F
  0
DICTIONARY
  5
422
330
396
100
AcDbDictionary
280
     1
281
     1
  3
ACAD_XREC_ROUNDTRIP
360
423
  0
DICTIONARY
  5
424
330
397
100
AcDbDictionary
280
     1
281
     1
  3
ACAD_XREC_ROUNDTRIP
360
425
  0
DICTIONARY
  5
426
330
398
100
AcDbDictionary
280
     1
281
     1
  3
ACAD_XREC_ROUNDTRIP
360
427
  0
DICTIONARY
  5
428
330
399
100
AcDbDictionary
280
     1
281
     1
  3
ACAD_XREC_ROUNDTRIP
360
429
  0
DICTIONARY
  5
430
330
39D
100
AcDbDictionary
280
     1
281
     1
  3
ACAD_XREC_ROUNDTRIP
360
431
  0
DICTIONARY
  5
44C
330
3AB
100
AcDbDictionary
280
     1
281
     1
  3
ACAD_XREC_ROUNDTRIP
360
44D
  0
DICTIONARY
  5
43C
330
3A3
100
AcDbDictionary
280
     1
281
     1
  3
ACAD_XREC_ROUNDTRIP
360
43D
  0
DICTIONARY
  5
44E
330
3AC
100
AcDbDictionary
280
     1
281
     1
  3
ACAD_XREC_ROUNDTRIP
360
44F
  0
DICTIONARY
  5
434
330
39F
100
AcDbDictionary
280
     1
281
     1
  3
ACAD_XREC_ROUNDTRIP
360
435
  0
DICTIONARY
  5
44A
330
3AA
100
AcDbDictionary
280
     1
281
     1
  3
ACAD_XREC_ROUNDTRIP
360
44B
  0
DICTIONARY
  5
448
330
3A9
100
AcDbDictionary
280
     1
281
     1
  3
ACAD_XREC_ROUNDTRIP
360
449
  0
DICTIONARY
  5
442
330
3A6
100
AcDbDictionary
280
     1
281
     1
  3
ACAD_XREC_ROUNDTRIP
360
443
  0
DICTIONARY
  5
444
330
3A7
100
AcDbDictionary
280
     1
281
     1
  3
ACAD_XREC_ROUNDTRIP
360
445
  0
DICTIONARY
  5
43A
330
3A2
100
AcDbDictionary
280
     1
281
     1
  3
ACAD_XREC_ROUNDTRIP
360
43B
  0
DICTIONARY
  5
42E
330
39C
100
AcDbDictionary
280
     1
281
     1
  3
ACAD_XREC_ROUNDTRIP
360
42F
  0
DICTIONARY
  5
446
330
3A8
100
AcDbDictionary
280
     1
281
     1
  3
ACAD_XREC_ROUNDTRIP
360
447
  0
XRECORD
  5
458
102
{ACAD_REACTORS
330
457
102
}
330
457
100
AcDbXrecord
280
     1
102
DISPLAYNAME
  1
Imperial24
102
FLAGS
 90
        0
  0
XRECORD
  5
420
102
{ACAD_REACTORS
330
386
102
}
330
386
100
AcDbXrecord
280
     1
102
MATERIAL
148
0.0
149
0.0
149
0.0
 93
        0
 94
      127
282
     0
 72
     0
 77
     0
171
     0
175
     0
179
     0
273
     0
  0
XRECORD
  5
388
102
{ACAD_REACTORS
330
386
102
}
330
386
100
AcDbXrecord
280
     1
270
     1
271
     1
  0
XRECORD
  5
387
102
{ACAD_REACTORS
330
386
102
}
330
386
100
AcDbXrecord
280
     1
270
     1
271
     1
  0
XRECORD
  5
38B
102
{ACAD_REACTORS
330
386
102
}
330
386
100
AcDbXrecord
280
     1
270
     1
271
     1
  0
XRECORD
  5
38A
102
{ACAD_REACTORS
330
386
102
}
330
386
100
AcDbXrecord
280
     1
270
     1
271
     1
  0
XRECORD
  5
38C
102
{ACAD_REACTORS
330
386
102
}
330
386
100
AcDbXrecord
280
     1
270
     1
271
     1
  0
XRECORD
  5
389
102
{ACAD_REACTORS
330
386
102
}
330
386
100
AcDbXrecord
280
     1
270
     1
271
     1
  0
XRECORD
  5
41F
102
{ACAD_REACTORS
330
37E
102
}
330
37E
100
AcDbXrecord
280
     1
102
MATERIAL
148
0.0
149
0.0
149
0.0
 93
        0
 94
      127
282
     0
 72
     0
 77
     0
171
     0
175
     0
179
     0
273
     0
  0
XRECORD
  5
380
102
{ACAD_REACTORS
330
37E
102
}
330
37E
100
AcDbXrecord
280
     1
270
     1
271
     1
  0
XRECORD
  5
37F
102
{ACAD_REACTORS
330
37E
102
}
330
37E
100
AcDbXrecord
280
     1
270
     1
271
     1
  0
XRECORD
  5
383
102
{ACAD_REACTORS
330
37E
102
}
330
37E
100
AcDbXrecord
280
     1
270
     1
271
     1
  0
XRECORD
  5
382
102
{ACAD_REACTORS
330
37E
102
}
330
37E
100
AcDbXrecord
280
     1
270
     1
271
     1
  0
XRECORD
  5
384
102
{ACAD_REACTORS
330
37E
102
}
330
37E
100
AcDbXrecord
280
     1
270
     1
271
     1
  0
XRECORD
  5
381
102
{ACAD_REACTORS
330
37E
102
}
330
37E
100
AcDbXrecord
280
     1
270
     1
271
     1
  0
XRECORD
  5
421
102
{ACAD_REACTORS
330
38E
102
}
330
38E
100
AcDbXrecord
280
     1
102
MATERIAL
148
0.0
149
0.0
149
0.0
 93
        0
 94
      127
282
     0
 72
     0
 77
     0
171
     0
175
     0
179
     0
273
     0
  0
XRECORD
  5
390
102
{ACAD_REACTORS
330
38E
102
}
330
38E
100
AcDbXrecord
280
     1
270
     1
271
     1
  0
XRECORD
  5
38F
102
{ACAD_REACTORS
330
38E
102
}
330
38E
100
AcDbXrecord
280
     1
270
     1
271
     1
  0
XRECORD
  5
393
102
{ACAD_REACTORS
330
38E
102
}
330
38E
100
AcDbXrecord
280
     1
270
     1
271
     1
  0
XRECORD
  5
392
102
{ACAD_REACTORS
330
38E
102
}
330
38E
100
AcDbXrecord
280
     1
270
     1
271
     1
  0
XRECORD
  5
394
102
{ACAD_REACTORS
330
38E
102
}
330
38E
100
AcDbXrecord
280
     1
270
     1
271
     1
  0
XRECORD
  5
391
102
{ACAD_REACTORS
330
38E
102
}
330
38E
100
AcDbXrecord
280
     1
270
     1
271
     1
  0
XRECORD
  5
454
102
{ACAD_REACTORS
330
453
102
}
330
453
100
AcDbXrecord
280
     1
102
ACAD_ROUNDTRIP_2012_MLEADER_STYLE
298
     1
  0
XRECORD
  5
456
102
{ACAD_REACTORS
330
455
102
}
330
455
100
AcDbXrecord
280
     1
102
DISPLAYNAME
  1
Imperial24
102
FLAGS
 90
        0
  0
CELLSTYLEMAP
  5
41D
102
{ACAD_REACTORS
330
3CF
102
}
330
3CF
100
AcDbCellStyleMap
 90
        3
300
CELLSTYLE
  1
TABLEFORMAT_BEGIN
 90
        5
170
     1
 91
        0
 92
    32768
 62
   257
 93
        1
300
CONTENTFORMAT
  1
CONTENTFORMAT_BEGIN
 90
        0
 91
        0
 92
      512
 93
        0
300

 40
0.0
140
1.0
 94
        5
 62
     0
340
352
144
0.25
309
CONTENTFORMAT_END
171
     0
 94
        0
309
TABLEFORMAT_END
  1
CELLSTYLE_BEGIN
 90
        1
 91
        1
300
_TITLE
309
CELLSTYLE_END
300
CELLSTYLE
  1
TABLEFORMAT_BEGIN
 90
        5
170
     1
 91
        0
 92
        0
 62
   257
 93
        1
300
CONTENTFORMAT
  1
CONTENTFORMAT_BEGIN
 90
        0
 91
        0
 92
      512
 93
        0
300

 40
0.0
140
1.0
 94
        5
 62
     0
340
352
144
0.18
309
CONTENTFORMAT_END
171
     0
 94
        0
309
TABLEFORMAT_END
  1
CELLSTYLE_BEGIN
 90
        2
 91
        1
300
_HEADER
309
CELLSTYLE_END
300
CELLSTYLE
  1
TABLEFORMAT_BEGIN
 90
        5
170
     1
 91
        0
 92
        0
 62
   257
 93
        1
300
CONTENTFORMAT
  1
CONTENTFORMAT_BEGIN
 90
        0
 91
        0
 92
      512
 93
        0
300

 40
0.0
140
1.0
 94
        2
 62
     0
340
352
144
0.18
309
CONTENTFORMAT_END
171
     0
 94
        0
309
TABLEFORMAT_END
  1
CELLSTYLE_BEGIN
 90
        3
 91
        2
300
_DATA
309
CELLSTYLE_END
  0
XRECORD
  5
452
102
{ACAD_REACTORS
330
3CF
102
}
330
3CF
100
AcDbXrecord
280
     1
102
ACAD_ROUNDTRIP_PRE2007_TABLESTYLE
 90
      512
 91
        0
  1

 92
      512
 93
        0
  2

 94
      512
 95
        0
  3

  0
XRECORD
  5
42D
102
{ACAD_REACTORS
330
42C
102
}
330
42C
100
AcDbXrecord
280
     1
102
RTVSPost2010Prop28
280
     1
102
RTVSPost2010PropOp28
 70
     1
102
RTVSPost2010Prop29
280
     1
102
RTVSPost2010PropOp29
 70
     1
102
RTVSPost2010Prop30
280
     0
102
RTVSPost2010PropOp30
 70
     1
102
RTVSPost2010Prop31
280
     0
102
RTVSPost2010PropOp31
 70
     1
102
RTVSPost2010Prop32
280
     0
102
RTVSPost2010PropOp32
 70
     1
102
RTVSPost2010Prop33
280
     0
102
RTVSPost2010PropOp33
 70
     1
102
RTVSPost2010Prop34
280
     0
102
RTVSPost2010PropOp34
 70
     1
102
RTVSPost2010Prop35
280
     0
102
RTVSPost2010PropOp35
 70
     1
102
RTVSPost2010Prop36
280
     0
102
RTVSPost2010PropOp36
 70
     1
102
RTVSPost2010Prop37
 90
       50
102
RTVSPost2010PropOp37
 70
     1
102
RTVSPost2010Prop38
140
0.0
102
RTVSPost2010PropOp38
 70
     1
102
RTVSPost2010Prop39
140
1.0
102
RTVSPost2010PropOp39
 70
     1
102
RTVSPost2010Prop40
 90
        0
102
RTVSPost2010PropOp40
 70
     1
102
RTVSPost2010Prop41ColorIndex
 90
       18
102
RTVSPost2010Prop41ColorRGB
 90
        0
102
RTVSPost2010PropOp41
 70
     1
102
RTVSPost2010Prop42
 90
       50
102
RTVSPost2010PropOp42
 70
     1
102
RTVSPost2010Prop43
 90
        3
102
RTVSPost2010PropOp43
 70
     1
102
RTVSPost2010Prop44ColorIndex
 90
        5
102
RTVSPost2010Prop44ColorRGB
 90
      255
102
RTVSPost2010PropOp44
 70
     1
102
RTVSPost2010Prop45
280
     0
102
RTVSPost2010PropOp45
 70
     1
102
RTVSPost2010Prop46
 90
       50
102
RTVSPost2010PropOp46
 70
     1
102
RTVSPost2010Prop47
 90
       50
102
RTVSPost2010PropOp47
 70
     1
102
RTVSPost2010Prop48
 90
       50
102
RTVSPost2010PropOp48
 70
     1
102
RTVSPost2010Prop49
280
     0
102
RTVSPost2010PropOp49
 70
     1
102
RTVSPost2010Prop50
 90
       50
102
RTVSPost2010PropOp50
 70
     1
102
RTVSPost2010Prop51ColorIndex
 90
      256
102
RTVSPost2010Prop51ColorRGB
 90
-16777216
102
RTVSPost2010PropOp51
 70
     0
102
RTVSPost2010Prop52
140
1.0
102
RTVSPost2010PropOp52
 70
     0
102
RTVSPost2010Prop53
 90
        2
102
RTVSPost2010PropOp53
 70
     1
102
RTVSPost2010Prop54
  1
strokes_ogs.tif
102
RTVSPost2010PropOp54
 70
     1
102
RTVSPost2010Prop55
280
     0
102
RTVSPost2010PropOp55
 70
     1
102
RTVSPost2010Prop56
140
1.0
102
RTVSPost2010PropOp56
 70
     1
102
RTVSPost2010Prop57
140
1.0
102
RTVSPost2010PropOp57
 70
     1
102
RTVSPropertyOp0
 70
     1
102
RTVSPropertyOp1
 70
     1
102
RTVSPropertyOp2
 70
     1
102
RTVSPropertyOp3
 70
     1
102
RTVSPropertyOp4
 70
     1
102
RTVSPropertyOp5
 70
     1
102
RTVSPropertyOp6
 70
     1
102
RTVSPropertyOp7
 70
     1
102
RTVSPropertyOp8
 70
     1
102
RTVSPropertyOp9
 70
     1
102
RTVSPropertyOp10
 70
     1
102
RTVSPropertyOp11
 70
     1
102
RTVSPropertyOp12
 70
     1
102
RTVSPropertyOp13
 70
     1
102
RTVSPropertyOp14
 70
     1
102
RTVSPropertyOp15
 70
     1
102
RTVSPropertyOp16
 70
     1
102
RTVSPropertyOp17
 70
     1
102
RTVSPropertyOp18
 70
     1
102
RTVSPropertyOp19
 70
     1
102
RTVSPropertyOp20
 70
     1
102
RTVSPropertyOp21
 70
     1
102
RTVSPropertyOp22
 70
     1
102
RTVSPropertyOp23
 70
     1
102
RTVSPropertyOp24
 70
     1
102
RTVSPropertyOp25
 70
     1
102
RTVSPropertyOp26
 70
     1
102
RTVSPropertyOp27
 70
     1
102
RTVSPropertyOp28
 70
     1
102
RTVSPropertyOp29
 70
     1
102
RTVSPropertyOp30
 70
     1
102
RTVSPropertyOp31
 70
     1
102
RTVSPropertyOp32
 70
     1
102
RTVSPropertyOp33
 70
     1
102
RTVSPropertyOp34
 70
     1
102
RTVSPropertyOp35
 70
     1
102
RTVSPropertyOp36
 70
     1
102
RTVSPropertyOp37
 70
     1
102
RTVSPropertyOp38
 70
     1
102
RTVSPropertyOp39
 70
     1
102
RTVSPropertyOp40
 70
     1
102
RTVSPropertyOp41
 70
     1
102
RTVSPropertyOp42
 70
     1
102
RTVSPropertyOp43
 70
     1
102
RTVSPropertyOp44
 70
     1
102
RTVSPropertyOp45
 70
     1
102
RTVSPropertyOp46
 70
     1
102
RTVSPropertyOp47
 70
     1
102
RTVSPropertyOp48
 70
     1
102
RTVSPropertyOp49
 70
     1
102
RTVSPropertyOp50
 70
     1
102
RTVSPropertyOp51
 70
     0
102
RTVSPropertyOp52
 70
     0
102
RTVSPropertyOp53
 70
     1
102
RTVSPropertyOp54
 70
     1
102
RTVSPropertyOp55
 70
     1
102
RTVSPropertyOp56
 70
     1
102
RTVSPropertyOp57
 70
     1
102
RTVSPropertyOp58
 70
     1
102
RTVSPropertyOp59
 70
     1
102
RTVSPropertyOp60
 70
     1
102
RTVSPropertyOp61
 70
     1
102
RTVSPropertyOp62
 70
     1
  0
XRECORD
  5
42B
102
{ACAD_REACTORS
330
42A
102
}
330
42A
100
AcDbXrecord
280
     1
102
RTVSPost2010Prop28
280
     0
102
RTVSPost2010PropOp28
 70
     1
102
RTVSPost2010Prop29
280
     1
102
RTVSPost2010PropOp29
 70
     1
102
RTVSPost2010Prop30
280
     1
102
RTVSPost2010PropOp30
 70
     1
102
RTVSPost2010Prop31
280
     0
102
RTVSPost2010PropOp31
 70
     1
102
RTVSPost2010Prop32
280
     0
102
RTVSPost2010PropOp32
 70
     1
102
RTVSPost2010Prop33
280
     0
102
RTVSPost2010PropOp33
 70
     1
102
RTVSPost2010Prop34
280
     0
102
RTVSPost2010PropOp34
 70
     1
102
RTVSPost2010Prop35
280
     0
102
RTVSPost2010PropOp35
 70
     1
102
RTVSPost2010Prop36
280
     0
102
RTVSPost2010PropOp36
 70
     1
102
RTVSPost2010Prop37
 90
       50
102
RTVSPost2010PropOp37
 70
     1
102
RTVSPost2010Prop38
140
0.0
102
RTVSPost2010PropOp38
 70
     1
102
RTVSPost2010Prop39
140
1.0
102
RTVSPost2010PropOp39
 70
     1
102
RTVSPost2010Prop40
 90
        0
102
RTVSPost2010PropOp40
 70
     1
102
RTVSPost2010Prop41ColorIndex
 90
       18
102
RTVSPost2010Prop41ColorRGB
 90
        0
102
RTVSPost2010PropOp41
 70
     1
102
RTVSPost2010Prop42
 90
       50
102
RTVSPost2010PropOp42
 70
     1
102
RTVSPost2010Prop43
 90
        3
102
RTVSPost2010PropOp43
 70
     1
102
RTVSPost2010Prop44ColorIndex
 90
        5
102
RTVSPost2010Prop44ColorRGB
 90
      255
102
RTVSPost2010PropOp44
 70
     1
102
RTVSPost2010Prop45
280
     0
102
RTVSPost2010PropOp45
 70
     1
102
RTVSPost2010Prop46
 90
       50
102
RTVSPost2010PropOp46
 70
     1
102
RTVSPost2010Prop47
 90
       50
102
RTVSPost2010PropOp47
 70
     1
102
RTVSPost2010Prop48
 90
       50
102
RTVSPost2010PropOp48
 70
     1
102
RTVSPost2010Prop49
280
     0
102
RTVSPost2010PropOp49
 70
     1
102
RTVSPost2010Prop50
 90
       50
102
RTVSPost2010PropOp50
 70
     1
102
RTVSPost2010Prop51ColorIndex
 90
      256
102
RTVSPost2010Prop51ColorRGB
 90
-16777216
102
RTVSPost2010PropOp51
 70
     0
102
RTVSPost2010Prop52
140
1.0
102
RTVSPost2010PropOp52
 70
     0
102
RTVSPost2010Prop53
 90
        2
102
RTVSPost2010PropOp53
 70
     1
102
RTVSPost2010Prop54
  1
strokes_ogs.tif
102
RTVSPost2010PropOp54
 70
     1
102
RTVSPost2010Prop55
280
     0
102
RTVSPost2010PropOp55
 70
     1
102
RTVSPost2010Prop56
140
1.0
102
RTVSPost2010PropOp56
 70
     1
102
RTVSPost2010Prop57
140
1.0
102
RTVSPost2010PropOp57
 70
     1
102
RTVSPropertyOp0
 70
     1
102
RTVSPropertyOp1
 70
     1
102
RTVSPropertyOp2
 70
     1
102
RTVSPropertyOp3
 70
     1
102
RTVSPropertyOp4
 70
     1
102
RTVSPropertyOp5
 70
     1
102
RTVSPropertyOp6
 70
     1
102
RTVSPropertyOp7
 70
     1
102
RTVSPropertyOp8
 70
     1
102
RTVSPropertyOp9
 70
     1
102
RTVSPropertyOp10
 70
     1
102
RTVSPropertyOp11
 70
     1
102
RTVSPropertyOp12
 70
     1
102
RTVSPropertyOp13
 70
     1
102
RTVSPropertyOp14
 70
     1
102
RTVSPropertyOp15
 70
     1
102
RTVSPropertyOp16
 70
     1
102
RTVSPropertyOp17
 70
     1
102
RTVSPropertyOp18
 70
     1
102
RTVSPropertyOp19
 70
     1
102
RTVSPropertyOp20
 70
     1
102
RTVSPropertyOp21
 70
     1
102
RTVSPropertyOp22
 70
     1
102
RTVSPropertyOp23
 70
     1
102
RTVSPropertyOp24
 70
     1
102
RTVSPropertyOp25
 70
     1
102
RTVSPropertyOp26
 70
     1
102
RTVSPropertyOp27
 70
     1
102
RTVSPropertyOp28
 70
     1
102
RTVSPropertyOp29
 70
     1
102
RTVSPropertyOp30
 70
     1
102
RTVSPropertyOp31
 70
     1
102
RTVSPropertyOp32
 70
     1
102
RTVSPropertyOp33
 70
     1
102
RTVSPropertyOp34
 70
     1
102
RTVSPropertyOp35
 70
     1
102
RTVSPropertyOp36
 70
     1
102
RTVSPropertyOp37
 70
     1
102
RTVSPropertyOp38
 70
     1
102
RTVSPropertyOp39
 70
     1
102
RTVSPropertyOp40
 70
     1
102
RTVSPropertyOp41
 70
     1
102
RTVSPropertyOp42
 70
     1
102
RTVSPropertyOp43
 70
     1
102
RTVSPropertyOp44
 70
     1
102
RTVSPropertyOp45
 70
     1
102
RTVSPropertyOp46
 70
     1
102
RTVSPropertyOp47
 70
     1
102
RTVSPropertyOp48
 70
     1
102
RTVSPropertyOp49
 70
     1
102
RTVSPropertyOp50
 70
     1
102
RTVSPropertyOp51
 70
     0
102
RTVSPropertyOp52
 70
     0
102
RTVSPropertyOp53
 70
     1
102
RTVSPropertyOp54
 70
     1
102
RTVSPropertyOp55
 70
     1
102
RTVSPropertyOp56
 70
     1
102
RTVSPropertyOp57
 70
     1
102
RTVSPropertyOp58
 70
     1
102
RTVSPropertyOp59
 70
     1
102
RTVSPropertyOp60
 70
     1
102
RTVSPropertyOp61
 70
     1
102
RTVSPropertyOp62
 70
     1
  0
XRECORD
  5
439
102
{ACAD_REACTORS
330
438
102
}
330
438
100
AcDbXrecord
280
     1
102
RTVSPost2010Prop28
280
     0
102
RTVSPost2010PropOp28
 70
     1
102
RTVSPost2010Prop29
280
     1
102
RTVSPost2010PropOp29
 70
     1
102
RTVSPost2010Prop30
280
     1
102
RTVSPost2010PropOp30
 70
     1
102
RTVSPost2010Prop31
280
     0
102
RTVSPost2010PropOp31
 70
     1
102
RTVSPost2010Prop32
280
     0
102
RTVSPost2010PropOp32
 70
     1
102
RTVSPost2010Prop33
280
     0
102
RTVSPost2010PropOp33
 70
     1
102
RTVSPost2010Prop34
280
     0
102
RTVSPost2010PropOp34
 70
     1
102
RTVSPost2010Prop35
280
     0
102
RTVSPost2010PropOp35
 70
     1
102
RTVSPost2010Prop36
280
     0
102
RTVSPost2010PropOp36
 70
     1
102
RTVSPost2010Prop37
 90
       50
102
RTVSPost2010PropOp37
 70
     1
102
RTVSPost2010Prop38
140
0.0
102
RTVSPost2010PropOp38
 70
     1
102
RTVSPost2010Prop39
140
1.0
102
RTVSPost2010PropOp39
 70
     1
102
RTVSPost2010Prop40
 90
        0
102
RTVSPost2010PropOp40
 70
     1
102
RTVSPost2010Prop41ColorIndex
 90
       18
102
RTVSPost2010Prop41ColorRGB
 90
        0
102
RTVSPost2010PropOp41
 70
     1
102
RTVSPost2010Prop42
 90
       50
102
RTVSPost2010PropOp42
 70
     1
102
RTVSPost2010Prop43
 90
        3
102
RTVSPost2010PropOp43
 70
     1
102
RTVSPost2010Prop44ColorIndex
 90
        5
102
RTVSPost2010Prop44ColorRGB
 90
      255
102
RTVSPost2010PropOp44
 70
     1
102
RTVSPost2010Prop45
280
     0
102
RTVSPost2010PropOp45
 70
     1
102
RTVSPost2010Prop46
 90
       50
102
RTVSPost2010PropOp46
 70
     1
102
RTVSPost2010Prop47
 90
       50
102
RTVSPost2010PropOp47
 70
     1
102
RTVSPost2010Prop48
 90
       50
102
RTVSPost2010PropOp48
 70
     1
102
RTVSPost2010Prop49
280
     0
102
RTVSPost2010PropOp49
 70
     1
102
RTVSPost2010Prop50
 90
       50
102
RTVSPost2010PropOp50
 70
     1
102
RTVSPost2010Prop51ColorIndex
 90
      256
102
RTVSPost2010Prop51ColorRGB
 90
-16777216
102
RTVSPost2010PropOp51
 70
     0
102
RTVSPost2010Prop52
140
1.0
102
RTVSPost2010PropOp52
 70
     0
102
RTVSPost2010Prop53
 90
        2
102
RTVSPost2010PropOp53
 70
     1
102
RTVSPost2010Prop54
  1
strokes_ogs.tif
102
RTVSPost2010PropOp54
 70
     1
102
RTVSPost2010Prop55
280
     0
102
RTVSPost2010PropOp55
 70
     1
102
RTVSPost2010Prop56
140
1.0
102
RTVSPost2010PropOp56
 70
     1
102
RTVSPost2010Prop57
140
1.0
102
RTVSPost2010PropOp57
 70
     1
102
RTVSPropertyOp0
 70
     1
102
RTVSPropertyOp1
 70
     1
102
RTVSPropertyOp2
 70
     1
102
RTVSPropertyOp3
 70
     1
102
RTVSPropertyOp4
 70
     1
102
RTVSPropertyOp5
 70
     1
102
RTVSPropertyOp6
 70
     1
102
RTVSPropertyOp7
 70
     1
102
RTVSPropertyOp8
 70
     1
102
RTVSPropertyOp9
 70
     1
102
RTVSPropertyOp10
 70
     1
102
RTVSPropertyOp11
 70
     1
102
RTVSPropertyOp12
 70
     1
102
RTVSPropertyOp13
 70
     1
102
RTVSPropertyOp14
 70
     1
102
RTVSPropertyOp15
 70
     1
102
RTVSPropertyOp16
 70
     1
102
RTVSPropertyOp17
 70
     1
102
RTVSPropertyOp18
 70
     1
102
RTVSPropertyOp19
 70
     1
102
RTVSPropertyOp20
 70
     1
102
RTVSPropertyOp21
 70
     1
102
RTVSPropertyOp22
 70
     1
102
RTVSPropertyOp23
 70
     1
102
RTVSPropertyOp24
 70
     1
102
RTVSPropertyOp25
 70
     1
102
RTVSPropertyOp26
 70
     1
102
RTVSPropertyOp27
 70
     1
102
RTVSPropertyOp28
 70
     1
102
RTVSPropertyOp29
 70
     1
102
RTVSPropertyOp30
 70
     1
102
RTVSPropertyOp31
 70
     1
102
RTVSPropertyOp32
 70
     1
102
RTVSPropertyOp33
 70
     1
102
RTVSPropertyOp34
 70
     1
102
RTVSPropertyOp35
 70
     1
102
RTVSPropertyOp36
 70
     1
102
RTVSPropertyOp37
 70
     1
102
RTVSPropertyOp38
 70
     1
102
RTVSPropertyOp39
 70
     1
102
RTVSPropertyOp40
 70
     1
102
RTVSPropertyOp41
 70
     1
102
RTVSPropertyOp42
 70
     1
102
RTVSPropertyOp43
 70
     1
102
RTVSPropertyOp44
 70
     1
102
RTVSPropertyOp45
 70
     1
102
RTVSPropertyOp46
 70
     1
102
RTVSPropertyOp47
 70
     1
102
RTVSPropertyOp48
 70
     1
102
RTVSPropertyOp49
 70
     1
102
RTVSPropertyOp50
 70
     1
102
RTVSPropertyOp51
 70
     0
102
RTVSPropertyOp52
 70
     0
102
RTVSPropertyOp53
 70
     1
102
RTVSPropertyOp54
 70
     1
102
RTVSPropertyOp55
 70
     1
102
RTVSPropertyOp56
 70
     1
102
RTVSPropertyOp57
 70
     1
102
RTVSPropertyOp58
 70
     1
102
RTVSPropertyOp59
 70
     1
102
RTVSPropertyOp60
 70
     1
102
RTVSPropertyOp61
 70
     1
102
RTVSPropertyOp62
 70
     1
  0
XRECORD
  5
441
102
{ACAD_REACTORS
330
440
102
}
330
440
100
AcDbXrecord
280
     1
102
RTVSPost2010Prop28
280
     0
102
RTVSPost2010PropOp28
 70
     1
102
RTVSPost2010Prop29
280
     1
102
RTVSPost2010PropOp29
 70
     1
102
RTVSPost2010Prop30
280
     1
102
RTVSPost2010PropOp30
 70
     1
102
RTVSPost2010Prop31
280
     0
102
RTVSPost2010PropOp31
 70
     1
102
RTVSPost2010Prop32
280
     0
102
RTVSPost2010PropOp32
 70
     1
102
RTVSPost2010Prop33
280
     0
102
RTVSPost2010PropOp33
 70
     1
102
RTVSPost2010Prop34
280
     0
102
RTVSPost2010PropOp34
 70
     1
102
RTVSPost2010Prop35
280
     0
102
RTVSPost2010PropOp35
 70
     1
102
RTVSPost2010Prop36
280
     0
102
RTVSPost2010PropOp36
 70
     1
102
RTVSPost2010Prop37
 90
       50
102
RTVSPost2010PropOp37
 70
     1
102
RTVSPost2010Prop38
140
0.0
102
RTVSPost2010PropOp38
 70
     1
102
RTVSPost2010Prop39
140
1.0
102
RTVSPost2010PropOp39
 70
     1
102
RTVSPost2010Prop40
 90
        0
102
RTVSPost2010PropOp40
 70
     1
102
RTVSPost2010Prop41ColorIndex
 90
       18
102
RTVSPost2010Prop41ColorRGB
 90
        0
102
RTVSPost2010PropOp41
 70
     1
102
RTVSPost2010Prop42
 90
       50
102
RTVSPost2010PropOp42
 70
     1
102
RTVSPost2010Prop43
 90
        3
102
RTVSPost2010PropOp43
 70
     1
102
RTVSPost2010Prop44ColorIndex
 90
        5
102
RTVSPost2010Prop44ColorRGB
 90
      255
102
RTVSPost2010PropOp44
 70
     1
102
RTVSPost2010Prop45
280
     0
102
RTVSPost2010PropOp45
 70
     1
102
RTVSPost2010Prop46
 90
       50
102
RTVSPost2010PropOp46
 70
     1
102
RTVSPost2010Prop47
 90
       50
102
RTVSPost2010PropOp47
 70
     1
102
RTVSPost2010Prop48
 90
       50
102
RTVSPost2010PropOp48
 70
     1
102
RTVSPost2010Prop49
280
     0
102
RTVSPost2010PropOp49
 70
     1
102
RTVSPost2010Prop50
 90
       50
102
RTVSPost2010PropOp50
 70
     1
102
RTVSPost2010Prop51ColorIndex
 90
      256
102
RTVSPost2010Prop51ColorRGB
 90
-16777216
102
RTVSPost2010PropOp51
 70
     0
102
RTVSPost2010Prop52
140
1.0
102
RTVSPost2010PropOp52
 70
     0
102
RTVSPost2010Prop53
 90
        2
102
RTVSPost2010PropOp53
 70
     1
102
RTVSPost2010Prop54
  1
strokes_ogs.tif
102
RTVSPost2010PropOp54
 70
     1
102
RTVSPost2010Prop55
280
     0
102
RTVSPost2010PropOp55
 70
     1
102
RTVSPost2010Prop56
140
1.0
102
RTVSPost2010PropOp56
 70
     1
102
RTVSPost2010Prop57
140
1.0
102
RTVSPost2010PropOp57
 70
     1
102
RTVSPropertyOp0
 70
     1
102
RTVSPropertyOp1
 70
     1
102
RTVSPropertyOp2
 70
     1
102
RTVSPropertyOp3
 70
     1
102
RTVSPropertyOp4
 70
     1
102
RTVSPropertyOp5
 70
     1
102
RTVSPropertyOp6
 70
     1
102
RTVSPropertyOp7
 70
     1
102
RTVSPropertyOp8
 70
     1
102
RTVSPropertyOp9
 70
     1
102
RTVSPropertyOp10
 70
     1
102
RTVSPropertyOp11
 70
     1
102
RTVSPropertyOp12
 70
     1
102
RTVSPropertyOp13
 70
     1
102
RTVSPropertyOp14
 70
     1
102
RTVSPropertyOp15
 70
     1
102
RTVSPropertyOp16
 70
     1
102
RTVSPropertyOp17
 70
     1
102
RTVSPropertyOp18
 70
     1
102
RTVSPropertyOp19
 70
     1
102
RTVSPropertyOp20
 70
     1
102
RTVSPropertyOp21
 70
     1
102
RTVSPropertyOp22
 70
     1
102
RTVSPropertyOp23
 70
     1
102
RTVSPropertyOp24
 70
     1
102
RTVSPropertyOp25
 70
     1
102
RTVSPropertyOp26
 70
     1
102
RTVSPropertyOp27
 70
     1
102
RTVSPropertyOp28
 70
     1
102
RTVSPropertyOp29
 70
     1
102
RTVSPropertyOp30
 70
     1
102
RTVSPropertyOp31
 70
     1
102
RTVSPropertyOp32
 70
     1
102
RTVSPropertyOp33
 70
     1
102
RTVSPropertyOp34
 70
     1
102
RTVSPropertyOp35
 70
     1
102
RTVSPropertyOp36
 70
     1
102
RTVSPropertyOp37
 70
     1
102
RTVSPropertyOp38
 70
     1
102
RTVSPropertyOp39
 70
     1
102
RTVSPropertyOp40
 70
     1
102
RTVSPropertyOp41
 70
     1
102
RTVSPropertyOp42
 70
     1
102
RTVSPropertyOp43
 70
     1
102
RTVSPropertyOp44
 70
     1
102
RTVSPropertyOp45
 70
     1
102
RTVSPropertyOp46
 70
     1
102
RTVSPropertyOp47
 70
     1
102
RTVSPropertyOp48
 70
     1
102
RTVSPropertyOp49
 70
     1
102
RTVSPropertyOp50
 70
     1
102
RTVSPropertyOp51
 70
     0
102
RTVSPropertyOp52
 70
     0
102
RTVSPropertyOp53
 70
     1
102
RTVSPropertyOp54
 70
     1
102
RTVSPropertyOp55
 70
     1
102
RTVSPropertyOp56
 70
     1
102
RTVSPropertyOp57
 70
     1
102
RTVSPropertyOp58
 70
     1
102
RTVSPropertyOp59
 70
     1
102
RTVSPropertyOp60
 70
     1
102
RTVSPropertyOp61
 70
     1
102
RTVSPropertyOp62
 70
     1
  0
XRECORD
  5
433
102
{ACAD_REACTORS
330
432
102
}
330
432
100
AcDbXrecord
280
     1
102
RTVSPost2010Prop28
280
     0
102
RTVSPost2010PropOp28
 70
     1
102
RTVSPost2010Prop29
280
     1
102
RTVSPost2010PropOp29
 70
     1
102
RTVSPost2010Prop30
280
     1
102
RTVSPost2010PropOp30
 70
     1
102
RTVSPost2010Prop31
280
     0
102
RTVSPost2010PropOp31
 70
     1
102
RTVSPost2010Prop32
280
     0
102
RTVSPost2010PropOp32
 70
     1
102
RTVSPost2010Prop33
280
     0
102
RTVSPost2010PropOp33
 70
     1
102
RTVSPost2010Prop34
280
     0
102
RTVSPost2010PropOp34
 70
     1
102
RTVSPost2010Prop35
280
     0
102
RTVSPost2010PropOp35
 70
     1
102
RTVSPost2010Prop36
280
     0
102
RTVSPost2010PropOp36
 70
     1
102
RTVSPost2010Prop37
 90
       50
102
RTVSPost2010PropOp37
 70
     1
102
RTVSPost2010Prop38
140
0.0
102
RTVSPost2010PropOp38
 70
     1
102
RTVSPost2010Prop39
140
1.0
102
RTVSPost2010PropOp39
 70
     1
102
RTVSPost2010Prop40
 90
        0
102
RTVSPost2010PropOp40
 70
     1
102
RTVSPost2010Prop41ColorIndex
 90
       18
102
RTVSPost2010Prop41ColorRGB
 90
        0
102
RTVSPost2010PropOp41
 70
     1
102
RTVSPost2010Prop42
 90
       50
102
RTVSPost2010PropOp42
 70
     1
102
RTVSPost2010Prop43
 90
        3
102
RTVSPost2010PropOp43
 70
     1
102
RTVSPost2010Prop44ColorIndex
 90
        5
102
RTVSPost2010Prop44ColorRGB
 90
      255
102
RTVSPost2010PropOp44
 70
     1
102
RTVSPost2010Prop45
280
     0
102
RTVSPost2010PropOp45
 70
     1
102
RTVSPost2010Prop46
 90
       50
102
RTVSPost2010PropOp46
 70
     1
102
RTVSPost2010Prop47
 90
       50
102
RTVSPost2010PropOp47
 70
     1
102
RTVSPost2010Prop48
 90
       50
102
RTVSPost2010PropOp48
 70
     1
102
RTVSPost2010Prop49
280
     0
102
RTVSPost2010PropOp49
 70
     1
102
RTVSPost2010Prop50
 90
       50
102
RTVSPost2010PropOp50
 70
     1
102
RTVSPost2010Prop51ColorIndex
 90
      256
102
RTVSPost2010Prop51ColorRGB
 90
-16777216
102
RTVSPost2010PropOp51
 70
     0
102
RTVSPost2010Prop52
140
1.0
102
RTVSPost2010PropOp52
 70
     0
102
RTVSPost2010Prop53
 90
        2
102
RTVSPost2010PropOp53
 70
     1
102
RTVSPost2010Prop54
  1
strokes_ogs.tif
102
RTVSPost2010PropOp54
 70
     1
102
RTVSPost2010Prop55
280
     0
102
RTVSPost2010PropOp55
 70
     1
102
RTVSPost2010Prop56
140
1.0
102
RTVSPost2010PropOp56
 70
     1
102
RTVSPost2010Prop57
140
1.0
102
RTVSPost2010PropOp57
 70
     1
102
RTVSPropertyOp0
 70
     1
102
RTVSPropertyOp1
 70
     1
102
RTVSPropertyOp2
 70
     1
102
RTVSPropertyOp3
 70
     1
102
RTVSPropertyOp4
 70
     1
102
RTVSPropertyOp5
 70
     1
102
RTVSPropertyOp6
 70
     1
102
RTVSPropertyOp7
 70
     1
102
RTVSPropertyOp8
 70
     1
102
RTVSPropertyOp9
 70
     1
102
RTVSPropertyOp10
 70
     1
102
RTVSPropertyOp11
 70
     1
102
RTVSPropertyOp12
 70
     1
102
RTVSPropertyOp13
 70
     1
102
RTVSPropertyOp14
 70
     1
102
RTVSPropertyOp15
 70
     1
102
RTVSPropertyOp16
 70
     1
102
RTVSPropertyOp17
 70
     1
102
RTVSPropertyOp18
 70
     1
102
RTVSPropertyOp19
 70
     1
102
RTVSPropertyOp20
 70
     1
102
RTVSPropertyOp21
 70
     1
102
RTVSPropertyOp22
 70
     1
102
RTVSPropertyOp23
 70
     1
102
RTVSPropertyOp24
 70
     1
102
RTVSPropertyOp25
 70
     1
102
RTVSPropertyOp26
 70
     1
102
RTVSPropertyOp27
 70
     1
102
RTVSPropertyOp28
 70
     1
102
RTVSPropertyOp29
 70
     1
102
RTVSPropertyOp30
 70
     1
102
RTVSPropertyOp31
 70
     1
102
RTVSPropertyOp32
 70
     1
102
RTVSPropertyOp33
 70
     1
102
RTVSPropertyOp34
 70
     1
102
RTVSPropertyOp35
 70
     1
102
RTVSPropertyOp36
 70
     1
102
RTVSPropertyOp37
 70
     1
102
RTVSPropertyOp38
 70
     1
102
RTVSPropertyOp39
 70
     1
102
RTVSPropertyOp40
 70
     1
102
RTVSPropertyOp41
 70
     1
102
RTVSPropertyOp42
 70
     1
102
RTVSPropertyOp43
 70
     1
102
RTVSPropertyOp44
 70
     1
102
RTVSPropertyOp45
 70
     1
102
RTVSPropertyOp46
 70
     1
102
RTVSPropertyOp47
 70
     1
102
RTVSPropertyOp48
 70
     1
102
RTVSPropertyOp49
 70
     1
102
RTVSPropertyOp50
 70
     1
102
RTVSPropertyOp51
 70
     0
102
RTVSPropertyOp52
 70
     0
102
RTVSPropertyOp53
 70
     1
102
RTVSPropertyOp54
 70
     1
102
RTVSPropertyOp55
 70
     1
102
RTVSPropertyOp56
 70
     1
102
RTVSPropertyOp57
 70
     1
102
RTVSPropertyOp58
 70
     1
102
RTVSPropertyOp59
 70
     1
102
RTVSPropertyOp60
 70
     1
102
RTVSPropertyOp61
 70
     1
102
RTVSPropertyOp62
 70
     1
  0
XRECORD
  5
437
102
{ACAD_REACTORS
330
436
102
}
330
436
100
AcDbXrecord
280
     1
102
RTVSPost2010Prop28
280
     0
102
RTVSPost2010PropOp28
 70
     1
102
RTVSPost2010Prop29
280
     1
102
RTVSPost2010PropOp29
 70
     1
102
RTVSPost2010Prop30
280
     1
102
RTVSPost2010PropOp30
 70
     1
102
RTVSPost2010Prop31
280
     0
102
RTVSPost2010PropOp31
 70
     1
102
RTVSPost2010Prop32
280
     0
102
RTVSPost2010PropOp32
 70
     1
102
RTVSPost2010Prop33
280
     0
102
RTVSPost2010PropOp33
 70
     1
102
RTVSPost2010Prop34
280
     0
102
RTVSPost2010PropOp34
 70
     1
102
RTVSPost2010Prop35
280
     0
102
RTVSPost2010PropOp35
 70
     1
102
RTVSPost2010Prop36
280
     0
102
RTVSPost2010PropOp36
 70
     1
102
RTVSPost2010Prop37
 90
       50
102
RTVSPost2010PropOp37
 70
     1
102
RTVSPost2010Prop38
140
0.0
102
RTVSPost2010PropOp38
 70
     1
102
RTVSPost2010Prop39
140
1.0
102
RTVSPost2010PropOp39
 70
     1
102
RTVSPost2010Prop40
 90
        0
102
RTVSPost2010PropOp40
 70
     1
102
RTVSPost2010Prop41ColorIndex
 90
       18
102
RTVSPost2010Prop41ColorRGB
 90
        0
102
RTVSPost2010PropOp41
 70
     1
102
RTVSPost2010Prop42
 90
       50
102
RTVSPost2010PropOp42
 70
     1
102
RTVSPost2010Prop43
 90
        3
102
RTVSPost2010PropOp43
 70
     1
102
RTVSPost2010Prop44ColorIndex
 90
        5
102
RTVSPost2010Prop44ColorRGB
 90
      255
102
RTVSPost2010PropOp44
 70
     1
102
RTVSPost2010Prop45
280
     0
102
RTVSPost2010PropOp45
 70
     1
102
RTVSPost2010Prop46
 90
       50
102
RTVSPost2010PropOp46
 70
     1
102
RTVSPost2010Prop47
 90
       50
102
RTVSPost2010PropOp47
 70
     1
102
RTVSPost2010Prop48
 90
       50
102
RTVSPost2010PropOp48
 70
     1
102
RTVSPost2010Prop49
280
     0
102
RTVSPost2010PropOp49
 70
     1
102
RTVSPost2010Prop50
 90
       50
102
RTVSPost2010PropOp50
 70
     1
102
RTVSPost2010Prop51ColorIndex
 90
      256
102
RTVSPost2010Prop51ColorRGB
 90
-16777216
102
RTVSPost2010PropOp51
 70
     0
102
RTVSPost2010Prop52
140
1.0
102
RTVSPost2010PropOp52
 70
     0
102
RTVSPost2010Prop53
 90
        2
102
RTVSPost2010PropOp53
 70
     1
102
RTVSPost2010Prop54
  1
strokes_ogs.tif
102
RTVSPost2010PropOp54
 70
     1
102
RTVSPost2010Prop55
280
     0
102
RTVSPost2010PropOp55
 70
     1
102
RTVSPost2010Prop56
140
1.0
102
RTVSPost2010PropOp56
 70
     1
102
RTVSPost2010Prop57
140
1.0
102
RTVSPost2010PropOp57
 70
     1
102
RTVSPropertyOp0
 70
     1
102
RTVSPropertyOp1
 70
     1
102
RTVSPropertyOp2
 70
     1
102
RTVSPropertyOp3
 70
     1
102
RTVSPropertyOp4
 70
     1
102
RTVSPropertyOp5
 70
     1
102
RTVSPropertyOp6
 70
     1
102
RTVSPropertyOp7
 70
     1
102
RTVSPropertyOp8
 70
     1
102
RTVSPropertyOp9
 70
     1
102
RTVSPropertyOp10
 70
     1
102
RTVSPropertyOp11
 70
     1
102
RTVSPropertyOp12
 70
     1
102
RTVSPropertyOp13
 70
     1
102
RTVSPropertyOp14
 70
     1
102
RTVSPropertyOp15
 70
     1
102
RTVSPropertyOp16
 70
     1
102
RTVSPropertyOp17
 70
     1
102
RTVSPropertyOp18
 70
     1
102
RTVSPropertyOp19
 70
     1
102
RTVSPropertyOp20
 70
     1
102
RTVSPropertyOp21
 70
     1
102
RTVSPropertyOp22
 70
     1
102
RTVSPropertyOp23
 70
     1
102
RTVSPropertyOp24
 70
     1
102
RTVSPropertyOp25
 70
     1
102
RTVSPropertyOp26
 70
     1
102
RTVSPropertyOp27
 70
     1
102
RTVSPropertyOp28
 70
     1
102
RTVSPropertyOp29
 70
     1
102
RTVSPropertyOp30
 70
     1
102
RTVSPropertyOp31
 70
     1
102
RTVSPropertyOp32
 70
     1
102
RTVSPropertyOp33
 70
     1
102
RTVSPropertyOp34
 70
     1
102
RTVSPropertyOp35
 70
     1
102
RTVSPropertyOp36
 70
     1
102
RTVSPropertyOp37
 70
     1
102
RTVSPropertyOp38
 70
     1
102
RTVSPropertyOp39
 70
     1
102
RTVSPropertyOp40
 70
     1
102
RTVSPropertyOp41
 70
     1
102
RTVSPropertyOp42
 70
     1
102
RTVSPropertyOp43
 70
     1
102
RTVSPropertyOp44
 70
     1
102
RTVSPropertyOp45
 70
     1
102
RTVSPropertyOp46
 70
     1
102
RTVSPropertyOp47
 70
     1
102
RTVSPropertyOp48
 70
     1
102
RTVSPropertyOp49
 70
     1
102
RTVSPropertyOp50
 70
     1
102
RTVSPropertyOp51
 70
     0
102
RTVSPropertyOp52
 70
     0
102
RTVSPropertyOp53
 70
     1
102
RTVSPropertyOp54
 70
     1
102
RTVSPropertyOp55
 70
     1
102
RTVSPropertyOp56
 70
     1
102
RTVSPropertyOp57
 70
     1
102
RTVSPropertyOp58
 70
     1
102
RTVSPropertyOp59
 70
     1
102
RTVSPropertyOp60
 70
     1
102
RTVSPropertyOp61
 70
     1
102
RTVSPropertyOp62
 70
     1
  0
XRECORD
  5
451
102
{ACAD_REACTORS
330
450
102
}
330
450
100
AcDbXrecord
280
     1
102
RTVSPost2010Prop28
280
     0
102
RTVSPost2010PropOp28
 70
     0
102
RTVSPost2010Prop29
280
     1
102
RTVSPost2010PropOp29
 70
     0
102
RTVSPost2010Prop30
280
     1
102
RTVSPost2010PropOp30
 70
     0
102
RTVSPost2010Prop31
280
     0
102
RTVSPost2010PropOp31
 70
     0
102
RTVSPost2010Prop32
280
     0
102
RTVSPost2010PropOp32
 70
     0
102
RTVSPost2010Prop33
280
     0
102
RTVSPost2010PropOp33
 70
     0
102
RTVSPost2010Prop34
280
     0
102
RTVSPost2010PropOp34
 70
     0
102
RTVSPost2010Prop35
280
     0
102
RTVSPost2010PropOp35
 70
     0
102
RTVSPost2010Prop36
280
     0
102
RTVSPost2010PropOp36
 70
     0
102
RTVSPost2010Prop37
 90
       50
102
RTVSPost2010PropOp37
 70
     0
102
RTVSPost2010Prop38
140
0.0
102
RTVSPost2010PropOp38
 70
     0
102
RTVSPost2010Prop39
140
1.0
102
RTVSPost2010PropOp39
 70
     0
102
RTVSPost2010Prop40
 90
        0
102
RTVSPost2010PropOp40
 70
     0
102
RTVSPost2010Prop41ColorIndex
 90
       18
102
RTVSPost2010Prop41ColorRGB
 90
        0
102
RTVSPost2010PropOp41
 70
     0
102
RTVSPost2010Prop42
 90
       50
102
RTVSPost2010PropOp42
 70
     0
102
RTVSPost2010Prop43
 90
        3
102
RTVSPost2010PropOp43
 70
     0
102
RTVSPost2010Prop44ColorIndex
 90
        5
102
RTVSPost2010Prop44ColorRGB
 90
      255
102
RTVSPost2010PropOp44
 70
     0
102
RTVSPost2010Prop45
280
     0
102
RTVSPost2010PropOp45
 70
     0
102
RTVSPost2010Prop46
 90
       50
102
RTVSPost2010PropOp46
 70
     0
102
RTVSPost2010Prop47
 90
       50
102
RTVSPost2010PropOp47
 70
     0
102
RTVSPost2010Prop48
 90
       50
102
RTVSPost2010PropOp48
 70
     0
102
RTVSPost2010Prop49
280
     0
102
RTVSPost2010PropOp49
 70
     0
102
RTVSPost2010Prop50
 90
       50
102
RTVSPost2010PropOp50
 70
     0
102
RTVSPost2010Prop51ColorIndex
 90
      256
102
RTVSPost2010Prop51ColorRGB
 90
-16777216
102
RTVSPost2010PropOp51
 70
     0
102
RTVSPost2010Prop52
140
1.0
102
RTVSPost2010PropOp52
 70
     0
102
RTVSPost2010Prop53
 90
        2
102
RTVSPost2010PropOp53
 70
     0
102
RTVSPost2010Prop54
  1
strokes_ogs.tif
102
RTVSPost2010PropOp54
 70
     0
102
RTVSPost2010Prop55
280
     0
102
RTVSPost2010PropOp55
 70
     0
102
RTVSPost2010Prop56
140
1.0
102
RTVSPost2010PropOp56
 70
     0
102
RTVSPost2010Prop57
140
1.0
102
RTVSPost2010PropOp57
 70
     0
102
RTVSPropertyOp0
 70
     0
102
RTVSPropertyOp1
 70
     0
102
RTVSPropertyOp2
 70
     0
102
RTVSPropertyOp3
 70
     0
102
RTVSPropertyOp4
 70
     0
102
RTVSPropertyOp5
 70
     0
102
RTVSPropertyOp6
 70
     0
102
RTVSPropertyOp7
 70
     0
102
RTVSPropertyOp8
 70
     0
102
RTVSPropertyOp9
 70
     0
102
RTVSPropertyOp10
 70
     0
102
RTVSPropertyOp11
 70
     0
102
RTVSPropertyOp12
 70
     0
102
RTVSPropertyOp13
 70
     0
102
RTVSPropertyOp14
 70
     2
102
RTVSPropertyOp15
 70
     0
102
RTVSPropertyOp16
 70
     0
102
RTVSPropertyOp17
 70
     0
102
RTVSPropertyOp18
 70
     0
102
RTVSPropertyOp19
 70
     0
102
RTVSPropertyOp20
 70
     0
102
RTVSPropertyOp21
 70
     0
102
RTVSPropertyOp22
 70
     0
102
RTVSPropertyOp23
 70
     0
102
RTVSPropertyOp24
 70
     0
102
RTVSPropertyOp25
 70
     0
102
RTVSPropertyOp26
 70
     0
102
RTVSPropertyOp27
 70
     0
102
RTVSPropertyOp28
 70
     0
102
RTVSPropertyOp29
 70
     0
102
RTVSPropertyOp30
 70
     0
102
RTVSPropertyOp31
 70
     0
102
RTVSPropertyOp32
 70
     0
102
RTVSPropertyOp33
 70
     0
102
RTVSPropertyOp34
 70
     0
102
RTVSPropertyOp35
 70
     0
102
RTVSPropertyOp36
 70
     0
102
RTVSPropertyOp37
 70
     0
102
RTVSPropertyOp38
 70
     0
102
RTVSPropertyOp39
 70
     0
102
RTVSPropertyOp40
 70
     0
102
RTVSPropertyOp41
 70
     0
102
RTVSPropertyOp42
 70
     0
102
RTVSPropertyOp43
 70
     0
102
RTVSPropertyOp44
 70
     0
102
RTVSPropertyOp45
 70
     0
102
RTVSPropertyOp46
 70
     0
102
RTVSPropertyOp47
 70
     0
102
RTVSPropertyOp48
 70
     0
102
RTVSPropertyOp49
 70
     0
102
RTVSPropertyOp50
 70
     0
102
RTVSPropertyOp51
 70
     0
102
RTVSPropertyOp52
 70
     0
102
RTVSPropertyOp53
 70
     0
102
RTVSPropertyOp54
 70
     0
102
RTVSPropertyOp55
 70
     0
102
RTVSPropertyOp56
 70
     0
102
RTVSPropertyOp57
 70
     0
102
RTVSPropertyOp58
 70
     0
102
RTVSPropertyOp59
 70
     0
102
RTVSPropertyOp60
 70
     0
102
RTVSPropertyOp61
 70
     0
102
RTVSPropertyOp62
 70
     0
  0
XRECORD
  5
43F
102
{ACAD_REACTORS
330
43E
102
}
330
43E
100
AcDbXrecord
280
     1
102
RTVSPost2010Prop28
280
     0
102
RTVSPost2010PropOp28
 70
     1
102
RTVSPost2010Prop29
280
     1
102
RTVSPost2010PropOp29
 70
     1
102
RTVSPost2010Prop30
280
     1
102
RTVSPost2010PropOp30
 70
     1
102
RTVSPost2010Prop31
280
     0
102
RTVSPost2010PropOp31
 70
     1
102
RTVSPost2010Prop32
280
     0
102
RTVSPost2010PropOp32
 70
     1
102
RTVSPost2010Prop33
280
     0
102
RTVSPost2010PropOp33
 70
     1
102
RTVSPost2010Prop34
280
     0
102
RTVSPost2010PropOp34
 70
     1
102
RTVSPost2010Prop35
280
     0
102
RTVSPost2010PropOp35
 70
     1
102
RTVSPost2010Prop36
280
     0
102
RTVSPost2010PropOp36
 70
     1
102
RTVSPost2010Prop37
 90
       50
102
RTVSPost2010PropOp37
 70
     1
102
RTVSPost2010Prop38
140
0.0
102
RTVSPost2010PropOp38
 70
     1
102
RTVSPost2010Prop39
140
1.0
102
RTVSPost2010PropOp39
 70
     1
102
RTVSPost2010Prop40
 90
        0
102
RTVSPost2010PropOp40
 70
     1
102
RTVSPost2010Prop41ColorIndex
 90
       18
102
RTVSPost2010Prop41ColorRGB
 90
        0
102
RTVSPost2010PropOp41
 70
     1
102
RTVSPost2010Prop42
 90
       50
102
RTVSPost2010PropOp42
 70
     1
102
RTVSPost2010Prop43
 90
        3
102
RTVSPost2010PropOp43
 70
     1
102
RTVSPost2010Prop44ColorIndex
 90
        5
102
RTVSPost2010Prop44ColorRGB
 90
      255
102
RTVSPost2010PropOp44
 70
     1
102
RTVSPost2010Prop45
280
     0
102
RTVSPost2010PropOp45
 70
     1
102
RTVSPost2010Prop46
 90
       50
102
RTVSPost2010PropOp46
 70
     1
102
RTVSPost2010Prop47
 90
       50
102
RTVSPost2010PropOp47
 70
     1
102
RTVSPost2010Prop48
 90
       50
102
RTVSPost2010PropOp48
 70
     1
102
RTVSPost2010Prop49
280
     0
102
RTVSPost2010PropOp49
 70
     1
102
RTVSPost2010Prop50
 90
       50
102
RTVSPost2010PropOp50
 70
     1
102
RTVSPost2010Prop51ColorIndex
 90
      256
102
RTVSPost2010Prop51ColorRGB
 90
-16777216
102
RTVSPost2010PropOp51
 70
     0
102
RTVSPost2010Prop52
140
1.0
102
RTVSPost2010PropOp52
 70
     0
102
RTVSPost2010Prop53
 90
        2
102
RTVSPost2010PropOp53
 70
     1
102
RTVSPost2010Prop54
  1
strokes_ogs.tif
102
RTVSPost2010PropOp54
 70
     1
102
RTVSPost2010Prop55
280
     0
102
RTVSPost2010PropOp55
 70
     1
102
RTVSPost2010Prop56
140
1.0
102
RTVSPost2010PropOp56
 70
     1
102
RTVSPost2010Prop57
140
1.0
102
RTVSPost2010PropOp57
 70
     1
102
RTVSPropertyOp0
 70
     1
102
RTVSPropertyOp1
 70
     1
102
RTVSPropertyOp2
 70
     1
102
RTVSPropertyOp3
 70
     1
102
RTVSPropertyOp4
 70
     1
102
RTVSPropertyOp5
 70
     1
102
RTVSPropertyOp6
 70
     1
102
RTVSPropertyOp7
 70
     1
102
RTVSPropertyOp8
 70
     1
102
RTVSPropertyOp9
 70
     1
102
RTVSPropertyOp10
 70
     1
102
RTVSPropertyOp11
 70
     1
102
RTVSPropertyOp12
 70
     1
102
RTVSPropertyOp13
 70
     1
102
RTVSPropertyOp14
 70
     1
102
RTVSPropertyOp15
 70
     1
102
RTVSPropertyOp16
 70
     1
102
RTVSPropertyOp17
 70
     1
102
RTVSPropertyOp18
 70
     1
102
RTVSPropertyOp19
 70
     1
102
RTVSPropertyOp20
 70
     1
102
RTVSPropertyOp21
 70
     1
102
RTVSPropertyOp22
 70
     1
102
RTVSPropertyOp23
 70
     1
102
RTVSPropertyOp24
 70
     1
102
RTVSPropertyOp25
 70
     1
102
RTVSPropertyOp26
 70
     1
102
RTVSPropertyOp27
 70
     1
102
RTVSPropertyOp28
 70
     1
102
RTVSPropertyOp29
 70
     1
102
RTVSPropertyOp30
 70
     1
102
RTVSPropertyOp31
 70
     1
102
RTVSPropertyOp32
 70
     1
102
RTVSPropertyOp33
 70
     1
102
RTVSPropertyOp34
 70
     1
102
RTVSPropertyOp35
 70
     1
102
RTVSPropertyOp36
 70
     1
102
RTVSPropertyOp37
 70
     1
102
RTVSPropertyOp38
 70
     1
102
RTVSPropertyOp39
 70
     1
102
RTVSPropertyOp40
 70
     1
102
RTVSPropertyOp41
 70
     1
102
RTVSPropertyOp42
 70
     1
102
RTVSPropertyOp43
 70
     1
102
RTVSPropertyOp44
 70
     1
102
RTVSPropertyOp45
 70
     1
102
RTVSPropertyOp46
 70
     1
102
RTVSPropertyOp47
 70
     1
102
RTVSPropertyOp48
 70
     1
102
RTVSPropertyOp49
 70
     1
102
RTVSPropertyOp50
 70
     1
102
RTVSPropertyOp51
 70
     0
102
RTVSPropertyOp52
 70
     0
102
RTVSPropertyOp53
 70
     1
102
RTVSPropertyOp54
 70
     1
102
RTVSPropertyOp55
 70
     1
102
RTVSPropertyOp56
 70
     1
102
RTVSPropertyOp57
 70
     1
102
RTVSPropertyOp58
 70
     1
102
RTVSPropertyOp59
 70
     1
102
RTVSPropertyOp60
 70
     1
102
RTVSPropertyOp61
 70
     1
102
RTVSPropertyOp62
 70
     1
  0
XRECORD
  5
423
102
{ACAD_REACTORS
330
422
102
}
330
422
100
AcDbXrecord
280
     1
102
RTVSPost2010Prop28
280
     0
102
RTVSPost2010PropOp28
 70
     1
102
RTVSPost2010Prop29
280
     1
102
RTVSPost2010PropOp29
 70
     1
102
RTVSPost2010Prop30
280
     1
102
RTVSPost2010PropOp30
 70
     1
102
RTVSPost2010Prop31
280
     0
102
RTVSPost2010PropOp31
 70
     1
102
RTVSPost2010Prop32
280
     0
102
RTVSPost2010PropOp32
 70
     1
102
RTVSPost2010Prop33
280
     0
102
RTVSPost2010PropOp33
 70
     1
102
RTVSPost2010Prop34
280
     0
102
RTVSPost2010PropOp34
 70
     1
102
RTVSPost2010Prop35
280
     0
102
RTVSPost2010PropOp35
 70
     1
102
RTVSPost2010Prop36
280
     0
102
RTVSPost2010PropOp36
 70
     1
102
RTVSPost2010Prop37
 90
       50
102
RTVSPost2010PropOp37
 70
     1
102
RTVSPost2010Prop38
140
0.0
102
RTVSPost2010PropOp38
 70
     1
102
RTVSPost2010Prop39
140
1.0
102
RTVSPost2010PropOp39
 70
     1
102
RTVSPost2010Prop40
 90
        0
102
RTVSPost2010PropOp40
 70
     1
102
RTVSPost2010Prop41ColorIndex
 90
       18
102
RTVSPost2010Prop41ColorRGB
 90
        0
102
RTVSPost2010PropOp41
 70
     1
102
RTVSPost2010Prop42
 90
       50
102
RTVSPost2010PropOp42
 70
     1
102
RTVSPost2010Prop43
 90
        3
102
RTVSPost2010PropOp43
 70
     1
102
RTVSPost2010Prop44ColorIndex
 90
        5
102
RTVSPost2010Prop44ColorRGB
 90
      255
102
RTVSPost2010PropOp44
 70
     1
102
RTVSPost2010Prop45
280
     0
102
RTVSPost2010PropOp45
 70
     1
102
RTVSPost2010Prop46
 90
       50
102
RTVSPost2010PropOp46
 70
     1
102
RTVSPost2010Prop47
 90
       50
102
RTVSPost2010PropOp47
 70
     1
102
RTVSPost2010Prop48
 90
       50
102
RTVSPost2010PropOp48
 70
     1
102
RTVSPost2010Prop49
280
     0
102
RTVSPost2010PropOp49
 70
     1
102
RTVSPost2010Prop50
 90
       50
102
RTVSPost2010PropOp50
 70
     1
102
RTVSPost2010Prop51ColorIndex
 90
      256
102
RTVSPost2010Prop51ColorRGB
 90
-16777216
102
RTVSPost2010PropOp51
 70
     0
102
RTVSPost2010Prop52
140
1.0
102
RTVSPost2010PropOp52
 70
     0
102
RTVSPost2010Prop53
 90
        2
102
RTVSPost2010PropOp53
 70
     1
102
RTVSPost2010Prop54
  1
strokes_ogs.tif
102
RTVSPost2010PropOp54
 70
     1
102
RTVSPost2010Prop55
280
     0
102
RTVSPost2010PropOp55
 70
     1
102
RTVSPost2010Prop56
140
1.0
102
RTVSPost2010PropOp56
 70
     1
102
RTVSPost2010Prop57
140
1.0
102
RTVSPost2010PropOp57
 70
     1
102
RTVSPropertyOp0
 70
     1
102
RTVSPropertyOp1
 70
     1
102
RTVSPropertyOp2
 70
     1
102
RTVSPropertyOp3
 70
     1
102
RTVSPropertyOp4
 70
     1
102
RTVSPropertyOp5
 70
     1
102
RTVSPropertyOp6
 70
     1
102
RTVSPropertyOp7
 70
     1
102
RTVSPropertyOp8
 70
     1
102
RTVSPropertyOp9
 70
     1
102
RTVSPropertyOp10
 70
     1
102
RTVSPropertyOp11
 70
     1
102
RTVSPropertyOp12
 70
     1
102
RTVSPropertyOp13
 70
     1
102
RTVSPropertyOp14
 70
     1
102
RTVSPropertyOp15
 70
     1
102
RTVSPropertyOp16
 70
     1
102
RTVSPropertyOp17
 70
     1
102
RTVSPropertyOp18
 70
     1
102
RTVSPropertyOp19
 70
     1
102
RTVSPropertyOp20
 70
     1
102
RTVSPropertyOp21
 70
     1
102
RTVSPropertyOp22
 70
     1
102
RTVSPropertyOp23
 70
     1
102
RTVSPropertyOp24
 70
     1
102
RTVSPropertyOp25
 70
     1
102
RTVSPropertyOp26
 70
     1
102
RTVSPropertyOp27
 70
     1
102
RTVSPropertyOp28
 70
     1
102
RTVSPropertyOp29
 70
     1
102
RTVSPropertyOp30
 70
     1
102
RTVSPropertyOp31
 70
     1
102
RTVSPropertyOp32
 70
     1
102
RTVSPropertyOp33
 70
     1
102
RTVSPropertyOp34
 70
     1
102
RTVSPropertyOp35
 70
     1
102
RTVSPropertyOp36
 70
     1
102
RTVSPropertyOp37
 70
     1
102
RTVSPropertyOp38
 70
     1
102
RTVSPropertyOp39
 70
     1
102
RTVSPropertyOp40
 70
     1
102
RTVSPropertyOp41
 70
     1
102
RTVSPropertyOp42
 70
     1
102
RTVSPropertyOp43
 70
     1
102
RTVSPropertyOp44
 70
     1
102
RTVSPropertyOp45
 70
     1
102
RTVSPropertyOp46
 70
     1
102
RTVSPropertyOp47
 70
     1
102
RTVSPropertyOp48
 70
     1
102
RTVSPropertyOp49
 70
     1
102
RTVSPropertyOp50
 70
     1
102
RTVSPropertyOp51
 70
     0
102
RTVSPropertyOp52
 70
     0
102
RTVSPropertyOp53
 70
     1
102
RTVSPropertyOp54
 70
     1
102
RTVSPropertyOp55
 70
     1
102
RTVSPropertyOp56
 70
     1
102
RTVSPropertyOp57
 70
     1
102
RTVSPropertyOp58
 70
     1
102
RTVSPropertyOp59
 70
     1
102
RTVSPropertyOp60
 70
     1
102
RTVSPropertyOp61
 70
     1
102
RTVSPropertyOp62
 70
     1
  0
XRECORD
  5
425
102
{ACAD_REACTORS
330
424
102
}
330
424
100
AcDbXrecord
280
     1
102
RTVSPost2010Prop28
280
     0
102
RTVSPost2010PropOp28
 70
     1
102
RTVSPost2010Prop29
280
     1
102
RTVSPost2010PropOp29
 70
     1
102
RTVSPost2010Prop30
280
     1
102
RTVSPost2010PropOp30
 70
     1
102
RTVSPost2010Prop31
280
     0
102
RTVSPost2010PropOp31
 70
     1
102
RTVSPost2010Prop32
280
     0
102
RTVSPost2010PropOp32
 70
     1
102
RTVSPost2010Prop33
280
     0
102
RTVSPost2010PropOp33
 70
     1
102
RTVSPost2010Prop34
280
     0
102
RTVSPost2010PropOp34
 70
     1
102
RTVSPost2010Prop35
280
     0
102
RTVSPost2010PropOp35
 70
     1
102
RTVSPost2010Prop36
280
     0
102
RTVSPost2010PropOp36
 70
     1
102
RTVSPost2010Prop37
 90
       50
102
RTVSPost2010PropOp37
 70
     1
102
RTVSPost2010Prop38
140
0.0
102
RTVSPost2010PropOp38
 70
     1
102
RTVSPost2010Prop39
140
1.0
102
RTVSPost2010PropOp39
 70
     1
102
RTVSPost2010Prop40
 90
        0
102
RTVSPost2010PropOp40
 70
     1
102
RTVSPost2010Prop41ColorIndex
 90
       18
102
RTVSPost2010Prop41ColorRGB
 90
        0
102
RTVSPost2010PropOp41
 70
     1
102
RTVSPost2010Prop42
 90
       50
102
RTVSPost2010PropOp42
 70
     1
102
RTVSPost2010Prop43
 90
        3
102
RTVSPost2010PropOp43
 70
     1
102
RTVSPost2010Prop44ColorIndex
 90
        5
102
RTVSPost2010Prop44ColorRGB
 90
      255
102
RTVSPost2010PropOp44
 70
     1
102
RTVSPost2010Prop45
280
     0
102
RTVSPost2010PropOp45
 70
     1
102
RTVSPost2010Prop46
 90
       50
102
RTVSPost2010PropOp46
 70
     1
102
RTVSPost2010Prop47
 90
       50
102
RTVSPost2010PropOp47
 70
     1
102
RTVSPost2010Prop48
 90
       50
102
RTVSPost2010PropOp48
 70
     1
102
RTVSPost2010Prop49
280
     0
102
RTVSPost2010PropOp49
 70
     1
102
RTVSPost2010Prop50
 90
       50
102
RTVSPost2010PropOp50
 70
     1
102
RTVSPost2010Prop51ColorIndex
 90
      256
102
RTVSPost2010Prop51ColorRGB
 90
-16777216
102
RTVSPost2010PropOp51
 70
     0
102
RTVSPost2010Prop52
140
1.0
102
RTVSPost2010PropOp52
 70
     0
102
RTVSPost2010Prop53
 90
        2
102
RTVSPost2010PropOp53
 70
     1
102
RTVSPost2010Prop54
  1
strokes_ogs.tif
102
RTVSPost2010PropOp54
 70
     1
102
RTVSPost2010Prop55
280
     0
102
RTVSPost2010PropOp55
 70
     1
102
RTVSPost2010Prop56
140
1.0
102
RTVSPost2010PropOp56
 70
     1
102
RTVSPost2010Prop57
140
1.0
102
RTVSPost2010PropOp57
 70
     1
102
RTVSPropertyOp0
 70
     1
102
RTVSPropertyOp1
 70
     1
102
RTVSPropertyOp2
 70
     1
102
RTVSPropertyOp3
 70
     1
102
RTVSPropertyOp4
 70
     1
102
RTVSPropertyOp5
 70
     1
102
RTVSPropertyOp6
 70
     1
102
RTVSPropertyOp7
 70
     1
102
RTVSPropertyOp8
 70
     1
102
RTVSPropertyOp9
 70
     1
102
RTVSPropertyOp10
 70
     1
102
RTVSPropertyOp11
 70
     1
102
RTVSPropertyOp12
 70
     1
102
RTVSPropertyOp13
 70
     1
102
RTVSPropertyOp14
 70
     1
102
RTVSPropertyOp15
 70
     1
102
RTVSPropertyOp16
 70
     1
102
RTVSPropertyOp17
 70
     1
102
RTVSPropertyOp18
 70
     1
102
RTVSPropertyOp19
 70
     1
102
RTVSPropertyOp20
 70
     1
102
RTVSPropertyOp21
 70
     1
102
RTVSPropertyOp22
 70
     1
102
RTVSPropertyOp23
 70
     1
102
RTVSPropertyOp24
 70
     1
102
RTVSPropertyOp25
 70
     1
102
RTVSPropertyOp26
 70
     1
102
RTVSPropertyOp27
 70
     1
102
RTVSPropertyOp28
 70
     1
102
RTVSPropertyOp29
 70
     1
102
RTVSPropertyOp30
 70
     1
102
RTVSPropertyOp31
 70
     1
102
RTVSPropertyOp32
 70
     1
102
RTVSPropertyOp33
 70
     1
102
RTVSPropertyOp34
 70
     1
102
RTVSPropertyOp35
 70
     1
102
RTVSPropertyOp36
 70
     1
102
RTVSPropertyOp37
 70
     1
102
RTVSPropertyOp38
 70
     1
102
RTVSPropertyOp39
 70
     1
102
RTVSPropertyOp40
 70
     1
102
RTVSPropertyOp41
 70
     1
102
RTVSPropertyOp42
 70
     1
102
RTVSPropertyOp43
 70
     1
102
RTVSPropertyOp44
 70
     1
102
RTVSPropertyOp45
 70
     1
102
RTVSPropertyOp46
 70
     1
102
RTVSPropertyOp47
 70
     1
102
RTVSPropertyOp48
 70
     1
102
RTVSPropertyOp49
 70
     1
102
RTVSPropertyOp50
 70
     1
102
RTVSPropertyOp51
 70
     0
102
RTVSPropertyOp52
 70
     0
102
RTVSPropertyOp53
 70
     1
102
RTVSPropertyOp54
 70
     1
102
RTVSPropertyOp55
 70
     1
102
RTVSPropertyOp56
 70
     1
102
RTVSPropertyOp57
 70
     1
102
RTVSPropertyOp58
 70
     1
102
RTVSPropertyOp59
 70
     1
102
RTVSPropertyOp60
 70
     1
102
RTVSPropertyOp61
 70
     1
102
RTVSPropertyOp62
 70
     1
  0
XRECORD
  5
427
102
{ACAD_REACTORS
330
426
102
}
330
426
100
AcDbXrecord
280
     1
102
RTVSPost2010Prop28
280
     0
102
RTVSPost2010PropOp28
 70
     1
102
RTVSPost2010Prop29
280
     1
102
RTVSPost2010PropOp29
 70
     1
102
RTVSPost2010Prop30
280
     1
102
RTVSPost2010PropOp30
 70
     1
102
RTVSPost2010Prop31
280
     0
102
RTVSPost2010PropOp31
 70
     1
102
RTVSPost2010Prop32
280
     0
102
RTVSPost2010PropOp32
 70
     1
102
RTVSPost2010Prop33
280
     0
102
RTVSPost2010PropOp33
 70
     1
102
RTVSPost2010Prop34
280
     0
102
RTVSPost2010PropOp34
 70
     1
102
RTVSPost2010Prop35
280
     0
102
RTVSPost2010PropOp35
 70
     1
102
RTVSPost2010Prop36
280
     0
102
RTVSPost2010PropOp36
 70
     1
102
RTVSPost2010Prop37
 90
       50
102
RTVSPost2010PropOp37
 70
     1
102
RTVSPost2010Prop38
140
0.0
102
RTVSPost2010PropOp38
 70
     1
102
RTVSPost2010Prop39
140
1.0
102
RTVSPost2010PropOp39
 70
     1
102
RTVSPost2010Prop40
 90
        0
102
RTVSPost2010PropOp40
 70
     1
102
RTVSPost2010Prop41ColorIndex
 90
       18
102
RTVSPost2010Prop41ColorRGB
 90
        0
102
RTVSPost2010PropOp41
 70
     1
102
RTVSPost2010Prop42
 90
       50
102
RTVSPost2010PropOp42
 70
     1
102
RTVSPost2010Prop43
 90
        3
102
RTVSPost2010PropOp43
 70
     1
102
RTVSPost2010Prop44ColorIndex
 90
        5
102
RTVSPost2010Prop44ColorRGB
 90
      255
102
RTVSPost2010PropOp44
 70
     1
102
RTVSPost2010Prop45
280
     0
102
RTVSPost2010PropOp45
 70
     1
102
RTVSPost2010Prop46
 90
       50
102
RTVSPost2010PropOp46
 70
     1
102
RTVSPost2010Prop47
 90
       50
102
RTVSPost2010PropOp47
 70
     1
102
RTVSPost2010Prop48
 90
       50
102
RTVSPost2010PropOp48
 70
     1
102
RTVSPost2010Prop49
280
     0
102
RTVSPost2010PropOp49
 70
     1
102
RTVSPost2010Prop50
 90
       50
102
RTVSPost2010PropOp50
 70
     1
102
RTVSPost2010Prop51ColorIndex
 90
      256
102
RTVSPost2010Prop51ColorRGB
 90
-16777216
102
RTVSPost2010PropOp51
 70
     0
102
RTVSPost2010Prop52
140
1.0
102
RTVSPost2010PropOp52
 70
     0
102
RTVSPost2010Prop53
 90
        2
102
RTVSPost2010PropOp53
 70
     1
102
RTVSPost2010Prop54
  1
strokes_ogs.tif
102
RTVSPost2010PropOp54
 70
     1
102
RTVSPost2010Prop55
280
     0
102
RTVSPost2010PropOp55
 70
     1
102
RTVSPost2010Prop56
140
1.0
102
RTVSPost2010PropOp56
 70
     1
102
RTVSPost2010Prop57
140
1.0
102
RTVSPost2010PropOp57
 70
     1
102
RTVSPropertyOp0
 70
     1
102
RTVSPropertyOp1
 70
     1
102
RTVSPropertyOp2
 70
     1
102
RTVSPropertyOp3
 70
     1
102
RTVSPropertyOp4
 70
     1
102
RTVSPropertyOp5
 70
     1
102
RTVSPropertyOp6
 70
     1
102
RTVSPropertyOp7
 70
     1
102
RTVSPropertyOp8
 70
     1
102
RTVSPropertyOp9
 70
     1
102
RTVSPropertyOp10
 70
     1
102
RTVSPropertyOp11
 70
     1
102
RTVSPropertyOp12
 70
     1
102
RTVSPropertyOp13
 70
     1
102
RTVSPropertyOp14
 70
     1
102
RTVSPropertyOp15
 70
     1
102
RTVSPropertyOp16
 70
     1
102
RTVSPropertyOp17
 70
     1
102
RTVSPropertyOp18
 70
     1
102
RTVSPropertyOp19
 70
     1
102
RTVSPropertyOp20
 70
     1
102
RTVSPropertyOp21
 70
     1
102
RTVSPropertyOp22
 70
     1
102
RTVSPropertyOp23
 70
     1
102
RTVSPropertyOp24
 70
     1
102
RTVSPropertyOp25
 70
     1
102
RTVSPropertyOp26
 70
     1
102
RTVSPropertyOp27
 70
     1
102
RTVSPropertyOp28
 70
     1
102
RTVSPropertyOp29
 70
     1
102
RTVSPropertyOp30
 70
     1
102
RTVSPropertyOp31
 70
     1
102
RTVSPropertyOp32
 70
     1
102
RTVSPropertyOp33
 70
     1
102
RTVSPropertyOp34
 70
     1
102
RTVSPropertyOp35
 70
     1
102
RTVSPropertyOp36
 70
     1
102
RTVSPropertyOp37
 70
     1
102
RTVSPropertyOp38
 70
     1
102
RTVSPropertyOp39
 70
     1
102
RTVSPropertyOp40
 70
     1
102
RTVSPropertyOp41
 70
     1
102
RTVSPropertyOp42
 70
     1
102
RTVSPropertyOp43
 70
     1
102
RTVSPropertyOp44
 70
     1
102
RTVSPropertyOp45
 70
     1
102
RTVSPropertyOp46
 70
     1
102
RTVSPropertyOp47
 70
     1
102
RTVSPropertyOp48
 70
     1
102
RTVSPropertyOp49
 70
     1
102
RTVSPropertyOp50
 70
     1
102
RTVSPropertyOp51
 70
     0
102
RTVSPropertyOp52
 70
     0
102
RTVSPropertyOp53
 70
     1
102
RTVSPropertyOp54
 70
     1
102
RTVSPropertyOp55
 70
     1
102
RTVSPropertyOp56
 70
     1
102
RTVSPropertyOp57
 70
     1
102
RTVSPropertyOp58
 70
     1
102
RTVSPropertyOp59
 70
     1
102
RTVSPropertyOp60
 70
     1
102
RTVSPropertyOp61
 70
     1
102
RTVSPropertyOp62
 70
     1
  0
XRECORD
  5
429
102
{ACAD_REACTORS
330
428
102
}
330
428
100
AcDbXrecord
280
     1
102
RTVSPost2010Prop28
280
     0
102
RTVSPost2010PropOp28
 70
     1
102
RTVSPost2010Prop29
280
     1
102
RTVSPost2010PropOp29
 70
     1
102
RTVSPost2010Prop30
280
     1
102
RTVSPost2010PropOp30
 70
     1
102
RTVSPost2010Prop31
280
     0
102
RTVSPost2010PropOp31
 70
     1
102
RTVSPost2010Prop32
280
     0
102
RTVSPost2010PropOp32
 70
     1
102
RTVSPost2010Prop33
280
     0
102
RTVSPost2010PropOp33
 70
     1
102
RTVSPost2010Prop34
280
     0
102
RTVSPost2010PropOp34
 70
     1
102
RTVSPost2010Prop35
280
     0
102
RTVSPost2010PropOp35
 70
     1
102
RTVSPost2010Prop36
280
     0
102
RTVSPost2010PropOp36
 70
     1
102
RTVSPost2010Prop37
 90
       50
102
RTVSPost2010PropOp37
 70
     1
102
RTVSPost2010Prop38
140
0.0
102
RTVSPost2010PropOp38
 70
     1
102
RTVSPost2010Prop39
140
1.0
102
RTVSPost2010PropOp39
 70
     1
102
RTVSPost2010Prop40
 90
        0
102
RTVSPost2010PropOp40
 70
     1
102
RTVSPost2010Prop41ColorIndex
 90
       18
102
RTVSPost2010Prop41ColorRGB
 90
        0
102
RTVSPost2010PropOp41
 70
     1
102
RTVSPost2010Prop42
 90
       50
102
RTVSPost2010PropOp42
 70
     1
102
RTVSPost2010Prop43
 90
        3
102
RTVSPost2010PropOp43
 70
     1
102
RTVSPost2010Prop44ColorIndex
 90
        5
102
RTVSPost2010Prop44ColorRGB
 90
      255
102
RTVSPost2010PropOp44
 70
     1
102
RTVSPost2010Prop45
280
     0
102
RTVSPost2010PropOp45
 70
     1
102
RTVSPost2010Prop46
 90
       50
102
RTVSPost2010PropOp46
 70
     1
102
RTVSPost2010Prop47
 90
       50
102
RTVSPost2010PropOp47
 70
     1
102
RTVSPost2010Prop48
 90
       50
102
RTVSPost2010PropOp48
 70
     1
102
RTVSPost2010Prop49
280
     0
102
RTVSPost2010PropOp49
 70
     1
102
RTVSPost2010Prop50
 90
       50
102
RTVSPost2010PropOp50
 70
     1
102
RTVSPost2010Prop51ColorIndex
 90
      256
102
RTVSPost2010Prop51ColorRGB
 90
-16777216
102
RTVSPost2010PropOp51
 70
     0
102
RTVSPost2010Prop52
140
1.0
102
RTVSPost2010PropOp52
 70
     0
102
RTVSPost2010Prop53
 90
        2
102
RTVSPost2010PropOp53
 70
     1
102
RTVSPost2010Prop54
  1
strokes_ogs.tif
102
RTVSPost2010PropOp54
 70
     1
102
RTVSPost2010Prop55
280
     0
102
RTVSPost2010PropOp55
 70
     1
102
RTVSPost2010Prop56
140
1.0
102
RTVSPost2010PropOp56
 70
     1
102
RTVSPost2010Prop57
140
1.0
102
RTVSPost2010PropOp57
 70
     1
102
RTVSPropertyOp0
 70
     1
102
RTVSPropertyOp1
 70
     1
102
RTVSPropertyOp2
 70
     1
102
RTVSPropertyOp3
 70
     1
102
RTVSPropertyOp4
 70
     1
102
RTVSPropertyOp5
 70
     1
102
RTVSPropertyOp6
 70
     1
102
RTVSPropertyOp7
 70
     1
102
RTVSPropertyOp8
 70
     1
102
RTVSPropertyOp9
 70
     1
102
RTVSPropertyOp10
 70
     1
102
RTVSPropertyOp11
 70
     1
102
RTVSPropertyOp12
 70
     1
102
RTVSPropertyOp13
 70
     1
102
RTVSPropertyOp14
 70
     1
102
RTVSPropertyOp15
 70
     1
102
RTVSPropertyOp16
 70
     1
102
RTVSPropertyOp17
 70
     1
102
RTVSPropertyOp18
 70
     1
102
RTVSPropertyOp19
 70
     1
102
RTVSPropertyOp20
 70
     1
102
RTVSPropertyOp21
 70
     1
102
RTVSPropertyOp22
 70
     1
102
RTVSPropertyOp23
 70
     1
102
RTVSPropertyOp24
 70
     1
102
RTVSPropertyOp25
 70
     1
102
RTVSPropertyOp26
 70
     1
102
RTVSPropertyOp27
 70
     1
102
RTVSPropertyOp28
 70
     1
102
RTVSPropertyOp29
 70
     1
102
RTVSPropertyOp30
 70
     1
102
RTVSPropertyOp31
 70
     1
102
RTVSPropertyOp32
 70
     1
102
RTVSPropertyOp33
 70
     1
102
RTVSPropertyOp34
 70
     1
102
RTVSPropertyOp35
 70
     1
102
RTVSPropertyOp36
 70
     1
102
RTVSPropertyOp37
 70
     1
102
RTVSPropertyOp38
 70
     1
102
RTVSPropertyOp39
 70
     1
102
RTVSPropertyOp40
 70
     1
102
RTVSPropertyOp41
 70
     1
102
RTVSPropertyOp42
 70
     1
102
RTVSPropertyOp43
 70
     1
102
RTVSPropertyOp44
 70
     1
102
RTVSPropertyOp45
 70
     1
102
RTVSPropertyOp46
 70
     1
102
RTVSPropertyOp47
 70
     1
102
RTVSPropertyOp48
 70
     1
102
RTVSPropertyOp49
 70
     1
102
RTVSPropertyOp50
 70
     1
102
RTVSPropertyOp51
 70
     0
102
RTVSPropertyOp52
 70
     0
102
RTVSPropertyOp53
 70
     1
102
RTVSPropertyOp54
 70
     1
102
RTVSPropertyOp55
 70
     1
102
RTVSPropertyOp56
 70
     1
102
RTVSPropertyOp57
 70
     1
102
RTVSPropertyOp58
 70
     1
102
RTVSPropertyOp59
 70
     1
102
RTVSPropertyOp60
 70
     1
102
RTVSPropertyOp61
 70
     1
102
RTVSPropertyOp62
 70
     1
  0
XRECORD
  5
431
102
{ACAD_REACTORS
330
430
102
}
330
430
100
AcDbXrecord
280
     1
102
RTVSPost2010Prop28
280
     0
102
RTVSPost2010PropOp28
 70
     1
102
RTVSPost2010Prop29
280
     1
102
RTVSPost2010PropOp29
 70
     1
102
RTVSPost2010Prop30
280
     1
102
RTVSPost2010PropOp30
 70
     1
102
RTVSPost2010Prop31
280
     0
102
RTVSPost2010PropOp31
 70
     1
102
RTVSPost2010Prop32
280
     0
102
RTVSPost2010PropOp32
 70
     1
102
RTVSPost2010Prop33
280
     0
102
RTVSPost2010PropOp33
 70
     1
102
RTVSPost2010Prop34
280
     0
102
RTVSPost2010PropOp34
 70
     1
102
RTVSPost2010Prop35
280
     0
102
RTVSPost2010PropOp35
 70
     1
102
RTVSPost2010Prop36
280
     0
102
RTVSPost2010PropOp36
 70
     1
102
RTVSPost2010Prop37
 90
       50
102
RTVSPost2010PropOp37
 70
     1
102
RTVSPost2010Prop38
140
0.0
102
RTVSPost2010PropOp38
 70
     1
102
RTVSPost2010Prop39
140
1.0
102
RTVSPost2010PropOp39
 70
     1
102
RTVSPost2010Prop40
 90
        0
102
RTVSPost2010PropOp40
 70
     1
102
RTVSPost2010Prop41ColorIndex
 90
       18
102
RTVSPost2010Prop41ColorRGB
 90
        0
102
RTVSPost2010PropOp41
 70
     1
102
RTVSPost2010Prop42
 90
       50
102
RTVSPost2010PropOp42
 70
     1
102
RTVSPost2010Prop43
 90
        3
102
RTVSPost2010PropOp43
 70
     1
102
RTVSPost2010Prop44ColorIndex
 90
        5
102
RTVSPost2010Prop44ColorRGB
 90
      255
102
RTVSPost2010PropOp44
 70
     1
102
RTVSPost2010Prop45
280
     0
102
RTVSPost2010PropOp45
 70
     1
102
RTVSPost2010Prop46
 90
       50
102
RTVSPost2010PropOp46
 70
     1
102
RTVSPost2010Prop47
 90
       50
102
RTVSPost2010PropOp47
 70
     1
102
RTVSPost2010Prop48
 90
       50
102
RTVSPost2010PropOp48
 70
     1
102
RTVSPost2010Prop49
280
     0
102
RTVSPost2010PropOp49
 70
     1
102
RTVSPost2010Prop50
 90
       50
102
RTVSPost2010PropOp50
 70
     1
102
RTVSPost2010Prop51ColorIndex
 90
      256
102
RTVSPost2010Prop51ColorRGB
 90
-16777216
102
RTVSPost2010PropOp51
 70
     0
102
RTVSPost2010Prop52
140
1.0
102
RTVSPost2010PropOp52
 70
     0
102
RTVSPost2010Prop53
 90
        2
102
RTVSPost2010PropOp53
 70
     1
102
RTVSPost2010Prop54
  1
strokes_ogs.tif
102
RTVSPost2010PropOp54
 70
     1
102
RTVSPost2010Prop55
280
     0
102
RTVSPost2010PropOp55
 70
     1
102
RTVSPost2010Prop56
140
1.0
102
RTVSPost2010PropOp56
 70
     1
102
RTVSPost2010Prop57
140
1.0
102
RTVSPost2010PropOp57
 70
     1
102
RTVSPropertyOp0
 70
     1
102
RTVSPropertyOp1
 70
     1
102
RTVSPropertyOp2
 70
     1
102
RTVSPropertyOp3
 70
     1
102
RTVSPropertyOp4
 70
     1
102
RTVSPropertyOp5
 70
     1
102
RTVSPropertyOp6
 70
     1
102
RTVSPropertyOp7
 70
     1
102
RTVSPropertyOp8
 70
     1
102
RTVSPropertyOp9
 70
     1
102
RTVSPropertyOp10
 70
     1
102
RTVSPropertyOp11
 70
     1
102
RTVSPropertyOp12
 70
     1
102
RTVSPropertyOp13
 70
     1
102
RTVSPropertyOp14
 70
     1
102
RTVSPropertyOp15
 70
     1
102
RTVSPropertyOp16
 70
     1
102
RTVSPropertyOp17
 70
     1
102
RTVSPropertyOp18
 70
     1
102
RTVSPropertyOp19
 70
     1
102
RTVSPropertyOp20
 70
     1
102
RTVSPropertyOp21
 70
     1
102
RTVSPropertyOp22
 70
     1
102
RTVSPropertyOp23
 70
     1
102
RTVSPropertyOp24
 70
     1
102
RTVSPropertyOp25
 70
     1
102
RTVSPropertyOp26
 70
     1
102
RTVSPropertyOp27
 70
     1
102
RTVSPropertyOp28
 70
     1
102
RTVSPropertyOp29
 70
     1
102
RTVSPropertyOp30
 70
     1
102
RTVSPropertyOp31
 70
     1
102
RTVSPropertyOp32
 70
     1
102
RTVSPropertyOp33
 70
     1
102
RTVSPropertyOp34
 70
     1
102
RTVSPropertyOp35
 70
     1
102
RTVSPropertyOp36
 70
     1
102
RTVSPropertyOp37
 70
     1
102
RTVSPropertyOp38
 70
     1
102
RTVSPropertyOp39
 70
     1
102
RTVSPropertyOp40
 70
     1
102
RTVSPropertyOp41
 70
     1
102
RTVSPropertyOp42
 70
     1
102
RTVSPropertyOp43
 70
     1
102
RTVSPropertyOp44
 70
     1
102
RTVSPropertyOp45
 70
     1
102
RTVSPropertyOp46
 70
     1
102
RTVSPropertyOp47
 70
     1
102
RTVSPropertyOp48
 70
     1
102
RTVSPropertyOp49
 70
     1
102
RTVSPropertyOp50
 70
     1
102
RTVSPropertyOp51
 70
     0
102
RTVSPropertyOp52
 70
     0
102
RTVSPropertyOp53
 70
     1
102
RTVSPropertyOp54
 70
     1
102
RTVSPropertyOp55
 70
     1
102
RTVSPropertyOp56
 70
     1
102
RTVSPropertyOp57
 70
     1
102
RTVSPropertyOp58
 70
     1
102
RTVSPropertyOp59
 70
     1
102
RTVSPropertyOp60
 70
     1
102
RTVSPropertyOp61
 70
     1
102
RTVSPropertyOp62
 70
     1
  0
XRECORD
  5
44D
102
{ACAD_REACTORS
330
44C
102
}
330
44C
100
AcDbXrecord
280
     1
102
RTVSPost2010Prop28
280
     0
102
RTVSPost2010PropOp28
 70
     0
102
RTVSPost2010Prop29
280
     1
102
RTVSPost2010PropOp29
 70
     0
102
RTVSPost2010Prop30
280
     1
102
RTVSPost2010PropOp30
 70
     0
102
RTVSPost2010Prop31
280
     0
102
RTVSPost2010PropOp31
 70
     0
102
RTVSPost2010Prop32
280
     0
102
RTVSPost2010PropOp32
 70
     0
102
RTVSPost2010Prop33
280
     0
102
RTVSPost2010PropOp33
 70
     0
102
RTVSPost2010Prop34
280
     0
102
RTVSPost2010PropOp34
 70
     0
102
RTVSPost2010Prop35
280
     0
102
RTVSPost2010PropOp35
 70
     0
102
RTVSPost2010Prop36
280
     0
102
RTVSPost2010PropOp36
 70
     0
102
RTVSPost2010Prop37
 90
       50
102
RTVSPost2010PropOp37
 70
     0
102
RTVSPost2010Prop38
140
0.0
102
RTVSPost2010PropOp38
 70
     0
102
RTVSPost2010Prop39
140
1.0
102
RTVSPost2010PropOp39
 70
     0
102
RTVSPost2010Prop40
 90
        0
102
RTVSPost2010PropOp40
 70
     0
102
RTVSPost2010Prop41ColorIndex
 90
       18
102
RTVSPost2010Prop41ColorRGB
 90
        0
102
RTVSPost2010PropOp41
 70
     0
102
RTVSPost2010Prop42
 90
       50
102
RTVSPost2010PropOp42
 70
     0
102
RTVSPost2010Prop43
 90
        3
102
RTVSPost2010PropOp43
 70
     0
102
RTVSPost2010Prop44ColorIndex
 90
        5
102
RTVSPost2010Prop44ColorRGB
 90
      255
102
RTVSPost2010PropOp44
 70
     0
102
RTVSPost2010Prop45
280
     0
102
RTVSPost2010PropOp45
 70
     0
102
RTVSPost2010Prop46
 90
       50
102
RTVSPost2010PropOp46
 70
     0
102
RTVSPost2010Prop47
 90
       50
102
RTVSPost2010PropOp47
 70
     0
102
RTVSPost2010Prop48
 90
       50
102
RTVSPost2010PropOp48
 70
     0
102
RTVSPost2010Prop49
280
     0
102
RTVSPost2010PropOp49
 70
     0
102
RTVSPost2010Prop50
 90
       50
102
RTVSPost2010PropOp50
 70
     0
102
RTVSPost2010Prop51ColorIndex
 90
      256
102
RTVSPost2010Prop51ColorRGB
 90
-16777216
102
RTVSPost2010PropOp51
 70
     0
102
RTVSPost2010Prop52
140
1.0
102
RTVSPost2010PropOp52
 70
     0
102
RTVSPost2010Prop53
 90
        2
102
RTVSPost2010PropOp53
 70
     0
102
RTVSPost2010Prop54
  1
strokes_ogs.tif
102
RTVSPost2010PropOp54
 70
     0
102
RTVSPost2010Prop55
280
     0
102
RTVSPost2010PropOp55
 70
     0
102
RTVSPost2010Prop56
140
1.0
102
RTVSPost2010PropOp56
 70
     0
102
RTVSPost2010Prop57
140
1.0
102
RTVSPost2010PropOp57
 70
     0
102
RTVSPropertyOp0
 70
     0
102
RTVSPropertyOp1
 70
     0
102
RTVSPropertyOp2
 70
     0
102
RTVSPropertyOp3
 70
     0
102
RTVSPropertyOp4
 70
     0
102
RTVSPropertyOp5
 70
     0
102
RTVSPropertyOp6
 70
     0
102
RTVSPropertyOp7
 70
     0
102
RTVSPropertyOp8
 70
     0
102
RTVSPropertyOp9
 70
     0
102
RTVSPropertyOp10
 70
     0
102
RTVSPropertyOp11
 70
     0
102
RTVSPropertyOp12
 70
     0
102
RTVSPropertyOp13
 70
     0
102
RTVSPropertyOp14
 70
     2
102
RTVSPropertyOp15
 70
     0
102
RTVSPropertyOp16
 70
     0
102
RTVSPropertyOp17
 70
     0
102
RTVSPropertyOp18
 70
     0
102
RTVSPropertyOp19
 70
     0
102
RTVSPropertyOp20
 70
     0
102
RTVSPropertyOp21
 70
     0
102
RTVSPropertyOp22
 70
     0
102
RTVSPropertyOp23
 70
     0
102
RTVSPropertyOp24
 70
     0
102
RTVSPropertyOp25
 70
     0
102
RTVSPropertyOp26
 70
     0
102
RTVSPropertyOp27
 70
     0
102
RTVSPropertyOp28
 70
     0
102
RTVSPropertyOp29
 70
     0
102
RTVSPropertyOp30
 70
     0
102
RTVSPropertyOp31
 70
     0
102
RTVSPropertyOp32
 70
     0
102
RTVSPropertyOp33
 70
     0
102
RTVSPropertyOp34
 70
     0
102
RTVSPropertyOp35
 70
     0
102
RTVSPropertyOp36
 70
     0
102
RTVSPropertyOp37
 70
     0
102
RTVSPropertyOp38
 70
     0
102
RTVSPropertyOp39
 70
     0
102
RTVSPropertyOp40
 70
     0
102
RTVSPropertyOp41
 70
     0
102
RTVSPropertyOp42
 70
     0
102
RTVSPropertyOp43
 70
     0
102
RTVSPropertyOp44
 70
     0
102
RTVSPropertyOp45
 70
     0
102
RTVSPropertyOp46
 70
     0
102
RTVSPropertyOp47
 70
     0
102
RTVSPropertyOp48
 70
     0
102
RTVSPropertyOp49
 70
     0
102
RTVSPropertyOp50
 70
     0
102
RTVSPropertyOp51
 70
     0
102
RTVSPropertyOp52
 70
     0
102
RTVSPropertyOp53
 70
     0
102
RTVSPropertyOp54
 70
     0
102
RTVSPropertyOp55
 70
     0
102
RTVSPropertyOp56
 70
     0
102
RTVSPropertyOp57
 70
     0
102
RTVSPropertyOp58
 70
     0
102
RTVSPropertyOp59
 70
     0
102
RTVSPropertyOp60
 70
     0
102
RTVSPropertyOp61
 70
     0
102
RTVSPropertyOp62
 70
     0
  0
XRECORD
  5
43D
102
{ACAD_REACTORS
330
43C
102
}
330
43C
100
AcDbXrecord
280
     1
102
RTVSPost2010Prop28
280
     0
102
RTVSPost2010PropOp28
 70
     1
102
RTVSPost2010Prop29
280
     1
102
RTVSPost2010PropOp29
 70
     1
102
RTVSPost2010Prop30
280
     1
102
RTVSPost2010PropOp30
 70
     1
102
RTVSPost2010Prop31
280
     0
102
RTVSPost2010PropOp31
 70
     1
102
RTVSPost2010Prop32
280
     0
102
RTVSPost2010PropOp32
 70
     1
102
RTVSPost2010Prop33
280
     0
102
RTVSPost2010PropOp33
 70
     1
102
RTVSPost2010Prop34
280
     0
102
RTVSPost2010PropOp34
 70
     1
102
RTVSPost2010Prop35
280
     0
102
RTVSPost2010PropOp35
 70
     1
102
RTVSPost2010Prop36
280
     0
102
RTVSPost2010PropOp36
 70
     1
102
RTVSPost2010Prop37
 90
       50
102
RTVSPost2010PropOp37
 70
     1
102
RTVSPost2010Prop38
140
0.0
102
RTVSPost2010PropOp38
 70
     1
102
RTVSPost2010Prop39
140
1.0
102
RTVSPost2010PropOp39
 70
     1
102
RTVSPost2010Prop40
 90
        0
102
RTVSPost2010PropOp40
 70
     1
102
RTVSPost2010Prop41ColorIndex
 90
       18
102
RTVSPost2010Prop41ColorRGB
 90
        0
102
RTVSPost2010PropOp41
 70
     1
102
RTVSPost2010Prop42
 90
       50
102
RTVSPost2010PropOp42
 70
     1
102
RTVSPost2010Prop43
 90
        3
102
RTVSPost2010PropOp43
 70
     1
102
RTVSPost2010Prop44ColorIndex
 90
        5
102
RTVSPost2010Prop44ColorRGB
 90
      255
102
RTVSPost2010PropOp44
 70
     1
102
RTVSPost2010Prop45
280
     0
102
RTVSPost2010PropOp45
 70
     1
102
RTVSPost2010Prop46
 90
       50
102
RTVSPost2010PropOp46
 70
     1
102
RTVSPost2010Prop47
 90
       50
102
RTVSPost2010PropOp47
 70
     1
102
RTVSPost2010Prop48
 90
       50
102
RTVSPost2010PropOp48
 70
     1
102
RTVSPost2010Prop49
280
     0
102
RTVSPost2010PropOp49
 70
     1
102
RTVSPost2010Prop50
 90
       50
102
RTVSPost2010PropOp50
 70
     1
102
RTVSPost2010Prop51ColorIndex
 90
      256
102
RTVSPost2010Prop51ColorRGB
 90
-16777216
102
RTVSPost2010PropOp51
 70
     0
102
RTVSPost2010Prop52
140
1.0
102
RTVSPost2010PropOp52
 70
     0
102
RTVSPost2010Prop53
 90
        2
102
RTVSPost2010PropOp53
 70
     1
102
RTVSPost2010Prop54
  1
strokes_ogs.tif
102
RTVSPost2010PropOp54
 70
     1
102
RTVSPost2010Prop55
280
     0
102
RTVSPost2010PropOp55
 70
     1
102
RTVSPost2010Prop56
140
1.0
102
RTVSPost2010PropOp56
 70
     1
102
RTVSPost2010Prop57
140
1.0
102
RTVSPost2010PropOp57
 70
     1
102
RTVSPropertyOp0
 70
     1
102
RTVSPropertyOp1
 70
     1
102
RTVSPropertyOp2
 70
     1
102
RTVSPropertyOp3
 70
     1
102
RTVSPropertyOp4
 70
     1
102
RTVSPropertyOp5
 70
     1
102
RTVSPropertyOp6
 70
     1
102
RTVSPropertyOp7
 70
     1
102
RTVSPropertyOp8
 70
     1
102
RTVSPropertyOp9
 70
     1
102
RTVSPropertyOp10
 70
     1
102
RTVSPropertyOp11
 70
     1
102
RTVSPropertyOp12
 70
     1
102
RTVSPropertyOp13
 70
     1
102
RTVSPropertyOp14
 70
     1
102
RTVSPropertyOp15
 70
     1
102
RTVSPropertyOp16
 70
     1
102
RTVSPropertyOp17
 70
     1
102
RTVSPropertyOp18
 70
     1
102
RTVSPropertyOp19
 70
     1
102
RTVSPropertyOp20
 70
     1
102
RTVSPropertyOp21
 70
     1
102
RTVSPropertyOp22
 70
     1
102
RTVSPropertyOp23
 70
     1
102
RTVSPropertyOp24
 70
     1
102
RTVSPropertyOp25
 70
     1
102
RTVSPropertyOp26
 70
     1
102
RTVSPropertyOp27
 70
     1
102
RTVSPropertyOp28
 70
     1
102
RTVSPropertyOp29
 70
     1
102
RTVSPropertyOp30
 70
     1
102
RTVSPropertyOp31
 70
     1
102
RTVSPropertyOp32
 70
     1
102
RTVSPropertyOp33
 70
     1
102
RTVSPropertyOp34
 70
     1
102
RTVSPropertyOp35
 70
     1
102
RTVSPropertyOp36
 70
     1
102
RTVSPropertyOp37
 70
     1
102
RTVSPropertyOp38
 70
     1
102
RTVSPropertyOp39
 70
     1
102
RTVSPropertyOp40
 70
     1
102
RTVSPropertyOp41
 70
     1
102
RTVSPropertyOp42
 70
     1
102
RTVSPropertyOp43
 70
     1
102
RTVSPropertyOp44
 70
     1
102
RTVSPropertyOp45
 70
     1
102
RTVSPropertyOp46
 70
     1
102
RTVSPropertyOp47
 70
     1
102
RTVSPropertyOp48
 70
     1
102
RTVSPropertyOp49
 70
     1
102
RTVSPropertyOp50
 70
     1
102
RTVSPropertyOp51
 70
     0
102
RTVSPropertyOp52
 70
     0
102
RTVSPropertyOp53
 70
     1
102
RTVSPropertyOp54
 70
     1
102
RTVSPropertyOp55
 70
     1
102
RTVSPropertyOp56
 70
     1
102
RTVSPropertyOp57
 70
     1
102
RTVSPropertyOp58
 70
     1
102
RTVSPropertyOp59
 70
     1
102
RTVSPropertyOp60
 70
     1
102
RTVSPropertyOp61
 70
     1
102
RTVSPropertyOp62
 70
     1
  0
XRECORD
  5
44F
102
{ACAD_REACTORS
330
44E
102
}
330
44E
100
AcDbXrecord
280
     1
102
RTVSPost2010Prop28
280
     0
102
RTVSPost2010PropOp28
 70
     0
102
RTVSPost2010Prop29
280
     1
102
RTVSPost2010PropOp29
 70
     0
102
RTVSPost2010Prop30
280
     1
102
RTVSPost2010PropOp30
 70
     0
102
RTVSPost2010Prop31
280
     0
102
RTVSPost2010PropOp31
 70
     0
102
RTVSPost2010Prop32
280
     0
102
RTVSPost2010PropOp32
 70
     0
102
RTVSPost2010Prop33
280
     0
102
RTVSPost2010PropOp33
 70
     0
102
RTVSPost2010Prop34
280
     0
102
RTVSPost2010PropOp34
 70
     0
102
RTVSPost2010Prop35
280
     0
102
RTVSPost2010PropOp35
 70
     0
102
RTVSPost2010Prop36
280
     0
102
RTVSPost2010PropOp36
 70
     0
102
RTVSPost2010Prop37
 90
       50
102
RTVSPost2010PropOp37
 70
     0
102
RTVSPost2010Prop38
140
0.0
102
RTVSPost2010PropOp38
 70
     0
102
RTVSPost2010Prop39
140
1.0
102
RTVSPost2010PropOp39
 70
     0
102
RTVSPost2010Prop40
 90
        0
102
RTVSPost2010PropOp40
 70
     0
102
RTVSPost2010Prop41ColorIndex
 90
       18
102
RTVSPost2010Prop41ColorRGB
 90
        0
102
RTVSPost2010PropOp41
 70
     0
102
RTVSPost2010Prop42
 90
       50
102
RTVSPost2010PropOp42
 70
     0
102
RTVSPost2010Prop43
 90
        3
102
RTVSPost2010PropOp43
 70
     0
102
RTVSPost2010Prop44ColorIndex
 90
        5
102
RTVSPost2010Prop44ColorRGB
 90
      255
102
RTVSPost2010PropOp44
 70
     0
102
RTVSPost2010Prop45
280
     0
102
RTVSPost2010PropOp45
 70
     0
102
RTVSPost2010Prop46
 90
       50
102
RTVSPost2010PropOp46
 70
     0
102
RTVSPost2010Prop47
 90
       50
102
RTVSPost2010PropOp47
 70
     0
102
RTVSPost2010Prop48
 90
       50
102
RTVSPost2010PropOp48
 70
     0
102
RTVSPost2010Prop49
280
     0
102
RTVSPost2010PropOp49
 70
     0
102
RTVSPost2010Prop50
 90
       50
102
RTVSPost2010PropOp50
 70
     0
102
RTVSPost2010Prop51ColorIndex
 90
      256
102
RTVSPost2010Prop51ColorRGB
 90
-16777216
102
RTVSPost2010PropOp51
 70
     0
102
RTVSPost2010Prop52
140
1.0
102
RTVSPost2010PropOp52
 70
     0
102
RTVSPost2010Prop53
 90
        2
102
RTVSPost2010PropOp53
 70
     0
102
RTVSPost2010Prop54
  1
strokes_ogs.tif
102
RTVSPost2010PropOp54
 70
     0
102
RTVSPost2010Prop55
280
     0
102
RTVSPost2010PropOp55
 70
     0
102
RTVSPost2010Prop56
140
1.0
102
RTVSPost2010PropOp56
 70
     0
102
RTVSPost2010Prop57
140
1.0
102
RTVSPost2010PropOp57
 70
     0
102
RTVSPropertyOp0
 70
     0
102
RTVSPropertyOp1
 70
     0
102
RTVSPropertyOp2
 70
     0
102
RTVSPropertyOp3
 70
     0
102
RTVSPropertyOp4
 70
     0
102
RTVSPropertyOp5
 70
     0
102
RTVSPropertyOp6
 70
     0
102
RTVSPropertyOp7
 70
     0
102
RTVSPropertyOp8
 70
     0
102
RTVSPropertyOp9
 70
     0
102
RTVSPropertyOp10
 70
     0
102
RTVSPropertyOp11
 70
     0
102
RTVSPropertyOp12
 70
     0
102
RTVSPropertyOp13
 70
     0
102
RTVSPropertyOp14
 70
     2
102
RTVSPropertyOp15
 70
     0
102
RTVSPropertyOp16
 70
     0
102
RTVSPropertyOp17
 70
     0
102
RTVSPropertyOp18
 70
     0
102
RTVSPropertyOp19
 70
     0
102
RTVSPropertyOp20
 70
     0
102
RTVSPropertyOp21
 70
     0
102
RTVSPropertyOp22
 70
     0
102
RTVSPropertyOp23
 70
     0
102
RTVSPropertyOp24
 70
     0
102
RTVSPropertyOp25
 70
     0
102
RTVSPropertyOp26
 70
     0
102
RTVSPropertyOp27
 70
     0
102
RTVSPropertyOp28
 70
     0
102
RTVSPropertyOp29
 70
     0
102
RTVSPropertyOp30
 70
     0
102
RTVSPropertyOp31
 70
     0
102
RTVSPropertyOp32
 70
     0
102
RTVSPropertyOp33
 70
     0
102
RTVSPropertyOp34
 70
     0
102
RTVSPropertyOp35
 70
     0
102
RTVSPropertyOp36
 70
     0
102
RTVSPropertyOp37
 70
     0
102
RTVSPropertyOp38
 70
     0
102
RTVSPropertyOp39
 70
     0
102
RTVSPropertyOp40
 70
     0
102
RTVSPropertyOp41
 70
     0
102
RTVSPropertyOp42
 70
     0
102
RTVSPropertyOp43
 70
     0
102
RTVSPropertyOp44
 70
     0
102
RTVSPropertyOp45
 70
     0
102
RTVSPropertyOp46
 70
     0
102
RTVSPropertyOp47
 70
     0
102
RTVSPropertyOp48
 70
     0
102
RTVSPropertyOp49
 70
     0
102
RTVSPropertyOp50
 70
     0
102
RTVSPropertyOp51
 70
     0
102
RTVSPropertyOp52
 70
     0
102
RTVSPropertyOp53
 70
     0
102
RTVSPropertyOp54
 70
     0
102
RTVSPropertyOp55
 70
     0
102
RTVSPropertyOp56
 70
     0
102
RTVSPropertyOp57
 70
     0
102
RTVSPropertyOp58
 70
     0
102
RTVSPropertyOp59
 70
     0
102
RTVSPropertyOp60
 70
     0
102
RTVSPropertyOp61
 70
     0
102
RTVSPropertyOp62
 70
     0
  0
XRECORD
  5
435
102
{ACAD_REACTORS
330
434
102
}
330
434
100
AcDbXrecord
280
     1
102
RTVSPost2010Prop28
280
     0
102
RTVSPost2010PropOp28
 70
     1
102
RTVSPost2010Prop29
280
     1
102
RTVSPost2010PropOp29
 70
     1
102
RTVSPost2010Prop30
280
     1
102
RTVSPost2010PropOp30
 70
     1
102
RTVSPost2010Prop31
280
     0
102
RTVSPost2010PropOp31
 70
     1
102
RTVSPost2010Prop32
280
     0
102
RTVSPost2010PropOp32
 70
     1
102
RTVSPost2010Prop33
280
     0
102
RTVSPost2010PropOp33
 70
     1
102
RTVSPost2010Prop34
280
     0
102
RTVSPost2010PropOp34
 70
     1
102
RTVSPost2010Prop35
280
     0
102
RTVSPost2010PropOp35
 70
     1
102
RTVSPost2010Prop36
280
     0
102
RTVSPost2010PropOp36
 70
     1
102
RTVSPost2010Prop37
 90
       50
102
RTVSPost2010PropOp37
 70
     1
102
RTVSPost2010Prop38
140
0.0
102
RTVSPost2010PropOp38
 70
     1
102
RTVSPost2010Prop39
140
1.0
102
RTVSPost2010PropOp39
 70
     1
102
RTVSPost2010Prop40
 90
        0
102
RTVSPost2010PropOp40
 70
     1
102
RTVSPost2010Prop41ColorIndex
 90
       18
102
RTVSPost2010Prop41ColorRGB
 90
        0
102
RTVSPost2010PropOp41
 70
     1
102
RTVSPost2010Prop42
 90
       50
102
RTVSPost2010PropOp42
 70
     1
102
RTVSPost2010Prop43
 90
        3
102
RTVSPost2010PropOp43
 70
     1
102
RTVSPost2010Prop44ColorIndex
 90
        5
102
RTVSPost2010Prop44ColorRGB
 90
      255
102
RTVSPost2010PropOp44
 70
     1
102
RTVSPost2010Prop45
280
     0
102
RTVSPost2010PropOp45
 70
     1
102
RTVSPost2010Prop46
 90
       50
102
RTVSPost2010PropOp46
 70
     1
102
RTVSPost2010Prop47
 90
       50
102
RTVSPost2010PropOp47
 70
     1
102
RTVSPost2010Prop48
 90
       50
102
RTVSPost2010PropOp48
 70
     1
102
RTVSPost2010Prop49
280
     0
102
RTVSPost2010PropOp49
 70
     1
102
RTVSPost2010Prop50
 90
       50
102
RTVSPost2010PropOp50
 70
     1
102
RTVSPost2010Prop51ColorIndex
 90
      256
102
RTVSPost2010Prop51ColorRGB
 90
-16777216
102
RTVSPost2010PropOp51
 70
     0
102
RTVSPost2010Prop52
140
1.0
102
RTVSPost2010PropOp52
 70
     0
102
RTVSPost2010Prop53
 90
        2
102
RTVSPost2010PropOp53
 70
     1
102
RTVSPost2010Prop54
  1
strokes_ogs.tif
102
RTVSPost2010PropOp54
 70
     1
102
RTVSPost2010Prop55
280
     0
102
RTVSPost2010PropOp55
 70
     1
102
RTVSPost2010Prop56
140
1.0
102
RTVSPost2010PropOp56
 70
     1
102
RTVSPost2010Prop57
140
1.0
102
RTVSPost2010PropOp57
 70
     1
102
RTVSPropertyOp0
 70
     1
102
RTVSPropertyOp1
 70
     1
102
RTVSPropertyOp2
 70
     1
102
RTVSPropertyOp3
 70
     1
102
RTVSPropertyOp4
 70
     1
102
RTVSPropertyOp5
 70
     1
102
RTVSPropertyOp6
 70
     1
102
RTVSPropertyOp7
 70
     1
102
RTVSPropertyOp8
 70
     1
102
RTVSPropertyOp9
 70
     1
102
RTVSPropertyOp10
 70
     1
102
RTVSPropertyOp11
 70
     1
102
RTVSPropertyOp12
 70
     1
102
RTVSPropertyOp13
 70
     1
102
RTVSPropertyOp14
 70
     1
102
RTVSPropertyOp15
 70
     1
102
RTVSPropertyOp16
 70
     1
102
RTVSPropertyOp17
 70
     1
102
RTVSPropertyOp18
 70
     1
102
RTVSPropertyOp19
 70
     1
102
RTVSPropertyOp20
 70
     1
102
RTVSPropertyOp21
 70
     1
102
RTVSPropertyOp22
 70
     1
102
RTVSPropertyOp23
 70
     1
102
RTVSPropertyOp24
 70
     1
102
RTVSPropertyOp25
 70
     1
102
RTVSPropertyOp26
 70
     1
102
RTVSPropertyOp27
 70
     1
102
RTVSPropertyOp28
 70
     1
102
RTVSPropertyOp29
 70
     1
102
RTVSPropertyOp30
 70
     1
102
RTVSPropertyOp31
 70
     1
102
RTVSPropertyOp32
 70
     1
102
RTVSPropertyOp33
 70
     1
102
RTVSPropertyOp34
 70
     1
102
RTVSPropertyOp35
 70
     1
102
RTVSPropertyOp36
 70
     1
102
RTVSPropertyOp37
 70
     1
102
RTVSPropertyOp38
 70
     1
102
RTVSPropertyOp39
 70
     1
102
RTVSPropertyOp40
 70
     1
102
RTVSPropertyOp41
 70
     1
102
RTVSPropertyOp42
 70
     1
102
RTVSPropertyOp43
 70
     1
102
RTVSPropertyOp44
 70
     1
102
RTVSPropertyOp45
 70
     1
102
RTVSPropertyOp46
 70
     1
102
RTVSPropertyOp47
 70
     1
102
RTVSPropertyOp48
 70
     1
102
RTVSPropertyOp49
 70
     1
102
RTVSPropertyOp50
 70
     1
102
RTVSPropertyOp51
 70
     0
102
RTVSPropertyOp52
 70
     0
102
RTVSPropertyOp53
 70
     1
102
RTVSPropertyOp54
 70
     1
102
RTVSPropertyOp55
 70
     1
102
RTVSPropertyOp56
 70
     1
102
RTVSPropertyOp57
 70
     1
102
RTVSPropertyOp58
 70
     1
102
RTVSPropertyOp59
 70
     1
102
RTVSPropertyOp60
 70
     1
102
RTVSPropertyOp61
 70
     1
102
RTVSPropertyOp62
 70
     1
  0
XRECORD
  5
44B
102
{ACAD_REACTORS
330
44A
102
}
330
44A
100
AcDbXrecord
280
     1
102
RTVSPost2010Prop28
280
     0
102
RTVSPost2010PropOp28
 70
     1
102
RTVSPost2010Prop29
280
     1
102
RTVSPost2010PropOp29
 70
     1
102
RTVSPost2010Prop30
280
     1
102
RTVSPost2010PropOp30
 70
     1
102
RTVSPost2010Prop31
280
     0
102
RTVSPost2010PropOp31
 70
     1
102
RTVSPost2010Prop32
280
     0
102
RTVSPost2010PropOp32
 70
     1
102
RTVSPost2010Prop33
280
     0
102
RTVSPost2010PropOp33
 70
     1
102
RTVSPost2010Prop34
280
     0
102
RTVSPost2010PropOp34
 70
     1
102
RTVSPost2010Prop35
280
     0
102
RTVSPost2010PropOp35
 70
     1
102
RTVSPost2010Prop36
280
     0
102
RTVSPost2010PropOp36
 70
     1
102
RTVSPost2010Prop37
 90
       50
102
RTVSPost2010PropOp37
 70
     1
102
RTVSPost2010Prop38
140
0.0
102
RTVSPost2010PropOp38
 70
     1
102
RTVSPost2010Prop39
140
1.0
102
RTVSPost2010PropOp39
 70
     1
102
RTVSPost2010Prop40
 90
        0
102
RTVSPost2010PropOp40
 70
     1
102
RTVSPost2010Prop41ColorIndex
 90
       18
102
RTVSPost2010Prop41ColorRGB
 90
        0
102
RTVSPost2010PropOp41
 70
     1
102
RTVSPost2010Prop42
 90
       50
102
RTVSPost2010PropOp42
 70
     1
102
RTVSPost2010Prop43
 90
        3
102
RTVSPost2010PropOp43
 70
     1
102
RTVSPost2010Prop44ColorIndex
 90
        5
102
RTVSPost2010Prop44ColorRGB
 90
      255
102
RTVSPost2010PropOp44
 70
     1
102
RTVSPost2010Prop45
280
     0
102
RTVSPost2010PropOp45
 70
     1
102
RTVSPost2010Prop46
 90
       50
102
RTVSPost2010PropOp46
 70
     1
102
RTVSPost2010Prop47
 90
       50
102
RTVSPost2010PropOp47
 70
     1
102
RTVSPost2010Prop48
 90
       50
102
RTVSPost2010PropOp48
 70
     1
102
RTVSPost2010Prop49
280
     0
102
RTVSPost2010PropOp49
 70
     1
102
RTVSPost2010Prop50
 90
       50
102
RTVSPost2010PropOp50
 70
     1
102
RTVSPost2010Prop51ColorIndex
 90
      256
102
RTVSPost2010Prop51ColorRGB
 90
-16777216
102
RTVSPost2010PropOp51
 70
     0
102
RTVSPost2010Prop52
140
1.0
102
RTVSPost2010PropOp52
 70
     0
102
RTVSPost2010Prop53
 90
        2
102
RTVSPost2010PropOp53
 70
     1
102
RTVSPost2010Prop54
  1
strokes_ogs.tif
102
RTVSPost2010PropOp54
 70
     1
102
RTVSPost2010Prop55
280
     0
102
RTVSPost2010PropOp55
 70
     1
102
RTVSPost2010Prop56
140
1.0
102
RTVSPost2010PropOp56
 70
     1
102
RTVSPost2010Prop57
140
1.0
102
RTVSPost2010PropOp57
 70
     1
102
RTVSPropertyOp0
 70
     1
102
RTVSPropertyOp1
 70
     1
102
RTVSPropertyOp2
 70
     1
102
RTVSPropertyOp3
 70
     1
102
RTVSPropertyOp4
 70
     1
102
RTVSPropertyOp5
 70
     1
102
RTVSPropertyOp6
 70
     1
102
RTVSPropertyOp7
 70
     1
102
RTVSPropertyOp8
 70
     1
102
RTVSPropertyOp9
 70
     1
102
RTVSPropertyOp10
 70
     1
102
RTVSPropertyOp11
 70
     1
102
RTVSPropertyOp12
 70
     1
102
RTVSPropertyOp13
 70
     1
102
RTVSPropertyOp14
 70
     1
102
RTVSPropertyOp15
 70
     1
102
RTVSPropertyOp16
 70
     1
102
RTVSPropertyOp17
 70
     1
102
RTVSPropertyOp18
 70
     1
102
RTVSPropertyOp19
 70
     1
102
RTVSPropertyOp20
 70
     1
102
RTVSPropertyOp21
 70
     1
102
RTVSPropertyOp22
 70
     1
102
RTVSPropertyOp23
 70
     1
102
RTVSPropertyOp24
 70
     1
102
RTVSPropertyOp25
 70
     1
102
RTVSPropertyOp26
 70
     1
102
RTVSPropertyOp27
 70
     1
102
RTVSPropertyOp28
 70
     1
102
RTVSPropertyOp29
 70
     1
102
RTVSPropertyOp30
 70
     1
102
RTVSPropertyOp31
 70
     1
102
RTVSPropertyOp32
 70
     1
102
RTVSPropertyOp33
 70
     1
102
RTVSPropertyOp34
 70
     1
102
RTVSPropertyOp35
 70
     1
102
RTVSPropertyOp36
 70
     1
102
RTVSPropertyOp37
 70
     1
102
RTVSPropertyOp38
 70
     1
102
RTVSPropertyOp39
 70
     1
102
RTVSPropertyOp40
 70
     1
102
RTVSPropertyOp41
 70
     1
102
RTVSPropertyOp42
 70
     1
102
RTVSPropertyOp43
 70
     1
102
RTVSPropertyOp44
 70
     1
102
RTVSPropertyOp45
 70
     1
102
RTVSPropertyOp46
 70
     1
102
RTVSPropertyOp47
 70
     1
102
RTVSPropertyOp48
 70
     1
102
RTVSPropertyOp49
 70
     1
102
RTVSPropertyOp50
 70
     1
102
RTVSPropertyOp51
 70
     0
102
RTVSPropertyOp52
 70
     0
102
RTVSPropertyOp53
 70
     1
102
RTVSPropertyOp54
 70
     1
102
RTVSPropertyOp55
 70
     1
102
RTVSPropertyOp56
 70
     1
102
RTVSPropertyOp57
 70
     1
102
RTVSPropertyOp58
 70
     1
102
RTVSPropertyOp59
 70
     1
102
RTVSPropertyOp60
 70
     1
102
RTVSPropertyOp61
 70
     1
102
RTVSPropertyOp62
 70
     1
  0
XRECORD
  5
449
102
{ACAD_REACTORS
330
448
102
}
330
448
100
AcDbXrecord
280
     1
102
RTVSPost2010Prop28
280
     0
102
RTVSPost2010PropOp28
 70
     1
102
RTVSPost2010Prop29
280
     1
102
RTVSPost2010PropOp29
 70
     1
102
RTVSPost2010Prop30
280
     1
102
RTVSPost2010PropOp30
 70
     1
102
RTVSPost2010Prop31
280
     0
102
RTVSPost2010PropOp31
 70
     1
102
RTVSPost2010Prop32
280
     0
102
RTVSPost2010PropOp32
 70
     1
102
RTVSPost2010Prop33
280
     0
102
RTVSPost2010PropOp33
 70
     1
102
RTVSPost2010Prop34
280
     0
102
RTVSPost2010PropOp34
 70
     1
102
RTVSPost2010Prop35
280
     0
102
RTVSPost2010PropOp35
 70
     1
102
RTVSPost2010Prop36
280
     0
102
RTVSPost2010PropOp36
 70
     1
102
RTVSPost2010Prop37
 90
       50
102
RTVSPost2010PropOp37
 70
     1
102
RTVSPost2010Prop38
140
0.0
102
RTVSPost2010PropOp38
 70
     1
102
RTVSPost2010Prop39
140
1.0
102
RTVSPost2010PropOp39
 70
     1
102
RTVSPost2010Prop40
 90
        0
102
RTVSPost2010PropOp40
 70
     1
102
RTVSPost2010Prop41ColorIndex
 90
       18
102
RTVSPost2010Prop41ColorRGB
 90
        0
102
RTVSPost2010PropOp41
 70
     1
102
RTVSPost2010Prop42
 90
       50
102
RTVSPost2010PropOp42
 70
     1
102
RTVSPost2010Prop43
 90
        3
102
RTVSPost2010PropOp43
 70
     1
102
RTVSPost2010Prop44ColorIndex
 90
        5
102
RTVSPost2010Prop44ColorRGB
 90
      255
102
RTVSPost2010PropOp44
 70
     1
102
RTVSPost2010Prop45
280
     0
102
RTVSPost2010PropOp45
 70
     1
102
RTVSPost2010Prop46
 90
       50
102
RTVSPost2010PropOp46
 70
     1
102
RTVSPost2010Prop47
 90
       50
102
RTVSPost2010PropOp47
 70
     1
102
RTVSPost2010Prop48
 90
       50
102
RTVSPost2010PropOp48
 70
     1
102
RTVSPost2010Prop49
280
     0
102
RTVSPost2010PropOp49
 70
     1
102
RTVSPost2010Prop50
 90
       50
102
RTVSPost2010PropOp50
 70
     1
102
RTVSPost2010Prop51ColorIndex
 90
      256
102
RTVSPost2010Prop51ColorRGB
 90
-16777216
102
RTVSPost2010PropOp51
 70
     0
102
RTVSPost2010Prop52
140
1.0
102
RTVSPost2010PropOp52
 70
     0
102
RTVSPost2010Prop53
 90
        2
102
RTVSPost2010PropOp53
 70
     1
102
RTVSPost2010Prop54
  1
strokes_ogs.tif
102
RTVSPost2010PropOp54
 70
     1
102
RTVSPost2010Prop55
280
     0
102
RTVSPost2010PropOp55
 70
     1
102
RTVSPost2010Prop56
140
1.0
102
RTVSPost2010PropOp56
 70
     1
102
RTVSPost2010Prop57
140
1.0
102
RTVSPost2010PropOp57
 70
     1
102
RTVSPropertyOp0
 70
     1
102
RTVSPropertyOp1
 70
     1
102
RTVSPropertyOp2
 70
     1
102
RTVSPropertyOp3
 70
     1
102
RTVSPropertyOp4
 70
     1
102
RTVSPropertyOp5
 70
     1
102
RTVSPropertyOp6
 70
     1
102
RTVSPropertyOp7
 70
     1
102
RTVSPropertyOp8
 70
     1
102
RTVSPropertyOp9
 70
     1
102
RTVSPropertyOp10
 70
     1
102
RTVSPropertyOp11
 70
     1
102
RTVSPropertyOp12
 70
     1
102
RTVSPropertyOp13
 70
     1
102
RTVSPropertyOp14
 70
     1
102
RTVSPropertyOp15
 70
     1
102
RTVSPropertyOp16
 70
     1
102
RTVSPropertyOp17
 70
     1
102
RTVSPropertyOp18
 70
     1
102
RTVSPropertyOp19
 70
     1
102
RTVSPropertyOp20
 70
     1
102
RTVSPropertyOp21
 70
     1
102
RTVSPropertyOp22
 70
     1
102
RTVSPropertyOp23
 70
     1
102
RTVSPropertyOp24
 70
     1
102
RTVSPropertyOp25
 70
     1
102
RTVSPropertyOp26
 70
     1
102
RTVSPropertyOp27
 70
     1
102
RTVSPropertyOp28
 70
     1
102
RTVSPropertyOp29
 70
     1
102
RTVSPropertyOp30
 70
     1
102
RTVSPropertyOp31
 70
     1
102
RTVSPropertyOp32
 70
     1
102
RTVSPropertyOp33
 70
     1
102
RTVSPropertyOp34
 70
     1
102
RTVSPropertyOp35
 70
     1
102
RTVSPropertyOp36
 70
     1
102
RTVSPropertyOp37
 70
     1
102
RTVSPropertyOp38
 70
     1
102
RTVSPropertyOp39
 70
     1
102
RTVSPropertyOp40
 70
     1
102
RTVSPropertyOp41
 70
     1
102
RTVSPropertyOp42
 70
     1
102
RTVSPropertyOp43
 70
     1
102
RTVSPropertyOp44
 70
     1
102
RTVSPropertyOp45
 70
     1
102
RTVSPropertyOp46
 70
     1
102
RTVSPropertyOp47
 70
     1
102
RTVSPropertyOp48
 70
     1
102
RTVSPropertyOp49
 70
     1
102
RTVSPropertyOp50
 70
     1
102
RTVSPropertyOp51
 70
     0
102
RTVSPropertyOp52
 70
     0
102
RTVSPropertyOp53
 70
     1
102
RTVSPropertyOp54
 70
     1
102
RTVSPropertyOp55
 70
     1
102
RTVSPropertyOp56
 70
     1
102
RTVSPropertyOp57
 70
     1
102
RTVSPropertyOp58
 70
     1
102
RTVSPropertyOp59
 70
     1
102
RTVSPropertyOp60
 70
     1
102
RTVSPropertyOp61
 70
     1
102
RTVSPropertyOp62
 70
     1
  0
XRECORD
  5
443
102
{ACAD_REACTORS
330
442
102
}
330
442
100
AcDbXrecord
280
     1
102
RTVSPost2010Prop28
280
     0
102
RTVSPost2010PropOp28
 70
     1
102
RTVSPost2010Prop29
280
     1
102
RTVSPost2010PropOp29
 70
     1
102
RTVSPost2010Prop30
280
     1
102
RTVSPost2010PropOp30
 70
     1
102
RTVSPost2010Prop31
280
     0
102
RTVSPost2010PropOp31
 70
     1
102
RTVSPost2010Prop32
280
     0
102
RTVSPost2010PropOp32
 70
     1
102
RTVSPost2010Prop33
280
     0
102
RTVSPost2010PropOp33
 70
     1
102
RTVSPost2010Prop34
280
     0
102
RTVSPost2010PropOp34
 70
     1
102
RTVSPost2010Prop35
280
     0
102
RTVSPost2010PropOp35
 70
     1
102
RTVSPost2010Prop36
280
     0
102
RTVSPost2010PropOp36
 70
     1
102
RTVSPost2010Prop37
 90
       50
102
RTVSPost2010PropOp37
 70
     1
102
RTVSPost2010Prop38
140
0.0
102
RTVSPost2010PropOp38
 70
     1
102
RTVSPost2010Prop39
140
1.0
102
RTVSPost2010PropOp39
 70
     1
102
RTVSPost2010Prop40
 90
        0
102
RTVSPost2010PropOp40
 70
     1
102
RTVSPost2010Prop41ColorIndex
 90
       18
102
RTVSPost2010Prop41ColorRGB
 90
        0
102
RTVSPost2010PropOp41
 70
     1
102
RTVSPost2010Prop42
 90
       50
102
RTVSPost2010PropOp42
 70
     1
102
RTVSPost2010Prop43
 90
        3
102
RTVSPost2010PropOp43
 70
     1
102
RTVSPost2010Prop44ColorIndex
 90
        5
102
RTVSPost2010Prop44ColorRGB
 90
      255
102
RTVSPost2010PropOp44
 70
     1
102
RTVSPost2010Prop45
280
     0
102
RTVSPost2010PropOp45
 70
     1
102
RTVSPost2010Prop46
 90
       50
102
RTVSPost2010PropOp46
 70
     1
102
RTVSPost2010Prop47
 90
       50
102
RTVSPost2010PropOp47
 70
     1
102
RTVSPost2010Prop48
 90
       50
102
RTVSPost2010PropOp48
 70
     1
102
RTVSPost2010Prop49
280
     0
102
RTVSPost2010PropOp49
 70
     1
102
RTVSPost2010Prop50
 90
       50
102
RTVSPost2010PropOp50
 70
     1
102
RTVSPost2010Prop51ColorIndex
 90
      256
102
RTVSPost2010Prop51ColorRGB
 90
-16777216
102
RTVSPost2010PropOp51
 70
     0
102
RTVSPost2010Prop52
140
1.0
102
RTVSPost2010PropOp52
 70
     0
102
RTVSPost2010Prop53
 90
        2
102
RTVSPost2010PropOp53
 70
     1
102
RTVSPost2010Prop54
  1
strokes_ogs.tif
102
RTVSPost2010PropOp54
 70
     1
102
RTVSPost2010Prop55
280
     0
102
RTVSPost2010PropOp55
 70
     1
102
RTVSPost2010Prop56
140
1.0
102
RTVSPost2010PropOp56
 70
     1
102
RTVSPost2010Prop57
140
1.0
102
RTVSPost2010PropOp57
 70
     1
102
RTVSPropertyOp0
 70
     1
102
RTVSPropertyOp1
 70
     1
102
RTVSPropertyOp2
 70
     1
102
RTVSPropertyOp3
 70
     1
102
RTVSPropertyOp4
 70
     1
102
RTVSPropertyOp5
 70
     1
102
RTVSPropertyOp6
 70
     1
102
RTVSPropertyOp7
 70
     1
102
RTVSPropertyOp8
 70
     1
102
RTVSPropertyOp9
 70
     1
102
RTVSPropertyOp10
 70
     1
102
RTVSPropertyOp11
 70
     1
102
RTVSPropertyOp12
 70
     1
102
RTVSPropertyOp13
 70
     1
102
RTVSPropertyOp14
 70
     1
102
RTVSPropertyOp15
 70
     1
102
RTVSPropertyOp16
 70
     1
102
RTVSPropertyOp17
 70
     1
102
RTVSPropertyOp18
 70
     1
102
RTVSPropertyOp19
 70
     1
102
RTVSPropertyOp20
 70
     1
102
RTVSPropertyOp21
 70
     1
102
RTVSPropertyOp22
 70
     1
102
RTVSPropertyOp23
 70
     1
102
RTVSPropertyOp24
 70
     1
102
RTVSPropertyOp25
 70
     1
102
RTVSPropertyOp26
 70
     1
102
RTVSPropertyOp27
 70
     1
102
RTVSPropertyOp28
 70
     1
102
RTVSPropertyOp29
 70
     1
102
RTVSPropertyOp30
 70
     1
102
RTVSPropertyOp31
 70
     1
102
RTVSPropertyOp32
 70
     1
102
RTVSPropertyOp33
 70
     1
102
RTVSPropertyOp34
 70
     1
102
RTVSPropertyOp35
 70
     1
102
RTVSPropertyOp36
 70
     1
102
RTVSPropertyOp37
 70
     1
102
RTVSPropertyOp38
 70
     1
102
RTVSPropertyOp39
 70
     1
102
RTVSPropertyOp40
 70
     1
102
RTVSPropertyOp41
 70
     1
102
RTVSPropertyOp42
 70
     1
102
RTVSPropertyOp43
 70
     1
102
RTVSPropertyOp44
 70
     1
102
RTVSPropertyOp45
 70
     1
102
RTVSPropertyOp46
 70
     1
102
RTVSPropertyOp47
 70
     1
102
RTVSPropertyOp48
 70
     1
102
RTVSPropertyOp49
 70
     1
102
RTVSPropertyOp50
 70
     1
102
RTVSPropertyOp51
 70
     0
102
RTVSPropertyOp52
 70
     0
102
RTVSPropertyOp53
 70
     1
102
RTVSPropertyOp54
 70
     1
102
RTVSPropertyOp55
 70
     1
102
RTVSPropertyOp56
 70
     1
102
RTVSPropertyOp57
 70
     1
102
RTVSPropertyOp58
 70
     1
102
RTVSPropertyOp59
 70
     1
102
RTVSPropertyOp60
 70
     1
102
RTVSPropertyOp61
 70
     1
102
RTVSPropertyOp62
 70
     1
  0
XRECORD
  5
445
102
{ACAD_REACTORS
330
444
102
}
330
444
100
AcDbXrecord
280
     1
102
RTVSPost2010Prop28
280
     0
102
RTVSPost2010PropOp28
 70
     1
102
RTVSPost2010Prop29
280
     1
102
RTVSPost2010PropOp29
 70
     1
102
RTVSPost2010Prop30
280
     1
102
RTVSPost2010PropOp30
 70
     1
102
RTVSPost2010Prop31
280
     0
102
RTVSPost2010PropOp31
 70
     1
102
RTVSPost2010Prop32
280
     0
102
RTVSPost2010PropOp32
 70
     1
102
RTVSPost2010Prop33
280
     0
102
RTVSPost2010PropOp33
 70
     1
102
RTVSPost2010Prop34
280
     0
102
RTVSPost2010PropOp34
 70
     1
102
RTVSPost2010Prop35
280
     0
102
RTVSPost2010PropOp35
 70
     1
102
RTVSPost2010Prop36
280
     0
102
RTVSPost2010PropOp36
 70
     1
102
RTVSPost2010Prop37
 90
       50
102
RTVSPost2010PropOp37
 70
     1
102
RTVSPost2010Prop38
140
0.0
102
RTVSPost2010PropOp38
 70
     1
102
RTVSPost2010Prop39
140
1.0
102
RTVSPost2010PropOp39
 70
     1
102
RTVSPost2010Prop40
 90
        0
102
RTVSPost2010PropOp40
 70
     1
102
RTVSPost2010Prop41ColorIndex
 90
       18
102
RTVSPost2010Prop41ColorRGB
 90
        0
102
RTVSPost2010PropOp41
 70
     1
102
RTVSPost2010Prop42
 90
       50
102
RTVSPost2010PropOp42
 70
     1
102
RTVSPost2010Prop43
 90
        3
102
RTVSPost2010PropOp43
 70
     1
102
RTVSPost2010Prop44ColorIndex
 90
        5
102
RTVSPost2010Prop44ColorRGB
 90
      255
102
RTVSPost2010PropOp44
 70
     1
102
RTVSPost2010Prop45
280
     0
102
RTVSPost2010PropOp45
 70
     1
102
RTVSPost2010Prop46
 90
       50
102
RTVSPost2010PropOp46
 70
     1
102
RTVSPost2010Prop47
 90
       50
102
RTVSPost2010PropOp47
 70
     1
102
RTVSPost2010Prop48
 90
       50
102
RTVSPost2010PropOp48
 70
     1
102
RTVSPost2010Prop49
280
     0
102
RTVSPost2010PropOp49
 70
     1
102
RTVSPost2010Prop50
 90
       50
102
RTVSPost2010PropOp50
 70
     1
102
RTVSPost2010Prop51ColorIndex
 90
      256
102
RTVSPost2010Prop51ColorRGB
 90
-16777216
102
RTVSPost2010PropOp51
 70
     0
102
RTVSPost2010Prop52
140
1.0
102
RTVSPost2010PropOp52
 70
     0
102
RTVSPost2010Prop53
 90
        2
102
RTVSPost2010PropOp53
 70
     1
102
RTVSPost2010Prop54
  1
strokes_ogs.tif
102
RTVSPost2010PropOp54
 70
     1
102
RTVSPost2010Prop55
280
     0
102
RTVSPost2010PropOp55
 70
     1
102
RTVSPost2010Prop56
140
1.0
102
RTVSPost2010PropOp56
 70
     1
102
RTVSPost2010Prop57
140
1.0
102
RTVSPost2010PropOp57
 70
     1
102
RTVSPropertyOp0
 70
     1
102
RTVSPropertyOp1
 70
     1
102
RTVSPropertyOp2
 70
     1
102
RTVSPropertyOp3
 70
     1
102
RTVSPropertyOp4
 70
     1
102
RTVSPropertyOp5
 70
     1
102
RTVSPropertyOp6
 70
     1
102
RTVSPropertyOp7
 70
     1
102
RTVSPropertyOp8
 70
     1
102
RTVSPropertyOp9
 70
     1
102
RTVSPropertyOp10
 70
     1
102
RTVSPropertyOp11
 70
     1
102
RTVSPropertyOp12
 70
     1
102
RTVSPropertyOp13
 70
     1
102
RTVSPropertyOp14
 70
     1
102
RTVSPropertyOp15
 70
     1
102
RTVSPropertyOp16
 70
     1
102
RTVSPropertyOp17
 70
     1
102
RTVSPropertyOp18
 70
     1
102
RTVSPropertyOp19
 70
     1
102
RTVSPropertyOp20
 70
     1
102
RTVSPropertyOp21
 70
     1
102
RTVSPropertyOp22
 70
     1
102
RTVSPropertyOp23
 70
     1
102
RTVSPropertyOp24
 70
     1
102
RTVSPropertyOp25
 70
     1
102
RTVSPropertyOp26
 70
     1
102
RTVSPropertyOp27
 70
     1
102
RTVSPropertyOp28
 70
     1
102
RTVSPropertyOp29
 70
     1
102
RTVSPropertyOp30
 70
     1
102
RTVSPropertyOp31
 70
     1
102
RTVSPropertyOp32
 70
     1
102
RTVSPropertyOp33
 70
     1
102
RTVSPropertyOp34
 70
     1
102
RTVSPropertyOp35
 70
     1
102
RTVSPropertyOp36
 70
     1
102
RTVSPropertyOp37
 70
     1
102
RTVSPropertyOp38
 70
     1
102
RTVSPropertyOp39
 70
     1
102
RTVSPropertyOp40
 70
     1
102
RTVSPropertyOp41
 70
     1
102
RTVSPropertyOp42
 70
     1
102
RTVSPropertyOp43
 70
     1
102
RTVSPropertyOp44
 70
     1
102
RTVSPropertyOp45
 70
     1
102
RTVSPropertyOp46
 70
     1
102
RTVSPropertyOp47
 70
     1
102
RTVSPropertyOp48
 70
     1
102
RTVSPropertyOp49
 70
     1
102
RTVSPropertyOp50
 70
     1
102
RTVSPropertyOp51
 70
     0
102
RTVSPropertyOp52
 70
     0
102
RTVSPropertyOp53
 70
     1
102
RTVSPropertyOp54
 70
     1
102
RTVSPropertyOp55
 70
     1
102
RTVSPropertyOp56
 70
     1
102
RTVSPropertyOp57
 70
     1
102
RTVSPropertyOp58
 70
     1
102
RTVSPropertyOp59
 70
     1
102
RTVSPropertyOp60
 70
     1
102
RTVSPropertyOp61
 70
     1
102
RTVSPropertyOp62
 70
     1
  0
XRECORD
  5
43B
102
{ACAD_REACTORS
330
43A
102
}
330
43A
100
AcDbXrecord
280
     1
102
RTVSPost2010Prop28
280
     0
102
RTVSPost2010PropOp28
 70
     1
102
RTVSPost2010Prop29
280
     1
102
RTVSPost2010PropOp29
 70
     1
102
RTVSPost2010Prop30
280
     1
102
RTVSPost2010PropOp30
 70
     1
102
RTVSPost2010Prop31
280
     0
102
RTVSPost2010PropOp31
 70
     1
102
RTVSPost2010Prop32
280
     0
102
RTVSPost2010PropOp32
 70
     1
102
RTVSPost2010Prop33
280
     0
102
RTVSPost2010PropOp33
 70
     1
102
RTVSPost2010Prop34
280
     0
102
RTVSPost2010PropOp34
 70
     1
102
RTVSPost2010Prop35
280
     0
102
RTVSPost2010PropOp35
 70
     1
102
RTVSPost2010Prop36
280
     0
102
RTVSPost2010PropOp36
 70
     1
102
RTVSPost2010Prop37
 90
       50
102
RTVSPost2010PropOp37
 70
     1
102
RTVSPost2010Prop38
140
0.0
102
RTVSPost2010PropOp38
 70
     1
102
RTVSPost2010Prop39
140
1.0
102
RTVSPost2010PropOp39
 70
     1
102
RTVSPost2010Prop40
 90
        0
102
RTVSPost2010PropOp40
 70
     1
102
RTVSPost2010Prop41ColorIndex
 90
       18
102
RTVSPost2010Prop41ColorRGB
 90
        0
102
RTVSPost2010PropOp41
 70
     1
102
RTVSPost2010Prop42
 90
       50
102
RTVSPost2010PropOp42
 70
     1
102
RTVSPost2010Prop43
 90
        3
102
RTVSPost2010PropOp43
 70
     1
102
RTVSPost2010Prop44ColorIndex
 90
        5
102
RTVSPost2010Prop44ColorRGB
 90
      255
102
RTVSPost2010PropOp44
 70
     1
102
RTVSPost2010Prop45
280
     0
102
RTVSPost2010PropOp45
 70
     1
102
RTVSPost2010Prop46
 90
       50
102
RTVSPost2010PropOp46
 70
     1
102
RTVSPost2010Prop47
 90
       50
102
RTVSPost2010PropOp47
 70
     1
102
RTVSPost2010Prop48
 90
       50
102
RTVSPost2010PropOp48
 70
     1
102
RTVSPost2010Prop49
280
     0
102
RTVSPost2010PropOp49
 70
     1
102
RTVSPost2010Prop50
 90
       50
102
RTVSPost2010PropOp50
 70
     1
102
RTVSPost2010Prop51ColorIndex
 90
      256
102
RTVSPost2010Prop51ColorRGB
 90
-16777216
102
RTVSPost2010PropOp51
 70
     0
102
RTVSPost2010Prop52
140
1.0
102
RTVSPost2010PropOp52
 70
     0
102
RTVSPost2010Prop53
 90
        2
102
RTVSPost2010PropOp53
 70
     1
102
RTVSPost2010Prop54
  1
strokes_ogs.tif
102
RTVSPost2010PropOp54
 70
     1
102
RTVSPost2010Prop55
280
     0
102
RTVSPost2010PropOp55
 70
     1
102
RTVSPost2010Prop56
140
1.0
102
RTVSPost2010PropOp56
 70
     1
102
RTVSPost2010Prop57
140
1.0
102
RTVSPost2010PropOp57
 70
     1
102
RTVSPropertyOp0
 70
     1
102
RTVSPropertyOp1
 70
     1
102
RTVSPropertyOp2
 70
     1
102
RTVSPropertyOp3
 70
     1
102
RTVSPropertyOp4
 70
     1
102
RTVSPropertyOp5
 70
     1
102
RTVSPropertyOp6
 70
     1
102
RTVSPropertyOp7
 70
     1
102
RTVSPropertyOp8
 70
     1
102
RTVSPropertyOp9
 70
     1
102
RTVSPropertyOp10
 70
     1
102
RTVSPropertyOp11
 70
     1
102
RTVSPropertyOp12
 70
     1
102
RTVSPropertyOp13
 70
     1
102
RTVSPropertyOp14
 70
     1
102
RTVSPropertyOp15
 70
     1
102
RTVSPropertyOp16
 70
     1
102
RTVSPropertyOp17
 70
     1
102
RTVSPropertyOp18
 70
     1
102
RTVSPropertyOp19
 70
     1
102
RTVSPropertyOp20
 70
     1
102
RTVSPropertyOp21
 70
     1
102
RTVSPropertyOp22
 70
     1
102
RTVSPropertyOp23
 70
     1
102
RTVSPropertyOp24
 70
     1
102
RTVSPropertyOp25
 70
     1
102
RTVSPropertyOp26
 70
     1
102
RTVSPropertyOp27
 70
     1
102
RTVSPropertyOp28
 70
     1
102
RTVSPropertyOp29
 70
     1
102
RTVSPropertyOp30
 70
     1
102
RTVSPropertyOp31
 70
     1
102
RTVSPropertyOp32
 70
     1
102
RTVSPropertyOp33
 70
     1
102
RTVSPropertyOp34
 70
     1
102
RTVSPropertyOp35
 70
     1
102
RTVSPropertyOp36
 70
     1
102
RTVSPropertyOp37
 70
     1
102
RTVSPropertyOp38
 70
     1
102
RTVSPropertyOp39
 70
     1
102
RTVSPropertyOp40
 70
     1
102
RTVSPropertyOp41
 70
     1
102
RTVSPropertyOp42
 70
     1
102
RTVSPropertyOp43
 70
     1
102
RTVSPropertyOp44
 70
     1
102
RTVSPropertyOp45
 70
     1
102
RTVSPropertyOp46
 70
     1
102
RTVSPropertyOp47
 70
     1
102
RTVSPropertyOp48
 70
     1
102
RTVSPropertyOp49
 70
     1
102
RTVSPropertyOp50
 70
     1
102
RTVSPropertyOp51
 70
     0
102
RTVSPropertyOp52
 70
     0
102
RTVSPropertyOp53
 70
     1
102
RTVSPropertyOp54
 70
     1
102
RTVSPropertyOp55
 70
     1
102
RTVSPropertyOp56
 70
     1
102
RTVSPropertyOp57
 70
     1
102
RTVSPropertyOp58
 70
     1
102
RTVSPropertyOp59
 70
     1
102
RTVSPropertyOp60
 70
     1
102
RTVSPropertyOp61
 70
     1
102
RTVSPropertyOp62
 70
     1
  0
XRECORD
  5
42F
102
{ACAD_REACTORS
330
42E
102
}
330
42E
100
AcDbXrecord
280
     1
102
RTVSPost2010Prop28
280
     0
102
RTVSPost2010PropOp28
 70
     1
102
RTVSPost2010Prop29
280
     1
102
RTVSPost2010PropOp29
 70
     1
102
RTVSPost2010Prop30
280
     1
102
RTVSPost2010PropOp30
 70
     1
102
RTVSPost2010Prop31
280
     0
102
RTVSPost2010PropOp31
 70
     1
102
RTVSPost2010Prop32
280
     0
102
RTVSPost2010PropOp32
 70
     1
102
RTVSPost2010Prop33
280
     0
102
RTVSPost2010PropOp33
 70
     1
102
RTVSPost2010Prop34
280
     0
102
RTVSPost2010PropOp34
 70
     1
102
RTVSPost2010Prop35
280
     0
102
RTVSPost2010PropOp35
 70
     1
102
RTVSPost2010Prop36
280
     0
102
RTVSPost2010PropOp36
 70
     1
102
RTVSPost2010Prop37
 90
       50
102
RTVSPost2010PropOp37
 70
     1
102
RTVSPost2010Prop38
140
0.0
102
RTVSPost2010PropOp38
 70
     1
102
RTVSPost2010Prop39
140
1.0
102
RTVSPost2010PropOp39
 70
     1
102
RTVSPost2010Prop40
 90
        0
102
RTVSPost2010PropOp40
 70
     1
102
RTVSPost2010Prop41ColorIndex
 90
       18
102
RTVSPost2010Prop41ColorRGB
 90
        0
102
RTVSPost2010PropOp41
 70
     1
102
RTVSPost2010Prop42
 90
       50
102
RTVSPost2010PropOp42
 70
     1
102
RTVSPost2010Prop43
 90
        3
102
RTVSPost2010PropOp43
 70
     1
102
RTVSPost2010Prop44ColorIndex
 90
        5
102
RTVSPost2010Prop44ColorRGB
 90
      255
102
RTVSPost2010PropOp44
 70
     1
102
RTVSPost2010Prop45
280
     0
102
RTVSPost2010PropOp45
 70
     1
102
RTVSPost2010Prop46
 90
       50
102
RTVSPost2010PropOp46
 70
     1
102
RTVSPost2010Prop47
 90
       50
102
RTVSPost2010PropOp47
 70
     1
102
RTVSPost2010Prop48
 90
       50
102
RTVSPost2010PropOp48
 70
     1
102
RTVSPost2010Prop49
280
     0
102
RTVSPost2010PropOp49
 70
     1
102
RTVSPost2010Prop50
 90
       50
102
RTVSPost2010PropOp50
 70
     1
102
RTVSPost2010Prop51ColorIndex
 90
      256
102
RTVSPost2010Prop51ColorRGB
 90
-16777216
102
RTVSPost2010PropOp51
 70
     0
102
RTVSPost2010Prop52
140
1.0
102
RTVSPost2010PropOp52
 70
     0
102
RTVSPost2010Prop53
 90
        2
102
RTVSPost2010PropOp53
 70
     1
102
RTVSPost2010Prop54
  1
strokes_ogs.tif
102
RTVSPost2010PropOp54
 70
     1
102
RTVSPost2010Prop55
280
     0
102
RTVSPost2010PropOp55
 70
     1
102
RTVSPost2010Prop56
140
1.0
102
RTVSPost2010PropOp56
 70
     1
102
RTVSPost2010Prop57
140
1.0
102
RTVSPost2010PropOp57
 70
     1
102
RTVSPropertyOp0
 70
     1
102
RTVSPropertyOp1
 70
     1
102
RTVSPropertyOp2
 70
     1
102
RTVSPropertyOp3
 70
     1
102
RTVSPropertyOp4
 70
     1
102
RTVSPropertyOp5
 70
     1
102
RTVSPropertyOp6
 70
     1
102
RTVSPropertyOp7
 70
     1
102
RTVSPropertyOp8
 70
     1
102
RTVSPropertyOp9
 70
     1
102
RTVSPropertyOp10
 70
     1
102
RTVSPropertyOp11
 70
     1
102
RTVSPropertyOp12
 70
     1
102
RTVSPropertyOp13
 70
     1
102
RTVSPropertyOp14
 70
     1
102
RTVSPropertyOp15
 70
     1
102
RTVSPropertyOp16
 70
     1
102
RTVSPropertyOp17
 70
     1
102
RTVSPropertyOp18
 70
     1
102
RTVSPropertyOp19
 70
     1
102
RTVSPropertyOp20
 70
     1
102
RTVSPropertyOp21
 70
     1
102
RTVSPropertyOp22
 70
     1
102
RTVSPropertyOp23
 70
     1
102
RTVSPropertyOp24
 70
     1
102
RTVSPropertyOp25
 70
     1
102
RTVSPropertyOp26
 70
     1
102
RTVSPropertyOp27
 70
     1
102
RTVSPropertyOp28
 70
     1
102
RTVSPropertyOp29
 70
     1
102
RTVSPropertyOp30
 70
     1
102
RTVSPropertyOp31
 70
     1
102
RTVSPropertyOp32
 70
     1
102
RTVSPropertyOp33
 70
     1
102
RTVSPropertyOp34
 70
     1
102
RTVSPropertyOp35
 70
     1
102
RTVSPropertyOp36
 70
     1
102
RTVSPropertyOp37
 70
     1
102
RTVSPropertyOp38
 70
     1
102
RTVSPropertyOp39
 70
     1
102
RTVSPropertyOp40
 70
     1
102
RTVSPropertyOp41
 70
     1
102
RTVSPropertyOp42
 70
     1
102
RTVSPropertyOp43
 70
     1
102
RTVSPropertyOp44
 70
     1
102
RTVSPropertyOp45
 70
     1
102
RTVSPropertyOp46
 70
     1
102
RTVSPropertyOp47
 70
     1
102
RTVSPropertyOp48
 70
     1
102
RTVSPropertyOp49
 70
     1
102
RTVSPropertyOp50
 70
     1
102
RTVSPropertyOp51
 70
     0
102
RTVSPropertyOp52
 70
     0
102
RTVSPropertyOp53
 70
     1
102
RTVSPropertyOp54
 70
     1
102
RTVSPropertyOp55
 70
     1
102
RTVSPropertyOp56
 70
     1
102
RTVSPropertyOp57
 70
     1
102
RTVSPropertyOp58
 70
     1
102
RTVSPropertyOp59
 70
     1
102
RTVSPropertyOp60
 70
     1
102
RTVSPropertyOp61
 70
     1
102
RTVSPropertyOp62
 70
     1
  0
XRECORD
  5
447
102
{ACAD_REACTORS
330
446
102
}
330
446
100
AcDbXrecord
280
     1
102
RTVSPost2010Prop28
280
     0
102
RTVSPost2010PropOp28
 70
     1
102
RTVSPost2010Prop29
280
     1
102
RTVSPost2010PropOp29
 70
     1
102
RTVSPost2010Prop30
280
     1
102
RTVSPost2010PropOp30
 70
     1
102
RTVSPost2010Prop31
280
     0
102
RTVSPost2010PropOp31
 70
     1
102
RTVSPost2010Prop32
280
     0
102
RTVSPost2010PropOp32
 70
     1
102
RTVSPost2010Prop33
280
     0
102
RTVSPost2010PropOp33
 70
     1
102
RTVSPost2010Prop34
280
     0
102
RTVSPost2010PropOp34
 70
     1
102
RTVSPost2010Prop35
280
     0
102
RTVSPost2010PropOp35
 70
     1
102
RTVSPost2010Prop36
280
     0
102
RTVSPost2010PropOp36
 70
     1
102
RTVSPost2010Prop37
 90
       50
102
RTVSPost2010PropOp37
 70
     1
102
RTVSPost2010Prop38
140
0.0
102
RTVSPost2010PropOp38
 70
     1
102
RTVSPost2010Prop39
140
1.0
102
RTVSPost2010PropOp39
 70
     1
102
RTVSPost2010Prop40
 90
        0
102
RTVSPost2010PropOp40
 70
     1
102
RTVSPost2010Prop41ColorIndex
 90
       18
102
RTVSPost2010Prop41ColorRGB
 90
        0
102
RTVSPost2010PropOp41
 70
     1
102
RTVSPost2010Prop42
 90
       50
102
RTVSPost2010PropOp42
 70
     1
102
RTVSPost2010Prop43
 90
        3
102
RTVSPost2010PropOp43
 70
     1
102
RTVSPost2010Prop44ColorIndex
 90
        5
102
RTVSPost2010Prop44ColorRGB
 90
      255
102
RTVSPost2010PropOp44
 70
     1
102
RTVSPost2010Prop45
280
     0
102
RTVSPost2010PropOp45
 70
     1
102
RTVSPost2010Prop46
 90
       50
102
RTVSPost2010PropOp46
 70
     1
102
RTVSPost2010Prop47
 90
       50
102
RTVSPost2010PropOp47
 70
     1
102
RTVSPost2010Prop48
 90
       50
102
RTVSPost2010PropOp48
 70
     1
102
RTVSPost2010Prop49
280
     0
102
RTVSPost2010PropOp49
 70
     1
102
RTVSPost2010Prop50
 90
       50
102
RTVSPost2010PropOp50
 70
     1
102
RTVSPost2010Prop51ColorIndex
 90
      256
102
RTVSPost2010Prop51ColorRGB
 90
-16777216
102
RTVSPost2010PropOp51
 70
     0
102
RTVSPost2010Prop52
140
1.0
102
RTVSPost2010PropOp52
 70
     0
102
RTVSPost2010Prop53
 90
        2
102
RTVSPost2010PropOp53
 70
     1
102
RTVSPost2010Prop54
  1
strokes_ogs.tif
102
RTVSPost2010PropOp54
 70
     1
102
RTVSPost2010Prop55
280
     0
102
RTVSPost2010PropOp55
 70
     1
102
RTVSPost2010Prop56
140
1.0
102
RTVSPost2010PropOp56
 70
     1
102
RTVSPost2010Prop57
140
1.0
102
RTVSPost2010PropOp57
 70
     1
102
RTVSPropertyOp0
 70
     1
102
RTVSPropertyOp1
 70
     1
102
RTVSPropertyOp2
 70
     1
102
RTVSPropertyOp3
 70
     1
102
RTVSPropertyOp4
 70
     1
102
RTVSPropertyOp5
 70
     1
102
RTVSPropertyOp6
 70
     1
102
RTVSPropertyOp7
 70
     1
102
RTVSPropertyOp8
 70
     1
102
RTVSPropertyOp9
 70
     1
102
RTVSPropertyOp10
 70
     1
102
RTVSPropertyOp11
 70
     1
102
RTVSPropertyOp12
 70
     1
102
RTVSPropertyOp13
 70
     1
102
RTVSPropertyOp14
 70
     1
102
RTVSPropertyOp15
 70
     1
102
RTVSPropertyOp16
 70
     1
102
RTVSPropertyOp17
 70
     1
102
RTVSPropertyOp18
 70
     1
102
RTVSPropertyOp19
 70
     1
102
RTVSPropertyOp20
 70
     1
102
RTVSPropertyOp21
 70
     1
102
RTVSPropertyOp22
 70
     1
102
RTVSPropertyOp23
 70
     1
102
RTVSPropertyOp24
 70
     1
102
RTVSPropertyOp25
 70
     1
102
RTVSPropertyOp26
 70
     1
102
RTVSPropertyOp27
 70
     1
102
RTVSPropertyOp28
 70
     1
102
RTVSPropertyOp29
 70
     1
102
RTVSPropertyOp30
 70
     1
102
RTVSPropertyOp31
 70
     1
102
RTVSPropertyOp32
 70
     1
102
RTVSPropertyOp33
 70
     1
102
RTVSPropertyOp34
 70
     1
102
RTVSPropertyOp35
 70
     1
102
RTVSPropertyOp36
 70
     1
102
RTVSPropertyOp37
 70
     1
102
RTVSPropertyOp38
 70
     1
102
RTVSPropertyOp39
 70
     1
102
RTVSPropertyOp40
 70
     1
102
RTVSPropertyOp41
 70
     1
102
RTVSPropertyOp42
 70
     1
102
RTVSPropertyOp43
 70
     1
102
RTVSPropertyOp44
 70
     1
102
RTVSPropertyOp45
 70
     1
102
RTVSPropertyOp46
 70
     1
102
RTVSPropertyOp47
 70
     1
102
RTVSPropertyOp48
 70
     1
102
RTVSPropertyOp49
 70
     1
102
RTVSPropertyOp50
 70
     1
102
RTVSPropertyOp51
 70
     0
102
RTVSPropertyOp52
 70
     0
102
RTVSPropertyOp53
 70
     1
102
RTVSPropertyOp54
 70
     1
102
RTVSPropertyOp55
 70
     1
102
RTVSPropertyOp56
 70
     1
102
RTVSPropertyOp57
 70
     1
102
RTVSPropertyOp58
 70
     1
102
RTVSPropertyOp59
 70
     1
102
RTVSPropertyOp60
 70
     1
102
RTVSPropertyOp61
 70
     1
102
RTVSPropertyOp62
 70
     1
  0
ENDSEC
  0
EOF
