  0
SECTION
  2
HEADER
  9
$ACADVER
  1
AC1018
  9
$ACADMAINTVER
 70
   104
  9
$DWGCODEPAGE
  3
ANSI_932
  9
$INSBASE
 10
0.0
 20
0.0
 30
0.0
  9
$EXTMIN
 10
110.54027917
 20
81.38555627
 30
0.0
  9
$EXTMAX
 10
29813.10401431
 20
21082.38488593
 30
0.0
  9
$LIMMIN
 10
0.0
 20
0.0
  9
$LIMMAX
 10
420.0
 20
330.0
  9
$ORTHOMODE
 70
     1
  9
$REGENMODE
 70
     1
  9
$FILLMODE
 70
     1
  9
$QTEXTMODE
 70
     0
  9
$MIRRTEXT
 70
     0
  9
$LTSCALE
 40
1.0
  9
$ATTMODE
 70
     1
  9
$TEXTSIZE
 40
0.2
  9
$TRACEWID
 40
0.05
  9
$TEXTSTYLE
  7
STANDARD
  9
$CLAYER
  8
0
  9
$CELTYPE
  6
BYLAYER
  9
$CECOLOR
 62
   256
  9
$CELTSCALE
 40
1.0
  9
$DISPSILH
 70
     1
  9
$DIMSCALE
 40
1.0
  9
$DIMASZ
 40
0.18
  9
$DIMEXO
 40
0.0625
  9
$DIMDLI
 40
0.38
  9
$DIMRND
 40
0.0
  9
$DIMDLE
 40
0.0
  9
$DIMEXE
 40
0.18
  9
$DIMTP
 40
0.0
  9
$DIMTM
 40
0.0
  9
$DIMTXT
 40
0.18
  9
$DIMCEN
 40
0.09
  9
$DIMTSZ
 40
0.0
  9
$DIMTOL
 70
     0
  9
$DIMLIM
 70
     0
  9
$DIMTIH
 70
     1
  9
$DIMTOH
 70
     1
  9
$DIMSE1
 70
     0
  9
$DIMSE2
 70
     0
  9
$DIMTAD
 70
     0
  9
$DIMZIN
 70
     0
  9
$DIMBLK
  1

  9
$DIMASO
 70
     1
  9
$DIMSHO
 70
     0
  9
$DIMPOST
  1

  9
$DIMAPOST
  1

  9
$DIMALT
 70
     0
  9
$DIMALTD
 70
     2
  9
$DIMALTF
 40
25.4
  9
$DIMLFAC
 40
1.0
  9
$DIMTOFL
 70
     0
  9
$DIMTVP
 40
0.0
  9
$DIMTIX
 70
     0
  9
$DIMSOXD
 70
     0
  9
$DIMSAH
 70
     0
  9
$DIMBLK1
  1

  9
$DIMBLK2
  1

  9
$DIMSTYLE
  2
STANDARD
  9
$DIMCLRD
 70
     0
  9
$DIMCLRE
 70
     0
  9
$DIMCLRT
 70
     0
  9
$DIMTFAC
 40
1.0
  9
$DIMGAP
 40
0.09
  9
$DIMJUST
 70
     0
  9
$DIMSD1
 70
     0
  9
$DIMSD2
 70
     0
  9
$DIMTOLJ
 70
     1
  9
$DIMTZIN
 70
     0
  9
$DIMALTZ
 70
     0
  9
$DIMALTTZ
 70
     0
  9
$DIMUPT
 70
     0
  9
$DIMDEC
 70
     4
  9
$DIMTDEC
 70
     4
  9
$DIMALTU
 70
     2
  9
$DIMALTTD
 70
     2
  9
$DIMTXSTY
  7
STANDARD
  9
$DIMAUNIT
 70
     0
  9
$DIMADEC
 70
     0
  9
$DIMALTRND
 40
0.0
  9
$DIMAZIN
 70
     0
  9
$DIMDSEP
 70
    46
  9
$DIMATFIT
 70
     3
  9
$DIMFRAC
 70
     0
  9
$DIMLDRBLK
  1

  9
$DIMLUNIT
 70
     2
  9
$DIMLWD
 70
    -2
  9
$DIMLWE
 70
    -2
  9
$DIMTMOVE
 70
     2
  9
$LUNITS
 70
     2
  9
$LUPREC
 70
     4
  9
$SKETCHINC
 40
0.1
  9
$FILLETRAD
 40
1.0
  9
$AUNITS
 70
     0
  9
$AUPREC
 70
     0
  9
$MENU
  1
acad
  9
$ELEVATION
 40
0.0
  9
$PELEVATION
 40
0.0
  9
$THICKNESS
 40
0.0
  9
$LIMCHECK
 70
     0
  9
$CHAMFERA
 40
0.0
  9
$CHAMFERB
 40
0.0
  9
$CHAMFERC
 40
0.0
  9
$CHAMFERD
 40
0.0
  9
$SKPOLY
 70
     0
  9
$TDCREATE
 40
2453046.711354341
  9
$TDUCREATE
 40
2453046.336354340
  9
$TDUPDATE
 40
2457185.493307720
  9
$TDUUPDATE
 40
2457185.118307720
  9
$TDINDWG
 40
0.0002410185
  9
$TDUSRTIMER
 40
0.0002410185
  9
$USRTIMER
 70
     1
  9
$ANGBASE
 50
0.0
  9
$ANGDIR
 70
     0
  9
$PDMODE
 70
     0
  9
$PDSIZE
 40
0.0
  9
$PLINEWID
 40
0.0
  9
$SPLFRAME
 70
     0
  9
$SPLINETYPE
 70
     6
  9
$SPLINESEGS
 70
     8
  9
$HANDSEED
  5
55B
  9
$SURFTAB1
 70
     6
  9
$SURFTAB2
 70
     6
  9
$SURFTYPE
 70
     6
  9
$SURFU
 70
     6
  9
$SURFV
 70
     6
  9
$UCSBASE
  2

  9
$UCSNAME
  2

  9
$UCSORG
 10
0.0
 20
0.0
 30
0.0
  9
$UCSXDIR
 10
1.0
 20
0.0
 30
0.0
  9
$UCSYDIR
 10
0.0
 20
1.0
 30
0.0
  9
$UCSORTHOREF
  2

  9
$UCSORTHOVIEW
 70
     0
  9
$UCSORGTOP
 10
0.0
 20
0.0
 30
0.0
  9
$UCSORGBOTTOM
 10
0.0
 20
0.0
 30
0.0
  9
$UCSORGLEFT
 10
0.0
 20
0.0
 30
0.0
  9
$UCSORGRIGHT
 10
0.0
 20
0.0
 30
0.0
  9
$UCSORGFRONT
 10
0.0
 20
0.0
 30
0.0
  9
$UCSORGBACK
 10
0.0
 20
0.0
 30
0.0
  9
$PUCSBASE
  2

  9
$PUCSNAME
  2

  9
$PUCSORG
 10
0.0
 20
0.0
 30
0.0
  9
$PUCSXDIR
 10
1.0
 20
0.0
 30
0.0
  9
$PUCSYDIR
 10
0.0
 20
1.0
 30
0.0
  9
$PUCSORTHOREF
  2

  9
$PUCSORTHOVIEW
 70
     0
  9
$PUCSORGTOP
 10
0.0
 20
0.0
 30
0.0
  9
$PUCSORGBOTTOM
 10
0.0
 20
0.0
 30
0.0
  9
$PUCSORGLEFT
 10
0.0
 20
0.0
 30
0.0
  9
$PUCSORGRIGHT
 10
0.0
 20
0.0
 30
0.0
  9
$PUCSORGFRONT
 10
0.0
 20
0.0
 30
0.0
  9
$PUCSORGBACK
 10
0.0
 20
0.0
 30
0.0
  9
$USERI1
 70
     0
  9
$USERI2
 70
     0
  9
$USERI3
 70
     0
  9
$USERI4
 70
     0
  9
$USERI5
 70
     0
  9
$USERR1
 40
0.0
  9
$USERR2
 40
0.0
  9
$USERR3
 40
0.0
  9
$USERR4
 40
0.0
  9
$USERR5
 40
0.0
  9
$WORLDVIEW
 70
     1
  9
$SHADEDGE
 70
     3
  9
$SHADEDIF
 70
    70
  9
$TILEMODE
 70
     1
  9
$MAXACTVP
 70
    16
  9
$PINSBASE
 10
0.0
 20
0.0
 30
0.0
  9
$PLIMCHECK
 70
     0
  9
$PEXTMIN
 10
1.00000000E+20
 20
1.00000000E+20
 30
1.00000000E+20
  9
$PEXTMAX
 10
-1.00000000E+20
 20
-1.00000000E+20
 30
-1.00000000E+20
  9
$PLIMMIN
 10
0.0
 20
0.0
  9
$PLIMMAX
 10
12.0
 20
9.0
  9
$UNITMODE
 70
     0
  9
$VISRETAIN
 70
     0
  9
$PLINEGEN
 70
     0
  9
$PSLTSCALE
 70
     0
  9
$TREEDEPTH
 70
  3020
  9
$CMLSTYLE
  2
STANDARD
  9
$CMLJUST
 70
     0
  9
$CMLSCALE
 40
1.0
  9
$PROXYGRAPHICS
 70
     1
  9
$MEASUREMENT
 70
     1
  9
$CELWEIGHT
370
    -1
  9
$ENDCAPS
280
     0
  9
$JOINSTYLE
280
     0
  9
$LWDISPLAY
290
     0
  9
$INSUNITS
 70
     0
  9
$HYPERLINKBASE
  1

  9
$STYLESHEET
  1

  9
$XEDIT
290
     1
  9
$CEPSNTYPE
380
     0
  9
$PSTYLEMODE
290
     1
  9
$FINGERPRINTGUID
  2
{C342E45F-7982-418F-88E0-3B80471BFE4A}
  9
$VERSIONGUID
  2
{E476E75F-1166-4442-8B8B-F8CEB10BBA47}
  9
$EXTNAMES
290
     1
  9
$PSVPSCALE
 40
0.0
  9
$OLESTARTUP
290
     0
  9
$SORTENTS
280
   127
  9
$INDEXCTL
280
     0
  9
$HIDETEXT
280
     0
  9
$XCLIPFRAME
290
     0
  9
$HALOGAP
280
     0
  9
$OBSCOLOR
 70
   257
  9
$OBSLTYPE
280
     0
  9
$INTERSECTIONDISPLAY
280
     0
  9
$INTERSECTIONCOLOR
 70
   257
  9
$DIMASSOC
280
     1
  9
$PROJECTNAME
  1

  0
ENDSEC
  0
SECTION
  2
CLASSES
  0
CLASS
  1
DICTIONARYVAR
  2
AcDbDictionaryVar
  3
ObjectDBX Classes
 90
        0
 91
        8
280
     0
281
     0
  0
CLASS
  1
ACDBDICTIONARYWDFLT
  2
AcDbDictionaryWithDefault
  3
ObjectDBX Classes
 90
        0
 91
        1
280
     0
281
     0
  0
CLASS
  1
MATERIAL
  2
AcDbMaterial
  3
ObjectDBX Classes
 90
     1153
 91
        3
280
     0
281
     0
  0
CLASS
  1
VISUALSTYLE
  2
AcDbVisualStyle
  3
ObjectDBX Classes
 90
     4095
 91
       24
280
     0
281
     0
  0
CLASS
  1
TABLESTYLE
  2
AcDbTableStyle
  3
ObjectDBX Classes
 90
     4095
 91
        1
280
     0
281
     0
  0
CLASS
  1
SCALE
  2
AcDbScale
  3
ObjectDBX Classes
 90
     1153
 91
       17
280
     0
281
     0
  0
CLASS
  1
MLEADERSTYLE
  2
AcDbMLeaderStyle
  3
ACDB_MLEADERSTYLE_CLASS
 90
     4095
 91
        1
280
     0
281
     0
  0
CLASS
  1
ACDBSECTIONVIEWSTYLE
  2
AcDbSectionViewStyle
  3
ObjectDBX Classes
 90
     1025
 91
        1
280
     0
281
     0
  0
CLASS
  1
ACDBDETAILVIEWSTYLE
  2
AcDbDetailViewStyle
  3
ObjectDBX Classes
 90
     1025
 91
        1
280
     0
281
     0
  0
CLASS
  1
CELLSTYLEMAP
  2
AcDbCellStyleMap
  3
ObjectDBX Classes
 90
     1152
 91
        2
280
     0
281
     0
  0
ENDSEC
  0
SECTION
  2
TABLES
  0
TABLE
  2
VPORT
  5
450
330
0
100
AcDbSymbolTable
 70
     1
  0
VPORT
  5
47A
330
450
100
AcDbSymbolTableRecord
100
AcDbViewportTableRecord
  2
*ACTIVE
 70
     0
 10
0.0
 20
0.0
 11
1.0
 21
1.0
 12
14906.55200715
 22
10541.19244297
 13
0.0
 23
0.0
 14
1.0
 24
1.0
 15
10.0
 25
10.0
 16
0.0
 26
0.0
 36
1.0
 17
0.0
 27
0.0
 37
0.0
 40
22351.39370864
 41
1.34178905
 42
50.0
 43
0.0
 44
0.0
 50
0.0
 51
0.0
 71
     0
 72
   100
 73
     1
 74
     0
 75
     0
 76
     0
 77
     0
 78
     0
281
     0
 65
     1
110
0.0
120
0.0
130
0.0
111
1.0
121
0.0
131
0.0
112
0.0
122
1.0
132
0.0
 79
     0
146
0.0
1001
ACAD_NAV_VCDISPLAY
1070
     1
  0
ENDTAB
  0
TABLE
  2
LTYPE
  5
44D
330
0
100
AcDbSymbolTable
 70
     1
  0
LTYPE
  5
459
330
44D
100
AcDbSymbolTableRecord
100
AcDbLinetypeTableRecord
  2
BYBLOCK
 70
     0
  3

 72
    65
 73
     0
 40
0.0
  0
LTYPE
  5
45A
330
44D
100
AcDbSymbolTableRecord
100
AcDbLinetypeTableRecord
  2
BYLAYER
 70
     0
  3

 72
    65
 73
     0
 40
0.0
  0
LTYPE
  5
45B
330
44D
100
AcDbSymbolTableRecord
100
AcDbLinetypeTableRecord
  2
CONTINUOUS
 70
     0
  3
Solid line
 72
    65
 73
     0
 40
0.0
  0
ENDTAB
  0
TABLE
  2
LAYER
  5
44A
330
0
100
AcDbSymbolTable
 70
     6
  0
LAYER
  5
456
330
44A
100
AcDbSymbolTableRecord
100
AcDbLayerTableRecord
  2
0
 70
     0
 62
     7
  6
CONTINUOUS
370
    -3
390
47D
  0
LAYER
  5
467
330
44A
100
AcDbSymbolTableRecord
100
AcDbLayerTableRecord
  2
YKK_F1
 70
     0
 62
     7
  6
CONTINUOUS
370
    -3
390
47D
  0
LAYER
  5
468
330
44A
100
AcDbSymbolTableRecord
100
AcDbLayerTableRecord
  2
YKK_F2
 70
     0
 62
     7
  6
CONTINUOUS
370
    -3
390
47D
  0
LAYER
  5
469
330
44A
100
AcDbSymbolTableRecord
100
AcDbLayerTableRecord
  2
YKK_IN
 70
     0
 62
     1
  6
CONTINUOUS
370
    -3
390
47D
  0
LAYER
  5
46A
330
44A
100
AcDbSymbolTableRecord
100
AcDbLayerTableRecord
  2
YKK_N1
 70
     0
 62
     2
  6
CONTINUOUS
370
    -3
390
47D
  0
LAYER
  5
46B
330
44A
100
AcDbSymbolTableRecord
100
AcDbLayerTableRecord
  2
YKK_A1
 70
     0
 62
     4
  6
CONTINUOUS
370
    -3
390
47D
  0
ENDTAB
  0
TABLE
  2
STYLE
  5
44B
330
0
100
AcDbSymbolTable
 70
     2
  0
STYLE
  5
457
330
44B
100
AcDbSymbolTableRecord
100
AcDbTextStyleTableRecord
  2
STANDARD
 70
     0
 40
0.0
 41
1.0
 50
0.0
 71
     0
 42
0.2
  3
txt
  4

  0
STYLE
  5
464
330
44B
100
AcDbSymbolTableRecord
100
AcDbTextStyleTableRecord
  2
EXTFONT
 70
     0
 40
0.0
 41
1.0
 50
0.0
 71
     0
 42
3.5
  3
txt.shx
  4
EXTFONT.SHX
  0
ENDTAB
  0
TABLE
  2
VIEW
  5
44E
330
0
100
AcDbSymbolTable
 70
     0
  0
ENDTAB
  0
TABLE
  2
UCS
  5
44F
330
0
100
AcDbSymbolTable
 70
     0
  0
ENDTAB
  0
TABLE
  2
APPID
  5
451
330
0
100
AcDbSymbolTable
 70
     5
  0
APPID
  5
458
330
451
100
AcDbSymbolTableRecord
100
AcDbRegAppTableRecord
  2
ACAD
 70
     0
  0
APPID
  5
508
330
451
100
AcDbSymbolTableRecord
100
AcDbRegAppTableRecord
  2
ACAD_MLEADERVER
 70
     0
  0
APPID
  5
51B
330
451
100
AcDbSymbolTableRecord
100
AcDbRegAppTableRecord
  2
ACAD_PSEXT
 70
     0
  0
APPID
  5
51C
330
451
100
AcDbSymbolTableRecord
100
AcDbRegAppTableRecord
  2
ACAD_NAV_VCDISPLAY
 70
     0
  0
APPID
  5
51D
330
451
100
AcDbSymbolTableRecord
100
AcDbRegAppTableRecord
  2
YKK_AP_LOCKLAYER
 70
     0
  0
ENDTAB
  0
TABLE
  2
DIMSTYLE
  5
452
330
0
100
AcDbSymbolTable
 70
     1
100
AcDbDimStyleTable
 71
     0
  0
DIMSTYLE
105
466
330
452
100
AcDbSymbolTableRecord
100
AcDbDimStyleTableRecord
  2
STANDARD
 70
     0
279
     2
340
457
  0
ENDTAB
  0
TABLE
  2
BLOCK_RECORD
  5
449
330
0
100
AcDbSymbolTable
 70
     0
  0
BLOCK_RECORD
  5
45F
330
449
100
AcDbSymbolTableRecord
100
AcDbBlockTableRecord
  2
*MODEL_SPACE
340
4CF
  0
BLOCK_RECORD
  5
45C
330
449
100
AcDbSymbolTableRecord
100
AcDbBlockTableRecord
  2
*PAPER_SPACE
340
4D0
  0
ENDTAB
  0
ENDSEC
  0
SECTION
  2
BLOCKS
  0
BLOCK
  5
46E
330
45F
100
AcDbEntity
  8
0
100
AcDbBlockBegin
  2
*MODEL_SPACE
 70
     0
 10
0.0
 20
0.0
 30
0.0
  3
*MODEL_SPACE
  1

  0
ENDBLK
  5
46F
330
45F
100
AcDbEntity
  8
0
100
AcDbBlockEnd
  0
BLOCK
  5
46C
330
45C
100
AcDbEntity
 67
     1
  8
0
100
AcDbBlockBegin
  2
*PAPER_SPACE
 70
     0
 10
0.0
 20
0.0
 30
0.0
  3
*PAPER_SPACE
  1

  0
ENDBLK
  5
46D
330
45C
100
AcDbEntity
 67
     1
  8
0
100
AcDbBlockEnd
  0
ENDSEC
  0
SECTION
  2
ENTITIES
  0
LINE
  5
1D
330
45F
100
AcDbEntity
  8
YKK_F1
  6
Continuous
 62
     7
100
AcDbLine
 10
1012.77810518
 20
20199.35598823
 30
0.0
 11
28912.77810518
 21
20199.35598823
 31
0.0
  0
LINE
  5
1F
330
45F
100
AcDbEntity
  8
YKK_F1
  6
Continuous
 62
     7
100
AcDbLine
 10
1012.77810518
 20
3534.35598823
 30
0.0
 11
28912.77810518
 21
3534.35598823
 31
0.0
  0
LINE
  5
20
330
45F
100
AcDbEntity
  8
YKK_F1
  6
Continuous
 62
     7
100
AcDbLine
 10
1012.77810518
 20
9089.35598823
 30
0.0
 11
28912.77810518
 21
9089.35598823
 31
0.0
  0
LINE
  5
21
330
45F
100
AcDbEntity
  8
YKK_F1
  6
Continuous
 62
     7
100
AcDbLine
 10
1012.77810518
 20
8589.35598823
 30
0.0
 11
28912.77810518
 21
8589.35598823
 31
0.0
  0
LINE
  5
22
330
45F
100
AcDbEntity
  8
YKK_F1
  6
Continuous
 62
     7
100
AcDbLine
 10
1012.77810518
 20
8339.35598823
 30
0.0
 11
28912.77810518
 21
8339.35598823
 31
0.0
  0
LINE
  5
23
330
45F
100
AcDbEntity
  8
YKK_F1
  6
Continuous
 62
     7
100
AcDbLine
 10
1012.77810518
 20
3784.35598823
 30
0.0
 11
28912.77810518
 21
3784.35598823
 31
0.0
  0
LINE
  5
24
330
45F
100
AcDbEntity
  8
YKK_F1
  6
Continuous
 62
     7
100
AcDbLine
 10
1012.77810518
 20
4034.35598823
 30
0.0
 11
28912.77810518
 21
4034.35598823
 31
0.0
  0
LINE
  5
25
330
45F
100
AcDbEntity
  8
YKK_F1
  6
Continuous
 62
     7
100
AcDbLine
 10
1012.77810518
 20
4284.35598823
 30
0.0
 11
28912.77810518
 21
4284.35598823
 31
0.0
  0
LINE
  5
26
330
45F
100
AcDbEntity
  8
YKK_F1
  6
Continuous
 62
     7
100
AcDbLine
 10
1012.77810518
 20
4534.35598823
 30
0.0
 11
28912.77810518
 21
4534.35598823
 31
0.0
  0
LINE
  5
27
330
45F
100
AcDbEntity
  8
YKK_F1
  6
Continuous
 62
     7
100
AcDbLine
 10
1012.77810518
 20
4784.35598823
 30
0.0
 11
28912.77810518
 21
4784.35598823
 31
0.0
  0
LINE
  5
28
330
45F
100
AcDbEntity
  8
YKK_F1
  6
Continuous
 62
     7
100
AcDbLine
 10
1012.77810518
 20
5034.35598823
 30
0.0
 11
28912.77810518
 21
5034.35598823
 31
0.0
  0
LINE
  5
29
330
45F
100
AcDbEntity
  8
YKK_F1
  6
Continuous
 62
     7
100
AcDbLine
 10
1012.77810518
 20
5284.35598823
 30
0.0
 11
28912.77810518
 21
5284.35598823
 31
0.0
  0
LINE
  5
2A
330
45F
100
AcDbEntity
  8
YKK_F1
  6
Continuous
 62
     7
100
AcDbLine
 10
1012.77810518
 20
5534.35598823
 30
0.0
 11
28912.77810518
 21
5534.35598823
 31
0.0
  0
LINE
  5
2B
330
45F
100
AcDbEntity
  8
YKK_F1
  6
Continuous
 62
     7
100
AcDbLine
 10
1012.77810518
 20
5784.35598823
 30
0.0
 11
28912.77810518
 21
5784.35598823
 31
0.0
  0
LINE
  5
2C
330
45F
100
AcDbEntity
  8
YKK_F1
  6
Continuous
 62
     7
100
AcDbLine
 10
1012.77810518
 20
11339.35598823
 30
0.0
 11
28912.77810518
 21
11339.35598823
 31
0.0
  0
LINE
  5
2D
330
45F
100
AcDbEntity
  8
YKK_F1
  6
Continuous
 62
     7
100
AcDbLine
 10
1012.77810518
 20
11089.35598823
 30
0.0
 11
28912.77810518
 21
11089.35598823
 31
0.0
  0
LINE
  5
2E
330
45F
100
AcDbEntity
  8
YKK_F1
  6
Continuous
 62
     7
100
AcDbLine
 10
1012.77810518
 20
10839.35598823
 30
0.0
 11
28912.77810518
 21
10839.35598823
 31
0.0
  0
LINE
  5
2F
330
45F
100
AcDbEntity
  8
YKK_F1
  6
Continuous
 62
     7
100
AcDbLine
 10
1012.77810518
 20
10589.35598823
 30
0.0
 11
28912.77810518
 21
10589.35598823
 31
0.0
  0
LINE
  5
30
330
45F
100
AcDbEntity
  8
YKK_F1
  6
Continuous
 62
     7
100
AcDbLine
 10
1012.77810518
 20
10339.35598823
 30
0.0
 11
28912.77810518
 21
10339.35598823
 31
0.0
  0
LINE
  5
31
330
45F
100
AcDbEntity
  8
YKK_F1
  6
Continuous
 62
     7
100
AcDbLine
 10
1012.77810518
 20
10089.35598823
 30
0.0
 11
28912.77810518
 21
10089.35598823
 31
0.0
  0
LINE
  5
32
330
45F
100
AcDbEntity
  8
YKK_F1
  6
Continuous
 62
     7
100
AcDbLine
 10
1012.77810518
 20
9839.35598823
 30
0.0
 11
28912.77810518
 21
9839.35598823
 31
0.0
  0
LINE
  5
33
330
45F
100
AcDbEntity
  8
YKK_F1
  6
Continuous
 62
     7
100
AcDbLine
 10
1012.77810518
 20
9589.35598823
 30
0.0
 11
28912.77810518
 21
9589.35598823
 31
0.0
  0
LINE
  5
34
330
45F
100
AcDbEntity
  8
YKK_F1
  6
Continuous
 62
     7
100
AcDbLine
 10
1012.77810518
 20
9339.35598823
 30
0.0
 11
28912.77810518
 21
9339.35598823
 31
0.0
  0
LINE
  5
35
330
45F
100
AcDbEntity
  8
YKK_F1
  6
Continuous
 62
     7
100
AcDbLine
 10
1012.77810518
 20
13894.35598823
 30
0.0
 11
28912.77810518
 21
13894.35598823
 31
0.0
  0
LINE
  5
36
330
45F
100
AcDbEntity
  8
YKK_F1
  6
Continuous
 62
     7
100
AcDbLine
 10
1012.77810518
 20
14144.35598823
 30
0.0
 11
28912.77810518
 21
14144.35598823
 31
0.0
  0
LINE
  5
37
330
45F
100
AcDbEntity
  8
YKK_F1
  6
Continuous
 62
     7
100
AcDbLine
 10
1012.77810518
 20
19699.35598823
 30
0.0
 11
28912.77810518
 21
19699.35598823
 31
0.0
  0
LINE
  5
38
330
45F
100
AcDbEntity
  8
YKK_F1
  6
Continuous
 62
     7
100
AcDbLine
 10
1012.77810518
 20
19449.35598823
 30
0.0
 11
28912.77810518
 21
19449.35598823
 31
0.0
  0
LINE
  5
39
330
45F
100
AcDbEntity
  8
YKK_F1
  6
Continuous
 62
     7
100
AcDbLine
 10
1012.77810518
 20
14894.35598823
 30
0.0
 11
28912.77810518
 21
14894.35598823
 31
0.0
  0
LINE
  5
3A
330
45F
100
AcDbEntity
  8
YKK_F1
  6
Continuous
 62
     7
100
AcDbLine
 10
1012.77810518
 20
15144.35598823
 30
0.0
 11
28912.77810518
 21
15144.35598823
 31
0.0
  0
LINE
  5
3B
330
45F
100
AcDbEntity
  8
YKK_F1
  6
Continuous
 62
     7
100
AcDbLine
 10
1012.77810518
 20
15394.35598823
 30
0.0
 11
28912.77810518
 21
15394.35598823
 31
0.0
  0
LINE
  5
3C
330
45F
100
AcDbEntity
  8
YKK_F1
  6
Continuous
 62
     7
100
AcDbLine
 10
1012.77810518
 20
15644.35598823
 30
0.0
 11
28912.77810518
 21
15644.35598823
 31
0.0
  0
LINE
  5
3D
330
45F
100
AcDbEntity
  8
YKK_F1
  6
Continuous
 62
     7
100
AcDbLine
 10
1012.77810518
 20
15894.35598823
 30
0.0
 11
28912.77810518
 21
15894.35598823
 31
0.0
  0
LINE
  5
3E
330
45F
100
AcDbEntity
  8
YKK_F1
  6
Continuous
 62
     7
100
AcDbLine
 10
1012.77810518
 20
16144.35598823
 30
0.0
 11
28912.77810518
 21
16144.35598823
 31
0.0
  0
LINE
  5
3F
330
45F
100
AcDbEntity
  8
YKK_F1
  6
Continuous
 62
     7
100
AcDbLine
 10
1012.77810518
 20
16394.35598823
 30
0.0
 11
28912.77810518
 21
16394.35598823
 31
0.0
  0
LINE
  5
40
330
45F
100
AcDbEntity
  8
YKK_F1
  6
Continuous
 62
     7
100
AcDbLine
 10
1012.77810518
 20
16644.35598823
 30
0.0
 11
28912.77810518
 21
16644.35598823
 31
0.0
  0
LINE
  5
41
330
45F
100
AcDbEntity
  8
YKK_F1
  6
Continuous
 62
     7
100
AcDbLine
 10
1012.77810518
 20
16894.35598823
 30
0.0
 11
28912.77810518
 21
16894.35598823
 31
0.0
  0
LINE
  5
42
330
45F
100
AcDbEntity
  8
YKK_F1
  6
Continuous
 62
     7
100
AcDbLine
 10
1012.77810518
 20
14644.35598823
 30
0.0
 11
28912.77810518
 21
14644.35598823
 31
0.0
  0
LINE
  5
43
330
45F
100
AcDbEntity
  8
YKK_F2
  6
Continuous
100
AcDbLine
 10
29303.52910518
 20
582.17170823
 30
0.0
 11
622.51356518
 21
582.17170823
 31
0.0
  0
LINE
  5
45
330
45F
100
AcDbEntity
  8
YKK_F2
  6
Continuous
100
AcDbLine
 10
29152.96810518
 20
731.60767823
 30
0.0
 11
772.51355518
 21
731.60767823
 31
0.0
  0
LINE
  5
46
330
45F
100
AcDbEntity
  8
YKK_F2
  6
Continuous
100
AcDbLine
 10
29102.77810518
 20
782.35969823
 30
0.0
 11
822.70111518
 21
782.35969823
 31
0.0
  0
LINE
  5
47
330
45F
100
AcDbEntity
  8
YKK_F2
  6
Continuous
100
AcDbLine
 10
29115.18410518
 20
769.38970823
 30
0.0
 11
810.29580518
 21
769.38970823
 31
0.0
  0
LINE
  5
48
330
45F
100
AcDbEntity
  8
YKK_F2
  6
Continuous
100
AcDbLine
 10
29128.15610518
 20
756.41977823
 30
0.0
 11
797.88956518
 21
756.41977823
 31
0.0
  0
LINE
  5
49
330
45F
100
AcDbEntity
  8
YKK_F2
  6
Continuous
100
AcDbLine
 10
29140.56010518
 20
744.01374823
 30
0.0
 11
784.91979518
 21
744.01374823
 31
0.0
  0
LINE
  5
4A
330
45F
100
AcDbEntity
  8
YKK_F2
  6
Continuous
100
AcDbLine
 10
772.51355518
 20
2030.85598823
 30
0.0
 11
29152.96810518
 21
2030.85598823
 31
0.0
  0
LINE
  5
4B
330
45F
100
AcDbEntity
  8
YKK_F2
  6
Continuous
100
AcDbLine
 10
772.51355518
 20
20419.38968823
 30
0.0
 11
29152.96810518
 21
20419.38968823
 31
0.0
  0
LINE
  5
4C
330
45F
100
AcDbEntity
  8
YKK_F2
  6
Continuous
100
AcDbLine
 10
784.91979518
 20
20406.98568823
 30
0.0
 11
29140.56010518
 21
20406.98568823
 31
0.0
  0
LINE
  5
4D
330
45F
100
AcDbEntity
  8
YKK_F2
  6
Continuous
100
AcDbLine
 10
797.88956518
 20
20394.01368823
 30
0.0
 11
29128.15610518
 21
20394.01368823
 31
0.0
  0
LINE
  5
4E
330
45F
100
AcDbEntity
  8
YKK_F2
  6
Continuous
100
AcDbLine
 10
810.29580518
 20
20381.04368823
 30
0.0
 11
29115.18410518
 21
20381.04368823
 31
0.0
  0
LINE
  5
4F
330
45F
100
AcDbEntity
  8
YKK_F2
  6
Continuous
100
AcDbLine
 10
622.51356518
 20
20568.82568823
 30
0.0
 11
29303.52910518
 21
20568.82568823
 31
0.0
  0
LINE
  5
50
330
45F
100
AcDbEntity
  8
YKK_F2
  6
Continuous
100
AcDbLine
 10
822.70111518
 20
20368.63868823
 30
0.0
 11
29102.77810518
 21
20368.63868823
 31
0.0
  0
TEXT
  5
51
330
45F
100
AcDbEntity
  8
YKK_F1
100
AcDbText
 10
14272.51355518
 20
2805.85598823
 30
0.0
 40
100.0
  1
Ｍ　　：鏡面
  7
EXTFONT
100
AcDbText
  0
TEXT
  5
53
330
45F
100
AcDbEntity
  8
YKK_F1
100
AcDbText
 10
14272.51355518
 20
2955.85598823
 30
0.0
 40
100.0
  1
Ｈ　　：ヘアライン＃４
  7
EXTFONT
100
AcDbText
  0
TEXT
  5
54
330
45F
100
AcDbEntity
  8
YKK_F1
100
AcDbText
 10
14272.51355518
 20
3105.85598823
 30
0.0
 40
100.0
  1
Ｋ　　：カシュー
  7
EXTFONT
100
AcDbText
  0
TEXT
  5
55
330
45F
100
AcDbEntity
  8
YKK_F1
100
AcDbText
 10
14272.51355518
 20
3255.85598823
 30
0.0
 40
100.0
  1
Ｕ　　：本漆
  7
EXTFONT
100
AcDbText
  0
LINE
  5
56
330
45F
100
AcDbEntity
  8
YKK_F2
100
AcDbLine
 10
111.73910518
 20
81.41968823
 30
0.0
 11
29810.73910518
 21
81.41968823
 31
0.0
  0
LINE
  5
57
330
45F
100
AcDbEntity
  8
YKK_F2
100
AcDbLine
 10
112.73910518
 20
21081.41968823
 30
0.0
 11
29811.73910518
 21
21081.41968823
 31
0.0
  0
TEXT
  5
58
330
45F
100
AcDbEntity
  8
YKK_F1
 62
     7
100
AcDbText
 10
2149.63167185
 20
10359.35598823
 30
0.0
 40
200.0
  1
仕　　　　　　　上
  7
EXTFONT
 72
     1
 11
3202.96500518
 21
10359.35598823
 31
0.0
100
AcDbText
  0
LINE
  5
59
330
45F
100
AcDbEntity
  8
YKK_F1
  6
Continuous
 62
     7
100
AcDbLine
 10
5662.77810518
 20
3534.35598823
 30
0.0
 11
5662.77810518
 21
20199.35598823
 31
0.0
  0
LINE
  5
5A
330
45F
100
AcDbEntity
  8
YKK_F1
  6
Continuous
 62
     7
100
AcDbLine
 10
1012.77810518
 20
3534.35598823
 30
0.0
 11
1012.77810518
 21
20199.35598823
 31
0.0
  0
LINE
  5
5B
330
45F
100
AcDbEntity
  8
YKK_F2
  6
Continuous
100
AcDbLine
 10
622.51356518
 20
582.17170823
 30
0.0
 11
622.51356518
 21
20568.82568823
 31
0.0
  0
LINE
  5
5C
330
45F
100
AcDbEntity
  8
YKK_F2
  6
Continuous
100
AcDbLine
 10
772.51355518
 20
731.60767823
 30
0.0
 11
772.51355518
 21
20419.38968823
 31
0.0
  0
LINE
  5
5D
330
45F
100
AcDbEntity
  8
YKK_F2
  6
Continuous
100
AcDbLine
 10
784.91979518
 20
744.01374823
 30
0.0
 11
784.91979518
 21
20406.98568823
 31
0.0
  0
LINE
  5
5E
330
45F
100
AcDbEntity
  8
YKK_F2
  6
Continuous
100
AcDbLine
 10
797.88956518
 20
756.41977823
 30
0.0
 11
797.88956518
 21
20394.01368823
 31
0.0
  0
LINE
  5
5F
330
45F
100
AcDbEntity
  8
YKK_F2
  6
Continuous
100
AcDbLine
 10
810.29580518
 20
769.38970823
 30
0.0
 11
810.29580518
 21
20381.04368823
 31
0.0
  0
LINE
  5
60
330
45F
100
AcDbEntity
  8
YKK_F2
  6
Continuous
100
AcDbLine
 10
822.70111518
 20
782.35969823
 30
0.0
 11
822.70111518
 21
20368.63868823
 31
0.0
  0
LINE
  5
61
330
45F
100
AcDbEntity
  8
YKK_F2
100
AcDbLine
 10
111.73910518
 20
81.41968823
 30
0.0
 11
111.73910518
 21
21080.41968823
 31
0.0
  0
TEXT
  5
62
330
45F
100
AcDbEntity
  8
YKK_F1
100
AcDbText
 10
1371.60358398
 20
1849.20172823
 30
0.0
 40
120.0
  1
※ＹＳ：シルバー、ＹＢ：ブロンズ、Ｂ７（ＹＢ－５Ｎ）：カームブラック、ＹＨ：ステン、ＹＫ：ブラック、ＹＷ：ホワイト
  7
EXTFONT
100
AcDbText
  0
TEXT
  5
63
330
45F
100
AcDbEntity
  8
YKK_F1
100
AcDbText
 10
4472.51355518
 20
2655.85598823
 30
0.0
 40
100.0
  1
ＡＷ　　　：アルミ窓
  7
EXTFONT
100
AcDbText
  0
LINE
  5
64
330
45F
100
AcDbEntity
  8
YKK_F2
  6
Continuous
100
AcDbLine
 10
10717.06210518
 20
1782.73558823
 30
0.0
 11
772.51355518
 21
1782.73558823
 31
0.0
  0
LINE
  5
65
330
45F
100
AcDbEntity
  8
YKK_F2
  6
Continuous
100
AcDbLine
 10
10717.06210518
 20
1531.79568823
 30
0.0
 11
772.51355518
 21
1531.79568823
 31
0.0
  0
LINE
  5
66
330
45F
100
AcDbEntity
  8
YKK_F2
  6
Continuous
100
AcDbLine
 10
10717.06210518
 20
1281.98378823
 30
0.0
 11
772.51355518
 21
1281.98378823
 31
0.0
  0
LINE
  5
67
330
45F
100
AcDbEntity
  8
YKK_F2
  6
Continuous
100
AcDbLine
 10
10717.06210518
 20
1032.17171823
 30
0.0
 11
772.51355518
 21
1032.17171823
 31
0.0
  0
TEXT
  5
68
330
45F
100
AcDbEntity
  8
YKK_F1
100
AcDbText
 10
4472.51355518
 20
2955.85598823
 30
0.0
 40
100.0
  1
ＳＵＳ・Ｗ：ステンレス窓
  7
EXTFONT
100
AcDbText
  0
TEXT
  5
69
330
45F
100
AcDbEntity
  8
YKK_F1
100
AcDbText
 10
4472.51355518
 20
2355.85598823
 30
0.0
 40
100.0
  1
ＡＧ　　　：アルミガラリ
  7
EXTFONT
100
AcDbText
  0
TEXT
  5
6A
330
45F
100
AcDbEntity
  8
YKK_F1
100
AcDbText
 10
4472.51355518
 20
2205.85598823
 30
0.0
 40
100.0
  1
ＳＧ　　　：スチールガラリ
  7
EXTFONT
100
AcDbText
  0
TEXT
  5
6B
330
45F
100
AcDbEntity
  8
YKK_F1
100
AcDbText
 10
4472.51355518
 20
2805.85598823
 30
0.0
 40
100.0
  1
ＳＷ　　　：スチール窓
  7
EXTFONT
100
AcDbText
  0
TEXT
  5
6C
330
45F
100
AcDbEntity
  8
YKK_F2
100
AcDbText
 10
872.70111518
 20
1857.73558823
 30
0.0
 40
100.0
  1
付記：
  7
EXTFONT
100
AcDbText
  0
TEXT
  5
6D
330
45F
100
AcDbEntity
  8
YKK_F1
 62
     7
100
AcDbText
 10
2149.63167185
 20
3554.35598823
 30
0.0
 40
200.0
  1
備　　　　　　　考
  7
EXTFONT
 72
     1
 11
3202.96500518
 21
3554.35598823
 31
0.0
100
AcDbText
  0
TEXT
  5
6E
330
45F
100
AcDbEntity
  8
YKK_F1
100
AcDbText
 10
2172.51355518
 20
2355.85598823
 30
0.0
 40
100.0
  1
ＷＤ　　　：木製ドア
  7
EXTFONT
100
AcDbText
  0
TEXT
  5
6F
330
45F
100
AcDbEntity
  8
YKK_F1
100
AcDbText
 10
2172.51355518
 20
3255.85598823
 30
0.0
 40
100.0
  1
ＳＵＳ・Ｓ：ステンレスシャッター
  7
EXTFONT
100
AcDbText
  0
TEXT
  5
70
330
45F
100
AcDbEntity
  8
YKK_F1
100
AcDbText
 10
2172.51355518
 20
3105.85598823
 30
0.0
 40
100.0
  1
ＳＳ　　　：スチールシャッター
  7
EXTFONT
100
AcDbText
  0
TEXT
  5
71
330
45F
100
AcDbEntity
  8
YKK_F1
100
AcDbText
 10
2172.51355518
 20
2955.85598823
 30
0.0
 40
100.0
  1
ＳＵＳ・D：ステンレスドア
  7
EXTFONT
100
AcDbText
  0
TEXT
  5
72
330
45F
100
AcDbEntity
  8
YKK_F1
100
AcDbText
 10
2172.51355518
 20
2805.85598823
 30
0.0
 40
100.0
  1
ＳＤ　　　：スチールドア
  7
EXTFONT
100
AcDbText
  0
TEXT
  5
73
330
45F
100
AcDbEntity
  8
YKK_F1
100
AcDbText
 10
2172.51355518
 20
2655.85598823
 30
0.0
 40
100.0
  1
ＬＳＤ　　：軽量スチールドア
  7
EXTFONT
100
AcDbText
  0
TEXT
  5
74
330
45F
100
AcDbEntity
  8
YKK_F1
100
AcDbText
 10
2172.51355518
 20
2505.85598823
 30
0.0
 40
100.0
  1
ＡＤ　　　：アルミドア
  7
EXTFONT
100
AcDbText
  0
TEXT
  5
75
330
45F
100
AcDbEntity
  8
YKK_F1
100
AcDbText
 10
2172.51355518
 20
2205.85598823
 30
0.0
 40
100.0
  1
ＴＤ　　　：強化ガラスドア
  7
EXTFONT
100
AcDbText
  0
TEXT
  5
76
330
45F
100
AcDbEntity
  8
0
100
AcDbText
 10
1372.62609118
 20
832.92328823
 30
0.0
 40
150.0
  1
＊
  7
EXTFONT
100
AcDbText
  0
TEXT
  5
77
330
45F
100
AcDbEntity
  8
0
100
AcDbText
 10
1372.62609118
 20
1083.86318823
 30
0.0
 40
150.0
  1
＊
  7
EXTFONT
100
AcDbText
  0
TEXT
  5
78
330
45F
100
AcDbEntity
  8
0
100
AcDbText
 10
1372.62609118
 20
1331.98358823
 30
0.0
 40
150.0
  1
＊
  7
EXTFONT
100
AcDbText
  0
TEXT
  5
79
330
45F
100
AcDbEntity
  8
0
100
AcDbText
 10
1372.62609118
 20
1582.92348823
 30
0.0
 40
150.0
  1
＊
  7
EXTFONT
100
AcDbText
  0
TEXT
  5
7A
330
45F
100
AcDbEntity
  8
YKK_F1
100
AcDbText
 10
972.51355518
 20
3255.85598823
 30
0.0
 40
100.0
  1
符号
  7
EXTFONT
100
AcDbText
  0
TEXT
  5
7B
330
45F
100
AcDbEntity
  8
YKK_F1
100
AcDbText
 10
1572.51355518
 20
3255.85598823
 30
0.0
 40
100.0
  1
建具記号
  7
EXTFONT
100
AcDbText
  0
TEXT
  5
7C
330
45F
100
AcDbEntity
  8
YKK_F1
100
AcDbText
 10
4472.51355518
 20
3105.85598823
 30
0.0
 40
100.0
  1
Ｈ　　　　：襖
  7
EXTFONT
100
AcDbText
  0
TEXT
  5
7D
330
45F
100
AcDbEntity
  8
YKK_F1
100
AcDbText
 10
4472.51355518
 20
2505.85598823
 30
0.0
 40
100.0
  1
ＷＷ　　　：木製窓
  7
EXTFONT
100
AcDbText
  0
TEXT
  5
7E
330
45F
100
AcDbEntity
  8
YKK_F1
100
AcDbText
 10
4472.51355518
 20
3255.85598823
 30
0.0
 40
100.0
  1
ＷＰ　　　：障子
  7
EXTFONT
100
AcDbText
  0
TEXT
  5
7F
330
45F
100
AcDbEntity
  8
YKK_F1
 62
     7
100
AcDbText
 10
1669.63167185
 20
5554.35598823
 30
0.0
 40
200.0
  1
型式・防音・エアタイト仕様
  7
EXTFONT
 72
     1
 11
3202.96500518
 21
5554.35598823
 31
0.0
100
AcDbText
  0
TEXT
  5
80
330
45F
100
AcDbEntity
  8
YKK_F1
 62
     7
100
AcDbText
 10
1249.63167185
 20
5304.35598823
 30
0.0
 40
200.0
  1
寸法・見付・見込（枠見付・枠見込）
  7
EXTFONT
 72
     1
 11
3202.96500518
 21
5304.35598823
 31
0.0
100
AcDbText
  0
TEXT
  5
81
330
45F
100
AcDbEntity
  8
YKK_F1
 62
     7
100
AcDbText
 10
2149.63167185
 20
5054.35598823
 30
0.0
 40
200.0
  1
材　質　・　仕　様
  7
EXTFONT
 72
     1
 11
3202.96500518
 21
5054.35598823
 31
0.0
100
AcDbText
  0
TEXT
  5
82
330
45F
100
AcDbEntity
  8
YKK_F1
 62
     7
100
AcDbText
 10
2149.63167185
 20
4804.35598823
 30
0.0
 40
200.0
  1
仕　　　　　　　上
  7
EXTFONT
 72
     1
 11
3202.96500518
 21
4804.35598823
 31
0.0
100
AcDbText
  0
TEXT
  5
83
330
45F
100
AcDbEntity
  8
YKK_F1
 62
     7
100
AcDbText
 10
1782.96500518
 20
4554.35598823
 30
0.0
 40
200.0
  1
ガラス・種類・ガラス押え
  7
EXTFONT
 72
     1
 11
3202.96500518
 21
4554.35598823
 31
0.0
100
AcDbText
  0
TEXT
  5
84
330
45F
100
AcDbEntity
  8
YKK_F1
 62
     7
100
AcDbText
 10
2029.63167185
 20
4304.35598823
 30
0.0
 40
200.0
  1
建　　具　　金　　物
  7
EXTFONT
 72
     1
 11
3202.96500518
 21
4304.35598823
 31
0.0
100
AcDbText
  0
TEXT
  5
85
330
45F
100
AcDbEntity
  8
YKK_F1
 62
     7
100
AcDbText
 10
1902.96500518
 20
4054.35598823
 30
0.0
 40
200.0
  1
(付　　属　　金　　物)
  7
EXTFONT
 72
     1
 11
3202.96500518
 21
4054.35598823
 31
0.0
100
AcDbText
  0
TEXT
  5
86
330
45F
100
AcDbEntity
  8
YKK_F1
 62
     7
100
AcDbText
 10
2156.29833852
 20
6981.85598823
 30
0.0
 40
200.0
  1
姿　　　　　　　図
  7
EXTFONT
 72
     1
 11
3202.96500518
 21
6981.85598823
 31
0.0
100
AcDbText
  0
TEXT
  5
87
330
45F
100
AcDbEntity
  8
YKK_F1
 62
     7
100
AcDbText
 10
2149.63167185
 20
8359.35598823
 30
0.0
 40
200.0
  1
使用箇所・防火仕様
  7
EXTFONT
 72
     1
 11
3202.96500518
 21
8359.35598823
 31
0.0
100
AcDbText
  0
TEXT
  5
88
330
45F
100
AcDbEntity
  8
YKK_F1
 62
     7
100
AcDbText
 10
2149.63167185
 20
8714.35598823
 30
0.0
 40
200.0
  1
符　号　・　数　量
  7
EXTFONT
 72
     1
 11
3202.96500518
 21
8714.35598823
 31
0.0
100
AcDbText
  0
TEXT
  5
89
330
45F
100
AcDbEntity
  8
YKK_F1
 62
     7
100
AcDbText
 10
2149.63167185
 20
9109.35598823
 30
0.0
 40
200.0
  1
備　　　　　　　考
  7
EXTFONT
 72
     1
 11
3202.96500518
 21
9109.35598823
 31
0.0
100
AcDbText
  0
TEXT
  5
8A
330
45F
100
AcDbEntity
  8
YKK_F1
 62
     7
100
AcDbText
 10
1902.96500518
 20
9609.35598823
 30
0.0
 40
200.0
  1
(付　　属　　金　　物)
  7
EXTFONT
 72
     1
 11
3202.96500518
 21
9609.35598823
 31
0.0
100
AcDbText
  0
TEXT
  5
8B
330
45F
100
AcDbEntity
  8
YKK_F1
 62
     7
100
AcDbText
 10
2029.63167185
 20
9859.35598823
 30
0.0
 40
200.0
  1
建　　具　　金　　物
  7
EXTFONT
 72
     1
 11
3202.96500518
 21
9859.35598823
 31
0.0
100
AcDbText
  0
TEXT
  5
8C
330
45F
100
AcDbEntity
  8
YKK_F1
 62
     7
100
AcDbText
 10
1782.96500518
 20
10109.35598823
 30
0.0
 40
200.0
  1
ガラス・種類・ガラス押え
  7
EXTFONT
 72
     1
 11
3202.96500518
 21
10109.35598823
 31
0.0
100
AcDbText
  0
LINE
  5
8D
330
45F
100
AcDbEntity
  8
YKK_F1
  6
Continuous
 62
     7
100
AcDbLine
 10
10312.77810518
 20
3534.35598823
 30
0.0
 11
10312.77810518
 21
4534.35598823
 31
0.0
  0
TEXT
  5
8E
330
45F
100
AcDbEntity
  8
0
100
AcDbText
 10
10412.77810518
 20
3921.85598823
 30
0.0
 40
100.0
  1
片面ハンドルサムターン付手架
  7
EXTFONT
100
AcDbText
  0
TEXT
  5
8F
330
45F
100
AcDbEntity
  8
0
100
AcDbText
 10
5762.77810518
 20
3834.35598823
 30
0.0
 40
150.0
  1
※
  7
EXTFONT
100
AcDbText
  0
TEXT
  5
90
330
45F
100
AcDbEntity
  8
YKK_F1
100
AcDbText
 10
9072.51355518
 20
3105.85598823
 30
0.0
 40
100.0
  1
Ａ　　：アルミニウム耐蝕合金
  7
EXTFONT
100
AcDbText
  0
TEXT
  5
91
330
45F
100
AcDbEntity
  8
YKK_F1
100
AcDbText
 10
9072.51355518
 20
2655.85598823
 30
0.0
 40
100.0
  1
ＳＵＳ：ステンレススチール
  7
EXTFONT
100
AcDbText
  0
TEXT
  5
92
330
45F
100
AcDbEntity
  8
YKK_F1
100
AcDbText
 10
9072.51355518
 20
2355.85598823
 30
0.0
 40
100.0
  1
Ｈ　　：ハニカムコア（アルミ・紙・その他）
  7
EXTFONT
100
AcDbText
  0
TEXT
  5
93
330
45F
100
AcDbEntity
  8
0
100
AcDbText
 10
5762.77810518
 20
3584.35598823
 30
0.0
 40
150.0
  1
ＹＫＫＡＰ　ＹＡＴ－１００（Ｋ－８０２）同等品
  7
EXTFONT
100
AcDbText
  0
TEXT
  5
94
330
45F
100
AcDbEntity
  8
YKK_F1
100
AcDbText
 10
6772.51355518
 20
3255.85598823
 30
0.0
 40
100.0
  1
ＳＭ　　　：防煙垂壁
  7
EXTFONT
100
AcDbText
  0
TEXT
  5
95
330
45F
100
AcDbEntity
  8
YKK_F1
100
AcDbText
 10
6772.51355518
 20
2205.85598823
 30
0.0
 40
100.0
  1
＊
  7
EXTFONT
100
AcDbText
  0
TEXT
  5
96
330
45F
100
AcDbEntity
  8
YKK_F1
100
AcDbText
 10
6772.51355518
 20
3105.85598823
 30
0.0
 40
100.0
  1
＊
  7
EXTFONT
100
AcDbText
  0
TEXT
  5
97
330
45F
100
AcDbEntity
  8
YKK_F1
100
AcDbText
 10
6772.51355518
 20
2655.85598823
 30
0.0
 40
100.0
  1
＊
  7
EXTFONT
100
AcDbText
  0
TEXT
  5
98
330
45F
100
AcDbEntity
  8
YKK_F1
100
AcDbText
 10
6772.51355518
 20
2355.85598823
 30
0.0
 40
100.0
  1
＊
  7
EXTFONT
100
AcDbText
  0
TEXT
  5
99
330
45F
100
AcDbEntity
  8
YKK_F1
100
AcDbText
 10
6772.51355518
 20
2505.85598823
 30
0.0
 40
100.0
  1
＊
  7
EXTFONT
100
AcDbText
  0
TEXT
  5
9A
330
45F
100
AcDbEntity
  8
YKK_F1
100
AcDbText
 10
6772.51355518
 20
2955.85598823
 30
0.0
 40
100.0
  1
＊
  7
EXTFONT
100
AcDbText
  0
TEXT
  5
9B
330
45F
100
AcDbEntity
  8
YKK_F1
100
AcDbText
 10
6772.51355518
 20
2805.85598823
 30
0.0
 40
100.0
  1
＊
  7
EXTFONT
100
AcDbText
  0
TEXT
  5
9C
330
45F
100
AcDbEntity
  8
YKK_F1
100
AcDbText
 10
9072.51355518
 20
2205.85598823
 30
0.0
 40
100.0
  1
＊
  7
EXTFONT
100
AcDbText
  0
TEXT
  5
9D
330
45F
100
AcDbEntity
  8
YKK_F1
100
AcDbText
 10
9072.51355518
 20
2955.85598823
 30
0.0
 40
100.0
  1
Ｗ　　：木製
  7
EXTFONT
100
AcDbText
  0
TEXT
  5
9E
330
45F
100
AcDbEntity
  8
YKK_F1
100
AcDbText
 10
8672.51355518
 20
3255.85598823
 30
0.0
 40
100.0
  1
材質
  7
EXTFONT
100
AcDbText
  0
TEXT
  5
9F
330
45F
100
AcDbEntity
  8
YKK_F1
100
AcDbText
 10
9072.51355518
 20
2805.85598823
 30
0.0
 40
100.0
  1
Ｔ　　：強化ガラス
  7
EXTFONT
100
AcDbText
  0
TEXT
  5
A0
330
45F
100
AcDbEntity
  8
YKK_F1
100
AcDbText
 10
9072.51355518
 20
2505.85598823
 30
0.0
 40
100.0
  1
Ｂ　　：ブロンズ・銅
  7
EXTFONT
100
AcDbText
  0
TEXT
  5
A1
330
45F
100
AcDbEntity
  8
YKK_F1
100
AcDbText
 10
9072.51355518
 20
3255.85598823
 30
0.0
 40
100.0
  1
Ｓ　　：スチール
  7
EXTFONT
100
AcDbText
  0
TEXT
  5
A2
330
45F
100
AcDbEntity
  8
0
100
AcDbText
 10
10412.77810518
 20
3796.85598823
 30
0.0
 40
100.0
  1
両面ハンドル　・両面ハンドル片面シリンダー付
  7
EXTFONT
100
AcDbText
  0
TEXT
  5
A3
330
45F
100
AcDbEntity
  8
0
100
AcDbText
 10
10412.77810518
 20
3671.85598823
 30
0.0
 40
100.0
  1
両面ハンドル両面シリンダー付　・両面ハンドル片面サムターン付き
  7
EXTFONT
100
AcDbText
  0
TEXT
  5
A4
330
45F
100
AcDbEntity
  8
0
100
AcDbText
 10
10412.77810518
 20
3546.85598823
 30
0.0
 40
100.0
  1
両面ハンドルシリンダーサムターン付　・取外しハンドルフラッシュカバー付
  7
EXTFONT
100
AcDbText
  0
TEXT
  5
A5
330
45F
100
AcDbEntity
  8
YKK_F1
100
AcDbText
 10
11972.51355518
 20
2355.85598823
 30
0.0
 40
100.0
  1
ＭＰ　：メラミン化粧板貼
  7
EXTFONT
100
AcDbText
  0
TEXT
  5
A6
330
45F
100
AcDbEntity
  8
YKK_F1
100
AcDbText
 10
11972.51355518
 20
2505.85598823
 30
0.0
 40
100.0
  1
ＡＣ　：アルミ電解着色処理（色）
  7
EXTFONT
100
AcDbText
  0
TEXT
  5
A7
330
45F
100
AcDbEntity
  8
YKK_F1
100
AcDbText
 10
11972.51355518
 20
2805.85598823
 30
0.0
 40
100.0
  1
ＬＥＢ：合成樹脂色焼付
  7
EXTFONT
100
AcDbText
  0
TEXT
  5
A8
330
45F
100
AcDbEntity
  8
YKK_F1
100
AcDbText
 10
11972.51355518
 20
3105.85598823
 30
0.0
 40
100.0
  1
ＣＬ　：クリアラッカー
  7
EXTFONT
100
AcDbText
  0
TEXT
  5
A9
330
45F
100
AcDbEntity
  8
YKK_F1
100
AcDbText
 10
11972.51355518
 20
2655.85598823
 30
0.0
 40
100.0
  1
Ａ　　：アルミ酸化皮膜処理（白）
  7
EXTFONT
100
AcDbText
  0
TEXT
  5
AA
330
45F
100
AcDbEntity
  8
YKK_F1
100
AcDbText
 10
11972.51355518
 20
2955.85598823
 30
0.0
 40
100.0
  1
ＬＥ　：合成樹脂色ラッカー
  7
EXTFONT
100
AcDbText
  0
TEXT
  5
AB
330
45F
100
AcDbEntity
  8
YKK_F1
100
AcDbText
 10
11972.51355518
 20
3255.85598823
 30
0.0
 40
100.0
  1
ＳＯＰ：合成樹脂調合ペイント
  7
EXTFONT
100
AcDbText
  0
TEXT
  5
AC
330
45F
100
AcDbEntity
  8
YKK_F2
  6
Continuous
100
AcDbText
 10
10933.04010518
 20
831.41968823
 30
0.0
 40
150.0
  1
**,**,**
100
AcDbText
  0
TEXT
  5
AD
330
45F
100
AcDbEntity
  8
YKK_F2
  6
Continuous
100
AcDbText
 10
10933.04010518
 20
1248.14908823
 30
0.0
 40
150.0
  1
**,**,**
100
AcDbText
  0
TEXT
  5
AE
330
45F
100
AcDbEntity
  8
YKK_F2
  6
Continuous
100
AcDbText
 10
10933.04010518
 20
1664.87848823
 30
0.0
 40
150.0
  1
**,**,**
100
AcDbText
  0
TEXT
  5
AF
330
45F
100
AcDbEntity
  8
YKK_F2
100
AcDbText
 10
10767.06210518
 20
1897.73558823
 30
0.0
 40
100.0
  1
審査　　年　　月　　日
  7
EXTFONT
100
AcDbText
  0
TEXT
  5
B0
330
45F
100
AcDbEntity
  8
YKK_F2
100
AcDbText
 10
10767.06210518
 20
1482.69788823
 30
0.0
 40
100.0
  1
設計　　年　　月　　日
  7
EXTFONT
100
AcDbText
  0
TEXT
  5
B1
330
45F
100
AcDbEntity
  8
YKK_F2
100
AcDbText
 10
10767.06210518
 20
1065.96848823
 30
0.0
 40
100.0
  1
測量　　年　　月　　日
  7
EXTFONT
100
AcDbText
  0
LINE
  5
B2
330
45F
100
AcDbEntity
  8
YKK_F2
  6
Continuous
100
AcDbLine
 10
12215.93510518
 20
1615.81828823
 30
0.0
 11
10717.06210518
 21
1615.81828823
 31
0.0
  0
LINE
  5
B3
330
45F
100
AcDbEntity
  8
YKK_F2
  6
Continuous
100
AcDbLine
 10
12215.93510518
 20
1199.08888823
 30
0.0
 11
10717.06210518
 21
1199.08888823
 31
0.0
  0
LINE
  5
B4
330
45F
100
AcDbEntity
  8
YKK_F2
  6
Continuous
100
AcDbLine
 10
10717.06210518
 20
2030.85598823
 30
0.0
 11
10717.06210518
 21
731.60767823
 31
0.0
  0
LINE
  5
B5
330
45F
100
AcDbEntity
  8
YKK_F2
  6
Continuous
100
AcDbLine
 10
12215.93510518
 20
2030.85598823
 30
0.0
 11
12215.93510518
 21
731.60767823
 31
0.0
  0
TEXT
  5
B6
330
45F
100
AcDbEntity
  8
YKK_F1
100
AcDbText
 10
11972.51355518
 20
2205.85598823
 30
0.0
 40
100.0
  1
＊
  7
EXTFONT
100
AcDbText
  0
TEXT
  5
B7
330
45F
100
AcDbEntity
  8
YKK_F1
100
AcDbText
 10
11572.51355518
 20
3255.85598823
 30
0.0
 40
100.0
  1
仕上
  7
EXTFONT
100
AcDbText
  0
TEXT
  5
B8
330
45F
100
AcDbEntity
  8
YKK_F1
100
AcDbText
 10
14272.51355518
 20
2205.85598823
 30
0.0
 40
100.0
  1
＊
  7
EXTFONT
100
AcDbText
  0
TEXT
  5
B9
330
45F
100
AcDbEntity
  8
YKK_F1
100
AcDbText
 10
14272.51355518
 20
2355.85598823
 30
0.0
 40
100.0
  1
＊
  7
EXTFONT
100
AcDbText
  0
TEXT
  5
BA
330
45F
100
AcDbEntity
  8
YKK_F1
100
AcDbText
 10
14272.51355518
 20
2655.85598823
 30
0.0
 40
100.0
  1
＊
  7
EXTFONT
100
AcDbText
  0
TEXT
  5
BB
330
45F
100
AcDbEntity
  8
YKK_F1
100
AcDbText
 10
14272.51355518
 20
2505.85598823
 30
0.0
 40
100.0
  1
＊
  7
EXTFONT
100
AcDbText
  0
LINE
  5
BC
330
45F
100
AcDbEntity
  8
YKK_A1
100
AcDbLine
 10
10274.47802318
 20
8181.00592823
 30
0.0
 11
10196.77802318
 21
8258.00592823
 31
0.0
  0
LINE
  5
BE
330
45F
100
AcDbEntity
  8
YKK_A1
100
AcDbLine
 10
10255.32802318
 20
7340.70594823
 30
0.0
 11
10245.62802318
 21
7340.70594823
 31
0.0
  0
LINE
  5
BF
330
45F
100
AcDbEntity
  8
YKK_A1
100
AcDbLine
 10
10255.32802318
 20
7190.70614823
 30
0.0
 11
10214.62802318
 21
7190.70614823
 31
0.0
  0
LINE
  5
C0
330
45F
100
AcDbEntity
  8
YKK_A1
100
AcDbLine
 10
10200.77802318
 20
6258.00604823
 30
0.0
 11
10274.47802318
 21
6331.00604823
 31
0.0
  0
TEXT
  5
C1
330
45F
100
AcDbEntity
  8
YKK_N1
100
AcDbText
 10
10022.77805868
 20
5880.70604823
 30
0.0
 40
60.0
  1
W=4000
 72
     1
 11
10187.77805868
 21
5880.70604823
 31
0.0
100
AcDbText
  0
LINE
  5
C3
330
45F
100
AcDbEntity
  8
YKK_A1
100
AcDbLine
 10
12218.62805518
 20
8298.00592823
 30
0.0
 11
8156.92805518
 21
8298.00592823
 31
0.0
  0
LINE
  5
C4
330
45F
100
AcDbEntity
  8
YKK_A1
100
AcDbLine
 10
12218.62805518
 20
6191.00604823
 30
0.0
 11
8156.92805518
 21
6191.00604823
 31
0.0
  0
LINE
  5
C5
330
45F
100
AcDbEntity
  8
YKK_N1
100
AcDbLine
 10
8187.77805518
 20
5875.70604823
 30
0.0
 11
12187.77806218
 21
5875.70604823
 31
0.0
  0
LINE
  5
C6
330
45F
100
AcDbEntity
  8
YKK_A1
100
AcDbLine
 10
12203.92805518
 20
6258.00604823
 30
0.0
 11
8171.62805518
 21
6258.00604823
 31
0.0
  0
LINE
  5
C7
330
45F
100
AcDbEntity
  8
YKK_A1
100
AcDbLine
 10
8171.62805518
 20
8258.00592823
 30
0.0
 11
12203.92805518
 21
8258.00592823
 31
0.0
  0
LINE
  5
C8
330
45F
100
AcDbEntity
  8
YKK_A1
100
AcDbLine
 10
10120.92802318
 20
7340.70594823
 30
0.0
 11
10120.92802318
 21
7190.70614823
 31
0.0
  0
LINE
  5
C9
330
45F
100
AcDbEntity
  8
YKK_A1
100
AcDbLine
 10
10214.62802318
 20
7340.70594823
 30
0.0
 11
10214.62802318
 21
7190.70614823
 31
0.0
  0
LINE
  5
CA
330
45F
100
AcDbEntity
  8
YKK_A1
100
AcDbLine
 10
10160.92802318
 20
7340.70594823
 30
0.0
 11
10160.92802318
 21
7190.70614823
 31
0.0
  0
LINE
  5
CB
330
45F
100
AcDbEntity
  8
YKK_A1
100
AcDbLine
 10
9910.77802318
 20
7256.00599823
 30
0.0
 11
9910.77802318
 21
6815.05599823
 31
0.0
  0
LINE
  5
CC
330
45F
100
AcDbEntity
  8
YKK_A1
100
AcDbLine
 10
10180.77802318
 20
6258.00604823
 30
0.0
 11
10180.77802318
 21
8258.00592823
 31
0.0
  0
LINE
  5
CD
330
45F
100
AcDbEntity
  8
YKK_A1
100
AcDbLine
 10
10194.77802318
 20
6258.00604823
 30
0.0
 11
10194.77802318
 21
8258.00592823
 31
0.0
  0
LINE
  5
CE
330
45F
100
AcDbEntity
  8
YKK_A1
100
AcDbLine
 10
10081.07802318
 20
8161.00594823
 30
0.0
 11
10081.07802318
 21
6351.00604823
 31
0.0
  0
LINE
  5
CF
330
45F
100
AcDbEntity
  8
YKK_A1
100
AcDbLine
 10
10101.07802318
 20
8181.00592823
 30
0.0
 11
10101.07802318
 21
6331.00604823
 31
0.0
  0
LINE
  5
D0
330
45F
100
AcDbEntity
  8
YKK_A1
100
AcDbLine
 10
8156.92805518
 20
8298.00592823
 30
0.0
 11
8156.92805518
 21
6191.00604823
 31
0.0
  0
LINE
  5
D1
330
45F
100
AcDbEntity
  8
YKK_A1
100
AcDbLine
 10
8187.97805518
 20
8258.00592823
 30
0.0
 11
8187.97805518
 21
6258.00604823
 31
0.0
  0
LINE
  5
D2
330
45F
100
AcDbEntity
  8
YKK_A1
100
AcDbLine
 10
8212.97805518
 20
8231.00592823
 30
0.0
 11
8212.97805518
 21
6278.00604823
 31
0.0
  0
LINE
  5
D3
330
45F
100
AcDbEntity
  8
YKK_A1
100
AcDbLine
 10
9137.77802318
 20
8258.00592823
 30
0.0
 11
9137.77802318
 21
6258.00604823
 31
0.0
  0
LINE
  5
D4
330
45F
100
AcDbEntity
  8
YKK_A1
100
AcDbLine
 10
9240.47802318
 20
8161.00594823
 30
0.0
 11
9240.47802318
 21
6351.00604823
 31
0.0
  0
LINE
  5
D5
330
45F
100
AcDbEntity
  8
YKK_A1
100
AcDbLine
 10
9220.47802318
 20
6331.00604823
 30
0.0
 11
9220.47802318
 21
8181.00592823
 31
0.0
  0
LINE
  5
D6
330
45F
100
AcDbEntity
  8
YKK_A1
100
AcDbLine
 10
8192.97805518
 20
6258.00604823
 30
0.0
 11
8192.97805518
 21
8258.00592823
 31
0.0
  0
LINE
  5
D7
330
45F
100
AcDbEntity
  8
YKK_A1
100
AcDbLine
 10
9410.77802318
 20
7256.00599823
 30
0.0
 11
9510.77802318
 21
7216.00599823
 31
0.0
  0
TEXT
  5
D8
330
45F
100
AcDbEntity
  8
0
100
AcDbText
 10
5762.77810518
 20
4834.35598823
 30
0.0
 40
150.0
  1
シルバー・カラー（ブロンズ、ステン、ブラック）
  7
EXTFONT
100
AcDbText
  0
TEXT
  5
D9
330
45F
100
AcDbEntity
  8
0
100
AcDbText
 10
5762.77810518
 20
5334.35598823
 30
0.0
 40
150.0
  1
W=4000　H=2000　見込100
  7
EXTFONT
100
AcDbText
  0
TEXT
  5
DA
330
45F
100
AcDbEntity
  8
0
100
AcDbText
 10
5762.77810518
 20
5584.35598823
 30
0.0
 40
150.0
  1
大型引戸（引分け：内動）
  7
EXTFONT
100
AcDbText
  0
TEXT
  5
DB
330
45F
100
AcDbEntity
  8
0
100
AcDbText
 10
5762.77810518
 20
4334.35598823
 30
0.0
 40
150.0
  1
１８０゜回転ハンドル・ダブル戸車・気密材
  7
EXTFONT
100
AcDbText
  0
TEXT
  5
DC
330
45F
100
AcDbEntity
  8
0
100
AcDbText
 10
5762.77810518
 20
4584.35598823
 30
0.0
 40
150.0
  1
ＦＬ・透明・シール納まり
  7
EXTFONT
100
AcDbText
  0
TEXT
  5
DE
330
45F
100
AcDbEntity
  8
0
100
AcDbText
 10
5762.77810518
 20
5084.35598823
 30
0.0
 40
150.0
  1
アルミ製
  7
EXTFONT
100
AcDbText
  0
TEXT
  5
DF
330
45F
100
AcDbEntity
  8
YKK_A1
100
AcDbText
 10
9056.73593067
 20
6316.85260323
 30
0.0
 40
60.0
  1
F
 72
     1
 11
9076.73593067
 21
6316.85260323
 31
0.0
100
AcDbText
  0
LINE
  5
E0
330
45F
100
AcDbEntity
  8
YKK_A1
100
AcDbLine
 10
8192.97805518
 20
6278.00604823
 30
0.0
 11
9137.77802318
 21
6278.00604823
 31
0.0
  0
LINE
  5
E1
330
45F
100
AcDbEntity
  8
YKK_N1
100
AcDbLine
 10
8187.77805518
 20
6116.00604823
 30
0.0
 11
8187.77805518
 21
5875.70604823
 31
0.0
  0
LINE
  5
E2
330
45F
100
AcDbEntity
  8
YKK_N1
100
AcDbLine
 10
8274.38059556
 20
5925.70604823
 30
0.0
 11
8187.77805518
 21
5875.70604823
 31
0.0
  0
LINE
  5
E3
330
45F
100
AcDbEntity
  8
YKK_N1
100
AcDbLine
 10
8187.77805518
 20
5875.70604823
 30
0.0
 11
8274.38059556
 21
5825.70604823
 31
0.0
  0
LINE
  5
E4
330
45F
100
AcDbEntity
  8
YKK_N1
100
AcDbLine
 10
8274.38059556
 20
5925.70604823
 30
0.0
 11
8274.38059556
 21
5825.70604823
 31
0.0
  0
LINE
  5
E5
330
45F
100
AcDbEntity
  8
YKK_A1
100
AcDbLine
 10
8171.62805518
 20
6258.00604823
 30
0.0
 11
8171.62805518
 21
6191.00604823
 31
0.0
  0
LINE
  5
E6
330
45F
100
AcDbEntity
  8
YKK_A1
100
AcDbLine
 10
9220.47802318
 20
6351.00604823
 30
0.0
 11
10101.07802318
 21
6351.00604823
 31
0.0
  0
LINE
  5
E7
330
45F
100
AcDbEntity
  8
YKK_A1
100
AcDbLine
 10
10101.07802318
 20
6331.00604823
 30
0.0
 11
9220.47802318
 21
6331.00604823
 31
0.0
  0
LINE
  5
E8
330
45F
100
AcDbEntity
  8
YKK_A1
100
AcDbLine
 10
9220.47802318
 20
6331.00604823
 30
0.0
 11
9150.77802318
 21
6258.00604823
 31
0.0
  0
LINE
  5
E9
330
45F
100
AcDbEntity
  8
YKK_A1
100
AcDbLine
 10
10174.77802318
 20
6258.00604823
 30
0.0
 11
10101.07802318
 21
6331.00604823
 31
0.0
  0
LINE
  5
EA
330
45F
100
AcDbEntity
  8
YKK_IN
100
AcDbLine
 10
10223.13339774
 20
6301.06138729
 30
0.0
 11
10152.42271962
 21
6230.35070918
 31
0.0
  0
LINE
  5
EC
330
45F
100
AcDbEntity
  8
YKK_IN
100
AcDbLine
 10
10152.42271962
 20
6301.06138729
 30
0.0
 11
10223.13339774
 21
6230.35070918
 31
0.0
  0
CIRCLE
  5
ED
330
45F
100
AcDbEntity
  8
YKK_IN
100
AcDbCircle
 10
10187.77805868
 20
6265.70604823
 30
0.0
 40
25.0
  0
LINE
  5
EE
330
45F
100
AcDbEntity
  8
YKK_A1
100
AcDbLine
 10
10120.92802318
 20
7190.70614823
 30
0.0
 11
10160.92802318
 21
7190.70614823
 31
0.0
  0
TEXT
  5
EF
330
45F
100
AcDbEntity
  8
0
100
AcDbText
 10
5762.77810518
 20
10389.35598823
 30
0.0
 40
150.0
  1
シルバー・カラー（ブロンズ、ステン、ブラック）
  7
EXTFONT
100
AcDbText
  0
TEXT
  5
F0
330
45F
100
AcDbEntity
  8
0
100
AcDbText
 10
5762.77810518
 20
9889.35598823
 30
0.0
 40
150.0
  1
１８０゜回転ハンドル・ダブル戸車・気密材
  7
EXTFONT
100
AcDbText
  0
TEXT
  5
F1
330
45F
100
AcDbEntity
  8
0
100
AcDbText
 10
5762.77810518
 20
9139.35598823
 30
0.0
 40
150.0
  1
ＹＫＫＡＰ　ＹＡＴ－１００（Ｋ－８０２）同等品
  7
EXTFONT
100
AcDbText
  0
CIRCLE
  5
F2
330
45F
100
AcDbEntity
  8
YKK_F1
 62
     7
100
AcDbCircle
 10
6062.77810518
 20
8839.35598823
 30
0.0
 40
233.3333333333333
  0
TEXT
  5
F3
330
45F
100
AcDbEntity
  8
0
100
AcDbText
 10
5962.77810518
 20
8839.35598823
 30
0.0
 40
200.0
  1
＊
  7
EXTFONT
100
AcDbText
  0
TEXT
  5
F4
330
45F
100
AcDbEntity
  8
YKK_F1
 62
     7
100
AcDbText
 10
5902.77810518
 20
8639.35598823
 30
0.0
 40
160.0
  1
ＡＷ
  7
EXTFONT
100
AcDbText
  0
LINE
  5
F5
330
45F
100
AcDbEntity
  8
YKK_F1
  6
Continuous
 62
     7
100
AcDbLine
 10
5837.77810518
 20
8839.35598823
 30
0.0
 11
6287.77810518
 21
8839.35598823
 31
0.0
  0
TEXT
  5
F6
330
45F
100
AcDbEntity
  8
0
100
AcDbText
 10
5762.77810518
 20
8364.35598823
 30
0.0
 40
200.0
  1
＊
  7
EXTFONT
100
AcDbText
  0
LINE
  5
F7
330
45F
100
AcDbEntity
  8
YKK_F1
  6
Continuous
 62
     7
100
AcDbLine
 10
5837.77810518
 20
8839.35598823
 30
0.0
 11
5829.44477185
 21
8831.0226549
 31
0.0
  0
LINE
  5
F8
330
45F
100
AcDbEntity
  8
YKK_F1
  6
Continuous
 62
     7
100
AcDbLine
 10
6287.77810518
 20
8839.35598823
 30
0.0
 11
6296.11143852
 21
8831.0226549
 31
0.0
  0
TEXT
  5
F9
330
45F
100
AcDbEntity
  8
0
100
AcDbText
 10
5762.77810518
 20
10139.35598823
 30
0.0
 40
150.0
  1
ＦＬ・透明・シール納まり
  7
EXTFONT
100
AcDbText
  0
TEXT
  5
FB
330
45F
100
AcDbEntity
  8
0
100
AcDbText
 10
5762.77810518
 20
9389.35598823
 30
0.0
 40
150.0
  1
※
  7
EXTFONT
100
AcDbText
  0
LINE
  5
FC
330
45F
100
AcDbEntity
  8
YKK_A1
100
AcDbLine
 10
8192.97805518
 20
8231.00592823
 30
0.0
 11
9137.77802318
 21
8231.00592823
 31
0.0
  0
LINE
  5
FD
330
45F
100
AcDbEntity
  8
YKK_A1
100
AcDbLine
 10
8192.97805518
 20
8251.00592823
 30
0.0
 11
9137.77802318
 21
8251.00592823
 31
0.0
  0
LINE
  5
FE
330
45F
100
AcDbEntity
  8
YKK_A1
100
AcDbLine
 10
8171.62805518
 20
8258.00592823
 30
0.0
 11
8171.62805518
 21
8298.00592823
 31
0.0
  0
LINE
  5
FF
330
45F
100
AcDbEntity
  8
YKK_A1
100
AcDbLine
 10
9410.77802318
 20
7256.00599823
 30
0.0
 11
9910.77802318
 21
7256.00599823
 31
0.0
  0
LINE
  5
100
330
45F
100
AcDbEntity
  8
YKK_A1
100
AcDbLine
 10
9410.77802318
 20
7256.00599823
 30
0.0
 11
9510.77802318
 21
7296.00599823
 31
0.0
  0
LINE
  5
101
330
45F
100
AcDbEntity
  8
YKK_A1
100
AcDbLine
 10
10151.92802318
 20
7535.70102823
 30
0.0
 11
10129.92802318
 21
7535.70102823
 31
0.0
  0
LINE
  5
102
330
45F
100
AcDbEntity
  8
YKK_A1
100
AcDbLine
 10
10223.62802318
 20
7535.70102823
 30
0.0
 11
10245.62802318
 21
7535.70102823
 31
0.0
  0
LINE
  5
103
330
45F
100
AcDbEntity
  8
YKK_A1
100
AcDbLine
 10
10129.92802318
 20
7275.70350823
 30
0.0
 11
10151.92802318
 21
7275.70350823
 31
0.0
  0
LINE
  5
104
330
45F
100
AcDbEntity
  8
YKK_A1
100
AcDbLine
 10
10120.92802318
 20
7340.70594823
 30
0.0
 11
10129.92802318
 21
7340.70594823
 31
0.0
  0
LINE
  5
105
330
45F
100
AcDbEntity
  8
YKK_A1
100
AcDbLine
 10
10223.62802318
 20
7340.70594823
 30
0.0
 11
10214.62802318
 21
7340.70594823
 31
0.0
  0
LINE
  5
106
330
45F
100
AcDbEntity
  8
YKK_A1
100
AcDbLine
 10
10151.92802318
 20
7340.70594823
 30
0.0
 11
10160.92802318
 21
7340.70594823
 31
0.0
  0
LINE
  5
107
330
45F
100
AcDbEntity
  8
YKK_A1
100
AcDbLine
 10
10245.62802318
 20
7275.70350823
 30
0.0
 11
10223.62802318
 21
7275.70350823
 31
0.0
  0
LINE
  5
108
330
45F
100
AcDbEntity
  8
YKK_A1
100
AcDbLine
 10
10151.92802318
 20
7535.70102823
 30
0.0
 11
10151.92802318
 21
7275.70350823
 31
0.0
  0
LINE
  5
109
330
45F
100
AcDbEntity
  8
YKK_A1
100
AcDbLine
 10
10129.92802318
 20
7535.70102823
 30
0.0
 11
10129.92802318
 21
7275.70350823
 31
0.0
  0
LINE
  5
10A
330
45F
100
AcDbEntity
  8
YKK_A1
100
AcDbLine
 10
10223.62802318
 20
7535.70102823
 30
0.0
 11
10223.62802318
 21
7275.70350823
 31
0.0
  0
LINE
  5
10B
330
45F
100
AcDbEntity
  8
YKK_A1
100
AcDbLine
 10
10245.62802318
 20
7535.70102823
 30
0.0
 11
10245.62802318
 21
7275.70350823
 31
0.0
  0
LINE
  5
10C
330
45F
100
AcDbEntity
  8
YKK_A1
100
AcDbLine
 10
9220.47802318
 20
8161.00594823
 30
0.0
 11
10101.07802318
 21
8161.00594823
 31
0.0
  0
LINE
  5
10D
330
45F
100
AcDbEntity
  8
YKK_A1
100
AcDbLine
 10
10101.07802318
 20
8181.00592823
 30
0.0
 11
9220.47802318
 21
8181.00592823
 31
0.0
  0
LINE
  5
10E
330
45F
100
AcDbEntity
  8
YKK_A1
100
AcDbLine
 10
9220.47802318
 20
8181.00592823
 30
0.0
 11
9146.77802318
 21
8258.00592823
 31
0.0
  0
LINE
  5
10F
330
45F
100
AcDbEntity
  8
YKK_A1
100
AcDbLine
 10
10101.07802318
 20
8181.00592823
 30
0.0
 11
10178.77802318
 21
8258.00592823
 31
0.0
  0
TEXT
  5
110
330
45F
100
AcDbEntity
  8
YKK_N1
100
AcDbText
 10
12412.27815518
 20
7110.85607873
 30
0.0
 40
60.0
  1
H=2000
 50
90.0
 72
     1
 11
12412.27815518
 21
7265.85607873
 31
0.0
100
AcDbText
  0
LINE
  5
111
330
45F
100
AcDbEntity
  8
YKK_A1
100
AcDbLine
 10
12218.62805518
 20
8298.00592823
 30
0.0
 11
12218.62805518
 21
6191.00604823
 31
0.0
  0
LINE
  5
112
330
45F
100
AcDbEntity
  8
YKK_A1
100
AcDbLine
 10
12182.57805518
 20
6258.00604823
 30
0.0
 11
12182.57805518
 21
8258.00592823
 31
0.0
  0
LINE
  5
113
330
45F
100
AcDbEntity
  8
YKK_A1
100
AcDbLine
 10
12162.57805518
 20
8231.00592823
 30
0.0
 11
12162.57805518
 21
6278.00604823
 31
0.0
  0
LINE
  5
114
330
45F
100
AcDbEntity
  8
YKK_A1
100
AcDbLine
 10
12187.57805518
 20
8258.00592823
 30
0.0
 11
12187.57805518
 21
6258.00604823
 31
0.0
  0
LINE
  5
115
330
45F
100
AcDbEntity
  8
YKK_N1
100
AcDbLine
 10
12417.27815518
 20
8265.70600923
 30
0.0
 11
12417.27815518
 21
6265.70604823
 31
0.0
  0
LINE
  5
116
330
45F
100
AcDbEntity
  8
YKK_A1
100
AcDbLine
 10
10964.77802318
 20
7256.00599823
 30
0.0
 11
10864.77802318
 21
7216.00599823
 31
0.0
  0
LINE
  5
117
330
45F
100
AcDbEntity
  8
YKK_A1
100
AcDbLine
 10
10255.32802318
 20
7340.70594823
 30
0.0
 11
10255.32802318
 21
7190.70614823
 31
0.0
  0
LINE
  5
118
330
45F
100
AcDbEntity
  8
YKK_A1
100
AcDbLine
 10
10464.77802318
 20
7256.00599823
 30
0.0
 11
10464.77802318
 21
6815.05599823
 31
0.0
  0
LINE
  5
119
330
45F
100
AcDbEntity
  8
YKK_A1
100
AcDbLine
 10
11135.07802318
 20
8161.00594823
 30
0.0
 11
11135.07802318
 21
6351.00604823
 31
0.0
  0
LINE
  5
11A
330
45F
100
AcDbEntity
  8
YKK_A1
100
AcDbLine
 10
11237.77802318
 20
8258.00592823
 30
0.0
 11
11237.77802318
 21
6258.00604823
 31
0.0
  0
LINE
  5
11B
330
45F
100
AcDbEntity
  8
YKK_A1
100
AcDbLine
 10
11155.07802318
 20
6331.00604823
 30
0.0
 11
11155.07802318
 21
8181.00592823
 31
0.0
  0
LINE
  5
11C
330
45F
100
AcDbEntity
  8
YKK_A1
100
AcDbLine
 10
10294.47802318
 20
8161.00594823
 30
0.0
 11
10294.47802318
 21
6351.00604823
 31
0.0
  0
LINE
  5
11D
330
45F
100
AcDbEntity
  8
YKK_A1
100
AcDbLine
 10
10274.47802318
 20
8181.00592823
 30
0.0
 11
10274.47802318
 21
6331.00604823
 31
0.0
  0
TEXT
  5
11E
330
45F
100
AcDbEntity
  8
0
100
AcDbText
 10
10412.77810518
 20
4171.85598823
 30
0.0
 40
100.0
  1
片面ハンドル　・片面ハンドルシリンダー付
  7
EXTFONT
100
AcDbText
  0
TEXT
  5
11F
330
45F
100
AcDbEntity
  8
0
100
AcDbText
 10
10412.77810518
 20
4046.85598823
 30
0.0
 40
100.0
  1
片面ハンドルシリンダー無手架　・片面ハンドルシリンダー付手架
  7
EXTFONT
100
AcDbText
  0
TEXT
  5
120
330
45F
100
AcDbEntity
  8
0
100
AcDbText
 10
10412.77810518
 20
4334.35598823
 30
0.0
 40
150.0
  1
※ハンドルの種類
  7
EXTFONT
100
AcDbText
  0
LINE
  5
121
330
45F
100
AcDbEntity
  8
YKK_A1
100
AcDbLine
 10
12182.57805518
 20
6278.00604823
 30
0.0
 11
11237.77802318
 21
6278.00604823
 31
0.0
  0
LINE
  5
122
330
45F
100
AcDbEntity
  8
YKK_A1
100
AcDbLine
 10
11155.07802318
 20
6351.00604823
 30
0.0
 11
10274.47802318
 21
6351.00604823
 31
0.0
  0
LINE
  5
123
330
45F
100
AcDbEntity
  8
YKK_A1
100
AcDbLine
 10
10274.47802318
 20
6331.00604823
 30
0.0
 11
11155.07802318
 21
6331.00604823
 31
0.0
  0
LINE
  5
124
330
45F
100
AcDbEntity
  8
YKK_A1
100
AcDbLine
 10
11155.07802318
 20
6331.00604823
 30
0.0
 11
11224.77802318
 21
6258.00604823
 31
0.0
  0
LINE
  5
125
330
45F
100
AcDbEntity
  8
YKK_N1
100
AcDbLine
 10
12187.77806218
 20
6116.00604823
 30
0.0
 11
12187.77806218
 21
5875.70604823
 31
0.0
  0
LINE
  5
126
330
45F
100
AcDbEntity
  8
YKK_N1
100
AcDbLine
 10
12187.77806218
 20
5875.70604823
 30
0.0
 11
12101.17552181
 21
5925.70604823
 31
0.0
  0
LINE
  5
127
330
45F
100
AcDbEntity
  8
YKK_N1
100
AcDbLine
 10
12101.17552181
 20
5825.70604823
 30
0.0
 11
12187.77806218
 21
5875.70604823
 31
0.0
  0
LINE
  5
128
330
45F
100
AcDbEntity
  8
YKK_N1
100
AcDbLine
 10
12101.17552181
 20
5825.70604823
 30
0.0
 11
12101.17552181
 21
5925.70604823
 31
0.0
  0
TEXT
  5
129
330
45F
100
AcDbEntity
  8
YKK_A1
100
AcDbText
 10
12067.3201797
 20
6316.85260323
 30
0.0
 40
60.0
  1
F
 72
     1
 11
12087.3201797
 21
6316.85260323
 31
0.0
100
AcDbText
  0
LINE
  5
12A
330
45F
100
AcDbEntity
  8
YKK_A1
100
AcDbLine
 10
12203.92805518
 20
6191.00604823
 30
0.0
 11
12203.92805518
 21
6258.00604823
 31
0.0
  0
LINE
  5
12B
330
45F
100
AcDbEntity
  8
YKK_N1
100
AcDbLine
 10
12417.27815518
 20
6265.70604823
 30
0.0
 11
12467.27815518
 21
6352.30858861
 31
0.0
  0
LINE
  5
12C
330
45F
100
AcDbEntity
  8
YKK_N1
100
AcDbLine
 10
12367.27815518
 20
6352.30858861
 30
0.0
 11
12467.27815518
 21
6352.30858861
 31
0.0
  0
LINE
  5
12D
330
45F
100
AcDbEntity
  8
YKK_N1
100
AcDbLine
 10
12367.27815518
 20
6352.30858861
 30
0.0
 11
12417.27815518
 21
6265.70604823
 31
0.0
  0
LINE
  5
12E
330
45F
100
AcDbEntity
  8
YKK_N1
100
AcDbLine
 10
12292.27817918
 20
6265.70604823
 30
0.0
 11
12417.27815518
 21
6265.70604823
 31
0.0
  0
TEXT
  5
12F
330
45F
100
AcDbEntity
  8
0
100
AcDbText
 10
10412.77810518
 20
9726.85598823
 30
0.0
 40
100.0
  1
片面ハンドル　・片面ハンドルシリンダー付
  7
EXTFONT
100
AcDbText
  0
TEXT
  5
130
330
45F
100
AcDbEntity
  8
0
100
AcDbText
 10
10412.77810518
 20
9601.85598823
 30
0.0
 40
100.0
  1
片面ハンドルシリンダー無手架　・片面ハンドルシリンダー付手架
  7
EXTFONT
100
AcDbText
  0
TEXT
  5
131
330
45F
100
AcDbEntity
  8
0
100
AcDbText
 10
10412.77810518
 20
9351.85598823
 30
0.0
 40
100.0
  1
両面ハンドル　・両面ハンドル片面シリンダー付
  7
EXTFONT
100
AcDbText
  0
TEXT
  5
132
330
45F
100
AcDbEntity
  8
0
100
AcDbText
 10
10412.77810518
 20
9226.85598823
 30
0.0
 40
100.0
  1
両面ハンドル両面シリンダー付　・両面ハンドル片面サムターン付き
  7
EXTFONT
100
AcDbText
  0
TEXT
  5
133
330
45F
100
AcDbEntity
  8
0
100
AcDbText
 10
10412.77810518
 20
9101.85598823
 30
0.0
 40
100.0
  1
両面ハンドルシリンダーサムターン付　・取外しハンドルフラッシュカバー付
  7
EXTFONT
100
AcDbText
  0
TEXT
  5
134
330
45F
100
AcDbEntity
  8
0
100
AcDbText
 10
10612.77810518
 20
8839.35598823
 30
0.0
 40
200.0
  1
＊
  7
EXTFONT
100
AcDbText
  0
LINE
  5
135
330
45F
100
AcDbEntity
  8
YKK_A1
100
AcDbLine
 10
12182.57805518
 20
8231.00592823
 30
0.0
 11
11237.77802318
 21
8231.00592823
 31
0.0
  0
LINE
  5
136
330
45F
100
AcDbEntity
  8
YKK_A1
100
AcDbLine
 10
12182.57805518
 20
8251.00592823
 30
0.0
 11
11237.77802318
 21
8251.00592823
 31
0.0
  0
LINE
  5
137
330
45F
100
AcDbEntity
  8
YKK_A1
100
AcDbLine
 10
10964.77802318
 20
7256.00599823
 30
0.0
 11
10464.77802318
 21
7256.00599823
 31
0.0
  0
LINE
  5
138
330
45F
100
AcDbEntity
  8
YKK_A1
100
AcDbLine
 10
10964.77802318
 20
7256.00599823
 30
0.0
 11
10864.77802318
 21
7296.00599823
 31
0.0
  0
LINE
  5
139
330
45F
100
AcDbEntity
  8
YKK_A1
100
AcDbLine
 10
11155.07802318
 20
8161.00594823
 30
0.0
 11
10274.47802318
 21
8161.00594823
 31
0.0
  0
LINE
  5
13A
330
45F
100
AcDbEntity
  8
YKK_A1
100
AcDbLine
 10
10274.47802318
 20
8181.00592823
 30
0.0
 11
11155.07802318
 21
8181.00592823
 31
0.0
  0
LINE
  5
13B
330
45F
100
AcDbEntity
  8
YKK_A1
100
AcDbLine
 10
11155.07802318
 20
8181.00592823
 30
0.0
 11
11228.77802318
 21
8258.00592823
 31
0.0
  0
LINE
  5
13C
330
45F
100
AcDbEntity
  8
YKK_A1
100
AcDbLine
 10
12203.92805518
 20
8258.00592823
 30
0.0
 11
12203.92805518
 21
8298.00592823
 31
0.0
  0
LINE
  5
13D
330
45F
100
AcDbEntity
  8
YKK_N1
100
AcDbLine
 10
12467.27815518
 20
8179.10346886
 30
0.0
 11
12417.27815518
 21
8265.70600923
 31
0.0
  0
LINE
  5
13E
330
45F
100
AcDbEntity
  8
YKK_N1
100
AcDbLine
 10
12417.27815518
 20
8265.70600923
 30
0.0
 11
12367.27815518
 21
8179.10346886
 31
0.0
  0
LINE
  5
13F
330
45F
100
AcDbEntity
  8
YKK_N1
100
AcDbLine
 10
12467.27815518
 20
8179.10346886
 30
0.0
 11
12367.27815518
 21
8179.10346886
 31
0.0
  0
LINE
  5
140
330
45F
100
AcDbEntity
  8
YKK_N1
100
AcDbLine
 10
12292.27817918
 20
8265.70600923
 30
0.0
 11
12417.27815518
 21
8265.70600923
 31
0.0
  0
TEXT
  5
141
330
45F
100
AcDbEntity
  8
0
100
AcDbText
 10
10412.77810518
 20
9476.85598823
 30
0.0
 40
100.0
  1
片面ハンドルサムターン付手架
  7
EXTFONT
100
AcDbText
  0
TEXT
  5
142
330
45F
100
AcDbEntity
  8
0
100
AcDbText
 10
10412.77810518
 20
9889.35598823
 30
0.0
 40
150.0
  1
※ハンドルの種類
  7
EXTFONT
100
AcDbText
  0
LINE
  5
143
330
45F
100
AcDbEntity
  8
YKK_F1
  6
Continuous
 62
     7
100
AcDbLine
 10
10312.77810518
 20
9089.35598823
 30
0.0
 11
10312.77810518
 21
10089.35598823
 31
0.0
  0
TEXT
  5
144
330
45F
100
AcDbEntity
  8
0
100
AcDbText
 10
13712.77810518
 20
8364.35598823
 30
0.0
 40
200.0
  1
＊
  7
EXTFONT
100
AcDbText
  0
TEXT
  5
145
330
45F
100
AcDbEntity
  8
0
100
AcDbText
 10
14012.77810518
 20
8614.35598823
 30
0.0
 40
200.0
  1
＊
  7
EXTFONT
100
AcDbText
  0
TEXT
  5
146
330
45F
100
AcDbEntity
  8
YKK_F1
 62
     7
100
AcDbText
 10
14432.77810518
 20
8614.35598823
 30
0.0
 40
200.0
  1
箇所
  7
EXTFONT
100
AcDbText
  0
TEXT
  5
147
330
45F
100
AcDbEntity
  8
0
100
AcDbText
 10
1122.51356518
 20
20693.82568823
 30
0.0
 40
250.0
  1
ＢＲＡＴＳＬ７３　ＹＡＴ－１００＜Ｋ－８０２＞　ＲＣ枠　大型引戸　引違い・片引き（内動）
  7
EXTFONT
100
AcDbText
  0
TEXT
  5
148
330
45F
100
AcDbEntity
  8
YKK_F1
 62
     7
100
AcDbText
 10
2156.29833852
 20
12536.85598823
 30
0.0
 40
200.0
  1
姿　　　　　　　図
  7
EXTFONT
 72
     1
 11
3202.96500518
 21
12536.85598823
 31
0.0
100
AcDbText
  0
TEXT
  5
149
330
45F
100
AcDbEntity
  8
YKK_F1
 62
     7
100
AcDbText
 10
1669.63167185
 20
11109.35598823
 30
0.0
 40
200.0
  1
型式・防音・エアタイト仕様
  7
EXTFONT
 72
     1
 11
3202.96500518
 21
11109.35598823
 31
0.0
100
AcDbText
  0
TEXT
  5
14A
330
45F
100
AcDbEntity
  8
YKK_F1
 62
     7
100
AcDbText
 10
1249.63167185
 20
10859.35598823
 30
0.0
 40
200.0
  1
寸法・見付・見込（枠見付・枠見込）
  7
EXTFONT
 72
     1
 11
3202.96500518
 21
10859.35598823
 31
0.0
100
AcDbText
  0
TEXT
  5
14B
330
45F
100
AcDbEntity
  8
YKK_F1
 62
     7
100
AcDbText
 10
2149.63167185
 20
10609.35598823
 30
0.0
 40
200.0
  1
材　質　・　仕　様
  7
EXTFONT
 72
     1
 11
3202.96500518
 21
10609.35598823
 31
0.0
100
AcDbText
  0
TEXT
  5
14C
330
45F
100
AcDbEntity
  8
YKK_F1
 62
     7
100
AcDbText
 10
2149.63167185
 20
13914.35598823
 30
0.0
 40
200.0
  1
使用箇所・防火仕様
  7
EXTFONT
 72
     1
 11
3202.96500518
 21
13914.35598823
 31
0.0
100
AcDbText
  0
TEXT
  5
14D
330
45F
100
AcDbEntity
  8
YKK_F1
 62
     7
100
AcDbText
 10
2149.63167185
 20
15914.35598823
 30
0.0
 40
200.0
  1
仕　　　　　　　上
  7
EXTFONT
 72
     1
 11
3202.96500518
 21
15914.35598823
 31
0.0
100
AcDbText
  0
TEXT
  5
14E
330
45F
100
AcDbEntity
  8
YKK_F1
 62
     7
100
AcDbText
 10
1782.96500518
 20
15664.35598823
 30
0.0
 40
200.0
  1
ガラス・種類・ガラス押え
  7
EXTFONT
 72
     1
 11
3202.96500518
 21
15664.35598823
 31
0.0
100
AcDbText
  0
TEXT
  5
14F
330
45F
100
AcDbEntity
  8
YKK_F1
 62
     7
100
AcDbText
 10
2029.63167185
 20
15414.35598823
 30
0.0
 40
200.0
  1
建　　具　　金　　物
  7
EXTFONT
 72
     1
 11
3202.96500518
 21
15414.35598823
 31
0.0
100
AcDbText
  0
TEXT
  5
150
330
45F
100
AcDbEntity
  8
YKK_F1
 62
     7
100
AcDbText
 10
1902.96500518
 20
15164.35598823
 30
0.0
 40
200.0
  1
(付　　属　　金　　物)
  7
EXTFONT
 72
     1
 11
3202.96500518
 21
15164.35598823
 31
0.0
100
AcDbText
  0
TEXT
  5
151
330
45F
100
AcDbEntity
  8
YKK_F1
 62
     7
100
AcDbText
 10
2149.63167185
 20
14664.35598823
 30
0.0
 40
200.0
  1
備　　　　　　　考
  7
EXTFONT
 72
     1
 11
3202.96500518
 21
14664.35598823
 31
0.0
100
AcDbText
  0
TEXT
  5
152
330
45F
100
AcDbEntity
  8
YKK_F1
 62
     7
100
AcDbText
 10
2149.63167185
 20
14269.35598823
 30
0.0
 40
200.0
  1
符　号　・　数　量
  7
EXTFONT
 72
     1
 11
3202.96500518
 21
14269.35598823
 31
0.0
100
AcDbText
  0
TEXT
  5
153
330
45F
100
AcDbEntity
  8
YKK_F1
 62
     7
100
AcDbText
 10
2149.63167185
 20
16164.35598823
 30
0.0
 40
200.0
  1
材　質　・　仕　様
  7
EXTFONT
 72
     1
 11
3202.96500518
 21
16164.35598823
 31
0.0
100
AcDbText
  0
TEXT
  5
154
330
45F
100
AcDbEntity
  8
YKK_F1
 62
     7
100
AcDbText
 10
1249.63167185
 20
16414.35598823
 30
0.0
 40
200.0
  1
寸法・見付・見込（枠見付・枠見込）
  7
EXTFONT
 72
     1
 11
3202.96500518
 21
16414.35598823
 31
0.0
100
AcDbText
  0
TEXT
  5
155
330
45F
100
AcDbEntity
  8
YKK_F1
 62
     7
100
AcDbText
 10
1669.63167185
 20
16664.35598823
 30
0.0
 40
200.0
  1
型式・防音・エアタイト仕様
  7
EXTFONT
 72
     1
 11
3202.96500518
 21
16664.35598823
 31
0.0
100
AcDbText
  0
TEXT
  5
156
330
45F
100
AcDbEntity
  8
YKK_F1
 62
     7
100
AcDbText
 10
2149.63167185
 20
19469.35598823
 30
0.0
 40
200.0
  1
使用箇所・防火仕様
  7
EXTFONT
 72
     1
 11
3202.96500518
 21
19469.35598823
 31
0.0
100
AcDbText
  0
TEXT
  5
157
330
45F
100
AcDbEntity
  8
YKK_F1
 62
     7
100
AcDbText
 10
2156.29833852
 20
18091.85598823
 30
0.0
 40
200.0
  1
姿　　　　　　　図
  7
EXTFONT
 72
     1
 11
3202.96500518
 21
18091.85598823
 31
0.0
100
AcDbText
  0
TEXT
  5
158
330
45F
100
AcDbEntity
  8
YKK_F1
 62
     7
100
AcDbText
 10
2149.63167185
 20
19824.35598823
 30
0.0
 40
200.0
  1
符　号　・　数　量
  7
EXTFONT
 72
     1
 11
3202.96500518
 21
19824.35598823
 31
0.0
100
AcDbText
  0
LINE
  5
159
330
45F
100
AcDbEntity
  8
YKK_N1
100
AcDbLine
 10
9187.77805518
 20
17202.25432573
 30
0.0
 11
9187.77805518
 21
16981.95432573
 31
0.0
  0
LINE
  5
15A
330
45F
100
AcDbEntity
  8
YKK_N1
100
AcDbLine
 10
11187.77806218
 20
17202.25432573
 30
0.0
 11
11187.77806218
 21
16981.95432573
 31
0.0
  0
LINE
  5
15B
330
45F
100
AcDbEntity
  8
YKK_A1
100
AcDbLine
 10
11182.27810518
 20
13793.35598823
 30
0.0
 11
10237.77810518
 21
13793.35598823
 31
0.0
  0
LINE
  5
15C
330
45F
100
AcDbEntity
  8
YKK_A1
100
AcDbLine
 10
11182.27810518
 20
13813.35598823
 30
0.0
 11
10237.77810518
 21
13813.35598823
 31
0.0
  0
LINE
  5
15D
330
45F
100
AcDbEntity
  8
YKK_A1
100
AcDbLine
 10
11182.27810518
 20
11826.65598823
 30
0.0
 11
10237.77810518
 21
11826.65598823
 31
0.0
  0
LINE
  5
15E
330
45F
100
AcDbEntity
  8
YKK_A1
100
AcDbLine
 10
11218.62810518
 20
11742.30598823
 30
0.0
 11
9156.92810518
 21
11742.30598823
 31
0.0
  0
LINE
  5
15F
330
45F
100
AcDbEntity
  8
YKK_A1
100
AcDbLine
 10
11203.92810518
 20
11806.65598823
 30
0.0
 11
9171.62810518
 21
11806.65598823
 31
0.0
  0
LINE
  5
160
330
45F
100
AcDbEntity
  8
YKK_A1
100
AcDbLine
 10
11218.62810518
 20
13856.70598823
 30
0.0
 11
9156.92810518
 21
13856.70598823
 31
0.0
  0
LINE
  5
161
330
45F
100
AcDbEntity
  8
YKK_A1
100
AcDbLine
 10
9171.62810518
 20
13820.35598823
 30
0.0
 11
11203.92810518
 21
13820.35598823
 31
0.0
  0
TEXT
  5
162
330
45F
100
AcDbEntity
  8
YKK_N1
100
AcDbText
 10
10022.77810868
 20
11432.00598823
 30
0.0
 40
60.0
  1
W=2000
 72
     1
 11
10187.77810868
 21
11432.00598823
 31
0.0
100
AcDbText
  0
LINE
  5
163
330
45F
100
AcDbEntity
  8
YKK_N1
100
AcDbLine
 10
9187.77810518
 20
11427.00598823
 30
0.0
 11
11187.77811218
 21
11427.00598823
 31
0.0
  0
TEXT
  5
164
330
45F
100
AcDbEntity
  8
YKK_N1
100
AcDbText
 10
10022.77805868
 20
16986.95432573
 30
0.0
 40
60.0
  1
W=2000
 72
     1
 11
10187.77805868
 21
16986.95432573
 31
0.0
100
AcDbText
  0
LINE
  5
165
330
45F
100
AcDbEntity
  8
YKK_N1
100
AcDbLine
 10
9187.77805518
 20
16981.95432573
 30
0.0
 11
11187.77806218
 21
16981.95432573
 31
0.0
  0
LINE
  5
166
330
45F
100
AcDbEntity
  8
YKK_A1
100
AcDbLine
 10
9171.62810518
 20
13820.35598823
 30
0.0
 11
9171.62810518
 21
13856.70598823
 31
0.0
  0
LINE
  5
167
330
45F
100
AcDbEntity
  8
YKK_A1
100
AcDbLine
 10
9156.92810518
 20
13856.70598823
 30
0.0
 11
9156.92810518
 21
11742.30598823
 31
0.0
  0
TEXT
  5
168
330
45F
100
AcDbEntity
  8
0
100
AcDbText
 10
5762.77810518
 20
10889.35598823
 30
0.0
 40
150.0
  1
W=2000　H=2000　見込100
  7
EXTFONT
100
AcDbText
  0
TEXT
  5
169
330
45F
100
AcDbEntity
  8
0
100
AcDbText
 10
5762.77810518
 20
11139.35598823
 30
0.0
 40
150.0
  1
大型引戸（片引き：内動）
  7
EXTFONT
100
AcDbText
  0
TEXT
  5
16A
330
45F
100
AcDbEntity
  8
0
100
AcDbText
 10
5762.77810518
 20
10639.35598823
 30
0.0
 40
150.0
  1
アルミ製
  7
EXTFONT
100
AcDbText
  0
LINE
  5
16B
330
45F
100
AcDbEntity
  8
YKK_A1
100
AcDbLine
 10
10155.07810518
 20
11879.65598823
 30
0.0
 11
10155.07810518
 21
13743.35600823
 31
0.0
  0
LINE
  5
16C
330
45F
100
AcDbEntity
  8
YKK_A1
100
AcDbLine
 10
10135.07810518
 20
13723.35600823
 30
0.0
 11
10135.07810518
 21
11899.65598823
 31
0.0
  0
LINE
  5
16D
330
45F
100
AcDbEntity
  8
YKK_A1
100
AcDbLine
 10
10237.77810518
 20
13820.35598823
 30
0.0
 11
10237.77810518
 21
11806.65598823
 31
0.0
  0
LINE
  5
16E
330
45F
100
AcDbEntity
  8
YKK_A1
100
AcDbLine
 10
9260.97810518
 20
13743.35600823
 30
0.0
 11
9260.97810518
 21
11879.65598823
 31
0.0
  0
LINE
  5
16F
330
45F
100
AcDbEntity
  8
YKK_A1
100
AcDbLine
 10
9280.97810518
 20
13723.35600823
 30
0.0
 11
9280.97810518
 21
11899.65598823
 31
0.0
  0
LINE
  5
170
330
45F
100
AcDbEntity
  8
YKK_A1
100
AcDbLine
 10
9187.77810518
 20
11806.65598823
 30
0.0
 11
9187.77810518
 21
13820.35598823
 31
0.0
  0
LINE
  5
171
330
45F
100
AcDbEntity
  8
YKK_A1
100
AcDbLine
 10
9260.97810518
 20
11879.65598823
 30
0.0
 11
10155.07810518
 21
11879.65598823
 31
0.0
  0
LINE
  5
172
330
45F
100
AcDbEntity
  8
YKK_A1
100
AcDbLine
 10
10155.07810518
 20
11899.65598823
 30
0.0
 11
9260.97810518
 21
11899.65598823
 31
0.0
  0
LINE
  5
173
330
45F
100
AcDbEntity
  8
YKK_A1
100
AcDbLine
 10
9171.62810518
 20
11742.30598823
 30
0.0
 11
9171.62810518
 21
11806.65598823
 31
0.0
  0
LINE
  5
174
330
45F
100
AcDbEntity
  8
YKK_N1
100
AcDbLine
 10
9274.38064556
 20
11477.00598823
 30
0.0
 11
9274.38064556
 21
11377.00598823
 31
0.0
  0
LINE
  5
175
330
45F
100
AcDbEntity
  8
YKK_N1
100
AcDbLine
 10
9187.77810518
 20
11427.00598823
 30
0.0
 11
9274.38064556
 21
11377.00598823
 31
0.0
  0
LINE
  5
176
330
45F
100
AcDbEntity
  8
YKK_N1
100
AcDbLine
 10
9274.38064556
 20
11477.00598823
 30
0.0
 11
9187.77810518
 21
11427.00598823
 31
0.0
  0
LINE
  5
177
330
45F
100
AcDbEntity
  8
YKK_N1
100
AcDbLine
 10
9187.77810518
 20
11647.30598823
 30
0.0
 11
9187.77810518
 21
11427.00598823
 31
0.0
  0
LINE
  5
178
330
45F
100
AcDbEntity
  8
YKK_A1
100
AcDbLine
 10
9187.77810518
 20
11806.65598823
 30
0.0
 11
9260.97810518
 21
11879.65598823
 31
0.0
  0
LINE
  5
179
330
45F
100
AcDbEntity
  8
YKK_A1
100
AcDbLine
 10
10155.07810518
 20
11879.65598823
 30
0.0
 11
10224.77810518
 21
11806.65598823
 31
0.0
  0
LINE
  5
17A
330
45F
100
AcDbEntity
  8
YKK_IN
100
AcDbLine
 10
10152.42276612
 20
11852.36132729
 30
0.0
 11
10223.13344424
 21
11781.65064918
 31
0.0
  0
LINE
  5
17B
330
45F
100
AcDbEntity
  8
YKK_IN
100
AcDbLine
 10
10223.13344424
 20
11852.36132729
 30
0.0
 11
10152.42276612
 21
11781.65064918
 31
0.0
  0
CIRCLE
  5
17C
330
45F
100
AcDbEntity
  8
YKK_IN
100
AcDbCircle
 10
10187.77810518
 20
11817.00598823
 30
0.0
 40
25.0
  0
LINE
  5
17D
330
45F
100
AcDbEntity
  8
YKK_A1
100
AcDbLine
 10
9213.37810518
 20
13087.00096823
 30
0.0
 11
9213.37810518
 21
12827.00344823
 31
0.0
  0
LINE
  5
17E
330
45F
100
AcDbEntity
  8
YKK_A1
100
AcDbLine
 10
9235.37810518
 20
13087.00096823
 30
0.0
 11
9235.37810518
 21
12827.00344823
 31
0.0
  0
LINE
  5
17F
330
45F
100
AcDbEntity
  8
YKK_A1
100
AcDbLine
 10
9958.02810518
 20
12811.50599823
 30
0.0
 11
9458.02810518
 21
12811.50599823
 31
0.0
  0
LINE
  5
180
330
45F
100
AcDbEntity
  8
YKK_A1
100
AcDbLine
 10
9458.02810518
 20
12811.50599823
 30
0.0
 11
9458.02810518
 21
12370.55599823
 31
0.0
  0
LINE
  5
181
330
45F
100
AcDbEntity
  8
YKK_A1
100
AcDbLine
 10
9244.37810518
 20
12892.00588823
 30
0.0
 11
9235.37810518
 21
12892.00588823
 31
0.0
  0
LINE
  5
182
330
45F
100
AcDbEntity
  8
YKK_A1
100
AcDbLine
 10
9213.37810518
 20
12892.00588823
 30
0.0
 11
9204.37810518
 21
12892.00588823
 31
0.0
  0
LINE
  5
183
330
45F
100
AcDbEntity
  8
YKK_A1
100
AcDbLine
 10
9235.37810518
 20
12827.00344823
 30
0.0
 11
9213.37810518
 21
12827.00344823
 31
0.0
  0
LINE
  5
184
330
45F
100
AcDbEntity
  8
YKK_A1
100
AcDbLine
 10
9244.37810518
 20
12742.00608823
 30
0.0
 11
9204.37810518
 21
12742.00608823
 31
0.0
  0
LINE
  5
185
330
45F
100
AcDbEntity
  8
YKK_A1
100
AcDbLine
 10
9204.37810518
 20
12892.00588823
 30
0.0
 11
9204.37810518
 21
12742.00608823
 31
0.0
  0
LINE
  5
186
330
45F
100
AcDbEntity
  8
YKK_A1
100
AcDbLine
 10
9244.37810518
 20
12892.00588823
 30
0.0
 11
9244.37810518
 21
12742.00608823
 31
0.0
  0
LINE
  5
187
330
45F
100
AcDbEntity
  8
YKK_A1
100
AcDbLine
 10
9958.02810518
 20
12811.50599823
 30
0.0
 11
9858.02810518
 21
12771.50599823
 31
0.0
  0
LINE
  5
188
330
45F
100
AcDbEntity
  8
YKK_A1
100
AcDbLine
 10
9958.02810518
 20
12811.50599823
 30
0.0
 11
9858.02810518
 21
12851.50599823
 31
0.0
  0
LINE
  5
189
330
45F
100
AcDbEntity
  8
YKK_A1
100
AcDbLine
 10
10155.07810518
 20
13723.35600823
 30
0.0
 11
9260.97810518
 21
13723.35600823
 31
0.0
  0
LINE
  5
18A
330
45F
100
AcDbEntity
  8
YKK_A1
100
AcDbLine
 10
9260.97810518
 20
13743.35600823
 30
0.0
 11
10155.07810518
 21
13743.35600823
 31
0.0
  0
LINE
  5
18B
330
45F
100
AcDbEntity
  8
YKK_A1
100
AcDbLine
 10
9213.37810518
 20
13087.00096823
 30
0.0
 11
9235.37810518
 21
13087.00096823
 31
0.0
  0
LINE
  5
18C
330
45F
100
AcDbEntity
  8
YKK_A1
100
AcDbLine
 10
9260.97810518
 20
13743.35600823
 30
0.0
 11
9187.77810518
 21
13816.35598823
 31
0.0
  0
LINE
  5
18D
330
45F
100
AcDbEntity
  8
YKK_A1
100
AcDbLine
 10
10155.07810518
 20
13743.35600823
 30
0.0
 11
10228.77810518
 21
13820.35598823
 31
0.0
  0
TEXT
  5
18E
330
45F
100
AcDbEntity
  8
0
100
AcDbText
 10
5762.77810518
 20
15944.35598823
 30
0.0
 40
150.0
  1
シルバー・カラー（ブロンズ、ステン、ブラック）
  7
EXTFONT
100
AcDbText
  0
TEXT
  5
18F
330
45F
100
AcDbEntity
  8
0
100
AcDbText
 10
5762.77810518
 20
16444.35598823
 30
0.0
 40
150.0
  1
W=2000　H=2000　見込100
  7
EXTFONT
100
AcDbText
  0
TEXT
  5
190
330
45F
100
AcDbEntity
  8
0
100
AcDbText
 10
5762.77810518
 20
15444.35598823
 30
0.0
 40
150.0
  1
１８０゜回転ハンドル・ダブル戸車・気密材
  7
EXTFONT
100
AcDbText
  0
TEXT
  5
191
330
45F
100
AcDbEntity
  8
0
100
AcDbText
 10
5762.77810518
 20
14694.35598823
 30
0.0
 40
150.0
  1
ＹＫＫＡＰ　ＹＡＴ－１００（Ｋ－８０２）同等品
  7
EXTFONT
100
AcDbText
  0
CIRCLE
  5
192
330
45F
100
AcDbEntity
  8
YKK_F1
 62
     7
100
AcDbCircle
 10
6062.77810518
 20
14394.35598823
 30
0.0
 40
233.3333333333333
  0
LINE
  5
193
330
45F
100
AcDbEntity
  8
YKK_F1
  6
Continuous
 62
     7
100
AcDbLine
 10
5837.77810518
 20
14394.35598823
 30
0.0
 11
6287.77810518
 21
14394.35598823
 31
0.0
  0
TEXT
  5
194
330
45F
100
AcDbEntity
  8
YKK_F1
 62
     7
100
AcDbText
 10
5902.77810518
 20
14194.35598823
 30
0.0
 40
160.0
  1
ＡＷ
  7
EXTFONT
100
AcDbText
  0
TEXT
  5
195
330
45F
100
AcDbEntity
  8
0
100
AcDbText
 10
5762.77810518
 20
13919.35598823
 30
0.0
 40
200.0
  1
＊
  7
EXTFONT
100
AcDbText
  0
LINE
  5
196
330
45F
100
AcDbEntity
  8
YKK_F1
  6
Continuous
 62
     7
100
AcDbLine
 10
5837.77810518
 20
14394.35598823
 30
0.0
 11
5829.44477185
 21
14386.0226549
 31
0.0
  0
TEXT
  5
197
330
45F
100
AcDbEntity
  8
0
100
AcDbText
 10
5962.77810518
 20
14394.35598823
 30
0.0
 40
200.0
  1
＊
  7
EXTFONT
100
AcDbText
  0
LINE
  5
198
330
45F
100
AcDbEntity
  8
YKK_F1
  6
Continuous
 62
     7
100
AcDbLine
 10
6287.77810518
 20
14394.35598823
 30
0.0
 11
6296.11143852
 21
14386.0226549
 31
0.0
  0
TEXT
  5
199
330
45F
100
AcDbEntity
  8
0
100
AcDbText
 10
5762.77810518
 20
15194.35598823
 30
0.0
 40
150.0
  1
可動網戸・水切・アングル・膳板
  7
EXTFONT
100
AcDbText
  0
TEXT
  5
19A
330
45F
100
AcDbEntity
  8
0
100
AcDbText
 10
5762.77810518
 20
14944.35598823
 30
0.0
 40
150.0
  1
※
  7
EXTFONT
100
AcDbText
  0
TEXT
  5
19B
330
45F
100
AcDbEntity
  8
0
100
AcDbText
 10
5762.77810518
 20
15694.35598823
 30
0.0
 40
150.0
  1
ＦＬ・透明・シール納まり
  7
EXTFONT
100
AcDbText
  0
TEXT
  5
19C
330
45F
100
AcDbEntity
  8
0
100
AcDbText
 10
5762.77810518
 20
16694.35598823
 30
0.0
 40
150.0
  1
大型引戸（引違い２枚建）
  7
EXTFONT
100
AcDbText
  0
TEXT
  5
19D
330
45F
100
AcDbEntity
  8
0
100
AcDbText
 10
5762.77810518
 20
16194.35598823
 30
0.0
 40
150.0
  1
アルミ製
  7
EXTFONT
100
AcDbText
  0
LINE
  5
19E
330
45F
100
AcDbEntity
  8
YKK_N1
100
AcDbLine
 10
9274.38059556
 20
17031.95432573
 30
0.0
 11
9274.38059556
 21
16931.95432573
 31
0.0
  0
LINE
  5
19F
330
45F
100
AcDbEntity
  8
YKK_N1
100
AcDbLine
 10
9187.77805518
 20
16981.95432573
 30
0.0
 11
9274.38059556
 21
16931.95432573
 31
0.0
  0
LINE
  5
1A0
330
45F
100
AcDbEntity
  8
YKK_N1
100
AcDbLine
 10
9274.38059556
 20
17031.95432573
 30
0.0
 11
9187.77805518
 21
16981.95432573
 31
0.0
  0
LINE
  5
1A1
330
45F
100
AcDbEntity
  8
YKK_A1
100
AcDbLine
 10
11203.92810518
 20
13856.70598823
 30
0.0
 11
11203.92810518
 21
13820.35598823
 31
0.0
  0
LINE
  5
1A2
330
45F
100
AcDbEntity
  8
YKK_A1
100
AcDbLine
 10
11218.62810518
 20
13856.70598823
 30
0.0
 11
11218.62810518
 21
11742.30598823
 31
0.0
  0
LINE
  5
1A3
330
45F
100
AcDbEntity
  8
YKK_A1
100
AcDbLine
 10
11162.57810518
 20
13793.35598823
 30
0.0
 11
11162.57810518
 21
11826.65598823
 31
0.0
  0
LINE
  5
1A4
330
45F
100
AcDbEntity
  8
YKK_A1
100
AcDbLine
 10
11187.77810518
 20
13820.35598823
 30
0.0
 11
11187.77810518
 21
11806.65598823
 31
0.0
  0
LINE
  5
1A5
330
45F
100
AcDbEntity
  8
YKK_A1
100
AcDbLine
 10
11182.27810518
 20
11806.65598823
 30
0.0
 11
11182.27810518
 21
13820.35598823
 31
0.0
  0
LINE
  5
1A6
330
45F
100
AcDbEntity
  8
YKK_N1
100
AcDbLine
 10
11417.27810518
 20
13817.00594923
 30
0.0
 11
11417.27810518
 21
11817.00598823
 31
0.0
  0
LINE
  5
1A7
330
45F
100
AcDbEntity
  8
YKK_N1
100
AcDbLine
 10
11367.27810518
 20
11903.60852861
 30
0.0
 11
11417.27810518
 21
11817.00598823
 31
0.0
  0
LINE
  5
1A8
330
45F
100
AcDbEntity
  8
YKK_N1
100
AcDbLine
 10
11367.27810518
 20
11903.60852861
 30
0.0
 11
11467.27810518
 21
11903.60852861
 31
0.0
  0
LINE
  5
1A9
330
45F
100
AcDbEntity
  8
YKK_N1
100
AcDbLine
 10
11292.27822918
 20
11817.00598823
 30
0.0
 11
11417.27810518
 21
11817.00598823
 31
0.0
  0
LINE
  5
1AA
330
45F
100
AcDbEntity
  8
YKK_A1
100
AcDbLine
 10
11203.92810518
 20
11806.65598823
 30
0.0
 11
11203.92810518
 21
11742.30598823
 31
0.0
  0
LINE
  5
1AB
330
45F
100
AcDbEntity
  8
YKK_N1
100
AcDbLine
 10
11101.17557181
 20
11377.00598823
 30
0.0
 11
11187.77811218
 21
11427.00598823
 31
0.0
  0
LINE
  5
1AC
330
45F
100
AcDbEntity
  8
YKK_N1
100
AcDbLine
 10
11187.77811218
 20
11427.00598823
 30
0.0
 11
11101.17557181
 21
11477.00598823
 31
0.0
  0
LINE
  5
1AD
330
45F
100
AcDbEntity
  8
YKK_N1
100
AcDbLine
 10
11101.17557181
 20
11377.00598823
 30
0.0
 11
11101.17557181
 21
11477.00598823
 31
0.0
  0
LINE
  5
1AE
330
45F
100
AcDbEntity
  8
YKK_N1
100
AcDbLine
 10
11187.77811218
 20
11647.30598823
 30
0.0
 11
11187.77811218
 21
11427.00598823
 31
0.0
  0
TEXT
  5
1AF
330
45F
100
AcDbEntity
  8
YKK_A1
100
AcDbText
 10
11067.3202617
 20
11871.95266323
 30
0.0
 40
60.0
  1
F
 72
     1
 11
11087.3202617
 21
11871.95266323
 31
0.0
100
AcDbText
  0
LINE
  5
1B0
330
45F
100
AcDbEntity
  8
YKK_N1
100
AcDbLine
 10
11417.27810518
 20
11817.00598823
 30
0.0
 11
11467.27810518
 21
11903.60852861
 31
0.0
  0
LINE
  5
1B1
330
45F
100
AcDbEntity
  8
YKK_N1
100
AcDbLine
 10
11417.27810518
 20
13817.00594923
 30
0.0
 11
11367.27810518
 21
13730.40340886
 31
0.0
  0
LINE
  5
1B2
330
45F
100
AcDbEntity
  8
YKK_N1
100
AcDbLine
 10
11467.27810518
 20
13730.40340886
 30
0.0
 11
11367.27810518
 21
13730.40340886
 31
0.0
  0
LINE
  5
1B3
330
45F
100
AcDbEntity
  8
YKK_N1
100
AcDbLine
 10
11292.27810518
 20
13817.00594923
 30
0.0
 11
11417.27810518
 21
13817.00594923
 31
0.0
  0
TEXT
  5
1B4
330
45F
100
AcDbEntity
  8
YKK_N1
100
AcDbText
 10
11412.27810518
 20
12662.15601873
 30
0.0
 40
60.0
  1
H=2000
 50
90.0
 72
     1
 11
11412.27810518
 21
12817.15601873
 31
0.0
100
AcDbText
  0
LINE
  5
1B5
330
45F
100
AcDbEntity
  8
YKK_N1
100
AcDbLine
 10
11467.27810518
 20
13730.40340886
 30
0.0
 11
11417.27810518
 21
13817.00594923
 31
0.0
  0
TEXT
  5
1B6
330
45F
100
AcDbEntity
  8
0
100
AcDbText
 10
10412.77810518
 20
14656.85598823
 30
0.0
 40
100.0
  1
両面ハンドルシリンダーサムターン付　・取外しハンドルフラッシュカバー付
  7
EXTFONT
100
AcDbText
  0
TEXT
  5
1B7
330
45F
100
AcDbEntity
  8
0
100
AcDbText
 10
10412.77810518
 20
14781.85598823
 30
0.0
 40
100.0
  1
両面ハンドル両面シリンダー付　・両面ハンドル片面サムターン付き
  7
EXTFONT
100
AcDbText
  0
TEXT
  5
1B8
330
45F
100
AcDbEntity
  8
0
100
AcDbText
 10
10412.77810518
 20
14906.85598823
 30
0.0
 40
100.0
  1
両面ハンドル　・両面ハンドル片面シリンダー付
  7
EXTFONT
100
AcDbText
  0
TEXT
  5
1B9
330
45F
100
AcDbEntity
  8
0
100
AcDbText
 10
10412.77810518
 20
15156.85598823
 30
0.0
 40
100.0
  1
片面ハンドルシリンダー無手架　・片面ハンドルシリンダー付手架
  7
EXTFONT
100
AcDbText
  0
TEXT
  5
1BA
330
45F
100
AcDbEntity
  8
0
100
AcDbText
 10
10412.77810518
 20
15281.85598823
 30
0.0
 40
100.0
  1
片面ハンドル　・片面ハンドルシリンダー付
  7
EXTFONT
100
AcDbText
  0
LINE
  5
1BB
330
45F
100
AcDbEntity
  8
YKK_F1
  6
Continuous
 62
     7
100
AcDbLine
 10
10312.77810518
 20
14644.35598823
 30
0.0
 11
10312.77810518
 21
15644.35598823
 31
0.0
  0
TEXT
  5
1BC
330
45F
100
AcDbEntity
  8
0
100
AcDbText
 10
10412.77810518
 20
15444.35598823
 30
0.0
 40
150.0
  1
※ハンドルの種類
  7
EXTFONT
100
AcDbText
  0
TEXT
  5
1BD
330
45F
100
AcDbEntity
  8
0
100
AcDbText
 10
10412.77810518
 20
15031.85598823
 30
0.0
 40
100.0
  1
片面ハンドルサムターン付手架
  7
EXTFONT
100
AcDbText
  0
LINE
  5
1BE
330
45F
100
AcDbEntity
  8
YKK_N1
100
AcDbLine
 10
11187.77806218
 20
16981.95432573
 30
0.0
 11
11101.17552181
 21
17031.95432573
 31
0.0
  0
LINE
  5
1BF
330
45F
100
AcDbEntity
  8
YKK_N1
100
AcDbLine
 10
11101.17552181
 20
16931.95432573
 30
0.0
 11
11187.77806218
 21
16981.95432573
 31
0.0
  0
LINE
  5
1C0
330
45F
100
AcDbEntity
  8
YKK_N1
100
AcDbLine
 10
11101.17552181
 20
16931.95432573
 30
0.0
 11
11101.17552181
 21
17031.95432573
 31
0.0
  0
TEXT
  5
1C1
330
45F
100
AcDbEntity
  8
0
100
AcDbText
 10
14012.77810518
 20
14169.35598823
 30
0.0
 40
200.0
  1
＊
  7
EXTFONT
100
AcDbText
  0
TEXT
  5
1C2
330
45F
100
AcDbEntity
  8
0
100
AcDbText
 10
13712.77810518
 20
13919.35598823
 30
0.0
 40
200.0
  1
＊
  7
EXTFONT
100
AcDbText
  0
TEXT
  5
1C3
330
45F
100
AcDbEntity
  8
YKK_F1
 62
     7
100
AcDbText
 10
14432.77810518
 20
14169.35598823
 30
0.0
 40
200.0
  1
箇所
  7
EXTFONT
100
AcDbText
  0
LINE
  5
1C4
330
45F
100
AcDbEntity
  8
YKK_A1
100
AcDbLine
 10
10221.27797518
 20
19274.75767073
 30
0.0
 11
11115.27793518
 21
19274.75767073
 31
0.0
  0
LINE
  5
1C5
330
45F
100
AcDbEntity
  8
YKK_A1
100
AcDbLine
 10
11115.27793518
 20
19294.75765073
 30
0.0
 11
10221.27797518
 21
19294.75765073
 31
0.0
  0
LINE
  5
1C6
330
45F
100
AcDbEntity
  8
YKK_A1
100
AcDbLine
 10
10221.27797518
 20
17464.95432573
 30
0.0
 11
11115.27793518
 21
17464.95432573
 31
0.0
  0
LINE
  5
1C7
330
45F
100
AcDbEntity
  8
YKK_A1
100
AcDbLine
 10
10221.27797518
 20
17444.95432573
 30
0.0
 11
11115.27793518
 21
17444.95432573
 31
0.0
  0
LINE
  5
1C8
330
45F
100
AcDbEntity
  8
YKK_A1
100
AcDbLine
 10
9156.62805518
 20
17297.25432573
 30
0.0
 11
11218.92805518
 21
17297.25432573
 31
0.0
  0
LINE
  5
1C9
330
45F
100
AcDbEntity
  8
YKK_A1
100
AcDbLine
 10
9171.62805518
 20
17371.95432573
 30
0.0
 11
11203.92805518
 21
17371.95432573
 31
0.0
  0
LINE
  5
1CA
330
45F
100
AcDbEntity
  8
YKK_A1
100
AcDbLine
 10
9156.62805518
 20
19411.75765073
 30
0.0
 11
11218.92805518
 21
19411.75765073
 31
0.0
  0
LINE
  5
1CB
330
45F
100
AcDbEntity
  8
YKK_A1
100
AcDbLine
 10
11203.92805518
 20
19372.05765073
 30
0.0
 11
9171.62805518
 21
19372.05765073
 31
0.0
  0
TEXT
  5
1CC
330
45F
100
AcDbEntity
  8
0
100
AcDbText
 10
5762.77810518
 20
19474.35598823
 30
0.0
 40
200.0
  1
＊
  7
EXTFONT
100
AcDbText
  0
TEXT
  5
1CD
330
45F
100
AcDbEntity
  8
YKK_F1
 62
     7
100
AcDbText
 10
5902.77810518
 20
19749.35598823
 30
0.0
 40
160.0
  1
ＡＷ
  7
EXTFONT
100
AcDbText
  0
LINE
  5
1CE
330
45F
100
AcDbEntity
  8
YKK_F1
  6
Continuous
 62
     7
100
AcDbLine
 10
5837.77810518
 20
19949.35598823
 30
0.0
 11
6287.77810518
 21
19949.35598823
 31
0.0
  0
CIRCLE
  5
1CF
330
45F
100
AcDbEntity
  8
YKK_F1
 62
     7
100
AcDbCircle
 10
6062.77810518
 20
19949.35598823
 30
0.0
 40
233.3333333333333
  0
TEXT
  5
1D0
330
45F
100
AcDbEntity
  8
0
100
AcDbText
 10
5962.77810518
 20
19949.35598823
 30
0.0
 40
200.0
  1
＊
  7
EXTFONT
100
AcDbText
  0
LINE
  5
1D1
330
45F
100
AcDbEntity
  8
YKK_F1
  6
Continuous
 62
     7
100
AcDbLine
 10
5837.77810518
 20
19949.35598823
 30
0.0
 11
5829.44477185
 21
19941.0226549
 31
0.0
  0
LINE
  5
1D2
330
45F
100
AcDbEntity
  8
YKK_F1
  6
Continuous
 62
     7
100
AcDbLine
 10
6287.77810518
 20
19949.35598823
 30
0.0
 11
6296.11143852
 21
19941.0226549
 31
0.0
  0
LINE
  5
1D3
330
45F
100
AcDbEntity
  8
YKK_A1
100
AcDbLine
 10
10221.27797518
 20
19294.75765073
 30
0.0
 11
10221.27797518
 21
17444.95432573
 31
0.0
  0
LINE
  5
1D4
330
45F
100
AcDbEntity
  8
YKK_A1
100
AcDbLine
 10
10241.27797518
 20
19274.75767073
 30
0.0
 11
10241.27797518
 21
17464.95432573
 31
0.0
  0
LINE
  5
1D5
330
45F
100
AcDbEntity
  8
YKK_A1
100
AcDbLine
 10
10135.27799518
 20
19372.05765073
 30
0.0
 11
10135.27799518
 21
17371.95432573
 31
0.0
  0
LINE
  5
1D6
330
45F
100
AcDbEntity
  8
YKK_A1
100
AcDbLine
 10
9156.62805518
 20
19411.75765073
 30
0.0
 11
9156.62805518
 21
17297.25432573
 31
0.0
  0
LINE
  5
1D7
330
45F
100
AcDbEntity
  8
YKK_A1
100
AcDbLine
 10
9261.27803518
 20
17444.95432573
 30
0.0
 11
9261.27803518
 21
19294.75765073
 31
0.0
  0
LINE
  5
1D8
330
45F
100
AcDbEntity
  8
YKK_A1
100
AcDbLine
 10
9281.27803518
 20
19274.75767073
 30
0.0
 11
9281.27803518
 21
17464.95432573
 31
0.0
  0
LINE
  5
1D9
330
45F
100
AcDbEntity
  8
YKK_A1
100
AcDbLine
 10
9187.77805518
 20
19372.05765073
 30
0.0
 11
9187.77805518
 21
17371.95432573
 31
0.0
  0
LINE
  5
1DA
330
45F
100
AcDbEntity
  8
YKK_A1
100
AcDbLine
 10
9261.27803518
 20
17464.95432573
 30
0.0
 11
10135.27799518
 21
17464.95432573
 31
0.0
  0
LINE
  5
1DB
330
45F
100
AcDbEntity
  8
YKK_A1
100
AcDbLine
 10
9261.27803518
 20
17444.95432573
 30
0.0
 11
10135.27799518
 21
17444.95432573
 31
0.0
  0
LINE
  5
1DC
330
45F
100
AcDbEntity
  8
YKK_A1
100
AcDbLine
 10
9171.62805518
 20
17371.95432573
 30
0.0
 11
9171.62805518
 21
17297.25432573
 31
0.0
  0
LINE
  5
1DD
330
45F
100
AcDbEntity
  8
YKK_A1
100
AcDbLine
 10
9261.27803518
 20
17444.95432573
 30
0.0
 11
9187.77805518
 21
17371.95432573
 31
0.0
  0
LINE
  5
1DE
330
45F
100
AcDbEntity
  8
YKK_IN
100
AcDbLine
 10
10152.42271612
 20
17407.30966479
 30
0.0
 11
10223.13339424
 21
17336.59898668
 31
0.0
  0
LINE
  5
1DF
330
45F
100
AcDbEntity
  8
YKK_IN
100
AcDbLine
 10
10223.13339424
 20
17407.30966479
 30
0.0
 11
10152.42271612
 21
17336.59898668
 31
0.0
  0
CIRCLE
  5
1E0
330
45F
100
AcDbEntity
  8
YKK_IN
100
AcDbCircle
 10
10187.77805518
 20
17371.95432573
 30
0.0
 40
25.0
  0
LINE
  5
1E1
330
45F
100
AcDbEntity
  8
YKK_A1
100
AcDbLine
 10
10221.27797518
 20
17444.95432573
 30
0.0
 11
10148.27799518
 21
17371.95432573
 31
0.0
  0
LINE
  5
1E2
330
45F
100
AcDbEntity
  8
YKK_A1
100
AcDbLine
 10
9958.27801518
 20
18569.85599823
 30
0.0
 11
9458.27801518
 21
18569.85599823
 31
0.0
  0
LINE
  5
1E3
330
45F
100
AcDbEntity
  8
YKK_A1
100
AcDbLine
 10
9458.27801518
 20
18569.85599823
 30
0.0
 11
9458.27801518
 21
18128.90599823
 31
0.0
  0
LINE
  5
1E4
330
45F
100
AcDbEntity
  8
YKK_A1
100
AcDbLine
 10
9244.52804518
 20
18446.95422573
 30
0.0
 11
9244.52804518
 21
18296.95442573
 31
0.0
  0
LINE
  5
1E5
330
45F
100
AcDbEntity
  8
YKK_A1
100
AcDbLine
 10
9204.52804518
 20
18446.95422573
 30
0.0
 11
9204.52804518
 21
18296.95442573
 31
0.0
  0
LINE
  5
1E6
330
45F
100
AcDbEntity
  8
YKK_A1
100
AcDbLine
 10
9244.52804518
 20
18296.95442573
 30
0.0
 11
9204.52804518
 21
18296.95442573
 31
0.0
  0
LINE
  5
1E7
330
45F
100
AcDbEntity
  8
YKK_A1
100
AcDbLine
 10
9213.52804518
 20
18641.94930573
 30
0.0
 11
9235.52804518
 21
18641.94930573
 31
0.0
  0
LINE
  5
1E8
330
45F
100
AcDbEntity
  8
YKK_A1
100
AcDbLine
 10
9213.52804518
 20
18446.95422573
 30
0.0
 11
9204.52804518
 21
18446.95422573
 31
0.0
  0
LINE
  5
1E9
330
45F
100
AcDbEntity
  8
YKK_A1
100
AcDbLine
 10
9244.52804518
 20
18446.95422573
 30
0.0
 11
9235.52804518
 21
18446.95422573
 31
0.0
  0
LINE
  5
1EA
330
45F
100
AcDbEntity
  8
YKK_A1
100
AcDbLine
 10
9235.52804518
 20
18381.95178573
 30
0.0
 11
9213.52804518
 21
18381.95178573
 31
0.0
  0
LINE
  5
1EB
330
45F
100
AcDbEntity
  8
YKK_A1
100
AcDbLine
 10
9213.52804518
 20
18641.94930573
 30
0.0
 11
9213.52804518
 21
18381.95178573
 31
0.0
  0
LINE
  5
1EC
330
45F
100
AcDbEntity
  8
YKK_A1
100
AcDbLine
 10
9235.52804518
 20
18641.94930573
 30
0.0
 11
9235.52804518
 21
18381.95178573
 31
0.0
  0
LINE
  5
1ED
330
45F
100
AcDbEntity
  8
YKK_A1
100
AcDbLine
 10
9958.27801518
 20
18569.85599823
 30
0.0
 11
9858.27801518
 21
18609.85599823
 31
0.0
  0
LINE
  5
1EE
330
45F
100
AcDbEntity
  8
YKK_A1
100
AcDbLine
 10
9958.27801518
 20
18569.85599823
 30
0.0
 11
9858.27801518
 21
18529.85599823
 31
0.0
  0
LINE
  5
1EF
330
45F
100
AcDbEntity
  8
YKK_A1
100
AcDbLine
 10
9261.27803518
 20
19274.75767073
 30
0.0
 11
10135.27799518
 21
19274.75767073
 31
0.0
  0
LINE
  5
1F0
330
45F
100
AcDbEntity
  8
YKK_A1
100
AcDbLine
 10
9261.27803518
 20
19294.75765073
 30
0.0
 11
10135.27799518
 21
19294.75765073
 31
0.0
  0
LINE
  5
1F1
330
45F
100
AcDbEntity
  8
YKK_A1
100
AcDbLine
 10
9171.62805518
 20
19372.05765073
 30
0.0
 11
9171.62805518
 21
19411.75765073
 31
0.0
  0
LINE
  5
1F2
330
45F
100
AcDbEntity
  8
YKK_A1
100
AcDbLine
 10
9261.27803518
 20
19294.75765073
 30
0.0
 11
9187.77805518
 21
19372.05765073
 31
0.0
  0
LINE
  5
1F3
330
45F
100
AcDbEntity
  8
YKK_A1
100
AcDbLine
 10
10221.27797518
 20
19294.75765073
 30
0.0
 11
10144.27799518
 21
19372.05765073
 31
0.0
  0
LINE
  5
1F4
330
45F
100
AcDbEntity
  8
YKK_A1
100
AcDbLine
 10
11218.92805518
 20
19411.75765073
 30
0.0
 11
11218.92805518
 21
17297.25432573
 31
0.0
  0
LINE
  5
1F5
330
45F
100
AcDbEntity
  8
YKK_A1
100
AcDbLine
 10
11115.27793518
 20
17444.95432573
 30
0.0
 11
11115.27793518
 21
19294.75765073
 31
0.0
  0
LINE
  5
1F6
330
45F
100
AcDbEntity
  8
YKK_A1
100
AcDbLine
 10
11095.27793518
 20
19274.75767073
 30
0.0
 11
11095.27793518
 21
17464.95432573
 31
0.0
  0
LINE
  5
1F7
330
45F
100
AcDbEntity
  8
YKK_A1
100
AcDbLine
 10
11187.77805518
 20
17371.95432573
 30
0.0
 11
11187.77805518
 21
19372.05765073
 31
0.0
  0
LINE
  5
1F8
330
45F
100
AcDbEntity
  8
YKK_N1
100
AcDbLine
 10
11417.27815518
 20
19371.95428673
 30
0.0
 11
11417.27815518
 21
17371.95432573
 31
0.0
  0
LINE
  5
1F9
330
45F
100
AcDbEntity
  8
YKK_N1
100
AcDbLine
 10
11367.27815518
 20
17458.55686611
 30
0.0
 11
11467.27815518
 21
17458.55686611
 31
0.0
  0
LINE
  5
1FA
330
45F
100
AcDbEntity
  8
YKK_N1
100
AcDbLine
 10
11367.27815518
 20
17458.55686611
 30
0.0
 11
11417.27815518
 21
17371.95432573
 31
0.0
  0
LINE
  5
1FB
330
45F
100
AcDbEntity
  8
YKK_N1
100
AcDbLine
 10
11292.27817918
 20
17371.95432573
 30
0.0
 11
11417.27815518
 21
17371.95432573
 31
0.0
  0
LINE
  5
1FC
330
45F
100
AcDbEntity
  8
YKK_A1
100
AcDbLine
 10
10918.27795518
 20
18169.85599823
 30
0.0
 11
10918.27795518
 21
17728.90599823
 31
0.0
  0
LINE
  5
1FD
330
45F
100
AcDbEntity
  8
YKK_A1
100
AcDbLine
 10
11187.77805518
 20
17371.95432573
 30
0.0
 11
11115.27793518
 21
17444.95432573
 31
0.0
  0
LINE
  5
1FE
330
45F
100
AcDbEntity
  8
YKK_A1
100
AcDbLine
 10
11203.92805518
 20
17297.25432573
 30
0.0
 11
11203.92805518
 21
17371.95432573
 31
0.0
  0
LINE
  5
1FF
330
45F
100
AcDbEntity
  8
YKK_A1
100
AcDbLine
 10
10418.27795518
 20
18169.85599823
 30
0.0
 11
10918.27795518
 21
18169.85599823
 31
0.0
  0
LINE
  5
200
330
45F
100
AcDbEntity
  8
YKK_A1
100
AcDbLine
 10
10418.27795518
 20
18169.85599823
 30
0.0
 11
10518.27795518
 21
18209.85599823
 31
0.0
  0
LINE
  5
201
330
45F
100
AcDbEntity
  8
YKK_A1
100
AcDbLine
 10
10418.27795518
 20
18169.85599823
 30
0.0
 11
10518.27795518
 21
18129.85599823
 31
0.0
  0
TEXT
  5
202
330
45F
100
AcDbEntity
  8
YKK_N1
100
AcDbText
 10
11412.27815518
 20
18217.10435623
 30
0.0
 40
60.0
  1
H=2000
 50
90.0
 72
     1
 11
11412.27815518
 21
18372.10435623
 31
0.0
100
AcDbText
  0
LINE
  5
203
330
45F
100
AcDbEntity
  8
YKK_A1
100
AcDbLine
 10
11131.52799518
 20
18446.95422573
 30
0.0
 11
11131.52799518
 21
18296.95442573
 31
0.0
  0
LINE
  5
204
330
45F
100
AcDbEntity
  8
YKK_A1
100
AcDbLine
 10
11171.52799518
 20
18446.95422573
 30
0.0
 11
11171.52799518
 21
18296.95442573
 31
0.0
  0
LINE
  5
205
330
45F
100
AcDbEntity
  8
YKK_A1
100
AcDbLine
 10
11131.52799518
 20
18296.95442573
 30
0.0
 11
11171.52799518
 21
18296.95442573
 31
0.0
  0
LINE
  5
206
330
45F
100
AcDbEntity
  8
YKK_A1
100
AcDbLine
 10
11162.52799518
 20
18641.94930573
 30
0.0
 11
11140.52799518
 21
18641.94930573
 31
0.0
  0
LINE
  5
207
330
45F
100
AcDbEntity
  8
YKK_A1
100
AcDbLine
 10
11162.52799518
 20
18446.95422573
 30
0.0
 11
11171.52799518
 21
18446.95422573
 31
0.0
  0
LINE
  5
208
330
45F
100
AcDbEntity
  8
YKK_A1
100
AcDbLine
 10
11131.52799518
 20
18446.95422573
 30
0.0
 11
11140.52799518
 21
18446.95422573
 31
0.0
  0
LINE
  5
209
330
45F
100
AcDbEntity
  8
YKK_A1
100
AcDbLine
 10
11162.52799518
 20
18396.95178573
 30
0.0
 11
11140.52799518
 21
18396.95178573
 31
0.0
  0
LINE
  5
20A
330
45F
100
AcDbEntity
  8
YKK_A1
100
AcDbLine
 10
11140.52799518
 20
18381.95178573
 30
0.0
 11
11162.52799518
 21
18381.95178573
 31
0.0
  0
LINE
  5
20B
330
45F
100
AcDbEntity
  8
YKK_A1
100
AcDbLine
 10
11162.52799518
 20
18641.94930573
 30
0.0
 11
11162.52799518
 21
18381.95178573
 31
0.0
  0
LINE
  5
20C
330
45F
100
AcDbEntity
  8
YKK_A1
100
AcDbLine
 10
11140.52799518
 20
18641.94930573
 30
0.0
 11
11140.52799518
 21
18381.95178573
 31
0.0
  0
LINE
  5
20D
330
45F
100
AcDbEntity
  8
YKK_N1
100
AcDbLine
 10
11417.27815518
 20
17371.95432573
 30
0.0
 11
11467.27815518
 21
17458.55686611
 31
0.0
  0
LINE
  5
20E
330
45F
100
AcDbEntity
  8
YKK_N1
100
AcDbLine
 10
11467.27815518
 20
19285.35174636
 30
0.0
 11
11367.27815518
 21
19285.35174636
 31
0.0
  0
LINE
  5
20F
330
45F
100
AcDbEntity
  8
YKK_N1
100
AcDbLine
 10
11417.27815518
 20
19371.95428673
 30
0.0
 11
11367.27815518
 21
19285.35174636
 31
0.0
  0
LINE
  5
210
330
45F
100
AcDbEntity
  8
YKK_N1
100
AcDbLine
 10
11292.27805518
 20
19371.95428673
 30
0.0
 11
11417.27815518
 21
19371.95428673
 31
0.0
  0
LINE
  5
211
330
45F
100
AcDbEntity
  8
YKK_A1
100
AcDbLine
 10
11115.27793518
 20
19294.75765073
 30
0.0
 11
11187.77805518
 21
19372.05765073
 31
0.0
  0
LINE
  5
212
330
45F
100
AcDbEntity
  8
YKK_A1
100
AcDbLine
 10
11203.92805518
 20
19372.05765073
 30
0.0
 11
11203.92805518
 21
19411.75765073
 31
0.0
  0
LINE
  5
213
330
45F
100
AcDbEntity
  8
YKK_N1
100
AcDbLine
 10
11467.27815518
 20
19285.35174636
 30
0.0
 11
11417.27815518
 21
19371.95428673
 31
0.0
  0
TEXT
  5
214
330
45F
100
AcDbEntity
  8
0
100
AcDbText
 10
13712.77810518
 20
19474.35598823
 30
0.0
 40
200.0
  1
＊
  7
EXTFONT
100
AcDbText
  0
TEXT
  5
215
330
45F
100
AcDbEntity
  8
0
100
AcDbText
 10
14012.77810518
 20
19724.35598823
 30
0.0
 40
200.0
  1
＊
  7
EXTFONT
100
AcDbText
  0
TEXT
  5
216
330
45F
100
AcDbEntity
  8
YKK_F1
 62
     7
100
AcDbText
 10
14432.77810518
 20
19724.35598823
 30
0.0
 40
200.0
  1
箇所
  7
EXTFONT
100
AcDbText
  0
LINE
  5
217
330
45F
100
AcDbEntity
  8
YKK_F1
  6
Continuous
 62
     7
100
AcDbLine
 10
14962.77810518
 20
3534.35598823
 30
0.0
 11
14962.77810518
 21
20199.35598823
 31
0.0
  0
LINE
  5
218
330
45F
100
AcDbEntity
  8
YKK_F1
  6
Continuous
 62
     7
100
AcDbLine
 10
24262.77810518
 20
3534.35598823
 30
0.0
 11
24262.77810518
 21
20199.35598823
 31
0.0
  0
LINE
  5
219
330
45F
100
AcDbEntity
  8
YKK_F1
  6
Continuous
 62
     7
100
AcDbLine
 10
28912.77810518
 20
3534.35598823
 30
0.0
 11
28912.77810518
 21
20199.35598823
 31
0.0
  0
LINE
  5
21A
330
45F
100
AcDbEntity
  8
YKK_F2
  6
Continuous
100
AcDbLine
 10
29303.52910518
 20
582.17170823
 30
0.0
 11
29303.52910518
 21
20568.82568823
 31
0.0
  0
LINE
  5
21B
330
45F
100
AcDbEntity
  8
YKK_F2
  6
Continuous
100
AcDbLine
 10
29152.96810518
 20
731.60767823
 30
0.0
 11
29152.96810518
 21
20419.38968823
 31
0.0
  0
LINE
  5
21C
330
45F
100
AcDbEntity
  8
YKK_F2
  6
Continuous
100
AcDbLine
 10
29115.18410518
 20
769.38970823
 30
0.0
 11
29115.18410518
 21
20381.04368823
 31
0.0
  0
LINE
  5
21D
330
45F
100
AcDbEntity
  8
YKK_F2
  6
Continuous
100
AcDbLine
 10
29128.15610518
 20
756.41977823
 30
0.0
 11
29128.15610518
 21
20394.01368823
 31
0.0
  0
LINE
  5
21E
330
45F
100
AcDbEntity
  8
YKK_F2
  6
Continuous
100
AcDbLine
 10
29140.56010518
 20
744.01374823
 30
0.0
 11
29140.56010518
 21
20406.98568823
 31
0.0
  0
LINE
  5
21F
330
45F
100
AcDbEntity
  8
YKK_F2
  6
Continuous
100
AcDbLine
 10
29102.77810518
 20
782.35969823
 30
0.0
 11
29102.77810518
 21
20368.63868823
 31
0.0
  0
LINE
  5
220
330
45F
100
AcDbEntity
  8
YKK_F2
100
AcDbLine
 10
29811.73910518
 20
82.41968823
 30
0.0
 11
29811.73910518
 21
21081.41968823
 31
0.0
  0
TEXT
  5
221
330
45F
100
AcDbEntity
  8
YKK_F2
100
AcDbText
 10
24012.82777185
 20
1056.79568823
 30
0.0
 40
200.0
  1
建具表－（ＢＲＡＴＳＬ７３）
  7
EXTFONT
 72
     4
 11
25606.16110518
 21
1156.79568823
 31
0.0
100
AcDbText
  0
LINE
  5
222
330
45F
100
AcDbEntity
  8
YKK_F2
  6
Continuous
100
AcDbLine
 10
21607.28910518
 20
1531.79568823
 30
0.0
 11
28103.52910518
 21
1531.79568823
 31
0.0
  0
TEXT
  5
223
330
45F
100
AcDbEntity
  8
YKK_F2
100
AcDbText
 10
23799.49443852
 20
1681.79568823
 30
0.0
 40
200.0
  1
(仮称)○\U+00D7ビル新築工事
  7
EXTFONT
 72
     4
 11
25106.16110518
 21
1781.79568823
 31
0.0
100
AcDbText
  0
LINE
  5
224
330
45F
100
AcDbEntity
  8
YKK_F2
  6
Continuous
100
AcDbLine
 10
21607.28910518
 20
1281.98378823
 30
0.0
 11
18609.54610518
 21
1281.98378823
 31
0.0
  0
TEXT
  5
225
330
45F
100
AcDbEntity
  8
YKK_F1
100
AcDbText
 10
19072.51355518
 20
3255.85598823
 30
0.0
 40
100.0
  1
エアタイト型式
  7
EXTFONT
100
AcDbText
  0
TEXT
  5
226
330
45F
100
AcDbEntity
  8
YKK_F1
100
AcDbText
 10
19072.51355518
 20
2505.85598823
 30
0.0
 40
100.0
  1
防火防煙型式
  7
EXTFONT
100
AcDbText
  0
TEXT
  5
227
330
45F
100
AcDbEntity
  8
YKK_F1
100
AcDbText
 10
16472.51355518
 20
2355.85598823
 30
0.0
 40
100.0
  1
Ｒ　：熱線反射
  7
EXTFONT
100
AcDbText
  0
TEXT
  5
228
330
45F
100
AcDbEntity
  8
YKK_F1
100
AcDbText
 10
16472.51355518
 20
2805.85598823
 30
0.0
 40
100.0
  1
Ｗ　：ワイヤー入
  7
EXTFONT
100
AcDbText
  0
TEXT
  5
229
330
45F
100
AcDbEntity
  8
YKK_F1
100
AcDbText
 10
16472.51355518
 20
2205.85598823
 30
0.0
 40
100.0
  1
Ｔ　：強化
  7
EXTFONT
100
AcDbText
  0
TEXT
  5
22A
330
45F
100
AcDbEntity
  8
YKK_F1
100
AcDbText
 10
15972.51355518
 20
3255.85598823
 30
0.0
 40
100.0
  1
ガラス
  7
EXTFONT
100
AcDbText
  0
TEXT
  5
22B
330
45F
100
AcDbEntity
  8
YKK_F1
100
AcDbText
 10
16472.51355518
 20
3105.85598823
 30
0.0
 40
100.0
  1
Ｈ　：吸熱
  7
EXTFONT
100
AcDbText
  0
TEXT
  5
22C
330
45F
100
AcDbEntity
  8
YKK_F1
100
AcDbText
 10
16472.51355518
 20
2655.85598823
 30
0.0
 40
100.0
  1
Ｐ　：磨き
  7
EXTFONT
100
AcDbText
  0
TEXT
  5
22D
330
45F
100
AcDbEntity
  8
YKK_F1
100
AcDbText
 10
16472.51355518
 20
2505.85598823
 30
0.0
 40
100.0
  1
Ｆ　：型板
  7
EXTFONT
100
AcDbText
  0
TEXT
  5
22E
330
45F
100
AcDbEntity
  8
YKK_F1
100
AcDbText
 10
16472.51355518
 20
2955.85598823
 30
0.0
 40
100.0
  1
Ｄ　：複層
  7
EXTFONT
100
AcDbText
  0
TEXT
  5
22F
330
45F
100
AcDbEntity
  8
YKK_F1
100
AcDbText
 10
16472.51355518
 20
3255.85598823
 30
0.0
 40
100.0
  1
Ｃ　：透明
  7
EXTFONT
100
AcDbText
  0
TEXT
  5
230
330
45F
100
AcDbEntity
  8
YKK_F1
100
AcDbText
 10
17772.51355518
 20
2205.85598823
 30
0.0
 40
100.0
  1
＊
  7
EXTFONT
100
AcDbText
  0
LINE
  5
231
330
45F
100
AcDbEntity
  8
YKK_F2
  6
Continuous
100
AcDbLine
 10
18609.54610518
 20
2030.85598823
 30
0.0
 11
18609.54610518
 21
731.60767823
 31
0.0
  0
TEXT
  5
232
330
45F
100
AcDbEntity
  8
YKK_F2
100
AcDbText
 10
18659.54610518
 20
1148.86338823
 30
0.0
 40
100.0
  1
担当者
  7
EXTFONT
100
AcDbText
  0
TEXT
  5
233
330
45F
100
AcDbEntity
  8
YKK_F2
100
AcDbText
 10
18659.54610518
 20
1897.73558823
 30
0.0
 40
100.0
  1
管理建築士
  7
EXTFONT
100
AcDbText
  0
TEXT
  5
234
330
45F
100
AcDbEntity
  8
YKK_F1
100
AcDbText
 10
17772.51355518
 20
3255.85598823
 30
0.0
 40
100.0
  1
ＦＬ：フロート
  7
EXTFONT
100
AcDbText
  0
TEXT
  5
235
330
45F
100
AcDbEntity
  8
YKK_F1
100
AcDbText
 10
17772.51355518
 20
3105.85598823
 30
0.0
 40
100.0
  1
＊
  7
EXTFONT
100
AcDbText
  0
TEXT
  5
236
330
45F
100
AcDbEntity
  8
YKK_F1
100
AcDbText
 10
17772.51355518
 20
2805.85598823
 30
0.0
 40
100.0
  1
＊
  7
EXTFONT
100
AcDbText
  0
TEXT
  5
237
330
45F
100
AcDbEntity
  8
YKK_F1
100
AcDbText
 10
17772.51355518
 20
2955.85598823
 30
0.0
 40
100.0
  1
＊
  7
EXTFONT
100
AcDbText
  0
TEXT
  5
238
330
45F
100
AcDbEntity
  8
YKK_F1
100
AcDbText
 10
17772.51355518
 20
2355.85598823
 30
0.0
 40
100.0
  1
＊
  7
EXTFONT
100
AcDbText
  0
TEXT
  5
239
330
45F
100
AcDbEntity
  8
YKK_F1
100
AcDbText
 10
17772.51355518
 20
2655.85598823
 30
0.0
 40
100.0
  1
＊
  7
EXTFONT
100
AcDbText
  0
TEXT
  5
23A
330
45F
100
AcDbEntity
  8
YKK_F1
100
AcDbText
 10
17772.51355518
 20
2505.85598823
 30
0.0
 40
100.0
  1
＊
  7
EXTFONT
100
AcDbText
  0
TEXT
  5
23B
330
45F
100
AcDbEntity
  8
YKK_F2
100
AcDbText
 10
21657.28910518
 20
1897.73558823
 30
0.0
 40
100.0
  1
設計No.
  7
EXTFONT
100
AcDbText
  0
TEXT
  5
23C
330
45F
100
AcDbEntity
  8
YKK_F1
100
AcDbText
 10
20072.51355518
 20
3105.85598823
 30
0.0
 40
100.0
  1
　　レバーハンドル等に依り引寄せ
  7
EXTFONT
100
AcDbText
  0
TEXT
  5
23D
330
45F
100
AcDbEntity
  8
YKK_F1
100
AcDbText
 10
20072.51355518
 20
2205.85598823
 30
0.0
 40
100.0
  1
＊
  7
EXTFONT
100
AcDbText
  0
TEXT
  5
23E
330
45F
100
AcDbEntity
  8
YKK_F2
100
AcDbText
 10
21657.28910518
 20
1398.67528823
 30
0.0
 40
100.0
  1
縮尺
  7
EXTFONT
100
AcDbText
  0
LINE
  5
23F
330
45F
100
AcDbEntity
  8
YKK_F2
  6
Continuous
100
AcDbLine
 10
21607.28910518
 20
2030.85598823
 30
0.0
 11
21607.28910518
 21
731.60767823
 31
0.0
  0
TEXT
  5
240
330
45F
100
AcDbEntity
  8
YKK_F1
100
AcDbText
 10
20072.51355518
 20
2805.85598823
 30
0.0
 40
100.0
  1
Ｃ：ダブルモヘア
  7
EXTFONT
100
AcDbText
  0
TEXT
  5
241
330
45F
100
AcDbEntity
  8
YKK_F1
100
AcDbText
 10
20072.51355518
 20
2505.85598823
 30
0.0
 40
100.0
  1
Ａ：ビーズ付自閉
  7
EXTFONT
100
AcDbText
  0
TEXT
  5
242
330
45F
100
AcDbEntity
  8
YKK_F1
100
AcDbText
 10
20072.51355518
 20
3255.85598823
 30
0.0
 40
100.0
  1
Ａ：枠四周合成ゴムストリップ付
  7
EXTFONT
100
AcDbText
  0
TEXT
  5
243
330
45F
100
AcDbEntity
  8
YKK_F1
100
AcDbText
 10
20072.51355518
 20
2955.85598823
 30
0.0
 40
100.0
  1
Ｂ：枠四周合成ゴムストリップ付
  7
EXTFONT
100
AcDbText
  0
TEXT
  5
244
330
45F
100
AcDbEntity
  8
YKK_F1
100
AcDbText
 10
20072.51355518
 20
2355.85598823
 30
0.0
 40
100.0
  1
Ｂ：煙感知器連動自閉装置
  7
EXTFONT
100
AcDbText
  0
TEXT
  5
245
330
45F
100
AcDbEntity
  8
YKK_F1
100
AcDbText
 10
20072.51355518
 20
2655.85598823
 30
0.0
 40
100.0
  1
＊
  7
EXTFONT
100
AcDbText
  0
LINE
  5
246
330
45F
100
AcDbEntity
  8
YKK_F2
  6
Continuous
100
AcDbLine
 10
22706.91310518
 20
1432.54768823
 30
0.0
 11
22006.53710518
 21
882.17167823
 31
0.0
  0
TEXT
  5
247
330
45F
100
AcDbEntity
  8
YKK_F2
  6
Continuous
100
AcDbText
 10
22069.69510518
 20
1195.14158823
 30
0.0
 40
150.0
  1
1
100
AcDbText
  0
TEXT
  5
248
330
45F
100
AcDbEntity
  8
YKK_F2
  6
Continuous
100
AcDbText
 10
22606.57413222
 20
947.9586473
 30
0.0
 40
150.0
  1
50
100
AcDbText
  0
TEXT
  5
249
330
45F
100
AcDbEntity
  8
YKK_F2
100
AcDbText
 10
23156.16110518
 20
1398.67528823
 30
0.0
 40
100.0
  1
図面名
  7
EXTFONT
100
AcDbText
  0
LINE
  5
24A
330
45F
100
AcDbEntity
  8
YKK_F2
  6
Continuous
100
AcDbLine
 10
23106.16110518
 20
2030.85598823
 30
0.0
 11
23106.16110518
 21
731.60767823
 31
0.0
  0
TEXT
  5
24B
330
45F
100
AcDbEntity
  8
YKK_F2
100
AcDbText
 10
23156.16110518
 20
1897.73558823
 30
0.0
 40
100.0
  1
名称
  7
EXTFONT
100
AcDbText
  0
TEXT
  5
24C
330
45F
100
AcDbEntity
  8
0
100
AcDbText
 10
15062.77810518
 20
10389.35598823
 30
0.0
 40
150.0
  1
シルバー・カラー（ブロンズ、ステン、ブラック）
  7
EXTFONT
100
AcDbText
  0
TEXT
  5
24D
330
45F
100
AcDbEntity
  8
0
100
AcDbText
 10
15062.77810518
 20
9139.35598823
 30
0.0
 40
150.0
  1
ＹＫＫＡＰ　ＹＡＴ－１００（Ｋ－８０２）同等品
  7
EXTFONT
100
AcDbText
  0
TEXT
  5
24E
330
45F
100
AcDbEntity
  8
0
100
AcDbText
 10
15062.77810518
 20
9889.35598823
 30
0.0
 40
150.0
  1
１８０゜回転ハンドル・ダブル戸車・気密材
  7
EXTFONT
100
AcDbText
  0
TEXT
  5
24F
330
45F
100
AcDbEntity
  8
0
100
AcDbText
 10
15062.77810518
 20
10139.35598823
 30
0.0
 40
150.0
  1
ＦＬ・透明・シール納まり
  7
EXTFONT
100
AcDbText
  0
TEXT
  5
251
330
45F
100
AcDbEntity
  8
0
100
AcDbText
 10
15062.77810518
 20
9389.35598823
 30
0.0
 40
150.0
  1
※
  7
EXTFONT
100
AcDbText
  0
TEXT
  5
252
330
45F
100
AcDbEntity
  8
0
100
AcDbText
 10
19712.77810518
 20
9726.85598823
 30
0.0
 40
100.0
  1
片面ハンドル　・片面ハンドルシリンダー付
  7
EXTFONT
100
AcDbText
  0
TEXT
  5
253
330
45F
100
AcDbEntity
  8
0
100
AcDbText
 10
19712.77810518
 20
9601.85598823
 30
0.0
 40
100.0
  1
片面ハンドルシリンダー無手架　・片面ハンドルシリンダー付手架
  7
EXTFONT
100
AcDbText
  0
TEXT
  5
254
330
45F
100
AcDbEntity
  8
0
100
AcDbText
 10
19712.77810518
 20
9351.85598823
 30
0.0
 40
100.0
  1
両面ハンドル　・両面ハンドル片面シリンダー付
  7
EXTFONT
100
AcDbText
  0
TEXT
  5
255
330
45F
100
AcDbEntity
  8
0
100
AcDbText
 10
19712.77810518
 20
9226.85598823
 30
0.0
 40
100.0
  1
両面ハンドル両面シリンダー付　・両面ハンドル片面サムターン付き
  7
EXTFONT
100
AcDbText
  0
TEXT
  5
256
330
45F
100
AcDbEntity
  8
0
100
AcDbText
 10
19712.77810518
 20
9101.85598823
 30
0.0
 40
100.0
  1
両面ハンドルシリンダーサムターン付　・取外しハンドルフラッシュカバー付
  7
EXTFONT
100
AcDbText
  0
TEXT
  5
257
330
45F
100
AcDbEntity
  8
0
100
AcDbText
 10
19712.77810518
 20
9476.85598823
 30
0.0
 40
100.0
  1
片面ハンドルサムターン付手架
  7
EXTFONT
100
AcDbText
  0
TEXT
  5
258
330
45F
100
AcDbEntity
  8
0
100
AcDbText
 10
19712.77810518
 20
9889.35598823
 30
0.0
 40
150.0
  1
※ハンドルの種類
  7
EXTFONT
100
AcDbText
  0
LINE
  5
259
330
45F
100
AcDbEntity
  8
YKK_F1
  6
Continuous
 62
     7
100
AcDbLine
 10
19612.77810518
 20
9089.35598823
 30
0.0
 11
19612.77810518
 21
10089.35598823
 31
0.0
  0
LINE
  5
25A
330
45F
100
AcDbEntity
  8
YKK_F2
  6
Continuous
100
AcDbLine
 10
29002.96710518
 20
1732.54758823
 30
0.0
 11
28203.34310518
 21
1082.92368823
 31
0.0
  0
TEXT
  5
25B
330
45F
100
AcDbEntity
  8
YKK_F2
100
AcDbText
 10
28730.11551788
 20
832.53668067
 30
0.0
 40
100.0
  1
枚の内
  7
EXTFONT
100
AcDbText
  0
TEXT
  5
25C
330
45F
100
AcDbEntity
  8
YKK_F2
100
AcDbText
 10
27103.52910518
 20
1706.79568823
 30
0.0
 40
150.0
  1
工事設計図
  7
EXTFONT
100
AcDbText
  0
LINE
  5
25D
330
45F
100
AcDbEntity
  8
YKK_F2
  6
Continuous
100
AcDbLine
 10
28103.52910518
 20
2030.85598823
 30
0.0
 11
28103.52910518
 21
731.60767823
 31
0.0
  0
TEXT
  5
25E
330
45F
100
AcDbEntity
  8
YKK_F2
100
AcDbText
 10
28153.52910518
 20
1897.73558823
 30
0.0
 40
100.0
  1
図面No.
  7
EXTFONT
100
AcDbText
  0
LINE
  5
25F
330
45F
100
AcDbEntity
  8
YKK_N1
100
AcDbLine
 10
21487.77811218
 20
17202.25432573
 30
0.0
 11
21487.77811218
 21
16981.95432573
 31
0.0
  0
LINE
  5
260
330
45F
100
AcDbEntity
  8
YKK_N1
100
AcDbLine
 10
17487.77810518
 20
17202.25432573
 30
0.0
 11
17487.77810518
 21
16981.95432573
 31
0.0
  0
LINE
  5
261
330
45F
100
AcDbEntity
  8
YKK_A1
100
AcDbLine
 10
19937.77804068
 20
13817.05604823
 30
0.0
 11
19037.77804068
 21
13817.05604823
 31
0.0
  0
LINE
  5
262
330
45F
100
AcDbEntity
  8
YKK_A1
100
AcDbLine
 10
19937.77804068
 20
13797.05604823
 30
0.0
 11
19037.77804068
 21
13797.05604823
 31
0.0
  0
LINE
  5
263
330
45F
100
AcDbEntity
  8
YKK_A1
100
AcDbLine
 10
19937.77804068
 20
11830.35604823
 30
0.0
 11
19037.77804068
 21
11830.35604823
 31
0.0
  0
LINE
  5
264
330
45F
100
AcDbEntity
  8
YKK_A1
100
AcDbLine
 10
21018.62806968
 20
11746.00604823
 30
0.0
 11
17958.27804068
 21
11746.00604823
 31
0.0
  0
LINE
  5
265
330
45F
100
AcDbEntity
  8
YKK_A1
100
AcDbLine
 10
21003.92806968
 20
11810.35604823
 30
0.0
 11
17971.62804068
 21
11810.35604823
 31
0.0
  0
LINE
  5
266
330
45F
100
AcDbEntity
  8
YKK_A1
100
AcDbLine
 10
21018.62806968
 20
13853.00592823
 30
0.0
 11
17956.92804068
 21
13853.00592823
 31
0.0
  0
LINE
  5
267
330
45F
100
AcDbEntity
  8
YKK_A1
100
AcDbLine
 10
17971.62804068
 20
13824.05604823
 30
0.0
 11
21003.92806968
 21
13824.05604823
 31
0.0
  0
TEXT
  5
268
330
45F
100
AcDbEntity
  8
YKK_N1
100
AcDbText
 10
19322.77804418
 20
11435.70604823
 30
0.0
 40
60.0
  1
W=3000
 72
     1
 11
19487.77804418
 21
11435.70604823
 31
0.0
100
AcDbText
  0
LINE
  5
269
330
45F
100
AcDbEntity
  8
YKK_N1
100
AcDbLine
 10
17987.77804068
 20
11430.70604823
 30
0.0
 11
20987.77804768
 21
11430.70604823
 31
0.0
  0
TEXT
  5
26A
330
45F
100
AcDbEntity
  8
YKK_N1
100
AcDbText
 10
19322.77810868
 20
16986.95432573
 30
0.0
 40
60.0
  1
W=4000
 72
     1
 11
19487.77810868
 21
16986.95432573
 31
0.0
100
AcDbText
  0
LINE
  5
26B
330
45F
100
AcDbEntity
  8
YKK_N1
100
AcDbLine
 10
17487.77810518
 20
16981.95432573
 30
0.0
 11
21487.77811218
 21
16981.95432573
 31
0.0
  0
LINE
  5
26C
330
45F
100
AcDbEntity
  8
YKK_A1
100
AcDbLine
 10
17971.62804068
 20
13824.05604823
 30
0.0
 11
17971.62804068
 21
13853.00592823
 31
0.0
  0
LINE
  5
26D
330
45F
100
AcDbEntity
  8
YKK_A1
100
AcDbLine
 10
17956.92804068
 20
13853.00592823
 30
0.0
 11
17956.92804068
 21
11746.00604823
 31
0.0
  0
TEXT
  5
26E
330
45F
100
AcDbEntity
  8
0
100
AcDbText
 10
15062.77810518
 20
10889.35598823
 30
0.0
 40
150.0
  1
W=3000　H=2000　見込100
  7
EXTFONT
100
AcDbText
  0
TEXT
  5
26F
330
45F
100
AcDbEntity
  8
0
100
AcDbText
 10
15062.77810518
 20
11139.35598823
 30
0.0
 40
150.0
  1
大型引戸（両袖片引き：内動）
  7
EXTFONT
100
AcDbText
  0
TEXT
  5
270
330
45F
100
AcDbEntity
  8
0
100
AcDbText
 10
15062.77810518
 20
10639.35598823
 30
0.0
 40
150.0
  1
アルミ製
  7
EXTFONT
100
AcDbText
  0
LINE
  5
271
330
45F
100
AcDbEntity
  8
YKK_A1
100
AcDbLine
 10
17987.77804068
 20
11810.35604823
 30
0.0
 11
17987.77804068
 21
13824.05604823
 31
0.0
  0
LINE
  5
272
330
45F
100
AcDbEntity
  8
YKK_A1
100
AcDbLine
 10
18060.97804068
 20
13747.05604823
 30
0.0
 11
18060.97804068
 21
11883.35602823
 31
0.0
  0
LINE
  5
273
330
45F
100
AcDbEntity
  8
YKK_A1
100
AcDbLine
 10
18080.97804068
 20
13727.05604823
 30
0.0
 11
18080.97804068
 21
11903.35602823
 31
0.0
  0
LINE
  5
274
330
45F
100
AcDbEntity
  8
YKK_A1
100
AcDbLine
 10
18955.07804068
 20
11883.35602823
 30
0.0
 11
18955.07804068
 21
13747.05604823
 31
0.0
  0
LINE
  5
275
330
45F
100
AcDbEntity
  8
YKK_A1
100
AcDbLine
 10
18935.07804068
 20
13727.05604823
 30
0.0
 11
18935.07804068
 21
11903.35602823
 31
0.0
  0
LINE
  5
276
330
45F
100
AcDbEntity
  8
YKK_A1
100
AcDbLine
 10
19037.77804068
 20
13824.05604823
 30
0.0
 11
19037.77804068
 21
11810.35604823
 31
0.0
  0
LINE
  5
277
330
45F
100
AcDbEntity
  8
YKK_A1
100
AcDbLine
 10
18060.97804068
 20
11883.35602823
 30
0.0
 11
18955.07804068
 21
11883.35602823
 31
0.0
  0
LINE
  5
278
330
45F
100
AcDbEntity
  8
YKK_A1
100
AcDbLine
 10
18955.07804068
 20
11903.35602823
 30
0.0
 11
18060.97804068
 21
11903.35602823
 31
0.0
  0
LINE
  5
279
330
45F
100
AcDbEntity
  8
YKK_A1
100
AcDbLine
 10
17971.62804068
 20
11746.00604823
 30
0.0
 11
17971.62804068
 21
11810.35604823
 31
0.0
  0
LINE
  5
27A
330
45F
100
AcDbEntity
  8
YKK_N1
100
AcDbLine
 10
18074.38058106
 20
11480.70604823
 30
0.0
 11
17987.77804068
 21
11430.70604823
 31
0.0
  0
LINE
  5
27B
330
45F
100
AcDbEntity
  8
YKK_N1
100
AcDbLine
 10
17987.77804068
 20
11430.70604823
 30
0.0
 11
18074.38058106
 21
11380.70604823
 31
0.0
  0
LINE
  5
27C
330
45F
100
AcDbEntity
  8
YKK_N1
100
AcDbLine
 10
18074.38058106
 20
11480.70604823
 30
0.0
 11
18074.38058106
 21
11380.70604823
 31
0.0
  0
LINE
  5
27D
330
45F
100
AcDbEntity
  8
YKK_N1
100
AcDbLine
 10
17987.77804068
 20
11671.00604823
 30
0.0
 11
17987.77804068
 21
11430.70604823
 31
0.0
  0
LINE
  5
27E
330
45F
100
AcDbEntity
  8
YKK_A1
100
AcDbLine
 10
17987.77804068
 20
11810.35604823
 30
0.0
 11
18060.97804068
 21
11883.35602823
 31
0.0
  0
LINE
  5
27F
330
45F
100
AcDbEntity
  8
YKK_A1
100
AcDbLine
 10
18955.07804068
 20
11883.35602823
 30
0.0
 11
19024.77804068
 21
11810.35604823
 31
0.0
  0
LINE
  5
280
330
45F
100
AcDbEntity
  8
YKK_IN
100
AcDbLine
 10
19452.42270512
 20
11856.06138729
 30
0.0
 11
19523.13338324
 21
11785.35070918
 31
0.0
  0
LINE
  5
281
330
45F
100
AcDbEntity
  8
YKK_IN
100
AcDbLine
 10
19523.13338324
 20
11856.06138729
 30
0.0
 11
19452.42270512
 21
11785.35070918
 31
0.0
  0
CIRCLE
  5
282
330
45F
100
AcDbEntity
  8
YKK_IN
100
AcDbCircle
 10
19487.77804418
 20
11820.70604823
 30
0.0
 40
25.0
  0
LINE
  5
283
330
45F
100
AcDbEntity
  8
YKK_A1
100
AcDbLine
 10
18060.97804068
 20
13747.05604823
 30
0.0
 11
18955.07804068
 21
13747.05604823
 31
0.0
  0
LINE
  5
284
330
45F
100
AcDbEntity
  8
YKK_A1
100
AcDbLine
 10
18955.07804068
 20
13727.05604823
 30
0.0
 11
18060.97804068
 21
13727.05604823
 31
0.0
  0
LINE
  5
285
330
45F
100
AcDbEntity
  8
YKK_A1
100
AcDbLine
 10
18758.02804068
 20
12815.20603823
 30
0.0
 11
18258.02804068
 21
12815.20603823
 31
0.0
  0
LINE
  5
286
330
45F
100
AcDbEntity
  8
YKK_A1
100
AcDbLine
 10
18013.37804068
 20
13090.70102823
 30
0.0
 11
18013.37804068
 21
12830.70350823
 31
0.0
  0
LINE
  5
287
330
45F
100
AcDbEntity
  8
YKK_A1
100
AcDbLine
 10
18035.37804068
 20
13090.70102823
 30
0.0
 11
18035.37804068
 21
12830.70350823
 31
0.0
  0
LINE
  5
288
330
45F
100
AcDbEntity
  8
YKK_A1
100
AcDbLine
 10
18258.02804068
 20
12815.20603823
 30
0.0
 11
18258.02804068
 21
12374.25603823
 31
0.0
  0
LINE
  5
289
330
45F
100
AcDbEntity
  8
YKK_A1
100
AcDbLine
 10
18044.37804068
 20
12895.70594823
 30
0.0
 11
18035.37804068
 21
12895.70594823
 31
0.0
  0
LINE
  5
28A
330
45F
100
AcDbEntity
  8
YKK_A1
100
AcDbLine
 10
18013.37804068
 20
12895.70594823
 30
0.0
 11
18004.37804068
 21
12895.70594823
 31
0.0
  0
LINE
  5
28B
330
45F
100
AcDbEntity
  8
YKK_A1
100
AcDbLine
 10
18035.37804068
 20
12830.70350823
 30
0.0
 11
18013.37804068
 21
12830.70350823
 31
0.0
  0
LINE
  5
28C
330
45F
100
AcDbEntity
  8
YKK_A1
100
AcDbLine
 10
18044.37804068
 20
12745.70614823
 30
0.0
 11
18004.37804068
 21
12745.70614823
 31
0.0
  0
LINE
  5
28D
330
45F
100
AcDbEntity
  8
YKK_A1
100
AcDbLine
 10
18004.37804068
 20
12895.70594823
 30
0.0
 11
18004.37804068
 21
12745.70614823
 31
0.0
  0
LINE
  5
28E
330
45F
100
AcDbEntity
  8
YKK_A1
100
AcDbLine
 10
18044.37804068
 20
12895.70594823
 30
0.0
 11
18044.37804068
 21
12745.70614823
 31
0.0
  0
LINE
  5
28F
330
45F
100
AcDbEntity
  8
YKK_A1
100
AcDbLine
 10
18013.37804068
 20
13090.70102823
 30
0.0
 11
18035.37804068
 21
13090.70102823
 31
0.0
  0
LINE
  5
290
330
45F
100
AcDbEntity
  8
YKK_A1
100
AcDbLine
 10
18060.97804068
 20
13747.05604823
 30
0.0
 11
17987.77804068
 21
13820.05604823
 31
0.0
  0
LINE
  5
291
330
45F
100
AcDbEntity
  8
YKK_A1
100
AcDbLine
 10
18758.02804068
 20
12815.20603823
 30
0.0
 11
18658.02804068
 21
12775.20603823
 31
0.0
  0
LINE
  5
292
330
45F
100
AcDbEntity
  8
YKK_A1
100
AcDbLine
 10
18758.02804068
 20
12815.20603823
 30
0.0
 11
18658.02804068
 21
12855.20603823
 31
0.0
  0
LINE
  5
293
330
45F
100
AcDbEntity
  8
YKK_A1
100
AcDbLine
 10
18955.07804068
 20
13747.05604823
 30
0.0
 11
19028.77804068
 21
13824.05604823
 31
0.0
  0
TEXT
  5
294
330
45F
100
AcDbEntity
  8
0
100
AcDbText
 10
15062.77810518
 20
15944.35598823
 30
0.0
 40
150.0
  1
シルバー・カラー（ブロンズ、ステン、ブラック）
  7
EXTFONT
100
AcDbText
  0
TEXT
  5
295
330
45F
100
AcDbEntity
  8
0
100
AcDbText
 10
15062.77810518
 20
16444.35598823
 30
0.0
 40
150.0
  1
W=4000　H=2000　見込100
  7
EXTFONT
100
AcDbText
  0
TEXT
  5
296
330
45F
100
AcDbEntity
  8
0
100
AcDbText
 10
15062.77810518
 20
15444.35598823
 30
0.0
 40
150.0
  1
１８０゜回転ハンドル・ダブル戸車・気密材
  7
EXTFONT
100
AcDbText
  0
TEXT
  5
297
330
45F
100
AcDbEntity
  8
0
100
AcDbText
 10
15062.77810518
 20
14694.35598823
 30
0.0
 40
150.0
  1
ＹＫＫＡＰ　ＹＡＴ－１００（Ｋ－８０２）同等品
  7
EXTFONT
100
AcDbText
  0
TEXT
  5
298
330
45F
100
AcDbEntity
  8
YKK_F1
 62
     7
100
AcDbText
 10
15202.77810518
 20
14194.35598823
 30
0.0
 40
160.0
  1
ＡＷ
  7
EXTFONT
100
AcDbText
  0
LINE
  5
299
330
45F
100
AcDbEntity
  8
YKK_F1
  6
Continuous
 62
     7
100
AcDbLine
 10
15137.77810518
 20
14394.35598823
 30
0.0
 11
15587.77810518
 21
14394.35598823
 31
0.0
  0
CIRCLE
  5
29A
330
45F
100
AcDbEntity
  8
YKK_F1
 62
     7
100
AcDbCircle
 10
15362.77810518
 20
14394.35598823
 30
0.0
 40
233.3333333333333
  0
TEXT
  5
29B
330
45F
100
AcDbEntity
  8
0
100
AcDbText
 10
15062.77810518
 20
13919.35598823
 30
0.0
 40
200.0
  1
＊
  7
EXTFONT
100
AcDbText
  0
LINE
  5
29C
330
45F
100
AcDbEntity
  8
YKK_F1
  6
Continuous
 62
     7
100
AcDbLine
 10
15137.77810518
 20
14394.35598823
 30
0.0
 11
15129.44477185
 21
14386.0226549
 31
0.0
  0
TEXT
  5
29D
330
45F
100
AcDbEntity
  8
0
100
AcDbText
 10
15262.77810518
 20
14394.35598823
 30
0.0
 40
200.0
  1
＊
  7
EXTFONT
100
AcDbText
  0
LINE
  5
29E
330
45F
100
AcDbEntity
  8
YKK_F1
  6
Continuous
 62
     7
100
AcDbLine
 10
15587.77810518
 20
14394.35598823
 30
0.0
 11
15596.11143852
 21
14386.0226549
 31
0.0
  0
TEXT
  5
2A0
330
45F
100
AcDbEntity
  8
0
100
AcDbText
 10
15062.77810518
 20
14944.35598823
 30
0.0
 40
150.0
  1
※
  7
EXTFONT
100
AcDbText
  0
TEXT
  5
2A1
330
45F
100
AcDbEntity
  8
0
100
AcDbText
 10
15062.77810518
 20
15694.35598823
 30
0.0
 40
150.0
  1
ＦＬ・透明・シール納まり
  7
EXTFONT
100
AcDbText
  0
TEXT
  5
2A2
330
45F
100
AcDbEntity
  8
0
100
AcDbText
 10
15062.77810518
 20
16694.35598823
 30
0.0
 40
150.0
  1
大型引戸（引違い４枚建）
  7
EXTFONT
100
AcDbText
  0
TEXT
  5
2A3
330
45F
100
AcDbEntity
  8
0
100
AcDbText
 10
15062.77810518
 20
16194.35598823
 30
0.0
 40
150.0
  1
アルミ製
  7
EXTFONT
100
AcDbText
  0
LINE
  5
2A4
330
45F
100
AcDbEntity
  8
YKK_N1
100
AcDbLine
 10
17574.38064556
 20
17031.95432573
 30
0.0
 11
17487.77810518
 21
16981.95432573
 31
0.0
  0
LINE
  5
2A5
330
45F
100
AcDbEntity
  8
YKK_N1
100
AcDbLine
 10
17487.77810518
 20
16981.95432573
 30
0.0
 11
17574.38064556
 21
16931.95432573
 31
0.0
  0
LINE
  5
2A6
330
45F
100
AcDbEntity
  8
YKK_N1
100
AcDbLine
 10
17574.38064556
 20
17031.95432573
 30
0.0
 11
17574.38064556
 21
16931.95432573
 31
0.0
  0
LINE
  5
2A7
330
45F
100
AcDbEntity
  8
YKK_A1
100
AcDbLine
 10
21003.92806968
 20
13824.05604823
 30
0.0
 11
21003.92806968
 21
13853.00592823
 31
0.0
  0
LINE
  5
2A8
330
45F
100
AcDbEntity
  8
YKK_A1
100
AcDbLine
 10
21018.62806968
 20
13853.00592823
 30
0.0
 11
21018.62806968
 21
11746.00604823
 31
0.0
  0
LINE
  5
2A9
330
45F
100
AcDbEntity
  8
YKK_A1
100
AcDbLine
 10
20987.77806968
 20
11810.35604823
 30
0.0
 11
20987.77806968
 21
13824.05604823
 31
0.0
  0
LINE
  5
2AA
330
45F
100
AcDbEntity
  8
YKK_A1
100
AcDbLine
 10
20914.57806968
 20
13747.05604823
 30
0.0
 11
20914.57806968
 21
11883.35602823
 31
0.0
  0
LINE
  5
2AB
330
45F
100
AcDbEntity
  8
YKK_A1
100
AcDbLine
 10
20894.57806968
 20
13727.05604823
 30
0.0
 11
20894.57806968
 21
11903.35602823
 31
0.0
  0
LINE
  5
2AC
330
45F
100
AcDbEntity
  8
YKK_N1
100
AcDbLine
 10
21217.27816968
 20
13820.70600923
 30
0.0
 11
21217.27816968
 21
11820.70604823
 31
0.0
  0
LINE
  5
2AD
330
45F
100
AcDbEntity
  8
YKK_A1
100
AcDbLine
 10
19937.77804068
 20
13824.05604823
 30
0.0
 11
19937.77804068
 21
11810.35604823
 31
0.0
  0
LINE
  5
2AE
330
45F
100
AcDbEntity
  8
YKK_A1
100
AcDbLine
 10
20020.47804068
 20
11883.35602823
 30
0.0
 11
20020.47804068
 21
13747.05604823
 31
0.0
  0
LINE
  5
2AF
330
45F
100
AcDbEntity
  8
YKK_A1
100
AcDbLine
 10
20040.47804068
 20
13727.05604823
 30
0.0
 11
20040.47804068
 21
11903.35602823
 31
0.0
  0
LINE
  5
2B0
330
45F
100
AcDbEntity
  8
YKK_A1
100
AcDbLine
 10
20914.57806968
 20
11883.35602823
 30
0.0
 11
20020.47804068
 21
11883.35602823
 31
0.0
  0
LINE
  5
2B1
330
45F
100
AcDbEntity
  8
YKK_A1
100
AcDbLine
 10
20020.47804068
 20
11903.35602823
 30
0.0
 11
20914.57806968
 21
11903.35602823
 31
0.0
  0
LINE
  5
2B2
330
45F
100
AcDbEntity
  8
YKK_A1
100
AcDbLine
 10
20020.47804068
 20
11883.35602823
 30
0.0
 11
19950.77804068
 21
11810.35604823
 31
0.0
  0
TEXT
  5
2B3
330
45F
100
AcDbEntity
  8
YKK_A1
100
AcDbText
 10
19867.0701972
 20
11875.65272323
 30
0.0
 40
60.0
  1
F
 72
     1
 11
19887.0701972
 21
11875.65272323
 31
0.0
100
AcDbText
  0
LINE
  5
2B4
330
45F
100
AcDbEntity
  8
YKK_A1
100
AcDbLine
 10
21003.92806968
 20
11746.00604823
 30
0.0
 11
21003.92806968
 21
11810.35604823
 31
0.0
  0
LINE
  5
2B5
330
45F
100
AcDbEntity
  8
YKK_N1
100
AcDbLine
 10
20901.17550731
 20
11380.70604823
 30
0.0
 11
20901.17550731
 21
11480.70604823
 31
0.0
  0
LINE
  5
2B6
330
45F
100
AcDbEntity
  8
YKK_N1
100
AcDbLine
 10
20901.17550731
 20
11380.70604823
 30
0.0
 11
20987.77804768
 21
11430.70604823
 31
0.0
  0
LINE
  5
2B7
330
45F
100
AcDbEntity
  8
YKK_N1
100
AcDbLine
 10
20987.77804768
 20
11430.70604823
 30
0.0
 11
20901.17550731
 21
11480.70604823
 31
0.0
  0
LINE
  5
2B8
330
45F
100
AcDbEntity
  8
YKK_N1
100
AcDbLine
 10
20987.77804768
 20
11671.00604823
 30
0.0
 11
20987.77804768
 21
11430.70604823
 31
0.0
  0
LINE
  5
2B9
330
45F
100
AcDbEntity
  8
YKK_A1
100
AcDbLine
 10
20987.77806968
 20
11810.35604823
 30
0.0
 11
20914.57806968
 21
11883.35602823
 31
0.0
  0
LINE
  5
2BA
330
45F
100
AcDbEntity
  8
YKK_N1
100
AcDbLine
 10
21167.27816968
 20
11907.30858861
 30
0.0
 11
21217.27816968
 21
11820.70604823
 31
0.0
  0
LINE
  5
2BB
330
45F
100
AcDbEntity
  8
YKK_N1
100
AcDbLine
 10
21217.27816968
 20
11820.70604823
 30
0.0
 11
21267.27816968
 21
11907.30858861
 31
0.0
  0
LINE
  5
2BC
330
45F
100
AcDbEntity
  8
YKK_N1
100
AcDbLine
 10
21167.27816968
 20
11907.30858861
 30
0.0
 11
21267.27816968
 21
11907.30858861
 31
0.0
  0
LINE
  5
2BD
330
45F
100
AcDbEntity
  8
YKK_N1
100
AcDbLine
 10
21092.27819368
 20
11820.70604823
 30
0.0
 11
21217.27816968
 21
11820.70604823
 31
0.0
  0
LINE
  5
2BE
330
45F
100
AcDbEntity
  8
YKK_A1
100
AcDbLine
 10
20914.57806968
 20
13747.05604823
 30
0.0
 11
20020.47804068
 21
13747.05604823
 31
0.0
  0
LINE
  5
2BF
330
45F
100
AcDbEntity
  8
YKK_A1
100
AcDbLine
 10
20020.47804068
 20
13727.05604823
 30
0.0
 11
20914.57806968
 21
13727.05604823
 31
0.0
  0
LINE
  5
2C0
330
45F
100
AcDbEntity
  8
YKK_A1
100
AcDbLine
 10
20717.52805518
 20
12815.20603823
 30
0.0
 11
20717.52805518
 21
12374.25603823
 31
0.0
  0
LINE
  5
2C1
330
45F
100
AcDbEntity
  8
YKK_A1
100
AcDbLine
 10
20217.52805518
 20
12815.20603823
 30
0.0
 11
20717.52805518
 21
12815.20603823
 31
0.0
  0
LINE
  5
2C2
330
45F
100
AcDbEntity
  8
YKK_A1
100
AcDbLine
 10
20217.52805518
 20
12815.20603823
 30
0.0
 11
20317.52805518
 21
12775.20603823
 31
0.0
  0
LINE
  5
2C3
330
45F
100
AcDbEntity
  8
YKK_A1
100
AcDbLine
 10
20217.52805518
 20
12815.20603823
 30
0.0
 11
20317.52805518
 21
12855.20603823
 31
0.0
  0
LINE
  5
2C4
330
45F
100
AcDbEntity
  8
YKK_A1
100
AcDbLine
 10
20020.47804068
 20
13747.05604823
 30
0.0
 11
19946.77804068
 21
13824.05604823
 31
0.0
  0
LINE
  5
2C5
330
45F
100
AcDbEntity
  8
YKK_A1
100
AcDbLine
 10
20962.17806968
 20
13090.70102823
 30
0.0
 11
20962.17806968
 21
12830.70350823
 31
0.0
  0
LINE
  5
2C6
330
45F
100
AcDbEntity
  8
YKK_A1
100
AcDbLine
 10
20940.17806968
 20
13090.70102823
 30
0.0
 11
20940.17806968
 21
12830.70350823
 31
0.0
  0
LINE
  5
2C7
330
45F
100
AcDbEntity
  8
YKK_A1
100
AcDbLine
 10
20931.17806968
 20
12895.70594823
 30
0.0
 11
20940.17806968
 21
12895.70594823
 31
0.0
  0
LINE
  5
2C8
330
45F
100
AcDbEntity
  8
YKK_A1
100
AcDbLine
 10
20962.17806968
 20
12895.70594823
 30
0.0
 11
20971.17806968
 21
12895.70594823
 31
0.0
  0
LINE
  5
2C9
330
45F
100
AcDbEntity
  8
YKK_A1
100
AcDbLine
 10
20940.17806968
 20
12830.70350823
 30
0.0
 11
20962.17806968
 21
12830.70350823
 31
0.0
  0
LINE
  5
2CA
330
45F
100
AcDbEntity
  8
YKK_A1
100
AcDbLine
 10
20931.17806968
 20
12745.70614823
 30
0.0
 11
20971.17806968
 21
12745.70614823
 31
0.0
  0
LINE
  5
2CB
330
45F
100
AcDbEntity
  8
YKK_A1
100
AcDbLine
 10
20971.17806968
 20
12895.70594823
 30
0.0
 11
20971.17806968
 21
12745.70614823
 31
0.0
  0
LINE
  5
2CC
330
45F
100
AcDbEntity
  8
YKK_A1
100
AcDbLine
 10
20931.17806968
 20
12895.70594823
 30
0.0
 11
20931.17806968
 21
12745.70614823
 31
0.0
  0
TEXT
  5
2CD
330
45F
100
AcDbEntity
  8
YKK_N1
100
AcDbText
 10
21212.27816968
 20
12665.85607873
 30
0.0
 40
60.0
  1
H=2000
 50
90.0
 72
     1
 11
21212.27816968
 21
12820.85607873
 31
0.0
100
AcDbText
  0
LINE
  5
2CE
330
45F
100
AcDbEntity
  8
YKK_A1
100
AcDbLine
 10
20962.17806968
 20
13090.70102823
 30
0.0
 11
20940.17806968
 21
13090.70102823
 31
0.0
  0
LINE
  5
2CF
330
45F
100
AcDbEntity
  8
YKK_A1
100
AcDbLine
 10
20914.57806968
 20
13747.05604823
 30
0.0
 11
20987.77806968
 21
13820.05604823
 31
0.0
  0
LINE
  5
2D0
330
45F
100
AcDbEntity
  8
YKK_N1
100
AcDbLine
 10
21267.27816968
 20
13734.10346886
 30
0.0
 11
21167.27816968
 21
13734.10346886
 31
0.0
  0
LINE
  5
2D1
330
45F
100
AcDbEntity
  8
YKK_N1
100
AcDbLine
 10
21217.27816968
 20
13820.70600923
 30
0.0
 11
21167.27816968
 21
13734.10346886
 31
0.0
  0
LINE
  5
2D2
330
45F
100
AcDbEntity
  8
YKK_N1
100
AcDbLine
 10
21267.27816968
 20
13734.10346886
 30
0.0
 11
21217.27816968
 21
13820.70600923
 31
0.0
  0
LINE
  5
2D3
330
45F
100
AcDbEntity
  8
YKK_N1
100
AcDbLine
 10
21092.27806968
 20
13820.70600923
 30
0.0
 11
21217.27816968
 21
13820.70600923
 31
0.0
  0
TEXT
  5
2D4
330
45F
100
AcDbEntity
  8
0
100
AcDbText
 10
19712.77810518
 20
15281.85598823
 30
0.0
 40
100.0
  1
片面ハンドル　・片面ハンドルシリンダー付
  7
EXTFONT
100
AcDbText
  0
TEXT
  5
2D5
330
45F
100
AcDbEntity
  8
0
100
AcDbText
 10
19712.77810518
 20
15156.85598823
 30
0.0
 40
100.0
  1
片面ハンドルシリンダー無手架　・片面ハンドルシリンダー付手架
  7
EXTFONT
100
AcDbText
  0
TEXT
  5
2D6
330
45F
100
AcDbEntity
  8
0
100
AcDbText
 10
19712.77810518
 20
14906.85598823
 30
0.0
 40
100.0
  1
両面ハンドル　・両面ハンドル片面シリンダー付
  7
EXTFONT
100
AcDbText
  0
TEXT
  5
2D7
330
45F
100
AcDbEntity
  8
0
100
AcDbText
 10
19712.77810518
 20
14781.85598823
 30
0.0
 40
100.0
  1
両面ハンドル両面シリンダー付　・両面ハンドル片面サムターン付き
  7
EXTFONT
100
AcDbText
  0
TEXT
  5
2D8
330
45F
100
AcDbEntity
  8
0
100
AcDbText
 10
19712.77810518
 20
14656.85598823
 30
0.0
 40
100.0
  1
両面ハンドルシリンダーサムターン付　・取外しハンドルフラッシュカバー付
  7
EXTFONT
100
AcDbText
  0
LINE
  5
2D9
330
45F
100
AcDbEntity
  8
YKK_F1
  6
Continuous
 62
     7
100
AcDbLine
 10
19612.77810518
 20
14644.35598823
 30
0.0
 11
19612.77810518
 21
15644.35598823
 31
0.0
  0
TEXT
  5
2DA
330
45F
100
AcDbEntity
  8
0
100
AcDbText
 10
19712.77810518
 20
15444.35598823
 30
0.0
 40
150.0
  1
※ハンドルの種類
  7
EXTFONT
100
AcDbText
  0
TEXT
  5
2DB
330
45F
100
AcDbEntity
  8
0
100
AcDbText
 10
19712.77810518
 20
15031.85598823
 30
0.0
 40
100.0
  1
片面ハンドルサムターン付手架
  7
EXTFONT
100
AcDbText
  0
LINE
  5
2DC
330
45F
100
AcDbEntity
  8
YKK_N1
100
AcDbLine
 10
21401.17557181
 20
16931.95432573
 30
0.0
 11
21401.17557181
 21
17031.95432573
 31
0.0
  0
LINE
  5
2DD
330
45F
100
AcDbEntity
  8
YKK_N1
100
AcDbLine
 10
21487.77811218
 20
16981.95432573
 30
0.0
 11
21401.17557181
 21
17031.95432573
 31
0.0
  0
LINE
  5
2DE
330
45F
100
AcDbEntity
  8
YKK_N1
100
AcDbLine
 10
21401.17557181
 20
16931.95432573
 30
0.0
 11
21487.77811218
 21
16981.95432573
 31
0.0
  0
TEXT
  5
2DF
330
45F
100
AcDbEntity
  8
0
100
AcDbText
 10
23012.77810518
 20
13919.35598823
 30
0.0
 40
200.0
  1
＊
  7
EXTFONT
100
AcDbText
  0
TEXT
  5
2E0
330
45F
100
AcDbEntity
  8
0
100
AcDbText
 10
23312.77810518
 20
14169.35598823
 30
0.0
 40
200.0
  1
＊
  7
EXTFONT
100
AcDbText
  0
TEXT
  5
2E1
330
45F
100
AcDbEntity
  8
YKK_F1
 62
     7
100
AcDbText
 10
23732.77810518
 20
14169.35598823
 30
0.0
 40
200.0
  1
箇所
  7
EXTFONT
100
AcDbText
  0
LINE
  5
2E2
330
45F
100
AcDbEntity
  8
YKK_A1
100
AcDbLine
 10
19574.47806418
 20
19294.75765073
 30
0.0
 11
19496.77806418
 21
19371.75765073
 31
0.0
  0
LINE
  5
2E3
330
45F
100
AcDbEntity
  8
YKK_A1
100
AcDbLine
 10
19500.77806418
 20
17364.25432573
 30
0.0
 11
19574.47806418
 21
17437.25432573
 31
0.0
  0
LINE
  5
2E4
330
45F
100
AcDbEntity
  8
YKK_A1
100
AcDbLine
 10
21518.62810518
 20
17297.25432573
 30
0.0
 11
17456.92810518
 21
17297.25432573
 31
0.0
  0
LINE
  5
2E5
330
45F
100
AcDbEntity
  8
YKK_A1
100
AcDbLine
 10
21503.92810518
 20
17364.25432573
 30
0.0
 11
17471.62810518
 21
17364.25432573
 31
0.0
  0
LINE
  5
2E6
330
45F
100
AcDbEntity
  8
YKK_A1
100
AcDbLine
 10
21518.62810518
 20
19411.75765073
 30
0.0
 11
17456.92810518
 21
19411.75765073
 31
0.0
  0
LINE
  5
2E7
330
45F
100
AcDbEntity
  8
YKK_A1
100
AcDbLine
 10
17471.62810518
 20
19371.75765073
 30
0.0
 11
21503.92810518
 21
19371.75765073
 31
0.0
  0
TEXT
  5
2E8
330
45F
100
AcDbEntity
  8
0
100
AcDbText
 10
15062.77810518
 20
19474.35598823
 30
0.0
 40
200.0
  1
＊
  7
EXTFONT
100
AcDbText
  0
CIRCLE
  5
2E9
330
45F
100
AcDbEntity
  8
YKK_F1
 62
     7
100
AcDbCircle
 10
15362.77810518
 20
19949.35598823
 30
0.0
 40
233.3333333333333
  0
LINE
  5
2EA
330
45F
100
AcDbEntity
  8
YKK_F1
  6
Continuous
 62
     7
100
AcDbLine
 10
15137.77810518
 20
19949.35598823
 30
0.0
 11
15587.77810518
 21
19949.35598823
 31
0.0
  0
TEXT
  5
2EB
330
45F
100
AcDbEntity
  8
YKK_F1
 62
     7
100
AcDbText
 10
15202.77810518
 20
19749.35598823
 30
0.0
 40
160.0
  1
ＡＷ
  7
EXTFONT
100
AcDbText
  0
TEXT
  5
2EC
330
45F
100
AcDbEntity
  8
0
100
AcDbText
 10
15262.77810518
 20
19949.35598823
 30
0.0
 40
200.0
  1
＊
  7
EXTFONT
100
AcDbText
  0
LINE
  5
2ED
330
45F
100
AcDbEntity
  8
YKK_F1
  6
Continuous
 62
     7
100
AcDbLine
 10
15587.77810518
 20
19949.35598823
 30
0.0
 11
15596.11143852
 21
19941.0226549
 31
0.0
  0
LINE
  5
2EE
330
45F
100
AcDbEntity
  8
YKK_A1
100
AcDbLine
 10
19494.77806418
 20
17364.25432573
 30
0.0
 11
19494.77806418
 21
19371.75765073
 31
0.0
  0
LINE
  5
2EF
330
45F
100
AcDbEntity
  8
YKK_A1
100
AcDbLine
 10
19480.77806418
 20
17364.25432573
 30
0.0
 11
19480.77806418
 21
19371.75765073
 31
0.0
  0
LINE
  5
2F0
330
45F
100
AcDbEntity
  8
YKK_A1
100
AcDbLine
 10
19401.07806418
 20
19294.75765073
 30
0.0
 11
19401.07806418
 21
17437.25432573
 31
0.0
  0
LINE
  5
2F1
330
45F
100
AcDbEntity
  8
YKK_A1
100
AcDbLine
 10
18520.47808418
 20
17437.25432573
 30
0.0
 11
18520.47808418
 21
19294.75765073
 31
0.0
  0
LINE
  5
2F2
330
45F
100
AcDbEntity
  8
YKK_A1
100
AcDbLine
 10
18540.47806418
 20
19274.75765073
 30
0.0
 11
18540.47806418
 21
17457.25432573
 31
0.0
  0
LINE
  5
2F3
330
45F
100
AcDbEntity
  8
YKK_A1
100
AcDbLine
 10
18437.77806418
 20
19371.75765073
 30
0.0
 11
18437.77806418
 21
17364.25432573
 31
0.0
  0
LINE
  5
2F4
330
45F
100
AcDbEntity
  8
YKK_A1
100
AcDbLine
 10
19381.07806418
 20
19274.75765073
 30
0.0
 11
19381.07806418
 21
17457.25432573
 31
0.0
  0
LINE
  5
2F5
330
45F
100
AcDbEntity
  8
YKK_A1
100
AcDbLine
 10
17456.92810518
 20
19411.75765073
 30
0.0
 11
17456.92810518
 21
17297.25432573
 31
0.0
  0
LINE
  5
2F6
330
45F
100
AcDbEntity
  8
YKK_A1
100
AcDbLine
 10
17487.77810518
 20
19371.75765073
 30
0.0
 11
17487.77810518
 21
17364.25432573
 31
0.0
  0
LINE
  5
2F7
330
45F
100
AcDbEntity
  8
YKK_A1
100
AcDbLine
 10
17560.97810518
 20
17437.25432573
 30
0.0
 11
17560.97810518
 21
19298.75765073
 31
0.0
  0
LINE
  5
2F8
330
45F
100
AcDbEntity
  8
YKK_A1
100
AcDbLine
 10
17580.97810518
 20
19278.75765073
 30
0.0
 11
17580.97810518
 21
17457.25432573
 31
0.0
  0
LINE
  5
2F9
330
45F
100
AcDbEntity
  8
YKK_A1
100
AcDbLine
 10
18437.77806418
 20
17437.25432573
 30
0.0
 11
17560.97810518
 21
17437.25432573
 31
0.0
  0
LINE
  5
2FA
330
45F
100
AcDbEntity
  8
YKK_A1
100
AcDbLine
 10
17560.97810518
 20
17457.25432573
 30
0.0
 11
18437.77806418
 21
17457.25432573
 31
0.0
  0
LINE
  5
2FB
330
45F
100
AcDbEntity
  8
YKK_A1
100
AcDbLine
 10
17560.97810518
 20
17437.25432573
 30
0.0
 11
17487.77810518
 21
17364.25432573
 31
0.0
  0
LINE
  5
2FC
330
45F
100
AcDbEntity
  8
YKK_A1
100
AcDbLine
 10
17471.62810518
 20
17297.25432573
 30
0.0
 11
17471.62810518
 21
17364.25432573
 31
0.0
  0
LINE
  5
2FD
330
45F
100
AcDbEntity
  8
YKK_A1
100
AcDbLine
 10
18259.37808468
 20
18568.00598823
 30
0.0
 11
17759.37808468
 21
18568.00598823
 31
0.0
  0
LINE
  5
2FE
330
45F
100
AcDbEntity
  8
YKK_A1
100
AcDbLine
 10
17759.37808468
 20
18568.00598823
 30
0.0
 11
17759.37808468
 21
18127.05598823
 31
0.0
  0
LINE
  5
2FF
330
45F
100
AcDbEntity
  8
YKK_A1
100
AcDbLine
 10
17504.37811518
 20
18446.95423573
 30
0.0
 11
17504.37811518
 21
18296.95441573
 31
0.0
  0
LINE
  5
300
330
45F
100
AcDbEntity
  8
YKK_A1
100
AcDbLine
 10
17544.37809518
 20
18446.95423573
 30
0.0
 11
17544.37809518
 21
18296.95441573
 31
0.0
  0
LINE
  5
301
330
45F
100
AcDbEntity
  8
YKK_A1
100
AcDbLine
 10
17504.37811518
 20
18296.95441573
 30
0.0
 11
17544.37809518
 21
18296.95441573
 31
0.0
  0
LINE
  5
302
330
45F
100
AcDbEntity
  8
YKK_A1
100
AcDbLine
 10
17535.37809518
 20
18641.94929573
 30
0.0
 11
17513.37811518
 21
18641.94929573
 31
0.0
  0
LINE
  5
303
330
45F
100
AcDbEntity
  8
YKK_A1
100
AcDbLine
 10
17513.37811518
 20
18381.95177573
 30
0.0
 11
17535.37809518
 21
18381.95177573
 31
0.0
  0
LINE
  5
304
330
45F
100
AcDbEntity
  8
YKK_A1
100
AcDbLine
 10
17504.37811518
 20
18446.95423573
 30
0.0
 11
17513.37811518
 21
18446.95423573
 31
0.0
  0
LINE
  5
305
330
45F
100
AcDbEntity
  8
YKK_A1
100
AcDbLine
 10
17513.37811518
 20
18641.94929573
 30
0.0
 11
17513.37811518
 21
18381.95177573
 31
0.0
  0
LINE
  5
306
330
45F
100
AcDbEntity
  8
YKK_A1
100
AcDbLine
 10
17535.37809518
 20
18446.95423573
 30
0.0
 11
17544.37809518
 21
18446.95423573
 31
0.0
  0
LINE
  5
307
330
45F
100
AcDbEntity
  8
YKK_A1
100
AcDbLine
 10
17535.37809518
 20
18641.94929573
 30
0.0
 11
17535.37809518
 21
18381.95177573
 31
0.0
  0
LINE
  5
308
330
45F
100
AcDbEntity
  8
YKK_A1
100
AcDbLine
 10
18259.37808468
 20
18568.00598823
 30
0.0
 11
18159.37808468
 21
18608.00598823
 31
0.0
  0
LINE
  5
309
330
45F
100
AcDbEntity
  8
YKK_A1
100
AcDbLine
 10
18259.37808468
 20
18568.00598823
 30
0.0
 11
18159.37808468
 21
18528.00598823
 31
0.0
  0
LINE
  5
30A
330
45F
100
AcDbEntity
  8
YKK_A1
100
AcDbLine
 10
19210.77806418
 20
18166.00598823
 30
0.0
 11
19210.77806418
 21
17725.05598823
 31
0.0
  0
LINE
  5
30B
330
45F
100
AcDbEntity
  8
YKK_A1
100
AcDbLine
 10
19401.07806418
 20
17437.25432573
 30
0.0
 11
18520.47808418
 21
17437.25432573
 31
0.0
  0
LINE
  5
30C
330
45F
100
AcDbEntity
  8
YKK_A1
100
AcDbLine
 10
18520.47808418
 20
17457.25432573
 30
0.0
 11
19401.07806418
 21
17457.25432573
 31
0.0
  0
LINE
  5
30D
330
45F
100
AcDbEntity
  8
YKK_A1
100
AcDbLine
 10
18520.47808418
 20
17437.25432573
 30
0.0
 11
18450.77806418
 21
17364.25432573
 31
0.0
  0
CIRCLE
  5
30E
330
45F
100
AcDbEntity
  8
YKK_IN
100
AcDbCircle
 10
19487.77810868
 20
17371.95432573
 30
0.0
 40
25.0
  0
LINE
  5
30F
330
45F
100
AcDbEntity
  8
YKK_IN
100
AcDbLine
 10
19523.13344774
 20
17407.30966479
 30
0.0
 11
19452.42276962
 21
17336.59898668
 31
0.0
  0
LINE
  5
310
330
45F
100
AcDbEntity
  8
YKK_IN
100
AcDbLine
 10
19452.42276962
 20
17407.30966479
 30
0.0
 11
19523.13344774
 21
17336.59898668
 31
0.0
  0
LINE
  5
311
330
45F
100
AcDbEntity
  8
YKK_A1
100
AcDbLine
 10
19474.77806418
 20
17364.25432573
 30
0.0
 11
19401.07806418
 21
17437.25432573
 31
0.0
  0
LINE
  5
312
330
45F
100
AcDbEntity
  8
YKK_A1
100
AcDbLine
 10
18710.77806418
 20
18166.00598823
 30
0.0
 11
19210.77806418
 21
18166.00598823
 31
0.0
  0
LINE
  5
313
330
45F
100
AcDbEntity
  8
YKK_A1
100
AcDbLine
 10
18710.77806418
 20
18166.00598823
 30
0.0
 11
18810.77806418
 21
18206.00598823
 31
0.0
  0
LINE
  5
314
330
45F
100
AcDbEntity
  8
YKK_A1
100
AcDbLine
 10
18710.77806418
 20
18166.00598823
 30
0.0
 11
18810.77806418
 21
18126.00598823
 31
0.0
  0
LINE
  5
315
330
45F
100
AcDbEntity
  8
YKK_A1
100
AcDbLine
 10
19420.92806418
 20
18446.95423573
 30
0.0
 11
19420.92806418
 21
18296.95441573
 31
0.0
  0
LINE
  5
316
330
45F
100
AcDbEntity
  8
YKK_A1
100
AcDbLine
 10
19460.92806418
 20
18446.95423573
 30
0.0
 11
19460.92806418
 21
18296.95441573
 31
0.0
  0
LINE
  5
317
330
45F
100
AcDbEntity
  8
YKK_A1
100
AcDbLine
 10
19554.62805418
 20
18446.95423573
 30
0.0
 11
19554.62805418
 21
18296.95441573
 31
0.0
  0
LINE
  5
318
330
45F
100
AcDbEntity
  8
YKK_A1
100
AcDbLine
 10
19514.62807418
 20
18446.95423573
 30
0.0
 11
19514.62807418
 21
18296.95441573
 31
0.0
  0
LINE
  5
319
330
45F
100
AcDbEntity
  8
YKK_A1
100
AcDbLine
 10
19420.92806418
 20
18296.95441573
 30
0.0
 11
19460.92806418
 21
18296.95441573
 31
0.0
  0
LINE
  5
31A
330
45F
100
AcDbEntity
  8
YKK_A1
100
AcDbLine
 10
19554.62805418
 20
18296.95441573
 30
0.0
 11
19514.62807418
 21
18296.95441573
 31
0.0
  0
LINE
  5
31B
330
45F
100
AcDbEntity
  8
YKK_A1
100
AcDbLine
 10
19451.92806418
 20
18641.94929573
 30
0.0
 11
19429.92806418
 21
18641.94929573
 31
0.0
  0
LINE
  5
31C
330
45F
100
AcDbEntity
  8
YKK_A1
100
AcDbLine
 10
19451.92806418
 20
18446.95423573
 30
0.0
 11
19460.92806418
 21
18446.95423573
 31
0.0
  0
LINE
  5
31D
330
45F
100
AcDbEntity
  8
YKK_A1
100
AcDbLine
 10
19420.92806418
 20
18446.95423573
 30
0.0
 11
19429.92806418
 21
18446.95423573
 31
0.0
  0
LINE
  5
31E
330
45F
100
AcDbEntity
  8
YKK_A1
100
AcDbLine
 10
19523.62807418
 20
18641.94929573
 30
0.0
 11
19545.62805418
 21
18641.94929573
 31
0.0
  0
LINE
  5
31F
330
45F
100
AcDbEntity
  8
YKK_A1
100
AcDbLine
 10
19554.62805418
 20
18446.95423573
 30
0.0
 11
19545.62805418
 21
18446.95423573
 31
0.0
  0
LINE
  5
320
330
45F
100
AcDbEntity
  8
YKK_A1
100
AcDbLine
 10
19523.62807418
 20
18446.95423573
 30
0.0
 11
19514.62807418
 21
18446.95423573
 31
0.0
  0
LINE
  5
321
330
45F
100
AcDbEntity
  8
YKK_A1
100
AcDbLine
 10
19429.92806418
 20
18381.95177573
 30
0.0
 11
19451.92806418
 21
18381.95177573
 31
0.0
  0
LINE
  5
322
330
45F
100
AcDbEntity
  8
YKK_A1
100
AcDbLine
 10
19545.62805418
 20
18381.95177573
 30
0.0
 11
19523.62807418
 21
18381.95177573
 31
0.0
  0
LINE
  5
323
330
45F
100
AcDbEntity
  8
YKK_A1
100
AcDbLine
 10
19429.92806418
 20
18641.94929573
 30
0.0
 11
19429.92806418
 21
18381.95177573
 31
0.0
  0
LINE
  5
324
330
45F
100
AcDbEntity
  8
YKK_A1
100
AcDbLine
 10
19451.92806418
 20
18641.94929573
 30
0.0
 11
19451.92806418
 21
18381.95177573
 31
0.0
  0
LINE
  5
325
330
45F
100
AcDbEntity
  8
YKK_A1
100
AcDbLine
 10
19545.62805418
 20
18641.94929573
 30
0.0
 11
19545.62805418
 21
18381.95177573
 31
0.0
  0
LINE
  5
326
330
45F
100
AcDbEntity
  8
YKK_A1
100
AcDbLine
 10
19523.62807418
 20
18641.94929573
 30
0.0
 11
19523.62807418
 21
18381.95177573
 31
0.0
  0
LINE
  5
327
330
45F
100
AcDbEntity
  8
YKK_A1
100
AcDbLine
 10
17560.97810518
 20
19298.75765073
 30
0.0
 11
18437.77806418
 21
19298.75765073
 31
0.0
  0
LINE
  5
328
330
45F
100
AcDbEntity
  8
YKK_A1
100
AcDbLine
 10
17560.97810518
 20
19278.75765073
 30
0.0
 11
18437.77806418
 21
19278.75765073
 31
0.0
  0
LINE
  5
329
330
45F
100
AcDbEntity
  8
YKK_A1
100
AcDbLine
 10
17560.97810518
 20
19298.75765073
 30
0.0
 11
17487.77810518
 21
19371.75765073
 31
0.0
  0
LINE
  5
32A
330
45F
100
AcDbEntity
  8
YKK_A1
100
AcDbLine
 10
17471.62810518
 20
19371.75765073
 30
0.0
 11
17471.62810518
 21
19411.75765073
 31
0.0
  0
LINE
  5
32B
330
45F
100
AcDbEntity
  8
YKK_A1
100
AcDbLine
 10
19401.07806418
 20
19294.75765073
 30
0.0
 11
18520.47808418
 21
19294.75765073
 31
0.0
  0
LINE
  5
32C
330
45F
100
AcDbEntity
  8
YKK_A1
100
AcDbLine
 10
18520.47808418
 20
19274.75765073
 30
0.0
 11
19401.07806418
 21
19274.75765073
 31
0.0
  0
LINE
  5
32D
330
45F
100
AcDbEntity
  8
YKK_A1
100
AcDbLine
 10
18520.47808418
 20
19294.75765073
 30
0.0
 11
18446.77806418
 21
19371.75765073
 31
0.0
  0
LINE
  5
32E
330
45F
100
AcDbEntity
  8
YKK_A1
100
AcDbLine
 10
19401.07806418
 20
19294.75765073
 30
0.0
 11
19478.77806418
 21
19371.75765073
 31
0.0
  0
LINE
  5
32F
330
45F
100
AcDbEntity
  8
YKK_A1
100
AcDbLine
 10
21518.62810518
 20
19411.75765073
 30
0.0
 11
21518.62810518
 21
17297.25432573
 31
0.0
  0
LINE
  5
330
330
45F
100
AcDbEntity
  8
YKK_N1
100
AcDbLine
 10
21717.27810518
 20
19371.95428673
 30
0.0
 11
21717.27810518
 21
17371.95432573
 31
0.0
  0
LINE
  5
331
330
45F
100
AcDbEntity
  8
YKK_A1
100
AcDbLine
 10
20455.07806418
 20
17437.25432573
 30
0.0
 11
20455.07806418
 21
19294.75765073
 31
0.0
  0
LINE
  5
332
330
45F
100
AcDbEntity
  8
YKK_A1
100
AcDbLine
 10
20435.07806418
 20
19274.75765073
 30
0.0
 11
20435.07806418
 21
17457.25432573
 31
0.0
  0
LINE
  5
333
330
45F
100
AcDbEntity
  8
YKK_A1
100
AcDbLine
 10
20537.77806418
 20
19371.75765073
 30
0.0
 11
20537.77806418
 21
17364.25432573
 31
0.0
  0
LINE
  5
334
330
45F
100
AcDbEntity
  8
YKK_A1
100
AcDbLine
 10
21487.77810518
 20
19371.75765073
 30
0.0
 11
21487.77810518
 21
17364.25432573
 31
0.0
  0
LINE
  5
335
330
45F
100
AcDbEntity
  8
YKK_A1
100
AcDbLine
 10
21414.57810518
 20
19294.75765073
 30
0.0
 11
21414.57810518
 21
17437.25432573
 31
0.0
  0
LINE
  5
336
330
45F
100
AcDbEntity
  8
YKK_A1
100
AcDbLine
 10
21394.57810518
 20
19274.75765073
 30
0.0
 11
21394.57810518
 21
17457.25432573
 31
0.0
  0
LINE
  5
337
330
45F
100
AcDbEntity
  8
YKK_A1
100
AcDbLine
 10
19574.47806418
 20
19294.75765073
 30
0.0
 11
19574.47806418
 21
17437.25432573
 31
0.0
  0
LINE
  5
338
330
45F
100
AcDbEntity
  8
YKK_A1
100
AcDbLine
 10
19594.47806418
 20
19274.75765073
 30
0.0
 11
19594.47806418
 21
17457.25432573
 31
0.0
  0
LINE
  5
339
330
45F
100
AcDbEntity
  8
YKK_A1
100
AcDbLine
 10
20716.17808468
 20
18568.00598823
 30
0.0
 11
20816.17808468
 21
18608.00598823
 31
0.0
  0
LINE
  5
33A
330
45F
100
AcDbEntity
  8
YKK_A1
100
AcDbLine
 10
20716.17808468
 20
18568.00598823
 30
0.0
 11
20816.17808468
 21
18528.00598823
 31
0.0
  0
LINE
  5
33B
330
45F
100
AcDbEntity
  8
YKK_A1
100
AcDbLine
 10
20716.17808468
 20
18568.00598823
 30
0.0
 11
21216.17808468
 21
18568.00598823
 31
0.0
  0
LINE
  5
33C
330
45F
100
AcDbEntity
  8
YKK_A1
100
AcDbLine
 10
20537.77806418
 20
17457.25432573
 30
0.0
 11
21414.57810518
 21
17457.25432573
 31
0.0
  0
LINE
  5
33D
330
45F
100
AcDbEntity
  8
YKK_A1
100
AcDbLine
 10
20537.77806418
 20
17437.25432573
 30
0.0
 11
21414.57810518
 21
17437.25432573
 31
0.0
  0
LINE
  5
33E
330
45F
100
AcDbEntity
  8
YKK_A1
100
AcDbLine
 10
19764.77806418
 20
18166.00598823
 30
0.0
 11
19764.77806418
 21
17725.05598823
 31
0.0
  0
LINE
  5
33F
330
45F
100
AcDbEntity
  8
YKK_A1
100
AcDbLine
 10
19574.47806418
 20
17437.25432573
 30
0.0
 11
20455.07806418
 21
17437.25432573
 31
0.0
  0
LINE
  5
340
330
45F
100
AcDbEntity
  8
YKK_A1
100
AcDbLine
 10
20455.07806418
 20
17457.25432573
 30
0.0
 11
19574.47806418
 21
17457.25432573
 31
0.0
  0
LINE
  5
341
330
45F
100
AcDbEntity
  8
YKK_A1
100
AcDbLine
 10
20455.07806418
 20
17437.25432573
 30
0.0
 11
20524.77806418
 21
17364.25432573
 31
0.0
  0
LINE
  5
342
330
45F
100
AcDbEntity
  8
YKK_A1
100
AcDbLine
 10
20264.77806418
 20
18166.00598823
 30
0.0
 11
19764.77806418
 21
18166.00598823
 31
0.0
  0
LINE
  5
343
330
45F
100
AcDbEntity
  8
YKK_A1
100
AcDbLine
 10
20264.77806418
 20
18166.00598823
 30
0.0
 11
20164.77806418
 21
18206.00598823
 31
0.0
  0
LINE
  5
344
330
45F
100
AcDbEntity
  8
YKK_A1
100
AcDbLine
 10
20264.77806418
 20
18166.00598823
 30
0.0
 11
20164.77806418
 21
18126.00598823
 31
0.0
  0
LINE
  5
345
330
45F
100
AcDbEntity
  8
YKK_N1
100
AcDbLine
 10
21592.27822918
 20
17371.95432573
 30
0.0
 11
21717.27810518
 21
17371.95432573
 31
0.0
  0
LINE
  5
346
330
45F
100
AcDbEntity
  8
YKK_A1
100
AcDbLine
 10
21503.92810518
 20
17297.25432573
 30
0.0
 11
21503.92810518
 21
17364.25432573
 31
0.0
  0
LINE
  5
347
330
45F
100
AcDbEntity
  8
YKK_A1
100
AcDbLine
 10
21414.57810518
 20
17437.25432573
 30
0.0
 11
21487.77810518
 21
17364.25432573
 31
0.0
  0
LINE
  5
348
330
45F
100
AcDbEntity
  8
YKK_N1
100
AcDbLine
 10
21667.27810518
 20
17458.55686611
 30
0.0
 11
21717.27810518
 21
17371.95432573
 31
0.0
  0
LINE
  5
349
330
45F
100
AcDbEntity
  8
YKK_N1
100
AcDbLine
 10
21667.27810518
 20
17458.55686611
 30
0.0
 11
21767.27810518
 21
17458.55686611
 31
0.0
  0
LINE
  5
34A
330
45F
100
AcDbEntity
  8
YKK_N1
100
AcDbLine
 10
21717.27810518
 20
17371.95432573
 30
0.0
 11
21767.27810518
 21
17458.55686611
 31
0.0
  0
LINE
  5
34B
330
45F
100
AcDbEntity
  8
YKK_A1
100
AcDbLine
 10
21216.17808468
 20
18568.00598823
 30
0.0
 11
21216.17808468
 21
18127.05598823
 31
0.0
  0
LINE
  5
34C
330
45F
100
AcDbEntity
  8
YKK_A1
100
AcDbLine
 10
21471.17810518
 20
18446.95423573
 30
0.0
 11
21471.17810518
 21
18296.95441573
 31
0.0
  0
TEXT
  5
34D
330
45F
100
AcDbEntity
  8
YKK_N1
100
AcDbText
 10
21712.27810518
 20
18217.10435623
 30
0.0
 40
60.0
  1
H=2000
 50
90.0
 72
     1
 11
21712.27810518
 21
18372.10435623
 31
0.0
100
AcDbText
  0
LINE
  5
34E
330
45F
100
AcDbEntity
  8
YKK_A1
100
AcDbLine
 10
21431.17810518
 20
18446.95423573
 30
0.0
 11
21431.17810518
 21
18296.95441573
 31
0.0
  0
LINE
  5
34F
330
45F
100
AcDbEntity
  8
YKK_A1
100
AcDbLine
 10
21471.17810518
 20
18296.95441573
 30
0.0
 11
21431.17810518
 21
18296.95441573
 31
0.0
  0
LINE
  5
350
330
45F
100
AcDbEntity
  8
YKK_A1
100
AcDbLine
 10
21471.17810518
 20
18446.95423573
 30
0.0
 11
21462.17810518
 21
18446.95423573
 31
0.0
  0
LINE
  5
351
330
45F
100
AcDbEntity
  8
YKK_A1
100
AcDbLine
 10
21462.17810518
 20
18641.94929573
 30
0.0
 11
21462.17810518
 21
18381.95177573
 31
0.0
  0
LINE
  5
352
330
45F
100
AcDbEntity
  8
YKK_A1
100
AcDbLine
 10
21440.17810518
 20
18446.95423573
 30
0.0
 11
21431.17810518
 21
18446.95423573
 31
0.0
  0
LINE
  5
353
330
45F
100
AcDbEntity
  8
YKK_A1
100
AcDbLine
 10
21440.17810518
 20
18641.94929573
 30
0.0
 11
21440.17810518
 21
18381.95177573
 31
0.0
  0
LINE
  5
354
330
45F
100
AcDbEntity
  8
YKK_A1
100
AcDbLine
 10
21440.17810518
 20
18641.94929573
 30
0.0
 11
21462.17810518
 21
18641.94929573
 31
0.0
  0
LINE
  5
355
330
45F
100
AcDbEntity
  8
YKK_A1
100
AcDbLine
 10
21462.17810518
 20
18381.95177573
 30
0.0
 11
21440.17810518
 21
18381.95177573
 31
0.0
  0
LINE
  5
356
330
45F
100
AcDbEntity
  8
YKK_A1
100
AcDbLine
 10
20537.77806418
 20
19294.75765073
 30
0.0
 11
21414.57810518
 21
19294.75765073
 31
0.0
  0
LINE
  5
357
330
45F
100
AcDbEntity
  8
YKK_A1
100
AcDbLine
 10
20537.77806418
 20
19274.75765073
 30
0.0
 11
21414.57810518
 21
19274.75765073
 31
0.0
  0
LINE
  5
358
330
45F
100
AcDbEntity
  8
YKK_A1
100
AcDbLine
 10
19574.47806418
 20
19294.75765073
 30
0.0
 11
20455.07806418
 21
19294.75765073
 31
0.0
  0
LINE
  5
359
330
45F
100
AcDbEntity
  8
YKK_A1
100
AcDbLine
 10
20455.07806418
 20
19274.75765073
 30
0.0
 11
19574.47806418
 21
19274.75765073
 31
0.0
  0
LINE
  5
35A
330
45F
100
AcDbEntity
  8
YKK_A1
100
AcDbLine
 10
20455.07806418
 20
19294.75765073
 30
0.0
 11
20528.77806418
 21
19371.75765073
 31
0.0
  0
LINE
  5
35B
330
45F
100
AcDbEntity
  8
YKK_N1
100
AcDbLine
 10
21592.27810518
 20
19371.95428673
 30
0.0
 11
21717.27810518
 21
19371.95428673
 31
0.0
  0
LINE
  5
35C
330
45F
100
AcDbEntity
  8
YKK_A1
100
AcDbLine
 10
21503.92810518
 20
19371.75765073
 30
0.0
 11
21503.92810518
 21
19411.75765073
 31
0.0
  0
LINE
  5
35D
330
45F
100
AcDbEntity
  8
YKK_A1
100
AcDbLine
 10
21414.57810518
 20
19294.75765073
 30
0.0
 11
21487.77810518
 21
19367.75765073
 31
0.0
  0
LINE
  5
35E
330
45F
100
AcDbEntity
  8
YKK_N1
100
AcDbLine
 10
21717.27810518
 20
19371.95428673
 30
0.0
 11
21667.27810518
 21
19285.35174636
 31
0.0
  0
LINE
  5
35F
330
45F
100
AcDbEntity
  8
YKK_N1
100
AcDbLine
 10
21767.27810518
 20
19285.35174636
 30
0.0
 11
21667.27810518
 21
19285.35174636
 31
0.0
  0
LINE
  5
360
330
45F
100
AcDbEntity
  8
YKK_N1
100
AcDbLine
 10
21767.27810518
 20
19285.35174636
 30
0.0
 11
21717.27810518
 21
19371.95428673
 31
0.0
  0
TEXT
  5
361
330
45F
100
AcDbEntity
  8
0
100
AcDbText
 10
23012.77810518
 20
19474.35598823
 30
0.0
 40
200.0
  1
＊
  7
EXTFONT
100
AcDbText
  0
TEXT
  5
362
330
45F
100
AcDbEntity
  8
0
100
AcDbText
 10
23312.77810518
 20
19724.35598823
 30
0.0
 40
200.0
  1
＊
  7
EXTFONT
100
AcDbText
  0
TEXT
  5
363
330
45F
100
AcDbEntity
  8
YKK_F1
 62
     7
100
AcDbText
 10
23732.77810518
 20
19724.35598823
 30
0.0
 40
200.0
  1
箇所
  7
EXTFONT
100
AcDbText
  0
TEXT
  5
3C1
330
45F
100
AcDbEntity
  8
0
100
AcDbText
 10
15062.77810518
 20
15194.35598823
 30
0.0
 40
150.0
  1
可動網戸・水切・アングル・膳板
  7
EXTFONT
100
AcDbText
  0
TEXT
  5
3C2
330
45F
100
AcDbEntity
  8
0
100
AcDbText
 10
15062.77810518
 20
9639.35598823
 30
0.0
 40
150.0
  1
可動網戸・水切・アングル・膳板
  7
EXTFONT
100
AcDbText
  0
TEXT
  5
3C3
330
45F
100
AcDbEntity
  8
0
100
AcDbText
 10
5762.77810518
 20
9639.35598823
 30
0.0
 40
150.0
  1
可動網戸・水切・アングル・膳板
  7
EXTFONT
100
AcDbText
  0
TEXT
  5
3C4
330
45F
100
AcDbEntity
  8
0
100
AcDbText
 10
5762.77810518
 20
4084.35598823
 30
0.0
 40
150.0
  1
可動網戸・水切・アングル・膳板
  7
EXTFONT
100
AcDbText
  0
ENDSEC
  0
SECTION
  2
OBJECTS
  0
DICTIONARY
  5
454
330
0
100
AcDbDictionary
281
     1
  3
ACAD_CIP_PREVIOUS_PRODUCT_INFO
350
51A
  3
ACAD_COLOR
350
4B0
  3
ACAD_DETAILVIEWSTYLE
350
4C9
  3
ACAD_GROUP
350
455
  3
ACAD_LAYOUT
350
4CE
  3
ACAD_MATERIAL
350
47E
  3
ACAD_MLEADERSTYLE
350
4C5
  3
ACAD_MLINESTYLE
350
462
  3
ACAD_PLOTSETTINGS
350
4CD
  3
ACAD_PLOTSTYLENAME
350
47C
  3
ACAD_SCALELIST
350
4B3
  3
ACAD_SECTIONVIEWSTYLE
350
4C7
  3
ACAD_TABLESTYLE
350
4B1
  3
ACAD_VISUALSTYLE
350
497
  3
ACDB_RECOMPOSE_DATA
350
520
  3
ACDBVARIABLEDICTIONARY
350
470
  0
XRECORD
  5
51A
102
{ACAD_REACTORS
330
454
102
}
330
454
100
AcDbXrecord
280
     1
300
ACD
300
2014
300
86063ACD_2014_0F
  0
DICTIONARY
  5
4B0
102
{ACAD_REACTORS
330
454
102
}
330
454
100
AcDbDictionary
281
     1
  0
DICTIONARY
  5
4C9
102
{ACAD_REACTORS
330
454
102
}
330
454
100
AcDbDictionary
281
     1
  3
Imperial24
350
4CA
  0
DICTIONARY
  5
455
102
{ACAD_REACTORS
330
454
102
}
330
454
100
AcDbDictionary
281
     1
  0
DICTIONARY
  5
4CE
102
{ACAD_REACTORS
330
454
102
}
330
454
100
AcDbDictionary
281
     1
  3
Model
350
4CF
  3
レイアウト1
350
4D0
  0
DICTIONARY
  5
47E
102
{ACAD_REACTORS
330
454
102
}
330
454
100
AcDbDictionary
281
     1
  3
ByBlock
350
487
  3
ByLayer
350
47F
  3
Global
350
48F
  0
DICTIONARY
  5
4C5
102
{ACAD_REACTORS
330
454
102
}
330
454
100
AcDbDictionary
281
     1
  3
Standard
350
4C6
  0
DICTIONARY
  5
462
102
{ACAD_REACTORS
330
454
102
}
330
454
100
AcDbDictionary
281
     1
  3
STANDARD
350
463
  0
DICTIONARY
  5
4CD
102
{ACAD_REACTORS
330
454
102
}
330
454
100
AcDbDictionary
281
     1
  0
ACDBDICTIONARYWDFLT
  5
47C
102
{ACAD_REACTORS
330
454
102
}
330
454
100
AcDbDictionary
281
     1
  3
Normal
350
47D
100
AcDbDictionaryWithDefault
340
47D
  0
DICTIONARY
  5
4B3
102
{ACAD_REACTORS
330
454
102
}
330
454
100
AcDbDictionary
281
     1
  3
A0
350
4B4
  3
A1
350
4B5
  3
A2
350
4B6
  3
A3
350
4B7
  3
A4
350
4B8
  3
A5
350
4B9
  3
A6
350
4BA
  3
A7
350
4BB
  3
A8
350
4BC
  3
A9
350
4BD
  3
B0
350
4BE
  3
B1
350
4BF
  3
B2
350
4C0
  3
B3
350
4C1
  3
B4
350
4C2
  3
B5
350
4C3
  3
B6
350
4C4
  0
DICTIONARY
  5
4C7
102
{ACAD_REACTORS
330
454
102
}
330
454
100
AcDbDictionary
281
     1
  3
Imperial24
350
4C8
  0
DICTIONARY
  5
4B1
102
{ACAD_REACTORS
330
454
102
}
330
454
100
AcDbDictionary
281
     1
  3
Standard
350
4B2
  0
DICTIONARY
  5
497
102
{ACAD_REACTORS
330
454
102
}
330
454
100
AcDbDictionary
281
     1
  3
2dWireframe
350
49D
  3
Basic
350
49C
  3
Brighten
350
4A3
  3
ColorChange
350
4A7
  3
Conceptual
350
4A0
  3
Dim
350
4A2
  3
EdgeColorOff
350
4AF
  3
Facepattern
350
4A6
  3
Flat
350
498
  3
FlatWithEdges
350
499
  3
Gouraud
350
49A
  3
GouraudWithEdges
350
49B
  3
Hidden
350
49F
  3
JitterOff
350
4AD
  3
Linepattern
350
4A5
  3
OverhangOff
350
4AE
  3
Realistic
350
4A1
  3
Shaded
350
4AC
  3
Shaded with edges
350
4AB
  3
Shades of Gray
350
4A8
  3
Sketchy
350
4A9
  3
Thicken
350
4A4
  3
Wireframe
350
49E
  3
X-Ray
350
4AA
  0
XRECORD
  5
520
102
{ACAD_REACTORS
330
454
102
}
330
454
100
AcDbXrecord
280
     1
 90
        1
330
4B2
  0
DICTIONARY
  5
470
102
{ACAD_REACTORS
330
454
102
}
330
454
100
AcDbDictionary
281
     1
  3
CANNOSCALE
350
513
  3
CMLEADERSTYLE
350
510
  3
CTABLESTYLE
350
50F
  3
CVIEWDETAILSTYLE
350
511
  3
CVIEWSECTIONSTYLE
350
512
  3
DIMADEC
350
471
  3
XCLIPFRAME
350
51E
  0
ACDBDETAILVIEWSTYLE
  5
4CA
102
{ACAD_XDICTIONARY
360
559
102
}
102
{ACAD_REACTORS
330
4C9
102
}
330
4C9
100
AcDbModelDocViewStyle
 70
     0
  3
Imperial24
290
     0
100
AcDbDetailViewStyle
 70
     0
 71
     0
 90
        3
 71
     1
340
457
 62
   256
 40
0.24
340
0
 62
   256
 40
0.24
300

 40
0.36
280
     3
 71
     2
340
45B
 90
       25
 62
   256
 71
     3
340
457
 62
   256
 40
0.24
 90
        1
 40
0.75
 90
        1
300
%<\AcVar ViewType \f "%tc1">% %<\AcVar ViewDetailId>%\PSCALE %<\AcVar ViewScale \f "%sn">%
 71
     4
340
45B
 90
       25
 62
   256
340
45B
 90
       25
 62
   256
280
     0
  0
LAYOUT
  5
4CF
102
{ACAD_REACTORS
330
4CE
102
}
330
4CE
100
AcDbPlotSettings
  1

  2
C:\ACAD-I\support\plotters\Default Windows System Printer.pc3
  4
A4
  6

 40
3.17499995
 41
3.17499995
 42
3.17500305
 43
3.17498779
 44
209.88865662
 45
297.05300903
 46
0.0
 47
0.0
 48
0.0
 49
0.0
140
0.0
141
0.0
142
1.0
143
3483.46843282
 70
 11952
 72
     0
 73
     1
 74
     0
  7
monochrome.ctb
 75
     0
147
0.00028707
 76
     0
 77
     2
 78
   300
148
97063.08964188
149
3048.25180314
100
AcDbLayout
  1
Model
 70
     1
 71
     0
 10
0.0
 20
0.0
 11
12.0
 21
9.0
 12
0.0
 22
0.0
 32
0.0
 14
0.0
 24
0.0
 34
0.0
 15
0.0
 25
0.0
 35
0.0
146
0.0
 13
0.0
 23
0.0
 33
0.0
 16
1.0
 26
0.0
 36
0.0
 17
0.0
 27
1.0
 37
0.0
 76
     0
330
45F
1001
ACAD_PSEXT
1000
C:\ACAD-I\support\plotters\Default Windows System Printer.pc3
1000
Fiery PRO80 65-55C-KM PS3.0jp
1000
IP_10.230.204.212
1000

1070
     0
  0
LAYOUT
  5
4D0
102
{ACAD_REACTORS
330
4CE
102
}
330
4CE
100
AcDbPlotSettings
  1

  2
C:\ACAD-I\support\plotters\Default Windows System Printer.pc3
  4
A4
  6

 40
3.17499995
 41
3.17499995
 42
3.17500305
 43
3.17498779
 44
209.88865662
 45
297.05300903
 46
0.0
 47
0.0
 48
0.0
 49
0.0
140
0.0
141
0.0
142
1.0
143
1.0
 70
 15024
 72
     0
 73
     1
 74
     5
  7
monochrome.ctb
 75
    16
147
1.0
 76
     0
 77
     2
 78
   300
148
0.0
149
0.0
100
AcDbLayout
  1
レイアウト1
 70
     0
 71
     1
 10
0.0
 20
0.0
 11
12.0
 21
9.0
 12
0.0
 22
0.0
 32
0.0
 14
1.00000000E+20
 24
1.00000000E+20
 34
1.00000000E+20
 15
-1.00000000E+20
 25
-1.00000000E+20
 35
-1.00000000E+20
146
0.0
 13
0.0
 23
0.0
 33
0.0
 16
1.0
 26
0.0
 36
0.0
 17
0.0
 27
1.0
 37
0.0
 76
     0
330
45C
1001
ACAD_PSEXT
1000
C:\ACAD-I\support\plotters\Default Windows System Printer.pc3
1000
Fiery PRO80 65-55C-KM PS3.0jp
1000
IP_10.230.204.212
1000

1070
     0
  0
MATERIAL
  5
487
102
{ACAD_XDICTIONARY
360
488
102
}
102
{ACAD_REACTORS
330
47E
102
}
330
47E
100
AcDbMaterial
  1
ByBlock
 72
     0
 43
0.02083333
 43
0.0
 43
0.0
 43
0.0
 43
0.0
 43
0.02083333
 43
0.0
 43
0.0
 43
0.0
 43
0.0
 43
1.0
 43
0.0
 43
0.0
 43
0.0
 43
0.0
 43
1.0
 77
     0
 47
0.02083333
 47
0.0
 47
0.0
 47
0.0
 47
0.0
 47
0.02083333
 47
0.0
 47
0.0
 47
0.0
 47
0.0
 47
1.0
 47
0.0
 47
0.0
 47
0.0
 47
0.0
 47
1.0
171
     0
 49
0.02083333
 49
0.0
 49
0.0
 49
0.0
 49
0.0
 49
0.02083333
 49
0.0
 49
0.0
 49
0.0
 49
0.0
 49
1.0
 49
0.0
 49
0.0
 49
0.0
 49
0.0
 49
1.0
175
     0
142
0.02083333
142
0.0
142
0.0
142
0.0
142
0.0
142
0.02083333
142
0.0
142
0.0
142
0.0
142
0.0
142
1.0
142
0.0
142
0.0
142
0.0
142
0.0
142
1.0
179
     0
144
0.02083333
144
0.0
144
0.0
144
0.0
144
0.0
144
0.02083333
144
0.0
144
0.0
144
0.0
144
0.0
144
1.0
144
0.0
144
0.0
144
0.0
144
0.0
144
1.0
147
0.02083333
147
0.0
147
0.0
147
0.0
147
0.0
147
0.02083333
147
0.0
147
0.0
147
0.0
147
0.0
147
1.0
147
0.0
147
0.0
147
0.0
147
0.0
147
1.0
  0
MATERIAL
  5
47F
102
{ACAD_XDICTIONARY
360
480
102
}
102
{ACAD_REACTORS
330
47E
102
}
330
47E
100
AcDbMaterial
  1
ByLayer
 72
     0
 43
0.02083333
 43
0.0
 43
0.0
 43
0.0
 43
0.0
 43
0.02083333
 43
0.0
 43
0.0
 43
0.0
 43
0.0
 43
1.0
 43
0.0
 43
0.0
 43
0.0
 43
0.0
 43
1.0
 77
     0
 47
0.02083333
 47
0.0
 47
0.0
 47
0.0
 47
0.0
 47
0.02083333
 47
0.0
 47
0.0
 47
0.0
 47
0.0
 47
1.0
 47
0.0
 47
0.0
 47
0.0
 47
0.0
 47
1.0
171
     0
 49
0.02083333
 49
0.0
 49
0.0
 49
0.0
 49
0.0
 49
0.02083333
 49
0.0
 49
0.0
 49
0.0
 49
0.0
 49
1.0
 49
0.0
 49
0.0
 49
0.0
 49
0.0
 49
1.0
175
     0
142
0.02083333
142
0.0
142
0.0
142
0.0
142
0.0
142
0.02083333
142
0.0
142
0.0
142
0.0
142
0.0
142
1.0
142
0.0
142
0.0
142
0.0
142
0.0
142
1.0
179
     0
144
0.02083333
144
0.0
144
0.0
144
0.0
144
0.0
144
0.02083333
144
0.0
144
0.0
144
0.0
144
0.0
144
1.0
144
0.0
144
0.0
144
0.0
144
0.0
144
1.0
147
0.02083333
147
0.0
147
0.0
147
0.0
147
0.0
147
0.02083333
147
0.0
147
0.0
147
0.0
147
0.0
147
1.0
147
0.0
147
0.0
147
0.0
147
0.0
147
1.0
  0
MATERIAL
  5
48F
102
{ACAD_XDICTIONARY
360
490
102
}
102
{ACAD_REACTORS
330
47E
102
}
330
47E
100
AcDbMaterial
  1
Global
 72
     0
 43
0.02083333
 43
0.0
 43
0.0
 43
0.0
 43
0.0
 43
0.02083333
 43
0.0
 43
0.0
 43
0.0
 43
0.0
 43
1.0
 43
0.0
 43
0.0
 43
0.0
 43
0.0
 43
1.0
 77
     0
 47
0.02083333
 47
0.0
 47
0.0
 47
0.0
 47
0.0
 47
0.02083333
 47
0.0
 47
0.0
 47
0.0
 47
0.0
 47
1.0
 47
0.0
 47
0.0
 47
0.0
 47
0.0
 47
1.0
171
     0
 49
0.02083333
 49
0.0
 49
0.0
 49
0.0
 49
0.0
 49
0.02083333
 49
0.0
 49
0.0
 49
0.0
 49
0.0
 49
1.0
 49
0.0
 49
0.0
 49
0.0
 49
0.0
 49
1.0
175
     0
142
0.02083333
142
0.0
142
0.0
142
0.0
142
0.0
142
0.02083333
142
0.0
142
0.0
142
0.0
142
0.0
142
1.0
142
0.0
142
0.0
142
0.0
142
0.0
142
1.0
179
     0
144
0.02083333
144
0.0
144
0.0
144
0.0
144
0.0
144
0.02083333
144
0.0
144
0.0
144
0.0
144
0.0
144
1.0
144
0.0
144
0.0
144
0.0
144
0.0
144
1.0
147
0.02083333
147
0.0
147
0.0
147
0.0
147
0.0
147
0.02083333
147
0.0
147
0.0
147
0.0
147
0.0
147
1.0
147
0.0
147
0.0
147
0.0
147
0.0
147
1.0
  0
MLEADERSTYLE
  5
4C6
102
{ACAD_XDICTIONARY
360
555
102
}
102
{ACAD_REACTORS
330
4C5
102
}
330
4C5
100
AcDbMLeaderStyle
170
     2
171
     1
172
     0
 90
        2
 40
0.0
 41
0.0
173
     1
 91
-1056964608
340
459
 92
       -2
290
     1
 42
0.09
291
     1
 43
0.36
  3
Standard
 44
0.18
300

342
457
174
     1
178
     6
175
     1
176
     0
 93
-1056964608
 45
0.18
292
     0
297
     0
 46
0.18
 94
-1056964608
 47
1.0
 49
1.0
140
1.0
293
     1
141
0.0
294
     1
177
     0
142
1.0
295
     0
296
     0
143
0.125
1001
ACAD_MLEADERVER
1070
     2
  0
MLINESTYLE
  5
463
102
{ACAD_REACTORS
330
462
102
}
330
462
100
AcDbMlineStyle
  2
STANDARD
 70
     0
  3

 62
   256
 51
90.0
 52
90.0
 71
     2
 49
0.5
 62
   256
  6
BYLAYER
 49
-0.5
 62
   256
  6
BYLAYER
  0
ACDBPLACEHOLDER
  5
47D
102
{ACAD_REACTORS
330
47C
102
}
330
47C
  0
SCALE
  5
4B4
102
{ACAD_REACTORS
330
4B3
102
}
330
4B3
100
AcDbScale
 70
     0
300
1:1
140
1.0
141
1.0
290
     1
  0
SCALE
  5
4B5
102
{ACAD_REACTORS
330
4B3
102
}
330
4B3
100
AcDbScale
 70
     0
300
1/128" = 1'-0"
140
0.0078125
141
12.0
290
     0
  0
SCALE
  5
4B6
102
{ACAD_REACTORS
330
4B3
102
}
330
4B3
100
AcDbScale
 70
     0
300
1/64" = 1'-0"
140
0.015625
141
12.0
290
     0
  0
SCALE
  5
4B7
102
{ACAD_REACTORS
330
4B3
102
}
330
4B3
100
AcDbScale
 70
     0
300
1/32" = 1'-0"
140
0.03125
141
12.0
290
     0
  0
SCALE
  5
4B8
102
{ACAD_REACTORS
330
4B3
102
}
330
4B3
100
AcDbScale
 70
     0
300
1/16" = 1'-0"
140
0.0625
141
12.0
290
     0
  0
SCALE
  5
4B9
102
{ACAD_REACTORS
330
4B3
102
}
330
4B3
100
AcDbScale
 70
     0
300
3/32" = 1'-0"
140
0.09375
141
12.0
290
     0
  0
SCALE
  5
4BA
102
{ACAD_REACTORS
330
4B3
102
}
330
4B3
100
AcDbScale
 70
     0
300
1/8" = 1'-0"
140
0.125
141
12.0
290
     0
  0
SCALE
  5
4BB
102
{ACAD_REACTORS
330
4B3
102
}
330
4B3
100
AcDbScale
 70
     0
300
3/16" = 1'-0"
140
0.1875
141
12.0
290
     0
  0
SCALE
  5
4BC
102
{ACAD_REACTORS
330
4B3
102
}
330
4B3
100
AcDbScale
 70
     0
300
1/4" = 1'-0"
140
0.25
141
12.0
290
     0
  0
SCALE
  5
4BD
102
{ACAD_REACTORS
330
4B3
102
}
330
4B3
100
AcDbScale
 70
     0
300
3/8" = 1'-0"
140
0.375
141
12.0
290
     0
  0
SCALE
  5
4BE
102
{ACAD_REACTORS
330
4B3
102
}
330
4B3
100
AcDbScale
 70
     0
300
1/2" = 1'-0"
140
0.5
141
12.0
290
     0
  0
SCALE
  5
4BF
102
{ACAD_REACTORS
330
4B3
102
}
330
4B3
100
AcDbScale
 70
     0
300
3/4" = 1'-0"
140
0.75
141
12.0
290
     0
  0
SCALE
  5
4C0
102
{ACAD_REACTORS
330
4B3
102
}
330
4B3
100
AcDbScale
 70
     0
300
1" = 1'-0"
140
1.0
141
12.0
290
     0
  0
SCALE
  5
4C1
102
{ACAD_REACTORS
330
4B3
102
}
330
4B3
100
AcDbScale
 70
     0
300
1-1/2" = 1'-0"
140
1.5
141
12.0
290
     0
  0
SCALE
  5
4C2
102
{ACAD_REACTORS
330
4B3
102
}
330
4B3
100
AcDbScale
 70
     0
300
3" = 1'-0"
140
3.0
141
12.0
290
     0
  0
SCALE
  5
4C3
102
{ACAD_REACTORS
330
4B3
102
}
330
4B3
100
AcDbScale
 70
     0
300
6" = 1'-0"
140
6.0
141
12.0
290
     0
  0
SCALE
  5
4C4
102
{ACAD_REACTORS
330
4B3
102
}
330
4B3
100
AcDbScale
 70
     0
300
1'-0" = 1'-0"
140
12.0
141
12.0
290
     0
  0
ACDBSECTIONVIEWSTYLE
  5
4C8
102
{ACAD_XDICTIONARY
360
557
102
}
102
{ACAD_REACTORS
330
4C7
102
}
330
4C7
100
AcDbModelDocViewStyle
 70
     0
  3
Imperial24
290
     0
100
AcDbSectionViewStyle
 70
     0
 71
     0
 90
      102
 71
     1
340
457
 62
   256
 40
5.0
340
0
340
0
 62
   256
 40
5.0
300
I, O, Q, S, X, Z
 40
10.0
 90
        0
 40
2.5
 90
        0
 71
     2
340
45B
 90
       25
 62
   256
340
45B
 90
       50
 62
   256
 40
5.0
 40
2.5
 40
5.0
 71
     3
340
457
 62
   256
 40
5.0
 90
        0
 40
15.0
 90
        1
300
%<\AcVar ViewSectionStartId>%-%<\AcVar ViewSectionEndId>% (%<\AcVar ViewScale \f "%sn">%)
 71
     4
 62
   256
 62
   257
300
ANSI31
 40
1.0
 90
        0
290
     0
290
     0
 90
        6
 40
0.0
 40
1.57079633
 40
0.26179939
 40
1.30899694
 40
-0.26179939
 40
1.83259571
  0
TABLESTYLE
  5
4B2
102
{ACAD_XDICTIONARY
360
4D1
102
}
102
{ACAD_REACTORS
330
4B1
102
}
330
4B1
100
AcDbTableStyle
  3
Standard
 70
     0
 71
     0
 40
0.06
 41
0.06
280
     0
281
     0
  7
STANDARD
140
0.18
170
     2
 62
     0
 63
     7
283
     0
274
    -2
284
     1
 64
     0
275
    -2
285
     1
 65
     0
276
    -2
286
     1
 66
     0
277
    -2
287
     1
 67
     0
278
    -2
288
     1
 68
     0
279
    -2
289
     1
 69
     0
  7
STANDARD
140
0.25
170
     5
 62
     0
 63
     7
283
     0
274
    -2
284
     1
 64
     0
275
    -2
285
     1
 65
     0
276
    -2
286
     1
 66
     0
277
    -2
287
     1
 67
     0
278
    -2
288
     1
 68
     0
279
    -2
289
     1
 69
     0
  7
STANDARD
140
0.18
170
     5
 62
     0
 63
     7
283
     0
274
    -2
284
     1
 64
     0
275
    -2
285
     1
 65
     0
276
    -2
286
     1
 66
     0
277
    -2
287
     1
 67
     0
278
    -2
288
     1
 68
     0
279
    -2
289
     1
 69
     0
  0
VISUALSTYLE
  5
49D
102
{ACAD_XDICTIONARY
360
52E
102
}
102
{ACAD_REACTORS
330
497
102
}
330
497
100
AcDbVisualStyle
  2
2dWireframe
 70
     4
 71
     0
 72
     2
 73
     0
 90
        0
 40
-0.6
 41
-30.0
 62
     5
 63
     7
421
 16777215
 74
     1
 91
        4
 64
     7
 65
   257
 75
     1
175
     1
 42
1.0
 92
        0
 66
   257
 43
1.0
 76
     1
 77
     6
 78
     2
 67
     7
 79
     5
170
     0
171
     0
290
     0
174
     0
 93
        1
 44
0.0
173
     0
291
     0
 45
0.0
1001
ACAD
1000
AcDbSavedByObjectVersion
1070
     0
  0
VISUALSTYLE
  5
49C
102
{ACAD_XDICTIONARY
360
52C
102
}
102
{ACAD_REACTORS
330
497
102
}
330
497
100
AcDbVisualStyle
  2
Basic
 70
     7
 71
     1
 72
     0
 73
     1
 90
        0
 40
-0.6
 41
-30.0
 62
     5
 63
     7
421
 16777215
 74
     0
 91
        4
 64
     7
 65
   257
 75
     1
175
     1
 42
1.0
 92
        8
 66
     7
 43
1.0
 76
     1
 77
     6
 78
     2
 67
     7
 79
     5
170
     0
171
     0
290
     0
174
     0
 93
        1
 44
0.0
173
     0
291
     1
 45
0.0
1001
ACAD
1000
AcDbSavedByObjectVersion
1070
     0
  0
VISUALSTYLE
  5
4A3
102
{ACAD_XDICTIONARY
360
53A
102
}
102
{ACAD_REACTORS
330
497
102
}
330
497
100
AcDbVisualStyle
  2
Brighten
 70
    12
 71
     2
 72
     2
 73
     0
 90
        0
 40
-0.6
 41
-30.0
 62
     5
 63
     7
421
 16777215
 74
     1
 91
        4
 64
     7
 65
   257
 75
     1
175
     1
 42
1.0
 92
        8
 66
     7
 43
1.0
 76
     1
 77
     6
 78
     2
 67
     7
 79
     5
170
     0
171
     0
290
     0
174
     0
 93
        1
 44
50.0
173
     0
291
     1
 45
0.0
1001
ACAD
1000
AcDbSavedByObjectVersion
1070
     0
  0
VISUALSTYLE
  5
4A7
102
{ACAD_XDICTIONARY
360
542
102
}
102
{ACAD_REACTORS
330
497
102
}
330
497
100
AcDbVisualStyle
  2
ColorChange
 70
    16
 71
     2
 72
     2
 73
     3
 90
        0
 40
-0.6
 41
-30.0
 62
     5
 63
     8
421
  8421504
 74
     1
 91
        4
 64
     7
 65
   257
 75
     1
175
     1
 42
1.0
 92
        8
 66
     8
424
  8421504
 43
1.0
 76
     1
 77
     6
 78
     2
 67
     7
 79
     5
170
     0
171
     0
290
     0
174
     0
 93
        1
 44
0.0
173
     0
291
     1
 45
0.0
1001
ACAD
1000
AcDbSavedByObjectVersion
1070
     0
  0
VISUALSTYLE
  5
4A0
102
{ACAD_XDICTIONARY
360
534
102
}
102
{ACAD_REACTORS
330
497
102
}
330
497
100
AcDbVisualStyle
  2
Conceptual
 70
     9
 71
     3
 72
     2
 73
     0
 90
        0
 40
-0.6
 41
-30.0
 62
     5
 63
     7
421
 16777215
 74
     2
 91
        2
 64
     7
 65
   257
 75
     1
175
     1
 42
179.0
 92
        8
 66
     7
 43
1.0
 76
     1
 77
     6
 78
     2
 67
     7
 79
     3
170
     0
171
     0
290
     0
174
     0
 93
        1
 44
0.0
173
     0
291
     0
 45
0.0
1001
ACAD
1000
AcDbSavedByObjectVersion
1070
     0
  0
VISUALSTYLE
  5
4A2
102
{ACAD_XDICTIONARY
360
538
102
}
102
{ACAD_REACTORS
330
497
102
}
330
497
100
AcDbVisualStyle
  2
Dim
 70
    11
 71
     2
 72
     2
 73
     0
 90
        0
 40
-0.6
 41
-30.0
 62
     5
 63
     7
421
 16777215
 74
     1
 91
        4
 64
     7
 65
   257
 75
     1
175
     1
 42
1.0
 92
        8
 66
     7
 43
1.0
 76
     1
 77
     6
 78
     2
 67
     7
 79
     5
170
     0
171
     0
290
     0
174
     0
 93
        1
 44
-50.0
173
     0
291
     1
 45
0.0
1001
ACAD
1000
AcDbSavedByObjectVersion
1070
     0
  0
VISUALSTYLE
  5
4AF
102
{ACAD_XDICTIONARY
360
552
102
}
102
{ACAD_REACTORS
330
497
102
}
330
497
100
AcDbVisualStyle
  2
EdgeColorOff
 70
    22
 71
     2
 72
     2
 73
     0
 90
        0
 40
-0.6
 41
-30.0
 62
     5
 63
     7
421
 16777215
 74
     1
 91
        4
 64
     7
 65
   257
 75
     1
175
     1
 42
1.0
 92
        8
 66
     7
 43
1.0
 76
     1
 77
     6
 78
     2
 67
     7
 79
     5
170
     0
171
     0
290
     0
174
     0
 93
        1
 44
0.0
173
     0
291
     1
 45
0.0
1001
ACAD
1000
AcDbSavedByObjectVersion
1070
     0
  0
VISUALSTYLE
  5
4A6
102
{ACAD_XDICTIONARY
360
540
102
}
102
{ACAD_REACTORS
330
497
102
}
330
497
100
AcDbVisualStyle
  2
Facepattern
 70
    15
 71
     2
 72
     2
 73
     0
 90
        0
 40
-0.6
 41
-30.0
 62
     5
 63
     7
421
 16777215
 74
     1
 91
        4
 64
     7
 65
   257
 75
     1
175
     1
 42
1.0
 92
        8
 66
     7
 43
1.0
 76
     1
 77
     6
 78
     2
 67
     7
 79
     5
170
     0
171
     0
290
     0
174
     0
 93
        1
 44
0.0
173
     0
291
     1
 45
0.0
1001
ACAD
1000
AcDbSavedByObjectVersion
1070
     0
  0
VISUALSTYLE
  5
498
102
{ACAD_XDICTIONARY
360
524
102
}
102
{ACAD_REACTORS
330
497
102
}
330
497
100
AcDbVisualStyle
  2
Flat
 70
     0
 71
     2
 72
     1
 73
     1
 90
        2
 40
-0.6
 41
30.0
 62
     5
 63
     7
421
 16777215
 74
     0
 91
        0
 64
     7
 65
   257
 75
     1
175
     1
 42
1.0
 92
        8
 66
     7
 43
1.0
 76
     1
 77
     6
 78
     2
 67
     7
 79
     5
170
     0
171
     0
290
     0
174
     0
 93
       13
 44
0.0
173
     0
291
     1
 45
0.0
1001
ACAD
1000
AcDbSavedByObjectVersion
1070
     0
  0
VISUALSTYLE
  5
499
102
{ACAD_XDICTIONARY
360
526
102
}
102
{ACAD_REACTORS
330
497
102
}
330
497
100
AcDbVisualStyle
  2
FlatWithEdges
 70
     1
 71
     2
 72
     1
 73
     1
 90
        2
 40
-0.6
 41
30.0
 62
     5
 63
     7
421
 16777215
 74
     1
 91
        0
 64
     7
 65
   257
 75
     1
175
     1
 42
1.0
 92
        0
 66
   257
 43
1.0
 76
     1
 77
     6
 78
     2
 67
     7
 79
     5
170
     0
171
     0
290
     0
174
     0
 93
       13
 44
0.0
173
     0
291
     1
 45
0.0
1001
ACAD
1000
AcDbSavedByObjectVersion
1070
     0
  0
VISUALSTYLE
  5
49A
102
{ACAD_XDICTIONARY
360
528
102
}
102
{ACAD_REACTORS
330
497
102
}
330
497
100
AcDbVisualStyle
  2
Gouraud
 70
     2
 71
     2
 72
     2
 73
     1
 90
        2
 40
-0.6
 41
30.0
 62
     5
 63
     7
421
 16777215
 74
     0
 91
        0
 64
     7
 65
   257
 75
     1
175
     1
 42
1.0
 92
        0
 66
     7
 43
1.0
 76
     1
 77
     6
 78
     2
 67
     7
 79
     5
170
     0
171
     0
290
     0
174
     0
 93
       13
 44
0.0
173
     0
291
     1
 45
0.0
1001
ACAD
1000
AcDbSavedByObjectVersion
1070
     0
  0
VISUALSTYLE
  5
49B
102
{ACAD_XDICTIONARY
360
52A
102
}
102
{ACAD_REACTORS
330
497
102
}
330
497
100
AcDbVisualStyle
  2
GouraudWithEdges
 70
     3
 71
     2
 72
     2
 73
     1
 90
        2
 40
-0.6
 41
30.0
 62
     5
 63
     7
421
 16777215
 74
     1
 91
        0
 64
     7
 65
   257
 75
     1
175
     1
 42
1.0
 92
        0
 66
   257
 43
1.0
 76
     1
 77
     6
 78
     2
 67
     7
 79
     5
170
     0
171
     0
290
     0
174
     0
 93
       13
 44
0.0
173
     0
291
     1
 45
0.0
1001
ACAD
1000
AcDbSavedByObjectVersion
1070
     0
  0
VISUALSTYLE
  5
49F
102
{ACAD_XDICTIONARY
360
532
102
}
102
{ACAD_REACTORS
330
497
102
}
330
497
100
AcDbVisualStyle
  2
Hidden
 70
     6
 71
     1
 72
     2
 73
     2
 90
        0
 40
-0.6
 41
-30.0
 62
     5
 63
     7
421
 16777215
 74
     2
 91
        2
 64
     7
 65
   257
 75
     2
175
     1
 42
40.0
 92
        0
 66
   257
 43
1.0
 76
     1
 77
     6
 78
     2
 67
     7
 79
     3
170
     0
171
     0
290
     0
174
     0
 93
        1
 44
0.0
173
     0
291
     0
 45
0.0
1001
ACAD
1000
AcDbSavedByObjectVersion
1070
     0
  0
VISUALSTYLE
  5
4AD
102
{ACAD_XDICTIONARY
360
54E
102
}
102
{ACAD_REACTORS
330
497
102
}
330
497
100
AcDbVisualStyle
  2
JitterOff
 70
    20
 71
     2
 72
     2
 73
     0
 90
        0
 40
-0.6
 41
-30.0
 62
     5
 63
     7
421
 16777215
 74
     1
 91
        4
 64
     7
 65
   257
 75
     1
175
     1
 42
1.0
 92
       10
 66
     7
 43
1.0
 76
     1
 77
     6
 78
     2
 67
     7
 79
     5
170
     0
171
     0
290
     0
174
     0
 93
        1
 44
0.0
173
     0
291
     1
 45
0.0
1001
ACAD
1000
AcDbSavedByObjectVersion
1070
     0
  0
VISUALSTYLE
  5
4A5
102
{ACAD_XDICTIONARY
360
53E
102
}
102
{ACAD_REACTORS
330
497
102
}
330
497
100
AcDbVisualStyle
  2
Linepattern
 70
    14
 71
     2
 72
     2
 73
     0
 90
        0
 40
-0.6
 41
-30.0
 62
     5
 63
     7
421
 16777215
 74
     1
 91
        4
 64
     7
 65
   257
 75
     7
175
     7
 42
1.0
 92
        8
 66
     7
 43
1.0
 76
     1
 77
     6
 78
     2
 67
     7
 79
     5
170
     0
171
     0
290
     0
174
     0
 93
        1
 44
0.0
173
     0
291
     1
 45
0.0
1001
ACAD
1000
AcDbSavedByObjectVersion
1070
     0
  0
VISUALSTYLE
  5
4AE
102
{ACAD_XDICTIONARY
360
550
102
}
102
{ACAD_REACTORS
330
497
102
}
330
497
100
AcDbVisualStyle
  2
OverhangOff
 70
    21
 71
     2
 72
     2
 73
     0
 90
        0
 40
-0.6
 41
-30.0
 62
     5
 63
     7
421
 16777215
 74
     1
 91
        4
 64
     7
 65
   257
 75
     1
175
     1
 42
1.0
 92
        9
 66
     7
 43
1.0
 76
     1
 77
     6
 78
     2
 67
     7
 79
     5
170
     0
171
     0
290
     0
174
     0
 93
        1
 44
0.0
173
     0
291
     1
 45
0.0
1001
ACAD
1000
AcDbSavedByObjectVersion
1070
     0
  0
VISUALSTYLE
  5
4A1
102
{ACAD_XDICTIONARY
360
536
102
}
102
{ACAD_REACTORS
330
497
102
}
330
497
100
AcDbVisualStyle
  2
Realistic
 70
     8
 71
     2
 72
     2
 73
     0
 90
        2
 40
-0.6
 41
30.0
 62
     5
 63
     7
421
 16777215
 74
     0
 91
        0
 64
     7
 65
   257
 75
     1
175
     1
 42
1.0
 92
        8
 66
   257
 43
1.0
 76
     1
 77
     6
 78
     2
 67
     7
 79
     3
170
     0
171
     0
290
     0
174
     0
 93
       13
 44
0.0
173
     0
291
     0
 45
0.0
1001
ACAD
1000
AcDbSavedByObjectVersion
1070
     0
  0
VISUALSTYLE
  5
4AC
102
{ACAD_XDICTIONARY
360
54C
102
}
102
{ACAD_REACTORS
330
497
102
}
330
497
100
AcDbVisualStyle
  2
Shaded
 70
    27
 71
     2
 72
     2
 73
     1
 90
        2
 40
-0.6
 41
30.0
 62
     5
 63
     7
421
 16777215
 74
     0
 91
        4
 64
     7
 65
   257
 75
     1
175
     1
 42
1.0
 92
        8
 66
   257
 43
1.0
 76
     1
 77
     6
 78
     2
 67
     8
425
  7895160
 79
     3
170
     0
171
     0
290
     0
174
     0
 93
        5
 44
0.0
173
     0
291
     0
 45
0.0
1001
ACAD
1000
AcDbSavedByObjectVersion
1070
     0
  0
VISUALSTYLE
  5
4AB
102
{ACAD_XDICTIONARY
360
54A
102
}
102
{ACAD_REACTORS
330
497
102
}
330
497
100
AcDbVisualStyle
  2
Shaded with edges
 70
    26
 71
     2
 72
     2
 73
     1
 90
        2
 40
-0.6
 41
30.0
 62
     5
 63
     7
421
 16777215
 74
     1
 91
       10
 64
     7
 65
   257
 75
     2
175
     1
 42
1.0
 92
        8
 66
   257
 43
1.0
 76
     1
 77
     6
 78
     2
 67
     7
 79
     3
170
     0
171
     0
290
     0
174
     0
 93
        5
 44
0.0
173
     0
291
     0
 45
0.0
1001
ACAD
1000
AcDbSavedByObjectVersion
1070
     0
  0
VISUALSTYLE
  5
4A8
102
{ACAD_XDICTIONARY
360
544
102
}
102
{ACAD_REACTORS
330
497
102
}
330
497
100
AcDbVisualStyle
  2
Shades of Gray
 70
    23
 71
     2
 72
     2
 73
     3
 90
        0
 40
-0.6
 41
-30.0
 62
     5
 63
     7
421
 16777215
 74
     2
 91
        2
 64
     7
 65
     7
 75
     1
175
     1
 42
40.0
 92
        8
 66
     7
 43
1.0
 76
     1
 77
     6
 78
     2
 67
     7
 79
     3
170
     0
171
     0
290
     0
174
     0
 93
        1
 44
0.0
173
     0
291
     0
 45
0.0
1001
ACAD
1000
AcDbSavedByObjectVersion
1070
     0
  0
VISUALSTYLE
  5
4A9
102
{ACAD_XDICTIONARY
360
546
102
}
102
{ACAD_REACTORS
330
497
102
}
330
497
100
AcDbVisualStyle
  2
Sketchy
 70
    24
 71
     1
 72
     2
 73
     2
 90
        0
 40
-0.6
 41
-30.0
 62
     5
 63
     7
421
 16777215
 74
     2
 91
        2
 64
     7
 65
     7
 75
     1
175
     1
 42
40.0
 92
       11
 66
     7
 43
1.0
 76
     1
 77
     6
 78
     2
 67
     7
 79
     6
170
     0
171
     0
290
     0
174
     0
 93
        1
 44
0.0
173
     0
291
     0
 45
0.0
1001
ACAD
1000
AcDbSavedByObjectVersion
1070
     0
  0
VISUALSTYLE
  5
4A4
102
{ACAD_XDICTIONARY
360
53C
102
}
102
{ACAD_REACTORS
330
497
102
}
330
497
100
AcDbVisualStyle
  2
Thicken
 70
    13
 71
     2
 72
     2
 73
     0
 90
        0
 40
-0.6
 41
-30.0
 62
     5
 63
     7
421
 16777215
 74
     1
 91
        4
 64
     7
 65
   257
 75
     1
175
     1
 42
1.0
 92
       12
 66
     7
 43
1.0
 76
     1
 77
     6
 78
     2
 67
     7
 79
     5
170
     0
171
     0
290
     0
174
     0
 93
        1
 44
0.0
173
     0
291
     1
 45
0.0
1001
ACAD
1000
AcDbSavedByObjectVersion
1070
     0
  0
VISUALSTYLE
  5
49E
102
{ACAD_XDICTIONARY
360
530
102
}
102
{ACAD_REACTORS
330
497
102
}
330
497
100
AcDbVisualStyle
  2
Wireframe
 70
     5
 71
     0
 72
     2
 73
     0
 90
        0
 40
-0.6
 41
-30.0
 62
     5
 63
     7
421
 16777215
 74
     1
 91
        4
 64
     7
 65
   257
 75
     1
175
     1
 42
1.0
 92
        0
 66
   257
 43
1.0
 76
     1
 77
     6
 78
     2
 67
     7
 79
     3
170
     0
171
     0
290
     0
174
     0
 93
        1
 44
0.0
173
     0
291
     0
 45
0.0
1001
ACAD
1000
AcDbSavedByObjectVersion
1070
     0
  0
VISUALSTYLE
  5
4AA
102
{ACAD_XDICTIONARY
360
548
102
}
102
{ACAD_REACTORS
330
497
102
}
330
497
100
AcDbVisualStyle
  2
X-Ray
 70
    25
 71
     2
 72
     2
 73
     1
 90
        1
 40
0.5
 41
-30.0
 62
     5
 63
     7
421
 16777215
 74
     1
 91
        0
 64
     7
 65
   257
 75
     1
175
     1
 42
1.0
 92
        8
 66
     7
 43
1.0
 76
     1
 77
     6
 78
     2
 67
     7
 79
     3
170
     0
171
     0
290
     0
174
     0
 93
       13
 44
0.0
173
     0
291
     0
 45
0.0
1001
ACAD
1000
AcDbSavedByObjectVersion
1070
     0
  0
DICTIONARYVAR
  5
513
102
{ACAD_REACTORS
330
470
102
}
330
470
100
DictionaryVariables
280
     0
  1
1:1
  0
DICTIONARYVAR
  5
510
102
{ACAD_REACTORS
330
470
102
}
330
470
100
DictionaryVariables
280
     0
  1
STANDARD
  0
DICTIONARYVAR
  5
50F
102
{ACAD_REACTORS
330
470
102
}
330
470
100
DictionaryVariables
280
     0
  1
STANDARD
  0
DICTIONARYVAR
  5
511
102
{ACAD_REACTORS
330
470
102
}
330
470
100
DictionaryVariables
280
     0
  1
Imperial24
  0
DICTIONARYVAR
  5
512
102
{ACAD_REACTORS
330
470
102
}
330
470
100
DictionaryVariables
280
     0
  1
Imperial24
  0
DICTIONARYVAR
  5
471
102
{ACAD_REACTORS
330
470
102
}
330
470
100
DictionaryVariables
280
     0
  1
0
  0
DICTIONARYVAR
  5
51E
102
{ACAD_REACTORS
330
470
102
}
330
470
100
DictionaryVariables
280
     0
  1
2
  0
DICTIONARY
  5
559
330
4CA
100
AcDbDictionary
280
     1
281
     1
  3
ACAD_XREC_ROUNDTRIP
360
55A
  0
DICTIONARY
  5
488
330
487
100
AcDbDictionary
280
     1
281
     1
  3
ACAD_XREC_ROUNDTRIP
360
522
  3
BUMPTILE
360
48A
  3
DIFFUSETILE
360
489
  3
OPACITYTILE
360
48D
  3
REFLECTIONTILE
360
48C
  3
REFRACTIONTILE
360
48E
  3
SPECULARTILE
360
48B
  0
DICTIONARY
  5
480
330
47F
100
AcDbDictionary
280
     1
281
     1
  3
ACAD_XREC_ROUNDTRIP
360
521
  3
BUMPTILE
360
482
  3
DIFFUSETILE
360
481
  3
OPACITYTILE
360
485
  3
REFLECTIONTILE
360
484
  3
REFRACTIONTILE
360
486
  3
SPECULARTILE
360
483
  0
DICTIONARY
  5
490
330
48F
100
AcDbDictionary
280
     1
281
     1
  3
ACAD_XREC_ROUNDTRIP
360
523
  3
BUMPTILE
360
492
  3
DIFFUSETILE
360
491
  3
OPACITYTILE
360
495
  3
REFLECTIONTILE
360
494
  3
REFRACTIONTILE
360
496
  3
SPECULARTILE
360
493
  0
DICTIONARY
  5
555
330
4C6
100
AcDbDictionary
280
     1
281
     1
  3
ACAD_XREC_ROUNDTRIP
360
556
  0
DICTIONARY
  5
557
330
4C8
100
AcDbDictionary
280
     1
281
     1
  3
ACAD_XREC_ROUNDTRIP
360
558
  0
DICTIONARY
  5
4D1
330
4B2
100
AcDbDictionary
280
     1
281
     1
  3
ACAD_ROUNDTRIP_2008_TABLESTYLE_CELLSTYLEMAP
360
51F
  3
ACAD_XREC_ROUNDTRIP
360
554
  0
DICTIONARY
  5
52E
330
49D
100
AcDbDictionary
280
     1
281
     1
  3
ACAD_XREC_ROUNDTRIP
360
52F
  0
DICTIONARY
  5
52C
330
49C
100
AcDbDictionary
280
     1
281
     1
  3
ACAD_XREC_ROUNDTRIP
360
52D
  0
DICTIONARY
  5
53A
330
4A3
100
AcDbDictionary
280
     1
281
     1
  3
ACAD_XREC_ROUNDTRIP
360
53B
  0
DICTIONARY
  5
542
330
4A7
100
AcDbDictionary
280
     1
281
     1
  3
ACAD_XREC_ROUNDTRIP
360
543
  0
DICTIONARY
  5
534
330
4A0
100
AcDbDictionary
280
     1
281
     1
  3
ACAD_XREC_ROUNDTRIP
360
535
  0
DICTIONARY
  5
538
330
4A2
100
AcDbDictionary
280
     1
281
     1
  3
ACAD_XREC_ROUNDTRIP
360
539
  0
DICTIONARY
  5
552
330
4AF
100
AcDbDictionary
280
     1
281
     1
  3
ACAD_XREC_ROUNDTRIP
360
553
  0
DICTIONARY
  5
540
330
4A6
100
AcDbDictionary
280
     1
281
     1
  3
ACAD_XREC_ROUNDTRIP
360
541
  0
DICTIONARY
  5
524
330
498
100
AcDbDictionary
280
     1
281
     1
  3
ACAD_XREC_ROUNDTRIP
360
525
  0
DICTIONARY
  5
526
330
499
100
AcDbDictionary
280
     1
281
     1
  3
ACAD_XREC_ROUNDTRIP
360
527
  0
DICTIONARY
  5
528
330
49A
100
AcDbDictionary
280
     1
281
     1
  3
ACAD_XREC_ROUNDTRIP
360
529
  0
DICTIONARY
  5
52A
330
49B
100
AcDbDictionary
280
     1
281
     1
  3
ACAD_XREC_ROUNDTRIP
360
52B
  0
DICTIONARY
  5
532
330
49F
100
AcDbDictionary
280
     1
281
     1
  3
ACAD_XREC_ROUNDTRIP
360
533
  0
DICTIONARY
  5
54E
330
4AD
100
AcDbDictionary
280
     1
281
     1
  3
ACAD_XREC_ROUNDTRIP
360
54F
  0
DICTIONARY
  5
53E
330
4A5
100
AcDbDictionary
280
     1
281
     1
  3
ACAD_XREC_ROUNDTRIP
360
53F
  0
DICTIONARY
  5
550
330
4AE
100
AcDbDictionary
280
     1
281
     1
  3
ACAD_XREC_ROUNDTRIP
360
551
  0
DICTIONARY
  5
536
330
4A1
100
AcDbDictionary
280
     1
281
     1
  3
ACAD_XREC_ROUNDTRIP
360
537
  0
DICTIONARY
  5
54C
330
4AC
100
AcDbDictionary
280
     1
281
     1
  3
ACAD_XREC_ROUNDTRIP
360
54D
  0
DICTIONARY
  5
54A
330
4AB
100
AcDbDictionary
280
     1
281
     1
  3
ACAD_XREC_ROUNDTRIP
360
54B
  0
DICTIONARY
  5
544
330
4A8
100
AcDbDictionary
280
     1
281
     1
  3
ACAD_XREC_ROUNDTRIP
360
545
  0
DICTIONARY
  5
546
330
4A9
100
AcDbDictionary
280
     1
281
     1
  3
ACAD_XREC_ROUNDTRIP
360
547
  0
DICTIONARY
  5
53C
330
4A4
100
AcDbDictionary
280
     1
281
     1
  3
ACAD_XREC_ROUNDTRIP
360
53D
  0
DICTIONARY
  5
530
330
49E
100
AcDbDictionary
280
     1
281
     1
  3
ACAD_XREC_ROUNDTRIP
360
531
  0
DICTIONARY
  5
548
330
4AA
100
AcDbDictionary
280
     1
281
     1
  3
ACAD_XREC_ROUNDTRIP
360
549
  0
XRECORD
  5
55A
102
{ACAD_REACTORS
330
559
102
}
330
559
100
AcDbXrecord
280
     1
102
DISPLAYNAME
  1
Imperial24
102
FLAGS
 90
        0
  0
XRECORD
  5
522
102
{ACAD_REACTORS
330
488
102
}
330
488
100
AcDbXrecord
280
     1
102
MATERIAL
148
0.0
149
0.0
149
0.0
 93
        0
 94
      127
282
     0
 72
     0
 77
     0
171
     0
175
     0
179
     0
273
     0
  0
XRECORD
  5
48A
102
{ACAD_REACTORS
330
488
102
}
330
488
100
AcDbXrecord
280
     1
270
     1
271
     1
  0
XRECORD
  5
489
102
{ACAD_REACTORS
330
488
102
}
330
488
100
AcDbXrecord
280
     1
270
     1
271
     1
  0
XRECORD
  5
48D
102
{ACAD_REACTORS
330
488
102
}
330
488
100
AcDbXrecord
280
     1
270
     1
271
     1
  0
XRECORD
  5
48C
102
{ACAD_REACTORS
330
488
102
}
330
488
100
AcDbXrecord
280
     1
270
     1
271
     1
  0
XRECORD
  5
48E
102
{ACAD_REACTORS
330
488
102
}
330
488
100
AcDbXrecord
280
     1
270
     1
271
     1
  0
XRECORD
  5
48B
102
{ACAD_REACTORS
330
488
102
}
330
488
100
AcDbXrecord
280
     1
270
     1
271
     1
  0
XRECORD
  5
521
102
{ACAD_REACTORS
330
480
102
}
330
480
100
AcDbXrecord
280
     1
102
MATERIAL
148
0.0
149
0.0
149
0.0
 93
        0
 94
      127
282
     0
 72
     0
 77
     0
171
     0
175
     0
179
     0
273
     0
  0
XRECORD
  5
482
102
{ACAD_REACTORS
330
480
102
}
330
480
100
AcDbXrecord
280
     1
270
     1
271
     1
  0
XRECORD
  5
481
102
{ACAD_REACTORS
330
480
102
}
330
480
100
AcDbXrecord
280
     1
270
     1
271
     1
  0
XRECORD
  5
485
102
{ACAD_REACTORS
330
480
102
}
330
480
100
AcDbXrecord
280
     1
270
     1
271
     1
  0
XRECORD
  5
484
102
{ACAD_REACTORS
330
480
102
}
330
480
100
AcDbXrecord
280
     1
270
     1
271
     1
  0
XRECORD
  5
486
102
{ACAD_REACTORS
330
480
102
}
330
480
100
AcDbXrecord
280
     1
270
     1
271
     1
  0
XRECORD
  5
483
102
{ACAD_REACTORS
330
480
102
}
330
480
100
AcDbXrecord
280
     1
270
     1
271
     1
  0
XRECORD
  5
523
102
{ACAD_REACTORS
330
490
102
}
330
490
100
AcDbXrecord
280
     1
102
MATERIAL
148
0.0
149
0.0
149
0.0
 93
        0
 94
      127
282
     0
 72
     0
 77
     0
171
     0
175
     0
179
     0
273
     0
  0
XRECORD
  5
492
102
{ACAD_REACTORS
330
490
102
}
330
490
100
AcDbXrecord
280
     1
270
     1
271
     1
  0
XRECORD
  5
491
102
{ACAD_REACTORS
330
490
102
}
330
490
100
AcDbXrecord
280
     1
270
     1
271
     1
  0
XRECORD
  5
495
102
{ACAD_REACTORS
330
490
102
}
330
490
100
AcDbXrecord
280
     1
270
     1
271
     1
  0
XRECORD
  5
494
102
{ACAD_REACTORS
330
490
102
}
330
490
100
AcDbXrecord
280
     1
270
     1
271
     1
  0
XRECORD
  5
496
102
{ACAD_REACTORS
330
490
102
}
330
490
100
AcDbXrecord
280
     1
270
     1
271
     1
  0
XRECORD
  5
493
102
{ACAD_REACTORS
330
490
102
}
330
490
100
AcDbXrecord
280
     1
270
     1
271
     1
  0
XRECORD
  5
556
102
{ACAD_REACTORS
330
555
102
}
330
555
100
AcDbXrecord
280
     1
102
ACAD_ROUNDTRIP_2012_MLEADER_STYLE
298
     1
  0
XRECORD
  5
558
102
{ACAD_REACTORS
330
557
102
}
330
557
100
AcDbXrecord
280
     1
102
DISPLAYNAME
  1
Imperial24
102
FLAGS
 90
        0
  0
CELLSTYLEMAP
  5
51F
102
{ACAD_REACTORS
330
4D1
102
}
330
4D1
100
AcDbCellStyleMap
 90
        3
300
CELLSTYLE
  1
TABLEFORMAT_BEGIN
 90
        5
170
     1
 91
        0
 92
    32768
 62
   257
 93
        1
300
CONTENTFORMAT
  1
CONTENTFORMAT_BEGIN
 90
        0
 91
        0
 92
      512
 93
        0
300

 40
0.0
140
1.0
 94
        5
 62
     0
340
457
144
0.25
309
CONTENTFORMAT_END
171
     0
 94
        0
309
TABLEFORMAT_END
  1
CELLSTYLE_BEGIN
 90
        1
 91
        1
300
_TITLE
309
CELLSTYLE_END
300
CELLSTYLE
  1
TABLEFORMAT_BEGIN
 90
        5
170
     1
 91
        0
 92
        0
 62
   257
 93
        1
300
CONTENTFORMAT
  1
CONTENTFORMAT_BEGIN
 90
        0
 91
        0
 92
      512
 93
        0
300

 40
0.0
140
1.0
 94
        5
 62
     0
340
457
144
0.18
309
CONTENTFORMAT_END
171
     0
 94
        0
309
TABLEFORMAT_END
  1
CELLSTYLE_BEGIN
 90
        2
 91
        1
300
_HEADER
309
CELLSTYLE_END
300
CELLSTYLE
  1
TABLEFORMAT_BEGIN
 90
        5
170
     1
 91
        0
 92
        0
 62
   257
 93
        1
300
CONTENTFORMAT
  1
CONTENTFORMAT_BEGIN
 90
        0
 91
        0
 92
      512
 93
        0
300

 40
0.0
140
1.0
 94
        2
 62
     0
340
457
144
0.18
309
CONTENTFORMAT_END
171
     0
 94
        0
309
TABLEFORMAT_END
  1
CELLSTYLE_BEGIN
 90
        3
 91
        2
300
_DATA
309
CELLSTYLE_END
  0
XRECORD
  5
554
102
{ACAD_REACTORS
330
4D1
102
}
330
4D1
100
AcDbXrecord
280
     1
102
ACAD_ROUNDTRIP_PRE2007_TABLESTYLE
 90
      512
 91
        0
  1

 92
      512
 93
        0
  2

 94
      512
 95
        0
  3

  0
XRECORD
  5
52F
102
{ACAD_REACTORS
330
52E
102
}
330
52E
100
AcDbXrecord
280
     1
102
RTVSPost2010Prop28
280
     1
102
RTVSPost2010PropOp28
 70
     1
102
RTVSPost2010Prop29
280
     1
102
RTVSPost2010PropOp29
 70
     1
102
RTVSPost2010Prop30
280
     0
102
RTVSPost2010PropOp30
 70
     1
102
RTVSPost2010Prop31
280
     0
102
RTVSPost2010PropOp31
 70
     1
102
RTVSPost2010Prop32
280
     0
102
RTVSPost2010PropOp32
 70
     1
102
RTVSPost2010Prop33
280
     0
102
RTVSPost2010PropOp33
 70
     1
102
RTVSPost2010Prop34
280
     0
102
RTVSPost2010PropOp34
 70
     1
102
RTVSPost2010Prop35
280
     0
102
RTVSPost2010PropOp35
 70
     1
102
RTVSPost2010Prop36
280
     0
102
RTVSPost2010PropOp36
 70
     1
102
RTVSPost2010Prop37
 90
       50
102
RTVSPost2010PropOp37
 70
     1
102
RTVSPost2010Prop38
140
0.0
102
RTVSPost2010PropOp38
 70
     1
102
RTVSPost2010Prop39
140
1.0
102
RTVSPost2010PropOp39
 70
     1
102
RTVSPost2010Prop40
 90
        0
102
RTVSPost2010PropOp40
 70
     1
102
RTVSPost2010Prop41ColorIndex
 90
       18
102
RTVSPost2010Prop41ColorRGB
 90
        0
102
RTVSPost2010PropOp41
 70
     1
102
RTVSPost2010Prop42
 90
       50
102
RTVSPost2010PropOp42
 70
     1
102
RTVSPost2010Prop43
 90
        3
102
RTVSPost2010PropOp43
 70
     1
102
RTVSPost2010Prop44ColorIndex
 90
        5
102
RTVSPost2010Prop44ColorRGB
 90
      255
102
RTVSPost2010PropOp44
 70
     1
102
RTVSPost2010Prop45
280
     0
102
RTVSPost2010PropOp45
 70
     1
102
RTVSPost2010Prop46
 90
       50
102
RTVSPost2010PropOp46
 70
     1
102
RTVSPost2010Prop47
 90
       50
102
RTVSPost2010PropOp47
 70
     1
102
RTVSPost2010Prop48
 90
       50
102
RTVSPost2010PropOp48
 70
     1
102
RTVSPost2010Prop49
280
     0
102
RTVSPost2010PropOp49
 70
     1
102
RTVSPost2010Prop50
 90
       50
102
RTVSPost2010PropOp50
 70
     1
102
RTVSPost2010Prop51ColorIndex
 90
      256
102
RTVSPost2010Prop51ColorRGB
 90
-16777216
102
RTVSPost2010PropOp51
 70
     0
102
RTVSPost2010Prop52
140
1.0
102
RTVSPost2010PropOp52
 70
     0
102
RTVSPost2010Prop53
 90
        2
102
RTVSPost2010PropOp53
 70
     1
102
RTVSPost2010Prop54
  1
strokes_ogs.tif
102
RTVSPost2010PropOp54
 70
     1
102
RTVSPost2010Prop55
280
     0
102
RTVSPost2010PropOp55
 70
     1
102
RTVSPost2010Prop56
140
1.0
102
RTVSPost2010PropOp56
 70
     1
102
RTVSPost2010Prop57
140
1.0
102
RTVSPost2010PropOp57
 70
     1
102
RTVSPropertyOp0
 70
     1
102
RTVSPropertyOp1
 70
     1
102
RTVSPropertyOp2
 70
     1
102
RTVSPropertyOp3
 70
     1
102
RTVSPropertyOp4
 70
     1
102
RTVSPropertyOp5
 70
     1
102
RTVSPropertyOp6
 70
     1
102
RTVSPropertyOp7
 70
     1
102
RTVSPropertyOp8
 70
     1
102
RTVSPropertyOp9
 70
     1
102
RTVSPropertyOp10
 70
     1
102
RTVSPropertyOp11
 70
     1
102
RTVSPropertyOp12
 70
     1
102
RTVSPropertyOp13
 70
     1
102
RTVSPropertyOp14
 70
     1
102
RTVSPropertyOp15
 70
     1
102
RTVSPropertyOp16
 70
     1
102
RTVSPropertyOp17
 70
     1
102
RTVSPropertyOp18
 70
     1
102
RTVSPropertyOp19
 70
     1
102
RTVSPropertyOp20
 70
     1
102
RTVSPropertyOp21
 70
     1
102
RTVSPropertyOp22
 70
     1
102
RTVSPropertyOp23
 70
     1
102
RTVSPropertyOp24
 70
     1
102
RTVSPropertyOp25
 70
     1
102
RTVSPropertyOp26
 70
     1
102
RTVSPropertyOp27
 70
     1
102
RTVSPropertyOp28
 70
     1
102
RTVSPropertyOp29
 70
     1
102
RTVSPropertyOp30
 70
     1
102
RTVSPropertyOp31
 70
     1
102
RTVSPropertyOp32
 70
     1
102
RTVSPropertyOp33
 70
     1
102
RTVSPropertyOp34
 70
     1
102
RTVSPropertyOp35
 70
     1
102
RTVSPropertyOp36
 70
     1
102
RTVSPropertyOp37
 70
     1
102
RTVSPropertyOp38
 70
     1
102
RTVSPropertyOp39
 70
     1
102
RTVSPropertyOp40
 70
     1
102
RTVSPropertyOp41
 70
     1
102
RTVSPropertyOp42
 70
     1
102
RTVSPropertyOp43
 70
     1
102
RTVSPropertyOp44
 70
     1
102
RTVSPropertyOp45
 70
     1
102
RTVSPropertyOp46
 70
     1
102
RTVSPropertyOp47
 70
     1
102
RTVSPropertyOp48
 70
     1
102
RTVSPropertyOp49
 70
     1
102
RTVSPropertyOp50
 70
     1
102
RTVSPropertyOp51
 70
     0
102
RTVSPropertyOp52
 70
     0
102
RTVSPropertyOp53
 70
     1
102
RTVSPropertyOp54
 70
     1
102
RTVSPropertyOp55
 70
     1
102
RTVSPropertyOp56
 70
     1
102
RTVSPropertyOp57
 70
     1
102
RTVSPropertyOp58
 70
     1
102
RTVSPropertyOp59
 70
     1
102
RTVSPropertyOp60
 70
     1
102
RTVSPropertyOp61
 70
     1
102
RTVSPropertyOp62
 70
     1
  0
XRECORD
  5
52D
102
{ACAD_REACTORS
330
52C
102
}
330
52C
100
AcDbXrecord
280
     1
102
RTVSPost2010Prop28
280
     0
102
RTVSPost2010PropOp28
 70
     1
102
RTVSPost2010Prop29
280
     1
102
RTVSPost2010PropOp29
 70
     1
102
RTVSPost2010Prop30
280
     1
102
RTVSPost2010PropOp30
 70
     1
102
RTVSPost2010Prop31
280
     0
102
RTVSPost2010PropOp31
 70
     1
102
RTVSPost2010Prop32
280
     0
102
RTVSPost2010PropOp32
 70
     1
102
RTVSPost2010Prop33
280
     0
102
RTVSPost2010PropOp33
 70
     1
102
RTVSPost2010Prop34
280
     0
102
RTVSPost2010PropOp34
 70
     1
102
RTVSPost2010Prop35
280
     0
102
RTVSPost2010PropOp35
 70
     1
102
RTVSPost2010Prop36
280
     0
102
RTVSPost2010PropOp36
 70
     1
102
RTVSPost2010Prop37
 90
       50
102
RTVSPost2010PropOp37
 70
     1
102
RTVSPost2010Prop38
140
0.0
102
RTVSPost2010PropOp38
 70
     1
102
RTVSPost2010Prop39
140
1.0
102
RTVSPost2010PropOp39
 70
     1
102
RTVSPost2010Prop40
 90
        0
102
RTVSPost2010PropOp40
 70
     1
102
RTVSPost2010Prop41ColorIndex
 90
       18
102
RTVSPost2010Prop41ColorRGB
 90
        0
102
RTVSPost2010PropOp41
 70
     1
102
RTVSPost2010Prop42
 90
       50
102
RTVSPost2010PropOp42
 70
     1
102
RTVSPost2010Prop43
 90
        3
102
RTVSPost2010PropOp43
 70
     1
102
RTVSPost2010Prop44ColorIndex
 90
        5
102
RTVSPost2010Prop44ColorRGB
 90
      255
102
RTVSPost2010PropOp44
 70
     1
102
RTVSPost2010Prop45
280
     0
102
RTVSPost2010PropOp45
 70
     1
102
RTVSPost2010Prop46
 90
       50
102
RTVSPost2010PropOp46
 70
     1
102
RTVSPost2010Prop47
 90
       50
102
RTVSPost2010PropOp47
 70
     1
102
RTVSPost2010Prop48
 90
       50
102
RTVSPost2010PropOp48
 70
     1
102
RTVSPost2010Prop49
280
     0
102
RTVSPost2010PropOp49
 70
     1
102
RTVSPost2010Prop50
 90
       50
102
RTVSPost2010PropOp50
 70
     1
102
RTVSPost2010Prop51ColorIndex
 90
      256
102
RTVSPost2010Prop51ColorRGB
 90
-16777216
102
RTVSPost2010PropOp51
 70
     0
102
RTVSPost2010Prop52
140
1.0
102
RTVSPost2010PropOp52
 70
     0
102
RTVSPost2010Prop53
 90
        2
102
RTVSPost2010PropOp53
 70
     1
102
RTVSPost2010Prop54
  1
strokes_ogs.tif
102
RTVSPost2010PropOp54
 70
     1
102
RTVSPost2010Prop55
280
     0
102
RTVSPost2010PropOp55
 70
     1
102
RTVSPost2010Prop56
140
1.0
102
RTVSPost2010PropOp56
 70
     1
102
RTVSPost2010Prop57
140
1.0
102
RTVSPost2010PropOp57
 70
     1
102
RTVSPropertyOp0
 70
     1
102
RTVSPropertyOp1
 70
     1
102
RTVSPropertyOp2
 70
     1
102
RTVSPropertyOp3
 70
     1
102
RTVSPropertyOp4
 70
     1
102
RTVSPropertyOp5
 70
     1
102
RTVSPropertyOp6
 70
     1
102
RTVSPropertyOp7
 70
     1
102
RTVSPropertyOp8
 70
     1
102
RTVSPropertyOp9
 70
     1
102
RTVSPropertyOp10
 70
     1
102
RTVSPropertyOp11
 70
     1
102
RTVSPropertyOp12
 70
     1
102
RTVSPropertyOp13
 70
     1
102
RTVSPropertyOp14
 70
     1
102
RTVSPropertyOp15
 70
     1
102
RTVSPropertyOp16
 70
     1
102
RTVSPropertyOp17
 70
     1
102
RTVSPropertyOp18
 70
     1
102
RTVSPropertyOp19
 70
     1
102
RTVSPropertyOp20
 70
     1
102
RTVSPropertyOp21
 70
     1
102
RTVSPropertyOp22
 70
     1
102
RTVSPropertyOp23
 70
     1
102
RTVSPropertyOp24
 70
     1
102
RTVSPropertyOp25
 70
     1
102
RTVSPropertyOp26
 70
     1
102
RTVSPropertyOp27
 70
     1
102
RTVSPropertyOp28
 70
     1
102
RTVSPropertyOp29
 70
     1
102
RTVSPropertyOp30
 70
     1
102
RTVSPropertyOp31
 70
     1
102
RTVSPropertyOp32
 70
     1
102
RTVSPropertyOp33
 70
     1
102
RTVSPropertyOp34
 70
     1
102
RTVSPropertyOp35
 70
     1
102
RTVSPropertyOp36
 70
     1
102
RTVSPropertyOp37
 70
     1
102
RTVSPropertyOp38
 70
     1
102
RTVSPropertyOp39
 70
     1
102
RTVSPropertyOp40
 70
     1
102
RTVSPropertyOp41
 70
     1
102
RTVSPropertyOp42
 70
     1
102
RTVSPropertyOp43
 70
     1
102
RTVSPropertyOp44
 70
     1
102
RTVSPropertyOp45
 70
     1
102
RTVSPropertyOp46
 70
     1
102
RTVSPropertyOp47
 70
     1
102
RTVSPropertyOp48
 70
     1
102
RTVSPropertyOp49
 70
     1
102
RTVSPropertyOp50
 70
     1
102
RTVSPropertyOp51
 70
     0
102
RTVSPropertyOp52
 70
     0
102
RTVSPropertyOp53
 70
     1
102
RTVSPropertyOp54
 70
     1
102
RTVSPropertyOp55
 70
     1
102
RTVSPropertyOp56
 70
     1
102
RTVSPropertyOp57
 70
     1
102
RTVSPropertyOp58
 70
     1
102
RTVSPropertyOp59
 70
     1
102
RTVSPropertyOp60
 70
     1
102
RTVSPropertyOp61
 70
     1
102
RTVSPropertyOp62
 70
     1
  0
XRECORD
  5
53B
102
{ACAD_REACTORS
330
53A
102
}
330
53A
100
AcDbXrecord
280
     1
102
RTVSPost2010Prop28
280
     0
102
RTVSPost2010PropOp28
 70
     1
102
RTVSPost2010Prop29
280
     1
102
RTVSPost2010PropOp29
 70
     1
102
RTVSPost2010Prop30
280
     1
102
RTVSPost2010PropOp30
 70
     1
102
RTVSPost2010Prop31
280
     0
102
RTVSPost2010PropOp31
 70
     1
102
RTVSPost2010Prop32
280
     0
102
RTVSPost2010PropOp32
 70
     1
102
RTVSPost2010Prop33
280
     0
102
RTVSPost2010PropOp33
 70
     1
102
RTVSPost2010Prop34
280
     0
102
RTVSPost2010PropOp34
 70
     1
102
RTVSPost2010Prop35
280
     0
102
RTVSPost2010PropOp35
 70
     1
102
RTVSPost2010Prop36
280
     0
102
RTVSPost2010PropOp36
 70
     1
102
RTVSPost2010Prop37
 90
       50
102
RTVSPost2010PropOp37
 70
     1
102
RTVSPost2010Prop38
140
0.0
102
RTVSPost2010PropOp38
 70
     1
102
RTVSPost2010Prop39
140
1.0
102
RTVSPost2010PropOp39
 70
     1
102
RTVSPost2010Prop40
 90
        0
102
RTVSPost2010PropOp40
 70
     1
102
RTVSPost2010Prop41ColorIndex
 90
       18
102
RTVSPost2010Prop41ColorRGB
 90
        0
102
RTVSPost2010PropOp41
 70
     1
102
RTVSPost2010Prop42
 90
       50
102
RTVSPost2010PropOp42
 70
     1
102
RTVSPost2010Prop43
 90
        3
102
RTVSPost2010PropOp43
 70
     1
102
RTVSPost2010Prop44ColorIndex
 90
        5
102
RTVSPost2010Prop44ColorRGB
 90
      255
102
RTVSPost2010PropOp44
 70
     1
102
RTVSPost2010Prop45
280
     0
102
RTVSPost2010PropOp45
 70
     1
102
RTVSPost2010Prop46
 90
       50
102
RTVSPost2010PropOp46
 70
     1
102
RTVSPost2010Prop47
 90
       50
102
RTVSPost2010PropOp47
 70
     1
102
RTVSPost2010Prop48
 90
       50
102
RTVSPost2010PropOp48
 70
     1
102
RTVSPost2010Prop49
280
     0
102
RTVSPost2010PropOp49
 70
     1
102
RTVSPost2010Prop50
 90
       50
102
RTVSPost2010PropOp50
 70
     1
102
RTVSPost2010Prop51ColorIndex
 90
      256
102
RTVSPost2010Prop51ColorRGB
 90
-16777216
102
RTVSPost2010PropOp51
 70
     0
102
RTVSPost2010Prop52
140
1.0
102
RTVSPost2010PropOp52
 70
     0
102
RTVSPost2010Prop53
 90
        2
102
RTVSPost2010PropOp53
 70
     1
102
RTVSPost2010Prop54
  1
strokes_ogs.tif
102
RTVSPost2010PropOp54
 70
     1
102
RTVSPost2010Prop55
280
     0
102
RTVSPost2010PropOp55
 70
     1
102
RTVSPost2010Prop56
140
1.0
102
RTVSPost2010PropOp56
 70
     1
102
RTVSPost2010Prop57
140
1.0
102
RTVSPost2010PropOp57
 70
     1
102
RTVSPropertyOp0
 70
     1
102
RTVSPropertyOp1
 70
     1
102
RTVSPropertyOp2
 70
     1
102
RTVSPropertyOp3
 70
     1
102
RTVSPropertyOp4
 70
     1
102
RTVSPropertyOp5
 70
     1
102
RTVSPropertyOp6
 70
     1
102
RTVSPropertyOp7
 70
     1
102
RTVSPropertyOp8
 70
     1
102
RTVSPropertyOp9
 70
     1
102
RTVSPropertyOp10
 70
     1
102
RTVSPropertyOp11
 70
     1
102
RTVSPropertyOp12
 70
     1
102
RTVSPropertyOp13
 70
     1
102
RTVSPropertyOp14
 70
     1
102
RTVSPropertyOp15
 70
     1
102
RTVSPropertyOp16
 70
     1
102
RTVSPropertyOp17
 70
     1
102
RTVSPropertyOp18
 70
     1
102
RTVSPropertyOp19
 70
     1
102
RTVSPropertyOp20
 70
     1
102
RTVSPropertyOp21
 70
     1
102
RTVSPropertyOp22
 70
     1
102
RTVSPropertyOp23
 70
     1
102
RTVSPropertyOp24
 70
     1
102
RTVSPropertyOp25
 70
     1
102
RTVSPropertyOp26
 70
     1
102
RTVSPropertyOp27
 70
     1
102
RTVSPropertyOp28
 70
     1
102
RTVSPropertyOp29
 70
     1
102
RTVSPropertyOp30
 70
     1
102
RTVSPropertyOp31
 70
     1
102
RTVSPropertyOp32
 70
     1
102
RTVSPropertyOp33
 70
     1
102
RTVSPropertyOp34
 70
     1
102
RTVSPropertyOp35
 70
     1
102
RTVSPropertyOp36
 70
     1
102
RTVSPropertyOp37
 70
     1
102
RTVSPropertyOp38
 70
     1
102
RTVSPropertyOp39
 70
     1
102
RTVSPropertyOp40
 70
     1
102
RTVSPropertyOp41
 70
     1
102
RTVSPropertyOp42
 70
     1
102
RTVSPropertyOp43
 70
     1
102
RTVSPropertyOp44
 70
     1
102
RTVSPropertyOp45
 70
     1
102
RTVSPropertyOp46
 70
     1
102
RTVSPropertyOp47
 70
     1
102
RTVSPropertyOp48
 70
     1
102
RTVSPropertyOp49
 70
     1
102
RTVSPropertyOp50
 70
     1
102
RTVSPropertyOp51
 70
     0
102
RTVSPropertyOp52
 70
     0
102
RTVSPropertyOp53
 70
     1
102
RTVSPropertyOp54
 70
     1
102
RTVSPropertyOp55
 70
     1
102
RTVSPropertyOp56
 70
     1
102
RTVSPropertyOp57
 70
     1
102
RTVSPropertyOp58
 70
     1
102
RTVSPropertyOp59
 70
     1
102
RTVSPropertyOp60
 70
     1
102
RTVSPropertyOp61
 70
     1
102
RTVSPropertyOp62
 70
     1
  0
XRECORD
  5
543
102
{ACAD_REACTORS
330
542
102
}
330
542
100
AcDbXrecord
280
     1
102
RTVSPost2010Prop28
280
     0
102
RTVSPost2010PropOp28
 70
     1
102
RTVSPost2010Prop29
280
     1
102
RTVSPost2010PropOp29
 70
     1
102
RTVSPost2010Prop30
280
     1
102
RTVSPost2010PropOp30
 70
     1
102
RTVSPost2010Prop31
280
     0
102
RTVSPost2010PropOp31
 70
     1
102
RTVSPost2010Prop32
280
     0
102
RTVSPost2010PropOp32
 70
     1
102
RTVSPost2010Prop33
280
     0
102
RTVSPost2010PropOp33
 70
     1
102
RTVSPost2010Prop34
280
     0
102
RTVSPost2010PropOp34
 70
     1
102
RTVSPost2010Prop35
280
     0
102
RTVSPost2010PropOp35
 70
     1
102
RTVSPost2010Prop36
280
     0
102
RTVSPost2010PropOp36
 70
     1
102
RTVSPost2010Prop37
 90
       50
102
RTVSPost2010PropOp37
 70
     1
102
RTVSPost2010Prop38
140
0.0
102
RTVSPost2010PropOp38
 70
     1
102
RTVSPost2010Prop39
140
1.0
102
RTVSPost2010PropOp39
 70
     1
102
RTVSPost2010Prop40
 90
        0
102
RTVSPost2010PropOp40
 70
     1
102
RTVSPost2010Prop41ColorIndex
 90
       18
102
RTVSPost2010Prop41ColorRGB
 90
        0
102
RTVSPost2010PropOp41
 70
     1
102
RTVSPost2010Prop42
 90
       50
102
RTVSPost2010PropOp42
 70
     1
102
RTVSPost2010Prop43
 90
        3
102
RTVSPost2010PropOp43
 70
     1
102
RTVSPost2010Prop44ColorIndex
 90
        5
102
RTVSPost2010Prop44ColorRGB
 90
      255
102
RTVSPost2010PropOp44
 70
     1
102
RTVSPost2010Prop45
280
     0
102
RTVSPost2010PropOp45
 70
     1
102
RTVSPost2010Prop46
 90
       50
102
RTVSPost2010PropOp46
 70
     1
102
RTVSPost2010Prop47
 90
       50
102
RTVSPost2010PropOp47
 70
     1
102
RTVSPost2010Prop48
 90
       50
102
RTVSPost2010PropOp48
 70
     1
102
RTVSPost2010Prop49
280
     0
102
RTVSPost2010PropOp49
 70
     1
102
RTVSPost2010Prop50
 90
       50
102
RTVSPost2010PropOp50
 70
     1
102
RTVSPost2010Prop51ColorIndex
 90
      256
102
RTVSPost2010Prop51ColorRGB
 90
-16777216
102
RTVSPost2010PropOp51
 70
     0
102
RTVSPost2010Prop52
140
1.0
102
RTVSPost2010PropOp52
 70
     0
102
RTVSPost2010Prop53
 90
        2
102
RTVSPost2010PropOp53
 70
     1
102
RTVSPost2010Prop54
  1
strokes_ogs.tif
102
RTVSPost2010PropOp54
 70
     1
102
RTVSPost2010Prop55
280
     0
102
RTVSPost2010PropOp55
 70
     1
102
RTVSPost2010Prop56
140
1.0
102
RTVSPost2010PropOp56
 70
     1
102
RTVSPost2010Prop57
140
1.0
102
RTVSPost2010PropOp57
 70
     1
102
RTVSPropertyOp0
 70
     1
102
RTVSPropertyOp1
 70
     1
102
RTVSPropertyOp2
 70
     1
102
RTVSPropertyOp3
 70
     1
102
RTVSPropertyOp4
 70
     1
102
RTVSPropertyOp5
 70
     1
102
RTVSPropertyOp6
 70
     1
102
RTVSPropertyOp7
 70
     1
102
RTVSPropertyOp8
 70
     1
102
RTVSPropertyOp9
 70
     1
102
RTVSPropertyOp10
 70
     1
102
RTVSPropertyOp11
 70
     1
102
RTVSPropertyOp12
 70
     1
102
RTVSPropertyOp13
 70
     1
102
RTVSPropertyOp14
 70
     1
102
RTVSPropertyOp15
 70
     1
102
RTVSPropertyOp16
 70
     1
102
RTVSPropertyOp17
 70
     1
102
RTVSPropertyOp18
 70
     1
102
RTVSPropertyOp19
 70
     1
102
RTVSPropertyOp20
 70
     1
102
RTVSPropertyOp21
 70
     1
102
RTVSPropertyOp22
 70
     1
102
RTVSPropertyOp23
 70
     1
102
RTVSPropertyOp24
 70
     1
102
RTVSPropertyOp25
 70
     1
102
RTVSPropertyOp26
 70
     1
102
RTVSPropertyOp27
 70
     1
102
RTVSPropertyOp28
 70
     1
102
RTVSPropertyOp29
 70
     1
102
RTVSPropertyOp30
 70
     1
102
RTVSPropertyOp31
 70
     1
102
RTVSPropertyOp32
 70
     1
102
RTVSPropertyOp33
 70
     1
102
RTVSPropertyOp34
 70
     1
102
RTVSPropertyOp35
 70
     1
102
RTVSPropertyOp36
 70
     1
102
RTVSPropertyOp37
 70
     1
102
RTVSPropertyOp38
 70
     1
102
RTVSPropertyOp39
 70
     1
102
RTVSPropertyOp40
 70
     1
102
RTVSPropertyOp41
 70
     1
102
RTVSPropertyOp42
 70
     1
102
RTVSPropertyOp43
 70
     1
102
RTVSPropertyOp44
 70
     1
102
RTVSPropertyOp45
 70
     1
102
RTVSPropertyOp46
 70
     1
102
RTVSPropertyOp47
 70
     1
102
RTVSPropertyOp48
 70
     1
102
RTVSPropertyOp49
 70
     1
102
RTVSPropertyOp50
 70
     1
102
RTVSPropertyOp51
 70
     0
102
RTVSPropertyOp52
 70
     0
102
RTVSPropertyOp53
 70
     1
102
RTVSPropertyOp54
 70
     1
102
RTVSPropertyOp55
 70
     1
102
RTVSPropertyOp56
 70
     1
102
RTVSPropertyOp57
 70
     1
102
RTVSPropertyOp58
 70
     1
102
RTVSPropertyOp59
 70
     1
102
RTVSPropertyOp60
 70
     1
102
RTVSPropertyOp61
 70
     1
102
RTVSPropertyOp62
 70
     1
  0
XRECORD
  5
535
102
{ACAD_REACTORS
330
534
102
}
330
534
100
AcDbXrecord
280
     1
102
RTVSPost2010Prop28
280
     0
102
RTVSPost2010PropOp28
 70
     1
102
RTVSPost2010Prop29
280
     1
102
RTVSPost2010PropOp29
 70
     1
102
RTVSPost2010Prop30
280
     1
102
RTVSPost2010PropOp30
 70
     1
102
RTVSPost2010Prop31
280
     0
102
RTVSPost2010PropOp31
 70
     1
102
RTVSPost2010Prop32
280
     0
102
RTVSPost2010PropOp32
 70
     1
102
RTVSPost2010Prop33
280
     0
102
RTVSPost2010PropOp33
 70
     1
102
RTVSPost2010Prop34
280
     0
102
RTVSPost2010PropOp34
 70
     1
102
RTVSPost2010Prop35
280
     0
102
RTVSPost2010PropOp35
 70
     1
102
RTVSPost2010Prop36
280
     0
102
RTVSPost2010PropOp36
 70
     1
102
RTVSPost2010Prop37
 90
       50
102
RTVSPost2010PropOp37
 70
     1
102
RTVSPost2010Prop38
140
0.0
102
RTVSPost2010PropOp38
 70
     1
102
RTVSPost2010Prop39
140
1.0
102
RTVSPost2010PropOp39
 70
     1
102
RTVSPost2010Prop40
 90
        0
102
RTVSPost2010PropOp40
 70
     1
102
RTVSPost2010Prop41ColorIndex
 90
       18
102
RTVSPost2010Prop41ColorRGB
 90
        0
102
RTVSPost2010PropOp41
 70
     1
102
RTVSPost2010Prop42
 90
       50
102
RTVSPost2010PropOp42
 70
     1
102
RTVSPost2010Prop43
 90
        3
102
RTVSPost2010PropOp43
 70
     1
102
RTVSPost2010Prop44ColorIndex
 90
        5
102
RTVSPost2010Prop44ColorRGB
 90
      255
102
RTVSPost2010PropOp44
 70
     1
102
RTVSPost2010Prop45
280
     0
102
RTVSPost2010PropOp45
 70
     1
102
RTVSPost2010Prop46
 90
       50
102
RTVSPost2010PropOp46
 70
     1
102
RTVSPost2010Prop47
 90
       50
102
RTVSPost2010PropOp47
 70
     1
102
RTVSPost2010Prop48
 90
       50
102
RTVSPost2010PropOp48
 70
     1
102
RTVSPost2010Prop49
280
     0
102
RTVSPost2010PropOp49
 70
     1
102
RTVSPost2010Prop50
 90
       50
102
RTVSPost2010PropOp50
 70
     1
102
RTVSPost2010Prop51ColorIndex
 90
      256
102
RTVSPost2010Prop51ColorRGB
 90
-16777216
102
RTVSPost2010PropOp51
 70
     0
102
RTVSPost2010Prop52
140
1.0
102
RTVSPost2010PropOp52
 70
     0
102
RTVSPost2010Prop53
 90
        2
102
RTVSPost2010PropOp53
 70
     1
102
RTVSPost2010Prop54
  1
strokes_ogs.tif
102
RTVSPost2010PropOp54
 70
     1
102
RTVSPost2010Prop55
280
     0
102
RTVSPost2010PropOp55
 70
     1
102
RTVSPost2010Prop56
140
1.0
102
RTVSPost2010PropOp56
 70
     1
102
RTVSPost2010Prop57
140
1.0
102
RTVSPost2010PropOp57
 70
     1
102
RTVSPropertyOp0
 70
     1
102
RTVSPropertyOp1
 70
     1
102
RTVSPropertyOp2
 70
     1
102
RTVSPropertyOp3
 70
     1
102
RTVSPropertyOp4
 70
     1
102
RTVSPropertyOp5
 70
     1
102
RTVSPropertyOp6
 70
     1
102
RTVSPropertyOp7
 70
     1
102
RTVSPropertyOp8
 70
     1
102
RTVSPropertyOp9
 70
     1
102
RTVSPropertyOp10
 70
     1
102
RTVSPropertyOp11
 70
     1
102
RTVSPropertyOp12
 70
     1
102
RTVSPropertyOp13
 70
     1
102
RTVSPropertyOp14
 70
     1
102
RTVSPropertyOp15
 70
     1
102
RTVSPropertyOp16
 70
     1
102
RTVSPropertyOp17
 70
     1
102
RTVSPropertyOp18
 70
     1
102
RTVSPropertyOp19
 70
     1
102
RTVSPropertyOp20
 70
     1
102
RTVSPropertyOp21
 70
     1
102
RTVSPropertyOp22
 70
     1
102
RTVSPropertyOp23
 70
     1
102
RTVSPropertyOp24
 70
     1
102
RTVSPropertyOp25
 70
     1
102
RTVSPropertyOp26
 70
     1
102
RTVSPropertyOp27
 70
     1
102
RTVSPropertyOp28
 70
     1
102
RTVSPropertyOp29
 70
     1
102
RTVSPropertyOp30
 70
     1
102
RTVSPropertyOp31
 70
     1
102
RTVSPropertyOp32
 70
     1
102
RTVSPropertyOp33
 70
     1
102
RTVSPropertyOp34
 70
     1
102
RTVSPropertyOp35
 70
     1
102
RTVSPropertyOp36
 70
     1
102
RTVSPropertyOp37
 70
     1
102
RTVSPropertyOp38
 70
     1
102
RTVSPropertyOp39
 70
     1
102
RTVSPropertyOp40
 70
     1
102
RTVSPropertyOp41
 70
     1
102
RTVSPropertyOp42
 70
     1
102
RTVSPropertyOp43
 70
     1
102
RTVSPropertyOp44
 70
     1
102
RTVSPropertyOp45
 70
     1
102
RTVSPropertyOp46
 70
     1
102
RTVSPropertyOp47
 70
     1
102
RTVSPropertyOp48
 70
     1
102
RTVSPropertyOp49
 70
     1
102
RTVSPropertyOp50
 70
     1
102
RTVSPropertyOp51
 70
     0
102
RTVSPropertyOp52
 70
     0
102
RTVSPropertyOp53
 70
     1
102
RTVSPropertyOp54
 70
     1
102
RTVSPropertyOp55
 70
     1
102
RTVSPropertyOp56
 70
     1
102
RTVSPropertyOp57
 70
     1
102
RTVSPropertyOp58
 70
     1
102
RTVSPropertyOp59
 70
     1
102
RTVSPropertyOp60
 70
     1
102
RTVSPropertyOp61
 70
     1
102
RTVSPropertyOp62
 70
     1
  0
XRECORD
  5
539
102
{ACAD_REACTORS
330
538
102
}
330
538
100
AcDbXrecord
280
     1
102
RTVSPost2010Prop28
280
     0
102
RTVSPost2010PropOp28
 70
     1
102
RTVSPost2010Prop29
280
     1
102
RTVSPost2010PropOp29
 70
     1
102
RTVSPost2010Prop30
280
     1
102
RTVSPost2010PropOp30
 70
     1
102
RTVSPost2010Prop31
280
     0
102
RTVSPost2010PropOp31
 70
     1
102
RTVSPost2010Prop32
280
     0
102
RTVSPost2010PropOp32
 70
     1
102
RTVSPost2010Prop33
280
     0
102
RTVSPost2010PropOp33
 70
     1
102
RTVSPost2010Prop34
280
     0
102
RTVSPost2010PropOp34
 70
     1
102
RTVSPost2010Prop35
280
     0
102
RTVSPost2010PropOp35
 70
     1
102
RTVSPost2010Prop36
280
     0
102
RTVSPost2010PropOp36
 70
     1
102
RTVSPost2010Prop37
 90
       50
102
RTVSPost2010PropOp37
 70
     1
102
RTVSPost2010Prop38
140
0.0
102
RTVSPost2010PropOp38
 70
     1
102
RTVSPost2010Prop39
140
1.0
102
RTVSPost2010PropOp39
 70
     1
102
RTVSPost2010Prop40
 90
        0
102
RTVSPost2010PropOp40
 70
     1
102
RTVSPost2010Prop41ColorIndex
 90
       18
102
RTVSPost2010Prop41ColorRGB
 90
        0
102
RTVSPost2010PropOp41
 70
     1
102
RTVSPost2010Prop42
 90
       50
102
RTVSPost2010PropOp42
 70
     1
102
RTVSPost2010Prop43
 90
        3
102
RTVSPost2010PropOp43
 70
     1
102
RTVSPost2010Prop44ColorIndex
 90
        5
102
RTVSPost2010Prop44ColorRGB
 90
      255
102
RTVSPost2010PropOp44
 70
     1
102
RTVSPost2010Prop45
280
     0
102
RTVSPost2010PropOp45
 70
     1
102
RTVSPost2010Prop46
 90
       50
102
RTVSPost2010PropOp46
 70
     1
102
RTVSPost2010Prop47
 90
       50
102
RTVSPost2010PropOp47
 70
     1
102
RTVSPost2010Prop48
 90
       50
102
RTVSPost2010PropOp48
 70
     1
102
RTVSPost2010Prop49
280
     0
102
RTVSPost2010PropOp49
 70
     1
102
RTVSPost2010Prop50
 90
       50
102
RTVSPost2010PropOp50
 70
     1
102
RTVSPost2010Prop51ColorIndex
 90
      256
102
RTVSPost2010Prop51ColorRGB
 90
-16777216
102
RTVSPost2010PropOp51
 70
     0
102
RTVSPost2010Prop52
140
1.0
102
RTVSPost2010PropOp52
 70
     0
102
RTVSPost2010Prop53
 90
        2
102
RTVSPost2010PropOp53
 70
     1
102
RTVSPost2010Prop54
  1
strokes_ogs.tif
102
RTVSPost2010PropOp54
 70
     1
102
RTVSPost2010Prop55
280
     0
102
RTVSPost2010PropOp55
 70
     1
102
RTVSPost2010Prop56
140
1.0
102
RTVSPost2010PropOp56
 70
     1
102
RTVSPost2010Prop57
140
1.0
102
RTVSPost2010PropOp57
 70
     1
102
RTVSPropertyOp0
 70
     1
102
RTVSPropertyOp1
 70
     1
102
RTVSPropertyOp2
 70
     1
102
RTVSPropertyOp3
 70
     1
102
RTVSPropertyOp4
 70
     1
102
RTVSPropertyOp5
 70
     1
102
RTVSPropertyOp6
 70
     1
102
RTVSPropertyOp7
 70
     1
102
RTVSPropertyOp8
 70
     1
102
RTVSPropertyOp9
 70
     1
102
RTVSPropertyOp10
 70
     1
102
RTVSPropertyOp11
 70
     1
102
RTVSPropertyOp12
 70
     1
102
RTVSPropertyOp13
 70
     1
102
RTVSPropertyOp14
 70
     1
102
RTVSPropertyOp15
 70
     1
102
RTVSPropertyOp16
 70
     1
102
RTVSPropertyOp17
 70
     1
102
RTVSPropertyOp18
 70
     1
102
RTVSPropertyOp19
 70
     1
102
RTVSPropertyOp20
 70
     1
102
RTVSPropertyOp21
 70
     1
102
RTVSPropertyOp22
 70
     1
102
RTVSPropertyOp23
 70
     1
102
RTVSPropertyOp24
 70
     1
102
RTVSPropertyOp25
 70
     1
102
RTVSPropertyOp26
 70
     1
102
RTVSPropertyOp27
 70
     1
102
RTVSPropertyOp28
 70
     1
102
RTVSPropertyOp29
 70
     1
102
RTVSPropertyOp30
 70
     1
102
RTVSPropertyOp31
 70
     1
102
RTVSPropertyOp32
 70
     1
102
RTVSPropertyOp33
 70
     1
102
RTVSPropertyOp34
 70
     1
102
RTVSPropertyOp35
 70
     1
102
RTVSPropertyOp36
 70
     1
102
RTVSPropertyOp37
 70
     1
102
RTVSPropertyOp38
 70
     1
102
RTVSPropertyOp39
 70
     1
102
RTVSPropertyOp40
 70
     1
102
RTVSPropertyOp41
 70
     1
102
RTVSPropertyOp42
 70
     1
102
RTVSPropertyOp43
 70
     1
102
RTVSPropertyOp44
 70
     1
102
RTVSPropertyOp45
 70
     1
102
RTVSPropertyOp46
 70
     1
102
RTVSPropertyOp47
 70
     1
102
RTVSPropertyOp48
 70
     1
102
RTVSPropertyOp49
 70
     1
102
RTVSPropertyOp50
 70
     1
102
RTVSPropertyOp51
 70
     0
102
RTVSPropertyOp52
 70
     0
102
RTVSPropertyOp53
 70
     1
102
RTVSPropertyOp54
 70
     1
102
RTVSPropertyOp55
 70
     1
102
RTVSPropertyOp56
 70
     1
102
RTVSPropertyOp57
 70
     1
102
RTVSPropertyOp58
 70
     1
102
RTVSPropertyOp59
 70
     1
102
RTVSPropertyOp60
 70
     1
102
RTVSPropertyOp61
 70
     1
102
RTVSPropertyOp62
 70
     1
  0
XRECORD
  5
553
102
{ACAD_REACTORS
330
552
102
}
330
552
100
AcDbXrecord
280
     1
102
RTVSPost2010Prop28
280
     0
102
RTVSPost2010PropOp28
 70
     0
102
RTVSPost2010Prop29
280
     1
102
RTVSPost2010PropOp29
 70
     0
102
RTVSPost2010Prop30
280
     1
102
RTVSPost2010PropOp30
 70
     0
102
RTVSPost2010Prop31
280
     0
102
RTVSPost2010PropOp31
 70
     0
102
RTVSPost2010Prop32
280
     0
102
RTVSPost2010PropOp32
 70
     0
102
RTVSPost2010Prop33
280
     0
102
RTVSPost2010PropOp33
 70
     0
102
RTVSPost2010Prop34
280
     0
102
RTVSPost2010PropOp34
 70
     0
102
RTVSPost2010Prop35
280
     0
102
RTVSPost2010PropOp35
 70
     0
102
RTVSPost2010Prop36
280
     0
102
RTVSPost2010PropOp36
 70
     0
102
RTVSPost2010Prop37
 90
       50
102
RTVSPost2010PropOp37
 70
     0
102
RTVSPost2010Prop38
140
0.0
102
RTVSPost2010PropOp38
 70
     0
102
RTVSPost2010Prop39
140
1.0
102
RTVSPost2010PropOp39
 70
     0
102
RTVSPost2010Prop40
 90
        0
102
RTVSPost2010PropOp40
 70
     0
102
RTVSPost2010Prop41ColorIndex
 90
       18
102
RTVSPost2010Prop41ColorRGB
 90
        0
102
RTVSPost2010PropOp41
 70
     0
102
RTVSPost2010Prop42
 90
       50
102
RTVSPost2010PropOp42
 70
     0
102
RTVSPost2010Prop43
 90
        3
102
RTVSPost2010PropOp43
 70
     0
102
RTVSPost2010Prop44ColorIndex
 90
        5
102
RTVSPost2010Prop44ColorRGB
 90
      255
102
RTVSPost2010PropOp44
 70
     0
102
RTVSPost2010Prop45
280
     0
102
RTVSPost2010PropOp45
 70
     0
102
RTVSPost2010Prop46
 90
       50
102
RTVSPost2010PropOp46
 70
     0
102
RTVSPost2010Prop47
 90
       50
102
RTVSPost2010PropOp47
 70
     0
102
RTVSPost2010Prop48
 90
       50
102
RTVSPost2010PropOp48
 70
     0
102
RTVSPost2010Prop49
280
     0
102
RTVSPost2010PropOp49
 70
     0
102
RTVSPost2010Prop50
 90
       50
102
RTVSPost2010PropOp50
 70
     0
102
RTVSPost2010Prop51ColorIndex
 90
      256
102
RTVSPost2010Prop51ColorRGB
 90
-16777216
102
RTVSPost2010PropOp51
 70
     0
102
RTVSPost2010Prop52
140
1.0
102
RTVSPost2010PropOp52
 70
     0
102
RTVSPost2010Prop53
 90
        2
102
RTVSPost2010PropOp53
 70
     0
102
RTVSPost2010Prop54
  1
strokes_ogs.tif
102
RTVSPost2010PropOp54
 70
     0
102
RTVSPost2010Prop55
280
     0
102
RTVSPost2010PropOp55
 70
     0
102
RTVSPost2010Prop56
140
1.0
102
RTVSPost2010PropOp56
 70
     0
102
RTVSPost2010Prop57
140
1.0
102
RTVSPost2010PropOp57
 70
     0
102
RTVSPropertyOp0
 70
     0
102
RTVSPropertyOp1
 70
     0
102
RTVSPropertyOp2
 70
     0
102
RTVSPropertyOp3
 70
     0
102
RTVSPropertyOp4
 70
     0
102
RTVSPropertyOp5
 70
     0
102
RTVSPropertyOp6
 70
     0
102
RTVSPropertyOp7
 70
     0
102
RTVSPropertyOp8
 70
     0
102
RTVSPropertyOp9
 70
     0
102
RTVSPropertyOp10
 70
     0
102
RTVSPropertyOp11
 70
     0
102
RTVSPropertyOp12
 70
     0
102
RTVSPropertyOp13
 70
     0
102
RTVSPropertyOp14
 70
     2
102
RTVSPropertyOp15
 70
     0
102
RTVSPropertyOp16
 70
     0
102
RTVSPropertyOp17
 70
     0
102
RTVSPropertyOp18
 70
     0
102
RTVSPropertyOp19
 70
     0
102
RTVSPropertyOp20
 70
     0
102
RTVSPropertyOp21
 70
     0
102
RTVSPropertyOp22
 70
     0
102
RTVSPropertyOp23
 70
     0
102
RTVSPropertyOp24
 70
     0
102
RTVSPropertyOp25
 70
     0
102
RTVSPropertyOp26
 70
     0
102
RTVSPropertyOp27
 70
     0
102
RTVSPropertyOp28
 70
     0
102
RTVSPropertyOp29
 70
     0
102
RTVSPropertyOp30
 70
     0
102
RTVSPropertyOp31
 70
     0
102
RTVSPropertyOp32
 70
     0
102
RTVSPropertyOp33
 70
     0
102
RTVSPropertyOp34
 70
     0
102
RTVSPropertyOp35
 70
     0
102
RTVSPropertyOp36
 70
     0
102
RTVSPropertyOp37
 70
     0
102
RTVSPropertyOp38
 70
     0
102
RTVSPropertyOp39
 70
     0
102
RTVSPropertyOp40
 70
     0
102
RTVSPropertyOp41
 70
     0
102
RTVSPropertyOp42
 70
     0
102
RTVSPropertyOp43
 70
     0
102
RTVSPropertyOp44
 70
     0
102
RTVSPropertyOp45
 70
     0
102
RTVSPropertyOp46
 70
     0
102
RTVSPropertyOp47
 70
     0
102
RTVSPropertyOp48
 70
     0
102
RTVSPropertyOp49
 70
     0
102
RTVSPropertyOp50
 70
     0
102
RTVSPropertyOp51
 70
     0
102
RTVSPropertyOp52
 70
     0
102
RTVSPropertyOp53
 70
     0
102
RTVSPropertyOp54
 70
     0
102
RTVSPropertyOp55
 70
     0
102
RTVSPropertyOp56
 70
     0
102
RTVSPropertyOp57
 70
     0
102
RTVSPropertyOp58
 70
     0
102
RTVSPropertyOp59
 70
     0
102
RTVSPropertyOp60
 70
     0
102
RTVSPropertyOp61
 70
     0
102
RTVSPropertyOp62
 70
     0
  0
XRECORD
  5
541
102
{ACAD_REACTORS
330
540
102
}
330
540
100
AcDbXrecord
280
     1
102
RTVSPost2010Prop28
280
     0
102
RTVSPost2010PropOp28
 70
     1
102
RTVSPost2010Prop29
280
     1
102
RTVSPost2010PropOp29
 70
     1
102
RTVSPost2010Prop30
280
     1
102
RTVSPost2010PropOp30
 70
     1
102
RTVSPost2010Prop31
280
     0
102
RTVSPost2010PropOp31
 70
     1
102
RTVSPost2010Prop32
280
     0
102
RTVSPost2010PropOp32
 70
     1
102
RTVSPost2010Prop33
280
     0
102
RTVSPost2010PropOp33
 70
     1
102
RTVSPost2010Prop34
280
     0
102
RTVSPost2010PropOp34
 70
     1
102
RTVSPost2010Prop35
280
     0
102
RTVSPost2010PropOp35
 70
     1
102
RTVSPost2010Prop36
280
     0
102
RTVSPost2010PropOp36
 70
     1
102
RTVSPost2010Prop37
 90
       50
102
RTVSPost2010PropOp37
 70
     1
102
RTVSPost2010Prop38
140
0.0
102
RTVSPost2010PropOp38
 70
     1
102
RTVSPost2010Prop39
140
1.0
102
RTVSPost2010PropOp39
 70
     1
102
RTVSPost2010Prop40
 90
        0
102
RTVSPost2010PropOp40
 70
     1
102
RTVSPost2010Prop41ColorIndex
 90
       18
102
RTVSPost2010Prop41ColorRGB
 90
        0
102
RTVSPost2010PropOp41
 70
     1
102
RTVSPost2010Prop42
 90
       50
102
RTVSPost2010PropOp42
 70
     1
102
RTVSPost2010Prop43
 90
        3
102
RTVSPost2010PropOp43
 70
     1
102
RTVSPost2010Prop44ColorIndex
 90
        5
102
RTVSPost2010Prop44ColorRGB
 90
      255
102
RTVSPost2010PropOp44
 70
     1
102
RTVSPost2010Prop45
280
     0
102
RTVSPost2010PropOp45
 70
     1
102
RTVSPost2010Prop46
 90
       50
102
RTVSPost2010PropOp46
 70
     1
102
RTVSPost2010Prop47
 90
       50
102
RTVSPost2010PropOp47
 70
     1
102
RTVSPost2010Prop48
 90
       50
102
RTVSPost2010PropOp48
 70
     1
102
RTVSPost2010Prop49
280
     0
102
RTVSPost2010PropOp49
 70
     1
102
RTVSPost2010Prop50
 90
       50
102
RTVSPost2010PropOp50
 70
     1
102
RTVSPost2010Prop51ColorIndex
 90
      256
102
RTVSPost2010Prop51ColorRGB
 90
-16777216
102
RTVSPost2010PropOp51
 70
     0
102
RTVSPost2010Prop52
140
1.0
102
RTVSPost2010PropOp52
 70
     0
102
RTVSPost2010Prop53
 90
        2
102
RTVSPost2010PropOp53
 70
     1
102
RTVSPost2010Prop54
  1
strokes_ogs.tif
102
RTVSPost2010PropOp54
 70
     1
102
RTVSPost2010Prop55
280
     0
102
RTVSPost2010PropOp55
 70
     1
102
RTVSPost2010Prop56
140
1.0
102
RTVSPost2010PropOp56
 70
     1
102
RTVSPost2010Prop57
140
1.0
102
RTVSPost2010PropOp57
 70
     1
102
RTVSPropertyOp0
 70
     1
102
RTVSPropertyOp1
 70
     1
102
RTVSPropertyOp2
 70
     1
102
RTVSPropertyOp3
 70
     1
102
RTVSPropertyOp4
 70
     1
102
RTVSPropertyOp5
 70
     1
102
RTVSPropertyOp6
 70
     1
102
RTVSPropertyOp7
 70
     1
102
RTVSPropertyOp8
 70
     1
102
RTVSPropertyOp9
 70
     1
102
RTVSPropertyOp10
 70
     1
102
RTVSPropertyOp11
 70
     1
102
RTVSPropertyOp12
 70
     1
102
RTVSPropertyOp13
 70
     1
102
RTVSPropertyOp14
 70
     1
102
RTVSPropertyOp15
 70
     1
102
RTVSPropertyOp16
 70
     1
102
RTVSPropertyOp17
 70
     1
102
RTVSPropertyOp18
 70
     1
102
RTVSPropertyOp19
 70
     1
102
RTVSPropertyOp20
 70
     1
102
RTVSPropertyOp21
 70
     1
102
RTVSPropertyOp22
 70
     1
102
RTVSPropertyOp23
 70
     1
102
RTVSPropertyOp24
 70
     1
102
RTVSPropertyOp25
 70
     1
102
RTVSPropertyOp26
 70
     1
102
RTVSPropertyOp27
 70
     1
102
RTVSPropertyOp28
 70
     1
102
RTVSPropertyOp29
 70
     1
102
RTVSPropertyOp30
 70
     1
102
RTVSPropertyOp31
 70
     1
102
RTVSPropertyOp32
 70
     1
102
RTVSPropertyOp33
 70
     1
102
RTVSPropertyOp34
 70
     1
102
RTVSPropertyOp35
 70
     1
102
RTVSPropertyOp36
 70
     1
102
RTVSPropertyOp37
 70
     1
102
RTVSPropertyOp38
 70
     1
102
RTVSPropertyOp39
 70
     1
102
RTVSPropertyOp40
 70
     1
102
RTVSPropertyOp41
 70
     1
102
RTVSPropertyOp42
 70
     1
102
RTVSPropertyOp43
 70
     1
102
RTVSPropertyOp44
 70
     1
102
RTVSPropertyOp45
 70
     1
102
RTVSPropertyOp46
 70
     1
102
RTVSPropertyOp47
 70
     1
102
RTVSPropertyOp48
 70
     1
102
RTVSPropertyOp49
 70
     1
102
RTVSPropertyOp50
 70
     1
102
RTVSPropertyOp51
 70
     0
102
RTVSPropertyOp52
 70
     0
102
RTVSPropertyOp53
 70
     1
102
RTVSPropertyOp54
 70
     1
102
RTVSPropertyOp55
 70
     1
102
RTVSPropertyOp56
 70
     1
102
RTVSPropertyOp57
 70
     1
102
RTVSPropertyOp58
 70
     1
102
RTVSPropertyOp59
 70
     1
102
RTVSPropertyOp60
 70
     1
102
RTVSPropertyOp61
 70
     1
102
RTVSPropertyOp62
 70
     1
  0
XRECORD
  5
525
102
{ACAD_REACTORS
330
524
102
}
330
524
100
AcDbXrecord
280
     1
102
RTVSPost2010Prop28
280
     0
102
RTVSPost2010PropOp28
 70
     1
102
RTVSPost2010Prop29
280
     1
102
RTVSPost2010PropOp29
 70
     1
102
RTVSPost2010Prop30
280
     1
102
RTVSPost2010PropOp30
 70
     1
102
RTVSPost2010Prop31
280
     0
102
RTVSPost2010PropOp31
 70
     1
102
RTVSPost2010Prop32
280
     0
102
RTVSPost2010PropOp32
 70
     1
102
RTVSPost2010Prop33
280
     0
102
RTVSPost2010PropOp33
 70
     1
102
RTVSPost2010Prop34
280
     0
102
RTVSPost2010PropOp34
 70
     1
102
RTVSPost2010Prop35
280
     0
102
RTVSPost2010PropOp35
 70
     1
102
RTVSPost2010Prop36
280
     0
102
RTVSPost2010PropOp36
 70
     1
102
RTVSPost2010Prop37
 90
       50
102
RTVSPost2010PropOp37
 70
     1
102
RTVSPost2010Prop38
140
0.0
102
RTVSPost2010PropOp38
 70
     1
102
RTVSPost2010Prop39
140
1.0
102
RTVSPost2010PropOp39
 70
     1
102
RTVSPost2010Prop40
 90
        0
102
RTVSPost2010PropOp40
 70
     1
102
RTVSPost2010Prop41ColorIndex
 90
       18
102
RTVSPost2010Prop41ColorRGB
 90
        0
102
RTVSPost2010PropOp41
 70
     1
102
RTVSPost2010Prop42
 90
       50
102
RTVSPost2010PropOp42
 70
     1
102
RTVSPost2010Prop43
 90
        3
102
RTVSPost2010PropOp43
 70
     1
102
RTVSPost2010Prop44ColorIndex
 90
        5
102
RTVSPost2010Prop44ColorRGB
 90
      255
102
RTVSPost2010PropOp44
 70
     1
102
RTVSPost2010Prop45
280
     0
102
RTVSPost2010PropOp45
 70
     1
102
RTVSPost2010Prop46
 90
       50
102
RTVSPost2010PropOp46
 70
     1
102
RTVSPost2010Prop47
 90
       50
102
RTVSPost2010PropOp47
 70
     1
102
RTVSPost2010Prop48
 90
       50
102
RTVSPost2010PropOp48
 70
     1
102
RTVSPost2010Prop49
280
     0
102
RTVSPost2010PropOp49
 70
     1
102
RTVSPost2010Prop50
 90
       50
102
RTVSPost2010PropOp50
 70
     1
102
RTVSPost2010Prop51ColorIndex
 90
      256
102
RTVSPost2010Prop51ColorRGB
 90
-16777216
102
RTVSPost2010PropOp51
 70
     0
102
RTVSPost2010Prop52
140
1.0
102
RTVSPost2010PropOp52
 70
     0
102
RTVSPost2010Prop53
 90
        2
102
RTVSPost2010PropOp53
 70
     1
102
RTVSPost2010Prop54
  1
strokes_ogs.tif
102
RTVSPost2010PropOp54
 70
     1
102
RTVSPost2010Prop55
280
     0
102
RTVSPost2010PropOp55
 70
     1
102
RTVSPost2010Prop56
140
1.0
102
RTVSPost2010PropOp56
 70
     1
102
RTVSPost2010Prop57
140
1.0
102
RTVSPost2010PropOp57
 70
     1
102
RTVSPropertyOp0
 70
     1
102
RTVSPropertyOp1
 70
     1
102
RTVSPropertyOp2
 70
     1
102
RTVSPropertyOp3
 70
     1
102
RTVSPropertyOp4
 70
     1
102
RTVSPropertyOp5
 70
     1
102
RTVSPropertyOp6
 70
     1
102
RTVSPropertyOp7
 70
     1
102
RTVSPropertyOp8
 70
     1
102
RTVSPropertyOp9
 70
     1
102
RTVSPropertyOp10
 70
     1
102
RTVSPropertyOp11
 70
     1
102
RTVSPropertyOp12
 70
     1
102
RTVSPropertyOp13
 70
     1
102
RTVSPropertyOp14
 70
     1
102
RTVSPropertyOp15
 70
     1
102
RTVSPropertyOp16
 70
     1
102
RTVSPropertyOp17
 70
     1
102
RTVSPropertyOp18
 70
     1
102
RTVSPropertyOp19
 70
     1
102
RTVSPropertyOp20
 70
     1
102
RTVSPropertyOp21
 70
     1
102
RTVSPropertyOp22
 70
     1
102
RTVSPropertyOp23
 70
     1
102
RTVSPropertyOp24
 70
     1
102
RTVSPropertyOp25
 70
     1
102
RTVSPropertyOp26
 70
     1
102
RTVSPropertyOp27
 70
     1
102
RTVSPropertyOp28
 70
     1
102
RTVSPropertyOp29
 70
     1
102
RTVSPropertyOp30
 70
     1
102
RTVSPropertyOp31
 70
     1
102
RTVSPropertyOp32
 70
     1
102
RTVSPropertyOp33
 70
     1
102
RTVSPropertyOp34
 70
     1
102
RTVSPropertyOp35
 70
     1
102
RTVSPropertyOp36
 70
     1
102
RTVSPropertyOp37
 70
     1
102
RTVSPropertyOp38
 70
     1
102
RTVSPropertyOp39
 70
     1
102
RTVSPropertyOp40
 70
     1
102
RTVSPropertyOp41
 70
     1
102
RTVSPropertyOp42
 70
     1
102
RTVSPropertyOp43
 70
     1
102
RTVSPropertyOp44
 70
     1
102
RTVSPropertyOp45
 70
     1
102
RTVSPropertyOp46
 70
     1
102
RTVSPropertyOp47
 70
     1
102
RTVSPropertyOp48
 70
     1
102
RTVSPropertyOp49
 70
     1
102
RTVSPropertyOp50
 70
     1
102
RTVSPropertyOp51
 70
     0
102
RTVSPropertyOp52
 70
     0
102
RTVSPropertyOp53
 70
     1
102
RTVSPropertyOp54
 70
     1
102
RTVSPropertyOp55
 70
     1
102
RTVSPropertyOp56
 70
     1
102
RTVSPropertyOp57
 70
     1
102
RTVSPropertyOp58
 70
     1
102
RTVSPropertyOp59
 70
     1
102
RTVSPropertyOp60
 70
     1
102
RTVSPropertyOp61
 70
     1
102
RTVSPropertyOp62
 70
     1
  0
XRECORD
  5
527
102
{ACAD_REACTORS
330
526
102
}
330
526
100
AcDbXrecord
280
     1
102
RTVSPost2010Prop28
280
     0
102
RTVSPost2010PropOp28
 70
     1
102
RTVSPost2010Prop29
280
     1
102
RTVSPost2010PropOp29
 70
     1
102
RTVSPost2010Prop30
280
     1
102
RTVSPost2010PropOp30
 70
     1
102
RTVSPost2010Prop31
280
     0
102
RTVSPost2010PropOp31
 70
     1
102
RTVSPost2010Prop32
280
     0
102
RTVSPost2010PropOp32
 70
     1
102
RTVSPost2010Prop33
280
     0
102
RTVSPost2010PropOp33
 70
     1
102
RTVSPost2010Prop34
280
     0
102
RTVSPost2010PropOp34
 70
     1
102
RTVSPost2010Prop35
280
     0
102
RTVSPost2010PropOp35
 70
     1
102
RTVSPost2010Prop36
280
     0
102
RTVSPost2010PropOp36
 70
     1
102
RTVSPost2010Prop37
 90
       50
102
RTVSPost2010PropOp37
 70
     1
102
RTVSPost2010Prop38
140
0.0
102
RTVSPost2010PropOp38
 70
     1
102
RTVSPost2010Prop39
140
1.0
102
RTVSPost2010PropOp39
 70
     1
102
RTVSPost2010Prop40
 90
        0
102
RTVSPost2010PropOp40
 70
     1
102
RTVSPost2010Prop41ColorIndex
 90
       18
102
RTVSPost2010Prop41ColorRGB
 90
        0
102
RTVSPost2010PropOp41
 70
     1
102
RTVSPost2010Prop42
 90
       50
102
RTVSPost2010PropOp42
 70
     1
102
RTVSPost2010Prop43
 90
        3
102
RTVSPost2010PropOp43
 70
     1
102
RTVSPost2010Prop44ColorIndex
 90
        5
102
RTVSPost2010Prop44ColorRGB
 90
      255
102
RTVSPost2010PropOp44
 70
     1
102
RTVSPost2010Prop45
280
     0
102
RTVSPost2010PropOp45
 70
     1
102
RTVSPost2010Prop46
 90
       50
102
RTVSPost2010PropOp46
 70
     1
102
RTVSPost2010Prop47
 90
       50
102
RTVSPost2010PropOp47
 70
     1
102
RTVSPost2010Prop48
 90
       50
102
RTVSPost2010PropOp48
 70
     1
102
RTVSPost2010Prop49
280
     0
102
RTVSPost2010PropOp49
 70
     1
102
RTVSPost2010Prop50
 90
       50
102
RTVSPost2010PropOp50
 70
     1
102
RTVSPost2010Prop51ColorIndex
 90
      256
102
RTVSPost2010Prop51ColorRGB
 90
-16777216
102
RTVSPost2010PropOp51
 70
     0
102
RTVSPost2010Prop52
140
1.0
102
RTVSPost2010PropOp52
 70
     0
102
RTVSPost2010Prop53
 90
        2
102
RTVSPost2010PropOp53
 70
     1
102
RTVSPost2010Prop54
  1
strokes_ogs.tif
102
RTVSPost2010PropOp54
 70
     1
102
RTVSPost2010Prop55
280
     0
102
RTVSPost2010PropOp55
 70
     1
102
RTVSPost2010Prop56
140
1.0
102
RTVSPost2010PropOp56
 70
     1
102
RTVSPost2010Prop57
140
1.0
102
RTVSPost2010PropOp57
 70
     1
102
RTVSPropertyOp0
 70
     1
102
RTVSPropertyOp1
 70
     1
102
RTVSPropertyOp2
 70
     1
102
RTVSPropertyOp3
 70
     1
102
RTVSPropertyOp4
 70
     1
102
RTVSPropertyOp5
 70
     1
102
RTVSPropertyOp6
 70
     1
102
RTVSPropertyOp7
 70
     1
102
RTVSPropertyOp8
 70
     1
102
RTVSPropertyOp9
 70
     1
102
RTVSPropertyOp10
 70
     1
102
RTVSPropertyOp11
 70
     1
102
RTVSPropertyOp12
 70
     1
102
RTVSPropertyOp13
 70
     1
102
RTVSPropertyOp14
 70
     1
102
RTVSPropertyOp15
 70
     1
102
RTVSPropertyOp16
 70
     1
102
RTVSPropertyOp17
 70
     1
102
RTVSPropertyOp18
 70
     1
102
RTVSPropertyOp19
 70
     1
102
RTVSPropertyOp20
 70
     1
102
RTVSPropertyOp21
 70
     1
102
RTVSPropertyOp22
 70
     1
102
RTVSPropertyOp23
 70
     1
102
RTVSPropertyOp24
 70
     1
102
RTVSPropertyOp25
 70
     1
102
RTVSPropertyOp26
 70
     1
102
RTVSPropertyOp27
 70
     1
102
RTVSPropertyOp28
 70
     1
102
RTVSPropertyOp29
 70
     1
102
RTVSPropertyOp30
 70
     1
102
RTVSPropertyOp31
 70
     1
102
RTVSPropertyOp32
 70
     1
102
RTVSPropertyOp33
 70
     1
102
RTVSPropertyOp34
 70
     1
102
RTVSPropertyOp35
 70
     1
102
RTVSPropertyOp36
 70
     1
102
RTVSPropertyOp37
 70
     1
102
RTVSPropertyOp38
 70
     1
102
RTVSPropertyOp39
 70
     1
102
RTVSPropertyOp40
 70
     1
102
RTVSPropertyOp41
 70
     1
102
RTVSPropertyOp42
 70
     1
102
RTVSPropertyOp43
 70
     1
102
RTVSPropertyOp44
 70
     1
102
RTVSPropertyOp45
 70
     1
102
RTVSPropertyOp46
 70
     1
102
RTVSPropertyOp47
 70
     1
102
RTVSPropertyOp48
 70
     1
102
RTVSPropertyOp49
 70
     1
102
RTVSPropertyOp50
 70
     1
102
RTVSPropertyOp51
 70
     0
102
RTVSPropertyOp52
 70
     0
102
RTVSPropertyOp53
 70
     1
102
RTVSPropertyOp54
 70
     1
102
RTVSPropertyOp55
 70
     1
102
RTVSPropertyOp56
 70
     1
102
RTVSPropertyOp57
 70
     1
102
RTVSPropertyOp58
 70
     1
102
RTVSPropertyOp59
 70
     1
102
RTVSPropertyOp60
 70
     1
102
RTVSPropertyOp61
 70
     1
102
RTVSPropertyOp62
 70
     1
  0
XRECORD
  5
529
102
{ACAD_REACTORS
330
528
102
}
330
528
100
AcDbXrecord
280
     1
102
RTVSPost2010Prop28
280
     0
102
RTVSPost2010PropOp28
 70
     1
102
RTVSPost2010Prop29
280
     1
102
RTVSPost2010PropOp29
 70
     1
102
RTVSPost2010Prop30
280
     1
102
RTVSPost2010PropOp30
 70
     1
102
RTVSPost2010Prop31
280
     0
102
RTVSPost2010PropOp31
 70
     1
102
RTVSPost2010Prop32
280
     0
102
RTVSPost2010PropOp32
 70
     1
102
RTVSPost2010Prop33
280
     0
102
RTVSPost2010PropOp33
 70
     1
102
RTVSPost2010Prop34
280
     0
102
RTVSPost2010PropOp34
 70
     1
102
RTVSPost2010Prop35
280
     0
102
RTVSPost2010PropOp35
 70
     1
102
RTVSPost2010Prop36
280
     0
102
RTVSPost2010PropOp36
 70
     1
102
RTVSPost2010Prop37
 90
       50
102
RTVSPost2010PropOp37
 70
     1
102
RTVSPost2010Prop38
140
0.0
102
RTVSPost2010PropOp38
 70
     1
102
RTVSPost2010Prop39
140
1.0
102
RTVSPost2010PropOp39
 70
     1
102
RTVSPost2010Prop40
 90
        0
102
RTVSPost2010PropOp40
 70
     1
102
RTVSPost2010Prop41ColorIndex
 90
       18
102
RTVSPost2010Prop41ColorRGB
 90
        0
102
RTVSPost2010PropOp41
 70
     1
102
RTVSPost2010Prop42
 90
       50
102
RTVSPost2010PropOp42
 70
     1
102
RTVSPost2010Prop43
 90
        3
102
RTVSPost2010PropOp43
 70
     1
102
RTVSPost2010Prop44ColorIndex
 90
        5
102
RTVSPost2010Prop44ColorRGB
 90
      255
102
RTVSPost2010PropOp44
 70
     1
102
RTVSPost2010Prop45
280
     0
102
RTVSPost2010PropOp45
 70
     1
102
RTVSPost2010Prop46
 90
       50
102
RTVSPost2010PropOp46
 70
     1
102
RTVSPost2010Prop47
 90
       50
102
RTVSPost2010PropOp47
 70
     1
102
RTVSPost2010Prop48
 90
       50
102
RTVSPost2010PropOp48
 70
     1
102
RTVSPost2010Prop49
280
     0
102
RTVSPost2010PropOp49
 70
     1
102
RTVSPost2010Prop50
 90
       50
102
RTVSPost2010PropOp50
 70
     1
102
RTVSPost2010Prop51ColorIndex
 90
      256
102
RTVSPost2010Prop51ColorRGB
 90
-16777216
102
RTVSPost2010PropOp51
 70
     0
102
RTVSPost2010Prop52
140
1.0
102
RTVSPost2010PropOp52
 70
     0
102
RTVSPost2010Prop53
 90
        2
102
RTVSPost2010PropOp53
 70
     1
102
RTVSPost2010Prop54
  1
strokes_ogs.tif
102
RTVSPost2010PropOp54
 70
     1
102
RTVSPost2010Prop55
280
     0
102
RTVSPost2010PropOp55
 70
     1
102
RTVSPost2010Prop56
140
1.0
102
RTVSPost2010PropOp56
 70
     1
102
RTVSPost2010Prop57
140
1.0
102
RTVSPost2010PropOp57
 70
     1
102
RTVSPropertyOp0
 70
     1
102
RTVSPropertyOp1
 70
     1
102
RTVSPropertyOp2
 70
     1
102
RTVSPropertyOp3
 70
     1
102
RTVSPropertyOp4
 70
     1
102
RTVSPropertyOp5
 70
     1
102
RTVSPropertyOp6
 70
     1
102
RTVSPropertyOp7
 70
     1
102
RTVSPropertyOp8
 70
     1
102
RTVSPropertyOp9
 70
     1
102
RTVSPropertyOp10
 70
     1
102
RTVSPropertyOp11
 70
     1
102
RTVSPropertyOp12
 70
     1
102
RTVSPropertyOp13
 70
     1
102
RTVSPropertyOp14
 70
     1
102
RTVSPropertyOp15
 70
     1
102
RTVSPropertyOp16
 70
     1
102
RTVSPropertyOp17
 70
     1
102
RTVSPropertyOp18
 70
     1
102
RTVSPropertyOp19
 70
     1
102
RTVSPropertyOp20
 70
     1
102
RTVSPropertyOp21
 70
     1
102
RTVSPropertyOp22
 70
     1
102
RTVSPropertyOp23
 70
     1
102
RTVSPropertyOp24
 70
     1
102
RTVSPropertyOp25
 70
     1
102
RTVSPropertyOp26
 70
     1
102
RTVSPropertyOp27
 70
     1
102
RTVSPropertyOp28
 70
     1
102
RTVSPropertyOp29
 70
     1
102
RTVSPropertyOp30
 70
     1
102
RTVSPropertyOp31
 70
     1
102
RTVSPropertyOp32
 70
     1
102
RTVSPropertyOp33
 70
     1
102
RTVSPropertyOp34
 70
     1
102
RTVSPropertyOp35
 70
     1
102
RTVSPropertyOp36
 70
     1
102
RTVSPropertyOp37
 70
     1
102
RTVSPropertyOp38
 70
     1
102
RTVSPropertyOp39
 70
     1
102
RTVSPropertyOp40
 70
     1
102
RTVSPropertyOp41
 70
     1
102
RTVSPropertyOp42
 70
     1
102
RTVSPropertyOp43
 70
     1
102
RTVSPropertyOp44
 70
     1
102
RTVSPropertyOp45
 70
     1
102
RTVSPropertyOp46
 70
     1
102
RTVSPropertyOp47
 70
     1
102
RTVSPropertyOp48
 70
     1
102
RTVSPropertyOp49
 70
     1
102
RTVSPropertyOp50
 70
     1
102
RTVSPropertyOp51
 70
     0
102
RTVSPropertyOp52
 70
     0
102
RTVSPropertyOp53
 70
     1
102
RTVSPropertyOp54
 70
     1
102
RTVSPropertyOp55
 70
     1
102
RTVSPropertyOp56
 70
     1
102
RTVSPropertyOp57
 70
     1
102
RTVSPropertyOp58
 70
     1
102
RTVSPropertyOp59
 70
     1
102
RTVSPropertyOp60
 70
     1
102
RTVSPropertyOp61
 70
     1
102
RTVSPropertyOp62
 70
     1
  0
XRECORD
  5
52B
102
{ACAD_REACTORS
330
52A
102
}
330
52A
100
AcDbXrecord
280
     1
102
RTVSPost2010Prop28
280
     0
102
RTVSPost2010PropOp28
 70
     1
102
RTVSPost2010Prop29
280
     1
102
RTVSPost2010PropOp29
 70
     1
102
RTVSPost2010Prop30
280
     1
102
RTVSPost2010PropOp30
 70
     1
102
RTVSPost2010Prop31
280
     0
102
RTVSPost2010PropOp31
 70
     1
102
RTVSPost2010Prop32
280
     0
102
RTVSPost2010PropOp32
 70
     1
102
RTVSPost2010Prop33
280
     0
102
RTVSPost2010PropOp33
 70
     1
102
RTVSPost2010Prop34
280
     0
102
RTVSPost2010PropOp34
 70
     1
102
RTVSPost2010Prop35
280
     0
102
RTVSPost2010PropOp35
 70
     1
102
RTVSPost2010Prop36
280
     0
102
RTVSPost2010PropOp36
 70
     1
102
RTVSPost2010Prop37
 90
       50
102
RTVSPost2010PropOp37
 70
     1
102
RTVSPost2010Prop38
140
0.0
102
RTVSPost2010PropOp38
 70
     1
102
RTVSPost2010Prop39
140
1.0
102
RTVSPost2010PropOp39
 70
     1
102
RTVSPost2010Prop40
 90
        0
102
RTVSPost2010PropOp40
 70
     1
102
RTVSPost2010Prop41ColorIndex
 90
       18
102
RTVSPost2010Prop41ColorRGB
 90
        0
102
RTVSPost2010PropOp41
 70
     1
102
RTVSPost2010Prop42
 90
       50
102
RTVSPost2010PropOp42
 70
     1
102
RTVSPost2010Prop43
 90
        3
102
RTVSPost2010PropOp43
 70
     1
102
RTVSPost2010Prop44ColorIndex
 90
        5
102
RTVSPost2010Prop44ColorRGB
 90
      255
102
RTVSPost2010PropOp44
 70
     1
102
RTVSPost2010Prop45
280
     0
102
RTVSPost2010PropOp45
 70
     1
102
RTVSPost2010Prop46
 90
       50
102
RTVSPost2010PropOp46
 70
     1
102
RTVSPost2010Prop47
 90
       50
102
RTVSPost2010PropOp47
 70
     1
102
RTVSPost2010Prop48
 90
       50
102
RTVSPost2010PropOp48
 70
     1
102
RTVSPost2010Prop49
280
     0
102
RTVSPost2010PropOp49
 70
     1
102
RTVSPost2010Prop50
 90
       50
102
RTVSPost2010PropOp50
 70
     1
102
RTVSPost2010Prop51ColorIndex
 90
      256
102
RTVSPost2010Prop51ColorRGB
 90
-16777216
102
RTVSPost2010PropOp51
 70
     0
102
RTVSPost2010Prop52
140
1.0
102
RTVSPost2010PropOp52
 70
     0
102
RTVSPost2010Prop53
 90
        2
102
RTVSPost2010PropOp53
 70
     1
102
RTVSPost2010Prop54
  1
strokes_ogs.tif
102
RTVSPost2010PropOp54
 70
     1
102
RTVSPost2010Prop55
280
     0
102
RTVSPost2010PropOp55
 70
     1
102
RTVSPost2010Prop56
140
1.0
102
RTVSPost2010PropOp56
 70
     1
102
RTVSPost2010Prop57
140
1.0
102
RTVSPost2010PropOp57
 70
     1
102
RTVSPropertyOp0
 70
     1
102
RTVSPropertyOp1
 70
     1
102
RTVSPropertyOp2
 70
     1
102
RTVSPropertyOp3
 70
     1
102
RTVSPropertyOp4
 70
     1
102
RTVSPropertyOp5
 70
     1
102
RTVSPropertyOp6
 70
     1
102
RTVSPropertyOp7
 70
     1
102
RTVSPropertyOp8
 70
     1
102
RTVSPropertyOp9
 70
     1
102
RTVSPropertyOp10
 70
     1
102
RTVSPropertyOp11
 70
     1
102
RTVSPropertyOp12
 70
     1
102
RTVSPropertyOp13
 70
     1
102
RTVSPropertyOp14
 70
     1
102
RTVSPropertyOp15
 70
     1
102
RTVSPropertyOp16
 70
     1
102
RTVSPropertyOp17
 70
     1
102
RTVSPropertyOp18
 70
     1
102
RTVSPropertyOp19
 70
     1
102
RTVSPropertyOp20
 70
     1
102
RTVSPropertyOp21
 70
     1
102
RTVSPropertyOp22
 70
     1
102
RTVSPropertyOp23
 70
     1
102
RTVSPropertyOp24
 70
     1
102
RTVSPropertyOp25
 70
     1
102
RTVSPropertyOp26
 70
     1
102
RTVSPropertyOp27
 70
     1
102
RTVSPropertyOp28
 70
     1
102
RTVSPropertyOp29
 70
     1
102
RTVSPropertyOp30
 70
     1
102
RTVSPropertyOp31
 70
     1
102
RTVSPropertyOp32
 70
     1
102
RTVSPropertyOp33
 70
     1
102
RTVSPropertyOp34
 70
     1
102
RTVSPropertyOp35
 70
     1
102
RTVSPropertyOp36
 70
     1
102
RTVSPropertyOp37
 70
     1
102
RTVSPropertyOp38
 70
     1
102
RTVSPropertyOp39
 70
     1
102
RTVSPropertyOp40
 70
     1
102
RTVSPropertyOp41
 70
     1
102
RTVSPropertyOp42
 70
     1
102
RTVSPropertyOp43
 70
     1
102
RTVSPropertyOp44
 70
     1
102
RTVSPropertyOp45
 70
     1
102
RTVSPropertyOp46
 70
     1
102
RTVSPropertyOp47
 70
     1
102
RTVSPropertyOp48
 70
     1
102
RTVSPropertyOp49
 70
     1
102
RTVSPropertyOp50
 70
     1
102
RTVSPropertyOp51
 70
     0
102
RTVSPropertyOp52
 70
     0
102
RTVSPropertyOp53
 70
     1
102
RTVSPropertyOp54
 70
     1
102
RTVSPropertyOp55
 70
     1
102
RTVSPropertyOp56
 70
     1
102
RTVSPropertyOp57
 70
     1
102
RTVSPropertyOp58
 70
     1
102
RTVSPropertyOp59
 70
     1
102
RTVSPropertyOp60
 70
     1
102
RTVSPropertyOp61
 70
     1
102
RTVSPropertyOp62
 70
     1
  0
XRECORD
  5
533
102
{ACAD_REACTORS
330
532
102
}
330
532
100
AcDbXrecord
280
     1
102
RTVSPost2010Prop28
280
     0
102
RTVSPost2010PropOp28
 70
     1
102
RTVSPost2010Prop29
280
     1
102
RTVSPost2010PropOp29
 70
     1
102
RTVSPost2010Prop30
280
     1
102
RTVSPost2010PropOp30
 70
     1
102
RTVSPost2010Prop31
280
     0
102
RTVSPost2010PropOp31
 70
     1
102
RTVSPost2010Prop32
280
     0
102
RTVSPost2010PropOp32
 70
     1
102
RTVSPost2010Prop33
280
     0
102
RTVSPost2010PropOp33
 70
     1
102
RTVSPost2010Prop34
280
     0
102
RTVSPost2010PropOp34
 70
     1
102
RTVSPost2010Prop35
280
     0
102
RTVSPost2010PropOp35
 70
     1
102
RTVSPost2010Prop36
280
     0
102
RTVSPost2010PropOp36
 70
     1
102
RTVSPost2010Prop37
 90
       50
102
RTVSPost2010PropOp37
 70
     1
102
RTVSPost2010Prop38
140
0.0
102
RTVSPost2010PropOp38
 70
     1
102
RTVSPost2010Prop39
140
1.0
102
RTVSPost2010PropOp39
 70
     1
102
RTVSPost2010Prop40
 90
        0
102
RTVSPost2010PropOp40
 70
     1
102
RTVSPost2010Prop41ColorIndex
 90
       18
102
RTVSPost2010Prop41ColorRGB
 90
        0
102
RTVSPost2010PropOp41
 70
     1
102
RTVSPost2010Prop42
 90
       50
102
RTVSPost2010PropOp42
 70
     1
102
RTVSPost2010Prop43
 90
        3
102
RTVSPost2010PropOp43
 70
     1
102
RTVSPost2010Prop44ColorIndex
 90
        5
102
RTVSPost2010Prop44ColorRGB
 90
      255
102
RTVSPost2010PropOp44
 70
     1
102
RTVSPost2010Prop45
280
     0
102
RTVSPost2010PropOp45
 70
     1
102
RTVSPost2010Prop46
 90
       50
102
RTVSPost2010PropOp46
 70
     1
102
RTVSPost2010Prop47
 90
       50
102
RTVSPost2010PropOp47
 70
     1
102
RTVSPost2010Prop48
 90
       50
102
RTVSPost2010PropOp48
 70
     1
102
RTVSPost2010Prop49
280
     0
102
RTVSPost2010PropOp49
 70
     1
102
RTVSPost2010Prop50
 90
       50
102
RTVSPost2010PropOp50
 70
     1
102
RTVSPost2010Prop51ColorIndex
 90
      256
102
RTVSPost2010Prop51ColorRGB
 90
-16777216
102
RTVSPost2010PropOp51
 70
     0
102
RTVSPost2010Prop52
140
1.0
102
RTVSPost2010PropOp52
 70
     0
102
RTVSPost2010Prop53
 90
        2
102
RTVSPost2010PropOp53
 70
     1
102
RTVSPost2010Prop54
  1
strokes_ogs.tif
102
RTVSPost2010PropOp54
 70
     1
102
RTVSPost2010Prop55
280
     0
102
RTVSPost2010PropOp55
 70
     1
102
RTVSPost2010Prop56
140
1.0
102
RTVSPost2010PropOp56
 70
     1
102
RTVSPost2010Prop57
140
1.0
102
RTVSPost2010PropOp57
 70
     1
102
RTVSPropertyOp0
 70
     1
102
RTVSPropertyOp1
 70
     1
102
RTVSPropertyOp2
 70
     1
102
RTVSPropertyOp3
 70
     1
102
RTVSPropertyOp4
 70
     1
102
RTVSPropertyOp5
 70
     1
102
RTVSPropertyOp6
 70
     1
102
RTVSPropertyOp7
 70
     1
102
RTVSPropertyOp8
 70
     1
102
RTVSPropertyOp9
 70
     1
102
RTVSPropertyOp10
 70
     1
102
RTVSPropertyOp11
 70
     1
102
RTVSPropertyOp12
 70
     1
102
RTVSPropertyOp13
 70
     1
102
RTVSPropertyOp14
 70
     1
102
RTVSPropertyOp15
 70
     1
102
RTVSPropertyOp16
 70
     1
102
RTVSPropertyOp17
 70
     1
102
RTVSPropertyOp18
 70
     1
102
RTVSPropertyOp19
 70
     1
102
RTVSPropertyOp20
 70
     1
102
RTVSPropertyOp21
 70
     1
102
RTVSPropertyOp22
 70
     1
102
RTVSPropertyOp23
 70
     1
102
RTVSPropertyOp24
 70
     1
102
RTVSPropertyOp25
 70
     1
102
RTVSPropertyOp26
 70
     1
102
RTVSPropertyOp27
 70
     1
102
RTVSPropertyOp28
 70
     1
102
RTVSPropertyOp29
 70
     1
102
RTVSPropertyOp30
 70
     1
102
RTVSPropertyOp31
 70
     1
102
RTVSPropertyOp32
 70
     1
102
RTVSPropertyOp33
 70
     1
102
RTVSPropertyOp34
 70
     1
102
RTVSPropertyOp35
 70
     1
102
RTVSPropertyOp36
 70
     1
102
RTVSPropertyOp37
 70
     1
102
RTVSPropertyOp38
 70
     1
102
RTVSPropertyOp39
 70
     1
102
RTVSPropertyOp40
 70
     1
102
RTVSPropertyOp41
 70
     1
102
RTVSPropertyOp42
 70
     1
102
RTVSPropertyOp43
 70
     1
102
RTVSPropertyOp44
 70
     1
102
RTVSPropertyOp45
 70
     1
102
RTVSPropertyOp46
 70
     1
102
RTVSPropertyOp47
 70
     1
102
RTVSPropertyOp48
 70
     1
102
RTVSPropertyOp49
 70
     1
102
RTVSPropertyOp50
 70
     1
102
RTVSPropertyOp51
 70
     0
102
RTVSPropertyOp52
 70
     0
102
RTVSPropertyOp53
 70
     1
102
RTVSPropertyOp54
 70
     1
102
RTVSPropertyOp55
 70
     1
102
RTVSPropertyOp56
 70
     1
102
RTVSPropertyOp57
 70
     1
102
RTVSPropertyOp58
 70
     1
102
RTVSPropertyOp59
 70
     1
102
RTVSPropertyOp60
 70
     1
102
RTVSPropertyOp61
 70
     1
102
RTVSPropertyOp62
 70
     1
  0
XRECORD
  5
54F
102
{ACAD_REACTORS
330
54E
102
}
330
54E
100
AcDbXrecord
280
     1
102
RTVSPost2010Prop28
280
     0
102
RTVSPost2010PropOp28
 70
     0
102
RTVSPost2010Prop29
280
     1
102
RTVSPost2010PropOp29
 70
     0
102
RTVSPost2010Prop30
280
     1
102
RTVSPost2010PropOp30
 70
     0
102
RTVSPost2010Prop31
280
     0
102
RTVSPost2010PropOp31
 70
     0
102
RTVSPost2010Prop32
280
     0
102
RTVSPost2010PropOp32
 70
     0
102
RTVSPost2010Prop33
280
     0
102
RTVSPost2010PropOp33
 70
     0
102
RTVSPost2010Prop34
280
     0
102
RTVSPost2010PropOp34
 70
     0
102
RTVSPost2010Prop35
280
     0
102
RTVSPost2010PropOp35
 70
     0
102
RTVSPost2010Prop36
280
     0
102
RTVSPost2010PropOp36
 70
     0
102
RTVSPost2010Prop37
 90
       50
102
RTVSPost2010PropOp37
 70
     0
102
RTVSPost2010Prop38
140
0.0
102
RTVSPost2010PropOp38
 70
     0
102
RTVSPost2010Prop39
140
1.0
102
RTVSPost2010PropOp39
 70
     0
102
RTVSPost2010Prop40
 90
        0
102
RTVSPost2010PropOp40
 70
     0
102
RTVSPost2010Prop41ColorIndex
 90
       18
102
RTVSPost2010Prop41ColorRGB
 90
        0
102
RTVSPost2010PropOp41
 70
     0
102
RTVSPost2010Prop42
 90
       50
102
RTVSPost2010PropOp42
 70
     0
102
RTVSPost2010Prop43
 90
        3
102
RTVSPost2010PropOp43
 70
     0
102
RTVSPost2010Prop44ColorIndex
 90
        5
102
RTVSPost2010Prop44ColorRGB
 90
      255
102
RTVSPost2010PropOp44
 70
     0
102
RTVSPost2010Prop45
280
     0
102
RTVSPost2010PropOp45
 70
     0
102
RTVSPost2010Prop46
 90
       50
102
RTVSPost2010PropOp46
 70
     0
102
RTVSPost2010Prop47
 90
       50
102
RTVSPost2010PropOp47
 70
     0
102
RTVSPost2010Prop48
 90
       50
102
RTVSPost2010PropOp48
 70
     0
102
RTVSPost2010Prop49
280
     0
102
RTVSPost2010PropOp49
 70
     0
102
RTVSPost2010Prop50
 90
       50
102
RTVSPost2010PropOp50
 70
     0
102
RTVSPost2010Prop51ColorIndex
 90
      256
102
RTVSPost2010Prop51ColorRGB
 90
-16777216
102
RTVSPost2010PropOp51
 70
     0
102
RTVSPost2010Prop52
140
1.0
102
RTVSPost2010PropOp52
 70
     0
102
RTVSPost2010Prop53
 90
        2
102
RTVSPost2010PropOp53
 70
     0
102
RTVSPost2010Prop54
  1
strokes_ogs.tif
102
RTVSPost2010PropOp54
 70
     0
102
RTVSPost2010Prop55
280
     0
102
RTVSPost2010PropOp55
 70
     0
102
RTVSPost2010Prop56
140
1.0
102
RTVSPost2010PropOp56
 70
     0
102
RTVSPost2010Prop57
140
1.0
102
RTVSPost2010PropOp57
 70
     0
102
RTVSPropertyOp0
 70
     0
102
RTVSPropertyOp1
 70
     0
102
RTVSPropertyOp2
 70
     0
102
RTVSPropertyOp3
 70
     0
102
RTVSPropertyOp4
 70
     0
102
RTVSPropertyOp5
 70
     0
102
RTVSPropertyOp6
 70
     0
102
RTVSPropertyOp7
 70
     0
102
RTVSPropertyOp8
 70
     0
102
RTVSPropertyOp9
 70
     0
102
RTVSPropertyOp10
 70
     0
102
RTVSPropertyOp11
 70
     0
102
RTVSPropertyOp12
 70
     0
102
RTVSPropertyOp13
 70
     0
102
RTVSPropertyOp14
 70
     2
102
RTVSPropertyOp15
 70
     0
102
RTVSPropertyOp16
 70
     0
102
RTVSPropertyOp17
 70
     0
102
RTVSPropertyOp18
 70
     0
102
RTVSPropertyOp19
 70
     0
102
RTVSPropertyOp20
 70
     0
102
RTVSPropertyOp21
 70
     0
102
RTVSPropertyOp22
 70
     0
102
RTVSPropertyOp23
 70
     0
102
RTVSPropertyOp24
 70
     0
102
RTVSPropertyOp25
 70
     0
102
RTVSPropertyOp26
 70
     0
102
RTVSPropertyOp27
 70
     0
102
RTVSPropertyOp28
 70
     0
102
RTVSPropertyOp29
 70
     0
102
RTVSPropertyOp30
 70
     0
102
RTVSPropertyOp31
 70
     0
102
RTVSPropertyOp32
 70
     0
102
RTVSPropertyOp33
 70
     0
102
RTVSPropertyOp34
 70
     0
102
RTVSPropertyOp35
 70
     0
102
RTVSPropertyOp36
 70
     0
102
RTVSPropertyOp37
 70
     0
102
RTVSPropertyOp38
 70
     0
102
RTVSPropertyOp39
 70
     0
102
RTVSPropertyOp40
 70
     0
102
RTVSPropertyOp41
 70
     0
102
RTVSPropertyOp42
 70
     0
102
RTVSPropertyOp43
 70
     0
102
RTVSPropertyOp44
 70
     0
102
RTVSPropertyOp45
 70
     0
102
RTVSPropertyOp46
 70
     0
102
RTVSPropertyOp47
 70
     0
102
RTVSPropertyOp48
 70
     0
102
RTVSPropertyOp49
 70
     0
102
RTVSPropertyOp50
 70
     0
102
RTVSPropertyOp51
 70
     0
102
RTVSPropertyOp52
 70
     0
102
RTVSPropertyOp53
 70
     0
102
RTVSPropertyOp54
 70
     0
102
RTVSPropertyOp55
 70
     0
102
RTVSPropertyOp56
 70
     0
102
RTVSPropertyOp57
 70
     0
102
RTVSPropertyOp58
 70
     0
102
RTVSPropertyOp59
 70
     0
102
RTVSPropertyOp60
 70
     0
102
RTVSPropertyOp61
 70
     0
102
RTVSPropertyOp62
 70
     0
  0
XRECORD
  5
53F
102
{ACAD_REACTORS
330
53E
102
}
330
53E
100
AcDbXrecord
280
     1
102
RTVSPost2010Prop28
280
     0
102
RTVSPost2010PropOp28
 70
     1
102
RTVSPost2010Prop29
280
     1
102
RTVSPost2010PropOp29
 70
     1
102
RTVSPost2010Prop30
280
     1
102
RTVSPost2010PropOp30
 70
     1
102
RTVSPost2010Prop31
280
     0
102
RTVSPost2010PropOp31
 70
     1
102
RTVSPost2010Prop32
280
     0
102
RTVSPost2010PropOp32
 70
     1
102
RTVSPost2010Prop33
280
     0
102
RTVSPost2010PropOp33
 70
     1
102
RTVSPost2010Prop34
280
     0
102
RTVSPost2010PropOp34
 70
     1
102
RTVSPost2010Prop35
280
     0
102
RTVSPost2010PropOp35
 70
     1
102
RTVSPost2010Prop36
280
     0
102
RTVSPost2010PropOp36
 70
     1
102
RTVSPost2010Prop37
 90
       50
102
RTVSPost2010PropOp37
 70
     1
102
RTVSPost2010Prop38
140
0.0
102
RTVSPost2010PropOp38
 70
     1
102
RTVSPost2010Prop39
140
1.0
102
RTVSPost2010PropOp39
 70
     1
102
RTVSPost2010Prop40
 90
        0
102
RTVSPost2010PropOp40
 70
     1
102
RTVSPost2010Prop41ColorIndex
 90
       18
102
RTVSPost2010Prop41ColorRGB
 90
        0
102
RTVSPost2010PropOp41
 70
     1
102
RTVSPost2010Prop42
 90
       50
102
RTVSPost2010PropOp42
 70
     1
102
RTVSPost2010Prop43
 90
        3
102
RTVSPost2010PropOp43
 70
     1
102
RTVSPost2010Prop44ColorIndex
 90
        5
102
RTVSPost2010Prop44ColorRGB
 90
      255
102
RTVSPost2010PropOp44
 70
     1
102
RTVSPost2010Prop45
280
     0
102
RTVSPost2010PropOp45
 70
     1
102
RTVSPost2010Prop46
 90
       50
102
RTVSPost2010PropOp46
 70
     1
102
RTVSPost2010Prop47
 90
       50
102
RTVSPost2010PropOp47
 70
     1
102
RTVSPost2010Prop48
 90
       50
102
RTVSPost2010PropOp48
 70
     1
102
RTVSPost2010Prop49
280
     0
102
RTVSPost2010PropOp49
 70
     1
102
RTVSPost2010Prop50
 90
       50
102
RTVSPost2010PropOp50
 70
     1
102
RTVSPost2010Prop51ColorIndex
 90
      256
102
RTVSPost2010Prop51ColorRGB
 90
-16777216
102
RTVSPost2010PropOp51
 70
     0
102
RTVSPost2010Prop52
140
1.0
102
RTVSPost2010PropOp52
 70
     0
102
RTVSPost2010Prop53
 90
        2
102
RTVSPost2010PropOp53
 70
     1
102
RTVSPost2010Prop54
  1
strokes_ogs.tif
102
RTVSPost2010PropOp54
 70
     1
102
RTVSPost2010Prop55
280
     0
102
RTVSPost2010PropOp55
 70
     1
102
RTVSPost2010Prop56
140
1.0
102
RTVSPost2010PropOp56
 70
     1
102
RTVSPost2010Prop57
140
1.0
102
RTVSPost2010PropOp57
 70
     1
102
RTVSPropertyOp0
 70
     1
102
RTVSPropertyOp1
 70
     1
102
RTVSPropertyOp2
 70
     1
102
RTVSPropertyOp3
 70
     1
102
RTVSPropertyOp4
 70
     1
102
RTVSPropertyOp5
 70
     1
102
RTVSPropertyOp6
 70
     1
102
RTVSPropertyOp7
 70
     1
102
RTVSPropertyOp8
 70
     1
102
RTVSPropertyOp9
 70
     1
102
RTVSPropertyOp10
 70
     1
102
RTVSPropertyOp11
 70
     1
102
RTVSPropertyOp12
 70
     1
102
RTVSPropertyOp13
 70
     1
102
RTVSPropertyOp14
 70
     1
102
RTVSPropertyOp15
 70
     1
102
RTVSPropertyOp16
 70
     1
102
RTVSPropertyOp17
 70
     1
102
RTVSPropertyOp18
 70
     1
102
RTVSPropertyOp19
 70
     1
102
RTVSPropertyOp20
 70
     1
102
RTVSPropertyOp21
 70
     1
102
RTVSPropertyOp22
 70
     1
102
RTVSPropertyOp23
 70
     1
102
RTVSPropertyOp24
 70
     1
102
RTVSPropertyOp25
 70
     1
102
RTVSPropertyOp26
 70
     1
102
RTVSPropertyOp27
 70
     1
102
RTVSPropertyOp28
 70
     1
102
RTVSPropertyOp29
 70
     1
102
RTVSPropertyOp30
 70
     1
102
RTVSPropertyOp31
 70
     1
102
RTVSPropertyOp32
 70
     1
102
RTVSPropertyOp33
 70
     1
102
RTVSPropertyOp34
 70
     1
102
RTVSPropertyOp35
 70
     1
102
RTVSPropertyOp36
 70
     1
102
RTVSPropertyOp37
 70
     1
102
RTVSPropertyOp38
 70
     1
102
RTVSPropertyOp39
 70
     1
102
RTVSPropertyOp40
 70
     1
102
RTVSPropertyOp41
 70
     1
102
RTVSPropertyOp42
 70
     1
102
RTVSPropertyOp43
 70
     1
102
RTVSPropertyOp44
 70
     1
102
RTVSPropertyOp45
 70
     1
102
RTVSPropertyOp46
 70
     1
102
RTVSPropertyOp47
 70
     1
102
RTVSPropertyOp48
 70
     1
102
RTVSPropertyOp49
 70
     1
102
RTVSPropertyOp50
 70
     1
102
RTVSPropertyOp51
 70
     0
102
RTVSPropertyOp52
 70
     0
102
RTVSPropertyOp53
 70
     1
102
RTVSPropertyOp54
 70
     1
102
RTVSPropertyOp55
 70
     1
102
RTVSPropertyOp56
 70
     1
102
RTVSPropertyOp57
 70
     1
102
RTVSPropertyOp58
 70
     1
102
RTVSPropertyOp59
 70
     1
102
RTVSPropertyOp60
 70
     1
102
RTVSPropertyOp61
 70
     1
102
RTVSPropertyOp62
 70
     1
  0
XRECORD
  5
551
102
{ACAD_REACTORS
330
550
102
}
330
550
100
AcDbXrecord
280
     1
102
RTVSPost2010Prop28
280
     0
102
RTVSPost2010PropOp28
 70
     0
102
RTVSPost2010Prop29
280
     1
102
RTVSPost2010PropOp29
 70
     0
102
RTVSPost2010Prop30
280
     1
102
RTVSPost2010PropOp30
 70
     0
102
RTVSPost2010Prop31
280
     0
102
RTVSPost2010PropOp31
 70
     0
102
RTVSPost2010Prop32
280
     0
102
RTVSPost2010PropOp32
 70
     0
102
RTVSPost2010Prop33
280
     0
102
RTVSPost2010PropOp33
 70
     0
102
RTVSPost2010Prop34
280
     0
102
RTVSPost2010PropOp34
 70
     0
102
RTVSPost2010Prop35
280
     0
102
RTVSPost2010PropOp35
 70
     0
102
RTVSPost2010Prop36
280
     0
102
RTVSPost2010PropOp36
 70
     0
102
RTVSPost2010Prop37
 90
       50
102
RTVSPost2010PropOp37
 70
     0
102
RTVSPost2010Prop38
140
0.0
102
RTVSPost2010PropOp38
 70
     0
102
RTVSPost2010Prop39
140
1.0
102
RTVSPost2010PropOp39
 70
     0
102
RTVSPost2010Prop40
 90
        0
102
RTVSPost2010PropOp40
 70
     0
102
RTVSPost2010Prop41ColorIndex
 90
       18
102
RTVSPost2010Prop41ColorRGB
 90
        0
102
RTVSPost2010PropOp41
 70
     0
102
RTVSPost2010Prop42
 90
       50
102
RTVSPost2010PropOp42
 70
     0
102
RTVSPost2010Prop43
 90
        3
102
RTVSPost2010PropOp43
 70
     0
102
RTVSPost2010Prop44ColorIndex
 90
        5
102
RTVSPost2010Prop44ColorRGB
 90
      255
102
RTVSPost2010PropOp44
 70
     0
102
RTVSPost2010Prop45
280
     0
102
RTVSPost2010PropOp45
 70
     0
102
RTVSPost2010Prop46
 90
       50
102
RTVSPost2010PropOp46
 70
     0
102
RTVSPost2010Prop47
 90
       50
102
RTVSPost2010PropOp47
 70
     0
102
RTVSPost2010Prop48
 90
       50
102
RTVSPost2010PropOp48
 70
     0
102
RTVSPost2010Prop49
280
     0
102
RTVSPost2010PropOp49
 70
     0
102
RTVSPost2010Prop50
 90
       50
102
RTVSPost2010PropOp50
 70
     0
102
RTVSPost2010Prop51ColorIndex
 90
      256
102
RTVSPost2010Prop51ColorRGB
 90
-16777216
102
RTVSPost2010PropOp51
 70
     0
102
RTVSPost2010Prop52
140
1.0
102
RTVSPost2010PropOp52
 70
     0
102
RTVSPost2010Prop53
 90
        2
102
RTVSPost2010PropOp53
 70
     0
102
RTVSPost2010Prop54
  1
strokes_ogs.tif
102
RTVSPost2010PropOp54
 70
     0
102
RTVSPost2010Prop55
280
     0
102
RTVSPost2010PropOp55
 70
     0
102
RTVSPost2010Prop56
140
1.0
102
RTVSPost2010PropOp56
 70
     0
102
RTVSPost2010Prop57
140
1.0
102
RTVSPost2010PropOp57
 70
     0
102
RTVSPropertyOp0
 70
     0
102
RTVSPropertyOp1
 70
     0
102
RTVSPropertyOp2
 70
     0
102
RTVSPropertyOp3
 70
     0
102
RTVSPropertyOp4
 70
     0
102
RTVSPropertyOp5
 70
     0
102
RTVSPropertyOp6
 70
     0
102
RTVSPropertyOp7
 70
     0
102
RTVSPropertyOp8
 70
     0
102
RTVSPropertyOp9
 70
     0
102
RTVSPropertyOp10
 70
     0
102
RTVSPropertyOp11
 70
     0
102
RTVSPropertyOp12
 70
     0
102
RTVSPropertyOp13
 70
     0
102
RTVSPropertyOp14
 70
     2
102
RTVSPropertyOp15
 70
     0
102
RTVSPropertyOp16
 70
     0
102
RTVSPropertyOp17
 70
     0
102
RTVSPropertyOp18
 70
     0
102
RTVSPropertyOp19
 70
     0
102
RTVSPropertyOp20
 70
     0
102
RTVSPropertyOp21
 70
     0
102
RTVSPropertyOp22
 70
     0
102
RTVSPropertyOp23
 70
     0
102
RTVSPropertyOp24
 70
     0
102
RTVSPropertyOp25
 70
     0
102
RTVSPropertyOp26
 70
     0
102
RTVSPropertyOp27
 70
     0
102
RTVSPropertyOp28
 70
     0
102
RTVSPropertyOp29
 70
     0
102
RTVSPropertyOp30
 70
     0
102
RTVSPropertyOp31
 70
     0
102
RTVSPropertyOp32
 70
     0
102
RTVSPropertyOp33
 70
     0
102
RTVSPropertyOp34
 70
     0
102
RTVSPropertyOp35
 70
     0
102
RTVSPropertyOp36
 70
     0
102
RTVSPropertyOp37
 70
     0
102
RTVSPropertyOp38
 70
     0
102
RTVSPropertyOp39
 70
     0
102
RTVSPropertyOp40
 70
     0
102
RTVSPropertyOp41
 70
     0
102
RTVSPropertyOp42
 70
     0
102
RTVSPropertyOp43
 70
     0
102
RTVSPropertyOp44
 70
     0
102
RTVSPropertyOp45
 70
     0
102
RTVSPropertyOp46
 70
     0
102
RTVSPropertyOp47
 70
     0
102
RTVSPropertyOp48
 70
     0
102
RTVSPropertyOp49
 70
     0
102
RTVSPropertyOp50
 70
     0
102
RTVSPropertyOp51
 70
     0
102
RTVSPropertyOp52
 70
     0
102
RTVSPropertyOp53
 70
     0
102
RTVSPropertyOp54
 70
     0
102
RTVSPropertyOp55
 70
     0
102
RTVSPropertyOp56
 70
     0
102
RTVSPropertyOp57
 70
     0
102
RTVSPropertyOp58
 70
     0
102
RTVSPropertyOp59
 70
     0
102
RTVSPropertyOp60
 70
     0
102
RTVSPropertyOp61
 70
     0
102
RTVSPropertyOp62
 70
     0
  0
XRECORD
  5
537
102
{ACAD_REACTORS
330
536
102
}
330
536
100
AcDbXrecord
280
     1
102
RTVSPost2010Prop28
280
     0
102
RTVSPost2010PropOp28
 70
     1
102
RTVSPost2010Prop29
280
     1
102
RTVSPost2010PropOp29
 70
     1
102
RTVSPost2010Prop30
280
     1
102
RTVSPost2010PropOp30
 70
     1
102
RTVSPost2010Prop31
280
     0
102
RTVSPost2010PropOp31
 70
     1
102
RTVSPost2010Prop32
280
     0
102
RTVSPost2010PropOp32
 70
     1
102
RTVSPost2010Prop33
280
     0
102
RTVSPost2010PropOp33
 70
     1
102
RTVSPost2010Prop34
280
     0
102
RTVSPost2010PropOp34
 70
     1
102
RTVSPost2010Prop35
280
     0
102
RTVSPost2010PropOp35
 70
     1
102
RTVSPost2010Prop36
280
     0
102
RTVSPost2010PropOp36
 70
     1
102
RTVSPost2010Prop37
 90
       50
102
RTVSPost2010PropOp37
 70
     1
102
RTVSPost2010Prop38
140
0.0
102
RTVSPost2010PropOp38
 70
     1
102
RTVSPost2010Prop39
140
1.0
102
RTVSPost2010PropOp39
 70
     1
102
RTVSPost2010Prop40
 90
        0
102
RTVSPost2010PropOp40
 70
     1
102
RTVSPost2010Prop41ColorIndex
 90
       18
102
RTVSPost2010Prop41ColorRGB
 90
        0
102
RTVSPost2010PropOp41
 70
     1
102
RTVSPost2010Prop42
 90
       50
102
RTVSPost2010PropOp42
 70
     1
102
RTVSPost2010Prop43
 90
        3
102
RTVSPost2010PropOp43
 70
     1
102
RTVSPost2010Prop44ColorIndex
 90
        5
102
RTVSPost2010Prop44ColorRGB
 90
      255
102
RTVSPost2010PropOp44
 70
     1
102
RTVSPost2010Prop45
280
     0
102
RTVSPost2010PropOp45
 70
     1
102
RTVSPost2010Prop46
 90
       50
102
RTVSPost2010PropOp46
 70
     1
102
RTVSPost2010Prop47
 90
       50
102
RTVSPost2010PropOp47
 70
     1
102
RTVSPost2010Prop48
 90
       50
102
RTVSPost2010PropOp48
 70
     1
102
RTVSPost2010Prop49
280
     0
102
RTVSPost2010PropOp49
 70
     1
102
RTVSPost2010Prop50
 90
       50
102
RTVSPost2010PropOp50
 70
     1
102
RTVSPost2010Prop51ColorIndex
 90
      256
102
RTVSPost2010Prop51ColorRGB
 90
-16777216
102
RTVSPost2010PropOp51
 70
     0
102
RTVSPost2010Prop52
140
1.0
102
RTVSPost2010PropOp52
 70
     0
102
RTVSPost2010Prop53
 90
        2
102
RTVSPost2010PropOp53
 70
     1
102
RTVSPost2010Prop54
  1
strokes_ogs.tif
102
RTVSPost2010PropOp54
 70
     1
102
RTVSPost2010Prop55
280
     0
102
RTVSPost2010PropOp55
 70
     1
102
RTVSPost2010Prop56
140
1.0
102
RTVSPost2010PropOp56
 70
     1
102
RTVSPost2010Prop57
140
1.0
102
RTVSPost2010PropOp57
 70
     1
102
RTVSPropertyOp0
 70
     1
102
RTVSPropertyOp1
 70
     1
102
RTVSPropertyOp2
 70
     1
102
RTVSPropertyOp3
 70
     1
102
RTVSPropertyOp4
 70
     1
102
RTVSPropertyOp5
 70
     1
102
RTVSPropertyOp6
 70
     1
102
RTVSPropertyOp7
 70
     1
102
RTVSPropertyOp8
 70
     1
102
RTVSPropertyOp9
 70
     1
102
RTVSPropertyOp10
 70
     1
102
RTVSPropertyOp11
 70
     1
102
RTVSPropertyOp12
 70
     1
102
RTVSPropertyOp13
 70
     1
102
RTVSPropertyOp14
 70
     1
102
RTVSPropertyOp15
 70
     1
102
RTVSPropertyOp16
 70
     1
102
RTVSPropertyOp17
 70
     1
102
RTVSPropertyOp18
 70
     1
102
RTVSPropertyOp19
 70
     1
102
RTVSPropertyOp20
 70
     1
102
RTVSPropertyOp21
 70
     1
102
RTVSPropertyOp22
 70
     1
102
RTVSPropertyOp23
 70
     1
102
RTVSPropertyOp24
 70
     1
102
RTVSPropertyOp25
 70
     1
102
RTVSPropertyOp26
 70
     1
102
RTVSPropertyOp27
 70
     1
102
RTVSPropertyOp28
 70
     1
102
RTVSPropertyOp29
 70
     1
102
RTVSPropertyOp30
 70
     1
102
RTVSPropertyOp31
 70
     1
102
RTVSPropertyOp32
 70
     1
102
RTVSPropertyOp33
 70
     1
102
RTVSPropertyOp34
 70
     1
102
RTVSPropertyOp35
 70
     1
102
RTVSPropertyOp36
 70
     1
102
RTVSPropertyOp37
 70
     1
102
RTVSPropertyOp38
 70
     1
102
RTVSPropertyOp39
 70
     1
102
RTVSPropertyOp40
 70
     1
102
RTVSPropertyOp41
 70
     1
102
RTVSPropertyOp42
 70
     1
102
RTVSPropertyOp43
 70
     1
102
RTVSPropertyOp44
 70
     1
102
RTVSPropertyOp45
 70
     1
102
RTVSPropertyOp46
 70
     1
102
RTVSPropertyOp47
 70
     1
102
RTVSPropertyOp48
 70
     1
102
RTVSPropertyOp49
 70
     1
102
RTVSPropertyOp50
 70
     1
102
RTVSPropertyOp51
 70
     0
102
RTVSPropertyOp52
 70
     0
102
RTVSPropertyOp53
 70
     1
102
RTVSPropertyOp54
 70
     1
102
RTVSPropertyOp55
 70
     1
102
RTVSPropertyOp56
 70
     1
102
RTVSPropertyOp57
 70
     1
102
RTVSPropertyOp58
 70
     1
102
RTVSPropertyOp59
 70
     1
102
RTVSPropertyOp60
 70
     1
102
RTVSPropertyOp61
 70
     1
102
RTVSPropertyOp62
 70
     1
  0
XRECORD
  5
54D
102
{ACAD_REACTORS
330
54C
102
}
330
54C
100
AcDbXrecord
280
     1
102
RTVSPost2010Prop28
280
     0
102
RTVSPost2010PropOp28
 70
     1
102
RTVSPost2010Prop29
280
     1
102
RTVSPost2010PropOp29
 70
     1
102
RTVSPost2010Prop30
280
     1
102
RTVSPost2010PropOp30
 70
     1
102
RTVSPost2010Prop31
280
     0
102
RTVSPost2010PropOp31
 70
     1
102
RTVSPost2010Prop32
280
     0
102
RTVSPost2010PropOp32
 70
     1
102
RTVSPost2010Prop33
280
     0
102
RTVSPost2010PropOp33
 70
     1
102
RTVSPost2010Prop34
280
     0
102
RTVSPost2010PropOp34
 70
     1
102
RTVSPost2010Prop35
280
     0
102
RTVSPost2010PropOp35
 70
     1
102
RTVSPost2010Prop36
280
     0
102
RTVSPost2010PropOp36
 70
     1
102
RTVSPost2010Prop37
 90
       50
102
RTVSPost2010PropOp37
 70
     1
102
RTVSPost2010Prop38
140
0.0
102
RTVSPost2010PropOp38
 70
     1
102
RTVSPost2010Prop39
140
1.0
102
RTVSPost2010PropOp39
 70
     1
102
RTVSPost2010Prop40
 90
        0
102
RTVSPost2010PropOp40
 70
     1
102
RTVSPost2010Prop41ColorIndex
 90
       18
102
RTVSPost2010Prop41ColorRGB
 90
        0
102
RTVSPost2010PropOp41
 70
     1
102
RTVSPost2010Prop42
 90
       50
102
RTVSPost2010PropOp42
 70
     1
102
RTVSPost2010Prop43
 90
        3
102
RTVSPost2010PropOp43
 70
     1
102
RTVSPost2010Prop44ColorIndex
 90
        5
102
RTVSPost2010Prop44ColorRGB
 90
      255
102
RTVSPost2010PropOp44
 70
     1
102
RTVSPost2010Prop45
280
     0
102
RTVSPost2010PropOp45
 70
     1
102
RTVSPost2010Prop46
 90
       50
102
RTVSPost2010PropOp46
 70
     1
102
RTVSPost2010Prop47
 90
       50
102
RTVSPost2010PropOp47
 70
     1
102
RTVSPost2010Prop48
 90
       50
102
RTVSPost2010PropOp48
 70
     1
102
RTVSPost2010Prop49
280
     0
102
RTVSPost2010PropOp49
 70
     1
102
RTVSPost2010Prop50
 90
       50
102
RTVSPost2010PropOp50
 70
     1
102
RTVSPost2010Prop51ColorIndex
 90
      256
102
RTVSPost2010Prop51ColorRGB
 90
-16777216
102
RTVSPost2010PropOp51
 70
     0
102
RTVSPost2010Prop52
140
1.0
102
RTVSPost2010PropOp52
 70
     0
102
RTVSPost2010Prop53
 90
        2
102
RTVSPost2010PropOp53
 70
     1
102
RTVSPost2010Prop54
  1
strokes_ogs.tif
102
RTVSPost2010PropOp54
 70
     1
102
RTVSPost2010Prop55
280
     0
102
RTVSPost2010PropOp55
 70
     1
102
RTVSPost2010Prop56
140
1.0
102
RTVSPost2010PropOp56
 70
     1
102
RTVSPost2010Prop57
140
1.0
102
RTVSPost2010PropOp57
 70
     1
102
RTVSPropertyOp0
 70
     1
102
RTVSPropertyOp1
 70
     1
102
RTVSPropertyOp2
 70
     1
102
RTVSPropertyOp3
 70
     1
102
RTVSPropertyOp4
 70
     1
102
RTVSPropertyOp5
 70
     1
102
RTVSPropertyOp6
 70
     1
102
RTVSPropertyOp7
 70
     1
102
RTVSPropertyOp8
 70
     1
102
RTVSPropertyOp9
 70
     1
102
RTVSPropertyOp10
 70
     1
102
RTVSPropertyOp11
 70
     1
102
RTVSPropertyOp12
 70
     1
102
RTVSPropertyOp13
 70
     1
102
RTVSPropertyOp14
 70
     1
102
RTVSPropertyOp15
 70
     1
102
RTVSPropertyOp16
 70
     1
102
RTVSPropertyOp17
 70
     1
102
RTVSPropertyOp18
 70
     1
102
RTVSPropertyOp19
 70
     1
102
RTVSPropertyOp20
 70
     1
102
RTVSPropertyOp21
 70
     1
102
RTVSPropertyOp22
 70
     1
102
RTVSPropertyOp23
 70
     1
102
RTVSPropertyOp24
 70
     1
102
RTVSPropertyOp25
 70
     1
102
RTVSPropertyOp26
 70
     1
102
RTVSPropertyOp27
 70
     1
102
RTVSPropertyOp28
 70
     1
102
RTVSPropertyOp29
 70
     1
102
RTVSPropertyOp30
 70
     1
102
RTVSPropertyOp31
 70
     1
102
RTVSPropertyOp32
 70
     1
102
RTVSPropertyOp33
 70
     1
102
RTVSPropertyOp34
 70
     1
102
RTVSPropertyOp35
 70
     1
102
RTVSPropertyOp36
 70
     1
102
RTVSPropertyOp37
 70
     1
102
RTVSPropertyOp38
 70
     1
102
RTVSPropertyOp39
 70
     1
102
RTVSPropertyOp40
 70
     1
102
RTVSPropertyOp41
 70
     1
102
RTVSPropertyOp42
 70
     1
102
RTVSPropertyOp43
 70
     1
102
RTVSPropertyOp44
 70
     1
102
RTVSPropertyOp45
 70
     1
102
RTVSPropertyOp46
 70
     1
102
RTVSPropertyOp47
 70
     1
102
RTVSPropertyOp48
 70
     1
102
RTVSPropertyOp49
 70
     1
102
RTVSPropertyOp50
 70
     1
102
RTVSPropertyOp51
 70
     0
102
RTVSPropertyOp52
 70
     0
102
RTVSPropertyOp53
 70
     1
102
RTVSPropertyOp54
 70
     1
102
RTVSPropertyOp55
 70
     1
102
RTVSPropertyOp56
 70
     1
102
RTVSPropertyOp57
 70
     1
102
RTVSPropertyOp58
 70
     1
102
RTVSPropertyOp59
 70
     1
102
RTVSPropertyOp60
 70
     1
102
RTVSPropertyOp61
 70
     1
102
RTVSPropertyOp62
 70
     1
  0
XRECORD
  5
54B
102
{ACAD_REACTORS
330
54A
102
}
330
54A
100
AcDbXrecord
280
     1
102
RTVSPost2010Prop28
280
     0
102
RTVSPost2010PropOp28
 70
     1
102
RTVSPost2010Prop29
280
     1
102
RTVSPost2010PropOp29
 70
     1
102
RTVSPost2010Prop30
280
     1
102
RTVSPost2010PropOp30
 70
     1
102
RTVSPost2010Prop31
280
     0
102
RTVSPost2010PropOp31
 70
     1
102
RTVSPost2010Prop32
280
     0
102
RTVSPost2010PropOp32
 70
     1
102
RTVSPost2010Prop33
280
     0
102
RTVSPost2010PropOp33
 70
     1
102
RTVSPost2010Prop34
280
     0
102
RTVSPost2010PropOp34
 70
     1
102
RTVSPost2010Prop35
280
     0
102
RTVSPost2010PropOp35
 70
     1
102
RTVSPost2010Prop36
280
     0
102
RTVSPost2010PropOp36
 70
     1
102
RTVSPost2010Prop37
 90
       50
102
RTVSPost2010PropOp37
 70
     1
102
RTVSPost2010Prop38
140
0.0
102
RTVSPost2010PropOp38
 70
     1
102
RTVSPost2010Prop39
140
1.0
102
RTVSPost2010PropOp39
 70
     1
102
RTVSPost2010Prop40
 90
        0
102
RTVSPost2010PropOp40
 70
     1
102
RTVSPost2010Prop41ColorIndex
 90
       18
102
RTVSPost2010Prop41ColorRGB
 90
        0
102
RTVSPost2010PropOp41
 70
     1
102
RTVSPost2010Prop42
 90
       50
102
RTVSPost2010PropOp42
 70
     1
102
RTVSPost2010Prop43
 90
        3
102
RTVSPost2010PropOp43
 70
     1
102
RTVSPost2010Prop44ColorIndex
 90
        5
102
RTVSPost2010Prop44ColorRGB
 90
      255
102
RTVSPost2010PropOp44
 70
     1
102
RTVSPost2010Prop45
280
     0
102
RTVSPost2010PropOp45
 70
     1
102
RTVSPost2010Prop46
 90
       50
102
RTVSPost2010PropOp46
 70
     1
102
RTVSPost2010Prop47
 90
       50
102
RTVSPost2010PropOp47
 70
     1
102
RTVSPost2010Prop48
 90
       50
102
RTVSPost2010PropOp48
 70
     1
102
RTVSPost2010Prop49
280
     0
102
RTVSPost2010PropOp49
 70
     1
102
RTVSPost2010Prop50
 90
       50
102
RTVSPost2010PropOp50
 70
     1
102
RTVSPost2010Prop51ColorIndex
 90
      256
102
RTVSPost2010Prop51ColorRGB
 90
-16777216
102
RTVSPost2010PropOp51
 70
     0
102
RTVSPost2010Prop52
140
1.0
102
RTVSPost2010PropOp52
 70
     0
102
RTVSPost2010Prop53
 90
        2
102
RTVSPost2010PropOp53
 70
     1
102
RTVSPost2010Prop54
  1
strokes_ogs.tif
102
RTVSPost2010PropOp54
 70
     1
102
RTVSPost2010Prop55
280
     0
102
RTVSPost2010PropOp55
 70
     1
102
RTVSPost2010Prop56
140
1.0
102
RTVSPost2010PropOp56
 70
     1
102
RTVSPost2010Prop57
140
1.0
102
RTVSPost2010PropOp57
 70
     1
102
RTVSPropertyOp0
 70
     1
102
RTVSPropertyOp1
 70
     1
102
RTVSPropertyOp2
 70
     1
102
RTVSPropertyOp3
 70
     1
102
RTVSPropertyOp4
 70
     1
102
RTVSPropertyOp5
 70
     1
102
RTVSPropertyOp6
 70
     1
102
RTVSPropertyOp7
 70
     1
102
RTVSPropertyOp8
 70
     1
102
RTVSPropertyOp9
 70
     1
102
RTVSPropertyOp10
 70
     1
102
RTVSPropertyOp11
 70
     1
102
RTVSPropertyOp12
 70
     1
102
RTVSPropertyOp13
 70
     1
102
RTVSPropertyOp14
 70
     1
102
RTVSPropertyOp15
 70
     1
102
RTVSPropertyOp16
 70
     1
102
RTVSPropertyOp17
 70
     1
102
RTVSPropertyOp18
 70
     1
102
RTVSPropertyOp19
 70
     1
102
RTVSPropertyOp20
 70
     1
102
RTVSPropertyOp21
 70
     1
102
RTVSPropertyOp22
 70
     1
102
RTVSPropertyOp23
 70
     1
102
RTVSPropertyOp24
 70
     1
102
RTVSPropertyOp25
 70
     1
102
RTVSPropertyOp26
 70
     1
102
RTVSPropertyOp27
 70
     1
102
RTVSPropertyOp28
 70
     1
102
RTVSPropertyOp29
 70
     1
102
RTVSPropertyOp30
 70
     1
102
RTVSPropertyOp31
 70
     1
102
RTVSPropertyOp32
 70
     1
102
RTVSPropertyOp33
 70
     1
102
RTVSPropertyOp34
 70
     1
102
RTVSPropertyOp35
 70
     1
102
RTVSPropertyOp36
 70
     1
102
RTVSPropertyOp37
 70
     1
102
RTVSPropertyOp38
 70
     1
102
RTVSPropertyOp39
 70
     1
102
RTVSPropertyOp40
 70
     1
102
RTVSPropertyOp41
 70
     1
102
RTVSPropertyOp42
 70
     1
102
RTVSPropertyOp43
 70
     1
102
RTVSPropertyOp44
 70
     1
102
RTVSPropertyOp45
 70
     1
102
RTVSPropertyOp46
 70
     1
102
RTVSPropertyOp47
 70
     1
102
RTVSPropertyOp48
 70
     1
102
RTVSPropertyOp49
 70
     1
102
RTVSPropertyOp50
 70
     1
102
RTVSPropertyOp51
 70
     0
102
RTVSPropertyOp52
 70
     0
102
RTVSPropertyOp53
 70
     1
102
RTVSPropertyOp54
 70
     1
102
RTVSPropertyOp55
 70
     1
102
RTVSPropertyOp56
 70
     1
102
RTVSPropertyOp57
 70
     1
102
RTVSPropertyOp58
 70
     1
102
RTVSPropertyOp59
 70
     1
102
RTVSPropertyOp60
 70
     1
102
RTVSPropertyOp61
 70
     1
102
RTVSPropertyOp62
 70
     1
  0
XRECORD
  5
545
102
{ACAD_REACTORS
330
544
102
}
330
544
100
AcDbXrecord
280
     1
102
RTVSPost2010Prop28
280
     0
102
RTVSPost2010PropOp28
 70
     1
102
RTVSPost2010Prop29
280
     1
102
RTVSPost2010PropOp29
 70
     1
102
RTVSPost2010Prop30
280
     1
102
RTVSPost2010PropOp30
 70
     1
102
RTVSPost2010Prop31
280
     0
102
RTVSPost2010PropOp31
 70
     1
102
RTVSPost2010Prop32
280
     0
102
RTVSPost2010PropOp32
 70
     1
102
RTVSPost2010Prop33
280
     0
102
RTVSPost2010PropOp33
 70
     1
102
RTVSPost2010Prop34
280
     0
102
RTVSPost2010PropOp34
 70
     1
102
RTVSPost2010Prop35
280
     0
102
RTVSPost2010PropOp35
 70
     1
102
RTVSPost2010Prop36
280
     0
102
RTVSPost2010PropOp36
 70
     1
102
RTVSPost2010Prop37
 90
       50
102
RTVSPost2010PropOp37
 70
     1
102
RTVSPost2010Prop38
140
0.0
102
RTVSPost2010PropOp38
 70
     1
102
RTVSPost2010Prop39
140
1.0
102
RTVSPost2010PropOp39
 70
     1
102
RTVSPost2010Prop40
 90
        0
102
RTVSPost2010PropOp40
 70
     1
102
RTVSPost2010Prop41ColorIndex
 90
       18
102
RTVSPost2010Prop41ColorRGB
 90
        0
102
RTVSPost2010PropOp41
 70
     1
102
RTVSPost2010Prop42
 90
       50
102
RTVSPost2010PropOp42
 70
     1
102
RTVSPost2010Prop43
 90
        3
102
RTVSPost2010PropOp43
 70
     1
102
RTVSPost2010Prop44ColorIndex
 90
        5
102
RTVSPost2010Prop44ColorRGB
 90
      255
102
RTVSPost2010PropOp44
 70
     1
102
RTVSPost2010Prop45
280
     0
102
RTVSPost2010PropOp45
 70
     1
102
RTVSPost2010Prop46
 90
       50
102
RTVSPost2010PropOp46
 70
     1
102
RTVSPost2010Prop47
 90
       50
102
RTVSPost2010PropOp47
 70
     1
102
RTVSPost2010Prop48
 90
       50
102
RTVSPost2010PropOp48
 70
     1
102
RTVSPost2010Prop49
280
     0
102
RTVSPost2010PropOp49
 70
     1
102
RTVSPost2010Prop50
 90
       50
102
RTVSPost2010PropOp50
 70
     1
102
RTVSPost2010Prop51ColorIndex
 90
      256
102
RTVSPost2010Prop51ColorRGB
 90
-16777216
102
RTVSPost2010PropOp51
 70
     0
102
RTVSPost2010Prop52
140
1.0
102
RTVSPost2010PropOp52
 70
     0
102
RTVSPost2010Prop53
 90
        2
102
RTVSPost2010PropOp53
 70
     1
102
RTVSPost2010Prop54
  1
strokes_ogs.tif
102
RTVSPost2010PropOp54
 70
     1
102
RTVSPost2010Prop55
280
     0
102
RTVSPost2010PropOp55
 70
     1
102
RTVSPost2010Prop56
140
1.0
102
RTVSPost2010PropOp56
 70
     1
102
RTVSPost2010Prop57
140
1.0
102
RTVSPost2010PropOp57
 70
     1
102
RTVSPropertyOp0
 70
     1
102
RTVSPropertyOp1
 70
     1
102
RTVSPropertyOp2
 70
     1
102
RTVSPropertyOp3
 70
     1
102
RTVSPropertyOp4
 70
     1
102
RTVSPropertyOp5
 70
     1
102
RTVSPropertyOp6
 70
     1
102
RTVSPropertyOp7
 70
     1
102
RTVSPropertyOp8
 70
     1
102
RTVSPropertyOp9
 70
     1
102
RTVSPropertyOp10
 70
     1
102
RTVSPropertyOp11
 70
     1
102
RTVSPropertyOp12
 70
     1
102
RTVSPropertyOp13
 70
     1
102
RTVSPropertyOp14
 70
     1
102
RTVSPropertyOp15
 70
     1
102
RTVSPropertyOp16
 70
     1
102
RTVSPropertyOp17
 70
     1
102
RTVSPropertyOp18
 70
     1
102
RTVSPropertyOp19
 70
     1
102
RTVSPropertyOp20
 70
     1
102
RTVSPropertyOp21
 70
     1
102
RTVSPropertyOp22
 70
     1
102
RTVSPropertyOp23
 70
     1
102
RTVSPropertyOp24
 70
     1
102
RTVSPropertyOp25
 70
     1
102
RTVSPropertyOp26
 70
     1
102
RTVSPropertyOp27
 70
     1
102
RTVSPropertyOp28
 70
     1
102
RTVSPropertyOp29
 70
     1
102
RTVSPropertyOp30
 70
     1
102
RTVSPropertyOp31
 70
     1
102
RTVSPropertyOp32
 70
     1
102
RTVSPropertyOp33
 70
     1
102
RTVSPropertyOp34
 70
     1
102
RTVSPropertyOp35
 70
     1
102
RTVSPropertyOp36
 70
     1
102
RTVSPropertyOp37
 70
     1
102
RTVSPropertyOp38
 70
     1
102
RTVSPropertyOp39
 70
     1
102
RTVSPropertyOp40
 70
     1
102
RTVSPropertyOp41
 70
     1
102
RTVSPropertyOp42
 70
     1
102
RTVSPropertyOp43
 70
     1
102
RTVSPropertyOp44
 70
     1
102
RTVSPropertyOp45
 70
     1
102
RTVSPropertyOp46
 70
     1
102
RTVSPropertyOp47
 70
     1
102
RTVSPropertyOp48
 70
     1
102
RTVSPropertyOp49
 70
     1
102
RTVSPropertyOp50
 70
     1
102
RTVSPropertyOp51
 70
     0
102
RTVSPropertyOp52
 70
     0
102
RTVSPropertyOp53
 70
     1
102
RTVSPropertyOp54
 70
     1
102
RTVSPropertyOp55
 70
     1
102
RTVSPropertyOp56
 70
     1
102
RTVSPropertyOp57
 70
     1
102
RTVSPropertyOp58
 70
     1
102
RTVSPropertyOp59
 70
     1
102
RTVSPropertyOp60
 70
     1
102
RTVSPropertyOp61
 70
     1
102
RTVSPropertyOp62
 70
     1
  0
XRECORD
  5
547
102
{ACAD_REACTORS
330
546
102
}
330
546
100
AcDbXrecord
280
     1
102
RTVSPost2010Prop28
280
     0
102
RTVSPost2010PropOp28
 70
     1
102
RTVSPost2010Prop29
280
     1
102
RTVSPost2010PropOp29
 70
     1
102
RTVSPost2010Prop30
280
     1
102
RTVSPost2010PropOp30
 70
     1
102
RTVSPost2010Prop31
280
     0
102
RTVSPost2010PropOp31
 70
     1
102
RTVSPost2010Prop32
280
     0
102
RTVSPost2010PropOp32
 70
     1
102
RTVSPost2010Prop33
280
     0
102
RTVSPost2010PropOp33
 70
     1
102
RTVSPost2010Prop34
280
     0
102
RTVSPost2010PropOp34
 70
     1
102
RTVSPost2010Prop35
280
     0
102
RTVSPost2010PropOp35
 70
     1
102
RTVSPost2010Prop36
280
     0
102
RTVSPost2010PropOp36
 70
     1
102
RTVSPost2010Prop37
 90
       50
102
RTVSPost2010PropOp37
 70
     1
102
RTVSPost2010Prop38
140
0.0
102
RTVSPost2010PropOp38
 70
     1
102
RTVSPost2010Prop39
140
1.0
102
RTVSPost2010PropOp39
 70
     1
102
RTVSPost2010Prop40
 90
        0
102
RTVSPost2010PropOp40
 70
     1
102
RTVSPost2010Prop41ColorIndex
 90
       18
102
RTVSPost2010Prop41ColorRGB
 90
        0
102
RTVSPost2010PropOp41
 70
     1
102
RTVSPost2010Prop42
 90
       50
102
RTVSPost2010PropOp42
 70
     1
102
RTVSPost2010Prop43
 90
        3
102
RTVSPost2010PropOp43
 70
     1
102
RTVSPost2010Prop44ColorIndex
 90
        5
102
RTVSPost2010Prop44ColorRGB
 90
      255
102
RTVSPost2010PropOp44
 70
     1
102
RTVSPost2010Prop45
280
     0
102
RTVSPost2010PropOp45
 70
     1
102
RTVSPost2010Prop46
 90
       50
102
RTVSPost2010PropOp46
 70
     1
102
RTVSPost2010Prop47
 90
       50
102
RTVSPost2010PropOp47
 70
     1
102
RTVSPost2010Prop48
 90
       50
102
RTVSPost2010PropOp48
 70
     1
102
RTVSPost2010Prop49
280
     0
102
RTVSPost2010PropOp49
 70
     1
102
RTVSPost2010Prop50
 90
       50
102
RTVSPost2010PropOp50
 70
     1
102
RTVSPost2010Prop51ColorIndex
 90
      256
102
RTVSPost2010Prop51ColorRGB
 90
-16777216
102
RTVSPost2010PropOp51
 70
     0
102
RTVSPost2010Prop52
140
1.0
102
RTVSPost2010PropOp52
 70
     0
102
RTVSPost2010Prop53
 90
        2
102
RTVSPost2010PropOp53
 70
     1
102
RTVSPost2010Prop54
  1
strokes_ogs.tif
102
RTVSPost2010PropOp54
 70
     1
102
RTVSPost2010Prop55
280
     0
102
RTVSPost2010PropOp55
 70
     1
102
RTVSPost2010Prop56
140
1.0
102
RTVSPost2010PropOp56
 70
     1
102
RTVSPost2010Prop57
140
1.0
102
RTVSPost2010PropOp57
 70
     1
102
RTVSPropertyOp0
 70
     1
102
RTVSPropertyOp1
 70
     1
102
RTVSPropertyOp2
 70
     1
102
RTVSPropertyOp3
 70
     1
102
RTVSPropertyOp4
 70
     1
102
RTVSPropertyOp5
 70
     1
102
RTVSPropertyOp6
 70
     1
102
RTVSPropertyOp7
 70
     1
102
RTVSPropertyOp8
 70
     1
102
RTVSPropertyOp9
 70
     1
102
RTVSPropertyOp10
 70
     1
102
RTVSPropertyOp11
 70
     1
102
RTVSPropertyOp12
 70
     1
102
RTVSPropertyOp13
 70
     1
102
RTVSPropertyOp14
 70
     1
102
RTVSPropertyOp15
 70
     1
102
RTVSPropertyOp16
 70
     1
102
RTVSPropertyOp17
 70
     1
102
RTVSPropertyOp18
 70
     1
102
RTVSPropertyOp19
 70
     1
102
RTVSPropertyOp20
 70
     1
102
RTVSPropertyOp21
 70
     1
102
RTVSPropertyOp22
 70
     1
102
RTVSPropertyOp23
 70
     1
102
RTVSPropertyOp24
 70
     1
102
RTVSPropertyOp25
 70
     1
102
RTVSPropertyOp26
 70
     1
102
RTVSPropertyOp27
 70
     1
102
RTVSPropertyOp28
 70
     1
102
RTVSPropertyOp29
 70
     1
102
RTVSPropertyOp30
 70
     1
102
RTVSPropertyOp31
 70
     1
102
RTVSPropertyOp32
 70
     1
102
RTVSPropertyOp33
 70
     1
102
RTVSPropertyOp34
 70
     1
102
RTVSPropertyOp35
 70
     1
102
RTVSPropertyOp36
 70
     1
102
RTVSPropertyOp37
 70
     1
102
RTVSPropertyOp38
 70
     1
102
RTVSPropertyOp39
 70
     1
102
RTVSPropertyOp40
 70
     1
102
RTVSPropertyOp41
 70
     1
102
RTVSPropertyOp42
 70
     1
102
RTVSPropertyOp43
 70
     1
102
RTVSPropertyOp44
 70
     1
102
RTVSPropertyOp45
 70
     1
102
RTVSPropertyOp46
 70
     1
102
RTVSPropertyOp47
 70
     1
102
RTVSPropertyOp48
 70
     1
102
RTVSPropertyOp49
 70
     1
102
RTVSPropertyOp50
 70
     1
102
RTVSPropertyOp51
 70
     0
102
RTVSPropertyOp52
 70
     0
102
RTVSPropertyOp53
 70
     1
102
RTVSPropertyOp54
 70
     1
102
RTVSPropertyOp55
 70
     1
102
RTVSPropertyOp56
 70
     1
102
RTVSPropertyOp57
 70
     1
102
RTVSPropertyOp58
 70
     1
102
RTVSPropertyOp59
 70
     1
102
RTVSPropertyOp60
 70
     1
102
RTVSPropertyOp61
 70
     1
102
RTVSPropertyOp62
 70
     1
  0
XRECORD
  5
53D
102
{ACAD_REACTORS
330
53C
102
}
330
53C
100
AcDbXrecord
280
     1
102
RTVSPost2010Prop28
280
     0
102
RTVSPost2010PropOp28
 70
     1
102
RTVSPost2010Prop29
280
     1
102
RTVSPost2010PropOp29
 70
     1
102
RTVSPost2010Prop30
280
     1
102
RTVSPost2010PropOp30
 70
     1
102
RTVSPost2010Prop31
280
     0
102
RTVSPost2010PropOp31
 70
     1
102
RTVSPost2010Prop32
280
     0
102
RTVSPost2010PropOp32
 70
     1
102
RTVSPost2010Prop33
280
     0
102
RTVSPost2010PropOp33
 70
     1
102
RTVSPost2010Prop34
280
     0
102
RTVSPost2010PropOp34
 70
     1
102
RTVSPost2010Prop35
280
     0
102
RTVSPost2010PropOp35
 70
     1
102
RTVSPost2010Prop36
280
     0
102
RTVSPost2010PropOp36
 70
     1
102
RTVSPost2010Prop37
 90
       50
102
RTVSPost2010PropOp37
 70
     1
102
RTVSPost2010Prop38
140
0.0
102
RTVSPost2010PropOp38
 70
     1
102
RTVSPost2010Prop39
140
1.0
102
RTVSPost2010PropOp39
 70
     1
102
RTVSPost2010Prop40
 90
        0
102
RTVSPost2010PropOp40
 70
     1
102
RTVSPost2010Prop41ColorIndex
 90
       18
102
RTVSPost2010Prop41ColorRGB
 90
        0
102
RTVSPost2010PropOp41
 70
     1
102
RTVSPost2010Prop42
 90
       50
102
RTVSPost2010PropOp42
 70
     1
102
RTVSPost2010Prop43
 90
        3
102
RTVSPost2010PropOp43
 70
     1
102
RTVSPost2010Prop44ColorIndex
 90
        5
102
RTVSPost2010Prop44ColorRGB
 90
      255
102
RTVSPost2010PropOp44
 70
     1
102
RTVSPost2010Prop45
280
     0
102
RTVSPost2010PropOp45
 70
     1
102
RTVSPost2010Prop46
 90
       50
102
RTVSPost2010PropOp46
 70
     1
102
RTVSPost2010Prop47
 90
       50
102
RTVSPost2010PropOp47
 70
     1
102
RTVSPost2010Prop48
 90
       50
102
RTVSPost2010PropOp48
 70
     1
102
RTVSPost2010Prop49
280
     0
102
RTVSPost2010PropOp49
 70
     1
102
RTVSPost2010Prop50
 90
       50
102
RTVSPost2010PropOp50
 70
     1
102
RTVSPost2010Prop51ColorIndex
 90
      256
102
RTVSPost2010Prop51ColorRGB
 90
-16777216
102
RTVSPost2010PropOp51
 70
     0
102
RTVSPost2010Prop52
140
1.0
102
RTVSPost2010PropOp52
 70
     0
102
RTVSPost2010Prop53
 90
        2
102
RTVSPost2010PropOp53
 70
     1
102
RTVSPost2010Prop54
  1
strokes_ogs.tif
102
RTVSPost2010PropOp54
 70
     1
102
RTVSPost2010Prop55
280
     0
102
RTVSPost2010PropOp55
 70
     1
102
RTVSPost2010Prop56
140
1.0
102
RTVSPost2010PropOp56
 70
     1
102
RTVSPost2010Prop57
140
1.0
102
RTVSPost2010PropOp57
 70
     1
102
RTVSPropertyOp0
 70
     1
102
RTVSPropertyOp1
 70
     1
102
RTVSPropertyOp2
 70
     1
102
RTVSPropertyOp3
 70
     1
102
RTVSPropertyOp4
 70
     1
102
RTVSPropertyOp5
 70
     1
102
RTVSPropertyOp6
 70
     1
102
RTVSPropertyOp7
 70
     1
102
RTVSPropertyOp8
 70
     1
102
RTVSPropertyOp9
 70
     1
102
RTVSPropertyOp10
 70
     1
102
RTVSPropertyOp11
 70
     1
102
RTVSPropertyOp12
 70
     1
102
RTVSPropertyOp13
 70
     1
102
RTVSPropertyOp14
 70
     1
102
RTVSPropertyOp15
 70
     1
102
RTVSPropertyOp16
 70
     1
102
RTVSPropertyOp17
 70
     1
102
RTVSPropertyOp18
 70
     1
102
RTVSPropertyOp19
 70
     1
102
RTVSPropertyOp20
 70
     1
102
RTVSPropertyOp21
 70
     1
102
RTVSPropertyOp22
 70
     1
102
RTVSPropertyOp23
 70
     1
102
RTVSPropertyOp24
 70
     1
102
RTVSPropertyOp25
 70
     1
102
RTVSPropertyOp26
 70
     1
102
RTVSPropertyOp27
 70
     1
102
RTVSPropertyOp28
 70
     1
102
RTVSPropertyOp29
 70
     1
102
RTVSPropertyOp30
 70
     1
102
RTVSPropertyOp31
 70
     1
102
RTVSPropertyOp32
 70
     1
102
RTVSPropertyOp33
 70
     1
102
RTVSPropertyOp34
 70
     1
102
RTVSPropertyOp35
 70
     1
102
RTVSPropertyOp36
 70
     1
102
RTVSPropertyOp37
 70
     1
102
RTVSPropertyOp38
 70
     1
102
RTVSPropertyOp39
 70
     1
102
RTVSPropertyOp40
 70
     1
102
RTVSPropertyOp41
 70
     1
102
RTVSPropertyOp42
 70
     1
102
RTVSPropertyOp43
 70
     1
102
RTVSPropertyOp44
 70
     1
102
RTVSPropertyOp45
 70
     1
102
RTVSPropertyOp46
 70
     1
102
RTVSPropertyOp47
 70
     1
102
RTVSPropertyOp48
 70
     1
102
RTVSPropertyOp49
 70
     1
102
RTVSPropertyOp50
 70
     1
102
RTVSPropertyOp51
 70
     0
102
RTVSPropertyOp52
 70
     0
102
RTVSPropertyOp53
 70
     1
102
RTVSPropertyOp54
 70
     1
102
RTVSPropertyOp55
 70
     1
102
RTVSPropertyOp56
 70
     1
102
RTVSPropertyOp57
 70
     1
102
RTVSPropertyOp58
 70
     1
102
RTVSPropertyOp59
 70
     1
102
RTVSPropertyOp60
 70
     1
102
RTVSPropertyOp61
 70
     1
102
RTVSPropertyOp62
 70
     1
  0
XRECORD
  5
531
102
{ACAD_REACTORS
330
530
102
}
330
530
100
AcDbXrecord
280
     1
102
RTVSPost2010Prop28
280
     0
102
RTVSPost2010PropOp28
 70
     1
102
RTVSPost2010Prop29
280
     1
102
RTVSPost2010PropOp29
 70
     1
102
RTVSPost2010Prop30
280
     1
102
RTVSPost2010PropOp30
 70
     1
102
RTVSPost2010Prop31
280
     0
102
RTVSPost2010PropOp31
 70
     1
102
RTVSPost2010Prop32
280
     0
102
RTVSPost2010PropOp32
 70
     1
102
RTVSPost2010Prop33
280
     0
102
RTVSPost2010PropOp33
 70
     1
102
RTVSPost2010Prop34
280
     0
102
RTVSPost2010PropOp34
 70
     1
102
RTVSPost2010Prop35
280
     0
102
RTVSPost2010PropOp35
 70
     1
102
RTVSPost2010Prop36
280
     0
102
RTVSPost2010PropOp36
 70
     1
102
RTVSPost2010Prop37
 90
       50
102
RTVSPost2010PropOp37
 70
     1
102
RTVSPost2010Prop38
140
0.0
102
RTVSPost2010PropOp38
 70
     1
102
RTVSPost2010Prop39
140
1.0
102
RTVSPost2010PropOp39
 70
     1
102
RTVSPost2010Prop40
 90
        0
102
RTVSPost2010PropOp40
 70
     1
102
RTVSPost2010Prop41ColorIndex
 90
       18
102
RTVSPost2010Prop41ColorRGB
 90
        0
102
RTVSPost2010PropOp41
 70
     1
102
RTVSPost2010Prop42
 90
       50
102
RTVSPost2010PropOp42
 70
     1
102
RTVSPost2010Prop43
 90
        3
102
RTVSPost2010PropOp43
 70
     1
102
RTVSPost2010Prop44ColorIndex
 90
        5
102
RTVSPost2010Prop44ColorRGB
 90
      255
102
RTVSPost2010PropOp44
 70
     1
102
RTVSPost2010Prop45
280
     0
102
RTVSPost2010PropOp45
 70
     1
102
RTVSPost2010Prop46
 90
       50
102
RTVSPost2010PropOp46
 70
     1
102
RTVSPost2010Prop47
 90
       50
102
RTVSPost2010PropOp47
 70
     1
102
RTVSPost2010Prop48
 90
       50
102
RTVSPost2010PropOp48
 70
     1
102
RTVSPost2010Prop49
280
     0
102
RTVSPost2010PropOp49
 70
     1
102
RTVSPost2010Prop50
 90
       50
102
RTVSPost2010PropOp50
 70
     1
102
RTVSPost2010Prop51ColorIndex
 90
      256
102
RTVSPost2010Prop51ColorRGB
 90
-16777216
102
RTVSPost2010PropOp51
 70
     0
102
RTVSPost2010Prop52
140
1.0
102
RTVSPost2010PropOp52
 70
     0
102
RTVSPost2010Prop53
 90
        2
102
RTVSPost2010PropOp53
 70
     1
102
RTVSPost2010Prop54
  1
strokes_ogs.tif
102
RTVSPost2010PropOp54
 70
     1
102
RTVSPost2010Prop55
280
     0
102
RTVSPost2010PropOp55
 70
     1
102
RTVSPost2010Prop56
140
1.0
102
RTVSPost2010PropOp56
 70
     1
102
RTVSPost2010Prop57
140
1.0
102
RTVSPost2010PropOp57
 70
     1
102
RTVSPropertyOp0
 70
     1
102
RTVSPropertyOp1
 70
     1
102
RTVSPropertyOp2
 70
     1
102
RTVSPropertyOp3
 70
     1
102
RTVSPropertyOp4
 70
     1
102
RTVSPropertyOp5
 70
     1
102
RTVSPropertyOp6
 70
     1
102
RTVSPropertyOp7
 70
     1
102
RTVSPropertyOp8
 70
     1
102
RTVSPropertyOp9
 70
     1
102
RTVSPropertyOp10
 70
     1
102
RTVSPropertyOp11
 70
     1
102
RTVSPropertyOp12
 70
     1
102
RTVSPropertyOp13
 70
     1
102
RTVSPropertyOp14
 70
     1
102
RTVSPropertyOp15
 70
     1
102
RTVSPropertyOp16
 70
     1
102
RTVSPropertyOp17
 70
     1
102
RTVSPropertyOp18
 70
     1
102
RTVSPropertyOp19
 70
     1
102
RTVSPropertyOp20
 70
     1
102
RTVSPropertyOp21
 70
     1
102
RTVSPropertyOp22
 70
     1
102
RTVSPropertyOp23
 70
     1
102
RTVSPropertyOp24
 70
     1
102
RTVSPropertyOp25
 70
     1
102
RTVSPropertyOp26
 70
     1
102
RTVSPropertyOp27
 70
     1
102
RTVSPropertyOp28
 70
     1
102
RTVSPropertyOp29
 70
     1
102
RTVSPropertyOp30
 70
     1
102
RTVSPropertyOp31
 70
     1
102
RTVSPropertyOp32
 70
     1
102
RTVSPropertyOp33
 70
     1
102
RTVSPropertyOp34
 70
     1
102
RTVSPropertyOp35
 70
     1
102
RTVSPropertyOp36
 70
     1
102
RTVSPropertyOp37
 70
     1
102
RTVSPropertyOp38
 70
     1
102
RTVSPropertyOp39
 70
     1
102
RTVSPropertyOp40
 70
     1
102
RTVSPropertyOp41
 70
     1
102
RTVSPropertyOp42
 70
     1
102
RTVSPropertyOp43
 70
     1
102
RTVSPropertyOp44
 70
     1
102
RTVSPropertyOp45
 70
     1
102
RTVSPropertyOp46
 70
     1
102
RTVSPropertyOp47
 70
     1
102
RTVSPropertyOp48
 70
     1
102
RTVSPropertyOp49
 70
     1
102
RTVSPropertyOp50
 70
     1
102
RTVSPropertyOp51
 70
     0
102
RTVSPropertyOp52
 70
     0
102
RTVSPropertyOp53
 70
     1
102
RTVSPropertyOp54
 70
     1
102
RTVSPropertyOp55
 70
     1
102
RTVSPropertyOp56
 70
     1
102
RTVSPropertyOp57
 70
     1
102
RTVSPropertyOp58
 70
     1
102
RTVSPropertyOp59
 70
     1
102
RTVSPropertyOp60
 70
     1
102
RTVSPropertyOp61
 70
     1
102
RTVSPropertyOp62
 70
     1
  0
XRECORD
  5
549
102
{ACAD_REACTORS
330
548
102
}
330
548
100
AcDbXrecord
280
     1
102
RTVSPost2010Prop28
280
     0
102
RTVSPost2010PropOp28
 70
     1
102
RTVSPost2010Prop29
280
     1
102
RTVSPost2010PropOp29
 70
     1
102
RTVSPost2010Prop30
280
     1
102
RTVSPost2010PropOp30
 70
     1
102
RTVSPost2010Prop31
280
     0
102
RTVSPost2010PropOp31
 70
     1
102
RTVSPost2010Prop32
280
     0
102
RTVSPost2010PropOp32
 70
     1
102
RTVSPost2010Prop33
280
     0
102
RTVSPost2010PropOp33
 70
     1
102
RTVSPost2010Prop34
280
     0
102
RTVSPost2010PropOp34
 70
     1
102
RTVSPost2010Prop35
280
     0
102
RTVSPost2010PropOp35
 70
     1
102
RTVSPost2010Prop36
280
     0
102
RTVSPost2010PropOp36
 70
     1
102
RTVSPost2010Prop37
 90
       50
102
RTVSPost2010PropOp37
 70
     1
102
RTVSPost2010Prop38
140
0.0
102
RTVSPost2010PropOp38
 70
     1
102
RTVSPost2010Prop39
140
1.0
102
RTVSPost2010PropOp39
 70
     1
102
RTVSPost2010Prop40
 90
        0
102
RTVSPost2010PropOp40
 70
     1
102
RTVSPost2010Prop41ColorIndex
 90
       18
102
RTVSPost2010Prop41ColorRGB
 90
        0
102
RTVSPost2010PropOp41
 70
     1
102
RTVSPost2010Prop42
 90
       50
102
RTVSPost2010PropOp42
 70
     1
102
RTVSPost2010Prop43
 90
        3
102
RTVSPost2010PropOp43
 70
     1
102
RTVSPost2010Prop44ColorIndex
 90
        5
102
RTVSPost2010Prop44ColorRGB
 90
      255
102
RTVSPost2010PropOp44
 70
     1
102
RTVSPost2010Prop45
280
     0
102
RTVSPost2010PropOp45
 70
     1
102
RTVSPost2010Prop46
 90
       50
102
RTVSPost2010PropOp46
 70
     1
102
RTVSPost2010Prop47
 90
       50
102
RTVSPost2010PropOp47
 70
     1
102
RTVSPost2010Prop48
 90
       50
102
RTVSPost2010PropOp48
 70
     1
102
RTVSPost2010Prop49
280
     0
102
RTVSPost2010PropOp49
 70
     1
102
RTVSPost2010Prop50
 90
       50
102
RTVSPost2010PropOp50
 70
     1
102
RTVSPost2010Prop51ColorIndex
 90
      256
102
RTVSPost2010Prop51ColorRGB
 90
-16777216
102
RTVSPost2010PropOp51
 70
     0
102
RTVSPost2010Prop52
140
1.0
102
RTVSPost2010PropOp52
 70
     0
102
RTVSPost2010Prop53
 90
        2
102
RTVSPost2010PropOp53
 70
     1
102
RTVSPost2010Prop54
  1
strokes_ogs.tif
102
RTVSPost2010PropOp54
 70
     1
102
RTVSPost2010Prop55
280
     0
102
RTVSPost2010PropOp55
 70
     1
102
RTVSPost2010Prop56
140
1.0
102
RTVSPost2010PropOp56
 70
     1
102
RTVSPost2010Prop57
140
1.0
102
RTVSPost2010PropOp57
 70
     1
102
RTVSPropertyOp0
 70
     1
102
RTVSPropertyOp1
 70
     1
102
RTVSPropertyOp2
 70
     1
102
RTVSPropertyOp3
 70
     1
102
RTVSPropertyOp4
 70
     1
102
RTVSPropertyOp5
 70
     1
102
RTVSPropertyOp6
 70
     1
102
RTVSPropertyOp7
 70
     1
102
RTVSPropertyOp8
 70
     1
102
RTVSPropertyOp9
 70
     1
102
RTVSPropertyOp10
 70
     1
102
RTVSPropertyOp11
 70
     1
102
RTVSPropertyOp12
 70
     1
102
RTVSPropertyOp13
 70
     1
102
RTVSPropertyOp14
 70
     1
102
RTVSPropertyOp15
 70
     1
102
RTVSPropertyOp16
 70
     1
102
RTVSPropertyOp17
 70
     1
102
RTVSPropertyOp18
 70
     1
102
RTVSPropertyOp19
 70
     1
102
RTVSPropertyOp20
 70
     1
102
RTVSPropertyOp21
 70
     1
102
RTVSPropertyOp22
 70
     1
102
RTVSPropertyOp23
 70
     1
102
RTVSPropertyOp24
 70
     1
102
RTVSPropertyOp25
 70
     1
102
RTVSPropertyOp26
 70
     1
102
RTVSPropertyOp27
 70
     1
102
RTVSPropertyOp28
 70
     1
102
RTVSPropertyOp29
 70
     1
102
RTVSPropertyOp30
 70
     1
102
RTVSPropertyOp31
 70
     1
102
RTVSPropertyOp32
 70
     1
102
RTVSPropertyOp33
 70
     1
102
RTVSPropertyOp34
 70
     1
102
RTVSPropertyOp35
 70
     1
102
RTVSPropertyOp36
 70
     1
102
RTVSPropertyOp37
 70
     1
102
RTVSPropertyOp38
 70
     1
102
RTVSPropertyOp39
 70
     1
102
RTVSPropertyOp40
 70
     1
102
RTVSPropertyOp41
 70
     1
102
RTVSPropertyOp42
 70
     1
102
RTVSPropertyOp43
 70
     1
102
RTVSPropertyOp44
 70
     1
102
RTVSPropertyOp45
 70
     1
102
RTVSPropertyOp46
 70
     1
102
RTVSPropertyOp47
 70
     1
102
RTVSPropertyOp48
 70
     1
102
RTVSPropertyOp49
 70
     1
102
RTVSPropertyOp50
 70
     1
102
RTVSPropertyOp51
 70
     0
102
RTVSPropertyOp52
 70
     0
102
RTVSPropertyOp53
 70
     1
102
RTVSPropertyOp54
 70
     1
102
RTVSPropertyOp55
 70
     1
102
RTVSPropertyOp56
 70
     1
102
RTVSPropertyOp57
 70
     1
102
RTVSPropertyOp58
 70
     1
102
RTVSPropertyOp59
 70
     1
102
RTVSPropertyOp60
 70
     1
102
RTVSPropertyOp61
 70
     1
102
RTVSPropertyOp62
 70
     1
  0
ENDSEC
  0
EOF
