  0
SECTION
  2
HEADER
  9
$ACADVER
  1
AC1018
  9
$ACADMAINTVER
 70
   104
  9
$DWGCODEPAGE
  3
ANSI_932
  9
$INSBASE
 10
0.0
 20
0.0
 30
0.0
  9
$EXTMIN
 10
-0.43733037
 20
-0.30496157
 30
0.0
  9
$EXTMAX
 10
28681.45323106
 20
20000.30524098
 30
0.0
  9
$LIMMIN
 10
0.0
 20
0.0
  9
$LIMMAX
 10
420.0
 20
330.0
  9
$ORTHOMODE
 70
     0
  9
$REGENMODE
 70
     1
  9
$FILLMODE
 70
     1
  9
$QTEXTMODE
 70
     0
  9
$MIRRTEXT
 70
     0
  9
$LTSCALE
 40
1.0
  9
$ATTMODE
 70
     1
  9
$TEXTSIZE
 40
0.2
  9
$TRACEWID
 40
0.05
  9
$TEXTSTYLE
  7
STANDARD
  9
$CLAYER
  8
0
  9
$CELTYPE
  6
BYLAYER
  9
$CECOLOR
 62
   256
  9
$CELTSCALE
 40
1.0
  9
$DISPSILH
 70
     1
  9
$DIMSCALE
 40
1.0
  9
$DIMASZ
 40
0.18
  9
$DIMEXO
 40
0.0625
  9
$DIMDLI
 40
0.38
  9
$DIMRND
 40
0.0
  9
$DIMDLE
 40
0.0
  9
$DIMEXE
 40
0.18
  9
$DIMTP
 40
0.0
  9
$DIMTM
 40
0.0
  9
$DIMTXT
 40
0.18
  9
$DIMCEN
 40
0.09
  9
$DIMTSZ
 40
0.0
  9
$DIMTOL
 70
     0
  9
$DIMLIM
 70
     0
  9
$DIMTIH
 70
     1
  9
$DIMTOH
 70
     1
  9
$DIMSE1
 70
     0
  9
$DIMSE2
 70
     0
  9
$DIMTAD
 70
     0
  9
$DIMZIN
 70
     0
  9
$DIMBLK
  1

  9
$DIMASO
 70
     1
  9
$DIMSHO
 70
     0
  9
$DIMPOST
  1

  9
$DIMAPOST
  1

  9
$DIMALT
 70
     0
  9
$DIMALTD
 70
     2
  9
$DIMALTF
 40
25.4
  9
$DIMLFAC
 40
1.0
  9
$DIMTOFL
 70
     0
  9
$DIMTVP
 40
0.0
  9
$DIMTIX
 70
     0
  9
$DIMSOXD
 70
     0
  9
$DIMSAH
 70
     0
  9
$DIMBLK1
  1

  9
$DIMBLK2
  1

  9
$DIMSTYLE
  2
YKK_SGDOT1
  9
$DIMCLRD
 70
     0
  9
$DIMCLRE
 70
     0
  9
$DIMCLRT
 70
     0
  9
$DIMTFAC
 40
1.0
  9
$DIMGAP
 40
0.09
  9
$DIMJUST
 70
     0
  9
$DIMSD1
 70
     0
  9
$DIMSD2
 70
     0
  9
$DIMTOLJ
 70
     1
  9
$DIMTZIN
 70
     0
  9
$DIMALTZ
 70
     0
  9
$DIMALTTZ
 70
     0
  9
$DIMUPT
 70
     0
  9
$DIMDEC
 70
     4
  9
$DIMTDEC
 70
     4
  9
$DIMALTU
 70
     2
  9
$DIMALTTD
 70
     2
  9
$DIMTXSTY
  7
STANDARD
  9
$DIMAUNIT
 70
     0
  9
$DIMADEC
 70
     0
  9
$DIMALTRND
 40
0.0
  9
$DIMAZIN
 70
     0
  9
$DIMDSEP
 70
    46
  9
$DIMATFIT
 70
     3
  9
$DIMFRAC
 70
     0
  9
$DIMLDRBLK
  1

  9
$DIMLUNIT
 70
     2
  9
$DIMLWD
 70
    -2
  9
$DIMLWE
 70
    -2
  9
$DIMTMOVE
 70
     2
  9
$LUNITS
 70
     2
  9
$LUPREC
 70
     4
  9
$SKETCHINC
 40
0.1
  9
$FILLETRAD
 40
1.0
  9
$AUNITS
 70
     0
  9
$AUPREC
 70
     0
  9
$MENU
  1
ACAD
  9
$ELEVATION
 40
0.0
  9
$PELEVATION
 40
0.0
  9
$THICKNESS
 40
0.0
  9
$LIMCHECK
 70
     0
  9
$CHAMFERA
 40
0.0
  9
$CHAMFERB
 40
0.0
  9
$CHAMFERC
 40
0.0
  9
$CHAMFERD
 40
0.0
  9
$SKPOLY
 70
     0
  9
$TDCREATE
 40
2453046.711437708
  9
$TDUCREATE
 40
2453046.336437708
  9
$TDUPDATE
 40
2457185.493366354
  9
$TDUUPDATE
 40
2457185.118366354
  9
$TDINDWG
 40
0.0000593519
  9
$TDUSRTIMER
 40
0.0000593519
  9
$USRTIMER
 70
     1
  9
$ANGBASE
 50
0.0
  9
$ANGDIR
 70
     0
  9
$PDMODE
 70
     0
  9
$PDSIZE
 40
0.0
  9
$PLINEWID
 40
0.0
  9
$SPLFRAME
 70
     0
  9
$SPLINETYPE
 70
     6
  9
$SPLINESEGS
 70
     8
  9
$HANDSEED
  5
620
  9
$SURFTAB1
 70
     6
  9
$SURFTAB2
 70
     6
  9
$SURFTYPE
 70
     6
  9
$SURFU
 70
     6
  9
$SURFV
 70
     6
  9
$UCSBASE
  2

  9
$UCSNAME
  2

  9
$UCSORG
 10
0.0
 20
0.0
 30
0.0
  9
$UCSXDIR
 10
1.0
 20
0.0
 30
0.0
  9
$UCSYDIR
 10
0.0
 20
1.0
 30
0.0
  9
$UCSORTHOREF
  2

  9
$UCSORTHOVIEW
 70
     0
  9
$UCSORGTOP
 10
0.0
 20
0.0
 30
0.0
  9
$UCSORGBOTTOM
 10
0.0
 20
0.0
 30
0.0
  9
$UCSORGLEFT
 10
0.0
 20
0.0
 30
0.0
  9
$UCSORGRIGHT
 10
0.0
 20
0.0
 30
0.0
  9
$UCSORGFRONT
 10
0.0
 20
0.0
 30
0.0
  9
$UCSORGBACK
 10
0.0
 20
0.0
 30
0.0
  9
$PUCSBASE
  2

  9
$PUCSNAME
  2

  9
$PUCSORG
 10
0.0
 20
0.0
 30
0.0
  9
$PUCSXDIR
 10
1.0
 20
0.0
 30
0.0
  9
$PUCSYDIR
 10
0.0
 20
1.0
 30
0.0
  9
$PUCSORTHOREF
  2

  9
$PUCSORTHOVIEW
 70
     0
  9
$PUCSORGTOP
 10
0.0
 20
0.0
 30
0.0
  9
$PUCSORGBOTTOM
 10
0.0
 20
0.0
 30
0.0
  9
$PUCSORGLEFT
 10
0.0
 20
0.0
 30
0.0
  9
$PUCSORGRIGHT
 10
0.0
 20
0.0
 30
0.0
  9
$PUCSORGFRONT
 10
0.0
 20
0.0
 30
0.0
  9
$PUCSORGBACK
 10
0.0
 20
0.0
 30
0.0
  9
$USERI1
 70
     0
  9
$USERI2
 70
     0
  9
$USERI3
 70
     0
  9
$USERI4
 70
     0
  9
$USERI5
 70
     0
  9
$USERR1
 40
0.0
  9
$USERR2
 40
0.0
  9
$USERR3
 40
0.0
  9
$USERR4
 40
0.0
  9
$USERR5
 40
0.0
  9
$WORLDVIEW
 70
     1
  9
$SHADEDGE
 70
     3
  9
$SHADEDIF
 70
    70
  9
$TILEMODE
 70
     1
  9
$MAXACTVP
 70
    16
  9
$PINSBASE
 10
0.0
 20
0.0
 30
0.0
  9
$PLIMCHECK
 70
     0
  9
$PEXTMIN
 10
1.00000000E+20
 20
1.00000000E+20
 30
1.00000000E+20
  9
$PEXTMAX
 10
-1.00000000E+20
 20
-1.00000000E+20
 30
-1.00000000E+20
  9
$PLIMMIN
 10
0.0
 20
0.0
  9
$PLIMMAX
 10
12.0
 20
9.0
  9
$UNITMODE
 70
     0
  9
$VISRETAIN
 70
     0
  9
$PLINEGEN
 70
     0
  9
$PSLTSCALE
 70
     0
  9
$TREEDEPTH
 70
  3020
  9
$CMLSTYLE
  2
STANDARD
  9
$CMLJUST
 70
     0
  9
$CMLSCALE
 40
1.0
  9
$PROXYGRAPHICS
 70
     1
  9
$MEASUREMENT
 70
     1
  9
$CELWEIGHT
370
    -1
  9
$ENDCAPS
280
     0
  9
$JOINSTYLE
280
     0
  9
$LWDISPLAY
290
     0
  9
$INSUNITS
 70
     0
  9
$HYPERLINKBASE
  1

  9
$STYLESHEET
  1

  9
$XEDIT
290
     1
  9
$CEPSNTYPE
380
     0
  9
$PSTYLEMODE
290
     1
  9
$FINGERPRINTGUID
  2
{22155DCC-FCBC-44EC-8BE5-556861015EED}
  9
$VERSIONGUID
  2
{215CEC8D-8D7C-4998-AE26-2D4E7EEC139B}
  9
$EXTNAMES
290
     1
  9
$PSVPSCALE
 40
0.0
  9
$OLESTARTUP
290
     0
  9
$SORTENTS
280
   127
  9
$INDEXCTL
280
     0
  9
$HIDETEXT
280
     0
  9
$XCLIPFRAME
290
     0
  9
$HALOGAP
280
     0
  9
$OBSCOLOR
 70
   257
  9
$OBSLTYPE
280
     0
  9
$INTERSECTIONDISPLAY
280
     0
  9
$INTERSECTIONCOLOR
 70
   257
  9
$DIMASSOC
280
     1
  9
$PROJECTNAME
  1

  0
ENDSEC
  0
SECTION
  2
CLASSES
  0
CLASS
  1
DICTIONARYVAR
  2
AcDbDictionaryVar
  3
ObjectDBX Classes
 90
        0
 91
        8
280
     0
281
     0
  0
CLASS
  1
ACDBDICTIONARYWDFLT
  2
AcDbDictionaryWithDefault
  3
ObjectDBX Classes
 90
        0
 91
        1
280
     0
281
     0
  0
CLASS
  1
MATERIAL
  2
AcDbMaterial
  3
ObjectDBX Classes
 90
     1153
 91
        3
280
     0
281
     0
  0
CLASS
  1
VISUALSTYLE
  2
AcDbVisualStyle
  3
ObjectDBX Classes
 90
     4095
 91
       24
280
     0
281
     0
  0
CLASS
  1
TABLESTYLE
  2
AcDbTableStyle
  3
ObjectDBX Classes
 90
     4095
 91
        1
280
     0
281
     0
  0
CLASS
  1
SCALE
  2
AcDbScale
  3
ObjectDBX Classes
 90
     1153
 91
       17
280
     0
281
     0
  0
CLASS
  1
MLEADERSTYLE
  2
AcDbMLeaderStyle
  3
ACDB_MLEADERSTYLE_CLASS
 90
     4095
 91
        1
280
     0
281
     0
  0
CLASS
  1
ACDBSECTIONVIEWSTYLE
  2
AcDbSectionViewStyle
  3
ObjectDBX Classes
 90
     1025
 91
        1
280
     0
281
     0
  0
CLASS
  1
ACDBDETAILVIEWSTYLE
  2
AcDbDetailViewStyle
  3
ObjectDBX Classes
 90
     1025
 91
        1
280
     0
281
     0
  0
CLASS
  1
CELLSTYLEMAP
  2
AcDbCellStyleMap
  3
ObjectDBX Classes
 90
     1152
 91
        2
280
     0
281
     0
  0
ENDSEC
  0
SECTION
  2
TABLES
  0
TABLE
  2
VPORT
  5
512
330
0
100
AcDbSymbolTable
 70
     1
  0
VPORT
  5
53F
330
512
100
AcDbSymbolTableRecord
100
AcDbViewportTableRecord
  2
*ACTIVE
 70
     0
 10
0.0
 20
0.0
 11
1.0
 21
1.0
 12
14340.50795035
 22
10000.00013971
 13
0.0
 23
0.0
 14
1.0
 24
1.0
 15
10.0
 25
10.0
 16
0.0
 26
0.0
 36
1.0
 17
0.0
 27
0.0
 37
0.0
 40
21503.30364591
 41
1.34178905
 42
50.0
 43
0.0
 44
0.0
 50
0.0
 51
0.0
 71
     0
 72
   100
 73
     1
 74
     0
 75
     1
 76
     0
 77
     0
 78
     0
281
     0
 65
     1
110
0.0
120
0.0
130
0.0
111
1.0
121
0.0
131
0.0
112
0.0
122
1.0
132
0.0
 79
     0
146
0.0
1001
ACAD_NAV_VCDISPLAY
1070
     1
  0
ENDTAB
  0
TABLE
  2
LTYPE
  5
50F
330
0
100
AcDbSymbolTable
 70
     3
  0
LTYPE
  5
51B
330
50F
100
AcDbSymbolTableRecord
100
AcDbLinetypeTableRecord
  2
BYBLOCK
 70
     0
  3

 72
    65
 73
     0
 40
0.0
  0
LTYPE
  5
51C
330
50F
100
AcDbSymbolTableRecord
100
AcDbLinetypeTableRecord
  2
BYLAYER
 70
     0
  3

 72
    65
 73
     0
 40
0.0
  0
LTYPE
  5
51D
330
50F
100
AcDbSymbolTableRecord
100
AcDbLinetypeTableRecord
  2
CONTINUOUS
 70
     0
  3
Solid line
 72
    65
 73
     0
 40
0.0
  0
LTYPE
  5
527
330
50F
100
AcDbSymbolTableRecord
100
AcDbLinetypeTableRecord
  2
CENTER
 70
     0
  3
____ _ ____ _ ____ _ ____ _ ____ _ ____ _ ____ 
 72
    65
 73
     4
 40
2.0
 49
1.25
 74
     0
 49
-0.25
 74
     0
 49
0.25
 74
     0
 49
-0.25
 74
     0
  0
LTYPE
  5
528
330
50F
100
AcDbSymbolTableRecord
100
AcDbLinetypeTableRecord
  2
PHANTOM
 70
     0
  3
______  __  __  ______  __  __  ______  __  __ 
 72
    65
 73
     6
 40
2.5
 49
1.25
 74
     0
 49
-0.25
 74
     0
 49
0.25
 74
     0
 49
-0.25
 74
     0
 49
0.25
 74
     0
 49
-0.25
 74
     0
  0
ENDTAB
  0
TABLE
  2
LAYER
  5
50C
330
0
100
AcDbSymbolTable
 70
    11
  0
LAYER
  5
518
330
50C
100
AcDbSymbolTableRecord
100
AcDbLayerTableRecord
  2
0
 70
     0
 62
     7
  6
CONTINUOUS
370
    -3
390
542
  0
LAYER
  5
52C
330
50C
100
AcDbSymbolTableRecord
100
AcDbLayerTableRecord
  2
YKK_IN
 70
     0
 62
     1
  6
CONTINUOUS
370
    -3
390
542
  0
LAYER
  5
52D
330
50C
100
AcDbSymbolTableRecord
100
AcDbLayerTableRecord
  2
YKK_F1
 70
     0
 62
     7
  6
CONTINUOUS
370
    -3
390
542
  0
LAYER
  5
52E
330
50C
100
AcDbSymbolTableRecord
100
AcDbLayerTableRecord
  2
YKK_N1
 70
     0
 62
     2
  6
CONTINUOUS
370
    -3
390
542
  0
LAYER
  5
52F
330
50C
100
AcDbSymbolTableRecord
100
AcDbLayerTableRecord
  2
YKK_Z1
 70
     0
 62
     7
  6
CONTINUOUS
370
    -3
390
542
  0
LAYER
  5
530
330
50C
100
AcDbSymbolTableRecord
100
AcDbLayerTableRecord
  2
YKK_A1
 70
     0
 62
     4
  6
CONTINUOUS
370
    -3
390
542
  0
LAYER
  5
531
330
50C
100
AcDbSymbolTableRecord
100
AcDbLayerTableRecord
  2
YKK_A2
 70
     0
 62
     3
  6
CONTINUOUS
370
    -3
390
542
  0
LAYER
  5
532
330
50C
100
AcDbSymbolTableRecord
100
AcDbLayerTableRecord
  2
YKK_B1
 70
     0
 62
     4
  6
CONTINUOUS
370
    -3
390
542
  0
LAYER
  5
533
330
50C
100
AcDbSymbolTableRecord
100
AcDbLayerTableRecord
  2
YKK_C1
 70
     0
 62
     4
  6
CONTINUOUS
370
    -3
390
542
  0
LAYER
  5
534
330
50C
100
AcDbSymbolTableRecord
100
AcDbLayerTableRecord
  2
YKK_B2
 70
     0
 62
     5
  6
CONTINUOUS
370
    -3
390
542
  0
LAYER
  5
535
330
50C
100
AcDbSymbolTableRecord
100
AcDbLayerTableRecord
  2
YKK_C2
 70
     0
 62
     5
  6
CONTINUOUS
370
    -3
390
542
  0
ENDTAB
  0
TABLE
  2
STYLE
  5
50D
330
0
100
AcDbSymbolTable
 70
     2
  0
STYLE
  5
519
330
50D
100
AcDbSymbolTableRecord
100
AcDbTextStyleTableRecord
  2
STANDARD
 70
     0
 40
0.0
 41
1.0
 50
0.0
 71
     0
 42
0.2
  3
txt
  4
EXTFONT.SHX
  0
STYLE
  5
526
330
50D
100
AcDbSymbolTableRecord
100
AcDbTextStyleTableRecord
  2
EXTFONT
 70
     0
 40
60.0
 41
1.0
 50
0.0
 71
     0
 42
60.0
  3
txt.shx
  4
EXTFONT
  0
ENDTAB
  0
TABLE
  2
VIEW
  5
510
330
0
100
AcDbSymbolTable
 70
     0
  0
ENDTAB
  0
TABLE
  2
UCS
  5
511
330
0
100
AcDbSymbolTable
 70
     0
  0
ENDTAB
  0
TABLE
  2
APPID
  5
513
330
0
100
AcDbSymbolTable
 70
     5
  0
APPID
  5
51A
330
513
100
AcDbSymbolTableRecord
100
AcDbRegAppTableRecord
  2
ACAD
 70
     0
  0
APPID
  5
5CD
330
513
100
AcDbSymbolTableRecord
100
AcDbRegAppTableRecord
  2
ACAD_MLEADERVER
 70
     0
  0
APPID
  5
5E0
330
513
100
AcDbSymbolTableRecord
100
AcDbRegAppTableRecord
  2
ACAD_PSEXT
 70
     0
  0
APPID
  5
5E1
330
513
100
AcDbSymbolTableRecord
100
AcDbRegAppTableRecord
  2
ACAD_NAV_VCDISPLAY
 70
     0
  0
APPID
  5
5E2
330
513
100
AcDbSymbolTableRecord
100
AcDbRegAppTableRecord
  2
YKK_AP_LOCKLAYER
 70
     0
  0
ENDTAB
  0
TABLE
  2
DIMSTYLE
  5
514
330
0
100
AcDbSymbolTable
 70
     1
100
AcDbDimStyleTable
 71
     0
  0
DIMSTYLE
105
52B
330
514
100
AcDbSymbolTableRecord
100
AcDbDimStyleTableRecord
  2
YKK_SGDOT1
 70
     0
 41
20.0
 42
60.0
 43
0.0
 44
30.0
 73
     0
 74
     0
 77
     1
 78
    12
140
60.0
141
0.0
146
0.002
147
10.0
172
     1
279
     2
340
519
  0
ENDTAB
  0
TABLE
  2
BLOCK_RECORD
  5
50B
330
0
100
AcDbSymbolTable
 70
     0
  0
BLOCK_RECORD
  5
521
330
50B
100
AcDbSymbolTableRecord
100
AcDbBlockTableRecord
  2
*MODEL_SPACE
340
594
  0
BLOCK_RECORD
  5
51E
330
50B
100
AcDbSymbolTableRecord
100
AcDbBlockTableRecord
  2
*PAPER_SPACE
340
595
  0
ENDTAB
  0
ENDSEC
  0
SECTION
  2
BLOCKS
  0
BLOCK
  5
538
330
521
100
AcDbEntity
  8
0
100
AcDbBlockBegin
  2
*MODEL_SPACE
 70
     0
 10
0.0
 20
0.0
 30
0.0
  3
*MODEL_SPACE
  1

  0
ENDBLK
  5
539
330
521
100
AcDbEntity
  8
0
100
AcDbBlockEnd
  0
BLOCK
  5
536
330
51E
100
AcDbEntity
 67
     1
  8
0
100
AcDbBlockBegin
  2
*PAPER_SPACE
 70
     0
 10
0.0
 20
0.0
 30
0.0
  3
*PAPER_SPACE
  1

  0
ENDBLK
  5
537
330
51E
100
AcDbEntity
 67
     1
  8
0
100
AcDbBlockEnd
  0
ENDSEC
  0
SECTION
  2
ENTITIES
  0
LINE
  5
1D
330
521
100
AcDbEntity
  8
YKK_F1
100
AcDbLine
 10
0.0
 20
5600.0
 30
0.0
 11
28500.0
 21
5600.0
 31
0.0
  0
LINE
  5
1F
330
521
100
AcDbEntity
  8
YKK_F1
100
AcDbLine
 10
0.0
 20
6050.0
 30
0.0
 11
28500.0
 21
6050.0
 31
0.0
  0
LINE
  5
20
330
521
100
AcDbEntity
  8
YKK_F1
100
AcDbLine
 10
0.0
 20
12100.0
 30
0.0
 11
28500.0
 21
12100.0
 31
0.0
  0
LINE
  5
21
330
521
100
AcDbEntity
  8
YKK_F1
100
AcDbLine
 10
0.0
 20
12550.0
 30
0.0
 11
28500.0
 21
12550.0
 31
0.0
  0
LINE
  5
22
330
521
100
AcDbEntity
  8
YKK_F1
100
AcDbLine
 10
0.0
 20
6500.0
 30
0.0
 11
28500.0
 21
6500.0
 31
0.0
  0
LINE
  5
23
330
521
100
AcDbEntity
  8
YKK_F1
100
AcDbLine
 10
0.0
 20
13000.0
 30
0.0
 11
28500.0
 21
13000.0
 31
0.0
  0
LINE
  5
24
330
521
100
AcDbEntity
  8
YKK_F1
100
AcDbLine
 10
0.0
 20
18600.0
 30
0.0
 11
28500.0
 21
18600.0
 31
0.0
  0
LINE
  5
25
330
521
100
AcDbEntity
  8
YKK_F1
100
AcDbLine
 10
0.0
 20
19050.0
 30
0.0
 11
28500.0
 21
19050.0
 31
0.0
  0
LINE
  5
26
330
521
100
AcDbEntity
  8
YKK_F1
100
AcDbLine
 10
0.0
 20
0.0
 30
0.0
 11
28681.0155
 21
0.0
 31
0.0
  0
LINE
  5
27
330
521
100
AcDbEntity
  8
YKK_F1
100
AcDbLine
 10
0.0
 20
20000.0
 30
0.0
 11
28681.0155
 21
20000.0
 31
0.0
  0
LINE
  5
28
330
521
100
AcDbEntity
  8
YKK_F1
100
AcDbLine
 10
0.0
 20
19500.0
 30
0.0
 11
28500.0
 21
19500.0
 31
0.0
  0
LINE
  5
29
330
521
100
AcDbEntity
  8
YKK_F1
100
AcDbLine
 10
5700.0
 20
0.0
 30
0.0
 11
5700.0
 21
19500.0
 31
0.0
  0
LINE
  5
2A
330
521
100
AcDbEntity
  8
YKK_F1
100
AcDbLine
 10
11400.0
 20
0.0
 30
0.0
 11
11400.0
 21
19500.0
 31
0.0
  0
LINE
  5
2B
330
521
100
AcDbEntity
  8
YKK_F1
100
AcDbLine
 10
0.0
 20
0.0
 30
0.0
 11
0.0
 21
20000.0
 31
0.0
  0
POINT
  5
2C
330
521
100
AcDbEntity
  8
YKK_IN
100
AcDbPoint
 10
0.0
 20
0.0
 30
0.0
  0
POINT
  5
2E
330
521
100
AcDbEntity
  8
YKK_F1
100
AcDbPoint
 10
0.0
 20
0.0
 30
0.0
  0
POINT
  5
2F
330
521
100
AcDbEntity
  8
YKK_N1
100
AcDbPoint
 10
0.0
 20
0.0
 30
0.0
  0
POINT
  5
31
330
521
100
AcDbEntity
  8
YKK_Z1
100
AcDbPoint
 10
0.0
 20
0.0
 30
0.0
  0
POINT
  5
33
330
521
100
AcDbEntity
  8
YKK_A1
100
AcDbPoint
 10
0.0
 20
0.0
 30
0.0
  0
POINT
  5
35
330
521
100
AcDbEntity
  8
YKK_A2
100
AcDbPoint
 10
0.0
 20
0.0
 30
0.0
  0
POINT
  5
37
330
521
100
AcDbEntity
  8
YKK_B1
100
AcDbPoint
 10
0.0
 20
0.0
 30
0.0
  0
POINT
  5
39
330
521
100
AcDbEntity
  8
YKK_C1
100
AcDbPoint
 10
0.0
 20
0.0
 30
0.0
  0
POINT
  5
3B
330
521
100
AcDbEntity
  8
YKK_B2
100
AcDbPoint
 10
0.0
 20
0.0
 30
0.0
  0
POINT
  5
3D
330
521
100
AcDbEntity
  8
YKK_C2
100
AcDbPoint
 10
0.0
 20
0.0
 30
0.0
  0
TEXT
  5
3F
330
521
100
AcDbEntity
  8
0
100
AcDbText
 10
500.0
 20
19625.0
 30
0.0
 40
250.0
  1
ＢＲＤＰＰＪ２５　省エネ商品　ＹＤＰ－１００　ＲＣ枠　辷り出し窓
  7
EXTFONT
100
AcDbText
  0
LINE
  5
41
330
521
100
AcDbEntity
  8
YKK_N1
100
AcDbLine
 10
4200.0
 20
16705.0
 30
0.0
 11
4200.0
 21
15045.0
 31
0.0
  0
LINE
  5
42
330
521
100
AcDbEntity
  8
YKK_N1
100
AcDbLine
 10
1501.0
 20
13925.0
 30
0.0
 11
2299.0
 21
13925.0
 31
0.0
  0
LINE
  5
43
330
521
100
AcDbEntity
  8
YKK_Z1
  6
Continuous
100
AcDbLine
 10
2330.0
 20
14500.0
 30
0.0
 11
1900.0
 21
14500.0
 31
0.0
  0
LINE
  5
44
330
521
100
AcDbEntity
  8
YKK_Z1
  6
Continuous
100
AcDbLine
 10
2315.0
 20
14270.0
 30
0.0
 11
1900.0
 21
14270.0
 31
0.0
  0
LINE
  5
45
330
521
100
AcDbEntity
  8
YKK_B1
100
AcDbLine
 10
1520.0
 20
14425.0
 30
0.0
 11
2280.0
 21
14425.0
 31
0.0
  0
LINE
  5
46
330
521
100
AcDbEntity
  8
YKK_B1
100
AcDbLine
 10
1520.0
 20
14325.0
 30
0.0
 11
2280.0
 21
14325.0
 31
0.0
  0
LINE
  5
47
330
521
100
AcDbEntity
  8
YKK_B1
100
AcDbLine
 10
1572.0
 20
14397.0
 30
0.0
 11
2228.0
 21
14397.0
 31
0.0
  0
LINE
  5
48
330
521
100
AcDbEntity
  8
YKK_B1
100
AcDbLine
 10
1572.0
 20
14411.0
 30
0.0
 11
2228.0
 21
14411.0
 31
0.0
  0
LINE
  5
49
330
521
100
AcDbEntity
  8
YKK_N1
  6
ByBlock
100
AcDbLine
 10
1586.60254038
 20
13875.0
 30
0.0
 11
1586.60254038
 21
13975.0
 31
0.0
  0
LINE
  5
4A
330
521
100
AcDbEntity
  8
YKK_N1
  6
ByBlock
100
AcDbLine
 10
1500.0
 20
13925.0
 30
0.0
 11
1586.60254038
 21
13875.0
 31
0.0
  0
LINE
  5
4B
330
521
100
AcDbEntity
  8
YKK_N1
100
AcDbLine
 10
1500.0
 20
14265.0
 30
0.0
 11
1500.0
 21
13895.0
 31
0.0
  0
LINE
  5
4C
330
521
100
AcDbEntity
  8
YKK_Z1
  6
Continuous
100
AcDbLine
 10
1100.0
 20
14292.0
 30
0.0
 11
1460.0
 21
14292.0
 31
0.0
  0
LINE
  5
4D
330
521
100
AcDbEntity
  8
YKK_Z1
  6
Continuous
100
AcDbLine
 10
1460.0
 20
14280.0
 30
0.0
 11
1100.0
 21
14280.0
 31
0.0
  0
LINE
  5
4E
330
521
100
AcDbEntity
  8
YKK_Z1
  6
Continuous
100
AcDbLine
 10
1477.0
 20
14477.0
 30
0.0
 11
1100.0
 21
14477.0
 31
0.0
  0
LINE
  5
4F
330
521
100
AcDbEntity
  8
YKK_Z1
  6
Continuous
100
AcDbLine
 10
1485.0
 20
14485.0
 30
0.0
 11
1100.0
 21
14485.0
 31
0.0
  0
LINE
  5
50
330
521
100
AcDbEntity
  8
YKK_Z1
  6
CENTER
100
AcDbLine
 10
1460.0
 20
14400.0
 30
0.0
 11
1100.0
 21
14400.0
 31
0.0
  0
LINE
  5
52
330
521
100
AcDbEntity
  8
YKK_Z1
  6
Continuous
100
AcDbLine
 10
1475.0
 20
14475.0
 30
0.0
 11
1100.0
 21
14475.0
 31
0.0
  0
LINE
  5
53
330
521
100
AcDbEntity
  8
YKK_Z1
  6
Continuous
100
AcDbLine
 10
1445.0
 20
14430.0
 30
0.0
 11
1475.0
 21
14440.0
 31
0.0
  0
LINE
  5
54
330
521
100
AcDbEntity
  8
YKK_Z1
  6
Continuous
100
AcDbLine
 10
1185.0001351
 20
14325.0
 30
0.0
 11
1165.00014549
 21
14305.0
 31
0.0
  0
LINE
  5
55
330
521
100
AcDbEntity
  8
YKK_Z1
  6
Continuous
100
AcDbLine
 10
1184.99995497
 20
14305.0
 30
0.0
 11
1164.9999515
 21
14325.0
 31
0.0
  0
LINE
  5
56
330
521
100
AcDbEntity
  8
YKK_Z1
  6
Continuous
100
AcDbLine
 10
1445.0
 20
14305.0
 30
0.0
 11
1100.0
 21
14305.0
 31
0.0
  0
LINE
  5
57
330
521
100
AcDbEntity
  8
YKK_Z1
  6
Continuous
100
AcDbLine
 10
1278.28418106
 20
14475.0
 30
0.0
 11
1128.284259
 21
14325.0
 31
0.0
  0
LINE
  5
58
330
521
100
AcDbEntity
  8
YKK_Z1
  6
Continuous
100
AcDbLine
 10
1258.48519976
 20
14475.0
 30
0.0
 11
1108.4852777
 21
14325.0
 31
0.0
  0
LINE
  5
59
330
521
100
AcDbEntity
  8
YKK_Z1
  6
Continuous
100
AcDbLine
 10
1249.99992206
 20
14475.0
 30
0.0
 11
1100.0
 21
14325.0
 31
0.0
  0
LINE
  5
5A
330
521
100
AcDbEntity
  8
YKK_Z1
  6
Continuous
100
AcDbLine
 10
1100.0
 20
14325.0
 30
0.0
 11
1445.0
 21
14325.0
 31
0.0
  0
LINE
  5
5B
330
521
100
AcDbEntity
  8
YKK_Z1
  6
Continuous
100
AcDbLine
 10
1155.0
 20
14485.0
 30
0.0
 11
1155.0
 21
14477.0
 31
0.0
  0
LINE
  5
5C
330
521
100
AcDbEntity
  8
YKK_Z1
  6
Continuous
100
AcDbLine
 10
1165.0
 20
14485.0
 30
0.0
 11
1165.0
 21
14477.0
 31
0.0
  0
LINE
  5
5D
330
521
100
AcDbEntity
  8
YKK_Z1
  6
Continuous
100
AcDbLine
 10
1105.00017667
 20
14325.0
 30
0.0
 11
1100.0
 21
14319.99982073
 31
0.0
  0
LINE
  5
5E
330
521
100
AcDbEntity
  8
YKK_Z1
  6
Continuous
100
AcDbLine
 10
1125.00016628
 20
14325.0
 30
0.0
 11
1105.00017667
 21
14305.0
 31
0.0
  0
LINE
  5
5F
330
521
100
AcDbEntity
  8
YKK_Z1
  6
Continuous
100
AcDbLine
 10
1145.00015588
 20
14325.0
 30
0.0
 11
1125.00016628
 21
14305.0
 31
0.0
  0
LINE
  5
60
330
521
100
AcDbEntity
  8
YKK_Z1
  6
Continuous
100
AcDbLine
 10
1165.00014549
 20
14325.0
 30
0.0
 11
1145.00015588
 21
14305.0
 31
0.0
  0
LINE
  5
61
330
521
100
AcDbEntity
  8
YKK_Z1
  6
Continuous
100
AcDbLine
 10
1104.99994111
 20
14305.0
 30
0.0
 11
1100.0
 21
14309.99994024
 31
0.0
  0
LINE
  5
62
330
521
100
AcDbEntity
  8
YKK_Z1
  6
Continuous
100
AcDbLine
 10
1124.99994457
 20
14305.0
 30
0.0
 11
1104.99994111
 21
14325.0
 31
0.0
  0
LINE
  5
63
330
521
100
AcDbEntity
  8
YKK_Z1
  6
Continuous
100
AcDbLine
 10
1144.99994804
 20
14305.0
 30
0.0
 11
1124.99994457
 21
14325.0
 31
0.0
  0
LINE
  5
64
330
521
100
AcDbEntity
  8
YKK_Z1
  6
Continuous
100
AcDbLine
 10
1164.9999515
 20
14305.0
 30
0.0
 11
1144.99994804
 21
14325.0
 31
0.0
  0
LINE
  5
65
330
521
100
AcDbEntity
  8
YKK_Z1
  6
Continuous
100
AcDbLine
 10
1265.0
 20
14485.0
 30
0.0
 11
1265.0
 21
14477.0
 31
0.0
  0
LINE
  5
66
330
521
100
AcDbEntity
  8
YKK_Z1
  6
Continuous
100
AcDbLine
 10
1275.0
 20
14485.0
 30
0.0
 11
1275.0
 21
14477.0
 31
0.0
  0
LINE
  5
67
330
521
100
AcDbEntity
  8
YKK_Z1
  6
Continuous
100
AcDbLine
 10
1375.0
 20
14485.0
 30
0.0
 11
1375.0
 21
14477.0
 31
0.0
  0
LINE
  5
68
330
521
100
AcDbEntity
  8
YKK_Z1
  6
Continuous
100
AcDbLine
 10
1385.0
 20
14485.0
 30
0.0
 11
1385.0
 21
14477.0
 31
0.0
  0
LINE
  5
69
330
521
100
AcDbEntity
  8
YKK_Z1
  6
Continuous
100
AcDbLine
 10
1205.00012471
 20
14325.0
 30
0.0
 11
1185.0001351
 21
14305.0
 31
0.0
  0
LINE
  5
6A
330
521
100
AcDbEntity
  8
YKK_Z1
  6
Continuous
100
AcDbLine
 10
1225.00011432
 20
14325.0
 30
0.0
 11
1205.00012471
 21
14305.0
 31
0.0
  0
LINE
  5
6B
330
521
100
AcDbEntity
  8
YKK_Z1
  6
Continuous
100
AcDbLine
 10
1245.00010392
 20
14325.0
 30
0.0
 11
1225.00011432
 21
14305.0
 31
0.0
  0
LINE
  5
6C
330
521
100
AcDbEntity
  8
YKK_Z1
  6
Continuous
100
AcDbLine
 10
1265.00009353
 20
14325.0
 30
0.0
 11
1245.00010392
 21
14305.0
 31
0.0
  0
LINE
  5
6D
330
521
100
AcDbEntity
  8
YKK_Z1
  6
Continuous
100
AcDbLine
 10
1285.00008314
 20
14325.0
 30
0.0
 11
1265.00009353
 21
14305.0
 31
0.0
  0
LINE
  5
6E
330
521
100
AcDbEntity
  8
YKK_Z1
  6
Continuous
100
AcDbLine
 10
1305.00007275
 20
14325.0
 30
0.0
 11
1285.00008314
 21
14305.0
 31
0.0
  0
LINE
  5
6F
330
521
100
AcDbEntity
  8
YKK_Z1
  6
Continuous
100
AcDbLine
 10
1325.00006235
 20
14325.0
 30
0.0
 11
1305.00007275
 21
14305.0
 31
0.0
  0
LINE
  5
70
330
521
100
AcDbEntity
  8
YKK_Z1
  6
Continuous
100
AcDbLine
 10
1345.00005196
 20
14325.0
 30
0.0
 11
1325.00006235
 21
14305.0
 31
0.0
  0
LINE
  5
71
330
521
100
AcDbEntity
  8
YKK_Z1
  6
Continuous
100
AcDbLine
 10
1365.00004157
 20
14325.0
 30
0.0
 11
1345.00005196
 21
14305.0
 31
0.0
  0
LINE
  5
72
330
521
100
AcDbEntity
  8
YKK_Z1
  6
Continuous
100
AcDbLine
 10
1385.00003118
 20
14325.0
 30
0.0
 11
1365.00004157
 21
14305.0
 31
0.0
  0
LINE
  5
73
330
521
100
AcDbEntity
  8
YKK_Z1
  6
Continuous
100
AcDbLine
 10
1405.00002078
 20
14325.0
 30
0.0
 11
1385.00003118
 21
14305.0
 31
0.0
  0
LINE
  5
74
330
521
100
AcDbEntity
  8
YKK_Z1
  6
Continuous
100
AcDbLine
 10
1425.00001039
 20
14325.0
 30
0.0
 11
1405.00002078
 21
14305.0
 31
0.0
  0
LINE
  5
76
330
521
100
AcDbEntity
  8
YKK_Z1
  6
Continuous
100
AcDbLine
 10
1445.0
 20
14325.0
 30
0.0
 11
1425.00001039
 21
14305.0
 31
0.0
  0
LINE
  5
77
330
521
100
AcDbEntity
  8
YKK_Z1
  6
Continuous
100
AcDbLine
 10
1204.99995843
 20
14305.0
 30
0.0
 11
1184.99995497
 21
14325.0
 31
0.0
  0
LINE
  5
78
330
521
100
AcDbEntity
  8
YKK_Z1
  6
Continuous
100
AcDbLine
 10
1224.99996189
 20
14305.0
 30
0.0
 11
1204.99995843
 21
14325.0
 31
0.0
  0
LINE
  5
79
330
521
100
AcDbEntity
  8
YKK_Z1
  6
Continuous
100
AcDbLine
 10
1244.99996536
 20
14305.0
 30
0.0
 11
1224.99996189
 21
14325.0
 31
0.0
  0
LINE
  5
7A
330
521
100
AcDbEntity
  8
YKK_Z1
  6
Continuous
100
AcDbLine
 10
1264.99996882
 20
14305.0
 30
0.0
 11
1244.99996536
 21
14325.0
 31
0.0
  0
LINE
  5
7B
330
521
100
AcDbEntity
  8
YKK_Z1
  6
Continuous
100
AcDbLine
 10
1284.99997229
 20
14305.0
 30
0.0
 11
1264.99996882
 21
14325.0
 31
0.0
  0
LINE
  5
7C
330
521
100
AcDbEntity
  8
YKK_Z1
  6
Continuous
100
AcDbLine
 10
1304.99997575
 20
14305.0
 30
0.0
 11
1284.99997229
 21
14325.0
 31
0.0
  0
LINE
  5
7D
330
521
100
AcDbEntity
  8
YKK_Z1
  6
Continuous
100
AcDbLine
 10
1324.99997922
 20
14305.0
 30
0.0
 11
1304.99997575
 21
14325.0
 31
0.0
  0
LINE
  5
7E
330
521
100
AcDbEntity
  8
YKK_Z1
  6
Continuous
100
AcDbLine
 10
1344.99998268
 20
14305.0
 30
0.0
 11
1324.99997922
 21
14325.0
 31
0.0
  0
LINE
  5
7F
330
521
100
AcDbEntity
  8
YKK_Z1
  6
Continuous
100
AcDbLine
 10
1364.99998614
 20
14305.0
 30
0.0
 11
1344.99998268
 21
14325.0
 31
0.0
  0
LINE
  5
80
330
521
100
AcDbEntity
  8
YKK_Z1
  6
Continuous
100
AcDbLine
 10
1384.99998961
 20
14305.0
 30
0.0
 11
1364.99998614
 21
14325.0
 31
0.0
  0
LINE
  5
81
330
521
100
AcDbEntity
  8
YKK_Z1
  6
Continuous
100
AcDbLine
 10
1404.99999307
 20
14305.0
 30
0.0
 11
1384.99998961
 21
14325.0
 31
0.0
  0
LINE
  5
82
330
521
100
AcDbEntity
  8
YKK_Z1
  6
Continuous
100
AcDbLine
 10
1424.99999654
 20
14305.0
 30
0.0
 11
1404.99999307
 21
14325.0
 31
0.0
  0
LINE
  5
83
330
521
100
AcDbEntity
  8
YKK_Z1
  6
Continuous
100
AcDbLine
 10
1445.0
 20
14305.0
 30
0.0
 11
1424.99999654
 21
14325.0
 31
0.0
  0
LINE
  5
85
330
521
100
AcDbEntity
  8
YKK_Z1
  6
Continuous
100
AcDbLine
 10
1445.0
 20
14325.0
 30
0.0
 11
1445.0
 21
14305.0
 31
0.0
  0
LINE
  5
86
330
521
100
AcDbEntity
  8
YKK_Z1
  6
Continuous
100
AcDbLine
 10
1445.0
 20
14344.73103175
 30
0.0
 11
1425.2689785
 21
14325.0
 31
0.0
  0
LINE
  5
87
330
521
100
AcDbEntity
  8
YKK_Z1
  6
Continuous
100
AcDbLine
 10
1445.0
 20
14364.53002334
 30
0.0
 11
1405.4699972
 21
14325.0
 31
0.0
  0
LINE
  5
88
330
521
100
AcDbEntity
  8
YKK_Z1
  6
Continuous
100
AcDbLine
 10
1445.0
 20
14373.01530545
 30
0.0
 11
1396.9847195
 21
14325.0
 31
0.0
  0
LINE
  5
89
330
521
100
AcDbEntity
  8
YKK_Z1
  6
Continuous
100
AcDbLine
 10
1445.0
 20
14325.0
 30
0.0
 11
1445.0
 21
14430.0
 31
0.0
  0
LINE
  5
8A
330
521
100
AcDbEntity
  8
YKK_N1
  6
Continuous
100
AcDbLine
 10
1729.0
 20
14325.0
 30
0.0
 11
1729.0
 21
14270.0
 31
0.0
  0
LINE
  5
8B
330
521
100
AcDbEntity
  8
YKK_Z1
  6
Continuous
100
AcDbLine
 10
1460.0
 20
14296.7157263
 30
0.0
 11
1485.0
 21
14321.71573929
 31
0.0
  0
LINE
  5
8C
330
521
100
AcDbEntity
  8
YKK_Z1
  6
Continuous
100
AcDbLine
 10
1460.0
 20
14270.0
 30
0.0
 11
1460.0
 21
14325.0
 31
0.0
  0
LINE
  5
8D
330
521
100
AcDbEntity
  8
YKK_Z1
  6
Continuous
100
AcDbLine
 10
1485.0
 20
14325.0
 30
0.0
 11
1485.0
 21
14270.0
 31
0.0
  0
CIRCLE
  5
8E
330
521
100
AcDbEntity
  8
YKK_N1
100
AcDbCircle
 10
1729.0
 20
14270.0
 30
0.0
 40
10.0
  0
LINE
  5
8F
330
521
100
AcDbEntity
  8
YKK_N1
  6
Continuous
100
AcDbLine
 10
1545.0
 20
14270.0
 30
0.0
 11
1759.0
 21
14270.0
 31
0.0
  0
LINE
  5
90
330
521
100
AcDbEntity
  8
YKK_Z1
  6
Continuous
100
AcDbLine
 10
1485.0
 20
14270.0
 30
0.0
 11
1900.0
 21
14270.0
 31
0.0
  0
LINE
  5
91
330
521
100
AcDbEntity
  8
YKK_N1
100
AcDbLine
 10
1729.0
 20
14270.0
 30
0.0
 11
1729.0
 21
14250.0
 31
0.0
  0
CIRCLE
  5
92
330
521
100
AcDbEntity
  8
YKK_N1
100
AcDbCircle
 10
1729.0
 20
14270.0
 30
0.0
 40
6.5
  0
TEXT
  5
93
330
521
100
AcDbEntity
  8
YKK_N1
100
AcDbText
 10
1719.0
 20
14135.42857143
 30
0.0
 40
60.0
  1
55
 50
90.0
 41
0.8
100
AcDbText
  0
LINE
  5
94
330
521
100
AcDbEntity
  8
YKK_N1
  6
ByBlock
100
AcDbLine
 10
1586.60254038
 20
13975.0
 30
0.0
 11
1500.0
 21
13925.0
 31
0.0
  0
LINE
  5
95
330
521
100
AcDbEntity
  8
YKK_N1
  6
ByBlock
100
AcDbLine
 10
1500.0
 20
13925.0
 30
0.0
 11
1600.0
 21
13925.0
 31
0.0
  0
LINE
  5
96
330
521
100
AcDbEntity
  8
YKK_N1
  6
Continuous
100
AcDbLine
 10
1729.0
 20
14250.0
 30
0.0
 11
1729.0
 21
14132.28571429
 31
0.0
  0
LINE
  5
97
330
521
100
AcDbEntity
  8
YKK_Z1
  6
Continuous
100
AcDbLine
 10
1460.0
 20
14292.0
 30
0.0
 11
1460.0
 21
14280.0
 31
0.0
  0
LINE
  5
98
330
521
100
AcDbEntity
  8
YKK_Z1
  6
Continuous
100
AcDbLine
 10
1461.56854658
 20
14270.0
 30
0.0
 11
1485.0
 21
14293.4314656
 31
0.0
  0
LINE
  5
99
330
521
100
AcDbEntity
  8
YKK_Z1
  6
Continuous
100
AcDbLine
 10
1485.0
 20
14270.0
 30
0.0
 11
1460.0
 21
14270.0
 31
0.0
  0
TEXT
  5
9A
330
521
100
AcDbEntity
  8
YKK_N1
100
AcDbText
 10
1775.42857143
 20
13935.0
 30
0.0
 40
60.0
  1
W=800
 41
0.8
100
AcDbText
1001
ACAD
1000
MTEXTBEGIN
1070
    73
1070
     1
1070
    44
1040
1.0
1070
    74
1070
     0
1000
MTEXTEND
  0
CIRCLE
  5
9B
330
521
100
AcDbEntity
  8
YKK_N1
100
AcDbCircle
 10
1729.0
 20
14425.0
 30
0.0
 40
10.0
  0
CIRCLE
  5
9C
330
521
100
AcDbEntity
  8
YKK_N1
100
AcDbCircle
 10
1729.0
 20
14500.0
 30
0.0
 40
10.0
  0
CIRCLE
  5
9D
330
521
100
AcDbEntity
  8
YKK_N1
100
AcDbCircle
 10
1729.0
 20
14325.0
 30
0.0
 40
10.0
  0
CIRCLE
  5
9E
330
521
100
AcDbEntity
  8
YKK_N1
100
AcDbCircle
 10
1729.0
 20
14325.0
 30
0.0
 40
10.0
  0
CIRCLE
  5
9F
330
521
100
AcDbEntity
  8
YKK_N1
100
AcDbCircle
 10
1729.0
 20
14425.0
 30
0.0
 40
10.0
  0
LINE
  5
A0
330
521
100
AcDbEntity
  8
YKK_Z1
  6
Continuous
100
AcDbLine
 10
1470.0
 20
14500.0
 30
0.0
 11
1900.0
 21
14500.0
 31
0.0
  0
LINE
  5
A1
330
521
100
AcDbEntity
  8
YKK_N1
100
AcDbLine
 10
1729.0
 20
14425.0
 30
0.0
 11
1729.0
 21
14445.0
 31
0.0
  0
CIRCLE
  5
A2
330
521
100
AcDbEntity
  8
YKK_N1
100
AcDbCircle
 10
1729.0
 20
14425.0
 30
0.0
 40
6.5
  0
LINE
  5
A3
330
521
100
AcDbEntity
  8
YKK_N1
100
AcDbLine
 10
1729.0
 20
14500.0
 30
0.0
 11
1729.0
 21
14480.0
 31
0.0
  0
CIRCLE
  5
A4
330
521
100
AcDbEntity
  8
YKK_N1
100
AcDbCircle
 10
1729.0
 20
14500.0
 30
0.0
 40
6.5
  0
TEXT
  5
A5
330
521
100
AcDbEntity
  8
YKK_N1
100
AcDbText
 10
1719.0
 20
14523.14285714
 30
0.0
 40
60.0
  1
75
 50
90.0
 41
0.8
100
AcDbText
  0
LINE
  5
A6
330
521
100
AcDbEntity
  8
YKK_N1
100
AcDbLine
 10
1729.0
 20
14325.0
 30
0.0
 11
1729.0
 21
14345.0
 31
0.0
  0
CIRCLE
  5
A7
330
521
100
AcDbEntity
  8
YKK_N1
100
AcDbCircle
 10
1729.0
 20
14325.0
 30
0.0
 40
6.5
  0
TEXT
  5
A8
330
521
100
AcDbEntity
  8
YKK_N1
100
AcDbText
 10
1684.0
 20
14303.0
 30
0.0
 40
60.0
  1
100
 50
90.0
 41
0.8
100
AcDbText
1001
ACAD
1000
MTEXTBEGIN
1070
    73
1070
     1
1070
    44
1040
1.0
1070
    74
1070
     0
1000
MTEXTEND
  0
LINE
  5
A9
330
521
100
AcDbEntity
  8
YKK_N1
100
AcDbLine
 10
1729.0
 20
14325.0
 30
0.0
 11
1729.0
 21
14345.0
 31
0.0
  0
CIRCLE
  5
AA
330
521
100
AcDbEntity
  8
YKK_N1
100
AcDbCircle
 10
1729.0
 20
14325.0
 30
0.0
 40
6.5
  0
LINE
  5
AB
330
521
100
AcDbEntity
  8
YKK_N1
100
AcDbLine
 10
1729.0
 20
14425.0
 30
0.0
 11
1729.0
 21
14405.0
 31
0.0
  0
CIRCLE
  5
AC
330
521
100
AcDbEntity
  8
YKK_N1
100
AcDbCircle
 10
1729.0
 20
14425.0
 30
0.0
 40
6.5
  0
LINE
  5
AD
330
521
100
AcDbEntity
  8
YKK_N1
100
AcDbLine
 10
1729.0
 20
14345.0
 30
0.0
 11
1729.0
 21
14405.0
 31
0.0
  0
LINE
  5
AE
330
521
100
AcDbEntity
  8
YKK_N1
100
AcDbLine
 10
1679.0
 20
14425.0
 30
0.0
 11
1699.0
 21
14425.0
 31
0.0
  0
LINE
  5
AF
330
521
100
AcDbEntity
  8
YKK_N1
100
AcDbLine
 10
1679.0
 20
14325.0
 30
0.0
 11
1699.0
 21
14325.0
 31
0.0
  0
LINE
  5
B0
330
521
100
AcDbEntity
  8
YKK_N1
  6
Continuous
100
AcDbLine
 10
1729.0
 20
14345.0
 30
0.0
 11
1729.0
 21
14365.0
 31
0.0
  0
LINE
  5
B1
330
521
100
AcDbEntity
  8
YKK_N1
  6
Continuous
100
AcDbLine
 10
1669.0
 20
14325.0
 30
0.0
 11
1699.0
 21
14325.0
 31
0.0
  0
LINE
  5
B2
330
521
100
AcDbEntity
  8
YKK_N1
  6
Continuous
100
AcDbLine
 10
1729.0
 20
14500.0
 30
0.0
 11
1729.0
 21
14617.71428571
 31
0.0
  0
LINE
  5
B3
330
521
100
AcDbEntity
  8
YKK_N1
  6
Continuous
100
AcDbLine
 10
1729.0
 20
14445.0
 30
0.0
 11
1729.0
 21
14480.0
 31
0.0
  0
LINE
  5
B4
330
521
100
AcDbEntity
  8
YKK_N1
  6
Continuous
100
AcDbLine
 10
1669.0
 20
14500.0
 30
0.0
 11
1699.0
 21
14500.0
 31
0.0
  0
LINE
  5
B5
330
521
100
AcDbEntity
  8
YKK_N1
  6
Continuous
100
AcDbLine
 10
1669.0
 20
14425.0
 30
0.0
 11
1699.0
 21
14425.0
 31
0.0
  0
LINE
  5
B6
330
521
100
AcDbEntity
  8
YKK_Z1
  6
Continuous
100
AcDbLine
 10
1470.0
 20
14485.0
 30
0.0
 11
1470.0
 21
14500.0
 31
0.0
  0
LINE
  5
B7
330
521
100
AcDbEntity
  8
YKK_Z1
  6
Continuous
100
AcDbLine
 10
1477.0
 20
14425.0
 30
0.0
 11
1477.0
 21
14477.0
 31
0.0
  0
LINE
  5
B8
330
521
100
AcDbEntity
  8
YKK_Z1
  6
Continuous
100
AcDbLine
 10
1485.0
 20
14425.0
 30
0.0
 11
1485.0
 21
14485.0
 31
0.0
  0
LINE
  5
B9
330
521
100
AcDbEntity
  8
YKK_Z1
  6
Continuous
100
AcDbLine
 10
1485.0
 20
14425.0
 30
0.0
 11
1477.0
 21
14425.0
 31
0.0
  0
LINE
  5
BB
330
521
100
AcDbEntity
  8
YKK_Z1
  6
Continuous
100
AcDbLine
 10
1460.0
 20
14325.0
 30
0.0
 11
1485.0
 21
14325.0
 31
0.0
  0
LINE
  5
BC
330
521
100
AcDbEntity
  8
YKK_Z1
  6
Continuous
100
AcDbLine
 10
1475.0
 20
14440.0
 30
0.0
 11
1475.0
 21
14475.0
 31
0.0
  0
LINE
  5
BD
330
521
100
AcDbEntity
  8
YKK_B1
100
AcDbLine
 10
1580.0
 20
14383.0
 30
0.0
 11
1564.0
 21
14383.0
 31
0.0
  0
LINE
  5
BE
330
521
100
AcDbEntity
  8
YKK_B1
100
AcDbLine
 10
1580.0
 20
14375.0
 30
0.0
 11
1580.0
 21
14383.0
 31
0.0
  0
LINE
  5
BF
330
521
100
AcDbEntity
  8
YKK_B1
100
AcDbLine
 10
1564.0
 20
14425.0
 30
0.0
 11
1564.0
 21
14375.0
 31
0.0
  0
LINE
  5
C0
330
521
100
AcDbEntity
  8
YKK_B1
100
AcDbLine
 10
1580.0
 20
14425.0
 30
0.0
 11
1505.0
 21
14425.0
 31
0.0
  0
LINE
  5
C1
330
521
100
AcDbEntity
  8
YKK_B1
100
AcDbLine
 10
1525.0
 20
14375.0
 30
0.0
 11
1525.0
 21
14425.0
 31
0.0
  0
LINE
  5
C2
330
521
100
AcDbEntity
  8
YKK_B1
100
AcDbLine
 10
1580.0
 20
14375.0
 30
0.0
 11
1525.0
 21
14375.0
 31
0.0
  0
LINE
  5
C3
330
521
100
AcDbEntity
  8
YKK_B1
100
AcDbLine
 10
1475.0
 20
14425.0
 30
0.0
 11
1475.0
 21
14416.0
 31
0.0
  0
LINE
  5
C4
330
521
100
AcDbEntity
  8
YKK_B1
100
AcDbLine
 10
1500.0
 20
14425.0
 30
0.0
 11
1475.0
 21
14425.0
 31
0.0
  0
LINE
  5
C5
330
521
100
AcDbEntity
  8
YKK_B1
100
AcDbLine
 10
1475.0
 20
14325.0
 30
0.0
 11
1475.0
 21
14334.0
 31
0.0
  0
LINE
  5
C6
330
521
100
AcDbEntity
  8
YKK_B1
100
AcDbLine
 10
1500.0
 20
14325.0
 30
0.0
 11
1475.0
 21
14325.0
 31
0.0
  0
LINE
  5
C7
330
521
100
AcDbEntity
  8
YKK_B1
100
AcDbLine
 10
1500.0
 20
14371.0
 30
0.0
 11
1530.0
 21
14371.0
 31
0.0
  0
LINE
  5
C8
330
521
100
AcDbEntity
  8
YKK_B1
100
AcDbLine
 10
1500.0
 20
14325.0
 30
0.0
 11
1500.0
 21
14425.0
 31
0.0
  0
LINE
  5
C9
330
521
100
AcDbEntity
  8
YKK_N1
  6
ByBlock
100
AcDbLine
 10
2213.39745962
 20
13875.0
 30
0.0
 11
2300.0
 21
13925.0
 31
0.0
  0
LINE
  5
CA
330
521
100
AcDbEntity
  8
YKK_N1
  6
ByBlock
100
AcDbLine
 10
2213.39745962
 20
13975.0
 30
0.0
 11
2213.39745962
 21
13875.0
 31
0.0
  0
LINE
  5
CB
330
521
100
AcDbEntity
  8
YKK_N1
100
AcDbLine
 10
2300.0
 20
14265.0
 30
0.0
 11
2300.0
 21
13895.0
 31
0.0
  0
LINE
  5
CC
330
521
100
AcDbEntity
  8
YKK_Z1
  6
Continuous
100
AcDbLine
 10
2700.0
 20
14292.0
 30
0.0
 11
2340.0
 21
14292.0
 31
0.0
  0
LINE
  5
CD
330
521
100
AcDbEntity
  8
YKK_Z1
  6
Continuous
100
AcDbLine
 10
2340.0
 20
14280.0
 30
0.0
 11
2700.0
 21
14280.0
 31
0.0
  0
LINE
  5
CE
330
521
100
AcDbEntity
  8
YKK_Z1
  6
Continuous
100
AcDbLine
 10
2323.0
 20
14477.0
 30
0.0
 11
2700.0
 21
14477.0
 31
0.0
  0
LINE
  5
CF
330
521
100
AcDbEntity
  8
YKK_Z1
  6
Continuous
100
AcDbLine
 10
2315.0
 20
14485.0
 30
0.0
 11
2700.0
 21
14485.0
 31
0.0
  0
LINE
  5
D0
330
521
100
AcDbEntity
  8
YKK_Z1
  6
Continuous
100
AcDbLine
 10
2574.99988568
 20
14325.0
 30
0.0
 11
2594.99987529
 21
14305.0
 31
0.0
  0
LINE
  5
D1
330
521
100
AcDbEntity
  8
YKK_Z1
  6
Continuous
100
AcDbLine
 10
2575.00003811
 20
14305.0
 30
0.0
 11
2595.00004157
 21
14325.0
 31
0.0
  0
LINE
  5
D2
330
521
100
AcDbEntity
  8
YKK_Z1
  6
Continuous
100
AcDbLine
 10
2355.0
 20
14305.0
 30
0.0
 11
2700.0
 21
14305.0
 31
0.0
  0
LINE
  5
D3
330
521
100
AcDbEntity
  8
YKK_Z1
  6
CENTER
100
AcDbLine
 10
2340.0
 20
14400.0
 30
0.0
 11
2700.0
 21
14400.0
 31
0.0
  0
LINE
  5
D4
330
521
100
AcDbEntity
  8
YKK_Z1
  6
Continuous
100
AcDbLine
 10
2431.29935334
 20
14325.0
 30
0.0
 11
2581.29937932
 21
14475.0
 31
0.0
  0
LINE
  5
D5
330
521
100
AcDbEntity
  8
YKK_Z1
  6
Continuous
100
AcDbLine
 10
2325.0
 20
14475.0
 30
0.0
 11
2700.0
 21
14475.0
 31
0.0
  0
LINE
  5
D6
330
521
100
AcDbEntity
  8
YKK_Z1
  6
Continuous
100
AcDbLine
 10
2700.0
 20
14325.0
 30
0.0
 11
2355.0
 21
14325.0
 31
0.0
  0
LINE
  5
D7
330
521
100
AcDbEntity
  8
YKK_Z1
  6
Continuous
100
AcDbLine
 10
2340.0
 20
14270.0
 30
0.0
 11
2340.0
 21
14325.0
 31
0.0
  0
LINE
  5
D8
330
521
100
AcDbEntity
  8
YKK_Z1
  6
Continuous
100
AcDbLine
 10
2315.0
 20
14325.0
 30
0.0
 11
2315.0
 21
14270.0
 31
0.0
  0
LINE
  5
D9
330
521
100
AcDbEntity
  8
YKK_N1
  6
ByBlock
100
AcDbLine
 10
2300.0
 20
13925.0
 30
0.0
 11
2213.39745962
 21
13975.0
 31
0.0
  0
LINE
  5
DA
330
521
100
AcDbEntity
  8
YKK_N1
  6
ByBlock
100
AcDbLine
 10
2300.0
 20
13925.0
 30
0.0
 11
2200.0
 21
13925.0
 31
0.0
  0
LINE
  5
DB
330
521
100
AcDbEntity
  8
YKK_Z1
  6
Continuous
100
AcDbLine
 10
2340.0
 20
14292.0
 30
0.0
 11
2340.0
 21
14280.0
 31
0.0
  0
LINE
  5
DC
330
521
100
AcDbEntity
  8
YKK_Z1
  6
Continuous
100
AcDbLine
 10
2340.0
 20
14296.7157263
 30
0.0
 11
2315.0
 21
14271.71573063
 31
0.0
  0
LINE
  5
DD
330
521
100
AcDbEntity
  8
YKK_Z1
  6
Continuous
100
AcDbLine
 10
2315.0
 20
14270.0
 30
0.0
 11
2340.0
 21
14270.0
 31
0.0
  0
LINE
  5
DE
330
521
100
AcDbEntity
  8
YKK_B1
100
AcDbLine
 10
2300.0
 20
14371.0
 30
0.0
 11
2270.0
 21
14371.0
 31
0.0
  0
LINE
  5
DF
330
521
100
AcDbEntity
  8
YKK_B1
100
AcDbLine
 10
2220.0
 20
14383.0
 30
0.0
 11
2236.0
 21
14383.0
 31
0.0
  0
LINE
  5
E0
330
521
100
AcDbEntity
  8
YKK_B1
100
AcDbLine
 10
2220.0
 20
14375.0
 30
0.0
 11
2220.0
 21
14383.0
 31
0.0
  0
LINE
  5
E1
330
521
100
AcDbEntity
  8
YKK_B1
100
AcDbLine
 10
2236.0
 20
14425.0
 30
0.0
 11
2236.0
 21
14375.0
 31
0.0
  0
LINE
  5
E2
330
521
100
AcDbEntity
  8
YKK_B1
100
AcDbLine
 10
2220.0
 20
14425.0
 30
0.0
 11
2295.0
 21
14425.0
 31
0.0
  0
LINE
  5
E3
330
521
100
AcDbEntity
  8
YKK_B1
100
AcDbLine
 10
2275.0
 20
14375.0
 30
0.0
 11
2275.0
 21
14425.0
 31
0.0
  0
LINE
  5
E4
330
521
100
AcDbEntity
  8
YKK_B1
100
AcDbLine
 10
2220.0
 20
14375.0
 30
0.0
 11
2275.0
 21
14375.0
 31
0.0
  0
LINE
  5
E5
330
521
100
AcDbEntity
  8
YKK_Z1
  6
Continuous
100
AcDbLine
 10
2330.0
 20
14485.0
 30
0.0
 11
2330.0
 21
14500.0
 31
0.0
  0
LINE
  5
E6
330
521
100
AcDbEntity
  8
YKK_Z1
  6
Continuous
100
AcDbLine
 10
2535.0
 20
14485.0
 30
0.0
 11
2535.0
 21
14477.0
 31
0.0
  0
LINE
  5
E7
330
521
100
AcDbEntity
  8
YKK_Z1
  6
Continuous
100
AcDbLine
 10
2525.0
 20
14485.0
 30
0.0
 11
2525.0
 21
14477.0
 31
0.0
  0
LINE
  5
E8
330
521
100
AcDbEntity
  8
YKK_Z1
  6
Continuous
100
AcDbLine
 10
2425.0
 20
14485.0
 30
0.0
 11
2425.0
 21
14477.0
 31
0.0
  0
LINE
  5
E9
330
521
100
AcDbEntity
  8
YKK_Z1
  6
Continuous
100
AcDbLine
 10
2415.0
 20
14485.0
 30
0.0
 11
2415.0
 21
14477.0
 31
0.0
  0
LINE
  5
EA
330
521
100
AcDbEntity
  8
YKK_Z1
  6
Continuous
100
AcDbLine
 10
2323.0
 20
14425.0
 30
0.0
 11
2323.0
 21
14477.0
 31
0.0
  0
LINE
  5
EB
330
521
100
AcDbEntity
  8
YKK_Z1
  6
Continuous
100
AcDbLine
 10
2315.0
 20
14425.0
 30
0.0
 11
2315.0
 21
14485.0
 31
0.0
  0
LINE
  5
EC
330
521
100
AcDbEntity
  8
YKK_Z1
  6
Continuous
100
AcDbLine
 10
2315.0
 20
14425.0
 30
0.0
 11
2323.0
 21
14425.0
 31
0.0
  0
LINE
  5
ED
330
521
100
AcDbEntity
  8
YKK_Z1
  6
Continuous
100
AcDbLine
 10
2340.0
 20
14325.0
 30
0.0
 11
2315.0
 21
14300.00000433
 31
0.0
  0
LINE
  5
EE
330
521
100
AcDbEntity
  8
YKK_Z1
  6
Continuous
100
AcDbLine
 10
2340.0
 20
14325.0
 30
0.0
 11
2315.0
 21
14325.0
 31
0.0
  0
LINE
  5
EF
330
521
100
AcDbEntity
  8
YKK_Z1
  6
Continuous
100
AcDbLine
 10
2554.99989608
 20
14325.0
 30
0.0
 11
2574.99988568
 21
14305.0
 31
0.0
  0
LINE
  5
F0
330
521
100
AcDbEntity
  8
YKK_Z1
  6
Continuous
100
AcDbLine
 10
2534.99990647
 20
14325.0
 30
0.0
 11
2554.99989608
 21
14305.0
 31
0.0
  0
LINE
  5
F1
330
521
100
AcDbEntity
  8
YKK_Z1
  6
Continuous
100
AcDbLine
 10
2514.99991686
 20
14325.0
 30
0.0
 11
2534.99990647
 21
14305.0
 31
0.0
  0
LINE
  5
F2
330
521
100
AcDbEntity
  8
YKK_Z1
  6
Continuous
100
AcDbLine
 10
2494.99992725
 20
14325.0
 30
0.0
 11
2514.99991686
 21
14305.0
 31
0.0
  0
LINE
  5
F3
330
521
100
AcDbEntity
  8
YKK_Z1
  6
Continuous
100
AcDbLine
 10
2474.99993765
 20
14325.0
 30
0.0
 11
2494.99992725
 21
14305.0
 31
0.0
  0
LINE
  5
F4
330
521
100
AcDbEntity
  8
YKK_Z1
  6
Continuous
100
AcDbLine
 10
2454.99994804
 20
14325.0
 30
0.0
 11
2474.99993765
 21
14305.0
 31
0.0
  0
LINE
  5
F5
330
521
100
AcDbEntity
  8
YKK_Z1
  6
Continuous
100
AcDbLine
 10
2434.99995843
 20
14325.0
 30
0.0
 11
2454.99994804
 21
14305.0
 31
0.0
  0
LINE
  5
F6
330
521
100
AcDbEntity
  8
YKK_Z1
  6
Continuous
100
AcDbLine
 10
2414.99996882
 20
14325.0
 30
0.0
 11
2434.99995843
 21
14305.0
 31
0.0
  0
LINE
  5
F7
330
521
100
AcDbEntity
  8
YKK_Z1
  6
Continuous
100
AcDbLine
 10
2394.99997922
 20
14325.0
 30
0.0
 11
2414.99996882
 21
14305.0
 31
0.0
  0
LINE
  5
F8
330
521
100
AcDbEntity
  8
YKK_Z1
  6
Continuous
100
AcDbLine
 10
2374.99998961
 20
14325.0
 30
0.0
 11
2394.99997922
 21
14305.0
 31
0.0
  0
LINE
  5
FA
330
521
100
AcDbEntity
  8
YKK_Z1
  6
Continuous
100
AcDbLine
 10
2355.0
 20
14325.0
 30
0.0
 11
2374.99998961
 21
14305.0
 31
0.0
  0
LINE
  5
FB
330
521
100
AcDbEntity
  8
YKK_Z1
  6
Continuous
100
AcDbLine
 10
2555.00003464
 20
14305.0
 30
0.0
 11
2575.00003811
 21
14325.0
 31
0.0
  0
LINE
  5
FC
330
521
100
AcDbEntity
  8
YKK_Z1
  6
Continuous
100
AcDbLine
 10
2535.00003118
 20
14305.0
 30
0.0
 11
2555.00003464
 21
14325.0
 31
0.0
  0
LINE
  5
FD
330
521
100
AcDbEntity
  8
YKK_Z1
  6
Continuous
100
AcDbLine
 10
2515.00002771
 20
14305.0
 30
0.0
 11
2535.00003118
 21
14325.0
 31
0.0
  0
LINE
  5
FE
330
521
100
AcDbEntity
  8
YKK_Z1
  6
Continuous
100
AcDbLine
 10
2495.00002425
 20
14305.0
 30
0.0
 11
2515.00002771
 21
14325.0
 31
0.0
  0
LINE
  5
FF
330
521
100
AcDbEntity
  8
YKK_Z1
  6
Continuous
100
AcDbLine
 10
2475.00002078
 20
14305.0
 30
0.0
 11
2495.00002425
 21
14325.0
 31
0.0
  0
LINE
  5
100
330
521
100
AcDbEntity
  8
YKK_Z1
  6
Continuous
100
AcDbLine
 10
2455.00001732
 20
14305.0
 30
0.0
 11
2475.00002078
 21
14325.0
 31
0.0
  0
LINE
  5
101
330
521
100
AcDbEntity
  8
YKK_Z1
  6
Continuous
100
AcDbLine
 10
2435.00001386
 20
14305.0
 30
0.0
 11
2455.00001732
 21
14325.0
 31
0.0
  0
LINE
  5
102
330
521
100
AcDbEntity
  8
YKK_Z1
  6
Continuous
100
AcDbLine
 10
2415.00001039
 20
14305.0
 30
0.0
 11
2435.00001386
 21
14325.0
 31
0.0
  0
LINE
  5
103
330
521
100
AcDbEntity
  8
YKK_Z1
  6
Continuous
100
AcDbLine
 10
2395.00000693
 20
14305.0
 30
0.0
 11
2415.00001039
 21
14325.0
 31
0.0
  0
LINE
  5
104
330
521
100
AcDbEntity
  8
YKK_Z1
  6
Continuous
100
AcDbLine
 10
2375.00000346
 20
14305.0
 30
0.0
 11
2395.00000693
 21
14325.0
 31
0.0
  0
LINE
  5
105
330
521
100
AcDbEntity
  8
YKK_Z1
  6
Continuous
100
AcDbLine
 10
2355.0
 20
14305.0
 30
0.0
 11
2375.00000346
 21
14325.0
 31
0.0
  0
LINE
  5
107
330
521
100
AcDbEntity
  8
YKK_Z1
  6
Continuous
100
AcDbLine
 10
2355.0
 20
14325.0
 30
0.0
 11
2355.0
 21
14305.0
 31
0.0
  0
LINE
  5
108
330
521
100
AcDbEntity
  8
YKK_Z1
  6
Continuous
100
AcDbLine
 10
2411.50035832
 20
14325.0
 30
0.0
 11
2561.5003843
 21
14475.0
 31
0.0
  0
LINE
  5
109
330
521
100
AcDbEntity
  8
YKK_Z1
  6
Continuous
100
AcDbLine
 10
2403.01507474
 20
14325.0
 30
0.0
 11
2553.01510072
 21
14475.0
 31
0.0
  0
LINE
  5
10A
330
521
100
AcDbEntity
  8
YKK_Z1
  6
Continuous
100
AcDbLine
 10
2325.0
 20
14440.0
 30
0.0
 11
2325.0
 21
14475.0
 31
0.0
  0
LINE
  5
10B
330
521
100
AcDbEntity
  8
YKK_Z1
  6
Continuous
100
AcDbLine
 10
2355.0
 20
14430.0
 30
0.0
 11
2325.0
 21
14440.0
 31
0.0
  0
LINE
  5
10C
330
521
100
AcDbEntity
  8
YKK_Z1
  6
Continuous
100
AcDbLine
 10
2355.0
 20
14325.0
 30
0.0
 11
2355.0
 21
14430.0
 31
0.0
  0
LINE
  5
10D
330
521
100
AcDbEntity
  8
YKK_B1
100
AcDbLine
 10
2325.0
 20
14425.0
 30
0.0
 11
2325.0
 21
14416.0
 31
0.0
  0
LINE
  5
10E
330
521
100
AcDbEntity
  8
YKK_B1
100
AcDbLine
 10
2300.0
 20
14425.0
 30
0.0
 11
2325.0
 21
14425.0
 31
0.0
  0
LINE
  5
10F
330
521
100
AcDbEntity
  8
YKK_B1
100
AcDbLine
 10
2325.0
 20
14325.0
 30
0.0
 11
2325.0
 21
14334.0
 31
0.0
  0
LINE
  5
110
330
521
100
AcDbEntity
  8
YKK_B1
100
AcDbLine
 10
2300.0
 20
14325.0
 30
0.0
 11
2325.0
 21
14325.0
 31
0.0
  0
LINE
  5
111
330
521
100
AcDbEntity
  8
YKK_B1
100
AcDbLine
 10
2300.0
 20
14325.0
 30
0.0
 11
2300.0
 21
14425.0
 31
0.0
  0
LINE
  5
112
330
521
100
AcDbEntity
  8
YKK_Z1
  6
Continuous
100
AcDbLine
 10
2645.0
 20
14485.0
 30
0.0
 11
2645.0
 21
14477.0
 31
0.0
  0
LINE
  5
113
330
521
100
AcDbEntity
  8
YKK_Z1
  6
Continuous
100
AcDbLine
 10
2635.0
 20
14485.0
 30
0.0
 11
2635.0
 21
14477.0
 31
0.0
  0
LINE
  5
114
330
521
100
AcDbEntity
  8
YKK_Z1
  6
Continuous
100
AcDbLine
 10
2694.99982333
 20
14325.0
 30
0.0
 11
2700.0
 21
14319.99982073
 31
0.0
  0
LINE
  5
115
330
521
100
AcDbEntity
  8
YKK_Z1
  6
Continuous
100
AcDbLine
 10
2674.99983372
 20
14325.0
 30
0.0
 11
2694.99982333
 21
14305.0
 31
0.0
  0
LINE
  5
116
330
521
100
AcDbEntity
  8
YKK_Z1
  6
Continuous
100
AcDbLine
 10
2654.99984412
 20
14325.0
 30
0.0
 11
2674.99983372
 21
14305.0
 31
0.0
  0
LINE
  5
117
330
521
100
AcDbEntity
  8
YKK_Z1
  6
Continuous
100
AcDbLine
 10
2634.99985451
 20
14325.0
 30
0.0
 11
2654.99984412
 21
14305.0
 31
0.0
  0
LINE
  5
118
330
521
100
AcDbEntity
  8
YKK_Z1
  6
Continuous
100
AcDbLine
 10
2614.9998649
 20
14325.0
 30
0.0
 11
2634.99985451
 21
14305.0
 31
0.0
  0
LINE
  5
119
330
521
100
AcDbEntity
  8
YKK_Z1
  6
Continuous
100
AcDbLine
 10
2594.99987529
 20
14325.0
 30
0.0
 11
2614.9998649
 21
14305.0
 31
0.0
  0
LINE
  5
11A
330
521
100
AcDbEntity
  8
YKK_Z1
  6
Continuous
100
AcDbLine
 10
2695.00005889
 20
14305.0
 30
0.0
 11
2700.0
 21
14309.99994024
 31
0.0
  0
LINE
  5
11B
330
521
100
AcDbEntity
  8
YKK_Z1
  6
Continuous
100
AcDbLine
 10
2675.00005543
 20
14305.0
 30
0.0
 11
2695.00005889
 21
14325.0
 31
0.0
  0
LINE
  5
11C
330
521
100
AcDbEntity
  8
YKK_Z1
  6
Continuous
100
AcDbLine
 10
2655.00005196
 20
14305.0
 30
0.0
 11
2675.00005543
 21
14325.0
 31
0.0
  0
LINE
  5
11D
330
521
100
AcDbEntity
  8
YKK_Z1
  6
Continuous
100
AcDbLine
 10
2635.0000485
 20
14305.0
 30
0.0
 11
2655.00005196
 21
14325.0
 31
0.0
  0
LINE
  5
11E
330
521
100
AcDbEntity
  8
YKK_Z1
  6
Continuous
100
AcDbLine
 10
2615.00004503
 20
14305.0
 30
0.0
 11
2635.0000485
 21
14325.0
 31
0.0
  0
LINE
  5
11F
330
521
100
AcDbEntity
  8
YKK_Z1
  6
Continuous
100
AcDbLine
 10
2595.00004157
 20
14305.0
 30
0.0
 11
2615.00004503
 21
14325.0
 31
0.0
  0
LINE
  5
121
330
521
100
AcDbEntity
  8
YKK_N1
  6
CENTER
100
AcDbLine
 10
4100.0
 20
15025.0
 30
0.0
 11
4600.0
 21
15025.0
 31
0.0
  0
LINE
  5
122
330
521
100
AcDbEntity
  8
YKK_N1
100
AcDbLine
 10
4200.0
 20
15025.0
 30
0.0
 11
4200.0
 21
15045.0
 31
0.0
  0
CIRCLE
  5
123
330
521
100
AcDbEntity
  8
YKK_N1
100
AcDbCircle
 10
4200.0
 20
15025.0
 30
0.0
 40
6.5
  0
CIRCLE
  5
124
330
521
100
AcDbEntity
  8
YKK_N1
100
AcDbCircle
 10
4200.0
 20
15025.0
 30
0.0
 40
10.0
  0
TEXT
  5
125
330
521
100
AcDbEntity
  8
YKK_N1
100
AcDbText
 10
4190.0
 20
15780.14285714
 30
0.0
 40
60.0
  1
1700
 50
90.0
 41
0.8
100
AcDbText
1001
ACAD
1000
MTEXTBEGIN
1070
    73
1070
     1
1070
    44
1040
1.0
1070
    74
1070
     0
1000
MTEXTEND
  0
TEXT
  5
126
330
521
100
AcDbEntity
  8
0
100
AcDbText
 10
100.0
 20
18737.5
 30
0.0
 40
175.0
  1
W＝800　H＝600
  7
EXTFONT
100
AcDbText
  0
TEXT
  5
127
330
521
100
AcDbEntity
  8
0
100
AcDbText
 10
100.0
 20
19187.5
 30
0.0
 40
175.0
  1
辷り出し窓
  7
EXTFONT
100
AcDbText
  0
LINE
  5
128
330
521
100
AcDbEntity
  8
YKK_N1
100
AcDbLine
 10
1501.0
 20
16325.0
 30
0.0
 11
2299.0
 21
16325.0
 31
0.0
  0
TEXT
  5
129
330
521
100
AcDbEntity
  8
YKK_A1
100
AcDbText
 10
1921.2
 20
16870.0
 30
0.0
 40
60.0
  1
複層ガラス
 41
0.8
 72
     2
 11
2190.0
 21
16870.0
 31
0.0
100
AcDbText
  0
TEXT
  5
12A
330
521
100
AcDbEntity
  8
YKK_A1
100
AcDbText
 10
1886.0
 20
16800.0
 30
0.0
 40
60.0
  1
5+A12+5
 41
0.8
 72
     2
 11
2190.0
 21
16800.0
 31
0.0
100
AcDbText
  0
LINE
  5
12B
330
521
100
AcDbEntity
  8
YKK_A1
  6
CENTER
100
AcDbLine
 10
1530.0
 20
16725.0
 30
0.0
 11
2270.0
 21
17295.0
 31
0.0
  0
LINE
  5
12C
330
521
100
AcDbEntity
  8
YKK_A1
100
AcDbLine
 10
2220.0
 20
17245.0
 30
0.0
 11
1580.0
 21
17245.0
 31
0.0
  0
LINE
  5
12D
330
521
100
AcDbEntity
  8
YKK_A1
100
AcDbLine
 10
1580.0
 20
16770.0
 30
0.0
 11
2220.0
 21
16770.0
 31
0.0
  0
LINE
  5
12E
330
521
100
AcDbEntity
  8
YKK_A1
100
AcDbLine
 10
2270.0
 20
17295.0
 30
0.0
 11
1530.0
 21
17295.0
 31
0.0
  0
LINE
  5
12F
330
521
100
AcDbEntity
  8
YKK_A1
100
AcDbLine
 10
1530.0
 20
16725.0
 30
0.0
 11
2270.0
 21
16725.0
 31
0.0
  0
LINE
  5
130
330
521
100
AcDbEntity
  8
YKK_A1
100
AcDbLine
 10
2300.0
 20
17325.0
 30
0.0
 11
1500.0
 21
17325.0
 31
0.0
  0
LINE
  5
131
330
521
100
AcDbEntity
  8
YKK_A1
100
AcDbLine
 10
1500.0
 20
16725.0
 30
0.0
 11
2300.0
 21
16725.0
 31
0.0
  0
LINE
  5
132
330
521
100
AcDbEntity
  8
YKK_A1
100
AcDbLine
 10
2315.0
 20
17340.0
 30
0.0
 11
1485.0
 21
17340.0
 31
0.0
  0
LINE
  5
133
330
521
100
AcDbEntity
  8
YKK_A1
100
AcDbLine
 10
1485.0
 20
16725.0
 30
0.0
 11
2315.0
 21
16725.0
 31
0.0
  0
LINE
  5
134
330
521
100
AcDbEntity
  8
YKK_A1
100
AcDbLine
 10
1580.0
 20
17245.0
 30
0.0
 11
1580.0
 21
16770.0
 31
0.0
  0
LINE
  5
135
330
521
100
AcDbEntity
  8
YKK_A1
100
AcDbLine
 10
1530.0
 20
17295.0
 30
0.0
 11
1530.0
 21
16725.0
 31
0.0
  0
LINE
  5
136
330
521
100
AcDbEntity
  8
YKK_A1
100
AcDbLine
 10
1500.0
 20
17325.0
 30
0.0
 11
1500.0
 21
16725.0
 31
0.0
  0
LINE
  5
137
330
521
100
AcDbEntity
  8
YKK_A1
100
AcDbLine
 10
1485.0
 20
17340.0
 30
0.0
 11
1485.0
 21
16725.0
 31
0.0
  0
LINE
  5
138
330
521
100
AcDbEntity
  8
YKK_N1
100
AcDbLine
 10
1500.0
 20
16665.0
 30
0.0
 11
1500.0
 21
16295.0
 31
0.0
  0
LINE
  5
139
330
521
100
AcDbEntity
  8
YKK_N1
  6
ByBlock
100
AcDbLine
 10
1586.60254038
 20
16375.0
 30
0.0
 11
1500.0
 21
16325.0
 31
0.0
  0
LINE
  5
13A
330
521
100
AcDbEntity
  8
YKK_N1
  6
ByBlock
100
AcDbLine
 10
1586.60254038
 20
16275.0
 30
0.0
 11
1586.60254038
 21
16375.0
 31
0.0
  0
LINE
  5
13B
330
521
100
AcDbEntity
  8
YKK_N1
  6
ByBlock
100
AcDbLine
 10
1500.0
 20
16325.0
 30
0.0
 11
1586.60254038
 21
16275.0
 31
0.0
  0
LINE
  5
13C
330
521
100
AcDbEntity
  8
YKK_N1
  6
ByBlock
100
AcDbLine
 10
1500.0
 20
16325.0
 30
0.0
 11
1600.0
 21
16325.0
 31
0.0
  0
TEXT
  5
13D
330
521
100
AcDbEntity
  8
YKK_N1
100
AcDbText
 10
1775.42857143
 20
16335.0
 30
0.0
 40
60.0
  1
W=800
 41
0.8
100
AcDbText
1001
ACAD
1000
MTEXTBEGIN
1070
    73
1070
     1
1070
    44
1040
1.0
1070
    74
1070
     0
1000
MTEXTEND
  0
LINE
  5
13E
330
521
100
AcDbEntity
  8
YKK_A2
  6
ByBlock
100
AcDbLine
 10
2000.0
 20
16761.0
 30
0.0
 11
2000.0
 21
16749.0
 31
0.0
  0
LINE
  5
13F
330
521
100
AcDbEntity
  8
YKK_A2
  6
ByBlock
100
AcDbLine
 10
1928.0
 20
16745.0
 30
0.0
 11
1909.0
 21
16745.0
 31
0.0
  0
LINE
  5
140
330
521
100
AcDbEntity
  8
YKK_A2
  6
ByBlock
100
AcDbLine
 10
1904.0
 20
16761.0
 30
0.0
 11
1904.0
 21
16749.0
 31
0.0
  0
LINE
  5
141
330
521
100
AcDbEntity
  8
YKK_A2
  6
ByBlock
100
AcDbLine
 10
1896.0
 20
16761.0
 30
0.0
 11
1896.0
 21
16745.0
 31
0.0
  0
LINE
  5
142
330
521
100
AcDbEntity
  8
YKK_A2
  6
ByBlock
100
AcDbLine
 10
1896.0
 20
16745.0
 30
0.0
 11
1872.0
 21
16745.0
 31
0.0
  0
CIRCLE
  5
143
330
521
100
AcDbEntity
  8
YKK_A2
  6
ByBlock
100
AcDbCircle
 10
1920.0
 20
16735.0
 30
0.0
 40
4.099999999999998
  0
CIRCLE
  5
144
330
521
100
AcDbEntity
  8
YKK_A2
  6
ByBlock
100
AcDbCircle
 10
1920.0
 20
16735.0
 30
0.0
 40
2.25
  0
LINE
  5
145
330
521
100
AcDbEntity
  8
YKK_A2
  6
ByBlock
100
AcDbLine
 10
1909.0
 20
16735.0
 30
0.0
 11
1900.0
 21
16735.0
 31
0.0
  0
LINE
  5
146
330
521
100
AcDbEntity
  8
YKK_A2
  6
ByBlock
100
AcDbLine
 10
1891.0
 20
16725.0
 30
0.0
 11
1900.0
 21
16735.0
 31
0.0
  0
CIRCLE
  5
147
330
521
100
AcDbEntity
  8
YKK_A2
  6
ByBlock
100
AcDbCircle
 10
1880.0
 20
16735.0
 30
0.0
 40
4.099999999999998
  0
CIRCLE
  5
148
330
521
100
AcDbEntity
  8
YKK_A2
  6
ByBlock
100
AcDbCircle
 10
1880.0
 20
16735.0
 30
0.0
 40
2.25
  0
LINE
  5
149
330
521
100
AcDbEntity
  8
YKK_A2
  6
ByBlock
100
AcDbLine
 10
1872.0
 20
16725.0
 30
0.0
 11
1928.0
 21
16725.0
 31
0.0
  0
LINE
  5
14A
330
521
100
AcDbEntity
  8
YKK_A2
  6
ByBlock
100
AcDbLine
 10
1872.0
 20
16745.0
 30
0.0
 11
1872.0
 21
16725.0
 31
0.0
  0
LINE
  5
14B
330
521
100
AcDbEntity
  8
YKK_A2
  6
ByBlock
100
AcDbLine
 10
1891.0
 20
16745.0
 30
0.0
 11
1891.0
 21
16725.0
 31
0.0
  0
LINE
  5
14C
330
521
100
AcDbEntity
  8
YKK_A2
  6
ByBlock
100
AcDbLine
 10
1928.0
 20
16725.0
 30
0.0
 11
1928.0
 21
16745.0
 31
0.0
  0
LINE
  5
14D
330
521
100
AcDbEntity
  8
YKK_A2
  6
ByBlock
100
AcDbLine
 10
1900.0
 20
16735.0
 30
0.0
 11
1904.0
 21
16749.0
 31
0.0
  0
LINE
  5
14E
330
521
100
AcDbEntity
  8
YKK_A2
  6
ByBlock
100
AcDbLine
 10
1909.0
 20
16749.0
 30
0.0
 11
1909.0
 21
16725.0
 31
0.0
  0
LINE
  5
14F
330
521
100
AcDbEntity
  8
YKK_A2
  6
ByBlock
100
AcDbLine
 10
2000.0
 20
16749.0
 30
0.0
 11
1904.0
 21
16749.0
 31
0.0
  0
LINE
  5
150
330
521
100
AcDbEntity
  8
YKK_A2
  6
ByBlock
100
AcDbLine
 10
2000.0
 20
16761.0
 30
0.0
 11
1896.0
 21
16761.0
 31
0.0
  0
TEXT
  5
151
330
521
100
AcDbEntity
  8
YKK_N1
100
AcDbText
 10
2690.0
 20
16900.42857143
 30
0.0
 40
60.0
  1
H=600
 50
90.0
 41
0.8
100
AcDbText
1001
ACAD
1000
MTEXTBEGIN
1070
    73
1070
     1
1070
    44
1040
1.0
1070
    74
1070
     0
1000
MTEXTEND
  0
LINE
  5
152
330
521
100
AcDbEntity
  8
YKK_N1
100
AcDbLine
 10
2700.0
 20
16726.0
 30
0.0
 11
2700.0
 21
17324.0
 31
0.0
  0
LINE
  5
153
330
521
100
AcDbEntity
  8
YKK_A1
100
AcDbLine
 10
2220.0
 20
16770.0
 30
0.0
 11
2220.0
 21
17245.0
 31
0.0
  0
LINE
  5
154
330
521
100
AcDbEntity
  8
YKK_A1
100
AcDbLine
 10
2270.0
 20
16725.0
 30
0.0
 11
2270.0
 21
17295.0
 31
0.0
  0
LINE
  5
155
330
521
100
AcDbEntity
  8
YKK_A1
100
AcDbLine
 10
2300.0
 20
16725.0
 30
0.0
 11
2300.0
 21
17325.0
 31
0.0
  0
LINE
  5
156
330
521
100
AcDbEntity
  8
YKK_A1
100
AcDbLine
 10
2315.0
 20
16725.0
 30
0.0
 11
2315.0
 21
17340.0
 31
0.0
  0
LINE
  5
157
330
521
100
AcDbEntity
  8
YKK_N1
100
AcDbLine
 10
2360.0
 20
16725.0
 30
0.0
 11
2730.0
 21
16725.0
 31
0.0
  0
LINE
  5
158
330
521
100
AcDbEntity
  8
YKK_N1
100
AcDbLine
 10
2300.0
 20
16665.0
 30
0.0
 11
2300.0
 21
16295.0
 31
0.0
  0
LINE
  5
159
330
521
100
AcDbEntity
  8
YKK_N1
  6
ByBlock
100
AcDbLine
 10
2213.39745962
 20
16275.0
 30
0.0
 11
2300.0
 21
16325.0
 31
0.0
  0
LINE
  5
15A
330
521
100
AcDbEntity
  8
YKK_N1
  6
ByBlock
100
AcDbLine
 10
2300.0
 20
16325.0
 30
0.0
 11
2213.39745962
 21
16375.0
 31
0.0
  0
LINE
  5
15B
330
521
100
AcDbEntity
  8
YKK_N1
  6
ByBlock
100
AcDbLine
 10
2300.0
 20
16325.0
 30
0.0
 11
2200.0
 21
16325.0
 31
0.0
  0
LINE
  5
15C
330
521
100
AcDbEntity
  8
YKK_N1
  6
ByBlock
100
AcDbLine
 10
2213.39745962
 20
16375.0
 30
0.0
 11
2213.39745962
 21
16275.0
 31
0.0
  0
LINE
  5
15D
330
521
100
AcDbEntity
  8
YKK_N1
  6
ByBlock
100
AcDbLine
 10
2650.0
 20
16811.60254038
 30
0.0
 11
2700.0
 21
16725.0
 31
0.0
  0
LINE
  5
15E
330
521
100
AcDbEntity
  8
YKK_N1
  6
ByBlock
100
AcDbLine
 10
2750.0
 20
16811.60254038
 30
0.0
 11
2650.0
 21
16811.60254038
 31
0.0
  0
LINE
  5
15F
330
521
100
AcDbEntity
  8
YKK_N1
  6
ByBlock
100
AcDbLine
 10
2700.0
 20
16725.0
 30
0.0
 11
2750.0
 21
16811.60254038
 31
0.0
  0
LINE
  5
160
330
521
100
AcDbEntity
  8
YKK_N1
  6
ByBlock
100
AcDbLine
 10
2700.0
 20
16725.0
 30
0.0
 11
2700.0
 21
16825.0
 31
0.0
  0
LINE
  5
161
330
521
100
AcDbEntity
  8
YKK_N1
100
AcDbLine
 10
2360.0
 20
17325.0
 30
0.0
 11
2730.0
 21
17325.0
 31
0.0
  0
LINE
  5
162
330
521
100
AcDbEntity
  8
YKK_N1
  6
ByBlock
100
AcDbLine
 10
2750.0
 20
17238.39745962
 30
0.0
 11
2700.0
 21
17325.0
 31
0.0
  0
LINE
  5
163
330
521
100
AcDbEntity
  8
YKK_N1
  6
ByBlock
100
AcDbLine
 10
2650.0
 20
17238.39745962
 30
0.0
 11
2750.0
 21
17238.39745962
 31
0.0
  0
LINE
  5
164
330
521
100
AcDbEntity
  8
YKK_N1
  6
ByBlock
100
AcDbLine
 10
2700.0
 20
17325.0
 30
0.0
 11
2650.0
 21
17238.39745962
 31
0.0
  0
LINE
  5
165
330
521
100
AcDbEntity
  8
YKK_N1
  6
ByBlock
100
AcDbLine
 10
2700.0
 20
17325.0
 30
0.0
 11
2700.0
 21
17225.0
 31
0.0
  0
TEXT
  5
166
330
521
100
AcDbEntity
  8
YKK_N1
100
AcDbText
 10
4190.0
 20
16900.42857143
 30
0.0
 40
60.0
  1
H=600
 50
90.0
 41
0.8
100
AcDbText
1001
ACAD
1000
MTEXTBEGIN
1070
    73
1070
     1
1070
    44
1040
1.0
1070
    74
1070
     0
1000
MTEXTEND
  0
LINE
  5
167
330
521
100
AcDbEntity
  8
YKK_N1
100
AcDbLine
 10
4200.0
 20
16726.0
 30
0.0
 11
4200.0
 21
17324.0
 31
0.0
  0
LINE
  5
168
330
521
100
AcDbEntity
  8
YKK_N1
  6
Continuous
100
AcDbLine
 10
3625.0
 20
16725.0
 30
0.0
 11
3625.0
 21
17183.0
 31
0.0
  0
LINE
  5
169
330
521
100
AcDbEntity
  8
YKK_Z1
  6
Continuous
100
AcDbLine
 10
3640.0
 20
17345.0
 30
0.0
 11
3640.0
 21
17025.0
 31
0.0
  0
LINE
  5
16A
330
521
100
AcDbEntity
  8
YKK_Z1
  6
Continuous
100
AcDbLine
 10
3855.0
 20
17340.0
 30
0.0
 11
3855.0
 21
17025.0
 31
0.0
  0
LINE
  5
16B
330
521
100
AcDbEntity
  8
YKK_C1
  6
PHANTOM
100
AcDbLine
 10
3700.0
 20
17168.0
 30
0.0
 11
3384.00331439
 21
16620.67003868
 31
0.0
  0
LINE
  5
16D
330
521
100
AcDbEntity
  8
YKK_C1
100
AcDbLine
 10
3700.0
 20
16790.0
 30
0.0
 11
3700.0
 21
17225.0
 31
0.0
  0
LINE
  5
16E
330
521
100
AcDbEntity
  8
YKK_C1
100
AcDbLine
 10
3800.0
 20
16745.0
 30
0.0
 11
3800.0
 21
17305.0
 31
0.0
  0
LINE
  5
16F
330
521
100
AcDbEntity
  8
YKK_C1
100
AcDbLine
 10
3728.0
 20
16762.0
 30
0.0
 11
3728.0
 21
17253.0
 31
0.0
  0
LINE
  5
170
330
521
100
AcDbEntity
  8
YKK_C1
100
AcDbLine
 10
3714.0
 20
16762.0
 30
0.0
 11
3714.0
 21
17253.0
 31
0.0
  0
LINE
  5
171
330
521
100
AcDbEntity
  8
YKK_Z1
  6
Continuous
100
AcDbLine
 10
3713.0
 20
16655.0
 30
0.0
 11
3625.0
 21
16639.7
 31
0.0
  0
LINE
  5
172
330
521
100
AcDbEntity
  8
YKK_Z1
  6
Continuous
100
AcDbLine
 10
3800.0
 20
16593.70064666
 30
0.0
 11
3650.0
 21
16443.70062068
 31
0.0
  0
LINE
  5
173
330
521
100
AcDbEntity
  8
YKK_Z1
  6
Continuous
100
AcDbLine
 10
3800.0
 20
16613.49964168
 30
0.0
 11
3650.0
 21
16463.4996157
 31
0.0
  0
LINE
  5
174
330
521
100
AcDbEntity
  8
YKK_Z1
  6
Continuous
100
AcDbLine
 10
3800.0
 20
16621.98492526
 30
0.0
 11
3650.0
 21
16471.98489928
 31
0.0
  0
LINE
  5
175
330
521
100
AcDbEntity
  8
YKK_Z1
  6
Continuous
100
AcDbLine
 10
3800.0
 20
16635.0
 30
0.0
 11
3650.0
 21
16610.0
 31
0.0
  0
ARC
  5
176
330
521
100
AcDbEntity
  8
YKK_C1
  6
PHANTOM
100
AcDbCircle
 10
3414.67202263
 20
17251.92547853
 30
0.0
 40
632.0000000000002
100
AcDbArc
 50
267.2185476
 51
296.83792884
  0
LINE
  5
177
330
521
100
AcDbEntity
  8
YKK_Z1
  6
Continuous
100
AcDbLine
 10
3640.0
 20
16417.0
 30
0.0
 11
3648.0
 21
16417.0
 31
0.0
  0
LINE
  5
178
330
521
100
AcDbEntity
  8
YKK_Z1
  6
Continuous
100
AcDbLine
 10
3640.0
 20
16427.0
 30
0.0
 11
3648.0
 21
16427.0
 31
0.0
  0
LINE
  5
179
330
521
100
AcDbEntity
  8
YKK_Z1
  6
Continuous
100
AcDbLine
 10
3640.0
 20
16527.0
 30
0.0
 11
3648.0
 21
16527.0
 31
0.0
  0
LINE
  5
17A
330
521
100
AcDbEntity
  8
YKK_Z1
  6
Continuous
100
AcDbLine
 10
3640.0
 20
16537.0
 30
0.0
 11
3648.0
 21
16537.0
 31
0.0
  0
LINE
  5
17B
330
521
100
AcDbEntity
  8
YKK_Z1
  6
Continuous
100
AcDbLine
 10
3648.0
 20
16637.0
 30
0.0
 11
3648.0
 21
16325.0
 31
0.0
  0
LINE
  5
17C
330
521
100
AcDbEntity
  8
YKK_Z1
  6
Continuous
100
AcDbLine
 10
3640.0
 20
16637.0
 30
0.0
 11
3640.0
 21
16325.0
 31
0.0
  0
LINE
  5
17D
330
521
100
AcDbEntity
  8
YKK_Z1
  6
Continuous
100
AcDbLine
 10
3640.0
 20
16637.0
 30
0.0
 11
3648.0
 21
16637.0
 31
0.0
  0
LINE
  5
17E
330
521
100
AcDbEntity
  8
YKK_Z1
  6
Continuous
100
AcDbLine
 10
3625.0
 20
16626.7
 30
0.0
 11
3640.0
 21
16626.7
 31
0.0
  0
LINE
  5
17F
330
521
100
AcDbEntity
  8
YKK_Z1
  6
Continuous
100
AcDbLine
 10
3625.0
 20
16639.7
 30
0.0
 11
3625.0
 21
16624.7
 31
0.0
  0
LINE
  5
180
330
521
100
AcDbEntity
  8
YKK_Z1
  6
Continuous
100
AcDbLine
 10
3650.0
 20
16610.0
 30
0.0
 11
3650.0
 21
16325.0
 31
0.0
  0
LINE
  5
181
330
521
100
AcDbEntity
  8
YKK_Z1
  6
Continuous
100
AcDbLine
 10
3640.0
 20
16642.30795455
 30
0.0
 11
3640.0
 21
17025.0
 31
0.0
  0
LINE
  5
182
330
521
100
AcDbEntity
  8
YKK_Z1
  6
Continuous
100
AcDbLine
 10
3833.0
 20
16325.0
 30
0.0
 11
3833.0
 21
16700.0
 31
0.0
  0
LINE
  5
183
330
521
100
AcDbEntity
  8
YKK_Z1
  6
Continuous
100
AcDbLine
 10
3845.0
 20
16700.0
 30
0.0
 11
3845.0
 21
16325.0
 31
0.0
  0
LINE
  5
184
330
521
100
AcDbEntity
  8
YKK_Z1
  6
CENTER
100
AcDbLine
 10
3725.0
 20
16650.0
 30
0.0
 11
3725.0
 21
16325.0
 31
0.0
  0
LINE
  5
185
330
521
100
AcDbEntity
  8
YKK_Z1
  6
Continuous
100
AcDbLine
 10
3800.0
 20
16335.00015588
 30
0.0
 11
3810.00016108
 21
16325.0
 31
0.0
  0
LINE
  5
186
330
521
100
AcDbEntity
  8
YKK_Z1
  6
Continuous
100
AcDbLine
 10
3800.0
 20
16355.00014549
 30
0.0
 11
3820.0
 21
16335.00015588
 31
0.0
  0
LINE
  5
187
330
521
100
AcDbEntity
  8
YKK_Z1
  6
Continuous
100
AcDbLine
 10
3800.0
 20
16375.0001351
 30
0.0
 11
3820.0
 21
16355.00014549
 31
0.0
  0
LINE
  5
188
330
521
100
AcDbEntity
  8
YKK_Z1
  6
Continuous
100
AcDbLine
 10
3800.0
 20
16395.00012471
 30
0.0
 11
3820.0
 21
16375.0001351
 31
0.0
  0
LINE
  5
189
330
521
100
AcDbEntity
  8
YKK_Z1
  6
Continuous
100
AcDbLine
 10
3800.0
 20
16415.00011432
 30
0.0
 11
3820.0
 21
16395.00012471
 31
0.0
  0
LINE
  5
18A
330
521
100
AcDbEntity
  8
YKK_Z1
  6
Continuous
100
AcDbLine
 10
3800.0
 20
16435.00010392
 30
0.0
 11
3820.0
 21
16415.00011432
 31
0.0
  0
LINE
  5
18B
330
521
100
AcDbEntity
  8
YKK_Z1
  6
Continuous
100
AcDbLine
 10
3800.0
 20
16455.00009353
 30
0.0
 11
3820.0
 21
16435.00010392
 31
0.0
  0
LINE
  5
18C
330
521
100
AcDbEntity
  8
YKK_Z1
  6
Continuous
100
AcDbLine
 10
3800.0
 20
16475.00008314
 30
0.0
 11
3820.0
 21
16455.00009353
 31
0.0
  0
LINE
  5
18D
330
521
100
AcDbEntity
  8
YKK_Z1
  6
Continuous
100
AcDbLine
 10
3800.0
 20
16495.00007275
 30
0.0
 11
3820.0
 21
16475.00008314
 31
0.0
  0
LINE
  5
18E
330
521
100
AcDbEntity
  8
YKK_Z1
  6
Continuous
100
AcDbLine
 10
3800.0
 20
16515.00006235
 30
0.0
 11
3820.0
 21
16495.00007275
 31
0.0
  0
LINE
  5
18F
330
521
100
AcDbEntity
  8
YKK_Z1
  6
Continuous
100
AcDbLine
 10
3800.0
 20
16535.00005196
 30
0.0
 11
3820.0
 21
16515.00006235
 31
0.0
  0
LINE
  5
190
330
521
100
AcDbEntity
  8
YKK_Z1
  6
Continuous
100
AcDbLine
 10
3800.0
 20
16555.00004157
 30
0.0
 11
3820.0
 21
16535.00005196
 31
0.0
  0
LINE
  5
191
330
521
100
AcDbEntity
  8
YKK_Z1
  6
Continuous
100
AcDbLine
 10
3800.0
 20
16575.00003118
 30
0.0
 11
3820.0
 21
16555.00004157
 31
0.0
  0
LINE
  5
192
330
521
100
AcDbEntity
  8
YKK_Z1
  6
Continuous
100
AcDbLine
 10
3800.0
 20
16595.00002078
 30
0.0
 11
3820.0
 21
16575.00003118
 31
0.0
  0
LINE
  5
193
330
521
100
AcDbEntity
  8
YKK_Z1
  6
Continuous
100
AcDbLine
 10
3800.0
 20
16615.00001039
 30
0.0
 11
3820.0
 21
16595.00002078
 31
0.0
  0
LINE
  5
195
330
521
100
AcDbEntity
  8
YKK_Z1
  6
Continuous
100
AcDbLine
 10
3800.0
 20
16635.0
 30
0.0
 11
3820.0
 21
16615.00001039
 31
0.0
  0
LINE
  5
196
330
521
100
AcDbEntity
  8
YKK_Z1
  6
Continuous
100
AcDbLine
 10
3820.0
 20
16334.99994804
 30
0.0
 11
3810.00005369
 21
16325.0
 31
0.0
  0
LINE
  5
197
330
521
100
AcDbEntity
  8
YKK_Z1
  6
Continuous
100
AcDbLine
 10
3820.0
 20
16354.9999515
 30
0.0
 11
3800.0
 21
16334.99994804
 31
0.0
  0
LINE
  5
198
330
521
100
AcDbEntity
  8
YKK_Z1
  6
Continuous
100
AcDbLine
 10
3820.0
 20
16374.99995497
 30
0.0
 11
3800.0
 21
16354.9999515
 31
0.0
  0
LINE
  5
199
330
521
100
AcDbEntity
  8
YKK_Z1
  6
Continuous
100
AcDbLine
 10
3820.0
 20
16394.99995843
 30
0.0
 11
3800.0
 21
16374.99995497
 31
0.0
  0
LINE
  5
19A
330
521
100
AcDbEntity
  8
YKK_Z1
  6
Continuous
100
AcDbLine
 10
3820.0
 20
16414.99996189
 30
0.0
 11
3800.0
 21
16394.99995843
 31
0.0
  0
LINE
  5
19B
330
521
100
AcDbEntity
  8
YKK_Z1
  6
Continuous
100
AcDbLine
 10
3820.0
 20
16434.99996536
 30
0.0
 11
3800.0
 21
16414.99996189
 31
0.0
  0
LINE
  5
19C
330
521
100
AcDbEntity
  8
YKK_Z1
  6
Continuous
100
AcDbLine
 10
3820.0
 20
16454.99996882
 30
0.0
 11
3800.0
 21
16434.99996536
 31
0.0
  0
LINE
  5
19D
330
521
100
AcDbEntity
  8
YKK_Z1
  6
Continuous
100
AcDbLine
 10
3820.0
 20
16474.99997229
 30
0.0
 11
3800.0
 21
16454.99996882
 31
0.0
  0
LINE
  5
19E
330
521
100
AcDbEntity
  8
YKK_Z1
  6
Continuous
100
AcDbLine
 10
3820.0
 20
16494.99997575
 30
0.0
 11
3800.0
 21
16474.99997229
 31
0.0
  0
LINE
  5
19F
330
521
100
AcDbEntity
  8
YKK_Z1
  6
Continuous
100
AcDbLine
 10
3820.0
 20
16514.99997922
 30
0.0
 11
3800.0
 21
16494.99997575
 31
0.0
  0
LINE
  5
1A0
330
521
100
AcDbEntity
  8
YKK_Z1
  6
Continuous
100
AcDbLine
 10
3820.0
 20
16534.99998268
 30
0.0
 11
3800.0
 21
16514.99997922
 31
0.0
  0
LINE
  5
1A1
330
521
100
AcDbEntity
  8
YKK_Z1
  6
Continuous
100
AcDbLine
 10
3820.0
 20
16554.99998614
 30
0.0
 11
3800.0
 21
16534.99998268
 31
0.0
  0
LINE
  5
1A2
330
521
100
AcDbEntity
  8
YKK_Z1
  6
Continuous
100
AcDbLine
 10
3820.0
 20
16574.99998961
 30
0.0
 11
3800.0
 21
16554.99998614
 31
0.0
  0
LINE
  5
1A3
330
521
100
AcDbEntity
  8
YKK_Z1
  6
Continuous
100
AcDbLine
 10
3820.0
 20
16594.99999307
 30
0.0
 11
3800.0
 21
16574.99998961
 31
0.0
  0
LINE
  5
1A4
330
521
100
AcDbEntity
  8
YKK_Z1
  6
Continuous
100
AcDbLine
 10
3820.0
 20
16614.99999654
 30
0.0
 11
3800.0
 21
16594.99999307
 31
0.0
  0
LINE
  5
1A5
330
521
100
AcDbEntity
  8
YKK_Z1
  6
Continuous
100
AcDbLine
 10
3820.0
 20
16635.0
 30
0.0
 11
3800.0
 21
16614.99999654
 31
0.0
  0
LINE
  5
1A7
330
521
100
AcDbEntity
  8
YKK_Z1
  6
Continuous
100
AcDbLine
 10
3820.0
 20
16635.0
 30
0.0
 11
3820.0
 21
16325.0
 31
0.0
  0
LINE
  5
1A8
330
521
100
AcDbEntity
  8
YKK_Z1
  6
Continuous
100
AcDbLine
 10
3800.0
 20
16635.0
 30
0.0
 11
3820.0
 21
16635.0
 31
0.0
  0
LINE
  5
1AA
330
521
100
AcDbEntity
  8
YKK_Z1
  6
Continuous
100
AcDbLine
 10
3800.0
 20
16325.0
 30
0.0
 11
3800.0
 21
16635.0
 31
0.0
  0
LINE
  5
1AB
330
521
100
AcDbEntity
  8
YKK_N1
100
AcDbLine
 10
3860.0
 20
16725.0
 30
0.0
 11
4230.0
 21
16725.0
 31
0.0
  0
LINE
  5
1AC
330
521
100
AcDbEntity
  8
YKK_Z1
  6
Continuous
100
AcDbLine
 10
3855.0
 20
16725.0
 30
0.0
 11
3855.0
 21
17025.0
 31
0.0
  0
LINE
  5
1AD
330
521
100
AcDbEntity
  8
YKK_Z1
  6
Continuous
100
AcDbLine
 10
3833.0
 20
16700.0
 30
0.0
 11
3845.0
 21
16700.0
 31
0.0
  0
LINE
  5
1AE
330
521
100
AcDbEntity
  8
YKK_Z1
  6
Continuous
100
AcDbLine
 10
3828.2842737
 20
16700.0
 30
0.0
 11
3853.28426937
 21
16725.0
 31
0.0
  0
LINE
  5
1AF
330
521
100
AcDbEntity
  8
YKK_Z1
  6
Continuous
100
AcDbLine
 10
3800.0
 20
16700.0
 30
0.0
 11
3824.99999567
 21
16725.0
 31
0.0
  0
LINE
  5
1B0
330
521
100
AcDbEntity
  8
YKK_Z1
  6
Continuous
100
AcDbLine
 10
3800.0
 20
16700.0
 30
0.0
 11
3800.0
 21
16725.0
 31
0.0
  0
LINE
  5
1B1
330
521
100
AcDbEntity
  8
YKK_Z1
  6
Continuous
100
AcDbLine
 10
3855.0
 20
16700.0
 30
0.0
 11
3800.0
 21
16700.0
 31
0.0
  0
LINE
  5
1B2
330
521
100
AcDbEntity
  8
YKK_Z1
  6
Continuous
100
AcDbLine
 10
3855.0
 20
16725.0
 30
0.0
 11
3855.0
 21
16700.0
 31
0.0
  0
LINE
  5
1B3
330
521
100
AcDbEntity
  8
YKK_Z1
  6
Continuous
100
AcDbLine
 10
3800.0
 20
16725.0
 30
0.0
 11
3855.0
 21
16725.0
 31
0.0
  0
LINE
  5
1B4
330
521
100
AcDbEntity
  8
YKK_Z1
  6
Continuous
100
AcDbLine
 10
3713.0
 20
16665.0
 30
0.0
 11
3713.0
 21
16655.0
 31
0.0
  0
LINE
  5
1B5
330
521
100
AcDbEntity
  8
YKK_C1
100
AcDbLine
 10
3742.0
 20
16770.0
 30
0.0
 11
3742.0
 21
16754.0
 31
0.0
  0
LINE
  5
1B6
330
521
100
AcDbEntity
  8
YKK_C1
100
AcDbLine
 10
3750.0
 20
16770.0
 30
0.0
 11
3742.0
 21
16770.0
 31
0.0
  0
LINE
  5
1B7
330
521
100
AcDbEntity
  8
YKK_C1
100
AcDbLine
 10
3700.0
 20
16754.0
 30
0.0
 11
3750.0
 21
16754.0
 31
0.0
  0
LINE
  5
1B8
330
521
100
AcDbEntity
  8
YKK_C1
100
AcDbLine
 10
3700.0
 20
16770.0
 30
0.0
 11
3700.0
 21
16688.0
 31
0.0
  0
LINE
  5
1B9
330
521
100
AcDbEntity
  8
YKK_C1
100
AcDbLine
 10
3750.0
 20
16720.0
 30
0.0
 11
3700.0
 21
16720.0
 31
0.0
  0
LINE
  5
1BA
330
521
100
AcDbEntity
  8
YKK_C1
100
AcDbLine
 10
3750.0
 20
16770.0
 30
0.0
 11
3750.0
 21
16720.0
 31
0.0
  0
LINE
  5
1BB
330
521
100
AcDbEntity
  8
YKK_C1
100
AcDbLine
 10
3713.0
 20
16665.0
 30
0.0
 11
3713.0
 21
16655.0
 31
0.0
  0
LINE
  5
1BC
330
521
100
AcDbEntity
  8
YKK_C1
100
AcDbLine
 10
3700.0
 20
16665.0
 30
0.0
 11
3713.0
 21
16665.0
 31
0.0
  0
LINE
  5
1BD
330
521
100
AcDbEntity
  8
YKK_C1
100
AcDbLine
 10
3700.0
 20
16690.0
 30
0.0
 11
3700.0
 21
16665.0
 31
0.0
  0
LINE
  5
1BE
330
521
100
AcDbEntity
  8
YKK_C1
100
AcDbLine
 10
3800.0
 20
16685.0
 30
0.0
 11
3794.0
 21
16685.0
 31
0.0
  0
LINE
  5
1BF
330
521
100
AcDbEntity
  8
YKK_C1
100
AcDbLine
 10
3800.0
 20
16725.0
 30
0.0
 11
3800.0
 21
16685.0
 31
0.0
  0
LINE
  5
1C1
330
521
100
AcDbEntity
  8
YKK_C1
100
AcDbLine
 10
3727.0
 20
16690.0
 30
0.0
 11
3700.0
 21
16690.0
 31
0.0
  0
LINE
  5
1C3
330
521
100
AcDbEntity
  8
YKK_C1
100
AcDbLine
 10
3754.0
 20
16690.0
 30
0.0
 11
3700.0
 21
16690.0
 31
0.0
  0
LINE
  5
1C4
330
521
100
AcDbEntity
  8
YKK_C1
100
AcDbLine
 10
3754.0
 20
16725.0
 30
0.0
 11
3754.0
 21
16690.0
 31
0.0
  0
LINE
  5
1C5
330
521
100
AcDbEntity
  8
YKK_C1
100
AcDbLine
 10
3800.0
 20
16725.0
 30
0.0
 11
3754.0
 21
16725.0
 31
0.0
  0
LINE
  5
1C6
330
521
100
AcDbEntity
  8
YKK_N1
  6
ByBlock
100
AcDbLine
 10
4200.0
 20
16725.0
 30
0.0
 11
4200.0
 21
16705.0
 31
0.0
  0
LINE
  5
1C7
330
521
100
AcDbEntity
  8
YKK_N1
  6
ByBlock
100
AcDbLine
 10
4150.0
 20
16811.60254038
 30
0.0
 11
4200.0
 21
16725.0
 31
0.0
  0
LINE
  5
1C8
330
521
100
AcDbEntity
  8
YKK_N1
  6
ByBlock
100
AcDbLine
 10
4250.0
 20
16811.60254038
 30
0.0
 11
4150.0
 21
16811.60254038
 31
0.0
  0
LINE
  5
1C9
330
521
100
AcDbEntity
  8
YKK_N1
  6
ByBlock
100
AcDbLine
 10
4200.0
 20
16725.0
 30
0.0
 11
4250.0
 21
16811.60254038
 31
0.0
  0
LINE
  5
1CA
330
521
100
AcDbEntity
  8
YKK_N1
  6
ByBlock
100
AcDbLine
 10
4200.0
 20
16725.0
 30
0.0
 11
4200.0
 21
16825.0
 31
0.0
  0
LINE
  5
1CB
330
521
100
AcDbEntity
  8
YKK_N1
100
AcDbLine
 10
3700.0
 20
17153.0
 30
0.0
 11
3680.0
 21
17153.0
 31
0.0
  0
CIRCLE
  5
1CC
330
521
100
AcDbEntity
  8
YKK_N1
100
AcDbCircle
 10
3700.0
 20
17153.0
 30
0.0
 40
6.5
  0
CIRCLE
  5
1CD
330
521
100
AcDbEntity
  8
YKK_N1
100
AcDbCircle
 10
3700.0
 20
17153.0
 30
0.0
 40
10.0
  0
TEXT
  5
1CE
330
521
100
AcDbEntity
  8
YKK_N1
100
AcDbText
 10
3678.0
 20
17198.0
 30
0.0
 40
60.0
  1
100
 41
0.8
100
AcDbText
1001
ACAD
1000
MTEXTBEGIN
1070
    73
1070
     1
1070
    44
1040
1.0
1070
    74
1070
     0
1000
MTEXTEND
  0
CIRCLE
  5
1CF
330
521
100
AcDbEntity
  8
YKK_N1
100
AcDbCircle
 10
3700.0
 20
17153.0
 30
0.0
 40
6.5
  0
CIRCLE
  5
1D0
330
521
100
AcDbEntity
  8
YKK_N1
100
AcDbCircle
 10
3700.0
 20
17153.0
 30
0.0
 40
10.0
  0
LINE
  5
1D1
330
521
100
AcDbEntity
  8
YKK_Z1
  6
Continuous
100
AcDbLine
 10
3700.0
 20
17353.0
 30
0.0
 11
3648.0
 21
17353.0
 31
0.0
  0
LINE
  5
1D2
330
521
100
AcDbEntity
  8
YKK_Z1
  6
Continuous
100
AcDbLine
 10
3700.0
 20
17345.0
 30
0.0
 11
3640.0
 21
17345.0
 31
0.0
  0
LINE
  5
1D3
330
521
100
AcDbEntity
  8
YKK_Z1
  6
Continuous
100
AcDbLine
 10
3650.0
 20
17546.71581894
 30
0.0
 11
3800.0
 21
17696.715741
 31
0.0
  0
LINE
  5
1D4
330
521
100
AcDbEntity
  8
YKK_Z1
  6
Continuous
100
AcDbLine
 10
3650.0
 20
17566.51480024
 30
0.0
 11
3800.0
 21
17716.5147223
 31
0.0
  0
LINE
  5
1D5
330
521
100
AcDbEntity
  8
YKK_Z1
  6
Continuous
100
AcDbLine
 10
3650.0
 20
17575.00007794
 30
0.0
 11
3800.0
 21
17725.0
 31
0.0
  0
LINE
  5
1D6
330
521
100
AcDbEntity
  8
YKK_Z1
  6
Continuous
100
AcDbLine
 10
3800.0
 20
17385.0
 30
0.0
 11
3695.0
 21
17385.0
 31
0.0
  0
LINE
  5
1D7
330
521
100
AcDbEntity
  8
YKK_Z1
  6
Continuous
100
AcDbLine
 10
3648.0
 20
17353.0
 30
0.0
 11
3648.0
 21
17725.0
 31
0.0
  0
LINE
  5
1D8
330
521
100
AcDbEntity
  8
YKK_Z1
  6
Continuous
100
AcDbLine
 10
3640.0
 20
17345.0
 30
0.0
 11
3640.0
 21
17725.0
 31
0.0
  0
LINE
  5
1D9
330
521
100
AcDbEntity
  8
YKK_Z1
  6
Continuous
100
AcDbLine
 10
3650.0
 20
17355.0
 30
0.0
 11
3650.0
 21
17725.0
 31
0.0
  0
LINE
  5
1DA
330
521
100
AcDbEntity
  8
YKK_N1
100
AcDbLine
 10
3625.0
 20
17153.0
 30
0.0
 11
3645.0
 21
17153.0
 31
0.0
  0
CIRCLE
  5
1DB
330
521
100
AcDbEntity
  8
YKK_N1
100
AcDbCircle
 10
3625.0
 20
17153.0
 30
0.0
 40
6.5
  0
CIRCLE
  5
1DC
330
521
100
AcDbEntity
  8
YKK_N1
100
AcDbCircle
 10
3625.0
 20
17153.0
 30
0.0
 40
10.0
  0
TEXT
  5
1DD
330
521
100
AcDbEntity
  8
YKK_N1
100
AcDbText
 10
3510.42857143
 20
17163.0
 30
0.0
 40
60.0
  1
75
 41
0.8
100
AcDbText
  0
LINE
  5
1DE
330
521
100
AcDbEntity
  8
YKK_N1
  6
Continuous
100
AcDbLine
 10
3625.0
 20
17153.0
 30
0.0
 11
3507.28571429
 21
17153.0
 31
0.0
  0
LINE
  5
1DF
330
521
100
AcDbEntity
  8
YKK_N1
  6
Continuous
100
AcDbLine
 10
3680.0
 20
17153.0
 30
0.0
 11
3645.0
 21
17153.0
 31
0.0
  0
LINE
  5
1E0
330
521
100
AcDbEntity
  8
YKK_Z1
  6
Continuous
100
AcDbLine
 10
3685.0
 20
17355.0
 30
0.0
 11
3650.0
 21
17355.0
 31
0.0
  0
LINE
  5
1E1
330
521
100
AcDbEntity
  8
YKK_Z1
  6
Continuous
100
AcDbLine
 10
3695.0
 20
17385.0
 30
0.0
 11
3685.0
 21
17355.0
 31
0.0
  0
LINE
  5
1E2
330
521
100
AcDbEntity
  8
YKK_Z1
  6
Continuous
100
AcDbLine
 10
3640.0
 20
17675.0
 30
0.0
 11
3648.0
 21
17675.0
 31
0.0
  0
LINE
  5
1E3
330
521
100
AcDbEntity
  8
YKK_Z1
  6
Continuous
100
AcDbLine
 10
3640.0
 20
17665.0
 30
0.0
 11
3648.0
 21
17665.0
 31
0.0
  0
LINE
  5
1E4
330
521
100
AcDbEntity
  8
YKK_Z1
  6
Continuous
100
AcDbLine
 10
3640.0
 20
17565.0
 30
0.0
 11
3648.0
 21
17565.0
 31
0.0
  0
LINE
  5
1E5
330
521
100
AcDbEntity
  8
YKK_Z1
  6
Continuous
100
AcDbLine
 10
3640.0
 20
17555.0
 30
0.0
 11
3648.0
 21
17555.0
 31
0.0
  0
LINE
  5
1E6
330
521
100
AcDbEntity
  8
YKK_Z1
  6
Continuous
100
AcDbLine
 10
3640.0
 20
17455.0
 30
0.0
 11
3648.0
 21
17455.0
 31
0.0
  0
LINE
  5
1E7
330
521
100
AcDbEntity
  8
YKK_Z1
  6
Continuous
100
AcDbLine
 10
3640.0
 20
17445.0
 30
0.0
 11
3648.0
 21
17445.0
 31
0.0
  0
LINE
  5
1E8
330
521
100
AcDbEntity
  8
YKK_Z1
  6
Continuous
100
AcDbLine
 10
3833.0
 20
17725.0
 30
0.0
 11
3833.0
 21
17365.0
 31
0.0
  0
LINE
  5
1E9
330
521
100
AcDbEntity
  8
YKK_Z1
  6
Continuous
100
AcDbLine
 10
3845.0
 20
17365.0
 30
0.0
 11
3845.0
 21
17725.0
 31
0.0
  0
LINE
  5
1EA
330
521
100
AcDbEntity
  8
YKK_Z1
  6
Continuous
100
AcDbLine
 10
3800.0
 20
17404.99998961
 30
0.0
 11
3820.0
 21
17424.99997922
 31
0.0
  0
LINE
  5
1EB
330
521
100
AcDbEntity
  8
YKK_Z1
  6
Continuous
100
AcDbLine
 10
3820.0
 20
17405.00000346
 30
0.0
 11
3800.0
 21
17425.00000693
 31
0.0
  0
LINE
  5
1EC
330
521
100
AcDbEntity
  8
YKK_Z1
  6
Continuous
100
AcDbLine
 10
3820.0
 20
17385.0
 30
0.0
 11
3820.0
 21
17725.0
 31
0.0
  0
LINE
  5
1ED
330
521
100
AcDbEntity
  8
YKK_Z1
  6
CENTER
100
AcDbLine
 10
3725.0
 20
17372.5
 30
0.0
 11
3725.0
 21
17725.0
 31
0.0
  0
LINE
  5
1EE
330
521
100
AcDbEntity
  8
YKK_Z1
  6
Continuous
100
AcDbLine
 10
3756.98469715
 20
17385.0
 30
0.0
 11
3800.0
 21
17428.0152805
 31
0.0
  0
LINE
  5
1EF
330
521
100
AcDbEntity
  8
YKK_Z1
  6
Continuous
100
AcDbLine
 10
3800.0
 20
17725.0
 30
0.0
 11
3800.0
 21
17385.0
 31
0.0
  0
TEXT
  5
1F0
330
521
100
AcDbEntity
  8
YKK_N1
100
AcDbText
 10
3898.14285714
 20
17163.0
 30
0.0
 40
60.0
  1
55
 41
0.8
100
AcDbText
  0
LINE
  5
1F1
330
521
100
AcDbEntity
  8
YKK_N1
100
AcDbLine
 10
3860.0
 20
17325.0
 30
0.0
 11
4230.0
 21
17325.0
 31
0.0
  0
LINE
  5
1F2
330
521
100
AcDbEntity
  8
YKK_N1
  6
Continuous
100
AcDbLine
 10
3875.0
 20
17153.0
 30
0.0
 11
3992.71428571
 21
17153.0
 31
0.0
  0
LINE
  5
1F3
330
521
100
AcDbEntity
  8
YKK_N1
100
AcDbLine
 10
3800.0
 20
17153.0
 30
0.0
 11
3780.0
 21
17153.0
 31
0.0
  0
CIRCLE
  5
1F4
330
521
100
AcDbEntity
  8
YKK_N1
100
AcDbCircle
 10
3800.0
 20
17153.0
 30
0.0
 40
6.5
  0
CIRCLE
  5
1F5
330
521
100
AcDbEntity
  8
YKK_N1
100
AcDbCircle
 10
3800.0
 20
17153.0
 30
0.0
 40
10.0
  0
LINE
  5
1F6
330
521
100
AcDbEntity
  8
YKK_N1
100
AcDbLine
 10
3855.0
 20
17153.0
 30
0.0
 11
3875.0
 21
17153.0
 31
0.0
  0
CIRCLE
  5
1F7
330
521
100
AcDbEntity
  8
YKK_N1
100
AcDbCircle
 10
3855.0
 20
17153.0
 30
0.0
 40
6.5
  0
CIRCLE
  5
1F8
330
521
100
AcDbEntity
  8
YKK_N1
100
AcDbCircle
 10
3855.0
 20
17153.0
 30
0.0
 40
10.0
  0
LINE
  5
1F9
330
521
100
AcDbEntity
  8
YKK_N1
100
AcDbLine
 10
3800.0
 20
17153.0
 30
0.0
 11
3780.0
 21
17153.0
 31
0.0
  0
CIRCLE
  5
1FA
330
521
100
AcDbEntity
  8
YKK_N1
100
AcDbCircle
 10
3800.0
 20
17153.0
 30
0.0
 40
6.5
  0
CIRCLE
  5
1FB
330
521
100
AcDbEntity
  8
YKK_N1
100
AcDbCircle
 10
3800.0
 20
17153.0
 30
0.0
 40
10.0
  0
LINE
  5
1FC
330
521
100
AcDbEntity
  8
YKK_N1
100
AcDbLine
 10
3700.0
 20
17153.0
 30
0.0
 11
3720.0
 21
17153.0
 31
0.0
  0
LINE
  5
1FD
330
521
100
AcDbEntity
  8
YKK_N1
100
AcDbLine
 10
3780.0
 20
17153.0
 30
0.0
 11
3720.0
 21
17153.0
 31
0.0
  0
LINE
  5
1FE
330
521
100
AcDbEntity
  8
YKK_N1
100
AcDbLine
 10
3700.0
 20
17203.0
 30
0.0
 11
3700.0
 21
17183.0
 31
0.0
  0
LINE
  5
1FF
330
521
100
AcDbEntity
  8
YKK_N1
100
AcDbLine
 10
3800.0
 20
17203.0
 30
0.0
 11
3800.0
 21
17183.0
 31
0.0
  0
LINE
  5
200
330
521
100
AcDbEntity
  8
YKK_N1
  6
Continuous
100
AcDbLine
 10
3700.0
 20
17213.0
 30
0.0
 11
3700.0
 21
17183.0
 31
0.0
  0
LINE
  5
201
330
521
100
AcDbEntity
  8
YKK_N1
  6
Continuous
100
AcDbLine
 10
3800.0
 20
17153.0
 30
0.0
 11
3855.0
 21
17153.0
 31
0.0
  0
LINE
  5
202
330
521
100
AcDbEntity
  8
YKK_N1
  6
Continuous
100
AcDbLine
 10
3780.0
 20
17153.0
 30
0.0
 11
3760.0
 21
17153.0
 31
0.0
  0
LINE
  5
203
330
521
100
AcDbEntity
  8
YKK_N1
  6
Continuous
100
AcDbLine
 10
3855.0
 20
17280.0
 30
0.0
 11
3855.0
 21
17123.0
 31
0.0
  0
LINE
  5
204
330
521
100
AcDbEntity
  8
YKK_N1
  6
Continuous
100
AcDbLine
 10
3800.0
 20
17213.0
 30
0.0
 11
3800.0
 21
17183.0
 31
0.0
  0
LINE
  5
205
330
521
100
AcDbEntity
  8
YKK_Z1
  6
Continuous
100
AcDbLine
 10
3833.0
 20
17365.0
 30
0.0
 11
3845.0
 21
17365.0
 31
0.0
  0
LINE
  5
206
330
521
100
AcDbEntity
  8
YKK_Z1
  6
Continuous
100
AcDbLine
 10
3700.0
 20
17345.0
 30
0.0
 11
3700.0
 21
17353.0
 31
0.0
  0
LINE
  5
207
330
521
100
AcDbEntity
  8
YKK_Z1
  6
Continuous
100
AcDbLine
 10
3855.0
 20
17363.43145342
 30
0.0
 11
3831.5685344
 21
17340.0
 31
0.0
  0
LINE
  5
208
330
521
100
AcDbEntity
  8
YKK_Z1
  6
Continuous
100
AcDbLine
 10
3828.2842737
 20
17365.0
 30
0.0
 11
3803.28426071
 21
17340.0
 31
0.0
  0
LINE
  5
20A
330
521
100
AcDbEntity
  8
YKK_Z1
  6
Continuous
100
AcDbLine
 10
3800.0
 20
17365.0
 30
0.0
 11
3800.0
 21
17340.0
 31
0.0
  0
LINE
  5
20B
330
521
100
AcDbEntity
  8
YKK_Z1
  6
Continuous
100
AcDbLine
 10
3855.0
 20
17365.0
 30
0.0
 11
3800.0
 21
17365.0
 31
0.0
  0
LINE
  5
20C
330
521
100
AcDbEntity
  8
YKK_Z1
  6
Continuous
100
AcDbLine
 10
3855.0
 20
17340.0
 30
0.0
 11
3855.0
 21
17365.0
 31
0.0
  0
LINE
  5
20D
330
521
100
AcDbEntity
  8
YKK_Z1
  6
Continuous
100
AcDbLine
 10
3800.0
 20
17340.0
 30
0.0
 11
3855.0
 21
17340.0
 31
0.0
  0
LINE
  5
20F
330
521
100
AcDbEntity
  8
YKK_Z1
  6
Continuous
100
AcDbLine
 10
3800.0
 20
17385.0
 30
0.0
 11
3820.0
 21
17404.99998961
 31
0.0
  0
LINE
  5
210
330
521
100
AcDbEntity
  8
YKK_Z1
  6
Continuous
100
AcDbLine
 10
3820.0
 20
17385.0
 30
0.0
 11
3800.0
 21
17405.00000346
 31
0.0
  0
LINE
  5
212
330
521
100
AcDbEntity
  8
YKK_Z1
  6
Continuous
100
AcDbLine
 10
3800.0
 20
17385.0
 30
0.0
 11
3820.0
 21
17385.0
 31
0.0
  0
LINE
  5
213
330
521
100
AcDbEntity
  8
YKK_Z1
  6
Continuous
100
AcDbLine
 10
3785.26897085
 20
17385.0
 30
0.0
 11
3800.0
 21
17399.7310215
 31
0.0
  0
LINE
  5
214
330
521
100
AcDbEntity
  8
YKK_Z1
  6
Continuous
100
AcDbLine
 10
3765.46997926
 20
17385.0
 30
0.0
 11
3800.0
 21
17419.5300028
 31
0.0
  0
LINE
  5
215
330
521
100
AcDbEntity
  8
YKK_C1
100
AcDbLine
 10
3742.0
 20
17245.0
 30
0.0
 11
3742.0
 21
17261.0
 31
0.0
  0
LINE
  5
216
330
521
100
AcDbEntity
  8
YKK_C1
100
AcDbLine
 10
3750.0
 20
17245.0
 30
0.0
 11
3742.0
 21
17245.0
 31
0.0
  0
LINE
  5
217
330
521
100
AcDbEntity
  8
YKK_C1
100
AcDbLine
 10
3750.0
 20
17261.0
 30
0.0
 11
3700.0
 21
17261.0
 31
0.0
  0
LINE
  5
218
330
521
100
AcDbEntity
  8
YKK_C1
100
AcDbLine
 10
3700.0
 20
17245.0
 30
0.0
 11
3700.0
 21
17320.0
 31
0.0
  0
LINE
  5
219
330
521
100
AcDbEntity
  8
YKK_C1
100
AcDbLine
 10
3750.0
 20
17300.0
 30
0.0
 11
3700.0
 21
17300.0
 31
0.0
  0
LINE
  5
21A
330
521
100
AcDbEntity
  8
YKK_C1
100
AcDbLine
 10
3750.0
 20
17245.0
 30
0.0
 11
3750.0
 21
17300.0
 31
0.0
  0
LINE
  5
21B
330
521
100
AcDbEntity
  8
YKK_C1
100
AcDbLine
 10
3700.0
 20
17365.0
 30
0.0
 11
3709.0
 21
17365.0
 31
0.0
  0
LINE
  5
21C
330
521
100
AcDbEntity
  8
YKK_C1
100
AcDbLine
 10
3700.0
 20
17325.0
 30
0.0
 11
3700.0
 21
17365.0
 31
0.0
  0
LINE
  5
21D
330
521
100
AcDbEntity
  8
YKK_C1
100
AcDbLine
 10
3800.0
 20
17360.0
 30
0.0
 11
3791.0
 21
17360.0
 31
0.0
  0
LINE
  5
21E
330
521
100
AcDbEntity
  8
YKK_C1
100
AcDbLine
 10
3800.0
 20
17325.0
 30
0.0
 11
3800.0
 21
17360.0
 31
0.0
  0
LINE
  5
21F
330
521
100
AcDbEntity
  8
YKK_C1
100
AcDbLine
 10
3754.0
 20
17325.0
 30
0.0
 11
3754.0
 21
17295.0
 31
0.0
  0
LINE
  5
220
330
521
100
AcDbEntity
  8
YKK_C1
100
AcDbLine
 10
3800.0
 20
17325.0
 30
0.0
 11
3700.0
 21
17325.0
 31
0.0
  0
LINE
  5
221
330
521
100
AcDbEntity
  8
YKK_N1
  6
ByBlock
100
AcDbLine
 10
4250.0
 20
17238.39745962
 30
0.0
 11
4200.0
 21
17325.0
 31
0.0
  0
LINE
  5
222
330
521
100
AcDbEntity
  8
YKK_N1
  6
ByBlock
100
AcDbLine
 10
4150.0
 20
17238.39745962
 30
0.0
 11
4250.0
 21
17238.39745962
 31
0.0
  0
LINE
  5
223
330
521
100
AcDbEntity
  8
YKK_N1
  6
ByBlock
100
AcDbLine
 10
4200.0
 20
17325.0
 30
0.0
 11
4150.0
 21
17238.39745962
 31
0.0
  0
LINE
  5
224
330
521
100
AcDbEntity
  8
YKK_N1
  6
ByBlock
100
AcDbLine
 10
4200.0
 20
17325.0
 30
0.0
 11
4200.0
 21
17225.0
 31
0.0
  0
LINE
  5
225
330
521
100
AcDbEntity
  8
YKK_Z1
  6
Continuous
100
AcDbLine
 10
3800.0
 20
17724.99982333
 30
0.0
 11
3800.00017667
 21
17725.0
 31
0.0
  0
LINE
  5
226
330
521
100
AcDbEntity
  8
YKK_Z1
  6
Continuous
100
AcDbLine
 10
3800.0
 20
17704.99983372
 30
0.0
 11
3820.0
 21
17724.99982333
 31
0.0
  0
LINE
  5
227
330
521
100
AcDbEntity
  8
YKK_Z1
  6
Continuous
100
AcDbLine
 10
3800.0
 20
17684.99984412
 30
0.0
 11
3820.0
 21
17704.99983372
 31
0.0
  0
LINE
  5
228
330
521
100
AcDbEntity
  8
YKK_Z1
  6
Continuous
100
AcDbLine
 10
3800.0
 20
17664.99985451
 30
0.0
 11
3820.0
 21
17684.99984412
 31
0.0
  0
LINE
  5
229
330
521
100
AcDbEntity
  8
YKK_Z1
  6
Continuous
100
AcDbLine
 10
3800.0
 20
17644.9998649
 30
0.0
 11
3820.0
 21
17664.99985451
 31
0.0
  0
LINE
  5
22A
330
521
100
AcDbEntity
  8
YKK_Z1
  6
Continuous
100
AcDbLine
 10
3800.0
 20
17624.99987529
 30
0.0
 11
3820.0
 21
17644.9998649
 31
0.0
  0
LINE
  5
22B
330
521
100
AcDbEntity
  8
YKK_Z1
  6
Continuous
100
AcDbLine
 10
3800.0
 20
17604.99988568
 30
0.0
 11
3820.0
 21
17624.99987529
 31
0.0
  0
LINE
  5
22C
330
521
100
AcDbEntity
  8
YKK_Z1
  6
Continuous
100
AcDbLine
 10
3800.0
 20
17584.99989608
 30
0.0
 11
3820.0
 21
17604.99988568
 31
0.0
  0
LINE
  5
22D
330
521
100
AcDbEntity
  8
YKK_Z1
  6
Continuous
100
AcDbLine
 10
3800.0
 20
17564.99990647
 30
0.0
 11
3820.0
 21
17584.99989608
 31
0.0
  0
LINE
  5
22E
330
521
100
AcDbEntity
  8
YKK_Z1
  6
Continuous
100
AcDbLine
 10
3800.0
 20
17544.99991686
 30
0.0
 11
3820.0
 21
17564.99990647
 31
0.0
  0
LINE
  5
22F
330
521
100
AcDbEntity
  8
YKK_Z1
  6
Continuous
100
AcDbLine
 10
3800.0
 20
17524.99992725
 30
0.0
 11
3820.0
 21
17544.99991686
 31
0.0
  0
LINE
  5
230
330
521
100
AcDbEntity
  8
YKK_Z1
  6
Continuous
100
AcDbLine
 10
3800.0
 20
17504.99993765
 30
0.0
 11
3820.0
 21
17524.99992725
 31
0.0
  0
LINE
  5
231
330
521
100
AcDbEntity
  8
YKK_Z1
  6
Continuous
100
AcDbLine
 10
3800.0
 20
17484.99994804
 30
0.0
 11
3820.0
 21
17504.99993765
 31
0.0
  0
LINE
  5
232
330
521
100
AcDbEntity
  8
YKK_Z1
  6
Continuous
100
AcDbLine
 10
3800.0
 20
17464.99995843
 30
0.0
 11
3820.0
 21
17484.99994804
 31
0.0
  0
LINE
  5
233
330
521
100
AcDbEntity
  8
YKK_Z1
  6
Continuous
100
AcDbLine
 10
3800.0
 20
17444.99996882
 30
0.0
 11
3820.0
 21
17464.99995843
 31
0.0
  0
LINE
  5
234
330
521
100
AcDbEntity
  8
YKK_Z1
  6
Continuous
100
AcDbLine
 10
3800.0
 20
17424.99997922
 30
0.0
 11
3820.0
 21
17444.99996882
 31
0.0
  0
LINE
  5
235
330
521
100
AcDbEntity
  8
YKK_Z1
  6
Continuous
100
AcDbLine
 10
3820.0
 20
17705.00005543
 30
0.0
 11
3800.00005889
 21
17725.0
 31
0.0
  0
LINE
  5
236
330
521
100
AcDbEntity
  8
YKK_Z1
  6
Continuous
100
AcDbLine
 10
3820.0
 20
17685.00005196
 30
0.0
 11
3800.0
 21
17705.00005543
 31
0.0
  0
LINE
  5
237
330
521
100
AcDbEntity
  8
YKK_Z1
  6
Continuous
100
AcDbLine
 10
3820.0
 20
17665.0000485
 30
0.0
 11
3800.0
 21
17685.00005196
 31
0.0
  0
LINE
  5
238
330
521
100
AcDbEntity
  8
YKK_Z1
  6
Continuous
100
AcDbLine
 10
3820.0
 20
17645.00004503
 30
0.0
 11
3800.0
 21
17665.0000485
 31
0.0
  0
LINE
  5
239
330
521
100
AcDbEntity
  8
YKK_Z1
  6
Continuous
100
AcDbLine
 10
3820.0
 20
17625.00004157
 30
0.0
 11
3800.0
 21
17645.00004503
 31
0.0
  0
LINE
  5
23A
330
521
100
AcDbEntity
  8
YKK_Z1
  6
Continuous
100
AcDbLine
 10
3820.0
 20
17605.00003811
 30
0.0
 11
3800.0
 21
17625.00004157
 31
0.0
  0
LINE
  5
23B
330
521
100
AcDbEntity
  8
YKK_Z1
  6
Continuous
100
AcDbLine
 10
3820.0
 20
17585.00003464
 30
0.0
 11
3800.0
 21
17605.00003811
 31
0.0
  0
LINE
  5
23C
330
521
100
AcDbEntity
  8
YKK_Z1
  6
Continuous
100
AcDbLine
 10
3820.0
 20
17565.00003118
 30
0.0
 11
3800.0
 21
17585.00003464
 31
0.0
  0
LINE
  5
23D
330
521
100
AcDbEntity
  8
YKK_Z1
  6
Continuous
100
AcDbLine
 10
3820.0
 20
17545.00002771
 30
0.0
 11
3800.0
 21
17565.00003118
 31
0.0
  0
LINE
  5
23E
330
521
100
AcDbEntity
  8
YKK_Z1
  6
Continuous
100
AcDbLine
 10
3820.0
 20
17525.00002425
 30
0.0
 11
3800.0
 21
17545.00002771
 31
0.0
  0
LINE
  5
23F
330
521
100
AcDbEntity
  8
YKK_Z1
  6
Continuous
100
AcDbLine
 10
3820.0
 20
17505.00002078
 30
0.0
 11
3800.0
 21
17525.00002425
 31
0.0
  0
LINE
  5
240
330
521
100
AcDbEntity
  8
YKK_Z1
  6
Continuous
100
AcDbLine
 10
3820.0
 20
17485.00001732
 30
0.0
 11
3800.0
 21
17505.00002078
 31
0.0
  0
LINE
  5
241
330
521
100
AcDbEntity
  8
YKK_Z1
  6
Continuous
100
AcDbLine
 10
3820.0
 20
17465.00001386
 30
0.0
 11
3800.0
 21
17485.00001732
 31
0.0
  0
LINE
  5
242
330
521
100
AcDbEntity
  8
YKK_Z1
  6
Continuous
100
AcDbLine
 10
3820.0
 20
17445.00001039
 30
0.0
 11
3800.0
 21
17465.00001386
 31
0.0
  0
LINE
  5
243
330
521
100
AcDbEntity
  8
YKK_Z1
  6
Continuous
100
AcDbLine
 10
3820.0
 20
17425.00000693
 30
0.0
 11
3800.0
 21
17445.00001039
 31
0.0
  0
LINE
  5
244
330
521
100
AcDbEntity
  8
YKK_N1
100
AcDbLine
 10
8300.0
 20
15845.0
 30
0.0
 11
8300.0
 21
16505.0
 31
0.0
  0
LINE
  5
245
330
521
100
AcDbEntity
  8
YKK_N1
100
AcDbLine
 10
8500.0
 20
15826.0
 30
0.0
 11
8500.0
 21
17324.0
 31
0.0
  0
LINE
  5
246
330
521
100
AcDbEntity
  8
YKK_N1
100
AcDbLine
 10
9800.0
 20
15845.0
 30
0.0
 11
9800.0
 21
16505.0
 31
0.0
  0
LINE
  5
247
330
521
100
AcDbEntity
  8
YKK_N1
100
AcDbLine
 10
10000.0
 20
15826.0
 30
0.0
 11
10000.0
 21
17324.0
 31
0.0
  0
LINE
  5
248
330
521
100
AcDbEntity
  8
YKK_N1
  6
Continuous
100
AcDbLine
 10
9225.0
 20
15825.0
 30
0.0
 11
9225.0
 21
16355.0
 31
0.0
  0
LINE
  5
249
330
521
100
AcDbEntity
  8
YKK_Z1
  6
Continuous
100
AcDbLine
 10
9240.0
 20
15742.30795455
 30
0.0
 11
9240.0
 21
16575.0
 31
0.0
  0
LINE
  5
24A
330
521
100
AcDbEntity
  8
YKK_Z1
  6
Continuous
100
AcDbLine
 10
9455.0
 20
15825.0
 30
0.0
 11
9455.0
 21
16575.0
 31
0.0
  0
LINE
  5
24B
330
521
100
AcDbEntity
  8
YKK_C1
100
AcDbLine
 10
9300.0
 20
15815.0
 30
0.0
 11
9300.0
 21
16505.0
 31
0.0
  0
LINE
  5
24C
330
521
100
AcDbEntity
  8
YKK_C1
100
AcDbLine
 10
9400.0
 20
15845.0
 30
0.0
 11
9400.0
 21
16505.0
 31
0.0
  0
LINE
  5
24D
330
521
100
AcDbEntity
  8
YKK_C1
100
AcDbLine
 10
9314.0
 20
15810.0
 30
0.0
 11
9314.0
 21
16525.0
 31
0.0
  0
LINE
  5
24E
330
521
100
AcDbEntity
  8
YKK_C1
100
AcDbLine
 10
9328.0
 20
15810.0
 30
0.0
 11
9328.0
 21
16525.0
 31
0.0
  0
LINE
  5
24F
330
521
100
AcDbEntity
  8
YKK_A1
100
AcDbLine
 10
7130.0
 20
16525.0
 30
0.0
 11
7130.0
 21
15825.0
 31
0.0
  0
LINE
  5
250
330
521
100
AcDbEntity
  8
YKK_A1
100
AcDbLine
 10
7870.0
 20
15825.0
 30
0.0
 11
7870.0
 21
16525.0
 31
0.0
  0
LINE
  5
251
330
521
100
AcDbEntity
  8
YKK_A1
100
AcDbLine
 10
7100.0
 20
16525.0
 30
0.0
 11
7100.0
 21
15825.0
 31
0.0
  0
LINE
  5
252
330
521
100
AcDbEntity
  8
YKK_A1
100
AcDbLine
 10
7900.0
 20
15825.0
 30
0.0
 11
7900.0
 21
16525.0
 31
0.0
  0
LINE
  5
253
330
521
100
AcDbEntity
  8
YKK_A1
100
AcDbLine
 10
7085.0
 20
17340.0
 30
0.0
 11
7085.0
 21
15825.0
 31
0.0
  0
LINE
  5
254
330
521
100
AcDbEntity
  8
YKK_A1
100
AcDbLine
 10
7915.0
 20
15825.0
 30
0.0
 11
7915.0
 21
17340.0
 31
0.0
  0
LINE
  5
255
330
521
100
AcDbEntity
  8
YKK_N1
100
AcDbLine
 10
9460.0
 20
15825.0
 30
0.0
 11
10030.0
 21
15825.0
 31
0.0
  0
LINE
  5
256
330
521
100
AcDbEntity
  8
YKK_N1
100
AcDbLine
 10
7101.0
 20
15425.0
 30
0.0
 11
7899.0
 21
15425.0
 31
0.0
  0
LINE
  5
257
330
521
100
AcDbEntity
  8
YKK_N1
100
AcDbLine
 10
7101.0
 20
13925.0
 30
0.0
 11
7899.0
 21
13925.0
 31
0.0
  0
LINE
  5
258
330
521
100
AcDbEntity
  8
YKK_Z1
  6
Continuous
100
AcDbLine
 10
7930.0
 20
14500.0
 30
0.0
 11
7500.0
 21
14500.0
 31
0.0
  0
LINE
  5
259
330
521
100
AcDbEntity
  8
YKK_Z1
  6
Continuous
100
AcDbLine
 10
7915.0
 20
14270.0
 30
0.0
 11
7500.0
 21
14270.0
 31
0.0
  0
LINE
  5
25A
330
521
100
AcDbEntity
  8
YKK_B1
100
AcDbLine
 10
7120.0
 20
14425.0
 30
0.0
 11
7880.0
 21
14425.0
 31
0.0
  0
LINE
  5
25B
330
521
100
AcDbEntity
  8
YKK_B1
100
AcDbLine
 10
7120.0
 20
14325.0
 30
0.0
 11
7880.0
 21
14325.0
 31
0.0
  0
LINE
  5
25C
330
521
100
AcDbEntity
  8
YKK_B1
100
AcDbLine
 10
7115.0
 20
14411.0
 30
0.0
 11
7885.0
 21
14411.0
 31
0.0
  0
LINE
  5
25D
330
521
100
AcDbEntity
  8
YKK_B1
100
AcDbLine
 10
7115.0
 20
14397.0
 30
0.0
 11
7885.0
 21
14397.0
 31
0.0
  0
TEXT
  5
25E
330
521
100
AcDbEntity
  8
YKK_A1
100
AcDbText
 10
7219.2
 20
15945.0
 30
0.0
 40
60.0
  1
複層ガラス 5+A12+5
 41
0.8
 72
     2
 11
7840.0
 21
15945.0
 31
0.0
100
AcDbText
  0
LINE
  5
25F
330
521
100
AcDbEntity
  8
YKK_A1
100
AcDbLine
 10
7130.0
 20
15825.0
 30
0.0
 11
7870.0
 21
15825.0
 31
0.0
  0
LINE
  5
260
330
521
100
AcDbEntity
  8
YKK_A1
100
AcDbLine
 10
7100.0
 20
15825.0
 30
0.0
 11
7900.0
 21
15825.0
 31
0.0
  0
LINE
  5
261
330
521
100
AcDbEntity
  8
YKK_A1
100
AcDbLine
 10
7085.0
 20
15825.0
 30
0.0
 11
7915.0
 21
15825.0
 31
0.0
  0
LINE
  5
262
330
521
100
AcDbEntity
  8
YKK_N1
  6
ByBlock
100
AcDbLine
 10
7186.60254038
 20
13875.0
 30
0.0
 11
7186.60254038
 21
13975.0
 31
0.0
  0
LINE
  5
263
330
521
100
AcDbEntity
  8
YKK_N1
  6
ByBlock
100
AcDbLine
 10
7100.0
 20
13925.0
 30
0.0
 11
7186.60254038
 21
13875.0
 31
0.0
  0
LINE
  5
264
330
521
100
AcDbEntity
  8
YKK_N1
100
AcDbLine
 10
7100.0
 20
14265.0
 30
0.0
 11
7100.0
 21
13895.0
 31
0.0
  0
LINE
  5
265
330
521
100
AcDbEntity
  8
YKK_Z1
  6
Continuous
100
AcDbLine
 10
6700.0
 20
14292.0
 30
0.0
 11
7060.0
 21
14292.0
 31
0.0
  0
LINE
  5
266
330
521
100
AcDbEntity
  8
YKK_Z1
  6
Continuous
100
AcDbLine
 10
7060.0
 20
14280.0
 30
0.0
 11
6700.0
 21
14280.0
 31
0.0
  0
LINE
  5
267
330
521
100
AcDbEntity
  8
YKK_Z1
  6
Continuous
100
AcDbLine
 10
7077.0
 20
14477.0
 30
0.0
 11
6700.0
 21
14477.0
 31
0.0
  0
LINE
  5
268
330
521
100
AcDbEntity
  8
YKK_Z1
  6
Continuous
100
AcDbLine
 10
7085.0
 20
14485.0
 30
0.0
 11
6700.0
 21
14485.0
 31
0.0
  0
LINE
  5
269
330
521
100
AcDbEntity
  8
YKK_Z1
  6
CENTER
100
AcDbLine
 10
7060.0
 20
14400.0
 30
0.0
 11
6700.0
 21
14400.0
 31
0.0
  0
LINE
  5
26A
330
521
100
AcDbEntity
  8
YKK_Z1
  6
Continuous
100
AcDbLine
 10
7075.0
 20
14475.0
 30
0.0
 11
6700.0
 21
14475.0
 31
0.0
  0
LINE
  5
26B
330
521
100
AcDbEntity
  8
YKK_Z1
  6
Continuous
100
AcDbLine
 10
7045.0
 20
14430.0
 30
0.0
 11
7075.0
 21
14440.0
 31
0.0
  0
LINE
  5
26C
330
521
100
AcDbEntity
  8
YKK_Z1
  6
Continuous
100
AcDbLine
 10
6785.0001351
 20
14325.0
 30
0.0
 11
6765.00014549
 21
14305.0
 31
0.0
  0
LINE
  5
26D
330
521
100
AcDbEntity
  8
YKK_Z1
  6
Continuous
100
AcDbLine
 10
6784.99995497
 20
14305.0
 30
0.0
 11
6764.9999515
 21
14325.0
 31
0.0
  0
LINE
  5
26E
330
521
100
AcDbEntity
  8
YKK_Z1
  6
Continuous
100
AcDbLine
 10
7045.0
 20
14305.0
 30
0.0
 11
6700.0
 21
14305.0
 31
0.0
  0
LINE
  5
26F
330
521
100
AcDbEntity
  8
YKK_Z1
  6
Continuous
100
AcDbLine
 10
6878.28418106
 20
14475.0
 30
0.0
 11
6728.284259
 21
14325.0
 31
0.0
  0
LINE
  5
270
330
521
100
AcDbEntity
  8
YKK_Z1
  6
Continuous
100
AcDbLine
 10
6858.48519976
 20
14475.0
 30
0.0
 11
6708.4852777
 21
14325.0
 31
0.0
  0
LINE
  5
271
330
521
100
AcDbEntity
  8
YKK_Z1
  6
Continuous
100
AcDbLine
 10
6849.99992206
 20
14475.0
 30
0.0
 11
6700.0
 21
14325.0
 31
0.0
  0
LINE
  5
272
330
521
100
AcDbEntity
  8
YKK_Z1
  6
Continuous
100
AcDbLine
 10
6700.0
 20
14325.0
 30
0.0
 11
7045.0
 21
14325.0
 31
0.0
  0
LINE
  5
273
330
521
100
AcDbEntity
  8
YKK_Z1
  6
Continuous
100
AcDbLine
 10
6755.0
 20
14485.0
 30
0.0
 11
6755.0
 21
14477.0
 31
0.0
  0
LINE
  5
274
330
521
100
AcDbEntity
  8
YKK_Z1
  6
Continuous
100
AcDbLine
 10
6765.0
 20
14485.0
 30
0.0
 11
6765.0
 21
14477.0
 31
0.0
  0
LINE
  5
275
330
521
100
AcDbEntity
  8
YKK_Z1
  6
Continuous
100
AcDbLine
 10
6705.00017667
 20
14325.0
 30
0.0
 11
6700.0
 21
14319.99982073
 31
0.0
  0
LINE
  5
276
330
521
100
AcDbEntity
  8
YKK_Z1
  6
Continuous
100
AcDbLine
 10
6725.00016628
 20
14325.0
 30
0.0
 11
6705.00017667
 21
14305.0
 31
0.0
  0
LINE
  5
277
330
521
100
AcDbEntity
  8
YKK_Z1
  6
Continuous
100
AcDbLine
 10
6745.00015588
 20
14325.0
 30
0.0
 11
6725.00016628
 21
14305.0
 31
0.0
  0
LINE
  5
278
330
521
100
AcDbEntity
  8
YKK_Z1
  6
Continuous
100
AcDbLine
 10
6765.00014549
 20
14325.0
 30
0.0
 11
6745.00015588
 21
14305.0
 31
0.0
  0
LINE
  5
279
330
521
100
AcDbEntity
  8
YKK_Z1
  6
Continuous
100
AcDbLine
 10
6704.99994111
 20
14305.0
 30
0.0
 11
6700.0
 21
14309.99994024
 31
0.0
  0
LINE
  5
27A
330
521
100
AcDbEntity
  8
YKK_Z1
  6
Continuous
100
AcDbLine
 10
6724.99994457
 20
14305.0
 30
0.0
 11
6704.99994111
 21
14325.0
 31
0.0
  0
LINE
  5
27B
330
521
100
AcDbEntity
  8
YKK_Z1
  6
Continuous
100
AcDbLine
 10
6744.99994804
 20
14305.0
 30
0.0
 11
6724.99994457
 21
14325.0
 31
0.0
  0
LINE
  5
27C
330
521
100
AcDbEntity
  8
YKK_Z1
  6
Continuous
100
AcDbLine
 10
6764.9999515
 20
14305.0
 30
0.0
 11
6744.99994804
 21
14325.0
 31
0.0
  0
LINE
  5
27D
330
521
100
AcDbEntity
  8
YKK_Z1
  6
Continuous
100
AcDbLine
 10
6865.0
 20
14485.0
 30
0.0
 11
6865.0
 21
14477.0
 31
0.0
  0
LINE
  5
27E
330
521
100
AcDbEntity
  8
YKK_Z1
  6
Continuous
100
AcDbLine
 10
6875.0
 20
14485.0
 30
0.0
 11
6875.0
 21
14477.0
 31
0.0
  0
LINE
  5
27F
330
521
100
AcDbEntity
  8
YKK_Z1
  6
Continuous
100
AcDbLine
 10
6975.0
 20
14485.0
 30
0.0
 11
6975.0
 21
14477.0
 31
0.0
  0
LINE
  5
280
330
521
100
AcDbEntity
  8
YKK_Z1
  6
Continuous
100
AcDbLine
 10
6985.0
 20
14485.0
 30
0.0
 11
6985.0
 21
14477.0
 31
0.0
  0
LINE
  5
281
330
521
100
AcDbEntity
  8
YKK_Z1
  6
Continuous
100
AcDbLine
 10
6805.00012471
 20
14325.0
 30
0.0
 11
6785.0001351
 21
14305.0
 31
0.0
  0
LINE
  5
282
330
521
100
AcDbEntity
  8
YKK_Z1
  6
Continuous
100
AcDbLine
 10
6825.00011432
 20
14325.0
 30
0.0
 11
6805.00012471
 21
14305.0
 31
0.0
  0
LINE
  5
283
330
521
100
AcDbEntity
  8
YKK_Z1
  6
Continuous
100
AcDbLine
 10
6845.00010392
 20
14325.0
 30
0.0
 11
6825.00011432
 21
14305.0
 31
0.0
  0
LINE
  5
284
330
521
100
AcDbEntity
  8
YKK_Z1
  6
Continuous
100
AcDbLine
 10
6865.00009353
 20
14325.0
 30
0.0
 11
6845.00010392
 21
14305.0
 31
0.0
  0
LINE
  5
285
330
521
100
AcDbEntity
  8
YKK_Z1
  6
Continuous
100
AcDbLine
 10
6885.00008314
 20
14325.0
 30
0.0
 11
6865.00009353
 21
14305.0
 31
0.0
  0
LINE
  5
286
330
521
100
AcDbEntity
  8
YKK_Z1
  6
Continuous
100
AcDbLine
 10
6905.00007275
 20
14325.0
 30
0.0
 11
6885.00008314
 21
14305.0
 31
0.0
  0
LINE
  5
287
330
521
100
AcDbEntity
  8
YKK_Z1
  6
Continuous
100
AcDbLine
 10
6925.00006235
 20
14325.0
 30
0.0
 11
6905.00007275
 21
14305.0
 31
0.0
  0
LINE
  5
288
330
521
100
AcDbEntity
  8
YKK_Z1
  6
Continuous
100
AcDbLine
 10
6945.00005196
 20
14325.0
 30
0.0
 11
6925.00006235
 21
14305.0
 31
0.0
  0
LINE
  5
289
330
521
100
AcDbEntity
  8
YKK_Z1
  6
Continuous
100
AcDbLine
 10
6965.00004157
 20
14325.0
 30
0.0
 11
6945.00005196
 21
14305.0
 31
0.0
  0
LINE
  5
28A
330
521
100
AcDbEntity
  8
YKK_Z1
  6
Continuous
100
AcDbLine
 10
6985.00003118
 20
14325.0
 30
0.0
 11
6965.00004157
 21
14305.0
 31
0.0
  0
LINE
  5
28B
330
521
100
AcDbEntity
  8
YKK_Z1
  6
Continuous
100
AcDbLine
 10
7005.00002078
 20
14325.0
 30
0.0
 11
6985.00003118
 21
14305.0
 31
0.0
  0
LINE
  5
28C
330
521
100
AcDbEntity
  8
YKK_Z1
  6
Continuous
100
AcDbLine
 10
7025.00001039
 20
14325.0
 30
0.0
 11
7005.00002078
 21
14305.0
 31
0.0
  0
LINE
  5
28E
330
521
100
AcDbEntity
  8
YKK_Z1
  6
Continuous
100
AcDbLine
 10
7045.0
 20
14325.0
 30
0.0
 11
7025.00001039
 21
14305.0
 31
0.0
  0
LINE
  5
28F
330
521
100
AcDbEntity
  8
YKK_Z1
  6
Continuous
100
AcDbLine
 10
6804.99995843
 20
14305.0
 30
0.0
 11
6784.99995497
 21
14325.0
 31
0.0
  0
LINE
  5
290
330
521
100
AcDbEntity
  8
YKK_Z1
  6
Continuous
100
AcDbLine
 10
6824.99996189
 20
14305.0
 30
0.0
 11
6804.99995843
 21
14325.0
 31
0.0
  0
LINE
  5
291
330
521
100
AcDbEntity
  8
YKK_Z1
  6
Continuous
100
AcDbLine
 10
6844.99996536
 20
14305.0
 30
0.0
 11
6824.99996189
 21
14325.0
 31
0.0
  0
LINE
  5
292
330
521
100
AcDbEntity
  8
YKK_Z1
  6
Continuous
100
AcDbLine
 10
6864.99996882
 20
14305.0
 30
0.0
 11
6844.99996536
 21
14325.0
 31
0.0
  0
LINE
  5
293
330
521
100
AcDbEntity
  8
YKK_Z1
  6
Continuous
100
AcDbLine
 10
6884.99997229
 20
14305.0
 30
0.0
 11
6864.99996882
 21
14325.0
 31
0.0
  0
LINE
  5
294
330
521
100
AcDbEntity
  8
YKK_Z1
  6
Continuous
100
AcDbLine
 10
6904.99997575
 20
14305.0
 30
0.0
 11
6884.99997229
 21
14325.0
 31
0.0
  0
LINE
  5
295
330
521
100
AcDbEntity
  8
YKK_Z1
  6
Continuous
100
AcDbLine
 10
6924.99997922
 20
14305.0
 30
0.0
 11
6904.99997575
 21
14325.0
 31
0.0
  0
LINE
  5
296
330
521
100
AcDbEntity
  8
YKK_Z1
  6
Continuous
100
AcDbLine
 10
6944.99998268
 20
14305.0
 30
0.0
 11
6924.99997922
 21
14325.0
 31
0.0
  0
LINE
  5
297
330
521
100
AcDbEntity
  8
YKK_Z1
  6
Continuous
100
AcDbLine
 10
6964.99998614
 20
14305.0
 30
0.0
 11
6944.99998268
 21
14325.0
 31
0.0
  0
LINE
  5
298
330
521
100
AcDbEntity
  8
YKK_Z1
  6
Continuous
100
AcDbLine
 10
6984.99998961
 20
14305.0
 30
0.0
 11
6964.99998614
 21
14325.0
 31
0.0
  0
LINE
  5
299
330
521
100
AcDbEntity
  8
YKK_Z1
  6
Continuous
100
AcDbLine
 10
7004.99999307
 20
14305.0
 30
0.0
 11
6984.99998961
 21
14325.0
 31
0.0
  0
LINE
  5
29A
330
521
100
AcDbEntity
  8
YKK_Z1
  6
Continuous
100
AcDbLine
 10
7024.99999654
 20
14305.0
 30
0.0
 11
7004.99999307
 21
14325.0
 31
0.0
  0
LINE
  5
29B
330
521
100
AcDbEntity
  8
YKK_Z1
  6
Continuous
100
AcDbLine
 10
7045.0
 20
14305.0
 30
0.0
 11
7024.99999654
 21
14325.0
 31
0.0
  0
LINE
  5
29D
330
521
100
AcDbEntity
  8
YKK_Z1
  6
Continuous
100
AcDbLine
 10
7045.0
 20
14325.0
 30
0.0
 11
7045.0
 21
14305.0
 31
0.0
  0
LINE
  5
29E
330
521
100
AcDbEntity
  8
YKK_Z1
  6
Continuous
100
AcDbLine
 10
7045.0
 20
14344.73103175
 30
0.0
 11
7025.2689785
 21
14325.0
 31
0.0
  0
LINE
  5
29F
330
521
100
AcDbEntity
  8
YKK_Z1
  6
Continuous
100
AcDbLine
 10
7045.0
 20
14364.53002334
 30
0.0
 11
7005.4699972
 21
14325.0
 31
0.0
  0
LINE
  5
2A0
330
521
100
AcDbEntity
  8
YKK_Z1
  6
Continuous
100
AcDbLine
 10
7045.0
 20
14373.01530545
 30
0.0
 11
6996.9847195
 21
14325.0
 31
0.0
  0
LINE
  5
2A1
330
521
100
AcDbEntity
  8
YKK_Z1
  6
Continuous
100
AcDbLine
 10
7045.0
 20
14325.0
 30
0.0
 11
7045.0
 21
14430.0
 31
0.0
  0
LINE
  5
2A2
330
521
100
AcDbEntity
  8
YKK_N1
  6
Continuous
100
AcDbLine
 10
7329.0
 20
14325.0
 30
0.0
 11
7329.0
 21
14270.0
 31
0.0
  0
LINE
  5
2A3
330
521
100
AcDbEntity
  8
YKK_Z1
  6
Continuous
100
AcDbLine
 10
7060.0
 20
14296.7157263
 30
0.0
 11
7085.0
 21
14321.71573929
 31
0.0
  0
LINE
  5
2A4
330
521
100
AcDbEntity
  8
YKK_Z1
  6
Continuous
100
AcDbLine
 10
7060.0
 20
14270.0
 30
0.0
 11
7060.0
 21
14325.0
 31
0.0
  0
LINE
  5
2A5
330
521
100
AcDbEntity
  8
YKK_Z1
  6
Continuous
100
AcDbLine
 10
7085.0
 20
14325.0
 30
0.0
 11
7085.0
 21
14270.0
 31
0.0
  0
CIRCLE
  5
2A6
330
521
100
AcDbEntity
  8
YKK_N1
100
AcDbCircle
 10
7329.0
 20
14270.0
 30
0.0
 40
10.0
  0
LINE
  5
2A7
330
521
100
AcDbEntity
  8
YKK_N1
  6
Continuous
100
AcDbLine
 10
7145.0
 20
14270.0
 30
0.0
 11
7359.0
 21
14270.0
 31
0.0
  0
LINE
  5
2A8
330
521
100
AcDbEntity
  8
YKK_Z1
  6
Continuous
100
AcDbLine
 10
7085.0
 20
14270.0
 30
0.0
 11
7500.0
 21
14270.0
 31
0.0
  0
LINE
  5
2A9
330
521
100
AcDbEntity
  8
YKK_N1
100
AcDbLine
 10
7329.0
 20
14270.0
 30
0.0
 11
7329.0
 21
14250.0
 31
0.0
  0
CIRCLE
  5
2AA
330
521
100
AcDbEntity
  8
YKK_N1
100
AcDbCircle
 10
7329.0
 20
14270.0
 30
0.0
 40
6.5
  0
TEXT
  5
2AB
330
521
100
AcDbEntity
  8
YKK_N1
100
AcDbText
 10
7319.0
 20
14135.42857143
 30
0.0
 40
60.0
  1
55
 50
90.0
 41
0.8
100
AcDbText
  0
LINE
  5
2AC
330
521
100
AcDbEntity
  8
YKK_N1
  6
ByBlock
100
AcDbLine
 10
7186.60254038
 20
13975.0
 30
0.0
 11
7100.0
 21
13925.0
 31
0.0
  0
LINE
  5
2AD
330
521
100
AcDbEntity
  8
YKK_N1
  6
ByBlock
100
AcDbLine
 10
7100.0
 20
13925.0
 30
0.0
 11
7200.0
 21
13925.0
 31
0.0
  0
LINE
  5
2AE
330
521
100
AcDbEntity
  8
YKK_N1
  6
Continuous
100
AcDbLine
 10
7329.0
 20
14250.0
 30
0.0
 11
7329.0
 21
14132.28571429
 31
0.0
  0
LINE
  5
2AF
330
521
100
AcDbEntity
  8
YKK_Z1
  6
Continuous
100
AcDbLine
 10
7060.0
 20
14292.0
 30
0.0
 11
7060.0
 21
14280.0
 31
0.0
  0
LINE
  5
2B0
330
521
100
AcDbEntity
  8
YKK_Z1
  6
Continuous
100
AcDbLine
 10
7061.56854658
 20
14270.0
 30
0.0
 11
7085.0
 21
14293.4314656
 31
0.0
  0
LINE
  5
2B1
330
521
100
AcDbEntity
  8
YKK_Z1
  6
Continuous
100
AcDbLine
 10
7085.0
 20
14270.0
 30
0.0
 11
7060.0
 21
14270.0
 31
0.0
  0
TEXT
  5
2B2
330
521
100
AcDbEntity
  8
YKK_N1
100
AcDbText
 10
7375.42857143
 20
13935.0
 30
0.0
 40
60.0
  1
W=800
 41
0.8
100
AcDbText
1001
ACAD
1000
MTEXTBEGIN
1070
    73
1070
     1
1070
    44
1040
1.0
1070
    74
1070
     0
1000
MTEXTEND
  0
CIRCLE
  5
2B3
330
521
100
AcDbEntity
  8
YKK_N1
100
AcDbCircle
 10
7329.0
 20
14425.0
 30
0.0
 40
10.0
  0
CIRCLE
  5
2B4
330
521
100
AcDbEntity
  8
YKK_N1
100
AcDbCircle
 10
7329.0
 20
14500.0
 30
0.0
 40
10.0
  0
CIRCLE
  5
2B5
330
521
100
AcDbEntity
  8
YKK_N1
100
AcDbCircle
 10
7329.0
 20
14325.0
 30
0.0
 40
10.0
  0
CIRCLE
  5
2B6
330
521
100
AcDbEntity
  8
YKK_N1
100
AcDbCircle
 10
7329.0
 20
14325.0
 30
0.0
 40
10.0
  0
CIRCLE
  5
2B7
330
521
100
AcDbEntity
  8
YKK_N1
100
AcDbCircle
 10
7329.0
 20
14425.0
 30
0.0
 40
10.0
  0
LINE
  5
2B8
330
521
100
AcDbEntity
  8
YKK_Z1
  6
Continuous
100
AcDbLine
 10
7070.0
 20
14500.0
 30
0.0
 11
7500.0
 21
14500.0
 31
0.0
  0
LINE
  5
2B9
330
521
100
AcDbEntity
  8
YKK_N1
100
AcDbLine
 10
7329.0
 20
14425.0
 30
0.0
 11
7329.0
 21
14445.0
 31
0.0
  0
CIRCLE
  5
2BA
330
521
100
AcDbEntity
  8
YKK_N1
100
AcDbCircle
 10
7329.0
 20
14425.0
 30
0.0
 40
6.5
  0
LINE
  5
2BB
330
521
100
AcDbEntity
  8
YKK_N1
100
AcDbLine
 10
7329.0
 20
14500.0
 30
0.0
 11
7329.0
 21
14480.0
 31
0.0
  0
CIRCLE
  5
2BC
330
521
100
AcDbEntity
  8
YKK_N1
100
AcDbCircle
 10
7329.0
 20
14500.0
 30
0.0
 40
6.5
  0
TEXT
  5
2BD
330
521
100
AcDbEntity
  8
YKK_N1
100
AcDbText
 10
7319.0
 20
14523.14285714
 30
0.0
 40
60.0
  1
75
 50
90.0
 41
0.8
100
AcDbText
  0
LINE
  5
2BE
330
521
100
AcDbEntity
  8
YKK_N1
100
AcDbLine
 10
7329.0
 20
14325.0
 30
0.0
 11
7329.0
 21
14345.0
 31
0.0
  0
CIRCLE
  5
2BF
330
521
100
AcDbEntity
  8
YKK_N1
100
AcDbCircle
 10
7329.0
 20
14325.0
 30
0.0
 40
6.5
  0
TEXT
  5
2C0
330
521
100
AcDbEntity
  8
YKK_N1
100
AcDbText
 10
7284.0
 20
14303.0
 30
0.0
 40
60.0
  1
100
 50
90.0
 41
0.8
100
AcDbText
1001
ACAD
1000
MTEXTBEGIN
1070
    73
1070
     1
1070
    44
1040
1.0
1070
    74
1070
     0
1000
MTEXTEND
  0
LINE
  5
2C1
330
521
100
AcDbEntity
  8
YKK_N1
100
AcDbLine
 10
7329.0
 20
14325.0
 30
0.0
 11
7329.0
 21
14345.0
 31
0.0
  0
CIRCLE
  5
2C2
330
521
100
AcDbEntity
  8
YKK_N1
100
AcDbCircle
 10
7329.0
 20
14325.0
 30
0.0
 40
6.5
  0
LINE
  5
2C3
330
521
100
AcDbEntity
  8
YKK_N1
100
AcDbLine
 10
7329.0
 20
14425.0
 30
0.0
 11
7329.0
 21
14405.0
 31
0.0
  0
CIRCLE
  5
2C4
330
521
100
AcDbEntity
  8
YKK_N1
100
AcDbCircle
 10
7329.0
 20
14425.0
 30
0.0
 40
6.5
  0
LINE
  5
2C5
330
521
100
AcDbEntity
  8
YKK_N1
100
AcDbLine
 10
7329.0
 20
14345.0
 30
0.0
 11
7329.0
 21
14405.0
 31
0.0
  0
LINE
  5
2C6
330
521
100
AcDbEntity
  8
YKK_N1
100
AcDbLine
 10
7279.0
 20
14425.0
 30
0.0
 11
7299.0
 21
14425.0
 31
0.0
  0
LINE
  5
2C7
330
521
100
AcDbEntity
  8
YKK_N1
100
AcDbLine
 10
7279.0
 20
14325.0
 30
0.0
 11
7299.0
 21
14325.0
 31
0.0
  0
LINE
  5
2C8
330
521
100
AcDbEntity
  8
YKK_N1
  6
Continuous
100
AcDbLine
 10
7329.0
 20
14345.0
 30
0.0
 11
7329.0
 21
14365.0
 31
0.0
  0
LINE
  5
2C9
330
521
100
AcDbEntity
  8
YKK_N1
  6
Continuous
100
AcDbLine
 10
7269.0
 20
14325.0
 30
0.0
 11
7299.0
 21
14325.0
 31
0.0
  0
LINE
  5
2CA
330
521
100
AcDbEntity
  8
YKK_N1
  6
Continuous
100
AcDbLine
 10
7329.0
 20
14500.0
 30
0.0
 11
7329.0
 21
14617.71428571
 31
0.0
  0
LINE
  5
2CB
330
521
100
AcDbEntity
  8
YKK_N1
  6
Continuous
100
AcDbLine
 10
7329.0
 20
14445.0
 30
0.0
 11
7329.0
 21
14480.0
 31
0.0
  0
LINE
  5
2CC
330
521
100
AcDbEntity
  8
YKK_N1
  6
Continuous
100
AcDbLine
 10
7269.0
 20
14500.0
 30
0.0
 11
7299.0
 21
14500.0
 31
0.0
  0
LINE
  5
2CD
330
521
100
AcDbEntity
  8
YKK_N1
  6
Continuous
100
AcDbLine
 10
7269.0
 20
14425.0
 30
0.0
 11
7299.0
 21
14425.0
 31
0.0
  0
LINE
  5
2CE
330
521
100
AcDbEntity
  8
YKK_Z1
  6
Continuous
100
AcDbLine
 10
7070.0
 20
14485.0
 30
0.0
 11
7070.0
 21
14500.0
 31
0.0
  0
LINE
  5
2CF
330
521
100
AcDbEntity
  8
YKK_Z1
  6
Continuous
100
AcDbLine
 10
7077.0
 20
14425.0
 30
0.0
 11
7077.0
 21
14477.0
 31
0.0
  0
LINE
  5
2D0
330
521
100
AcDbEntity
  8
YKK_Z1
  6
Continuous
100
AcDbLine
 10
7085.0
 20
14425.0
 30
0.0
 11
7085.0
 21
14485.0
 31
0.0
  0
LINE
  5
2D1
330
521
100
AcDbEntity
  8
YKK_Z1
  6
Continuous
100
AcDbLine
 10
7085.0
 20
14425.0
 30
0.0
 11
7077.0
 21
14425.0
 31
0.0
  0
LINE
  5
2D3
330
521
100
AcDbEntity
  8
YKK_Z1
  6
Continuous
100
AcDbLine
 10
7060.0
 20
14325.0
 30
0.0
 11
7085.0
 21
14325.0
 31
0.0
  0
LINE
  5
2D4
330
521
100
AcDbEntity
  8
YKK_Z1
  6
Continuous
100
AcDbLine
 10
7075.0
 20
14440.0
 30
0.0
 11
7075.0
 21
14475.0
 31
0.0
  0
LINE
  5
2D5
330
521
100
AcDbEntity
  8
YKK_B1
100
AcDbLine
 10
7075.0
 20
14425.0
 30
0.0
 11
7075.0
 21
14416.0
 31
0.0
  0
LINE
  5
2D6
330
521
100
AcDbEntity
  8
YKK_B1
100
AcDbLine
 10
7100.0
 20
14425.0
 30
0.0
 11
7075.0
 21
14425.0
 31
0.0
  0
LINE
  5
2D7
330
521
100
AcDbEntity
  8
YKK_B1
100
AcDbLine
 10
7075.0
 20
14325.0
 30
0.0
 11
7075.0
 21
14334.0
 31
0.0
  0
LINE
  5
2D8
330
521
100
AcDbEntity
  8
YKK_B1
100
AcDbLine
 10
7100.0
 20
14325.0
 30
0.0
 11
7075.0
 21
14325.0
 31
0.0
  0
LINE
  5
2D9
330
521
100
AcDbEntity
  8
YKK_B1
100
AcDbLine
 10
7100.0
 20
14425.0
 30
0.0
 11
7130.0
 21
14425.0
 31
0.0
  0
LINE
  5
2DA
330
521
100
AcDbEntity
  8
YKK_B1
100
AcDbLine
 10
7130.0
 20
14383.0
 30
0.0
 11
7100.0
 21
14383.0
 31
0.0
  0
LINE
  5
2DB
330
521
100
AcDbEntity
  8
YKK_B1
100
AcDbLine
 10
7130.0
 20
14364.0
 30
0.0
 11
7130.0
 21
14383.0
 31
0.0
  0
LINE
  5
2DC
330
521
100
AcDbEntity
  8
YKK_B1
100
AcDbLine
 10
7100.0
 20
14364.0
 30
0.0
 11
7130.0
 21
14364.0
 31
0.0
  0
LINE
  5
2DD
330
521
100
AcDbEntity
  8
YKK_B1
100
AcDbLine
 10
7100.0
 20
14325.0
 30
0.0
 11
7100.0
 21
14425.0
 31
0.0
  0
LINE
  5
2DE
330
521
100
AcDbEntity
  8
YKK_N1
  6
ByBlock
100
AcDbLine
 10
7186.60254038
 20
15475.0
 30
0.0
 11
7100.0
 21
15425.0
 31
0.0
  0
LINE
  5
2DF
330
521
100
AcDbEntity
  8
YKK_N1
  6
ByBlock
100
AcDbLine
 10
7186.60254038
 20
15375.0
 30
0.0
 11
7186.60254038
 21
15475.0
 31
0.0
  0
TEXT
  5
2E0
330
521
100
AcDbEntity
  8
YKK_N1
100
AcDbText
 10
7375.42857143
 20
15435.0
 30
0.0
 40
60.0
  1
W=800
 41
0.8
100
AcDbText
1001
ACAD
1000
MTEXTBEGIN
1070
    73
1070
     1
1070
    44
1040
1.0
1070
    74
1070
     0
1000
MTEXTEND
  0
LINE
  5
2E1
330
521
100
AcDbEntity
  8
YKK_N1
100
AcDbLine
 10
7100.0
 20
15765.0
 30
0.0
 11
7100.0
 21
15395.0
 31
0.0
  0
LINE
  5
2E2
330
521
100
AcDbEntity
  8
YKK_N1
  6
ByBlock
100
AcDbLine
 10
7100.0
 20
15425.0
 30
0.0
 11
7186.60254038
 21
15375.0
 31
0.0
  0
LINE
  5
2E3
330
521
100
AcDbEntity
  8
YKK_N1
  6
ByBlock
100
AcDbLine
 10
7100.0
 20
15425.0
 30
0.0
 11
7200.0
 21
15425.0
 31
0.0
  0
LINE
  5
2E4
330
521
100
AcDbEntity
  8
YKK_N1
  6
ByBlock
100
AcDbLine
 10
7813.39745962
 20
13875.0
 30
0.0
 11
7900.0
 21
13925.0
 31
0.0
  0
LINE
  5
2E5
330
521
100
AcDbEntity
  8
YKK_N1
  6
ByBlock
100
AcDbLine
 10
7813.39745962
 20
13975.0
 30
0.0
 11
7813.39745962
 21
13875.0
 31
0.0
  0
LINE
  5
2E6
330
521
100
AcDbEntity
  8
YKK_N1
100
AcDbLine
 10
7900.0
 20
14265.0
 30
0.0
 11
7900.0
 21
13895.0
 31
0.0
  0
LINE
  5
2E7
330
521
100
AcDbEntity
  8
YKK_Z1
  6
Continuous
100
AcDbLine
 10
8300.0
 20
14292.0
 30
0.0
 11
7940.0
 21
14292.0
 31
0.0
  0
LINE
  5
2E8
330
521
100
AcDbEntity
  8
YKK_Z1
  6
Continuous
100
AcDbLine
 10
7940.0
 20
14280.0
 30
0.0
 11
8300.0
 21
14280.0
 31
0.0
  0
LINE
  5
2E9
330
521
100
AcDbEntity
  8
YKK_Z1
  6
Continuous
100
AcDbLine
 10
7923.0
 20
14477.0
 30
0.0
 11
8300.0
 21
14477.0
 31
0.0
  0
LINE
  5
2EA
330
521
100
AcDbEntity
  8
YKK_Z1
  6
Continuous
100
AcDbLine
 10
7915.0
 20
14485.0
 30
0.0
 11
8300.0
 21
14485.0
 31
0.0
  0
LINE
  5
2EB
330
521
100
AcDbEntity
  8
YKK_Z1
  6
Continuous
100
AcDbLine
 10
8174.99988568
 20
14325.0
 30
0.0
 11
8194.99987529
 21
14305.0
 31
0.0
  0
LINE
  5
2EC
330
521
100
AcDbEntity
  8
YKK_Z1
  6
Continuous
100
AcDbLine
 10
8175.00003811
 20
14305.0
 30
0.0
 11
8195.00004157
 21
14325.0
 31
0.0
  0
LINE
  5
2ED
330
521
100
AcDbEntity
  8
YKK_Z1
  6
Continuous
100
AcDbLine
 10
7955.0
 20
14305.0
 30
0.0
 11
8300.0
 21
14305.0
 31
0.0
  0
LINE
  5
2EE
330
521
100
AcDbEntity
  8
YKK_Z1
  6
CENTER
100
AcDbLine
 10
7940.0
 20
14400.0
 30
0.0
 11
8300.0
 21
14400.0
 31
0.0
  0
LINE
  5
2EF
330
521
100
AcDbEntity
  8
YKK_Z1
  6
Continuous
100
AcDbLine
 10
8031.29935334
 20
14325.0
 30
0.0
 11
8181.29937932
 21
14475.0
 31
0.0
  0
LINE
  5
2F0
330
521
100
AcDbEntity
  8
YKK_Z1
  6
Continuous
100
AcDbLine
 10
7925.0
 20
14475.0
 30
0.0
 11
8300.0
 21
14475.0
 31
0.0
  0
LINE
  5
2F1
330
521
100
AcDbEntity
  8
YKK_Z1
  6
Continuous
100
AcDbLine
 10
8300.0
 20
14325.0
 30
0.0
 11
7955.0
 21
14325.0
 31
0.0
  0
LINE
  5
2F2
330
521
100
AcDbEntity
  8
YKK_Z1
  6
Continuous
100
AcDbLine
 10
7940.0
 20
14270.0
 30
0.0
 11
7940.0
 21
14325.0
 31
0.0
  0
LINE
  5
2F3
330
521
100
AcDbEntity
  8
YKK_Z1
  6
Continuous
100
AcDbLine
 10
7915.0
 20
14325.0
 30
0.0
 11
7915.0
 21
14270.0
 31
0.0
  0
LINE
  5
2F4
330
521
100
AcDbEntity
  8
YKK_N1
  6
ByBlock
100
AcDbLine
 10
7900.0
 20
13925.0
 30
0.0
 11
7813.39745962
 21
13975.0
 31
0.0
  0
LINE
  5
2F5
330
521
100
AcDbEntity
  8
YKK_N1
  6
ByBlock
100
AcDbLine
 10
7900.0
 20
13925.0
 30
0.0
 11
7800.0
 21
13925.0
 31
0.0
  0
LINE
  5
2F6
330
521
100
AcDbEntity
  8
YKK_Z1
  6
Continuous
100
AcDbLine
 10
7940.0
 20
14292.0
 30
0.0
 11
7940.0
 21
14280.0
 31
0.0
  0
LINE
  5
2F7
330
521
100
AcDbEntity
  8
YKK_Z1
  6
Continuous
100
AcDbLine
 10
7940.0
 20
14296.7157263
 30
0.0
 11
7915.0
 21
14271.71573063
 31
0.0
  0
LINE
  5
2F8
330
521
100
AcDbEntity
  8
YKK_Z1
  6
Continuous
100
AcDbLine
 10
7915.0
 20
14270.0
 30
0.0
 11
7940.0
 21
14270.0
 31
0.0
  0
LINE
  5
2F9
330
521
100
AcDbEntity
  8
YKK_B1
100
AcDbLine
 10
7900.0
 20
14425.0
 30
0.0
 11
7870.0
 21
14425.0
 31
0.0
  0
LINE
  5
2FA
330
521
100
AcDbEntity
  8
YKK_B1
100
AcDbLine
 10
7870.0
 20
14383.0
 30
0.0
 11
7900.0
 21
14383.0
 31
0.0
  0
LINE
  5
2FB
330
521
100
AcDbEntity
  8
YKK_B1
100
AcDbLine
 10
7900.0
 20
14364.0
 30
0.0
 11
7870.0
 21
14364.0
 31
0.0
  0
LINE
  5
2FC
330
521
100
AcDbEntity
  8
YKK_B1
100
AcDbLine
 10
7870.0
 20
14364.0
 30
0.0
 11
7870.0
 21
14383.0
 31
0.0
  0
LINE
  5
2FD
330
521
100
AcDbEntity
  8
YKK_Z1
  6
Continuous
100
AcDbLine
 10
7930.0
 20
14485.0
 30
0.0
 11
7930.0
 21
14500.0
 31
0.0
  0
LINE
  5
2FE
330
521
100
AcDbEntity
  8
YKK_Z1
  6
Continuous
100
AcDbLine
 10
8135.0
 20
14485.0
 30
0.0
 11
8135.0
 21
14477.0
 31
0.0
  0
LINE
  5
2FF
330
521
100
AcDbEntity
  8
YKK_Z1
  6
Continuous
100
AcDbLine
 10
8125.0
 20
14485.0
 30
0.0
 11
8125.0
 21
14477.0
 31
0.0
  0
LINE
  5
300
330
521
100
AcDbEntity
  8
YKK_Z1
  6
Continuous
100
AcDbLine
 10
8025.0
 20
14485.0
 30
0.0
 11
8025.0
 21
14477.0
 31
0.0
  0
LINE
  5
301
330
521
100
AcDbEntity
  8
YKK_Z1
  6
Continuous
100
AcDbLine
 10
8015.0
 20
14485.0
 30
0.0
 11
8015.0
 21
14477.0
 31
0.0
  0
LINE
  5
302
330
521
100
AcDbEntity
  8
YKK_Z1
  6
Continuous
100
AcDbLine
 10
7923.0
 20
14425.0
 30
0.0
 11
7923.0
 21
14477.0
 31
0.0
  0
LINE
  5
303
330
521
100
AcDbEntity
  8
YKK_Z1
  6
Continuous
100
AcDbLine
 10
7915.0
 20
14425.0
 30
0.0
 11
7915.0
 21
14485.0
 31
0.0
  0
LINE
  5
304
330
521
100
AcDbEntity
  8
YKK_Z1
  6
Continuous
100
AcDbLine
 10
7915.0
 20
14425.0
 30
0.0
 11
7923.0
 21
14425.0
 31
0.0
  0
LINE
  5
305
330
521
100
AcDbEntity
  8
YKK_Z1
  6
Continuous
100
AcDbLine
 10
7940.0
 20
14325.0
 30
0.0
 11
7915.0
 21
14300.00000433
 31
0.0
  0
LINE
  5
306
330
521
100
AcDbEntity
  8
YKK_Z1
  6
Continuous
100
AcDbLine
 10
7940.0
 20
14325.0
 30
0.0
 11
7915.0
 21
14325.0
 31
0.0
  0
LINE
  5
307
330
521
100
AcDbEntity
  8
YKK_Z1
  6
Continuous
100
AcDbLine
 10
8154.99989608
 20
14325.0
 30
0.0
 11
8174.99988568
 21
14305.0
 31
0.0
  0
LINE
  5
308
330
521
100
AcDbEntity
  8
YKK_Z1
  6
Continuous
100
AcDbLine
 10
8134.99990647
 20
14325.0
 30
0.0
 11
8154.99989608
 21
14305.0
 31
0.0
  0
LINE
  5
309
330
521
100
AcDbEntity
  8
YKK_Z1
  6
Continuous
100
AcDbLine
 10
8114.99991686
 20
14325.0
 30
0.0
 11
8134.99990647
 21
14305.0
 31
0.0
  0
LINE
  5
30A
330
521
100
AcDbEntity
  8
YKK_Z1
  6
Continuous
100
AcDbLine
 10
8094.99992725
 20
14325.0
 30
0.0
 11
8114.99991686
 21
14305.0
 31
0.0
  0
LINE
  5
30B
330
521
100
AcDbEntity
  8
YKK_Z1
  6
Continuous
100
AcDbLine
 10
8074.99993765
 20
14325.0
 30
0.0
 11
8094.99992725
 21
14305.0
 31
0.0
  0
LINE
  5
30C
330
521
100
AcDbEntity
  8
YKK_Z1
  6
Continuous
100
AcDbLine
 10
8054.99994804
 20
14325.0
 30
0.0
 11
8074.99993765
 21
14305.0
 31
0.0
  0
LINE
  5
30D
330
521
100
AcDbEntity
  8
YKK_Z1
  6
Continuous
100
AcDbLine
 10
8034.99995843
 20
14325.0
 30
0.0
 11
8054.99994804
 21
14305.0
 31
0.0
  0
LINE
  5
30E
330
521
100
AcDbEntity
  8
YKK_Z1
  6
Continuous
100
AcDbLine
 10
8014.99996882
 20
14325.0
 30
0.0
 11
8034.99995843
 21
14305.0
 31
0.0
  0
LINE
  5
30F
330
521
100
AcDbEntity
  8
YKK_Z1
  6
Continuous
100
AcDbLine
 10
7994.99997922
 20
14325.0
 30
0.0
 11
8014.99996882
 21
14305.0
 31
0.0
  0
LINE
  5
310
330
521
100
AcDbEntity
  8
YKK_Z1
  6
Continuous
100
AcDbLine
 10
7974.99998961
 20
14325.0
 30
0.0
 11
7994.99997922
 21
14305.0
 31
0.0
  0
LINE
  5
312
330
521
100
AcDbEntity
  8
YKK_Z1
  6
Continuous
100
AcDbLine
 10
7955.0
 20
14325.0
 30
0.0
 11
7974.99998961
 21
14305.0
 31
0.0
  0
LINE
  5
313
330
521
100
AcDbEntity
  8
YKK_Z1
  6
Continuous
100
AcDbLine
 10
8155.00003464
 20
14305.0
 30
0.0
 11
8175.00003811
 21
14325.0
 31
0.0
  0
LINE
  5
314
330
521
100
AcDbEntity
  8
YKK_Z1
  6
Continuous
100
AcDbLine
 10
8135.00003118
 20
14305.0
 30
0.0
 11
8155.00003464
 21
14325.0
 31
0.0
  0
LINE
  5
315
330
521
100
AcDbEntity
  8
YKK_Z1
  6
Continuous
100
AcDbLine
 10
8115.00002771
 20
14305.0
 30
0.0
 11
8135.00003118
 21
14325.0
 31
0.0
  0
LINE
  5
316
330
521
100
AcDbEntity
  8
YKK_Z1
  6
Continuous
100
AcDbLine
 10
8095.00002425
 20
14305.0
 30
0.0
 11
8115.00002771
 21
14325.0
 31
0.0
  0
LINE
  5
317
330
521
100
AcDbEntity
  8
YKK_Z1
  6
Continuous
100
AcDbLine
 10
8075.00002078
 20
14305.0
 30
0.0
 11
8095.00002425
 21
14325.0
 31
0.0
  0
LINE
  5
318
330
521
100
AcDbEntity
  8
YKK_Z1
  6
Continuous
100
AcDbLine
 10
8055.00001732
 20
14305.0
 30
0.0
 11
8075.00002078
 21
14325.0
 31
0.0
  0
LINE
  5
319
330
521
100
AcDbEntity
  8
YKK_Z1
  6
Continuous
100
AcDbLine
 10
8035.00001386
 20
14305.0
 30
0.0
 11
8055.00001732
 21
14325.0
 31
0.0
  0
LINE
  5
31A
330
521
100
AcDbEntity
  8
YKK_Z1
  6
Continuous
100
AcDbLine
 10
8015.00001039
 20
14305.0
 30
0.0
 11
8035.00001386
 21
14325.0
 31
0.0
  0
LINE
  5
31B
330
521
100
AcDbEntity
  8
YKK_Z1
  6
Continuous
100
AcDbLine
 10
7995.00000693
 20
14305.0
 30
0.0
 11
8015.00001039
 21
14325.0
 31
0.0
  0
LINE
  5
31C
330
521
100
AcDbEntity
  8
YKK_Z1
  6
Continuous
100
AcDbLine
 10
7975.00000346
 20
14305.0
 30
0.0
 11
7995.00000693
 21
14325.0
 31
0.0
  0
LINE
  5
31D
330
521
100
AcDbEntity
  8
YKK_Z1
  6
Continuous
100
AcDbLine
 10
7955.0
 20
14305.0
 30
0.0
 11
7975.00000346
 21
14325.0
 31
0.0
  0
LINE
  5
31F
330
521
100
AcDbEntity
  8
YKK_Z1
  6
Continuous
100
AcDbLine
 10
7955.0
 20
14325.0
 30
0.0
 11
7955.0
 21
14305.0
 31
0.0
  0
LINE
  5
320
330
521
100
AcDbEntity
  8
YKK_Z1
  6
Continuous
100
AcDbLine
 10
8011.50035832
 20
14325.0
 30
0.0
 11
8161.5003843
 21
14475.0
 31
0.0
  0
LINE
  5
321
330
521
100
AcDbEntity
  8
YKK_Z1
  6
Continuous
100
AcDbLine
 10
8003.01507474
 20
14325.0
 30
0.0
 11
8153.01510072
 21
14475.0
 31
0.0
  0
LINE
  5
322
330
521
100
AcDbEntity
  8
YKK_Z1
  6
Continuous
100
AcDbLine
 10
7925.0
 20
14440.0
 30
0.0
 11
7925.0
 21
14475.0
 31
0.0
  0
LINE
  5
323
330
521
100
AcDbEntity
  8
YKK_Z1
  6
Continuous
100
AcDbLine
 10
7955.0
 20
14430.0
 30
0.0
 11
7925.0
 21
14440.0
 31
0.0
  0
LINE
  5
324
330
521
100
AcDbEntity
  8
YKK_Z1
  6
Continuous
100
AcDbLine
 10
7955.0
 20
14325.0
 30
0.0
 11
7955.0
 21
14430.0
 31
0.0
  0
LINE
  5
325
330
521
100
AcDbEntity
  8
YKK_B1
100
AcDbLine
 10
7925.0
 20
14425.0
 30
0.0
 11
7925.0
 21
14416.0
 31
0.0
  0
LINE
  5
326
330
521
100
AcDbEntity
  8
YKK_B1
100
AcDbLine
 10
7900.0
 20
14425.0
 30
0.0
 11
7925.0
 21
14425.0
 31
0.0
  0
LINE
  5
327
330
521
100
AcDbEntity
  8
YKK_B1
100
AcDbLine
 10
7925.0
 20
14325.0
 30
0.0
 11
7925.0
 21
14334.0
 31
0.0
  0
LINE
  5
328
330
521
100
AcDbEntity
  8
YKK_B1
100
AcDbLine
 10
7900.0
 20
14325.0
 30
0.0
 11
7925.0
 21
14325.0
 31
0.0
  0
LINE
  5
329
330
521
100
AcDbEntity
  8
YKK_B1
100
AcDbLine
 10
7900.0
 20
14325.0
 30
0.0
 11
7900.0
 21
14425.0
 31
0.0
  0
LINE
  5
32A
330
521
100
AcDbEntity
  8
YKK_Z1
  6
Continuous
100
AcDbLine
 10
8245.0
 20
14485.0
 30
0.0
 11
8245.0
 21
14477.0
 31
0.0
  0
LINE
  5
32B
330
521
100
AcDbEntity
  8
YKK_Z1
  6
Continuous
100
AcDbLine
 10
8235.0
 20
14485.0
 30
0.0
 11
8235.0
 21
14477.0
 31
0.0
  0
LINE
  5
32C
330
521
100
AcDbEntity
  8
YKK_Z1
  6
Continuous
100
AcDbLine
 10
8294.99982333
 20
14325.0
 30
0.0
 11
8300.0
 21
14319.99982073
 31
0.0
  0
LINE
  5
32D
330
521
100
AcDbEntity
  8
YKK_Z1
  6
Continuous
100
AcDbLine
 10
8274.99983372
 20
14325.0
 30
0.0
 11
8294.99982333
 21
14305.0
 31
0.0
  0
LINE
  5
32E
330
521
100
AcDbEntity
  8
YKK_Z1
  6
Continuous
100
AcDbLine
 10
8254.99984412
 20
14325.0
 30
0.0
 11
8274.99983372
 21
14305.0
 31
0.0
  0
LINE
  5
32F
330
521
100
AcDbEntity
  8
YKK_Z1
  6
Continuous
100
AcDbLine
 10
8234.99985451
 20
14325.0
 30
0.0
 11
8254.99984412
 21
14305.0
 31
0.0
  0
LINE
  5
330
330
521
100
AcDbEntity
  8
YKK_Z1
  6
Continuous
100
AcDbLine
 10
8214.9998649
 20
14325.0
 30
0.0
 11
8234.99985451
 21
14305.0
 31
0.0
  0
LINE
  5
331
330
521
100
AcDbEntity
  8
YKK_Z1
  6
Continuous
100
AcDbLine
 10
8194.99987529
 20
14325.0
 30
0.0
 11
8214.9998649
 21
14305.0
 31
0.0
  0
LINE
  5
332
330
521
100
AcDbEntity
  8
YKK_Z1
  6
Continuous
100
AcDbLine
 10
8295.00005889
 20
14305.0
 30
0.0
 11
8300.0
 21
14309.99994024
 31
0.0
  0
LINE
  5
333
330
521
100
AcDbEntity
  8
YKK_Z1
  6
Continuous
100
AcDbLine
 10
8275.00005543
 20
14305.0
 30
0.0
 11
8295.00005889
 21
14325.0
 31
0.0
  0
LINE
  5
334
330
521
100
AcDbEntity
  8
YKK_Z1
  6
Continuous
100
AcDbLine
 10
8255.00005196
 20
14305.0
 30
0.0
 11
8275.00005543
 21
14325.0
 31
0.0
  0
LINE
  5
335
330
521
100
AcDbEntity
  8
YKK_Z1
  6
Continuous
100
AcDbLine
 10
8235.0000485
 20
14305.0
 30
0.0
 11
8255.00005196
 21
14325.0
 31
0.0
  0
LINE
  5
336
330
521
100
AcDbEntity
  8
YKK_Z1
  6
Continuous
100
AcDbLine
 10
8215.00004503
 20
14305.0
 30
0.0
 11
8235.0000485
 21
14325.0
 31
0.0
  0
LINE
  5
337
330
521
100
AcDbEntity
  8
YKK_Z1
  6
Continuous
100
AcDbLine
 10
8195.00004157
 20
14305.0
 30
0.0
 11
8215.00004503
 21
14325.0
 31
0.0
  0
LINE
  5
339
330
521
100
AcDbEntity
  8
YKK_N1
  6
ByBlock
100
AcDbLine
 10
7813.39745962
 20
15475.0
 30
0.0
 11
7813.39745962
 21
15375.0
 31
0.0
  0
LINE
  5
33A
330
521
100
AcDbEntity
  8
YKK_N1
  6
ByBlock
100
AcDbLine
 10
7900.0
 20
15425.0
 30
0.0
 11
7813.39745962
 21
15475.0
 31
0.0
  0
LINE
  5
33B
330
521
100
AcDbEntity
  8
YKK_N1
100
AcDbLine
 10
7900.0
 20
15765.0
 30
0.0
 11
7900.0
 21
15395.0
 31
0.0
  0
LINE
  5
33C
330
521
100
AcDbEntity
  8
YKK_N1
  6
ByBlock
100
AcDbLine
 10
7813.39745962
 20
15375.0
 30
0.0
 11
7900.0
 21
15425.0
 31
0.0
  0
LINE
  5
33D
330
521
100
AcDbEntity
  8
YKK_N1
  6
ByBlock
100
AcDbLine
 10
7900.0
 20
15425.0
 30
0.0
 11
7800.0
 21
15425.0
 31
0.0
  0
LINE
  5
33E
330
521
100
AcDbEntity
  8
YKK_N1
100
AcDbLine
 10
7960.0
 20
15825.0
 30
0.0
 11
8330.0
 21
15825.0
 31
0.0
  0
LINE
  5
33F
330
521
100
AcDbEntity
  8
YKK_N1
100
AcDbLine
 10
7960.0
 20
15825.0
 30
0.0
 11
8530.0
 21
15825.0
 31
0.0
  0
TEXT
  5
340
330
521
100
AcDbEntity
  8
YKK_A1
100
AcDbText
 10
7808.0
 20
15855.0
 30
0.0
 40
60.0
  1
F
 41
0.8
 72
     2
 11
7840.0
 21
15855.0
 31
0.0
100
AcDbText
  0
LINE
  5
341
330
521
100
AcDbEntity
  8
YKK_N1
  6
ByBlock
100
AcDbLine
 10
8450.0
 20
15911.60254038
 30
0.0
 11
8500.0
 21
15825.0
 31
0.0
  0
LINE
  5
342
330
521
100
AcDbEntity
  8
YKK_N1
  6
ByBlock
100
AcDbLine
 10
8500.0
 20
15825.0
 30
0.0
 11
8550.0
 21
15911.60254038
 31
0.0
  0
LINE
  5
343
330
521
100
AcDbEntity
  8
YKK_N1
  6
ByBlock
100
AcDbLine
 10
8500.0
 20
15825.0
 30
0.0
 11
8500.0
 21
15925.0
 31
0.0
  0
LINE
  5
344
330
521
100
AcDbEntity
  8
YKK_N1
100
AcDbLine
 10
8300.0
 20
15825.0
 30
0.0
 11
8300.0
 21
15845.0
 31
0.0
  0
CIRCLE
  5
345
330
521
100
AcDbEntity
  8
YKK_N1
100
AcDbCircle
 10
8300.0
 20
15825.0
 30
0.0
 40
6.5
  0
CIRCLE
  5
346
330
521
100
AcDbEntity
  8
YKK_N1
100
AcDbCircle
 10
8300.0
 20
15825.0
 30
0.0
 40
10.0
  0
LINE
  5
347
330
521
100
AcDbEntity
  8
YKK_N1
  6
ByBlock
100
AcDbLine
 10
8550.0
 20
15911.60254038
 30
0.0
 11
8450.0
 21
15911.60254038
 31
0.0
  0
TEXT
  5
348
330
521
100
AcDbEntity
  8
YKK_N1
100
AcDbText
 10
8290.0
 20
16106.42857143
 30
0.0
 40
60.0
  1
700
 50
90.0
 41
0.8
100
AcDbText
1001
ACAD
1000
MTEXTBEGIN
1070
    73
1070
     1
1070
    44
1040
1.0
1070
    74
1070
     0
1000
MTEXTEND
  0
LINE
  5
349
330
521
100
AcDbEntity
  8
YKK_Z1
  6
Continuous
100
AcDbLine
 10
9433.0
 20
15425.0
 30
0.0
 11
9433.0
 21
15800.0
 31
0.0
  0
LINE
  5
34A
330
521
100
AcDbEntity
  8
YKK_Z1
  6
Continuous
100
AcDbLine
 10
9445.0
 20
15800.0
 30
0.0
 11
9445.0
 21
15425.0
 31
0.0
  0
LINE
  5
34B
330
521
100
AcDbEntity
  8
YKK_Z1
  6
Continuous
100
AcDbLine
 10
9248.0
 20
15737.0
 30
0.0
 11
9248.0
 21
15425.0
 31
0.0
  0
LINE
  5
34C
330
521
100
AcDbEntity
  8
YKK_Z1
  6
Continuous
100
AcDbLine
 10
9240.0
 20
15737.0
 30
0.0
 11
9240.0
 21
15425.0
 31
0.0
  0
LINE
  5
34D
330
521
100
AcDbEntity
  8
YKK_Z1
  6
Continuous
100
AcDbLine
 10
9400.0
 20
15475.0001351
 30
0.0
 11
9420.0
 21
15455.00014549
 31
0.0
  0
LINE
  5
34E
330
521
100
AcDbEntity
  8
YKK_Z1
  6
Continuous
100
AcDbLine
 10
9420.0
 20
15474.99995497
 30
0.0
 11
9400.0
 21
15454.9999515
 31
0.0
  0
LINE
  5
34F
330
521
100
AcDbEntity
  8
YKK_Z1
  6
Continuous
100
AcDbLine
 10
9420.0
 20
15735.0
 30
0.0
 11
9420.0
 21
15425.0
 31
0.0
  0
LINE
  5
350
330
521
100
AcDbEntity
  8
YKK_Z1
  6
CENTER
100
AcDbLine
 10
9325.0
 20
15750.0
 30
0.0
 11
9325.0
 21
15425.0
 31
0.0
  0
LINE
  5
351
330
521
100
AcDbEntity
  8
YKK_Z1
  6
Continuous
100
AcDbLine
 10
9250.0
 20
15710.0
 30
0.0
 11
9250.0
 21
15425.0
 31
0.0
  0
LINE
  5
352
330
521
100
AcDbEntity
  8
YKK_Z1
  6
Continuous
100
AcDbLine
 10
9400.0
 20
15425.0
 30
0.0
 11
9400.0
 21
15735.0
 31
0.0
  0
LINE
  5
353
330
521
100
AcDbEntity
  8
YKK_Z1
  6
Continuous
100
AcDbLine
 10
9400.0
 20
15435.00015588
 30
0.0
 11
9410.00016108
 21
15425.0
 31
0.0
  0
LINE
  5
354
330
521
100
AcDbEntity
  8
YKK_Z1
  6
Continuous
100
AcDbLine
 10
9400.0
 20
15455.00014549
 30
0.0
 11
9420.0
 21
15435.00015588
 31
0.0
  0
LINE
  5
355
330
521
100
AcDbEntity
  8
YKK_Z1
  6
Continuous
100
AcDbLine
 10
9420.0
 20
15434.99994804
 30
0.0
 11
9410.00005369
 21
15425.0
 31
0.0
  0
LINE
  5
356
330
521
100
AcDbEntity
  8
YKK_Z1
  6
Continuous
100
AcDbLine
 10
9420.0
 20
15454.9999515
 30
0.0
 11
9400.0
 21
15434.99994804
 31
0.0
  0
LINE
  5
358
330
521
100
AcDbEntity
  8
YKK_Z1
  6
Continuous
100
AcDbLine
 10
9313.0
 20
15755.0
 30
0.0
 11
9225.0
 21
15739.7
 31
0.0
  0
LINE
  5
359
330
521
100
AcDbEntity
  8
YKK_Z1
  6
Continuous
100
AcDbLine
 10
9400.0
 20
15693.70064666
 30
0.0
 11
9250.0
 21
15543.70062068
 31
0.0
  0
LINE
  5
35A
330
521
100
AcDbEntity
  8
YKK_Z1
  6
Continuous
100
AcDbLine
 10
9400.0
 20
15713.49964168
 30
0.0
 11
9250.0
 21
15563.4996157
 31
0.0
  0
LINE
  5
35B
330
521
100
AcDbEntity
  8
YKK_Z1
  6
Continuous
100
AcDbLine
 10
9400.0
 20
15721.98492526
 30
0.0
 11
9250.0
 21
15571.98489928
 31
0.0
  0
LINE
  5
35C
330
521
100
AcDbEntity
  8
YKK_Z1
  6
Continuous
100
AcDbLine
 10
9400.0
 20
15735.0
 30
0.0
 11
9250.0
 21
15710.0
 31
0.0
  0
LINE
  5
35D
330
521
100
AcDbEntity
  8
YKK_Z1
  6
Continuous
100
AcDbLine
 10
9240.0
 20
15517.0
 30
0.0
 11
9248.0
 21
15517.0
 31
0.0
  0
LINE
  5
35E
330
521
100
AcDbEntity
  8
YKK_Z1
  6
Continuous
100
AcDbLine
 10
9240.0
 20
15527.0
 30
0.0
 11
9248.0
 21
15527.0
 31
0.0
  0
LINE
  5
35F
330
521
100
AcDbEntity
  8
YKK_Z1
  6
Continuous
100
AcDbLine
 10
9240.0
 20
15627.0
 30
0.0
 11
9248.0
 21
15627.0
 31
0.0
  0
LINE
  5
360
330
521
100
AcDbEntity
  8
YKK_Z1
  6
Continuous
100
AcDbLine
 10
9240.0
 20
15637.0
 30
0.0
 11
9248.0
 21
15637.0
 31
0.0
  0
LINE
  5
361
330
521
100
AcDbEntity
  8
YKK_Z1
  6
Continuous
100
AcDbLine
 10
9240.0
 20
15737.0
 30
0.0
 11
9248.0
 21
15737.0
 31
0.0
  0
LINE
  5
362
330
521
100
AcDbEntity
  8
YKK_Z1
  6
Continuous
100
AcDbLine
 10
9225.0
 20
15724.7
 30
0.0
 11
9240.0
 21
15724.7
 31
0.0
  0
LINE
  5
363
330
521
100
AcDbEntity
  8
YKK_Z1
  6
Continuous
100
AcDbLine
 10
9225.0
 20
15739.7
 30
0.0
 11
9225.0
 21
15724.7
 31
0.0
  0
LINE
  5
364
330
521
100
AcDbEntity
  8
YKK_N1
100
AcDbLine
 10
9460.0
 20
15825.0
 30
0.0
 11
9830.0
 21
15825.0
 31
0.0
  0
LINE
  5
365
330
521
100
AcDbEntity
  8
YKK_Z1
  6
Continuous
100
AcDbLine
 10
9433.0
 20
15800.0
 30
0.0
 11
9445.0
 21
15800.0
 31
0.0
  0
LINE
  5
366
330
521
100
AcDbEntity
  8
YKK_Z1
  6
Continuous
100
AcDbLine
 10
9428.2842737
 20
15800.0
 30
0.0
 11
9453.28426937
 21
15825.0
 31
0.0
  0
LINE
  5
367
330
521
100
AcDbEntity
  8
YKK_Z1
  6
Continuous
100
AcDbLine
 10
9400.0
 20
15800.0
 30
0.0
 11
9424.99999567
 21
15825.0
 31
0.0
  0
LINE
  5
368
330
521
100
AcDbEntity
  8
YKK_Z1
  6
Continuous
100
AcDbLine
 10
9400.0
 20
15800.0
 30
0.0
 11
9400.0
 21
15825.0
 31
0.0
  0
LINE
  5
369
330
521
100
AcDbEntity
  8
YKK_Z1
  6
Continuous
100
AcDbLine
 10
9455.0
 20
15800.0
 30
0.0
 11
9400.0
 21
15800.0
 31
0.0
  0
LINE
  5
36A
330
521
100
AcDbEntity
  8
YKK_Z1
  6
Continuous
100
AcDbLine
 10
9455.0
 20
15825.0
 30
0.0
 11
9455.0
 21
15800.0
 31
0.0
  0
LINE
  5
36B
330
521
100
AcDbEntity
  8
YKK_Z1
  6
Continuous
100
AcDbLine
 10
9400.0
 20
15825.0
 30
0.0
 11
9455.0
 21
15825.0
 31
0.0
  0
LINE
  5
36C
330
521
100
AcDbEntity
  8
YKK_Z1
  6
Continuous
100
AcDbLine
 10
9313.0
 20
15765.0
 30
0.0
 11
9313.0
 21
15755.0
 31
0.0
  0
LINE
  5
36D
330
521
100
AcDbEntity
  8
YKK_Z1
  6
Continuous
100
AcDbLine
 10
9400.0
 20
15495.00012471
 30
0.0
 11
9420.0
 21
15475.0001351
 31
0.0
  0
LINE
  5
36E
330
521
100
AcDbEntity
  8
YKK_Z1
  6
Continuous
100
AcDbLine
 10
9400.0
 20
15515.00011432
 30
0.0
 11
9420.0
 21
15495.00012471
 31
0.0
  0
LINE
  5
36F
330
521
100
AcDbEntity
  8
YKK_Z1
  6
Continuous
100
AcDbLine
 10
9400.0
 20
15535.00010392
 30
0.0
 11
9420.0
 21
15515.00011432
 31
0.0
  0
LINE
  5
370
330
521
100
AcDbEntity
  8
YKK_Z1
  6
Continuous
100
AcDbLine
 10
9400.0
 20
15555.00009353
 30
0.0
 11
9420.0
 21
15535.00010392
 31
0.0
  0
LINE
  5
371
330
521
100
AcDbEntity
  8
YKK_Z1
  6
Continuous
100
AcDbLine
 10
9400.0
 20
15575.00008314
 30
0.0
 11
9420.0
 21
15555.00009353
 31
0.0
  0
LINE
  5
372
330
521
100
AcDbEntity
  8
YKK_Z1
  6
Continuous
100
AcDbLine
 10
9400.0
 20
15595.00007275
 30
0.0
 11
9420.0
 21
15575.00008314
 31
0.0
  0
LINE
  5
373
330
521
100
AcDbEntity
  8
YKK_Z1
  6
Continuous
100
AcDbLine
 10
9400.0
 20
15615.00006235
 30
0.0
 11
9420.0
 21
15595.00007275
 31
0.0
  0
LINE
  5
374
330
521
100
AcDbEntity
  8
YKK_Z1
  6
Continuous
100
AcDbLine
 10
9400.0
 20
15635.00005196
 30
0.0
 11
9420.0
 21
15615.00006235
 31
0.0
  0
LINE
  5
375
330
521
100
AcDbEntity
  8
YKK_Z1
  6
Continuous
100
AcDbLine
 10
9400.0
 20
15655.00004157
 30
0.0
 11
9420.0
 21
15635.00005196
 31
0.0
  0
LINE
  5
376
330
521
100
AcDbEntity
  8
YKK_Z1
  6
Continuous
100
AcDbLine
 10
9400.0
 20
15675.00003118
 30
0.0
 11
9420.0
 21
15655.00004157
 31
0.0
  0
LINE
  5
377
330
521
100
AcDbEntity
  8
YKK_Z1
  6
Continuous
100
AcDbLine
 10
9400.0
 20
15695.00002078
 30
0.0
 11
9420.0
 21
15675.00003118
 31
0.0
  0
LINE
  5
378
330
521
100
AcDbEntity
  8
YKK_Z1
  6
Continuous
100
AcDbLine
 10
9400.0
 20
15715.00001039
 30
0.0
 11
9420.0
 21
15695.00002078
 31
0.0
  0
LINE
  5
37A
330
521
100
AcDbEntity
  8
YKK_Z1
  6
Continuous
100
AcDbLine
 10
9400.0
 20
15735.0
 30
0.0
 11
9420.0
 21
15715.00001039
 31
0.0
  0
LINE
  5
37B
330
521
100
AcDbEntity
  8
YKK_Z1
  6
Continuous
100
AcDbLine
 10
9420.0
 20
15494.99995843
 30
0.0
 11
9400.0
 21
15474.99995497
 31
0.0
  0
LINE
  5
37C
330
521
100
AcDbEntity
  8
YKK_Z1
  6
Continuous
100
AcDbLine
 10
9420.0
 20
15514.99996189
 30
0.0
 11
9400.0
 21
15494.99995843
 31
0.0
  0
LINE
  5
37D
330
521
100
AcDbEntity
  8
YKK_Z1
  6
Continuous
100
AcDbLine
 10
9420.0
 20
15534.99996536
 30
0.0
 11
9400.0
 21
15514.99996189
 31
0.0
  0
LINE
  5
37E
330
521
100
AcDbEntity
  8
YKK_Z1
  6
Continuous
100
AcDbLine
 10
9420.0
 20
15554.99996882
 30
0.0
 11
9400.0
 21
15534.99996536
 31
0.0
  0
LINE
  5
37F
330
521
100
AcDbEntity
  8
YKK_Z1
  6
Continuous
100
AcDbLine
 10
9420.0
 20
15574.99997229
 30
0.0
 11
9400.0
 21
15554.99996882
 31
0.0
  0
LINE
  5
380
330
521
100
AcDbEntity
  8
YKK_Z1
  6
Continuous
100
AcDbLine
 10
9420.0
 20
15594.99997575
 30
0.0
 11
9400.0
 21
15574.99997229
 31
0.0
  0
LINE
  5
381
330
521
100
AcDbEntity
  8
YKK_Z1
  6
Continuous
100
AcDbLine
 10
9420.0
 20
15614.99997922
 30
0.0
 11
9400.0
 21
15594.99997575
 31
0.0
  0
LINE
  5
382
330
521
100
AcDbEntity
  8
YKK_Z1
  6
Continuous
100
AcDbLine
 10
9420.0
 20
15634.99998268
 30
0.0
 11
9400.0
 21
15614.99997922
 31
0.0
  0
LINE
  5
383
330
521
100
AcDbEntity
  8
YKK_Z1
  6
Continuous
100
AcDbLine
 10
9420.0
 20
15654.99998614
 30
0.0
 11
9400.0
 21
15634.99998268
 31
0.0
  0
LINE
  5
384
330
521
100
AcDbEntity
  8
YKK_Z1
  6
Continuous
100
AcDbLine
 10
9420.0
 20
15674.99998961
 30
0.0
 11
9400.0
 21
15654.99998614
 31
0.0
  0
LINE
  5
385
330
521
100
AcDbEntity
  8
YKK_Z1
  6
Continuous
100
AcDbLine
 10
9420.0
 20
15694.99999307
 30
0.0
 11
9400.0
 21
15674.99998961
 31
0.0
  0
LINE
  5
386
330
521
100
AcDbEntity
  8
YKK_Z1
  6
Continuous
100
AcDbLine
 10
9420.0
 20
15714.99999654
 30
0.0
 11
9400.0
 21
15694.99999307
 31
0.0
  0
LINE
  5
387
330
521
100
AcDbEntity
  8
YKK_Z1
  6
Continuous
100
AcDbLine
 10
9420.0
 20
15735.0
 30
0.0
 11
9400.0
 21
15714.99999654
 31
0.0
  0
LINE
  5
389
330
521
100
AcDbEntity
  8
YKK_Z1
  6
Continuous
100
AcDbLine
 10
9400.0
 20
15735.0
 30
0.0
 11
9420.0
 21
15735.0
 31
0.0
  0
LINE
  5
38A
330
521
100
AcDbEntity
  8
YKK_C1
100
AcDbLine
 10
9313.0
 20
15765.0
 30
0.0
 11
9313.0
 21
15755.0
 31
0.0
  0
LINE
  5
38B
330
521
100
AcDbEntity
  8
YKK_C1
100
AcDbLine
 10
9300.0
 20
15765.0
 30
0.0
 11
9313.0
 21
15765.0
 31
0.0
  0
LINE
  5
38C
330
521
100
AcDbEntity
  8
YKK_C1
100
AcDbLine
 10
9300.0
 20
15795.0
 30
0.0
 11
9300.0
 21
15765.0
 31
0.0
  0
LINE
  5
38D
330
521
100
AcDbEntity
  8
YKK_C1
100
AcDbLine
 10
9400.0
 20
15785.0
 30
0.0
 11
9394.0
 21
15785.0
 31
0.0
  0
LINE
  5
38E
330
521
100
AcDbEntity
  8
YKK_C1
100
AcDbLine
 10
9400.0
 20
15825.0
 30
0.0
 11
9400.0
 21
15785.0
 31
0.0
  0
LINE
  5
38F
330
521
100
AcDbEntity
  8
YKK_C1
100
AcDbLine
 10
9342.0
 20
15795.0
 30
0.0
 11
9300.0
 21
15795.0
 31
0.0
  0
LINE
  5
391
330
521
100
AcDbEntity
  8
YKK_C1
100
AcDbLine
 10
9300.0
 20
15795.0
 30
0.0
 11
9300.0
 21
15825.0
 31
0.0
  0
LINE
  5
392
330
521
100
AcDbEntity
  8
YKK_C1
100
AcDbLine
 10
9400.0
 20
15795.0
 30
0.0
 11
9300.0
 21
15795.0
 31
0.0
  0
LINE
  5
393
330
521
100
AcDbEntity
  8
YKK_C1
100
AcDbLine
 10
9342.0
 20
15825.0
 30
0.0
 11
9342.0
 21
15795.0
 31
0.0
  0
LINE
  5
394
330
521
100
AcDbEntity
  8
YKK_C1
100
AcDbLine
 10
9400.0
 20
15825.0
 30
0.0
 11
9342.0
 21
15825.0
 31
0.0
  0
LINE
  5
395
330
521
100
AcDbEntity
  8
YKK_N1
100
AcDbLine
 10
9800.0
 20
15825.0
 30
0.0
 11
9800.0
 21
15845.0
 31
0.0
  0
CIRCLE
  5
396
330
521
100
AcDbEntity
  8
YKK_N1
100
AcDbCircle
 10
9800.0
 20
15825.0
 30
0.0
 40
6.5
  0
CIRCLE
  5
397
330
521
100
AcDbEntity
  8
YKK_N1
100
AcDbCircle
 10
9800.0
 20
15825.0
 30
0.0
 40
10.0
  0
TEXT
  5
398
330
521
100
AcDbEntity
  8
YKK_N1
100
AcDbText
 10
9790.0
 20
16106.42857143
 30
0.0
 40
60.0
  1
700
 50
90.0
 41
0.8
100
AcDbText
1001
ACAD
1000
MTEXTBEGIN
1070
    73
1070
     1
1070
    44
1040
1.0
1070
    74
1070
     0
1000
MTEXTEND
  0
LINE
  5
399
330
521
100
AcDbEntity
  8
YKK_N1
100
AcDbLine
 10
10000.0
 20
15805.0
 30
0.0
 11
10000.0
 21
15045.0
 31
0.0
  0
LINE
  5
39A
330
521
100
AcDbEntity
  8
YKK_N1
  6
CENTER
100
AcDbLine
 10
9900.0
 20
15025.0
 30
0.0
 11
10400.0
 21
15025.0
 31
0.0
  0
LINE
  5
39B
330
521
100
AcDbEntity
  8
YKK_N1
100
AcDbLine
 10
10000.0
 20
15025.0
 30
0.0
 11
10000.0
 21
15045.0
 31
0.0
  0
CIRCLE
  5
39C
330
521
100
AcDbEntity
  8
YKK_N1
100
AcDbCircle
 10
10000.0
 20
15025.0
 30
0.0
 40
6.5
  0
CIRCLE
  5
39D
330
521
100
AcDbEntity
  8
YKK_N1
100
AcDbCircle
 10
10000.0
 20
15025.0
 30
0.0
 40
10.0
  0
TEXT
  5
39E
330
521
100
AcDbEntity
  8
YKK_N1
100
AcDbText
 10
9990.0
 20
15356.42857143
 30
0.0
 40
60.0
  1
800
 50
90.0
 41
0.8
100
AcDbText
1001
ACAD
1000
MTEXTBEGIN
1070
    73
1070
     1
1070
    44
1040
1.0
1070
    74
1070
     0
1000
MTEXTEND
  0
LINE
  5
39F
330
521
100
AcDbEntity
  8
YKK_N1
  6
ByBlock
100
AcDbLine
 10
9950.0
 20
15911.60254038
 30
0.0
 11
10000.0
 21
15825.0
 31
0.0
  0
LINE
  5
3A0
330
521
100
AcDbEntity
  8
YKK_N1
  6
ByBlock
100
AcDbLine
 10
10000.0
 20
15825.0
 30
0.0
 11
10050.0
 21
15911.60254038
 31
0.0
  0
LINE
  5
3A1
330
521
100
AcDbEntity
  8
YKK_N1
  6
ByBlock
100
AcDbLine
 10
10000.0
 20
15825.0
 30
0.0
 11
10000.0
 21
15925.0
 31
0.0
  0
LINE
  5
3A2
330
521
100
AcDbEntity
  8
YKK_N1
  6
ByBlock
100
AcDbLine
 10
10000.0
 20
15825.0
 30
0.0
 11
10000.0
 21
15805.0
 31
0.0
  0
LINE
  5
3A3
330
521
100
AcDbEntity
  8
YKK_N1
  6
ByBlock
100
AcDbLine
 10
10050.0
 20
15911.60254038
 30
0.0
 11
9950.0
 21
15911.60254038
 31
0.0
  0
TEXT
  5
3A4
330
521
100
AcDbEntity
  8
YKK_N1
100
AcDbText
 10
9897.5
 20
16503.0
 30
0.0
 40
60.0
  1
100
 50
90.0
 41
0.8
100
AcDbText
1001
ACAD
1000
MTEXTBEGIN
1070
    73
1070
     1
1070
    44
1040
1.0
1070
    74
1070
     0
1000
MTEXTEND
  0
LINE
  5
3A5
330
521
100
AcDbEntity
  8
YKK_N1
100
AcDbLine
 10
9460.0
 20
17325.0
 30
0.0
 11
10030.0
 21
17325.0
 31
0.0
  0
TEXT
  5
3A6
330
521
100
AcDbEntity
  8
0
100
AcDbText
 10
5800.0
 20
19187.5
 30
0.0
 40
175.0
  1
上段辷り出し窓、下段はめ殺し窓
  7
EXTFONT
100
AcDbText
  0
TEXT
  5
3A7
330
521
100
AcDbEntity
  8
YKK_A1
100
AcDbText
 10
7521.2
 20
16770.0
 30
0.0
 40
60.0
  1
複層ガラス
 41
0.8
 72
     2
 11
7790.0
 21
16770.0
 31
0.0
100
AcDbText
  0
TEXT
  5
3A8
330
521
100
AcDbEntity
  8
YKK_A1
100
AcDbText
 10
7486.0
 20
16700.0
 30
0.0
 40
60.0
  1
5+A12+5
 41
0.8
 72
     2
 11
7790.0
 21
16700.0
 31
0.0
100
AcDbText
  0
LINE
  5
3A9
330
521
100
AcDbEntity
  8
YKK_A1
  6
CENTER
100
AcDbLine
 10
7130.0
 20
16625.0
 30
0.0
 11
7870.0
 21
17295.0
 31
0.0
  0
LINE
  5
3AA
330
521
100
AcDbEntity
  8
YKK_A1
100
AcDbLine
 10
7820.0
 20
17245.0
 30
0.0
 11
7180.0
 21
17245.0
 31
0.0
  0
LINE
  5
3AB
330
521
100
AcDbEntity
  8
YKK_A1
100
AcDbLine
 10
7180.0
 20
16670.0
 30
0.0
 11
7820.0
 21
16670.0
 31
0.0
  0
LINE
  5
3AC
330
521
100
AcDbEntity
  8
YKK_A1
100
AcDbLine
 10
7870.0
 20
17295.0
 30
0.0
 11
7130.0
 21
17295.0
 31
0.0
  0
LINE
  5
3AD
330
521
100
AcDbEntity
  8
YKK_A1
100
AcDbLine
 10
7130.0
 20
16625.0
 30
0.0
 11
7870.0
 21
16625.0
 31
0.0
  0
LINE
  5
3AE
330
521
100
AcDbEntity
  8
YKK_A1
100
AcDbLine
 10
7900.0
 20
17325.0
 30
0.0
 11
7100.0
 21
17325.0
 31
0.0
  0
LINE
  5
3AF
330
521
100
AcDbEntity
  8
YKK_A1
100
AcDbLine
 10
7100.0
 20
16625.0
 30
0.0
 11
7900.0
 21
16625.0
 31
0.0
  0
LINE
  5
3B0
330
521
100
AcDbEntity
  8
YKK_A1
100
AcDbLine
 10
7900.0
 20
16625.0
 30
0.0
 11
7100.0
 21
16625.0
 31
0.0
  0
LINE
  5
3B1
330
521
100
AcDbEntity
  8
YKK_A1
100
AcDbLine
 10
7100.0
 20
16525.0
 30
0.0
 11
7900.0
 21
16525.0
 31
0.0
  0
LINE
  5
3B2
330
521
100
AcDbEntity
  8
YKK_A1
100
AcDbLine
 10
7870.0
 20
16525.0
 30
0.0
 11
7130.0
 21
16525.0
 31
0.0
  0
LINE
  5
3B3
330
521
100
AcDbEntity
  8
YKK_A1
100
AcDbLine
 10
7900.0
 20
16525.0
 30
0.0
 11
7100.0
 21
16525.0
 31
0.0
  0
LINE
  5
3B4
330
521
100
AcDbEntity
  8
YKK_A1
100
AcDbLine
 10
7915.0
 20
17340.0
 30
0.0
 11
7085.0
 21
17340.0
 31
0.0
  0
TEXT
  5
3B5
330
521
100
AcDbEntity
  8
0
100
AcDbText
 10
5800.0
 20
18737.5
 30
0.0
 40
175.0
  1
W＝800　H＝1,500
  7
EXTFONT
100
AcDbText
  0
LINE
  5
3B6
330
521
100
AcDbEntity
  8
YKK_A1
100
AcDbLine
 10
7180.0
 20
17245.0
 30
0.0
 11
7180.0
 21
16670.0
 31
0.0
  0
LINE
  5
3B7
330
521
100
AcDbEntity
  8
YKK_A1
100
AcDbLine
 10
7130.0
 20
17295.0
 30
0.0
 11
7130.0
 21
16625.0
 31
0.0
  0
LINE
  5
3B8
330
521
100
AcDbEntity
  8
YKK_A1
100
AcDbLine
 10
7100.0
 20
17325.0
 30
0.0
 11
7100.0
 21
16625.0
 31
0.0
  0
LINE
  5
3B9
330
521
100
AcDbEntity
  8
YKK_A2
  6
ByBlock
100
AcDbLine
 10
7472.0
 20
16645.0
 30
0.0
 11
7472.0
 21
16625.0
 31
0.0
  0
LINE
  5
3BA
330
521
100
AcDbEntity
  8
YKK_A2
  6
ByBlock
100
AcDbLine
 10
7491.0
 20
16645.0
 30
0.0
 11
7491.0
 21
16625.0
 31
0.0
  0
LINE
  5
3BB
330
521
100
AcDbEntity
  8
YKK_A2
  6
ByBlock
100
AcDbLine
 10
7528.0
 20
16625.0
 30
0.0
 11
7528.0
 21
16645.0
 31
0.0
  0
LINE
  5
3BC
330
521
100
AcDbEntity
  8
YKK_A2
  6
ByBlock
100
AcDbLine
 10
7500.0
 20
16635.0
 30
0.0
 11
7504.0
 21
16649.0
 31
0.0
  0
LINE
  5
3BD
330
521
100
AcDbEntity
  8
YKK_A2
  6
ByBlock
100
AcDbLine
 10
7509.0
 20
16649.0
 30
0.0
 11
7509.0
 21
16625.0
 31
0.0
  0
LINE
  5
3BE
330
521
100
AcDbEntity
  8
YKK_A1
100
AcDbLine
 10
7100.0
 20
16625.0
 30
0.0
 11
7100.0
 21
16525.0
 31
0.0
  0
CIRCLE
  5
3BF
330
521
100
AcDbEntity
  8
YKK_A2
  6
ByBlock
100
AcDbCircle
 10
7520.0
 20
16635.0
 30
0.0
 40
4.099999999999998
  0
CIRCLE
  5
3C0
330
521
100
AcDbEntity
  8
YKK_A2
  6
ByBlock
100
AcDbCircle
 10
7520.0
 20
16635.0
 30
0.0
 40
2.25
  0
LINE
  5
3C1
330
521
100
AcDbEntity
  8
YKK_A2
  6
ByBlock
100
AcDbLine
 10
7509.0
 20
16635.0
 30
0.0
 11
7500.0
 21
16635.0
 31
0.0
  0
LINE
  5
3C2
330
521
100
AcDbEntity
  8
YKK_A2
  6
ByBlock
100
AcDbLine
 10
7491.0
 20
16625.0
 30
0.0
 11
7500.0
 21
16635.0
 31
0.0
  0
CIRCLE
  5
3C3
330
521
100
AcDbEntity
  8
YKK_A2
  6
ByBlock
100
AcDbCircle
 10
7480.0
 20
16635.0
 30
0.0
 40
4.099999999999998
  0
CIRCLE
  5
3C4
330
521
100
AcDbEntity
  8
YKK_A2
  6
ByBlock
100
AcDbCircle
 10
7480.0
 20
16635.0
 30
0.0
 40
2.25
  0
LINE
  5
3C5
330
521
100
AcDbEntity
  8
YKK_A2
  6
ByBlock
100
AcDbLine
 10
7472.0
 20
16625.0
 30
0.0
 11
7528.0
 21
16625.0
 31
0.0
  0
LINE
  5
3C6
330
521
100
AcDbEntity
  8
YKK_A2
  6
ByBlock
100
AcDbLine
 10
7600.0
 20
16661.0
 30
0.0
 11
7600.0
 21
16649.0
 31
0.0
  0
LINE
  5
3C7
330
521
100
AcDbEntity
  8
YKK_A2
  6
ByBlock
100
AcDbLine
 10
7528.0
 20
16645.0
 30
0.0
 11
7509.0
 21
16645.0
 31
0.0
  0
LINE
  5
3C8
330
521
100
AcDbEntity
  8
YKK_A2
  6
ByBlock
100
AcDbLine
 10
7504.0
 20
16661.0
 30
0.0
 11
7504.0
 21
16649.0
 31
0.0
  0
LINE
  5
3C9
330
521
100
AcDbEntity
  8
YKK_A2
  6
ByBlock
100
AcDbLine
 10
7496.0
 20
16661.0
 30
0.0
 11
7496.0
 21
16645.0
 31
0.0
  0
LINE
  5
3CA
330
521
100
AcDbEntity
  8
YKK_A2
  6
ByBlock
100
AcDbLine
 10
7496.0
 20
16645.0
 30
0.0
 11
7472.0
 21
16645.0
 31
0.0
  0
LINE
  5
3CB
330
521
100
AcDbEntity
  8
YKK_A2
  6
ByBlock
100
AcDbLine
 10
7600.0
 20
16649.0
 30
0.0
 11
7504.0
 21
16649.0
 31
0.0
  0
LINE
  5
3CC
330
521
100
AcDbEntity
  8
YKK_A2
  6
ByBlock
100
AcDbLine
 10
7600.0
 20
16661.0
 30
0.0
 11
7496.0
 21
16661.0
 31
0.0
  0
LINE
  5
3CD
330
521
100
AcDbEntity
  8
YKK_N1
100
AcDbLine
 10
8300.0
 20
16645.0
 30
0.0
 11
8300.0
 21
17305.0
 31
0.0
  0
LINE
  5
3CE
330
521
100
AcDbEntity
  8
YKK_A1
100
AcDbLine
 10
7820.0
 20
16670.0
 30
0.0
 11
7820.0
 21
17245.0
 31
0.0
  0
LINE
  5
3CF
330
521
100
AcDbEntity
  8
YKK_A1
100
AcDbLine
 10
7870.0
 20
16625.0
 30
0.0
 11
7870.0
 21
17295.0
 31
0.0
  0
LINE
  5
3D0
330
521
100
AcDbEntity
  8
YKK_A1
100
AcDbLine
 10
7900.0
 20
16625.0
 30
0.0
 11
7900.0
 21
17325.0
 31
0.0
  0
LINE
  5
3D1
330
521
100
AcDbEntity
  8
YKK_N1
100
AcDbLine
 10
7960.0
 20
16525.0
 30
0.0
 11
8330.0
 21
16525.0
 31
0.0
  0
LINE
  5
3D2
330
521
100
AcDbEntity
  8
YKK_N1
100
AcDbLine
 10
7960.0
 20
16625.0
 30
0.0
 11
8330.0
 21
16625.0
 31
0.0
  0
LINE
  5
3D3
330
521
100
AcDbEntity
  8
YKK_N1
100
AcDbLine
 10
7960.0
 20
16525.0
 30
0.0
 11
8330.0
 21
16525.0
 31
0.0
  0
LINE
  5
3D4
330
521
100
AcDbEntity
  8
YKK_N1
100
AcDbLine
 10
7960.0
 20
16625.0
 30
0.0
 11
8330.0
 21
16625.0
 31
0.0
  0
LINE
  5
3D5
330
521
100
AcDbEntity
  8
YKK_A1
100
AcDbLine
 10
7900.0
 20
16525.0
 30
0.0
 11
7900.0
 21
16625.0
 31
0.0
  0
TEXT
  5
3D6
330
521
100
AcDbEntity
  8
YKK_N1
100
AcDbText
 10
8490.0
 20
16427.57142857
 30
0.0
 40
60.0
  1
H=1500
 50
90.0
 41
0.8
100
AcDbText
1001
ACAD
1000
MTEXTBEGIN
1070
    73
1070
     1
1070
    44
1040
1.0
1070
    74
1070
     0
1000
MTEXTEND
  0
LINE
  5
3D7
330
521
100
AcDbEntity
  8
YKK_N1
100
AcDbLine
 10
8300.0
 20
16625.0
 30
0.0
 11
8300.0
 21
16645.0
 31
0.0
  0
CIRCLE
  5
3D8
330
521
100
AcDbEntity
  8
YKK_N1
100
AcDbCircle
 10
8300.0
 20
16625.0
 30
0.0
 40
6.5
  0
CIRCLE
  5
3D9
330
521
100
AcDbEntity
  8
YKK_N1
100
AcDbCircle
 10
8300.0
 20
16625.0
 30
0.0
 40
10.0
  0
TEXT
  5
3DA
330
521
100
AcDbEntity
  8
YKK_N1
100
AcDbText
 10
8397.5
 20
16503.0
 30
0.0
 40
60.0
  1
100
 50
90.0
 41
0.8
100
AcDbText
1001
ACAD
1000
MTEXTBEGIN
1070
    73
1070
     1
1070
    44
1040
1.0
1070
    74
1070
     0
1000
MTEXTEND
  0
LINE
  5
3DB
330
521
100
AcDbEntity
  8
YKK_N1
100
AcDbLine
 10
8300.0
 20
16525.0
 30
0.0
 11
8300.0
 21
16545.0
 31
0.0
  0
CIRCLE
  5
3DC
330
521
100
AcDbEntity
  8
YKK_N1
100
AcDbCircle
 10
8300.0
 20
16525.0
 30
0.0
 40
6.5
  0
CIRCLE
  5
3DD
330
521
100
AcDbEntity
  8
YKK_N1
100
AcDbCircle
 10
8300.0
 20
16525.0
 30
0.0
 40
10.0
  0
LINE
  5
3DE
330
521
100
AcDbEntity
  8
YKK_N1
100
AcDbLine
 10
8300.0
 20
16625.0
 30
0.0
 11
8300.0
 21
16605.0
 31
0.0
  0
CIRCLE
  5
3DF
330
521
100
AcDbEntity
  8
YKK_N1
100
AcDbCircle
 10
8300.0
 20
16625.0
 30
0.0
 40
6.5
  0
CIRCLE
  5
3E0
330
521
100
AcDbEntity
  8
YKK_N1
100
AcDbCircle
 10
8300.0
 20
16625.0
 30
0.0
 40
10.0
  0
LINE
  5
3E1
330
521
100
AcDbEntity
  8
YKK_N1
100
AcDbLine
 10
8300.0
 20
16525.0
 30
0.0
 11
8300.0
 21
16505.0
 31
0.0
  0
CIRCLE
  5
3E2
330
521
100
AcDbEntity
  8
YKK_N1
100
AcDbCircle
 10
8300.0
 20
16525.0
 30
0.0
 40
6.5
  0
CIRCLE
  5
3E3
330
521
100
AcDbEntity
  8
YKK_N1
100
AcDbCircle
 10
8300.0
 20
16525.0
 30
0.0
 40
10.0
  0
LINE
  5
3E4
330
521
100
AcDbEntity
  8
YKK_N1
100
AcDbLine
 10
8300.0
 20
16545.0
 30
0.0
 11
8300.0
 21
16605.0
 31
0.0
  0
TEXT
  5
3E5
330
521
100
AcDbEntity
  8
YKK_N1
100
AcDbText
 10
8290.0
 20
16906.42857143
 30
0.0
 40
60.0
  1
700
 50
90.0
 41
0.8
100
AcDbText
1001
ACAD
1000
MTEXTBEGIN
1070
    73
1070
     1
1070
    44
1040
1.0
1070
    74
1070
     0
1000
MTEXTEND
  0
LINE
  5
3E6
330
521
100
AcDbEntity
  8
YKK_N1
100
AcDbLine
 10
7960.0
 20
17325.0
 30
0.0
 11
8330.0
 21
17325.0
 31
0.0
  0
LINE
  5
3E7
330
521
100
AcDbEntity
  8
YKK_N1
100
AcDbLine
 10
7960.0
 20
17325.0
 30
0.0
 11
8530.0
 21
17325.0
 31
0.0
  0
LINE
  5
3E8
330
521
100
AcDbEntity
  8
YKK_N1
  6
ByBlock
100
AcDbLine
 10
8450.0
 20
17238.39745962
 30
0.0
 11
8550.0
 21
17238.39745962
 31
0.0
  0
LINE
  5
3E9
330
521
100
AcDbEntity
  8
YKK_N1
  6
ByBlock
100
AcDbLine
 10
8500.0
 20
17325.0
 30
0.0
 11
8450.0
 21
17238.39745962
 31
0.0
  0
LINE
  5
3EA
330
521
100
AcDbEntity
  8
YKK_N1
100
AcDbLine
 10
8300.0
 20
17325.0
 30
0.0
 11
8300.0
 21
17305.0
 31
0.0
  0
CIRCLE
  5
3EB
330
521
100
AcDbEntity
  8
YKK_N1
100
AcDbCircle
 10
8300.0
 20
17325.0
 30
0.0
 40
6.5
  0
CIRCLE
  5
3EC
330
521
100
AcDbEntity
  8
YKK_N1
100
AcDbCircle
 10
8300.0
 20
17325.0
 30
0.0
 40
10.0
  0
LINE
  5
3ED
330
521
100
AcDbEntity
  8
YKK_N1
  6
ByBlock
100
AcDbLine
 10
8550.0
 20
17238.39745962
 30
0.0
 11
8500.0
 21
17325.0
 31
0.0
  0
LINE
  5
3EE
330
521
100
AcDbEntity
  8
YKK_N1
  6
ByBlock
100
AcDbLine
 10
8500.0
 20
17325.0
 30
0.0
 11
8500.0
 21
17225.0
 31
0.0
  0
LINE
  5
3EF
330
521
100
AcDbEntity
  8
YKK_N1
100
AcDbLine
 10
9800.0
 20
16645.0
 30
0.0
 11
9800.0
 21
17305.0
 31
0.0
  0
LINE
  5
3F0
330
521
100
AcDbEntity
  8
YKK_Z1
  6
Continuous
100
AcDbLine
 10
9240.0
 20
17345.0
 30
0.0
 11
9240.0
 21
16575.0
 31
0.0
  0
LINE
  5
3F1
330
521
100
AcDbEntity
  8
YKK_Z1
  6
Continuous
100
AcDbLine
 10
9455.0
 20
17340.0
 30
0.0
 11
9455.0
 21
16575.0
 31
0.0
  0
LINE
  5
3F2
330
521
100
AcDbEntity
  8
YKK_C1
  6
PHANTOM
100
AcDbLine
 10
9300.0
 20
17168.0
 30
0.0
 11
8934.00383947
 21
16534.0671967
 31
0.0
  0
LINE
  5
3F3
330
521
100
AcDbEntity
  8
YKK_C1
100
AcDbLine
 10
9300.0
 20
16690.0
 30
0.0
 11
9300.0
 21
17225.0
 31
0.0
  0
LINE
  5
3F4
330
521
100
AcDbEntity
  8
YKK_C1
100
AcDbLine
 10
9400.0
 20
16645.0
 30
0.0
 11
9400.0
 21
17305.0
 31
0.0
  0
LINE
  5
3F5
330
521
100
AcDbEntity
  8
YKK_C1
100
AcDbLine
 10
9328.0
 20
16662.0
 30
0.0
 11
9328.0
 21
17253.0
 31
0.0
  0
LINE
  5
3F6
330
521
100
AcDbEntity
  8
YKK_C1
100
AcDbLine
 10
9314.0
 20
16662.0
 30
0.0
 11
9314.0
 21
17253.0
 31
0.0
  0
LINE
  5
3F7
330
521
100
AcDbEntity
  8
YKK_N1
100
AcDbLine
 10
9300.0
 20
16325.0
 30
0.0
 11
9280.0
 21
16325.0
 31
0.0
  0
CIRCLE
  5
3F8
330
521
100
AcDbEntity
  8
YKK_N1
100
AcDbCircle
 10
9300.0
 20
16325.0
 30
0.0
 40
6.5
  0
CIRCLE
  5
3F9
330
521
100
AcDbEntity
  8
YKK_N1
100
AcDbCircle
 10
9300.0
 20
16325.0
 30
0.0
 40
10.0
  0
TEXT
  5
3FA
330
521
100
AcDbEntity
  8
YKK_N1
100
AcDbText
 10
9278.0
 20
16370.0
 30
0.0
 40
60.0
  1
100
 41
0.8
100
AcDbText
1001
ACAD
1000
MTEXTBEGIN
1070
    73
1070
     1
1070
    44
1040
1.0
1070
    74
1070
     0
1000
MTEXTEND
  0
CIRCLE
  5
3FB
330
521
100
AcDbEntity
  8
YKK_N1
100
AcDbCircle
 10
9300.0
 20
16325.0
 30
0.0
 40
6.5
  0
CIRCLE
  5
3FC
330
521
100
AcDbEntity
  8
YKK_N1
100
AcDbCircle
 10
9300.0
 20
16325.0
 30
0.0
 40
10.0
  0
ARC
  5
3FD
330
521
100
AcDbEntity
  8
YKK_C1
  6
PHANTOM
100
AcDbCircle
 10
9013.75095835
 20
17261.71023902
 30
0.0
 40
732.0
100
AcDbArc
 50
263.74554588
 51
293.01988682
  0
LINE
  5
3FE
330
521
100
AcDbEntity
  8
YKK_N1
100
AcDbLine
 10
9225.0
 20
16325.0
 30
0.0
 11
9245.0
 21
16325.0
 31
0.0
  0
CIRCLE
  5
3FF
330
521
100
AcDbEntity
  8
YKK_N1
100
AcDbCircle
 10
9225.0
 20
16325.0
 30
0.0
 40
6.5
  0
CIRCLE
  5
400
330
521
100
AcDbEntity
  8
YKK_N1
100
AcDbCircle
 10
9225.0
 20
16325.0
 30
0.0
 40
10.0
  0
TEXT
  5
401
330
521
100
AcDbEntity
  8
YKK_N1
100
AcDbText
 10
9110.42857143
 20
16335.0
 30
0.0
 40
60.0
  1
75
 41
0.8
100
AcDbText
  0
LINE
  5
402
330
521
100
AcDbEntity
  8
YKK_N1
  6
Continuous
100
AcDbLine
 10
9225.0
 20
16325.0
 30
0.0
 11
9107.28571429
 21
16325.0
 31
0.0
  0
LINE
  5
403
330
521
100
AcDbEntity
  8
YKK_N1
  6
Continuous
100
AcDbLine
 10
9280.0
 20
16325.0
 30
0.0
 11
9245.0
 21
16325.0
 31
0.0
  0
LINE
  5
404
330
521
100
AcDbEntity
  8
YKK_N1
100
AcDbLine
 10
9800.0
 20
16625.0
 30
0.0
 11
9800.0
 21
16645.0
 31
0.0
  0
LINE
  5
405
330
521
100
AcDbEntity
  8
YKK_C1
100
AcDbLine
 10
9300.0
 20
16670.0
 30
0.0
 11
9300.0
 21
16588.0
 31
0.0
  0
LINE
  5
406
330
521
100
AcDbEntity
  8
YKK_C1
100
AcDbLine
 10
9350.0
 20
16670.0
 30
0.0
 11
9350.0
 21
16620.0
 31
0.0
  0
LINE
  5
407
330
521
100
AcDbEntity
  8
YKK_N1
100
AcDbLine
 10
9460.0
 20
16525.0
 30
0.0
 11
9830.0
 21
16525.0
 31
0.0
  0
LINE
  5
408
330
521
100
AcDbEntity
  8
YKK_N1
100
AcDbLine
 10
9460.0
 20
16625.0
 30
0.0
 11
9830.0
 21
16625.0
 31
0.0
  0
LINE
  5
409
330
521
100
AcDbEntity
  8
YKK_N1
100
AcDbLine
 10
9460.0
 20
16525.0
 30
0.0
 11
9830.0
 21
16525.0
 31
0.0
  0
LINE
  5
40A
330
521
100
AcDbEntity
  8
YKK_N1
100
AcDbLine
 10
9460.0
 20
16625.0
 30
0.0
 11
9830.0
 21
16625.0
 31
0.0
  0
LINE
  5
40B
330
521
100
AcDbEntity
  8
YKK_N1
100
AcDbLine
 10
9400.0
 20
16325.0
 30
0.0
 11
9380.0
 21
16325.0
 31
0.0
  0
CIRCLE
  5
40C
330
521
100
AcDbEntity
  8
YKK_N1
100
AcDbCircle
 10
9400.0
 20
16325.0
 30
0.0
 40
6.5
  0
CIRCLE
  5
40D
330
521
100
AcDbEntity
  8
YKK_N1
100
AcDbCircle
 10
9400.0
 20
16325.0
 30
0.0
 40
10.0
  0
LINE
  5
40E
330
521
100
AcDbEntity
  8
YKK_N1
100
AcDbLine
 10
9300.0
 20
16325.0
 30
0.0
 11
9320.0
 21
16325.0
 31
0.0
  0
LINE
  5
40F
330
521
100
AcDbEntity
  8
YKK_N1
100
AcDbLine
 10
9380.0
 20
16325.0
 30
0.0
 11
9320.0
 21
16325.0
 31
0.0
  0
LINE
  5
410
330
521
100
AcDbEntity
  8
YKK_N1
100
AcDbLine
 10
9300.0
 20
16375.0
 30
0.0
 11
9300.0
 21
16355.0
 31
0.0
  0
LINE
  5
411
330
521
100
AcDbEntity
  8
YKK_N1
100
AcDbLine
 10
9400.0
 20
16375.0
 30
0.0
 11
9400.0
 21
16355.0
 31
0.0
  0
LINE
  5
412
330
521
100
AcDbEntity
  8
YKK_N1
  6
Continuous
100
AcDbLine
 10
9300.0
 20
16385.0
 30
0.0
 11
9300.0
 21
16355.0
 31
0.0
  0
LINE
  5
413
330
521
100
AcDbEntity
  8
YKK_C1
100
AcDbLine
 10
9350.0
 20
16620.0
 30
0.0
 11
9300.0
 21
16620.0
 31
0.0
  0
LINE
  5
414
330
521
100
AcDbEntity
  8
YKK_C1
100
AcDbLine
 10
9300.0
 20
16590.0
 30
0.0
 11
9300.0
 21
16525.0
 31
0.0
  0
LINE
  5
415
330
521
100
AcDbEntity
  8
YKK_C1
100
AcDbLine
 10
9400.0
 20
16625.0
 30
0.0
 11
9400.0
 21
16525.0
 31
0.0
  0
LINE
  5
417
330
521
100
AcDbEntity
  8
YKK_C1
100
AcDbLine
 10
9361.0
 20
16525.0
 30
0.0
 11
9342.0
 21
16525.0
 31
0.0
  0
LINE
  5
41A
330
521
100
AcDbEntity
  8
YKK_C1
100
AcDbLine
 10
9400.0
 20
16525.0
 30
0.0
 11
9300.0
 21
16525.0
 31
0.0
  0
LINE
  5
41B
330
521
100
AcDbEntity
  8
YKK_C1
100
AcDbLine
 10
9327.0
 20
16590.0
 30
0.0
 11
9300.0
 21
16590.0
 31
0.0
  0
LINE
  5
41D
330
521
100
AcDbEntity
  8
YKK_C1
100
AcDbLine
 10
9354.0
 20
16590.0
 30
0.0
 11
9300.0
 21
16590.0
 31
0.0
  0
LINE
  5
41E
330
521
100
AcDbEntity
  8
YKK_C1
100
AcDbLine
 10
9354.0
 20
16625.0
 30
0.0
 11
9354.0
 21
16590.0
 31
0.0
  0
LINE
  5
41F
330
521
100
AcDbEntity
  8
YKK_C1
100
AcDbLine
 10
9400.0
 20
16625.0
 30
0.0
 11
9354.0
 21
16625.0
 31
0.0
  0
CIRCLE
  5
420
330
521
100
AcDbEntity
  8
YKK_N1
100
AcDbCircle
 10
9800.0
 20
16625.0
 30
0.0
 40
6.5
  0
CIRCLE
  5
421
330
521
100
AcDbEntity
  8
YKK_N1
100
AcDbCircle
 10
9800.0
 20
16625.0
 30
0.0
 40
10.0
  0
LINE
  5
422
330
521
100
AcDbEntity
  8
YKK_N1
100
AcDbLine
 10
9800.0
 20
16525.0
 30
0.0
 11
9800.0
 21
16545.0
 31
0.0
  0
CIRCLE
  5
423
330
521
100
AcDbEntity
  8
YKK_N1
100
AcDbCircle
 10
9800.0
 20
16525.0
 30
0.0
 40
6.5
  0
CIRCLE
  5
424
330
521
100
AcDbEntity
  8
YKK_N1
100
AcDbCircle
 10
9800.0
 20
16525.0
 30
0.0
 40
10.0
  0
LINE
  5
425
330
521
100
AcDbEntity
  8
YKK_N1
100
AcDbLine
 10
9800.0
 20
16625.0
 30
0.0
 11
9800.0
 21
16605.0
 31
0.0
  0
CIRCLE
  5
426
330
521
100
AcDbEntity
  8
YKK_N1
100
AcDbCircle
 10
9800.0
 20
16625.0
 30
0.0
 40
6.5
  0
CIRCLE
  5
427
330
521
100
AcDbEntity
  8
YKK_N1
100
AcDbCircle
 10
9800.0
 20
16625.0
 30
0.0
 40
10.0
  0
LINE
  5
428
330
521
100
AcDbEntity
  8
YKK_N1
100
AcDbLine
 10
9800.0
 20
16525.0
 30
0.0
 11
9800.0
 21
16505.0
 31
0.0
  0
CIRCLE
  5
429
330
521
100
AcDbEntity
  8
YKK_N1
100
AcDbCircle
 10
9800.0
 20
16525.0
 30
0.0
 40
6.5
  0
CIRCLE
  5
42A
330
521
100
AcDbEntity
  8
YKK_N1
100
AcDbCircle
 10
9800.0
 20
16525.0
 30
0.0
 40
10.0
  0
LINE
  5
42B
330
521
100
AcDbEntity
  8
YKK_N1
100
AcDbLine
 10
9800.0
 20
16545.0
 30
0.0
 11
9800.0
 21
16605.0
 31
0.0
  0
LINE
  5
42C
330
521
100
AcDbEntity
  8
YKK_C1
100
AcDbLine
 10
9342.0
 20
16670.0
 30
0.0
 11
9342.0
 21
16654.0
 31
0.0
  0
LINE
  5
42D
330
521
100
AcDbEntity
  8
YKK_C1
100
AcDbLine
 10
9350.0
 20
16670.0
 30
0.0
 11
9342.0
 21
16670.0
 31
0.0
  0
LINE
  5
42E
330
521
100
AcDbEntity
  8
YKK_C1
100
AcDbLine
 10
9300.0
 20
16654.0
 30
0.0
 11
9350.0
 21
16654.0
 31
0.0
  0
TEXT
  5
42F
330
521
100
AcDbEntity
  8
YKK_N1
100
AcDbText
 10
9790.0
 20
16906.42857143
 30
0.0
 40
60.0
  1
700
 50
90.0
 41
0.8
100
AcDbText
1001
ACAD
1000
MTEXTBEGIN
1070
    73
1070
     1
1070
    44
1040
1.0
1070
    74
1070
     0
1000
MTEXTEND
  0
LINE
  5
430
330
521
100
AcDbEntity
  8
YKK_Z1
  6
Continuous
100
AcDbLine
 10
9300.0
 20
17353.0
 30
0.0
 11
9248.0
 21
17353.0
 31
0.0
  0
LINE
  5
431
330
521
100
AcDbEntity
  8
YKK_Z1
  6
Continuous
100
AcDbLine
 10
9300.0
 20
17345.0
 30
0.0
 11
9240.0
 21
17345.0
 31
0.0
  0
LINE
  5
432
330
521
100
AcDbEntity
  8
YKK_Z1
  6
Continuous
100
AcDbLine
 10
9250.0
 20
17546.71581894
 30
0.0
 11
9400.0
 21
17696.715741
 31
0.0
  0
LINE
  5
433
330
521
100
AcDbEntity
  8
YKK_Z1
  6
Continuous
100
AcDbLine
 10
9250.0
 20
17566.51480024
 30
0.0
 11
9400.0
 21
17716.5147223
 31
0.0
  0
LINE
  5
434
330
521
100
AcDbEntity
  8
YKK_Z1
  6
Continuous
100
AcDbLine
 10
9250.0
 20
17575.00007794
 30
0.0
 11
9400.0
 21
17725.0
 31
0.0
  0
LINE
  5
435
330
521
100
AcDbEntity
  8
YKK_Z1
  6
Continuous
100
AcDbLine
 10
9400.0
 20
17385.0
 30
0.0
 11
9295.0
 21
17385.0
 31
0.0
  0
LINE
  5
436
330
521
100
AcDbEntity
  8
YKK_Z1
  6
Continuous
100
AcDbLine
 10
9248.0
 20
17353.0
 30
0.0
 11
9248.0
 21
17725.0
 31
0.0
  0
LINE
  5
437
330
521
100
AcDbEntity
  8
YKK_Z1
  6
Continuous
100
AcDbLine
 10
9240.0
 20
17345.0
 30
0.0
 11
9240.0
 21
17725.0
 31
0.0
  0
LINE
  5
438
330
521
100
AcDbEntity
  8
YKK_Z1
  6
Continuous
100
AcDbLine
 10
9250.0
 20
17355.0
 30
0.0
 11
9250.0
 21
17725.0
 31
0.0
  0
LINE
  5
439
330
521
100
AcDbEntity
  8
YKK_Z1
  6
Continuous
100
AcDbLine
 10
9285.0
 20
17355.0
 30
0.0
 11
9250.0
 21
17355.0
 31
0.0
  0
LINE
  5
43A
330
521
100
AcDbEntity
  8
YKK_Z1
  6
Continuous
100
AcDbLine
 10
9295.0
 20
17385.0
 30
0.0
 11
9285.0
 21
17355.0
 31
0.0
  0
LINE
  5
43B
330
521
100
AcDbEntity
  8
YKK_Z1
  6
Continuous
100
AcDbLine
 10
9240.0
 20
17675.0
 30
0.0
 11
9248.0
 21
17675.0
 31
0.0
  0
LINE
  5
43C
330
521
100
AcDbEntity
  8
YKK_Z1
  6
Continuous
100
AcDbLine
 10
9240.0
 20
17665.0
 30
0.0
 11
9248.0
 21
17665.0
 31
0.0
  0
LINE
  5
43D
330
521
100
AcDbEntity
  8
YKK_Z1
  6
Continuous
100
AcDbLine
 10
9240.0
 20
17565.0
 30
0.0
 11
9248.0
 21
17565.0
 31
0.0
  0
LINE
  5
43E
330
521
100
AcDbEntity
  8
YKK_Z1
  6
Continuous
100
AcDbLine
 10
9240.0
 20
17555.0
 30
0.0
 11
9248.0
 21
17555.0
 31
0.0
  0
LINE
  5
43F
330
521
100
AcDbEntity
  8
YKK_Z1
  6
Continuous
100
AcDbLine
 10
9240.0
 20
17455.0
 30
0.0
 11
9248.0
 21
17455.0
 31
0.0
  0
LINE
  5
440
330
521
100
AcDbEntity
  8
YKK_Z1
  6
Continuous
100
AcDbLine
 10
9240.0
 20
17445.0
 30
0.0
 11
9248.0
 21
17445.0
 31
0.0
  0
LINE
  5
441
330
521
100
AcDbEntity
  8
YKK_Z1
  6
Continuous
100
AcDbLine
 10
9433.0
 20
17725.0
 30
0.0
 11
9433.0
 21
17365.0
 31
0.0
  0
LINE
  5
442
330
521
100
AcDbEntity
  8
YKK_Z1
  6
Continuous
100
AcDbLine
 10
9445.0
 20
17365.0
 30
0.0
 11
9445.0
 21
17725.0
 31
0.0
  0
LINE
  5
443
330
521
100
AcDbEntity
  8
YKK_Z1
  6
Continuous
100
AcDbLine
 10
9400.0
 20
17404.99998961
 30
0.0
 11
9420.0
 21
17424.99997922
 31
0.0
  0
LINE
  5
444
330
521
100
AcDbEntity
  8
YKK_Z1
  6
Continuous
100
AcDbLine
 10
9420.0
 20
17405.00000346
 30
0.0
 11
9400.0
 21
17425.00000693
 31
0.0
  0
LINE
  5
445
330
521
100
AcDbEntity
  8
YKK_Z1
  6
Continuous
100
AcDbLine
 10
9420.0
 20
17385.0
 30
0.0
 11
9420.0
 21
17725.0
 31
0.0
  0
LINE
  5
446
330
521
100
AcDbEntity
  8
YKK_Z1
  6
CENTER
100
AcDbLine
 10
9325.0
 20
17372.5
 30
0.0
 11
9325.0
 21
17725.0
 31
0.0
  0
LINE
  5
447
330
521
100
AcDbEntity
  8
YKK_Z1
  6
Continuous
100
AcDbLine
 10
9356.98469715
 20
17385.0
 30
0.0
 11
9400.0
 21
17428.0152805
 31
0.0
  0
LINE
  5
448
330
521
100
AcDbEntity
  8
YKK_Z1
  6
Continuous
100
AcDbLine
 10
9400.0
 20
17725.0
 30
0.0
 11
9400.0
 21
17385.0
 31
0.0
  0
LINE
  5
449
330
521
100
AcDbEntity
  8
YKK_N1
100
AcDbLine
 10
9460.0
 20
17325.0
 30
0.0
 11
9830.0
 21
17325.0
 31
0.0
  0
LINE
  5
44A
330
521
100
AcDbEntity
  8
YKK_Z1
  6
Continuous
100
AcDbLine
 10
9433.0
 20
17365.0
 30
0.0
 11
9445.0
 21
17365.0
 31
0.0
  0
LINE
  5
44B
330
521
100
AcDbEntity
  8
YKK_Z1
  6
Continuous
100
AcDbLine
 10
9300.0
 20
17345.0
 30
0.0
 11
9300.0
 21
17353.0
 31
0.0
  0
LINE
  5
44C
330
521
100
AcDbEntity
  8
YKK_Z1
  6
Continuous
100
AcDbLine
 10
9455.0
 20
17363.43145342
 30
0.0
 11
9431.5685344
 21
17340.0
 31
0.0
  0
LINE
  5
44D
330
521
100
AcDbEntity
  8
YKK_Z1
  6
Continuous
100
AcDbLine
 10
9428.2842737
 20
17365.0
 30
0.0
 11
9403.28426071
 21
17340.0
 31
0.0
  0
LINE
  5
44F
330
521
100
AcDbEntity
  8
YKK_Z1
  6
Continuous
100
AcDbLine
 10
9400.0
 20
17365.0
 30
0.0
 11
9400.0
 21
17340.0
 31
0.0
  0
LINE
  5
450
330
521
100
AcDbEntity
  8
YKK_Z1
  6
Continuous
100
AcDbLine
 10
9455.0
 20
17365.0
 30
0.0
 11
9400.0
 21
17365.0
 31
0.0
  0
LINE
  5
451
330
521
100
AcDbEntity
  8
YKK_Z1
  6
Continuous
100
AcDbLine
 10
9455.0
 20
17340.0
 30
0.0
 11
9455.0
 21
17365.0
 31
0.0
  0
LINE
  5
452
330
521
100
AcDbEntity
  8
YKK_Z1
  6
Continuous
100
AcDbLine
 10
9400.0
 20
17340.0
 30
0.0
 11
9455.0
 21
17340.0
 31
0.0
  0
LINE
  5
454
330
521
100
AcDbEntity
  8
YKK_Z1
  6
Continuous
100
AcDbLine
 10
9400.0
 20
17385.0
 30
0.0
 11
9420.0
 21
17404.99998961
 31
0.0
  0
LINE
  5
455
330
521
100
AcDbEntity
  8
YKK_Z1
  6
Continuous
100
AcDbLine
 10
9420.0
 20
17385.0
 30
0.0
 11
9400.0
 21
17405.00000346
 31
0.0
  0
LINE
  5
457
330
521
100
AcDbEntity
  8
YKK_Z1
  6
Continuous
100
AcDbLine
 10
9400.0
 20
17385.0
 30
0.0
 11
9420.0
 21
17385.0
 31
0.0
  0
LINE
  5
458
330
521
100
AcDbEntity
  8
YKK_Z1
  6
Continuous
100
AcDbLine
 10
9385.26897085
 20
17385.0
 30
0.0
 11
9400.0
 21
17399.7310215
 31
0.0
  0
LINE
  5
459
330
521
100
AcDbEntity
  8
YKK_Z1
  6
Continuous
100
AcDbLine
 10
9365.46997926
 20
17385.0
 30
0.0
 11
9400.0
 21
17419.5300028
 31
0.0
  0
LINE
  5
45A
330
521
100
AcDbEntity
  8
YKK_C1
100
AcDbLine
 10
9342.0
 20
17245.0
 30
0.0
 11
9342.0
 21
17261.0
 31
0.0
  0
LINE
  5
45B
330
521
100
AcDbEntity
  8
YKK_C1
100
AcDbLine
 10
9350.0
 20
17245.0
 30
0.0
 11
9342.0
 21
17245.0
 31
0.0
  0
LINE
  5
45C
330
521
100
AcDbEntity
  8
YKK_C1
100
AcDbLine
 10
9350.0
 20
17261.0
 30
0.0
 11
9300.0
 21
17261.0
 31
0.0
  0
LINE
  5
45D
330
521
100
AcDbEntity
  8
YKK_C1
100
AcDbLine
 10
9300.0
 20
17245.0
 30
0.0
 11
9300.0
 21
17320.0
 31
0.0
  0
LINE
  5
45E
330
521
100
AcDbEntity
  8
YKK_C1
100
AcDbLine
 10
9350.0
 20
17300.0
 30
0.0
 11
9300.0
 21
17300.0
 31
0.0
  0
LINE
  5
45F
330
521
100
AcDbEntity
  8
YKK_C1
100
AcDbLine
 10
9350.0
 20
17245.0
 30
0.0
 11
9350.0
 21
17300.0
 31
0.0
  0
LINE
  5
460
330
521
100
AcDbEntity
  8
YKK_C1
100
AcDbLine
 10
9300.0
 20
17365.0
 30
0.0
 11
9309.0
 21
17365.0
 31
0.0
  0
LINE
  5
461
330
521
100
AcDbEntity
  8
YKK_C1
100
AcDbLine
 10
9300.0
 20
17325.0
 30
0.0
 11
9300.0
 21
17365.0
 31
0.0
  0
LINE
  5
462
330
521
100
AcDbEntity
  8
YKK_C1
100
AcDbLine
 10
9400.0
 20
17360.0
 30
0.0
 11
9391.0
 21
17360.0
 31
0.0
  0
LINE
  5
463
330
521
100
AcDbEntity
  8
YKK_C1
100
AcDbLine
 10
9400.0
 20
17325.0
 30
0.0
 11
9400.0
 21
17360.0
 31
0.0
  0
LINE
  5
464
330
521
100
AcDbEntity
  8
YKK_C1
100
AcDbLine
 10
9354.0
 20
17325.0
 30
0.0
 11
9354.0
 21
17295.0
 31
0.0
  0
LINE
  5
465
330
521
100
AcDbEntity
  8
YKK_C1
100
AcDbLine
 10
9400.0
 20
17325.0
 30
0.0
 11
9300.0
 21
17325.0
 31
0.0
  0
LINE
  5
466
330
521
100
AcDbEntity
  8
YKK_N1
100
AcDbLine
 10
9800.0
 20
17325.0
 30
0.0
 11
9800.0
 21
17305.0
 31
0.0
  0
CIRCLE
  5
467
330
521
100
AcDbEntity
  8
YKK_N1
100
AcDbCircle
 10
9800.0
 20
17325.0
 30
0.0
 40
6.5
  0
CIRCLE
  5
468
330
521
100
AcDbEntity
  8
YKK_N1
100
AcDbCircle
 10
9800.0
 20
17325.0
 30
0.0
 40
10.0
  0
LINE
  5
469
330
521
100
AcDbEntity
  8
YKK_Z1
  6
Continuous
100
AcDbLine
 10
9400.0
 20
17724.99982333
 30
0.0
 11
9400.00017667
 21
17725.0
 31
0.0
  0
LINE
  5
46A
330
521
100
AcDbEntity
  8
YKK_Z1
  6
Continuous
100
AcDbLine
 10
9400.0
 20
17704.99983372
 30
0.0
 11
9420.0
 21
17724.99982333
 31
0.0
  0
LINE
  5
46B
330
521
100
AcDbEntity
  8
YKK_Z1
  6
Continuous
100
AcDbLine
 10
9400.0
 20
17684.99984412
 30
0.0
 11
9420.0
 21
17704.99983372
 31
0.0
  0
LINE
  5
46C
330
521
100
AcDbEntity
  8
YKK_Z1
  6
Continuous
100
AcDbLine
 10
9400.0
 20
17664.99985451
 30
0.0
 11
9420.0
 21
17684.99984412
 31
0.0
  0
LINE
  5
46D
330
521
100
AcDbEntity
  8
YKK_Z1
  6
Continuous
100
AcDbLine
 10
9400.0
 20
17644.9998649
 30
0.0
 11
9420.0
 21
17664.99985451
 31
0.0
  0
LINE
  5
46E
330
521
100
AcDbEntity
  8
YKK_Z1
  6
Continuous
100
AcDbLine
 10
9400.0
 20
17624.99987529
 30
0.0
 11
9420.0
 21
17644.9998649
 31
0.0
  0
LINE
  5
46F
330
521
100
AcDbEntity
  8
YKK_Z1
  6
Continuous
100
AcDbLine
 10
9400.0
 20
17604.99988568
 30
0.0
 11
9420.0
 21
17624.99987529
 31
0.0
  0
LINE
  5
470
330
521
100
AcDbEntity
  8
YKK_Z1
  6
Continuous
100
AcDbLine
 10
9400.0
 20
17584.99989608
 30
0.0
 11
9420.0
 21
17604.99988568
 31
0.0
  0
LINE
  5
471
330
521
100
AcDbEntity
  8
YKK_Z1
  6
Continuous
100
AcDbLine
 10
9400.0
 20
17564.99990647
 30
0.0
 11
9420.0
 21
17584.99989608
 31
0.0
  0
LINE
  5
472
330
521
100
AcDbEntity
  8
YKK_Z1
  6
Continuous
100
AcDbLine
 10
9400.0
 20
17544.99991686
 30
0.0
 11
9420.0
 21
17564.99990647
 31
0.0
  0
LINE
  5
473
330
521
100
AcDbEntity
  8
YKK_Z1
  6
Continuous
100
AcDbLine
 10
9400.0
 20
17524.99992725
 30
0.0
 11
9420.0
 21
17544.99991686
 31
0.0
  0
LINE
  5
474
330
521
100
AcDbEntity
  8
YKK_Z1
  6
Continuous
100
AcDbLine
 10
9400.0
 20
17504.99993765
 30
0.0
 11
9420.0
 21
17524.99992725
 31
0.0
  0
LINE
  5
475
330
521
100
AcDbEntity
  8
YKK_Z1
  6
Continuous
100
AcDbLine
 10
9400.0
 20
17484.99994804
 30
0.0
 11
9420.0
 21
17504.99993765
 31
0.0
  0
LINE
  5
476
330
521
100
AcDbEntity
  8
YKK_Z1
  6
Continuous
100
AcDbLine
 10
9400.0
 20
17464.99995843
 30
0.0
 11
9420.0
 21
17484.99994804
 31
0.0
  0
LINE
  5
477
330
521
100
AcDbEntity
  8
YKK_Z1
  6
Continuous
100
AcDbLine
 10
9400.0
 20
17444.99996882
 30
0.0
 11
9420.0
 21
17464.99995843
 31
0.0
  0
LINE
  5
478
330
521
100
AcDbEntity
  8
YKK_Z1
  6
Continuous
100
AcDbLine
 10
9400.0
 20
17424.99997922
 30
0.0
 11
9420.0
 21
17444.99996882
 31
0.0
  0
LINE
  5
479
330
521
100
AcDbEntity
  8
YKK_Z1
  6
Continuous
100
AcDbLine
 10
9420.0
 20
17705.00005543
 30
0.0
 11
9400.00005889
 21
17725.0
 31
0.0
  0
LINE
  5
47A
330
521
100
AcDbEntity
  8
YKK_Z1
  6
Continuous
100
AcDbLine
 10
9420.0
 20
17685.00005196
 30
0.0
 11
9400.0
 21
17705.00005543
 31
0.0
  0
LINE
  5
47B
330
521
100
AcDbEntity
  8
YKK_Z1
  6
Continuous
100
AcDbLine
 10
9420.0
 20
17665.0000485
 30
0.0
 11
9400.0
 21
17685.00005196
 31
0.0
  0
LINE
  5
47C
330
521
100
AcDbEntity
  8
YKK_Z1
  6
Continuous
100
AcDbLine
 10
9420.0
 20
17645.00004503
 30
0.0
 11
9400.0
 21
17665.0000485
 31
0.0
  0
LINE
  5
47D
330
521
100
AcDbEntity
  8
YKK_Z1
  6
Continuous
100
AcDbLine
 10
9420.0
 20
17625.00004157
 30
0.0
 11
9400.0
 21
17645.00004503
 31
0.0
  0
LINE
  5
47E
330
521
100
AcDbEntity
  8
YKK_Z1
  6
Continuous
100
AcDbLine
 10
9420.0
 20
17605.00003811
 30
0.0
 11
9400.0
 21
17625.00004157
 31
0.0
  0
LINE
  5
47F
330
521
100
AcDbEntity
  8
YKK_Z1
  6
Continuous
100
AcDbLine
 10
9420.0
 20
17585.00003464
 30
0.0
 11
9400.0
 21
17605.00003811
 31
0.0
  0
LINE
  5
480
330
521
100
AcDbEntity
  8
YKK_Z1
  6
Continuous
100
AcDbLine
 10
9420.0
 20
17565.00003118
 30
0.0
 11
9400.0
 21
17585.00003464
 31
0.0
  0
LINE
  5
481
330
521
100
AcDbEntity
  8
YKK_Z1
  6
Continuous
100
AcDbLine
 10
9420.0
 20
17545.00002771
 30
0.0
 11
9400.0
 21
17565.00003118
 31
0.0
  0
LINE
  5
482
330
521
100
AcDbEntity
  8
YKK_Z1
  6
Continuous
100
AcDbLine
 10
9420.0
 20
17525.00002425
 30
0.0
 11
9400.0
 21
17545.00002771
 31
0.0
  0
LINE
  5
483
330
521
100
AcDbEntity
  8
YKK_Z1
  6
Continuous
100
AcDbLine
 10
9420.0
 20
17505.00002078
 30
0.0
 11
9400.0
 21
17525.00002425
 31
0.0
  0
LINE
  5
484
330
521
100
AcDbEntity
  8
YKK_Z1
  6
Continuous
100
AcDbLine
 10
9420.0
 20
17485.00001732
 30
0.0
 11
9400.0
 21
17505.00002078
 31
0.0
  0
LINE
  5
485
330
521
100
AcDbEntity
  8
YKK_Z1
  6
Continuous
100
AcDbLine
 10
9420.0
 20
17465.00001386
 30
0.0
 11
9400.0
 21
17485.00001732
 31
0.0
  0
LINE
  5
486
330
521
100
AcDbEntity
  8
YKK_Z1
  6
Continuous
100
AcDbLine
 10
9420.0
 20
17445.00001039
 30
0.0
 11
9400.0
 21
17465.00001386
 31
0.0
  0
LINE
  5
487
330
521
100
AcDbEntity
  8
YKK_Z1
  6
Continuous
100
AcDbLine
 10
9420.0
 20
17425.00000693
 30
0.0
 11
9400.0
 21
17445.00001039
 31
0.0
  0
TEXT
  5
488
330
521
100
AcDbEntity
  8
YKK_N1
100
AcDbText
 10
9990.0
 20
16427.57142857
 30
0.0
 40
60.0
  1
H=1500
 50
90.0
 41
0.8
100
AcDbText
1001
ACAD
1000
MTEXTBEGIN
1070
    73
1070
     1
1070
    44
1040
1.0
1070
    74
1070
     0
1000
MTEXTEND
  0
LINE
  5
489
330
521
100
AcDbEntity
  8
YKK_N1
  6
ByBlock
100
AcDbLine
 10
10050.0
 20
17238.39745962
 30
0.0
 11
10000.0
 21
17325.0
 31
0.0
  0
LINE
  5
48A
330
521
100
AcDbEntity
  8
YKK_N1
  6
ByBlock
100
AcDbLine
 10
9950.0
 20
17238.39745962
 30
0.0
 11
10050.0
 21
17238.39745962
 31
0.0
  0
LINE
  5
48B
330
521
100
AcDbEntity
  8
YKK_N1
  6
ByBlock
100
AcDbLine
 10
10000.0
 20
17325.0
 30
0.0
 11
9950.0
 21
17238.39745962
 31
0.0
  0
LINE
  5
48C
330
521
100
AcDbEntity
  8
YKK_N1
  6
ByBlock
100
AcDbLine
 10
10000.0
 20
17325.0
 30
0.0
 11
10000.0
 21
17225.0
 31
0.0
  0
LINE
  5
48D
330
521
100
AcDbEntity
  8
YKK_F1
100
AcDbLine
 10
17100.0
 20
0.0
 30
0.0
 11
17100.0
 21
19500.0
 31
0.0
  0
LINE
  5
48E
330
521
100
AcDbEntity
  8
YKK_F1
100
AcDbLine
 10
22800.0
 20
0.0
 30
0.0
 11
22800.0
 21
19500.0
 31
0.0
  0
LINE
  5
48F
330
521
100
AcDbEntity
  8
YKK_F1
100
AcDbLine
 10
28500.0
 20
0.0
 30
0.0
 11
28500.0
 21
20000.0
 31
0.0
  0
LINE
  5
490
330
521
100
AcDbEntity
  8
YKK_F1
100
AcDbLine
 10
28681.0155
 20
0.0
 30
0.0
 11
28681.0155
 21
20000.0
 31
0.0
  0
TEXT
  5
491
330
521
100
AcDbEntity
  8
0
100
AcDbText
 10
22915.0
 20
4959.2247
 30
0.0
 40
201.25
  1
耐風圧性
  7
EXTFONT
100
AcDbText
  0
TEXT
  5
492
330
521
100
AcDbEntity
  8
0
100
AcDbText
 10
22915.0
 20
3235.7247
 30
0.0
 40
201.25
  1
水密性
  7
EXTFONT
100
AcDbText
  0
TEXT
  5
493
330
521
100
AcDbEntity
  8
0
100
AcDbText
 10
22915.0
 20
3810.7247
 30
0.0
 40
201.25
  1
気密性
  7
EXTFONT
100
AcDbText
  0
TEXT
  5
494
330
521
100
AcDbEntity
  8
0
100
AcDbText
 10
22915.0
 20
2660.7247
 30
0.0
 40
201.25
  1
遮音性
  7
EXTFONT
100
AcDbText
  0
TEXT
  5
495
330
521
100
AcDbEntity
  8
0
100
AcDbText
 10
22915.0
 20
2173.7247
 30
0.0
 40
201.25
  1
断熱性
  7
EXTFONT
100
AcDbText
  0
TEXT
  5
496
330
521
100
AcDbEntity
  8
0
100
AcDbText
 10
22915.0
 20
904.2247
 30
0.0
 40
201.25
  1
ただし、窓種・サイズにより適応値が異なります。
  7
EXTFONT
100
AcDbText
  0
TEXT
  5
497
330
521
100
AcDbEntity
  8
0
100
AcDbText
 10
22915.0
 20
5712.6247
 30
0.0
 40
201.25
  1
ＹＤＰ－１００　辷り出し窓　性能等級
  7
EXTFONT
100
AcDbText
  0
TEXT
  5
498
330
521
100
AcDbEntity
  8
0
100
AcDbText
 10
24211.05
 20
1885.7247
 30
0.0
 40
201.25
  1
（複層ガラス５＋Ａ１２＋５の場合）
  7
EXTFONT
100
AcDbText
  0
TEXT
  5
499
330
521
100
AcDbEntity
  8
0
100
AcDbText
 10
24211.05
 20
2172.7247
 30
0.0
 40
201.25
  1
Ｈ－３（０．２８７ｍ２・Ｋ／Ｗ以上）
  7
EXTFONT
100
AcDbText
  0
TEXT
  5
49A
330
521
100
AcDbEntity
  8
0
100
AcDbText
 10
24211.05
 20
2659.7247
 30
0.0
 40
201.25
  1
Ｔ－２（３０等級線）
  7
EXTFONT
100
AcDbText
  0
TEXT
  5
49B
330
521
100
AcDbEntity
  8
0
100
AcDbText
 10
24211.05
 20
3235.7247
 30
0.0
 40
201.25
  1
Ｗ－５（５００Ｐａ）
  7
EXTFONT
100
AcDbText
  0
TEXT
  5
49C
330
521
100
AcDbEntity
  8
0
100
AcDbText
 10
24211.05
 20
3810.7247
 30
0.0
 40
201.25
  1
Ａ－４（２等級線）
  7
EXTFONT
100
AcDbText
  0
TEXT
  5
49D
330
521
100
AcDbEntity
  8
0
100
AcDbText
 10
24211.05
 20
4960.7247
 30
0.0
 40
201.25
  1
Ｓ－５（２４００Ｐａ）
  7
EXTFONT
100
AcDbText
  0
TEXT
  5
49E
330
521
100
AcDbEntity
  8
0
100
AcDbText
 10
24211.05
 20
4385.7247
 30
0.0
 40
201.25
  1
Ｓ－７（３６００Ｐａ）
  7
EXTFONT
100
AcDbText
  0
TEXT
  5
49F
330
521
100
AcDbEntity
  8
0
100
AcDbText
 10
24211.05
 20
4673.2247
 30
0.0
 40
201.25
  1
Ｓ－６（２８００Ｐａ）
  7
EXTFONT
100
AcDbText
  0
ENDSEC
  0
SECTION
  2
OBJECTS
  0
DICTIONARY
  5
516
330
0
100
AcDbDictionary
281
     1
  3
ACAD_CIP_PREVIOUS_PRODUCT_INFO
350
5DF
  3
ACAD_COLOR
350
575
  3
ACAD_DETAILVIEWSTYLE
350
58E
  3
ACAD_GROUP
350
517
  3
ACAD_LAYOUT
350
593
  3
ACAD_MATERIAL
350
543
  3
ACAD_MLEADERSTYLE
350
58A
  3
ACAD_MLINESTYLE
350
524
  3
ACAD_PLOTSETTINGS
350
592
  3
ACAD_PLOTSTYLENAME
350
541
  3
ACAD_SCALELIST
350
578
  3
ACAD_SECTIONVIEWSTYLE
350
58C
  3
ACAD_TABLESTYLE
350
576
  3
ACAD_VISUALSTYLE
350
55C
  3
ACDB_RECOMPOSE_DATA
350
5E5
  3
ACDBVARIABLEDICTIONARY
350
53A
  0
XRECORD
  5
5DF
102
{ACAD_REACTORS
330
516
102
}
330
516
100
AcDbXrecord
280
     1
300
ACD
300
2014
300
86063ACD_2014_0F
  0
DICTIONARY
  5
575
102
{ACAD_REACTORS
330
516
102
}
330
516
100
AcDbDictionary
281
     1
  0
DICTIONARY
  5
58E
102
{ACAD_REACTORS
330
516
102
}
330
516
100
AcDbDictionary
281
     1
  3
Imperial24
350
58F
  0
DICTIONARY
  5
517
102
{ACAD_REACTORS
330
516
102
}
330
516
100
AcDbDictionary
281
     1
  0
DICTIONARY
  5
593
102
{ACAD_REACTORS
330
516
102
}
330
516
100
AcDbDictionary
281
     1
  3
Model
350
594
  3
レイアウト1
350
595
  0
DICTIONARY
  5
543
102
{ACAD_REACTORS
330
516
102
}
330
516
100
AcDbDictionary
281
     1
  3
ByBlock
350
54C
  3
ByLayer
350
544
  3
Global
350
554
  0
DICTIONARY
  5
58A
102
{ACAD_REACTORS
330
516
102
}
330
516
100
AcDbDictionary
281
     1
  3
Standard
350
58B
  0
DICTIONARY
  5
524
102
{ACAD_REACTORS
330
516
102
}
330
516
100
AcDbDictionary
281
     1
  3
STANDARD
350
525
  0
DICTIONARY
  5
592
102
{ACAD_REACTORS
330
516
102
}
330
516
100
AcDbDictionary
281
     1
  0
ACDBDICTIONARYWDFLT
  5
541
102
{ACAD_REACTORS
330
516
102
}
330
516
100
AcDbDictionary
281
     1
  3
Normal
350
542
100
AcDbDictionaryWithDefault
340
542
  0
DICTIONARY
  5
578
102
{ACAD_REACTORS
330
516
102
}
330
516
100
AcDbDictionary
281
     1
  3
A0
350
579
  3
A1
350
57A
  3
A2
350
57B
  3
A3
350
57C
  3
A4
350
57D
  3
A5
350
57E
  3
A6
350
57F
  3
A7
350
580
  3
A8
350
581
  3
A9
350
582
  3
B0
350
583
  3
B1
350
584
  3
B2
350
585
  3
B3
350
586
  3
B4
350
587
  3
B5
350
588
  3
B6
350
589
  0
DICTIONARY
  5
58C
102
{ACAD_REACTORS
330
516
102
}
330
516
100
AcDbDictionary
281
     1
  3
Imperial24
350
58D
  0
DICTIONARY
  5
576
102
{ACAD_REACTORS
330
516
102
}
330
516
100
AcDbDictionary
281
     1
  3
Standard
350
577
  0
DICTIONARY
  5
55C
102
{ACAD_REACTORS
330
516
102
}
330
516
100
AcDbDictionary
281
     1
  3
2dWireframe
350
562
  3
Basic
350
561
  3
Brighten
350
568
  3
ColorChange
350
56C
  3
Conceptual
350
565
  3
Dim
350
567
  3
EdgeColorOff
350
574
  3
Facepattern
350
56B
  3
Flat
350
55D
  3
FlatWithEdges
350
55E
  3
Gouraud
350
55F
  3
GouraudWithEdges
350
560
  3
Hidden
350
564
  3
JitterOff
350
572
  3
Linepattern
350
56A
  3
OverhangOff
350
573
  3
Realistic
350
566
  3
Shaded
350
571
  3
Shaded with edges
350
570
  3
Shades of Gray
350
56D
  3
Sketchy
350
56E
  3
Thicken
350
569
  3
Wireframe
350
563
  3
X-Ray
350
56F
  0
XRECORD
  5
5E5
102
{ACAD_REACTORS
330
516
102
}
330
516
100
AcDbXrecord
280
     1
 90
        1
330
577
  0
DICTIONARY
  5
53A
102
{ACAD_REACTORS
330
516
102
}
330
516
100
AcDbDictionary
281
     1
  3
CANNOSCALE
350
5D8
  3
CMLEADERSTYLE
350
5D5
  3
CTABLESTYLE
350
5D4
  3
CVIEWDETAILSTYLE
350
5D6
  3
CVIEWSECTIONSTYLE
350
5D7
  3
DIMADEC
350
53B
  3
XCLIPFRAME
350
5E3
  0
ACDBDETAILVIEWSTYLE
  5
58F
102
{ACAD_XDICTIONARY
360
61E
102
}
102
{ACAD_REACTORS
330
58E
102
}
330
58E
100
AcDbModelDocViewStyle
 70
     0
  3
Imperial24
290
     0
100
AcDbDetailViewStyle
 70
     0
 71
     0
 90
        3
 71
     1
340
519
 62
   256
 40
0.24
340
0
 62
   256
 40
0.24
300

 40
0.36
280
     3
 71
     2
340
51D
 90
       25
 62
   256
 71
     3
340
519
 62
   256
 40
0.24
 90
        1
 40
0.75
 90
        1
300
%<\AcVar ViewType \f "%tc1">% %<\AcVar ViewDetailId>%\PSCALE %<\AcVar ViewScale \f "%sn">%
 71
     4
340
51D
 90
       25
 62
   256
340
51D
 90
       25
 62
   256
280
     0
  0
LAYOUT
  5
594
102
{ACAD_REACTORS
330
593
102
}
330
593
100
AcDbPlotSettings
  1

  2
C:\ACAD-I\support\plotters\Default Windows System Printer.pc3
  4
A4
  6

 40
3.17499995
 41
3.17499995
 42
3.17500305
 43
3.17498779
 44
209.88865662
 45
297.05300903
 46
0.0
 47
0.0
 48
0.0
 49
0.0
140
0.0
141
0.0
142
1.0
143
3305.1289224
 70
 11952
 72
     0
 73
     1
 74
     0
  7
monochrome.ctb
 75
     0
147
0.00030256
 76
     0
 77
     2
 78
   300
148
87076.26553458
149
2923.19806587
100
AcDbLayout
  1
Model
 70
     1
 71
     0
 10
0.0
 20
0.0
 11
12.0
 21
9.0
 12
0.0
 22
0.0
 32
0.0
 14
0.0
 24
0.0
 34
0.0
 15
0.0
 25
0.0
 35
0.0
146
0.0
 13
0.0
 23
0.0
 33
0.0
 16
1.0
 26
0.0
 36
0.0
 17
0.0
 27
1.0
 37
0.0
 76
     0
330
521
1001
ACAD_PSEXT
1000
C:\ACAD-I\support\plotters\Default Windows System Printer.pc3
1000
Fiery PRO80 65-55C-KM PS3.0jp
1000
IP_10.230.204.212
1000

1070
     0
  0
LAYOUT
  5
595
102
{ACAD_REACTORS
330
593
102
}
330
593
100
AcDbPlotSettings
  1

  2
C:\ACAD-I\support\plotters\Default Windows System Printer.pc3
  4
A4
  6

 40
3.17499995
 41
3.17499995
 42
3.17500305
 43
3.17498779
 44
209.88865662
 45
297.05300903
 46
0.0
 47
0.0
 48
0.0
 49
0.0
140
0.0
141
0.0
142
1.0
143
1.0
 70
 15024
 72
     0
 73
     1
 74
     5
  7
monochrome.ctb
 75
    16
147
1.0
 76
     0
 77
     2
 78
   300
148
0.0
149
0.0
100
AcDbLayout
  1
レイアウト1
 70
     0
 71
     1
 10
0.0
 20
0.0
 11
12.0
 21
9.0
 12
0.0
 22
0.0
 32
0.0
 14
1.00000000E+20
 24
1.00000000E+20
 34
1.00000000E+20
 15
-1.00000000E+20
 25
-1.00000000E+20
 35
-1.00000000E+20
146
0.0
 13
0.0
 23
0.0
 33
0.0
 16
1.0
 26
0.0
 36
0.0
 17
0.0
 27
1.0
 37
0.0
 76
     0
330
51E
1001
ACAD_PSEXT
1000
C:\ACAD-I\support\plotters\Default Windows System Printer.pc3
1000
Fiery PRO80 65-55C-KM PS3.0jp
1000
IP_10.230.204.212
1000

1070
     0
  0
MATERIAL
  5
54C
102
{ACAD_XDICTIONARY
360
54D
102
}
102
{ACAD_REACTORS
330
543
102
}
330
543
100
AcDbMaterial
  1
ByBlock
 72
     0
 43
0.02083333
 43
0.0
 43
0.0
 43
0.0
 43
0.0
 43
0.02083333
 43
0.0
 43
0.0
 43
0.0
 43
0.0
 43
1.0
 43
0.0
 43
0.0
 43
0.0
 43
0.0
 43
1.0
 77
     0
 47
0.02083333
 47
0.0
 47
0.0
 47
0.0
 47
0.0
 47
0.02083333
 47
0.0
 47
0.0
 47
0.0
 47
0.0
 47
1.0
 47
0.0
 47
0.0
 47
0.0
 47
0.0
 47
1.0
171
     0
 49
0.02083333
 49
0.0
 49
0.0
 49
0.0
 49
0.0
 49
0.02083333
 49
0.0
 49
0.0
 49
0.0
 49
0.0
 49
1.0
 49
0.0
 49
0.0
 49
0.0
 49
0.0
 49
1.0
175
     0
142
0.02083333
142
0.0
142
0.0
142
0.0
142
0.0
142
0.02083333
142
0.0
142
0.0
142
0.0
142
0.0
142
1.0
142
0.0
142
0.0
142
0.0
142
0.0
142
1.0
179
     0
144
0.02083333
144
0.0
144
0.0
144
0.0
144
0.0
144
0.02083333
144
0.0
144
0.0
144
0.0
144
0.0
144
1.0
144
0.0
144
0.0
144
0.0
144
0.0
144
1.0
147
0.02083333
147
0.0
147
0.0
147
0.0
147
0.0
147
0.02083333
147
0.0
147
0.0
147
0.0
147
0.0
147
1.0
147
0.0
147
0.0
147
0.0
147
0.0
147
1.0
  0
MATERIAL
  5
544
102
{ACAD_XDICTIONARY
360
545
102
}
102
{ACAD_REACTORS
330
543
102
}
330
543
100
AcDbMaterial
  1
ByLayer
 72
     0
 43
0.02083333
 43
0.0
 43
0.0
 43
0.0
 43
0.0
 43
0.02083333
 43
0.0
 43
0.0
 43
0.0
 43
0.0
 43
1.0
 43
0.0
 43
0.0
 43
0.0
 43
0.0
 43
1.0
 77
     0
 47
0.02083333
 47
0.0
 47
0.0
 47
0.0
 47
0.0
 47
0.02083333
 47
0.0
 47
0.0
 47
0.0
 47
0.0
 47
1.0
 47
0.0
 47
0.0
 47
0.0
 47
0.0
 47
1.0
171
     0
 49
0.02083333
 49
0.0
 49
0.0
 49
0.0
 49
0.0
 49
0.02083333
 49
0.0
 49
0.0
 49
0.0
 49
0.0
 49
1.0
 49
0.0
 49
0.0
 49
0.0
 49
0.0
 49
1.0
175
     0
142
0.02083333
142
0.0
142
0.0
142
0.0
142
0.0
142
0.02083333
142
0.0
142
0.0
142
0.0
142
0.0
142
1.0
142
0.0
142
0.0
142
0.0
142
0.0
142
1.0
179
     0
144
0.02083333
144
0.0
144
0.0
144
0.0
144
0.0
144
0.02083333
144
0.0
144
0.0
144
0.0
144
0.0
144
1.0
144
0.0
144
0.0
144
0.0
144
0.0
144
1.0
147
0.02083333
147
0.0
147
0.0
147
0.0
147
0.0
147
0.02083333
147
0.0
147
0.0
147
0.0
147
0.0
147
1.0
147
0.0
147
0.0
147
0.0
147
0.0
147
1.0
  0
MATERIAL
  5
554
102
{ACAD_XDICTIONARY
360
555
102
}
102
{ACAD_REACTORS
330
543
102
}
330
543
100
AcDbMaterial
  1
Global
 72
     0
 43
0.02083333
 43
0.0
 43
0.0
 43
0.0
 43
0.0
 43
0.02083333
 43
0.0
 43
0.0
 43
0.0
 43
0.0
 43
1.0
 43
0.0
 43
0.0
 43
0.0
 43
0.0
 43
1.0
 77
     0
 47
0.02083333
 47
0.0
 47
0.0
 47
0.0
 47
0.0
 47
0.02083333
 47
0.0
 47
0.0
 47
0.0
 47
0.0
 47
1.0
 47
0.0
 47
0.0
 47
0.0
 47
0.0
 47
1.0
171
     0
 49
0.02083333
 49
0.0
 49
0.0
 49
0.0
 49
0.0
 49
0.02083333
 49
0.0
 49
0.0
 49
0.0
 49
0.0
 49
1.0
 49
0.0
 49
0.0
 49
0.0
 49
0.0
 49
1.0
175
     0
142
0.02083333
142
0.0
142
0.0
142
0.0
142
0.0
142
0.02083333
142
0.0
142
0.0
142
0.0
142
0.0
142
1.0
142
0.0
142
0.0
142
0.0
142
0.0
142
1.0
179
     0
144
0.02083333
144
0.0
144
0.0
144
0.0
144
0.0
144
0.02083333
144
0.0
144
0.0
144
0.0
144
0.0
144
1.0
144
0.0
144
0.0
144
0.0
144
0.0
144
1.0
147
0.02083333
147
0.0
147
0.0
147
0.0
147
0.0
147
0.02083333
147
0.0
147
0.0
147
0.0
147
0.0
147
1.0
147
0.0
147
0.0
147
0.0
147
0.0
147
1.0
  0
MLEADERSTYLE
  5
58B
102
{ACAD_XDICTIONARY
360
61A
102
}
102
{ACAD_REACTORS
330
58A
102
}
330
58A
100
AcDbMLeaderStyle
170
     2
171
     1
172
     0
 90
        2
 40
0.0
 41
0.0
173
     1
 91
-1056964608
340
51B
 92
       -2
290
     1
 42
0.09
291
     1
 43
0.36
  3
Standard
 44
0.18
300

342
519
174
     1
178
     6
175
     1
176
     0
 93
-1056964608
 45
0.18
292
     0
297
     0
 46
0.18
 94
-1056964608
 47
1.0
 49
1.0
140
1.0
293
     1
141
0.0
294
     1
177
     0
142
1.0
295
     0
296
     0
143
0.125
1001
ACAD_MLEADERVER
1070
     2
  0
MLINESTYLE
  5
525
102
{ACAD_REACTORS
330
524
102
}
330
524
100
AcDbMlineStyle
  2
STANDARD
 70
     0
  3

 62
   256
 51
90.0
 52
90.0
 71
     2
 49
0.5
 62
   256
  6
BYLAYER
 49
-0.5
 62
   256
  6
BYLAYER
  0
ACDBPLACEHOLDER
  5
542
102
{ACAD_REACTORS
330
541
102
}
330
541
  0
SCALE
  5
579
102
{ACAD_REACTORS
330
578
102
}
330
578
100
AcDbScale
 70
     0
300
1:1
140
1.0
141
1.0
290
     1
  0
SCALE
  5
57A
102
{ACAD_REACTORS
330
578
102
}
330
578
100
AcDbScale
 70
     0
300
1/128" = 1'-0"
140
0.0078125
141
12.0
290
     0
  0
SCALE
  5
57B
102
{ACAD_REACTORS
330
578
102
}
330
578
100
AcDbScale
 70
     0
300
1/64" = 1'-0"
140
0.015625
141
12.0
290
     0
  0
SCALE
  5
57C
102
{ACAD_REACTORS
330
578
102
}
330
578
100
AcDbScale
 70
     0
300
1/32" = 1'-0"
140
0.03125
141
12.0
290
     0
  0
SCALE
  5
57D
102
{ACAD_REACTORS
330
578
102
}
330
578
100
AcDbScale
 70
     0
300
1/16" = 1'-0"
140
0.0625
141
12.0
290
     0
  0
SCALE
  5
57E
102
{ACAD_REACTORS
330
578
102
}
330
578
100
AcDbScale
 70
     0
300
3/32" = 1'-0"
140
0.09375
141
12.0
290
     0
  0
SCALE
  5
57F
102
{ACAD_REACTORS
330
578
102
}
330
578
100
AcDbScale
 70
     0
300
1/8" = 1'-0"
140
0.125
141
12.0
290
     0
  0
SCALE
  5
580
102
{ACAD_REACTORS
330
578
102
}
330
578
100
AcDbScale
 70
     0
300
3/16" = 1'-0"
140
0.1875
141
12.0
290
     0
  0
SCALE
  5
581
102
{ACAD_REACTORS
330
578
102
}
330
578
100
AcDbScale
 70
     0
300
1/4" = 1'-0"
140
0.25
141
12.0
290
     0
  0
SCALE
  5
582
102
{ACAD_REACTORS
330
578
102
}
330
578
100
AcDbScale
 70
     0
300
3/8" = 1'-0"
140
0.375
141
12.0
290
     0
  0
SCALE
  5
583
102
{ACAD_REACTORS
330
578
102
}
330
578
100
AcDbScale
 70
     0
300
1/2" = 1'-0"
140
0.5
141
12.0
290
     0
  0
SCALE
  5
584
102
{ACAD_REACTORS
330
578
102
}
330
578
100
AcDbScale
 70
     0
300
3/4" = 1'-0"
140
0.75
141
12.0
290
     0
  0
SCALE
  5
585
102
{ACAD_REACTORS
330
578
102
}
330
578
100
AcDbScale
 70
     0
300
1" = 1'-0"
140
1.0
141
12.0
290
     0
  0
SCALE
  5
586
102
{ACAD_REACTORS
330
578
102
}
330
578
100
AcDbScale
 70
     0
300
1-1/2" = 1'-0"
140
1.5
141
12.0
290
     0
  0
SCALE
  5
587
102
{ACAD_REACTORS
330
578
102
}
330
578
100
AcDbScale
 70
     0
300
3" = 1'-0"
140
3.0
141
12.0
290
     0
  0
SCALE
  5
588
102
{ACAD_REACTORS
330
578
102
}
330
578
100
AcDbScale
 70
     0
300
6" = 1'-0"
140
6.0
141
12.0
290
     0
  0
SCALE
  5
589
102
{ACAD_REACTORS
330
578
102
}
330
578
100
AcDbScale
 70
     0
300
1'-0" = 1'-0"
140
12.0
141
12.0
290
     0
  0
ACDBSECTIONVIEWSTYLE
  5
58D
102
{ACAD_XDICTIONARY
360
61C
102
}
102
{ACAD_REACTORS
330
58C
102
}
330
58C
100
AcDbModelDocViewStyle
 70
     0
  3
Imperial24
290
     0
100
AcDbSectionViewStyle
 70
     0
 71
     0
 90
      102
 71
     1
340
519
 62
   256
 40
5.0
340
0
340
0
 62
   256
 40
5.0
300
I, O, Q, S, X, Z
 40
10.0
 90
        0
 40
2.5
 90
        0
 71
     2
340
51D
 90
       25
 62
   256
340
51D
 90
       50
 62
   256
 40
5.0
 40
2.5
 40
5.0
 71
     3
340
519
 62
   256
 40
5.0
 90
        0
 40
15.0
 90
        1
300
%<\AcVar ViewSectionStartId>%-%<\AcVar ViewSectionEndId>% (%<\AcVar ViewScale \f "%sn">%)
 71
     4
 62
   256
 62
   257
300
ANSI31
 40
1.0
 90
        0
290
     0
290
     0
 90
        6
 40
0.0
 40
1.57079633
 40
0.26179939
 40
1.30899694
 40
-0.26179939
 40
1.83259571
  0
TABLESTYLE
  5
577
102
{ACAD_XDICTIONARY
360
596
102
}
102
{ACAD_REACTORS
330
576
102
}
330
576
100
AcDbTableStyle
  3
Standard
 70
     0
 71
     0
 40
0.06
 41
0.06
280
     0
281
     0
  7
STANDARD
140
0.18
170
     2
 62
     0
 63
     7
283
     0
274
    -2
284
     1
 64
     0
275
    -2
285
     1
 65
     0
276
    -2
286
     1
 66
     0
277
    -2
287
     1
 67
     0
278
    -2
288
     1
 68
     0
279
    -2
289
     1
 69
     0
  7
STANDARD
140
0.25
170
     5
 62
     0
 63
     7
283
     0
274
    -2
284
     1
 64
     0
275
    -2
285
     1
 65
     0
276
    -2
286
     1
 66
     0
277
    -2
287
     1
 67
     0
278
    -2
288
     1
 68
     0
279
    -2
289
     1
 69
     0
  7
STANDARD
140
0.18
170
     5
 62
     0
 63
     7
283
     0
274
    -2
284
     1
 64
     0
275
    -2
285
     1
 65
     0
276
    -2
286
     1
 66
     0
277
    -2
287
     1
 67
     0
278
    -2
288
     1
 68
     0
279
    -2
289
     1
 69
     0
  0
VISUALSTYLE
  5
562
102
{ACAD_XDICTIONARY
360
5F3
102
}
102
{ACAD_REACTORS
330
55C
102
}
330
55C
100
AcDbVisualStyle
  2
2dWireframe
 70
     4
 71
     0
 72
     2
 73
     0
 90
        0
 40
-0.6
 41
-30.0
 62
     5
 63
     7
421
 16777215
 74
     1
 91
        4
 64
     7
 65
   257
 75
     1
175
     1
 42
1.0
 92
        0
 66
   257
 43
1.0
 76
     1
 77
     6
 78
     2
 67
     7
 79
     5
170
     0
171
     0
290
     0
174
     0
 93
        1
 44
0.0
173
     0
291
     0
 45
0.0
1001
ACAD
1000
AcDbSavedByObjectVersion
1070
     0
  0
VISUALSTYLE
  5
561
102
{ACAD_XDICTIONARY
360
5F1
102
}
102
{ACAD_REACTORS
330
55C
102
}
330
55C
100
AcDbVisualStyle
  2
Basic
 70
     7
 71
     1
 72
     0
 73
     1
 90
        0
 40
-0.6
 41
-30.0
 62
     5
 63
     7
421
 16777215
 74
     0
 91
        4
 64
     7
 65
   257
 75
     1
175
     1
 42
1.0
 92
        8
 66
     7
 43
1.0
 76
     1
 77
     6
 78
     2
 67
     7
 79
     5
170
     0
171
     0
290
     0
174
     0
 93
        1
 44
0.0
173
     0
291
     1
 45
0.0
1001
ACAD
1000
AcDbSavedByObjectVersion
1070
     0
  0
VISUALSTYLE
  5
568
102
{ACAD_XDICTIONARY
360
5FF
102
}
102
{ACAD_REACTORS
330
55C
102
}
330
55C
100
AcDbVisualStyle
  2
Brighten
 70
    12
 71
     2
 72
     2
 73
     0
 90
        0
 40
-0.6
 41
-30.0
 62
     5
 63
     7
421
 16777215
 74
     1
 91
        4
 64
     7
 65
   257
 75
     1
175
     1
 42
1.0
 92
        8
 66
     7
 43
1.0
 76
     1
 77
     6
 78
     2
 67
     7
 79
     5
170
     0
171
     0
290
     0
174
     0
 93
        1
 44
50.0
173
     0
291
     1
 45
0.0
1001
ACAD
1000
AcDbSavedByObjectVersion
1070
     0
  0
VISUALSTYLE
  5
56C
102
{ACAD_XDICTIONARY
360
607
102
}
102
{ACAD_REACTORS
330
55C
102
}
330
55C
100
AcDbVisualStyle
  2
ColorChange
 70
    16
 71
     2
 72
     2
 73
     3
 90
        0
 40
-0.6
 41
-30.0
 62
     5
 63
     8
421
  8421504
 74
     1
 91
        4
 64
     7
 65
   257
 75
     1
175
     1
 42
1.0
 92
        8
 66
     8
424
  8421504
 43
1.0
 76
     1
 77
     6
 78
     2
 67
     7
 79
     5
170
     0
171
     0
290
     0
174
     0
 93
        1
 44
0.0
173
     0
291
     1
 45
0.0
1001
ACAD
1000
AcDbSavedByObjectVersion
1070
     0
  0
VISUALSTYLE
  5
565
102
{ACAD_XDICTIONARY
360
5F9
102
}
102
{ACAD_REACTORS
330
55C
102
}
330
55C
100
AcDbVisualStyle
  2
Conceptual
 70
     9
 71
     3
 72
     2
 73
     0
 90
        0
 40
-0.6
 41
-30.0
 62
     5
 63
     7
421
 16777215
 74
     2
 91
        2
 64
     7
 65
   257
 75
     1
175
     1
 42
179.0
 92
        8
 66
     7
 43
1.0
 76
     1
 77
     6
 78
     2
 67
     7
 79
     3
170
     0
171
     0
290
     0
174
     0
 93
        1
 44
0.0
173
     0
291
     0
 45
0.0
1001
ACAD
1000
AcDbSavedByObjectVersion
1070
     0
  0
VISUALSTYLE
  5
567
102
{ACAD_XDICTIONARY
360
5FD
102
}
102
{ACAD_REACTORS
330
55C
102
}
330
55C
100
AcDbVisualStyle
  2
Dim
 70
    11
 71
     2
 72
     2
 73
     0
 90
        0
 40
-0.6
 41
-30.0
 62
     5
 63
     7
421
 16777215
 74
     1
 91
        4
 64
     7
 65
   257
 75
     1
175
     1
 42
1.0
 92
        8
 66
     7
 43
1.0
 76
     1
 77
     6
 78
     2
 67
     7
 79
     5
170
     0
171
     0
290
     0
174
     0
 93
        1
 44
-50.0
173
     0
291
     1
 45
0.0
1001
ACAD
1000
AcDbSavedByObjectVersion
1070
     0
  0
VISUALSTYLE
  5
574
102
{ACAD_XDICTIONARY
360
617
102
}
102
{ACAD_REACTORS
330
55C
102
}
330
55C
100
AcDbVisualStyle
  2
EdgeColorOff
 70
    22
 71
     2
 72
     2
 73
     0
 90
        0
 40
-0.6
 41
-30.0
 62
     5
 63
     7
421
 16777215
 74
     1
 91
        4
 64
     7
 65
   257
 75
     1
175
     1
 42
1.0
 92
        8
 66
     7
 43
1.0
 76
     1
 77
     6
 78
     2
 67
     7
 79
     5
170
     0
171
     0
290
     0
174
     0
 93
        1
 44
0.0
173
     0
291
     1
 45
0.0
1001
ACAD
1000
AcDbSavedByObjectVersion
1070
     0
  0
VISUALSTYLE
  5
56B
102
{ACAD_XDICTIONARY
360
605
102
}
102
{ACAD_REACTORS
330
55C
102
}
330
55C
100
AcDbVisualStyle
  2
Facepattern
 70
    15
 71
     2
 72
     2
 73
     0
 90
        0
 40
-0.6
 41
-30.0
 62
     5
 63
     7
421
 16777215
 74
     1
 91
        4
 64
     7
 65
   257
 75
     1
175
     1
 42
1.0
 92
        8
 66
     7
 43
1.0
 76
     1
 77
     6
 78
     2
 67
     7
 79
     5
170
     0
171
     0
290
     0
174
     0
 93
        1
 44
0.0
173
     0
291
     1
 45
0.0
1001
ACAD
1000
AcDbSavedByObjectVersion
1070
     0
  0
VISUALSTYLE
  5
55D
102
{ACAD_XDICTIONARY
360
5E9
102
}
102
{ACAD_REACTORS
330
55C
102
}
330
55C
100
AcDbVisualStyle
  2
Flat
 70
     0
 71
     2
 72
     1
 73
     1
 90
        2
 40
-0.6
 41
30.0
 62
     5
 63
     7
421
 16777215
 74
     0
 91
        0
 64
     7
 65
   257
 75
     1
175
     1
 42
1.0
 92
        8
 66
     7
 43
1.0
 76
     1
 77
     6
 78
     2
 67
     7
 79
     5
170
     0
171
     0
290
     0
174
     0
 93
       13
 44
0.0
173
     0
291
     1
 45
0.0
1001
ACAD
1000
AcDbSavedByObjectVersion
1070
     0
  0
VISUALSTYLE
  5
55E
102
{ACAD_XDICTIONARY
360
5EB
102
}
102
{ACAD_REACTORS
330
55C
102
}
330
55C
100
AcDbVisualStyle
  2
FlatWithEdges
 70
     1
 71
     2
 72
     1
 73
     1
 90
        2
 40
-0.6
 41
30.0
 62
     5
 63
     7
421
 16777215
 74
     1
 91
        0
 64
     7
 65
   257
 75
     1
175
     1
 42
1.0
 92
        0
 66
   257
 43
1.0
 76
     1
 77
     6
 78
     2
 67
     7
 79
     5
170
     0
171
     0
290
     0
174
     0
 93
       13
 44
0.0
173
     0
291
     1
 45
0.0
1001
ACAD
1000
AcDbSavedByObjectVersion
1070
     0
  0
VISUALSTYLE
  5
55F
102
{ACAD_XDICTIONARY
360
5ED
102
}
102
{ACAD_REACTORS
330
55C
102
}
330
55C
100
AcDbVisualStyle
  2
Gouraud
 70
     2
 71
     2
 72
     2
 73
     1
 90
        2
 40
-0.6
 41
30.0
 62
     5
 63
     7
421
 16777215
 74
     0
 91
        0
 64
     7
 65
   257
 75
     1
175
     1
 42
1.0
 92
        0
 66
     7
 43
1.0
 76
     1
 77
     6
 78
     2
 67
     7
 79
     5
170
     0
171
     0
290
     0
174
     0
 93
       13
 44
0.0
173
     0
291
     1
 45
0.0
1001
ACAD
1000
AcDbSavedByObjectVersion
1070
     0
  0
VISUALSTYLE
  5
560
102
{ACAD_XDICTIONARY
360
5EF
102
}
102
{ACAD_REACTORS
330
55C
102
}
330
55C
100
AcDbVisualStyle
  2
GouraudWithEdges
 70
     3
 71
     2
 72
     2
 73
     1
 90
        2
 40
-0.6
 41
30.0
 62
     5
 63
     7
421
 16777215
 74
     1
 91
        0
 64
     7
 65
   257
 75
     1
175
     1
 42
1.0
 92
        0
 66
   257
 43
1.0
 76
     1
 77
     6
 78
     2
 67
     7
 79
     5
170
     0
171
     0
290
     0
174
     0
 93
       13
 44
0.0
173
     0
291
     1
 45
0.0
1001
ACAD
1000
AcDbSavedByObjectVersion
1070
     0
  0
VISUALSTYLE
  5
564
102
{ACAD_XDICTIONARY
360
5F7
102
}
102
{ACAD_REACTORS
330
55C
102
}
330
55C
100
AcDbVisualStyle
  2
Hidden
 70
     6
 71
     1
 72
     2
 73
     2
 90
        0
 40
-0.6
 41
-30.0
 62
     5
 63
     7
421
 16777215
 74
     2
 91
        2
 64
     7
 65
   257
 75
     2
175
     1
 42
40.0
 92
        0
 66
   257
 43
1.0
 76
     1
 77
     6
 78
     2
 67
     7
 79
     3
170
     0
171
     0
290
     0
174
     0
 93
        1
 44
0.0
173
     0
291
     0
 45
0.0
1001
ACAD
1000
AcDbSavedByObjectVersion
1070
     0
  0
VISUALSTYLE
  5
572
102
{ACAD_XDICTIONARY
360
613
102
}
102
{ACAD_REACTORS
330
55C
102
}
330
55C
100
AcDbVisualStyle
  2
JitterOff
 70
    20
 71
     2
 72
     2
 73
     0
 90
        0
 40
-0.6
 41
-30.0
 62
     5
 63
     7
421
 16777215
 74
     1
 91
        4
 64
     7
 65
   257
 75
     1
175
     1
 42
1.0
 92
       10
 66
     7
 43
1.0
 76
     1
 77
     6
 78
     2
 67
     7
 79
     5
170
     0
171
     0
290
     0
174
     0
 93
        1
 44
0.0
173
     0
291
     1
 45
0.0
1001
ACAD
1000
AcDbSavedByObjectVersion
1070
     0
  0
VISUALSTYLE
  5
56A
102
{ACAD_XDICTIONARY
360
603
102
}
102
{ACAD_REACTORS
330
55C
102
}
330
55C
100
AcDbVisualStyle
  2
Linepattern
 70
    14
 71
     2
 72
     2
 73
     0
 90
        0
 40
-0.6
 41
-30.0
 62
     5
 63
     7
421
 16777215
 74
     1
 91
        4
 64
     7
 65
   257
 75
     7
175
     7
 42
1.0
 92
        8
 66
     7
 43
1.0
 76
     1
 77
     6
 78
     2
 67
     7
 79
     5
170
     0
171
     0
290
     0
174
     0
 93
        1
 44
0.0
173
     0
291
     1
 45
0.0
1001
ACAD
1000
AcDbSavedByObjectVersion
1070
     0
  0
VISUALSTYLE
  5
573
102
{ACAD_XDICTIONARY
360
615
102
}
102
{ACAD_REACTORS
330
55C
102
}
330
55C
100
AcDbVisualStyle
  2
OverhangOff
 70
    21
 71
     2
 72
     2
 73
     0
 90
        0
 40
-0.6
 41
-30.0
 62
     5
 63
     7
421
 16777215
 74
     1
 91
        4
 64
     7
 65
   257
 75
     1
175
     1
 42
1.0
 92
        9
 66
     7
 43
1.0
 76
     1
 77
     6
 78
     2
 67
     7
 79
     5
170
     0
171
     0
290
     0
174
     0
 93
        1
 44
0.0
173
     0
291
     1
 45
0.0
1001
ACAD
1000
AcDbSavedByObjectVersion
1070
     0
  0
VISUALSTYLE
  5
566
102
{ACAD_XDICTIONARY
360
5FB
102
}
102
{ACAD_REACTORS
330
55C
102
}
330
55C
100
AcDbVisualStyle
  2
Realistic
 70
     8
 71
     2
 72
     2
 73
     0
 90
        2
 40
-0.6
 41
30.0
 62
     5
 63
     7
421
 16777215
 74
     0
 91
        0
 64
     7
 65
   257
 75
     1
175
     1
 42
1.0
 92
        8
 66
   257
 43
1.0
 76
     1
 77
     6
 78
     2
 67
     7
 79
     3
170
     0
171
     0
290
     0
174
     0
 93
       13
 44
0.0
173
     0
291
     0
 45
0.0
1001
ACAD
1000
AcDbSavedByObjectVersion
1070
     0
  0
VISUALSTYLE
  5
571
102
{ACAD_XDICTIONARY
360
611
102
}
102
{ACAD_REACTORS
330
55C
102
}
330
55C
100
AcDbVisualStyle
  2
Shaded
 70
    27
 71
     2
 72
     2
 73
     1
 90
        2
 40
-0.6
 41
30.0
 62
     5
 63
     7
421
 16777215
 74
     0
 91
        4
 64
     7
 65
   257
 75
     1
175
     1
 42
1.0
 92
        8
 66
   257
 43
1.0
 76
     1
 77
     6
 78
     2
 67
     8
425
  7895160
 79
     3
170
     0
171
     0
290
     0
174
     0
 93
        5
 44
0.0
173
     0
291
     0
 45
0.0
1001
ACAD
1000
AcDbSavedByObjectVersion
1070
     0
  0
VISUALSTYLE
  5
570
102
{ACAD_XDICTIONARY
360
60F
102
}
102
{ACAD_REACTORS
330
55C
102
}
330
55C
100
AcDbVisualStyle
  2
Shaded with edges
 70
    26
 71
     2
 72
     2
 73
     1
 90
        2
 40
-0.6
 41
30.0
 62
     5
 63
     7
421
 16777215
 74
     1
 91
       10
 64
     7
 65
   257
 75
     2
175
     1
 42
1.0
 92
        8
 66
   257
 43
1.0
 76
     1
 77
     6
 78
     2
 67
     7
 79
     3
170
     0
171
     0
290
     0
174
     0
 93
        5
 44
0.0
173
     0
291
     0
 45
0.0
1001
ACAD
1000
AcDbSavedByObjectVersion
1070
     0
  0
VISUALSTYLE
  5
56D
102
{ACAD_XDICTIONARY
360
609
102
}
102
{ACAD_REACTORS
330
55C
102
}
330
55C
100
AcDbVisualStyle
  2
Shades of Gray
 70
    23
 71
     2
 72
     2
 73
     3
 90
        0
 40
-0.6
 41
-30.0
 62
     5
 63
     7
421
 16777215
 74
     2
 91
        2
 64
     7
 65
     7
 75
     1
175
     1
 42
40.0
 92
        8
 66
     7
 43
1.0
 76
     1
 77
     6
 78
     2
 67
     7
 79
     3
170
     0
171
     0
290
     0
174
     0
 93
        1
 44
0.0
173
     0
291
     0
 45
0.0
1001
ACAD
1000
AcDbSavedByObjectVersion
1070
     0
  0
VISUALSTYLE
  5
56E
102
{ACAD_XDICTIONARY
360
60B
102
}
102
{ACAD_REACTORS
330
55C
102
}
330
55C
100
AcDbVisualStyle
  2
Sketchy
 70
    24
 71
     1
 72
     2
 73
     2
 90
        0
 40
-0.6
 41
-30.0
 62
     5
 63
     7
421
 16777215
 74
     2
 91
        2
 64
     7
 65
     7
 75
     1
175
     1
 42
40.0
 92
       11
 66
     7
 43
1.0
 76
     1
 77
     6
 78
     2
 67
     7
 79
     6
170
     0
171
     0
290
     0
174
     0
 93
        1
 44
0.0
173
     0
291
     0
 45
0.0
1001
ACAD
1000
AcDbSavedByObjectVersion
1070
     0
  0
VISUALSTYLE
  5
569
102
{ACAD_XDICTIONARY
360
601
102
}
102
{ACAD_REACTORS
330
55C
102
}
330
55C
100
AcDbVisualStyle
  2
Thicken
 70
    13
 71
     2
 72
     2
 73
     0
 90
        0
 40
-0.6
 41
-30.0
 62
     5
 63
     7
421
 16777215
 74
     1
 91
        4
 64
     7
 65
   257
 75
     1
175
     1
 42
1.0
 92
       12
 66
     7
 43
1.0
 76
     1
 77
     6
 78
     2
 67
     7
 79
     5
170
     0
171
     0
290
     0
174
     0
 93
        1
 44
0.0
173
     0
291
     1
 45
0.0
1001
ACAD
1000
AcDbSavedByObjectVersion
1070
     0
  0
VISUALSTYLE
  5
563
102
{ACAD_XDICTIONARY
360
5F5
102
}
102
{ACAD_REACTORS
330
55C
102
}
330
55C
100
AcDbVisualStyle
  2
Wireframe
 70
     5
 71
     0
 72
     2
 73
     0
 90
        0
 40
-0.6
 41
-30.0
 62
     5
 63
     7
421
 16777215
 74
     1
 91
        4
 64
     7
 65
   257
 75
     1
175
     1
 42
1.0
 92
        0
 66
   257
 43
1.0
 76
     1
 77
     6
 78
     2
 67
     7
 79
     3
170
     0
171
     0
290
     0
174
     0
 93
        1
 44
0.0
173
     0
291
     0
 45
0.0
1001
ACAD
1000
AcDbSavedByObjectVersion
1070
     0
  0
VISUALSTYLE
  5
56F
102
{ACAD_XDICTIONARY
360
60D
102
}
102
{ACAD_REACTORS
330
55C
102
}
330
55C
100
AcDbVisualStyle
  2
X-Ray
 70
    25
 71
     2
 72
     2
 73
     1
 90
        1
 40
0.5
 41
-30.0
 62
     5
 63
     7
421
 16777215
 74
     1
 91
        0
 64
     7
 65
   257
 75
     1
175
     1
 42
1.0
 92
        8
 66
     7
 43
1.0
 76
     1
 77
     6
 78
     2
 67
     7
 79
     3
170
     0
171
     0
290
     0
174
     0
 93
       13
 44
0.0
173
     0
291
     0
 45
0.0
1001
ACAD
1000
AcDbSavedByObjectVersion
1070
     0
  0
DICTIONARYVAR
  5
5D8
102
{ACAD_REACTORS
330
53A
102
}
330
53A
100
DictionaryVariables
280
     0
  1
1:1
  0
DICTIONARYVAR
  5
5D5
102
{ACAD_REACTORS
330
53A
102
}
330
53A
100
DictionaryVariables
280
     0
  1
STANDARD
  0
DICTIONARYVAR
  5
5D4
102
{ACAD_REACTORS
330
53A
102
}
330
53A
100
DictionaryVariables
280
     0
  1
STANDARD
  0
DICTIONARYVAR
  5
5D6
102
{ACAD_REACTORS
330
53A
102
}
330
53A
100
DictionaryVariables
280
     0
  1
Imperial24
  0
DICTIONARYVAR
  5
5D7
102
{ACAD_REACTORS
330
53A
102
}
330
53A
100
DictionaryVariables
280
     0
  1
Imperial24
  0
DICTIONARYVAR
  5
53B
102
{ACAD_REACTORS
330
53A
102
}
330
53A
100
DictionaryVariables
280
     0
  1
0
  0
DICTIONARYVAR
  5
5E3
102
{ACAD_REACTORS
330
53A
102
}
330
53A
100
DictionaryVariables
280
     0
  1
2
  0
DICTIONARY
  5
61E
330
58F
100
AcDbDictionary
280
     1
281
     1
  3
ACAD_XREC_ROUNDTRIP
360
61F
  0
DICTIONARY
  5
54D
330
54C
100
AcDbDictionary
280
     1
281
     1
  3
ACAD_XREC_ROUNDTRIP
360
5E7
  3
BUMPTILE
360
54F
  3
DIFFUSETILE
360
54E
  3
OPACITYTILE
360
552
  3
REFLECTIONTILE
360
551
  3
REFRACTIONTILE
360
553
  3
SPECULARTILE
360
550
  0
DICTIONARY
  5
545
330
544
100
AcDbDictionary
280
     1
281
     1
  3
ACAD_XREC_ROUNDTRIP
360
5E6
  3
BUMPTILE
360
547
  3
DIFFUSETILE
360
546
  3
OPACITYTILE
360
54A
  3
REFLECTIONTILE
360
549
  3
REFRACTIONTILE
360
54B
  3
SPECULARTILE
360
548
  0
DICTIONARY
  5
555
330
554
100
AcDbDictionary
280
     1
281
     1
  3
ACAD_XREC_ROUNDTRIP
360
5E8
  3
BUMPTILE
360
557
  3
DIFFUSETILE
360
556
  3
OPACITYTILE
360
55A
  3
REFLECTIONTILE
360
559
  3
REFRACTIONTILE
360
55B
  3
SPECULARTILE
360
558
  0
DICTIONARY
  5
61A
330
58B
100
AcDbDictionary
280
     1
281
     1
  3
ACAD_XREC_ROUNDTRIP
360
61B
  0
DICTIONARY
  5
61C
330
58D
100
AcDbDictionary
280
     1
281
     1
  3
ACAD_XREC_ROUNDTRIP
360
61D
  0
DICTIONARY
  5
596
330
577
100
AcDbDictionary
280
     1
281
     1
  3
ACAD_ROUNDTRIP_2008_TABLESTYLE_CELLSTYLEMAP
360
5E4
  3
ACAD_XREC_ROUNDTRIP
360
619
  0
DICTIONARY
  5
5F3
330
562
100
AcDbDictionary
280
     1
281
     1
  3
ACAD_XREC_ROUNDTRIP
360
5F4
  0
DICTIONARY
  5
5F1
330
561
100
AcDbDictionary
280
     1
281
     1
  3
ACAD_XREC_ROUNDTRIP
360
5F2
  0
DICTIONARY
  5
5FF
330
568
100
AcDbDictionary
280
     1
281
     1
  3
ACAD_XREC_ROUNDTRIP
360
600
  0
DICTIONARY
  5
607
330
56C
100
AcDbDictionary
280
     1
281
     1
  3
ACAD_XREC_ROUNDTRIP
360
608
  0
DICTIONARY
  5
5F9
330
565
100
AcDbDictionary
280
     1
281
     1
  3
ACAD_XREC_ROUNDTRIP
360
5FA
  0
DICTIONARY
  5
5FD
330
567
100
AcDbDictionary
280
     1
281
     1
  3
ACAD_XREC_ROUNDTRIP
360
5FE
  0
DICTIONARY
  5
617
330
574
100
AcDbDictionary
280
     1
281
     1
  3
ACAD_XREC_ROUNDTRIP
360
618
  0
DICTIONARY
  5
605
330
56B
100
AcDbDictionary
280
     1
281
     1
  3
ACAD_XREC_ROUNDTRIP
360
606
  0
DICTIONARY
  5
5E9
330
55D
100
AcDbDictionary
280
     1
281
     1
  3
ACAD_XREC_ROUNDTRIP
360
5EA
  0
DICTIONARY
  5
5EB
330
55E
100
AcDbDictionary
280
     1
281
     1
  3
ACAD_XREC_ROUNDTRIP
360
5EC
  0
DICTIONARY
  5
5ED
330
55F
100
AcDbDictionary
280
     1
281
     1
  3
ACAD_XREC_ROUNDTRIP
360
5EE
  0
DICTIONARY
  5
5EF
330
560
100
AcDbDictionary
280
     1
281
     1
  3
ACAD_XREC_ROUNDTRIP
360
5F0
  0
DICTIONARY
  5
5F7
330
564
100
AcDbDictionary
280
     1
281
     1
  3
ACAD_XREC_ROUNDTRIP
360
5F8
  0
DICTIONARY
  5
613
330
572
100
AcDbDictionary
280
     1
281
     1
  3
ACAD_XREC_ROUNDTRIP
360
614
  0
DICTIONARY
  5
603
330
56A
100
AcDbDictionary
280
     1
281
     1
  3
ACAD_XREC_ROUNDTRIP
360
604
  0
DICTIONARY
  5
615
330
573
100
AcDbDictionary
280
     1
281
     1
  3
ACAD_XREC_ROUNDTRIP
360
616
  0
DICTIONARY
  5
5FB
330
566
100
AcDbDictionary
280
     1
281
     1
  3
ACAD_XREC_ROUNDTRIP
360
5FC
  0
DICTIONARY
  5
611
330
571
100
AcDbDictionary
280
     1
281
     1
  3
ACAD_XREC_ROUNDTRIP
360
612
  0
DICTIONARY
  5
60F
330
570
100
AcDbDictionary
280
     1
281
     1
  3
ACAD_XREC_ROUNDTRIP
360
610
  0
DICTIONARY
  5
609
330
56D
100
AcDbDictionary
280
     1
281
     1
  3
ACAD_XREC_ROUNDTRIP
360
60A
  0
DICTIONARY
  5
60B
330
56E
100
AcDbDictionary
280
     1
281
     1
  3
ACAD_XREC_ROUNDTRIP
360
60C
  0
DICTIONARY
  5
601
330
569
100
AcDbDictionary
280
     1
281
     1
  3
ACAD_XREC_ROUNDTRIP
360
602
  0
DICTIONARY
  5
5F5
330
563
100
AcDbDictionary
280
     1
281
     1
  3
ACAD_XREC_ROUNDTRIP
360
5F6
  0
DICTIONARY
  5
60D
330
56F
100
AcDbDictionary
280
     1
281
     1
  3
ACAD_XREC_ROUNDTRIP
360
60E
  0
XRECORD
  5
61F
102
{ACAD_REACTORS
330
61E
102
}
330
61E
100
AcDbXrecord
280
     1
102
DISPLAYNAME
  1
Imperial24
102
FLAGS
 90
        0
  0
XRECORD
  5
5E7
102
{ACAD_REACTORS
330
54D
102
}
330
54D
100
AcDbXrecord
280
     1
102
MATERIAL
148
0.0
149
0.0
149
0.0
 93
        0
 94
      127
282
     0
 72
     0
 77
     0
171
     0
175
     0
179
     0
273
     0
  0
XRECORD
  5
54F
102
{ACAD_REACTORS
330
54D
102
}
330
54D
100
AcDbXrecord
280
     1
270
     1
271
     1
  0
XRECORD
  5
54E
102
{ACAD_REACTORS
330
54D
102
}
330
54D
100
AcDbXrecord
280
     1
270
     1
271
     1
  0
XRECORD
  5
552
102
{ACAD_REACTORS
330
54D
102
}
330
54D
100
AcDbXrecord
280
     1
270
     1
271
     1
  0
XRECORD
  5
551
102
{ACAD_REACTORS
330
54D
102
}
330
54D
100
AcDbXrecord
280
     1
270
     1
271
     1
  0
XRECORD
  5
553
102
{ACAD_REACTORS
330
54D
102
}
330
54D
100
AcDbXrecord
280
     1
270
     1
271
     1
  0
XRECORD
  5
550
102
{ACAD_REACTORS
330
54D
102
}
330
54D
100
AcDbXrecord
280
     1
270
     1
271
     1
  0
XRECORD
  5
5E6
102
{ACAD_REACTORS
330
545
102
}
330
545
100
AcDbXrecord
280
     1
102
MATERIAL
148
0.0
149
0.0
149
0.0
 93
        0
 94
      127
282
     0
 72
     0
 77
     0
171
     0
175
     0
179
     0
273
     0
  0
XRECORD
  5
547
102
{ACAD_REACTORS
330
545
102
}
330
545
100
AcDbXrecord
280
     1
270
     1
271
     1
  0
XRECORD
  5
546
102
{ACAD_REACTORS
330
545
102
}
330
545
100
AcDbXrecord
280
     1
270
     1
271
     1
  0
XRECORD
  5
54A
102
{ACAD_REACTORS
330
545
102
}
330
545
100
AcDbXrecord
280
     1
270
     1
271
     1
  0
XRECORD
  5
549
102
{ACAD_REACTORS
330
545
102
}
330
545
100
AcDbXrecord
280
     1
270
     1
271
     1
  0
XRECORD
  5
54B
102
{ACAD_REACTORS
330
545
102
}
330
545
100
AcDbXrecord
280
     1
270
     1
271
     1
  0
XRECORD
  5
548
102
{ACAD_REACTORS
330
545
102
}
330
545
100
AcDbXrecord
280
     1
270
     1
271
     1
  0
XRECORD
  5
5E8
102
{ACAD_REACTORS
330
555
102
}
330
555
100
AcDbXrecord
280
     1
102
MATERIAL
148
0.0
149
0.0
149
0.0
 93
        0
 94
      127
282
     0
 72
     0
 77
     0
171
     0
175
     0
179
     0
273
     0
  0
XRECORD
  5
557
102
{ACAD_REACTORS
330
555
102
}
330
555
100
AcDbXrecord
280
     1
270
     1
271
     1
  0
XRECORD
  5
556
102
{ACAD_REACTORS
330
555
102
}
330
555
100
AcDbXrecord
280
     1
270
     1
271
     1
  0
XRECORD
  5
55A
102
{ACAD_REACTORS
330
555
102
}
330
555
100
AcDbXrecord
280
     1
270
     1
271
     1
  0
XRECORD
  5
559
102
{ACAD_REACTORS
330
555
102
}
330
555
100
AcDbXrecord
280
     1
270
     1
271
     1
  0
XRECORD
  5
55B
102
{ACAD_REACTORS
330
555
102
}
330
555
100
AcDbXrecord
280
     1
270
     1
271
     1
  0
XRECORD
  5
558
102
{ACAD_REACTORS
330
555
102
}
330
555
100
AcDbXrecord
280
     1
270
     1
271
     1
  0
XRECORD
  5
61B
102
{ACAD_REACTORS
330
61A
102
}
330
61A
100
AcDbXrecord
280
     1
102
ACAD_ROUNDTRIP_2012_MLEADER_STYLE
298
     1
  0
XRECORD
  5
61D
102
{ACAD_REACTORS
330
61C
102
}
330
61C
100
AcDbXrecord
280
     1
102
DISPLAYNAME
  1
Imperial24
102
FLAGS
 90
        0
  0
CELLSTYLEMAP
  5
5E4
102
{ACAD_REACTORS
330
596
102
}
330
596
100
AcDbCellStyleMap
 90
        3
300
CELLSTYLE
  1
TABLEFORMAT_BEGIN
 90
        5
170
     1
 91
        0
 92
    32768
 62
   257
 93
        1
300
CONTENTFORMAT
  1
CONTENTFORMAT_BEGIN
 90
        0
 91
        0
 92
      512
 93
        0
300

 40
0.0
140
1.0
 94
        5
 62
     0
340
519
144
0.25
309
CONTENTFORMAT_END
171
     0
 94
        0
309
TABLEFORMAT_END
  1
CELLSTYLE_BEGIN
 90
        1
 91
        1
300
_TITLE
309
CELLSTYLE_END
300
CELLSTYLE
  1
TABLEFORMAT_BEGIN
 90
        5
170
     1
 91
        0
 92
        0
 62
   257
 93
        1
300
CONTENTFORMAT
  1
CONTENTFORMAT_BEGIN
 90
        0
 91
        0
 92
      512
 93
        0
300

 40
0.0
140
1.0
 94
        5
 62
     0
340
519
144
0.18
309
CONTENTFORMAT_END
171
     0
 94
        0
309
TABLEFORMAT_END
  1
CELLSTYLE_BEGIN
 90
        2
 91
        1
300
_HEADER
309
CELLSTYLE_END
300
CELLSTYLE
  1
TABLEFORMAT_BEGIN
 90
        5
170
     1
 91
        0
 92
        0
 62
   257
 93
        1
300
CONTENTFORMAT
  1
CONTENTFORMAT_BEGIN
 90
        0
 91
        0
 92
      512
 93
        0
300

 40
0.0
140
1.0
 94
        2
 62
     0
340
519
144
0.18
309
CONTENTFORMAT_END
171
     0
 94
        0
309
TABLEFORMAT_END
  1
CELLSTYLE_BEGIN
 90
        3
 91
        2
300
_DATA
309
CELLSTYLE_END
  0
XRECORD
  5
619
102
{ACAD_REACTORS
330
596
102
}
330
596
100
AcDbXrecord
280
     1
102
ACAD_ROUNDTRIP_PRE2007_TABLESTYLE
 90
      512
 91
        0
  1

 92
      512
 93
        0
  2

 94
      512
 95
        0
  3

  0
XRECORD
  5
5F4
102
{ACAD_REACTORS
330
5F3
102
}
330
5F3
100
AcDbXrecord
280
     1
102
RTVSPost2010Prop28
280
     1
102
RTVSPost2010PropOp28
 70
     1
102
RTVSPost2010Prop29
280
     1
102
RTVSPost2010PropOp29
 70
     1
102
RTVSPost2010Prop30
280
     0
102
RTVSPost2010PropOp30
 70
     1
102
RTVSPost2010Prop31
280
     0
102
RTVSPost2010PropOp31
 70
     1
102
RTVSPost2010Prop32
280
     0
102
RTVSPost2010PropOp32
 70
     1
102
RTVSPost2010Prop33
280
     0
102
RTVSPost2010PropOp33
 70
     1
102
RTVSPost2010Prop34
280
     0
102
RTVSPost2010PropOp34
 70
     1
102
RTVSPost2010Prop35
280
     0
102
RTVSPost2010PropOp35
 70
     1
102
RTVSPost2010Prop36
280
     0
102
RTVSPost2010PropOp36
 70
     1
102
RTVSPost2010Prop37
 90
       50
102
RTVSPost2010PropOp37
 70
     1
102
RTVSPost2010Prop38
140
0.0
102
RTVSPost2010PropOp38
 70
     1
102
RTVSPost2010Prop39
140
1.0
102
RTVSPost2010PropOp39
 70
     1
102
RTVSPost2010Prop40
 90
        0
102
RTVSPost2010PropOp40
 70
     1
102
RTVSPost2010Prop41ColorIndex
 90
       18
102
RTVSPost2010Prop41ColorRGB
 90
        0
102
RTVSPost2010PropOp41
 70
     1
102
RTVSPost2010Prop42
 90
       50
102
RTVSPost2010PropOp42
 70
     1
102
RTVSPost2010Prop43
 90
        3
102
RTVSPost2010PropOp43
 70
     1
102
RTVSPost2010Prop44ColorIndex
 90
        5
102
RTVSPost2010Prop44ColorRGB
 90
      255
102
RTVSPost2010PropOp44
 70
     1
102
RTVSPost2010Prop45
280
     0
102
RTVSPost2010PropOp45
 70
     1
102
RTVSPost2010Prop46
 90
       50
102
RTVSPost2010PropOp46
 70
     1
102
RTVSPost2010Prop47
 90
       50
102
RTVSPost2010PropOp47
 70
     1
102
RTVSPost2010Prop48
 90
       50
102
RTVSPost2010PropOp48
 70
     1
102
RTVSPost2010Prop49
280
     0
102
RTVSPost2010PropOp49
 70
     1
102
RTVSPost2010Prop50
 90
       50
102
RTVSPost2010PropOp50
 70
     1
102
RTVSPost2010Prop51ColorIndex
 90
      256
102
RTVSPost2010Prop51ColorRGB
 90
-16777216
102
RTVSPost2010PropOp51
 70
     0
102
RTVSPost2010Prop52
140
1.0
102
RTVSPost2010PropOp52
 70
     0
102
RTVSPost2010Prop53
 90
        2
102
RTVSPost2010PropOp53
 70
     1
102
RTVSPost2010Prop54
  1
strokes_ogs.tif
102
RTVSPost2010PropOp54
 70
     1
102
RTVSPost2010Prop55
280
     0
102
RTVSPost2010PropOp55
 70
     1
102
RTVSPost2010Prop56
140
1.0
102
RTVSPost2010PropOp56
 70
     1
102
RTVSPost2010Prop57
140
1.0
102
RTVSPost2010PropOp57
 70
     1
102
RTVSPropertyOp0
 70
     1
102
RTVSPropertyOp1
 70
     1
102
RTVSPropertyOp2
 70
     1
102
RTVSPropertyOp3
 70
     1
102
RTVSPropertyOp4
 70
     1
102
RTVSPropertyOp5
 70
     1
102
RTVSPropertyOp6
 70
     1
102
RTVSPropertyOp7
 70
     1
102
RTVSPropertyOp8
 70
     1
102
RTVSPropertyOp9
 70
     1
102
RTVSPropertyOp10
 70
     1
102
RTVSPropertyOp11
 70
     1
102
RTVSPropertyOp12
 70
     1
102
RTVSPropertyOp13
 70
     1
102
RTVSPropertyOp14
 70
     1
102
RTVSPropertyOp15
 70
     1
102
RTVSPropertyOp16
 70
     1
102
RTVSPropertyOp17
 70
     1
102
RTVSPropertyOp18
 70
     1
102
RTVSPropertyOp19
 70
     1
102
RTVSPropertyOp20
 70
     1
102
RTVSPropertyOp21
 70
     1
102
RTVSPropertyOp22
 70
     1
102
RTVSPropertyOp23
 70
     1
102
RTVSPropertyOp24
 70
     1
102
RTVSPropertyOp25
 70
     1
102
RTVSPropertyOp26
 70
     1
102
RTVSPropertyOp27
 70
     1
102
RTVSPropertyOp28
 70
     1
102
RTVSPropertyOp29
 70
     1
102
RTVSPropertyOp30
 70
     1
102
RTVSPropertyOp31
 70
     1
102
RTVSPropertyOp32
 70
     1
102
RTVSPropertyOp33
 70
     1
102
RTVSPropertyOp34
 70
     1
102
RTVSPropertyOp35
 70
     1
102
RTVSPropertyOp36
 70
     1
102
RTVSPropertyOp37
 70
     1
102
RTVSPropertyOp38
 70
     1
102
RTVSPropertyOp39
 70
     1
102
RTVSPropertyOp40
 70
     1
102
RTVSPropertyOp41
 70
     1
102
RTVSPropertyOp42
 70
     1
102
RTVSPropertyOp43
 70
     1
102
RTVSPropertyOp44
 70
     1
102
RTVSPropertyOp45
 70
     1
102
RTVSPropertyOp46
 70
     1
102
RTVSPropertyOp47
 70
     1
102
RTVSPropertyOp48
 70
     1
102
RTVSPropertyOp49
 70
     1
102
RTVSPropertyOp50
 70
     1
102
RTVSPropertyOp51
 70
     0
102
RTVSPropertyOp52
 70
     0
102
RTVSPropertyOp53
 70
     1
102
RTVSPropertyOp54
 70
     1
102
RTVSPropertyOp55
 70
     1
102
RTVSPropertyOp56
 70
     1
102
RTVSPropertyOp57
 70
     1
102
RTVSPropertyOp58
 70
     1
102
RTVSPropertyOp59
 70
     1
102
RTVSPropertyOp60
 70
     1
102
RTVSPropertyOp61
 70
     1
102
RTVSPropertyOp62
 70
     1
  0
XRECORD
  5
5F2
102
{ACAD_REACTORS
330
5F1
102
}
330
5F1
100
AcDbXrecord
280
     1
102
RTVSPost2010Prop28
280
     0
102
RTVSPost2010PropOp28
 70
     1
102
RTVSPost2010Prop29
280
     1
102
RTVSPost2010PropOp29
 70
     1
102
RTVSPost2010Prop30
280
     1
102
RTVSPost2010PropOp30
 70
     1
102
RTVSPost2010Prop31
280
     0
102
RTVSPost2010PropOp31
 70
     1
102
RTVSPost2010Prop32
280
     0
102
RTVSPost2010PropOp32
 70
     1
102
RTVSPost2010Prop33
280
     0
102
RTVSPost2010PropOp33
 70
     1
102
RTVSPost2010Prop34
280
     0
102
RTVSPost2010PropOp34
 70
     1
102
RTVSPost2010Prop35
280
     0
102
RTVSPost2010PropOp35
 70
     1
102
RTVSPost2010Prop36
280
     0
102
RTVSPost2010PropOp36
 70
     1
102
RTVSPost2010Prop37
 90
       50
102
RTVSPost2010PropOp37
 70
     1
102
RTVSPost2010Prop38
140
0.0
102
RTVSPost2010PropOp38
 70
     1
102
RTVSPost2010Prop39
140
1.0
102
RTVSPost2010PropOp39
 70
     1
102
RTVSPost2010Prop40
 90
        0
102
RTVSPost2010PropOp40
 70
     1
102
RTVSPost2010Prop41ColorIndex
 90
       18
102
RTVSPost2010Prop41ColorRGB
 90
        0
102
RTVSPost2010PropOp41
 70
     1
102
RTVSPost2010Prop42
 90
       50
102
RTVSPost2010PropOp42
 70
     1
102
RTVSPost2010Prop43
 90
        3
102
RTVSPost2010PropOp43
 70
     1
102
RTVSPost2010Prop44ColorIndex
 90
        5
102
RTVSPost2010Prop44ColorRGB
 90
      255
102
RTVSPost2010PropOp44
 70
     1
102
RTVSPost2010Prop45
280
     0
102
RTVSPost2010PropOp45
 70
     1
102
RTVSPost2010Prop46
 90
       50
102
RTVSPost2010PropOp46
 70
     1
102
RTVSPost2010Prop47
 90
       50
102
RTVSPost2010PropOp47
 70
     1
102
RTVSPost2010Prop48
 90
       50
102
RTVSPost2010PropOp48
 70
     1
102
RTVSPost2010Prop49
280
     0
102
RTVSPost2010PropOp49
 70
     1
102
RTVSPost2010Prop50
 90
       50
102
RTVSPost2010PropOp50
 70
     1
102
RTVSPost2010Prop51ColorIndex
 90
      256
102
RTVSPost2010Prop51ColorRGB
 90
-16777216
102
RTVSPost2010PropOp51
 70
     0
102
RTVSPost2010Prop52
140
1.0
102
RTVSPost2010PropOp52
 70
     0
102
RTVSPost2010Prop53
 90
        2
102
RTVSPost2010PropOp53
 70
     1
102
RTVSPost2010Prop54
  1
strokes_ogs.tif
102
RTVSPost2010PropOp54
 70
     1
102
RTVSPost2010Prop55
280
     0
102
RTVSPost2010PropOp55
 70
     1
102
RTVSPost2010Prop56
140
1.0
102
RTVSPost2010PropOp56
 70
     1
102
RTVSPost2010Prop57
140
1.0
102
RTVSPost2010PropOp57
 70
     1
102
RTVSPropertyOp0
 70
     1
102
RTVSPropertyOp1
 70
     1
102
RTVSPropertyOp2
 70
     1
102
RTVSPropertyOp3
 70
     1
102
RTVSPropertyOp4
 70
     1
102
RTVSPropertyOp5
 70
     1
102
RTVSPropertyOp6
 70
     1
102
RTVSPropertyOp7
 70
     1
102
RTVSPropertyOp8
 70
     1
102
RTVSPropertyOp9
 70
     1
102
RTVSPropertyOp10
 70
     1
102
RTVSPropertyOp11
 70
     1
102
RTVSPropertyOp12
 70
     1
102
RTVSPropertyOp13
 70
     1
102
RTVSPropertyOp14
 70
     1
102
RTVSPropertyOp15
 70
     1
102
RTVSPropertyOp16
 70
     1
102
RTVSPropertyOp17
 70
     1
102
RTVSPropertyOp18
 70
     1
102
RTVSPropertyOp19
 70
     1
102
RTVSPropertyOp20
 70
     1
102
RTVSPropertyOp21
 70
     1
102
RTVSPropertyOp22
 70
     1
102
RTVSPropertyOp23
 70
     1
102
RTVSPropertyOp24
 70
     1
102
RTVSPropertyOp25
 70
     1
102
RTVSPropertyOp26
 70
     1
102
RTVSPropertyOp27
 70
     1
102
RTVSPropertyOp28
 70
     1
102
RTVSPropertyOp29
 70
     1
102
RTVSPropertyOp30
 70
     1
102
RTVSPropertyOp31
 70
     1
102
RTVSPropertyOp32
 70
     1
102
RTVSPropertyOp33
 70
     1
102
RTVSPropertyOp34
 70
     1
102
RTVSPropertyOp35
 70
     1
102
RTVSPropertyOp36
 70
     1
102
RTVSPropertyOp37
 70
     1
102
RTVSPropertyOp38
 70
     1
102
RTVSPropertyOp39
 70
     1
102
RTVSPropertyOp40
 70
     1
102
RTVSPropertyOp41
 70
     1
102
RTVSPropertyOp42
 70
     1
102
RTVSPropertyOp43
 70
     1
102
RTVSPropertyOp44
 70
     1
102
RTVSPropertyOp45
 70
     1
102
RTVSPropertyOp46
 70
     1
102
RTVSPropertyOp47
 70
     1
102
RTVSPropertyOp48
 70
     1
102
RTVSPropertyOp49
 70
     1
102
RTVSPropertyOp50
 70
     1
102
RTVSPropertyOp51
 70
     0
102
RTVSPropertyOp52
 70
     0
102
RTVSPropertyOp53
 70
     1
102
RTVSPropertyOp54
 70
     1
102
RTVSPropertyOp55
 70
     1
102
RTVSPropertyOp56
 70
     1
102
RTVSPropertyOp57
 70
     1
102
RTVSPropertyOp58
 70
     1
102
RTVSPropertyOp59
 70
     1
102
RTVSPropertyOp60
 70
     1
102
RTVSPropertyOp61
 70
     1
102
RTVSPropertyOp62
 70
     1
  0
XRECORD
  5
600
102
{ACAD_REACTORS
330
5FF
102
}
330
5FF
100
AcDbXrecord
280
     1
102
RTVSPost2010Prop28
280
     0
102
RTVSPost2010PropOp28
 70
     1
102
RTVSPost2010Prop29
280
     1
102
RTVSPost2010PropOp29
 70
     1
102
RTVSPost2010Prop30
280
     1
102
RTVSPost2010PropOp30
 70
     1
102
RTVSPost2010Prop31
280
     0
102
RTVSPost2010PropOp31
 70
     1
102
RTVSPost2010Prop32
280
     0
102
RTVSPost2010PropOp32
 70
     1
102
RTVSPost2010Prop33
280
     0
102
RTVSPost2010PropOp33
 70
     1
102
RTVSPost2010Prop34
280
     0
102
RTVSPost2010PropOp34
 70
     1
102
RTVSPost2010Prop35
280
     0
102
RTVSPost2010PropOp35
 70
     1
102
RTVSPost2010Prop36
280
     0
102
RTVSPost2010PropOp36
 70
     1
102
RTVSPost2010Prop37
 90
       50
102
RTVSPost2010PropOp37
 70
     1
102
RTVSPost2010Prop38
140
0.0
102
RTVSPost2010PropOp38
 70
     1
102
RTVSPost2010Prop39
140
1.0
102
RTVSPost2010PropOp39
 70
     1
102
RTVSPost2010Prop40
 90
        0
102
RTVSPost2010PropOp40
 70
     1
102
RTVSPost2010Prop41ColorIndex
 90
       18
102
RTVSPost2010Prop41ColorRGB
 90
        0
102
RTVSPost2010PropOp41
 70
     1
102
RTVSPost2010Prop42
 90
       50
102
RTVSPost2010PropOp42
 70
     1
102
RTVSPost2010Prop43
 90
        3
102
RTVSPost2010PropOp43
 70
     1
102
RTVSPost2010Prop44ColorIndex
 90
        5
102
RTVSPost2010Prop44ColorRGB
 90
      255
102
RTVSPost2010PropOp44
 70
     1
102
RTVSPost2010Prop45
280
     0
102
RTVSPost2010PropOp45
 70
     1
102
RTVSPost2010Prop46
 90
       50
102
RTVSPost2010PropOp46
 70
     1
102
RTVSPost2010Prop47
 90
       50
102
RTVSPost2010PropOp47
 70
     1
102
RTVSPost2010Prop48
 90
       50
102
RTVSPost2010PropOp48
 70
     1
102
RTVSPost2010Prop49
280
     0
102
RTVSPost2010PropOp49
 70
     1
102
RTVSPost2010Prop50
 90
       50
102
RTVSPost2010PropOp50
 70
     1
102
RTVSPost2010Prop51ColorIndex
 90
      256
102
RTVSPost2010Prop51ColorRGB
 90
-16777216
102
RTVSPost2010PropOp51
 70
     0
102
RTVSPost2010Prop52
140
1.0
102
RTVSPost2010PropOp52
 70
     0
102
RTVSPost2010Prop53
 90
        2
102
RTVSPost2010PropOp53
 70
     1
102
RTVSPost2010Prop54
  1
strokes_ogs.tif
102
RTVSPost2010PropOp54
 70
     1
102
RTVSPost2010Prop55
280
     0
102
RTVSPost2010PropOp55
 70
     1
102
RTVSPost2010Prop56
140
1.0
102
RTVSPost2010PropOp56
 70
     1
102
RTVSPost2010Prop57
140
1.0
102
RTVSPost2010PropOp57
 70
     1
102
RTVSPropertyOp0
 70
     1
102
RTVSPropertyOp1
 70
     1
102
RTVSPropertyOp2
 70
     1
102
RTVSPropertyOp3
 70
     1
102
RTVSPropertyOp4
 70
     1
102
RTVSPropertyOp5
 70
     1
102
RTVSPropertyOp6
 70
     1
102
RTVSPropertyOp7
 70
     1
102
RTVSPropertyOp8
 70
     1
102
RTVSPropertyOp9
 70
     1
102
RTVSPropertyOp10
 70
     1
102
RTVSPropertyOp11
 70
     1
102
RTVSPropertyOp12
 70
     1
102
RTVSPropertyOp13
 70
     1
102
RTVSPropertyOp14
 70
     1
102
RTVSPropertyOp15
 70
     1
102
RTVSPropertyOp16
 70
     1
102
RTVSPropertyOp17
 70
     1
102
RTVSPropertyOp18
 70
     1
102
RTVSPropertyOp19
 70
     1
102
RTVSPropertyOp20
 70
     1
102
RTVSPropertyOp21
 70
     1
102
RTVSPropertyOp22
 70
     1
102
RTVSPropertyOp23
 70
     1
102
RTVSPropertyOp24
 70
     1
102
RTVSPropertyOp25
 70
     1
102
RTVSPropertyOp26
 70
     1
102
RTVSPropertyOp27
 70
     1
102
RTVSPropertyOp28
 70
     1
102
RTVSPropertyOp29
 70
     1
102
RTVSPropertyOp30
 70
     1
102
RTVSPropertyOp31
 70
     1
102
RTVSPropertyOp32
 70
     1
102
RTVSPropertyOp33
 70
     1
102
RTVSPropertyOp34
 70
     1
102
RTVSPropertyOp35
 70
     1
102
RTVSPropertyOp36
 70
     1
102
RTVSPropertyOp37
 70
     1
102
RTVSPropertyOp38
 70
     1
102
RTVSPropertyOp39
 70
     1
102
RTVSPropertyOp40
 70
     1
102
RTVSPropertyOp41
 70
     1
102
RTVSPropertyOp42
 70
     1
102
RTVSPropertyOp43
 70
     1
102
RTVSPropertyOp44
 70
     1
102
RTVSPropertyOp45
 70
     1
102
RTVSPropertyOp46
 70
     1
102
RTVSPropertyOp47
 70
     1
102
RTVSPropertyOp48
 70
     1
102
RTVSPropertyOp49
 70
     1
102
RTVSPropertyOp50
 70
     1
102
RTVSPropertyOp51
 70
     0
102
RTVSPropertyOp52
 70
     0
102
RTVSPropertyOp53
 70
     1
102
RTVSPropertyOp54
 70
     1
102
RTVSPropertyOp55
 70
     1
102
RTVSPropertyOp56
 70
     1
102
RTVSPropertyOp57
 70
     1
102
RTVSPropertyOp58
 70
     1
102
RTVSPropertyOp59
 70
     1
102
RTVSPropertyOp60
 70
     1
102
RTVSPropertyOp61
 70
     1
102
RTVSPropertyOp62
 70
     1
  0
XRECORD
  5
608
102
{ACAD_REACTORS
330
607
102
}
330
607
100
AcDbXrecord
280
     1
102
RTVSPost2010Prop28
280
     0
102
RTVSPost2010PropOp28
 70
     1
102
RTVSPost2010Prop29
280
     1
102
RTVSPost2010PropOp29
 70
     1
102
RTVSPost2010Prop30
280
     1
102
RTVSPost2010PropOp30
 70
     1
102
RTVSPost2010Prop31
280
     0
102
RTVSPost2010PropOp31
 70
     1
102
RTVSPost2010Prop32
280
     0
102
RTVSPost2010PropOp32
 70
     1
102
RTVSPost2010Prop33
280
     0
102
RTVSPost2010PropOp33
 70
     1
102
RTVSPost2010Prop34
280
     0
102
RTVSPost2010PropOp34
 70
     1
102
RTVSPost2010Prop35
280
     0
102
RTVSPost2010PropOp35
 70
     1
102
RTVSPost2010Prop36
280
     0
102
RTVSPost2010PropOp36
 70
     1
102
RTVSPost2010Prop37
 90
       50
102
RTVSPost2010PropOp37
 70
     1
102
RTVSPost2010Prop38
140
0.0
102
RTVSPost2010PropOp38
 70
     1
102
RTVSPost2010Prop39
140
1.0
102
RTVSPost2010PropOp39
 70
     1
102
RTVSPost2010Prop40
 90
        0
102
RTVSPost2010PropOp40
 70
     1
102
RTVSPost2010Prop41ColorIndex
 90
       18
102
RTVSPost2010Prop41ColorRGB
 90
        0
102
RTVSPost2010PropOp41
 70
     1
102
RTVSPost2010Prop42
 90
       50
102
RTVSPost2010PropOp42
 70
     1
102
RTVSPost2010Prop43
 90
        3
102
RTVSPost2010PropOp43
 70
     1
102
RTVSPost2010Prop44ColorIndex
 90
        5
102
RTVSPost2010Prop44ColorRGB
 90
      255
102
RTVSPost2010PropOp44
 70
     1
102
RTVSPost2010Prop45
280
     0
102
RTVSPost2010PropOp45
 70
     1
102
RTVSPost2010Prop46
 90
       50
102
RTVSPost2010PropOp46
 70
     1
102
RTVSPost2010Prop47
 90
       50
102
RTVSPost2010PropOp47
 70
     1
102
RTVSPost2010Prop48
 90
       50
102
RTVSPost2010PropOp48
 70
     1
102
RTVSPost2010Prop49
280
     0
102
RTVSPost2010PropOp49
 70
     1
102
RTVSPost2010Prop50
 90
       50
102
RTVSPost2010PropOp50
 70
     1
102
RTVSPost2010Prop51ColorIndex
 90
      256
102
RTVSPost2010Prop51ColorRGB
 90
-16777216
102
RTVSPost2010PropOp51
 70
     0
102
RTVSPost2010Prop52
140
1.0
102
RTVSPost2010PropOp52
 70
     0
102
RTVSPost2010Prop53
 90
        2
102
RTVSPost2010PropOp53
 70
     1
102
RTVSPost2010Prop54
  1
strokes_ogs.tif
102
RTVSPost2010PropOp54
 70
     1
102
RTVSPost2010Prop55
280
     0
102
RTVSPost2010PropOp55
 70
     1
102
RTVSPost2010Prop56
140
1.0
102
RTVSPost2010PropOp56
 70
     1
102
RTVSPost2010Prop57
140
1.0
102
RTVSPost2010PropOp57
 70
     1
102
RTVSPropertyOp0
 70
     1
102
RTVSPropertyOp1
 70
     1
102
RTVSPropertyOp2
 70
     1
102
RTVSPropertyOp3
 70
     1
102
RTVSPropertyOp4
 70
     1
102
RTVSPropertyOp5
 70
     1
102
RTVSPropertyOp6
 70
     1
102
RTVSPropertyOp7
 70
     1
102
RTVSPropertyOp8
 70
     1
102
RTVSPropertyOp9
 70
     1
102
RTVSPropertyOp10
 70
     1
102
RTVSPropertyOp11
 70
     1
102
RTVSPropertyOp12
 70
     1
102
RTVSPropertyOp13
 70
     1
102
RTVSPropertyOp14
 70
     1
102
RTVSPropertyOp15
 70
     1
102
RTVSPropertyOp16
 70
     1
102
RTVSPropertyOp17
 70
     1
102
RTVSPropertyOp18
 70
     1
102
RTVSPropertyOp19
 70
     1
102
RTVSPropertyOp20
 70
     1
102
RTVSPropertyOp21
 70
     1
102
RTVSPropertyOp22
 70
     1
102
RTVSPropertyOp23
 70
     1
102
RTVSPropertyOp24
 70
     1
102
RTVSPropertyOp25
 70
     1
102
RTVSPropertyOp26
 70
     1
102
RTVSPropertyOp27
 70
     1
102
RTVSPropertyOp28
 70
     1
102
RTVSPropertyOp29
 70
     1
102
RTVSPropertyOp30
 70
     1
102
RTVSPropertyOp31
 70
     1
102
RTVSPropertyOp32
 70
     1
102
RTVSPropertyOp33
 70
     1
102
RTVSPropertyOp34
 70
     1
102
RTVSPropertyOp35
 70
     1
102
RTVSPropertyOp36
 70
     1
102
RTVSPropertyOp37
 70
     1
102
RTVSPropertyOp38
 70
     1
102
RTVSPropertyOp39
 70
     1
102
RTVSPropertyOp40
 70
     1
102
RTVSPropertyOp41
 70
     1
102
RTVSPropertyOp42
 70
     1
102
RTVSPropertyOp43
 70
     1
102
RTVSPropertyOp44
 70
     1
102
RTVSPropertyOp45
 70
     1
102
RTVSPropertyOp46
 70
     1
102
RTVSPropertyOp47
 70
     1
102
RTVSPropertyOp48
 70
     1
102
RTVSPropertyOp49
 70
     1
102
RTVSPropertyOp50
 70
     1
102
RTVSPropertyOp51
 70
     0
102
RTVSPropertyOp52
 70
     0
102
RTVSPropertyOp53
 70
     1
102
RTVSPropertyOp54
 70
     1
102
RTVSPropertyOp55
 70
     1
102
RTVSPropertyOp56
 70
     1
102
RTVSPropertyOp57
 70
     1
102
RTVSPropertyOp58
 70
     1
102
RTVSPropertyOp59
 70
     1
102
RTVSPropertyOp60
 70
     1
102
RTVSPropertyOp61
 70
     1
102
RTVSPropertyOp62
 70
     1
  0
XRECORD
  5
5FA
102
{ACAD_REACTORS
330
5F9
102
}
330
5F9
100
AcDbXrecord
280
     1
102
RTVSPost2010Prop28
280
     0
102
RTVSPost2010PropOp28
 70
     1
102
RTVSPost2010Prop29
280
     1
102
RTVSPost2010PropOp29
 70
     1
102
RTVSPost2010Prop30
280
     1
102
RTVSPost2010PropOp30
 70
     1
102
RTVSPost2010Prop31
280
     0
102
RTVSPost2010PropOp31
 70
     1
102
RTVSPost2010Prop32
280
     0
102
RTVSPost2010PropOp32
 70
     1
102
RTVSPost2010Prop33
280
     0
102
RTVSPost2010PropOp33
 70
     1
102
RTVSPost2010Prop34
280
     0
102
RTVSPost2010PropOp34
 70
     1
102
RTVSPost2010Prop35
280
     0
102
RTVSPost2010PropOp35
 70
     1
102
RTVSPost2010Prop36
280
     0
102
RTVSPost2010PropOp36
 70
     1
102
RTVSPost2010Prop37
 90
       50
102
RTVSPost2010PropOp37
 70
     1
102
RTVSPost2010Prop38
140
0.0
102
RTVSPost2010PropOp38
 70
     1
102
RTVSPost2010Prop39
140
1.0
102
RTVSPost2010PropOp39
 70
     1
102
RTVSPost2010Prop40
 90
        0
102
RTVSPost2010PropOp40
 70
     1
102
RTVSPost2010Prop41ColorIndex
 90
       18
102
RTVSPost2010Prop41ColorRGB
 90
        0
102
RTVSPost2010PropOp41
 70
     1
102
RTVSPost2010Prop42
 90
       50
102
RTVSPost2010PropOp42
 70
     1
102
RTVSPost2010Prop43
 90
        3
102
RTVSPost2010PropOp43
 70
     1
102
RTVSPost2010Prop44ColorIndex
 90
        5
102
RTVSPost2010Prop44ColorRGB
 90
      255
102
RTVSPost2010PropOp44
 70
     1
102
RTVSPost2010Prop45
280
     0
102
RTVSPost2010PropOp45
 70
     1
102
RTVSPost2010Prop46
 90
       50
102
RTVSPost2010PropOp46
 70
     1
102
RTVSPost2010Prop47
 90
       50
102
RTVSPost2010PropOp47
 70
     1
102
RTVSPost2010Prop48
 90
       50
102
RTVSPost2010PropOp48
 70
     1
102
RTVSPost2010Prop49
280
     0
102
RTVSPost2010PropOp49
 70
     1
102
RTVSPost2010Prop50
 90
       50
102
RTVSPost2010PropOp50
 70
     1
102
RTVSPost2010Prop51ColorIndex
 90
      256
102
RTVSPost2010Prop51ColorRGB
 90
-16777216
102
RTVSPost2010PropOp51
 70
     0
102
RTVSPost2010Prop52
140
1.0
102
RTVSPost2010PropOp52
 70
     0
102
RTVSPost2010Prop53
 90
        2
102
RTVSPost2010PropOp53
 70
     1
102
RTVSPost2010Prop54
  1
strokes_ogs.tif
102
RTVSPost2010PropOp54
 70
     1
102
RTVSPost2010Prop55
280
     0
102
RTVSPost2010PropOp55
 70
     1
102
RTVSPost2010Prop56
140
1.0
102
RTVSPost2010PropOp56
 70
     1
102
RTVSPost2010Prop57
140
1.0
102
RTVSPost2010PropOp57
 70
     1
102
RTVSPropertyOp0
 70
     1
102
RTVSPropertyOp1
 70
     1
102
RTVSPropertyOp2
 70
     1
102
RTVSPropertyOp3
 70
     1
102
RTVSPropertyOp4
 70
     1
102
RTVSPropertyOp5
 70
     1
102
RTVSPropertyOp6
 70
     1
102
RTVSPropertyOp7
 70
     1
102
RTVSPropertyOp8
 70
     1
102
RTVSPropertyOp9
 70
     1
102
RTVSPropertyOp10
 70
     1
102
RTVSPropertyOp11
 70
     1
102
RTVSPropertyOp12
 70
     1
102
RTVSPropertyOp13
 70
     1
102
RTVSPropertyOp14
 70
     1
102
RTVSPropertyOp15
 70
     1
102
RTVSPropertyOp16
 70
     1
102
RTVSPropertyOp17
 70
     1
102
RTVSPropertyOp18
 70
     1
102
RTVSPropertyOp19
 70
     1
102
RTVSPropertyOp20
 70
     1
102
RTVSPropertyOp21
 70
     1
102
RTVSPropertyOp22
 70
     1
102
RTVSPropertyOp23
 70
     1
102
RTVSPropertyOp24
 70
     1
102
RTVSPropertyOp25
 70
     1
102
RTVSPropertyOp26
 70
     1
102
RTVSPropertyOp27
 70
     1
102
RTVSPropertyOp28
 70
     1
102
RTVSPropertyOp29
 70
     1
102
RTVSPropertyOp30
 70
     1
102
RTVSPropertyOp31
 70
     1
102
RTVSPropertyOp32
 70
     1
102
RTVSPropertyOp33
 70
     1
102
RTVSPropertyOp34
 70
     1
102
RTVSPropertyOp35
 70
     1
102
RTVSPropertyOp36
 70
     1
102
RTVSPropertyOp37
 70
     1
102
RTVSPropertyOp38
 70
     1
102
RTVSPropertyOp39
 70
     1
102
RTVSPropertyOp40
 70
     1
102
RTVSPropertyOp41
 70
     1
102
RTVSPropertyOp42
 70
     1
102
RTVSPropertyOp43
 70
     1
102
RTVSPropertyOp44
 70
     1
102
RTVSPropertyOp45
 70
     1
102
RTVSPropertyOp46
 70
     1
102
RTVSPropertyOp47
 70
     1
102
RTVSPropertyOp48
 70
     1
102
RTVSPropertyOp49
 70
     1
102
RTVSPropertyOp50
 70
     1
102
RTVSPropertyOp51
 70
     0
102
RTVSPropertyOp52
 70
     0
102
RTVSPropertyOp53
 70
     1
102
RTVSPropertyOp54
 70
     1
102
RTVSPropertyOp55
 70
     1
102
RTVSPropertyOp56
 70
     1
102
RTVSPropertyOp57
 70
     1
102
RTVSPropertyOp58
 70
     1
102
RTVSPropertyOp59
 70
     1
102
RTVSPropertyOp60
 70
     1
102
RTVSPropertyOp61
 70
     1
102
RTVSPropertyOp62
 70
     1
  0
XRECORD
  5
5FE
102
{ACAD_REACTORS
330
5FD
102
}
330
5FD
100
AcDbXrecord
280
     1
102
RTVSPost2010Prop28
280
     0
102
RTVSPost2010PropOp28
 70
     1
102
RTVSPost2010Prop29
280
     1
102
RTVSPost2010PropOp29
 70
     1
102
RTVSPost2010Prop30
280
     1
102
RTVSPost2010PropOp30
 70
     1
102
RTVSPost2010Prop31
280
     0
102
RTVSPost2010PropOp31
 70
     1
102
RTVSPost2010Prop32
280
     0
102
RTVSPost2010PropOp32
 70
     1
102
RTVSPost2010Prop33
280
     0
102
RTVSPost2010PropOp33
 70
     1
102
RTVSPost2010Prop34
280
     0
102
RTVSPost2010PropOp34
 70
     1
102
RTVSPost2010Prop35
280
     0
102
RTVSPost2010PropOp35
 70
     1
102
RTVSPost2010Prop36
280
     0
102
RTVSPost2010PropOp36
 70
     1
102
RTVSPost2010Prop37
 90
       50
102
RTVSPost2010PropOp37
 70
     1
102
RTVSPost2010Prop38
140
0.0
102
RTVSPost2010PropOp38
 70
     1
102
RTVSPost2010Prop39
140
1.0
102
RTVSPost2010PropOp39
 70
     1
102
RTVSPost2010Prop40
 90
        0
102
RTVSPost2010PropOp40
 70
     1
102
RTVSPost2010Prop41ColorIndex
 90
       18
102
RTVSPost2010Prop41ColorRGB
 90
        0
102
RTVSPost2010PropOp41
 70
     1
102
RTVSPost2010Prop42
 90
       50
102
RTVSPost2010PropOp42
 70
     1
102
RTVSPost2010Prop43
 90
        3
102
RTVSPost2010PropOp43
 70
     1
102
RTVSPost2010Prop44ColorIndex
 90
        5
102
RTVSPost2010Prop44ColorRGB
 90
      255
102
RTVSPost2010PropOp44
 70
     1
102
RTVSPost2010Prop45
280
     0
102
RTVSPost2010PropOp45
 70
     1
102
RTVSPost2010Prop46
 90
       50
102
RTVSPost2010PropOp46
 70
     1
102
RTVSPost2010Prop47
 90
       50
102
RTVSPost2010PropOp47
 70
     1
102
RTVSPost2010Prop48
 90
       50
102
RTVSPost2010PropOp48
 70
     1
102
RTVSPost2010Prop49
280
     0
102
RTVSPost2010PropOp49
 70
     1
102
RTVSPost2010Prop50
 90
       50
102
RTVSPost2010PropOp50
 70
     1
102
RTVSPost2010Prop51ColorIndex
 90
      256
102
RTVSPost2010Prop51ColorRGB
 90
-16777216
102
RTVSPost2010PropOp51
 70
     0
102
RTVSPost2010Prop52
140
1.0
102
RTVSPost2010PropOp52
 70
     0
102
RTVSPost2010Prop53
 90
        2
102
RTVSPost2010PropOp53
 70
     1
102
RTVSPost2010Prop54
  1
strokes_ogs.tif
102
RTVSPost2010PropOp54
 70
     1
102
RTVSPost2010Prop55
280
     0
102
RTVSPost2010PropOp55
 70
     1
102
RTVSPost2010Prop56
140
1.0
102
RTVSPost2010PropOp56
 70
     1
102
RTVSPost2010Prop57
140
1.0
102
RTVSPost2010PropOp57
 70
     1
102
RTVSPropertyOp0
 70
     1
102
RTVSPropertyOp1
 70
     1
102
RTVSPropertyOp2
 70
     1
102
RTVSPropertyOp3
 70
     1
102
RTVSPropertyOp4
 70
     1
102
RTVSPropertyOp5
 70
     1
102
RTVSPropertyOp6
 70
     1
102
RTVSPropertyOp7
 70
     1
102
RTVSPropertyOp8
 70
     1
102
RTVSPropertyOp9
 70
     1
102
RTVSPropertyOp10
 70
     1
102
RTVSPropertyOp11
 70
     1
102
RTVSPropertyOp12
 70
     1
102
RTVSPropertyOp13
 70
     1
102
RTVSPropertyOp14
 70
     1
102
RTVSPropertyOp15
 70
     1
102
RTVSPropertyOp16
 70
     1
102
RTVSPropertyOp17
 70
     1
102
RTVSPropertyOp18
 70
     1
102
RTVSPropertyOp19
 70
     1
102
RTVSPropertyOp20
 70
     1
102
RTVSPropertyOp21
 70
     1
102
RTVSPropertyOp22
 70
     1
102
RTVSPropertyOp23
 70
     1
102
RTVSPropertyOp24
 70
     1
102
RTVSPropertyOp25
 70
     1
102
RTVSPropertyOp26
 70
     1
102
RTVSPropertyOp27
 70
     1
102
RTVSPropertyOp28
 70
     1
102
RTVSPropertyOp29
 70
     1
102
RTVSPropertyOp30
 70
     1
102
RTVSPropertyOp31
 70
     1
102
RTVSPropertyOp32
 70
     1
102
RTVSPropertyOp33
 70
     1
102
RTVSPropertyOp34
 70
     1
102
RTVSPropertyOp35
 70
     1
102
RTVSPropertyOp36
 70
     1
102
RTVSPropertyOp37
 70
     1
102
RTVSPropertyOp38
 70
     1
102
RTVSPropertyOp39
 70
     1
102
RTVSPropertyOp40
 70
     1
102
RTVSPropertyOp41
 70
     1
102
RTVSPropertyOp42
 70
     1
102
RTVSPropertyOp43
 70
     1
102
RTVSPropertyOp44
 70
     1
102
RTVSPropertyOp45
 70
     1
102
RTVSPropertyOp46
 70
     1
102
RTVSPropertyOp47
 70
     1
102
RTVSPropertyOp48
 70
     1
102
RTVSPropertyOp49
 70
     1
102
RTVSPropertyOp50
 70
     1
102
RTVSPropertyOp51
 70
     0
102
RTVSPropertyOp52
 70
     0
102
RTVSPropertyOp53
 70
     1
102
RTVSPropertyOp54
 70
     1
102
RTVSPropertyOp55
 70
     1
102
RTVSPropertyOp56
 70
     1
102
RTVSPropertyOp57
 70
     1
102
RTVSPropertyOp58
 70
     1
102
RTVSPropertyOp59
 70
     1
102
RTVSPropertyOp60
 70
     1
102
RTVSPropertyOp61
 70
     1
102
RTVSPropertyOp62
 70
     1
  0
XRECORD
  5
618
102
{ACAD_REACTORS
330
617
102
}
330
617
100
AcDbXrecord
280
     1
102
RTVSPost2010Prop28
280
     0
102
RTVSPost2010PropOp28
 70
     0
102
RTVSPost2010Prop29
280
     1
102
RTVSPost2010PropOp29
 70
     0
102
RTVSPost2010Prop30
280
     1
102
RTVSPost2010PropOp30
 70
     0
102
RTVSPost2010Prop31
280
     0
102
RTVSPost2010PropOp31
 70
     0
102
RTVSPost2010Prop32
280
     0
102
RTVSPost2010PropOp32
 70
     0
102
RTVSPost2010Prop33
280
     0
102
RTVSPost2010PropOp33
 70
     0
102
RTVSPost2010Prop34
280
     0
102
RTVSPost2010PropOp34
 70
     0
102
RTVSPost2010Prop35
280
     0
102
RTVSPost2010PropOp35
 70
     0
102
RTVSPost2010Prop36
280
     0
102
RTVSPost2010PropOp36
 70
     0
102
RTVSPost2010Prop37
 90
       50
102
RTVSPost2010PropOp37
 70
     0
102
RTVSPost2010Prop38
140
0.0
102
RTVSPost2010PropOp38
 70
     0
102
RTVSPost2010Prop39
140
1.0
102
RTVSPost2010PropOp39
 70
     0
102
RTVSPost2010Prop40
 90
        0
102
RTVSPost2010PropOp40
 70
     0
102
RTVSPost2010Prop41ColorIndex
 90
       18
102
RTVSPost2010Prop41ColorRGB
 90
        0
102
RTVSPost2010PropOp41
 70
     0
102
RTVSPost2010Prop42
 90
       50
102
RTVSPost2010PropOp42
 70
     0
102
RTVSPost2010Prop43
 90
        3
102
RTVSPost2010PropOp43
 70
     0
102
RTVSPost2010Prop44ColorIndex
 90
        5
102
RTVSPost2010Prop44ColorRGB
 90
      255
102
RTVSPost2010PropOp44
 70
     0
102
RTVSPost2010Prop45
280
     0
102
RTVSPost2010PropOp45
 70
     0
102
RTVSPost2010Prop46
 90
       50
102
RTVSPost2010PropOp46
 70
     0
102
RTVSPost2010Prop47
 90
       50
102
RTVSPost2010PropOp47
 70
     0
102
RTVSPost2010Prop48
 90
       50
102
RTVSPost2010PropOp48
 70
     0
102
RTVSPost2010Prop49
280
     0
102
RTVSPost2010PropOp49
 70
     0
102
RTVSPost2010Prop50
 90
       50
102
RTVSPost2010PropOp50
 70
     0
102
RTVSPost2010Prop51ColorIndex
 90
      256
102
RTVSPost2010Prop51ColorRGB
 90
-16777216
102
RTVSPost2010PropOp51
 70
     0
102
RTVSPost2010Prop52
140
1.0
102
RTVSPost2010PropOp52
 70
     0
102
RTVSPost2010Prop53
 90
        2
102
RTVSPost2010PropOp53
 70
     0
102
RTVSPost2010Prop54
  1
strokes_ogs.tif
102
RTVSPost2010PropOp54
 70
     0
102
RTVSPost2010Prop55
280
     0
102
RTVSPost2010PropOp55
 70
     0
102
RTVSPost2010Prop56
140
1.0
102
RTVSPost2010PropOp56
 70
     0
102
RTVSPost2010Prop57
140
1.0
102
RTVSPost2010PropOp57
 70
     0
102
RTVSPropertyOp0
 70
     0
102
RTVSPropertyOp1
 70
     0
102
RTVSPropertyOp2
 70
     0
102
RTVSPropertyOp3
 70
     0
102
RTVSPropertyOp4
 70
     0
102
RTVSPropertyOp5
 70
     0
102
RTVSPropertyOp6
 70
     0
102
RTVSPropertyOp7
 70
     0
102
RTVSPropertyOp8
 70
     0
102
RTVSPropertyOp9
 70
     0
102
RTVSPropertyOp10
 70
     0
102
RTVSPropertyOp11
 70
     0
102
RTVSPropertyOp12
 70
     0
102
RTVSPropertyOp13
 70
     0
102
RTVSPropertyOp14
 70
     2
102
RTVSPropertyOp15
 70
     0
102
RTVSPropertyOp16
 70
     0
102
RTVSPropertyOp17
 70
     0
102
RTVSPropertyOp18
 70
     0
102
RTVSPropertyOp19
 70
     0
102
RTVSPropertyOp20
 70
     0
102
RTVSPropertyOp21
 70
     0
102
RTVSPropertyOp22
 70
     0
102
RTVSPropertyOp23
 70
     0
102
RTVSPropertyOp24
 70
     0
102
RTVSPropertyOp25
 70
     0
102
RTVSPropertyOp26
 70
     0
102
RTVSPropertyOp27
 70
     0
102
RTVSPropertyOp28
 70
     0
102
RTVSPropertyOp29
 70
     0
102
RTVSPropertyOp30
 70
     0
102
RTVSPropertyOp31
 70
     0
102
RTVSPropertyOp32
 70
     0
102
RTVSPropertyOp33
 70
     0
102
RTVSPropertyOp34
 70
     0
102
RTVSPropertyOp35
 70
     0
102
RTVSPropertyOp36
 70
     0
102
RTVSPropertyOp37
 70
     0
102
RTVSPropertyOp38
 70
     0
102
RTVSPropertyOp39
 70
     0
102
RTVSPropertyOp40
 70
     0
102
RTVSPropertyOp41
 70
     0
102
RTVSPropertyOp42
 70
     0
102
RTVSPropertyOp43
 70
     0
102
RTVSPropertyOp44
 70
     0
102
RTVSPropertyOp45
 70
     0
102
RTVSPropertyOp46
 70
     0
102
RTVSPropertyOp47
 70
     0
102
RTVSPropertyOp48
 70
     0
102
RTVSPropertyOp49
 70
     0
102
RTVSPropertyOp50
 70
     0
102
RTVSPropertyOp51
 70
     0
102
RTVSPropertyOp52
 70
     0
102
RTVSPropertyOp53
 70
     0
102
RTVSPropertyOp54
 70
     0
102
RTVSPropertyOp55
 70
     0
102
RTVSPropertyOp56
 70
     0
102
RTVSPropertyOp57
 70
     0
102
RTVSPropertyOp58
 70
     0
102
RTVSPropertyOp59
 70
     0
102
RTVSPropertyOp60
 70
     0
102
RTVSPropertyOp61
 70
     0
102
RTVSPropertyOp62
 70
     0
  0
XRECORD
  5
606
102
{ACAD_REACTORS
330
605
102
}
330
605
100
AcDbXrecord
280
     1
102
RTVSPost2010Prop28
280
     0
102
RTVSPost2010PropOp28
 70
     1
102
RTVSPost2010Prop29
280
     1
102
RTVSPost2010PropOp29
 70
     1
102
RTVSPost2010Prop30
280
     1
102
RTVSPost2010PropOp30
 70
     1
102
RTVSPost2010Prop31
280
     0
102
RTVSPost2010PropOp31
 70
     1
102
RTVSPost2010Prop32
280
     0
102
RTVSPost2010PropOp32
 70
     1
102
RTVSPost2010Prop33
280
     0
102
RTVSPost2010PropOp33
 70
     1
102
RTVSPost2010Prop34
280
     0
102
RTVSPost2010PropOp34
 70
     1
102
RTVSPost2010Prop35
280
     0
102
RTVSPost2010PropOp35
 70
     1
102
RTVSPost2010Prop36
280
     0
102
RTVSPost2010PropOp36
 70
     1
102
RTVSPost2010Prop37
 90
       50
102
RTVSPost2010PropOp37
 70
     1
102
RTVSPost2010Prop38
140
0.0
102
RTVSPost2010PropOp38
 70
     1
102
RTVSPost2010Prop39
140
1.0
102
RTVSPost2010PropOp39
 70
     1
102
RTVSPost2010Prop40
 90
        0
102
RTVSPost2010PropOp40
 70
     1
102
RTVSPost2010Prop41ColorIndex
 90
       18
102
RTVSPost2010Prop41ColorRGB
 90
        0
102
RTVSPost2010PropOp41
 70
     1
102
RTVSPost2010Prop42
 90
       50
102
RTVSPost2010PropOp42
 70
     1
102
RTVSPost2010Prop43
 90
        3
102
RTVSPost2010PropOp43
 70
     1
102
RTVSPost2010Prop44ColorIndex
 90
        5
102
RTVSPost2010Prop44ColorRGB
 90
      255
102
RTVSPost2010PropOp44
 70
     1
102
RTVSPost2010Prop45
280
     0
102
RTVSPost2010PropOp45
 70
     1
102
RTVSPost2010Prop46
 90
       50
102
RTVSPost2010PropOp46
 70
     1
102
RTVSPost2010Prop47
 90
       50
102
RTVSPost2010PropOp47
 70
     1
102
RTVSPost2010Prop48
 90
       50
102
RTVSPost2010PropOp48
 70
     1
102
RTVSPost2010Prop49
280
     0
102
RTVSPost2010PropOp49
 70
     1
102
RTVSPost2010Prop50
 90
       50
102
RTVSPost2010PropOp50
 70
     1
102
RTVSPost2010Prop51ColorIndex
 90
      256
102
RTVSPost2010Prop51ColorRGB
 90
-16777216
102
RTVSPost2010PropOp51
 70
     0
102
RTVSPost2010Prop52
140
1.0
102
RTVSPost2010PropOp52
 70
     0
102
RTVSPost2010Prop53
 90
        2
102
RTVSPost2010PropOp53
 70
     1
102
RTVSPost2010Prop54
  1
strokes_ogs.tif
102
RTVSPost2010PropOp54
 70
     1
102
RTVSPost2010Prop55
280
     0
102
RTVSPost2010PropOp55
 70
     1
102
RTVSPost2010Prop56
140
1.0
102
RTVSPost2010PropOp56
 70
     1
102
RTVSPost2010Prop57
140
1.0
102
RTVSPost2010PropOp57
 70
     1
102
RTVSPropertyOp0
 70
     1
102
RTVSPropertyOp1
 70
     1
102
RTVSPropertyOp2
 70
     1
102
RTVSPropertyOp3
 70
     1
102
RTVSPropertyOp4
 70
     1
102
RTVSPropertyOp5
 70
     1
102
RTVSPropertyOp6
 70
     1
102
RTVSPropertyOp7
 70
     1
102
RTVSPropertyOp8
 70
     1
102
RTVSPropertyOp9
 70
     1
102
RTVSPropertyOp10
 70
     1
102
RTVSPropertyOp11
 70
     1
102
RTVSPropertyOp12
 70
     1
102
RTVSPropertyOp13
 70
     1
102
RTVSPropertyOp14
 70
     1
102
RTVSPropertyOp15
 70
     1
102
RTVSPropertyOp16
 70
     1
102
RTVSPropertyOp17
 70
     1
102
RTVSPropertyOp18
 70
     1
102
RTVSPropertyOp19
 70
     1
102
RTVSPropertyOp20
 70
     1
102
RTVSPropertyOp21
 70
     1
102
RTVSPropertyOp22
 70
     1
102
RTVSPropertyOp23
 70
     1
102
RTVSPropertyOp24
 70
     1
102
RTVSPropertyOp25
 70
     1
102
RTVSPropertyOp26
 70
     1
102
RTVSPropertyOp27
 70
     1
102
RTVSPropertyOp28
 70
     1
102
RTVSPropertyOp29
 70
     1
102
RTVSPropertyOp30
 70
     1
102
RTVSPropertyOp31
 70
     1
102
RTVSPropertyOp32
 70
     1
102
RTVSPropertyOp33
 70
     1
102
RTVSPropertyOp34
 70
     1
102
RTVSPropertyOp35
 70
     1
102
RTVSPropertyOp36
 70
     1
102
RTVSPropertyOp37
 70
     1
102
RTVSPropertyOp38
 70
     1
102
RTVSPropertyOp39
 70
     1
102
RTVSPropertyOp40
 70
     1
102
RTVSPropertyOp41
 70
     1
102
RTVSPropertyOp42
 70
     1
102
RTVSPropertyOp43
 70
     1
102
RTVSPropertyOp44
 70
     1
102
RTVSPropertyOp45
 70
     1
102
RTVSPropertyOp46
 70
     1
102
RTVSPropertyOp47
 70
     1
102
RTVSPropertyOp48
 70
     1
102
RTVSPropertyOp49
 70
     1
102
RTVSPropertyOp50
 70
     1
102
RTVSPropertyOp51
 70
     0
102
RTVSPropertyOp52
 70
     0
102
RTVSPropertyOp53
 70
     1
102
RTVSPropertyOp54
 70
     1
102
RTVSPropertyOp55
 70
     1
102
RTVSPropertyOp56
 70
     1
102
RTVSPropertyOp57
 70
     1
102
RTVSPropertyOp58
 70
     1
102
RTVSPropertyOp59
 70
     1
102
RTVSPropertyOp60
 70
     1
102
RTVSPropertyOp61
 70
     1
102
RTVSPropertyOp62
 70
     1
  0
XRECORD
  5
5EA
102
{ACAD_REACTORS
330
5E9
102
}
330
5E9
100
AcDbXrecord
280
     1
102
RTVSPost2010Prop28
280
     0
102
RTVSPost2010PropOp28
 70
     1
102
RTVSPost2010Prop29
280
     1
102
RTVSPost2010PropOp29
 70
     1
102
RTVSPost2010Prop30
280
     1
102
RTVSPost2010PropOp30
 70
     1
102
RTVSPost2010Prop31
280
     0
102
RTVSPost2010PropOp31
 70
     1
102
RTVSPost2010Prop32
280
     0
102
RTVSPost2010PropOp32
 70
     1
102
RTVSPost2010Prop33
280
     0
102
RTVSPost2010PropOp33
 70
     1
102
RTVSPost2010Prop34
280
     0
102
RTVSPost2010PropOp34
 70
     1
102
RTVSPost2010Prop35
280
     0
102
RTVSPost2010PropOp35
 70
     1
102
RTVSPost2010Prop36
280
     0
102
RTVSPost2010PropOp36
 70
     1
102
RTVSPost2010Prop37
 90
       50
102
RTVSPost2010PropOp37
 70
     1
102
RTVSPost2010Prop38
140
0.0
102
RTVSPost2010PropOp38
 70
     1
102
RTVSPost2010Prop39
140
1.0
102
RTVSPost2010PropOp39
 70
     1
102
RTVSPost2010Prop40
 90
        0
102
RTVSPost2010PropOp40
 70
     1
102
RTVSPost2010Prop41ColorIndex
 90
       18
102
RTVSPost2010Prop41ColorRGB
 90
        0
102
RTVSPost2010PropOp41
 70
     1
102
RTVSPost2010Prop42
 90
       50
102
RTVSPost2010PropOp42
 70
     1
102
RTVSPost2010Prop43
 90
        3
102
RTVSPost2010PropOp43
 70
     1
102
RTVSPost2010Prop44ColorIndex
 90
        5
102
RTVSPost2010Prop44ColorRGB
 90
      255
102
RTVSPost2010PropOp44
 70
     1
102
RTVSPost2010Prop45
280
     0
102
RTVSPost2010PropOp45
 70
     1
102
RTVSPost2010Prop46
 90
       50
102
RTVSPost2010PropOp46
 70
     1
102
RTVSPost2010Prop47
 90
       50
102
RTVSPost2010PropOp47
 70
     1
102
RTVSPost2010Prop48
 90
       50
102
RTVSPost2010PropOp48
 70
     1
102
RTVSPost2010Prop49
280
     0
102
RTVSPost2010PropOp49
 70
     1
102
RTVSPost2010Prop50
 90
       50
102
RTVSPost2010PropOp50
 70
     1
102
RTVSPost2010Prop51ColorIndex
 90
      256
102
RTVSPost2010Prop51ColorRGB
 90
-16777216
102
RTVSPost2010PropOp51
 70
     0
102
RTVSPost2010Prop52
140
1.0
102
RTVSPost2010PropOp52
 70
     0
102
RTVSPost2010Prop53
 90
        2
102
RTVSPost2010PropOp53
 70
     1
102
RTVSPost2010Prop54
  1
strokes_ogs.tif
102
RTVSPost2010PropOp54
 70
     1
102
RTVSPost2010Prop55
280
     0
102
RTVSPost2010PropOp55
 70
     1
102
RTVSPost2010Prop56
140
1.0
102
RTVSPost2010PropOp56
 70
     1
102
RTVSPost2010Prop57
140
1.0
102
RTVSPost2010PropOp57
 70
     1
102
RTVSPropertyOp0
 70
     1
102
RTVSPropertyOp1
 70
     1
102
RTVSPropertyOp2
 70
     1
102
RTVSPropertyOp3
 70
     1
102
RTVSPropertyOp4
 70
     1
102
RTVSPropertyOp5
 70
     1
102
RTVSPropertyOp6
 70
     1
102
RTVSPropertyOp7
 70
     1
102
RTVSPropertyOp8
 70
     1
102
RTVSPropertyOp9
 70
     1
102
RTVSPropertyOp10
 70
     1
102
RTVSPropertyOp11
 70
     1
102
RTVSPropertyOp12
 70
     1
102
RTVSPropertyOp13
 70
     1
102
RTVSPropertyOp14
 70
     1
102
RTVSPropertyOp15
 70
     1
102
RTVSPropertyOp16
 70
     1
102
RTVSPropertyOp17
 70
     1
102
RTVSPropertyOp18
 70
     1
102
RTVSPropertyOp19
 70
     1
102
RTVSPropertyOp20
 70
     1
102
RTVSPropertyOp21
 70
     1
102
RTVSPropertyOp22
 70
     1
102
RTVSPropertyOp23
 70
     1
102
RTVSPropertyOp24
 70
     1
102
RTVSPropertyOp25
 70
     1
102
RTVSPropertyOp26
 70
     1
102
RTVSPropertyOp27
 70
     1
102
RTVSPropertyOp28
 70
     1
102
RTVSPropertyOp29
 70
     1
102
RTVSPropertyOp30
 70
     1
102
RTVSPropertyOp31
 70
     1
102
RTVSPropertyOp32
 70
     1
102
RTVSPropertyOp33
 70
     1
102
RTVSPropertyOp34
 70
     1
102
RTVSPropertyOp35
 70
     1
102
RTVSPropertyOp36
 70
     1
102
RTVSPropertyOp37
 70
     1
102
RTVSPropertyOp38
 70
     1
102
RTVSPropertyOp39
 70
     1
102
RTVSPropertyOp40
 70
     1
102
RTVSPropertyOp41
 70
     1
102
RTVSPropertyOp42
 70
     1
102
RTVSPropertyOp43
 70
     1
102
RTVSPropertyOp44
 70
     1
102
RTVSPropertyOp45
 70
     1
102
RTVSPropertyOp46
 70
     1
102
RTVSPropertyOp47
 70
     1
102
RTVSPropertyOp48
 70
     1
102
RTVSPropertyOp49
 70
     1
102
RTVSPropertyOp50
 70
     1
102
RTVSPropertyOp51
 70
     0
102
RTVSPropertyOp52
 70
     0
102
RTVSPropertyOp53
 70
     1
102
RTVSPropertyOp54
 70
     1
102
RTVSPropertyOp55
 70
     1
102
RTVSPropertyOp56
 70
     1
102
RTVSPropertyOp57
 70
     1
102
RTVSPropertyOp58
 70
     1
102
RTVSPropertyOp59
 70
     1
102
RTVSPropertyOp60
 70
     1
102
RTVSPropertyOp61
 70
     1
102
RTVSPropertyOp62
 70
     1
  0
XRECORD
  5
5EC
102
{ACAD_REACTORS
330
5EB
102
}
330
5EB
100
AcDbXrecord
280
     1
102
RTVSPost2010Prop28
280
     0
102
RTVSPost2010PropOp28
 70
     1
102
RTVSPost2010Prop29
280
     1
102
RTVSPost2010PropOp29
 70
     1
102
RTVSPost2010Prop30
280
     1
102
RTVSPost2010PropOp30
 70
     1
102
RTVSPost2010Prop31
280
     0
102
RTVSPost2010PropOp31
 70
     1
102
RTVSPost2010Prop32
280
     0
102
RTVSPost2010PropOp32
 70
     1
102
RTVSPost2010Prop33
280
     0
102
RTVSPost2010PropOp33
 70
     1
102
RTVSPost2010Prop34
280
     0
102
RTVSPost2010PropOp34
 70
     1
102
RTVSPost2010Prop35
280
     0
102
RTVSPost2010PropOp35
 70
     1
102
RTVSPost2010Prop36
280
     0
102
RTVSPost2010PropOp36
 70
     1
102
RTVSPost2010Prop37
 90
       50
102
RTVSPost2010PropOp37
 70
     1
102
RTVSPost2010Prop38
140
0.0
102
RTVSPost2010PropOp38
 70
     1
102
RTVSPost2010Prop39
140
1.0
102
RTVSPost2010PropOp39
 70
     1
102
RTVSPost2010Prop40
 90
        0
102
RTVSPost2010PropOp40
 70
     1
102
RTVSPost2010Prop41ColorIndex
 90
       18
102
RTVSPost2010Prop41ColorRGB
 90
        0
102
RTVSPost2010PropOp41
 70
     1
102
RTVSPost2010Prop42
 90
       50
102
RTVSPost2010PropOp42
 70
     1
102
RTVSPost2010Prop43
 90
        3
102
RTVSPost2010PropOp43
 70
     1
102
RTVSPost2010Prop44ColorIndex
 90
        5
102
RTVSPost2010Prop44ColorRGB
 90
      255
102
RTVSPost2010PropOp44
 70
     1
102
RTVSPost2010Prop45
280
     0
102
RTVSPost2010PropOp45
 70
     1
102
RTVSPost2010Prop46
 90
       50
102
RTVSPost2010PropOp46
 70
     1
102
RTVSPost2010Prop47
 90
       50
102
RTVSPost2010PropOp47
 70
     1
102
RTVSPost2010Prop48
 90
       50
102
RTVSPost2010PropOp48
 70
     1
102
RTVSPost2010Prop49
280
     0
102
RTVSPost2010PropOp49
 70
     1
102
RTVSPost2010Prop50
 90
       50
102
RTVSPost2010PropOp50
 70
     1
102
RTVSPost2010Prop51ColorIndex
 90
      256
102
RTVSPost2010Prop51ColorRGB
 90
-16777216
102
RTVSPost2010PropOp51
 70
     0
102
RTVSPost2010Prop52
140
1.0
102
RTVSPost2010PropOp52
 70
     0
102
RTVSPost2010Prop53
 90
        2
102
RTVSPost2010PropOp53
 70
     1
102
RTVSPost2010Prop54
  1
strokes_ogs.tif
102
RTVSPost2010PropOp54
 70
     1
102
RTVSPost2010Prop55
280
     0
102
RTVSPost2010PropOp55
 70
     1
102
RTVSPost2010Prop56
140
1.0
102
RTVSPost2010PropOp56
 70
     1
102
RTVSPost2010Prop57
140
1.0
102
RTVSPost2010PropOp57
 70
     1
102
RTVSPropertyOp0
 70
     1
102
RTVSPropertyOp1
 70
     1
102
RTVSPropertyOp2
 70
     1
102
RTVSPropertyOp3
 70
     1
102
RTVSPropertyOp4
 70
     1
102
RTVSPropertyOp5
 70
     1
102
RTVSPropertyOp6
 70
     1
102
RTVSPropertyOp7
 70
     1
102
RTVSPropertyOp8
 70
     1
102
RTVSPropertyOp9
 70
     1
102
RTVSPropertyOp10
 70
     1
102
RTVSPropertyOp11
 70
     1
102
RTVSPropertyOp12
 70
     1
102
RTVSPropertyOp13
 70
     1
102
RTVSPropertyOp14
 70
     1
102
RTVSPropertyOp15
 70
     1
102
RTVSPropertyOp16
 70
     1
102
RTVSPropertyOp17
 70
     1
102
RTVSPropertyOp18
 70
     1
102
RTVSPropertyOp19
 70
     1
102
RTVSPropertyOp20
 70
     1
102
RTVSPropertyOp21
 70
     1
102
RTVSPropertyOp22
 70
     1
102
RTVSPropertyOp23
 70
     1
102
RTVSPropertyOp24
 70
     1
102
RTVSPropertyOp25
 70
     1
102
RTVSPropertyOp26
 70
     1
102
RTVSPropertyOp27
 70
     1
102
RTVSPropertyOp28
 70
     1
102
RTVSPropertyOp29
 70
     1
102
RTVSPropertyOp30
 70
     1
102
RTVSPropertyOp31
 70
     1
102
RTVSPropertyOp32
 70
     1
102
RTVSPropertyOp33
 70
     1
102
RTVSPropertyOp34
 70
     1
102
RTVSPropertyOp35
 70
     1
102
RTVSPropertyOp36
 70
     1
102
RTVSPropertyOp37
 70
     1
102
RTVSPropertyOp38
 70
     1
102
RTVSPropertyOp39
 70
     1
102
RTVSPropertyOp40
 70
     1
102
RTVSPropertyOp41
 70
     1
102
RTVSPropertyOp42
 70
     1
102
RTVSPropertyOp43
 70
     1
102
RTVSPropertyOp44
 70
     1
102
RTVSPropertyOp45
 70
     1
102
RTVSPropertyOp46
 70
     1
102
RTVSPropertyOp47
 70
     1
102
RTVSPropertyOp48
 70
     1
102
RTVSPropertyOp49
 70
     1
102
RTVSPropertyOp50
 70
     1
102
RTVSPropertyOp51
 70
     0
102
RTVSPropertyOp52
 70
     0
102
RTVSPropertyOp53
 70
     1
102
RTVSPropertyOp54
 70
     1
102
RTVSPropertyOp55
 70
     1
102
RTVSPropertyOp56
 70
     1
102
RTVSPropertyOp57
 70
     1
102
RTVSPropertyOp58
 70
     1
102
RTVSPropertyOp59
 70
     1
102
RTVSPropertyOp60
 70
     1
102
RTVSPropertyOp61
 70
     1
102
RTVSPropertyOp62
 70
     1
  0
XRECORD
  5
5EE
102
{ACAD_REACTORS
330
5ED
102
}
330
5ED
100
AcDbXrecord
280
     1
102
RTVSPost2010Prop28
280
     0
102
RTVSPost2010PropOp28
 70
     1
102
RTVSPost2010Prop29
280
     1
102
RTVSPost2010PropOp29
 70
     1
102
RTVSPost2010Prop30
280
     1
102
RTVSPost2010PropOp30
 70
     1
102
RTVSPost2010Prop31
280
     0
102
RTVSPost2010PropOp31
 70
     1
102
RTVSPost2010Prop32
280
     0
102
RTVSPost2010PropOp32
 70
     1
102
RTVSPost2010Prop33
280
     0
102
RTVSPost2010PropOp33
 70
     1
102
RTVSPost2010Prop34
280
     0
102
RTVSPost2010PropOp34
 70
     1
102
RTVSPost2010Prop35
280
     0
102
RTVSPost2010PropOp35
 70
     1
102
RTVSPost2010Prop36
280
     0
102
RTVSPost2010PropOp36
 70
     1
102
RTVSPost2010Prop37
 90
       50
102
RTVSPost2010PropOp37
 70
     1
102
RTVSPost2010Prop38
140
0.0
102
RTVSPost2010PropOp38
 70
     1
102
RTVSPost2010Prop39
140
1.0
102
RTVSPost2010PropOp39
 70
     1
102
RTVSPost2010Prop40
 90
        0
102
RTVSPost2010PropOp40
 70
     1
102
RTVSPost2010Prop41ColorIndex
 90
       18
102
RTVSPost2010Prop41ColorRGB
 90
        0
102
RTVSPost2010PropOp41
 70
     1
102
RTVSPost2010Prop42
 90
       50
102
RTVSPost2010PropOp42
 70
     1
102
RTVSPost2010Prop43
 90
        3
102
RTVSPost2010PropOp43
 70
     1
102
RTVSPost2010Prop44ColorIndex
 90
        5
102
RTVSPost2010Prop44ColorRGB
 90
      255
102
RTVSPost2010PropOp44
 70
     1
102
RTVSPost2010Prop45
280
     0
102
RTVSPost2010PropOp45
 70
     1
102
RTVSPost2010Prop46
 90
       50
102
RTVSPost2010PropOp46
 70
     1
102
RTVSPost2010Prop47
 90
       50
102
RTVSPost2010PropOp47
 70
     1
102
RTVSPost2010Prop48
 90
       50
102
RTVSPost2010PropOp48
 70
     1
102
RTVSPost2010Prop49
280
     0
102
RTVSPost2010PropOp49
 70
     1
102
RTVSPost2010Prop50
 90
       50
102
RTVSPost2010PropOp50
 70
     1
102
RTVSPost2010Prop51ColorIndex
 90
      256
102
RTVSPost2010Prop51ColorRGB
 90
-16777216
102
RTVSPost2010PropOp51
 70
     0
102
RTVSPost2010Prop52
140
1.0
102
RTVSPost2010PropOp52
 70
     0
102
RTVSPost2010Prop53
 90
        2
102
RTVSPost2010PropOp53
 70
     1
102
RTVSPost2010Prop54
  1
strokes_ogs.tif
102
RTVSPost2010PropOp54
 70
     1
102
RTVSPost2010Prop55
280
     0
102
RTVSPost2010PropOp55
 70
     1
102
RTVSPost2010Prop56
140
1.0
102
RTVSPost2010PropOp56
 70
     1
102
RTVSPost2010Prop57
140
1.0
102
RTVSPost2010PropOp57
 70
     1
102
RTVSPropertyOp0
 70
     1
102
RTVSPropertyOp1
 70
     1
102
RTVSPropertyOp2
 70
     1
102
RTVSPropertyOp3
 70
     1
102
RTVSPropertyOp4
 70
     1
102
RTVSPropertyOp5
 70
     1
102
RTVSPropertyOp6
 70
     1
102
RTVSPropertyOp7
 70
     1
102
RTVSPropertyOp8
 70
     1
102
RTVSPropertyOp9
 70
     1
102
RTVSPropertyOp10
 70
     1
102
RTVSPropertyOp11
 70
     1
102
RTVSPropertyOp12
 70
     1
102
RTVSPropertyOp13
 70
     1
102
RTVSPropertyOp14
 70
     1
102
RTVSPropertyOp15
 70
     1
102
RTVSPropertyOp16
 70
     1
102
RTVSPropertyOp17
 70
     1
102
RTVSPropertyOp18
 70
     1
102
RTVSPropertyOp19
 70
     1
102
RTVSPropertyOp20
 70
     1
102
RTVSPropertyOp21
 70
     1
102
RTVSPropertyOp22
 70
     1
102
RTVSPropertyOp23
 70
     1
102
RTVSPropertyOp24
 70
     1
102
RTVSPropertyOp25
 70
     1
102
RTVSPropertyOp26
 70
     1
102
RTVSPropertyOp27
 70
     1
102
RTVSPropertyOp28
 70
     1
102
RTVSPropertyOp29
 70
     1
102
RTVSPropertyOp30
 70
     1
102
RTVSPropertyOp31
 70
     1
102
RTVSPropertyOp32
 70
     1
102
RTVSPropertyOp33
 70
     1
102
RTVSPropertyOp34
 70
     1
102
RTVSPropertyOp35
 70
     1
102
RTVSPropertyOp36
 70
     1
102
RTVSPropertyOp37
 70
     1
102
RTVSPropertyOp38
 70
     1
102
RTVSPropertyOp39
 70
     1
102
RTVSPropertyOp40
 70
     1
102
RTVSPropertyOp41
 70
     1
102
RTVSPropertyOp42
 70
     1
102
RTVSPropertyOp43
 70
     1
102
RTVSPropertyOp44
 70
     1
102
RTVSPropertyOp45
 70
     1
102
RTVSPropertyOp46
 70
     1
102
RTVSPropertyOp47
 70
     1
102
RTVSPropertyOp48
 70
     1
102
RTVSPropertyOp49
 70
     1
102
RTVSPropertyOp50
 70
     1
102
RTVSPropertyOp51
 70
     0
102
RTVSPropertyOp52
 70
     0
102
RTVSPropertyOp53
 70
     1
102
RTVSPropertyOp54
 70
     1
102
RTVSPropertyOp55
 70
     1
102
RTVSPropertyOp56
 70
     1
102
RTVSPropertyOp57
 70
     1
102
RTVSPropertyOp58
 70
     1
102
RTVSPropertyOp59
 70
     1
102
RTVSPropertyOp60
 70
     1
102
RTVSPropertyOp61
 70
     1
102
RTVSPropertyOp62
 70
     1
  0
XRECORD
  5
5F0
102
{ACAD_REACTORS
330
5EF
102
}
330
5EF
100
AcDbXrecord
280
     1
102
RTVSPost2010Prop28
280
     0
102
RTVSPost2010PropOp28
 70
     1
102
RTVSPost2010Prop29
280
     1
102
RTVSPost2010PropOp29
 70
     1
102
RTVSPost2010Prop30
280
     1
102
RTVSPost2010PropOp30
 70
     1
102
RTVSPost2010Prop31
280
     0
102
RTVSPost2010PropOp31
 70
     1
102
RTVSPost2010Prop32
280
     0
102
RTVSPost2010PropOp32
 70
     1
102
RTVSPost2010Prop33
280
     0
102
RTVSPost2010PropOp33
 70
     1
102
RTVSPost2010Prop34
280
     0
102
RTVSPost2010PropOp34
 70
     1
102
RTVSPost2010Prop35
280
     0
102
RTVSPost2010PropOp35
 70
     1
102
RTVSPost2010Prop36
280
     0
102
RTVSPost2010PropOp36
 70
     1
102
RTVSPost2010Prop37
 90
       50
102
RTVSPost2010PropOp37
 70
     1
102
RTVSPost2010Prop38
140
0.0
102
RTVSPost2010PropOp38
 70
     1
102
RTVSPost2010Prop39
140
1.0
102
RTVSPost2010PropOp39
 70
     1
102
RTVSPost2010Prop40
 90
        0
102
RTVSPost2010PropOp40
 70
     1
102
RTVSPost2010Prop41ColorIndex
 90
       18
102
RTVSPost2010Prop41ColorRGB
 90
        0
102
RTVSPost2010PropOp41
 70
     1
102
RTVSPost2010Prop42
 90
       50
102
RTVSPost2010PropOp42
 70
     1
102
RTVSPost2010Prop43
 90
        3
102
RTVSPost2010PropOp43
 70
     1
102
RTVSPost2010Prop44ColorIndex
 90
        5
102
RTVSPost2010Prop44ColorRGB
 90
      255
102
RTVSPost2010PropOp44
 70
     1
102
RTVSPost2010Prop45
280
     0
102
RTVSPost2010PropOp45
 70
     1
102
RTVSPost2010Prop46
 90
       50
102
RTVSPost2010PropOp46
 70
     1
102
RTVSPost2010Prop47
 90
       50
102
RTVSPost2010PropOp47
 70
     1
102
RTVSPost2010Prop48
 90
       50
102
RTVSPost2010PropOp48
 70
     1
102
RTVSPost2010Prop49
280
     0
102
RTVSPost2010PropOp49
 70
     1
102
RTVSPost2010Prop50
 90
       50
102
RTVSPost2010PropOp50
 70
     1
102
RTVSPost2010Prop51ColorIndex
 90
      256
102
RTVSPost2010Prop51ColorRGB
 90
-16777216
102
RTVSPost2010PropOp51
 70
     0
102
RTVSPost2010Prop52
140
1.0
102
RTVSPost2010PropOp52
 70
     0
102
RTVSPost2010Prop53
 90
        2
102
RTVSPost2010PropOp53
 70
     1
102
RTVSPost2010Prop54
  1
strokes_ogs.tif
102
RTVSPost2010PropOp54
 70
     1
102
RTVSPost2010Prop55
280
     0
102
RTVSPost2010PropOp55
 70
     1
102
RTVSPost2010Prop56
140
1.0
102
RTVSPost2010PropOp56
 70
     1
102
RTVSPost2010Prop57
140
1.0
102
RTVSPost2010PropOp57
 70
     1
102
RTVSPropertyOp0
 70
     1
102
RTVSPropertyOp1
 70
     1
102
RTVSPropertyOp2
 70
     1
102
RTVSPropertyOp3
 70
     1
102
RTVSPropertyOp4
 70
     1
102
RTVSPropertyOp5
 70
     1
102
RTVSPropertyOp6
 70
     1
102
RTVSPropertyOp7
 70
     1
102
RTVSPropertyOp8
 70
     1
102
RTVSPropertyOp9
 70
     1
102
RTVSPropertyOp10
 70
     1
102
RTVSPropertyOp11
 70
     1
102
RTVSPropertyOp12
 70
     1
102
RTVSPropertyOp13
 70
     1
102
RTVSPropertyOp14
 70
     1
102
RTVSPropertyOp15
 70
     1
102
RTVSPropertyOp16
 70
     1
102
RTVSPropertyOp17
 70
     1
102
RTVSPropertyOp18
 70
     1
102
RTVSPropertyOp19
 70
     1
102
RTVSPropertyOp20
 70
     1
102
RTVSPropertyOp21
 70
     1
102
RTVSPropertyOp22
 70
     1
102
RTVSPropertyOp23
 70
     1
102
RTVSPropertyOp24
 70
     1
102
RTVSPropertyOp25
 70
     1
102
RTVSPropertyOp26
 70
     1
102
RTVSPropertyOp27
 70
     1
102
RTVSPropertyOp28
 70
     1
102
RTVSPropertyOp29
 70
     1
102
RTVSPropertyOp30
 70
     1
102
RTVSPropertyOp31
 70
     1
102
RTVSPropertyOp32
 70
     1
102
RTVSPropertyOp33
 70
     1
102
RTVSPropertyOp34
 70
     1
102
RTVSPropertyOp35
 70
     1
102
RTVSPropertyOp36
 70
     1
102
RTVSPropertyOp37
 70
     1
102
RTVSPropertyOp38
 70
     1
102
RTVSPropertyOp39
 70
     1
102
RTVSPropertyOp40
 70
     1
102
RTVSPropertyOp41
 70
     1
102
RTVSPropertyOp42
 70
     1
102
RTVSPropertyOp43
 70
     1
102
RTVSPropertyOp44
 70
     1
102
RTVSPropertyOp45
 70
     1
102
RTVSPropertyOp46
 70
     1
102
RTVSPropertyOp47
 70
     1
102
RTVSPropertyOp48
 70
     1
102
RTVSPropertyOp49
 70
     1
102
RTVSPropertyOp50
 70
     1
102
RTVSPropertyOp51
 70
     0
102
RTVSPropertyOp52
 70
     0
102
RTVSPropertyOp53
 70
     1
102
RTVSPropertyOp54
 70
     1
102
RTVSPropertyOp55
 70
     1
102
RTVSPropertyOp56
 70
     1
102
RTVSPropertyOp57
 70
     1
102
RTVSPropertyOp58
 70
     1
102
RTVSPropertyOp59
 70
     1
102
RTVSPropertyOp60
 70
     1
102
RTVSPropertyOp61
 70
     1
102
RTVSPropertyOp62
 70
     1
  0
XRECORD
  5
5F8
102
{ACAD_REACTORS
330
5F7
102
}
330
5F7
100
AcDbXrecord
280
     1
102
RTVSPost2010Prop28
280
     0
102
RTVSPost2010PropOp28
 70
     1
102
RTVSPost2010Prop29
280
     1
102
RTVSPost2010PropOp29
 70
     1
102
RTVSPost2010Prop30
280
     1
102
RTVSPost2010PropOp30
 70
     1
102
RTVSPost2010Prop31
280
     0
102
RTVSPost2010PropOp31
 70
     1
102
RTVSPost2010Prop32
280
     0
102
RTVSPost2010PropOp32
 70
     1
102
RTVSPost2010Prop33
280
     0
102
RTVSPost2010PropOp33
 70
     1
102
RTVSPost2010Prop34
280
     0
102
RTVSPost2010PropOp34
 70
     1
102
RTVSPost2010Prop35
280
     0
102
RTVSPost2010PropOp35
 70
     1
102
RTVSPost2010Prop36
280
     0
102
RTVSPost2010PropOp36
 70
     1
102
RTVSPost2010Prop37
 90
       50
102
RTVSPost2010PropOp37
 70
     1
102
RTVSPost2010Prop38
140
0.0
102
RTVSPost2010PropOp38
 70
     1
102
RTVSPost2010Prop39
140
1.0
102
RTVSPost2010PropOp39
 70
     1
102
RTVSPost2010Prop40
 90
        0
102
RTVSPost2010PropOp40
 70
     1
102
RTVSPost2010Prop41ColorIndex
 90
       18
102
RTVSPost2010Prop41ColorRGB
 90
        0
102
RTVSPost2010PropOp41
 70
     1
102
RTVSPost2010Prop42
 90
       50
102
RTVSPost2010PropOp42
 70
     1
102
RTVSPost2010Prop43
 90
        3
102
RTVSPost2010PropOp43
 70
     1
102
RTVSPost2010Prop44ColorIndex
 90
        5
102
RTVSPost2010Prop44ColorRGB
 90
      255
102
RTVSPost2010PropOp44
 70
     1
102
RTVSPost2010Prop45
280
     0
102
RTVSPost2010PropOp45
 70
     1
102
RTVSPost2010Prop46
 90
       50
102
RTVSPost2010PropOp46
 70
     1
102
RTVSPost2010Prop47
 90
       50
102
RTVSPost2010PropOp47
 70
     1
102
RTVSPost2010Prop48
 90
       50
102
RTVSPost2010PropOp48
 70
     1
102
RTVSPost2010Prop49
280
     0
102
RTVSPost2010PropOp49
 70
     1
102
RTVSPost2010Prop50
 90
       50
102
RTVSPost2010PropOp50
 70
     1
102
RTVSPost2010Prop51ColorIndex
 90
      256
102
RTVSPost2010Prop51ColorRGB
 90
-16777216
102
RTVSPost2010PropOp51
 70
     0
102
RTVSPost2010Prop52
140
1.0
102
RTVSPost2010PropOp52
 70
     0
102
RTVSPost2010Prop53
 90
        2
102
RTVSPost2010PropOp53
 70
     1
102
RTVSPost2010Prop54
  1
strokes_ogs.tif
102
RTVSPost2010PropOp54
 70
     1
102
RTVSPost2010Prop55
280
     0
102
RTVSPost2010PropOp55
 70
     1
102
RTVSPost2010Prop56
140
1.0
102
RTVSPost2010PropOp56
 70
     1
102
RTVSPost2010Prop57
140
1.0
102
RTVSPost2010PropOp57
 70
     1
102
RTVSPropertyOp0
 70
     1
102
RTVSPropertyOp1
 70
     1
102
RTVSPropertyOp2
 70
     1
102
RTVSPropertyOp3
 70
     1
102
RTVSPropertyOp4
 70
     1
102
RTVSPropertyOp5
 70
     1
102
RTVSPropertyOp6
 70
     1
102
RTVSPropertyOp7
 70
     1
102
RTVSPropertyOp8
 70
     1
102
RTVSPropertyOp9
 70
     1
102
RTVSPropertyOp10
 70
     1
102
RTVSPropertyOp11
 70
     1
102
RTVSPropertyOp12
 70
     1
102
RTVSPropertyOp13
 70
     1
102
RTVSPropertyOp14
 70
     1
102
RTVSPropertyOp15
 70
     1
102
RTVSPropertyOp16
 70
     1
102
RTVSPropertyOp17
 70
     1
102
RTVSPropertyOp18
 70
     1
102
RTVSPropertyOp19
 70
     1
102
RTVSPropertyOp20
 70
     1
102
RTVSPropertyOp21
 70
     1
102
RTVSPropertyOp22
 70
     1
102
RTVSPropertyOp23
 70
     1
102
RTVSPropertyOp24
 70
     1
102
RTVSPropertyOp25
 70
     1
102
RTVSPropertyOp26
 70
     1
102
RTVSPropertyOp27
 70
     1
102
RTVSPropertyOp28
 70
     1
102
RTVSPropertyOp29
 70
     1
102
RTVSPropertyOp30
 70
     1
102
RTVSPropertyOp31
 70
     1
102
RTVSPropertyOp32
 70
     1
102
RTVSPropertyOp33
 70
     1
102
RTVSPropertyOp34
 70
     1
102
RTVSPropertyOp35
 70
     1
102
RTVSPropertyOp36
 70
     1
102
RTVSPropertyOp37
 70
     1
102
RTVSPropertyOp38
 70
     1
102
RTVSPropertyOp39
 70
     1
102
RTVSPropertyOp40
 70
     1
102
RTVSPropertyOp41
 70
     1
102
RTVSPropertyOp42
 70
     1
102
RTVSPropertyOp43
 70
     1
102
RTVSPropertyOp44
 70
     1
102
RTVSPropertyOp45
 70
     1
102
RTVSPropertyOp46
 70
     1
102
RTVSPropertyOp47
 70
     1
102
RTVSPropertyOp48
 70
     1
102
RTVSPropertyOp49
 70
     1
102
RTVSPropertyOp50
 70
     1
102
RTVSPropertyOp51
 70
     0
102
RTVSPropertyOp52
 70
     0
102
RTVSPropertyOp53
 70
     1
102
RTVSPropertyOp54
 70
     1
102
RTVSPropertyOp55
 70
     1
102
RTVSPropertyOp56
 70
     1
102
RTVSPropertyOp57
 70
     1
102
RTVSPropertyOp58
 70
     1
102
RTVSPropertyOp59
 70
     1
102
RTVSPropertyOp60
 70
     1
102
RTVSPropertyOp61
 70
     1
102
RTVSPropertyOp62
 70
     1
  0
XRECORD
  5
614
102
{ACAD_REACTORS
330
613
102
}
330
613
100
AcDbXrecord
280
     1
102
RTVSPost2010Prop28
280
     0
102
RTVSPost2010PropOp28
 70
     0
102
RTVSPost2010Prop29
280
     1
102
RTVSPost2010PropOp29
 70
     0
102
RTVSPost2010Prop30
280
     1
102
RTVSPost2010PropOp30
 70
     0
102
RTVSPost2010Prop31
280
     0
102
RTVSPost2010PropOp31
 70
     0
102
RTVSPost2010Prop32
280
     0
102
RTVSPost2010PropOp32
 70
     0
102
RTVSPost2010Prop33
280
     0
102
RTVSPost2010PropOp33
 70
     0
102
RTVSPost2010Prop34
280
     0
102
RTVSPost2010PropOp34
 70
     0
102
RTVSPost2010Prop35
280
     0
102
RTVSPost2010PropOp35
 70
     0
102
RTVSPost2010Prop36
280
     0
102
RTVSPost2010PropOp36
 70
     0
102
RTVSPost2010Prop37
 90
       50
102
RTVSPost2010PropOp37
 70
     0
102
RTVSPost2010Prop38
140
0.0
102
RTVSPost2010PropOp38
 70
     0
102
RTVSPost2010Prop39
140
1.0
102
RTVSPost2010PropOp39
 70
     0
102
RTVSPost2010Prop40
 90
        0
102
RTVSPost2010PropOp40
 70
     0
102
RTVSPost2010Prop41ColorIndex
 90
       18
102
RTVSPost2010Prop41ColorRGB
 90
        0
102
RTVSPost2010PropOp41
 70
     0
102
RTVSPost2010Prop42
 90
       50
102
RTVSPost2010PropOp42
 70
     0
102
RTVSPost2010Prop43
 90
        3
102
RTVSPost2010PropOp43
 70
     0
102
RTVSPost2010Prop44ColorIndex
 90
        5
102
RTVSPost2010Prop44ColorRGB
 90
      255
102
RTVSPost2010PropOp44
 70
     0
102
RTVSPost2010Prop45
280
     0
102
RTVSPost2010PropOp45
 70
     0
102
RTVSPost2010Prop46
 90
       50
102
RTVSPost2010PropOp46
 70
     0
102
RTVSPost2010Prop47
 90
       50
102
RTVSPost2010PropOp47
 70
     0
102
RTVSPost2010Prop48
 90
       50
102
RTVSPost2010PropOp48
 70
     0
102
RTVSPost2010Prop49
280
     0
102
RTVSPost2010PropOp49
 70
     0
102
RTVSPost2010Prop50
 90
       50
102
RTVSPost2010PropOp50
 70
     0
102
RTVSPost2010Prop51ColorIndex
 90
      256
102
RTVSPost2010Prop51ColorRGB
 90
-16777216
102
RTVSPost2010PropOp51
 70
     0
102
RTVSPost2010Prop52
140
1.0
102
RTVSPost2010PropOp52
 70
     0
102
RTVSPost2010Prop53
 90
        2
102
RTVSPost2010PropOp53
 70
     0
102
RTVSPost2010Prop54
  1
strokes_ogs.tif
102
RTVSPost2010PropOp54
 70
     0
102
RTVSPost2010Prop55
280
     0
102
RTVSPost2010PropOp55
 70
     0
102
RTVSPost2010Prop56
140
1.0
102
RTVSPost2010PropOp56
 70
     0
102
RTVSPost2010Prop57
140
1.0
102
RTVSPost2010PropOp57
 70
     0
102
RTVSPropertyOp0
 70
     0
102
RTVSPropertyOp1
 70
     0
102
RTVSPropertyOp2
 70
     0
102
RTVSPropertyOp3
 70
     0
102
RTVSPropertyOp4
 70
     0
102
RTVSPropertyOp5
 70
     0
102
RTVSPropertyOp6
 70
     0
102
RTVSPropertyOp7
 70
     0
102
RTVSPropertyOp8
 70
     0
102
RTVSPropertyOp9
 70
     0
102
RTVSPropertyOp10
 70
     0
102
RTVSPropertyOp11
 70
     0
102
RTVSPropertyOp12
 70
     0
102
RTVSPropertyOp13
 70
     0
102
RTVSPropertyOp14
 70
     2
102
RTVSPropertyOp15
 70
     0
102
RTVSPropertyOp16
 70
     0
102
RTVSPropertyOp17
 70
     0
102
RTVSPropertyOp18
 70
     0
102
RTVSPropertyOp19
 70
     0
102
RTVSPropertyOp20
 70
     0
102
RTVSPropertyOp21
 70
     0
102
RTVSPropertyOp22
 70
     0
102
RTVSPropertyOp23
 70
     0
102
RTVSPropertyOp24
 70
     0
102
RTVSPropertyOp25
 70
     0
102
RTVSPropertyOp26
 70
     0
102
RTVSPropertyOp27
 70
     0
102
RTVSPropertyOp28
 70
     0
102
RTVSPropertyOp29
 70
     0
102
RTVSPropertyOp30
 70
     0
102
RTVSPropertyOp31
 70
     0
102
RTVSPropertyOp32
 70
     0
102
RTVSPropertyOp33
 70
     0
102
RTVSPropertyOp34
 70
     0
102
RTVSPropertyOp35
 70
     0
102
RTVSPropertyOp36
 70
     0
102
RTVSPropertyOp37
 70
     0
102
RTVSPropertyOp38
 70
     0
102
RTVSPropertyOp39
 70
     0
102
RTVSPropertyOp40
 70
     0
102
RTVSPropertyOp41
 70
     0
102
RTVSPropertyOp42
 70
     0
102
RTVSPropertyOp43
 70
     0
102
RTVSPropertyOp44
 70
     0
102
RTVSPropertyOp45
 70
     0
102
RTVSPropertyOp46
 70
     0
102
RTVSPropertyOp47
 70
     0
102
RTVSPropertyOp48
 70
     0
102
RTVSPropertyOp49
 70
     0
102
RTVSPropertyOp50
 70
     0
102
RTVSPropertyOp51
 70
     0
102
RTVSPropertyOp52
 70
     0
102
RTVSPropertyOp53
 70
     0
102
RTVSPropertyOp54
 70
     0
102
RTVSPropertyOp55
 70
     0
102
RTVSPropertyOp56
 70
     0
102
RTVSPropertyOp57
 70
     0
102
RTVSPropertyOp58
 70
     0
102
RTVSPropertyOp59
 70
     0
102
RTVSPropertyOp60
 70
     0
102
RTVSPropertyOp61
 70
     0
102
RTVSPropertyOp62
 70
     0
  0
XRECORD
  5
604
102
{ACAD_REACTORS
330
603
102
}
330
603
100
AcDbXrecord
280
     1
102
RTVSPost2010Prop28
280
     0
102
RTVSPost2010PropOp28
 70
     1
102
RTVSPost2010Prop29
280
     1
102
RTVSPost2010PropOp29
 70
     1
102
RTVSPost2010Prop30
280
     1
102
RTVSPost2010PropOp30
 70
     1
102
RTVSPost2010Prop31
280
     0
102
RTVSPost2010PropOp31
 70
     1
102
RTVSPost2010Prop32
280
     0
102
RTVSPost2010PropOp32
 70
     1
102
RTVSPost2010Prop33
280
     0
102
RTVSPost2010PropOp33
 70
     1
102
RTVSPost2010Prop34
280
     0
102
RTVSPost2010PropOp34
 70
     1
102
RTVSPost2010Prop35
280
     0
102
RTVSPost2010PropOp35
 70
     1
102
RTVSPost2010Prop36
280
     0
102
RTVSPost2010PropOp36
 70
     1
102
RTVSPost2010Prop37
 90
       50
102
RTVSPost2010PropOp37
 70
     1
102
RTVSPost2010Prop38
140
0.0
102
RTVSPost2010PropOp38
 70
     1
102
RTVSPost2010Prop39
140
1.0
102
RTVSPost2010PropOp39
 70
     1
102
RTVSPost2010Prop40
 90
        0
102
RTVSPost2010PropOp40
 70
     1
102
RTVSPost2010Prop41ColorIndex
 90
       18
102
RTVSPost2010Prop41ColorRGB
 90
        0
102
RTVSPost2010PropOp41
 70
     1
102
RTVSPost2010Prop42
 90
       50
102
RTVSPost2010PropOp42
 70
     1
102
RTVSPost2010Prop43
 90
        3
102
RTVSPost2010PropOp43
 70
     1
102
RTVSPost2010Prop44ColorIndex
 90
        5
102
RTVSPost2010Prop44ColorRGB
 90
      255
102
RTVSPost2010PropOp44
 70
     1
102
RTVSPost2010Prop45
280
     0
102
RTVSPost2010PropOp45
 70
     1
102
RTVSPost2010Prop46
 90
       50
102
RTVSPost2010PropOp46
 70
     1
102
RTVSPost2010Prop47
 90
       50
102
RTVSPost2010PropOp47
 70
     1
102
RTVSPost2010Prop48
 90
       50
102
RTVSPost2010PropOp48
 70
     1
102
RTVSPost2010Prop49
280
     0
102
RTVSPost2010PropOp49
 70
     1
102
RTVSPost2010Prop50
 90
       50
102
RTVSPost2010PropOp50
 70
     1
102
RTVSPost2010Prop51ColorIndex
 90
      256
102
RTVSPost2010Prop51ColorRGB
 90
-16777216
102
RTVSPost2010PropOp51
 70
     0
102
RTVSPost2010Prop52
140
1.0
102
RTVSPost2010PropOp52
 70
     0
102
RTVSPost2010Prop53
 90
        2
102
RTVSPost2010PropOp53
 70
     1
102
RTVSPost2010Prop54
  1
strokes_ogs.tif
102
RTVSPost2010PropOp54
 70
     1
102
RTVSPost2010Prop55
280
     0
102
RTVSPost2010PropOp55
 70
     1
102
RTVSPost2010Prop56
140
1.0
102
RTVSPost2010PropOp56
 70
     1
102
RTVSPost2010Prop57
140
1.0
102
RTVSPost2010PropOp57
 70
     1
102
RTVSPropertyOp0
 70
     1
102
RTVSPropertyOp1
 70
     1
102
RTVSPropertyOp2
 70
     1
102
RTVSPropertyOp3
 70
     1
102
RTVSPropertyOp4
 70
     1
102
RTVSPropertyOp5
 70
     1
102
RTVSPropertyOp6
 70
     1
102
RTVSPropertyOp7
 70
     1
102
RTVSPropertyOp8
 70
     1
102
RTVSPropertyOp9
 70
     1
102
RTVSPropertyOp10
 70
     1
102
RTVSPropertyOp11
 70
     1
102
RTVSPropertyOp12
 70
     1
102
RTVSPropertyOp13
 70
     1
102
RTVSPropertyOp14
 70
     1
102
RTVSPropertyOp15
 70
     1
102
RTVSPropertyOp16
 70
     1
102
RTVSPropertyOp17
 70
     1
102
RTVSPropertyOp18
 70
     1
102
RTVSPropertyOp19
 70
     1
102
RTVSPropertyOp20
 70
     1
102
RTVSPropertyOp21
 70
     1
102
RTVSPropertyOp22
 70
     1
102
RTVSPropertyOp23
 70
     1
102
RTVSPropertyOp24
 70
     1
102
RTVSPropertyOp25
 70
     1
102
RTVSPropertyOp26
 70
     1
102
RTVSPropertyOp27
 70
     1
102
RTVSPropertyOp28
 70
     1
102
RTVSPropertyOp29
 70
     1
102
RTVSPropertyOp30
 70
     1
102
RTVSPropertyOp31
 70
     1
102
RTVSPropertyOp32
 70
     1
102
RTVSPropertyOp33
 70
     1
102
RTVSPropertyOp34
 70
     1
102
RTVSPropertyOp35
 70
     1
102
RTVSPropertyOp36
 70
     1
102
RTVSPropertyOp37
 70
     1
102
RTVSPropertyOp38
 70
     1
102
RTVSPropertyOp39
 70
     1
102
RTVSPropertyOp40
 70
     1
102
RTVSPropertyOp41
 70
     1
102
RTVSPropertyOp42
 70
     1
102
RTVSPropertyOp43
 70
     1
102
RTVSPropertyOp44
 70
     1
102
RTVSPropertyOp45
 70
     1
102
RTVSPropertyOp46
 70
     1
102
RTVSPropertyOp47
 70
     1
102
RTVSPropertyOp48
 70
     1
102
RTVSPropertyOp49
 70
     1
102
RTVSPropertyOp50
 70
     1
102
RTVSPropertyOp51
 70
     0
102
RTVSPropertyOp52
 70
     0
102
RTVSPropertyOp53
 70
     1
102
RTVSPropertyOp54
 70
     1
102
RTVSPropertyOp55
 70
     1
102
RTVSPropertyOp56
 70
     1
102
RTVSPropertyOp57
 70
     1
102
RTVSPropertyOp58
 70
     1
102
RTVSPropertyOp59
 70
     1
102
RTVSPropertyOp60
 70
     1
102
RTVSPropertyOp61
 70
     1
102
RTVSPropertyOp62
 70
     1
  0
XRECORD
  5
616
102
{ACAD_REACTORS
330
615
102
}
330
615
100
AcDbXrecord
280
     1
102
RTVSPost2010Prop28
280
     0
102
RTVSPost2010PropOp28
 70
     0
102
RTVSPost2010Prop29
280
     1
102
RTVSPost2010PropOp29
 70
     0
102
RTVSPost2010Prop30
280
     1
102
RTVSPost2010PropOp30
 70
     0
102
RTVSPost2010Prop31
280
     0
102
RTVSPost2010PropOp31
 70
     0
102
RTVSPost2010Prop32
280
     0
102
RTVSPost2010PropOp32
 70
     0
102
RTVSPost2010Prop33
280
     0
102
RTVSPost2010PropOp33
 70
     0
102
RTVSPost2010Prop34
280
     0
102
RTVSPost2010PropOp34
 70
     0
102
RTVSPost2010Prop35
280
     0
102
RTVSPost2010PropOp35
 70
     0
102
RTVSPost2010Prop36
280
     0
102
RTVSPost2010PropOp36
 70
     0
102
RTVSPost2010Prop37
 90
       50
102
RTVSPost2010PropOp37
 70
     0
102
RTVSPost2010Prop38
140
0.0
102
RTVSPost2010PropOp38
 70
     0
102
RTVSPost2010Prop39
140
1.0
102
RTVSPost2010PropOp39
 70
     0
102
RTVSPost2010Prop40
 90
        0
102
RTVSPost2010PropOp40
 70
     0
102
RTVSPost2010Prop41ColorIndex
 90
       18
102
RTVSPost2010Prop41ColorRGB
 90
        0
102
RTVSPost2010PropOp41
 70
     0
102
RTVSPost2010Prop42
 90
       50
102
RTVSPost2010PropOp42
 70
     0
102
RTVSPost2010Prop43
 90
        3
102
RTVSPost2010PropOp43
 70
     0
102
RTVSPost2010Prop44ColorIndex
 90
        5
102
RTVSPost2010Prop44ColorRGB
 90
      255
102
RTVSPost2010PropOp44
 70
     0
102
RTVSPost2010Prop45
280
     0
102
RTVSPost2010PropOp45
 70
     0
102
RTVSPost2010Prop46
 90
       50
102
RTVSPost2010PropOp46
 70
     0
102
RTVSPost2010Prop47
 90
       50
102
RTVSPost2010PropOp47
 70
     0
102
RTVSPost2010Prop48
 90
       50
102
RTVSPost2010PropOp48
 70
     0
102
RTVSPost2010Prop49
280
     0
102
RTVSPost2010PropOp49
 70
     0
102
RTVSPost2010Prop50
 90
       50
102
RTVSPost2010PropOp50
 70
     0
102
RTVSPost2010Prop51ColorIndex
 90
      256
102
RTVSPost2010Prop51ColorRGB
 90
-16777216
102
RTVSPost2010PropOp51
 70
     0
102
RTVSPost2010Prop52
140
1.0
102
RTVSPost2010PropOp52
 70
     0
102
RTVSPost2010Prop53
 90
        2
102
RTVSPost2010PropOp53
 70
     0
102
RTVSPost2010Prop54
  1
strokes_ogs.tif
102
RTVSPost2010PropOp54
 70
     0
102
RTVSPost2010Prop55
280
     0
102
RTVSPost2010PropOp55
 70
     0
102
RTVSPost2010Prop56
140
1.0
102
RTVSPost2010PropOp56
 70
     0
102
RTVSPost2010Prop57
140
1.0
102
RTVSPost2010PropOp57
 70
     0
102
RTVSPropertyOp0
 70
     0
102
RTVSPropertyOp1
 70
     0
102
RTVSPropertyOp2
 70
     0
102
RTVSPropertyOp3
 70
     0
102
RTVSPropertyOp4
 70
     0
102
RTVSPropertyOp5
 70
     0
102
RTVSPropertyOp6
 70
     0
102
RTVSPropertyOp7
 70
     0
102
RTVSPropertyOp8
 70
     0
102
RTVSPropertyOp9
 70
     0
102
RTVSPropertyOp10
 70
     0
102
RTVSPropertyOp11
 70
     0
102
RTVSPropertyOp12
 70
     0
102
RTVSPropertyOp13
 70
     0
102
RTVSPropertyOp14
 70
     2
102
RTVSPropertyOp15
 70
     0
102
RTVSPropertyOp16
 70
     0
102
RTVSPropertyOp17
 70
     0
102
RTVSPropertyOp18
 70
     0
102
RTVSPropertyOp19
 70
     0
102
RTVSPropertyOp20
 70
     0
102
RTVSPropertyOp21
 70
     0
102
RTVSPropertyOp22
 70
     0
102
RTVSPropertyOp23
 70
     0
102
RTVSPropertyOp24
 70
     0
102
RTVSPropertyOp25
 70
     0
102
RTVSPropertyOp26
 70
     0
102
RTVSPropertyOp27
 70
     0
102
RTVSPropertyOp28
 70
     0
102
RTVSPropertyOp29
 70
     0
102
RTVSPropertyOp30
 70
     0
102
RTVSPropertyOp31
 70
     0
102
RTVSPropertyOp32
 70
     0
102
RTVSPropertyOp33
 70
     0
102
RTVSPropertyOp34
 70
     0
102
RTVSPropertyOp35
 70
     0
102
RTVSPropertyOp36
 70
     0
102
RTVSPropertyOp37
 70
     0
102
RTVSPropertyOp38
 70
     0
102
RTVSPropertyOp39
 70
     0
102
RTVSPropertyOp40
 70
     0
102
RTVSPropertyOp41
 70
     0
102
RTVSPropertyOp42
 70
     0
102
RTVSPropertyOp43
 70
     0
102
RTVSPropertyOp44
 70
     0
102
RTVSPropertyOp45
 70
     0
102
RTVSPropertyOp46
 70
     0
102
RTVSPropertyOp47
 70
     0
102
RTVSPropertyOp48
 70
     0
102
RTVSPropertyOp49
 70
     0
102
RTVSPropertyOp50
 70
     0
102
RTVSPropertyOp51
 70
     0
102
RTVSPropertyOp52
 70
     0
102
RTVSPropertyOp53
 70
     0
102
RTVSPropertyOp54
 70
     0
102
RTVSPropertyOp55
 70
     0
102
RTVSPropertyOp56
 70
     0
102
RTVSPropertyOp57
 70
     0
102
RTVSPropertyOp58
 70
     0
102
RTVSPropertyOp59
 70
     0
102
RTVSPropertyOp60
 70
     0
102
RTVSPropertyOp61
 70
     0
102
RTVSPropertyOp62
 70
     0
  0
XRECORD
  5
5FC
102
{ACAD_REACTORS
330
5FB
102
}
330
5FB
100
AcDbXrecord
280
     1
102
RTVSPost2010Prop28
280
     0
102
RTVSPost2010PropOp28
 70
     1
102
RTVSPost2010Prop29
280
     1
102
RTVSPost2010PropOp29
 70
     1
102
RTVSPost2010Prop30
280
     1
102
RTVSPost2010PropOp30
 70
     1
102
RTVSPost2010Prop31
280
     0
102
RTVSPost2010PropOp31
 70
     1
102
RTVSPost2010Prop32
280
     0
102
RTVSPost2010PropOp32
 70
     1
102
RTVSPost2010Prop33
280
     0
102
RTVSPost2010PropOp33
 70
     1
102
RTVSPost2010Prop34
280
     0
102
RTVSPost2010PropOp34
 70
     1
102
RTVSPost2010Prop35
280
     0
102
RTVSPost2010PropOp35
 70
     1
102
RTVSPost2010Prop36
280
     0
102
RTVSPost2010PropOp36
 70
     1
102
RTVSPost2010Prop37
 90
       50
102
RTVSPost2010PropOp37
 70
     1
102
RTVSPost2010Prop38
140
0.0
102
RTVSPost2010PropOp38
 70
     1
102
RTVSPost2010Prop39
140
1.0
102
RTVSPost2010PropOp39
 70
     1
102
RTVSPost2010Prop40
 90
        0
102
RTVSPost2010PropOp40
 70
     1
102
RTVSPost2010Prop41ColorIndex
 90
       18
102
RTVSPost2010Prop41ColorRGB
 90
        0
102
RTVSPost2010PropOp41
 70
     1
102
RTVSPost2010Prop42
 90
       50
102
RTVSPost2010PropOp42
 70
     1
102
RTVSPost2010Prop43
 90
        3
102
RTVSPost2010PropOp43
 70
     1
102
RTVSPost2010Prop44ColorIndex
 90
        5
102
RTVSPost2010Prop44ColorRGB
 90
      255
102
RTVSPost2010PropOp44
 70
     1
102
RTVSPost2010Prop45
280
     0
102
RTVSPost2010PropOp45
 70
     1
102
RTVSPost2010Prop46
 90
       50
102
RTVSPost2010PropOp46
 70
     1
102
RTVSPost2010Prop47
 90
       50
102
RTVSPost2010PropOp47
 70
     1
102
RTVSPost2010Prop48
 90
       50
102
RTVSPost2010PropOp48
 70
     1
102
RTVSPost2010Prop49
280
     0
102
RTVSPost2010PropOp49
 70
     1
102
RTVSPost2010Prop50
 90
       50
102
RTVSPost2010PropOp50
 70
     1
102
RTVSPost2010Prop51ColorIndex
 90
      256
102
RTVSPost2010Prop51ColorRGB
 90
-16777216
102
RTVSPost2010PropOp51
 70
     0
102
RTVSPost2010Prop52
140
1.0
102
RTVSPost2010PropOp52
 70
     0
102
RTVSPost2010Prop53
 90
        2
102
RTVSPost2010PropOp53
 70
     1
102
RTVSPost2010Prop54
  1
strokes_ogs.tif
102
RTVSPost2010PropOp54
 70
     1
102
RTVSPost2010Prop55
280
     0
102
RTVSPost2010PropOp55
 70
     1
102
RTVSPost2010Prop56
140
1.0
102
RTVSPost2010PropOp56
 70
     1
102
RTVSPost2010Prop57
140
1.0
102
RTVSPost2010PropOp57
 70
     1
102
RTVSPropertyOp0
 70
     1
102
RTVSPropertyOp1
 70
     1
102
RTVSPropertyOp2
 70
     1
102
RTVSPropertyOp3
 70
     1
102
RTVSPropertyOp4
 70
     1
102
RTVSPropertyOp5
 70
     1
102
RTVSPropertyOp6
 70
     1
102
RTVSPropertyOp7
 70
     1
102
RTVSPropertyOp8
 70
     1
102
RTVSPropertyOp9
 70
     1
102
RTVSPropertyOp10
 70
     1
102
RTVSPropertyOp11
 70
     1
102
RTVSPropertyOp12
 70
     1
102
RTVSPropertyOp13
 70
     1
102
RTVSPropertyOp14
 70
     1
102
RTVSPropertyOp15
 70
     1
102
RTVSPropertyOp16
 70
     1
102
RTVSPropertyOp17
 70
     1
102
RTVSPropertyOp18
 70
     1
102
RTVSPropertyOp19
 70
     1
102
RTVSPropertyOp20
 70
     1
102
RTVSPropertyOp21
 70
     1
102
RTVSPropertyOp22
 70
     1
102
RTVSPropertyOp23
 70
     1
102
RTVSPropertyOp24
 70
     1
102
RTVSPropertyOp25
 70
     1
102
RTVSPropertyOp26
 70
     1
102
RTVSPropertyOp27
 70
     1
102
RTVSPropertyOp28
 70
     1
102
RTVSPropertyOp29
 70
     1
102
RTVSPropertyOp30
 70
     1
102
RTVSPropertyOp31
 70
     1
102
RTVSPropertyOp32
 70
     1
102
RTVSPropertyOp33
 70
     1
102
RTVSPropertyOp34
 70
     1
102
RTVSPropertyOp35
 70
     1
102
RTVSPropertyOp36
 70
     1
102
RTVSPropertyOp37
 70
     1
102
RTVSPropertyOp38
 70
     1
102
RTVSPropertyOp39
 70
     1
102
RTVSPropertyOp40
 70
     1
102
RTVSPropertyOp41
 70
     1
102
RTVSPropertyOp42
 70
     1
102
RTVSPropertyOp43
 70
     1
102
RTVSPropertyOp44
 70
     1
102
RTVSPropertyOp45
 70
     1
102
RTVSPropertyOp46
 70
     1
102
RTVSPropertyOp47
 70
     1
102
RTVSPropertyOp48
 70
     1
102
RTVSPropertyOp49
 70
     1
102
RTVSPropertyOp50
 70
     1
102
RTVSPropertyOp51
 70
     0
102
RTVSPropertyOp52
 70
     0
102
RTVSPropertyOp53
 70
     1
102
RTVSPropertyOp54
 70
     1
102
RTVSPropertyOp55
 70
     1
102
RTVSPropertyOp56
 70
     1
102
RTVSPropertyOp57
 70
     1
102
RTVSPropertyOp58
 70
     1
102
RTVSPropertyOp59
 70
     1
102
RTVSPropertyOp60
 70
     1
102
RTVSPropertyOp61
 70
     1
102
RTVSPropertyOp62
 70
     1
  0
XRECORD
  5
612
102
{ACAD_REACTORS
330
611
102
}
330
611
100
AcDbXrecord
280
     1
102
RTVSPost2010Prop28
280
     0
102
RTVSPost2010PropOp28
 70
     1
102
RTVSPost2010Prop29
280
     1
102
RTVSPost2010PropOp29
 70
     1
102
RTVSPost2010Prop30
280
     1
102
RTVSPost2010PropOp30
 70
     1
102
RTVSPost2010Prop31
280
     0
102
RTVSPost2010PropOp31
 70
     1
102
RTVSPost2010Prop32
280
     0
102
RTVSPost2010PropOp32
 70
     1
102
RTVSPost2010Prop33
280
     0
102
RTVSPost2010PropOp33
 70
     1
102
RTVSPost2010Prop34
280
     0
102
RTVSPost2010PropOp34
 70
     1
102
RTVSPost2010Prop35
280
     0
102
RTVSPost2010PropOp35
 70
     1
102
RTVSPost2010Prop36
280
     0
102
RTVSPost2010PropOp36
 70
     1
102
RTVSPost2010Prop37
 90
       50
102
RTVSPost2010PropOp37
 70
     1
102
RTVSPost2010Prop38
140
0.0
102
RTVSPost2010PropOp38
 70
     1
102
RTVSPost2010Prop39
140
1.0
102
RTVSPost2010PropOp39
 70
     1
102
RTVSPost2010Prop40
 90
        0
102
RTVSPost2010PropOp40
 70
     1
102
RTVSPost2010Prop41ColorIndex
 90
       18
102
RTVSPost2010Prop41ColorRGB
 90
        0
102
RTVSPost2010PropOp41
 70
     1
102
RTVSPost2010Prop42
 90
       50
102
RTVSPost2010PropOp42
 70
     1
102
RTVSPost2010Prop43
 90
        3
102
RTVSPost2010PropOp43
 70
     1
102
RTVSPost2010Prop44ColorIndex
 90
        5
102
RTVSPost2010Prop44ColorRGB
 90
      255
102
RTVSPost2010PropOp44
 70
     1
102
RTVSPost2010Prop45
280
     0
102
RTVSPost2010PropOp45
 70
     1
102
RTVSPost2010Prop46
 90
       50
102
RTVSPost2010PropOp46
 70
     1
102
RTVSPost2010Prop47
 90
       50
102
RTVSPost2010PropOp47
 70
     1
102
RTVSPost2010Prop48
 90
       50
102
RTVSPost2010PropOp48
 70
     1
102
RTVSPost2010Prop49
280
     0
102
RTVSPost2010PropOp49
 70
     1
102
RTVSPost2010Prop50
 90
       50
102
RTVSPost2010PropOp50
 70
     1
102
RTVSPost2010Prop51ColorIndex
 90
      256
102
RTVSPost2010Prop51ColorRGB
 90
-16777216
102
RTVSPost2010PropOp51
 70
     0
102
RTVSPost2010Prop52
140
1.0
102
RTVSPost2010PropOp52
 70
     0
102
RTVSPost2010Prop53
 90
        2
102
RTVSPost2010PropOp53
 70
     1
102
RTVSPost2010Prop54
  1
strokes_ogs.tif
102
RTVSPost2010PropOp54
 70
     1
102
RTVSPost2010Prop55
280
     0
102
RTVSPost2010PropOp55
 70
     1
102
RTVSPost2010Prop56
140
1.0
102
RTVSPost2010PropOp56
 70
     1
102
RTVSPost2010Prop57
140
1.0
102
RTVSPost2010PropOp57
 70
     1
102
RTVSPropertyOp0
 70
     1
102
RTVSPropertyOp1
 70
     1
102
RTVSPropertyOp2
 70
     1
102
RTVSPropertyOp3
 70
     1
102
RTVSPropertyOp4
 70
     1
102
RTVSPropertyOp5
 70
     1
102
RTVSPropertyOp6
 70
     1
102
RTVSPropertyOp7
 70
     1
102
RTVSPropertyOp8
 70
     1
102
RTVSPropertyOp9
 70
     1
102
RTVSPropertyOp10
 70
     1
102
RTVSPropertyOp11
 70
     1
102
RTVSPropertyOp12
 70
     1
102
RTVSPropertyOp13
 70
     1
102
RTVSPropertyOp14
 70
     1
102
RTVSPropertyOp15
 70
     1
102
RTVSPropertyOp16
 70
     1
102
RTVSPropertyOp17
 70
     1
102
RTVSPropertyOp18
 70
     1
102
RTVSPropertyOp19
 70
     1
102
RTVSPropertyOp20
 70
     1
102
RTVSPropertyOp21
 70
     1
102
RTVSPropertyOp22
 70
     1
102
RTVSPropertyOp23
 70
     1
102
RTVSPropertyOp24
 70
     1
102
RTVSPropertyOp25
 70
     1
102
RTVSPropertyOp26
 70
     1
102
RTVSPropertyOp27
 70
     1
102
RTVSPropertyOp28
 70
     1
102
RTVSPropertyOp29
 70
     1
102
RTVSPropertyOp30
 70
     1
102
RTVSPropertyOp31
 70
     1
102
RTVSPropertyOp32
 70
     1
102
RTVSPropertyOp33
 70
     1
102
RTVSPropertyOp34
 70
     1
102
RTVSPropertyOp35
 70
     1
102
RTVSPropertyOp36
 70
     1
102
RTVSPropertyOp37
 70
     1
102
RTVSPropertyOp38
 70
     1
102
RTVSPropertyOp39
 70
     1
102
RTVSPropertyOp40
 70
     1
102
RTVSPropertyOp41
 70
     1
102
RTVSPropertyOp42
 70
     1
102
RTVSPropertyOp43
 70
     1
102
RTVSPropertyOp44
 70
     1
102
RTVSPropertyOp45
 70
     1
102
RTVSPropertyOp46
 70
     1
102
RTVSPropertyOp47
 70
     1
102
RTVSPropertyOp48
 70
     1
102
RTVSPropertyOp49
 70
     1
102
RTVSPropertyOp50
 70
     1
102
RTVSPropertyOp51
 70
     0
102
RTVSPropertyOp52
 70
     0
102
RTVSPropertyOp53
 70
     1
102
RTVSPropertyOp54
 70
     1
102
RTVSPropertyOp55
 70
     1
102
RTVSPropertyOp56
 70
     1
102
RTVSPropertyOp57
 70
     1
102
RTVSPropertyOp58
 70
     1
102
RTVSPropertyOp59
 70
     1
102
RTVSPropertyOp60
 70
     1
102
RTVSPropertyOp61
 70
     1
102
RTVSPropertyOp62
 70
     1
  0
XRECORD
  5
610
102
{ACAD_REACTORS
330
60F
102
}
330
60F
100
AcDbXrecord
280
     1
102
RTVSPost2010Prop28
280
     0
102
RTVSPost2010PropOp28
 70
     1
102
RTVSPost2010Prop29
280
     1
102
RTVSPost2010PropOp29
 70
     1
102
RTVSPost2010Prop30
280
     1
102
RTVSPost2010PropOp30
 70
     1
102
RTVSPost2010Prop31
280
     0
102
RTVSPost2010PropOp31
 70
     1
102
RTVSPost2010Prop32
280
     0
102
RTVSPost2010PropOp32
 70
     1
102
RTVSPost2010Prop33
280
     0
102
RTVSPost2010PropOp33
 70
     1
102
RTVSPost2010Prop34
280
     0
102
RTVSPost2010PropOp34
 70
     1
102
RTVSPost2010Prop35
280
     0
102
RTVSPost2010PropOp35
 70
     1
102
RTVSPost2010Prop36
280
     0
102
RTVSPost2010PropOp36
 70
     1
102
RTVSPost2010Prop37
 90
       50
102
RTVSPost2010PropOp37
 70
     1
102
RTVSPost2010Prop38
140
0.0
102
RTVSPost2010PropOp38
 70
     1
102
RTVSPost2010Prop39
140
1.0
102
RTVSPost2010PropOp39
 70
     1
102
RTVSPost2010Prop40
 90
        0
102
RTVSPost2010PropOp40
 70
     1
102
RTVSPost2010Prop41ColorIndex
 90
       18
102
RTVSPost2010Prop41ColorRGB
 90
        0
102
RTVSPost2010PropOp41
 70
     1
102
RTVSPost2010Prop42
 90
       50
102
RTVSPost2010PropOp42
 70
     1
102
RTVSPost2010Prop43
 90
        3
102
RTVSPost2010PropOp43
 70
     1
102
RTVSPost2010Prop44ColorIndex
 90
        5
102
RTVSPost2010Prop44ColorRGB
 90
      255
102
RTVSPost2010PropOp44
 70
     1
102
RTVSPost2010Prop45
280
     0
102
RTVSPost2010PropOp45
 70
     1
102
RTVSPost2010Prop46
 90
       50
102
RTVSPost2010PropOp46
 70
     1
102
RTVSPost2010Prop47
 90
       50
102
RTVSPost2010PropOp47
 70
     1
102
RTVSPost2010Prop48
 90
       50
102
RTVSPost2010PropOp48
 70
     1
102
RTVSPost2010Prop49
280
     0
102
RTVSPost2010PropOp49
 70
     1
102
RTVSPost2010Prop50
 90
       50
102
RTVSPost2010PropOp50
 70
     1
102
RTVSPost2010Prop51ColorIndex
 90
      256
102
RTVSPost2010Prop51ColorRGB
 90
-16777216
102
RTVSPost2010PropOp51
 70
     0
102
RTVSPost2010Prop52
140
1.0
102
RTVSPost2010PropOp52
 70
     0
102
RTVSPost2010Prop53
 90
        2
102
RTVSPost2010PropOp53
 70
     1
102
RTVSPost2010Prop54
  1
strokes_ogs.tif
102
RTVSPost2010PropOp54
 70
     1
102
RTVSPost2010Prop55
280
     0
102
RTVSPost2010PropOp55
 70
     1
102
RTVSPost2010Prop56
140
1.0
102
RTVSPost2010PropOp56
 70
     1
102
RTVSPost2010Prop57
140
1.0
102
RTVSPost2010PropOp57
 70
     1
102
RTVSPropertyOp0
 70
     1
102
RTVSPropertyOp1
 70
     1
102
RTVSPropertyOp2
 70
     1
102
RTVSPropertyOp3
 70
     1
102
RTVSPropertyOp4
 70
     1
102
RTVSPropertyOp5
 70
     1
102
RTVSPropertyOp6
 70
     1
102
RTVSPropertyOp7
 70
     1
102
RTVSPropertyOp8
 70
     1
102
RTVSPropertyOp9
 70
     1
102
RTVSPropertyOp10
 70
     1
102
RTVSPropertyOp11
 70
     1
102
RTVSPropertyOp12
 70
     1
102
RTVSPropertyOp13
 70
     1
102
RTVSPropertyOp14
 70
     1
102
RTVSPropertyOp15
 70
     1
102
RTVSPropertyOp16
 70
     1
102
RTVSPropertyOp17
 70
     1
102
RTVSPropertyOp18
 70
     1
102
RTVSPropertyOp19
 70
     1
102
RTVSPropertyOp20
 70
     1
102
RTVSPropertyOp21
 70
     1
102
RTVSPropertyOp22
 70
     1
102
RTVSPropertyOp23
 70
     1
102
RTVSPropertyOp24
 70
     1
102
RTVSPropertyOp25
 70
     1
102
RTVSPropertyOp26
 70
     1
102
RTVSPropertyOp27
 70
     1
102
RTVSPropertyOp28
 70
     1
102
RTVSPropertyOp29
 70
     1
102
RTVSPropertyOp30
 70
     1
102
RTVSPropertyOp31
 70
     1
102
RTVSPropertyOp32
 70
     1
102
RTVSPropertyOp33
 70
     1
102
RTVSPropertyOp34
 70
     1
102
RTVSPropertyOp35
 70
     1
102
RTVSPropertyOp36
 70
     1
102
RTVSPropertyOp37
 70
     1
102
RTVSPropertyOp38
 70
     1
102
RTVSPropertyOp39
 70
     1
102
RTVSPropertyOp40
 70
     1
102
RTVSPropertyOp41
 70
     1
102
RTVSPropertyOp42
 70
     1
102
RTVSPropertyOp43
 70
     1
102
RTVSPropertyOp44
 70
     1
102
RTVSPropertyOp45
 70
     1
102
RTVSPropertyOp46
 70
     1
102
RTVSPropertyOp47
 70
     1
102
RTVSPropertyOp48
 70
     1
102
RTVSPropertyOp49
 70
     1
102
RTVSPropertyOp50
 70
     1
102
RTVSPropertyOp51
 70
     0
102
RTVSPropertyOp52
 70
     0
102
RTVSPropertyOp53
 70
     1
102
RTVSPropertyOp54
 70
     1
102
RTVSPropertyOp55
 70
     1
102
RTVSPropertyOp56
 70
     1
102
RTVSPropertyOp57
 70
     1
102
RTVSPropertyOp58
 70
     1
102
RTVSPropertyOp59
 70
     1
102
RTVSPropertyOp60
 70
     1
102
RTVSPropertyOp61
 70
     1
102
RTVSPropertyOp62
 70
     1
  0
XRECORD
  5
60A
102
{ACAD_REACTORS
330
609
102
}
330
609
100
AcDbXrecord
280
     1
102
RTVSPost2010Prop28
280
     0
102
RTVSPost2010PropOp28
 70
     1
102
RTVSPost2010Prop29
280
     1
102
RTVSPost2010PropOp29
 70
     1
102
RTVSPost2010Prop30
280
     1
102
RTVSPost2010PropOp30
 70
     1
102
RTVSPost2010Prop31
280
     0
102
RTVSPost2010PropOp31
 70
     1
102
RTVSPost2010Prop32
280
     0
102
RTVSPost2010PropOp32
 70
     1
102
RTVSPost2010Prop33
280
     0
102
RTVSPost2010PropOp33
 70
     1
102
RTVSPost2010Prop34
280
     0
102
RTVSPost2010PropOp34
 70
     1
102
RTVSPost2010Prop35
280
     0
102
RTVSPost2010PropOp35
 70
     1
102
RTVSPost2010Prop36
280
     0
102
RTVSPost2010PropOp36
 70
     1
102
RTVSPost2010Prop37
 90
       50
102
RTVSPost2010PropOp37
 70
     1
102
RTVSPost2010Prop38
140
0.0
102
RTVSPost2010PropOp38
 70
     1
102
RTVSPost2010Prop39
140
1.0
102
RTVSPost2010PropOp39
 70
     1
102
RTVSPost2010Prop40
 90
        0
102
RTVSPost2010PropOp40
 70
     1
102
RTVSPost2010Prop41ColorIndex
 90
       18
102
RTVSPost2010Prop41ColorRGB
 90
        0
102
RTVSPost2010PropOp41
 70
     1
102
RTVSPost2010Prop42
 90
       50
102
RTVSPost2010PropOp42
 70
     1
102
RTVSPost2010Prop43
 90
        3
102
RTVSPost2010PropOp43
 70
     1
102
RTVSPost2010Prop44ColorIndex
 90
        5
102
RTVSPost2010Prop44ColorRGB
 90
      255
102
RTVSPost2010PropOp44
 70
     1
102
RTVSPost2010Prop45
280
     0
102
RTVSPost2010PropOp45
 70
     1
102
RTVSPost2010Prop46
 90
       50
102
RTVSPost2010PropOp46
 70
     1
102
RTVSPost2010Prop47
 90
       50
102
RTVSPost2010PropOp47
 70
     1
102
RTVSPost2010Prop48
 90
       50
102
RTVSPost2010PropOp48
 70
     1
102
RTVSPost2010Prop49
280
     0
102
RTVSPost2010PropOp49
 70
     1
102
RTVSPost2010Prop50
 90
       50
102
RTVSPost2010PropOp50
 70
     1
102
RTVSPost2010Prop51ColorIndex
 90
      256
102
RTVSPost2010Prop51ColorRGB
 90
-16777216
102
RTVSPost2010PropOp51
 70
     0
102
RTVSPost2010Prop52
140
1.0
102
RTVSPost2010PropOp52
 70
     0
102
RTVSPost2010Prop53
 90
        2
102
RTVSPost2010PropOp53
 70
     1
102
RTVSPost2010Prop54
  1
strokes_ogs.tif
102
RTVSPost2010PropOp54
 70
     1
102
RTVSPost2010Prop55
280
     0
102
RTVSPost2010PropOp55
 70
     1
102
RTVSPost2010Prop56
140
1.0
102
RTVSPost2010PropOp56
 70
     1
102
RTVSPost2010Prop57
140
1.0
102
RTVSPost2010PropOp57
 70
     1
102
RTVSPropertyOp0
 70
     1
102
RTVSPropertyOp1
 70
     1
102
RTVSPropertyOp2
 70
     1
102
RTVSPropertyOp3
 70
     1
102
RTVSPropertyOp4
 70
     1
102
RTVSPropertyOp5
 70
     1
102
RTVSPropertyOp6
 70
     1
102
RTVSPropertyOp7
 70
     1
102
RTVSPropertyOp8
 70
     1
102
RTVSPropertyOp9
 70
     1
102
RTVSPropertyOp10
 70
     1
102
RTVSPropertyOp11
 70
     1
102
RTVSPropertyOp12
 70
     1
102
RTVSPropertyOp13
 70
     1
102
RTVSPropertyOp14
 70
     1
102
RTVSPropertyOp15
 70
     1
102
RTVSPropertyOp16
 70
     1
102
RTVSPropertyOp17
 70
     1
102
RTVSPropertyOp18
 70
     1
102
RTVSPropertyOp19
 70
     1
102
RTVSPropertyOp20
 70
     1
102
RTVSPropertyOp21
 70
     1
102
RTVSPropertyOp22
 70
     1
102
RTVSPropertyOp23
 70
     1
102
RTVSPropertyOp24
 70
     1
102
RTVSPropertyOp25
 70
     1
102
RTVSPropertyOp26
 70
     1
102
RTVSPropertyOp27
 70
     1
102
RTVSPropertyOp28
 70
     1
102
RTVSPropertyOp29
 70
     1
102
RTVSPropertyOp30
 70
     1
102
RTVSPropertyOp31
 70
     1
102
RTVSPropertyOp32
 70
     1
102
RTVSPropertyOp33
 70
     1
102
RTVSPropertyOp34
 70
     1
102
RTVSPropertyOp35
 70
     1
102
RTVSPropertyOp36
 70
     1
102
RTVSPropertyOp37
 70
     1
102
RTVSPropertyOp38
 70
     1
102
RTVSPropertyOp39
 70
     1
102
RTVSPropertyOp40
 70
     1
102
RTVSPropertyOp41
 70
     1
102
RTVSPropertyOp42
 70
     1
102
RTVSPropertyOp43
 70
     1
102
RTVSPropertyOp44
 70
     1
102
RTVSPropertyOp45
 70
     1
102
RTVSPropertyOp46
 70
     1
102
RTVSPropertyOp47
 70
     1
102
RTVSPropertyOp48
 70
     1
102
RTVSPropertyOp49
 70
     1
102
RTVSPropertyOp50
 70
     1
102
RTVSPropertyOp51
 70
     0
102
RTVSPropertyOp52
 70
     0
102
RTVSPropertyOp53
 70
     1
102
RTVSPropertyOp54
 70
     1
102
RTVSPropertyOp55
 70
     1
102
RTVSPropertyOp56
 70
     1
102
RTVSPropertyOp57
 70
     1
102
RTVSPropertyOp58
 70
     1
102
RTVSPropertyOp59
 70
     1
102
RTVSPropertyOp60
 70
     1
102
RTVSPropertyOp61
 70
     1
102
RTVSPropertyOp62
 70
     1
  0
XRECORD
  5
60C
102
{ACAD_REACTORS
330
60B
102
}
330
60B
100
AcDbXrecord
280
     1
102
RTVSPost2010Prop28
280
     0
102
RTVSPost2010PropOp28
 70
     1
102
RTVSPost2010Prop29
280
     1
102
RTVSPost2010PropOp29
 70
     1
102
RTVSPost2010Prop30
280
     1
102
RTVSPost2010PropOp30
 70
     1
102
RTVSPost2010Prop31
280
     0
102
RTVSPost2010PropOp31
 70
     1
102
RTVSPost2010Prop32
280
     0
102
RTVSPost2010PropOp32
 70
     1
102
RTVSPost2010Prop33
280
     0
102
RTVSPost2010PropOp33
 70
     1
102
RTVSPost2010Prop34
280
     0
102
RTVSPost2010PropOp34
 70
     1
102
RTVSPost2010Prop35
280
     0
102
RTVSPost2010PropOp35
 70
     1
102
RTVSPost2010Prop36
280
     0
102
RTVSPost2010PropOp36
 70
     1
102
RTVSPost2010Prop37
 90
       50
102
RTVSPost2010PropOp37
 70
     1
102
RTVSPost2010Prop38
140
0.0
102
RTVSPost2010PropOp38
 70
     1
102
RTVSPost2010Prop39
140
1.0
102
RTVSPost2010PropOp39
 70
     1
102
RTVSPost2010Prop40
 90
        0
102
RTVSPost2010PropOp40
 70
     1
102
RTVSPost2010Prop41ColorIndex
 90
       18
102
RTVSPost2010Prop41ColorRGB
 90
        0
102
RTVSPost2010PropOp41
 70
     1
102
RTVSPost2010Prop42
 90
       50
102
RTVSPost2010PropOp42
 70
     1
102
RTVSPost2010Prop43
 90
        3
102
RTVSPost2010PropOp43
 70
     1
102
RTVSPost2010Prop44ColorIndex
 90
        5
102
RTVSPost2010Prop44ColorRGB
 90
      255
102
RTVSPost2010PropOp44
 70
     1
102
RTVSPost2010Prop45
280
     0
102
RTVSPost2010PropOp45
 70
     1
102
RTVSPost2010Prop46
 90
       50
102
RTVSPost2010PropOp46
 70
     1
102
RTVSPost2010Prop47
 90
       50
102
RTVSPost2010PropOp47
 70
     1
102
RTVSPost2010Prop48
 90
       50
102
RTVSPost2010PropOp48
 70
     1
102
RTVSPost2010Prop49
280
     0
102
RTVSPost2010PropOp49
 70
     1
102
RTVSPost2010Prop50
 90
       50
102
RTVSPost2010PropOp50
 70
     1
102
RTVSPost2010Prop51ColorIndex
 90
      256
102
RTVSPost2010Prop51ColorRGB
 90
-16777216
102
RTVSPost2010PropOp51
 70
     0
102
RTVSPost2010Prop52
140
1.0
102
RTVSPost2010PropOp52
 70
     0
102
RTVSPost2010Prop53
 90
        2
102
RTVSPost2010PropOp53
 70
     1
102
RTVSPost2010Prop54
  1
strokes_ogs.tif
102
RTVSPost2010PropOp54
 70
     1
102
RTVSPost2010Prop55
280
     0
102
RTVSPost2010PropOp55
 70
     1
102
RTVSPost2010Prop56
140
1.0
102
RTVSPost2010PropOp56
 70
     1
102
RTVSPost2010Prop57
140
1.0
102
RTVSPost2010PropOp57
 70
     1
102
RTVSPropertyOp0
 70
     1
102
RTVSPropertyOp1
 70
     1
102
RTVSPropertyOp2
 70
     1
102
RTVSPropertyOp3
 70
     1
102
RTVSPropertyOp4
 70
     1
102
RTVSPropertyOp5
 70
     1
102
RTVSPropertyOp6
 70
     1
102
RTVSPropertyOp7
 70
     1
102
RTVSPropertyOp8
 70
     1
102
RTVSPropertyOp9
 70
     1
102
RTVSPropertyOp10
 70
     1
102
RTVSPropertyOp11
 70
     1
102
RTVSPropertyOp12
 70
     1
102
RTVSPropertyOp13
 70
     1
102
RTVSPropertyOp14
 70
     1
102
RTVSPropertyOp15
 70
     1
102
RTVSPropertyOp16
 70
     1
102
RTVSPropertyOp17
 70
     1
102
RTVSPropertyOp18
 70
     1
102
RTVSPropertyOp19
 70
     1
102
RTVSPropertyOp20
 70
     1
102
RTVSPropertyOp21
 70
     1
102
RTVSPropertyOp22
 70
     1
102
RTVSPropertyOp23
 70
     1
102
RTVSPropertyOp24
 70
     1
102
RTVSPropertyOp25
 70
     1
102
RTVSPropertyOp26
 70
     1
102
RTVSPropertyOp27
 70
     1
102
RTVSPropertyOp28
 70
     1
102
RTVSPropertyOp29
 70
     1
102
RTVSPropertyOp30
 70
     1
102
RTVSPropertyOp31
 70
     1
102
RTVSPropertyOp32
 70
     1
102
RTVSPropertyOp33
 70
     1
102
RTVSPropertyOp34
 70
     1
102
RTVSPropertyOp35
 70
     1
102
RTVSPropertyOp36
 70
     1
102
RTVSPropertyOp37
 70
     1
102
RTVSPropertyOp38
 70
     1
102
RTVSPropertyOp39
 70
     1
102
RTVSPropertyOp40
 70
     1
102
RTVSPropertyOp41
 70
     1
102
RTVSPropertyOp42
 70
     1
102
RTVSPropertyOp43
 70
     1
102
RTVSPropertyOp44
 70
     1
102
RTVSPropertyOp45
 70
     1
102
RTVSPropertyOp46
 70
     1
102
RTVSPropertyOp47
 70
     1
102
RTVSPropertyOp48
 70
     1
102
RTVSPropertyOp49
 70
     1
102
RTVSPropertyOp50
 70
     1
102
RTVSPropertyOp51
 70
     0
102
RTVSPropertyOp52
 70
     0
102
RTVSPropertyOp53
 70
     1
102
RTVSPropertyOp54
 70
     1
102
RTVSPropertyOp55
 70
     1
102
RTVSPropertyOp56
 70
     1
102
RTVSPropertyOp57
 70
     1
102
RTVSPropertyOp58
 70
     1
102
RTVSPropertyOp59
 70
     1
102
RTVSPropertyOp60
 70
     1
102
RTVSPropertyOp61
 70
     1
102
RTVSPropertyOp62
 70
     1
  0
XRECORD
  5
602
102
{ACAD_REACTORS
330
601
102
}
330
601
100
AcDbXrecord
280
     1
102
RTVSPost2010Prop28
280
     0
102
RTVSPost2010PropOp28
 70
     1
102
RTVSPost2010Prop29
280
     1
102
RTVSPost2010PropOp29
 70
     1
102
RTVSPost2010Prop30
280
     1
102
RTVSPost2010PropOp30
 70
     1
102
RTVSPost2010Prop31
280
     0
102
RTVSPost2010PropOp31
 70
     1
102
RTVSPost2010Prop32
280
     0
102
RTVSPost2010PropOp32
 70
     1
102
RTVSPost2010Prop33
280
     0
102
RTVSPost2010PropOp33
 70
     1
102
RTVSPost2010Prop34
280
     0
102
RTVSPost2010PropOp34
 70
     1
102
RTVSPost2010Prop35
280
     0
102
RTVSPost2010PropOp35
 70
     1
102
RTVSPost2010Prop36
280
     0
102
RTVSPost2010PropOp36
 70
     1
102
RTVSPost2010Prop37
 90
       50
102
RTVSPost2010PropOp37
 70
     1
102
RTVSPost2010Prop38
140
0.0
102
RTVSPost2010PropOp38
 70
     1
102
RTVSPost2010Prop39
140
1.0
102
RTVSPost2010PropOp39
 70
     1
102
RTVSPost2010Prop40
 90
        0
102
RTVSPost2010PropOp40
 70
     1
102
RTVSPost2010Prop41ColorIndex
 90
       18
102
RTVSPost2010Prop41ColorRGB
 90
        0
102
RTVSPost2010PropOp41
 70
     1
102
RTVSPost2010Prop42
 90
       50
102
RTVSPost2010PropOp42
 70
     1
102
RTVSPost2010Prop43
 90
        3
102
RTVSPost2010PropOp43
 70
     1
102
RTVSPost2010Prop44ColorIndex
 90
        5
102
RTVSPost2010Prop44ColorRGB
 90
      255
102
RTVSPost2010PropOp44
 70
     1
102
RTVSPost2010Prop45
280
     0
102
RTVSPost2010PropOp45
 70
     1
102
RTVSPost2010Prop46
 90
       50
102
RTVSPost2010PropOp46
 70
     1
102
RTVSPost2010Prop47
 90
       50
102
RTVSPost2010PropOp47
 70
     1
102
RTVSPost2010Prop48
 90
       50
102
RTVSPost2010PropOp48
 70
     1
102
RTVSPost2010Prop49
280
     0
102
RTVSPost2010PropOp49
 70
     1
102
RTVSPost2010Prop50
 90
       50
102
RTVSPost2010PropOp50
 70
     1
102
RTVSPost2010Prop51ColorIndex
 90
      256
102
RTVSPost2010Prop51ColorRGB
 90
-16777216
102
RTVSPost2010PropOp51
 70
     0
102
RTVSPost2010Prop52
140
1.0
102
RTVSPost2010PropOp52
 70
     0
102
RTVSPost2010Prop53
 90
        2
102
RTVSPost2010PropOp53
 70
     1
102
RTVSPost2010Prop54
  1
strokes_ogs.tif
102
RTVSPost2010PropOp54
 70
     1
102
RTVSPost2010Prop55
280
     0
102
RTVSPost2010PropOp55
 70
     1
102
RTVSPost2010Prop56
140
1.0
102
RTVSPost2010PropOp56
 70
     1
102
RTVSPost2010Prop57
140
1.0
102
RTVSPost2010PropOp57
 70
     1
102
RTVSPropertyOp0
 70
     1
102
RTVSPropertyOp1
 70
     1
102
RTVSPropertyOp2
 70
     1
102
RTVSPropertyOp3
 70
     1
102
RTVSPropertyOp4
 70
     1
102
RTVSPropertyOp5
 70
     1
102
RTVSPropertyOp6
 70
     1
102
RTVSPropertyOp7
 70
     1
102
RTVSPropertyOp8
 70
     1
102
RTVSPropertyOp9
 70
     1
102
RTVSPropertyOp10
 70
     1
102
RTVSPropertyOp11
 70
     1
102
RTVSPropertyOp12
 70
     1
102
RTVSPropertyOp13
 70
     1
102
RTVSPropertyOp14
 70
     1
102
RTVSPropertyOp15
 70
     1
102
RTVSPropertyOp16
 70
     1
102
RTVSPropertyOp17
 70
     1
102
RTVSPropertyOp18
 70
     1
102
RTVSPropertyOp19
 70
     1
102
RTVSPropertyOp20
 70
     1
102
RTVSPropertyOp21
 70
     1
102
RTVSPropertyOp22
 70
     1
102
RTVSPropertyOp23
 70
     1
102
RTVSPropertyOp24
 70
     1
102
RTVSPropertyOp25
 70
     1
102
RTVSPropertyOp26
 70
     1
102
RTVSPropertyOp27
 70
     1
102
RTVSPropertyOp28
 70
     1
102
RTVSPropertyOp29
 70
     1
102
RTVSPropertyOp30
 70
     1
102
RTVSPropertyOp31
 70
     1
102
RTVSPropertyOp32
 70
     1
102
RTVSPropertyOp33
 70
     1
102
RTVSPropertyOp34
 70
     1
102
RTVSPropertyOp35
 70
     1
102
RTVSPropertyOp36
 70
     1
102
RTVSPropertyOp37
 70
     1
102
RTVSPropertyOp38
 70
     1
102
RTVSPropertyOp39
 70
     1
102
RTVSPropertyOp40
 70
     1
102
RTVSPropertyOp41
 70
     1
102
RTVSPropertyOp42
 70
     1
102
RTVSPropertyOp43
 70
     1
102
RTVSPropertyOp44
 70
     1
102
RTVSPropertyOp45
 70
     1
102
RTVSPropertyOp46
 70
     1
102
RTVSPropertyOp47
 70
     1
102
RTVSPropertyOp48
 70
     1
102
RTVSPropertyOp49
 70
     1
102
RTVSPropertyOp50
 70
     1
102
RTVSPropertyOp51
 70
     0
102
RTVSPropertyOp52
 70
     0
102
RTVSPropertyOp53
 70
     1
102
RTVSPropertyOp54
 70
     1
102
RTVSPropertyOp55
 70
     1
102
RTVSPropertyOp56
 70
     1
102
RTVSPropertyOp57
 70
     1
102
RTVSPropertyOp58
 70
     1
102
RTVSPropertyOp59
 70
     1
102
RTVSPropertyOp60
 70
     1
102
RTVSPropertyOp61
 70
     1
102
RTVSPropertyOp62
 70
     1
  0
XRECORD
  5
5F6
102
{ACAD_REACTORS
330
5F5
102
}
330
5F5
100
AcDbXrecord
280
     1
102
RTVSPost2010Prop28
280
     0
102
RTVSPost2010PropOp28
 70
     1
102
RTVSPost2010Prop29
280
     1
102
RTVSPost2010PropOp29
 70
     1
102
RTVSPost2010Prop30
280
     1
102
RTVSPost2010PropOp30
 70
     1
102
RTVSPost2010Prop31
280
     0
102
RTVSPost2010PropOp31
 70
     1
102
RTVSPost2010Prop32
280
     0
102
RTVSPost2010PropOp32
 70
     1
102
RTVSPost2010Prop33
280
     0
102
RTVSPost2010PropOp33
 70
     1
102
RTVSPost2010Prop34
280
     0
102
RTVSPost2010PropOp34
 70
     1
102
RTVSPost2010Prop35
280
     0
102
RTVSPost2010PropOp35
 70
     1
102
RTVSPost2010Prop36
280
     0
102
RTVSPost2010PropOp36
 70
     1
102
RTVSPost2010Prop37
 90
       50
102
RTVSPost2010PropOp37
 70
     1
102
RTVSPost2010Prop38
140
0.0
102
RTVSPost2010PropOp38
 70
     1
102
RTVSPost2010Prop39
140
1.0
102
RTVSPost2010PropOp39
 70
     1
102
RTVSPost2010Prop40
 90
        0
102
RTVSPost2010PropOp40
 70
     1
102
RTVSPost2010Prop41ColorIndex
 90
       18
102
RTVSPost2010Prop41ColorRGB
 90
        0
102
RTVSPost2010PropOp41
 70
     1
102
RTVSPost2010Prop42
 90
       50
102
RTVSPost2010PropOp42
 70
     1
102
RTVSPost2010Prop43
 90
        3
102
RTVSPost2010PropOp43
 70
     1
102
RTVSPost2010Prop44ColorIndex
 90
        5
102
RTVSPost2010Prop44ColorRGB
 90
      255
102
RTVSPost2010PropOp44
 70
     1
102
RTVSPost2010Prop45
280
     0
102
RTVSPost2010PropOp45
 70
     1
102
RTVSPost2010Prop46
 90
       50
102
RTVSPost2010PropOp46
 70
     1
102
RTVSPost2010Prop47
 90
       50
102
RTVSPost2010PropOp47
 70
     1
102
RTVSPost2010Prop48
 90
       50
102
RTVSPost2010PropOp48
 70
     1
102
RTVSPost2010Prop49
280
     0
102
RTVSPost2010PropOp49
 70
     1
102
RTVSPost2010Prop50
 90
       50
102
RTVSPost2010PropOp50
 70
     1
102
RTVSPost2010Prop51ColorIndex
 90
      256
102
RTVSPost2010Prop51ColorRGB
 90
-16777216
102
RTVSPost2010PropOp51
 70
     0
102
RTVSPost2010Prop52
140
1.0
102
RTVSPost2010PropOp52
 70
     0
102
RTVSPost2010Prop53
 90
        2
102
RTVSPost2010PropOp53
 70
     1
102
RTVSPost2010Prop54
  1
strokes_ogs.tif
102
RTVSPost2010PropOp54
 70
     1
102
RTVSPost2010Prop55
280
     0
102
RTVSPost2010PropOp55
 70
     1
102
RTVSPost2010Prop56
140
1.0
102
RTVSPost2010PropOp56
 70
     1
102
RTVSPost2010Prop57
140
1.0
102
RTVSPost2010PropOp57
 70
     1
102
RTVSPropertyOp0
 70
     1
102
RTVSPropertyOp1
 70
     1
102
RTVSPropertyOp2
 70
     1
102
RTVSPropertyOp3
 70
     1
102
RTVSPropertyOp4
 70
     1
102
RTVSPropertyOp5
 70
     1
102
RTVSPropertyOp6
 70
     1
102
RTVSPropertyOp7
 70
     1
102
RTVSPropertyOp8
 70
     1
102
RTVSPropertyOp9
 70
     1
102
RTVSPropertyOp10
 70
     1
102
RTVSPropertyOp11
 70
     1
102
RTVSPropertyOp12
 70
     1
102
RTVSPropertyOp13
 70
     1
102
RTVSPropertyOp14
 70
     1
102
RTVSPropertyOp15
 70
     1
102
RTVSPropertyOp16
 70
     1
102
RTVSPropertyOp17
 70
     1
102
RTVSPropertyOp18
 70
     1
102
RTVSPropertyOp19
 70
     1
102
RTVSPropertyOp20
 70
     1
102
RTVSPropertyOp21
 70
     1
102
RTVSPropertyOp22
 70
     1
102
RTVSPropertyOp23
 70
     1
102
RTVSPropertyOp24
 70
     1
102
RTVSPropertyOp25
 70
     1
102
RTVSPropertyOp26
 70
     1
102
RTVSPropertyOp27
 70
     1
102
RTVSPropertyOp28
 70
     1
102
RTVSPropertyOp29
 70
     1
102
RTVSPropertyOp30
 70
     1
102
RTVSPropertyOp31
 70
     1
102
RTVSPropertyOp32
 70
     1
102
RTVSPropertyOp33
 70
     1
102
RTVSPropertyOp34
 70
     1
102
RTVSPropertyOp35
 70
     1
102
RTVSPropertyOp36
 70
     1
102
RTVSPropertyOp37
 70
     1
102
RTVSPropertyOp38
 70
     1
102
RTVSPropertyOp39
 70
     1
102
RTVSPropertyOp40
 70
     1
102
RTVSPropertyOp41
 70
     1
102
RTVSPropertyOp42
 70
     1
102
RTVSPropertyOp43
 70
     1
102
RTVSPropertyOp44
 70
     1
102
RTVSPropertyOp45
 70
     1
102
RTVSPropertyOp46
 70
     1
102
RTVSPropertyOp47
 70
     1
102
RTVSPropertyOp48
 70
     1
102
RTVSPropertyOp49
 70
     1
102
RTVSPropertyOp50
 70
     1
102
RTVSPropertyOp51
 70
     0
102
RTVSPropertyOp52
 70
     0
102
RTVSPropertyOp53
 70
     1
102
RTVSPropertyOp54
 70
     1
102
RTVSPropertyOp55
 70
     1
102
RTVSPropertyOp56
 70
     1
102
RTVSPropertyOp57
 70
     1
102
RTVSPropertyOp58
 70
     1
102
RTVSPropertyOp59
 70
     1
102
RTVSPropertyOp60
 70
     1
102
RTVSPropertyOp61
 70
     1
102
RTVSPropertyOp62
 70
     1
  0
XRECORD
  5
60E
102
{ACAD_REACTORS
330
60D
102
}
330
60D
100
AcDbXrecord
280
     1
102
RTVSPost2010Prop28
280
     0
102
RTVSPost2010PropOp28
 70
     1
102
RTVSPost2010Prop29
280
     1
102
RTVSPost2010PropOp29
 70
     1
102
RTVSPost2010Prop30
280
     1
102
RTVSPost2010PropOp30
 70
     1
102
RTVSPost2010Prop31
280
     0
102
RTVSPost2010PropOp31
 70
     1
102
RTVSPost2010Prop32
280
     0
102
RTVSPost2010PropOp32
 70
     1
102
RTVSPost2010Prop33
280
     0
102
RTVSPost2010PropOp33
 70
     1
102
RTVSPost2010Prop34
280
     0
102
RTVSPost2010PropOp34
 70
     1
102
RTVSPost2010Prop35
280
     0
102
RTVSPost2010PropOp35
 70
     1
102
RTVSPost2010Prop36
280
     0
102
RTVSPost2010PropOp36
 70
     1
102
RTVSPost2010Prop37
 90
       50
102
RTVSPost2010PropOp37
 70
     1
102
RTVSPost2010Prop38
140
0.0
102
RTVSPost2010PropOp38
 70
     1
102
RTVSPost2010Prop39
140
1.0
102
RTVSPost2010PropOp39
 70
     1
102
RTVSPost2010Prop40
 90
        0
102
RTVSPost2010PropOp40
 70
     1
102
RTVSPost2010Prop41ColorIndex
 90
       18
102
RTVSPost2010Prop41ColorRGB
 90
        0
102
RTVSPost2010PropOp41
 70
     1
102
RTVSPost2010Prop42
 90
       50
102
RTVSPost2010PropOp42
 70
     1
102
RTVSPost2010Prop43
 90
        3
102
RTVSPost2010PropOp43
 70
     1
102
RTVSPost2010Prop44ColorIndex
 90
        5
102
RTVSPost2010Prop44ColorRGB
 90
      255
102
RTVSPost2010PropOp44
 70
     1
102
RTVSPost2010Prop45
280
     0
102
RTVSPost2010PropOp45
 70
     1
102
RTVSPost2010Prop46
 90
       50
102
RTVSPost2010PropOp46
 70
     1
102
RTVSPost2010Prop47
 90
       50
102
RTVSPost2010PropOp47
 70
     1
102
RTVSPost2010Prop48
 90
       50
102
RTVSPost2010PropOp48
 70
     1
102
RTVSPost2010Prop49
280
     0
102
RTVSPost2010PropOp49
 70
     1
102
RTVSPost2010Prop50
 90
       50
102
RTVSPost2010PropOp50
 70
     1
102
RTVSPost2010Prop51ColorIndex
 90
      256
102
RTVSPost2010Prop51ColorRGB
 90
-16777216
102
RTVSPost2010PropOp51
 70
     0
102
RTVSPost2010Prop52
140
1.0
102
RTVSPost2010PropOp52
 70
     0
102
RTVSPost2010Prop53
 90
        2
102
RTVSPost2010PropOp53
 70
     1
102
RTVSPost2010Prop54
  1
strokes_ogs.tif
102
RTVSPost2010PropOp54
 70
     1
102
RTVSPost2010Prop55
280
     0
102
RTVSPost2010PropOp55
 70
     1
102
RTVSPost2010Prop56
140
1.0
102
RTVSPost2010PropOp56
 70
     1
102
RTVSPost2010Prop57
140
1.0
102
RTVSPost2010PropOp57
 70
     1
102
RTVSPropertyOp0
 70
     1
102
RTVSPropertyOp1
 70
     1
102
RTVSPropertyOp2
 70
     1
102
RTVSPropertyOp3
 70
     1
102
RTVSPropertyOp4
 70
     1
102
RTVSPropertyOp5
 70
     1
102
RTVSPropertyOp6
 70
     1
102
RTVSPropertyOp7
 70
     1
102
RTVSPropertyOp8
 70
     1
102
RTVSPropertyOp9
 70
     1
102
RTVSPropertyOp10
 70
     1
102
RTVSPropertyOp11
 70
     1
102
RTVSPropertyOp12
 70
     1
102
RTVSPropertyOp13
 70
     1
102
RTVSPropertyOp14
 70
     1
102
RTVSPropertyOp15
 70
     1
102
RTVSPropertyOp16
 70
     1
102
RTVSPropertyOp17
 70
     1
102
RTVSPropertyOp18
 70
     1
102
RTVSPropertyOp19
 70
     1
102
RTVSPropertyOp20
 70
     1
102
RTVSPropertyOp21
 70
     1
102
RTVSPropertyOp22
 70
     1
102
RTVSPropertyOp23
 70
     1
102
RTVSPropertyOp24
 70
     1
102
RTVSPropertyOp25
 70
     1
102
RTVSPropertyOp26
 70
     1
102
RTVSPropertyOp27
 70
     1
102
RTVSPropertyOp28
 70
     1
102
RTVSPropertyOp29
 70
     1
102
RTVSPropertyOp30
 70
     1
102
RTVSPropertyOp31
 70
     1
102
RTVSPropertyOp32
 70
     1
102
RTVSPropertyOp33
 70
     1
102
RTVSPropertyOp34
 70
     1
102
RTVSPropertyOp35
 70
     1
102
RTVSPropertyOp36
 70
     1
102
RTVSPropertyOp37
 70
     1
102
RTVSPropertyOp38
 70
     1
102
RTVSPropertyOp39
 70
     1
102
RTVSPropertyOp40
 70
     1
102
RTVSPropertyOp41
 70
     1
102
RTVSPropertyOp42
 70
     1
102
RTVSPropertyOp43
 70
     1
102
RTVSPropertyOp44
 70
     1
102
RTVSPropertyOp45
 70
     1
102
RTVSPropertyOp46
 70
     1
102
RTVSPropertyOp47
 70
     1
102
RTVSPropertyOp48
 70
     1
102
RTVSPropertyOp49
 70
     1
102
RTVSPropertyOp50
 70
     1
102
RTVSPropertyOp51
 70
     0
102
RTVSPropertyOp52
 70
     0
102
RTVSPropertyOp53
 70
     1
102
RTVSPropertyOp54
 70
     1
102
RTVSPropertyOp55
 70
     1
102
RTVSPropertyOp56
 70
     1
102
RTVSPropertyOp57
 70
     1
102
RTVSPropertyOp58
 70
     1
102
RTVSPropertyOp59
 70
     1
102
RTVSPropertyOp60
 70
     1
102
RTVSPropertyOp61
 70
     1
102
RTVSPropertyOp62
 70
     1
  0
ENDSEC
  0
EOF
