  0
SECTION
  2
HEADER
  9
$ACADVER
  1
AC1018
  9
$ACADMAINTVER
 70
   104
  9
$DWGCODEPAGE
  3
ANSI_932
  9
$INSBASE
 10
0.0
 20
0.0
 30
0.0
  9
$EXTMIN
 10
-2.26558439
 20
-1.60192835
 30
0.0
  9
$EXTMAX
 10
29700.00013832
 20
21000.0000978
 30
0.0
  9
$LIMMIN
 10
0.0
 20
0.0
  9
$LIMMAX
 10
420.0
 20
297.0
  9
$ORTHOMODE
 70
     1
  9
$REGENMODE
 70
     1
  9
$FILLMODE
 70
     1
  9
$QTEXTMODE
 70
     0
  9
$MIRRTEXT
 70
     0
  9
$LTSCALE
 40
1.0
  9
$ATTMODE
 70
     1
  9
$TEXTSIZE
 40
3.5
  9
$TRACEWID
 40
1.0
  9
$TEXTSTYLE
  7
STANDARD
  9
$CLAYER
  8
0
  9
$CELTYPE
  6
BYLAYER
  9
$CECOLOR
 62
   256
  9
$CELTSCALE
 40
1.0
  9
$DISPSILH
 70
     1
  9
$DIMSCALE
 40
1.0
  9
$DIMASZ
 40
2.5
  9
$DIMEXO
 40
0.625
  9
$DIMDLI
 40
3.75
  9
$DIMRND
 40
0.0
  9
$DIMDLE
 40
0.0
  9
$DIMEXE
 40
1.25
  9
$DIMTP
 40
0.0
  9
$DIMTM
 40
0.0
  9
$DIMTXT
 40
2.5
  9
$DIMCEN
 40
2.5
  9
$DIMTSZ
 40
0.0
  9
$DIMTOL
 70
     0
  9
$DIMLIM
 70
     0
  9
$DIMTIH
 70
     1
  9
$DIMTOH
 70
     0
  9
$DIMSE1
 70
     0
  9
$DIMSE2
 70
     0
  9
$DIMTAD
 70
     1
  9
$DIMZIN
 70
     0
  9
$DIMBLK
  1

  9
$DIMASO
 70
     1
  9
$DIMSHO
 70
     1
  9
$DIMPOST
  1

  9
$DIMAPOST
  1

  9
$DIMALT
 70
     0
  9
$DIMALTD
 70
     2
  9
$DIMALTF
 40
0.0394
  9
$DIMLFAC
 40
1.0
  9
$DIMTOFL
 70
     1
  9
$DIMTVP
 40
1.0
  9
$DIMTIX
 70
     0
  9
$DIMSOXD
 70
     0
  9
$DIMSAH
 70
     0
  9
$DIMBLK1
  1

  9
$DIMBLK2
  1

  9
$DIMSTYLE
  2
STANDARD
  9
$DIMCLRD
 70
     0
  9
$DIMCLRE
 70
     0
  9
$DIMCLRT
 70
     0
  9
$DIMTFAC
 40
1.0
  9
$DIMGAP
 40
0.625
  9
$DIMJUST
 70
     0
  9
$DIMSD1
 70
     0
  9
$DIMSD2
 70
     0
  9
$DIMTOLJ
 70
     1
  9
$DIMTZIN
 70
     0
  9
$DIMALTZ
 70
     0
  9
$DIMALTTZ
 70
     0
  9
$DIMUPT
 70
     0
  9
$DIMDEC
 70
     4
  9
$DIMTDEC
 70
     4
  9
$DIMALTU
 70
     2
  9
$DIMALTTD
 70
     2
  9
$DIMTXSTY
  7
STANDARD
  9
$DIMAUNIT
 70
     0
  9
$DIMADEC
 70
     0
  9
$DIMALTRND
 40
0.0
  9
$DIMAZIN
 70
     0
  9
$DIMDSEP
 70
    46
  9
$DIMATFIT
 70
     3
  9
$DIMFRAC
 70
     0
  9
$DIMLDRBLK
  1

  9
$DIMLUNIT
 70
     2
  9
$DIMLWD
 70
    -2
  9
$DIMLWE
 70
    -2
  9
$DIMTMOVE
 70
     2
  9
$LUNITS
 70
     2
  9
$LUPREC
 70
     4
  9
$SKETCHINC
 40
1.0
  9
$FILLETRAD
 40
0.0
  9
$AUNITS
 70
     0
  9
$AUPREC
 70
     0
  9
$MENU
  1
acad
  9
$ELEVATION
 40
0.0
  9
$PELEVATION
 40
0.0
  9
$THICKNESS
 40
0.0
  9
$LIMCHECK
 70
     0
  9
$CHAMFERA
 40
10.0
  9
$CHAMFERB
 40
10.0
  9
$CHAMFERC
 40
0.0
  9
$CHAMFERD
 40
0.0
  9
$SKPOLY
 70
     0
  9
$TDCREATE
 40
2453046.711460498
  9
$TDUCREATE
 40
2453046.336460498
  9
$TDUPDATE
 40
2457185.493399572
  9
$TDUUPDATE
 40
2457185.118399572
  9
$TDINDWG
 40
0.0005110185
  9
$TDUSRTIMER
 40
0.0005110185
  9
$USRTIMER
 70
     1
  9
$ANGBASE
 50
0.0
  9
$ANGDIR
 70
     0
  9
$PDMODE
 70
     0
  9
$PDSIZE
 40
0.0
  9
$PLINEWID
 40
0.0
  9
$SPLFRAME
 70
     0
  9
$SPLINETYPE
 70
     6
  9
$SPLINESEGS
 70
     8
  9
$HANDSEED
  5
49B
  9
$SURFTAB1
 70
     6
  9
$SURFTAB2
 70
     6
  9
$SURFTYPE
 70
     6
  9
$SURFU
 70
     6
  9
$SURFV
 70
     6
  9
$UCSBASE
  2

  9
$UCSNAME
  2

  9
$UCSORG
 10
0.0
 20
0.0
 30
0.0
  9
$UCSXDIR
 10
1.0
 20
0.0
 30
0.0
  9
$UCSYDIR
 10
0.0
 20
1.0
 30
0.0
  9
$UCSORTHOREF
  2

  9
$UCSORTHOVIEW
 70
     0
  9
$UCSORGTOP
 10
0.0
 20
0.0
 30
0.0
  9
$UCSORGBOTTOM
 10
0.0
 20
0.0
 30
0.0
  9
$UCSORGLEFT
 10
0.0
 20
0.0
 30
0.0
  9
$UCSORGRIGHT
 10
0.0
 20
0.0
 30
0.0
  9
$UCSORGFRONT
 10
0.0
 20
0.0
 30
0.0
  9
$UCSORGBACK
 10
0.0
 20
0.0
 30
0.0
  9
$PUCSBASE
  2

  9
$PUCSNAME
  2

  9
$PUCSORG
 10
0.0
 20
0.0
 30
0.0
  9
$PUCSXDIR
 10
1.0
 20
0.0
 30
0.0
  9
$PUCSYDIR
 10
0.0
 20
1.0
 30
0.0
  9
$PUCSORTHOREF
  2

  9
$PUCSORTHOVIEW
 70
     0
  9
$PUCSORGTOP
 10
0.0
 20
0.0
 30
0.0
  9
$PUCSORGBOTTOM
 10
0.0
 20
0.0
 30
0.0
  9
$PUCSORGLEFT
 10
0.0
 20
0.0
 30
0.0
  9
$PUCSORGRIGHT
 10
0.0
 20
0.0
 30
0.0
  9
$PUCSORGFRONT
 10
0.0
 20
0.0
 30
0.0
  9
$PUCSORGBACK
 10
0.0
 20
0.0
 30
0.0
  9
$USERI1
 70
     0
  9
$USERI2
 70
     0
  9
$USERI3
 70
     0
  9
$USERI4
 70
     0
  9
$USERI5
 70
     0
  9
$USERR1
 40
0.0
  9
$USERR2
 40
0.0
  9
$USERR3
 40
0.0
  9
$USERR4
 40
0.0
  9
$USERR5
 40
0.0
  9
$WORLDVIEW
 70
     1
  9
$SHADEDGE
 70
     3
  9
$SHADEDIF
 70
    70
  9
$TILEMODE
 70
     1
  9
$MAXACTVP
 70
    16
  9
$PINSBASE
 10
0.0
 20
0.0
 30
0.0
  9
$PLIMCHECK
 70
     0
  9
$PEXTMIN
 10
1.00000000E+20
 20
1.00000000E+20
 30
1.00000000E+20
  9
$PEXTMAX
 10
-1.00000000E+20
 20
-1.00000000E+20
 30
-1.00000000E+20
  9
$PLIMMIN
 10
0.0
 20
0.0
  9
$PLIMMAX
 10
420.0
 20
297.0
  9
$UNITMODE
 70
     0
  9
$VISRETAIN
 70
     0
  9
$PLINEGEN
 70
     0
  9
$PSLTSCALE
 70
     1
  9
$TREEDEPTH
 70
  3020
  9
$CMLSTYLE
  2
STANDARD
  9
$CMLJUST
 70
     0
  9
$CMLSCALE
 40
1.0
  9
$PROXYGRAPHICS
 70
     1
  9
$MEASUREMENT
 70
     1
  9
$CELWEIGHT
370
    -1
  9
$ENDCAPS
280
     0
  9
$JOINSTYLE
280
     0
  9
$LWDISPLAY
290
     0
  9
$INSUNITS
 70
     0
  9
$HYPERLINKBASE
  1

  9
$STYLESHEET
  1

  9
$XEDIT
290
     1
  9
$CEPSNTYPE
380
     0
  9
$PSTYLEMODE
290
     1
  9
$FINGERPRINTGUID
  2
{3708207B-34CF-4F01-A1E8-7348B016E5BC}
  9
$VERSIONGUID
  2
{FF7164CE-C990-4DD9-A7ED-52D625690A97}
  9
$EXTNAMES
290
     1
  9
$PSVPSCALE
 40
0.0
  9
$OLESTARTUP
290
     0
  9
$SORTENTS
280
   127
  9
$INDEXCTL
280
     0
  9
$HIDETEXT
280
     0
  9
$XCLIPFRAME
290
     0
  9
$HALOGAP
280
     0
  9
$OBSCOLOR
 70
   257
  9
$OBSLTYPE
280
     0
  9
$INTERSECTIONDISPLAY
280
     0
  9
$INTERSECTIONCOLOR
 70
   257
  9
$DIMASSOC
280
     1
  9
$PROJECTNAME
  1

  0
ENDSEC
  0
SECTION
  2
CLASSES
  0
CLASS
  1
DICTIONARYVAR
  2
AcDbDictionaryVar
  3
ObjectDBX Classes
 90
        0
 91
        8
280
     0
281
     0
  0
CLASS
  1
ACDBDICTIONARYWDFLT
  2
AcDbDictionaryWithDefault
  3
ObjectDBX Classes
 90
        0
 91
        1
280
     0
281
     0
  0
CLASS
  1
MATERIAL
  2
AcDbMaterial
  3
ObjectDBX Classes
 90
     1153
 91
        3
280
     0
281
     0
  0
CLASS
  1
VISUALSTYLE
  2
AcDbVisualStyle
  3
ObjectDBX Classes
 90
     4095
 91
       24
280
     0
281
     0
  0
CLASS
  1
TABLESTYLE
  2
AcDbTableStyle
  3
ObjectDBX Classes
 90
     4095
 91
        1
280
     0
281
     0
  0
CLASS
  1
SCALE
  2
AcDbScale
  3
ObjectDBX Classes
 90
     1153
 91
       17
280
     0
281
     0
  0
CLASS
  1
MLEADERSTYLE
  2
AcDbMLeaderStyle
  3
ACDB_MLEADERSTYLE_CLASS
 90
     4095
 91
        1
280
     0
281
     0
  0
CLASS
  1
ACDBSECTIONVIEWSTYLE
  2
AcDbSectionViewStyle
  3
ObjectDBX Classes
 90
     1025
 91
        1
280
     0
281
     0
  0
CLASS
  1
ACDBDETAILVIEWSTYLE
  2
AcDbDetailViewStyle
  3
ObjectDBX Classes
 90
     1025
 91
        1
280
     0
281
     0
  0
CLASS
  1
CELLSTYLEMAP
  2
AcDbCellStyleMap
  3
ObjectDBX Classes
 90
     1152
 91
        2
280
     0
281
     0
  0
ENDSEC
  0
SECTION
  2
TABLES
  0
TABLE
  2
VPORT
  5
385
330
0
100
AcDbSymbolTable
 70
     1
  0
VPORT
  5
3B8
330
385
100
AcDbSymbolTableRecord
100
AcDbViewportTableRecord
  2
*ACTIVE
 70
     0
 10
0.0
 20
0.0
 11
1.0
 21
1.0
 12
14848.86727697
 22
10499.19908472
 13
0.0
 23
0.0
 14
10.0
 24
10.0
 15
10.0
 25
10.0
 16
0.0
 26
0.0
 36
1.0
 17
0.0
 27
0.0
 37
0.0
 40
22268.29634674
 41
1.34178905
 42
50.0
 43
0.0
 44
0.0
 50
0.0
 51
0.0
 71
     0
 72
   100
 73
     1
 74
     0
 75
     0
 76
     0
 77
     0
 78
     0
281
     0
 65
     1
110
0.0
120
0.0
130
0.0
111
1.0
121
0.0
131
0.0
112
0.0
122
1.0
132
0.0
 79
     0
146
0.0
1001
ACAD_NAV_VCDISPLAY
1070
     1
  0
ENDTAB
  0
TABLE
  2
LTYPE
  5
382
330
0
100
AcDbSymbolTable
 70
     3
  0
LTYPE
  5
38E
330
382
100
AcDbSymbolTableRecord
100
AcDbLinetypeTableRecord
  2
BYBLOCK
 70
     0
  3

 72
    65
 73
     0
 40
0.0
  0
LTYPE
  5
38F
330
382
100
AcDbSymbolTableRecord
100
AcDbLinetypeTableRecord
  2
BYLAYER
 70
     0
  3

 72
    65
 73
     0
 40
0.0
  0
LTYPE
  5
390
330
382
100
AcDbSymbolTableRecord
100
AcDbLinetypeTableRecord
  2
CONTINUOUS
 70
     0
  3
Solid line
 72
    65
 73
     0
 40
0.0
  0
LTYPE
  5
39A
330
382
100
AcDbSymbolTableRecord
100
AcDbLinetypeTableRecord
  2
CENTER
 70
     0
  3
____ _ ____ _ ____ _ ____ _ ____ _ ____ _ ____ 
 72
    65
 73
     4
 40
2.0
 49
1.25
 74
     0
 49
-0.25
 74
     0
 49
0.25
 74
     0
 49
-0.25
 74
     0
  0
LTYPE
  5
39B
330
382
100
AcDbSymbolTableRecord
100
AcDbLinetypeTableRecord
  2
HIDDEN
 70
     0
  3
__ __ __ __ __ __ __ __ __ __ __ __ __ __ __ __
 72
    65
 73
     2
 40
0.375
 49
0.25
 74
     0
 49
-0.125
 74
     0
  0
ENDTAB
  0
TABLE
  2
LAYER
  5
37F
330
0
100
AcDbSymbolTable
 70
     4
  0
LAYER
  5
38B
330
37F
100
AcDbSymbolTableRecord
100
AcDbLayerTableRecord
  2
0
 70
     0
 62
     7
  6
CONTINUOUS
370
    -3
390
3BB
  0
LAYER
  5
39F
330
37F
100
AcDbSymbolTableRecord
100
AcDbLayerTableRecord
  2
YKK_F1
 70
     0
 62
     7
  6
CONTINUOUS
370
    -3
390
3BB
  0
LAYER
  5
3A0
330
37F
100
AcDbSymbolTableRecord
100
AcDbLayerTableRecord
  2
YKK_A1
 70
     0
 62
     4
  6
CONTINUOUS
370
    -3
390
3BB
  0
LAYER
  5
3A1
330
37F
100
AcDbSymbolTableRecord
100
AcDbLayerTableRecord
  2
YKK_A2
 70
     0
 62
     3
  6
CONTINUOUS
370
    -3
390
3BB
  0
ENDTAB
  0
TABLE
  2
STYLE
  5
380
330
0
100
AcDbSymbolTable
 70
     2
  0
STYLE
  5
38C
330
380
100
AcDbSymbolTableRecord
100
AcDbTextStyleTableRecord
  2
STANDARD
 70
     0
 40
0.0
 41
1.0
 50
0.0
 71
     0
 42
3.5
  3
txt.shx
  4
bigfont.shx
  0
STYLE
  5
399
330
380
100
AcDbSymbolTableRecord
100
AcDbTextStyleTableRecord
  2
EXTFONT
 70
     0
 40
0.0
 41
1.0
 50
0.0
 71
     0
 42
3.5
  3
txt.shx
  4
EXTFONT.SHX
  0
ENDTAB
  0
TABLE
  2
VIEW
  5
383
330
0
100
AcDbSymbolTable
 70
     0
  0
ENDTAB
  0
TABLE
  2
UCS
  5
384
330
0
100
AcDbSymbolTable
 70
     0
  0
ENDTAB
  0
TABLE
  2
APPID
  5
386
330
0
100
AcDbSymbolTable
 70
     5
  0
APPID
  5
38D
330
386
100
AcDbSymbolTableRecord
100
AcDbRegAppTableRecord
  2
ACAD
 70
     0
  0
APPID
  5
447
330
386
100
AcDbSymbolTableRecord
100
AcDbRegAppTableRecord
  2
ACAD_MLEADERVER
 70
     0
  0
APPID
  5
45B
330
386
100
AcDbSymbolTableRecord
100
AcDbRegAppTableRecord
  2
ACAD_PSEXT
 70
     0
  0
APPID
  5
45C
330
386
100
AcDbSymbolTableRecord
100
AcDbRegAppTableRecord
  2
ACAD_NAV_VCDISPLAY
 70
     0
  0
APPID
  5
45D
330
386
100
AcDbSymbolTableRecord
100
AcDbRegAppTableRecord
  2
YKK_AP_LOCKLAYER
 70
     0
  0
ENDTAB
  0
TABLE
  2
DIMSTYLE
  5
387
330
0
100
AcDbSymbolTable
 70
     1
100
AcDbDimStyleTable
 71
     0
  0
DIMSTYLE
105
39E
330
387
100
AcDbSymbolTableRecord
100
AcDbDimStyleTableRecord
  2
STANDARD
 70
     0
279
     2
340
38C
  0
ENDTAB
  0
TABLE
  2
BLOCK_RECORD
  5
37E
330
0
100
AcDbSymbolTable
 70
     0
  0
BLOCK_RECORD
  5
394
330
37E
100
AcDbSymbolTableRecord
100
AcDbBlockTableRecord
  2
*MODEL_SPACE
340
40E
  0
BLOCK_RECORD
  5
391
330
37E
100
AcDbSymbolTableRecord
100
AcDbBlockTableRecord
  2
*PAPER_SPACE
340
40F
  0
ENDTAB
  0
ENDSEC
  0
SECTION
  2
BLOCKS
  0
BLOCK
  5
3A4
330
394
100
AcDbEntity
  8
0
100
AcDbBlockBegin
  2
*MODEL_SPACE
 70
     0
 10
0.0
 20
0.0
 30
0.0
  3
*MODEL_SPACE
  1

  0
ENDBLK
  5
3A5
330
394
100
AcDbEntity
  8
0
100
AcDbBlockEnd
  0
BLOCK
  5
3A2
330
391
100
AcDbEntity
 67
     1
  8
0
100
AcDbBlockBegin
  2
*PAPER_SPACE
 70
     0
 10
0.0
 20
0.0
 30
0.0
  3
*PAPER_SPACE
  1

  0
ENDBLK
  5
3A3
330
391
100
AcDbEntity
 67
     1
  8
0
100
AcDbBlockEnd
  0
ENDSEC
  0
SECTION
  2
ENTITIES
  0
LINE
  5
1D
330
394
100
AcDbEntity
  8
YKK_F1
  6
Continuous
100
AcDbLine
 10
21494.55
 20
1450.376
 30
0.0
 11
27990.79
 21
1450.376
 31
0.0
  0
LINE
  5
1F
330
394
100
AcDbEntity
  8
YKK_F1
  6
Continuous
100
AcDbLine
 10
5550.039
 20
8707.9363
 30
0.0
 11
28800.039
 21
8707.9363
 31
0.0
  0
LINE
  5
20
330
394
100
AcDbEntity
  8
YKK_F1
  6
Continuous
100
AcDbLine
 10
5550.039
 20
8957.9363
 30
0.0
 11
28800.039
 21
8957.9363
 31
0.0
  0
LINE
  5
21
330
394
100
AcDbEntity
  8
YKK_F1
  6
Continuous
100
AcDbLine
 10
900.039
 20
8457.9363
 30
0.0
 11
28800.039
 21
8457.9363
 31
0.0
  0
LINE
  5
22
330
394
100
AcDbEntity
  8
YKK_F1
  6
Continuous
100
AcDbLine
 10
900.039
 20
9207.9363
 30
0.0
 11
28800.039
 21
9207.9363
 31
0.0
  0
LINE
  5
23
330
394
100
AcDbEntity
  8
YKK_F1
  6
Continuous
100
AcDbLine
 10
900.039
 20
9457.9363
 30
0.0
 11
28800.039
 21
9457.9363
 31
0.0
  0
LINE
  5
24
330
394
100
AcDbEntity
  8
YKK_F1
  6
Continuous
100
AcDbLine
 10
900.039
 20
9707.9363
 30
0.0
 11
28800.039
 21
9707.9363
 31
0.0
  0
LINE
  5
25
330
394
100
AcDbEntity
  8
YKK_F1
  6
Continuous
100
AcDbLine
 10
900.039
 20
9957.9363
 30
0.0
 11
28800.039
 21
9957.9363
 31
0.0
  0
LINE
  5
26
330
394
100
AcDbEntity
  8
YKK_F1
  6
Continuous
100
AcDbLine
 10
900.039
 20
10207.9363
 30
0.0
 11
28800.039
 21
10207.9363
 31
0.0
  0
LINE
  5
27
330
394
100
AcDbEntity
  8
YKK_F1
  6
Continuous
100
AcDbLine
 10
900.039
 20
10457.9363
 30
0.0
 11
28800.039
 21
10457.9363
 31
0.0
  0
LINE
  5
28
330
394
100
AcDbEntity
  8
YKK_F1
  6
Continuous
100
AcDbLine
 10
900.039
 20
4502.9363
 30
0.0
 11
28800.039
 21
4502.9363
 31
0.0
  0
LINE
  5
29
330
394
100
AcDbEntity
  8
YKK_F1
  6
Continuous
100
AcDbLine
 10
900.039
 20
4252.9363
 30
0.0
 11
28800.039
 21
4252.9363
 31
0.0
  0
LINE
  5
2A
330
394
100
AcDbEntity
  8
YKK_F1
  6
Continuous
100
AcDbLine
 10
900.039
 20
4002.9363
 30
0.0
 11
28800.039
 21
4002.9363
 31
0.0
  0
LINE
  5
2B
330
394
100
AcDbEntity
  8
YKK_F1
  6
Continuous
100
AcDbLine
 10
900.039
 20
3752.9363
 30
0.0
 11
28800.039
 21
3752.9363
 31
0.0
  0
LINE
  5
2C
330
394
100
AcDbEntity
  8
YKK_F1
  6
Continuous
100
AcDbLine
 10
900.039
 20
3502.9363
 30
0.0
 11
28800.039
 21
3502.9363
 31
0.0
  0
LINE
  5
2D
330
394
100
AcDbEntity
  8
YKK_F1
  6
Continuous
100
AcDbLine
 10
900.039
 20
3252.9363
 30
0.0
 11
28800.039
 21
3252.9363
 31
0.0
  0
LINE
  5
2E
330
394
100
AcDbEntity
  8
YKK_F1
  6
Continuous
100
AcDbLine
 10
5550.039
 20
3002.9363
 30
0.0
 11
28800.039
 21
3002.9363
 31
0.0
  0
LINE
  5
2F
330
394
100
AcDbEntity
  8
YKK_F1
  6
Continuous
100
AcDbLine
 10
5550.039
 20
2752.9363
 30
0.0
 11
28800.039
 21
2752.9363
 31
0.0
  0
LINE
  5
30
330
394
100
AcDbEntity
  8
YKK_F1
  6
Continuous
100
AcDbLine
 10
900.039
 20
2502.9363
 30
0.0
 11
28800.039
 21
2502.9363
 31
0.0
  0
LINE
  5
31
330
394
100
AcDbEntity
  8
YKK_F1
  6
Continuous
100
AcDbLine
 10
900.039
 20
7457.9363
 30
0.0
 11
28800.039
 21
7457.9363
 31
0.0
  0
LINE
  5
32
330
394
100
AcDbEntity
  8
YKK_F1
  6
Continuous
100
AcDbLine
 10
900.039
 20
7707.9363
 30
0.0
 11
28800.039
 21
7707.9363
 31
0.0
  0
LINE
  5
33
330
394
100
AcDbEntity
  8
YKK_F1
  6
Continuous
100
AcDbLine
 10
900.039
 20
8207.9363
 30
0.0
 11
28800.039
 21
8207.9363
 31
0.0
  0
LINE
  5
34
330
394
100
AcDbEntity
  8
YKK_F1
  6
Continuous
100
AcDbLine
 10
900.039
 20
2252.9363
 30
0.0
 11
28800.039
 21
2252.9363
 31
0.0
  0
LINE
  5
35
330
394
100
AcDbEntity
  8
YKK_F1
  6
Continuous
100
AcDbLine
 10
659.77445
 20
1949.4363
 30
0.0
 11
29040.229
 21
1949.4363
 31
0.0
  0
LINE
  5
36
330
394
100
AcDbEntity
  8
YKK_F1
  6
Continuous
100
AcDbLine
 10
29027.821
 20
662.59406
 30
0.0
 11
672.18069
 21
662.59406
 31
0.0
  0
LINE
  5
37
330
394
100
AcDbEntity
  8
YKK_F1
  6
Continuous
100
AcDbLine
 10
29015.417
 20
675.00009
 30
0.0
 11
685.15046
 21
675.00009
 31
0.0
  0
LINE
  5
38
330
394
100
AcDbEntity
  8
YKK_F1
  6
Continuous
100
AcDbLine
 10
29002.445
 20
687.97002
 30
0.0
 11
697.5567
 21
687.97002
 31
0.0
  0
LINE
  5
39
330
394
100
AcDbEntity
  8
YKK_F1
  6
Continuous
100
AcDbLine
 10
28990.039
 20
700.94001
 30
0.0
 11
709.96201
 21
700.94001
 31
0.0
  0
LINE
  5
3A
330
394
100
AcDbEntity
  8
YKK_F1
  6
Continuous
100
AcDbLine
 10
29040.229
 20
650.18799
 30
0.0
 11
659.77445
 21
650.18799
 31
0.0
  0
LINE
  5
3B
330
394
100
AcDbEntity
  8
YKK_F1
  6
Continuous
100
AcDbLine
 10
29190.79
 20
500.75202
 30
0.0
 11
509.77446
 21
500.75202
 31
0.0
  0
LINE
  5
3C
330
394
100
AcDbEntity
  8
YKK_F1
  6
Continuous
100
AcDbLine
 10
900.039
 20
14162.9363
 30
0.0
 11
28800.039
 21
14162.9363
 31
0.0
  0
LINE
  5
3D
330
394
100
AcDbEntity
  8
YKK_F1
  6
Continuous
100
AcDbLine
 10
900.039
 20
16412.9363
 30
0.0
 11
28800.039
 21
16412.9363
 31
0.0
  0
LINE
  5
3E
330
394
100
AcDbEntity
  8
YKK_F1
  6
Continuous
100
AcDbLine
 10
900.039
 20
16162.9363
 30
0.0
 11
28800.039
 21
16162.9363
 31
0.0
  0
LINE
  5
3F
330
394
100
AcDbEntity
  8
YKK_F1
  6
Continuous
100
AcDbLine
 10
900.039
 20
15912.9363
 30
0.0
 11
28800.039
 21
15912.9363
 31
0.0
  0
LINE
  5
40
330
394
100
AcDbEntity
  8
YKK_F1
  6
Continuous
100
AcDbLine
 10
900.039
 20
15662.9363
 30
0.0
 11
28800.039
 21
15662.9363
 31
0.0
  0
LINE
  5
41
330
394
100
AcDbEntity
  8
YKK_F1
  6
Continuous
100
AcDbLine
 10
900.039
 20
15412.9363
 30
0.0
 11
28800.039
 21
15412.9363
 31
0.0
  0
LINE
  5
42
330
394
100
AcDbEntity
  8
YKK_F1
  6
Continuous
100
AcDbLine
 10
900.039
 20
15162.9363
 30
0.0
 11
28800.039
 21
15162.9363
 31
0.0
  0
LINE
  5
43
330
394
100
AcDbEntity
  8
YKK_F1
  6
Continuous
100
AcDbLine
 10
5550.039
 20
14912.9363
 30
0.0
 11
28800.039
 21
14912.9363
 31
0.0
  0
LINE
  5
44
330
394
100
AcDbEntity
  8
YKK_F1
  6
Continuous
100
AcDbLine
 10
5550.039
 20
14662.9363
 30
0.0
 11
28800.039
 21
14662.9363
 31
0.0
  0
LINE
  5
45
330
394
100
AcDbEntity
  8
YKK_F1
  6
Continuous
100
AcDbLine
 10
900.039
 20
14412.9363
 30
0.0
 11
28800.039
 21
14412.9363
 31
0.0
  0
LINE
  5
46
330
394
100
AcDbEntity
  8
YKK_F1
  6
Continuous
100
AcDbLine
 10
900.039
 20
19367.9363
 30
0.0
 11
28800.039
 21
19367.9363
 31
0.0
  0
LINE
  5
47
330
394
100
AcDbEntity
  8
YKK_F1
  6
Continuous
100
AcDbLine
 10
900.039
 20
19617.9363
 30
0.0
 11
28800.039
 21
19617.9363
 31
0.0
  0
LINE
  5
48
330
394
100
AcDbEntity
  8
YKK_F1
  6
Continuous
100
AcDbLine
 10
900.039
 20
13662.9363
 30
0.0
 11
28800.039
 21
13662.9363
 31
0.0
  0
LINE
  5
49
330
394
100
AcDbEntity
  8
YKK_F1
  6
Continuous
100
AcDbLine
 10
900.039
 20
13412.9363
 30
0.0
 11
28800.039
 21
13412.9363
 31
0.0
  0
LINE
  5
4A
330
394
100
AcDbEntity
  8
YKK_F1
  6
Continuous
100
AcDbLine
 10
900.039
 20
20117.9363
 30
0.0
 11
28800.039
 21
20117.9363
 31
0.0
  0
LINE
  5
4B
330
394
100
AcDbEntity
  8
YKK_F1
  6
Continuous
100
AcDbLine
 10
709.96201
 20
20287.219
 30
0.0
 11
28990.039
 21
20287.219
 31
0.0
  0
LINE
  5
4C
330
394
100
AcDbEntity
  8
YKK_F1
  6
Continuous
100
AcDbLine
 10
509.77446
 20
20487.406
 30
0.0
 11
29190.79
 21
20487.406
 31
0.0
  0
LINE
  5
4D
330
394
100
AcDbEntity
  8
YKK_F1
  6
Continuous
100
AcDbLine
 10
697.5567
 20
20299.624
 30
0.0
 11
29002.445
 21
20299.624
 31
0.0
  0
LINE
  5
4E
330
394
100
AcDbEntity
  8
YKK_F1
  6
Continuous
100
AcDbLine
 10
685.15046
 20
20312.594
 30
0.0
 11
29015.417
 21
20312.594
 31
0.0
  0
LINE
  5
4F
330
394
100
AcDbEntity
  8
YKK_F1
  6
Continuous
100
AcDbLine
 10
672.18069
 20
20325.566
 30
0.0
 11
29027.821
 21
20325.566
 31
0.0
  0
LINE
  5
50
330
394
100
AcDbEntity
  8
YKK_F1
  6
Continuous
100
AcDbLine
 10
659.77445
 20
20337.97
 30
0.0
 11
29040.229
 21
20337.97
 31
0.0
  0
LINE
  5
51
330
394
100
AcDbEntity
  8
YKK_F1
100
AcDbLine
 10
0.0
 20
21000.0
 30
0.0
 11
29700.0
 21
21000.0
 31
0.0
  0
LINE
  5
52
330
394
100
AcDbEntity
  8
YKK_F1
100
AcDbLine
 10
0.0
 20
0.0
 30
0.0
 11
29700.0
 21
0.0
 31
0.0
  0
LINE
  5
53
330
394
100
AcDbEntity
  8
YKK_F1
  6
Continuous
100
AcDbLine
 10
19500.039
 20
2252.9363
 30
0.0
 11
19500.039
 21
20117.9363
 31
0.0
  0
LINE
  5
54
330
394
100
AcDbEntity
  8
YKK_F1
  6
Continuous
100
AcDbLine
 10
14850.039
 20
2252.9363
 30
0.0
 11
14850.039
 21
20117.9363
 31
0.0
  0
LINE
  5
55
330
394
100
AcDbEntity
  8
YKK_F1
  6
Continuous
100
AcDbLine
 10
900.039
 20
2252.9363
 30
0.0
 11
900.039
 21
20117.9363
 31
0.0
  0
LINE
  5
56
330
394
100
AcDbEntity
  8
YKK_F1
  6
Continuous
100
AcDbLine
 10
709.96201
 20
700.94001
 30
0.0
 11
709.96201
 21
20287.219
 31
0.0
  0
LINE
  5
57
330
394
100
AcDbEntity
  8
YKK_F1
  6
Continuous
100
AcDbLine
 10
697.5567
 20
687.97002
 30
0.0
 11
697.5567
 21
20299.624
 31
0.0
  0
LINE
  5
58
330
394
100
AcDbEntity
  8
YKK_F1
  6
Continuous
100
AcDbLine
 10
685.15046
 20
675.00009
 30
0.0
 11
685.15046
 21
20312.594
 31
0.0
  0
LINE
  5
59
330
394
100
AcDbEntity
  8
YKK_F1
  6
Continuous
100
AcDbLine
 10
672.18069
 20
662.59406
 30
0.0
 11
672.18069
 21
20325.566
 31
0.0
  0
LINE
  5
5A
330
394
100
AcDbEntity
  8
YKK_F1
  6
Continuous
100
AcDbLine
 10
659.77445
 20
650.18799
 30
0.0
 11
659.77445
 21
20337.97
 31
0.0
  0
LINE
  5
5B
330
394
100
AcDbEntity
  8
YKK_F1
  6
Continuous
100
AcDbLine
 10
509.77446
 20
500.75202
 30
0.0
 11
509.77446
 21
20487.406
 31
0.0
  0
LINE
  5
5C
330
394
100
AcDbEntity
  8
YKK_F1
  6
Continuous
100
AcDbLine
 10
5550.039
 20
2252.9363
 30
0.0
 11
5550.039
 21
20117.9363
 31
0.0
  0
LINE
  5
5D
330
394
100
AcDbEntity
  8
YKK_F1
  6
Continuous
100
AcDbLine
 10
10200.039
 20
2252.9363
 30
0.0
 11
10200.039
 21
20117.9363
 31
0.0
  0
LINE
  5
5E
330
394
100
AcDbEntity
  8
YKK_F1
100
AcDbLine
 10
0.0
 20
0.0
 30
0.0
 11
0.0
 21
21000.0
 31
0.0
  0
TEXT
  5
5F
330
394
100
AcDbEntity
  8
0
100
AcDbText
 10
5650.039
 20
9482.9363
 30
0.0
 40
200.0
  1
シルバー･ｶﾗｰ(ブロンズ､ステン､ブラック)
  7
EXTFONT
100
AcDbText
  0
TEXT
  5
61
330
394
100
AcDbEntity
  8
0
100
AcDbText
 10
5650.039
 20
10232.9363
 30
0.0
 40
200.0
  1
突き出し窓（隠蔽式排煙窓）
  7
EXTFONT
100
AcDbText
  0
TEXT
  5
62
330
394
100
AcDbEntity
  8
0
100
AcDbText
 10
5650.039
 20
9982.9363
 30
0.0
 40
200.0
  1
W=800　H=600　見込100
  7
EXTFONT
100
AcDbText
  0
LINE
  5
63
330
394
100
AcDbEntity
  8
YKK_F1
  6
Continuous
100
AcDbLine
 10
10604.323
 20
950.75203
 30
0.0
 11
659.77445
 21
950.75203
 31
0.0
  0
LINE
  5
64
330
394
100
AcDbEntity
  8
YKK_F1
  6
Continuous
100
AcDbLine
 10
10604.323
 20
1200.5641
 30
0.0
 11
659.77445
 21
1200.5641
 31
0.0
  0
LINE
  5
65
330
394
100
AcDbEntity
  8
YKK_F1
  6
Continuous
100
AcDbLine
 10
10604.323
 20
1450.376
 30
0.0
 11
659.77445
 21
1450.376
 31
0.0
  0
LINE
  5
66
330
394
100
AcDbEntity
  8
YKK_F1
  6
Continuous
100
AcDbLine
 10
10604.323
 20
1701.3159
 30
0.0
 11
659.77445
 21
1701.3159
 31
0.0
  0
TEXT
  5
67
330
394
100
AcDbEntity
  8
0
100
AcDbText
 10
5650.039
 20
3777.9363
 30
0.0
 40
200.0
  1
＊
  7
EXTFONT
100
AcDbText
  0
TEXT
  5
68
330
394
100
AcDbEntity
  8
YKK_F1
100
AcDbText
 10
2183.67067185
 20
3772.9363
 30
0.0
 40
200.0
  1
材　　　　　　　質
  7
EXTFONT
 72
     1
 11
3237.00400518
 21
3772.9363
 31
0.0
100
AcDbText
  0
TEXT
  5
69
330
394
100
AcDbEntity
  8
YKK_F1
100
AcDbText
 10
1259.96201
 20
949.6242
 30
0.0
 40
250.0
  1
*
  7
EXTFONT
100
AcDbText
  0
TEXT
  5
6A
330
394
100
AcDbEntity
  8
YKK_F1
100
AcDbText
 10
1259.96201
 20
699.6242
 30
0.0
 40
250.0
  1
*
  7
EXTFONT
100
AcDbText
  0
TEXT
  5
6B
330
394
100
AcDbEntity
  8
YKK_F1
100
AcDbText
 10
1259.96201
 20
1200.376
 30
0.0
 40
250.0
  1
*
  7
EXTFONT
100
AcDbText
  0
TEXT
  5
6C
330
394
100
AcDbEntity
  8
YKK_F1
100
AcDbText
 10
1259.96201
 20
1701.3159
 30
0.0
 40
250.0
  1
*
  7
EXTFONT
100
AcDbText
  0
TEXT
  5
6D
330
394
100
AcDbEntity
  8
YKK_F1
100
AcDbText
 10
759.96201
 20
1776.3159
 30
0.0
 40
100.0
  1
付記：
  7
EXTFONT
100
AcDbText
  0
TEXT
  5
6E
330
394
100
AcDbEntity
  8
YKK_F1
100
AcDbText
 10
1259.96201
 20
1450.376
 30
0.0
 40
250.0
  1
*
  7
EXTFONT
100
AcDbText
  0
TEXT
  5
6F
330
394
100
AcDbEntity
  8
YKK_F1
100
AcDbText
 10
2183.67067185
 20
2272.9363
 30
0.0
 40
200.0
  1
備　　　　　　　考
  7
EXTFONT
 72
     1
 11
3237.00400518
 21
2272.9363
 31
0.0
100
AcDbText
  0
TEXT
  5
70
330
394
100
AcDbEntity
  8
YKK_F1
100
AcDbText
 10
1937.00400518
 20
2647.9363
 30
0.0
 40
200.0
  1
(付　　属　　金　　物)
  7
EXTFONT
 72
     1
 11
3237.00400518
 21
2647.9363
 31
0.0
100
AcDbText
  0
TEXT
  5
71
330
394
100
AcDbEntity
  8
YKK_F1
100
AcDbText
 10
2063.67067185
 20
2897.9363
 30
0.0
 40
200.0
  1
建　　具　　金　　物
  7
EXTFONT
 72
     1
 11
3237.00400518
 21
2897.9363
 31
0.0
100
AcDbText
  0
TEXT
  5
72
330
394
100
AcDbEntity
  8
YKK_F1
100
AcDbText
 10
1817.00400518
 20
3272.9363
 30
0.0
 40
200.0
  1
ガラス・種類・ガラス押え
  7
EXTFONT
 72
     1
 11
3237.00400518
 21
3272.9363
 31
0.0
100
AcDbText
  0
TEXT
  5
73
330
394
100
AcDbEntity
  8
YKK_F1
100
AcDbText
 10
2183.67067185
 20
3522.9363
 30
0.0
 40
200.0
  1
仕　　　　　　　上
  7
EXTFONT
 72
     1
 11
3237.00400518
 21
3522.9363
 31
0.0
100
AcDbText
  0
TEXT
  5
74
330
394
100
AcDbEntity
  8
0
100
AcDbText
 10
5650.039
 20
3027.9363
 30
0.0
 40
200.0
  1
＊
  7
EXTFONT
100
AcDbText
  0
TEXT
  5
75
330
394
100
AcDbEntity
  8
0
100
AcDbText
 10
5650.039
 20
2527.9363
 30
0.0
 40
200.0
  1
＊
  7
EXTFONT
100
AcDbText
  0
TEXT
  5
76
330
394
100
AcDbEntity
  8
0
100
AcDbText
 10
5650.039
 20
2277.9363
 30
0.0
 40
200.0
  1
＊
  7
EXTFONT
100
AcDbText
  0
TEXT
  5
77
330
394
100
AcDbEntity
  8
0
100
AcDbText
 10
5650.039
 20
2777.9363
 30
0.0
 40
200.0
  1
＊
  7
EXTFONT
100
AcDbText
  0
TEXT
  5
78
330
394
100
AcDbEntity
  8
0
100
AcDbText
 10
5650.039
 20
3277.9363
 30
0.0
 40
200.0
  1
＊
  7
EXTFONT
100
AcDbText
  0
TEXT
  5
79
330
394
100
AcDbEntity
  8
0
100
AcDbText
 10
5650.039
 20
3527.9363
 30
0.0
 40
200.0
  1
＊
  7
EXTFONT
100
AcDbText
  0
TEXT
  5
7A
330
394
100
AcDbEntity
  8
YKK_F1
100
AcDbText
 10
1283.67067185
 20
9977.9363
 30
0.0
 40
200.0
  1
寸法・見付・見込（枠見付・枠見込）
  7
EXTFONT
 72
     1
 11
3237.00400518
 21
9977.9363
 31
0.0
100
AcDbText
  0
TEXT
  5
7B
330
394
100
AcDbEntity
  8
YKK_F1
100
AcDbText
 10
1283.67067185
 20
4022.9363
 30
0.0
 40
200.0
  1
寸法・見付・見込（枠見付・枠見込）
  7
EXTFONT
 72
     1
 11
3237.00400518
 21
4022.9363
 31
0.0
100
AcDbText
  0
TEXT
  5
7C
330
394
100
AcDbEntity
  8
YKK_F1
100
AcDbText
 10
1703.67067185
 20
4272.9363
 30
0.0
 40
200.0
  1
型式・防音・エアタイト仕様
  7
EXTFONT
 72
     1
 11
3237.00400518
 21
4272.9363
 31
0.0
100
AcDbText
  0
TEXT
  5
7D
330
394
100
AcDbEntity
  8
YKK_F1
100
AcDbText
 10
2190.33733852
 20
5900.4363
 30
0.0
 40
200.0
  1
姿　　　　　　　図
  7
EXTFONT
 72
     1
 11
3237.00400518
 21
5900.4363
 31
0.0
100
AcDbText
  0
TEXT
  5
7E
330
394
100
AcDbEntity
  8
0
100
AcDbText
 10
5650.039
 20
4277.9363
 30
0.0
 40
200.0
  1
＊
  7
EXTFONT
100
AcDbText
  0
TEXT
  5
7F
330
394
100
AcDbEntity
  8
0
100
AcDbText
 10
5650.039
 20
4027.9363
 30
0.0
 40
200.0
  1
＊
  7
EXTFONT
100
AcDbText
  0
TEXT
  5
80
330
394
100
AcDbEntity
  8
YKK_F1
100
AcDbText
 10
2063.67067185
 20
8852.9363
 30
0.0
 40
200.0
  1
建　　具　　金　　物
  7
EXTFONT
 72
     1
 11
3237.00400518
 21
8852.9363
 31
0.0
100
AcDbText
  0
TEXT
  5
81
330
394
100
AcDbEntity
  8
YKK_F1
100
AcDbText
 10
2183.67067185
 20
7832.9363
 30
0.0
 40
200.0
  1
符　号　・　数　量
  7
EXTFONT
 72
     1
 11
3237.00400518
 21
7832.9363
 31
0.0
100
AcDbText
  0
TEXT
  5
82
330
394
100
AcDbEntity
  8
YKK_F1
100
AcDbText
 10
2183.67067185
 20
7477.9363
 30
0.0
 40
200.0
  1
使用箇所・防火仕様
  7
EXTFONT
 72
     1
 11
3237.00400518
 21
7477.9363
 31
0.0
100
AcDbText
  0
TEXT
  5
83
330
394
100
AcDbEntity
  8
YKK_F1
100
AcDbText
 10
1937.00400518
 20
8602.9363
 30
0.0
 40
200.0
  1
(付　　属　　金　　物)
  7
EXTFONT
 72
     1
 11
3237.00400518
 21
8602.9363
 31
0.0
100
AcDbText
  0
TEXT
  5
84
330
394
100
AcDbEntity
  8
YKK_F1
100
AcDbText
 10
2183.67067185
 20
8227.9363
 30
0.0
 40
200.0
  1
備　　　　　　　考
  7
EXTFONT
 72
     1
 11
3237.00400518
 21
8227.9363
 31
0.0
100
AcDbText
  0
TEXT
  5
85
330
394
100
AcDbEntity
  8
YKK_F1
100
AcDbText
 10
1703.67067185
 20
10227.9363
 30
0.0
 40
200.0
  1
型式・防音・エアタイト仕様
  7
EXTFONT
 72
     1
 11
3237.00400518
 21
10227.9363
 31
0.0
100
AcDbText
  0
TEXT
  5
86
330
394
100
AcDbEntity
  8
YKK_F1
100
AcDbText
 10
1817.00400518
 20
9227.9363
 30
0.0
 40
200.0
  1
ガラス・種類・ガラス押え
  7
EXTFONT
 72
     1
 11
3237.00400518
 21
9227.9363
 31
0.0
100
AcDbText
  0
TEXT
  5
87
330
394
100
AcDbEntity
  8
YKK_F1
100
AcDbText
 10
2183.67067185
 20
9727.9363
 30
0.0
 40
200.0
  1
材　　　　　　　質
  7
EXTFONT
 72
     1
 11
3237.00400518
 21
9727.9363
 31
0.0
100
AcDbText
  0
TEXT
  5
88
330
394
100
AcDbEntity
  8
YKK_F1
100
AcDbText
 10
2183.67067185
 20
9477.9363
 30
0.0
 40
200.0
  1
仕　　　　　　　上
  7
EXTFONT
 72
     1
 11
3237.00400518
 21
9477.9363
 31
0.0
100
AcDbText
  0
TEXT
  5
89
330
394
100
AcDbEntity
  8
0
100
AcDbText
 10
5650.039
 20
8732.9363
 30
0.0
 40
200.0
  1
水切・アングル・膳板
  7
EXTFONT
100
AcDbText
  0
TEXT
  5
8A
330
394
100
AcDbEntity
  8
0
100
AcDbText
 10
5650.039
 20
8232.9363
 30
0.0
 40
180.0
  1
YKKAP YDP-100同等品
  7
EXTFONT
100
AcDbText
  0
TEXT
  5
8B
330
394
100
AcDbEntity
  8
0
100
AcDbText
 10
5850.039
 20
7957.9363
 30
0.0
 40
200.0
  1
＊
  7
EXTFONT
100
AcDbText
  0
TEXT
  5
8C
330
394
100
AcDbEntity
  8
0
100
AcDbText
 10
5850.039
 20
7957.9363
 30
0.0
 40
200.0
  1
＊
  7
EXTFONT
100
AcDbText
  0
CIRCLE
  5
8D
330
394
100
AcDbEntity
  8
YKK_F1
100
AcDbCircle
 10
5950.039
 20
7957.9363
 30
0.0
 40
233.3333333333333
  0
TEXT
  5
8E
330
394
100
AcDbEntity
  8
YKK_F1
100
AcDbText
 10
5790.039
 20
7757.9363
 30
0.0
 40
160.0
  1
ＡＷ
  7
EXTFONT
100
AcDbText
  0
LINE
  5
8F
330
394
100
AcDbEntity
  8
YKK_F1
  6
Continuous
100
AcDbLine
 10
5716.70566667
 20
7957.9363
 30
0.0
 11
6183.37233333
 21
7957.9363
 31
0.0
  0
TEXT
  5
90
330
394
100
AcDbEntity
  8
0
100
AcDbText
 10
5650.039
 20
7482.9363
 30
0.0
 40
200.0
  1
＊
  7
EXTFONT
100
AcDbText
  0
TEXT
  5
91
330
394
100
AcDbEntity
  8
0
100
AcDbText
 10
5650.039
 20
8482.9363
 30
0.0
 40
200.0
  1
＊
  7
EXTFONT
100
AcDbText
  0
TEXT
  5
92
330
394
100
AcDbEntity
  8
0
100
AcDbText
 10
5650.039
 20
9232.9363
 30
0.0
 40
200.0
  1
FL・透明・複層ガラス
  7
EXTFONT
100
AcDbText
  0
TEXT
  5
93
330
394
100
AcDbEntity
  8
0
100
AcDbText
 10
5650.039
 20
8982.9363
 30
0.0
 40
200.0
  1
丁番
  7
EXTFONT
100
AcDbText
  0
TEXT
  5
94
330
394
100
AcDbEntity
  8
0
100
AcDbText
 10
5650.039
 20
9732.9363
 30
0.0
 40
200.0
  1
アルミ製
  7
EXTFONT
100
AcDbText
  0
TEXT
  5
95
330
394
100
AcDbEntity
  8
0
100
AcDbText
 10
14950.039
 20
3777.9363
 30
0.0
 40
200.0
  1
＊
  7
EXTFONT
100
AcDbText
  0
TEXT
  5
96
330
394
100
AcDbEntity
  8
0
100
AcDbText
 10
19600.039
 20
3777.9363
 30
0.0
 40
200.0
  1
＊
  7
EXTFONT
100
AcDbText
  0
TEXT
  5
97
330
394
100
AcDbEntity
  8
0
100
AcDbText
 10
10300.039
 20
3777.9363
 30
0.0
 40
200.0
  1
＊
  7
EXTFONT
100
AcDbText
  0
LINE
  5
98
330
394
100
AcDbEntity
  8
YKK_F1
  6
Continuous
100
AcDbLine
 10
12103.196
 20
1949.4363
 30
0.0
 11
12103.196
 21
650.18799
 31
0.0
  0
LINE
  5
99
330
394
100
AcDbEntity
  8
YKK_F1
  6
Continuous
100
AcDbLine
 10
10604.323
 20
1949.4363
 30
0.0
 11
10604.323
 21
650.18799
 31
0.0
  0
TEXT
  5
9A
330
394
100
AcDbEntity
  8
YKK_F1
100
AcDbText
 10
10654.323
 20
1401.2782
 30
0.0
 40
100.0
  1
設計　　年　　月　　日
  7
EXTFONT
100
AcDbText
  0
LINE
  5
9B
330
394
100
AcDbEntity
  8
YKK_F1
  6
Continuous
100
AcDbLine
 10
12103.196
 20
1117.6692
 30
0.0
 11
10604.323
 21
1117.6692
 31
0.0
  0
TEXT
  5
9C
330
394
100
AcDbEntity
  8
YKK_F1
  6
Continuous
100
AcDbText
 10
10820.301
 20
750.0
 30
0.0
 40
150.0
  1
**,**,**
100
AcDbText
  0
TEXT
  5
9D
330
394
100
AcDbEntity
  8
YKK_F1
  6
Continuous
100
AcDbText
 10
10820.301
 20
1166.7294
 30
0.0
 40
150.0
  1
**,**,**
100
AcDbText
  0
TEXT
  5
9E
330
394
100
AcDbEntity
  8
YKK_F1
100
AcDbText
 10
10654.323
 20
984.5488
 30
0.0
 40
100.0
  1
測量　　年　　月　　日
  7
EXTFONT
100
AcDbText
  0
LINE
  5
9F
330
394
100
AcDbEntity
  8
YKK_F1
  6
Continuous
100
AcDbLine
 10
12103.196
 20
1534.3986
 30
0.0
 11
10604.323
 21
1534.3986
 31
0.0
  0
TEXT
  5
A0
330
394
100
AcDbEntity
  8
YKK_F1
  6
Continuous
100
AcDbText
 10
10820.301
 20
1583.4588
 30
0.0
 40
150.0
  1
**,**,**
100
AcDbText
  0
TEXT
  5
A1
330
394
100
AcDbEntity
  8
YKK_F1
100
AcDbText
 10
10654.323
 20
1816.3159
 30
0.0
 40
100.0
  1
審査　　年　　月　　日
  7
EXTFONT
100
AcDbText
  0
TEXT
  5
A2
330
394
100
AcDbEntity
  8
0
100
AcDbText
 10
10300.039
 20
3527.9363
 30
0.0
 40
200.0
  1
＊
  7
EXTFONT
100
AcDbText
  0
TEXT
  5
A3
330
394
100
AcDbEntity
  8
0
100
AcDbText
 10
10300.039
 20
3277.9363
 30
0.0
 40
200.0
  1
＊
  7
EXTFONT
100
AcDbText
  0
TEXT
  5
A4
330
394
100
AcDbEntity
  8
0
100
AcDbText
 10
10300.039
 20
2777.9363
 30
0.0
 40
200.0
  1
＊
  7
EXTFONT
100
AcDbText
  0
TEXT
  5
A5
330
394
100
AcDbEntity
  8
0
100
AcDbText
 10
10300.039
 20
2277.9363
 30
0.0
 40
200.0
  1
＊
  7
EXTFONT
100
AcDbText
  0
TEXT
  5
A6
330
394
100
AcDbEntity
  8
0
100
AcDbText
 10
10300.039
 20
2527.9363
 30
0.0
 40
200.0
  1
＊
  7
EXTFONT
100
AcDbText
  0
TEXT
  5
A7
330
394
100
AcDbEntity
  8
0
100
AcDbText
 10
10300.039
 20
3027.9363
 30
0.0
 40
200.0
  1
＊
  7
EXTFONT
100
AcDbText
  0
TEXT
  5
A8
330
394
100
AcDbEntity
  8
0
100
AcDbText
 10
14950.039
 20
3027.9363
 30
0.0
 40
200.0
  1
＊
  7
EXTFONT
100
AcDbText
  0
TEXT
  5
A9
330
394
100
AcDbEntity
  8
0
100
AcDbText
 10
14950.039
 20
2527.9363
 30
0.0
 40
200.0
  1
＊
  7
EXTFONT
100
AcDbText
  0
TEXT
  5
AA
330
394
100
AcDbEntity
  8
0
100
AcDbText
 10
14950.039
 20
2277.9363
 30
0.0
 40
200.0
  1
＊
  7
EXTFONT
100
AcDbText
  0
TEXT
  5
AB
330
394
100
AcDbEntity
  8
0
100
AcDbText
 10
14950.039
 20
2777.9363
 30
0.0
 40
200.0
  1
＊
  7
EXTFONT
100
AcDbText
  0
TEXT
  5
AC
330
394
100
AcDbEntity
  8
0
100
AcDbText
 10
14950.039
 20
3277.9363
 30
0.0
 40
200.0
  1
＊
  7
EXTFONT
100
AcDbText
  0
TEXT
  5
AD
330
394
100
AcDbEntity
  8
0
100
AcDbText
 10
14950.039
 20
3527.9363
 30
0.0
 40
200.0
  1
＊
  7
EXTFONT
100
AcDbText
  0
LINE
  5
AE
330
394
100
AcDbEntity
  8
YKK_F1
  6
Continuous
100
AcDbLine
 10
21494.55
 20
1949.4363
 30
0.0
 11
21494.55
 21
650.18799
 31
0.0
  0
LINE
  5
AF
330
394
100
AcDbEntity
  8
YKK_F1
  6
Continuous
100
AcDbLine
 10
18496.807
 20
1949.4363
 30
0.0
 11
18496.807
 21
650.18799
 31
0.0
  0
LINE
  5
B0
330
394
100
AcDbEntity
  8
YKK_F1
  6
Continuous
100
AcDbLine
 10
21494.55
 20
1200.5641
 30
0.0
 11
18496.807
 21
1200.5641
 31
0.0
  0
TEXT
  5
B1
330
394
100
AcDbEntity
  8
YKK_F1
100
AcDbText
 10
18546.807
 20
1067.4437
 30
0.0
 40
100.0
  1
担当者
  7
EXTFONT
100
AcDbText
  0
TEXT
  5
B2
330
394
100
AcDbEntity
  8
YKK_F1
100
AcDbText
 10
18546.807
 20
1816.3159
 30
0.0
 40
100.0
  1
管理建築士
  7
EXTFONT
100
AcDbText
  0
TEXT
  5
B3
330
394
100
AcDbEntity
  8
YKK_F1
  6
Continuous
100
AcDbText
 10
21956.956
 20
1113.7219
 30
0.0
 40
150.0
  1
1
100
AcDbText
  0
LINE
  5
B4
330
394
100
AcDbEntity
  8
YKK_F1
  6
Continuous
100
AcDbLine
 10
22594.174
 20
1351.128
 30
0.0
 11
21893.798
 21
800.75199
 31
0.0
  0
TEXT
  5
B5
330
394
100
AcDbEntity
  8
YKK_F1
100
AcDbText
 10
21544.55
 20
1317.2556
 30
0.0
 40
100.0
  1
縮尺
  7
EXTFONT
100
AcDbText
  0
TEXT
  5
B6
330
394
100
AcDbEntity
  8
YKK_F1
  6
Continuous
100
AcDbText
 10
22493.83502704
 20
866.53895907
 30
0.0
 40
150.0
  1
50
100
AcDbText
  0
TEXT
  5
B7
330
394
100
AcDbEntity
  8
YKK_F1
100
AcDbText
 10
21544.55
 20
1816.3159
 30
0.0
 40
100.0
  1
設計No.
  7
EXTFONT
100
AcDbText
  0
TEXT
  5
B8
330
394
100
AcDbEntity
  8
0
100
AcDbText
 10
19600.039
 20
3027.9363
 30
0.0
 40
200.0
  1
＊
  7
EXTFONT
100
AcDbText
  0
TEXT
  5
B9
330
394
100
AcDbEntity
  8
0
100
AcDbText
 10
19600.039
 20
2277.9363
 30
0.0
 40
200.0
  1
＊
  7
EXTFONT
100
AcDbText
  0
TEXT
  5
BA
330
394
100
AcDbEntity
  8
0
100
AcDbText
 10
19600.039
 20
2527.9363
 30
0.0
 40
200.0
  1
＊
  7
EXTFONT
100
AcDbText
  0
TEXT
  5
BB
330
394
100
AcDbEntity
  8
0
100
AcDbText
 10
19600.039
 20
2777.9363
 30
0.0
 40
200.0
  1
＊
  7
EXTFONT
100
AcDbText
  0
TEXT
  5
BC
330
394
100
AcDbEntity
  8
0
100
AcDbText
 10
19600.039
 20
3277.9363
 30
0.0
 40
200.0
  1
＊
  7
EXTFONT
100
AcDbText
  0
TEXT
  5
BD
330
394
100
AcDbEntity
  8
0
100
AcDbText
 10
19600.039
 20
3527.9363
 30
0.0
 40
200.0
  1
＊
  7
EXTFONT
100
AcDbText
  0
TEXT
  5
BE
330
394
100
AcDbEntity
  8
0
100
AcDbText
 10
14950.039
 20
9732.9363
 30
0.0
 40
200.0
  1
アルミ製
  7
EXTFONT
100
AcDbText
  0
TEXT
  5
BF
330
394
100
AcDbEntity
  8
0
100
AcDbText
 10
14950.039
 20
9482.9363
 30
0.0
 40
200.0
  1
シルバー･ｶﾗｰ(ブロンズ､ステン､ブラック)
  7
EXTFONT
100
AcDbText
  0
TEXT
  5
C0
330
394
100
AcDbEntity
  8
0
100
AcDbText
 10
14950.039
 20
9232.9363
 30
0.0
 40
200.0
  1
FL・透明・複層ガラス
  7
EXTFONT
100
AcDbText
  0
TEXT
  5
C1
330
394
100
AcDbEntity
  8
0
100
AcDbText
 10
14950.039
 20
8232.9363
 30
0.0
 40
180.0
  1
YKKAP YDP-100同等品
  7
EXTFONT
100
AcDbText
  0
TEXT
  5
C2
330
394
100
AcDbEntity
  8
0
100
AcDbText
 10
14950.039
 20
8732.9363
 30
0.0
 40
200.0
  1
水切・アングル・膳板
  7
EXTFONT
100
AcDbText
  0
TEXT
  5
C3
330
394
100
AcDbEntity
  8
0
100
AcDbText
 10
14950.039
 20
10232.9363
 30
0.0
 40
170.0
  1
上段突き出し窓(隠蔽式排煙窓)､下段はめ殺し窓
  7
EXTFONT
100
AcDbText
  0
TEXT
  5
C4
330
394
100
AcDbEntity
  8
0
100
AcDbText
 10
14950.039
 20
9982.9363
 30
0.0
 40
200.0
  1
W=800　H=1500　見込100
  7
EXTFONT
100
AcDbText
  0
TEXT
  5
C5
330
394
100
AcDbEntity
  8
0
100
AcDbText
 10
10300.039
 20
4027.9363
 30
0.0
 40
200.0
  1
＊
  7
EXTFONT
100
AcDbText
  0
TEXT
  5
C6
330
394
100
AcDbEntity
  8
0
100
AcDbText
 10
10300.039
 20
4277.9363
 30
0.0
 40
200.0
  1
＊
  7
EXTFONT
100
AcDbText
  0
TEXT
  5
C7
330
394
100
AcDbEntity
  8
0
100
AcDbText
 10
14950.039
 20
4277.9363
 30
0.0
 40
200.0
  1
＊
  7
EXTFONT
100
AcDbText
  0
TEXT
  5
C8
330
394
100
AcDbEntity
  8
0
100
AcDbText
 10
14950.039
 20
4027.9363
 30
0.0
 40
200.0
  1
＊
  7
EXTFONT
100
AcDbText
  0
TEXT
  5
C9
330
394
100
AcDbEntity
  8
0
100
AcDbText
 10
10300.039
 20
8732.9363
 30
0.0
 40
200.0
  1
水切・アングル・膳板
  7
EXTFONT
100
AcDbText
  0
TEXT
  5
CA
330
394
100
AcDbEntity
  8
0
100
AcDbText
 10
10300.039
 20
9982.9363
 30
0.0
 40
200.0
  1
W=1700　H=600　見込100
  7
EXTFONT
100
AcDbText
  0
TEXT
  5
CB
330
394
100
AcDbEntity
  8
0
100
AcDbText
 10
10300.039
 20
8232.9363
 30
0.0
 40
180.0
  1
YKKAP YDP-100同等品
  7
EXTFONT
100
AcDbText
  0
TEXT
  5
CC
330
394
100
AcDbEntity
  8
0
100
AcDbText
 10
10300.039
 20
9232.9363
 30
0.0
 40
200.0
  1
FL・透明・複層ガラス
  7
EXTFONT
100
AcDbText
  0
TEXT
  5
CD
330
394
100
AcDbEntity
  8
0
100
AcDbText
 10
10300.039
 20
9482.9363
 30
0.0
 40
200.0
  1
シルバー･ｶﾗｰ(ブロンズ､ステン､ブラック)
  7
EXTFONT
100
AcDbText
  0
TEXT
  5
CE
330
394
100
AcDbEntity
  8
0
100
AcDbText
 10
10300.039
 20
10232.9363
 30
0.0
 40
200.0
  1
突き出し窓連窓（隠蔽式排煙窓）
  7
EXTFONT
100
AcDbText
  0
TEXT
  5
CF
330
394
100
AcDbEntity
  8
0
100
AcDbText
 10
10300.039
 20
8482.9363
 30
0.0
 40
200.0
  1
＊
  7
EXTFONT
100
AcDbText
  0
TEXT
  5
D0
330
394
100
AcDbEntity
  8
0
100
AcDbText
 10
10300.039
 20
7482.9363
 30
0.0
 40
200.0
  1
＊
  7
EXTFONT
100
AcDbText
  0
TEXT
  5
D1
330
394
100
AcDbEntity
  8
0
100
AcDbText
 10
8950.039
 20
7482.9363
 30
0.0
 40
200.0
  1
＊
  7
EXTFONT
100
AcDbText
  0
TEXT
  5
D2
330
394
100
AcDbEntity
  8
0
100
AcDbText
 10
9250.039
 20
7732.9363
 30
0.0
 40
200.0
  1
＊
  7
EXTFONT
100
AcDbText
  0
TEXT
  5
D3
330
394
100
AcDbEntity
  8
YKK_F1
100
AcDbText
 10
9670.039
 20
7732.9363
 30
0.0
 40
200.0
  1
箇所
  7
EXTFONT
100
AcDbText
  0
TEXT
  5
D4
330
394
100
AcDbEntity
  8
0
100
AcDbText
 10
10500.039
 20
7957.9363
 30
0.0
 40
200.0
  1
＊
  7
EXTFONT
100
AcDbText
  0
CIRCLE
  5
D5
330
394
100
AcDbEntity
  8
YKK_F1
100
AcDbCircle
 10
10600.039
 20
7957.9363
 30
0.0
 40
233.3333333333333
  0
LINE
  5
D6
330
394
100
AcDbEntity
  8
YKK_F1
  6
Continuous
100
AcDbLine
 10
10366.70566667
 20
7957.9363
 30
0.0
 11
10833.37233333
 21
7957.9363
 31
0.0
  0
TEXT
  5
D7
330
394
100
AcDbEntity
  8
YKK_F1
100
AcDbText
 10
10440.039
 20
7757.9363
 30
0.0
 40
160.0
  1
ＡＷ
  7
EXTFONT
100
AcDbText
  0
TEXT
  5
D8
330
394
100
AcDbEntity
  8
0
100
AcDbText
 10
10300.039
 20
9732.9363
 30
0.0
 40
200.0
  1
アルミ製
  7
EXTFONT
100
AcDbText
  0
TEXT
  5
D9
330
394
100
AcDbEntity
  8
0
100
AcDbText
 10
10300.039
 20
8982.9363
 30
0.0
 40
200.0
  1
丁番
  7
EXTFONT
100
AcDbText
  0
TEXT
  5
DA
330
394
100
AcDbEntity
  8
0
100
AcDbText
 10
13600.039
 20
7482.9363
 30
0.0
 40
200.0
  1
＊
  7
EXTFONT
100
AcDbText
  0
TEXT
  5
DB
330
394
100
AcDbEntity
  8
0
100
AcDbText
 10
15150.039
 20
7957.9363
 30
0.0
 40
200.0
  1
＊
  7
EXTFONT
100
AcDbText
  0
TEXT
  5
DC
330
394
100
AcDbEntity
  8
0
100
AcDbText
 10
15150.039
 20
7957.9363
 30
0.0
 40
200.0
  1
＊
  7
EXTFONT
100
AcDbText
  0
CIRCLE
  5
DD
330
394
100
AcDbEntity
  8
YKK_F1
100
AcDbCircle
 10
15250.039
 20
7957.9363
 30
0.0
 40
233.3333333333333
  0
TEXT
  5
DE
330
394
100
AcDbEntity
  8
YKK_F1
100
AcDbText
 10
14320.039
 20
7732.9363
 30
0.0
 40
200.0
  1
箇所
  7
EXTFONT
100
AcDbText
  0
TEXT
  5
DF
330
394
100
AcDbEntity
  8
0
100
AcDbText
 10
13900.039
 20
7732.9363
 30
0.0
 40
200.0
  1
＊
  7
EXTFONT
100
AcDbText
  0
TEXT
  5
E0
330
394
100
AcDbEntity
  8
0
100
AcDbText
 10
14950.039
 20
7482.9363
 30
0.0
 40
200.0
  1
＊
  7
EXTFONT
100
AcDbText
  0
TEXT
  5
E1
330
394
100
AcDbEntity
  8
YKK_F1
100
AcDbText
 10
15090.039
 20
7757.9363
 30
0.0
 40
160.0
  1
ＡＷ
  7
EXTFONT
100
AcDbText
  0
LINE
  5
E2
330
394
100
AcDbEntity
  8
YKK_F1
  6
Continuous
100
AcDbLine
 10
15016.70566667
 20
7957.9363
 30
0.0
 11
15483.37233333
 21
7957.9363
 31
0.0
  0
TEXT
  5
E3
330
394
100
AcDbEntity
  8
0
100
AcDbText
 10
14950.039
 20
8482.9363
 30
0.0
 40
200.0
  1
＊
  7
EXTFONT
100
AcDbText
  0
TEXT
  5
E4
330
394
100
AcDbEntity
  8
0
100
AcDbText
 10
14950.039
 20
8982.9363
 30
0.0
 40
200.0
  1
丁番
  7
EXTFONT
100
AcDbText
  0
TEXT
  5
E5
330
394
100
AcDbEntity
  8
0
100
AcDbText
 10
19600.039
 20
4277.9363
 30
0.0
 40
200.0
  1
＊
  7
EXTFONT
100
AcDbText
  0
TEXT
  5
E6
330
394
100
AcDbEntity
  8
0
100
AcDbText
 10
19600.039
 20
4027.9363
 30
0.0
 40
200.0
  1
＊
  7
EXTFONT
100
AcDbText
  0
TEXT
  5
E7
330
394
100
AcDbEntity
  8
YKK_F1
100
AcDbText
 10
18970.039
 20
7732.9363
 30
0.0
 40
200.0
  1
箇所
  7
EXTFONT
100
AcDbText
  0
TEXT
  5
E8
330
394
100
AcDbEntity
  8
0
100
AcDbText
 10
18250.039
 20
7482.9363
 30
0.0
 40
200.0
  1
＊
  7
EXTFONT
100
AcDbText
  0
TEXT
  5
E9
330
394
100
AcDbEntity
  8
0
100
AcDbText
 10
18550.039
 20
7732.9363
 30
0.0
 40
200.0
  1
＊
  7
EXTFONT
100
AcDbText
  0
TEXT
  5
EA
330
394
100
AcDbEntity
  8
0
100
AcDbText
 10
19600.039
 20
8732.9363
 30
0.0
 40
200.0
  1
＊
  7
EXTFONT
100
AcDbText
  0
TEXT
  5
EB
330
394
100
AcDbEntity
  8
0
100
AcDbText
 10
19800.039
 20
7957.9363
 30
0.0
 40
200.0
  1
＊
  7
EXTFONT
100
AcDbText
  0
CIRCLE
  5
EC
330
394
100
AcDbEntity
  8
YKK_F1
100
AcDbCircle
 10
19900.039
 20
7957.9363
 30
0.0
 40
233.3333333333333
  0
TEXT
  5
ED
330
394
100
AcDbEntity
  8
0
100
AcDbText
 10
19600.039
 20
7482.9363
 30
0.0
 40
200.0
  1
＊
  7
EXTFONT
100
AcDbText
  0
LINE
  5
EE
330
394
100
AcDbEntity
  8
YKK_F1
  6
Continuous
100
AcDbLine
 10
19666.70566667
 20
7957.9363
 30
0.0
 11
20133.37233333
 21
7957.9363
 31
0.0
  0
TEXT
  5
EF
330
394
100
AcDbEntity
  8
YKK_F1
100
AcDbText
 10
19740.039
 20
7757.9363
 30
0.0
 40
160.0
  1
ＡＷ
  7
EXTFONT
100
AcDbText
  0
TEXT
  5
F0
330
394
100
AcDbEntity
  8
0
100
AcDbText
 10
19600.039
 20
8232.9363
 30
0.0
 40
200.0
  1
＊
  7
EXTFONT
100
AcDbText
  0
TEXT
  5
F1
330
394
100
AcDbEntity
  8
0
100
AcDbText
 10
19600.039
 20
8482.9363
 30
0.0
 40
200.0
  1
＊
  7
EXTFONT
100
AcDbText
  0
TEXT
  5
F2
330
394
100
AcDbEntity
  8
0
100
AcDbText
 10
19600.039
 20
8982.9363
 30
0.0
 40
200.0
  1
＊
  7
EXTFONT
100
AcDbText
  0
TEXT
  5
F3
330
394
100
AcDbEntity
  8
0
100
AcDbText
 10
19600.039
 20
9232.9363
 30
0.0
 40
200.0
  1
＊
  7
EXTFONT
100
AcDbText
  0
TEXT
  5
F4
330
394
100
AcDbEntity
  8
0
100
AcDbText
 10
19600.039
 20
9482.9363
 30
0.0
 40
200.0
  1
＊
  7
EXTFONT
100
AcDbText
  0
TEXT
  5
F5
330
394
100
AcDbEntity
  8
0
100
AcDbText
 10
19600.039
 20
9982.9363
 30
0.0
 40
200.0
  1
＊
  7
EXTFONT
100
AcDbText
  0
TEXT
  5
F6
330
394
100
AcDbEntity
  8
0
100
AcDbText
 10
19600.039
 20
9732.9363
 30
0.0
 40
200.0
  1
＊
  7
EXTFONT
100
AcDbText
  0
TEXT
  5
F7
330
394
100
AcDbEntity
  8
0
100
AcDbText
 10
19600.039
 20
10232.9363
 30
0.0
 40
200.0
  1
＊
  7
EXTFONT
100
AcDbText
  0
TEXT
  5
F8
330
394
100
AcDbEntity
  8
0
100
AcDbText
 10
5650.039
 20
14937.9363
 30
0.0
 40
200.0
  1
ステイダンパーブラケット・丁番
  7
EXTFONT
100
AcDbText
  0
TEXT
  5
F9
330
394
100
AcDbEntity
  8
0
100
AcDbText
 10
5650.039
 20
15937.9363
 30
0.0
 40
200.0
  1
W=800　H=600　見込100
  7
EXTFONT
100
AcDbText
  0
TEXT
  5
FA
330
394
100
AcDbEntity
  8
0
100
AcDbText
 10
5650.039
 20
15437.9363
 30
0.0
 40
200.0
  1
シルバー･ｶﾗｰ(ブロンズ､ステン､ブラック)
  7
EXTFONT
100
AcDbText
  0
TEXT
  5
FB
330
394
100
AcDbEntity
  8
0
100
AcDbText
 10
1009.77446
 20
20612.406
 30
0.0
 40
250.0
  1
ＢＲＤＰＰＪ７３　省エネ商品　ＹＤＰ－１００　ＲＣ枠　突き出し窓　
  7
EXTFONT
100
AcDbText
  0
TEXT
  5
FC
330
394
100
AcDbEntity
  8
YKK_F1
100
AcDbText
 10
1283.67067185
 20
15932.9363
 30
0.0
 40
200.0
  1
寸法・見付・見込（枠見付・枠見込）
  7
EXTFONT
 72
     1
 11
3237.00400518
 21
15932.9363
 31
0.0
100
AcDbText
  0
CIRCLE
  5
FD
330
394
100
AcDbEntity
  8
YKK_F1
100
AcDbCircle
 10
5950.039
 20
13912.9363
 30
0.0
 40
233.3333333333333
  0
TEXT
  5
FE
330
394
100
AcDbEntity
  8
YKK_F1
100
AcDbText
 10
5790.039
 20
13712.9363
 30
0.0
 40
160.0
  1
ＡＷ
  7
EXTFONT
100
AcDbText
  0
TEXT
  5
FF
330
394
100
AcDbEntity
  8
YKK_F1
100
AcDbText
 10
2190.33733852
 20
11855.4363
 30
0.0
 40
200.0
  1
姿　　　　　　　図
  7
EXTFONT
 72
     1
 11
3237.00400518
 21
11855.4363
 31
0.0
100
AcDbText
  0
TEXT
  5
100
330
394
100
AcDbEntity
  8
YKK_F1
100
AcDbText
 10
2183.67067185
 20
13432.9363
 30
0.0
 40
200.0
  1
使用箇所・防火仕様
  7
EXTFONT
 72
     1
 11
3237.00400518
 21
13432.9363
 31
0.0
100
AcDbText
  0
LINE
  5
101
330
394
100
AcDbEntity
  8
YKK_A1
  6
CENTER
100
AcDbLine
 10
7875.039
 20
12640.4363
 30
0.0
 11
8245.039
 21
12070.4363
 31
0.0
  0
LINE
  5
104
330
394
100
AcDbEntity
  8
YKK_A1
100
AcDbLine
 10
8195.039
 20
12115.4363
 30
0.0
 11
8195.039
 21
12590.4363
 31
0.0
  0
LINE
  5
105
330
394
100
AcDbEntity
  8
YKK_A1
100
AcDbLine
 10
8290.039
 20
12070.4363
 30
0.0
 11
8290.039
 21
12685.4363
 31
0.0
  0
LINE
  5
106
330
394
100
AcDbEntity
  8
YKK_A1
100
AcDbLine
 10
8275.039
 20
12070.4363
 30
0.0
 11
8275.039
 21
12670.4363
 31
0.0
  0
LINE
  5
107
330
394
100
AcDbEntity
  8
YKK_A1
100
AcDbLine
 10
8245.039
 20
12070.4363
 30
0.0
 11
8245.039
 21
12640.4363
 31
0.0
  0
LINE
  5
108
330
394
100
AcDbEntity
  8
YKK_A1
100
AcDbLine
 10
7555.039
 20
12590.4363
 30
0.0
 11
7555.039
 21
12115.4363
 31
0.0
  0
LINE
  5
109
330
394
100
AcDbEntity
  8
YKK_A1
100
AcDbLine
 10
7460.039
 20
12685.4363
 30
0.0
 11
7460.039
 21
12070.4363
 31
0.0
  0
LINE
  5
10A
330
394
100
AcDbEntity
  8
YKK_A1
100
AcDbLine
 10
7475.039
 20
12670.4363
 30
0.0
 11
7475.039
 21
12070.4363
 31
0.0
  0
LINE
  5
10B
330
394
100
AcDbEntity
  8
YKK_A1
100
AcDbLine
 10
7505.039
 20
12640.4363
 30
0.0
 11
7505.039
 21
12070.4363
 31
0.0
  0
LINE
  5
10C
330
394
100
AcDbEntity
  8
YKK_A1
  6
CENTER
100
AcDbLine
 10
7505.039
 20
12070.4363
 30
0.0
 11
7875.039
 21
12640.4363
 31
0.0
  0
LINE
  5
10D
330
394
100
AcDbEntity
  8
YKK_A1
100
AcDbLine
 10
7460.039
 20
12070.4363
 30
0.0
 11
8290.039
 21
12070.4363
 31
0.0
  0
LINE
  5
10E
330
394
100
AcDbEntity
  8
YKK_A1
100
AcDbLine
 10
7475.039
 20
12070.4363
 30
0.0
 11
8275.039
 21
12070.4363
 31
0.0
  0
LINE
  5
10F
330
394
100
AcDbEntity
  8
YKK_A1
100
AcDbLine
 10
7505.039
 20
12070.4363
 30
0.0
 11
8245.039
 21
12070.4363
 31
0.0
  0
LINE
  5
110
330
394
100
AcDbEntity
  8
YKK_A1
100
AcDbLine
 10
7555.039
 20
12115.4363
 30
0.0
 11
8195.039
 21
12115.4363
 31
0.0
  0
LINE
  5
111
330
394
100
AcDbEntity
  8
YKK_A1
  6
HIDDEN
100
AcDbLine
 10
8375.039
 20
12075.4363
 30
0.0
 11
8375.039
 21
11570.4363
 31
0.0
  0
LINE
  5
113
330
394
100
AcDbEntity
  8
YKK_A2
  6
ByBlock
100
AcDbLine
 10
8425.039
 20
11620.4363
 30
0.0
 11
8325.039
 21
11620.4363
 31
0.0
  0
CIRCLE
  5
115
330
394
100
AcDbEntity
  8
YKK_A2
  6
ByBlock
100
AcDbCircle
 10
8375.039
 20
11570.4363
 30
0.0
 40
20.0
  0
LINE
  5
116
330
394
100
AcDbEntity
  8
YKK_A2
  6
ByBlock
100
AcDbLine
 10
8325.039
 20
11420.4363
 30
0.0
 11
8425.039
 21
11420.4363
 31
0.0
  0
LINE
  5
117
330
394
100
AcDbEntity
  8
YKK_A2
  6
ByBlock
100
AcDbLine
 10
8325.039
 20
11620.4363
 30
0.0
 11
8325.039
 21
11420.4363
 31
0.0
  0
LINE
  5
118
330
394
100
AcDbEntity
  8
YKK_A2
  6
ByBlock
100
AcDbLine
 10
8425.039
 20
11420.4363
 30
0.0
 11
8425.039
 21
11620.4363
 31
0.0
  0
LINE
  5
119
330
394
100
AcDbEntity
  8
YKK_A1
  6
HIDDEN
100
AcDbLine
 10
7875.039
 20
12095.4363
 30
0.0
 11
8355.039
 21
12095.4363
 31
0.0
  0
LINE
  5
11A
330
394
100
AcDbEntity
  8
YKK_A2
  6
ByBlock
100
AcDbLine
 10
7895.039
 20
12070.4363
 30
0.0
 11
7895.039
 21
12120.4363
 31
0.0
  0
LINE
  5
11B
330
394
100
AcDbEntity
  8
YKK_A2
  6
ByBlock
100
AcDbLine
 10
7930.039
 20
12070.4363
 30
0.0
 11
7930.039
 21
12120.4363
 31
0.0
  0
LINE
  5
11C
330
394
100
AcDbEntity
  8
YKK_A2
  6
ByBlock
100
AcDbLine
 10
7855.039
 20
12120.4363
 30
0.0
 11
7855.039
 21
12070.4363
 31
0.0
  0
LINE
  5
11D
330
394
100
AcDbEntity
  8
YKK_A2
  6
ByBlock
100
AcDbLine
 10
7820.039
 20
12120.4363
 30
0.0
 11
7820.039
 21
12070.4363
 31
0.0
  0
LINE
  5
11E
330
394
100
AcDbEntity
  8
YKK_A2
  6
ByBlock
100
AcDbLine
 10
7930.039
 20
12120.4363
 30
0.0
 11
7820.039
 21
12120.4363
 31
0.0
  0
LINE
  5
11F
330
394
100
AcDbEntity
  8
YKK_A2
  6
ByBlock
100
AcDbLine
 10
7820.039
 20
12070.4363
 30
0.0
 11
7930.039
 21
12070.4363
 31
0.0
  0
ARC
  5
120
330
394
100
AcDbEntity
  8
YKK_A1
  6
HIDDEN
100
AcDbCircle
 10
8355.039
 20
12075.4363
 30
0.0
 40
20.0
100
AcDbArc
 50
0.0
 51
90.0
  0
TEXT
  5
121
330
394
100
AcDbEntity
  8
0
100
AcDbText
 10
5650.039
 20
13437.9363
 30
0.0
 40
200.0
  1
＊
  7
EXTFONT
100
AcDbText
  0
LINE
  5
122
330
394
100
AcDbEntity
  8
YKK_A1
100
AcDbLine
 10
8290.039
 20
12685.4363
 30
0.0
 11
7460.039
 21
12685.4363
 31
0.0
  0
LINE
  5
123
330
394
100
AcDbEntity
  8
YKK_A1
100
AcDbLine
 10
8275.039
 20
12670.4363
 30
0.0
 11
7475.039
 21
12670.4363
 31
0.0
  0
LINE
  5
124
330
394
100
AcDbEntity
  8
YKK_A1
100
AcDbLine
 10
8245.039
 20
12640.4363
 30
0.0
 11
7505.039
 21
12640.4363
 31
0.0
  0
LINE
  5
125
330
394
100
AcDbEntity
  8
YKK_A1
100
AcDbLine
 10
8195.039
 20
12590.4363
 30
0.0
 11
7555.039
 21
12590.4363
 31
0.0
  0
TEXT
  5
126
330
394
100
AcDbEntity
  8
YKK_A1
100
AcDbText
 10
7893.039
 20
12215.4363
 30
0.0
 40
60.0
  1
複層ガラス
 41
0.8
 72
     2
 11
8165.039
 21
12215.4363
 31
0.0
100
AcDbText
  0
TEXT
  5
127
330
394
100
AcDbEntity
  8
YKK_A1
100
AcDbText
 10
7861.039
 20
12145.4363
 30
0.0
 40
60.0
  1
5+A12+5
 41
0.8
 72
     2
 11
8165.039
 21
12145.4363
 31
0.0
100
AcDbText
  0
TEXT
  5
128
330
394
100
AcDbEntity
  8
YKK_F1
100
AcDbText
 10
2183.67067185
 20
13787.9363
 30
0.0
 40
200.0
  1
符　号　・　数　量
  7
EXTFONT
 72
     1
 11
3237.00400518
 21
13787.9363
 31
0.0
100
AcDbText
  0
TEXT
  5
129
330
394
100
AcDbEntity
  8
YKK_F1
100
AcDbText
 10
1937.00400518
 20
14557.9363
 30
0.0
 40
200.0
  1
(付　　属　　金　　物)
  7
EXTFONT
 72
     1
 11
3237.00400518
 21
14557.9363
 31
0.0
100
AcDbText
  0
TEXT
  5
12A
330
394
100
AcDbEntity
  8
YKK_F1
100
AcDbText
 10
2063.67067185
 20
14807.9363
 30
0.0
 40
200.0
  1
建　　具　　金　　物
  7
EXTFONT
 72
     1
 11
3237.00400518
 21
14807.9363
 31
0.0
100
AcDbText
  0
TEXT
  5
12B
330
394
100
AcDbEntity
  8
YKK_F1
100
AcDbText
 10
1817.00400518
 20
15182.9363
 30
0.0
 40
200.0
  1
ガラス・種類・ガラス押え
  7
EXTFONT
 72
     1
 11
3237.00400518
 21
15182.9363
 31
0.0
100
AcDbText
  0
TEXT
  5
12C
330
394
100
AcDbEntity
  8
YKK_F1
100
AcDbText
 10
2183.67067185
 20
14182.9363
 30
0.0
 40
200.0
  1
備　　　　　　　考
  7
EXTFONT
 72
     1
 11
3237.00400518
 21
14182.9363
 31
0.0
100
AcDbText
  0
TEXT
  5
12D
330
394
100
AcDbEntity
  8
YKK_F1
100
AcDbText
 10
1703.67067185
 20
16182.9363
 30
0.0
 40
200.0
  1
型式・防音・エアタイト仕様
  7
EXTFONT
 72
     1
 11
3237.00400518
 21
16182.9363
 31
0.0
100
AcDbText
  0
TEXT
  5
12E
330
394
100
AcDbEntity
  8
YKK_F1
100
AcDbText
 10
2183.67067185
 20
15682.9363
 30
0.0
 40
200.0
  1
材　　　　　　　質
  7
EXTFONT
 72
     1
 11
3237.00400518
 21
15682.9363
 31
0.0
100
AcDbText
  0
TEXT
  5
12F
330
394
100
AcDbEntity
  8
YKK_F1
100
AcDbText
 10
2183.67067185
 20
15432.9363
 30
0.0
 40
200.0
  1
仕　　　　　　　上
  7
EXTFONT
 72
     1
 11
3237.00400518
 21
15432.9363
 31
0.0
100
AcDbText
  0
TEXT
  5
130
330
394
100
AcDbEntity
  8
0
100
AcDbText
 10
5650.039
 20
14687.9363
 30
0.0
 40
200.0
  1
水切・アングル・膳板
  7
EXTFONT
100
AcDbText
  0
TEXT
  5
131
330
394
100
AcDbEntity
  8
0
100
AcDbText
 10
5650.039
 20
15187.9363
 30
0.0
 40
200.0
  1
FL・透明・複層ガラス
  7
EXTFONT
100
AcDbText
  0
TEXT
  5
132
330
394
100
AcDbEntity
  8
0
100
AcDbText
 10
5650.039
 20
14187.9363
 30
0.0
 40
180.0
  1
YKKAP YDP-100同等品
  7
EXTFONT
100
AcDbText
  0
TEXT
  5
133
330
394
100
AcDbEntity
  8
0
100
AcDbText
 10
5850.039
 20
13912.9363
 30
0.0
 40
200.0
  1
＊
  7
EXTFONT
100
AcDbText
  0
LINE
  5
134
330
394
100
AcDbEntity
  8
YKK_F1
  6
Continuous
100
AcDbLine
 10
5716.70566667
 20
13912.9363
 30
0.0
 11
6183.37233333
 21
13912.9363
 31
0.0
  0
TEXT
  5
135
330
394
100
AcDbEntity
  8
0
100
AcDbText
 10
5650.039
 20
14437.9363
 30
0.0
 40
200.0
  1
＊
  7
EXTFONT
100
AcDbText
  0
TEXT
  5
136
330
394
100
AcDbEntity
  8
0
100
AcDbText
 10
5650.039
 20
16187.9363
 30
0.0
 40
200.0
  1
突き出し窓（排煙窓）
  7
EXTFONT
100
AcDbText
  0
TEXT
  5
137
330
394
100
AcDbEntity
  8
0
100
AcDbText
 10
5650.039
 20
15687.9363
 30
0.0
 40
200.0
  1
アルミ製
  7
EXTFONT
100
AcDbText
  0
TEXT
  5
138
330
394
100
AcDbEntity
  8
YKK_F1
100
AcDbText
 10
2190.33733852
 20
17810.4363
 30
0.0
 40
200.0
  1
姿　　　　　　　図
  7
EXTFONT
 72
     1
 11
3237.00400518
 21
17810.4363
 31
0.0
100
AcDbText
  0
TEXT
  5
139
330
394
100
AcDbEntity
  8
YKK_F1
100
AcDbText
 10
2183.67067185
 20
19742.9363
 30
0.0
 40
200.0
  1
符　号　・　数　量
  7
EXTFONT
 72
     1
 11
3237.00400518
 21
19742.9363
 31
0.0
100
AcDbText
  0
TEXT
  5
13A
330
394
100
AcDbEntity
  8
YKK_F1
100
AcDbText
 10
2183.67067185
 20
19387.9363
 30
0.0
 40
200.0
  1
使用箇所・防火仕様
  7
EXTFONT
 72
     1
 11
3237.00400518
 21
19387.9363
 31
0.0
100
AcDbText
  0
LINE
  5
13B
330
394
100
AcDbEntity
  8
YKK_A1
  6
HIDDEN
100
AcDbLine
 10
8375.039
 20
18030.4363
 30
0.0
 11
8375.039
 21
17525.4363
 31
0.0
  0
LINE
  5
13C
330
394
100
AcDbEntity
  8
YKK_A2
100
AcDbLine
 10
8325.039
 20
17575.4363
 30
0.0
 11
8325.039
 21
17375.4363
 31
0.0
  0
LINE
  5
13D
330
394
100
AcDbEntity
  8
YKK_A2
100
AcDbLine
 10
8425.039
 20
17375.4363
 30
0.0
 11
8425.039
 21
17575.4363
 31
0.0
  0
LINE
  5
13E
330
394
100
AcDbEntity
  8
YKK_A2
100
AcDbLine
 10
8325.039
 20
17375.4363
 30
0.0
 11
8425.039
 21
17375.4363
 31
0.0
  0
LINE
  5
13F
330
394
100
AcDbEntity
  8
YKK_A2
100
AcDbLine
 10
8425.039
 20
17575.4363
 30
0.0
 11
8325.039
 21
17575.4363
 31
0.0
  0
CIRCLE
  5
140
330
394
100
AcDbEntity
  8
YKK_A2
100
AcDbCircle
 10
8375.039
 20
17525.4363
 30
0.0
 40
20.0
  0
LINE
  5
141
330
394
100
AcDbEntity
  8
YKK_A1
  6
CENTER
100
AcDbLine
 10
7505.039
 20
18025.4363
 30
0.0
 11
7875.039
 21
18595.4363
 31
0.0
  0
LINE
  5
142
330
394
100
AcDbEntity
  8
YKK_A1
100
AcDbLine
 10
7460.039
 20
18025.4363
 30
0.0
 11
8290.039
 21
18025.4363
 31
0.0
  0
LINE
  5
143
330
394
100
AcDbEntity
  8
YKK_A1
100
AcDbLine
 10
7475.039
 20
18025.4363
 30
0.0
 11
8275.039
 21
18025.4363
 31
0.0
  0
LINE
  5
144
330
394
100
AcDbEntity
  8
YKK_A1
100
AcDbLine
 10
7505.039
 20
18025.4363
 30
0.0
 11
8245.039
 21
18025.4363
 31
0.0
  0
LINE
  5
145
330
394
100
AcDbEntity
  8
YKK_A1
100
AcDbLine
 10
7555.039
 20
18070.4363
 30
0.0
 11
8195.039
 21
18070.4363
 31
0.0
  0
LINE
  5
146
330
394
100
AcDbEntity
  8
YKK_A1
100
AcDbLine
 10
8290.039
 20
18640.4363
 30
0.0
 11
7460.039
 21
18640.4363
 31
0.0
  0
LINE
  5
147
330
394
100
AcDbEntity
  8
YKK_A1
100
AcDbLine
 10
8275.039
 20
18625.4363
 30
0.0
 11
7475.039
 21
18625.4363
 31
0.0
  0
LINE
  5
148
330
394
100
AcDbEntity
  8
YKK_A1
100
AcDbLine
 10
8245.039
 20
18595.4363
 30
0.0
 11
7505.039
 21
18595.4363
 31
0.0
  0
LINE
  5
149
330
394
100
AcDbEntity
  8
YKK_A1
100
AcDbLine
 10
8195.039
 20
18545.4363
 30
0.0
 11
7555.039
 21
18545.4363
 31
0.0
  0
LINE
  5
14A
330
394
100
AcDbEntity
  8
YKK_A1
100
AcDbLine
 10
7460.039
 20
18640.4363
 30
0.0
 11
7460.039
 21
18025.4363
 31
0.0
  0
LINE
  5
14B
330
394
100
AcDbEntity
  8
YKK_A1
100
AcDbLine
 10
7475.039
 20
18625.4363
 30
0.0
 11
7475.039
 21
18025.4363
 31
0.0
  0
LINE
  5
14C
330
394
100
AcDbEntity
  8
YKK_A1
100
AcDbLine
 10
7505.039
 20
18595.4363
 30
0.0
 11
7505.039
 21
18025.4363
 31
0.0
  0
LINE
  5
14D
330
394
100
AcDbEntity
  8
YKK_A1
100
AcDbLine
 10
7555.039
 20
18545.4363
 30
0.0
 11
7555.039
 21
18070.4363
 31
0.0
  0
LINE
  5
14E
330
394
100
AcDbEntity
  8
YKK_A2
100
AcDbLine
 10
7540.039
 20
18475.4363
 30
0.0
 11
7540.039
 21
18175.4363
 31
0.0
  0
LINE
  5
14F
330
394
100
AcDbEntity
  8
YKK_A2
100
AcDbLine
 10
7520.039
 20
18475.4363
 30
0.0
 11
7520.039
 21
18175.4363
 31
0.0
  0
LINE
  5
150
330
394
100
AcDbEntity
  8
YKK_A2
100
AcDbLine
 10
7520.039
 20
18175.4363
 30
0.0
 11
7540.039
 21
18175.4363
 31
0.0
  0
LINE
  5
151
330
394
100
AcDbEntity
  8
YKK_A2
100
AcDbLine
 10
7525.039
 20
18145.4363
 30
0.0
 11
7535.039
 21
18145.4363
 31
0.0
  0
LINE
  5
152
330
394
100
AcDbEntity
  8
YKK_A2
100
AcDbLine
 10
7525.039
 20
18175.4363
 30
0.0
 11
7525.039
 21
18145.4363
 31
0.0
  0
LINE
  5
153
330
394
100
AcDbEntity
  8
YKK_A2
100
AcDbLine
 10
7535.039
 20
18175.4363
 30
0.0
 11
7535.039
 21
18145.4363
 31
0.0
  0
LINE
  5
154
330
394
100
AcDbEntity
  8
YKK_A2
100
AcDbLine
 10
7520.039
 20
18475.4363
 30
0.0
 11
7540.039
 21
18475.4363
 31
0.0
  0
LINE
  5
155
330
394
100
AcDbEntity
  8
YKK_A2
100
AcDbLine
 10
7525.039
 20
18505.4363
 30
0.0
 11
7535.039
 21
18505.4363
 31
0.0
  0
LINE
  5
156
330
394
100
AcDbEntity
  8
YKK_A2
100
AcDbLine
 10
7525.039
 20
18505.4363
 30
0.0
 11
7525.039
 21
18475.4363
 31
0.0
  0
LINE
  5
157
330
394
100
AcDbEntity
  8
YKK_A2
100
AcDbLine
 10
7535.039
 20
18505.4363
 30
0.0
 11
7535.039
 21
18475.4363
 31
0.0
  0
LINE
  5
158
330
394
100
AcDbEntity
  8
YKK_A1
  6
CENTER
100
AcDbLine
 10
7875.039
 20
18595.4363
 30
0.0
 11
8245.039
 21
18025.4363
 31
0.0
  0
LINE
  5
159
330
394
100
AcDbEntity
  8
YKK_A1
100
AcDbLine
 10
8290.039
 20
18025.4363
 30
0.0
 11
8290.039
 21
18640.4363
 31
0.0
  0
LINE
  5
15A
330
394
100
AcDbEntity
  8
YKK_A1
100
AcDbLine
 10
8275.039
 20
18025.4363
 30
0.0
 11
8275.039
 21
18625.4363
 31
0.0
  0
LINE
  5
15B
330
394
100
AcDbEntity
  8
YKK_A1
100
AcDbLine
 10
8245.039
 20
18025.4363
 30
0.0
 11
8245.039
 21
18595.4363
 31
0.0
  0
LINE
  5
15C
330
394
100
AcDbEntity
  8
YKK_A1
100
AcDbLine
 10
8195.039
 20
18070.4363
 30
0.0
 11
8195.039
 21
18545.4363
 31
0.0
  0
LINE
  5
15D
330
394
100
AcDbEntity
  8
YKK_A2
100
AcDbLine
 10
8230.039
 20
18475.4363
 30
0.0
 11
8230.039
 21
18175.4363
 31
0.0
  0
LINE
  5
15E
330
394
100
AcDbEntity
  8
YKK_A2
100
AcDbLine
 10
8210.039
 20
18475.4363
 30
0.0
 11
8210.039
 21
18175.4363
 31
0.0
  0
TEXT
  5
15F
330
394
100
AcDbEntity
  8
YKK_A1
100
AcDbText
 10
7861.039
 20
18100.4363
 30
0.0
 40
60.0
  1
5+A12+5
 41
0.8
 72
     2
 11
8165.039
 21
18100.4363
 31
0.0
100
AcDbText
  0
TEXT
  5
160
330
394
100
AcDbEntity
  8
YKK_A1
100
AcDbText
 10
7893.039
 20
18170.4363
 30
0.0
 40
60.0
  1
複層ガラス
 41
0.8
 72
     2
 11
8165.039
 21
18170.4363
 31
0.0
100
AcDbText
  0
LINE
  5
161
330
394
100
AcDbEntity
  8
YKK_A1
  6
HIDDEN
100
AcDbLine
 10
7875.039
 20
18050.4363
 30
0.0
 11
8355.039
 21
18050.4363
 31
0.0
  0
LINE
  5
162
330
394
100
AcDbEntity
  8
YKK_A2
100
AcDbLine
 10
7855.039
 20
18075.4363
 30
0.0
 11
7855.039
 21
18025.4363
 31
0.0
  0
LINE
  5
163
330
394
100
AcDbEntity
  8
YKK_A2
100
AcDbLine
 10
7895.039
 20
18025.4363
 30
0.0
 11
7895.039
 21
18075.4363
 31
0.0
  0
LINE
  5
164
330
394
100
AcDbEntity
  8
YKK_A2
100
AcDbLine
 10
7930.039
 20
18025.4363
 30
0.0
 11
7930.039
 21
18075.4363
 31
0.0
  0
LINE
  5
165
330
394
100
AcDbEntity
  8
YKK_A2
100
AcDbLine
 10
7820.039
 20
18075.4363
 30
0.0
 11
7820.039
 21
18025.4363
 31
0.0
  0
LINE
  5
166
330
394
100
AcDbEntity
  8
YKK_A2
100
AcDbLine
 10
7820.039
 20
18025.4363
 30
0.0
 11
7930.039
 21
18025.4363
 31
0.0
  0
LINE
  5
167
330
394
100
AcDbEntity
  8
YKK_A2
100
AcDbLine
 10
7930.039
 20
18075.4363
 30
0.0
 11
7820.039
 21
18075.4363
 31
0.0
  0
ARC
  5
168
330
394
100
AcDbEntity
  8
YKK_A1
  6
HIDDEN
100
AcDbCircle
 10
8355.039
 20
18030.4363
 30
0.0
 40
20.0
100
AcDbArc
 50
0.0
 51
90.0
  0
LINE
  5
169
330
394
100
AcDbEntity
  8
YKK_A2
100
AcDbLine
 10
8210.039
 20
18175.4363
 30
0.0
 11
8230.039
 21
18175.4363
 31
0.0
  0
LINE
  5
16A
330
394
100
AcDbEntity
  8
YKK_A2
100
AcDbLine
 10
8215.039
 20
18145.4363
 30
0.0
 11
8225.039
 21
18145.4363
 31
0.0
  0
LINE
  5
16B
330
394
100
AcDbEntity
  8
YKK_A2
100
AcDbLine
 10
8215.039
 20
18175.4363
 30
0.0
 11
8215.039
 21
18145.4363
 31
0.0
  0
LINE
  5
16C
330
394
100
AcDbEntity
  8
YKK_A2
100
AcDbLine
 10
8225.039
 20
18175.4363
 30
0.0
 11
8225.039
 21
18145.4363
 31
0.0
  0
LINE
  5
16D
330
394
100
AcDbEntity
  8
YKK_A2
100
AcDbLine
 10
8210.039
 20
18475.4363
 30
0.0
 11
8230.039
 21
18475.4363
 31
0.0
  0
LINE
  5
16E
330
394
100
AcDbEntity
  8
YKK_A2
100
AcDbLine
 10
8215.039
 20
18505.4363
 30
0.0
 11
8225.039
 21
18505.4363
 31
0.0
  0
LINE
  5
16F
330
394
100
AcDbEntity
  8
YKK_A2
100
AcDbLine
 10
8215.039
 20
18505.4363
 30
0.0
 11
8215.039
 21
18475.4363
 31
0.0
  0
LINE
  5
170
330
394
100
AcDbEntity
  8
YKK_A2
100
AcDbLine
 10
8225.039
 20
18505.4363
 30
0.0
 11
8225.039
 21
18475.4363
 31
0.0
  0
TEXT
  5
171
330
394
100
AcDbEntity
  8
0
100
AcDbText
 10
5650.039
 20
19392.9363
 30
0.0
 40
200.0
  1
＊
  7
EXTFONT
100
AcDbText
  0
TEXT
  5
172
330
394
100
AcDbEntity
  8
YKK_F1
100
AcDbText
 10
5790.039
 20
19667.9363
 30
0.0
 40
160.0
  1
ＡＷ
  7
EXTFONT
100
AcDbText
  0
TEXT
  5
173
330
394
100
AcDbEntity
  8
0
100
AcDbText
 10
5850.039
 20
19867.9363
 30
0.0
 40
200.0
  1
＊
  7
EXTFONT
100
AcDbText
  0
CIRCLE
  5
174
330
394
100
AcDbEntity
  8
YKK_F1
100
AcDbCircle
 10
5950.039
 20
19867.9363
 30
0.0
 40
233.3333333333333
  0
LINE
  5
175
330
394
100
AcDbEntity
  8
YKK_F1
  6
Continuous
100
AcDbLine
 10
5716.70566667
 20
19867.9363
 30
0.0
 11
6183.37233333
 21
19867.9363
 31
0.0
  0
TEXT
  5
176
330
394
100
AcDbEntity
  8
0
100
AcDbText
 10
14950.039
 20
15687.9363
 30
0.0
 40
200.0
  1
アルミ製
  7
EXTFONT
100
AcDbText
  0
TEXT
  5
177
330
394
100
AcDbEntity
  8
0
100
AcDbText
 10
14950.039
 20
14937.9363
 30
0.0
 40
200.0
  1
ステイダンパーブラケット・丁番
  7
EXTFONT
100
AcDbText
  0
TEXT
  5
178
330
394
100
AcDbEntity
  8
0
100
AcDbText
 10
14950.039
 20
14687.9363
 30
0.0
 40
200.0
  1
水切・アングル・膳板
  7
EXTFONT
100
AcDbText
  0
TEXT
  5
179
330
394
100
AcDbEntity
  8
0
100
AcDbText
 10
14950.039
 20
14187.9363
 30
0.0
 40
180.0
  1
YKKAP YDP-100同等品
  7
EXTFONT
100
AcDbText
  0
TEXT
  5
17A
330
394
100
AcDbEntity
  8
0
100
AcDbText
 10
14950.039
 20
15187.9363
 30
0.0
 40
200.0
  1
FL・透明・複層ガラス
  7
EXTFONT
100
AcDbText
  0
TEXT
  5
17B
330
394
100
AcDbEntity
  8
0
100
AcDbText
 10
14950.039
 20
15437.9363
 30
0.0
 40
200.0
  1
シルバー･ｶﾗｰ(ブロンズ､ステン､ブラック)
  7
EXTFONT
100
AcDbText
  0
TEXT
  5
17C
330
394
100
AcDbEntity
  8
0
100
AcDbText
 10
14950.039
 20
16187.9363
 30
0.0
 40
200.0
  1
上段突き出し窓(排煙窓)､下段はめ殺し窓
  7
EXTFONT
100
AcDbText
  0
TEXT
  5
17D
330
394
100
AcDbEntity
  8
0
100
AcDbText
 10
14950.039
 20
15937.9363
 30
0.0
 40
200.0
  1
W=800　H=1500　見込100
  7
EXTFONT
100
AcDbText
  0
CIRCLE
  5
17E
330
394
100
AcDbEntity
  8
YKK_F1
100
AcDbCircle
 10
15250.039
 20
13912.9363
 30
0.0
 40
233.3333333333333
  0
TEXT
  5
17F
330
394
100
AcDbEntity
  8
YKK_F1
100
AcDbText
 10
15090.039
 20
13712.9363
 30
0.0
 40
160.0
  1
ＡＷ
  7
EXTFONT
100
AcDbText
  0
TEXT
  5
180
330
394
100
AcDbEntity
  8
YKK_F1
100
AcDbText
 10
14320.039
 20
13687.9363
 30
0.0
 40
200.0
  1
箇所
  7
EXTFONT
100
AcDbText
  0
TEXT
  5
181
330
394
100
AcDbEntity
  8
0
100
AcDbText
 10
13900.039
 20
13687.9363
 30
0.0
 40
200.0
  1
＊
  7
EXTFONT
100
AcDbText
  0
CIRCLE
  5
182
330
394
100
AcDbEntity
  8
YKK_F1
100
AcDbCircle
 10
10600.039
 20
13912.9363
 30
0.0
 40
233.3333333333333
  0
TEXT
  5
183
330
394
100
AcDbEntity
  8
YKK_F1
100
AcDbText
 10
10440.039
 20
13712.9363
 30
0.0
 40
160.0
  1
ＡＷ
  7
EXTFONT
100
AcDbText
  0
TEXT
  5
184
330
394
100
AcDbEntity
  8
YKK_F1
100
AcDbText
 10
9670.039
 20
13687.9363
 30
0.0
 40
200.0
  1
箇所
  7
EXTFONT
100
AcDbText
  0
TEXT
  5
185
330
394
100
AcDbEntity
  8
0
100
AcDbText
 10
9250.039
 20
13687.9363
 30
0.0
 40
200.0
  1
＊
  7
EXTFONT
100
AcDbText
  0
LINE
  5
186
330
394
100
AcDbEntity
  8
YKK_A1
100
AcDbLine
 10
12480.039
 20
12640.4363
 30
0.0
 11
11705.039
 21
12640.4363
 31
0.0
  0
LINE
  5
187
330
394
100
AcDbEntity
  8
YKK_A1
100
AcDbLine
 10
12430.039
 20
12590.4363
 30
0.0
 11
11755.039
 21
12590.4363
 31
0.0
  0
LINE
  5
188
330
394
100
AcDbEntity
  8
YKK_A1
100
AcDbLine
 10
13390.039
 20
12685.4363
 30
0.0
 11
11660.039
 21
12685.4363
 31
0.0
  0
LINE
  5
189
330
394
100
AcDbEntity
  8
YKK_A1
100
AcDbLine
 10
13375.039
 20
12670.4363
 30
0.0
 11
11675.039
 21
12670.4363
 31
0.0
  0
LINE
  5
18A
330
394
100
AcDbEntity
  8
YKK_A1
100
AcDbLine
 10
11705.039
 20
12070.4363
 30
0.0
 11
12480.039
 21
12070.4363
 31
0.0
  0
LINE
  5
18B
330
394
100
AcDbEntity
  8
YKK_A1
100
AcDbLine
 10
11755.039
 20
12115.4363
 30
0.0
 11
12430.039
 21
12115.4363
 31
0.0
  0
LINE
  5
18C
330
394
100
AcDbEntity
  8
YKK_A1
100
AcDbLine
 10
11660.039
 20
12070.4363
 30
0.0
 11
13390.039
 21
12070.4363
 31
0.0
  0
LINE
  5
18D
330
394
100
AcDbEntity
  8
YKK_A1
100
AcDbLine
 10
11675.039
 20
12070.4363
 30
0.0
 11
13375.039
 21
12070.4363
 31
0.0
  0
LINE
  5
18E
330
394
100
AcDbEntity
  8
YKK_A1
  6
HIDDEN
100
AcDbLine
 10
12092.539
 20
12095.4363
 30
0.0
 11
13455.039
 21
12095.4363
 31
0.0
  0
LINE
  5
18F
330
394
100
AcDbEntity
  8
YKK_A1
  6
CENTER
100
AcDbLine
 10
12092.539
 20
12640.4363
 30
0.0
 11
12480.039
 21
12070.4363
 31
0.0
  0
LINE
  5
190
330
394
100
AcDbEntity
  8
YKK_A1
  6
CENTER
100
AcDbLine
 10
11705.039
 20
12070.4363
 30
0.0
 11
12092.539
 21
12640.4363
 31
0.0
  0
LINE
  5
191
330
394
100
AcDbEntity
  8
YKK_A1
100
AcDbLine
 10
11755.039
 20
12590.4363
 30
0.0
 11
11755.039
 21
12115.4363
 31
0.0
  0
LINE
  5
192
330
394
100
AcDbEntity
  8
YKK_A1
100
AcDbLine
 10
11660.039
 20
12685.4363
 30
0.0
 11
11660.039
 21
12070.4363
 31
0.0
  0
LINE
  5
193
330
394
100
AcDbEntity
  8
YKK_A1
100
AcDbLine
 10
11675.039
 20
12670.4363
 30
0.0
 11
11675.039
 21
12070.4363
 31
0.0
  0
LINE
  5
194
330
394
100
AcDbEntity
  8
YKK_A1
100
AcDbLine
 10
11705.039
 20
12640.4363
 30
0.0
 11
11705.039
 21
12070.4363
 31
0.0
  0
LINE
  5
195
330
394
100
AcDbEntity
  8
YKK_A2
  6
ByBlock
100
AcDbLine
 10
12147.539
 20
12120.4363
 30
0.0
 11
12037.539
 21
12120.4363
 31
0.0
  0
LINE
  5
196
330
394
100
AcDbEntity
  8
YKK_A2
  6
ByBlock
100
AcDbLine
 10
12037.539
 20
12070.4363
 30
0.0
 11
12147.539
 21
12070.4363
 31
0.0
  0
LINE
  5
197
330
394
100
AcDbEntity
  8
YKK_A2
  6
ByBlock
100
AcDbLine
 10
12037.539
 20
12120.4363
 30
0.0
 11
12037.539
 21
12070.4363
 31
0.0
  0
LINE
  5
198
330
394
100
AcDbEntity
  8
YKK_A2
  6
ByBlock
100
AcDbLine
 10
12072.539
 20
12120.4363
 30
0.0
 11
12072.539
 21
12070.4363
 31
0.0
  0
LINE
  5
199
330
394
100
AcDbEntity
  8
YKK_A2
  6
ByBlock
100
AcDbLine
 10
12112.539
 20
12070.4363
 30
0.0
 11
12112.539
 21
12120.4363
 31
0.0
  0
LINE
  5
19A
330
394
100
AcDbEntity
  8
YKK_A2
  6
ByBlock
100
AcDbLine
 10
12147.539
 20
12070.4363
 30
0.0
 11
12147.539
 21
12120.4363
 31
0.0
  0
TEXT
  5
19B
330
394
100
AcDbEntity
  8
0
100
AcDbText
 10
10300.039
 20
13437.9363
 30
0.0
 40
200.0
  1
＊
  7
EXTFONT
100
AcDbText
  0
TEXT
  5
19C
330
394
100
AcDbEntity
  8
0
100
AcDbText
 10
8950.039
 20
13437.9363
 30
0.0
 40
200.0
  1
＊
  7
EXTFONT
100
AcDbText
  0
LINE
  5
19D
330
394
100
AcDbEntity
  8
YKK_A1
  6
CENTER
100
AcDbLine
 10
12570.039
 20
12070.4363
 30
0.0
 11
12957.539
 21
12640.4363
 31
0.0
  0
LINE
  5
19E
330
394
100
AcDbEntity
  8
YKK_A1
100
AcDbLine
 10
12620.039
 20
12590.4363
 30
0.0
 11
12620.039
 21
12115.4363
 31
0.0
  0
LINE
  5
19F
330
394
100
AcDbEntity
  8
YKK_A1
100
AcDbLine
 10
12570.039
 20
12640.4363
 30
0.0
 11
12570.039
 21
12070.4363
 31
0.0
  0
LINE
  5
1A0
330
394
100
AcDbEntity
  8
YKK_A1
100
AcDbLine
 10
12430.039
 20
12115.4363
 30
0.0
 11
12430.039
 21
12590.4363
 31
0.0
  0
LINE
  5
1A1
330
394
100
AcDbEntity
  8
YKK_A1
100
AcDbLine
 10
12480.039
 20
12070.4363
 30
0.0
 11
12480.039
 21
12640.4363
 31
0.0
  0
LINE
  5
1A2
330
394
100
AcDbEntity
  8
YKK_A1
100
AcDbLine
 10
12540.039
 20
12070.4363
 30
0.0
 11
12540.039
 21
12670.4363
 31
0.0
  0
LINE
  5
1A3
330
394
100
AcDbEntity
  8
YKK_A1
100
AcDbLine
 10
12510.039
 20
12670.4363
 30
0.0
 11
12510.039
 21
12070.4363
 31
0.0
  0
LINE
  5
1A4
330
394
100
AcDbEntity
  8
YKK_A1
100
AcDbLine
 10
13295.039
 20
12115.4363
 30
0.0
 11
13295.039
 21
12590.4363
 31
0.0
  0
LINE
  5
1A5
330
394
100
AcDbEntity
  8
YKK_A1
100
AcDbLine
 10
13390.039
 20
12070.4363
 30
0.0
 11
13390.039
 21
12685.4363
 31
0.0
  0
LINE
  5
1A6
330
394
100
AcDbEntity
  8
YKK_A1
100
AcDbLine
 10
13375.039
 20
12070.4363
 30
0.0
 11
13375.039
 21
12670.4363
 31
0.0
  0
LINE
  5
1A7
330
394
100
AcDbEntity
  8
YKK_A1
100
AcDbLine
 10
13345.039
 20
12070.4363
 30
0.0
 11
13345.039
 21
12640.4363
 31
0.0
  0
LINE
  5
1A8
330
394
100
AcDbEntity
  8
YKK_A1
  6
CENTER
100
AcDbLine
 10
12957.539
 20
12640.4363
 30
0.0
 11
13345.039
 21
12070.4363
 31
0.0
  0
LINE
  5
1A9
330
394
100
AcDbEntity
  8
YKK_A1
100
AcDbLine
 10
12570.039
 20
12070.4363
 30
0.0
 11
13345.039
 21
12070.4363
 31
0.0
  0
LINE
  5
1AA
330
394
100
AcDbEntity
  8
YKK_A1
100
AcDbLine
 10
12620.039
 20
12115.4363
 30
0.0
 11
13295.039
 21
12115.4363
 31
0.0
  0
LINE
  5
1AB
330
394
100
AcDbEntity
  8
YKK_A1
100
AcDbLine
 10
12510.039
 20
12070.4363
 30
0.0
 11
12540.039
 21
12070.4363
 31
0.0
  0
LINE
  5
1AC
330
394
100
AcDbEntity
  8
YKK_A2
  6
ByBlock
100
AcDbLine
 10
12902.539
 20
12070.4363
 30
0.0
 11
13012.539
 21
12070.4363
 31
0.0
  0
LINE
  5
1AD
330
394
100
AcDbEntity
  8
YKK_A2
  6
ByBlock
100
AcDbLine
 10
13012.539
 20
12120.4363
 30
0.0
 11
12902.539
 21
12120.4363
 31
0.0
  0
LINE
  5
1AE
330
394
100
AcDbEntity
  8
YKK_A2
  6
ByBlock
100
AcDbLine
 10
12937.539
 20
12120.4363
 30
0.0
 11
12937.539
 21
12070.4363
 31
0.0
  0
LINE
  5
1AF
330
394
100
AcDbEntity
  8
YKK_A2
  6
ByBlock
100
AcDbLine
 10
12902.539
 20
12120.4363
 30
0.0
 11
12902.539
 21
12070.4363
 31
0.0
  0
LINE
  5
1B0
330
394
100
AcDbEntity
  8
YKK_A2
  6
ByBlock
100
AcDbLine
 10
12977.539
 20
12070.4363
 30
0.0
 11
12977.539
 21
12120.4363
 31
0.0
  0
LINE
  5
1B1
330
394
100
AcDbEntity
  8
YKK_A2
  6
ByBlock
100
AcDbLine
 10
13012.539
 20
12070.4363
 30
0.0
 11
13012.539
 21
12120.4363
 31
0.0
  0
LINE
  5
1B2
330
394
100
AcDbEntity
  8
YKK_A1
  6
HIDDEN
100
AcDbLine
 10
13475.039
 20
12075.4363
 30
0.0
 11
13475.039
 21
11570.4363
 31
0.0
  0
LINE
  5
1B3
330
394
100
AcDbEntity
  8
YKK_A2
  6
ByBlock
100
AcDbLine
 10
13525.039
 20
11620.4363
 30
0.0
 11
13425.039
 21
11620.4363
 31
0.0
  0
LINE
  5
1B4
330
394
100
AcDbEntity
  8
YKK_A2
  6
ByBlock
100
AcDbLine
 10
13425.039
 20
11420.4363
 30
0.0
 11
13525.039
 21
11420.4363
 31
0.0
  0
CIRCLE
  5
1B5
330
394
100
AcDbEntity
  8
YKK_A2
  6
ByBlock
100
AcDbCircle
 10
13475.039
 20
11570.4363
 30
0.0
 40
20.0
  0
LINE
  5
1B6
330
394
100
AcDbEntity
  8
YKK_A2
  6
ByBlock
100
AcDbLine
 10
13425.039
 20
11620.4363
 30
0.0
 11
13425.039
 21
11420.4363
 31
0.0
  0
LINE
  5
1B7
330
394
100
AcDbEntity
  8
YKK_A2
  6
ByBlock
100
AcDbLine
 10
13525.039
 20
11420.4363
 30
0.0
 11
13525.039
 21
11620.4363
 31
0.0
  0
ARC
  5
1B8
330
394
100
AcDbEntity
  8
YKK_A1
  6
HIDDEN
100
AcDbCircle
 10
13455.039
 20
12075.4363
 30
0.0
 40
20.0
100
AcDbArc
 50
0.0
 51
90.0
  0
LINE
  5
1B9
330
394
100
AcDbEntity
  8
YKK_A1
100
AcDbLine
 10
13345.039
 20
12640.4363
 30
0.0
 11
12570.039
 21
12640.4363
 31
0.0
  0
LINE
  5
1BA
330
394
100
AcDbEntity
  8
YKK_A1
100
AcDbLine
 10
13295.039
 20
12590.4363
 30
0.0
 11
12620.039
 21
12590.4363
 31
0.0
  0
TEXT
  5
1BB
330
394
100
AcDbEntity
  8
YKK_A1
100
AcDbText
 10
12961.039
 20
12145.4363
 30
0.0
 40
60.0
  1
5+A12+5
 41
0.8
 72
     2
 11
13265.039
 21
12145.4363
 31
0.0
100
AcDbText
  0
TEXT
  5
1BC
330
394
100
AcDbEntity
  8
YKK_A1
100
AcDbText
 10
12993.039
 20
12215.4363
 30
0.0
 40
60.0
  1
複層ガラス
 41
0.8
 72
     2
 11
13265.039
 21
12215.4363
 31
0.0
100
AcDbText
  0
LINE
  5
1BD
330
394
100
AcDbEntity
  8
YKK_A1
100
AcDbLine
 10
12540.039
 20
12670.4363
 30
0.0
 11
12510.039
 21
12670.4363
 31
0.0
  0
TEXT
  5
1BE
330
394
100
AcDbEntity
  8
0
100
AcDbText
 10
13600.039
 20
13437.9363
 30
0.0
 40
200.0
  1
＊
  7
EXTFONT
100
AcDbText
  0
TEXT
  5
1BF
330
394
100
AcDbEntity
  8
0
100
AcDbText
 10
14950.039
 20
13437.9363
 30
0.0
 40
200.0
  1
＊
  7
EXTFONT
100
AcDbText
  0
TEXT
  5
1C0
330
394
100
AcDbEntity
  8
0
100
AcDbText
 10
10300.039
 20
16187.9363
 30
0.0
 40
200.0
  1
突き出し窓連窓（排煙窓）
  7
EXTFONT
100
AcDbText
  0
TEXT
  5
1C1
330
394
100
AcDbEntity
  8
0
100
AcDbText
 10
10300.039
 20
15437.9363
 30
0.0
 40
200.0
  1
シルバー･ｶﾗｰ(ブロンズ､ステン､ブラック)
  7
EXTFONT
100
AcDbText
  0
TEXT
  5
1C2
330
394
100
AcDbEntity
  8
0
100
AcDbText
 10
10300.039
 20
15187.9363
 30
0.0
 40
200.0
  1
FL・透明・複層ガラス
  7
EXTFONT
100
AcDbText
  0
TEXT
  5
1C3
330
394
100
AcDbEntity
  8
0
100
AcDbText
 10
10300.039
 20
14187.9363
 30
0.0
 40
180.0
  1
YKKAP YDP-100同等品
  7
EXTFONT
100
AcDbText
  0
TEXT
  5
1C4
330
394
100
AcDbEntity
  8
0
100
AcDbText
 10
10300.039
 20
15937.9363
 30
0.0
 40
200.0
  1
W=1700　H=600　見込100
  7
EXTFONT
100
AcDbText
  0
TEXT
  5
1C5
330
394
100
AcDbEntity
  8
0
100
AcDbText
 10
10300.039
 20
14687.9363
 30
0.0
 40
200.0
  1
水切・アングル・膳板
  7
EXTFONT
100
AcDbText
  0
TEXT
  5
1C6
330
394
100
AcDbEntity
  8
0
100
AcDbText
 10
10300.039
 20
14937.9363
 30
0.0
 40
200.0
  1
ステイダンパーブラケット・丁番
  7
EXTFONT
100
AcDbText
  0
TEXT
  5
1C7
330
394
100
AcDbEntity
  8
0
100
AcDbText
 10
10300.039
 20
14437.9363
 30
0.0
 40
200.0
  1
＊
  7
EXTFONT
100
AcDbText
  0
LINE
  5
1C8
330
394
100
AcDbEntity
  8
YKK_F1
  6
Continuous
100
AcDbLine
 10
10366.70566667
 20
13912.9363
 30
0.0
 11
10833.37233333
 21
13912.9363
 31
0.0
  0
TEXT
  5
1C9
330
394
100
AcDbEntity
  8
0
100
AcDbText
 10
10500.039
 20
13912.9363
 30
0.0
 40
200.0
  1
＊
  7
EXTFONT
100
AcDbText
  0
TEXT
  5
1CA
330
394
100
AcDbEntity
  8
0
100
AcDbText
 10
10300.039
 20
15687.9363
 30
0.0
 40
200.0
  1
アルミ製
  7
EXTFONT
100
AcDbText
  0
TEXT
  5
1CB
330
394
100
AcDbEntity
  8
0
100
AcDbText
 10
15150.039
 20
13912.9363
 30
0.0
 40
200.0
  1
＊
  7
EXTFONT
100
AcDbText
  0
LINE
  5
1CC
330
394
100
AcDbEntity
  8
YKK_F1
  6
Continuous
100
AcDbLine
 10
15016.70566667
 20
13912.9363
 30
0.0
 11
15483.37233333
 21
13912.9363
 31
0.0
  0
TEXT
  5
1CD
330
394
100
AcDbEntity
  8
0
100
AcDbText
 10
14950.039
 20
14437.9363
 30
0.0
 40
200.0
  1
＊
  7
EXTFONT
100
AcDbText
  0
CIRCLE
  5
1CE
330
394
100
AcDbEntity
  8
YKK_F1
100
AcDbCircle
 10
19900.039
 20
13912.9363
 30
0.0
 40
233.3333333333333
  0
TEXT
  5
1CF
330
394
100
AcDbEntity
  8
YKK_F1
100
AcDbText
 10
19740.039
 20
13712.9363
 30
0.0
 40
160.0
  1
ＡＷ
  7
EXTFONT
100
AcDbText
  0
TEXT
  5
1D0
330
394
100
AcDbEntity
  8
0
100
AcDbText
 10
18550.039
 20
13687.9363
 30
0.0
 40
200.0
  1
＊
  7
EXTFONT
100
AcDbText
  0
TEXT
  5
1D1
330
394
100
AcDbEntity
  8
YKK_F1
100
AcDbText
 10
18970.039
 20
13687.9363
 30
0.0
 40
200.0
  1
箇所
  7
EXTFONT
100
AcDbText
  0
TEXT
  5
1D2
330
394
100
AcDbEntity
  8
YKK_A1
100
AcDbText
 10
17193.039
 20
12115.4363
 30
0.0
 40
60.0
  1
複層ガラス
 41
0.8
 72
     2
 11
17465.039
 21
12115.4363
 31
0.0
100
AcDbText
  0
LINE
  5
1D3
330
394
100
AcDbEntity
  8
YKK_A1
100
AcDbLine
 10
16760.039
 20
12685.4363
 30
0.0
 11
16760.039
 21
11170.4363
 31
0.0
  0
LINE
  5
1D4
330
394
100
AcDbEntity
  8
YKK_A1
100
AcDbLine
 10
16775.039
 20
12670.4363
 30
0.0
 11
16775.039
 21
11970.4363
 31
0.0
  0
LINE
  5
1D5
330
394
100
AcDbEntity
  8
YKK_A1
  6
CENTER
100
AcDbLine
 10
17175.039
 20
12640.4363
 30
0.0
 11
17545.039
 21
11970.4363
 31
0.0
  0
LINE
  5
1D6
330
394
100
AcDbEntity
  8
YKK_A1
100
AcDbLine
 10
16855.039
 20
12590.4363
 30
0.0
 11
16855.039
 21
12015.4363
 31
0.0
  0
LINE
  5
1D7
330
394
100
AcDbEntity
  8
YKK_A1
100
AcDbLine
 10
16805.039
 20
12640.4363
 30
0.0
 11
16805.039
 21
11970.4363
 31
0.0
  0
LINE
  5
1D8
330
394
100
AcDbEntity
  8
YKK_A1
  6
CENTER
100
AcDbLine
 10
16805.039
 20
11970.4363
 30
0.0
 11
17175.039
 21
12640.4363
 31
0.0
  0
LINE
  5
1D9
330
394
100
AcDbEntity
  8
YKK_A1
100
AcDbLine
 10
17590.039
 20
11170.4363
 30
0.0
 11
17590.039
 21
12685.4363
 31
0.0
  0
LINE
  5
1DA
330
394
100
AcDbEntity
  8
YKK_A1
100
AcDbLine
 10
17495.039
 20
12015.4363
 30
0.0
 11
17495.039
 21
12590.4363
 31
0.0
  0
LINE
  5
1DB
330
394
100
AcDbEntity
  8
YKK_A1
100
AcDbLine
 10
17575.039
 20
11970.4363
 30
0.0
 11
17575.039
 21
12670.4363
 31
0.0
  0
LINE
  5
1DC
330
394
100
AcDbEntity
  8
YKK_A1
100
AcDbLine
 10
17545.039
 20
11970.4363
 30
0.0
 11
17545.039
 21
12640.4363
 31
0.0
  0
LINE
  5
1DD
330
394
100
AcDbEntity
  8
YKK_A1
  6
HIDDEN
100
AcDbLine
 10
17175.039
 20
11995.4363
 30
0.0
 11
17655.039
 21
11995.4363
 31
0.0
  0
TEXT
  5
1DE
330
394
100
AcDbEntity
  8
YKK_A1
100
AcDbText
 10
17483.039
 20
11200.4363
 30
0.0
 40
60.0
  1
F
 41
0.8
 72
     2
 11
17515.039
 21
11200.4363
 31
0.0
100
AcDbText
  0
LINE
  5
1DF
330
394
100
AcDbEntity
  8
YKK_A1
100
AcDbLine
 10
17575.039
 20
11870.4363
 30
0.0
 11
16775.039
 21
11870.4363
 31
0.0
  0
LINE
  5
1E0
330
394
100
AcDbEntity
  8
YKK_A1
100
AcDbLine
 10
16775.039
 20
11870.4363
 30
0.0
 11
17575.039
 21
11870.4363
 31
0.0
  0
LINE
  5
1E1
330
394
100
AcDbEntity
  8
YKK_A1
100
AcDbLine
 10
17575.039
 20
11970.4363
 30
0.0
 11
16775.039
 21
11970.4363
 31
0.0
  0
LINE
  5
1E2
330
394
100
AcDbEntity
  8
YKK_A1
100
AcDbLine
 10
16775.039
 20
11970.4363
 30
0.0
 11
17575.039
 21
11970.4363
 31
0.0
  0
LINE
  5
1E3
330
394
100
AcDbEntity
  8
YKK_A1
100
AcDbLine
 10
16760.039
 20
11170.4363
 30
0.0
 11
17590.039
 21
11170.4363
 31
0.0
  0
LINE
  5
1E4
330
394
100
AcDbEntity
  8
YKK_A1
100
AcDbLine
 10
16775.039
 20
11170.4363
 30
0.0
 11
17575.039
 21
11170.4363
 31
0.0
  0
LINE
  5
1E5
330
394
100
AcDbEntity
  8
YKK_A1
100
AcDbLine
 10
16805.039
 20
11170.4363
 30
0.0
 11
17545.039
 21
11170.4363
 31
0.0
  0
TEXT
  5
1E6
330
394
100
AcDbEntity
  8
YKK_A1
100
AcDbText
 10
16894.239
 20
11290.4363
 30
0.0
 40
60.0
  1
複層ガラス 5+A12+5
 41
0.8
 72
     2
 11
17515.039
 21
11290.4363
 31
0.0
100
AcDbText
  0
LINE
  5
1E7
330
394
100
AcDbEntity
  8
YKK_A1
100
AcDbLine
 10
17545.039
 20
11870.4363
 30
0.0
 11
16805.039
 21
11870.4363
 31
0.0
  0
LINE
  5
1E8
330
394
100
AcDbEntity
  8
YKK_A1
100
AcDbLine
 10
16805.039
 20
11970.4363
 30
0.0
 11
17545.039
 21
11970.4363
 31
0.0
  0
LINE
  5
1E9
330
394
100
AcDbEntity
  8
YKK_A1
100
AcDbLine
 10
16775.039
 20
11870.4363
 30
0.0
 11
16775.039
 21
11170.4363
 31
0.0
  0
LINE
  5
1EA
330
394
100
AcDbEntity
  8
YKK_A1
100
AcDbLine
 10
16805.039
 20
11870.4363
 30
0.0
 11
16805.039
 21
11170.4363
 31
0.0
  0
LINE
  5
1EB
330
394
100
AcDbEntity
  8
YKK_A1
100
AcDbLine
 10
16855.039
 20
12015.4363
 30
0.0
 11
17495.039
 21
12015.4363
 31
0.0
  0
LINE
  5
1EC
330
394
100
AcDbEntity
  8
YKK_A1
100
AcDbLine
 10
16775.039
 20
11970.4363
 30
0.0
 11
16775.039
 21
11870.4363
 31
0.0
  0
LINE
  5
1ED
330
394
100
AcDbEntity
  8
YKK_A2
  6
ByBlock
100
AcDbLine
 10
17155.039
 20
12020.4363
 30
0.0
 11
17155.039
 21
11970.4363
 31
0.0
  0
LINE
  5
1EE
330
394
100
AcDbEntity
  8
YKK_A2
  6
ByBlock
100
AcDbLine
 10
17195.039
 20
11970.4363
 30
0.0
 11
17195.039
 21
12020.4363
 31
0.0
  0
LINE
  5
1EF
330
394
100
AcDbEntity
  8
YKK_A2
  6
ByBlock
100
AcDbLine
 10
17230.039
 20
11970.4363
 30
0.0
 11
17230.039
 21
12020.4363
 31
0.0
  0
TEXT
  5
1F0
330
394
100
AcDbEntity
  8
YKK_A1
100
AcDbText
 10
17161.039
 20
12045.4363
 30
0.0
 40
60.0
  1
5+A12+5
 41
0.8
 72
     2
 11
17465.039
 21
12045.4363
 31
0.0
100
AcDbText
  0
LINE
  5
1F1
330
394
100
AcDbEntity
  8
YKK_A2
  6
ByBlock
100
AcDbLine
 10
17120.039
 20
12020.4363
 30
0.0
 11
17120.039
 21
11970.4363
 31
0.0
  0
LINE
  5
1F2
330
394
100
AcDbEntity
  8
YKK_A2
  6
ByBlock
100
AcDbLine
 10
17230.039
 20
12020.4363
 30
0.0
 11
17120.039
 21
12020.4363
 31
0.0
  0
LINE
  5
1F3
330
394
100
AcDbEntity
  8
YKK_A2
  6
ByBlock
100
AcDbLine
 10
17120.039
 20
11970.4363
 30
0.0
 11
17230.039
 21
11970.4363
 31
0.0
  0
LINE
  5
1F4
330
394
100
AcDbEntity
  8
YKK_A1
100
AcDbLine
 10
17575.039
 20
11170.4363
 30
0.0
 11
17575.039
 21
11870.4363
 31
0.0
  0
LINE
  5
1F5
330
394
100
AcDbEntity
  8
YKK_A1
100
AcDbLine
 10
17545.039
 20
11170.4363
 30
0.0
 11
17545.039
 21
11870.4363
 31
0.0
  0
LINE
  5
1F6
330
394
100
AcDbEntity
  8
YKK_A1
  6
HIDDEN
100
AcDbLine
 10
17675.039
 20
11975.4363
 30
0.0
 11
17675.039
 21
11570.4363
 31
0.0
  0
CIRCLE
  5
1F7
330
394
100
AcDbEntity
  8
YKK_A2
  6
ByBlock
100
AcDbCircle
 10
17675.039
 20
11570.4363
 30
0.0
 40
20.0
  0
LINE
  5
1F8
330
394
100
AcDbEntity
  8
YKK_A2
  6
ByBlock
100
AcDbLine
 10
17725.039
 20
11620.4363
 30
0.0
 11
17625.039
 21
11620.4363
 31
0.0
  0
LINE
  5
1F9
330
394
100
AcDbEntity
  8
YKK_A2
  6
ByBlock
100
AcDbLine
 10
17625.039
 20
11420.4363
 30
0.0
 11
17725.039
 21
11420.4363
 31
0.0
  0
LINE
  5
1FA
330
394
100
AcDbEntity
  8
YKK_A2
  6
ByBlock
100
AcDbLine
 10
17625.039
 20
11620.4363
 30
0.0
 11
17625.039
 21
11420.4363
 31
0.0
  0
LINE
  5
1FB
330
394
100
AcDbEntity
  8
YKK_A2
  6
ByBlock
100
AcDbLine
 10
17725.039
 20
11420.4363
 30
0.0
 11
17725.039
 21
11620.4363
 31
0.0
  0
ARC
  5
1FC
330
394
100
AcDbEntity
  8
YKK_A1
  6
HIDDEN
100
AcDbCircle
 10
17655.039
 20
11975.4363
 30
0.0
 40
20.0
100
AcDbArc
 50
0.0
 51
90.0
  0
LINE
  5
1FD
330
394
100
AcDbEntity
  8
YKK_A1
100
AcDbLine
 10
17575.039
 20
11870.4363
 30
0.0
 11
17575.039
 21
11970.4363
 31
0.0
  0
LINE
  5
1FE
330
394
100
AcDbEntity
  8
YKK_A1
100
AcDbLine
 10
17590.039
 20
12685.4363
 30
0.0
 11
16760.039
 21
12685.4363
 31
0.0
  0
LINE
  5
1FF
330
394
100
AcDbEntity
  8
YKK_A1
100
AcDbLine
 10
17575.039
 20
12670.4363
 30
0.0
 11
16775.039
 21
12670.4363
 31
0.0
  0
LINE
  5
200
330
394
100
AcDbEntity
  8
YKK_A1
100
AcDbLine
 10
17545.039
 20
12640.4363
 30
0.0
 11
16805.039
 21
12640.4363
 31
0.0
  0
LINE
  5
201
330
394
100
AcDbEntity
  8
YKK_A1
100
AcDbLine
 10
17495.039
 20
12590.4363
 30
0.0
 11
16855.039
 21
12590.4363
 31
0.0
  0
TEXT
  5
202
330
394
100
AcDbEntity
  8
0
100
AcDbText
 10
18250.039
 20
13437.9363
 30
0.0
 40
200.0
  1
＊
  7
EXTFONT
100
AcDbText
  0
TEXT
  5
203
330
394
100
AcDbEntity
  8
0
100
AcDbText
 10
19600.039
 20
13437.9363
 30
0.0
 40
200.0
  1
＊
  7
EXTFONT
100
AcDbText
  0
LINE
  5
204
330
394
100
AcDbEntity
  8
YKK_F1
  6
Continuous
100
AcDbLine
 10
19666.70566667
 20
13912.9363
 30
0.0
 11
20133.37233333
 21
13912.9363
 31
0.0
  0
TEXT
  5
205
330
394
100
AcDbEntity
  8
0
100
AcDbText
 10
19800.039
 20
13912.9363
 30
0.0
 40
200.0
  1
＊
  7
EXTFONT
100
AcDbText
  0
TEXT
  5
206
330
394
100
AcDbEntity
  8
0
100
AcDbText
 10
19600.039
 20
14437.9363
 30
0.0
 40
200.0
  1
＊
  7
EXTFONT
100
AcDbText
  0
TEXT
  5
207
330
394
100
AcDbEntity
  8
0
100
AcDbText
 10
19600.039
 20
14187.9363
 30
0.0
 40
200.0
  1
＊
  7
EXTFONT
100
AcDbText
  0
TEXT
  5
208
330
394
100
AcDbEntity
  8
0
100
AcDbText
 10
19600.039
 20
14937.9363
 30
0.0
 40
200.0
  1
＊
  7
EXTFONT
100
AcDbText
  0
TEXT
  5
209
330
394
100
AcDbEntity
  8
0
100
AcDbText
 10
19600.039
 20
14687.9363
 30
0.0
 40
200.0
  1
＊
  7
EXTFONT
100
AcDbText
  0
TEXT
  5
20A
330
394
100
AcDbEntity
  8
0
100
AcDbText
 10
19600.039
 20
15187.9363
 30
0.0
 40
200.0
  1
＊
  7
EXTFONT
100
AcDbText
  0
TEXT
  5
20B
330
394
100
AcDbEntity
  8
0
100
AcDbText
 10
19600.039
 20
16187.9363
 30
0.0
 40
200.0
  1
＊
  7
EXTFONT
100
AcDbText
  0
TEXT
  5
20C
330
394
100
AcDbEntity
  8
0
100
AcDbText
 10
19600.039
 20
15687.9363
 30
0.0
 40
200.0
  1
＊
  7
EXTFONT
100
AcDbText
  0
TEXT
  5
20D
330
394
100
AcDbEntity
  8
0
100
AcDbText
 10
19600.039
 20
15437.9363
 30
0.0
 40
200.0
  1
＊
  7
EXTFONT
100
AcDbText
  0
TEXT
  5
20E
330
394
100
AcDbEntity
  8
0
100
AcDbText
 10
19600.039
 20
15937.9363
 30
0.0
 40
200.0
  1
＊
  7
EXTFONT
100
AcDbText
  0
LINE
  5
20F
330
394
100
AcDbEntity
  8
YKK_A1
100
AcDbLine
 10
12430.039
 20
18545.4363
 30
0.0
 11
11755.039
 21
18545.4363
 31
0.0
  0
LINE
  5
210
330
394
100
AcDbEntity
  8
YKK_A1
100
AcDbLine
 10
11755.039
 20
18070.4363
 30
0.0
 11
12430.039
 21
18070.4363
 31
0.0
  0
LINE
  5
211
330
394
100
AcDbEntity
  8
YKK_A1
  6
HIDDEN
100
AcDbLine
 10
12092.539
 20
18050.4363
 30
0.0
 11
13455.039
 21
18050.4363
 31
0.0
  0
LINE
  5
212
330
394
100
AcDbEntity
  8
YKK_A1
  6
CENTER
100
AcDbLine
 10
12092.539
 20
18595.4363
 30
0.0
 11
12480.039
 21
18025.4363
 31
0.0
  0
LINE
  5
213
330
394
100
AcDbEntity
  8
YKK_A1
100
AcDbLine
 10
11660.039
 20
18025.4363
 30
0.0
 11
13390.039
 21
18025.4363
 31
0.0
  0
LINE
  5
214
330
394
100
AcDbEntity
  8
YKK_A1
100
AcDbLine
 10
13390.039
 20
18640.4363
 30
0.0
 11
11660.039
 21
18640.4363
 31
0.0
  0
LINE
  5
215
330
394
100
AcDbEntity
  8
YKK_A1
100
AcDbLine
 10
11675.039
 20
18025.4363
 30
0.0
 11
13375.039
 21
18025.4363
 31
0.0
  0
LINE
  5
216
330
394
100
AcDbEntity
  8
YKK_A1
100
AcDbLine
 10
13375.039
 20
18625.4363
 30
0.0
 11
11675.039
 21
18625.4363
 31
0.0
  0
LINE
  5
217
330
394
100
AcDbEntity
  8
YKK_A1
100
AcDbLine
 10
11705.039
 20
18025.4363
 30
0.0
 11
12480.039
 21
18025.4363
 31
0.0
  0
LINE
  5
218
330
394
100
AcDbEntity
  8
YKK_A1
100
AcDbLine
 10
12480.039
 20
18595.4363
 30
0.0
 11
11705.039
 21
18595.4363
 31
0.0
  0
LINE
  5
219
330
394
100
AcDbEntity
  8
YKK_A1
100
AcDbLine
 10
11755.039
 20
18545.4363
 30
0.0
 11
11755.039
 21
18070.4363
 31
0.0
  0
LINE
  5
21A
330
394
100
AcDbEntity
  8
YKK_A2
  6
ByBlock
100
AcDbLine
 10
11740.039
 20
18475.4363
 30
0.0
 11
11740.039
 21
18175.4363
 31
0.0
  0
LINE
  5
21B
330
394
100
AcDbEntity
  8
YKK_A1
100
AcDbLine
 10
11660.039
 20
18640.4363
 30
0.0
 11
11660.039
 21
18025.4363
 31
0.0
  0
LINE
  5
21C
330
394
100
AcDbEntity
  8
YKK_A1
100
AcDbLine
 10
11675.039
 20
18625.4363
 30
0.0
 11
11675.039
 21
18025.4363
 31
0.0
  0
LINE
  5
21D
330
394
100
AcDbEntity
  8
YKK_A1
100
AcDbLine
 10
11705.039
 20
18595.4363
 30
0.0
 11
11705.039
 21
18025.4363
 31
0.0
  0
LINE
  5
21E
330
394
100
AcDbEntity
  8
YKK_A2
  6
ByBlock
100
AcDbLine
 10
11720.039
 20
18475.4363
 30
0.0
 11
11720.039
 21
18175.4363
 31
0.0
  0
LINE
  5
21F
330
394
100
AcDbEntity
  8
YKK_A1
  6
CENTER
100
AcDbLine
 10
11705.039
 20
18025.4363
 30
0.0
 11
12092.539
 21
18595.4363
 31
0.0
  0
LINE
  5
220
330
394
100
AcDbEntity
  8
YKK_A2
  6
ByBlock
100
AcDbLine
 10
12147.539
 20
18075.4363
 30
0.0
 11
12037.539
 21
18075.4363
 31
0.0
  0
LINE
  5
221
330
394
100
AcDbEntity
  8
YKK_A2
  6
ByBlock
100
AcDbLine
 10
11735.039
 20
18175.4363
 30
0.0
 11
11735.039
 21
18145.4363
 31
0.0
  0
LINE
  5
222
330
394
100
AcDbEntity
  8
YKK_A2
  6
ByBlock
100
AcDbLine
 10
12037.539
 20
18025.4363
 30
0.0
 11
12147.539
 21
18025.4363
 31
0.0
  0
LINE
  5
223
330
394
100
AcDbEntity
  8
YKK_A2
  6
ByBlock
100
AcDbLine
 10
12037.539
 20
18075.4363
 30
0.0
 11
12037.539
 21
18025.4363
 31
0.0
  0
LINE
  5
224
330
394
100
AcDbEntity
  8
YKK_A2
  6
ByBlock
100
AcDbLine
 10
12072.539
 20
18075.4363
 30
0.0
 11
12072.539
 21
18025.4363
 31
0.0
  0
LINE
  5
225
330
394
100
AcDbEntity
  8
YKK_A2
  6
ByBlock
100
AcDbLine
 10
12112.539
 20
18025.4363
 30
0.0
 11
12112.539
 21
18075.4363
 31
0.0
  0
LINE
  5
226
330
394
100
AcDbEntity
  8
YKK_A2
  6
ByBlock
100
AcDbLine
 10
12147.539
 20
18025.4363
 30
0.0
 11
12147.539
 21
18075.4363
 31
0.0
  0
LINE
  5
227
330
394
100
AcDbEntity
  8
YKK_A2
  6
ByBlock
100
AcDbLine
 10
11725.039
 20
18175.4363
 30
0.0
 11
11725.039
 21
18145.4363
 31
0.0
  0
LINE
  5
228
330
394
100
AcDbEntity
  8
YKK_A2
  6
ByBlock
100
AcDbLine
 10
11720.039
 20
18175.4363
 30
0.0
 11
11740.039
 21
18175.4363
 31
0.0
  0
LINE
  5
229
330
394
100
AcDbEntity
  8
YKK_A2
  6
ByBlock
100
AcDbLine
 10
11725.039
 20
18145.4363
 30
0.0
 11
11735.039
 21
18145.4363
 31
0.0
  0
LINE
  5
22A
330
394
100
AcDbEntity
  8
YKK_A2
  6
ByBlock
100
AcDbLine
 10
11735.039
 20
18505.4363
 30
0.0
 11
11735.039
 21
18475.4363
 31
0.0
  0
LINE
  5
22B
330
394
100
AcDbEntity
  8
YKK_A2
  6
ByBlock
100
AcDbLine
 10
11725.039
 20
18505.4363
 30
0.0
 11
11725.039
 21
18475.4363
 31
0.0
  0
LINE
  5
22C
330
394
100
AcDbEntity
  8
YKK_A2
  6
ByBlock
100
AcDbLine
 10
11720.039
 20
18475.4363
 30
0.0
 11
11740.039
 21
18475.4363
 31
0.0
  0
LINE
  5
22D
330
394
100
AcDbEntity
  8
YKK_A2
  6
ByBlock
100
AcDbLine
 10
11725.039
 20
18505.4363
 30
0.0
 11
11735.039
 21
18505.4363
 31
0.0
  0
TEXT
  5
22E
330
394
100
AcDbEntity
  8
0
100
AcDbText
 10
10300.039
 20
19392.9363
 30
0.0
 40
200.0
  1
＊
  7
EXTFONT
100
AcDbText
  0
TEXT
  5
22F
330
394
100
AcDbEntity
  8
0
100
AcDbText
 10
8950.039
 20
19392.9363
 30
0.0
 40
200.0
  1
＊
  7
EXTFONT
100
AcDbText
  0
TEXT
  5
230
330
394
100
AcDbEntity
  8
0
100
AcDbText
 10
9250.039
 20
19642.9363
 30
0.0
 40
200.0
  1
＊
  7
EXTFONT
100
AcDbText
  0
TEXT
  5
231
330
394
100
AcDbEntity
  8
YKK_F1
100
AcDbText
 10
9670.039
 20
19642.9363
 30
0.0
 40
200.0
  1
箇所
  7
EXTFONT
100
AcDbText
  0
TEXT
  5
232
330
394
100
AcDbEntity
  8
0
100
AcDbText
 10
10500.039
 20
19867.9363
 30
0.0
 40
200.0
  1
＊
  7
EXTFONT
100
AcDbText
  0
CIRCLE
  5
233
330
394
100
AcDbEntity
  8
YKK_F1
100
AcDbCircle
 10
10600.039
 20
19867.9363
 30
0.0
 40
233.3333333333333
  0
LINE
  5
234
330
394
100
AcDbEntity
  8
YKK_F1
  6
Continuous
100
AcDbLine
 10
10366.70566667
 20
19867.9363
 30
0.0
 11
10833.37233333
 21
19867.9363
 31
0.0
  0
TEXT
  5
235
330
394
100
AcDbEntity
  8
YKK_F1
100
AcDbText
 10
10440.039
 20
19667.9363
 30
0.0
 40
160.0
  1
ＡＷ
  7
EXTFONT
100
AcDbText
  0
LINE
  5
236
330
394
100
AcDbEntity
  8
YKK_A1
  6
HIDDEN
100
AcDbLine
 10
13475.039
 20
18030.4363
 30
0.0
 11
13475.039
 21
17525.4363
 31
0.0
  0
LINE
  5
237
330
394
100
AcDbEntity
  8
YKK_A2
  6
ByBlock
100
AcDbLine
 10
13525.039
 20
17375.4363
 30
0.0
 11
13525.039
 21
17575.4363
 31
0.0
  0
LINE
  5
238
330
394
100
AcDbEntity
  8
YKK_A2
  6
ByBlock
100
AcDbLine
 10
13425.039
 20
17575.4363
 30
0.0
 11
13425.039
 21
17375.4363
 31
0.0
  0
LINE
  5
239
330
394
100
AcDbEntity
  8
YKK_A2
  6
ByBlock
100
AcDbLine
 10
13425.039
 20
17375.4363
 30
0.0
 11
13525.039
 21
17375.4363
 31
0.0
  0
CIRCLE
  5
23A
330
394
100
AcDbEntity
  8
YKK_A2
  6
ByBlock
100
AcDbCircle
 10
13475.039
 20
17525.4363
 30
0.0
 40
20.0
  0
LINE
  5
23B
330
394
100
AcDbEntity
  8
YKK_A2
  6
ByBlock
100
AcDbLine
 10
13525.039
 20
17575.4363
 30
0.0
 11
13425.039
 21
17575.4363
 31
0.0
  0
LINE
  5
23C
330
394
100
AcDbEntity
  8
YKK_A1
100
AcDbLine
 10
13345.039
 20
18595.4363
 30
0.0
 11
12570.039
 21
18595.4363
 31
0.0
  0
LINE
  5
23D
330
394
100
AcDbEntity
  8
YKK_A1
100
AcDbLine
 10
13295.039
 20
18545.4363
 30
0.0
 11
12620.039
 21
18545.4363
 31
0.0
  0
TEXT
  5
23E
330
394
100
AcDbEntity
  8
YKK_A1
100
AcDbText
 10
12961.039
 20
18100.4363
 30
0.0
 40
60.0
  1
5+A12+5
 41
0.8
 72
     2
 11
13265.039
 21
18100.4363
 31
0.0
100
AcDbText
  0
TEXT
  5
23F
330
394
100
AcDbEntity
  8
YKK_A1
100
AcDbText
 10
12993.039
 20
18170.4363
 30
0.0
 40
60.0
  1
複層ガラス
 41
0.8
 72
     2
 11
13265.039
 21
18170.4363
 31
0.0
100
AcDbText
  0
LINE
  5
240
330
394
100
AcDbEntity
  8
YKK_A1
100
AcDbLine
 10
12570.039
 20
18025.4363
 30
0.0
 11
13345.039
 21
18025.4363
 31
0.0
  0
LINE
  5
241
330
394
100
AcDbEntity
  8
YKK_A1
100
AcDbLine
 10
12620.039
 20
18070.4363
 30
0.0
 11
13295.039
 21
18070.4363
 31
0.0
  0
LINE
  5
242
330
394
100
AcDbEntity
  8
YKK_A1
  6
CENTER
100
AcDbLine
 10
12957.539
 20
18595.4363
 30
0.0
 11
13345.039
 21
18025.4363
 31
0.0
  0
LINE
  5
243
330
394
100
AcDbEntity
  8
YKK_A1
  6
CENTER
100
AcDbLine
 10
12570.039
 20
18025.4363
 30
0.0
 11
12957.539
 21
18595.4363
 31
0.0
  0
LINE
  5
244
330
394
100
AcDbEntity
  8
YKK_A1
100
AcDbLine
 10
12570.039
 20
18595.4363
 30
0.0
 11
12570.039
 21
18025.4363
 31
0.0
  0
LINE
  5
245
330
394
100
AcDbEntity
  8
YKK_A1
100
AcDbLine
 10
12620.039
 20
18545.4363
 30
0.0
 11
12620.039
 21
18070.4363
 31
0.0
  0
LINE
  5
246
330
394
100
AcDbEntity
  8
YKK_A1
100
AcDbLine
 10
12480.039
 20
18025.4363
 30
0.0
 11
12480.039
 21
18595.4363
 31
0.0
  0
LINE
  5
247
330
394
100
AcDbEntity
  8
YKK_A1
100
AcDbLine
 10
12430.039
 20
18070.4363
 30
0.0
 11
12430.039
 21
18545.4363
 31
0.0
  0
LINE
  5
248
330
394
100
AcDbEntity
  8
YKK_A1
100
AcDbLine
 10
12540.039
 20
18025.4363
 30
0.0
 11
12540.039
 21
18625.4363
 31
0.0
  0
LINE
  5
249
330
394
100
AcDbEntity
  8
YKK_A1
100
AcDbLine
 10
12510.039
 20
18625.4363
 30
0.0
 11
12510.039
 21
18025.4363
 31
0.0
  0
LINE
  5
24A
330
394
100
AcDbEntity
  8
YKK_A2
  6
ByBlock
100
AcDbLine
 10
12605.039
 20
18475.4363
 30
0.0
 11
12605.039
 21
18175.4363
 31
0.0
  0
LINE
  5
24B
330
394
100
AcDbEntity
  8
YKK_A2
  6
ByBlock
100
AcDbLine
 10
12585.039
 20
18475.4363
 30
0.0
 11
12585.039
 21
18175.4363
 31
0.0
  0
LINE
  5
24C
330
394
100
AcDbEntity
  8
YKK_A2
  6
ByBlock
100
AcDbLine
 10
12465.039
 20
18475.4363
 30
0.0
 11
12465.039
 21
18175.4363
 31
0.0
  0
LINE
  5
24D
330
394
100
AcDbEntity
  8
YKK_A2
  6
ByBlock
100
AcDbLine
 10
12445.039
 20
18475.4363
 30
0.0
 11
12445.039
 21
18175.4363
 31
0.0
  0
LINE
  5
24E
330
394
100
AcDbEntity
  8
YKK_A2
  6
ByBlock
100
AcDbLine
 10
12585.039
 20
18175.4363
 30
0.0
 11
12605.039
 21
18175.4363
 31
0.0
  0
LINE
  5
24F
330
394
100
AcDbEntity
  8
YKK_A2
  6
ByBlock
100
AcDbLine
 10
12590.039
 20
18145.4363
 30
0.0
 11
12600.039
 21
18145.4363
 31
0.0
  0
LINE
  5
250
330
394
100
AcDbEntity
  8
YKK_A2
  6
ByBlock
100
AcDbLine
 10
12590.039
 20
18175.4363
 30
0.0
 11
12590.039
 21
18145.4363
 31
0.0
  0
LINE
  5
251
330
394
100
AcDbEntity
  8
YKK_A2
  6
ByBlock
100
AcDbLine
 10
12445.039
 20
18175.4363
 30
0.0
 11
12465.039
 21
18175.4363
 31
0.0
  0
LINE
  5
252
330
394
100
AcDbEntity
  8
YKK_A2
  6
ByBlock
100
AcDbLine
 10
12450.039
 20
18145.4363
 30
0.0
 11
12460.039
 21
18145.4363
 31
0.0
  0
LINE
  5
253
330
394
100
AcDbEntity
  8
YKK_A2
  6
ByBlock
100
AcDbLine
 10
12450.039
 20
18175.4363
 30
0.0
 11
12450.039
 21
18145.4363
 31
0.0
  0
LINE
  5
254
330
394
100
AcDbEntity
  8
YKK_A2
  6
ByBlock
100
AcDbLine
 10
12460.039
 20
18175.4363
 30
0.0
 11
12460.039
 21
18145.4363
 31
0.0
  0
LINE
  5
255
330
394
100
AcDbEntity
  8
YKK_A1
100
AcDbLine
 10
12510.039
 20
18025.4363
 30
0.0
 11
12540.039
 21
18025.4363
 31
0.0
  0
LINE
  5
256
330
394
100
AcDbEntity
  8
YKK_A2
  6
ByBlock
100
AcDbLine
 10
13012.539
 20
18075.4363
 30
0.0
 11
12902.539
 21
18075.4363
 31
0.0
  0
LINE
  5
257
330
394
100
AcDbEntity
  8
YKK_A2
  6
ByBlock
100
AcDbLine
 10
12902.539
 20
18025.4363
 30
0.0
 11
13012.539
 21
18025.4363
 31
0.0
  0
LINE
  5
258
330
394
100
AcDbEntity
  8
YKK_A2
  6
ByBlock
100
AcDbLine
 10
12902.539
 20
18075.4363
 30
0.0
 11
12902.539
 21
18025.4363
 31
0.0
  0
LINE
  5
259
330
394
100
AcDbEntity
  8
YKK_A2
  6
ByBlock
100
AcDbLine
 10
12937.539
 20
18075.4363
 30
0.0
 11
12937.539
 21
18025.4363
 31
0.0
  0
LINE
  5
25A
330
394
100
AcDbEntity
  8
YKK_A2
  6
ByBlock
100
AcDbLine
 10
12977.539
 20
18025.4363
 30
0.0
 11
12977.539
 21
18075.4363
 31
0.0
  0
LINE
  5
25B
330
394
100
AcDbEntity
  8
YKK_A2
  6
ByBlock
100
AcDbLine
 10
13012.539
 20
18025.4363
 30
0.0
 11
13012.539
 21
18075.4363
 31
0.0
  0
LINE
  5
25C
330
394
100
AcDbEntity
  8
YKK_A2
  6
ByBlock
100
AcDbLine
 10
12600.039
 20
18175.4363
 30
0.0
 11
12600.039
 21
18145.4363
 31
0.0
  0
LINE
  5
25D
330
394
100
AcDbEntity
  8
YKK_A2
  6
ByBlock
100
AcDbLine
 10
12585.039
 20
18475.4363
 30
0.0
 11
12605.039
 21
18475.4363
 31
0.0
  0
LINE
  5
25E
330
394
100
AcDbEntity
  8
YKK_A2
  6
ByBlock
100
AcDbLine
 10
12590.039
 20
18505.4363
 30
0.0
 11
12600.039
 21
18505.4363
 31
0.0
  0
LINE
  5
25F
330
394
100
AcDbEntity
  8
YKK_A2
  6
ByBlock
100
AcDbLine
 10
12590.039
 20
18505.4363
 30
0.0
 11
12590.039
 21
18475.4363
 31
0.0
  0
LINE
  5
260
330
394
100
AcDbEntity
  8
YKK_A2
  6
ByBlock
100
AcDbLine
 10
12445.039
 20
18475.4363
 30
0.0
 11
12465.039
 21
18475.4363
 31
0.0
  0
LINE
  5
261
330
394
100
AcDbEntity
  8
YKK_A2
  6
ByBlock
100
AcDbLine
 10
12450.039
 20
18505.4363
 30
0.0
 11
12460.039
 21
18505.4363
 31
0.0
  0
LINE
  5
262
330
394
100
AcDbEntity
  8
YKK_A2
  6
ByBlock
100
AcDbLine
 10
12450.039
 20
18505.4363
 30
0.0
 11
12450.039
 21
18475.4363
 31
0.0
  0
LINE
  5
263
330
394
100
AcDbEntity
  8
YKK_A2
  6
ByBlock
100
AcDbLine
 10
12460.039
 20
18505.4363
 30
0.0
 11
12460.039
 21
18475.4363
 31
0.0
  0
LINE
  5
264
330
394
100
AcDbEntity
  8
YKK_A1
100
AcDbLine
 10
12540.039
 20
18625.4363
 30
0.0
 11
12510.039
 21
18625.4363
 31
0.0
  0
LINE
  5
265
330
394
100
AcDbEntity
  8
YKK_A2
  6
ByBlock
100
AcDbLine
 10
12600.039
 20
18505.4363
 30
0.0
 11
12600.039
 21
18475.4363
 31
0.0
  0
LINE
  5
266
330
394
100
AcDbEntity
  8
YKK_A1
100
AcDbLine
 10
13390.039
 20
18025.4363
 30
0.0
 11
13390.039
 21
18640.4363
 31
0.0
  0
LINE
  5
267
330
394
100
AcDbEntity
  8
YKK_A1
100
AcDbLine
 10
13375.039
 20
18025.4363
 30
0.0
 11
13375.039
 21
18625.4363
 31
0.0
  0
LINE
  5
268
330
394
100
AcDbEntity
  8
YKK_A1
100
AcDbLine
 10
13345.039
 20
18025.4363
 30
0.0
 11
13345.039
 21
18595.4363
 31
0.0
  0
LINE
  5
269
330
394
100
AcDbEntity
  8
YKK_A1
100
AcDbLine
 10
13295.039
 20
18070.4363
 30
0.0
 11
13295.039
 21
18545.4363
 31
0.0
  0
LINE
  5
26A
330
394
100
AcDbEntity
  8
YKK_A2
  6
ByBlock
100
AcDbLine
 10
13330.039
 20
18475.4363
 30
0.0
 11
13330.039
 21
18175.4363
 31
0.0
  0
LINE
  5
26B
330
394
100
AcDbEntity
  8
YKK_A2
  6
ByBlock
100
AcDbLine
 10
13310.039
 20
18475.4363
 30
0.0
 11
13310.039
 21
18175.4363
 31
0.0
  0
LINE
  5
26C
330
394
100
AcDbEntity
  8
YKK_A2
  6
ByBlock
100
AcDbLine
 10
13310.039
 20
18175.4363
 30
0.0
 11
13330.039
 21
18175.4363
 31
0.0
  0
LINE
  5
26D
330
394
100
AcDbEntity
  8
YKK_A2
  6
ByBlock
100
AcDbLine
 10
13315.039
 20
18145.4363
 30
0.0
 11
13325.039
 21
18145.4363
 31
0.0
  0
LINE
  5
26E
330
394
100
AcDbEntity
  8
YKK_A2
  6
ByBlock
100
AcDbLine
 10
13315.039
 20
18175.4363
 30
0.0
 11
13315.039
 21
18145.4363
 31
0.0
  0
LINE
  5
26F
330
394
100
AcDbEntity
  8
YKK_A2
  6
ByBlock
100
AcDbLine
 10
13325.039
 20
18175.4363
 30
0.0
 11
13325.039
 21
18145.4363
 31
0.0
  0
ARC
  5
270
330
394
100
AcDbEntity
  8
YKK_A1
  6
HIDDEN
100
AcDbCircle
 10
13455.039
 20
18030.4363
 30
0.0
 40
20.0
100
AcDbArc
 50
0.0
 51
90.0
  0
LINE
  5
271
330
394
100
AcDbEntity
  8
YKK_A2
  6
ByBlock
100
AcDbLine
 10
13310.039
 20
18475.4363
 30
0.0
 11
13330.039
 21
18475.4363
 31
0.0
  0
LINE
  5
272
330
394
100
AcDbEntity
  8
YKK_A2
  6
ByBlock
100
AcDbLine
 10
13315.039
 20
18505.4363
 30
0.0
 11
13325.039
 21
18505.4363
 31
0.0
  0
LINE
  5
273
330
394
100
AcDbEntity
  8
YKK_A2
  6
ByBlock
100
AcDbLine
 10
13315.039
 20
18505.4363
 30
0.0
 11
13315.039
 21
18475.4363
 31
0.0
  0
LINE
  5
274
330
394
100
AcDbEntity
  8
YKK_A2
  6
ByBlock
100
AcDbLine
 10
13325.039
 20
18505.4363
 30
0.0
 11
13325.039
 21
18475.4363
 31
0.0
  0
TEXT
  5
275
330
394
100
AcDbEntity
  8
0
100
AcDbText
 10
13600.039
 20
19392.9363
 30
0.0
 40
200.0
  1
＊
  7
EXTFONT
100
AcDbText
  0
TEXT
  5
276
330
394
100
AcDbEntity
  8
0
100
AcDbText
 10
14950.039
 20
19392.9363
 30
0.0
 40
200.0
  1
＊
  7
EXTFONT
100
AcDbText
  0
TEXT
  5
277
330
394
100
AcDbEntity
  8
YKK_F1
100
AcDbText
 10
14320.039
 20
19642.9363
 30
0.0
 40
200.0
  1
箇所
  7
EXTFONT
100
AcDbText
  0
TEXT
  5
278
330
394
100
AcDbEntity
  8
0
100
AcDbText
 10
13900.039
 20
19642.9363
 30
0.0
 40
200.0
  1
＊
  7
EXTFONT
100
AcDbText
  0
TEXT
  5
279
330
394
100
AcDbEntity
  8
0
100
AcDbText
 10
15150.039
 20
19867.9363
 30
0.0
 40
200.0
  1
＊
  7
EXTFONT
100
AcDbText
  0
CIRCLE
  5
27A
330
394
100
AcDbEntity
  8
YKK_F1
100
AcDbCircle
 10
15250.039
 20
19867.9363
 30
0.0
 40
233.3333333333333
  0
TEXT
  5
27B
330
394
100
AcDbEntity
  8
YKK_F1
100
AcDbText
 10
15090.039
 20
19667.9363
 30
0.0
 40
160.0
  1
ＡＷ
  7
EXTFONT
100
AcDbText
  0
LINE
  5
27C
330
394
100
AcDbEntity
  8
YKK_F1
  6
Continuous
100
AcDbLine
 10
15016.70566667
 20
19867.9363
 30
0.0
 11
15483.37233333
 21
19867.9363
 31
0.0
  0
TEXT
  5
27D
330
394
100
AcDbEntity
  8
YKK_F1
100
AcDbText
 10
18970.039
 20
19642.9363
 30
0.0
 40
200.0
  1
箇所
  7
EXTFONT
100
AcDbText
  0
LINE
  5
27E
330
394
100
AcDbEntity
  8
YKK_A2
  6
ByBlock
100
AcDbLine
 10
17510.039
 20
18450.4363
 30
0.0
 11
17530.039
 21
18450.4363
 31
0.0
  0
LINE
  5
27F
330
394
100
AcDbEntity
  8
YKK_A1
100
AcDbLine
 10
17545.039
 20
18595.4363
 30
0.0
 11
16805.039
 21
18595.4363
 31
0.0
  0
LINE
  5
280
330
394
100
AcDbEntity
  8
YKK_A2
  6
ByBlock
100
AcDbLine
 10
17510.039
 20
18100.4363
 30
0.0
 11
17530.039
 21
18100.4363
 31
0.0
  0
LINE
  5
281
330
394
100
AcDbEntity
  8
YKK_A1
  6
HIDDEN
100
AcDbLine
 10
17175.039
 20
17950.4363
 30
0.0
 11
17655.039
 21
17950.4363
 31
0.0
  0
LINE
  5
282
330
394
100
AcDbEntity
  8
YKK_A1
100
AcDbLine
 10
17545.039
 20
17825.4363
 30
0.0
 11
16805.039
 21
17825.4363
 31
0.0
  0
LINE
  5
283
330
394
100
AcDbEntity
  8
YKK_A1
100
AcDbLine
 10
16805.039
 20
17925.4363
 30
0.0
 11
17545.039
 21
17925.4363
 31
0.0
  0
LINE
  5
284
330
394
100
AcDbEntity
  8
YKK_A1
  6
CENTER
100
AcDbLine
 10
17175.039
 20
18595.4363
 30
0.0
 11
17545.039
 21
17925.4363
 31
0.0
  0
LINE
  5
285
330
394
100
AcDbEntity
  8
YKK_A1
100
AcDbLine
 10
17575.039
 20
17825.4363
 30
0.0
 11
16775.039
 21
17825.4363
 31
0.0
  0
LINE
  5
286
330
394
100
AcDbEntity
  8
YKK_A1
100
AcDbLine
 10
16775.039
 20
17825.4363
 30
0.0
 11
17575.039
 21
17825.4363
 31
0.0
  0
LINE
  5
287
330
394
100
AcDbEntity
  8
YKK_A1
100
AcDbLine
 10
17575.039
 20
17925.4363
 30
0.0
 11
16775.039
 21
17925.4363
 31
0.0
  0
LINE
  5
288
330
394
100
AcDbEntity
  8
YKK_A1
100
AcDbLine
 10
16775.039
 20
17925.4363
 30
0.0
 11
17575.039
 21
17925.4363
 31
0.0
  0
LINE
  5
289
330
394
100
AcDbEntity
  8
YKK_A1
100
AcDbLine
 10
17590.039
 20
18640.4363
 30
0.0
 11
16760.039
 21
18640.4363
 31
0.0
  0
LINE
  5
28A
330
394
100
AcDbEntity
  8
YKK_A1
100
AcDbLine
 10
17575.039
 20
18625.4363
 30
0.0
 11
16775.039
 21
18625.4363
 31
0.0
  0
TEXT
  5
28B
330
394
100
AcDbEntity
  8
YKK_A1
100
AcDbText
 10
17483.039
 20
17155.4363
 30
0.0
 40
60.0
  1
F
 41
0.8
 72
     2
 11
17515.039
 21
17155.4363
 31
0.0
100
AcDbText
  0
LINE
  5
28C
330
394
100
AcDbEntity
  8
YKK_A1
100
AcDbLine
 10
16805.039
 20
17125.4363
 30
0.0
 11
17545.039
 21
17125.4363
 31
0.0
  0
TEXT
  5
28D
330
394
100
AcDbEntity
  8
YKK_A1
100
AcDbText
 10
16894.239
 20
17245.4363
 30
0.0
 40
60.0
  1
複層ガラス 5+A12+5
 41
0.8
 72
     2
 11
17515.039
 21
17245.4363
 31
0.0
100
AcDbText
  0
LINE
  5
28E
330
394
100
AcDbEntity
  8
YKK_A1
100
AcDbLine
 10
16760.039
 20
17125.4363
 30
0.0
 11
17590.039
 21
17125.4363
 31
0.0
  0
LINE
  5
28F
330
394
100
AcDbEntity
  8
YKK_A1
100
AcDbLine
 10
16775.039
 20
17125.4363
 30
0.0
 11
17575.039
 21
17125.4363
 31
0.0
  0
LINE
  5
290
330
394
100
AcDbEntity
  8
YKK_A1
100
AcDbLine
 10
16775.039
 20
17925.4363
 30
0.0
 11
16775.039
 21
17825.4363
 31
0.0
  0
LINE
  5
291
330
394
100
AcDbEntity
  8
YKK_A1
100
AcDbLine
 10
16760.039
 20
18640.4363
 30
0.0
 11
16760.039
 21
17125.4363
 31
0.0
  0
LINE
  5
292
330
394
100
AcDbEntity
  8
YKK_A1
100
AcDbLine
 10
16775.039
 20
17825.4363
 30
0.0
 11
16775.039
 21
17125.4363
 31
0.0
  0
LINE
  5
293
330
394
100
AcDbEntity
  8
YKK_A1
100
AcDbLine
 10
16805.039
 20
17825.4363
 30
0.0
 11
16805.039
 21
17125.4363
 31
0.0
  0
LINE
  5
294
330
394
100
AcDbEntity
  8
YKK_A1
100
AcDbLine
 10
16805.039
 20
18595.4363
 30
0.0
 11
16805.039
 21
17925.4363
 31
0.0
  0
LINE
  5
295
330
394
100
AcDbEntity
  8
YKK_A1
100
AcDbLine
 10
16855.039
 20
18545.4363
 30
0.0
 11
16855.039
 21
17970.4363
 31
0.0
  0
LINE
  5
296
330
394
100
AcDbEntity
  8
YKK_A1
  6
CENTER
100
AcDbLine
 10
16805.039
 20
17925.4363
 30
0.0
 11
17175.039
 21
18595.4363
 31
0.0
  0
LINE
  5
297
330
394
100
AcDbEntity
  8
YKK_A2
  6
ByBlock
100
AcDbLine
 10
16840.039
 20
18450.4363
 30
0.0
 11
16840.039
 21
18100.4363
 31
0.0
  0
LINE
  5
298
330
394
100
AcDbEntity
  8
YKK_A2
  6
ByBlock
100
AcDbLine
 10
16820.039
 20
18450.4363
 30
0.0
 11
16820.039
 21
18100.4363
 31
0.0
  0
LINE
  5
299
330
394
100
AcDbEntity
  8
YKK_A1
100
AcDbLine
 10
17495.039
 20
17970.4363
 30
0.0
 11
17495.039
 21
18545.4363
 31
0.0
  0
LINE
  5
29A
330
394
100
AcDbEntity
  8
YKK_A2
  6
ByBlock
100
AcDbLine
 10
17510.039
 20
18450.4363
 30
0.0
 11
17510.039
 21
18100.4363
 31
0.0
  0
LINE
  5
29B
330
394
100
AcDbEntity
  8
YKK_A1
100
AcDbLine
 10
16775.039
 20
18625.4363
 30
0.0
 11
16775.039
 21
17925.4363
 31
0.0
  0
LINE
  5
29C
330
394
100
AcDbEntity
  8
YKK_A1
100
AcDbLine
 10
16855.039
 20
17970.4363
 30
0.0
 11
17495.039
 21
17970.4363
 31
0.0
  0
LINE
  5
29D
330
394
100
AcDbEntity
  8
YKK_A2
  6
ByBlock
100
AcDbLine
 10
16820.039
 20
18100.4363
 30
0.0
 11
16840.039
 21
18100.4363
 31
0.0
  0
LINE
  5
29E
330
394
100
AcDbEntity
  8
YKK_A2
  6
ByBlock
100
AcDbLine
 10
16825.039
 20
18065.4363
 30
0.0
 11
16835.039
 21
18065.4363
 31
0.0
  0
LINE
  5
29F
330
394
100
AcDbEntity
  8
YKK_A2
  6
ByBlock
100
AcDbLine
 10
16825.039
 20
18100.4363
 30
0.0
 11
16825.039
 21
18065.4363
 31
0.0
  0
LINE
  5
2A0
330
394
100
AcDbEntity
  8
YKK_A2
  6
ByBlock
100
AcDbLine
 10
16835.039
 20
18100.4363
 30
0.0
 11
16835.039
 21
18065.4363
 31
0.0
  0
LINE
  5
2A1
330
394
100
AcDbEntity
  8
YKK_A2
  6
ByBlock
100
AcDbLine
 10
17230.039
 20
17975.4363
 30
0.0
 11
17120.039
 21
17975.4363
 31
0.0
  0
LINE
  5
2A2
330
394
100
AcDbEntity
  8
YKK_A2
  6
ByBlock
100
AcDbLine
 10
17120.039
 20
17925.4363
 30
0.0
 11
17230.039
 21
17925.4363
 31
0.0
  0
LINE
  5
2A3
330
394
100
AcDbEntity
  8
YKK_A2
  6
ByBlock
100
AcDbLine
 10
17155.039
 20
17975.4363
 30
0.0
 11
17155.039
 21
17925.4363
 31
0.0
  0
LINE
  5
2A4
330
394
100
AcDbEntity
  8
YKK_A2
  6
ByBlock
100
AcDbLine
 10
17120.039
 20
17975.4363
 30
0.0
 11
17120.039
 21
17925.4363
 31
0.0
  0
LINE
  5
2A5
330
394
100
AcDbEntity
  8
YKK_A2
  6
ByBlock
100
AcDbLine
 10
17195.039
 20
17925.4363
 30
0.0
 11
17195.039
 21
17975.4363
 31
0.0
  0
LINE
  5
2A6
330
394
100
AcDbEntity
  8
YKK_A2
  6
ByBlock
100
AcDbLine
 10
17230.039
 20
17925.4363
 30
0.0
 11
17230.039
 21
17975.4363
 31
0.0
  0
TEXT
  5
2A7
330
394
100
AcDbEntity
  8
YKK_A1
100
AcDbText
 10
17193.039
 20
18070.4363
 30
0.0
 40
60.0
  1
複層ガラス
 41
0.8
 72
     2
 11
17465.039
 21
18070.4363
 31
0.0
100
AcDbText
  0
TEXT
  5
2A8
330
394
100
AcDbEntity
  8
YKK_A1
100
AcDbText
 10
17161.039
 20
18000.4363
 30
0.0
 40
60.0
  1
5+A12+5
 41
0.8
 72
     2
 11
17465.039
 21
18000.4363
 31
0.0
100
AcDbText
  0
LINE
  5
2A9
330
394
100
AcDbEntity
  8
YKK_A1
100
AcDbLine
 10
17495.039
 20
18545.4363
 30
0.0
 11
16855.039
 21
18545.4363
 31
0.0
  0
LINE
  5
2AA
330
394
100
AcDbEntity
  8
YKK_A2
  6
ByBlock
100
AcDbLine
 10
16820.039
 20
18450.4363
 30
0.0
 11
16840.039
 21
18450.4363
 31
0.0
  0
LINE
  5
2AB
330
394
100
AcDbEntity
  8
YKK_A2
  6
ByBlock
100
AcDbLine
 10
16825.039
 20
18485.4363
 30
0.0
 11
16835.039
 21
18485.4363
 31
0.0
  0
LINE
  5
2AC
330
394
100
AcDbEntity
  8
YKK_A2
  6
ByBlock
100
AcDbLine
 10
16825.039
 20
18485.4363
 30
0.0
 11
16825.039
 21
18450.4363
 31
0.0
  0
LINE
  5
2AD
330
394
100
AcDbEntity
  8
YKK_A2
  6
ByBlock
100
AcDbLine
 10
16835.039
 20
18485.4363
 30
0.0
 11
16835.039
 21
18450.4363
 31
0.0
  0
LINE
  5
2AE
330
394
100
AcDbEntity
  8
YKK_A1
100
AcDbLine
 10
17575.039
 20
17825.4363
 30
0.0
 11
17575.039
 21
17925.4363
 31
0.0
  0
LINE
  5
2AF
330
394
100
AcDbEntity
  8
YKK_A1
  6
HIDDEN
100
AcDbLine
 10
17675.039
 20
17930.4363
 30
0.0
 11
17675.039
 21
17525.4363
 31
0.0
  0
LINE
  5
2B0
330
394
100
AcDbEntity
  8
YKK_A1
100
AcDbLine
 10
17590.039
 20
17125.4363
 30
0.0
 11
17590.039
 21
18640.4363
 31
0.0
  0
LINE
  5
2B1
330
394
100
AcDbEntity
  8
YKK_A1
100
AcDbLine
 10
17575.039
 20
17125.4363
 30
0.0
 11
17575.039
 21
17825.4363
 31
0.0
  0
LINE
  5
2B2
330
394
100
AcDbEntity
  8
YKK_A1
100
AcDbLine
 10
17545.039
 20
17125.4363
 30
0.0
 11
17545.039
 21
17825.4363
 31
0.0
  0
LINE
  5
2B3
330
394
100
AcDbEntity
  8
YKK_A2
  6
ByBlock
100
AcDbLine
 10
17625.039
 20
17575.4363
 30
0.0
 11
17625.039
 21
17375.4363
 31
0.0
  0
LINE
  5
2B4
330
394
100
AcDbEntity
  8
YKK_A2
  6
ByBlock
100
AcDbLine
 10
17725.039
 20
17375.4363
 30
0.0
 11
17725.039
 21
17575.4363
 31
0.0
  0
LINE
  5
2B5
330
394
100
AcDbEntity
  8
YKK_A2
  6
ByBlock
100
AcDbLine
 10
17625.039
 20
17375.4363
 30
0.0
 11
17725.039
 21
17375.4363
 31
0.0
  0
CIRCLE
  5
2B6
330
394
100
AcDbEntity
  8
YKK_A2
  6
ByBlock
100
AcDbCircle
 10
17675.039
 20
17525.4363
 30
0.0
 40
20.0
  0
LINE
  5
2B7
330
394
100
AcDbEntity
  8
YKK_A2
  6
ByBlock
100
AcDbLine
 10
17725.039
 20
17575.4363
 30
0.0
 11
17625.039
 21
17575.4363
 31
0.0
  0
LINE
  5
2B8
330
394
100
AcDbEntity
  8
YKK_A1
100
AcDbLine
 10
17575.039
 20
17925.4363
 30
0.0
 11
17575.039
 21
18625.4363
 31
0.0
  0
LINE
  5
2B9
330
394
100
AcDbEntity
  8
YKK_A1
100
AcDbLine
 10
17545.039
 20
17925.4363
 30
0.0
 11
17545.039
 21
18595.4363
 31
0.0
  0
LINE
  5
2BA
330
394
100
AcDbEntity
  8
YKK_A2
  6
ByBlock
100
AcDbLine
 10
17530.039
 20
18450.4363
 30
0.0
 11
17530.039
 21
18100.4363
 31
0.0
  0
LINE
  5
2BB
330
394
100
AcDbEntity
  8
YKK_A2
  6
ByBlock
100
AcDbLine
 10
17515.039
 20
18065.4363
 30
0.0
 11
17525.039
 21
18065.4363
 31
0.0
  0
LINE
  5
2BC
330
394
100
AcDbEntity
  8
YKK_A2
  6
ByBlock
100
AcDbLine
 10
17515.039
 20
18100.4363
 30
0.0
 11
17515.039
 21
18065.4363
 31
0.0
  0
LINE
  5
2BD
330
394
100
AcDbEntity
  8
YKK_A2
  6
ByBlock
100
AcDbLine
 10
17525.039
 20
18100.4363
 30
0.0
 11
17525.039
 21
18065.4363
 31
0.0
  0
ARC
  5
2BE
330
394
100
AcDbEntity
  8
YKK_A1
  6
HIDDEN
100
AcDbCircle
 10
17655.039
 20
17930.4363
 30
0.0
 40
20.0
100
AcDbArc
 50
0.0
 51
90.0
  0
LINE
  5
2BF
330
394
100
AcDbEntity
  8
YKK_A2
  6
ByBlock
100
AcDbLine
 10
17515.039
 20
18485.4363
 30
0.0
 11
17525.039
 21
18485.4363
 31
0.0
  0
LINE
  5
2C0
330
394
100
AcDbEntity
  8
YKK_A2
  6
ByBlock
100
AcDbLine
 10
17515.039
 20
18485.4363
 30
0.0
 11
17515.039
 21
18450.4363
 31
0.0
  0
LINE
  5
2C1
330
394
100
AcDbEntity
  8
YKK_A2
  6
ByBlock
100
AcDbLine
 10
17525.039
 20
18485.4363
 30
0.0
 11
17525.039
 21
18450.4363
 31
0.0
  0
TEXT
  5
2C2
330
394
100
AcDbEntity
  8
0
100
AcDbText
 10
18250.039
 20
19392.9363
 30
0.0
 40
200.0
  1
＊
  7
EXTFONT
100
AcDbText
  0
TEXT
  5
2C3
330
394
100
AcDbEntity
  8
0
100
AcDbText
 10
18550.039
 20
19642.9363
 30
0.0
 40
200.0
  1
＊
  7
EXTFONT
100
AcDbText
  0
TEXT
  5
2C4
330
394
100
AcDbEntity
  8
0
100
AcDbText
 10
19600.039
 20
19392.9363
 30
0.0
 40
200.0
  1
＊
  7
EXTFONT
100
AcDbText
  0
TEXT
  5
2C5
330
394
100
AcDbEntity
  8
0
100
AcDbText
 10
19800.039
 20
19867.9363
 30
0.0
 40
200.0
  1
＊
  7
EXTFONT
100
AcDbText
  0
CIRCLE
  5
2C6
330
394
100
AcDbEntity
  8
YKK_F1
100
AcDbCircle
 10
19900.039
 20
19867.9363
 30
0.0
 40
233.3333333333333
  0
LINE
  5
2C7
330
394
100
AcDbEntity
  8
YKK_F1
  6
Continuous
100
AcDbLine
 10
19666.70566667
 20
19867.9363
 30
0.0
 11
20133.37233333
 21
19867.9363
 31
0.0
  0
TEXT
  5
2C8
330
394
100
AcDbEntity
  8
YKK_F1
100
AcDbText
 10
19740.039
 20
19667.9363
 30
0.0
 40
160.0
  1
ＡＷ
  7
EXTFONT
100
AcDbText
  0
LINE
  5
2C9
330
394
100
AcDbEntity
  8
YKK_F1
  6
Continuous
100
AcDbLine
 10
28990.039
 20
700.94001
 30
0.0
 11
28990.039
 21
20287.219
 31
0.0
  0
LINE
  5
2CA
330
394
100
AcDbEntity
  8
YKK_F1
  6
Continuous
100
AcDbLine
 10
29027.821
 20
662.59406
 30
0.0
 11
29027.821
 21
20325.566
 31
0.0
  0
LINE
  5
2CB
330
394
100
AcDbEntity
  8
YKK_F1
  6
Continuous
100
AcDbLine
 10
29015.417
 20
675.00009
 30
0.0
 11
29015.417
 21
20312.594
 31
0.0
  0
LINE
  5
2CC
330
394
100
AcDbEntity
  8
YKK_F1
  6
Continuous
100
AcDbLine
 10
29002.445
 20
687.97002
 30
0.0
 11
29002.445
 21
20299.624
 31
0.0
  0
LINE
  5
2CD
330
394
100
AcDbEntity
  8
YKK_F1
  6
Continuous
100
AcDbLine
 10
29040.229
 20
650.18799
 30
0.0
 11
29040.229
 21
20337.97
 31
0.0
  0
LINE
  5
2CE
330
394
100
AcDbEntity
  8
YKK_F1
  6
Continuous
100
AcDbLine
 10
29190.79
 20
500.75202
 30
0.0
 11
29190.79
 21
20487.406
 31
0.0
  0
LINE
  5
2CF
330
394
100
AcDbEntity
  8
YKK_F1
  6
Continuous
100
AcDbLine
 10
28800.039
 20
2252.9363
 30
0.0
 11
28800.039
 21
20117.9363
 31
0.0
  0
LINE
  5
2D0
330
394
100
AcDbEntity
  8
YKK_F1
  6
Continuous
100
AcDbLine
 10
24150.039
 20
2252.9363
 30
0.0
 11
24150.039
 21
20117.9363
 31
0.0
  0
LINE
  5
2D1
330
394
100
AcDbEntity
  8
YKK_F1
100
AcDbLine
 10
29700.0
 20
0.0
 30
0.0
 11
29700.0
 21
21000.0
 31
0.0
  0
TEXT
  5
2D2
330
394
100
AcDbEntity
  8
0
100
AcDbText
 10
24250.039
 20
3777.9363
 30
0.0
 40
200.0
  1
＊
  7
EXTFONT
100
AcDbText
  0
LINE
  5
2D3
330
394
100
AcDbEntity
  8
YKK_F1
  6
Continuous
100
AcDbLine
 10
27990.79
 20
1949.4363
 30
0.0
 11
27990.79
 21
650.18799
 31
0.0
  0
LINE
  5
2D4
330
394
100
AcDbEntity
  8
YKK_F1
  6
Continuous
100
AcDbLine
 10
22993.422
 20
1949.4363
 30
0.0
 11
22993.422
 21
650.18799
 31
0.0
  0
TEXT
  5
2D5
330
394
100
AcDbEntity
  8
YKK_F1
100
AcDbText
 10
23900.08866667
 20
975.376
 30
0.0
 40
200.0
  1
建具表－（ＢＲＤＰＰＪ７３）
  7
EXTFONT
 72
     4
 11
25493.422
 21
1075.376
 31
0.0
100
AcDbText
  0
TEXT
  5
2D6
330
394
100
AcDbEntity
  8
YKK_F1
100
AcDbText
 10
23686.75533333
 20
1600.376
 30
0.0
 40
200.0
  1
(仮称)○\U+00D7ビル新築工事
  7
EXTFONT
 72
     4
 11
24993.422
 21
1700.376
 31
0.0
100
AcDbText
  0
TEXT
  5
2D7
330
394
100
AcDbEntity
  8
YKK_F1
100
AcDbText
 10
23043.422
 20
1317.2556
 30
0.0
 40
100.0
  1
図面名
  7
EXTFONT
100
AcDbText
  0
TEXT
  5
2D8
330
394
100
AcDbEntity
  8
YKK_F1
100
AcDbText
 10
23043.422
 20
1816.3159
 30
0.0
 40
100.0
  1
名称
  7
EXTFONT
100
AcDbText
  0
TEXT
  5
2D9
330
394
100
AcDbEntity
  8
0
100
AcDbText
 10
24250.039
 20
3027.9363
 30
0.0
 40
200.0
  1
＊
  7
EXTFONT
100
AcDbText
  0
TEXT
  5
2DA
330
394
100
AcDbEntity
  8
0
100
AcDbText
 10
24250.039
 20
2527.9363
 30
0.0
 40
200.0
  1
＊
  7
EXTFONT
100
AcDbText
  0
TEXT
  5
2DB
330
394
100
AcDbEntity
  8
0
100
AcDbText
 10
24250.039
 20
2277.9363
 30
0.0
 40
200.0
  1
＊
  7
EXTFONT
100
AcDbText
  0
TEXT
  5
2DC
330
394
100
AcDbEntity
  8
0
100
AcDbText
 10
24250.039
 20
2777.9363
 30
0.0
 40
200.0
  1
＊
  7
EXTFONT
100
AcDbText
  0
TEXT
  5
2DD
330
394
100
AcDbEntity
  8
0
100
AcDbText
 10
24250.039
 20
3277.9363
 30
0.0
 40
200.0
  1
＊
  7
EXTFONT
100
AcDbText
  0
TEXT
  5
2DE
330
394
100
AcDbEntity
  8
0
100
AcDbText
 10
24250.039
 20
3527.9363
 30
0.0
 40
200.0
  1
＊
  7
EXTFONT
100
AcDbText
  0
TEXT
  5
2DF
330
394
100
AcDbEntity
  8
YKK_F1
100
AcDbText
 10
28040.79
 20
1816.3159
 30
0.0
 40
100.0
  1
図面No.
  7
EXTFONT
100
AcDbText
  0
LINE
  5
2E0
330
394
100
AcDbEntity
  8
YKK_F1
  6
Continuous
100
AcDbLine
 10
28890.228
 20
1651.1279
 30
0.0
 11
28090.604
 21
1001.504
 31
0.0
  0
TEXT
  5
2E1
330
394
100
AcDbEntity
  8
YKK_F1
100
AcDbText
 10
26990.79
 20
1625.376
 30
0.0
 40
150.0
  1
工事設計図
  7
EXTFONT
100
AcDbText
  0
TEXT
  5
2E2
330
394
100
AcDbEntity
  8
YKK_F1
100
AcDbText
 10
28617.37641269
 20
751.11699243
 30
0.0
 40
100.0
  1
枚の内
  7
EXTFONT
100
AcDbText
  0
TEXT
  5
2E3
330
394
100
AcDbEntity
  8
0
100
AcDbText
 10
24250.039
 20
4277.9363
 30
0.0
 40
200.0
  1
＊
  7
EXTFONT
100
AcDbText
  0
TEXT
  5
2E4
330
394
100
AcDbEntity
  8
0
100
AcDbText
 10
24250.039
 20
4027.9363
 30
0.0
 40
200.0
  1
＊
  7
EXTFONT
100
AcDbText
  0
TEXT
  5
2E5
330
394
100
AcDbEntity
  8
0
100
AcDbText
 10
24250.039
 20
8732.9363
 30
0.0
 40
200.0
  1
＊
  7
EXTFONT
100
AcDbText
  0
LINE
  5
2E6
330
394
100
AcDbEntity
  8
YKK_F1
  6
Continuous
100
AcDbLine
 10
24316.70566667
 20
7957.9363
 30
0.0
 11
24783.37233333
 21
7957.9363
 31
0.0
  0
TEXT
  5
2E7
330
394
100
AcDbEntity
  8
YKK_F1
100
AcDbText
 10
24390.039
 20
7757.9363
 30
0.0
 40
160.0
  1
ＡＷ
  7
EXTFONT
100
AcDbText
  0
CIRCLE
  5
2E8
330
394
100
AcDbEntity
  8
YKK_F1
100
AcDbCircle
 10
24550.039
 20
7957.9363
 30
0.0
 40
233.3333333333333
  0
TEXT
  5
2E9
330
394
100
AcDbEntity
  8
0
100
AcDbText
 10
24450.039
 20
7957.9363
 30
0.0
 40
200.0
  1
＊
  7
EXTFONT
100
AcDbText
  0
TEXT
  5
2EA
330
394
100
AcDbEntity
  8
YKK_F1
100
AcDbText
 10
23620.039
 20
7732.9363
 30
0.0
 40
200.0
  1
箇所
  7
EXTFONT
100
AcDbText
  0
TEXT
  5
2EB
330
394
100
AcDbEntity
  8
0
100
AcDbText
 10
22900.039
 20
7482.9363
 30
0.0
 40
200.0
  1
＊
  7
EXTFONT
100
AcDbText
  0
TEXT
  5
2EC
330
394
100
AcDbEntity
  8
0
100
AcDbText
 10
23200.039
 20
7732.9363
 30
0.0
 40
200.0
  1
＊
  7
EXTFONT
100
AcDbText
  0
TEXT
  5
2ED
330
394
100
AcDbEntity
  8
0
100
AcDbText
 10
24250.039
 20
7482.9363
 30
0.0
 40
200.0
  1
＊
  7
EXTFONT
100
AcDbText
  0
TEXT
  5
2EE
330
394
100
AcDbEntity
  8
0
100
AcDbText
 10
24250.039
 20
8232.9363
 30
0.0
 40
200.0
  1
＊
  7
EXTFONT
100
AcDbText
  0
TEXT
  5
2EF
330
394
100
AcDbEntity
  8
0
100
AcDbText
 10
24250.039
 20
8482.9363
 30
0.0
 40
200.0
  1
＊
  7
EXTFONT
100
AcDbText
  0
TEXT
  5
2F0
330
394
100
AcDbEntity
  8
0
100
AcDbText
 10
24250.039
 20
8982.9363
 30
0.0
 40
200.0
  1
＊
  7
EXTFONT
100
AcDbText
  0
TEXT
  5
2F1
330
394
100
AcDbEntity
  8
0
100
AcDbText
 10
24250.039
 20
9482.9363
 30
0.0
 40
200.0
  1
＊
  7
EXTFONT
100
AcDbText
  0
TEXT
  5
2F2
330
394
100
AcDbEntity
  8
0
100
AcDbText
 10
24250.039
 20
9232.9363
 30
0.0
 40
200.0
  1
＊
  7
EXTFONT
100
AcDbText
  0
TEXT
  5
2F3
330
394
100
AcDbEntity
  8
0
100
AcDbText
 10
24250.039
 20
9982.9363
 30
0.0
 40
200.0
  1
＊
  7
EXTFONT
100
AcDbText
  0
TEXT
  5
2F4
330
394
100
AcDbEntity
  8
0
100
AcDbText
 10
24250.039
 20
9732.9363
 30
0.0
 40
200.0
  1
＊
  7
EXTFONT
100
AcDbText
  0
TEXT
  5
2F5
330
394
100
AcDbEntity
  8
0
100
AcDbText
 10
24250.039
 20
10232.9363
 30
0.0
 40
200.0
  1
＊
  7
EXTFONT
100
AcDbText
  0
TEXT
  5
2F6
330
394
100
AcDbEntity
  8
0
100
AcDbText
 10
27550.039
 20
7482.9363
 30
0.0
 40
200.0
  1
＊
  7
EXTFONT
100
AcDbText
  0
TEXT
  5
2F7
330
394
100
AcDbEntity
  8
0
100
AcDbText
 10
27850.039
 20
7732.9363
 30
0.0
 40
200.0
  1
＊
  7
EXTFONT
100
AcDbText
  0
TEXT
  5
2F8
330
394
100
AcDbEntity
  8
YKK_F1
100
AcDbText
 10
28270.039
 20
7732.9363
 30
0.0
 40
200.0
  1
箇所
  7
EXTFONT
100
AcDbText
  0
TEXT
  5
2F9
330
394
100
AcDbEntity
  8
YKK_F1
100
AcDbText
 10
28270.039
 20
13687.9363
 30
0.0
 40
200.0
  1
箇所
  7
EXTFONT
100
AcDbText
  0
TEXT
  5
2FA
330
394
100
AcDbEntity
  8
YKK_F1
100
AcDbText
 10
24390.039
 20
13712.9363
 30
0.0
 40
160.0
  1
ＡＷ
  7
EXTFONT
100
AcDbText
  0
CIRCLE
  5
2FB
330
394
100
AcDbEntity
  8
YKK_F1
100
AcDbCircle
 10
24550.039
 20
13912.9363
 30
0.0
 40
233.3333333333333
  0
TEXT
  5
2FC
330
394
100
AcDbEntity
  8
0
100
AcDbText
 10
27850.039
 20
13687.9363
 30
0.0
 40
200.0
  1
＊
  7
EXTFONT
100
AcDbText
  0
TEXT
  5
2FD
330
394
100
AcDbEntity
  8
0
100
AcDbText
 10
23200.039
 20
13687.9363
 30
0.0
 40
200.0
  1
＊
  7
EXTFONT
100
AcDbText
  0
TEXT
  5
2FE
330
394
100
AcDbEntity
  8
YKK_F1
100
AcDbText
 10
23620.039
 20
13687.9363
 30
0.0
 40
200.0
  1
箇所
  7
EXTFONT
100
AcDbText
  0
TEXT
  5
2FF
330
394
100
AcDbEntity
  8
0
100
AcDbText
 10
22900.039
 20
13437.9363
 30
0.0
 40
200.0
  1
＊
  7
EXTFONT
100
AcDbText
  0
TEXT
  5
300
330
394
100
AcDbEntity
  8
0
100
AcDbText
 10
24250.039
 20
13437.9363
 30
0.0
 40
200.0
  1
＊
  7
EXTFONT
100
AcDbText
  0
TEXT
  5
301
330
394
100
AcDbEntity
  8
0
100
AcDbText
 10
27550.039
 20
13437.9363
 30
0.0
 40
200.0
  1
＊
  7
EXTFONT
100
AcDbText
  0
LINE
  5
302
330
394
100
AcDbEntity
  8
YKK_F1
  6
Continuous
100
AcDbLine
 10
24316.70566667
 20
13912.9363
 30
0.0
 11
24783.37233333
 21
13912.9363
 31
0.0
  0
TEXT
  5
303
330
394
100
AcDbEntity
  8
0
100
AcDbText
 10
24450.039
 20
13912.9363
 30
0.0
 40
200.0
  1
＊
  7
EXTFONT
100
AcDbText
  0
TEXT
  5
304
330
394
100
AcDbEntity
  8
0
100
AcDbText
 10
24250.039
 20
14437.9363
 30
0.0
 40
200.0
  1
＊
  7
EXTFONT
100
AcDbText
  0
TEXT
  5
305
330
394
100
AcDbEntity
  8
0
100
AcDbText
 10
24250.039
 20
14187.9363
 30
0.0
 40
200.0
  1
＊
  7
EXTFONT
100
AcDbText
  0
TEXT
  5
306
330
394
100
AcDbEntity
  8
0
100
AcDbText
 10
24250.039
 20
14937.9363
 30
0.0
 40
200.0
  1
＊
  7
EXTFONT
100
AcDbText
  0
TEXT
  5
307
330
394
100
AcDbEntity
  8
0
100
AcDbText
 10
24250.039
 20
14687.9363
 30
0.0
 40
200.0
  1
＊
  7
EXTFONT
100
AcDbText
  0
TEXT
  5
308
330
394
100
AcDbEntity
  8
0
100
AcDbText
 10
24250.039
 20
15187.9363
 30
0.0
 40
200.0
  1
＊
  7
EXTFONT
100
AcDbText
  0
TEXT
  5
309
330
394
100
AcDbEntity
  8
0
100
AcDbText
 10
24250.039
 20
16187.9363
 30
0.0
 40
200.0
  1
＊
  7
EXTFONT
100
AcDbText
  0
TEXT
  5
30A
330
394
100
AcDbEntity
  8
0
100
AcDbText
 10
24250.039
 20
15687.9363
 30
0.0
 40
200.0
  1
＊
  7
EXTFONT
100
AcDbText
  0
TEXT
  5
30B
330
394
100
AcDbEntity
  8
0
100
AcDbText
 10
24250.039
 20
15437.9363
 30
0.0
 40
200.0
  1
＊
  7
EXTFONT
100
AcDbText
  0
TEXT
  5
30C
330
394
100
AcDbEntity
  8
0
100
AcDbText
 10
24250.039
 20
15937.9363
 30
0.0
 40
200.0
  1
＊
  7
EXTFONT
100
AcDbText
  0
LINE
  5
30D
330
394
100
AcDbEntity
  8
YKK_F1
  6
Continuous
100
AcDbLine
 10
24316.70566667
 20
19867.9363
 30
0.0
 11
24783.37233333
 21
19867.9363
 31
0.0
  0
TEXT
  5
30E
330
394
100
AcDbEntity
  8
YKK_F1
100
AcDbText
 10
24390.039
 20
19667.9363
 30
0.0
 40
160.0
  1
ＡＷ
  7
EXTFONT
100
AcDbText
  0
CIRCLE
  5
30F
330
394
100
AcDbEntity
  8
YKK_F1
100
AcDbCircle
 10
24550.039
 20
19867.9363
 30
0.0
 40
233.3333333333333
  0
TEXT
  5
310
330
394
100
AcDbEntity
  8
0
100
AcDbText
 10
24250.039
 20
19392.9363
 30
0.0
 40
200.0
  1
＊
  7
EXTFONT
100
AcDbText
  0
TEXT
  5
311
330
394
100
AcDbEntity
  8
0
100
AcDbText
 10
22900.039
 20
19392.9363
 30
0.0
 40
200.0
  1
＊
  7
EXTFONT
100
AcDbText
  0
TEXT
  5
312
330
394
100
AcDbEntity
  8
YKK_F1
100
AcDbText
 10
23620.039
 20
19642.9363
 30
0.0
 40
200.0
  1
箇所
  7
EXTFONT
100
AcDbText
  0
TEXT
  5
313
330
394
100
AcDbEntity
  8
0
100
AcDbText
 10
23200.039
 20
19642.9363
 30
0.0
 40
200.0
  1
＊
  7
EXTFONT
100
AcDbText
  0
TEXT
  5
314
330
394
100
AcDbEntity
  8
0
100
AcDbText
 10
24450.039
 20
19867.9363
 30
0.0
 40
200.0
  1
＊
  7
EXTFONT
100
AcDbText
  0
TEXT
  5
315
330
394
100
AcDbEntity
  8
0
100
AcDbText
 10
27550.039
 20
19392.9363
 30
0.0
 40
200.0
  1
＊
  7
EXTFONT
100
AcDbText
  0
TEXT
  5
316
330
394
100
AcDbEntity
  8
0
100
AcDbText
 10
27850.039
 20
19642.9363
 30
0.0
 40
200.0
  1
＊
  7
EXTFONT
100
AcDbText
  0
TEXT
  5
317
330
394
100
AcDbEntity
  8
YKK_F1
100
AcDbText
 10
28270.039
 20
19642.9363
 30
0.0
 40
200.0
  1
箇所
  7
EXTFONT
100
AcDbText
  0
ENDSEC
  0
SECTION
  2
OBJECTS
  0
DICTIONARY
  5
389
330
0
100
AcDbDictionary
281
     1
  3
ACAD_CIP_PREVIOUS_PRODUCT_INFO
350
45A
  3
ACAD_COLOR
350
3EE
  3
ACAD_DETAILVIEWSTYLE
350
407
  3
ACAD_GROUP
350
38A
  3
ACAD_LAYOUT
350
40D
  3
ACAD_MATERIAL
350
3BC
  3
ACAD_MLEADERSTYLE
350
403
  3
ACAD_MLINESTYLE
350
397
  3
ACAD_PLOTSETTINGS
350
40C
  3
ACAD_PLOTSTYLENAME
350
3BA
  3
ACAD_SCALELIST
350
3F1
  3
ACAD_SECTIONVIEWSTYLE
350
405
  3
ACAD_TABLESTYLE
350
3EF
  3
ACAD_VISUALSTYLE
350
3D5
  3
ACDB_RECOMPOSE_DATA
350
460
  3
ACDBVARIABLEDICTIONARY
350
3A6
  0
XRECORD
  5
45A
102
{ACAD_REACTORS
330
389
102
}
330
389
100
AcDbXrecord
280
     1
300
ACD
300
2014
300
86063ACD_2014_0F
  0
DICTIONARY
  5
3EE
102
{ACAD_REACTORS
330
389
102
}
330
389
100
AcDbDictionary
281
     1
  0
DICTIONARY
  5
407
102
{ACAD_REACTORS
330
389
102
}
330
389
100
AcDbDictionary
281
     1
  3
Imperial24
350
408
  0
DICTIONARY
  5
38A
102
{ACAD_REACTORS
330
389
102
}
330
389
100
AcDbDictionary
281
     1
  0
DICTIONARY
  5
40D
102
{ACAD_REACTORS
330
389
102
}
330
389
100
AcDbDictionary
281
     1
  3
Model
350
40E
  3
レイアウト1
350
40F
  0
DICTIONARY
  5
3BC
102
{ACAD_REACTORS
330
389
102
}
330
389
100
AcDbDictionary
281
     1
  3
ByBlock
350
3C5
  3
ByLayer
350
3BD
  3
Global
350
3CD
  0
DICTIONARY
  5
403
102
{ACAD_REACTORS
330
389
102
}
330
389
100
AcDbDictionary
281
     1
  3
Standard
350
404
  0
DICTIONARY
  5
397
102
{ACAD_REACTORS
330
389
102
}
330
389
100
AcDbDictionary
281
     1
  3
STANDARD
350
398
  0
DICTIONARY
  5
40C
102
{ACAD_REACTORS
330
389
102
}
330
389
100
AcDbDictionary
281
     1
  0
ACDBDICTIONARYWDFLT
  5
3BA
102
{ACAD_REACTORS
330
389
102
}
330
389
100
AcDbDictionary
281
     1
  3
Normal
350
3BB
100
AcDbDictionaryWithDefault
340
3BB
  0
DICTIONARY
  5
3F1
102
{ACAD_REACTORS
330
389
102
}
330
389
100
AcDbDictionary
281
     1
  3
A0
350
3F2
  3
A1
350
3F3
  3
A2
350
3F4
  3
A3
350
3F5
  3
A4
350
3F6
  3
A5
350
3F7
  3
A6
350
3F8
  3
A7
350
3F9
  3
A8
350
3FA
  3
A9
350
3FB
  3
B0
350
3FC
  3
B1
350
3FD
  3
B2
350
3FE
  3
B3
350
3FF
  3
B4
350
400
  3
B5
350
401
  3
B6
350
402
  0
DICTIONARY
  5
405
102
{ACAD_REACTORS
330
389
102
}
330
389
100
AcDbDictionary
281
     1
  3
Imperial24
350
406
  0
DICTIONARY
  5
3EF
102
{ACAD_REACTORS
330
389
102
}
330
389
100
AcDbDictionary
281
     1
  3
Standard
350
3F0
  0
DICTIONARY
  5
3D5
102
{ACAD_REACTORS
330
389
102
}
330
389
100
AcDbDictionary
281
     1
  3
2dWireframe
350
3DB
  3
Basic
350
3DA
  3
Brighten
350
3E1
  3
ColorChange
350
3E5
  3
Conceptual
350
3DE
  3
Dim
350
3E0
  3
EdgeColorOff
350
3ED
  3
Facepattern
350
3E4
  3
Flat
350
3D6
  3
FlatWithEdges
350
3D7
  3
Gouraud
350
3D8
  3
GouraudWithEdges
350
3D9
  3
Hidden
350
3DD
  3
JitterOff
350
3EB
  3
Linepattern
350
3E3
  3
OverhangOff
350
3EC
  3
Realistic
350
3DF
  3
Shaded
350
3EA
  3
Shaded with edges
350
3E9
  3
Shades of Gray
350
3E6
  3
Sketchy
350
3E7
  3
Thicken
350
3E2
  3
Wireframe
350
3DC
  3
X-Ray
350
3E8
  0
XRECORD
  5
460
102
{ACAD_REACTORS
330
389
102
}
330
389
100
AcDbXrecord
280
     1
 90
        1
330
3F0
  0
DICTIONARY
  5
3A6
102
{ACAD_REACTORS
330
389
102
}
330
389
100
AcDbDictionary
281
     1
  3
CANNOSCALE
350
452
  3
CMLEADERSTYLE
350
44F
  3
CTABLESTYLE
350
44E
  3
CVIEWDETAILSTYLE
350
450
  3
CVIEWSECTIONSTYLE
350
451
  3
DIMADEC
350
3A7
  3
XCLIPFRAME
350
45E
  0
ACDBDETAILVIEWSTYLE
  5
408
102
{ACAD_XDICTIONARY
360
499
102
}
102
{ACAD_REACTORS
330
407
102
}
330
407
100
AcDbModelDocViewStyle
 70
     0
  3
Imperial24
290
     0
100
AcDbDetailViewStyle
 70
     0
 71
     0
 90
        3
 71
     1
340
38C
 62
   256
 40
0.24
340
0
 62
   256
 40
0.24
300

 40
0.36
280
     3
 71
     2
340
390
 90
       25
 62
   256
 71
     3
340
38C
 62
   256
 40
0.24
 90
        1
 40
0.75
 90
        1
300
%<\AcVar ViewType \f "%tc1">% %<\AcVar ViewDetailId>%\PSCALE %<\AcVar ViewScale \f "%sn">%
 71
     4
340
390
 90
       25
 62
   256
340
390
 90
       25
 62
   256
280
     0
  0
LAYOUT
  5
40E
102
{ACAD_REACTORS
330
40D
102
}
330
40D
100
AcDbPlotSettings
  1

  2
C:\ACAD-I\support\plotters\Default Windows System Printer.pc3
  4
A4
  6

 40
3.17499995
 41
3.17499995
 42
3.17500305
 43
3.17498779
 44
209.88865662
 45
297.05300903
 46
0.0
 47
0.0
 48
0.0
 49
0.0
140
0.0
141
0.0
142
1.0
143
3470.27944137
 70
 11952
 72
     0
 73
     1
 74
     0
  7
monochrome.ctb
 75
     0
147
0.00028816
 76
     0
 77
     2
 78
   300
148
96686.95237313
149
3061.12127014
100
AcDbLayout
  1
Model
 70
     1
 71
     0
 10
0.0
 20
0.0
 11
12.0
 21
9.0
 12
0.0
 22
0.0
 32
0.0
 14
0.0
 24
0.0
 34
0.0
 15
0.0
 25
0.0
 35
0.0
146
0.0
 13
0.0
 23
0.0
 33
0.0
 16
1.0
 26
0.0
 36
0.0
 17
0.0
 27
1.0
 37
0.0
 76
     0
330
394
1001
ACAD_PSEXT
1000
C:\ACAD-I\support\plotters\Default Windows System Printer.pc3
1000
Fiery PRO80 65-55C-KM PS3.0jp
1000
IP_10.230.204.212
1000

1070
     0
  0
LAYOUT
  5
40F
102
{ACAD_REACTORS
330
40D
102
}
330
40D
100
AcDbPlotSettings
  1

  2
C:\ACAD-I\support\plotters\Default Windows System Printer.pc3
  4
A4
  6

 40
3.17499995
 41
3.17499995
 42
3.17500305
 43
3.17498779
 44
209.88865662
 45
297.05300903
 46
0.0
 47
0.0
 48
0.0
 49
0.0
140
0.0
141
0.0
142
1.0
143
1.0
 70
 15024
 72
     0
 73
     1
 74
     5
  7
monochrome.ctb
 75
    16
147
1.0
 76
     0
 77
     2
 78
   300
148
0.0
149
0.0
100
AcDbLayout
  1
レイアウト1
 70
     1
 71
     1
 10
0.0
 20
0.0
 11
420.0
 21
297.0
 12
0.0
 22
0.0
 32
0.0
 14
1.00000000E+20
 24
1.00000000E+20
 34
1.00000000E+20
 15
-1.00000000E+20
 25
-1.00000000E+20
 35
-1.00000000E+20
146
0.0
 13
0.0
 23
0.0
 33
0.0
 16
1.0
 26
0.0
 36
0.0
 17
0.0
 27
1.0
 37
0.0
 76
     0
330
391
1001
ACAD_PSEXT
1000
C:\ACAD-I\support\plotters\Default Windows System Printer.pc3
1000
Fiery PRO80 65-55C-KM PS3.0jp
1000
IP_10.230.204.212
1000

1070
     0
  0
MATERIAL
  5
3C5
102
{ACAD_XDICTIONARY
360
3C6
102
}
102
{ACAD_REACTORS
330
3BC
102
}
330
3BC
100
AcDbMaterial
  1
ByBlock
 72
     0
 43
0.02083333
 43
0.0
 43
0.0
 43
0.0
 43
0.0
 43
0.02083333
 43
0.0
 43
0.0
 43
0.0
 43
0.0
 43
1.0
 43
0.0
 43
0.0
 43
0.0
 43
0.0
 43
1.0
 77
     0
 47
0.02083333
 47
0.0
 47
0.0
 47
0.0
 47
0.0
 47
0.02083333
 47
0.0
 47
0.0
 47
0.0
 47
0.0
 47
1.0
 47
0.0
 47
0.0
 47
0.0
 47
0.0
 47
1.0
171
     0
 49
0.02083333
 49
0.0
 49
0.0
 49
0.0
 49
0.0
 49
0.02083333
 49
0.0
 49
0.0
 49
0.0
 49
0.0
 49
1.0
 49
0.0
 49
0.0
 49
0.0
 49
0.0
 49
1.0
175
     0
142
0.02083333
142
0.0
142
0.0
142
0.0
142
0.0
142
0.02083333
142
0.0
142
0.0
142
0.0
142
0.0
142
1.0
142
0.0
142
0.0
142
0.0
142
0.0
142
1.0
179
     0
144
0.02083333
144
0.0
144
0.0
144
0.0
144
0.0
144
0.02083333
144
0.0
144
0.0
144
0.0
144
0.0
144
1.0
144
0.0
144
0.0
144
0.0
144
0.0
144
1.0
147
0.02083333
147
0.0
147
0.0
147
0.0
147
0.0
147
0.02083333
147
0.0
147
0.0
147
0.0
147
0.0
147
1.0
147
0.0
147
0.0
147
0.0
147
0.0
147
1.0
  0
MATERIAL
  5
3BD
102
{ACAD_XDICTIONARY
360
3BE
102
}
102
{ACAD_REACTORS
330
3BC
102
}
330
3BC
100
AcDbMaterial
  1
ByLayer
 72
     0
 43
0.02083333
 43
0.0
 43
0.0
 43
0.0
 43
0.0
 43
0.02083333
 43
0.0
 43
0.0
 43
0.0
 43
0.0
 43
1.0
 43
0.0
 43
0.0
 43
0.0
 43
0.0
 43
1.0
 77
     0
 47
0.02083333
 47
0.0
 47
0.0
 47
0.0
 47
0.0
 47
0.02083333
 47
0.0
 47
0.0
 47
0.0
 47
0.0
 47
1.0
 47
0.0
 47
0.0
 47
0.0
 47
0.0
 47
1.0
171
     0
 49
0.02083333
 49
0.0
 49
0.0
 49
0.0
 49
0.0
 49
0.02083333
 49
0.0
 49
0.0
 49
0.0
 49
0.0
 49
1.0
 49
0.0
 49
0.0
 49
0.0
 49
0.0
 49
1.0
175
     0
142
0.02083333
142
0.0
142
0.0
142
0.0
142
0.0
142
0.02083333
142
0.0
142
0.0
142
0.0
142
0.0
142
1.0
142
0.0
142
0.0
142
0.0
142
0.0
142
1.0
179
     0
144
0.02083333
144
0.0
144
0.0
144
0.0
144
0.0
144
0.02083333
144
0.0
144
0.0
144
0.0
144
0.0
144
1.0
144
0.0
144
0.0
144
0.0
144
0.0
144
1.0
147
0.02083333
147
0.0
147
0.0
147
0.0
147
0.0
147
0.02083333
147
0.0
147
0.0
147
0.0
147
0.0
147
1.0
147
0.0
147
0.0
147
0.0
147
0.0
147
1.0
  0
MATERIAL
  5
3CD
102
{ACAD_XDICTIONARY
360
3CE
102
}
102
{ACAD_REACTORS
330
3BC
102
}
330
3BC
100
AcDbMaterial
  1
Global
 72
     0
 43
0.02083333
 43
0.0
 43
0.0
 43
0.0
 43
0.0
 43
0.02083333
 43
0.0
 43
0.0
 43
0.0
 43
0.0
 43
1.0
 43
0.0
 43
0.0
 43
0.0
 43
0.0
 43
1.0
 77
     0
 47
0.02083333
 47
0.0
 47
0.0
 47
0.0
 47
0.0
 47
0.02083333
 47
0.0
 47
0.0
 47
0.0
 47
0.0
 47
1.0
 47
0.0
 47
0.0
 47
0.0
 47
0.0
 47
1.0
171
     0
 49
0.02083333
 49
0.0
 49
0.0
 49
0.0
 49
0.0
 49
0.02083333
 49
0.0
 49
0.0
 49
0.0
 49
0.0
 49
1.0
 49
0.0
 49
0.0
 49
0.0
 49
0.0
 49
1.0
175
     0
142
0.02083333
142
0.0
142
0.0
142
0.0
142
0.0
142
0.02083333
142
0.0
142
0.0
142
0.0
142
0.0
142
1.0
142
0.0
142
0.0
142
0.0
142
0.0
142
1.0
179
     0
144
0.02083333
144
0.0
144
0.0
144
0.0
144
0.0
144
0.02083333
144
0.0
144
0.0
144
0.0
144
0.0
144
1.0
144
0.0
144
0.0
144
0.0
144
0.0
144
1.0
147
0.02083333
147
0.0
147
0.0
147
0.0
147
0.0
147
0.02083333
147
0.0
147
0.0
147
0.0
147
0.0
147
1.0
147
0.0
147
0.0
147
0.0
147
0.0
147
1.0
  0
MLEADERSTYLE
  5
404
102
{ACAD_XDICTIONARY
360
495
102
}
102
{ACAD_REACTORS
330
403
102
}
330
403
100
AcDbMLeaderStyle
170
     2
171
     1
172
     0
 90
        2
 40
0.0
 41
0.0
173
     1
 91
-1056964608
340
38E
 92
       -2
290
     1
 42
0.09
291
     1
 43
0.36
  3
Standard
 44
0.18
300

342
38C
174
     1
178
     6
175
     1
176
     0
 93
-1056964608
 45
0.18
292
     0
297
     0
 46
0.18
 94
-1056964608
 47
1.0
 49
1.0
140
1.0
293
     1
141
0.0
294
     1
177
     0
142
1.0
295
     0
296
     0
143
0.125
1001
ACAD_MLEADERVER
1070
     2
  0
MLINESTYLE
  5
398
102
{ACAD_REACTORS
330
397
102
}
330
397
100
AcDbMlineStyle
  2
STANDARD
 70
     0
  3

 62
   256
 51
90.0
 52
90.0
 71
     2
 49
0.5
 62
   256
  6
BYLAYER
 49
-0.5
 62
   256
  6
BYLAYER
  0
ACDBPLACEHOLDER
  5
3BB
102
{ACAD_REACTORS
330
3BA
102
}
330
3BA
  0
SCALE
  5
3F2
102
{ACAD_REACTORS
330
3F1
102
}
330
3F1
100
AcDbScale
 70
     0
300
1:1
140
1.0
141
1.0
290
     1
  0
SCALE
  5
3F3
102
{ACAD_REACTORS
330
3F1
102
}
330
3F1
100
AcDbScale
 70
     0
300
1/128" = 1'-0"
140
0.0078125
141
12.0
290
     0
  0
SCALE
  5
3F4
102
{ACAD_REACTORS
330
3F1
102
}
330
3F1
100
AcDbScale
 70
     0
300
1/64" = 1'-0"
140
0.015625
141
12.0
290
     0
  0
SCALE
  5
3F5
102
{ACAD_REACTORS
330
3F1
102
}
330
3F1
100
AcDbScale
 70
     0
300
1/32" = 1'-0"
140
0.03125
141
12.0
290
     0
  0
SCALE
  5
3F6
102
{ACAD_REACTORS
330
3F1
102
}
330
3F1
100
AcDbScale
 70
     0
300
1/16" = 1'-0"
140
0.0625
141
12.0
290
     0
  0
SCALE
  5
3F7
102
{ACAD_REACTORS
330
3F1
102
}
330
3F1
100
AcDbScale
 70
     0
300
3/32" = 1'-0"
140
0.09375
141
12.0
290
     0
  0
SCALE
  5
3F8
102
{ACAD_REACTORS
330
3F1
102
}
330
3F1
100
AcDbScale
 70
     0
300
1/8" = 1'-0"
140
0.125
141
12.0
290
     0
  0
SCALE
  5
3F9
102
{ACAD_REACTORS
330
3F1
102
}
330
3F1
100
AcDbScale
 70
     0
300
3/16" = 1'-0"
140
0.1875
141
12.0
290
     0
  0
SCALE
  5
3FA
102
{ACAD_REACTORS
330
3F1
102
}
330
3F1
100
AcDbScale
 70
     0
300
1/4" = 1'-0"
140
0.25
141
12.0
290
     0
  0
SCALE
  5
3FB
102
{ACAD_REACTORS
330
3F1
102
}
330
3F1
100
AcDbScale
 70
     0
300
3/8" = 1'-0"
140
0.375
141
12.0
290
     0
  0
SCALE
  5
3FC
102
{ACAD_REACTORS
330
3F1
102
}
330
3F1
100
AcDbScale
 70
     0
300
1/2" = 1'-0"
140
0.5
141
12.0
290
     0
  0
SCALE
  5
3FD
102
{ACAD_REACTORS
330
3F1
102
}
330
3F1
100
AcDbScale
 70
     0
300
3/4" = 1'-0"
140
0.75
141
12.0
290
     0
  0
SCALE
  5
3FE
102
{ACAD_REACTORS
330
3F1
102
}
330
3F1
100
AcDbScale
 70
     0
300
1" = 1'-0"
140
1.0
141
12.0
290
     0
  0
SCALE
  5
3FF
102
{ACAD_REACTORS
330
3F1
102
}
330
3F1
100
AcDbScale
 70
     0
300
1-1/2" = 1'-0"
140
1.5
141
12.0
290
     0
  0
SCALE
  5
400
102
{ACAD_REACTORS
330
3F1
102
}
330
3F1
100
AcDbScale
 70
     0
300
3" = 1'-0"
140
3.0
141
12.0
290
     0
  0
SCALE
  5
401
102
{ACAD_REACTORS
330
3F1
102
}
330
3F1
100
AcDbScale
 70
     0
300
6" = 1'-0"
140
6.0
141
12.0
290
     0
  0
SCALE
  5
402
102
{ACAD_REACTORS
330
3F1
102
}
330
3F1
100
AcDbScale
 70
     0
300
1'-0" = 1'-0"
140
12.0
141
12.0
290
     0
  0
ACDBSECTIONVIEWSTYLE
  5
406
102
{ACAD_XDICTIONARY
360
497
102
}
102
{ACAD_REACTORS
330
405
102
}
330
405
100
AcDbModelDocViewStyle
 70
     0
  3
Imperial24
290
     0
100
AcDbSectionViewStyle
 70
     0
 71
     0
 90
      102
 71
     1
340
38C
 62
   256
 40
5.0
340
0
340
0
 62
   256
 40
5.0
300
I, O, Q, S, X, Z
 40
10.0
 90
        0
 40
2.5
 90
        0
 71
     2
340
390
 90
       25
 62
   256
340
390
 90
       50
 62
   256
 40
5.0
 40
2.5
 40
5.0
 71
     3
340
38C
 62
   256
 40
5.0
 90
        0
 40
15.0
 90
        1
300
%<\AcVar ViewSectionStartId>%-%<\AcVar ViewSectionEndId>% (%<\AcVar ViewScale \f "%sn">%)
 71
     4
 62
   256
 62
   257
300
ANSI31
 40
1.0
 90
        0
290
     0
290
     0
 90
        6
 40
0.0
 40
1.57079633
 40
0.26179939
 40
1.30899694
 40
-0.26179939
 40
1.83259571
  0
TABLESTYLE
  5
3F0
102
{ACAD_XDICTIONARY
360
410
102
}
102
{ACAD_REACTORS
330
3EF
102
}
330
3EF
100
AcDbTableStyle
  3
Standard
 70
     0
 71
     0
 40
0.06
 41
0.06
280
     0
281
     0
  7
STANDARD
140
0.18
170
     2
 62
     0
 63
     7
283
     0
274
    -2
284
     1
 64
     0
275
    -2
285
     1
 65
     0
276
    -2
286
     1
 66
     0
277
    -2
287
     1
 67
     0
278
    -2
288
     1
 68
     0
279
    -2
289
     1
 69
     0
  7
STANDARD
140
0.25
170
     5
 62
     0
 63
     7
283
     0
274
    -2
284
     1
 64
     0
275
    -2
285
     1
 65
     0
276
    -2
286
     1
 66
     0
277
    -2
287
     1
 67
     0
278
    -2
288
     1
 68
     0
279
    -2
289
     1
 69
     0
  7
STANDARD
140
0.18
170
     5
 62
     0
 63
     7
283
     0
274
    -2
284
     1
 64
     0
275
    -2
285
     1
 65
     0
276
    -2
286
     1
 66
     0
277
    -2
287
     1
 67
     0
278
    -2
288
     1
 68
     0
279
    -2
289
     1
 69
     0
  0
VISUALSTYLE
  5
3DB
102
{ACAD_XDICTIONARY
360
46E
102
}
102
{ACAD_REACTORS
330
3D5
102
}
330
3D5
100
AcDbVisualStyle
  2
2dWireframe
 70
     4
 71
     0
 72
     2
 73
     0
 90
        0
 40
-0.6
 41
-30.0
 62
     5
 63
     7
421
 16777215
 74
     1
 91
        4
 64
     7
 65
   257
 75
     1
175
     1
 42
1.0
 92
        0
 66
   257
 43
1.0
 76
     1
 77
     6
 78
     2
 67
     7
 79
     5
170
     0
171
     0
290
     0
174
     0
 93
        1
 44
0.0
173
     0
291
     0
 45
0.0
1001
ACAD
1000
AcDbSavedByObjectVersion
1070
     0
  0
VISUALSTYLE
  5
3DA
102
{ACAD_XDICTIONARY
360
46C
102
}
102
{ACAD_REACTORS
330
3D5
102
}
330
3D5
100
AcDbVisualStyle
  2
Basic
 70
     7
 71
     1
 72
     0
 73
     1
 90
        0
 40
-0.6
 41
-30.0
 62
     5
 63
     7
421
 16777215
 74
     0
 91
        4
 64
     7
 65
   257
 75
     1
175
     1
 42
1.0
 92
        8
 66
     7
 43
1.0
 76
     1
 77
     6
 78
     2
 67
     7
 79
     5
170
     0
171
     0
290
     0
174
     0
 93
        1
 44
0.0
173
     0
291
     1
 45
0.0
1001
ACAD
1000
AcDbSavedByObjectVersion
1070
     0
  0
VISUALSTYLE
  5
3E1
102
{ACAD_XDICTIONARY
360
47A
102
}
102
{ACAD_REACTORS
330
3D5
102
}
330
3D5
100
AcDbVisualStyle
  2
Brighten
 70
    12
 71
     2
 72
     2
 73
     0
 90
        0
 40
-0.6
 41
-30.0
 62
     5
 63
     7
421
 16777215
 74
     1
 91
        4
 64
     7
 65
   257
 75
     1
175
     1
 42
1.0
 92
        8
 66
     7
 43
1.0
 76
     1
 77
     6
 78
     2
 67
     7
 79
     5
170
     0
171
     0
290
     0
174
     0
 93
        1
 44
50.0
173
     0
291
     1
 45
0.0
1001
ACAD
1000
AcDbSavedByObjectVersion
1070
     0
  0
VISUALSTYLE
  5
3E5
102
{ACAD_XDICTIONARY
360
482
102
}
102
{ACAD_REACTORS
330
3D5
102
}
330
3D5
100
AcDbVisualStyle
  2
ColorChange
 70
    16
 71
     2
 72
     2
 73
     3
 90
        0
 40
-0.6
 41
-30.0
 62
     5
 63
     8
421
  8421504
 74
     1
 91
        4
 64
     7
 65
   257
 75
     1
175
     1
 42
1.0
 92
        8
 66
     8
424
  8421504
 43
1.0
 76
     1
 77
     6
 78
     2
 67
     7
 79
     5
170
     0
171
     0
290
     0
174
     0
 93
        1
 44
0.0
173
     0
291
     1
 45
0.0
1001
ACAD
1000
AcDbSavedByObjectVersion
1070
     0
  0
VISUALSTYLE
  5
3DE
102
{ACAD_XDICTIONARY
360
474
102
}
102
{ACAD_REACTORS
330
3D5
102
}
330
3D5
100
AcDbVisualStyle
  2
Conceptual
 70
     9
 71
     3
 72
     2
 73
     0
 90
        0
 40
-0.6
 41
-30.0
 62
     5
 63
     7
421
 16777215
 74
     2
 91
        2
 64
     7
 65
   257
 75
     1
175
     1
 42
179.0
 92
        8
 66
     7
 43
1.0
 76
     1
 77
     6
 78
     2
 67
     7
 79
     3
170
     0
171
     0
290
     0
174
     0
 93
        1
 44
0.0
173
     0
291
     0
 45
0.0
1001
ACAD
1000
AcDbSavedByObjectVersion
1070
     0
  0
VISUALSTYLE
  5
3E0
102
{ACAD_XDICTIONARY
360
478
102
}
102
{ACAD_REACTORS
330
3D5
102
}
330
3D5
100
AcDbVisualStyle
  2
Dim
 70
    11
 71
     2
 72
     2
 73
     0
 90
        0
 40
-0.6
 41
-30.0
 62
     5
 63
     7
421
 16777215
 74
     1
 91
        4
 64
     7
 65
   257
 75
     1
175
     1
 42
1.0
 92
        8
 66
     7
 43
1.0
 76
     1
 77
     6
 78
     2
 67
     7
 79
     5
170
     0
171
     0
290
     0
174
     0
 93
        1
 44
-50.0
173
     0
291
     1
 45
0.0
1001
ACAD
1000
AcDbSavedByObjectVersion
1070
     0
  0
VISUALSTYLE
  5
3ED
102
{ACAD_XDICTIONARY
360
492
102
}
102
{ACAD_REACTORS
330
3D5
102
}
330
3D5
100
AcDbVisualStyle
  2
EdgeColorOff
 70
    22
 71
     2
 72
     2
 73
     0
 90
        0
 40
-0.6
 41
-30.0
 62
     5
 63
     7
421
 16777215
 74
     1
 91
        4
 64
     7
 65
   257
 75
     1
175
     1
 42
1.0
 92
        8
 66
     7
 43
1.0
 76
     1
 77
     6
 78
     2
 67
     7
 79
     5
170
     0
171
     0
290
     0
174
     0
 93
        1
 44
0.0
173
     0
291
     1
 45
0.0
1001
ACAD
1000
AcDbSavedByObjectVersion
1070
     0
  0
VISUALSTYLE
  5
3E4
102
{ACAD_XDICTIONARY
360
480
102
}
102
{ACAD_REACTORS
330
3D5
102
}
330
3D5
100
AcDbVisualStyle
  2
Facepattern
 70
    15
 71
     2
 72
     2
 73
     0
 90
        0
 40
-0.6
 41
-30.0
 62
     5
 63
     7
421
 16777215
 74
     1
 91
        4
 64
     7
 65
   257
 75
     1
175
     1
 42
1.0
 92
        8
 66
     7
 43
1.0
 76
     1
 77
     6
 78
     2
 67
     7
 79
     5
170
     0
171
     0
290
     0
174
     0
 93
        1
 44
0.0
173
     0
291
     1
 45
0.0
1001
ACAD
1000
AcDbSavedByObjectVersion
1070
     0
  0
VISUALSTYLE
  5
3D6
102
{ACAD_XDICTIONARY
360
464
102
}
102
{ACAD_REACTORS
330
3D5
102
}
330
3D5
100
AcDbVisualStyle
  2
Flat
 70
     0
 71
     2
 72
     1
 73
     1
 90
        2
 40
-0.6
 41
30.0
 62
     5
 63
     7
421
 16777215
 74
     0
 91
        0
 64
     7
 65
   257
 75
     1
175
     1
 42
1.0
 92
        8
 66
     7
 43
1.0
 76
     1
 77
     6
 78
     2
 67
     7
 79
     5
170
     0
171
     0
290
     0
174
     0
 93
       13
 44
0.0
173
     0
291
     1
 45
0.0
1001
ACAD
1000
AcDbSavedByObjectVersion
1070
     0
  0
VISUALSTYLE
  5
3D7
102
{ACAD_XDICTIONARY
360
466
102
}
102
{ACAD_REACTORS
330
3D5
102
}
330
3D5
100
AcDbVisualStyle
  2
FlatWithEdges
 70
     1
 71
     2
 72
     1
 73
     1
 90
        2
 40
-0.6
 41
30.0
 62
     5
 63
     7
421
 16777215
 74
     1
 91
        0
 64
     7
 65
   257
 75
     1
175
     1
 42
1.0
 92
        0
 66
   257
 43
1.0
 76
     1
 77
     6
 78
     2
 67
     7
 79
     5
170
     0
171
     0
290
     0
174
     0
 93
       13
 44
0.0
173
     0
291
     1
 45
0.0
1001
ACAD
1000
AcDbSavedByObjectVersion
1070
     0
  0
VISUALSTYLE
  5
3D8
102
{ACAD_XDICTIONARY
360
468
102
}
102
{ACAD_REACTORS
330
3D5
102
}
330
3D5
100
AcDbVisualStyle
  2
Gouraud
 70
     2
 71
     2
 72
     2
 73
     1
 90
        2
 40
-0.6
 41
30.0
 62
     5
 63
     7
421
 16777215
 74
     0
 91
        0
 64
     7
 65
   257
 75
     1
175
     1
 42
1.0
 92
        0
 66
     7
 43
1.0
 76
     1
 77
     6
 78
     2
 67
     7
 79
     5
170
     0
171
     0
290
     0
174
     0
 93
       13
 44
0.0
173
     0
291
     1
 45
0.0
1001
ACAD
1000
AcDbSavedByObjectVersion
1070
     0
  0
VISUALSTYLE
  5
3D9
102
{ACAD_XDICTIONARY
360
46A
102
}
102
{ACAD_REACTORS
330
3D5
102
}
330
3D5
100
AcDbVisualStyle
  2
GouraudWithEdges
 70
     3
 71
     2
 72
     2
 73
     1
 90
        2
 40
-0.6
 41
30.0
 62
     5
 63
     7
421
 16777215
 74
     1
 91
        0
 64
     7
 65
   257
 75
     1
175
     1
 42
1.0
 92
        0
 66
   257
 43
1.0
 76
     1
 77
     6
 78
     2
 67
     7
 79
     5
170
     0
171
     0
290
     0
174
     0
 93
       13
 44
0.0
173
     0
291
     1
 45
0.0
1001
ACAD
1000
AcDbSavedByObjectVersion
1070
     0
  0
VISUALSTYLE
  5
3DD
102
{ACAD_XDICTIONARY
360
472
102
}
102
{ACAD_REACTORS
330
3D5
102
}
330
3D5
100
AcDbVisualStyle
  2
Hidden
 70
     6
 71
     1
 72
     2
 73
     2
 90
        0
 40
-0.6
 41
-30.0
 62
     5
 63
     7
421
 16777215
 74
     2
 91
        2
 64
     7
 65
   257
 75
     2
175
     1
 42
40.0
 92
        0
 66
   257
 43
1.0
 76
     1
 77
     6
 78
     2
 67
     7
 79
     3
170
     0
171
     0
290
     0
174
     0
 93
        1
 44
0.0
173
     0
291
     0
 45
0.0
1001
ACAD
1000
AcDbSavedByObjectVersion
1070
     0
  0
VISUALSTYLE
  5
3EB
102
{ACAD_XDICTIONARY
360
48E
102
}
102
{ACAD_REACTORS
330
3D5
102
}
330
3D5
100
AcDbVisualStyle
  2
JitterOff
 70
    20
 71
     2
 72
     2
 73
     0
 90
        0
 40
-0.6
 41
-30.0
 62
     5
 63
     7
421
 16777215
 74
     1
 91
        4
 64
     7
 65
   257
 75
     1
175
     1
 42
1.0
 92
       10
 66
     7
 43
1.0
 76
     1
 77
     6
 78
     2
 67
     7
 79
     5
170
     0
171
     0
290
     0
174
     0
 93
        1
 44
0.0
173
     0
291
     1
 45
0.0
1001
ACAD
1000
AcDbSavedByObjectVersion
1070
     0
  0
VISUALSTYLE
  5
3E3
102
{ACAD_XDICTIONARY
360
47E
102
}
102
{ACAD_REACTORS
330
3D5
102
}
330
3D5
100
AcDbVisualStyle
  2
Linepattern
 70
    14
 71
     2
 72
     2
 73
     0
 90
        0
 40
-0.6
 41
-30.0
 62
     5
 63
     7
421
 16777215
 74
     1
 91
        4
 64
     7
 65
   257
 75
     7
175
     7
 42
1.0
 92
        8
 66
     7
 43
1.0
 76
     1
 77
     6
 78
     2
 67
     7
 79
     5
170
     0
171
     0
290
     0
174
     0
 93
        1
 44
0.0
173
     0
291
     1
 45
0.0
1001
ACAD
1000
AcDbSavedByObjectVersion
1070
     0
  0
VISUALSTYLE
  5
3EC
102
{ACAD_XDICTIONARY
360
490
102
}
102
{ACAD_REACTORS
330
3D5
102
}
330
3D5
100
AcDbVisualStyle
  2
OverhangOff
 70
    21
 71
     2
 72
     2
 73
     0
 90
        0
 40
-0.6
 41
-30.0
 62
     5
 63
     7
421
 16777215
 74
     1
 91
        4
 64
     7
 65
   257
 75
     1
175
     1
 42
1.0
 92
        9
 66
     7
 43
1.0
 76
     1
 77
     6
 78
     2
 67
     7
 79
     5
170
     0
171
     0
290
     0
174
     0
 93
        1
 44
0.0
173
     0
291
     1
 45
0.0
1001
ACAD
1000
AcDbSavedByObjectVersion
1070
     0
  0
VISUALSTYLE
  5
3DF
102
{ACAD_XDICTIONARY
360
476
102
}
102
{ACAD_REACTORS
330
3D5
102
}
330
3D5
100
AcDbVisualStyle
  2
Realistic
 70
     8
 71
     2
 72
     2
 73
     0
 90
        2
 40
-0.6
 41
30.0
 62
     5
 63
     7
421
 16777215
 74
     0
 91
        0
 64
     7
 65
   257
 75
     1
175
     1
 42
1.0
 92
        8
 66
   257
 43
1.0
 76
     1
 77
     6
 78
     2
 67
     7
 79
     3
170
     0
171
     0
290
     0
174
     0
 93
       13
 44
0.0
173
     0
291
     0
 45
0.0
1001
ACAD
1000
AcDbSavedByObjectVersion
1070
     0
  0
VISUALSTYLE
  5
3EA
102
{ACAD_XDICTIONARY
360
48C
102
}
102
{ACAD_REACTORS
330
3D5
102
}
330
3D5
100
AcDbVisualStyle
  2
Shaded
 70
    27
 71
     2
 72
     2
 73
     1
 90
        2
 40
-0.6
 41
30.0
 62
     5
 63
     7
421
 16777215
 74
     0
 91
        4
 64
     7
 65
   257
 75
     1
175
     1
 42
1.0
 92
        8
 66
   257
 43
1.0
 76
     1
 77
     6
 78
     2
 67
     8
425
  7895160
 79
     3
170
     0
171
     0
290
     0
174
     0
 93
        5
 44
0.0
173
     0
291
     0
 45
0.0
1001
ACAD
1000
AcDbSavedByObjectVersion
1070
     0
  0
VISUALSTYLE
  5
3E9
102
{ACAD_XDICTIONARY
360
48A
102
}
102
{ACAD_REACTORS
330
3D5
102
}
330
3D5
100
AcDbVisualStyle
  2
Shaded with edges
 70
    26
 71
     2
 72
     2
 73
     1
 90
        2
 40
-0.6
 41
30.0
 62
     5
 63
     7
421
 16777215
 74
     1
 91
       10
 64
     7
 65
   257
 75
     2
175
     1
 42
1.0
 92
        8
 66
   257
 43
1.0
 76
     1
 77
     6
 78
     2
 67
     7
 79
     3
170
     0
171
     0
290
     0
174
     0
 93
        5
 44
0.0
173
     0
291
     0
 45
0.0
1001
ACAD
1000
AcDbSavedByObjectVersion
1070
     0
  0
VISUALSTYLE
  5
3E6
102
{ACAD_XDICTIONARY
360
484
102
}
102
{ACAD_REACTORS
330
3D5
102
}
330
3D5
100
AcDbVisualStyle
  2
Shades of Gray
 70
    23
 71
     2
 72
     2
 73
     3
 90
        0
 40
-0.6
 41
-30.0
 62
     5
 63
     7
421
 16777215
 74
     2
 91
        2
 64
     7
 65
     7
 75
     1
175
     1
 42
40.0
 92
        8
 66
     7
 43
1.0
 76
     1
 77
     6
 78
     2
 67
     7
 79
     3
170
     0
171
     0
290
     0
174
     0
 93
        1
 44
0.0
173
     0
291
     0
 45
0.0
1001
ACAD
1000
AcDbSavedByObjectVersion
1070
     0
  0
VISUALSTYLE
  5
3E7
102
{ACAD_XDICTIONARY
360
486
102
}
102
{ACAD_REACTORS
330
3D5
102
}
330
3D5
100
AcDbVisualStyle
  2
Sketchy
 70
    24
 71
     1
 72
     2
 73
     2
 90
        0
 40
-0.6
 41
-30.0
 62
     5
 63
     7
421
 16777215
 74
     2
 91
        2
 64
     7
 65
     7
 75
     1
175
     1
 42
40.0
 92
       11
 66
     7
 43
1.0
 76
     1
 77
     6
 78
     2
 67
     7
 79
     6
170
     0
171
     0
290
     0
174
     0
 93
        1
 44
0.0
173
     0
291
     0
 45
0.0
1001
ACAD
1000
AcDbSavedByObjectVersion
1070
     0
  0
VISUALSTYLE
  5
3E2
102
{ACAD_XDICTIONARY
360
47C
102
}
102
{ACAD_REACTORS
330
3D5
102
}
330
3D5
100
AcDbVisualStyle
  2
Thicken
 70
    13
 71
     2
 72
     2
 73
     0
 90
        0
 40
-0.6
 41
-30.0
 62
     5
 63
     7
421
 16777215
 74
     1
 91
        4
 64
     7
 65
   257
 75
     1
175
     1
 42
1.0
 92
       12
 66
     7
 43
1.0
 76
     1
 77
     6
 78
     2
 67
     7
 79
     5
170
     0
171
     0
290
     0
174
     0
 93
        1
 44
0.0
173
     0
291
     1
 45
0.0
1001
ACAD
1000
AcDbSavedByObjectVersion
1070
     0
  0
VISUALSTYLE
  5
3DC
102
{ACAD_XDICTIONARY
360
470
102
}
102
{ACAD_REACTORS
330
3D5
102
}
330
3D5
100
AcDbVisualStyle
  2
Wireframe
 70
     5
 71
     0
 72
     2
 73
     0
 90
        0
 40
-0.6
 41
-30.0
 62
     5
 63
     7
421
 16777215
 74
     1
 91
        4
 64
     7
 65
   257
 75
     1
175
     1
 42
1.0
 92
        0
 66
   257
 43
1.0
 76
     1
 77
     6
 78
     2
 67
     7
 79
     3
170
     0
171
     0
290
     0
174
     0
 93
        1
 44
0.0
173
     0
291
     0
 45
0.0
1001
ACAD
1000
AcDbSavedByObjectVersion
1070
     0
  0
VISUALSTYLE
  5
3E8
102
{ACAD_XDICTIONARY
360
488
102
}
102
{ACAD_REACTORS
330
3D5
102
}
330
3D5
100
AcDbVisualStyle
  2
X-Ray
 70
    25
 71
     2
 72
     2
 73
     1
 90
        1
 40
0.5
 41
-30.0
 62
     5
 63
     7
421
 16777215
 74
     1
 91
        0
 64
     7
 65
   257
 75
     1
175
     1
 42
1.0
 92
        8
 66
     7
 43
1.0
 76
     1
 77
     6
 78
     2
 67
     7
 79
     3
170
     0
171
     0
290
     0
174
     0
 93
       13
 44
0.0
173
     0
291
     0
 45
0.0
1001
ACAD
1000
AcDbSavedByObjectVersion
1070
     0
  0
DICTIONARYVAR
  5
452
102
{ACAD_REACTORS
330
3A6
102
}
330
3A6
100
DictionaryVariables
280
     0
  1
1:1
  0
DICTIONARYVAR
  5
44F
102
{ACAD_REACTORS
330
3A6
102
}
330
3A6
100
DictionaryVariables
280
     0
  1
STANDARD
  0
DICTIONARYVAR
  5
44E
102
{ACAD_REACTORS
330
3A6
102
}
330
3A6
100
DictionaryVariables
280
     0
  1
STANDARD
  0
DICTIONARYVAR
  5
450
102
{ACAD_REACTORS
330
3A6
102
}
330
3A6
100
DictionaryVariables
280
     0
  1
Imperial24
  0
DICTIONARYVAR
  5
451
102
{ACAD_REACTORS
330
3A6
102
}
330
3A6
100
DictionaryVariables
280
     0
  1
Imperial24
  0
DICTIONARYVAR
  5
3A7
102
{ACAD_REACTORS
330
3A6
102
}
330
3A6
100
DictionaryVariables
280
     0
  1
0
  0
DICTIONARYVAR
  5
45E
102
{ACAD_REACTORS
330
3A6
102
}
330
3A6
100
DictionaryVariables
280
     0
  1
2
  0
DICTIONARY
  5
499
330
408
100
AcDbDictionary
280
     1
281
     1
  3
ACAD_XREC_ROUNDTRIP
360
49A
  0
DICTIONARY
  5
3C6
330
3C5
100
AcDbDictionary
280
     1
281
     1
  3
ACAD_XREC_ROUNDTRIP
360
462
  3
BUMPTILE
360
3C8
  3
DIFFUSETILE
360
3C7
  3
OPACITYTILE
360
3CB
  3
REFLECTIONTILE
360
3CA
  3
REFRACTIONTILE
360
3CC
  3
SPECULARTILE
360
3C9
  0
DICTIONARY
  5
3BE
330
3BD
100
AcDbDictionary
280
     1
281
     1
  3
ACAD_XREC_ROUNDTRIP
360
461
  3
BUMPTILE
360
3C0
  3
DIFFUSETILE
360
3BF
  3
OPACITYTILE
360
3C3
  3
REFLECTIONTILE
360
3C2
  3
REFRACTIONTILE
360
3C4
  3
SPECULARTILE
360
3C1
  0
DICTIONARY
  5
3CE
330
3CD
100
AcDbDictionary
280
     1
281
     1
  3
ACAD_XREC_ROUNDTRIP
360
463
  3
BUMPTILE
360
3D0
  3
DIFFUSETILE
360
3CF
  3
OPACITYTILE
360
3D3
  3
REFLECTIONTILE
360
3D2
  3
REFRACTIONTILE
360
3D4
  3
SPECULARTILE
360
3D1
  0
DICTIONARY
  5
495
330
404
100
AcDbDictionary
280
     1
281
     1
  3
ACAD_XREC_ROUNDTRIP
360
496
  0
DICTIONARY
  5
497
330
406
100
AcDbDictionary
280
     1
281
     1
  3
ACAD_XREC_ROUNDTRIP
360
498
  0
DICTIONARY
  5
410
330
3F0
100
AcDbDictionary
280
     1
281
     1
  3
ACAD_ROUNDTRIP_2008_TABLESTYLE_CELLSTYLEMAP
360
45F
  3
ACAD_XREC_ROUNDTRIP
360
494
  0
DICTIONARY
  5
46E
330
3DB
100
AcDbDictionary
280
     1
281
     1
  3
ACAD_XREC_ROUNDTRIP
360
46F
  0
DICTIONARY
  5
46C
330
3DA
100
AcDbDictionary
280
     1
281
     1
  3
ACAD_XREC_ROUNDTRIP
360
46D
  0
DICTIONARY
  5
47A
330
3E1
100
AcDbDictionary
280
     1
281
     1
  3
ACAD_XREC_ROUNDTRIP
360
47B
  0
DICTIONARY
  5
482
330
3E5
100
AcDbDictionary
280
     1
281
     1
  3
ACAD_XREC_ROUNDTRIP
360
483
  0
DICTIONARY
  5
474
330
3DE
100
AcDbDictionary
280
     1
281
     1
  3
ACAD_XREC_ROUNDTRIP
360
475
  0
DICTIONARY
  5
478
330
3E0
100
AcDbDictionary
280
     1
281
     1
  3
ACAD_XREC_ROUNDTRIP
360
479
  0
DICTIONARY
  5
492
330
3ED
100
AcDbDictionary
280
     1
281
     1
  3
ACAD_XREC_ROUNDTRIP
360
493
  0
DICTIONARY
  5
480
330
3E4
100
AcDbDictionary
280
     1
281
     1
  3
ACAD_XREC_ROUNDTRIP
360
481
  0
DICTIONARY
  5
464
330
3D6
100
AcDbDictionary
280
     1
281
     1
  3
ACAD_XREC_ROUNDTRIP
360
465
  0
DICTIONARY
  5
466
330
3D7
100
AcDbDictionary
280
     1
281
     1
  3
ACAD_XREC_ROUNDTRIP
360
467
  0
DICTIONARY
  5
468
330
3D8
100
AcDbDictionary
280
     1
281
     1
  3
ACAD_XREC_ROUNDTRIP
360
469
  0
DICTIONARY
  5
46A
330
3D9
100
AcDbDictionary
280
     1
281
     1
  3
ACAD_XREC_ROUNDTRIP
360
46B
  0
DICTIONARY
  5
472
330
3DD
100
AcDbDictionary
280
     1
281
     1
  3
ACAD_XREC_ROUNDTRIP
360
473
  0
DICTIONARY
  5
48E
330
3EB
100
AcDbDictionary
280
     1
281
     1
  3
ACAD_XREC_ROUNDTRIP
360
48F
  0
DICTIONARY
  5
47E
330
3E3
100
AcDbDictionary
280
     1
281
     1
  3
ACAD_XREC_ROUNDTRIP
360
47F
  0
DICTIONARY
  5
490
330
3EC
100
AcDbDictionary
280
     1
281
     1
  3
ACAD_XREC_ROUNDTRIP
360
491
  0
DICTIONARY
  5
476
330
3DF
100
AcDbDictionary
280
     1
281
     1
  3
ACAD_XREC_ROUNDTRIP
360
477
  0
DICTIONARY
  5
48C
330
3EA
100
AcDbDictionary
280
     1
281
     1
  3
ACAD_XREC_ROUNDTRIP
360
48D
  0
DICTIONARY
  5
48A
330
3E9
100
AcDbDictionary
280
     1
281
     1
  3
ACAD_XREC_ROUNDTRIP
360
48B
  0
DICTIONARY
  5
484
330
3E6
100
AcDbDictionary
280
     1
281
     1
  3
ACAD_XREC_ROUNDTRIP
360
485
  0
DICTIONARY
  5
486
330
3E7
100
AcDbDictionary
280
     1
281
     1
  3
ACAD_XREC_ROUNDTRIP
360
487
  0
DICTIONARY
  5
47C
330
3E2
100
AcDbDictionary
280
     1
281
     1
  3
ACAD_XREC_ROUNDTRIP
360
47D
  0
DICTIONARY
  5
470
330
3DC
100
AcDbDictionary
280
     1
281
     1
  3
ACAD_XREC_ROUNDTRIP
360
471
  0
DICTIONARY
  5
488
330
3E8
100
AcDbDictionary
280
     1
281
     1
  3
ACAD_XREC_ROUNDTRIP
360
489
  0
XRECORD
  5
49A
102
{ACAD_REACTORS
330
499
102
}
330
499
100
AcDbXrecord
280
     1
102
DISPLAYNAME
  1
Imperial24
102
FLAGS
 90
        0
  0
XRECORD
  5
462
102
{ACAD_REACTORS
330
3C6
102
}
330
3C6
100
AcDbXrecord
280
     1
102
MATERIAL
148
0.0
149
0.0
149
0.0
 93
        0
 94
      127
282
     0
 72
     0
 77
     0
171
     0
175
     0
179
     0
273
     0
  0
XRECORD
  5
3C8
102
{ACAD_REACTORS
330
3C6
102
}
330
3C6
100
AcDbXrecord
280
     1
270
     1
271
     1
  0
XRECORD
  5
3C7
102
{ACAD_REACTORS
330
3C6
102
}
330
3C6
100
AcDbXrecord
280
     1
270
     1
271
     1
  0
XRECORD
  5
3CB
102
{ACAD_REACTORS
330
3C6
102
}
330
3C6
100
AcDbXrecord
280
     1
270
     1
271
     1
  0
XRECORD
  5
3CA
102
{ACAD_REACTORS
330
3C6
102
}
330
3C6
100
AcDbXrecord
280
     1
270
     1
271
     1
  0
XRECORD
  5
3CC
102
{ACAD_REACTORS
330
3C6
102
}
330
3C6
100
AcDbXrecord
280
     1
270
     1
271
     1
  0
XRECORD
  5
3C9
102
{ACAD_REACTORS
330
3C6
102
}
330
3C6
100
AcDbXrecord
280
     1
270
     1
271
     1
  0
XRECORD
  5
461
102
{ACAD_REACTORS
330
3BE
102
}
330
3BE
100
AcDbXrecord
280
     1
102
MATERIAL
148
0.0
149
0.0
149
0.0
 93
        0
 94
      127
282
     0
 72
     0
 77
     0
171
     0
175
     0
179
     0
273
     0
  0
XRECORD
  5
3C0
102
{ACAD_REACTORS
330
3BE
102
}
330
3BE
100
AcDbXrecord
280
     1
270
     1
271
     1
  0
XRECORD
  5
3BF
102
{ACAD_REACTORS
330
3BE
102
}
330
3BE
100
AcDbXrecord
280
     1
270
     1
271
     1
  0
XRECORD
  5
3C3
102
{ACAD_REACTORS
330
3BE
102
}
330
3BE
100
AcDbXrecord
280
     1
270
     1
271
     1
  0
XRECORD
  5
3C2
102
{ACAD_REACTORS
330
3BE
102
}
330
3BE
100
AcDbXrecord
280
     1
270
     1
271
     1
  0
XRECORD
  5
3C4
102
{ACAD_REACTORS
330
3BE
102
}
330
3BE
100
AcDbXrecord
280
     1
270
     1
271
     1
  0
XRECORD
  5
3C1
102
{ACAD_REACTORS
330
3BE
102
}
330
3BE
100
AcDbXrecord
280
     1
270
     1
271
     1
  0
XRECORD
  5
463
102
{ACAD_REACTORS
330
3CE
102
}
330
3CE
100
AcDbXrecord
280
     1
102
MATERIAL
148
0.0
149
0.0
149
0.0
 93
        0
 94
      127
282
     0
 72
     0
 77
     0
171
     0
175
     0
179
     0
273
     0
  0
XRECORD
  5
3D0
102
{ACAD_REACTORS
330
3CE
102
}
330
3CE
100
AcDbXrecord
280
     1
270
     1
271
     1
  0
XRECORD
  5
3CF
102
{ACAD_REACTORS
330
3CE
102
}
330
3CE
100
AcDbXrecord
280
     1
270
     1
271
     1
  0
XRECORD
  5
3D3
102
{ACAD_REACTORS
330
3CE
102
}
330
3CE
100
AcDbXrecord
280
     1
270
     1
271
     1
  0
XRECORD
  5
3D2
102
{ACAD_REACTORS
330
3CE
102
}
330
3CE
100
AcDbXrecord
280
     1
270
     1
271
     1
  0
XRECORD
  5
3D4
102
{ACAD_REACTORS
330
3CE
102
}
330
3CE
100
AcDbXrecord
280
     1
270
     1
271
     1
  0
XRECORD
  5
3D1
102
{ACAD_REACTORS
330
3CE
102
}
330
3CE
100
AcDbXrecord
280
     1
270
     1
271
     1
  0
XRECORD
  5
496
102
{ACAD_REACTORS
330
495
102
}
330
495
100
AcDbXrecord
280
     1
102
ACAD_ROUNDTRIP_2012_MLEADER_STYLE
298
     1
  0
XRECORD
  5
498
102
{ACAD_REACTORS
330
497
102
}
330
497
100
AcDbXrecord
280
     1
102
DISPLAYNAME
  1
Imperial24
102
FLAGS
 90
        0
  0
CELLSTYLEMAP
  5
45F
102
{ACAD_REACTORS
330
410
102
}
330
410
100
AcDbCellStyleMap
 90
        3
300
CELLSTYLE
  1
TABLEFORMAT_BEGIN
 90
        5
170
     1
 91
        0
 92
    32768
 62
   257
 93
        1
300
CONTENTFORMAT
  1
CONTENTFORMAT_BEGIN
 90
        0
 91
        0
 92
      512
 93
        0
300

 40
0.0
140
1.0
 94
        5
 62
     0
340
38C
144
0.25
309
CONTENTFORMAT_END
171
     0
 94
        0
309
TABLEFORMAT_END
  1
CELLSTYLE_BEGIN
 90
        1
 91
        1
300
_TITLE
309
CELLSTYLE_END
300
CELLSTYLE
  1
TABLEFORMAT_BEGIN
 90
        5
170
     1
 91
        0
 92
        0
 62
   257
 93
        1
300
CONTENTFORMAT
  1
CONTENTFORMAT_BEGIN
 90
        0
 91
        0
 92
      512
 93
        0
300

 40
0.0
140
1.0
 94
        5
 62
     0
340
38C
144
0.18
309
CONTENTFORMAT_END
171
     0
 94
        0
309
TABLEFORMAT_END
  1
CELLSTYLE_BEGIN
 90
        2
 91
        1
300
_HEADER
309
CELLSTYLE_END
300
CELLSTYLE
  1
TABLEFORMAT_BEGIN
 90
        5
170
     1
 91
        0
 92
        0
 62
   257
 93
        1
300
CONTENTFORMAT
  1
CONTENTFORMAT_BEGIN
 90
        0
 91
        0
 92
      512
 93
        0
300

 40
0.0
140
1.0
 94
        2
 62
     0
340
38C
144
0.18
309
CONTENTFORMAT_END
171
     0
 94
        0
309
TABLEFORMAT_END
  1
CELLSTYLE_BEGIN
 90
        3
 91
        2
300
_DATA
309
CELLSTYLE_END
  0
XRECORD
  5
494
102
{ACAD_REACTORS
330
410
102
}
330
410
100
AcDbXrecord
280
     1
102
ACAD_ROUNDTRIP_PRE2007_TABLESTYLE
 90
      512
 91
        0
  1

 92
      512
 93
        0
  2

 94
      512
 95
        0
  3

  0
XRECORD
  5
46F
102
{ACAD_REACTORS
330
46E
102
}
330
46E
100
AcDbXrecord
280
     1
102
RTVSPost2010Prop28
280
     1
102
RTVSPost2010PropOp28
 70
     1
102
RTVSPost2010Prop29
280
     1
102
RTVSPost2010PropOp29
 70
     1
102
RTVSPost2010Prop30
280
     0
102
RTVSPost2010PropOp30
 70
     1
102
RTVSPost2010Prop31
280
     0
102
RTVSPost2010PropOp31
 70
     1
102
RTVSPost2010Prop32
280
     0
102
RTVSPost2010PropOp32
 70
     1
102
RTVSPost2010Prop33
280
     0
102
RTVSPost2010PropOp33
 70
     1
102
RTVSPost2010Prop34
280
     0
102
RTVSPost2010PropOp34
 70
     1
102
RTVSPost2010Prop35
280
     0
102
RTVSPost2010PropOp35
 70
     1
102
RTVSPost2010Prop36
280
     0
102
RTVSPost2010PropOp36
 70
     1
102
RTVSPost2010Prop37
 90
       50
102
RTVSPost2010PropOp37
 70
     1
102
RTVSPost2010Prop38
140
0.0
102
RTVSPost2010PropOp38
 70
     1
102
RTVSPost2010Prop39
140
1.0
102
RTVSPost2010PropOp39
 70
     1
102
RTVSPost2010Prop40
 90
        0
102
RTVSPost2010PropOp40
 70
     1
102
RTVSPost2010Prop41ColorIndex
 90
       18
102
RTVSPost2010Prop41ColorRGB
 90
        0
102
RTVSPost2010PropOp41
 70
     1
102
RTVSPost2010Prop42
 90
       50
102
RTVSPost2010PropOp42
 70
     1
102
RTVSPost2010Prop43
 90
        3
102
RTVSPost2010PropOp43
 70
     1
102
RTVSPost2010Prop44ColorIndex
 90
        5
102
RTVSPost2010Prop44ColorRGB
 90
      255
102
RTVSPost2010PropOp44
 70
     1
102
RTVSPost2010Prop45
280
     0
102
RTVSPost2010PropOp45
 70
     1
102
RTVSPost2010Prop46
 90
       50
102
RTVSPost2010PropOp46
 70
     1
102
RTVSPost2010Prop47
 90
       50
102
RTVSPost2010PropOp47
 70
     1
102
RTVSPost2010Prop48
 90
       50
102
RTVSPost2010PropOp48
 70
     1
102
RTVSPost2010Prop49
280
     0
102
RTVSPost2010PropOp49
 70
     1
102
RTVSPost2010Prop50
 90
       50
102
RTVSPost2010PropOp50
 70
     1
102
RTVSPost2010Prop51ColorIndex
 90
      256
102
RTVSPost2010Prop51ColorRGB
 90
-16777216
102
RTVSPost2010PropOp51
 70
     0
102
RTVSPost2010Prop52
140
1.0
102
RTVSPost2010PropOp52
 70
     0
102
RTVSPost2010Prop53
 90
        2
102
RTVSPost2010PropOp53
 70
     1
102
RTVSPost2010Prop54
  1
strokes_ogs.tif
102
RTVSPost2010PropOp54
 70
     1
102
RTVSPost2010Prop55
280
     0
102
RTVSPost2010PropOp55
 70
     1
102
RTVSPost2010Prop56
140
1.0
102
RTVSPost2010PropOp56
 70
     1
102
RTVSPost2010Prop57
140
1.0
102
RTVSPost2010PropOp57
 70
     1
102
RTVSPropertyOp0
 70
     1
102
RTVSPropertyOp1
 70
     1
102
RTVSPropertyOp2
 70
     1
102
RTVSPropertyOp3
 70
     1
102
RTVSPropertyOp4
 70
     1
102
RTVSPropertyOp5
 70
     1
102
RTVSPropertyOp6
 70
     1
102
RTVSPropertyOp7
 70
     1
102
RTVSPropertyOp8
 70
     1
102
RTVSPropertyOp9
 70
     1
102
RTVSPropertyOp10
 70
     1
102
RTVSPropertyOp11
 70
     1
102
RTVSPropertyOp12
 70
     1
102
RTVSPropertyOp13
 70
     1
102
RTVSPropertyOp14
 70
     1
102
RTVSPropertyOp15
 70
     1
102
RTVSPropertyOp16
 70
     1
102
RTVSPropertyOp17
 70
     1
102
RTVSPropertyOp18
 70
     1
102
RTVSPropertyOp19
 70
     1
102
RTVSPropertyOp20
 70
     1
102
RTVSPropertyOp21
 70
     1
102
RTVSPropertyOp22
 70
     1
102
RTVSPropertyOp23
 70
     1
102
RTVSPropertyOp24
 70
     1
102
RTVSPropertyOp25
 70
     1
102
RTVSPropertyOp26
 70
     1
102
RTVSPropertyOp27
 70
     1
102
RTVSPropertyOp28
 70
     1
102
RTVSPropertyOp29
 70
     1
102
RTVSPropertyOp30
 70
     1
102
RTVSPropertyOp31
 70
     1
102
RTVSPropertyOp32
 70
     1
102
RTVSPropertyOp33
 70
     1
102
RTVSPropertyOp34
 70
     1
102
RTVSPropertyOp35
 70
     1
102
RTVSPropertyOp36
 70
     1
102
RTVSPropertyOp37
 70
     1
102
RTVSPropertyOp38
 70
     1
102
RTVSPropertyOp39
 70
     1
102
RTVSPropertyOp40
 70
     1
102
RTVSPropertyOp41
 70
     1
102
RTVSPropertyOp42
 70
     1
102
RTVSPropertyOp43
 70
     1
102
RTVSPropertyOp44
 70
     1
102
RTVSPropertyOp45
 70
     1
102
RTVSPropertyOp46
 70
     1
102
RTVSPropertyOp47
 70
     1
102
RTVSPropertyOp48
 70
     1
102
RTVSPropertyOp49
 70
     1
102
RTVSPropertyOp50
 70
     1
102
RTVSPropertyOp51
 70
     0
102
RTVSPropertyOp52
 70
     0
102
RTVSPropertyOp53
 70
     1
102
RTVSPropertyOp54
 70
     1
102
RTVSPropertyOp55
 70
     1
102
RTVSPropertyOp56
 70
     1
102
RTVSPropertyOp57
 70
     1
102
RTVSPropertyOp58
 70
     1
102
RTVSPropertyOp59
 70
     1
102
RTVSPropertyOp60
 70
     1
102
RTVSPropertyOp61
 70
     1
102
RTVSPropertyOp62
 70
     1
  0
XRECORD
  5
46D
102
{ACAD_REACTORS
330
46C
102
}
330
46C
100
AcDbXrecord
280
     1
102
RTVSPost2010Prop28
280
     0
102
RTVSPost2010PropOp28
 70
     1
102
RTVSPost2010Prop29
280
     1
102
RTVSPost2010PropOp29
 70
     1
102
RTVSPost2010Prop30
280
     1
102
RTVSPost2010PropOp30
 70
     1
102
RTVSPost2010Prop31
280
     0
102
RTVSPost2010PropOp31
 70
     1
102
RTVSPost2010Prop32
280
     0
102
RTVSPost2010PropOp32
 70
     1
102
RTVSPost2010Prop33
280
     0
102
RTVSPost2010PropOp33
 70
     1
102
RTVSPost2010Prop34
280
     0
102
RTVSPost2010PropOp34
 70
     1
102
RTVSPost2010Prop35
280
     0
102
RTVSPost2010PropOp35
 70
     1
102
RTVSPost2010Prop36
280
     0
102
RTVSPost2010PropOp36
 70
     1
102
RTVSPost2010Prop37
 90
       50
102
RTVSPost2010PropOp37
 70
     1
102
RTVSPost2010Prop38
140
0.0
102
RTVSPost2010PropOp38
 70
     1
102
RTVSPost2010Prop39
140
1.0
102
RTVSPost2010PropOp39
 70
     1
102
RTVSPost2010Prop40
 90
        0
102
RTVSPost2010PropOp40
 70
     1
102
RTVSPost2010Prop41ColorIndex
 90
       18
102
RTVSPost2010Prop41ColorRGB
 90
        0
102
RTVSPost2010PropOp41
 70
     1
102
RTVSPost2010Prop42
 90
       50
102
RTVSPost2010PropOp42
 70
     1
102
RTVSPost2010Prop43
 90
        3
102
RTVSPost2010PropOp43
 70
     1
102
RTVSPost2010Prop44ColorIndex
 90
        5
102
RTVSPost2010Prop44ColorRGB
 90
      255
102
RTVSPost2010PropOp44
 70
     1
102
RTVSPost2010Prop45
280
     0
102
RTVSPost2010PropOp45
 70
     1
102
RTVSPost2010Prop46
 90
       50
102
RTVSPost2010PropOp46
 70
     1
102
RTVSPost2010Prop47
 90
       50
102
RTVSPost2010PropOp47
 70
     1
102
RTVSPost2010Prop48
 90
       50
102
RTVSPost2010PropOp48
 70
     1
102
RTVSPost2010Prop49
280
     0
102
RTVSPost2010PropOp49
 70
     1
102
RTVSPost2010Prop50
 90
       50
102
RTVSPost2010PropOp50
 70
     1
102
RTVSPost2010Prop51ColorIndex
 90
      256
102
RTVSPost2010Prop51ColorRGB
 90
-16777216
102
RTVSPost2010PropOp51
 70
     0
102
RTVSPost2010Prop52
140
1.0
102
RTVSPost2010PropOp52
 70
     0
102
RTVSPost2010Prop53
 90
        2
102
RTVSPost2010PropOp53
 70
     1
102
RTVSPost2010Prop54
  1
strokes_ogs.tif
102
RTVSPost2010PropOp54
 70
     1
102
RTVSPost2010Prop55
280
     0
102
RTVSPost2010PropOp55
 70
     1
102
RTVSPost2010Prop56
140
1.0
102
RTVSPost2010PropOp56
 70
     1
102
RTVSPost2010Prop57
140
1.0
102
RTVSPost2010PropOp57
 70
     1
102
RTVSPropertyOp0
 70
     1
102
RTVSPropertyOp1
 70
     1
102
RTVSPropertyOp2
 70
     1
102
RTVSPropertyOp3
 70
     1
102
RTVSPropertyOp4
 70
     1
102
RTVSPropertyOp5
 70
     1
102
RTVSPropertyOp6
 70
     1
102
RTVSPropertyOp7
 70
     1
102
RTVSPropertyOp8
 70
     1
102
RTVSPropertyOp9
 70
     1
102
RTVSPropertyOp10
 70
     1
102
RTVSPropertyOp11
 70
     1
102
RTVSPropertyOp12
 70
     1
102
RTVSPropertyOp13
 70
     1
102
RTVSPropertyOp14
 70
     1
102
RTVSPropertyOp15
 70
     1
102
RTVSPropertyOp16
 70
     1
102
RTVSPropertyOp17
 70
     1
102
RTVSPropertyOp18
 70
     1
102
RTVSPropertyOp19
 70
     1
102
RTVSPropertyOp20
 70
     1
102
RTVSPropertyOp21
 70
     1
102
RTVSPropertyOp22
 70
     1
102
RTVSPropertyOp23
 70
     1
102
RTVSPropertyOp24
 70
     1
102
RTVSPropertyOp25
 70
     1
102
RTVSPropertyOp26
 70
     1
102
RTVSPropertyOp27
 70
     1
102
RTVSPropertyOp28
 70
     1
102
RTVSPropertyOp29
 70
     1
102
RTVSPropertyOp30
 70
     1
102
RTVSPropertyOp31
 70
     1
102
RTVSPropertyOp32
 70
     1
102
RTVSPropertyOp33
 70
     1
102
RTVSPropertyOp34
 70
     1
102
RTVSPropertyOp35
 70
     1
102
RTVSPropertyOp36
 70
     1
102
RTVSPropertyOp37
 70
     1
102
RTVSPropertyOp38
 70
     1
102
RTVSPropertyOp39
 70
     1
102
RTVSPropertyOp40
 70
     1
102
RTVSPropertyOp41
 70
     1
102
RTVSPropertyOp42
 70
     1
102
RTVSPropertyOp43
 70
     1
102
RTVSPropertyOp44
 70
     1
102
RTVSPropertyOp45
 70
     1
102
RTVSPropertyOp46
 70
     1
102
RTVSPropertyOp47
 70
     1
102
RTVSPropertyOp48
 70
     1
102
RTVSPropertyOp49
 70
     1
102
RTVSPropertyOp50
 70
     1
102
RTVSPropertyOp51
 70
     0
102
RTVSPropertyOp52
 70
     0
102
RTVSPropertyOp53
 70
     1
102
RTVSPropertyOp54
 70
     1
102
RTVSPropertyOp55
 70
     1
102
RTVSPropertyOp56
 70
     1
102
RTVSPropertyOp57
 70
     1
102
RTVSPropertyOp58
 70
     1
102
RTVSPropertyOp59
 70
     1
102
RTVSPropertyOp60
 70
     1
102
RTVSPropertyOp61
 70
     1
102
RTVSPropertyOp62
 70
     1
  0
XRECORD
  5
47B
102
{ACAD_REACTORS
330
47A
102
}
330
47A
100
AcDbXrecord
280
     1
102
RTVSPost2010Prop28
280
     0
102
RTVSPost2010PropOp28
 70
     1
102
RTVSPost2010Prop29
280
     1
102
RTVSPost2010PropOp29
 70
     1
102
RTVSPost2010Prop30
280
     1
102
RTVSPost2010PropOp30
 70
     1
102
RTVSPost2010Prop31
280
     0
102
RTVSPost2010PropOp31
 70
     1
102
RTVSPost2010Prop32
280
     0
102
RTVSPost2010PropOp32
 70
     1
102
RTVSPost2010Prop33
280
     0
102
RTVSPost2010PropOp33
 70
     1
102
RTVSPost2010Prop34
280
     0
102
RTVSPost2010PropOp34
 70
     1
102
RTVSPost2010Prop35
280
     0
102
RTVSPost2010PropOp35
 70
     1
102
RTVSPost2010Prop36
280
     0
102
RTVSPost2010PropOp36
 70
     1
102
RTVSPost2010Prop37
 90
       50
102
RTVSPost2010PropOp37
 70
     1
102
RTVSPost2010Prop38
140
0.0
102
RTVSPost2010PropOp38
 70
     1
102
RTVSPost2010Prop39
140
1.0
102
RTVSPost2010PropOp39
 70
     1
102
RTVSPost2010Prop40
 90
        0
102
RTVSPost2010PropOp40
 70
     1
102
RTVSPost2010Prop41ColorIndex
 90
       18
102
RTVSPost2010Prop41ColorRGB
 90
        0
102
RTVSPost2010PropOp41
 70
     1
102
RTVSPost2010Prop42
 90
       50
102
RTVSPost2010PropOp42
 70
     1
102
RTVSPost2010Prop43
 90
        3
102
RTVSPost2010PropOp43
 70
     1
102
RTVSPost2010Prop44ColorIndex
 90
        5
102
RTVSPost2010Prop44ColorRGB
 90
      255
102
RTVSPost2010PropOp44
 70
     1
102
RTVSPost2010Prop45
280
     0
102
RTVSPost2010PropOp45
 70
     1
102
RTVSPost2010Prop46
 90
       50
102
RTVSPost2010PropOp46
 70
     1
102
RTVSPost2010Prop47
 90
       50
102
RTVSPost2010PropOp47
 70
     1
102
RTVSPost2010Prop48
 90
       50
102
RTVSPost2010PropOp48
 70
     1
102
RTVSPost2010Prop49
280
     0
102
RTVSPost2010PropOp49
 70
     1
102
RTVSPost2010Prop50
 90
       50
102
RTVSPost2010PropOp50
 70
     1
102
RTVSPost2010Prop51ColorIndex
 90
      256
102
RTVSPost2010Prop51ColorRGB
 90
-16777216
102
RTVSPost2010PropOp51
 70
     0
102
RTVSPost2010Prop52
140
1.0
102
RTVSPost2010PropOp52
 70
     0
102
RTVSPost2010Prop53
 90
        2
102
RTVSPost2010PropOp53
 70
     1
102
RTVSPost2010Prop54
  1
strokes_ogs.tif
102
RTVSPost2010PropOp54
 70
     1
102
RTVSPost2010Prop55
280
     0
102
RTVSPost2010PropOp55
 70
     1
102
RTVSPost2010Prop56
140
1.0
102
RTVSPost2010PropOp56
 70
     1
102
RTVSPost2010Prop57
140
1.0
102
RTVSPost2010PropOp57
 70
     1
102
RTVSPropertyOp0
 70
     1
102
RTVSPropertyOp1
 70
     1
102
RTVSPropertyOp2
 70
     1
102
RTVSPropertyOp3
 70
     1
102
RTVSPropertyOp4
 70
     1
102
RTVSPropertyOp5
 70
     1
102
RTVSPropertyOp6
 70
     1
102
RTVSPropertyOp7
 70
     1
102
RTVSPropertyOp8
 70
     1
102
RTVSPropertyOp9
 70
     1
102
RTVSPropertyOp10
 70
     1
102
RTVSPropertyOp11
 70
     1
102
RTVSPropertyOp12
 70
     1
102
RTVSPropertyOp13
 70
     1
102
RTVSPropertyOp14
 70
     1
102
RTVSPropertyOp15
 70
     1
102
RTVSPropertyOp16
 70
     1
102
RTVSPropertyOp17
 70
     1
102
RTVSPropertyOp18
 70
     1
102
RTVSPropertyOp19
 70
     1
102
RTVSPropertyOp20
 70
     1
102
RTVSPropertyOp21
 70
     1
102
RTVSPropertyOp22
 70
     1
102
RTVSPropertyOp23
 70
     1
102
RTVSPropertyOp24
 70
     1
102
RTVSPropertyOp25
 70
     1
102
RTVSPropertyOp26
 70
     1
102
RTVSPropertyOp27
 70
     1
102
RTVSPropertyOp28
 70
     1
102
RTVSPropertyOp29
 70
     1
102
RTVSPropertyOp30
 70
     1
102
RTVSPropertyOp31
 70
     1
102
RTVSPropertyOp32
 70
     1
102
RTVSPropertyOp33
 70
     1
102
RTVSPropertyOp34
 70
     1
102
RTVSPropertyOp35
 70
     1
102
RTVSPropertyOp36
 70
     1
102
RTVSPropertyOp37
 70
     1
102
RTVSPropertyOp38
 70
     1
102
RTVSPropertyOp39
 70
     1
102
RTVSPropertyOp40
 70
     1
102
RTVSPropertyOp41
 70
     1
102
RTVSPropertyOp42
 70
     1
102
RTVSPropertyOp43
 70
     1
102
RTVSPropertyOp44
 70
     1
102
RTVSPropertyOp45
 70
     1
102
RTVSPropertyOp46
 70
     1
102
RTVSPropertyOp47
 70
     1
102
RTVSPropertyOp48
 70
     1
102
RTVSPropertyOp49
 70
     1
102
RTVSPropertyOp50
 70
     1
102
RTVSPropertyOp51
 70
     0
102
RTVSPropertyOp52
 70
     0
102
RTVSPropertyOp53
 70
     1
102
RTVSPropertyOp54
 70
     1
102
RTVSPropertyOp55
 70
     1
102
RTVSPropertyOp56
 70
     1
102
RTVSPropertyOp57
 70
     1
102
RTVSPropertyOp58
 70
     1
102
RTVSPropertyOp59
 70
     1
102
RTVSPropertyOp60
 70
     1
102
RTVSPropertyOp61
 70
     1
102
RTVSPropertyOp62
 70
     1
  0
XRECORD
  5
483
102
{ACAD_REACTORS
330
482
102
}
330
482
100
AcDbXrecord
280
     1
102
RTVSPost2010Prop28
280
     0
102
RTVSPost2010PropOp28
 70
     1
102
RTVSPost2010Prop29
280
     1
102
RTVSPost2010PropOp29
 70
     1
102
RTVSPost2010Prop30
280
     1
102
RTVSPost2010PropOp30
 70
     1
102
RTVSPost2010Prop31
280
     0
102
RTVSPost2010PropOp31
 70
     1
102
RTVSPost2010Prop32
280
     0
102
RTVSPost2010PropOp32
 70
     1
102
RTVSPost2010Prop33
280
     0
102
RTVSPost2010PropOp33
 70
     1
102
RTVSPost2010Prop34
280
     0
102
RTVSPost2010PropOp34
 70
     1
102
RTVSPost2010Prop35
280
     0
102
RTVSPost2010PropOp35
 70
     1
102
RTVSPost2010Prop36
280
     0
102
RTVSPost2010PropOp36
 70
     1
102
RTVSPost2010Prop37
 90
       50
102
RTVSPost2010PropOp37
 70
     1
102
RTVSPost2010Prop38
140
0.0
102
RTVSPost2010PropOp38
 70
     1
102
RTVSPost2010Prop39
140
1.0
102
RTVSPost2010PropOp39
 70
     1
102
RTVSPost2010Prop40
 90
        0
102
RTVSPost2010PropOp40
 70
     1
102
RTVSPost2010Prop41ColorIndex
 90
       18
102
RTVSPost2010Prop41ColorRGB
 90
        0
102
RTVSPost2010PropOp41
 70
     1
102
RTVSPost2010Prop42
 90
       50
102
RTVSPost2010PropOp42
 70
     1
102
RTVSPost2010Prop43
 90
        3
102
RTVSPost2010PropOp43
 70
     1
102
RTVSPost2010Prop44ColorIndex
 90
        5
102
RTVSPost2010Prop44ColorRGB
 90
      255
102
RTVSPost2010PropOp44
 70
     1
102
RTVSPost2010Prop45
280
     0
102
RTVSPost2010PropOp45
 70
     1
102
RTVSPost2010Prop46
 90
       50
102
RTVSPost2010PropOp46
 70
     1
102
RTVSPost2010Prop47
 90
       50
102
RTVSPost2010PropOp47
 70
     1
102
RTVSPost2010Prop48
 90
       50
102
RTVSPost2010PropOp48
 70
     1
102
RTVSPost2010Prop49
280
     0
102
RTVSPost2010PropOp49
 70
     1
102
RTVSPost2010Prop50
 90
       50
102
RTVSPost2010PropOp50
 70
     1
102
RTVSPost2010Prop51ColorIndex
 90
      256
102
RTVSPost2010Prop51ColorRGB
 90
-16777216
102
RTVSPost2010PropOp51
 70
     0
102
RTVSPost2010Prop52
140
1.0
102
RTVSPost2010PropOp52
 70
     0
102
RTVSPost2010Prop53
 90
        2
102
RTVSPost2010PropOp53
 70
     1
102
RTVSPost2010Prop54
  1
strokes_ogs.tif
102
RTVSPost2010PropOp54
 70
     1
102
RTVSPost2010Prop55
280
     0
102
RTVSPost2010PropOp55
 70
     1
102
RTVSPost2010Prop56
140
1.0
102
RTVSPost2010PropOp56
 70
     1
102
RTVSPost2010Prop57
140
1.0
102
RTVSPost2010PropOp57
 70
     1
102
RTVSPropertyOp0
 70
     1
102
RTVSPropertyOp1
 70
     1
102
RTVSPropertyOp2
 70
     1
102
RTVSPropertyOp3
 70
     1
102
RTVSPropertyOp4
 70
     1
102
RTVSPropertyOp5
 70
     1
102
RTVSPropertyOp6
 70
     1
102
RTVSPropertyOp7
 70
     1
102
RTVSPropertyOp8
 70
     1
102
RTVSPropertyOp9
 70
     1
102
RTVSPropertyOp10
 70
     1
102
RTVSPropertyOp11
 70
     1
102
RTVSPropertyOp12
 70
     1
102
RTVSPropertyOp13
 70
     1
102
RTVSPropertyOp14
 70
     1
102
RTVSPropertyOp15
 70
     1
102
RTVSPropertyOp16
 70
     1
102
RTVSPropertyOp17
 70
     1
102
RTVSPropertyOp18
 70
     1
102
RTVSPropertyOp19
 70
     1
102
RTVSPropertyOp20
 70
     1
102
RTVSPropertyOp21
 70
     1
102
RTVSPropertyOp22
 70
     1
102
RTVSPropertyOp23
 70
     1
102
RTVSPropertyOp24
 70
     1
102
RTVSPropertyOp25
 70
     1
102
RTVSPropertyOp26
 70
     1
102
RTVSPropertyOp27
 70
     1
102
RTVSPropertyOp28
 70
     1
102
RTVSPropertyOp29
 70
     1
102
RTVSPropertyOp30
 70
     1
102
RTVSPropertyOp31
 70
     1
102
RTVSPropertyOp32
 70
     1
102
RTVSPropertyOp33
 70
     1
102
RTVSPropertyOp34
 70
     1
102
RTVSPropertyOp35
 70
     1
102
RTVSPropertyOp36
 70
     1
102
RTVSPropertyOp37
 70
     1
102
RTVSPropertyOp38
 70
     1
102
RTVSPropertyOp39
 70
     1
102
RTVSPropertyOp40
 70
     1
102
RTVSPropertyOp41
 70
     1
102
RTVSPropertyOp42
 70
     1
102
RTVSPropertyOp43
 70
     1
102
RTVSPropertyOp44
 70
     1
102
RTVSPropertyOp45
 70
     1
102
RTVSPropertyOp46
 70
     1
102
RTVSPropertyOp47
 70
     1
102
RTVSPropertyOp48
 70
     1
102
RTVSPropertyOp49
 70
     1
102
RTVSPropertyOp50
 70
     1
102
RTVSPropertyOp51
 70
     0
102
RTVSPropertyOp52
 70
     0
102
RTVSPropertyOp53
 70
     1
102
RTVSPropertyOp54
 70
     1
102
RTVSPropertyOp55
 70
     1
102
RTVSPropertyOp56
 70
     1
102
RTVSPropertyOp57
 70
     1
102
RTVSPropertyOp58
 70
     1
102
RTVSPropertyOp59
 70
     1
102
RTVSPropertyOp60
 70
     1
102
RTVSPropertyOp61
 70
     1
102
RTVSPropertyOp62
 70
     1
  0
XRECORD
  5
475
102
{ACAD_REACTORS
330
474
102
}
330
474
100
AcDbXrecord
280
     1
102
RTVSPost2010Prop28
280
     0
102
RTVSPost2010PropOp28
 70
     1
102
RTVSPost2010Prop29
280
     1
102
RTVSPost2010PropOp29
 70
     1
102
RTVSPost2010Prop30
280
     1
102
RTVSPost2010PropOp30
 70
     1
102
RTVSPost2010Prop31
280
     0
102
RTVSPost2010PropOp31
 70
     1
102
RTVSPost2010Prop32
280
     0
102
RTVSPost2010PropOp32
 70
     1
102
RTVSPost2010Prop33
280
     0
102
RTVSPost2010PropOp33
 70
     1
102
RTVSPost2010Prop34
280
     0
102
RTVSPost2010PropOp34
 70
     1
102
RTVSPost2010Prop35
280
     0
102
RTVSPost2010PropOp35
 70
     1
102
RTVSPost2010Prop36
280
     0
102
RTVSPost2010PropOp36
 70
     1
102
RTVSPost2010Prop37
 90
       50
102
RTVSPost2010PropOp37
 70
     1
102
RTVSPost2010Prop38
140
0.0
102
RTVSPost2010PropOp38
 70
     1
102
RTVSPost2010Prop39
140
1.0
102
RTVSPost2010PropOp39
 70
     1
102
RTVSPost2010Prop40
 90
        0
102
RTVSPost2010PropOp40
 70
     1
102
RTVSPost2010Prop41ColorIndex
 90
       18
102
RTVSPost2010Prop41ColorRGB
 90
        0
102
RTVSPost2010PropOp41
 70
     1
102
RTVSPost2010Prop42
 90
       50
102
RTVSPost2010PropOp42
 70
     1
102
RTVSPost2010Prop43
 90
        3
102
RTVSPost2010PropOp43
 70
     1
102
RTVSPost2010Prop44ColorIndex
 90
        5
102
RTVSPost2010Prop44ColorRGB
 90
      255
102
RTVSPost2010PropOp44
 70
     1
102
RTVSPost2010Prop45
280
     0
102
RTVSPost2010PropOp45
 70
     1
102
RTVSPost2010Prop46
 90
       50
102
RTVSPost2010PropOp46
 70
     1
102
RTVSPost2010Prop47
 90
       50
102
RTVSPost2010PropOp47
 70
     1
102
RTVSPost2010Prop48
 90
       50
102
RTVSPost2010PropOp48
 70
     1
102
RTVSPost2010Prop49
280
     0
102
RTVSPost2010PropOp49
 70
     1
102
RTVSPost2010Prop50
 90
       50
102
RTVSPost2010PropOp50
 70
     1
102
RTVSPost2010Prop51ColorIndex
 90
      256
102
RTVSPost2010Prop51ColorRGB
 90
-16777216
102
RTVSPost2010PropOp51
 70
     0
102
RTVSPost2010Prop52
140
1.0
102
RTVSPost2010PropOp52
 70
     0
102
RTVSPost2010Prop53
 90
        2
102
RTVSPost2010PropOp53
 70
     1
102
RTVSPost2010Prop54
  1
strokes_ogs.tif
102
RTVSPost2010PropOp54
 70
     1
102
RTVSPost2010Prop55
280
     0
102
RTVSPost2010PropOp55
 70
     1
102
RTVSPost2010Prop56
140
1.0
102
RTVSPost2010PropOp56
 70
     1
102
RTVSPost2010Prop57
140
1.0
102
RTVSPost2010PropOp57
 70
     1
102
RTVSPropertyOp0
 70
     1
102
RTVSPropertyOp1
 70
     1
102
RTVSPropertyOp2
 70
     1
102
RTVSPropertyOp3
 70
     1
102
RTVSPropertyOp4
 70
     1
102
RTVSPropertyOp5
 70
     1
102
RTVSPropertyOp6
 70
     1
102
RTVSPropertyOp7
 70
     1
102
RTVSPropertyOp8
 70
     1
102
RTVSPropertyOp9
 70
     1
102
RTVSPropertyOp10
 70
     1
102
RTVSPropertyOp11
 70
     1
102
RTVSPropertyOp12
 70
     1
102
RTVSPropertyOp13
 70
     1
102
RTVSPropertyOp14
 70
     1
102
RTVSPropertyOp15
 70
     1
102
RTVSPropertyOp16
 70
     1
102
RTVSPropertyOp17
 70
     1
102
RTVSPropertyOp18
 70
     1
102
RTVSPropertyOp19
 70
     1
102
RTVSPropertyOp20
 70
     1
102
RTVSPropertyOp21
 70
     1
102
RTVSPropertyOp22
 70
     1
102
RTVSPropertyOp23
 70
     1
102
RTVSPropertyOp24
 70
     1
102
RTVSPropertyOp25
 70
     1
102
RTVSPropertyOp26
 70
     1
102
RTVSPropertyOp27
 70
     1
102
RTVSPropertyOp28
 70
     1
102
RTVSPropertyOp29
 70
     1
102
RTVSPropertyOp30
 70
     1
102
RTVSPropertyOp31
 70
     1
102
RTVSPropertyOp32
 70
     1
102
RTVSPropertyOp33
 70
     1
102
RTVSPropertyOp34
 70
     1
102
RTVSPropertyOp35
 70
     1
102
RTVSPropertyOp36
 70
     1
102
RTVSPropertyOp37
 70
     1
102
RTVSPropertyOp38
 70
     1
102
RTVSPropertyOp39
 70
     1
102
RTVSPropertyOp40
 70
     1
102
RTVSPropertyOp41
 70
     1
102
RTVSPropertyOp42
 70
     1
102
RTVSPropertyOp43
 70
     1
102
RTVSPropertyOp44
 70
     1
102
RTVSPropertyOp45
 70
     1
102
RTVSPropertyOp46
 70
     1
102
RTVSPropertyOp47
 70
     1
102
RTVSPropertyOp48
 70
     1
102
RTVSPropertyOp49
 70
     1
102
RTVSPropertyOp50
 70
     1
102
RTVSPropertyOp51
 70
     0
102
RTVSPropertyOp52
 70
     0
102
RTVSPropertyOp53
 70
     1
102
RTVSPropertyOp54
 70
     1
102
RTVSPropertyOp55
 70
     1
102
RTVSPropertyOp56
 70
     1
102
RTVSPropertyOp57
 70
     1
102
RTVSPropertyOp58
 70
     1
102
RTVSPropertyOp59
 70
     1
102
RTVSPropertyOp60
 70
     1
102
RTVSPropertyOp61
 70
     1
102
RTVSPropertyOp62
 70
     1
  0
XRECORD
  5
479
102
{ACAD_REACTORS
330
478
102
}
330
478
100
AcDbXrecord
280
     1
102
RTVSPost2010Prop28
280
     0
102
RTVSPost2010PropOp28
 70
     1
102
RTVSPost2010Prop29
280
     1
102
RTVSPost2010PropOp29
 70
     1
102
RTVSPost2010Prop30
280
     1
102
RTVSPost2010PropOp30
 70
     1
102
RTVSPost2010Prop31
280
     0
102
RTVSPost2010PropOp31
 70
     1
102
RTVSPost2010Prop32
280
     0
102
RTVSPost2010PropOp32
 70
     1
102
RTVSPost2010Prop33
280
     0
102
RTVSPost2010PropOp33
 70
     1
102
RTVSPost2010Prop34
280
     0
102
RTVSPost2010PropOp34
 70
     1
102
RTVSPost2010Prop35
280
     0
102
RTVSPost2010PropOp35
 70
     1
102
RTVSPost2010Prop36
280
     0
102
RTVSPost2010PropOp36
 70
     1
102
RTVSPost2010Prop37
 90
       50
102
RTVSPost2010PropOp37
 70
     1
102
RTVSPost2010Prop38
140
0.0
102
RTVSPost2010PropOp38
 70
     1
102
RTVSPost2010Prop39
140
1.0
102
RTVSPost2010PropOp39
 70
     1
102
RTVSPost2010Prop40
 90
        0
102
RTVSPost2010PropOp40
 70
     1
102
RTVSPost2010Prop41ColorIndex
 90
       18
102
RTVSPost2010Prop41ColorRGB
 90
        0
102
RTVSPost2010PropOp41
 70
     1
102
RTVSPost2010Prop42
 90
       50
102
RTVSPost2010PropOp42
 70
     1
102
RTVSPost2010Prop43
 90
        3
102
RTVSPost2010PropOp43
 70
     1
102
RTVSPost2010Prop44ColorIndex
 90
        5
102
RTVSPost2010Prop44ColorRGB
 90
      255
102
RTVSPost2010PropOp44
 70
     1
102
RTVSPost2010Prop45
280
     0
102
RTVSPost2010PropOp45
 70
     1
102
RTVSPost2010Prop46
 90
       50
102
RTVSPost2010PropOp46
 70
     1
102
RTVSPost2010Prop47
 90
       50
102
RTVSPost2010PropOp47
 70
     1
102
RTVSPost2010Prop48
 90
       50
102
RTVSPost2010PropOp48
 70
     1
102
RTVSPost2010Prop49
280
     0
102
RTVSPost2010PropOp49
 70
     1
102
RTVSPost2010Prop50
 90
       50
102
RTVSPost2010PropOp50
 70
     1
102
RTVSPost2010Prop51ColorIndex
 90
      256
102
RTVSPost2010Prop51ColorRGB
 90
-16777216
102
RTVSPost2010PropOp51
 70
     0
102
RTVSPost2010Prop52
140
1.0
102
RTVSPost2010PropOp52
 70
     0
102
RTVSPost2010Prop53
 90
        2
102
RTVSPost2010PropOp53
 70
     1
102
RTVSPost2010Prop54
  1
strokes_ogs.tif
102
RTVSPost2010PropOp54
 70
     1
102
RTVSPost2010Prop55
280
     0
102
RTVSPost2010PropOp55
 70
     1
102
RTVSPost2010Prop56
140
1.0
102
RTVSPost2010PropOp56
 70
     1
102
RTVSPost2010Prop57
140
1.0
102
RTVSPost2010PropOp57
 70
     1
102
RTVSPropertyOp0
 70
     1
102
RTVSPropertyOp1
 70
     1
102
RTVSPropertyOp2
 70
     1
102
RTVSPropertyOp3
 70
     1
102
RTVSPropertyOp4
 70
     1
102
RTVSPropertyOp5
 70
     1
102
RTVSPropertyOp6
 70
     1
102
RTVSPropertyOp7
 70
     1
102
RTVSPropertyOp8
 70
     1
102
RTVSPropertyOp9
 70
     1
102
RTVSPropertyOp10
 70
     1
102
RTVSPropertyOp11
 70
     1
102
RTVSPropertyOp12
 70
     1
102
RTVSPropertyOp13
 70
     1
102
RTVSPropertyOp14
 70
     1
102
RTVSPropertyOp15
 70
     1
102
RTVSPropertyOp16
 70
     1
102
RTVSPropertyOp17
 70
     1
102
RTVSPropertyOp18
 70
     1
102
RTVSPropertyOp19
 70
     1
102
RTVSPropertyOp20
 70
     1
102
RTVSPropertyOp21
 70
     1
102
RTVSPropertyOp22
 70
     1
102
RTVSPropertyOp23
 70
     1
102
RTVSPropertyOp24
 70
     1
102
RTVSPropertyOp25
 70
     1
102
RTVSPropertyOp26
 70
     1
102
RTVSPropertyOp27
 70
     1
102
RTVSPropertyOp28
 70
     1
102
RTVSPropertyOp29
 70
     1
102
RTVSPropertyOp30
 70
     1
102
RTVSPropertyOp31
 70
     1
102
RTVSPropertyOp32
 70
     1
102
RTVSPropertyOp33
 70
     1
102
RTVSPropertyOp34
 70
     1
102
RTVSPropertyOp35
 70
     1
102
RTVSPropertyOp36
 70
     1
102
RTVSPropertyOp37
 70
     1
102
RTVSPropertyOp38
 70
     1
102
RTVSPropertyOp39
 70
     1
102
RTVSPropertyOp40
 70
     1
102
RTVSPropertyOp41
 70
     1
102
RTVSPropertyOp42
 70
     1
102
RTVSPropertyOp43
 70
     1
102
RTVSPropertyOp44
 70
     1
102
RTVSPropertyOp45
 70
     1
102
RTVSPropertyOp46
 70
     1
102
RTVSPropertyOp47
 70
     1
102
RTVSPropertyOp48
 70
     1
102
RTVSPropertyOp49
 70
     1
102
RTVSPropertyOp50
 70
     1
102
RTVSPropertyOp51
 70
     0
102
RTVSPropertyOp52
 70
     0
102
RTVSPropertyOp53
 70
     1
102
RTVSPropertyOp54
 70
     1
102
RTVSPropertyOp55
 70
     1
102
RTVSPropertyOp56
 70
     1
102
RTVSPropertyOp57
 70
     1
102
RTVSPropertyOp58
 70
     1
102
RTVSPropertyOp59
 70
     1
102
RTVSPropertyOp60
 70
     1
102
RTVSPropertyOp61
 70
     1
102
RTVSPropertyOp62
 70
     1
  0
XRECORD
  5
493
102
{ACAD_REACTORS
330
492
102
}
330
492
100
AcDbXrecord
280
     1
102
RTVSPost2010Prop28
280
     0
102
RTVSPost2010PropOp28
 70
     0
102
RTVSPost2010Prop29
280
     1
102
RTVSPost2010PropOp29
 70
     0
102
RTVSPost2010Prop30
280
     1
102
RTVSPost2010PropOp30
 70
     0
102
RTVSPost2010Prop31
280
     0
102
RTVSPost2010PropOp31
 70
     0
102
RTVSPost2010Prop32
280
     0
102
RTVSPost2010PropOp32
 70
     0
102
RTVSPost2010Prop33
280
     0
102
RTVSPost2010PropOp33
 70
     0
102
RTVSPost2010Prop34
280
     0
102
RTVSPost2010PropOp34
 70
     0
102
RTVSPost2010Prop35
280
     0
102
RTVSPost2010PropOp35
 70
     0
102
RTVSPost2010Prop36
280
     0
102
RTVSPost2010PropOp36
 70
     0
102
RTVSPost2010Prop37
 90
       50
102
RTVSPost2010PropOp37
 70
     0
102
RTVSPost2010Prop38
140
0.0
102
RTVSPost2010PropOp38
 70
     0
102
RTVSPost2010Prop39
140
1.0
102
RTVSPost2010PropOp39
 70
     0
102
RTVSPost2010Prop40
 90
        0
102
RTVSPost2010PropOp40
 70
     0
102
RTVSPost2010Prop41ColorIndex
 90
       18
102
RTVSPost2010Prop41ColorRGB
 90
        0
102
RTVSPost2010PropOp41
 70
     0
102
RTVSPost2010Prop42
 90
       50
102
RTVSPost2010PropOp42
 70
     0
102
RTVSPost2010Prop43
 90
        3
102
RTVSPost2010PropOp43
 70
     0
102
RTVSPost2010Prop44ColorIndex
 90
        5
102
RTVSPost2010Prop44ColorRGB
 90
      255
102
RTVSPost2010PropOp44
 70
     0
102
RTVSPost2010Prop45
280
     0
102
RTVSPost2010PropOp45
 70
     0
102
RTVSPost2010Prop46
 90
       50
102
RTVSPost2010PropOp46
 70
     0
102
RTVSPost2010Prop47
 90
       50
102
RTVSPost2010PropOp47
 70
     0
102
RTVSPost2010Prop48
 90
       50
102
RTVSPost2010PropOp48
 70
     0
102
RTVSPost2010Prop49
280
     0
102
RTVSPost2010PropOp49
 70
     0
102
RTVSPost2010Prop50
 90
       50
102
RTVSPost2010PropOp50
 70
     0
102
RTVSPost2010Prop51ColorIndex
 90
      256
102
RTVSPost2010Prop51ColorRGB
 90
-16777216
102
RTVSPost2010PropOp51
 70
     0
102
RTVSPost2010Prop52
140
1.0
102
RTVSPost2010PropOp52
 70
     0
102
RTVSPost2010Prop53
 90
        2
102
RTVSPost2010PropOp53
 70
     0
102
RTVSPost2010Prop54
  1
strokes_ogs.tif
102
RTVSPost2010PropOp54
 70
     0
102
RTVSPost2010Prop55
280
     0
102
RTVSPost2010PropOp55
 70
     0
102
RTVSPost2010Prop56
140
1.0
102
RTVSPost2010PropOp56
 70
     0
102
RTVSPost2010Prop57
140
1.0
102
RTVSPost2010PropOp57
 70
     0
102
RTVSPropertyOp0
 70
     0
102
RTVSPropertyOp1
 70
     0
102
RTVSPropertyOp2
 70
     0
102
RTVSPropertyOp3
 70
     0
102
RTVSPropertyOp4
 70
     0
102
RTVSPropertyOp5
 70
     0
102
RTVSPropertyOp6
 70
     0
102
RTVSPropertyOp7
 70
     0
102
RTVSPropertyOp8
 70
     0
102
RTVSPropertyOp9
 70
     0
102
RTVSPropertyOp10
 70
     0
102
RTVSPropertyOp11
 70
     0
102
RTVSPropertyOp12
 70
     0
102
RTVSPropertyOp13
 70
     0
102
RTVSPropertyOp14
 70
     2
102
RTVSPropertyOp15
 70
     0
102
RTVSPropertyOp16
 70
     0
102
RTVSPropertyOp17
 70
     0
102
RTVSPropertyOp18
 70
     0
102
RTVSPropertyOp19
 70
     0
102
RTVSPropertyOp20
 70
     0
102
RTVSPropertyOp21
 70
     0
102
RTVSPropertyOp22
 70
     0
102
RTVSPropertyOp23
 70
     0
102
RTVSPropertyOp24
 70
     0
102
RTVSPropertyOp25
 70
     0
102
RTVSPropertyOp26
 70
     0
102
RTVSPropertyOp27
 70
     0
102
RTVSPropertyOp28
 70
     0
102
RTVSPropertyOp29
 70
     0
102
RTVSPropertyOp30
 70
     0
102
RTVSPropertyOp31
 70
     0
102
RTVSPropertyOp32
 70
     0
102
RTVSPropertyOp33
 70
     0
102
RTVSPropertyOp34
 70
     0
102
RTVSPropertyOp35
 70
     0
102
RTVSPropertyOp36
 70
     0
102
RTVSPropertyOp37
 70
     0
102
RTVSPropertyOp38
 70
     0
102
RTVSPropertyOp39
 70
     0
102
RTVSPropertyOp40
 70
     0
102
RTVSPropertyOp41
 70
     0
102
RTVSPropertyOp42
 70
     0
102
RTVSPropertyOp43
 70
     0
102
RTVSPropertyOp44
 70
     0
102
RTVSPropertyOp45
 70
     0
102
RTVSPropertyOp46
 70
     0
102
RTVSPropertyOp47
 70
     0
102
RTVSPropertyOp48
 70
     0
102
RTVSPropertyOp49
 70
     0
102
RTVSPropertyOp50
 70
     0
102
RTVSPropertyOp51
 70
     0
102
RTVSPropertyOp52
 70
     0
102
RTVSPropertyOp53
 70
     0
102
RTVSPropertyOp54
 70
     0
102
RTVSPropertyOp55
 70
     0
102
RTVSPropertyOp56
 70
     0
102
RTVSPropertyOp57
 70
     0
102
RTVSPropertyOp58
 70
     0
102
RTVSPropertyOp59
 70
     0
102
RTVSPropertyOp60
 70
     0
102
RTVSPropertyOp61
 70
     0
102
RTVSPropertyOp62
 70
     0
  0
XRECORD
  5
481
102
{ACAD_REACTORS
330
480
102
}
330
480
100
AcDbXrecord
280
     1
102
RTVSPost2010Prop28
280
     0
102
RTVSPost2010PropOp28
 70
     1
102
RTVSPost2010Prop29
280
     1
102
RTVSPost2010PropOp29
 70
     1
102
RTVSPost2010Prop30
280
     1
102
RTVSPost2010PropOp30
 70
     1
102
RTVSPost2010Prop31
280
     0
102
RTVSPost2010PropOp31
 70
     1
102
RTVSPost2010Prop32
280
     0
102
RTVSPost2010PropOp32
 70
     1
102
RTVSPost2010Prop33
280
     0
102
RTVSPost2010PropOp33
 70
     1
102
RTVSPost2010Prop34
280
     0
102
RTVSPost2010PropOp34
 70
     1
102
RTVSPost2010Prop35
280
     0
102
RTVSPost2010PropOp35
 70
     1
102
RTVSPost2010Prop36
280
     0
102
RTVSPost2010PropOp36
 70
     1
102
RTVSPost2010Prop37
 90
       50
102
RTVSPost2010PropOp37
 70
     1
102
RTVSPost2010Prop38
140
0.0
102
RTVSPost2010PropOp38
 70
     1
102
RTVSPost2010Prop39
140
1.0
102
RTVSPost2010PropOp39
 70
     1
102
RTVSPost2010Prop40
 90
        0
102
RTVSPost2010PropOp40
 70
     1
102
RTVSPost2010Prop41ColorIndex
 90
       18
102
RTVSPost2010Prop41ColorRGB
 90
        0
102
RTVSPost2010PropOp41
 70
     1
102
RTVSPost2010Prop42
 90
       50
102
RTVSPost2010PropOp42
 70
     1
102
RTVSPost2010Prop43
 90
        3
102
RTVSPost2010PropOp43
 70
     1
102
RTVSPost2010Prop44ColorIndex
 90
        5
102
RTVSPost2010Prop44ColorRGB
 90
      255
102
RTVSPost2010PropOp44
 70
     1
102
RTVSPost2010Prop45
280
     0
102
RTVSPost2010PropOp45
 70
     1
102
RTVSPost2010Prop46
 90
       50
102
RTVSPost2010PropOp46
 70
     1
102
RTVSPost2010Prop47
 90
       50
102
RTVSPost2010PropOp47
 70
     1
102
RTVSPost2010Prop48
 90
       50
102
RTVSPost2010PropOp48
 70
     1
102
RTVSPost2010Prop49
280
     0
102
RTVSPost2010PropOp49
 70
     1
102
RTVSPost2010Prop50
 90
       50
102
RTVSPost2010PropOp50
 70
     1
102
RTVSPost2010Prop51ColorIndex
 90
      256
102
RTVSPost2010Prop51ColorRGB
 90
-16777216
102
RTVSPost2010PropOp51
 70
     0
102
RTVSPost2010Prop52
140
1.0
102
RTVSPost2010PropOp52
 70
     0
102
RTVSPost2010Prop53
 90
        2
102
RTVSPost2010PropOp53
 70
     1
102
RTVSPost2010Prop54
  1
strokes_ogs.tif
102
RTVSPost2010PropOp54
 70
     1
102
RTVSPost2010Prop55
280
     0
102
RTVSPost2010PropOp55
 70
     1
102
RTVSPost2010Prop56
140
1.0
102
RTVSPost2010PropOp56
 70
     1
102
RTVSPost2010Prop57
140
1.0
102
RTVSPost2010PropOp57
 70
     1
102
RTVSPropertyOp0
 70
     1
102
RTVSPropertyOp1
 70
     1
102
RTVSPropertyOp2
 70
     1
102
RTVSPropertyOp3
 70
     1
102
RTVSPropertyOp4
 70
     1
102
RTVSPropertyOp5
 70
     1
102
RTVSPropertyOp6
 70
     1
102
RTVSPropertyOp7
 70
     1
102
RTVSPropertyOp8
 70
     1
102
RTVSPropertyOp9
 70
     1
102
RTVSPropertyOp10
 70
     1
102
RTVSPropertyOp11
 70
     1
102
RTVSPropertyOp12
 70
     1
102
RTVSPropertyOp13
 70
     1
102
RTVSPropertyOp14
 70
     1
102
RTVSPropertyOp15
 70
     1
102
RTVSPropertyOp16
 70
     1
102
RTVSPropertyOp17
 70
     1
102
RTVSPropertyOp18
 70
     1
102
RTVSPropertyOp19
 70
     1
102
RTVSPropertyOp20
 70
     1
102
RTVSPropertyOp21
 70
     1
102
RTVSPropertyOp22
 70
     1
102
RTVSPropertyOp23
 70
     1
102
RTVSPropertyOp24
 70
     1
102
RTVSPropertyOp25
 70
     1
102
RTVSPropertyOp26
 70
     1
102
RTVSPropertyOp27
 70
     1
102
RTVSPropertyOp28
 70
     1
102
RTVSPropertyOp29
 70
     1
102
RTVSPropertyOp30
 70
     1
102
RTVSPropertyOp31
 70
     1
102
RTVSPropertyOp32
 70
     1
102
RTVSPropertyOp33
 70
     1
102
RTVSPropertyOp34
 70
     1
102
RTVSPropertyOp35
 70
     1
102
RTVSPropertyOp36
 70
     1
102
RTVSPropertyOp37
 70
     1
102
RTVSPropertyOp38
 70
     1
102
RTVSPropertyOp39
 70
     1
102
RTVSPropertyOp40
 70
     1
102
RTVSPropertyOp41
 70
     1
102
RTVSPropertyOp42
 70
     1
102
RTVSPropertyOp43
 70
     1
102
RTVSPropertyOp44
 70
     1
102
RTVSPropertyOp45
 70
     1
102
RTVSPropertyOp46
 70
     1
102
RTVSPropertyOp47
 70
     1
102
RTVSPropertyOp48
 70
     1
102
RTVSPropertyOp49
 70
     1
102
RTVSPropertyOp50
 70
     1
102
RTVSPropertyOp51
 70
     0
102
RTVSPropertyOp52
 70
     0
102
RTVSPropertyOp53
 70
     1
102
RTVSPropertyOp54
 70
     1
102
RTVSPropertyOp55
 70
     1
102
RTVSPropertyOp56
 70
     1
102
RTVSPropertyOp57
 70
     1
102
RTVSPropertyOp58
 70
     1
102
RTVSPropertyOp59
 70
     1
102
RTVSPropertyOp60
 70
     1
102
RTVSPropertyOp61
 70
     1
102
RTVSPropertyOp62
 70
     1
  0
XRECORD
  5
465
102
{ACAD_REACTORS
330
464
102
}
330
464
100
AcDbXrecord
280
     1
102
RTVSPost2010Prop28
280
     0
102
RTVSPost2010PropOp28
 70
     1
102
RTVSPost2010Prop29
280
     1
102
RTVSPost2010PropOp29
 70
     1
102
RTVSPost2010Prop30
280
     1
102
RTVSPost2010PropOp30
 70
     1
102
RTVSPost2010Prop31
280
     0
102
RTVSPost2010PropOp31
 70
     1
102
RTVSPost2010Prop32
280
     0
102
RTVSPost2010PropOp32
 70
     1
102
RTVSPost2010Prop33
280
     0
102
RTVSPost2010PropOp33
 70
     1
102
RTVSPost2010Prop34
280
     0
102
RTVSPost2010PropOp34
 70
     1
102
RTVSPost2010Prop35
280
     0
102
RTVSPost2010PropOp35
 70
     1
102
RTVSPost2010Prop36
280
     0
102
RTVSPost2010PropOp36
 70
     1
102
RTVSPost2010Prop37
 90
       50
102
RTVSPost2010PropOp37
 70
     1
102
RTVSPost2010Prop38
140
0.0
102
RTVSPost2010PropOp38
 70
     1
102
RTVSPost2010Prop39
140
1.0
102
RTVSPost2010PropOp39
 70
     1
102
RTVSPost2010Prop40
 90
        0
102
RTVSPost2010PropOp40
 70
     1
102
RTVSPost2010Prop41ColorIndex
 90
       18
102
RTVSPost2010Prop41ColorRGB
 90
        0
102
RTVSPost2010PropOp41
 70
     1
102
RTVSPost2010Prop42
 90
       50
102
RTVSPost2010PropOp42
 70
     1
102
RTVSPost2010Prop43
 90
        3
102
RTVSPost2010PropOp43
 70
     1
102
RTVSPost2010Prop44ColorIndex
 90
        5
102
RTVSPost2010Prop44ColorRGB
 90
      255
102
RTVSPost2010PropOp44
 70
     1
102
RTVSPost2010Prop45
280
     0
102
RTVSPost2010PropOp45
 70
     1
102
RTVSPost2010Prop46
 90
       50
102
RTVSPost2010PropOp46
 70
     1
102
RTVSPost2010Prop47
 90
       50
102
RTVSPost2010PropOp47
 70
     1
102
RTVSPost2010Prop48
 90
       50
102
RTVSPost2010PropOp48
 70
     1
102
RTVSPost2010Prop49
280
     0
102
RTVSPost2010PropOp49
 70
     1
102
RTVSPost2010Prop50
 90
       50
102
RTVSPost2010PropOp50
 70
     1
102
RTVSPost2010Prop51ColorIndex
 90
      256
102
RTVSPost2010Prop51ColorRGB
 90
-16777216
102
RTVSPost2010PropOp51
 70
     0
102
RTVSPost2010Prop52
140
1.0
102
RTVSPost2010PropOp52
 70
     0
102
RTVSPost2010Prop53
 90
        2
102
RTVSPost2010PropOp53
 70
     1
102
RTVSPost2010Prop54
  1
strokes_ogs.tif
102
RTVSPost2010PropOp54
 70
     1
102
RTVSPost2010Prop55
280
     0
102
RTVSPost2010PropOp55
 70
     1
102
RTVSPost2010Prop56
140
1.0
102
RTVSPost2010PropOp56
 70
     1
102
RTVSPost2010Prop57
140
1.0
102
RTVSPost2010PropOp57
 70
     1
102
RTVSPropertyOp0
 70
     1
102
RTVSPropertyOp1
 70
     1
102
RTVSPropertyOp2
 70
     1
102
RTVSPropertyOp3
 70
     1
102
RTVSPropertyOp4
 70
     1
102
RTVSPropertyOp5
 70
     1
102
RTVSPropertyOp6
 70
     1
102
RTVSPropertyOp7
 70
     1
102
RTVSPropertyOp8
 70
     1
102
RTVSPropertyOp9
 70
     1
102
RTVSPropertyOp10
 70
     1
102
RTVSPropertyOp11
 70
     1
102
RTVSPropertyOp12
 70
     1
102
RTVSPropertyOp13
 70
     1
102
RTVSPropertyOp14
 70
     1
102
RTVSPropertyOp15
 70
     1
102
RTVSPropertyOp16
 70
     1
102
RTVSPropertyOp17
 70
     1
102
RTVSPropertyOp18
 70
     1
102
RTVSPropertyOp19
 70
     1
102
RTVSPropertyOp20
 70
     1
102
RTVSPropertyOp21
 70
     1
102
RTVSPropertyOp22
 70
     1
102
RTVSPropertyOp23
 70
     1
102
RTVSPropertyOp24
 70
     1
102
RTVSPropertyOp25
 70
     1
102
RTVSPropertyOp26
 70
     1
102
RTVSPropertyOp27
 70
     1
102
RTVSPropertyOp28
 70
     1
102
RTVSPropertyOp29
 70
     1
102
RTVSPropertyOp30
 70
     1
102
RTVSPropertyOp31
 70
     1
102
RTVSPropertyOp32
 70
     1
102
RTVSPropertyOp33
 70
     1
102
RTVSPropertyOp34
 70
     1
102
RTVSPropertyOp35
 70
     1
102
RTVSPropertyOp36
 70
     1
102
RTVSPropertyOp37
 70
     1
102
RTVSPropertyOp38
 70
     1
102
RTVSPropertyOp39
 70
     1
102
RTVSPropertyOp40
 70
     1
102
RTVSPropertyOp41
 70
     1
102
RTVSPropertyOp42
 70
     1
102
RTVSPropertyOp43
 70
     1
102
RTVSPropertyOp44
 70
     1
102
RTVSPropertyOp45
 70
     1
102
RTVSPropertyOp46
 70
     1
102
RTVSPropertyOp47
 70
     1
102
RTVSPropertyOp48
 70
     1
102
RTVSPropertyOp49
 70
     1
102
RTVSPropertyOp50
 70
     1
102
RTVSPropertyOp51
 70
     0
102
RTVSPropertyOp52
 70
     0
102
RTVSPropertyOp53
 70
     1
102
RTVSPropertyOp54
 70
     1
102
RTVSPropertyOp55
 70
     1
102
RTVSPropertyOp56
 70
     1
102
RTVSPropertyOp57
 70
     1
102
RTVSPropertyOp58
 70
     1
102
RTVSPropertyOp59
 70
     1
102
RTVSPropertyOp60
 70
     1
102
RTVSPropertyOp61
 70
     1
102
RTVSPropertyOp62
 70
     1
  0
XRECORD
  5
467
102
{ACAD_REACTORS
330
466
102
}
330
466
100
AcDbXrecord
280
     1
102
RTVSPost2010Prop28
280
     0
102
RTVSPost2010PropOp28
 70
     1
102
RTVSPost2010Prop29
280
     1
102
RTVSPost2010PropOp29
 70
     1
102
RTVSPost2010Prop30
280
     1
102
RTVSPost2010PropOp30
 70
     1
102
RTVSPost2010Prop31
280
     0
102
RTVSPost2010PropOp31
 70
     1
102
RTVSPost2010Prop32
280
     0
102
RTVSPost2010PropOp32
 70
     1
102
RTVSPost2010Prop33
280
     0
102
RTVSPost2010PropOp33
 70
     1
102
RTVSPost2010Prop34
280
     0
102
RTVSPost2010PropOp34
 70
     1
102
RTVSPost2010Prop35
280
     0
102
RTVSPost2010PropOp35
 70
     1
102
RTVSPost2010Prop36
280
     0
102
RTVSPost2010PropOp36
 70
     1
102
RTVSPost2010Prop37
 90
       50
102
RTVSPost2010PropOp37
 70
     1
102
RTVSPost2010Prop38
140
0.0
102
RTVSPost2010PropOp38
 70
     1
102
RTVSPost2010Prop39
140
1.0
102
RTVSPost2010PropOp39
 70
     1
102
RTVSPost2010Prop40
 90
        0
102
RTVSPost2010PropOp40
 70
     1
102
RTVSPost2010Prop41ColorIndex
 90
       18
102
RTVSPost2010Prop41ColorRGB
 90
        0
102
RTVSPost2010PropOp41
 70
     1
102
RTVSPost2010Prop42
 90
       50
102
RTVSPost2010PropOp42
 70
     1
102
RTVSPost2010Prop43
 90
        3
102
RTVSPost2010PropOp43
 70
     1
102
RTVSPost2010Prop44ColorIndex
 90
        5
102
RTVSPost2010Prop44ColorRGB
 90
      255
102
RTVSPost2010PropOp44
 70
     1
102
RTVSPost2010Prop45
280
     0
102
RTVSPost2010PropOp45
 70
     1
102
RTVSPost2010Prop46
 90
       50
102
RTVSPost2010PropOp46
 70
     1
102
RTVSPost2010Prop47
 90
       50
102
RTVSPost2010PropOp47
 70
     1
102
RTVSPost2010Prop48
 90
       50
102
RTVSPost2010PropOp48
 70
     1
102
RTVSPost2010Prop49
280
     0
102
RTVSPost2010PropOp49
 70
     1
102
RTVSPost2010Prop50
 90
       50
102
RTVSPost2010PropOp50
 70
     1
102
RTVSPost2010Prop51ColorIndex
 90
      256
102
RTVSPost2010Prop51ColorRGB
 90
-16777216
102
RTVSPost2010PropOp51
 70
     0
102
RTVSPost2010Prop52
140
1.0
102
RTVSPost2010PropOp52
 70
     0
102
RTVSPost2010Prop53
 90
        2
102
RTVSPost2010PropOp53
 70
     1
102
RTVSPost2010Prop54
  1
strokes_ogs.tif
102
RTVSPost2010PropOp54
 70
     1
102
RTVSPost2010Prop55
280
     0
102
RTVSPost2010PropOp55
 70
     1
102
RTVSPost2010Prop56
140
1.0
102
RTVSPost2010PropOp56
 70
     1
102
RTVSPost2010Prop57
140
1.0
102
RTVSPost2010PropOp57
 70
     1
102
RTVSPropertyOp0
 70
     1
102
RTVSPropertyOp1
 70
     1
102
RTVSPropertyOp2
 70
     1
102
RTVSPropertyOp3
 70
     1
102
RTVSPropertyOp4
 70
     1
102
RTVSPropertyOp5
 70
     1
102
RTVSPropertyOp6
 70
     1
102
RTVSPropertyOp7
 70
     1
102
RTVSPropertyOp8
 70
     1
102
RTVSPropertyOp9
 70
     1
102
RTVSPropertyOp10
 70
     1
102
RTVSPropertyOp11
 70
     1
102
RTVSPropertyOp12
 70
     1
102
RTVSPropertyOp13
 70
     1
102
RTVSPropertyOp14
 70
     1
102
RTVSPropertyOp15
 70
     1
102
RTVSPropertyOp16
 70
     1
102
RTVSPropertyOp17
 70
     1
102
RTVSPropertyOp18
 70
     1
102
RTVSPropertyOp19
 70
     1
102
RTVSPropertyOp20
 70
     1
102
RTVSPropertyOp21
 70
     1
102
RTVSPropertyOp22
 70
     1
102
RTVSPropertyOp23
 70
     1
102
RTVSPropertyOp24
 70
     1
102
RTVSPropertyOp25
 70
     1
102
RTVSPropertyOp26
 70
     1
102
RTVSPropertyOp27
 70
     1
102
RTVSPropertyOp28
 70
     1
102
RTVSPropertyOp29
 70
     1
102
RTVSPropertyOp30
 70
     1
102
RTVSPropertyOp31
 70
     1
102
RTVSPropertyOp32
 70
     1
102
RTVSPropertyOp33
 70
     1
102
RTVSPropertyOp34
 70
     1
102
RTVSPropertyOp35
 70
     1
102
RTVSPropertyOp36
 70
     1
102
RTVSPropertyOp37
 70
     1
102
RTVSPropertyOp38
 70
     1
102
RTVSPropertyOp39
 70
     1
102
RTVSPropertyOp40
 70
     1
102
RTVSPropertyOp41
 70
     1
102
RTVSPropertyOp42
 70
     1
102
RTVSPropertyOp43
 70
     1
102
RTVSPropertyOp44
 70
     1
102
RTVSPropertyOp45
 70
     1
102
RTVSPropertyOp46
 70
     1
102
RTVSPropertyOp47
 70
     1
102
RTVSPropertyOp48
 70
     1
102
RTVSPropertyOp49
 70
     1
102
RTVSPropertyOp50
 70
     1
102
RTVSPropertyOp51
 70
     0
102
RTVSPropertyOp52
 70
     0
102
RTVSPropertyOp53
 70
     1
102
RTVSPropertyOp54
 70
     1
102
RTVSPropertyOp55
 70
     1
102
RTVSPropertyOp56
 70
     1
102
RTVSPropertyOp57
 70
     1
102
RTVSPropertyOp58
 70
     1
102
RTVSPropertyOp59
 70
     1
102
RTVSPropertyOp60
 70
     1
102
RTVSPropertyOp61
 70
     1
102
RTVSPropertyOp62
 70
     1
  0
XRECORD
  5
469
102
{ACAD_REACTORS
330
468
102
}
330
468
100
AcDbXrecord
280
     1
102
RTVSPost2010Prop28
280
     0
102
RTVSPost2010PropOp28
 70
     1
102
RTVSPost2010Prop29
280
     1
102
RTVSPost2010PropOp29
 70
     1
102
RTVSPost2010Prop30
280
     1
102
RTVSPost2010PropOp30
 70
     1
102
RTVSPost2010Prop31
280
     0
102
RTVSPost2010PropOp31
 70
     1
102
RTVSPost2010Prop32
280
     0
102
RTVSPost2010PropOp32
 70
     1
102
RTVSPost2010Prop33
280
     0
102
RTVSPost2010PropOp33
 70
     1
102
RTVSPost2010Prop34
280
     0
102
RTVSPost2010PropOp34
 70
     1
102
RTVSPost2010Prop35
280
     0
102
RTVSPost2010PropOp35
 70
     1
102
RTVSPost2010Prop36
280
     0
102
RTVSPost2010PropOp36
 70
     1
102
RTVSPost2010Prop37
 90
       50
102
RTVSPost2010PropOp37
 70
     1
102
RTVSPost2010Prop38
140
0.0
102
RTVSPost2010PropOp38
 70
     1
102
RTVSPost2010Prop39
140
1.0
102
RTVSPost2010PropOp39
 70
     1
102
RTVSPost2010Prop40
 90
        0
102
RTVSPost2010PropOp40
 70
     1
102
RTVSPost2010Prop41ColorIndex
 90
       18
102
RTVSPost2010Prop41ColorRGB
 90
        0
102
RTVSPost2010PropOp41
 70
     1
102
RTVSPost2010Prop42
 90
       50
102
RTVSPost2010PropOp42
 70
     1
102
RTVSPost2010Prop43
 90
        3
102
RTVSPost2010PropOp43
 70
     1
102
RTVSPost2010Prop44ColorIndex
 90
        5
102
RTVSPost2010Prop44ColorRGB
 90
      255
102
RTVSPost2010PropOp44
 70
     1
102
RTVSPost2010Prop45
280
     0
102
RTVSPost2010PropOp45
 70
     1
102
RTVSPost2010Prop46
 90
       50
102
RTVSPost2010PropOp46
 70
     1
102
RTVSPost2010Prop47
 90
       50
102
RTVSPost2010PropOp47
 70
     1
102
RTVSPost2010Prop48
 90
       50
102
RTVSPost2010PropOp48
 70
     1
102
RTVSPost2010Prop49
280
     0
102
RTVSPost2010PropOp49
 70
     1
102
RTVSPost2010Prop50
 90
       50
102
RTVSPost2010PropOp50
 70
     1
102
RTVSPost2010Prop51ColorIndex
 90
      256
102
RTVSPost2010Prop51ColorRGB
 90
-16777216
102
RTVSPost2010PropOp51
 70
     0
102
RTVSPost2010Prop52
140
1.0
102
RTVSPost2010PropOp52
 70
     0
102
RTVSPost2010Prop53
 90
        2
102
RTVSPost2010PropOp53
 70
     1
102
RTVSPost2010Prop54
  1
strokes_ogs.tif
102
RTVSPost2010PropOp54
 70
     1
102
RTVSPost2010Prop55
280
     0
102
RTVSPost2010PropOp55
 70
     1
102
RTVSPost2010Prop56
140
1.0
102
RTVSPost2010PropOp56
 70
     1
102
RTVSPost2010Prop57
140
1.0
102
RTVSPost2010PropOp57
 70
     1
102
RTVSPropertyOp0
 70
     1
102
RTVSPropertyOp1
 70
     1
102
RTVSPropertyOp2
 70
     1
102
RTVSPropertyOp3
 70
     1
102
RTVSPropertyOp4
 70
     1
102
RTVSPropertyOp5
 70
     1
102
RTVSPropertyOp6
 70
     1
102
RTVSPropertyOp7
 70
     1
102
RTVSPropertyOp8
 70
     1
102
RTVSPropertyOp9
 70
     1
102
RTVSPropertyOp10
 70
     1
102
RTVSPropertyOp11
 70
     1
102
RTVSPropertyOp12
 70
     1
102
RTVSPropertyOp13
 70
     1
102
RTVSPropertyOp14
 70
     1
102
RTVSPropertyOp15
 70
     1
102
RTVSPropertyOp16
 70
     1
102
RTVSPropertyOp17
 70
     1
102
RTVSPropertyOp18
 70
     1
102
RTVSPropertyOp19
 70
     1
102
RTVSPropertyOp20
 70
     1
102
RTVSPropertyOp21
 70
     1
102
RTVSPropertyOp22
 70
     1
102
RTVSPropertyOp23
 70
     1
102
RTVSPropertyOp24
 70
     1
102
RTVSPropertyOp25
 70
     1
102
RTVSPropertyOp26
 70
     1
102
RTVSPropertyOp27
 70
     1
102
RTVSPropertyOp28
 70
     1
102
RTVSPropertyOp29
 70
     1
102
RTVSPropertyOp30
 70
     1
102
RTVSPropertyOp31
 70
     1
102
RTVSPropertyOp32
 70
     1
102
RTVSPropertyOp33
 70
     1
102
RTVSPropertyOp34
 70
     1
102
RTVSPropertyOp35
 70
     1
102
RTVSPropertyOp36
 70
     1
102
RTVSPropertyOp37
 70
     1
102
RTVSPropertyOp38
 70
     1
102
RTVSPropertyOp39
 70
     1
102
RTVSPropertyOp40
 70
     1
102
RTVSPropertyOp41
 70
     1
102
RTVSPropertyOp42
 70
     1
102
RTVSPropertyOp43
 70
     1
102
RTVSPropertyOp44
 70
     1
102
RTVSPropertyOp45
 70
     1
102
RTVSPropertyOp46
 70
     1
102
RTVSPropertyOp47
 70
     1
102
RTVSPropertyOp48
 70
     1
102
RTVSPropertyOp49
 70
     1
102
RTVSPropertyOp50
 70
     1
102
RTVSPropertyOp51
 70
     0
102
RTVSPropertyOp52
 70
     0
102
RTVSPropertyOp53
 70
     1
102
RTVSPropertyOp54
 70
     1
102
RTVSPropertyOp55
 70
     1
102
RTVSPropertyOp56
 70
     1
102
RTVSPropertyOp57
 70
     1
102
RTVSPropertyOp58
 70
     1
102
RTVSPropertyOp59
 70
     1
102
RTVSPropertyOp60
 70
     1
102
RTVSPropertyOp61
 70
     1
102
RTVSPropertyOp62
 70
     1
  0
XRECORD
  5
46B
102
{ACAD_REACTORS
330
46A
102
}
330
46A
100
AcDbXrecord
280
     1
102
RTVSPost2010Prop28
280
     0
102
RTVSPost2010PropOp28
 70
     1
102
RTVSPost2010Prop29
280
     1
102
RTVSPost2010PropOp29
 70
     1
102
RTVSPost2010Prop30
280
     1
102
RTVSPost2010PropOp30
 70
     1
102
RTVSPost2010Prop31
280
     0
102
RTVSPost2010PropOp31
 70
     1
102
RTVSPost2010Prop32
280
     0
102
RTVSPost2010PropOp32
 70
     1
102
RTVSPost2010Prop33
280
     0
102
RTVSPost2010PropOp33
 70
     1
102
RTVSPost2010Prop34
280
     0
102
RTVSPost2010PropOp34
 70
     1
102
RTVSPost2010Prop35
280
     0
102
RTVSPost2010PropOp35
 70
     1
102
RTVSPost2010Prop36
280
     0
102
RTVSPost2010PropOp36
 70
     1
102
RTVSPost2010Prop37
 90
       50
102
RTVSPost2010PropOp37
 70
     1
102
RTVSPost2010Prop38
140
0.0
102
RTVSPost2010PropOp38
 70
     1
102
RTVSPost2010Prop39
140
1.0
102
RTVSPost2010PropOp39
 70
     1
102
RTVSPost2010Prop40
 90
        0
102
RTVSPost2010PropOp40
 70
     1
102
RTVSPost2010Prop41ColorIndex
 90
       18
102
RTVSPost2010Prop41ColorRGB
 90
        0
102
RTVSPost2010PropOp41
 70
     1
102
RTVSPost2010Prop42
 90
       50
102
RTVSPost2010PropOp42
 70
     1
102
RTVSPost2010Prop43
 90
        3
102
RTVSPost2010PropOp43
 70
     1
102
RTVSPost2010Prop44ColorIndex
 90
        5
102
RTVSPost2010Prop44ColorRGB
 90
      255
102
RTVSPost2010PropOp44
 70
     1
102
RTVSPost2010Prop45
280
     0
102
RTVSPost2010PropOp45
 70
     1
102
RTVSPost2010Prop46
 90
       50
102
RTVSPost2010PropOp46
 70
     1
102
RTVSPost2010Prop47
 90
       50
102
RTVSPost2010PropOp47
 70
     1
102
RTVSPost2010Prop48
 90
       50
102
RTVSPost2010PropOp48
 70
     1
102
RTVSPost2010Prop49
280
     0
102
RTVSPost2010PropOp49
 70
     1
102
RTVSPost2010Prop50
 90
       50
102
RTVSPost2010PropOp50
 70
     1
102
RTVSPost2010Prop51ColorIndex
 90
      256
102
RTVSPost2010Prop51ColorRGB
 90
-16777216
102
RTVSPost2010PropOp51
 70
     0
102
RTVSPost2010Prop52
140
1.0
102
RTVSPost2010PropOp52
 70
     0
102
RTVSPost2010Prop53
 90
        2
102
RTVSPost2010PropOp53
 70
     1
102
RTVSPost2010Prop54
  1
strokes_ogs.tif
102
RTVSPost2010PropOp54
 70
     1
102
RTVSPost2010Prop55
280
     0
102
RTVSPost2010PropOp55
 70
     1
102
RTVSPost2010Prop56
140
1.0
102
RTVSPost2010PropOp56
 70
     1
102
RTVSPost2010Prop57
140
1.0
102
RTVSPost2010PropOp57
 70
     1
102
RTVSPropertyOp0
 70
     1
102
RTVSPropertyOp1
 70
     1
102
RTVSPropertyOp2
 70
     1
102
RTVSPropertyOp3
 70
     1
102
RTVSPropertyOp4
 70
     1
102
RTVSPropertyOp5
 70
     1
102
RTVSPropertyOp6
 70
     1
102
RTVSPropertyOp7
 70
     1
102
RTVSPropertyOp8
 70
     1
102
RTVSPropertyOp9
 70
     1
102
RTVSPropertyOp10
 70
     1
102
RTVSPropertyOp11
 70
     1
102
RTVSPropertyOp12
 70
     1
102
RTVSPropertyOp13
 70
     1
102
RTVSPropertyOp14
 70
     1
102
RTVSPropertyOp15
 70
     1
102
RTVSPropertyOp16
 70
     1
102
RTVSPropertyOp17
 70
     1
102
RTVSPropertyOp18
 70
     1
102
RTVSPropertyOp19
 70
     1
102
RTVSPropertyOp20
 70
     1
102
RTVSPropertyOp21
 70
     1
102
RTVSPropertyOp22
 70
     1
102
RTVSPropertyOp23
 70
     1
102
RTVSPropertyOp24
 70
     1
102
RTVSPropertyOp25
 70
     1
102
RTVSPropertyOp26
 70
     1
102
RTVSPropertyOp27
 70
     1
102
RTVSPropertyOp28
 70
     1
102
RTVSPropertyOp29
 70
     1
102
RTVSPropertyOp30
 70
     1
102
RTVSPropertyOp31
 70
     1
102
RTVSPropertyOp32
 70
     1
102
RTVSPropertyOp33
 70
     1
102
RTVSPropertyOp34
 70
     1
102
RTVSPropertyOp35
 70
     1
102
RTVSPropertyOp36
 70
     1
102
RTVSPropertyOp37
 70
     1
102
RTVSPropertyOp38
 70
     1
102
RTVSPropertyOp39
 70
     1
102
RTVSPropertyOp40
 70
     1
102
RTVSPropertyOp41
 70
     1
102
RTVSPropertyOp42
 70
     1
102
RTVSPropertyOp43
 70
     1
102
RTVSPropertyOp44
 70
     1
102
RTVSPropertyOp45
 70
     1
102
RTVSPropertyOp46
 70
     1
102
RTVSPropertyOp47
 70
     1
102
RTVSPropertyOp48
 70
     1
102
RTVSPropertyOp49
 70
     1
102
RTVSPropertyOp50
 70
     1
102
RTVSPropertyOp51
 70
     0
102
RTVSPropertyOp52
 70
     0
102
RTVSPropertyOp53
 70
     1
102
RTVSPropertyOp54
 70
     1
102
RTVSPropertyOp55
 70
     1
102
RTVSPropertyOp56
 70
     1
102
RTVSPropertyOp57
 70
     1
102
RTVSPropertyOp58
 70
     1
102
RTVSPropertyOp59
 70
     1
102
RTVSPropertyOp60
 70
     1
102
RTVSPropertyOp61
 70
     1
102
RTVSPropertyOp62
 70
     1
  0
XRECORD
  5
473
102
{ACAD_REACTORS
330
472
102
}
330
472
100
AcDbXrecord
280
     1
102
RTVSPost2010Prop28
280
     0
102
RTVSPost2010PropOp28
 70
     1
102
RTVSPost2010Prop29
280
     1
102
RTVSPost2010PropOp29
 70
     1
102
RTVSPost2010Prop30
280
     1
102
RTVSPost2010PropOp30
 70
     1
102
RTVSPost2010Prop31
280
     0
102
RTVSPost2010PropOp31
 70
     1
102
RTVSPost2010Prop32
280
     0
102
RTVSPost2010PropOp32
 70
     1
102
RTVSPost2010Prop33
280
     0
102
RTVSPost2010PropOp33
 70
     1
102
RTVSPost2010Prop34
280
     0
102
RTVSPost2010PropOp34
 70
     1
102
RTVSPost2010Prop35
280
     0
102
RTVSPost2010PropOp35
 70
     1
102
RTVSPost2010Prop36
280
     0
102
RTVSPost2010PropOp36
 70
     1
102
RTVSPost2010Prop37
 90
       50
102
RTVSPost2010PropOp37
 70
     1
102
RTVSPost2010Prop38
140
0.0
102
RTVSPost2010PropOp38
 70
     1
102
RTVSPost2010Prop39
140
1.0
102
RTVSPost2010PropOp39
 70
     1
102
RTVSPost2010Prop40
 90
        0
102
RTVSPost2010PropOp40
 70
     1
102
RTVSPost2010Prop41ColorIndex
 90
       18
102
RTVSPost2010Prop41ColorRGB
 90
        0
102
RTVSPost2010PropOp41
 70
     1
102
RTVSPost2010Prop42
 90
       50
102
RTVSPost2010PropOp42
 70
     1
102
RTVSPost2010Prop43
 90
        3
102
RTVSPost2010PropOp43
 70
     1
102
RTVSPost2010Prop44ColorIndex
 90
        5
102
RTVSPost2010Prop44ColorRGB
 90
      255
102
RTVSPost2010PropOp44
 70
     1
102
RTVSPost2010Prop45
280
     0
102
RTVSPost2010PropOp45
 70
     1
102
RTVSPost2010Prop46
 90
       50
102
RTVSPost2010PropOp46
 70
     1
102
RTVSPost2010Prop47
 90
       50
102
RTVSPost2010PropOp47
 70
     1
102
RTVSPost2010Prop48
 90
       50
102
RTVSPost2010PropOp48
 70
     1
102
RTVSPost2010Prop49
280
     0
102
RTVSPost2010PropOp49
 70
     1
102
RTVSPost2010Prop50
 90
       50
102
RTVSPost2010PropOp50
 70
     1
102
RTVSPost2010Prop51ColorIndex
 90
      256
102
RTVSPost2010Prop51ColorRGB
 90
-16777216
102
RTVSPost2010PropOp51
 70
     0
102
RTVSPost2010Prop52
140
1.0
102
RTVSPost2010PropOp52
 70
     0
102
RTVSPost2010Prop53
 90
        2
102
RTVSPost2010PropOp53
 70
     1
102
RTVSPost2010Prop54
  1
strokes_ogs.tif
102
RTVSPost2010PropOp54
 70
     1
102
RTVSPost2010Prop55
280
     0
102
RTVSPost2010PropOp55
 70
     1
102
RTVSPost2010Prop56
140
1.0
102
RTVSPost2010PropOp56
 70
     1
102
RTVSPost2010Prop57
140
1.0
102
RTVSPost2010PropOp57
 70
     1
102
RTVSPropertyOp0
 70
     1
102
RTVSPropertyOp1
 70
     1
102
RTVSPropertyOp2
 70
     1
102
RTVSPropertyOp3
 70
     1
102
RTVSPropertyOp4
 70
     1
102
RTVSPropertyOp5
 70
     1
102
RTVSPropertyOp6
 70
     1
102
RTVSPropertyOp7
 70
     1
102
RTVSPropertyOp8
 70
     1
102
RTVSPropertyOp9
 70
     1
102
RTVSPropertyOp10
 70
     1
102
RTVSPropertyOp11
 70
     1
102
RTVSPropertyOp12
 70
     1
102
RTVSPropertyOp13
 70
     1
102
RTVSPropertyOp14
 70
     1
102
RTVSPropertyOp15
 70
     1
102
RTVSPropertyOp16
 70
     1
102
RTVSPropertyOp17
 70
     1
102
RTVSPropertyOp18
 70
     1
102
RTVSPropertyOp19
 70
     1
102
RTVSPropertyOp20
 70
     1
102
RTVSPropertyOp21
 70
     1
102
RTVSPropertyOp22
 70
     1
102
RTVSPropertyOp23
 70
     1
102
RTVSPropertyOp24
 70
     1
102
RTVSPropertyOp25
 70
     1
102
RTVSPropertyOp26
 70
     1
102
RTVSPropertyOp27
 70
     1
102
RTVSPropertyOp28
 70
     1
102
RTVSPropertyOp29
 70
     1
102
RTVSPropertyOp30
 70
     1
102
RTVSPropertyOp31
 70
     1
102
RTVSPropertyOp32
 70
     1
102
RTVSPropertyOp33
 70
     1
102
RTVSPropertyOp34
 70
     1
102
RTVSPropertyOp35
 70
     1
102
RTVSPropertyOp36
 70
     1
102
RTVSPropertyOp37
 70
     1
102
RTVSPropertyOp38
 70
     1
102
RTVSPropertyOp39
 70
     1
102
RTVSPropertyOp40
 70
     1
102
RTVSPropertyOp41
 70
     1
102
RTVSPropertyOp42
 70
     1
102
RTVSPropertyOp43
 70
     1
102
RTVSPropertyOp44
 70
     1
102
RTVSPropertyOp45
 70
     1
102
RTVSPropertyOp46
 70
     1
102
RTVSPropertyOp47
 70
     1
102
RTVSPropertyOp48
 70
     1
102
RTVSPropertyOp49
 70
     1
102
RTVSPropertyOp50
 70
     1
102
RTVSPropertyOp51
 70
     0
102
RTVSPropertyOp52
 70
     0
102
RTVSPropertyOp53
 70
     1
102
RTVSPropertyOp54
 70
     1
102
RTVSPropertyOp55
 70
     1
102
RTVSPropertyOp56
 70
     1
102
RTVSPropertyOp57
 70
     1
102
RTVSPropertyOp58
 70
     1
102
RTVSPropertyOp59
 70
     1
102
RTVSPropertyOp60
 70
     1
102
RTVSPropertyOp61
 70
     1
102
RTVSPropertyOp62
 70
     1
  0
XRECORD
  5
48F
102
{ACAD_REACTORS
330
48E
102
}
330
48E
100
AcDbXrecord
280
     1
102
RTVSPost2010Prop28
280
     0
102
RTVSPost2010PropOp28
 70
     0
102
RTVSPost2010Prop29
280
     1
102
RTVSPost2010PropOp29
 70
     0
102
RTVSPost2010Prop30
280
     1
102
RTVSPost2010PropOp30
 70
     0
102
RTVSPost2010Prop31
280
     0
102
RTVSPost2010PropOp31
 70
     0
102
RTVSPost2010Prop32
280
     0
102
RTVSPost2010PropOp32
 70
     0
102
RTVSPost2010Prop33
280
     0
102
RTVSPost2010PropOp33
 70
     0
102
RTVSPost2010Prop34
280
     0
102
RTVSPost2010PropOp34
 70
     0
102
RTVSPost2010Prop35
280
     0
102
RTVSPost2010PropOp35
 70
     0
102
RTVSPost2010Prop36
280
     0
102
RTVSPost2010PropOp36
 70
     0
102
RTVSPost2010Prop37
 90
       50
102
RTVSPost2010PropOp37
 70
     0
102
RTVSPost2010Prop38
140
0.0
102
RTVSPost2010PropOp38
 70
     0
102
RTVSPost2010Prop39
140
1.0
102
RTVSPost2010PropOp39
 70
     0
102
RTVSPost2010Prop40
 90
        0
102
RTVSPost2010PropOp40
 70
     0
102
RTVSPost2010Prop41ColorIndex
 90
       18
102
RTVSPost2010Prop41ColorRGB
 90
        0
102
RTVSPost2010PropOp41
 70
     0
102
RTVSPost2010Prop42
 90
       50
102
RTVSPost2010PropOp42
 70
     0
102
RTVSPost2010Prop43
 90
        3
102
RTVSPost2010PropOp43
 70
     0
102
RTVSPost2010Prop44ColorIndex
 90
        5
102
RTVSPost2010Prop44ColorRGB
 90
      255
102
RTVSPost2010PropOp44
 70
     0
102
RTVSPost2010Prop45
280
     0
102
RTVSPost2010PropOp45
 70
     0
102
RTVSPost2010Prop46
 90
       50
102
RTVSPost2010PropOp46
 70
     0
102
RTVSPost2010Prop47
 90
       50
102
RTVSPost2010PropOp47
 70
     0
102
RTVSPost2010Prop48
 90
       50
102
RTVSPost2010PropOp48
 70
     0
102
RTVSPost2010Prop49
280
     0
102
RTVSPost2010PropOp49
 70
     0
102
RTVSPost2010Prop50
 90
       50
102
RTVSPost2010PropOp50
 70
     0
102
RTVSPost2010Prop51ColorIndex
 90
      256
102
RTVSPost2010Prop51ColorRGB
 90
-16777216
102
RTVSPost2010PropOp51
 70
     0
102
RTVSPost2010Prop52
140
1.0
102
RTVSPost2010PropOp52
 70
     0
102
RTVSPost2010Prop53
 90
        2
102
RTVSPost2010PropOp53
 70
     0
102
RTVSPost2010Prop54
  1
strokes_ogs.tif
102
RTVSPost2010PropOp54
 70
     0
102
RTVSPost2010Prop55
280
     0
102
RTVSPost2010PropOp55
 70
     0
102
RTVSPost2010Prop56
140
1.0
102
RTVSPost2010PropOp56
 70
     0
102
RTVSPost2010Prop57
140
1.0
102
RTVSPost2010PropOp57
 70
     0
102
RTVSPropertyOp0
 70
     0
102
RTVSPropertyOp1
 70
     0
102
RTVSPropertyOp2
 70
     0
102
RTVSPropertyOp3
 70
     0
102
RTVSPropertyOp4
 70
     0
102
RTVSPropertyOp5
 70
     0
102
RTVSPropertyOp6
 70
     0
102
RTVSPropertyOp7
 70
     0
102
RTVSPropertyOp8
 70
     0
102
RTVSPropertyOp9
 70
     0
102
RTVSPropertyOp10
 70
     0
102
RTVSPropertyOp11
 70
     0
102
RTVSPropertyOp12
 70
     0
102
RTVSPropertyOp13
 70
     0
102
RTVSPropertyOp14
 70
     2
102
RTVSPropertyOp15
 70
     0
102
RTVSPropertyOp16
 70
     0
102
RTVSPropertyOp17
 70
     0
102
RTVSPropertyOp18
 70
     0
102
RTVSPropertyOp19
 70
     0
102
RTVSPropertyOp20
 70
     0
102
RTVSPropertyOp21
 70
     0
102
RTVSPropertyOp22
 70
     0
102
RTVSPropertyOp23
 70
     0
102
RTVSPropertyOp24
 70
     0
102
RTVSPropertyOp25
 70
     0
102
RTVSPropertyOp26
 70
     0
102
RTVSPropertyOp27
 70
     0
102
RTVSPropertyOp28
 70
     0
102
RTVSPropertyOp29
 70
     0
102
RTVSPropertyOp30
 70
     0
102
RTVSPropertyOp31
 70
     0
102
RTVSPropertyOp32
 70
     0
102
RTVSPropertyOp33
 70
     0
102
RTVSPropertyOp34
 70
     0
102
RTVSPropertyOp35
 70
     0
102
RTVSPropertyOp36
 70
     0
102
RTVSPropertyOp37
 70
     0
102
RTVSPropertyOp38
 70
     0
102
RTVSPropertyOp39
 70
     0
102
RTVSPropertyOp40
 70
     0
102
RTVSPropertyOp41
 70
     0
102
RTVSPropertyOp42
 70
     0
102
RTVSPropertyOp43
 70
     0
102
RTVSPropertyOp44
 70
     0
102
RTVSPropertyOp45
 70
     0
102
RTVSPropertyOp46
 70
     0
102
RTVSPropertyOp47
 70
     0
102
RTVSPropertyOp48
 70
     0
102
RTVSPropertyOp49
 70
     0
102
RTVSPropertyOp50
 70
     0
102
RTVSPropertyOp51
 70
     0
102
RTVSPropertyOp52
 70
     0
102
RTVSPropertyOp53
 70
     0
102
RTVSPropertyOp54
 70
     0
102
RTVSPropertyOp55
 70
     0
102
RTVSPropertyOp56
 70
     0
102
RTVSPropertyOp57
 70
     0
102
RTVSPropertyOp58
 70
     0
102
RTVSPropertyOp59
 70
     0
102
RTVSPropertyOp60
 70
     0
102
RTVSPropertyOp61
 70
     0
102
RTVSPropertyOp62
 70
     0
  0
XRECORD
  5
47F
102
{ACAD_REACTORS
330
47E
102
}
330
47E
100
AcDbXrecord
280
     1
102
RTVSPost2010Prop28
280
     0
102
RTVSPost2010PropOp28
 70
     1
102
RTVSPost2010Prop29
280
     1
102
RTVSPost2010PropOp29
 70
     1
102
RTVSPost2010Prop30
280
     1
102
RTVSPost2010PropOp30
 70
     1
102
RTVSPost2010Prop31
280
     0
102
RTVSPost2010PropOp31
 70
     1
102
RTVSPost2010Prop32
280
     0
102
RTVSPost2010PropOp32
 70
     1
102
RTVSPost2010Prop33
280
     0
102
RTVSPost2010PropOp33
 70
     1
102
RTVSPost2010Prop34
280
     0
102
RTVSPost2010PropOp34
 70
     1
102
RTVSPost2010Prop35
280
     0
102
RTVSPost2010PropOp35
 70
     1
102
RTVSPost2010Prop36
280
     0
102
RTVSPost2010PropOp36
 70
     1
102
RTVSPost2010Prop37
 90
       50
102
RTVSPost2010PropOp37
 70
     1
102
RTVSPost2010Prop38
140
0.0
102
RTVSPost2010PropOp38
 70
     1
102
RTVSPost2010Prop39
140
1.0
102
RTVSPost2010PropOp39
 70
     1
102
RTVSPost2010Prop40
 90
        0
102
RTVSPost2010PropOp40
 70
     1
102
RTVSPost2010Prop41ColorIndex
 90
       18
102
RTVSPost2010Prop41ColorRGB
 90
        0
102
RTVSPost2010PropOp41
 70
     1
102
RTVSPost2010Prop42
 90
       50
102
RTVSPost2010PropOp42
 70
     1
102
RTVSPost2010Prop43
 90
        3
102
RTVSPost2010PropOp43
 70
     1
102
RTVSPost2010Prop44ColorIndex
 90
        5
102
RTVSPost2010Prop44ColorRGB
 90
      255
102
RTVSPost2010PropOp44
 70
     1
102
RTVSPost2010Prop45
280
     0
102
RTVSPost2010PropOp45
 70
     1
102
RTVSPost2010Prop46
 90
       50
102
RTVSPost2010PropOp46
 70
     1
102
RTVSPost2010Prop47
 90
       50
102
RTVSPost2010PropOp47
 70
     1
102
RTVSPost2010Prop48
 90
       50
102
RTVSPost2010PropOp48
 70
     1
102
RTVSPost2010Prop49
280
     0
102
RTVSPost2010PropOp49
 70
     1
102
RTVSPost2010Prop50
 90
       50
102
RTVSPost2010PropOp50
 70
     1
102
RTVSPost2010Prop51ColorIndex
 90
      256
102
RTVSPost2010Prop51ColorRGB
 90
-16777216
102
RTVSPost2010PropOp51
 70
     0
102
RTVSPost2010Prop52
140
1.0
102
RTVSPost2010PropOp52
 70
     0
102
RTVSPost2010Prop53
 90
        2
102
RTVSPost2010PropOp53
 70
     1
102
RTVSPost2010Prop54
  1
strokes_ogs.tif
102
RTVSPost2010PropOp54
 70
     1
102
RTVSPost2010Prop55
280
     0
102
RTVSPost2010PropOp55
 70
     1
102
RTVSPost2010Prop56
140
1.0
102
RTVSPost2010PropOp56
 70
     1
102
RTVSPost2010Prop57
140
1.0
102
RTVSPost2010PropOp57
 70
     1
102
RTVSPropertyOp0
 70
     1
102
RTVSPropertyOp1
 70
     1
102
RTVSPropertyOp2
 70
     1
102
RTVSPropertyOp3
 70
     1
102
RTVSPropertyOp4
 70
     1
102
RTVSPropertyOp5
 70
     1
102
RTVSPropertyOp6
 70
     1
102
RTVSPropertyOp7
 70
     1
102
RTVSPropertyOp8
 70
     1
102
RTVSPropertyOp9
 70
     1
102
RTVSPropertyOp10
 70
     1
102
RTVSPropertyOp11
 70
     1
102
RTVSPropertyOp12
 70
     1
102
RTVSPropertyOp13
 70
     1
102
RTVSPropertyOp14
 70
     1
102
RTVSPropertyOp15
 70
     1
102
RTVSPropertyOp16
 70
     1
102
RTVSPropertyOp17
 70
     1
102
RTVSPropertyOp18
 70
     1
102
RTVSPropertyOp19
 70
     1
102
RTVSPropertyOp20
 70
     1
102
RTVSPropertyOp21
 70
     1
102
RTVSPropertyOp22
 70
     1
102
RTVSPropertyOp23
 70
     1
102
RTVSPropertyOp24
 70
     1
102
RTVSPropertyOp25
 70
     1
102
RTVSPropertyOp26
 70
     1
102
RTVSPropertyOp27
 70
     1
102
RTVSPropertyOp28
 70
     1
102
RTVSPropertyOp29
 70
     1
102
RTVSPropertyOp30
 70
     1
102
RTVSPropertyOp31
 70
     1
102
RTVSPropertyOp32
 70
     1
102
RTVSPropertyOp33
 70
     1
102
RTVSPropertyOp34
 70
     1
102
RTVSPropertyOp35
 70
     1
102
RTVSPropertyOp36
 70
     1
102
RTVSPropertyOp37
 70
     1
102
RTVSPropertyOp38
 70
     1
102
RTVSPropertyOp39
 70
     1
102
RTVSPropertyOp40
 70
     1
102
RTVSPropertyOp41
 70
     1
102
RTVSPropertyOp42
 70
     1
102
RTVSPropertyOp43
 70
     1
102
RTVSPropertyOp44
 70
     1
102
RTVSPropertyOp45
 70
     1
102
RTVSPropertyOp46
 70
     1
102
RTVSPropertyOp47
 70
     1
102
RTVSPropertyOp48
 70
     1
102
RTVSPropertyOp49
 70
     1
102
RTVSPropertyOp50
 70
     1
102
RTVSPropertyOp51
 70
     0
102
RTVSPropertyOp52
 70
     0
102
RTVSPropertyOp53
 70
     1
102
RTVSPropertyOp54
 70
     1
102
RTVSPropertyOp55
 70
     1
102
RTVSPropertyOp56
 70
     1
102
RTVSPropertyOp57
 70
     1
102
RTVSPropertyOp58
 70
     1
102
RTVSPropertyOp59
 70
     1
102
RTVSPropertyOp60
 70
     1
102
RTVSPropertyOp61
 70
     1
102
RTVSPropertyOp62
 70
     1
  0
XRECORD
  5
491
102
{ACAD_REACTORS
330
490
102
}
330
490
100
AcDbXrecord
280
     1
102
RTVSPost2010Prop28
280
     0
102
RTVSPost2010PropOp28
 70
     0
102
RTVSPost2010Prop29
280
     1
102
RTVSPost2010PropOp29
 70
     0
102
RTVSPost2010Prop30
280
     1
102
RTVSPost2010PropOp30
 70
     0
102
RTVSPost2010Prop31
280
     0
102
RTVSPost2010PropOp31
 70
     0
102
RTVSPost2010Prop32
280
     0
102
RTVSPost2010PropOp32
 70
     0
102
RTVSPost2010Prop33
280
     0
102
RTVSPost2010PropOp33
 70
     0
102
RTVSPost2010Prop34
280
     0
102
RTVSPost2010PropOp34
 70
     0
102
RTVSPost2010Prop35
280
     0
102
RTVSPost2010PropOp35
 70
     0
102
RTVSPost2010Prop36
280
     0
102
RTVSPost2010PropOp36
 70
     0
102
RTVSPost2010Prop37
 90
       50
102
RTVSPost2010PropOp37
 70
     0
102
RTVSPost2010Prop38
140
0.0
102
RTVSPost2010PropOp38
 70
     0
102
RTVSPost2010Prop39
140
1.0
102
RTVSPost2010PropOp39
 70
     0
102
RTVSPost2010Prop40
 90
        0
102
RTVSPost2010PropOp40
 70
     0
102
RTVSPost2010Prop41ColorIndex
 90
       18
102
RTVSPost2010Prop41ColorRGB
 90
        0
102
RTVSPost2010PropOp41
 70
     0
102
RTVSPost2010Prop42
 90
       50
102
RTVSPost2010PropOp42
 70
     0
102
RTVSPost2010Prop43
 90
        3
102
RTVSPost2010PropOp43
 70
     0
102
RTVSPost2010Prop44ColorIndex
 90
        5
102
RTVSPost2010Prop44ColorRGB
 90
      255
102
RTVSPost2010PropOp44
 70
     0
102
RTVSPost2010Prop45
280
     0
102
RTVSPost2010PropOp45
 70
     0
102
RTVSPost2010Prop46
 90
       50
102
RTVSPost2010PropOp46
 70
     0
102
RTVSPost2010Prop47
 90
       50
102
RTVSPost2010PropOp47
 70
     0
102
RTVSPost2010Prop48
 90
       50
102
RTVSPost2010PropOp48
 70
     0
102
RTVSPost2010Prop49
280
     0
102
RTVSPost2010PropOp49
 70
     0
102
RTVSPost2010Prop50
 90
       50
102
RTVSPost2010PropOp50
 70
     0
102
RTVSPost2010Prop51ColorIndex
 90
      256
102
RTVSPost2010Prop51ColorRGB
 90
-16777216
102
RTVSPost2010PropOp51
 70
     0
102
RTVSPost2010Prop52
140
1.0
102
RTVSPost2010PropOp52
 70
     0
102
RTVSPost2010Prop53
 90
        2
102
RTVSPost2010PropOp53
 70
     0
102
RTVSPost2010Prop54
  1
strokes_ogs.tif
102
RTVSPost2010PropOp54
 70
     0
102
RTVSPost2010Prop55
280
     0
102
RTVSPost2010PropOp55
 70
     0
102
RTVSPost2010Prop56
140
1.0
102
RTVSPost2010PropOp56
 70
     0
102
RTVSPost2010Prop57
140
1.0
102
RTVSPost2010PropOp57
 70
     0
102
RTVSPropertyOp0
 70
     0
102
RTVSPropertyOp1
 70
     0
102
RTVSPropertyOp2
 70
     0
102
RTVSPropertyOp3
 70
     0
102
RTVSPropertyOp4
 70
     0
102
RTVSPropertyOp5
 70
     0
102
RTVSPropertyOp6
 70
     0
102
RTVSPropertyOp7
 70
     0
102
RTVSPropertyOp8
 70
     0
102
RTVSPropertyOp9
 70
     0
102
RTVSPropertyOp10
 70
     0
102
RTVSPropertyOp11
 70
     0
102
RTVSPropertyOp12
 70
     0
102
RTVSPropertyOp13
 70
     0
102
RTVSPropertyOp14
 70
     2
102
RTVSPropertyOp15
 70
     0
102
RTVSPropertyOp16
 70
     0
102
RTVSPropertyOp17
 70
     0
102
RTVSPropertyOp18
 70
     0
102
RTVSPropertyOp19
 70
     0
102
RTVSPropertyOp20
 70
     0
102
RTVSPropertyOp21
 70
     0
102
RTVSPropertyOp22
 70
     0
102
RTVSPropertyOp23
 70
     0
102
RTVSPropertyOp24
 70
     0
102
RTVSPropertyOp25
 70
     0
102
RTVSPropertyOp26
 70
     0
102
RTVSPropertyOp27
 70
     0
102
RTVSPropertyOp28
 70
     0
102
RTVSPropertyOp29
 70
     0
102
RTVSPropertyOp30
 70
     0
102
RTVSPropertyOp31
 70
     0
102
RTVSPropertyOp32
 70
     0
102
RTVSPropertyOp33
 70
     0
102
RTVSPropertyOp34
 70
     0
102
RTVSPropertyOp35
 70
     0
102
RTVSPropertyOp36
 70
     0
102
RTVSPropertyOp37
 70
     0
102
RTVSPropertyOp38
 70
     0
102
RTVSPropertyOp39
 70
     0
102
RTVSPropertyOp40
 70
     0
102
RTVSPropertyOp41
 70
     0
102
RTVSPropertyOp42
 70
     0
102
RTVSPropertyOp43
 70
     0
102
RTVSPropertyOp44
 70
     0
102
RTVSPropertyOp45
 70
     0
102
RTVSPropertyOp46
 70
     0
102
RTVSPropertyOp47
 70
     0
102
RTVSPropertyOp48
 70
     0
102
RTVSPropertyOp49
 70
     0
102
RTVSPropertyOp50
 70
     0
102
RTVSPropertyOp51
 70
     0
102
RTVSPropertyOp52
 70
     0
102
RTVSPropertyOp53
 70
     0
102
RTVSPropertyOp54
 70
     0
102
RTVSPropertyOp55
 70
     0
102
RTVSPropertyOp56
 70
     0
102
RTVSPropertyOp57
 70
     0
102
RTVSPropertyOp58
 70
     0
102
RTVSPropertyOp59
 70
     0
102
RTVSPropertyOp60
 70
     0
102
RTVSPropertyOp61
 70
     0
102
RTVSPropertyOp62
 70
     0
  0
XRECORD
  5
477
102
{ACAD_REACTORS
330
476
102
}
330
476
100
AcDbXrecord
280
     1
102
RTVSPost2010Prop28
280
     0
102
RTVSPost2010PropOp28
 70
     1
102
RTVSPost2010Prop29
280
     1
102
RTVSPost2010PropOp29
 70
     1
102
RTVSPost2010Prop30
280
     1
102
RTVSPost2010PropOp30
 70
     1
102
RTVSPost2010Prop31
280
     0
102
RTVSPost2010PropOp31
 70
     1
102
RTVSPost2010Prop32
280
     0
102
RTVSPost2010PropOp32
 70
     1
102
RTVSPost2010Prop33
280
     0
102
RTVSPost2010PropOp33
 70
     1
102
RTVSPost2010Prop34
280
     0
102
RTVSPost2010PropOp34
 70
     1
102
RTVSPost2010Prop35
280
     0
102
RTVSPost2010PropOp35
 70
     1
102
RTVSPost2010Prop36
280
     0
102
RTVSPost2010PropOp36
 70
     1
102
RTVSPost2010Prop37
 90
       50
102
RTVSPost2010PropOp37
 70
     1
102
RTVSPost2010Prop38
140
0.0
102
RTVSPost2010PropOp38
 70
     1
102
RTVSPost2010Prop39
140
1.0
102
RTVSPost2010PropOp39
 70
     1
102
RTVSPost2010Prop40
 90
        0
102
RTVSPost2010PropOp40
 70
     1
102
RTVSPost2010Prop41ColorIndex
 90
       18
102
RTVSPost2010Prop41ColorRGB
 90
        0
102
RTVSPost2010PropOp41
 70
     1
102
RTVSPost2010Prop42
 90
       50
102
RTVSPost2010PropOp42
 70
     1
102
RTVSPost2010Prop43
 90
        3
102
RTVSPost2010PropOp43
 70
     1
102
RTVSPost2010Prop44ColorIndex
 90
        5
102
RTVSPost2010Prop44ColorRGB
 90
      255
102
RTVSPost2010PropOp44
 70
     1
102
RTVSPost2010Prop45
280
     0
102
RTVSPost2010PropOp45
 70
     1
102
RTVSPost2010Prop46
 90
       50
102
RTVSPost2010PropOp46
 70
     1
102
RTVSPost2010Prop47
 90
       50
102
RTVSPost2010PropOp47
 70
     1
102
RTVSPost2010Prop48
 90
       50
102
RTVSPost2010PropOp48
 70
     1
102
RTVSPost2010Prop49
280
     0
102
RTVSPost2010PropOp49
 70
     1
102
RTVSPost2010Prop50
 90
       50
102
RTVSPost2010PropOp50
 70
     1
102
RTVSPost2010Prop51ColorIndex
 90
      256
102
RTVSPost2010Prop51ColorRGB
 90
-16777216
102
RTVSPost2010PropOp51
 70
     0
102
RTVSPost2010Prop52
140
1.0
102
RTVSPost2010PropOp52
 70
     0
102
RTVSPost2010Prop53
 90
        2
102
RTVSPost2010PropOp53
 70
     1
102
RTVSPost2010Prop54
  1
strokes_ogs.tif
102
RTVSPost2010PropOp54
 70
     1
102
RTVSPost2010Prop55
280
     0
102
RTVSPost2010PropOp55
 70
     1
102
RTVSPost2010Prop56
140
1.0
102
RTVSPost2010PropOp56
 70
     1
102
RTVSPost2010Prop57
140
1.0
102
RTVSPost2010PropOp57
 70
     1
102
RTVSPropertyOp0
 70
     1
102
RTVSPropertyOp1
 70
     1
102
RTVSPropertyOp2
 70
     1
102
RTVSPropertyOp3
 70
     1
102
RTVSPropertyOp4
 70
     1
102
RTVSPropertyOp5
 70
     1
102
RTVSPropertyOp6
 70
     1
102
RTVSPropertyOp7
 70
     1
102
RTVSPropertyOp8
 70
     1
102
RTVSPropertyOp9
 70
     1
102
RTVSPropertyOp10
 70
     1
102
RTVSPropertyOp11
 70
     1
102
RTVSPropertyOp12
 70
     1
102
RTVSPropertyOp13
 70
     1
102
RTVSPropertyOp14
 70
     1
102
RTVSPropertyOp15
 70
     1
102
RTVSPropertyOp16
 70
     1
102
RTVSPropertyOp17
 70
     1
102
RTVSPropertyOp18
 70
     1
102
RTVSPropertyOp19
 70
     1
102
RTVSPropertyOp20
 70
     1
102
RTVSPropertyOp21
 70
     1
102
RTVSPropertyOp22
 70
     1
102
RTVSPropertyOp23
 70
     1
102
RTVSPropertyOp24
 70
     1
102
RTVSPropertyOp25
 70
     1
102
RTVSPropertyOp26
 70
     1
102
RTVSPropertyOp27
 70
     1
102
RTVSPropertyOp28
 70
     1
102
RTVSPropertyOp29
 70
     1
102
RTVSPropertyOp30
 70
     1
102
RTVSPropertyOp31
 70
     1
102
RTVSPropertyOp32
 70
     1
102
RTVSPropertyOp33
 70
     1
102
RTVSPropertyOp34
 70
     1
102
RTVSPropertyOp35
 70
     1
102
RTVSPropertyOp36
 70
     1
102
RTVSPropertyOp37
 70
     1
102
RTVSPropertyOp38
 70
     1
102
RTVSPropertyOp39
 70
     1
102
RTVSPropertyOp40
 70
     1
102
RTVSPropertyOp41
 70
     1
102
RTVSPropertyOp42
 70
     1
102
RTVSPropertyOp43
 70
     1
102
RTVSPropertyOp44
 70
     1
102
RTVSPropertyOp45
 70
     1
102
RTVSPropertyOp46
 70
     1
102
RTVSPropertyOp47
 70
     1
102
RTVSPropertyOp48
 70
     1
102
RTVSPropertyOp49
 70
     1
102
RTVSPropertyOp50
 70
     1
102
RTVSPropertyOp51
 70
     0
102
RTVSPropertyOp52
 70
     0
102
RTVSPropertyOp53
 70
     1
102
RTVSPropertyOp54
 70
     1
102
RTVSPropertyOp55
 70
     1
102
RTVSPropertyOp56
 70
     1
102
RTVSPropertyOp57
 70
     1
102
RTVSPropertyOp58
 70
     1
102
RTVSPropertyOp59
 70
     1
102
RTVSPropertyOp60
 70
     1
102
RTVSPropertyOp61
 70
     1
102
RTVSPropertyOp62
 70
     1
  0
XRECORD
  5
48D
102
{ACAD_REACTORS
330
48C
102
}
330
48C
100
AcDbXrecord
280
     1
102
RTVSPost2010Prop28
280
     0
102
RTVSPost2010PropOp28
 70
     1
102
RTVSPost2010Prop29
280
     1
102
RTVSPost2010PropOp29
 70
     1
102
RTVSPost2010Prop30
280
     1
102
RTVSPost2010PropOp30
 70
     1
102
RTVSPost2010Prop31
280
     0
102
RTVSPost2010PropOp31
 70
     1
102
RTVSPost2010Prop32
280
     0
102
RTVSPost2010PropOp32
 70
     1
102
RTVSPost2010Prop33
280
     0
102
RTVSPost2010PropOp33
 70
     1
102
RTVSPost2010Prop34
280
     0
102
RTVSPost2010PropOp34
 70
     1
102
RTVSPost2010Prop35
280
     0
102
RTVSPost2010PropOp35
 70
     1
102
RTVSPost2010Prop36
280
     0
102
RTVSPost2010PropOp36
 70
     1
102
RTVSPost2010Prop37
 90
       50
102
RTVSPost2010PropOp37
 70
     1
102
RTVSPost2010Prop38
140
0.0
102
RTVSPost2010PropOp38
 70
     1
102
RTVSPost2010Prop39
140
1.0
102
RTVSPost2010PropOp39
 70
     1
102
RTVSPost2010Prop40
 90
        0
102
RTVSPost2010PropOp40
 70
     1
102
RTVSPost2010Prop41ColorIndex
 90
       18
102
RTVSPost2010Prop41ColorRGB
 90
        0
102
RTVSPost2010PropOp41
 70
     1
102
RTVSPost2010Prop42
 90
       50
102
RTVSPost2010PropOp42
 70
     1
102
RTVSPost2010Prop43
 90
        3
102
RTVSPost2010PropOp43
 70
     1
102
RTVSPost2010Prop44ColorIndex
 90
        5
102
RTVSPost2010Prop44ColorRGB
 90
      255
102
RTVSPost2010PropOp44
 70
     1
102
RTVSPost2010Prop45
280
     0
102
RTVSPost2010PropOp45
 70
     1
102
RTVSPost2010Prop46
 90
       50
102
RTVSPost2010PropOp46
 70
     1
102
RTVSPost2010Prop47
 90
       50
102
RTVSPost2010PropOp47
 70
     1
102
RTVSPost2010Prop48
 90
       50
102
RTVSPost2010PropOp48
 70
     1
102
RTVSPost2010Prop49
280
     0
102
RTVSPost2010PropOp49
 70
     1
102
RTVSPost2010Prop50
 90
       50
102
RTVSPost2010PropOp50
 70
     1
102
RTVSPost2010Prop51ColorIndex
 90
      256
102
RTVSPost2010Prop51ColorRGB
 90
-16777216
102
RTVSPost2010PropOp51
 70
     0
102
RTVSPost2010Prop52
140
1.0
102
RTVSPost2010PropOp52
 70
     0
102
RTVSPost2010Prop53
 90
        2
102
RTVSPost2010PropOp53
 70
     1
102
RTVSPost2010Prop54
  1
strokes_ogs.tif
102
RTVSPost2010PropOp54
 70
     1
102
RTVSPost2010Prop55
280
     0
102
RTVSPost2010PropOp55
 70
     1
102
RTVSPost2010Prop56
140
1.0
102
RTVSPost2010PropOp56
 70
     1
102
RTVSPost2010Prop57
140
1.0
102
RTVSPost2010PropOp57
 70
     1
102
RTVSPropertyOp0
 70
     1
102
RTVSPropertyOp1
 70
     1
102
RTVSPropertyOp2
 70
     1
102
RTVSPropertyOp3
 70
     1
102
RTVSPropertyOp4
 70
     1
102
RTVSPropertyOp5
 70
     1
102
RTVSPropertyOp6
 70
     1
102
RTVSPropertyOp7
 70
     1
102
RTVSPropertyOp8
 70
     1
102
RTVSPropertyOp9
 70
     1
102
RTVSPropertyOp10
 70
     1
102
RTVSPropertyOp11
 70
     1
102
RTVSPropertyOp12
 70
     1
102
RTVSPropertyOp13
 70
     1
102
RTVSPropertyOp14
 70
     1
102
RTVSPropertyOp15
 70
     1
102
RTVSPropertyOp16
 70
     1
102
RTVSPropertyOp17
 70
     1
102
RTVSPropertyOp18
 70
     1
102
RTVSPropertyOp19
 70
     1
102
RTVSPropertyOp20
 70
     1
102
RTVSPropertyOp21
 70
     1
102
RTVSPropertyOp22
 70
     1
102
RTVSPropertyOp23
 70
     1
102
RTVSPropertyOp24
 70
     1
102
RTVSPropertyOp25
 70
     1
102
RTVSPropertyOp26
 70
     1
102
RTVSPropertyOp27
 70
     1
102
RTVSPropertyOp28
 70
     1
102
RTVSPropertyOp29
 70
     1
102
RTVSPropertyOp30
 70
     1
102
RTVSPropertyOp31
 70
     1
102
RTVSPropertyOp32
 70
     1
102
RTVSPropertyOp33
 70
     1
102
RTVSPropertyOp34
 70
     1
102
RTVSPropertyOp35
 70
     1
102
RTVSPropertyOp36
 70
     1
102
RTVSPropertyOp37
 70
     1
102
RTVSPropertyOp38
 70
     1
102
RTVSPropertyOp39
 70
     1
102
RTVSPropertyOp40
 70
     1
102
RTVSPropertyOp41
 70
     1
102
RTVSPropertyOp42
 70
     1
102
RTVSPropertyOp43
 70
     1
102
RTVSPropertyOp44
 70
     1
102
RTVSPropertyOp45
 70
     1
102
RTVSPropertyOp46
 70
     1
102
RTVSPropertyOp47
 70
     1
102
RTVSPropertyOp48
 70
     1
102
RTVSPropertyOp49
 70
     1
102
RTVSPropertyOp50
 70
     1
102
RTVSPropertyOp51
 70
     0
102
RTVSPropertyOp52
 70
     0
102
RTVSPropertyOp53
 70
     1
102
RTVSPropertyOp54
 70
     1
102
RTVSPropertyOp55
 70
     1
102
RTVSPropertyOp56
 70
     1
102
RTVSPropertyOp57
 70
     1
102
RTVSPropertyOp58
 70
     1
102
RTVSPropertyOp59
 70
     1
102
RTVSPropertyOp60
 70
     1
102
RTVSPropertyOp61
 70
     1
102
RTVSPropertyOp62
 70
     1
  0
XRECORD
  5
48B
102
{ACAD_REACTORS
330
48A
102
}
330
48A
100
AcDbXrecord
280
     1
102
RTVSPost2010Prop28
280
     0
102
RTVSPost2010PropOp28
 70
     1
102
RTVSPost2010Prop29
280
     1
102
RTVSPost2010PropOp29
 70
     1
102
RTVSPost2010Prop30
280
     1
102
RTVSPost2010PropOp30
 70
     1
102
RTVSPost2010Prop31
280
     0
102
RTVSPost2010PropOp31
 70
     1
102
RTVSPost2010Prop32
280
     0
102
RTVSPost2010PropOp32
 70
     1
102
RTVSPost2010Prop33
280
     0
102
RTVSPost2010PropOp33
 70
     1
102
RTVSPost2010Prop34
280
     0
102
RTVSPost2010PropOp34
 70
     1
102
RTVSPost2010Prop35
280
     0
102
RTVSPost2010PropOp35
 70
     1
102
RTVSPost2010Prop36
280
     0
102
RTVSPost2010PropOp36
 70
     1
102
RTVSPost2010Prop37
 90
       50
102
RTVSPost2010PropOp37
 70
     1
102
RTVSPost2010Prop38
140
0.0
102
RTVSPost2010PropOp38
 70
     1
102
RTVSPost2010Prop39
140
1.0
102
RTVSPost2010PropOp39
 70
     1
102
RTVSPost2010Prop40
 90
        0
102
RTVSPost2010PropOp40
 70
     1
102
RTVSPost2010Prop41ColorIndex
 90
       18
102
RTVSPost2010Prop41ColorRGB
 90
        0
102
RTVSPost2010PropOp41
 70
     1
102
RTVSPost2010Prop42
 90
       50
102
RTVSPost2010PropOp42
 70
     1
102
RTVSPost2010Prop43
 90
        3
102
RTVSPost2010PropOp43
 70
     1
102
RTVSPost2010Prop44ColorIndex
 90
        5
102
RTVSPost2010Prop44ColorRGB
 90
      255
102
RTVSPost2010PropOp44
 70
     1
102
RTVSPost2010Prop45
280
     0
102
RTVSPost2010PropOp45
 70
     1
102
RTVSPost2010Prop46
 90
       50
102
RTVSPost2010PropOp46
 70
     1
102
RTVSPost2010Prop47
 90
       50
102
RTVSPost2010PropOp47
 70
     1
102
RTVSPost2010Prop48
 90
       50
102
RTVSPost2010PropOp48
 70
     1
102
RTVSPost2010Prop49
280
     0
102
RTVSPost2010PropOp49
 70
     1
102
RTVSPost2010Prop50
 90
       50
102
RTVSPost2010PropOp50
 70
     1
102
RTVSPost2010Prop51ColorIndex
 90
      256
102
RTVSPost2010Prop51ColorRGB
 90
-16777216
102
RTVSPost2010PropOp51
 70
     0
102
RTVSPost2010Prop52
140
1.0
102
RTVSPost2010PropOp52
 70
     0
102
RTVSPost2010Prop53
 90
        2
102
RTVSPost2010PropOp53
 70
     1
102
RTVSPost2010Prop54
  1
strokes_ogs.tif
102
RTVSPost2010PropOp54
 70
     1
102
RTVSPost2010Prop55
280
     0
102
RTVSPost2010PropOp55
 70
     1
102
RTVSPost2010Prop56
140
1.0
102
RTVSPost2010PropOp56
 70
     1
102
RTVSPost2010Prop57
140
1.0
102
RTVSPost2010PropOp57
 70
     1
102
RTVSPropertyOp0
 70
     1
102
RTVSPropertyOp1
 70
     1
102
RTVSPropertyOp2
 70
     1
102
RTVSPropertyOp3
 70
     1
102
RTVSPropertyOp4
 70
     1
102
RTVSPropertyOp5
 70
     1
102
RTVSPropertyOp6
 70
     1
102
RTVSPropertyOp7
 70
     1
102
RTVSPropertyOp8
 70
     1
102
RTVSPropertyOp9
 70
     1
102
RTVSPropertyOp10
 70
     1
102
RTVSPropertyOp11
 70
     1
102
RTVSPropertyOp12
 70
     1
102
RTVSPropertyOp13
 70
     1
102
RTVSPropertyOp14
 70
     1
102
RTVSPropertyOp15
 70
     1
102
RTVSPropertyOp16
 70
     1
102
RTVSPropertyOp17
 70
     1
102
RTVSPropertyOp18
 70
     1
102
RTVSPropertyOp19
 70
     1
102
RTVSPropertyOp20
 70
     1
102
RTVSPropertyOp21
 70
     1
102
RTVSPropertyOp22
 70
     1
102
RTVSPropertyOp23
 70
     1
102
RTVSPropertyOp24
 70
     1
102
RTVSPropertyOp25
 70
     1
102
RTVSPropertyOp26
 70
     1
102
RTVSPropertyOp27
 70
     1
102
RTVSPropertyOp28
 70
     1
102
RTVSPropertyOp29
 70
     1
102
RTVSPropertyOp30
 70
     1
102
RTVSPropertyOp31
 70
     1
102
RTVSPropertyOp32
 70
     1
102
RTVSPropertyOp33
 70
     1
102
RTVSPropertyOp34
 70
     1
102
RTVSPropertyOp35
 70
     1
102
RTVSPropertyOp36
 70
     1
102
RTVSPropertyOp37
 70
     1
102
RTVSPropertyOp38
 70
     1
102
RTVSPropertyOp39
 70
     1
102
RTVSPropertyOp40
 70
     1
102
RTVSPropertyOp41
 70
     1
102
RTVSPropertyOp42
 70
     1
102
RTVSPropertyOp43
 70
     1
102
RTVSPropertyOp44
 70
     1
102
RTVSPropertyOp45
 70
     1
102
RTVSPropertyOp46
 70
     1
102
RTVSPropertyOp47
 70
     1
102
RTVSPropertyOp48
 70
     1
102
RTVSPropertyOp49
 70
     1
102
RTVSPropertyOp50
 70
     1
102
RTVSPropertyOp51
 70
     0
102
RTVSPropertyOp52
 70
     0
102
RTVSPropertyOp53
 70
     1
102
RTVSPropertyOp54
 70
     1
102
RTVSPropertyOp55
 70
     1
102
RTVSPropertyOp56
 70
     1
102
RTVSPropertyOp57
 70
     1
102
RTVSPropertyOp58
 70
     1
102
RTVSPropertyOp59
 70
     1
102
RTVSPropertyOp60
 70
     1
102
RTVSPropertyOp61
 70
     1
102
RTVSPropertyOp62
 70
     1
  0
XRECORD
  5
485
102
{ACAD_REACTORS
330
484
102
}
330
484
100
AcDbXrecord
280
     1
102
RTVSPost2010Prop28
280
     0
102
RTVSPost2010PropOp28
 70
     1
102
RTVSPost2010Prop29
280
     1
102
RTVSPost2010PropOp29
 70
     1
102
RTVSPost2010Prop30
280
     1
102
RTVSPost2010PropOp30
 70
     1
102
RTVSPost2010Prop31
280
     0
102
RTVSPost2010PropOp31
 70
     1
102
RTVSPost2010Prop32
280
     0
102
RTVSPost2010PropOp32
 70
     1
102
RTVSPost2010Prop33
280
     0
102
RTVSPost2010PropOp33
 70
     1
102
RTVSPost2010Prop34
280
     0
102
RTVSPost2010PropOp34
 70
     1
102
RTVSPost2010Prop35
280
     0
102
RTVSPost2010PropOp35
 70
     1
102
RTVSPost2010Prop36
280
     0
102
RTVSPost2010PropOp36
 70
     1
102
RTVSPost2010Prop37
 90
       50
102
RTVSPost2010PropOp37
 70
     1
102
RTVSPost2010Prop38
140
0.0
102
RTVSPost2010PropOp38
 70
     1
102
RTVSPost2010Prop39
140
1.0
102
RTVSPost2010PropOp39
 70
     1
102
RTVSPost2010Prop40
 90
        0
102
RTVSPost2010PropOp40
 70
     1
102
RTVSPost2010Prop41ColorIndex
 90
       18
102
RTVSPost2010Prop41ColorRGB
 90
        0
102
RTVSPost2010PropOp41
 70
     1
102
RTVSPost2010Prop42
 90
       50
102
RTVSPost2010PropOp42
 70
     1
102
RTVSPost2010Prop43
 90
        3
102
RTVSPost2010PropOp43
 70
     1
102
RTVSPost2010Prop44ColorIndex
 90
        5
102
RTVSPost2010Prop44ColorRGB
 90
      255
102
RTVSPost2010PropOp44
 70
     1
102
RTVSPost2010Prop45
280
     0
102
RTVSPost2010PropOp45
 70
     1
102
RTVSPost2010Prop46
 90
       50
102
RTVSPost2010PropOp46
 70
     1
102
RTVSPost2010Prop47
 90
       50
102
RTVSPost2010PropOp47
 70
     1
102
RTVSPost2010Prop48
 90
       50
102
RTVSPost2010PropOp48
 70
     1
102
RTVSPost2010Prop49
280
     0
102
RTVSPost2010PropOp49
 70
     1
102
RTVSPost2010Prop50
 90
       50
102
RTVSPost2010PropOp50
 70
     1
102
RTVSPost2010Prop51ColorIndex
 90
      256
102
RTVSPost2010Prop51ColorRGB
 90
-16777216
102
RTVSPost2010PropOp51
 70
     0
102
RTVSPost2010Prop52
140
1.0
102
RTVSPost2010PropOp52
 70
     0
102
RTVSPost2010Prop53
 90
        2
102
RTVSPost2010PropOp53
 70
     1
102
RTVSPost2010Prop54
  1
strokes_ogs.tif
102
RTVSPost2010PropOp54
 70
     1
102
RTVSPost2010Prop55
280
     0
102
RTVSPost2010PropOp55
 70
     1
102
RTVSPost2010Prop56
140
1.0
102
RTVSPost2010PropOp56
 70
     1
102
RTVSPost2010Prop57
140
1.0
102
RTVSPost2010PropOp57
 70
     1
102
RTVSPropertyOp0
 70
     1
102
RTVSPropertyOp1
 70
     1
102
RTVSPropertyOp2
 70
     1
102
RTVSPropertyOp3
 70
     1
102
RTVSPropertyOp4
 70
     1
102
RTVSPropertyOp5
 70
     1
102
RTVSPropertyOp6
 70
     1
102
RTVSPropertyOp7
 70
     1
102
RTVSPropertyOp8
 70
     1
102
RTVSPropertyOp9
 70
     1
102
RTVSPropertyOp10
 70
     1
102
RTVSPropertyOp11
 70
     1
102
RTVSPropertyOp12
 70
     1
102
RTVSPropertyOp13
 70
     1
102
RTVSPropertyOp14
 70
     1
102
RTVSPropertyOp15
 70
     1
102
RTVSPropertyOp16
 70
     1
102
RTVSPropertyOp17
 70
     1
102
RTVSPropertyOp18
 70
     1
102
RTVSPropertyOp19
 70
     1
102
RTVSPropertyOp20
 70
     1
102
RTVSPropertyOp21
 70
     1
102
RTVSPropertyOp22
 70
     1
102
RTVSPropertyOp23
 70
     1
102
RTVSPropertyOp24
 70
     1
102
RTVSPropertyOp25
 70
     1
102
RTVSPropertyOp26
 70
     1
102
RTVSPropertyOp27
 70
     1
102
RTVSPropertyOp28
 70
     1
102
RTVSPropertyOp29
 70
     1
102
RTVSPropertyOp30
 70
     1
102
RTVSPropertyOp31
 70
     1
102
RTVSPropertyOp32
 70
     1
102
RTVSPropertyOp33
 70
     1
102
RTVSPropertyOp34
 70
     1
102
RTVSPropertyOp35
 70
     1
102
RTVSPropertyOp36
 70
     1
102
RTVSPropertyOp37
 70
     1
102
RTVSPropertyOp38
 70
     1
102
RTVSPropertyOp39
 70
     1
102
RTVSPropertyOp40
 70
     1
102
RTVSPropertyOp41
 70
     1
102
RTVSPropertyOp42
 70
     1
102
RTVSPropertyOp43
 70
     1
102
RTVSPropertyOp44
 70
     1
102
RTVSPropertyOp45
 70
     1
102
RTVSPropertyOp46
 70
     1
102
RTVSPropertyOp47
 70
     1
102
RTVSPropertyOp48
 70
     1
102
RTVSPropertyOp49
 70
     1
102
RTVSPropertyOp50
 70
     1
102
RTVSPropertyOp51
 70
     0
102
RTVSPropertyOp52
 70
     0
102
RTVSPropertyOp53
 70
     1
102
RTVSPropertyOp54
 70
     1
102
RTVSPropertyOp55
 70
     1
102
RTVSPropertyOp56
 70
     1
102
RTVSPropertyOp57
 70
     1
102
RTVSPropertyOp58
 70
     1
102
RTVSPropertyOp59
 70
     1
102
RTVSPropertyOp60
 70
     1
102
RTVSPropertyOp61
 70
     1
102
RTVSPropertyOp62
 70
     1
  0
XRECORD
  5
487
102
{ACAD_REACTORS
330
486
102
}
330
486
100
AcDbXrecord
280
     1
102
RTVSPost2010Prop28
280
     0
102
RTVSPost2010PropOp28
 70
     1
102
RTVSPost2010Prop29
280
     1
102
RTVSPost2010PropOp29
 70
     1
102
RTVSPost2010Prop30
280
     1
102
RTVSPost2010PropOp30
 70
     1
102
RTVSPost2010Prop31
280
     0
102
RTVSPost2010PropOp31
 70
     1
102
RTVSPost2010Prop32
280
     0
102
RTVSPost2010PropOp32
 70
     1
102
RTVSPost2010Prop33
280
     0
102
RTVSPost2010PropOp33
 70
     1
102
RTVSPost2010Prop34
280
     0
102
RTVSPost2010PropOp34
 70
     1
102
RTVSPost2010Prop35
280
     0
102
RTVSPost2010PropOp35
 70
     1
102
RTVSPost2010Prop36
280
     0
102
RTVSPost2010PropOp36
 70
     1
102
RTVSPost2010Prop37
 90
       50
102
RTVSPost2010PropOp37
 70
     1
102
RTVSPost2010Prop38
140
0.0
102
RTVSPost2010PropOp38
 70
     1
102
RTVSPost2010Prop39
140
1.0
102
RTVSPost2010PropOp39
 70
     1
102
RTVSPost2010Prop40
 90
        0
102
RTVSPost2010PropOp40
 70
     1
102
RTVSPost2010Prop41ColorIndex
 90
       18
102
RTVSPost2010Prop41ColorRGB
 90
        0
102
RTVSPost2010PropOp41
 70
     1
102
RTVSPost2010Prop42
 90
       50
102
RTVSPost2010PropOp42
 70
     1
102
RTVSPost2010Prop43
 90
        3
102
RTVSPost2010PropOp43
 70
     1
102
RTVSPost2010Prop44ColorIndex
 90
        5
102
RTVSPost2010Prop44ColorRGB
 90
      255
102
RTVSPost2010PropOp44
 70
     1
102
RTVSPost2010Prop45
280
     0
102
RTVSPost2010PropOp45
 70
     1
102
RTVSPost2010Prop46
 90
       50
102
RTVSPost2010PropOp46
 70
     1
102
RTVSPost2010Prop47
 90
       50
102
RTVSPost2010PropOp47
 70
     1
102
RTVSPost2010Prop48
 90
       50
102
RTVSPost2010PropOp48
 70
     1
102
RTVSPost2010Prop49
280
     0
102
RTVSPost2010PropOp49
 70
     1
102
RTVSPost2010Prop50
 90
       50
102
RTVSPost2010PropOp50
 70
     1
102
RTVSPost2010Prop51ColorIndex
 90
      256
102
RTVSPost2010Prop51ColorRGB
 90
-16777216
102
RTVSPost2010PropOp51
 70
     0
102
RTVSPost2010Prop52
140
1.0
102
RTVSPost2010PropOp52
 70
     0
102
RTVSPost2010Prop53
 90
        2
102
RTVSPost2010PropOp53
 70
     1
102
RTVSPost2010Prop54
  1
strokes_ogs.tif
102
RTVSPost2010PropOp54
 70
     1
102
RTVSPost2010Prop55
280
     0
102
RTVSPost2010PropOp55
 70
     1
102
RTVSPost2010Prop56
140
1.0
102
RTVSPost2010PropOp56
 70
     1
102
RTVSPost2010Prop57
140
1.0
102
RTVSPost2010PropOp57
 70
     1
102
RTVSPropertyOp0
 70
     1
102
RTVSPropertyOp1
 70
     1
102
RTVSPropertyOp2
 70
     1
102
RTVSPropertyOp3
 70
     1
102
RTVSPropertyOp4
 70
     1
102
RTVSPropertyOp5
 70
     1
102
RTVSPropertyOp6
 70
     1
102
RTVSPropertyOp7
 70
     1
102
RTVSPropertyOp8
 70
     1
102
RTVSPropertyOp9
 70
     1
102
RTVSPropertyOp10
 70
     1
102
RTVSPropertyOp11
 70
     1
102
RTVSPropertyOp12
 70
     1
102
RTVSPropertyOp13
 70
     1
102
RTVSPropertyOp14
 70
     1
102
RTVSPropertyOp15
 70
     1
102
RTVSPropertyOp16
 70
     1
102
RTVSPropertyOp17
 70
     1
102
RTVSPropertyOp18
 70
     1
102
RTVSPropertyOp19
 70
     1
102
RTVSPropertyOp20
 70
     1
102
RTVSPropertyOp21
 70
     1
102
RTVSPropertyOp22
 70
     1
102
RTVSPropertyOp23
 70
     1
102
RTVSPropertyOp24
 70
     1
102
RTVSPropertyOp25
 70
     1
102
RTVSPropertyOp26
 70
     1
102
RTVSPropertyOp27
 70
     1
102
RTVSPropertyOp28
 70
     1
102
RTVSPropertyOp29
 70
     1
102
RTVSPropertyOp30
 70
     1
102
RTVSPropertyOp31
 70
     1
102
RTVSPropertyOp32
 70
     1
102
RTVSPropertyOp33
 70
     1
102
RTVSPropertyOp34
 70
     1
102
RTVSPropertyOp35
 70
     1
102
RTVSPropertyOp36
 70
     1
102
RTVSPropertyOp37
 70
     1
102
RTVSPropertyOp38
 70
     1
102
RTVSPropertyOp39
 70
     1
102
RTVSPropertyOp40
 70
     1
102
RTVSPropertyOp41
 70
     1
102
RTVSPropertyOp42
 70
     1
102
RTVSPropertyOp43
 70
     1
102
RTVSPropertyOp44
 70
     1
102
RTVSPropertyOp45
 70
     1
102
RTVSPropertyOp46
 70
     1
102
RTVSPropertyOp47
 70
     1
102
RTVSPropertyOp48
 70
     1
102
RTVSPropertyOp49
 70
     1
102
RTVSPropertyOp50
 70
     1
102
RTVSPropertyOp51
 70
     0
102
RTVSPropertyOp52
 70
     0
102
RTVSPropertyOp53
 70
     1
102
RTVSPropertyOp54
 70
     1
102
RTVSPropertyOp55
 70
     1
102
RTVSPropertyOp56
 70
     1
102
RTVSPropertyOp57
 70
     1
102
RTVSPropertyOp58
 70
     1
102
RTVSPropertyOp59
 70
     1
102
RTVSPropertyOp60
 70
     1
102
RTVSPropertyOp61
 70
     1
102
RTVSPropertyOp62
 70
     1
  0
XRECORD
  5
47D
102
{ACAD_REACTORS
330
47C
102
}
330
47C
100
AcDbXrecord
280
     1
102
RTVSPost2010Prop28
280
     0
102
RTVSPost2010PropOp28
 70
     1
102
RTVSPost2010Prop29
280
     1
102
RTVSPost2010PropOp29
 70
     1
102
RTVSPost2010Prop30
280
     1
102
RTVSPost2010PropOp30
 70
     1
102
RTVSPost2010Prop31
280
     0
102
RTVSPost2010PropOp31
 70
     1
102
RTVSPost2010Prop32
280
     0
102
RTVSPost2010PropOp32
 70
     1
102
RTVSPost2010Prop33
280
     0
102
RTVSPost2010PropOp33
 70
     1
102
RTVSPost2010Prop34
280
     0
102
RTVSPost2010PropOp34
 70
     1
102
RTVSPost2010Prop35
280
     0
102
RTVSPost2010PropOp35
 70
     1
102
RTVSPost2010Prop36
280
     0
102
RTVSPost2010PropOp36
 70
     1
102
RTVSPost2010Prop37
 90
       50
102
RTVSPost2010PropOp37
 70
     1
102
RTVSPost2010Prop38
140
0.0
102
RTVSPost2010PropOp38
 70
     1
102
RTVSPost2010Prop39
140
1.0
102
RTVSPost2010PropOp39
 70
     1
102
RTVSPost2010Prop40
 90
        0
102
RTVSPost2010PropOp40
 70
     1
102
RTVSPost2010Prop41ColorIndex
 90
       18
102
RTVSPost2010Prop41ColorRGB
 90
        0
102
RTVSPost2010PropOp41
 70
     1
102
RTVSPost2010Prop42
 90
       50
102
RTVSPost2010PropOp42
 70
     1
102
RTVSPost2010Prop43
 90
        3
102
RTVSPost2010PropOp43
 70
     1
102
RTVSPost2010Prop44ColorIndex
 90
        5
102
RTVSPost2010Prop44ColorRGB
 90
      255
102
RTVSPost2010PropOp44
 70
     1
102
RTVSPost2010Prop45
280
     0
102
RTVSPost2010PropOp45
 70
     1
102
RTVSPost2010Prop46
 90
       50
102
RTVSPost2010PropOp46
 70
     1
102
RTVSPost2010Prop47
 90
       50
102
RTVSPost2010PropOp47
 70
     1
102
RTVSPost2010Prop48
 90
       50
102
RTVSPost2010PropOp48
 70
     1
102
RTVSPost2010Prop49
280
     0
102
RTVSPost2010PropOp49
 70
     1
102
RTVSPost2010Prop50
 90
       50
102
RTVSPost2010PropOp50
 70
     1
102
RTVSPost2010Prop51ColorIndex
 90
      256
102
RTVSPost2010Prop51ColorRGB
 90
-16777216
102
RTVSPost2010PropOp51
 70
     0
102
RTVSPost2010Prop52
140
1.0
102
RTVSPost2010PropOp52
 70
     0
102
RTVSPost2010Prop53
 90
        2
102
RTVSPost2010PropOp53
 70
     1
102
RTVSPost2010Prop54
  1
strokes_ogs.tif
102
RTVSPost2010PropOp54
 70
     1
102
RTVSPost2010Prop55
280
     0
102
RTVSPost2010PropOp55
 70
     1
102
RTVSPost2010Prop56
140
1.0
102
RTVSPost2010PropOp56
 70
     1
102
RTVSPost2010Prop57
140
1.0
102
RTVSPost2010PropOp57
 70
     1
102
RTVSPropertyOp0
 70
     1
102
RTVSPropertyOp1
 70
     1
102
RTVSPropertyOp2
 70
     1
102
RTVSPropertyOp3
 70
     1
102
RTVSPropertyOp4
 70
     1
102
RTVSPropertyOp5
 70
     1
102
RTVSPropertyOp6
 70
     1
102
RTVSPropertyOp7
 70
     1
102
RTVSPropertyOp8
 70
     1
102
RTVSPropertyOp9
 70
     1
102
RTVSPropertyOp10
 70
     1
102
RTVSPropertyOp11
 70
     1
102
RTVSPropertyOp12
 70
     1
102
RTVSPropertyOp13
 70
     1
102
RTVSPropertyOp14
 70
     1
102
RTVSPropertyOp15
 70
     1
102
RTVSPropertyOp16
 70
     1
102
RTVSPropertyOp17
 70
     1
102
RTVSPropertyOp18
 70
     1
102
RTVSPropertyOp19
 70
     1
102
RTVSPropertyOp20
 70
     1
102
RTVSPropertyOp21
 70
     1
102
RTVSPropertyOp22
 70
     1
102
RTVSPropertyOp23
 70
     1
102
RTVSPropertyOp24
 70
     1
102
RTVSPropertyOp25
 70
     1
102
RTVSPropertyOp26
 70
     1
102
RTVSPropertyOp27
 70
     1
102
RTVSPropertyOp28
 70
     1
102
RTVSPropertyOp29
 70
     1
102
RTVSPropertyOp30
 70
     1
102
RTVSPropertyOp31
 70
     1
102
RTVSPropertyOp32
 70
     1
102
RTVSPropertyOp33
 70
     1
102
RTVSPropertyOp34
 70
     1
102
RTVSPropertyOp35
 70
     1
102
RTVSPropertyOp36
 70
     1
102
RTVSPropertyOp37
 70
     1
102
RTVSPropertyOp38
 70
     1
102
RTVSPropertyOp39
 70
     1
102
RTVSPropertyOp40
 70
     1
102
RTVSPropertyOp41
 70
     1
102
RTVSPropertyOp42
 70
     1
102
RTVSPropertyOp43
 70
     1
102
RTVSPropertyOp44
 70
     1
102
RTVSPropertyOp45
 70
     1
102
RTVSPropertyOp46
 70
     1
102
RTVSPropertyOp47
 70
     1
102
RTVSPropertyOp48
 70
     1
102
RTVSPropertyOp49
 70
     1
102
RTVSPropertyOp50
 70
     1
102
RTVSPropertyOp51
 70
     0
102
RTVSPropertyOp52
 70
     0
102
RTVSPropertyOp53
 70
     1
102
RTVSPropertyOp54
 70
     1
102
RTVSPropertyOp55
 70
     1
102
RTVSPropertyOp56
 70
     1
102
RTVSPropertyOp57
 70
     1
102
RTVSPropertyOp58
 70
     1
102
RTVSPropertyOp59
 70
     1
102
RTVSPropertyOp60
 70
     1
102
RTVSPropertyOp61
 70
     1
102
RTVSPropertyOp62
 70
     1
  0
XRECORD
  5
471
102
{ACAD_REACTORS
330
470
102
}
330
470
100
AcDbXrecord
280
     1
102
RTVSPost2010Prop28
280
     0
102
RTVSPost2010PropOp28
 70
     1
102
RTVSPost2010Prop29
280
     1
102
RTVSPost2010PropOp29
 70
     1
102
RTVSPost2010Prop30
280
     1
102
RTVSPost2010PropOp30
 70
     1
102
RTVSPost2010Prop31
280
     0
102
RTVSPost2010PropOp31
 70
     1
102
RTVSPost2010Prop32
280
     0
102
RTVSPost2010PropOp32
 70
     1
102
RTVSPost2010Prop33
280
     0
102
RTVSPost2010PropOp33
 70
     1
102
RTVSPost2010Prop34
280
     0
102
RTVSPost2010PropOp34
 70
     1
102
RTVSPost2010Prop35
280
     0
102
RTVSPost2010PropOp35
 70
     1
102
RTVSPost2010Prop36
280
     0
102
RTVSPost2010PropOp36
 70
     1
102
RTVSPost2010Prop37
 90
       50
102
RTVSPost2010PropOp37
 70
     1
102
RTVSPost2010Prop38
140
0.0
102
RTVSPost2010PropOp38
 70
     1
102
RTVSPost2010Prop39
140
1.0
102
RTVSPost2010PropOp39
 70
     1
102
RTVSPost2010Prop40
 90
        0
102
RTVSPost2010PropOp40
 70
     1
102
RTVSPost2010Prop41ColorIndex
 90
       18
102
RTVSPost2010Prop41ColorRGB
 90
        0
102
RTVSPost2010PropOp41
 70
     1
102
RTVSPost2010Prop42
 90
       50
102
RTVSPost2010PropOp42
 70
     1
102
RTVSPost2010Prop43
 90
        3
102
RTVSPost2010PropOp43
 70
     1
102
RTVSPost2010Prop44ColorIndex
 90
        5
102
RTVSPost2010Prop44ColorRGB
 90
      255
102
RTVSPost2010PropOp44
 70
     1
102
RTVSPost2010Prop45
280
     0
102
RTVSPost2010PropOp45
 70
     1
102
RTVSPost2010Prop46
 90
       50
102
RTVSPost2010PropOp46
 70
     1
102
RTVSPost2010Prop47
 90
       50
102
RTVSPost2010PropOp47
 70
     1
102
RTVSPost2010Prop48
 90
       50
102
RTVSPost2010PropOp48
 70
     1
102
RTVSPost2010Prop49
280
     0
102
RTVSPost2010PropOp49
 70
     1
102
RTVSPost2010Prop50
 90
       50
102
RTVSPost2010PropOp50
 70
     1
102
RTVSPost2010Prop51ColorIndex
 90
      256
102
RTVSPost2010Prop51ColorRGB
 90
-16777216
102
RTVSPost2010PropOp51
 70
     0
102
RTVSPost2010Prop52
140
1.0
102
RTVSPost2010PropOp52
 70
     0
102
RTVSPost2010Prop53
 90
        2
102
RTVSPost2010PropOp53
 70
     1
102
RTVSPost2010Prop54
  1
strokes_ogs.tif
102
RTVSPost2010PropOp54
 70
     1
102
RTVSPost2010Prop55
280
     0
102
RTVSPost2010PropOp55
 70
     1
102
RTVSPost2010Prop56
140
1.0
102
RTVSPost2010PropOp56
 70
     1
102
RTVSPost2010Prop57
140
1.0
102
RTVSPost2010PropOp57
 70
     1
102
RTVSPropertyOp0
 70
     1
102
RTVSPropertyOp1
 70
     1
102
RTVSPropertyOp2
 70
     1
102
RTVSPropertyOp3
 70
     1
102
RTVSPropertyOp4
 70
     1
102
RTVSPropertyOp5
 70
     1
102
RTVSPropertyOp6
 70
     1
102
RTVSPropertyOp7
 70
     1
102
RTVSPropertyOp8
 70
     1
102
RTVSPropertyOp9
 70
     1
102
RTVSPropertyOp10
 70
     1
102
RTVSPropertyOp11
 70
     1
102
RTVSPropertyOp12
 70
     1
102
RTVSPropertyOp13
 70
     1
102
RTVSPropertyOp14
 70
     1
102
RTVSPropertyOp15
 70
     1
102
RTVSPropertyOp16
 70
     1
102
RTVSPropertyOp17
 70
     1
102
RTVSPropertyOp18
 70
     1
102
RTVSPropertyOp19
 70
     1
102
RTVSPropertyOp20
 70
     1
102
RTVSPropertyOp21
 70
     1
102
RTVSPropertyOp22
 70
     1
102
RTVSPropertyOp23
 70
     1
102
RTVSPropertyOp24
 70
     1
102
RTVSPropertyOp25
 70
     1
102
RTVSPropertyOp26
 70
     1
102
RTVSPropertyOp27
 70
     1
102
RTVSPropertyOp28
 70
     1
102
RTVSPropertyOp29
 70
     1
102
RTVSPropertyOp30
 70
     1
102
RTVSPropertyOp31
 70
     1
102
RTVSPropertyOp32
 70
     1
102
RTVSPropertyOp33
 70
     1
102
RTVSPropertyOp34
 70
     1
102
RTVSPropertyOp35
 70
     1
102
RTVSPropertyOp36
 70
     1
102
RTVSPropertyOp37
 70
     1
102
RTVSPropertyOp38
 70
     1
102
RTVSPropertyOp39
 70
     1
102
RTVSPropertyOp40
 70
     1
102
RTVSPropertyOp41
 70
     1
102
RTVSPropertyOp42
 70
     1
102
RTVSPropertyOp43
 70
     1
102
RTVSPropertyOp44
 70
     1
102
RTVSPropertyOp45
 70
     1
102
RTVSPropertyOp46
 70
     1
102
RTVSPropertyOp47
 70
     1
102
RTVSPropertyOp48
 70
     1
102
RTVSPropertyOp49
 70
     1
102
RTVSPropertyOp50
 70
     1
102
RTVSPropertyOp51
 70
     0
102
RTVSPropertyOp52
 70
     0
102
RTVSPropertyOp53
 70
     1
102
RTVSPropertyOp54
 70
     1
102
RTVSPropertyOp55
 70
     1
102
RTVSPropertyOp56
 70
     1
102
RTVSPropertyOp57
 70
     1
102
RTVSPropertyOp58
 70
     1
102
RTVSPropertyOp59
 70
     1
102
RTVSPropertyOp60
 70
     1
102
RTVSPropertyOp61
 70
     1
102
RTVSPropertyOp62
 70
     1
  0
XRECORD
  5
489
102
{ACAD_REACTORS
330
488
102
}
330
488
100
AcDbXrecord
280
     1
102
RTVSPost2010Prop28
280
     0
102
RTVSPost2010PropOp28
 70
     1
102
RTVSPost2010Prop29
280
     1
102
RTVSPost2010PropOp29
 70
     1
102
RTVSPost2010Prop30
280
     1
102
RTVSPost2010PropOp30
 70
     1
102
RTVSPost2010Prop31
280
     0
102
RTVSPost2010PropOp31
 70
     1
102
RTVSPost2010Prop32
280
     0
102
RTVSPost2010PropOp32
 70
     1
102
RTVSPost2010Prop33
280
     0
102
RTVSPost2010PropOp33
 70
     1
102
RTVSPost2010Prop34
280
     0
102
RTVSPost2010PropOp34
 70
     1
102
RTVSPost2010Prop35
280
     0
102
RTVSPost2010PropOp35
 70
     1
102
RTVSPost2010Prop36
280
     0
102
RTVSPost2010PropOp36
 70
     1
102
RTVSPost2010Prop37
 90
       50
102
RTVSPost2010PropOp37
 70
     1
102
RTVSPost2010Prop38
140
0.0
102
RTVSPost2010PropOp38
 70
     1
102
RTVSPost2010Prop39
140
1.0
102
RTVSPost2010PropOp39
 70
     1
102
RTVSPost2010Prop40
 90
        0
102
RTVSPost2010PropOp40
 70
     1
102
RTVSPost2010Prop41ColorIndex
 90
       18
102
RTVSPost2010Prop41ColorRGB
 90
        0
102
RTVSPost2010PropOp41
 70
     1
102
RTVSPost2010Prop42
 90
       50
102
RTVSPost2010PropOp42
 70
     1
102
RTVSPost2010Prop43
 90
        3
102
RTVSPost2010PropOp43
 70
     1
102
RTVSPost2010Prop44ColorIndex
 90
        5
102
RTVSPost2010Prop44ColorRGB
 90
      255
102
RTVSPost2010PropOp44
 70
     1
102
RTVSPost2010Prop45
280
     0
102
RTVSPost2010PropOp45
 70
     1
102
RTVSPost2010Prop46
 90
       50
102
RTVSPost2010PropOp46
 70
     1
102
RTVSPost2010Prop47
 90
       50
102
RTVSPost2010PropOp47
 70
     1
102
RTVSPost2010Prop48
 90
       50
102
RTVSPost2010PropOp48
 70
     1
102
RTVSPost2010Prop49
280
     0
102
RTVSPost2010PropOp49
 70
     1
102
RTVSPost2010Prop50
 90
       50
102
RTVSPost2010PropOp50
 70
     1
102
RTVSPost2010Prop51ColorIndex
 90
      256
102
RTVSPost2010Prop51ColorRGB
 90
-16777216
102
RTVSPost2010PropOp51
 70
     0
102
RTVSPost2010Prop52
140
1.0
102
RTVSPost2010PropOp52
 70
     0
102
RTVSPost2010Prop53
 90
        2
102
RTVSPost2010PropOp53
 70
     1
102
RTVSPost2010Prop54
  1
strokes_ogs.tif
102
RTVSPost2010PropOp54
 70
     1
102
RTVSPost2010Prop55
280
     0
102
RTVSPost2010PropOp55
 70
     1
102
RTVSPost2010Prop56
140
1.0
102
RTVSPost2010PropOp56
 70
     1
102
RTVSPost2010Prop57
140
1.0
102
RTVSPost2010PropOp57
 70
     1
102
RTVSPropertyOp0
 70
     1
102
RTVSPropertyOp1
 70
     1
102
RTVSPropertyOp2
 70
     1
102
RTVSPropertyOp3
 70
     1
102
RTVSPropertyOp4
 70
     1
102
RTVSPropertyOp5
 70
     1
102
RTVSPropertyOp6
 70
     1
102
RTVSPropertyOp7
 70
     1
102
RTVSPropertyOp8
 70
     1
102
RTVSPropertyOp9
 70
     1
102
RTVSPropertyOp10
 70
     1
102
RTVSPropertyOp11
 70
     1
102
RTVSPropertyOp12
 70
     1
102
RTVSPropertyOp13
 70
     1
102
RTVSPropertyOp14
 70
     1
102
RTVSPropertyOp15
 70
     1
102
RTVSPropertyOp16
 70
     1
102
RTVSPropertyOp17
 70
     1
102
RTVSPropertyOp18
 70
     1
102
RTVSPropertyOp19
 70
     1
102
RTVSPropertyOp20
 70
     1
102
RTVSPropertyOp21
 70
     1
102
RTVSPropertyOp22
 70
     1
102
RTVSPropertyOp23
 70
     1
102
RTVSPropertyOp24
 70
     1
102
RTVSPropertyOp25
 70
     1
102
RTVSPropertyOp26
 70
     1
102
RTVSPropertyOp27
 70
     1
102
RTVSPropertyOp28
 70
     1
102
RTVSPropertyOp29
 70
     1
102
RTVSPropertyOp30
 70
     1
102
RTVSPropertyOp31
 70
     1
102
RTVSPropertyOp32
 70
     1
102
RTVSPropertyOp33
 70
     1
102
RTVSPropertyOp34
 70
     1
102
RTVSPropertyOp35
 70
     1
102
RTVSPropertyOp36
 70
     1
102
RTVSPropertyOp37
 70
     1
102
RTVSPropertyOp38
 70
     1
102
RTVSPropertyOp39
 70
     1
102
RTVSPropertyOp40
 70
     1
102
RTVSPropertyOp41
 70
     1
102
RTVSPropertyOp42
 70
     1
102
RTVSPropertyOp43
 70
     1
102
RTVSPropertyOp44
 70
     1
102
RTVSPropertyOp45
 70
     1
102
RTVSPropertyOp46
 70
     1
102
RTVSPropertyOp47
 70
     1
102
RTVSPropertyOp48
 70
     1
102
RTVSPropertyOp49
 70
     1
102
RTVSPropertyOp50
 70
     1
102
RTVSPropertyOp51
 70
     0
102
RTVSPropertyOp52
 70
     0
102
RTVSPropertyOp53
 70
     1
102
RTVSPropertyOp54
 70
     1
102
RTVSPropertyOp55
 70
     1
102
RTVSPropertyOp56
 70
     1
102
RTVSPropertyOp57
 70
     1
102
RTVSPropertyOp58
 70
     1
102
RTVSPropertyOp59
 70
     1
102
RTVSPropertyOp60
 70
     1
102
RTVSPropertyOp61
 70
     1
102
RTVSPropertyOp62
 70
     1
  0
ENDSEC
  0
EOF
